  0
SECTION
  2
HEADER
  9
$ACADVER
  1
AC1027
  9
$DWGCODEPAGE
  3
ANSI_932
  9
$LTSCALE
 40
20.0
  9
$FILLMODE
 70
     1
  9
$CLAYER
  8
0
  9
$PDMODE
 70
     0
  9
$SPLFRAME
 70
     0
  9
$SPLINETYPE
 70
     6
  9
$SPLINESEGS
 70
     8
  9
$DIMASZ
 40
2.000000
  9
$DIMEXE
 40
1.500000
  9
$DIMEXO
 40
0.800000
  9
$DIMTAD
 70
     1
  9
$DIMTIH
 70
     0
  9
$DIMTOH
 70
     0
  9
$DIMTVP
 40
0.500000
  9
$DIMTXT
 40
3.100000
  9
$EXTMIN
 10
0.000000
 20
0.000000
 30
0.000000
  9
$EXTMAX
 10
297.000000
 20
420.000000
 30
0.000000
  9
$MEASUREMENT
 70
  1
  9
$LIMMIN
 10
0.000000
 20
0.000000
  9
$LIMMAX
 10
297.000000
 20
420.000000
  9
$HANDSEED
  5
3B8
  9
$LWDISPLAY
290
     0
  9
$DIMBLK
  1
_OPEN
  9
$DIMDEC
 70
     2
  9
$DIMADEC
 70
     2
  9
$DIMAUNIT
 70
     0
  9
$DIMZIN
 70
     8
  9
$DIMAZIN
 70
     2
  9
$DIMTOFL
 70
     1
  0
ENDSEC
  0
SECTION
  2
CLASSES
  0
ENDSEC
  0
SECTION
  2
TABLES
  0
TABLE
  2
VPORT
  5
37C
100
AcDbSymbolTable
 70
     1
  0
VPORT
  5
37D
100
AcDbSymbolTableRecord
100
AcDbViewportTableRecord
  2
*ACTIVE
 70
     0
 12
278.902276
 22
227.228092
 40
267.488497
 41
2.010571
  0
ENDTAB
  0
TABLE
  2
LTYPE
  5
37E
100
AcDbSymbolTable
 70
     3
  0
LTYPE
  5
37F
100
AcDbSymbolTableRecord
100
AcDbLinetypeTableRecord
  2
BYBLOCK
 70
     0
  3

 72
    65
 73
     0
 40
0.0
  0
LTYPE
  5
380
100
AcDbSymbolTableRecord
100
AcDbLinetypeTableRecord
  2
BYLAYER
 70
     0
  3

 72
    65
 73
     0
 40
0.0
  0
LTYPE
  5
381
100
AcDbSymbolTableRecord
100
AcDbLinetypeTableRecord
  2
CONTINUOUS
 70
     0
  3
Solid line (NEC CAE2D for Win R17.0 : 2023.05.26)
 72
    65
 73
     0
 40
0.0
  0
LTYPE
  5
382
100
AcDbSymbolTableRecord
100
AcDbLinetypeTableRecord
  2
DASHED
 70
     0
  3
__ __ __ __ __ __ __ __ __ __ __ __ __ _
 72
    65
 73
     2
 40
0.75
 49
0.5
 74
     0
 49
-0.25
 74
     0
  0
LTYPE
  5
383
100
AcDbSymbolTableRecord
100
AcDbLinetypeTableRecord
  2
CENTER
 70
     0
  3
____ _ ____ _ ____ _ ____ _ ____ _ ____
 72
    65
 73
     4
 40
2.0
 49
1.25
 74
     0
 49
-0.25
 74
     0
 49
0.25
 74
     0
 49
-0.25
 74
     0
  0
ENDTAB
  0
TABLE
  2
LAYER
  5
384
100
AcDbSymbolTable
 70
    21
  0
LAYER
  5
385
100
AcDbSymbolTableRecord
100
AcDbLayerTableRecord
  2
0
 70
     0
 62
     7
  6
CONTINUOUS
370
    -3
390

  0
LAYER
  5
386
100
AcDbSymbolTableRecord
100
AcDbLayerTableRecord
  2
A0
 70
     0
 62
     9
  6
CONTINUOUS
370
    -3
390

  0
LAYER
  5
387
100
AcDbSymbolTableRecord
100
AcDbLayerTableRecord
  2
A2
 70
     0
 62
     9
  6
CONTINUOUS
370
    -3
390

  0
LAYER
  5
388
100
AcDbSymbolTableRecord
100
AcDbLayerTableRecord
  2
A3
 70
     0
 62
    12
  6
CONTINUOUS
370
    -3
390

  0
LAYER
  5
389
100
AcDbSymbolTableRecord
100
AcDbLayerTableRecord
  2
A4
 70
     0
 62
     9
  6
CONTINUOUS
370
    -3
390

  0
LAYER
  5
38A
100
AcDbSymbolTableRecord
100
AcDbLayerTableRecord
  2
A5
 70
     0
 62
     8
  6
CONTINUOUS
370
    -3
390

  0
LAYER
  5
38B
100
AcDbSymbolTableRecord
100
AcDbLayerTableRecord
  2
A6
 70
     0
 62
    12
  6
CONTINUOUS
370
    -3
390

  0
LAYER
  5
38C
100
AcDbSymbolTableRecord
100
AcDbLayerTableRecord
  2
A7
 70
     0
 62
    12
  6
CONTINUOUS
370
    -3
390

  0
LAYER
  5
38D
100
AcDbSymbolTableRecord
100
AcDbLayerTableRecord
  2
A8
 70
     0
 62
    10
  6
CONTINUOUS
370
    -3
390

  0
LAYER
  5
38E
100
AcDbSymbolTableRecord
100
AcDbLayerTableRecord
  2
A10
 70
     0
 62
     6
  6
CONTINUOUS
370
    -3
390

  0
LAYER
  5
38F
100
AcDbSymbolTableRecord
100
AcDbLayerTableRecord
  2
A12
 70
     0
 62
    13
  6
CONTINUOUS
370
    -3
390

  0
LAYER
  5
390
100
AcDbSymbolTableRecord
100
AcDbLayerTableRecord
  2
A13
 70
     0
 62
    11
  6
CONTINUOUS
370
    -3
390

  0
LAYER
  5
391
100
AcDbSymbolTableRecord
100
AcDbLayerTableRecord
  2
A18
 70
     0
 62
     7
  6
CONTINUOUS
370
    -3
390

  0
LAYER
  5
392
100
AcDbSymbolTableRecord
100
AcDbLayerTableRecord
  2
A19
 70
     0
 62
     5
  6
CONTINUOUS
370
    -3
390

  0
LAYER
  5
393
100
AcDbSymbolTableRecord
100
AcDbLayerTableRecord
  2
A20
 70
     0
 62
     1
  6
CONTINUOUS
370
    -3
390

  0
LAYER
  5
394
100
AcDbSymbolTableRecord
100
AcDbLayerTableRecord
  2
A29
 70
     0
 62
    80
  6
CONTINUOUS
370
    -3
390

  0
LAYER
  5
395
100
AcDbSymbolTableRecord
100
AcDbLayerTableRecord
  2
A30
 70
     0
 62
     1
  6
CONTINUOUS
370
    -3
390

  0
LAYER
  5
396
100
AcDbSymbolTableRecord
100
AcDbLayerTableRecord
  2
A40
 70
     0
 62
     9
  6
CONTINUOUS
370
    -3
390

  0
LAYER
  5
397
100
AcDbSymbolTableRecord
100
AcDbLayerTableRecord
  2
A46
 70
     0
 62
    14
  6
CONTINUOUS
370
    -3
390

  0
LAYER
  5
398
100
AcDbSymbolTableRecord
100
AcDbLayerTableRecord
  2
A50
 70
     0
 62
    12
  6
CONTINUOUS
370
    -3
390

  0
LAYER
  5
399
100
AcDbSymbolTableRecord
100
AcDbLayerTableRecord
  2
A1023
 70
     0
 62
    16
  6
CONTINUOUS
370
    -3
390

  0
ENDTAB
  0
TABLE
  2
STYLE
  5
39A
100
AcDbSymbolTable
 70
     4
  0
STYLE
  5
39B
100
AcDbSymbolTableRecord
100
AcDbTextStyleTableRecord
  2
STANDARD
 70
    64
 40
0.0
 41
1.0
 50
0.0
 71
     0
 42
3.000000000000000
  3
TXT
  4

  0
STYLE
  5
39C
100
AcDbSymbolTableRecord
100
AcDbTextStyleTableRecord
  2
ANKTATE
 70
    68
 40
0.0
 41
1.0
 50
0.0
 71
     0
 42
3.000000000000000
  3
TXT
  4

  0
STYLE
  5
39D
100
AcDbSymbolTableRecord
100
AcDbTextStyleTableRecord
  2
KNJYOKO
 70
    64
 40
0.0
 41
1.0
 50
0.0
 71
     0
 42
3.000000000000000
  3
TXT
  4
BIGFONT
  0
STYLE
  5
39E
100
AcDbSymbolTableRecord
100
AcDbTextStyleTableRecord
  2
KNJTATE
 70
    68
 40
0.0
 41
1.0
 50
0.0
 71
     0
 42
3.000000000000000
  3
TXT
  4
BIGFONT
  0
ENDTAB
  0
TABLE
  2
VIEW
  5
39F
100
AcDbSymbolTable
 70
     0
  0
ENDTAB
  0
TABLE
  2
UCS
  5
3A0
100
AcDbSymbolTable
 70
     0
  0
ENDTAB
  0
TABLE
  2
APPID
  5
3A1
100
AcDbSymbolTable
 70
     1
  0
APPID
  5
3A2
100
AcDbSymbolTableRecord
100
AcDbRegAppTableRecord
  2
ACAD
 70
     0
  0
ENDTAB
  0
TABLE
  2
DIMSTYLE
  5
3A3
100
AcDbSymbolTable
 70
     2
100
AcDbDimStyleTable
  0
DIMSTYLE
105
3A4
100
AcDbSymbolTableRecord
100
AcDbDimStyleTableRecord
  2
STANDARD
 70
     0
 41
2.000000
 44
1.500000
 42
0.800000
145
0.661290
140
3.100000
144
1.000000
146
0.645161
340
39B
  0
DIMSTYLE
105
3A5
100
AcDbSymbolTableRecord
100
AcDbDimStyleTableRecord
  2
A001
 70
     0
 41
2.000000
 44
1.500000
 42
0.800000
145
0.661290
140
3.100000
144
1.000000
146
0.645161
 77
     1
 73
     0
 74
     0
271
     2
179
     2
275
     0
 78
     8
 79
     2
172
     1
340
39B
  0
ENDTAB
  0
TABLE
  2
BLOCK_RECORD
  5
3A6
100
AcDbSymbolTable
 70
    12
  0
BLOCK_RECORD
  5
3A7
100
AcDbSymbolTableRecord
100
AcDbBlockTableRecord
  2
*MODEL_SPACE
  0
BLOCK_RECORD
  5
3A8
100
AcDbSymbolTableRecord
100
AcDbBlockTableRecord
  2
*PAPER_SPACE
  0
BLOCK_RECORD
  5
3A9
100
AcDbSymbolTableRecord
100
AcDbBlockTableRecord
  2
*PAPER_SPACE0
  0
BLOCK_RECORD
  5
1
100
AcDbSymbolTableRecord
100
AcDbBlockTableRecord
  2
_NONE
  0
BLOCK_RECORD
  5
4
100
AcDbSymbolTableRecord
100
AcDbBlockTableRecord
  2
_CLOSED
  0
BLOCK_RECORD
  5
B
100
AcDbSymbolTableRecord
100
AcDbBlockTableRecord
  2
_DOT
  0
BLOCK_RECORD
  5
13
100
AcDbSymbolTableRecord
100
AcDbBlockTableRecord
  2
_OPEN
  0
BLOCK_RECORD
  5
19
100
AcDbSymbolTableRecord
100
AcDbBlockTableRecord
  2
_ORIGIN
  0
BLOCK_RECORD
  5
1E
100
AcDbSymbolTableRecord
100
AcDbBlockTableRecord
  2
_OPEN30
  0
BLOCK_RECORD
  5
24
100
AcDbSymbolTableRecord
100
AcDbBlockTableRecord
  2
_BOXFILLED
  0
BLOCK_RECORD
  5
29
100
AcDbSymbolTableRecord
100
AcDbBlockTableRecord
  2
_BOXBLANK
  0
BLOCK_RECORD
  5
31
100
AcDbSymbolTableRecord
100
AcDbBlockTableRecord
  2
_OBLIQUE
  0
BLOCK_RECORD
  5
35
100
AcDbSymbolTableRecord
100
AcDbBlockTableRecord
  2
_OPEN90
  0
BLOCK_RECORD
  5
3B
100
AcDbSymbolTableRecord
100
AcDbBlockTableRecord
  2
_CLOSEDBLANK
  0
BLOCK_RECORD
  5
41
100
AcDbSymbolTableRecord
100
AcDbBlockTableRecord
  2
_DOTBLANK
  0
ENDTAB
  0
ENDSEC
  0
SECTION
  2
BLOCKS
  0
BLOCK
  5
3AA
100
AcDbEntity
  8
0
100
AcDbBlockBegin
  2
*MODEL_SPACE
 70
     0
 10
0.0
 20
0.0
 30
0.0
  3
*MODEL_SPACE
  1

  0
ENDBLK
  5
3AB
100
AcDbEntity
  8
0
100
AcDbBlockEnd
  0
BLOCK
  5
3AC
100
AcDbEntity
  8
0
100
AcDbBlockBegin
  2
*PAPER_SPACE
 70
     0
 10
0.0
 20
0.0
 30
0.0
  3
*PAPER_SPACE
  1

  0
ENDBLK
  5
3AD
100
AcDbEntity
  8
0
100
AcDbBlockEnd
  0
BLOCK
  5
3AE
100
AcDbEntity
  8
0
100
AcDbBlockBegin
  2
*PAPER_SPACE0
 70
     0
 10
0.0
 20
0.0
 30
0.0
  3
*PAPER_SPACE0
  1

  0
ENDBLK
  5
3AF
100
AcDbEntity
  8
0
100
AcDbBlockEnd
  0
BLOCK
  5
2
330
1
100
AcDbEntity
  8
0
100
AcDbBlockBegin
  2
_NONE
 70
     0
 10
0.0
 20
0.0
 30
0.0
  3
_NONE
  1

  0
ENDBLK
  5
3
330
1
100
AcDbEntity
  8
0
100
AcDbBlockEnd
  0
BLOCK
  5
5
330
4
100
AcDbEntity
  8
0
100
AcDbBlockBegin
  2
_CLOSED
 70
     0
 10
0.0
 20
0.0
 30
0.0
  3
_CLOSED
  1

  0
LINE
  5
6
330
4
100
AcDbEntity
  8
0
  6
BYBLOCK
 62
     0
370
    -2
100
AcDbLine
 10
-1.0
 20
0.166667
 30
0.0
 11
0.0
 21
0.0
 31
0.0
  0
LINE
  5
7
330
4
100
AcDbEntity
  8
0
  6
BYBLOCK
 62
     0
370
    -2
100
AcDbLine
 10
0.0
 20
0.0
 30
0.0
 11
-1.0
 21
-0.166667
 31
0.0
  0
LINE
  5
8
330
4
100
AcDbEntity
  8
0
  6
BYBLOCK
 62
     0
370
    -2
100
AcDbLine
 10
-1.0
 20
0.166667
 30
0.0
 11
-1.0
 21
-0.166667
 31
0.0
  0
LINE
  5
9
330
4
100
AcDbEntity
  8
0
  6
BYBLOCK
 62
     0
370
    -2
100
AcDbLine
 10
0.0
 20
0.0
 30
0.0
 11
-1.0
 21
0.0
 31
0.0
  0
ENDBLK
  5
A
330
4
100
AcDbEntity
  8
0
100
AcDbBlockEnd
  0
BLOCK
  5
C
330
B
100
AcDbEntity
  8
0
100
AcDbBlockBegin
  2
_DOT
 70
     0
 10
0.0
 20
0.0
 30
0.0
  3
_DOT
  1

  0
POLYLINE
  5
D
330
B
100
AcDbEntity
  8
0
  6
BYBLOCK
 62
     0
370
    -2
100
AcDb2dPolyline
 66
     1
 10
0.0
 20
0.0
 30
0.0
 70
     1
 40
0.5
 41
0.5
  0
VERTEX
  5
E
330
B
100
AcDbEntity
  8
0
  6
BYBLOCK
 62
     0
370
    -2
100
AcDbVertex
100
AcDb2dVertex
 10
-0.25
 20
0.0
 30
0.0
 42
1.0
  0
VERTEX
  5
F
330
B
100
AcDbEntity
  8
0
  6
BYBLOCK
 62
     0
370
    -2
100
AcDbVertex
100
AcDb2dVertex
 10
0.25
 20
0.0
 30
0.0
 42
1.0
  0
SEQEND
  5
10
330
B
100
AcDbEntity
  8
0
  6
BYBLOCK
 62
     0
370
    -2
  0
LINE
  5
11
330
B
100
AcDbEntity
  8
0
  6
BYBLOCK
 62
     0
370
    -2
100
AcDbLine
 10
-0.5
 20
0.0
 30
0.0
 11
-1.0
 21
0.0
 31
0.0
  0
ENDBLK
  5
12
330
B
100
AcDbEntity
  8
0
100
AcDbBlockEnd
  0
BLOCK
  5
14
330
13
100
AcDbEntity
  8
0
100
AcDbBlockBegin
  2
_OPEN
 70
     0
 10
0.0
 20
0.0
 30
0.0
  3
_OPEN
  1

  0
LINE
  5
15
330
13
100
AcDbEntity
  8
0
  6
BYBLOCK
 62
     0
370
    -2
100
AcDbLine
 10
-1.0
 20
0.166667
 30
0.0
 11
0.0
 21
0.0
 31
0.0
  0
LINE
  5
16
330
13
100
AcDbEntity
  8
0
  6
BYBLOCK
 62
     0
370
    -2
100
AcDbLine
 10
0.0
 20
0.0
 30
0.0
 11
-1.0
 21
-0.166667
 31
0.0
  0
LINE
  5
17
330
13
100
AcDbEntity
  8
0
  6
BYBLOCK
 62
     0
370
    -2
100
AcDbLine
 10
0.0
 20
0.0
 30
0.0
 11
-1.0
 21
0.0
 31
0.0
  0
ENDBLK
  5
18
330
13
100
AcDbEntity
  8
0
100
AcDbBlockEnd
  0
BLOCK
  5
1A
330
19
100
AcDbEntity
  8
0
100
AcDbBlockBegin
  2
_ORIGIN
 70
     0
 10
0.0
 20
0.0
 30
0.0
  3
_ORIGIN
  1

  0
CIRCLE
  5
1B
330
19
100
AcDbEntity
  8
0
  6
BYBLOCK
 62
     0
370
    -2
100
AcDbCircle
 10
0.0
 20
0.0
 30
0.0
 40
0.5
  0
LINE
  5
1C
330
19
100
AcDbEntity
  8
0
  6
BYBLOCK
 62
     0
370
    -2
100
AcDbLine
 10
0.0
 20
0.0
 30
0.0
 11
-1.0
 21
0.0
 31
0.0
  0
ENDBLK
  5
1D
330
19
100
AcDbEntity
  8
0
100
AcDbBlockEnd
  0
BLOCK
  5
1F
330
1E
100
AcDbEntity
  8
0
100
AcDbBlockBegin
  2
_OPEN30
 70
     0
 10
0.0
 20
0.0
 30
0.0
  3
_OPEN30
  1

  0
LINE
  5
20
330
1E
100
AcDbEntity
  8
0
  6
BYBLOCK
 62
     0
370
    -2
100
AcDbLine
 10
-1.0
 20
0.267949
 30
0.0
 11
0.0
 21
0.0
 31
0.0
  0
LINE
  5
21
330
1E
100
AcDbEntity
  8
0
  6
BYBLOCK
 62
     0
370
    -2
100
AcDbLine
 10
0.0
 20
0.0
 30
0.0
 11
-1.0
 21
-0.267949
 31
0.0
  0
LINE
  5
22
330
1E
100
AcDbEntity
  8
0
  6
BYBLOCK
 62
     0
370
    -2
100
AcDbLine
 10
0.0
 20
0.0
 30
0.0
 11
-1.0
 21
0.0
 31
0.0
  0
ENDBLK
  5
23
330
1E
100
AcDbEntity
  8
0
100
AcDbBlockEnd
  0
BLOCK
  5
25
330
24
100
AcDbEntity
  8
0
100
AcDbBlockBegin
  2
_BOXFILLED
 70
     0
 10
0.0
 20
0.0
 30
0.0
  3
_BOXFILLED
  1

  0
SOLID
  5
26
330
24
100
AcDbEntity
  8
0
  6
BYBLOCK
 62
     0
370
    -2
100
AcDbTrace
 10
-0.5
 20
0.5
 30
0.0
 11
0.5
 21
0.5
 31
0.0
 12
-0.5
 22
-0.5
 32
0.0
 13
0.5
 23
-0.5
 33
0.0
  0
LINE
  5
27
330
24
100
AcDbEntity
  8
0
  6
BYBLOCK
 62
     0
370
    -2
100
AcDbLine
 10
-0.5
 20
0.0
 30
0.0
 11
-1.0
 21
0.0
 31
0.0
  0
ENDBLK
  5
28
330
24
100
AcDbEntity
  8
0
100
AcDbBlockEnd
  0
BLOCK
  5
2A
330
29
100
AcDbEntity
  8
0
100
AcDbBlockBegin
  2
_BOXBLANK
 70
     0
 10
0.0
 20
0.0
 30
0.0
  3
_BOXBLANK
  1

  0
LINE
  5
2B
330
29
100
AcDbEntity
  8
0
  6
BYBLOCK
 62
     0
370
    -2
100
AcDbLine
 10
-0.5
 20
-0.5
 30
0.0
 11
0.5
 21
-0.5
 31
0.0
  0
LINE
  5
2C
330
29
100
AcDbEntity
  8
0
  6
BYBLOCK
 62
     0
370
    -2
100
AcDbLine
 10
0.5
 20
-0.5
 30
0.0
 11
0.5
 21
0.5
 31
0.0
  0
LINE
  5
2D
330
29
100
AcDbEntity
  8
0
  6
BYBLOCK
 62
     0
370
    -2
100
AcDbLine
 10
0.5
 20
0.5
 30
0.0
 11
-0.5
 21
0.5
 31
0.0
  0
LINE
  5
2E
330
29
100
AcDbEntity
  8
0
  6
BYBLOCK
 62
     0
370
    -2
100
AcDbLine
 10
-0.5
 20
0.5
 30
0.0
 11
-0.5
 21
-0.5
 31
0.0
  0
LINE
  5
2F
330
29
100
AcDbEntity
  8
0
  6
BYBLOCK
 62
     0
370
    -2
100
AcDbLine
 10
-0.5
 20
0.0
 30
0.0
 11
-1.0
 21
0.0
 31
0.0
  0
ENDBLK
  5
30
330
29
100
AcDbEntity
  8
0
100
AcDbBlockEnd
  0
BLOCK
  5
32
330
31
100
AcDbEntity
  8
0
100
AcDbBlockBegin
  2
_OBLIQUE
 70
     0
 10
0.0
 20
0.0
 30
0.0
  3
_OBLIQUE
  1

  0
LINE
  5
33
330
31
100
AcDbEntity
  8
0
  6
BYBLOCK
 62
     0
370
    -2
100
AcDbLine
 10
-0.5
 20
-0.5
 30
0.0
 11
0.5
 21
0.5
 31
0.0
  0
ENDBLK
  5
34
330
31
100
AcDbEntity
  8
0
100
AcDbBlockEnd
  0
BLOCK
  5
36
330
35
100
AcDbEntity
  8
0
100
AcDbBlockBegin
  2
_OPEN90
 70
     0
 10
0.0
 20
0.0
 30
0.0
  3
_OPEN90
  1

  0
LINE
  5
37
330
35
100
AcDbEntity
  8
0
  6
BYBLOCK
 62
     0
370
    -2
100
AcDbLine
 10
-0.5
 20
0.5
 30
0.0
 11
0.0
 21
0.0
 31
0.0
  0
LINE
  5
38
330
35
100
AcDbEntity
  8
0
  6
BYBLOCK
 62
     0
370
    -2
100
AcDbLine
 10
0.0
 20
0.0
 30
0.0
 11
-0.5
 21
-0.5
 31
0.0
  0
LINE
  5
39
330
35
100
AcDbEntity
  8
0
  6
BYBLOCK
 62
     0
370
    -2
100
AcDbLine
 10
0.0
 20
0.0
 30
0.0
 11
-1.0
 21
0.0
 31
0.0
  0
ENDBLK
  5
3A
330
35
100
AcDbEntity
  8
0
100
AcDbBlockEnd
  0
BLOCK
  5
3C
330
3B
100
AcDbEntity
  8
0
100
AcDbBlockBegin
  2
_CLOSEDBLANK
 70
     0
 10
0.0
 20
0.0
 30
0.0
  3
_CLOSEDBLANK
  1

  0
LINE
  5
3D
330
3B
100
AcDbEntity
  8
0
  6
BYBLOCK
 62
     0
370
    -2
100
AcDbLine
 10
-1.0
 20
0.1666666666666666
 30
0.0
 11
0.0
 21
0.0
 31
0.0
  0
LINE
  5
3E
330
3B
100
AcDbEntity
  8
0
  6
BYBLOCK
 62
     0
370
    -2
100
AcDbLine
 10
0.0
 20
0.0
 30
0.0
 11
-1.0
 21
-0.1666666666666666
 31
0.0
  0
LINE
  5
3F
330
3B
100
AcDbEntity
  8
0
  6
BYBLOCK
 62
     0
370
    -2
100
AcDbLine
 10
-1.0
 20
0.1666666666666666
 30
0.0
 11
-1.0
 21
-0.1666666666666666
 31
0.0
  0
ENDBLK
  5
40
330
3B
100
AcDbEntity
  8
0
100
AcDbBlockEnd
  0
BLOCK
  5
42
330
41
100
AcDbEntity
  8
0
100
AcDbBlockBegin
  2
_DOTBLANK
 70
     0
 10
0.0
 20
0.0
 30
0.0
  3
_DOTBLANK
  1

  0
CIRCLE
  5
43
330
41
100
AcDbEntity
  8
0
  6
BYBLOCK
 62
     0
370
    -2
100
AcDbCircle
 10
0.0
 20
0.0
 30
0.0
 40
0.5
  0
LINE
  5
44
330
41
100
AcDbEntity
  8
0
  6
BYBLOCK
 62
     0
370
    -2
100
AcDbLine
 10
-0.5
 20
0.0
 30
0.0
 11
-1.0
 21
0.0
 31
0.0
  0
ENDBLK
  5
45
330
41
100
AcDbEntity
  8
0
100
AcDbBlockEnd
  0
ENDSEC
  0
SECTION
  2
ENTITIES
  0
MTEXT
  5
46
100
AcDbEntity
  8
A3
  6
CONTINUOUS
 62
3
100
AcDbMText
 10
9.999997526638502
 20
93.48384308868222
 30
0.000000000000000
 40
3.000000000000000
 41
0.000000000000000
 44
0.6739999771118164
 71
     7
 72
     1
  1
{\H0.93x;{TYPE No.LD-0055}}
 11
1.000000000000000
 21
0.000000000000000
 31
0.000000000000000
  7
STANDARD
  0
POINT
  5
47
100
AcDbEntity
  8
A0
  6
CONTINUOUS
 62
3
100
AcDbPoint
 10
9.999997526638502
 20
93.48384308868222
 30
0.000000000000000
  0
ARC
  5
48
100
AcDbEntity
  8
A3
  6
CONTINUOUS
 62
7
100
AcDbCircle
 10
309.1006826999208
 20
272.7895524576543
 30
0.000000000000000
 40
0.5000000000000000
100
AcDbArc
 50
180.0000000000002
 51
269.9999999999947
  0
ARC
  5
49
100
AcDbEntity
  8
A3
  6
CONTINUOUS
 62
7
100
AcDbCircle
 10
309.1006826999208
 20
281.7895524576543
 30
0.000000000000000
 40
0.5000000000000000
100
AcDbArc
 50
90.00000000000527
 51
180.0000000000000
  0
ARC
  5
4A
100
AcDbEntity
  8
A3
  6
CONTINUOUS
 62
7
100
AcDbCircle
 10
309.1006826999205
 20
248.2895524576208
 30
0.000000000000000
 40
0.5000000000000000
100
AcDbArc
 50
90.00000000000020
 51
180.0000000000002
  0
ARC
  5
4B
100
AcDbEntity
  8
A3
  6
CONTINUOUS
 62
7
100
AcDbCircle
 10
309.1006826999205
 20
239.2895524576208
 30
0.000000000000000
 40
0.5000000000000000
100
AcDbArc
 50
180.0000000000000
 51
270.0000000000000
  0
ARC
  5
4C
100
AcDbEntity
  8
A3
  6
CONTINUOUS
 62
7
100
AcDbCircle
 10
311.0006826999206
 20
258.2895524575963
 30
0.000000000000000
 40
1.000000000000000
100
AcDbArc
 50
90.00000000000000
 51
180.0000000000000
  0
LINE
  5
4D
100
AcDbEntity
  8
A3
  6
CONTINUOUS
 62
7
100
AcDbLine
 10
318.4006826999112
 20
261.4706716609970
 30
0.000000000000000
 11
326.3006826999749
 21
261.4706716609970
 31
0.000000000000000
  0
LINE
  5
4E
100
AcDbEntity
  8
A3
  6
CONTINUOUS
 62
7
100
AcDbLine
 10
318.4006826999112
 20
260.4732129611664
 30
0.000000000000000
 11
326.3006826999749
 21
260.4732129611664
 31
0.000000000000000
  0
LINE
  5
4F
100
AcDbEntity
  8
A3
  6
CONTINUOUS
 62
7
100
AcDbLine
 10
308.6006826999208
 20
272.7895524576542
 30
0.000000000000000
 11
308.6006826999208
 21
281.7895524576542
 31
0.000000000000000
  0
LINE
  5
50
100
AcDbEntity
  8
A3
  6
CONTINUOUS
 62
7
100
AcDbLine
 10
309.1006826999205
 20
248.7895524576208
 30
0.000000000000000
 11
310.0006826999206
 21
248.7895524576208
 31
0.000000000000000
  0
LINE
  5
51
100
AcDbEntity
  8
A3
  6
CONTINUOUS
 62
7
100
AcDbLine
 10
309.1006826999205
 20
238.7895524576208
 30
0.000000000000000
 11
310.0006826999206
 21
238.7895524576208
 31
0.000000000000000
  0
LINE
  5
52
100
AcDbEntity
  8
A3
  6
CONTINUOUS
 62
7
100
AcDbLine
 10
326.3006826999749
 20
221.7895524576161
 30
0.000000000000000
 11
326.3006826999749
 21
295.7895524578037
 31
0.000000000000000
  0
LINE
  5
53
100
AcDbEntity
  8
A3
  6
CONTINUOUS
 62
7
100
AcDbLine
 10
308.5006826999206
 20
220.7895524576161
 30
0.000000000000000
 11
325.3006826999749
 21
220.7895524576161
 31
0.000000000000000
  0
LINE
  5
54
100
AcDbEntity
  8
A3
  6
CONTINUOUS
 62
7
100
AcDbLine
 10
310.0006826999208
 20
220.7895524576162
 30
0.000000000000000
 11
310.0006826999207
 21
238.7895524576207
 31
0.000000000000000
  0
LINE
  5
55
100
AcDbEntity
  8
A3
  6
CONTINUOUS
 62
7
100
AcDbLine
 10
310.0006826999206
 20
259.2895524575921
 30
0.000000000000000
 11
325.8006826999746
 21
259.2895524575951
 31
0.000000000000000
  0
LINE
  5
56
100
AcDbEntity
  8
A3
  6
CONTINUOUS
 62
7
100
AcDbLine
 10
308.6006826999208
 20
239.2895524576208
 30
0.000000000000000
 11
308.6006826999208
 21
248.2895524576208
 31
0.000000000000000
  0
ARC
  5
57
100
AcDbEntity
  8
A3
  6
CONTINUOUS
 62
7
100
AcDbCircle
 10
325.3006826999749
 20
295.7895524578037
 30
0.000000000000000
 40
1.000000000000000
100
AcDbArc
 50
0.000000000000000
 51
90.00000000000000
  0
ARC
  5
58
100
AcDbEntity
  8
A3
  6
CONTINUOUS
 62
7
100
AcDbCircle
 10
325.3006826999749
 20
221.7895524576161
 30
0.000000000000000
 40
1.000000000000000
100
AcDbArc
 50
270.0000000000000
 51
360.0000000000000
  0
ARC
  5
59
100
AcDbEntity
  8
A3
  6
CONTINUOUS
 62
7
100
AcDbCircle
 10
325.8006826999749
 20
267.7895524576057
 30
0.000000000000000
 40
0.5000000000000000
100
AcDbArc
 50
270.0000000000000
 51
360.0000000000000
  0
ARC
  5
5A
100
AcDbEntity
  8
A3
  6
CONTINUOUS
 62
7
100
AcDbCircle
 10
325.8006826999749
 20
258.7895524575952
 30
0.000000000000000
 40
0.5000000000000000
100
AcDbArc
 50
0.000000000000000
 51
90.00000000000000
  0
LINE
  5
5B
100
AcDbEntity
  8
A3
  6
CONTINUOUS
 62
7
100
AcDbLine
 10
308.5006826999206
 20
220.7895524576161
 30
0.000000000000000
 11
308.5006826999206
 21
296.7895524578096
 31
0.000000000000000
  0
LINE
  5
5C
100
AcDbEntity
  8
A3
  6
CONTINUOUS
 62
7
100
AcDbLine
 10
308.5006826999206
 20
238.7395524576209
 30
0.000000000000000
 11
310.0006826999206
 21
238.7395524576209
 31
0.000000000000000
  0
LINE
  5
5D
100
AcDbEntity
  8
A3
  6
CONTINUOUS
 62
7
100
AcDbLine
 10
308.5006826999206
 20
248.8395524576209
 30
0.000000000000000
 11
310.0006826999206
 21
248.8395524576209
 31
0.000000000000000
  0
ARC
  5
5E
100
AcDbEntity
  8
A3
  6
CONTINUOUS
 62
7
100
AcDbCircle
 10
181.8068118493351
 20
341.7223405506735
 30
0.000000000000000
 40
0.5000000000000000
100
AcDbArc
 50
180.0000000000000
 51
270.0000000000000
  0
ARC
  5
5F
100
AcDbEntity
  8
A3
  6
CONTINUOUS
 62
7
100
AcDbCircle
 10
190.8068118493351
 20
341.7223405506735
 30
0.000000000000000
 40
0.5000000000000000
100
AcDbArc
 50
270.0000000000000
 51
360.0000000000000
  0
ARC
  5
60
100
AcDbEntity
  8
A3
  6
CONTINUOUS
 62
7
100
AcDbCircle
 10
235.8068118491037
 20
341.7223405506735
 30
0.000000000000000
 40
0.5000000000000000
100
AcDbArc
 50
180.0000000000000
 51
270.0000000000004
  0
ARC
  5
61
100
AcDbEntity
  8
A3
  6
CONTINUOUS
 62
7
100
AcDbCircle
 10
244.8068118491037
 20
341.7223405506735
 30
0.000000000000000
 40
0.5000000000000000
100
AcDbArc
 50
270.0000000000000
 51
360.0000000000000
  0
ARC
  5
62
100
AcDbEntity
  8
A3
  6
CONTINUOUS
 62
7
100
AcDbCircle
 10
171.8068118493418
 20
343.6223405506736
 30
0.000000000000000
 40
1.000000000000000
100
AcDbArc
 50
180.0000000000000
 51
270.0000000000000
  0
LINE
  5
63
100
AcDbEntity
  8
A3
  6
CONTINUOUS
 62
7
100
AcDbLine
 10
170.8441449352465
 20
342.6223405506736
 30
0.000000000000000
 11
170.8441449352465
 21
343.3516517764214
 31
0.000000000000000
  0
LINE
  5
64
100
AcDbEntity
  8
A3
  6
CONTINUOUS
 62
7
100
AcDbLine
 10
162.8068118494749
 20
358.0223405507207
 30
0.000000000000000
 11
162.8068118494749
 21
351.1223405506838
 31
0.000000000000000
  0
LINE
  5
65
100
AcDbEntity
  8
A3
  6
CONTINUOUS
 62
7
100
AcDbLine
 10
166.8068118493419
 20
351.1223405506838
 30
0.000000000000000
 11
166.8068118493419
 21
359.0223405507207
 31
0.000000000000000
  0
LINE
  5
66
100
AcDbEntity
  8
A3
  6
CONTINUOUS
 62
7
100
AcDbLine
 10
181.3068118493351
 20
341.1223405506736
 30
0.000000000000000
 11
181.3068118493351
 21
342.6223405506736
 31
0.000000000000000
  0
LINE
  5
67
100
AcDbEntity
  8
A3
  6
CONTINUOUS
 62
7
100
AcDbLine
 10
181.8068118493351
 20
341.2223405506735
 30
0.000000000000000
 11
190.8068118493351
 21
341.2223405506735
 31
0.000000000000000
  0
LINE
  5
68
100
AcDbEntity
  8
A3
  6
CONTINUOUS
 62
7
100
AcDbLine
 10
191.3068118493351
 20
341.1223405506736
 30
0.000000000000000
 11
191.3068118493351
 21
342.6223405506736
 31
0.000000000000000
  0
LINE
  5
69
100
AcDbEntity
  8
A3
  6
CONTINUOUS
 62
7
100
AcDbLine
 10
191.3068118493350
 20
342.6223405506735
 30
0.000000000000000
 11
235.3068118491036
 21
342.6223405506734
 31
0.000000000000000
  0
LINE
  5
6A
100
AcDbEntity
  8
A3
  6
CONTINUOUS
 62
7
100
AcDbLine
 10
235.3068118491037
 20
341.1223405506734
 30
0.000000000000000
 11
235.3068118491037
 21
342.6223405506736
 31
0.000000000000000
  0
LINE
  5
6B
100
AcDbEntity
  8
A3
  6
CONTINUOUS
 62
7
100
AcDbLine
 10
235.8068118491037
 20
341.2223405506735
 30
0.000000000000000
 11
244.8068118491037
 21
341.2223405506735
 31
0.000000000000000
  0
LINE
  5
6C
100
AcDbEntity
  8
A3
  6
CONTINUOUS
 62
7
100
AcDbLine
 10
245.3068118491037
 20
341.1223405506734
 30
0.000000000000000
 11
245.3068118491037
 21
342.6223405506736
 31
0.000000000000000
  0
LINE
  5
6D
100
AcDbEntity
  8
A3
  6
CONTINUOUS
 62
7
100
AcDbLine
 10
170.8068118493418
 20
343.6223405506736
 30
0.000000000000000
 11
170.8068118493418
 21
359.0223405507207
 31
0.000000000000000
  0
LINE
  5
6E
100
AcDbEntity
  8
A3
  6
CONTINUOUS
 62
7
100
AcDbLine
 10
245.3068118491037
 20
342.6223405506736
 30
0.000000000000000
 11
258.3068118493418
 21
342.6223405506736
 31
0.000000000000000
  0
LINE
  5
6F
100
AcDbEntity
  8
A3
  6
CONTINUOUS
 62
7
100
AcDbLine
 10
163.8068118494749
 20
359.0223405507207
 30
0.000000000000000
 11
257.3068118493418
 21
359.0223405507207
 31
0.000000000000000
  0
LINE
  5
70
100
AcDbEntity
  8
A3
  6
CONTINUOUS
 62
7
100
AcDbLine
 10
164.3068118493417
 20
342.6223405506738
 30
0.000000000000000
 11
181.3068118493350
 21
342.6223405506736
 31
0.000000000000000
  0
LINE
  5
71
100
AcDbEntity
  8
A3
  6
CONTINUOUS
 62
7
100
AcDbLine
 10
162.8068118494749
 20
351.1223405506836
 30
0.000000000000000
 11
170.8068118493418
 21
351.1223405506836
 31
0.000000000000000
  0
LINE
  5
72
100
AcDbEntity
  8
A3
  6
CONTINUOUS
 62
7
100
AcDbLine
 10
258.3068118493418
 20
341.1223405506734
 30
0.000000000000000
 11
258.3068118493418
 21
358.0223405507207
 31
0.000000000000000
  0
LINE
  5
73
100
AcDbEntity
  8
A3
  6
CONTINUOUS
 62
7
100
AcDbLine
 10
164.3068118493419
 20
341.1223405506735
 30
0.000000000000000
 11
258.3068118493418
 21
341.1223405506733
 31
0.000000000000000
  0
LINE
  5
74
100
AcDbEntity
  8
A3
  6
CONTINUOUS
 62
7
100
AcDbLine
 10
171.1453740215574
 20
342.8723405506897
 30
0.000000000000000
 11
162.8068118494735
 21
342.8723405506897
 31
0.000000000000000
  0
LINE
  5
75
100
AcDbEntity
  8
A3
  6
CONTINUOUS
 62
7
100
AcDbLine
 10
170.8068118493418
 20
350.8723405506674
 30
0.000000000000000
 11
140.8068118493836
 21
350.8723405506674
 31
0.000000000000000
  0
LINE
  5
76
100
AcDbEntity
  8
A3
  6
CONTINUOUS
 62
7
100
AcDbLine
 10
170.8068118493418
 20
343.8723405506897
 30
0.000000000000000
 11
162.8068118494734
 21
343.8723405506897
 31
0.000000000000000
  0
LINE
  5
77
100
AcDbEntity
  8
A3
  6
CONTINUOUS
 62
7
100
AcDbLine
 10
170.8068118493418
 20
349.8723405506674
 30
0.000000000000000
 11
140.8068118493834
 21
349.8723405506674
 31
0.000000000000000
  0
LINE
  5
78
100
AcDbEntity
  8
A6
  6
CENTER
 62
1
100
AcDbLine
 10
145.8068118493397
 20
348.0380165568043
 30
0.000000000000000
 11
145.8068118493397
 21
352.2844024531727
 31
0.000000000000000
  0
LINE
  5
79
100
AcDbEntity
  8
A3
  6
CONTINUOUS
 62
7
100
AcDbLine
 10
140.8068118493834
 20
349.8723405506674
 30
0.000000000000000
 11
140.8068118493836
 21
350.8723405506596
 31
0.000000000000000
  0
LINE
  5
7A
100
AcDbEntity
  8
A3
  6
CONTINUOUS
 62
7
100
AcDbLine
 10
162.8068118494735
 20
342.8723405506897
 30
0.000000000000000
 11
162.8068118494733
 21
343.8723405506873
 31
0.000000000000000
  0
LINE
  5
7B
100
AcDbEntity
  8
A3
  6
CONTINUOUS
 62
7
100
AcDbLine
 10
164.3068118493522
 20
343.8723405506898
 30
0.000000000000000
 11
164.3068118493543
 21
349.8723405506675
 31
0.000000000000000
  0
LINE
  5
7C
100
AcDbEntity
  8
A3
  6
CONTINUOUS
 62
7
100
AcDbLine
 10
168.8068118493419
 20
350.8723405506674
 30
0.000000000000000
 11
168.8068118493419
 21
351.1223405506836
 31
0.000000000000000
  0
LINE
  5
7D
100
AcDbEntity
  8
A3
  6
CONTINUOUS
 62
7
100
AcDbLine
 10
164.8068118493419
 20
351.1223405506836
 30
0.000000000000000
 11
164.8068118493419
 21
350.8723405506674
 31
0.000000000000000
  0
LINE
  5
7E
100
AcDbEntity
  8
A3
  6
CONTINUOUS
 62
7
100
AcDbLine
 10
164.3068118493418
 20
350.8723405506674
 30
0.000000000000000
 11
164.3068118493418
 21
351.1223405506836
 31
0.000000000000000
  0
LINE
  5
7F
100
AcDbEntity
  8
A3
  6
CONTINUOUS
 62
7
100
AcDbLine
 10
170.4986534324338
 20
342.6223405506736
 30
0.000000000000000
 11
170.4986534324338
 21
342.8723405506897
 31
0.000000000000000
  0
LINE
  5
80
100
AcDbEntity
  8
A3
  6
CONTINUOUS
 62
7
100
AcDbLine
 10
170.4986534324338
 20
343.8723405506897
 30
0.000000000000000
 11
170.4986534324338
 21
351.1223405506836
 31
0.000000000000000
  0
LINE
  5
81
100
AcDbEntity
  8
A3
  6
CONTINUOUS
 62
7
100
AcDbLine
 10
168.8068118493419
 20
342.6223405506736
 30
0.000000000000000
 11
168.8068118493419
 21
342.8723405506897
 31
0.000000000000000
  0
LINE
  5
82
100
AcDbEntity
  8
A3
  6
CONTINUOUS
 62
7
100
AcDbLine
 10
168.8068118493419
 20
343.8723405506897
 30
0.000000000000000
 11
168.8068118493419
 21
349.8723405506674
 31
0.000000000000000
  0
LINE
  5
83
100
AcDbEntity
  8
A3
  6
CONTINUOUS
 62
7
100
AcDbLine
 10
164.8068118493419
 20
342.8723405506897
 30
0.000000000000000
 11
164.8068118493419
 21
342.6223405506736
 31
0.000000000000000
  0
LINE
  5
84
100
AcDbEntity
  8
A3
  6
CONTINUOUS
 62
7
100
AcDbLine
 10
164.8068118493419
 20
349.8723405506674
 30
0.000000000000000
 11
164.8068118493419
 21
343.8723405506897
 31
0.000000000000000
  0
LINE
  5
85
100
AcDbEntity
  8
A3
  6
CONTINUOUS
 62
7
100
AcDbLine
 10
164.3068118493418
 20
341.1223405506736
 30
0.000000000000000
 11
164.3068118493418
 21
342.8723405506897
 31
0.000000000000000
  0
LINE
  5
86
100
AcDbEntity
  8
A3
  6
CONTINUOUS
 62
7
100
AcDbLine
 10
164.3068118493418
 20
343.8723405506897
 30
0.000000000000000
 11
164.3068118493418
 21
349.8723405506674
 31
0.000000000000000
  0
LINE
  5
87
100
AcDbEntity
  8
A3
  6
CONTINUOUS
 62
7
100
AcDbLine
 10
238.3068118493564
 20
265.1084332541948
 30
0.000000000000000
 11
238.3068118493564
 21
261.4706716609970
 31
0.000000000000000
  0
LINE
  5
88
100
AcDbEntity
  8
A6
  6
CENTER
 62
1
100
AcDbLine
 10
224.8068118493564
 20
268.1895524576200
 30
0.000000000000000
 11
224.8068118493564
 21
258.3895524576200
 31
0.000000000000000
  0
LINE
  5
89
100
AcDbEntity
  8
A3
  6
CONTINUOUS
 62
7
100
AcDbLine
 10
255.8068118493549
 20
259.2895524576000
 30
0.000000000000000
 11
258.3068118493567
 21
259.2895524575952
 31
0.000000000000000
  0
LINE
  5
8A
100
AcDbEntity
  8
A3
  6
CONTINUOUS
 62
7
100
AcDbLine
 10
255.8068118493533
 20
267.2895524575998
 30
0.000000000000000
 11
258.3068118493549
 21
267.2895524576058
 31
0.000000000000000
  0
ARC
  5
8B
100
AcDbEntity
  8
A3
  6
CONTINUOUS
 62
7
100
AcDbCircle
 10
239.3068118493564
 20
265.1084332541948
 30
0.000000000000000
 40
1.000000000000000
100
AcDbArc
 50
94.08561677998902
 51
180.0000000000000
  0
LINE
  5
8C
100
AcDbEntity
  8
A3
  6
CONTINUOUS
 62
7
100
AcDbLine
 10
166.8068118493493
 20
295.2895524575653
 30
0.000000000000000
 11
170.8068118493564
 21
295.2895524575794
 31
0.000000000000000
  0
LINE
  5
8D
100
AcDbEntity
  8
A3
  6
CONTINUOUS
 62
7
100
AcDbLine
 10
239.2355647993684
 20
266.1058919540255
 30
0.000000000000000
 11
255.8068118493533
 21
267.2895524576003
 31
0.000000000000000
  0
LINE
  5
8E
100
AcDbEntity
  8
A3
  6
CONTINUOUS
 62
7
100
AcDbLine
 10
239.2355647993689
 20
260.4732129611663
 30
0.000000000000000
 11
255.8068118493553
 21
259.2895524575995
 31
0.000000000000000
  0
LINE
  5
8F
100
AcDbEntity
  8
A3
  6
CONTINUOUS
 62
7
100
AcDbLine
 10
224.2967585324895
 20
244.3428641151893
 30
0.000000000000000
 11
224.3067535326554
 21
244.3255522674634
 31
0.000000000000000
  0
LINE
  5
90
100
AcDbEntity
  8
A6
  6
CENTER
 62
1
100
AcDbLine
 10
219.7158667022890
 20
263.2895524575915
 30
0.000000000000000
 11
230.8689297228429
 21
263.2895524575941
 31
0.000000000000000
  0
LINE
  5
91
100
AcDbEntity
  8
A3
  6
CONTINUOUS
 62
7
100
AcDbLine
 10
170.8068118493564
 20
295.2895524575619
 30
0.000000000000000
 11
170.8068118493564
 21
296.7895524576641
 31
0.000000000000000
  0
ARC
  5
92
100
AcDbEntity
  8
A3
  6
CONTINUOUS
 62
7
100
AcDbCircle
 10
239.3068118493564
 20
261.4706716609970
 30
0.000000000000000
 40
1.000000000000000
100
AcDbArc
 50
180.0000000000000
 51
265.9143832200385
  0
LINE
  5
93
100
AcDbEntity
  8
A6
  6
CENTER
 62
1
100
AcDbLine
 10
256.3068118493564
 20
286.2895524576198
 30
0.000000000000000
 11
249.3068118493564
 21
286.2895524576198
 31
0.000000000000000
  0
LINE
  5
94
100
AcDbEntity
  8
A6
  6
CENTER
 62
1
100
AcDbLine
 10
256.3068118493564
 20
243.7895524576196
 30
0.000000000000000
 11
249.3068118493564
 21
243.7895524576196
 31
0.000000000000000
  0
LINE
  5
95
100
AcDbEntity
  8
A6
  6
CENTER
 62
1
100
AcDbLine
 10
234.5568118493549
 20
252.7895524576199
 30
0.000000000000000
 11
246.0568118493549
 21
252.7895524576199
 31
0.000000000000000
  0
LINE
  5
96
100
AcDbEntity
  8
A6
  6
CENTER
 62
1
100
AcDbLine
 10
240.3068118493549
 20
258.5395524576199
 30
0.000000000000000
 11
240.3068118493549
 21
247.0395524576198
 31
0.000000000000000
  0
LINE
  5
97
100
AcDbEntity
  8
A6
  6
CENTER
 62
1
100
AcDbLine
 10
206.0568118493564
 20
272.7895524579613
 30
0.000000000000000
 11
217.5568118493564
 21
272.7895524579613
 31
0.000000000000000
  0
LINE
  5
98
100
AcDbEntity
  8
A6
  6
CENTER
 62
1
100
AcDbLine
 10
211.8068118493564
 20
278.5395524579613
 30
0.000000000000000
 11
211.8068118493564
 21
267.0395524579613
 31
0.000000000000000
  0
LINE
  5
99
100
AcDbEntity
  8
A6
  6
CENTER
 62
1
100
AcDbLine
 10
189.5568118493514
 20
291.2895524576084
 30
0.000000000000000
 11
201.0568118493514
 21
291.2895524576084
 31
0.000000000000000
  0
LINE
  5
9A
100
AcDbEntity
  8
A6
  6
CENTER
 62
1
100
AcDbLine
 10
195.3068118493514
 20
297.0395524576084
 30
0.000000000000000
 11
195.3068118493514
 21
285.5395524576084
 31
0.000000000000000
  0
LINE
  5
9B
100
AcDbEntity
  8
A6
  6
CENTER
 62
1
100
AcDbLine
 10
252.8068118493564
 20
239.8618505548816
 30
0.000000000000000
 11
252.8068118493564
 21
291.1895524576198
 31
0.000000000000000
  0
ARC
  5
9C
100
AcDbEntity
  8
A3
  6
CONTINUOUS
 62
7
100
AcDbCircle
 10
165.8068118493564
 20
222.2895524576159
 30
0.000000000000000
 40
1.500000000000000
100
AcDbArc
 50
180.0000000000000
 51
270.0000000000000
  0
ARC
  5
9D
100
AcDbEntity
  8
A3
  6
CONTINUOUS
 62
7
100
AcDbCircle
 10
256.8068118493564
 20
222.2895524576159
 30
0.000000000000000
 40
1.500000000000000
100
AcDbArc
 50
270.0000000000000
 51
360.0000000000000
  0
ARC
  5
9E
100
AcDbEntity
  8
A3
  6
CONTINUOUS
 62
7
100
AcDbCircle
 10
256.8068118493564
 20
295.2895524578827
 30
0.000000000000000
 40
1.500000000000000
100
AcDbArc
 50
0.000000000000000
 51
90.00000000000000
  0
LINE
  5
9F
100
AcDbEntity
  8
A3
  6
CONTINUOUS
 62
7
100
AcDbLine
 10
181.2568118493502
 20
295.1895524576165
 30
0.000000000000000
 11
191.3568118493501
 21
295.1895524576521
 31
0.000000000000000
  0
LINE
  5
A0
100
AcDbEntity
  8
A3
  6
CONTINUOUS
 62
7
100
AcDbLine
 10
181.2568118493501
 20
295.1895524576167
 30
0.000000000000000
 11
181.2568118493501
 21
296.7895524575814
 31
0.000000000000000
  0
LINE
  5
A1
100
AcDbEntity
  8
A3
  6
CONTINUOUS
 62
7
100
AcDbLine
 10
191.3568118493500
 20
295.1895524576520
 30
0.000000000000000
 11
191.3568118493500
 21
296.7895524575814
 31
0.000000000000000
  0
LINE
  5
A2
100
AcDbEntity
  8
A3
  6
CONTINUOUS
 62
7
100
AcDbLine
 10
235.2568118495422
 20
295.1895524578070
 30
0.000000000000000
 11
245.3568118495422
 21
295.1895524578426
 31
0.000000000000000
  0
LINE
  5
A3
100
AcDbEntity
  8
A3
  6
CONTINUOUS
 62
7
100
AcDbLine
 10
235.2568118495423
 20
295.1895524578071
 30
0.000000000000000
 11
235.2568118495423
 21
296.7895524577717
 31
0.000000000000000
  0
LINE
  5
A4
100
AcDbEntity
  8
A3
  6
CONTINUOUS
 62
7
100
AcDbLine
 10
245.3568118495424
 20
295.1895524578423
 30
0.000000000000000
 11
245.3568118495424
 21
296.7895524577717
 31
0.000000000000000
  0
LINE
  5
A5
100
AcDbEntity
  8
A3
  6
CONTINUOUS
 62
7
100
AcDbLine
 10
245.3568118493585
 20
222.3895524576162
 30
0.000000000000000
 11
235.2568118493585
 21
222.3895524576162
 31
0.000000000000000
  0
LINE
  5
A6
100
AcDbEntity
  8
A3
  6
CONTINUOUS
 62
7
100
AcDbLine
 10
235.2568118493585
 20
222.3895524576162
 30
0.000000000000000
 11
235.2568118493543
 21
220.7895524575747
 31
0.000000000000000
  0
LINE
  5
A7
100
AcDbEntity
  8
A3
  6
CONTINUOUS
 62
7
100
AcDbLine
 10
245.3568118493586
 20
222.3895524576162
 30
0.000000000000000
 11
245.3568118493544
 21
220.7895524575748
 31
0.000000000000000
  0
LINE
  5
A8
100
AcDbEntity
  8
A3
  6
CONTINUOUS
 62
7
100
AcDbLine
 10
200.8568118493835
 20
222.3895524576162
 30
0.000000000000000
 11
190.7568118493836
 21
222.3895524576162
 31
0.000000000000000
  0
LINE
  5
A9
100
AcDbEntity
  8
A3
  6
CONTINUOUS
 62
7
100
AcDbLine
 10
200.8568118493835
 20
220.7895524576162
 30
0.000000000000000
 11
200.8568118493835
 21
222.3895524576162
 31
0.000000000000000
  0
LINE
  5
AA
100
AcDbEntity
  8
A3
  6
CONTINUOUS
 62
7
100
AcDbLine
 10
190.7568118493836
 20
220.7895524576162
 30
0.000000000000000
 11
190.7568118493836
 21
222.3895524576162
 31
0.000000000000000
  0
LINE
  5
AB
100
AcDbEntity
  8
A3
  6
CONTINUOUS
 62
7
100
AcDbLine
 10
258.3068118493567
 20
272.2395524576616
 30
0.000000000000000
 11
256.7068118493568
 21
272.2395524576616
 31
0.000000000000000
  0
LINE
  5
AC
100
AcDbEntity
  8
A3
  6
CONTINUOUS
 62
7
100
AcDbLine
 10
256.7068118493568
 20
272.2395524576616
 30
0.000000000000000
 11
256.7068118493568
 21
282.3395524576616
 31
0.000000000000000
  0
LINE
  5
AD
100
AcDbEntity
  8
A3
  6
CONTINUOUS
 62
7
100
AcDbLine
 10
258.3068118493567
 20
282.3395524576616
 30
0.000000000000000
 11
256.7068118493568
 21
282.3395524576616
 31
0.000000000000000
  0
LINE
  5
AE
100
AcDbEntity
  8
A3
  6
CONTINUOUS
 62
7
100
AcDbLine
 10
256.7068118493568
 20
238.7395524576220
 30
0.000000000000000
 11
256.7068118493568
 21
248.8395524576220
 31
0.000000000000000
  0
LINE
  5
AF
100
AcDbEntity
  8
A3
  6
CONTINUOUS
 62
7
100
AcDbLine
 10
258.3068118493567
 20
248.8395524576220
 30
0.000000000000000
 11
256.7068118493568
 21
248.8395524576220
 31
0.000000000000000
  0
LINE
  5
B0
100
AcDbEntity
  8
A3
  6
CONTINUOUS
 62
7
100
AcDbLine
 10
258.3068118493567
 20
238.7395524576220
 30
0.000000000000000
 11
256.7068118493568
 21
238.7395524576220
 31
0.000000000000000
  0
LINE
  5
B1
100
AcDbEntity
  8
A3
  6
CONTINUOUS
 62
7
100
AcDbLine
 10
165.9068118493561
 20
241.7395524575770
 30
0.000000000000000
 11
165.9068118493561
 21
251.8395524575770
 31
0.000000000000000
  0
LINE
  5
B2
100
AcDbEntity
  8
A3
  6
CONTINUOUS
 62
7
100
AcDbLine
 10
165.9068118493561
 20
251.8395524575770
 30
0.000000000000000
 11
164.3068118493910
 21
251.8395524575770
 31
0.000000000000000
  0
LINE
  5
B3
100
AcDbEntity
  8
A3
  6
CONTINUOUS
 62
7
100
AcDbLine
 10
165.9068118493561
 20
241.7395524575770
 30
0.000000000000000
 11
164.3068118493910
 21
241.7395524575770
 31
0.000000000000000
  0
ARC
  5
B4
100
AcDbEntity
  8
A3
  6
CONTINUOUS
 62
7
100
AcDbCircle
 10
166.8068118493564
 20
291.2895524576984
 30
0.000000000000000
 40
3.999999999866816
100
AcDbArc
 50
90.00000000000000
 51
231.3178125449805
  0
LINE
  5
B5
100
AcDbEntity
  8
A6
  6
CENTER
 62
1
100
AcDbLine
 10
171.8068118493562
 20
229.2895524576120
 30
0.000000000000000
 11
165.8068118493562
 21
229.2895524576120
 31
0.000000000000000
  0
LINE
  5
B6
100
AcDbEntity
  8
A6
  6
CENTER
 62
1
100
AcDbLine
 10
168.8068118493562
 20
232.2895524576120
 30
0.000000000000000
 11
168.8068118493562
 21
226.2895524576120
 31
0.000000000000000
  0
CIRCLE
  5
B7
100
AcDbEntity
  8
A3
  6
CONTINUOUS
 62
7
100
AcDbCircle
 10
252.8068118493564
 20
286.2895524576198
 30
0.000000000000000
 40
2.250000000000000
  0
CIRCLE
  5
B8
100
AcDbEntity
  8
A3
  6
CONTINUOUS
 62
7
100
AcDbCircle
 10
252.8068118493564
 20
243.7895524576196
 30
0.000000000000000
 40
2.250000000000000
  0
CIRCLE
  5
B9
100
AcDbEntity
  8
A3
  6
CONTINUOUS
 62
7
100
AcDbCircle
 10
224.8068118493564
 20
263.2895524575928
 30
0.000000000000000
 40
2.250000000000000
  0
CIRCLE
  5
BA
100
AcDbEntity
  8
A3
  6
CONTINUOUS
 62
7
100
AcDbCircle
 10
166.8068118493564
 20
291.2895524576985
 30
0.000000000000000
 40
1.300000000000000
  0
LINE
  5
BB
100
AcDbEntity
  8
A3
  6
CONTINUOUS
 62
7
100
AcDbLine
 10
258.3068118493564
 20
267.2895524576061
 30
0.000000000000000
 11
258.3068118493564
 21
295.2895524578827
 31
0.000000000000000
  0
LINE
  5
BC
100
AcDbEntity
  8
A3
  6
CONTINUOUS
 62
7
100
AcDbLine
 10
258.3068118493564
 20
222.2895524576159
 30
0.000000000000000
 11
258.3068118493564
 21
259.2895524576006
 31
0.000000000000000
  0
LINE
  5
BD
100
AcDbEntity
  8
A3
  6
CONTINUOUS
 62
7
100
AcDbLine
 10
164.3068118493564
 20
222.2895524576159
 30
0.000000000000000
 11
164.3068118493564
 21
288.1670534586698
 31
0.000000000000000
  0
LINE
  5
BE
100
AcDbEntity
  8
A3
  6
CONTINUOUS
 62
7
100
AcDbLine
 10
170.8068118493562
 20
296.7895524575794
 30
0.000000000000000
 11
256.8068118493562
 21
296.7895524578826
 31
0.000000000000000
  0
CIRCLE
  5
BF
100
AcDbEntity
  8
A3
  6
CONTINUOUS
 62
7
100
AcDbCircle
 10
211.8068118493564
 20
272.7895524579613
 30
0.000000000000000
 40
4.000000000000000
  0
LINE
  5
C0
100
AcDbEntity
  8
A3
  6
CONTINUOUS
 62
7
100
AcDbLine
 10
210.9418590160094
 20
273.6545052913085
 30
0.000000000000000
 11
211.1468237915196
 21
274.1148637144595
 31
0.000000000000000
  0
LINE
  5
C1
100
AcDbEntity
  8
A3
  6
CONTINUOUS
 62
7
100
AcDbLine
 10
210.9418590160091
 20
273.6545052913083
 30
0.000000000000000
 11
210.4815005928576
 21
273.4495405157979
 31
0.000000000000000
  0
LINE
  5
C2
100
AcDbEntity
  8
A3
  6
CONTINUOUS
 62
7
100
AcDbLine
 10
211.1468237915195
 20
274.1148637144594
 30
0.000000000000000
 11
211.1613133787477
 21
274.9449716108040
 31
0.000000000000000
  0
LINE
  5
C3
100
AcDbEntity
  8
A3
  6
CONTINUOUS
 62
7
100
AcDbLine
 10
210.4815005928577
 20
273.4495405157978
 30
0.000000000000000
 11
209.6513926965135
 21
273.4350509285698
 31
0.000000000000000
  0
LINE
  5
C4
100
AcDbEntity
  8
A3
  6
CONTINUOUS
 62
7
100
AcDbLine
 10
212.4667999071933
 20
274.1148637144594
 30
0.000000000000000
 11
212.4523103199651
 21
274.9449716108040
 31
0.000000000000000
  0
LINE
  5
C5
100
AcDbEntity
  8
A3
  6
CONTINUOUS
 62
7
100
AcDbLine
 10
212.6717646827033
 20
273.6545052913083
 30
0.000000000000000
 11
212.4667999071933
 21
274.1148637144595
 31
0.000000000000000
  0
LINE
  5
C6
100
AcDbEntity
  8
A3
  6
CONTINUOUS
 62
7
100
AcDbLine
 10
212.6717646827033
 20
273.6545052913085
 30
0.000000000000000
 11
213.1321231058554
 21
273.4495405157979
 31
0.000000000000000
  0
LINE
  5
C7
100
AcDbEntity
  8
A3
  6
CONTINUOUS
 62
7
100
AcDbLine
 10
213.1321231058554
 20
273.4495405157979
 30
0.000000000000000
 11
213.9622310021990
 21
273.4350509285698
 31
0.000000000000000
  0
LINE
  5
C8
100
AcDbEntity
  8
A3
  6
CONTINUOUS
 62
7
100
AcDbLine
 10
213.1321231058548
 20
272.1295644001238
 30
0.000000000000000
 11
213.9622310021994
 21
272.1440539873521
 31
0.000000000000000
  0
LINE
  5
C9
100
AcDbEntity
  8
A3
  6
CONTINUOUS
 62
7
100
AcDbLine
 10
212.6717646827035
 20
271.9245996246140
 30
0.000000000000000
 11
213.1321231058547
 21
272.1295644001240
 31
0.000000000000000
  0
LINE
  5
CA
100
AcDbEntity
  8
A3
  6
CONTINUOUS
 62
7
100
AcDbLine
 10
212.6717646827035
 20
271.9245996246140
 30
0.000000000000000
 11
212.4667999071928
 21
271.4642412014621
 31
0.000000000000000
  0
LINE
  5
CB
100
AcDbEntity
  8
A3
  6
CONTINUOUS
 62
7
100
AcDbLine
 10
212.4667999071928
 20
271.4642412014619
 30
0.000000000000000
 11
212.4523103199650
 21
270.6341333051182
 31
0.000000000000000
  0
LINE
  5
CC
100
AcDbEntity
  8
A3
  6
CONTINUOUS
 62
7
100
AcDbLine
 10
211.1468237915191
 20
271.4642412014630
 30
0.000000000000000
 11
211.1613133787474
 21
270.6341333051184
 31
0.000000000000000
  0
LINE
  5
CD
100
AcDbEntity
  8
A3
  6
CONTINUOUS
 62
7
100
AcDbLine
 10
210.9418590160092
 20
271.9245996246141
 30
0.000000000000000
 11
211.1468237915192
 21
271.4642412014630
 31
0.000000000000000
  0
LINE
  5
CE
100
AcDbEntity
  8
A3
  6
CONTINUOUS
 62
7
100
AcDbLine
 10
210.9418590160092
 20
271.9245996246139
 30
0.000000000000000
 11
210.4815005928575
 21
272.1295644001243
 31
0.000000000000000
  0
LINE
  5
CF
100
AcDbEntity
  8
A3
  6
CONTINUOUS
 62
7
100
AcDbLine
 10
210.4815005928572
 20
272.1295644001244
 30
0.000000000000000
 11
209.6513926965135
 21
272.1440539873527
 31
0.000000000000000
  0
ARC
  5
D0
100
AcDbEntity
  8
A3
  6
CONTINUOUS
 62
7
100
AcDbCircle
 10
211.8068118493564
 20
272.7895524579613
 30
0.000000000000000
 40
2.250000000000000
100
AcDbArc
 50
343.3282509640041
 51
376.6717490359751
  0
ARC
  5
D1
100
AcDbEntity
  8
A3
  6
CONTINUOUS
 62
7
100
AcDbCircle
 10
211.8068118493564
 20
272.7895524579613
 30
0.000000000000000
 40
2.250000000000000
100
AcDbArc
 50
253.3282509640079
 51
286.6717490359734
  0
ARC
  5
D2
100
AcDbEntity
  8
A3
  6
CONTINUOUS
 62
7
100
AcDbCircle
 10
211.8068118493564
 20
272.7895524579613
 30
0.000000000000000
 40
2.250000000000000
100
AcDbArc
 50
73.32825096401452
 51
106.6717490359855
  0
ARC
  5
D3
100
AcDbEntity
  8
A3
  6
CONTINUOUS
 62
7
100
AcDbCircle
 10
211.8068118493564
 20
272.7895524579613
 30
0.000000000000000
 40
2.250000000000000
100
AcDbArc
 50
163.3282509640185
 51
196.6717490359765
  0
CIRCLE
  5
D4
100
AcDbEntity
  8
A3
  6
CONTINUOUS
 62
7
100
AcDbCircle
 10
195.3068118493514
 20
291.2895524576084
 30
0.000000000000000
 40
4.000000000000000
  0
LINE
  5
D5
100
AcDbEntity
  8
A3
  6
CONTINUOUS
 62
7
100
AcDbLine
 10
194.4418590160043
 20
292.1545052909556
 30
0.000000000000000
 11
194.6468237915146
 21
292.6148637141066
 31
0.000000000000000
  0
LINE
  5
D6
100
AcDbEntity
  8
A3
  6
CONTINUOUS
 62
7
100
AcDbLine
 10
194.4418590160042
 20
292.1545052909553
 30
0.000000000000000
 11
193.9815005928525
 21
291.9495405154447
 31
0.000000000000000
  0
LINE
  5
D7
100
AcDbEntity
  8
A3
  6
CONTINUOUS
 62
7
100
AcDbLine
 10
194.6468237915144
 20
292.6148637141064
 30
0.000000000000000
 11
194.6613133787426
 21
293.4449716104509
 31
0.000000000000000
  0
LINE
  5
D8
100
AcDbEntity
  8
A3
  6
CONTINUOUS
 62
7
100
AcDbLine
 10
193.9815005928527
 20
291.9495405154448
 30
0.000000000000000
 11
193.1513926965085
 21
291.9350509282168
 31
0.000000000000000
  0
LINE
  5
D9
100
AcDbEntity
  8
A3
  6
CONTINUOUS
 62
7
100
AcDbLine
 10
195.9667999071883
 20
292.6148637141063
 30
0.000000000000000
 11
195.9523103199600
 21
293.4449716104510
 31
0.000000000000000
  0
LINE
  5
DA
100
AcDbEntity
  8
A3
  6
CONTINUOUS
 62
7
100
AcDbLine
 10
196.1717646826983
 20
292.1545052909554
 30
0.000000000000000
 11
195.9667999071883
 21
292.6148637141065
 31
0.000000000000000
  0
LINE
  5
DB
100
AcDbEntity
  8
A3
  6
CONTINUOUS
 62
7
100
AcDbLine
 10
196.1717646826984
 20
292.1545052909556
 30
0.000000000000000
 11
196.6321231058503
 21
291.9495405154451
 31
0.000000000000000
  0
LINE
  5
DC
100
AcDbEntity
  8
A3
  6
CONTINUOUS
 62
7
100
AcDbLine
 10
196.6321231058504
 20
291.9495405154451
 30
0.000000000000000
 11
197.4622310021940
 21
291.9350509282169
 31
0.000000000000000
  0
LINE
  5
DD
100
AcDbEntity
  8
A3
  6
CONTINUOUS
 62
7
100
AcDbLine
 10
196.6321231058498
 20
290.6295643997709
 30
0.000000000000000
 11
197.4622310021944
 21
290.6440539869992
 31
0.000000000000000
  0
LINE
  5
DE
100
AcDbEntity
  8
A3
  6
CONTINUOUS
 62
7
100
AcDbLine
 10
196.1717646826987
 20
290.4245996242611
 30
0.000000000000000
 11
196.6321231058498
 21
290.6295643997711
 31
0.000000000000000
  0
LINE
  5
DF
100
AcDbEntity
  8
A3
  6
CONTINUOUS
 62
7
100
AcDbLine
 10
196.1717646826984
 20
290.4245996242610
 30
0.000000000000000
 11
195.9667999071878
 21
289.9642412011091
 31
0.000000000000000
  0
LINE
  5
E0
100
AcDbEntity
  8
A3
  6
CONTINUOUS
 62
7
100
AcDbLine
 10
195.9667999071878
 20
289.9642412011087
 30
0.000000000000000
 11
195.9523103199600
 21
289.1341333047651
 31
0.000000000000000
  0
LINE
  5
E1
100
AcDbEntity
  8
A3
  6
CONTINUOUS
 62
7
100
AcDbLine
 10
194.6468237915140
 20
289.9642412011099
 30
0.000000000000000
 11
194.6613133787423
 21
289.1341333047656
 31
0.000000000000000
  0
LINE
  5
E2
100
AcDbEntity
  8
A3
  6
CONTINUOUS
 62
7
100
AcDbLine
 10
194.4418590160043
 20
290.4245996242612
 30
0.000000000000000
 11
194.6468237915143
 21
289.9642412011100
 31
0.000000000000000
  0
LINE
  5
E3
100
AcDbEntity
  8
A3
  6
CONTINUOUS
 62
7
100
AcDbLine
 10
194.4418590160042
 20
290.4245996242611
 30
0.000000000000000
 11
193.9815005928525
 21
290.6295643997715
 31
0.000000000000000
  0
LINE
  5
E4
100
AcDbEntity
  8
A3
  6
CONTINUOUS
 62
7
100
AcDbLine
 10
193.9815005928522
 20
290.6295643997715
 30
0.000000000000000
 11
193.1513926965086
 21
290.6440539869997
 31
0.000000000000000
  0
ARC
  5
E5
100
AcDbEntity
  8
A3
  6
CONTINUOUS
 62
7
100
AcDbCircle
 10
195.3068118493514
 20
291.2895524576084
 30
0.000000000000000
 40
2.250000000000000
100
AcDbArc
 50
343.3282509640041
 51
376.6717490359751
  0
ARC
  5
E6
100
AcDbEntity
  8
A3
  6
CONTINUOUS
 62
7
100
AcDbCircle
 10
195.3068118493514
 20
291.2895524576084
 30
0.000000000000000
 40
2.250000000000000
100
AcDbArc
 50
253.3282509640079
 51
286.6717490359734
  0
ARC
  5
E7
100
AcDbEntity
  8
A3
  6
CONTINUOUS
 62
7
100
AcDbCircle
 10
195.3068118493514
 20
291.2895524576084
 30
0.000000000000000
 40
2.250000000000000
100
AcDbArc
 50
73.32825096401452
 51
106.6717490359855
  0
ARC
  5
E8
100
AcDbEntity
  8
A3
  6
CONTINUOUS
 62
7
100
AcDbCircle
 10
195.3068118493514
 20
291.2895524576084
 30
0.000000000000000
 40
2.250000000000000
100
AcDbArc
 50
163.3282509640185
 51
196.6717490359765
  0
CIRCLE
  5
E9
100
AcDbEntity
  8
A3
  6
CONTINUOUS
 62
7
100
AcDbCircle
 10
240.3068118493549
 20
252.7895524576199
 30
0.000000000000000
 40
4.000000000000000
  0
LINE
  5
EA
100
AcDbEntity
  8
A3
  6
CONTINUOUS
 62
7
100
AcDbLine
 10
239.4418590160079
 20
253.6545052909671
 30
0.000000000000000
 11
239.6468237915181
 21
254.1148637141181
 31
0.000000000000000
  0
LINE
  5
EB
100
AcDbEntity
  8
A3
  6
CONTINUOUS
 62
7
100
AcDbLine
 10
239.4418590160076
 20
253.6545052909670
 30
0.000000000000000
 11
238.9815005928560
 21
253.4495405154564
 31
0.000000000000000
  0
LINE
  5
EC
100
AcDbEntity
  8
A3
  6
CONTINUOUS
 62
7
100
AcDbLine
 10
239.6468237915179
 20
254.1148637141180
 30
0.000000000000000
 11
239.6613133787461
 21
254.9449716104626
 31
0.000000000000000
  0
LINE
  5
ED
100
AcDbEntity
  8
A3
  6
CONTINUOUS
 62
7
100
AcDbLine
 10
238.9815005928562
 20
253.4495405154565
 30
0.000000000000000
 11
238.1513926965120
 21
253.4350509282284
 31
0.000000000000000
  0
LINE
  5
EE
100
AcDbEntity
  8
A3
  6
CONTINUOUS
 62
7
100
AcDbLine
 10
240.9667999071918
 20
254.1148637141181
 30
0.000000000000000
 11
240.9523103199635
 21
254.9449716104626
 31
0.000000000000000
  0
LINE
  5
EF
100
AcDbEntity
  8
A3
  6
CONTINUOUS
 62
7
100
AcDbLine
 10
241.1717646827016
 20
253.6545052909670
 30
0.000000000000000
 11
240.9667999071916
 21
254.1148637141181
 31
0.000000000000000
  0
LINE
  5
F0
100
AcDbEntity
  8
A3
  6
CONTINUOUS
 62
7
100
AcDbLine
 10
241.1717646827016
 20
253.6545052909673
 30
0.000000000000000
 11
241.6321231058538
 21
253.4495405154568
 31
0.000000000000000
  0
LINE
  5
F1
100
AcDbEntity
  8
A3
  6
CONTINUOUS
 62
7
100
AcDbLine
 10
241.6321231058539
 20
253.4495405154566
 30
0.000000000000000
 11
242.4622310021975
 21
253.4350509282284
 31
0.000000000000000
  0
LINE
  5
F2
100
AcDbEntity
  8
A3
  6
CONTINUOUS
 62
7
100
AcDbLine
 10
241.6321231058531
 20
252.1295643997826
 30
0.000000000000000
 11
242.4622310021976
 21
252.1440539870109
 31
0.000000000000000
  0
LINE
  5
F3
100
AcDbEntity
  8
A3
  6
CONTINUOUS
 62
7
100
AcDbLine
 10
241.1717646827022
 20
251.9245996242727
 30
0.000000000000000
 11
241.6321231058533
 21
252.1295643997827
 31
0.000000000000000
  0
LINE
  5
F4
100
AcDbEntity
  8
A3
  6
CONTINUOUS
 62
7
100
AcDbLine
 10
241.1717646827019
 20
251.9245996242727
 30
0.000000000000000
 11
240.9667999071912
 21
251.4642412011206
 31
0.000000000000000
  0
LINE
  5
F5
100
AcDbEntity
  8
A3
  6
CONTINUOUS
 62
7
100
AcDbLine
 10
240.9667999071911
 20
251.4642412011204
 30
0.000000000000000
 11
240.9523103199633
 21
250.6341333047768
 31
0.000000000000000
  0
LINE
  5
F6
100
AcDbEntity
  8
A3
  6
CONTINUOUS
 62
7
100
AcDbLine
 10
239.6468237915176
 20
251.4642412011216
 30
0.000000000000000
 11
239.6613133787458
 21
250.6341333047771
 31
0.000000000000000
  0
LINE
  5
F7
100
AcDbEntity
  8
A3
  6
CONTINUOUS
 62
7
100
AcDbLine
 10
239.4418590160077
 20
251.9245996242728
 30
0.000000000000000
 11
239.6468237915177
 21
251.4642412011216
 31
0.000000000000000
  0
LINE
  5
F8
100
AcDbEntity
  8
A3
  6
CONTINUOUS
 62
7
100
AcDbLine
 10
239.4418590160076
 20
251.9245996242728
 30
0.000000000000000
 11
238.9815005928559
 21
252.1295643997832
 31
0.000000000000000
  0
LINE
  5
F9
100
AcDbEntity
  8
A3
  6
CONTINUOUS
 62
7
100
AcDbLine
 10
238.9815005928557
 20
252.1295643997830
 30
0.000000000000000
 11
238.1513926965121
 21
252.1440539870113
 31
0.000000000000000
  0
ARC
  5
FA
100
AcDbEntity
  8
A3
  6
CONTINUOUS
 62
7
100
AcDbCircle
 10
240.3068118493549
 20
252.7895524576199
 30
0.000000000000000
 40
2.250000000000000
100
AcDbArc
 50
343.3282509640041
 51
376.6717490359751
  0
ARC
  5
FB
100
AcDbEntity
  8
A3
  6
CONTINUOUS
 62
7
100
AcDbCircle
 10
240.3068118493549
 20
252.7895524576199
 30
0.000000000000000
 40
2.250000000000000
100
AcDbArc
 50
253.3282509640079
 51
286.6717490359734
  0
ARC
  5
FC
100
AcDbEntity
  8
A3
  6
CONTINUOUS
 62
7
100
AcDbCircle
 10
240.3068118493549
 20
252.7895524576199
 30
0.000000000000000
 40
2.250000000000000
100
AcDbArc
 50
73.32825096401452
 51
106.6717490359855
  0
ARC
  5
FD
100
AcDbEntity
  8
A3
  6
CONTINUOUS
 62
7
100
AcDbCircle
 10
240.3068118493549
 20
252.7895524576199
 30
0.000000000000000
 40
2.250000000000000
100
AcDbArc
 50
163.3282509640185
 51
196.6717490359765
  0
CIRCLE
  5
FE
100
AcDbEntity
  8
A3
  6
CONTINUOUS
 62
7
100
AcDbCircle
 10
168.8068118493562
 20
229.2895524576120
 30
0.000000000000000
 40
3.000000000000000
  0
LINE
  5
FF
100
AcDbEntity
  8
A3
  6
CONTINUOUS
 62
7
100
AcDbLine
 10
168.1148495826786
 20
229.9815147242898
 30
0.000000000000000
 11
168.2788214030868
 21
230.3498014628105
 31
0.000000000000000
  0
LINE
  5
100
100
AcDbEntity
  8
A3
  6
CONTINUOUS
 62
7
100
AcDbLine
 10
168.1148495826786
 20
229.9815147242899
 30
0.000000000000000
 11
167.7465628441570
 21
229.8175429038812
 31
0.000000000000000
  0
LINE
  5
101
100
AcDbEntity
  8
A3
  6
CONTINUOUS
 62
7
100
AcDbLine
 10
168.2788214030867
 20
230.3498014628106
 30
0.000000000000000
 11
168.2904130728691
 21
231.0138877798863
 31
0.000000000000000
  0
LINE
  5
102
100
AcDbEntity
  8
A3
  6
CONTINUOUS
 62
7
100
AcDbLine
 10
167.7465628441570
 20
229.8175429038812
 30
0.000000000000000
 11
167.0824765270822
 21
229.8059512340988
 31
0.000000000000000
  0
LINE
  5
103
100
AcDbEntity
  8
A3
  6
CONTINUOUS
 62
7
100
AcDbLine
 10
169.3348022956258
 20
230.3498014628108
 30
0.000000000000000
 11
169.3232106258431
 21
231.0138877798863
 31
0.000000000000000
  0
LINE
  5
104
100
AcDbEntity
  8
A3
  6
CONTINUOUS
 62
7
100
AcDbLine
 10
169.4987741160341
 20
229.9815147242899
 30
0.000000000000000
 11
169.3348022956260
 21
230.3498014628109
 31
0.000000000000000
  0
LINE
  5
105
100
AcDbEntity
  8
A3
  6
CONTINUOUS
 62
7
100
AcDbLine
 10
169.4987741160337
 20
229.9815147242897
 30
0.000000000000000
 11
169.8670608545554
 21
229.8175429038812
 31
0.000000000000000
  0
LINE
  5
106
100
AcDbEntity
  8
A3
  6
CONTINUOUS
 62
7
100
AcDbLine
 10
169.8670608545553
 20
229.8175429038812
 30
0.000000000000000
 11
170.5311471716307
 21
229.8059512340989
 31
0.000000000000000
  0
LINE
  5
107
100
AcDbEntity
  8
A3
  6
CONTINUOUS
 62
7
100
AcDbLine
 10
169.8670608545549
 20
228.7615620113422
 30
0.000000000000000
 11
170.5311471716303
 21
228.7731536811248
 31
0.000000000000000
  0
LINE
  5
108
100
AcDbEntity
  8
A3
  6
CONTINUOUS
 62
7
100
AcDbLine
 10
169.4987741160339
 20
228.5975901909340
 30
0.000000000000000
 11
169.8670608545549
 21
228.7615620113422
 31
0.000000000000000
  0
LINE
  5
109
100
AcDbEntity
  8
A3
  6
CONTINUOUS
 62
7
100
AcDbLine
 10
169.4987741160339
 20
228.5975901909341
 30
0.000000000000000
 11
169.3348022956256
 21
228.2293034524125
 31
0.000000000000000
  0
LINE
  5
10A
100
AcDbEntity
  8
A3
  6
CONTINUOUS
 62
7
100
AcDbLine
 10
169.3348022956258
 20
228.2293034524126
 30
0.000000000000000
 11
169.3232106258430
 21
227.5652171353378
 31
0.000000000000000
  0
LINE
  5
10B
100
AcDbEntity
  8
A3
  6
CONTINUOUS
 62
7
100
AcDbLine
 10
168.2788214030865
 20
228.2293034524132
 30
0.000000000000000
 11
168.2904130728690
 21
227.5652171353376
 31
0.000000000000000
  0
LINE
  5
10C
100
AcDbEntity
  8
A3
  6
CONTINUOUS
 62
7
100
AcDbLine
 10
168.1148495826785
 20
228.5975901909342
 30
0.000000000000000
 11
168.2788214030869
 21
228.2293034524134
 31
0.000000000000000
  0
LINE
  5
10D
100
AcDbEntity
  8
A3
  6
CONTINUOUS
 62
7
100
AcDbLine
 10
168.1148495826784
 20
228.5975901909341
 30
0.000000000000000
 11
167.7465628441569
 21
228.7615620113428
 31
0.000000000000000
  0
LINE
  5
10E
100
AcDbEntity
  8
A3
  6
CONTINUOUS
 62
7
100
AcDbLine
 10
167.7465628441568
 20
228.7615620113428
 30
0.000000000000000
 11
167.0824765270820
 21
228.7731536811251
 31
0.000000000000000
  0
ARC
  5
10F
100
AcDbEntity
  8
A3
  6
CONTINUOUS
 62
7
100
AcDbCircle
 10
168.8068118493562
 20
229.2895524576120
 30
0.000000000000000
 40
1.800000000000000
100
AcDbArc
 50
343.3282509640041
 51
376.6717490359751
  0
ARC
  5
110
100
AcDbEntity
  8
A3
  6
CONTINUOUS
 62
7
100
AcDbCircle
 10
168.8068118493562
 20
229.2895524576120
 30
0.000000000000000
 40
1.800000000000000
100
AcDbArc
 50
253.3282509640079
 51
286.6717490359734
  0
ARC
  5
111
100
AcDbEntity
  8
A3
  6
CONTINUOUS
 62
7
100
AcDbCircle
 10
168.8068118493562
 20
229.2895524576120
 30
0.000000000000000
 40
1.800000000000000
100
AcDbArc
 50
73.32825096401452
 51
106.6717490359855
  0
ARC
  5
112
100
AcDbEntity
  8
A3
  6
CONTINUOUS
 62
7
100
AcDbCircle
 10
168.8068118493562
 20
229.2895524576120
 30
0.000000000000000
 40
1.800000000000000
100
AcDbArc
 50
163.3282509640185
 51
196.6717490359765
  0
CIRCLE
  5
113
100
AcDbEntity
  8
A3
  6
CONTINUOUS
 62
7
100
AcDbCircle
 10
168.8068118493562
 20
229.2895524576120
 30
0.000000000000000
 40
3.250000000000000
  0
CIRCLE
  5
114
100
AcDbEntity
  8
A3
  6
CONTINUOUS
 62
7
100
AcDbCircle
 10
240.3068118493549
 20
252.7895524576199
 30
0.000000000000000
 40
4.250000000000000
  0
CIRCLE
  5
115
100
AcDbEntity
  8
A3
  6
CONTINUOUS
 62
7
100
AcDbCircle
 10
211.8068118493564
 20
272.7895524579613
 30
0.000000000000000
 40
4.250000000000000
  0
CIRCLE
  5
116
100
AcDbEntity
  8
A3
  6
CONTINUOUS
 62
7
100
AcDbCircle
 10
195.3068118493514
 20
291.2895524576084
 30
0.000000000000000
 40
4.250000000000000
  0
CIRCLE
  5
117
100
AcDbEntity
  8
A3
  6
CONTINUOUS
 62
7
100
AcDbCircle
 10
252.8068118493562
 20
286.2895524576198
 30
0.000000000000000
 40
1.621000000000000
  0
CIRCLE
  5
118
100
AcDbEntity
  8
A4
  6
CONTINUOUS
 62
4
100
AcDbCircle
 10
252.8068118493562
 20
286.2895524576198
 30
0.000000000000000
 40
2.000000000000000
  0
CIRCLE
  5
119
100
AcDbEntity
  8
A3
  6
CONTINUOUS
 62
7
100
AcDbCircle
 10
252.8068118493562
 20
243.7895524576196
 30
0.000000000000000
 40
1.621000000000000
  0
CIRCLE
  5
11A
100
AcDbEntity
  8
A4
  6
CONTINUOUS
 62
4
100
AcDbCircle
 10
252.8068118493562
 20
243.7895524576196
 30
0.000000000000000
 40
2.000000000000000
  0
CIRCLE
  5
11B
100
AcDbEntity
  8
A3
  6
CONTINUOUS
 62
7
100
AcDbCircle
 10
224.8068118493562
 20
263.2895524576199
 30
0.000000000000000
 40
1.621000000000000
  0
CIRCLE
  5
11C
100
AcDbEntity
  8
A4
  6
CONTINUOUS
 62
4
100
AcDbCircle
 10
224.8068118493562
 20
263.2895524576199
 30
0.000000000000000
 40
2.000000000000000
  0
LINE
  5
11D
100
AcDbEntity
  8
A3
  6
CONTINUOUS
 62
7
100
AcDbLine
 10
165.8068118493564
 20
220.7895524576159
 30
0.000000000000000
 11
256.8068118493564
 21
220.7895524576159
 31
0.000000000000000
  0
LINE
  5
11E
100
AcDbEntity
  8
A3
  6
CONTINUOUS
 62
7
100
AcDbLine
 10
164.3068118493563
 20
273.2895524576250
 30
0.000000000000000
 11
155.3068118493572
 21
273.2895524575989
 31
0.000000000000000
  0
LINE
  5
11F
100
AcDbEntity
  8
A3
  6
CONTINUOUS
 62
7
100
AcDbLine
 10
154.3068118493543
 20
274.2895524575990
 30
0.000000000000000
 11
154.3068118493546
 21
277.2895524576015
 31
0.000000000000000
  0
ARC
  5
120
100
AcDbEntity
  8
A3
  6
CONTINUOUS
 62
7
100
AcDbCircle
 10
155.3068118493546
 20
277.2895524576015
 30
0.000000000000000
 40
1.000000000000000
100
AcDbArc
 50
90.00000000000000
 51
180.0000000000000
  0
LINE
  5
121
100
AcDbEntity
  8
A3
  6
CONTINUOUS
 62
7
100
AcDbLine
 10
155.3068118493518
 20
278.2895524576016
 30
0.000000000000000
 11
164.3068118493563
 21
278.2895524576257
 31
0.000000000000000
  0
ARC
  5
122
100
AcDbEntity
  8
A3
  6
CONTINUOUS
 62
7
100
AcDbCircle
 10
155.3068118493544
 20
274.2895524575990
 30
0.000000000000000
 40
1.000000000000000
100
AcDbArc
 50
180.0000000000000
 51
270.0000000000000
  0
CIRCLE
  5
123
100
AcDbEntity
  8
A3
  6
CONTINUOUS
 62
7
100
AcDbCircle
 10
166.8068118493564
 20
291.2895524576984
 30
0.000000000000000
 40
1.250000000000000
  0
LINE
  5
124
100
AcDbEntity
  8
A3
  6
CONTINUOUS
 62
7
100
AcDbLine
 10
245.0026004147057
 20
265.8929743246399
 30
0.000000000000000
 11
246.2376698891385
 21
266.6060423175823
 31
0.000000000000000
  0
ARC
  5
125
100
AcDbEntity
  8
A3
  6
CONTINUOUS
 62
7
100
AcDbCircle
 10
245.2526004934351
 20
265.4599616682024
 30
0.000000000000000
 40
0.5000000000000000
100
AcDbArc
 50
120.0000104174086
 51
218.3246034540364
  0
ARC
  5
126
100
AcDbEntity
  8
A3
  6
CONTINUOUS
 62
7
100
AcDbCircle
 10
244.5068153947012
 20
260.7895557848913
 30
0.000000000000000
 40
1.000000000000000
100
AcDbArc
 50
312.1971400894813
 51
360.0000000000000
  0
LINE
  5
127
100
AcDbEntity
  8
A3
  6
CONTINUOUS
 62
7
100
AcDbLine
 10
162.1180571563792
 20
287.3824333874213
 30
0.000000000000000
 11
141.3705647886475
 21
293.0208339097748
 31
0.000000000000000
  0
ARC
  5
128
100
AcDbEntity
  8
A3
  6
CONTINUOUS
 62
7
100
AcDbCircle
 10
141.6328159757338
 20
293.9858335547862
 30
0.000000000000000
 40
1.000000000000000
100
AcDbArc
 50
164.7963183497325
 51
254.7963183497325
  0
LINE
  5
129
100
AcDbEntity
  8
A3
  6
CONTINUOUS
 62
7
100
AcDbLine
 10
140.6678163307233
 20
294.2480847418760
 30
0.000000000000000
 11
142.5035746403608
 21
301.0030822569820
 31
0.000000000000000
  0
ARC
  5
12A
100
AcDbEntity
  8
A3
  6
CONTINUOUS
 62
7
100
AcDbCircle
 10
143.4685742853713
 20
300.7408310698924
 30
0.000000000000000
 40
1.000000000000000
100
AcDbArc
 50
74.79631834973250
 51
164.7963183497325
  0
LINE
  5
12B
100
AcDbEntity
  8
A3
  6
CONTINUOUS
 62
7
100
AcDbLine
 10
167.3406566019713
 20
295.2895524575673
 30
0.000000000000000
 11
143.7308254724577
 21
301.7058307149035
 31
0.000000000000000
  0
CIRCLE
  5
12C
100
AcDbEntity
  8
A3
  6
CONTINUOUS
 62
7
100
AcDbCircle
 10
146.5418193041203
 20
296.7968273865115
 30
0.000000000000000
 40
2.100000000000000
  0
LINE
  5
12D
100
AcDbEntity
  8
A6
  6
CENTER
 62
1
100
AcDbLine
 10
148.9543184166484
 20
296.1411994187956
 30
0.000000000000000
 11
144.1293201915922
 21
297.4524553542273
 31
0.000000000000000
  0
LINE
  5
12E
100
AcDbEntity
  8
A6
  6
CENTER
 62
1
100
AcDbLine
 10
147.1974472718361
 20
299.2093264990394
 30
0.000000000000000
 11
145.8861913364045
 21
294.3843282739833
 31
0.000000000000000
  0
LINE
  5
12F
100
AcDbEntity
  8
A3
  6
CONTINUOUS
 62
7
100
AcDbLine
 10
164.3068118493565
 20
284.7150712492270
 30
0.000000000000000
 11
162.5585544272180
 21
285.1901829103127
 31
0.000000000000000
  0
LINE
  5
130
100
AcDbEntity
  8
A3
  6
CONTINUOUS
 62
7
100
AcDbLine
 10
162.5585544272178
 20
285.1901829103126
 30
0.000000000000000
 11
163.5146955146176
 21
288.7084732188239
 31
0.000000000000000
  0
ARC
  5
131
100
AcDbEntity
  8
A3
  6
CONTINUOUS
 62
7
100
AcDbCircle
 10
161.8558059692929
 20
286.4174337424103
 30
0.000000000000000
 40
1.000000000000000
100
AcDbArc
 50
344.7963183497325
 51
434.7963183497325
  0
ARC
  5
132
100
AcDbEntity
  8
A3
  6
CONTINUOUS
 62
7
100
AcDbCircle
 10
166.8068118493564
 20
291.2895524576985
 30
0.000000000000000
 40
3.999999999866930
100
AcDbArc
 50
74.79631834973250
 51
212.9860034524375
  0
ARC
  5
133
100
AcDbEntity
  8
A3
  6
CONTINUOUS
 62
7
100
AcDbCircle
 10
163.0321956921119
 20
288.8395988123674
 30
0.000000000000000
 40
0.5000000000000000
100
AcDbArc
 50
344.7963183497325
 51
392.9860034524376
  0
LINE
  5
134
100
AcDbEntity
  8
A3
  6
CONTINUOUS
 62
7
100
AcDbLine
 10
169.8068118493508
 20
219.2895524575887
 30
0.000000000000000
 11
181.8068118493508
 21
219.2895524575887
 31
0.000000000000000
  0
ARC
  5
135
100
AcDbEntity
  8
A3
  6
CONTINUOUS
 62
7
100
AcDbCircle
 10
181.8068118493508
 20
219.7895524575887
 30
0.000000000000000
 40
0.5000000000000000
100
AcDbArc
 50
270.0000000000000
 51
360.0000000000000
  0
LINE
  5
136
100
AcDbEntity
  8
A3
  6
CONTINUOUS
 62
7
100
AcDbLine
 10
182.3068118493508
 20
220.7895524575887
 30
0.000000000000000
 11
182.3068118493508
 21
219.7895524575887
 31
0.000000000000000
  0
LINE
  5
137
100
AcDbEntity
  8
A3
  6
CONTINUOUS
 62
7
100
AcDbLine
 10
169.3068118493508
 20
220.7895524575887
 30
0.000000000000000
 11
169.3068118493508
 21
219.7895524575887
 31
0.000000000000000
  0
ARC
  5
138
100
AcDbEntity
  8
A3
  6
CONTINUOUS
 62
7
100
AcDbCircle
 10
169.8068118493508
 20
219.7895524575887
 30
0.000000000000000
 40
0.5000000000000000
100
AcDbArc
 50
180.0000000000000
 51
270.0000000000000
  0
LINE
  5
139
100
AcDbEntity
  8
A3
  6
CONTINUOUS
 62
7
100
AcDbLine
 10
239.3068104630274
 20
261.7895524575630
 30
0.000000000000000
 11
267.8068118493564
 21
261.7895524575630
 31
0.000000000000000
  0
LINE
  5
13A
100
AcDbEntity
  8
A3
  6
CONTINUOUS
 62
7
100
AcDbLine
 10
239.3068104630274
 20
264.7895524575630
 30
0.000000000000000
 11
267.8068118493564
 21
264.7895524575630
 31
0.000000000000000
  0
LINE
  5
13B
100
AcDbEntity
  8
A3
  6
CONTINUOUS
 62
7
100
AcDbLine
 10
239.3068104630274
 20
264.7895524575630
 30
0.000000000000000
 11
239.3068104630274
 21
261.7895524575630
 31
0.000000000000000
  0
LINE
  5
13C
100
AcDbEntity
  8
A3
  6
CONTINUOUS
 62
7
100
AcDbLine
 10
272.8068118493564
 20
298.7895524575919
 30
0.000000000000000
 11
272.8068118493564
 21
266.7895524575617
 31
0.000000000000000
  0
LINE
  5
13D
100
AcDbEntity
  8
A3
  6
CONTINUOUS
 62
7
100
AcDbLine
 10
269.8068118493564
 20
298.7895524575966
 30
0.000000000000000
 11
269.8068118493564
 21
266.7895524575617
 31
0.000000000000000
  0
ARC
  5
13E
100
AcDbEntity
  8
A3
  6
CONTINUOUS
 62
7
100
AcDbCircle
 10
267.8068118493564
 20
266.7895524575617
 30
0.000000000000000
 40
2.000000000000000
100
AcDbArc
 50
270.0000000000000
 51
360.0000000000000
  0
ARC
  5
13F
100
AcDbEntity
  8
A3
  6
CONTINUOUS
 62
7
100
AcDbCircle
 10
267.8068118493564
 20
266.7895524575617
 30
0.000000000000000
 40
5.000000000000000
100
AcDbArc
 50
270.0000000000000
 51
360.0000000000000
  0
LINE
  5
140
100
AcDbEntity
  8
A3
  6
CONTINUOUS
 62
7
100
AcDbLine
 10
272.8068118493564
 20
298.7895524575918
 30
0.000000000000000
 11
269.8068118495258
 21
298.7895524575965
 31
0.000000000000000
  0
LINE
  5
141
100
AcDbEntity
  8
A6
  6
CENTER
 62
1
100
AcDbLine
 10
247.8068104630274
 20
260.2895524575630
 30
0.000000000000000
 11
247.8068104630274
 21
266.2895524575630
 31
0.000000000000000
  0
LINE
  5
142
100
AcDbEntity
  8
A6
  6
CENTER
 62
1
100
AcDbLine
 10
274.8917324796273
 20
289.7895524575619
 30
0.000000000000000
 11
267.7904703210365
 21
289.7895524575619
 31
0.000000000000000
  0
LINE
  5
143
100
AcDbEntity
  8
A6
  6
CENTER
 62
1
100
AcDbLine
 10
274.8917324796273
 20
274.7895524575617
 30
0.000000000000000
 11
267.7904703210365
 21
274.7895524575617
 31
0.000000000000000
  0
ARC
  5
144
100
AcDbEntity
  8
A3
  6
CONTINUOUS
 62
7
100
AcDbCircle
 10
257.3068118493418
 20
358.0223405507207
 30
0.000000000000000
 40
1.000000000000000
100
AcDbArc
 50
0.000000000000000
 51
90.00000000000000
  0
ARC
  5
145
100
AcDbEntity
  8
A3
  6
CONTINUOUS
 62
7
100
AcDbCircle
 10
163.8068118494749
 20
358.0223405507207
 30
0.000000000000000
 40
1.000000000000000
100
AcDbArc
 50
90.00000000000000
 51
180.0000000000000
  0
ARC
  5
146
100
AcDbEntity
  8
A3
  6
CONTINUOUS
 62
7
100
AcDbCircle
 10
467.5945535504686
 20
222.2895524575790
 30
0.000000000000000
 40
1.500000000000000
100
AcDbArc
 50
270.0000000000000
 51
360.0000000000000
  0
ARC
  5
147
100
AcDbEntity
  8
A3
  6
CONTINUOUS
 62
7
100
AcDbCircle
 10
376.5945535504686
 20
222.2895524575790
 30
0.000000000000000
 40
1.500000000000000
100
AcDbArc
 50
180.0000000000000
 51
270.0000000000000
  0
ARC
  5
148
100
AcDbEntity
  8
A3
  6
CONTINUOUS
 62
7
100
AcDbCircle
 10
466.5945535504634
 20
291.2895524575596
 30
0.000000000000000
 40
3.999999999866930
100
AcDbArc
 50
308.6821874550103
 51
450.0000000000000
  0
ARC
  5
149
100
AcDbEntity
  8
A3
  6
CONTINUOUS
 62
7
100
AcDbCircle
 10
376.5945535504634
 20
295.2895524577440
 30
0.000000000000000
 40
1.500000000000000
100
AcDbArc
 50
90.00000000000000
 51
180.0000000000000
  0
ARC
  5
14A
100
AcDbEntity
  8
A3
  6
CONTINUOUS
 62
7
100
AcDbCircle
 10
394.0945535504634
 20
265.1084332541581
 30
0.000000000000000
 40
1.000000000000000
100
AcDbArc
 50
0.000000000000000
 51
85.91438322002890
  0
ARC
  5
14B
100
AcDbEntity
  8
A3
  6
CONTINUOUS
 62
7
100
AcDbCircle
 10
394.0945535504634
 20
261.4706716609602
 30
0.000000000000000
 40
1.000000000000000
100
AcDbArc
 50
274.0856167799616
 51
360.0000000000000
  0
LINE
  5
14C
100
AcDbEntity
  8
A3
  6
CONTINUOUS
 62
7
100
AcDbLine
 10
376.5945535504687
 20
220.7895524575791
 30
0.000000000000000
 11
467.5945535504687
 21
220.7895524575790
 31
0.000000000000000
  0
LINE
  5
14D
100
AcDbEntity
  8
A3
  6
CONTINUOUS
 62
7
100
AcDbLine
 10
375.0945535504631
 20
258.7895524575592
 30
0.000000000000000
 11
375.0945535504636
 21
222.2895524575791
 31
0.000000000000000
  0
LINE
  5
14E
100
AcDbEntity
  8
A3
  6
CONTINUOUS
 62
7
100
AcDbLine
 10
466.5945535504633
 20
295.2895524574263
 30
0.000000000000000
 11
462.5945535504633
 21
295.2895524574404
 31
0.000000000000000
  0
LINE
  5
14F
100
AcDbEntity
  8
A3
  6
CONTINUOUS
 62
7
100
AcDbLine
 10
462.5945535504634
 20
295.2895524574405
 30
0.000000000000000
 11
462.5945535504634
 21
296.7895524575252
 31
0.000000000000000
  0
LINE
  5
150
100
AcDbEntity
  8
A3
  6
CONTINUOUS
 62
7
100
AcDbLine
 10
462.5945535504633
 20
296.7895524575252
 30
0.000000000000000
 11
376.5945535504633
 21
296.7895524577440
 31
0.000000000000000
  0
LINE
  5
151
100
AcDbEntity
  8
A3
  6
CONTINUOUS
 62
7
100
AcDbLine
 10
375.0945535504634
 20
295.2895524577440
 30
0.000000000000000
 11
375.0945535504634
 21
267.7895524575680
 31
0.000000000000000
  0
LINE
  5
152
100
AcDbEntity
  8
A3
  6
CONTINUOUS
 62
7
100
AcDbLine
 10
375.5945535504620
 20
267.2895524575680
 30
0.000000000000000
 11
377.5945535504665
 21
267.2895524575629
 31
0.000000000000000
  0
LINE
  5
153
100
AcDbEntity
  8
A3
  6
CONTINUOUS
 62
7
100
AcDbLine
 10
377.5945535504665
 20
267.2895524575629
 30
0.000000000000000
 11
394.1658006004514
 21
266.1058919539887
 31
0.000000000000000
  0
LINE
  5
154
100
AcDbEntity
  8
A3
  6
CONTINUOUS
 62
7
100
AcDbLine
 10
395.0945535504634
 20
265.1084332541579
 30
0.000000000000000
 11
395.0945535504634
 21
261.4706716609601
 31
0.000000000000000
  0
LINE
  5
155
100
AcDbEntity
  8
A3
  6
CONTINUOUS
 62
7
100
AcDbLine
 10
394.1658006004511
 20
260.4732129611294
 30
0.000000000000000
 11
377.5945535504649
 21
259.2895524575627
 31
0.000000000000000
  0
LINE
  5
156
100
AcDbEntity
  8
A3
  6
CONTINUOUS
 62
7
100
AcDbLine
 10
377.5945535504648
 20
259.2895524575626
 30
0.000000000000000
 11
375.5945535504623
 21
259.2895524575591
 31
0.000000000000000
  0
CIRCLE
  5
157
100
AcDbEntity
  8
A4
  6
CONTINUOUS
 62
4
100
AcDbCircle
 10
380.5945535504634
 20
286.2895524575830
 30
0.000000000000000
 40
2.000000000000000
  0
CIRCLE
  5
158
100
AcDbEntity
  8
A3
  6
CONTINUOUS
 62
7
100
AcDbCircle
 10
380.5945535504634
 20
286.2895524575830
 30
0.000000000000000
 40
1.621000000000000
  0
CIRCLE
  5
159
100
AcDbEntity
  8
A4
  6
CONTINUOUS
 62
4
100
AcDbCircle
 10
408.5945535504634
 20
263.2895524575830
 30
0.000000000000000
 40
2.000000000000000
  0
CIRCLE
  5
15A
100
AcDbEntity
  8
A3
  6
CONTINUOUS
 62
7
100
AcDbCircle
 10
408.5945535504634
 20
263.2895524575830
 30
0.000000000000000
 40
1.621000000000000
  0
CIRCLE
  5
15B
100
AcDbEntity
  8
A4
  6
CONTINUOUS
 62
4
100
AcDbCircle
 10
380.5945535504634
 20
243.7895524575830
 30
0.000000000000000
 40
2.000000000000000
  0
CIRCLE
  5
15C
100
AcDbEntity
  8
A3
  6
CONTINUOUS
 62
7
100
AcDbCircle
 10
380.5945535504634
 20
243.7895524575830
 30
0.000000000000000
 40
1.621000000000000
  0
LINE
  5
15D
100
AcDbEntity
  8
A3
  6
CONTINUOUS
 62
7
100
AcDbLine
 10
389.8445535504671
 20
281.7895524577874
 30
0.000000000000000
 11
387.5945535504672
 21
277.8924381407575
 31
0.000000000000000
  0
LINE
  5
15E
100
AcDbEntity
  8
A3
  6
CONTINUOUS
 62
7
100
AcDbLine
 10
389.8445535504671
 20
281.7895524577872
 30
0.000000000000000
 11
390.3445535504669
 21
281.7895524577872
 31
0.000000000000000
  0
LINE
  5
15F
100
AcDbEntity
  8
A3
  6
CONTINUOUS
 62
7
100
AcDbLine
 10
387.5945535504671
 20
277.2895524577872
 30
0.000000000000000
 11
387.5945535504671
 21
277.8924381407572
 31
0.000000000000000
  0
LINE
  5
160
100
AcDbEntity
  8
A3
  6
CONTINUOUS
 62
7
100
AcDbLine
 10
387.5945535504671
 20
277.2895524577872
 30
0.000000000000000
 11
389.3445535504673
 21
277.2895524577872
 31
0.000000000000000
  0
LINE
  5
161
100
AcDbEntity
  8
A3
  6
CONTINUOUS
 62
7
100
AcDbLine
 10
392.5945535504666
 20
277.2895524577872
 30
0.000000000000000
 11
392.5945535504666
 21
277.8924381407588
 31
0.000000000000000
  0
LINE
  5
162
100
AcDbEntity
  8
A3
  6
CONTINUOUS
 62
7
100
AcDbLine
 10
392.5945535504666
 20
277.2895524577872
 30
0.000000000000000
 11
390.8445535504673
 21
277.2895524577872
 31
0.000000000000000
  0
LINE
  5
163
100
AcDbEntity
  8
A3
  6
CONTINUOUS
 62
7
100
AcDbLine
 10
389.3445535504670
 20
274.0395524577870
 30
0.000000000000000
 11
390.0945535504670
 21
273.2895524577870
 31
0.000000000000000
  0
LINE
  5
164
100
AcDbEntity
  8
A3
  6
CONTINUOUS
 62
7
100
AcDbLine
 10
390.0945535504673
 20
273.2895524577871
 30
0.000000000000000
 11
390.8445535504670
 21
274.0395524577869
 31
0.000000000000000
  0
LINE
  5
165
100
AcDbEntity
  8
A3
  6
CONTINUOUS
 62
7
100
AcDbLine
 10
390.3445535504671
 20
281.7895524577875
 30
0.000000000000000
 11
392.5945535504670
 21
277.8924381407590
 31
0.000000000000000
  0
LINE
  5
166
100
AcDbEntity
  8
A3
  6
CONTINUOUS
 62
7
100
AcDbLine
 10
390.8445535504673
 20
274.0395524577870
 30
0.000000000000000
 11
390.8445535504673
 21
277.2895524577872
 31
0.000000000000000
  0
LINE
  5
167
100
AcDbEntity
  8
A3
  6
CONTINUOUS
 62
7
100
AcDbLine
 10
389.3445535504673
 20
274.0395524577870
 30
0.000000000000000
 11
389.3445535504673
 21
277.2895524577872
 31
0.000000000000000
  0
LINE
  5
168
100
AcDbEntity
  8
A3
  6
CONTINUOUS
 62
7
100
AcDbLine
 10
386.0945535504673
 20
272.7895524577872
 30
0.000000000000000
 11
386.0945535504673
 21
285.7895524577872
 31
0.000000000000000
  0
LINE
  5
169
100
AcDbEntity
  8
A3
  6
CONTINUOUS
 62
7
100
AcDbLine
 10
394.0945535504673
 20
272.7895524577872
 30
0.000000000000000
 11
394.0945535504673
 21
285.7895524577872
 31
0.000000000000000
  0
LINE
  5
16A
100
AcDbEntity
  8
A3
  6
CONTINUOUS
 62
7
100
AcDbLine
 10
387.0945535504673
 20
286.7895524577872
 30
0.000000000000000
 11
393.0945535504673
 21
286.7895524577872
 31
0.000000000000000
  0
LINE
  5
16B
100
AcDbEntity
  8
A3
  6
CONTINUOUS
 62
7
100
AcDbLine
 10
387.0945535504673
 20
271.7895524577872
 30
0.000000000000000
 11
393.0945535504673
 21
271.7895524577872
 31
0.000000000000000
  0
CIRCLE
  5
16C
100
AcDbEntity
  8
A3
  6
CONTINUOUS
 62
7
100
AcDbCircle
 10
393.0945535504632
 20
252.7895524575393
 30
0.000000000000000
 40
1.621000000000000
  0
CIRCLE
  5
16D
100
AcDbEntity
  8
A4
  6
CONTINUOUS
 62
4
100
AcDbCircle
 10
393.0945535504632
 20
252.7895524575393
 30
0.000000000000000
 40
2.000000000000000
  0
CIRCLE
  5
16E
100
AcDbEntity
  8
A3
  6
CONTINUOUS
 62
7
100
AcDbCircle
 10
421.5945535504632
 20
272.7895524578199
 30
0.000000000000000
 40
1.621000000000000
  0
CIRCLE
  5
16F
100
AcDbEntity
  8
A4
  6
CONTINUOUS
 62
4
100
AcDbCircle
 10
421.5945535504632
 20
272.7895524578199
 30
0.000000000000000
 40
2.000000000000000
  0
CIRCLE
  5
170
100
AcDbEntity
  8
A3
  6
CONTINUOUS
 62
7
100
AcDbCircle
 10
438.0945535504682
 20
291.2895524575277
 30
0.000000000000000
 40
1.621000000000000
  0
CIRCLE
  5
171
100
AcDbEntity
  8
A4
  6
CONTINUOUS
 62
4
100
AcDbCircle
 10
438.0945535504682
 20
291.2895524575277
 30
0.000000000000000
 40
2.000000000000000
  0
CIRCLE
  5
172
100
AcDbEntity
  8
A4
  6
CONTINUOUS
 62
4
100
AcDbCircle
 10
464.5945535504632
 20
229.2895524575315
 30
0.000000000000000
 40
1.500000000000000
  0
CIRCLE
  5
173
100
AcDbEntity
  8
A3
  6
CONTINUOUS
 62
7
100
AcDbCircle
 10
464.5945535504632
 20
229.2895524575315
 30
0.000000000000000
 40
1.229000000000000
  0
LINE
  5
174
100
AcDbEntity
  8
A3
  6
CONTINUOUS
 62
7
100
AcDbLine
 10
467.5945535504626
 20
258.2895524582697
 30
0.000000000000000
 11
467.5945535504630
 21
279.2895524582684
 31
0.000000000000000
  0
LINE
  5
175
100
AcDbEntity
  8
A3
  6
CONTINUOUS
 62
7
100
AcDbLine
 10
466.5945535504630
 20
279.2895524582668
 30
0.000000000000000
 11
466.5945535504626
 21
258.2895524582686
 31
0.000000000000000
  0
LINE
  5
176
100
AcDbEntity
  8
A3
  6
CONTINUOUS
 62
7
100
AcDbLine
 10
466.5945535504626
 20
258.2895524582686
 30
0.000000000000000
 11
469.0945535507350
 21
258.2895524582712
 31
0.000000000000000
  0
CIRCLE
  5
177
100
AcDbEntity
  8
A3
  6
CONTINUOUS
 62
7
100
AcDbCircle
 10
413.4715670308083
 20
239.5749331125857
 30
0.000000000000000
 40
0.7830000000000000
  0
CIRCLE
  5
178
100
AcDbEntity
  8
A3
  6
CONTINUOUS
 62
7
100
AcDbCircle
 10
409.7945535506497
 20
236.4895524575074
 30
0.000000000000000
 40
0.7830000000000000
  0
CIRCLE
  5
179
100
AcDbEntity
  8
A3
  6
CONTINUOUS
 62
7
100
AcDbCircle
 10
453.1945534505553
 20
249.3895524578334
 30
0.000000000000000
 40
0.7830000000000000
  0
CIRCLE
  5
17A
100
AcDbEntity
  8
A3
  6
CONTINUOUS
 62
7
100
AcDbCircle
 10
457.9945536505556
 20
249.3895524578668
 30
0.000000000000000
 40
0.7830000000000000
  0
ARC
  5
17B
100
AcDbEntity
  8
A3
  6
CONTINUOUS
 62
7
100
AcDbCircle
 10
387.0945535504673
 20
285.7895524577872
 30
0.000000000000000
 40
1.000000000000000
100
AcDbArc
 50
90.00000000000000
 51
180.0000000000000
  0
ARC
  5
17C
100
AcDbEntity
  8
A3
  6
CONTINUOUS
 62
7
100
AcDbCircle
 10
393.0945535504673
 20
285.7895524577872
 30
0.000000000000000
 40
1.000000000000000
100
AcDbArc
 50
0.000000000000000
 51
90.00000000000000
  0
ARC
  5
17D
100
AcDbEntity
  8
A3
  6
CONTINUOUS
 62
7
100
AcDbCircle
 10
393.0945535504673
 20
272.7895524577872
 30
0.000000000000000
 40
1.000000000000000
100
AcDbArc
 50
270.0000000000000
 51
360.0000000000000
  0
ARC
  5
17E
100
AcDbEntity
  8
A3
  6
CONTINUOUS
 62
7
100
AcDbCircle
 10
387.0945535504673
 20
272.7895524577872
 30
0.000000000000000
 40
1.000000000000000
100
AcDbArc
 50
180.0000000000000
 51
270.0000000000000
  0
LINE
  5
17F
100
AcDbEntity
  8
A3
  6
CONTINUOUS
 62
7
100
AcDbLine
 10
466.5945535504630
 20
279.2895524582665
 30
0.000000000000000
 11
469.0945535502695
 21
279.2895524582711
 31
0.000000000000000
  0
ARC
  5
180
100
AcDbEntity
  8
A3
  6
CONTINUOUS
 62
7
100
AcDbCircle
 10
375.5945535504634
 20
267.7895524575680
 30
0.000000000000000
 40
0.5000000000000000
100
AcDbArc
 50
180.0000000000000
 51
270.0000000000000
  0
ARC
  5
181
100
AcDbEntity
  8
A3
  6
CONTINUOUS
 62
7
100
AcDbCircle
 10
375.5945535504629
 20
258.7895524575591
 30
0.000000000000000
 40
0.5000000000000000
100
AcDbArc
 50
90.00000000000000
 51
180.0000000000000
  0
LINE
  5
182
100
AcDbEntity
  8
A3
  6
CONTINUOUS
 62
7
100
AcDbLine
 10
469.0945535504690
 20
222.2895524575790
 30
0.000000000000000
 11
469.0945535504626
 21
288.1670534585300
 31
0.000000000000000
  0
CIRCLE
  5
183
100
AcDbEntity
  8
A3
  6
CONTINUOUS
 62
7
100
AcDbCircle
 10
412.5157357048074
 20
242.0364136635415
 30
0.000000000000000
 40
0.8000000000000000
  0
CIRCLE
  5
184
100
AcDbEntity
  8
A3
  6
CONTINUOUS
 62
7
100
AcDbCircle
 10
407.5364468245341
 20
237.8582942005787
 30
0.000000000000000
 40
0.8000000000000000
  0
CIRCLE
  5
185
100
AcDbEntity
  8
A3
  6
CONTINUOUS
 62
7
100
AcDbCircle
 10
458.8445535504632
 20
251.8895524575257
 30
0.000000000000000
 40
0.8000000000000000
  0
CIRCLE
  5
186
100
AcDbEntity
  8
A3
  6
CONTINUOUS
 62
7
100
AcDbCircle
 10
452.3445535504632
 20
251.8895524575257
 30
0.000000000000000
 40
0.8000000000000000
  0
LINE
  5
187
100
AcDbEntity
  8
A3
  6
CONTINUOUS
 62
7
100
AcDbLine
 10
463.5945535504709
 20
268.2895524575448
 30
0.000000000000000
 11
425.5945535504714
 21
268.2895524575377
 31
0.000000000000000
  0
LINE
  5
188
100
AcDbEntity
  8
A3
  6
CONTINUOUS
 62
7
100
AcDbLine
 10
463.5945535504704
 20
282.2895524575448
 30
0.000000000000000
 11
425.5945535504708
 21
282.2895524575377
 31
0.000000000000000
  0
LINE
  5
189
100
AcDbEntity
  8
A3
  6
CONTINUOUS
 62
7
100
AcDbLine
 10
424.5945535504709
 20
269.2895524575375
 30
0.000000000000000
 11
424.5945535504709
 21
281.2895524575376
 31
0.000000000000000
  0
LINE
  5
18A
100
AcDbEntity
  8
A3
  6
CONTINUOUS
 62
7
100
AcDbLine
 10
464.5945535504709
 20
269.2895524575446
 30
0.000000000000000
 11
464.5945535504709
 21
281.2895524575447
 31
0.000000000000000
  0
ARC
  5
18B
100
AcDbEntity
  8
A3
  6
CONTINUOUS
 62
7
100
AcDbCircle
 10
463.5945535504709
 20
281.2895524575447
 30
0.000000000000000
 40
1.000000000000000
100
AcDbArc
 50
0.000000000000000
 51
90.00000000000000
  0
ARC
  5
18C
100
AcDbEntity
  8
A3
  6
CONTINUOUS
 62
7
100
AcDbCircle
 10
463.5945535504709
 20
269.2895524575447
 30
0.000000000000000
 40
1.000000000000000
100
AcDbArc
 50
270.0000000000000
 51
360.0000000000000
  0
ARC
  5
18D
100
AcDbEntity
  8
A3
  6
CONTINUOUS
 62
7
100
AcDbCircle
 10
425.5945535504711
 20
269.2895524575375
 30
0.000000000000000
 40
1.000000000000000
100
AcDbArc
 50
180.0000000000000
 51
270.0000000000000
  0
ARC
  5
18E
100
AcDbEntity
  8
A3
  6
CONTINUOUS
 62
7
100
AcDbCircle
 10
425.5945535504709
 20
281.2895524575376
 30
0.000000000000000
 40
1.000000000000000
100
AcDbArc
 50
90.00000000000000
 51
180.0000000000000
  0
CIRCLE
  5
18F
100
AcDbEntity
  8
A3
  6
CONTINUOUS
 62
7
100
AcDbCircle
 10
434.0945535503872
 20
258.0395524576153
 30
0.000000000000000
 40
1.500000000000000
  0
CIRCLE
  5
190
100
AcDbEntity
  8
A3
  6
CONTINUOUS
 62
7
100
AcDbCircle
 10
441.0945535503968
 20
240.0395524576216
 30
0.000000000000000
 40
1.500000000000000
  0
CIRCLE
  5
191
100
AcDbEntity
  8
A3
  6
CONTINUOUS
 62
7
100
AcDbCircle
 10
434.0945535503872
 20
258.0395524576153
 30
0.000000000000000
 40
2.750000000000000
  0
CIRCLE
  5
192
100
AcDbEntity
  8
A3
  6
CONTINUOUS
 62
7
100
AcDbCircle
 10
441.5945535503888
 20
252.0395524576020
 30
0.000000000000000
 40
2.750000000000000
  0
CIRCLE
  5
193
100
AcDbEntity
  8
A3
  6
CONTINUOUS
 62
7
100
AcDbCircle
 10
441.0945535503890
 20
240.0395524576088
 30
0.000000000000000
 40
2.750000000000000
  0
CIRCLE
  5
194
100
AcDbEntity
  8
A3
  6
CONTINUOUS
 62
7
100
AcDbCircle
 10
433.5945535503872
 20
240.0395524576000
 30
0.000000000000000
 40
2.750000000000000
  0
CIRCLE
  5
195
100
AcDbEntity
  8
A3
  6
CONTINUOUS
 62
7
100
AcDbCircle
 10
433.5945535503872
 20
240.0395524576000
 30
0.000000000000000
 40
2.600000000000000
  0
LINE
  5
196
100
AcDbEntity
  8
A3
  6
CONTINUOUS
 62
7
100
AcDbLine
 10
433.0948030244532
 20
240.5393029835341
 30
0.000000000000000
 11
433.2132271169702
 21
240.8052878502435
 31
0.000000000000000
  0
LINE
  5
197
100
AcDbEntity
  8
A3
  6
CONTINUOUS
 62
7
100
AcDbLine
 10
433.0948030244530
 20
240.5393029835339
 30
0.000000000000000
 11
432.8288181577432
 21
240.4208788910167
 31
0.000000000000000
  0
LINE
  5
198
100
AcDbEntity
  8
A3
  6
CONTINUOUS
 62
7
100
AcDbLine
 10
433.2132271169700
 20
240.8052878502433
 30
0.000000000000000
 11
433.2215988784798
 21
241.2849057459090
 31
0.000000000000000
  0
LINE
  5
199
100
AcDbEntity
  8
A3
  6
CONTINUOUS
 62
7
100
AcDbLine
 10
432.8288181577431
 20
240.4208788910167
 30
0.000000000000000
 11
432.3492002620781
 21
240.4125071295072
 31
0.000000000000000
  0
LINE
  5
19A
100
AcDbEntity
  8
A3
  6
CONTINUOUS
 62
7
100
AcDbLine
 10
433.9758799838041
 20
240.8052878502435
 30
0.000000000000000
 11
433.9675082222946
 21
241.2849057459091
 31
0.000000000000000
  0
LINE
  5
19B
100
AcDbEntity
  8
A3
  6
CONTINUOUS
 62
7
100
AcDbLine
 10
434.0943040763207
 20
240.5393029835340
 30
0.000000000000000
 11
433.9758799838037
 21
240.8052878502436
 31
0.000000000000000
  0
LINE
  5
19C
100
AcDbEntity
  8
A3
  6
CONTINUOUS
 62
7
100
AcDbLine
 10
434.0943040763211
 20
240.5393029835340
 30
0.000000000000000
 11
434.3602889430310
 21
240.4208788910169
 31
0.000000000000000
  0
LINE
  5
19D
100
AcDbEntity
  8
A3
  6
CONTINUOUS
 62
7
100
AcDbLine
 10
434.3602889430310
 20
240.4208788910165
 30
0.000000000000000
 11
434.8399068386960
 21
240.4125071295069
 31
0.000000000000000
  0
LINE
  5
19E
100
AcDbEntity
  8
A3
  6
CONTINUOUS
 62
7
100
AcDbLine
 10
434.3602889430305
 20
239.6582260241831
 30
0.000000000000000
 11
434.8399068386962
 21
239.6665977856927
 31
0.000000000000000
  0
LINE
  5
19F
100
AcDbEntity
  8
A3
  6
CONTINUOUS
 62
7
100
AcDbLine
 10
434.0943040763210
 20
239.5398019316660
 30
0.000000000000000
 11
434.3602889430304
 21
239.6582260241831
 31
0.000000000000000
  0
LINE
  5
1A0
100
AcDbEntity
  8
A3
  6
CONTINUOUS
 62
7
100
AcDbLine
 10
434.0943040763212
 20
239.5398019316659
 30
0.000000000000000
 11
433.9758799838039
 21
239.2738170649559
 31
0.000000000000000
  0
LINE
  5
1A1
100
AcDbEntity
  8
A3
  6
CONTINUOUS
 62
7
100
AcDbLine
 10
433.9758799838036
 20
239.2738170649559
 30
0.000000000000000
 11
433.9675082222940
 21
238.7941991692905
 31
0.000000000000000
  0
LINE
  5
1A2
100
AcDbEntity
  8
A3
  6
CONTINUOUS
 62
7
100
AcDbLine
 10
433.2132271169700
 20
239.2738170649563
 30
0.000000000000000
 11
433.2215988784796
 21
238.7941991692906
 31
0.000000000000000
  0
LINE
  5
1A3
100
AcDbEntity
  8
A3
  6
CONTINUOUS
 62
7
100
AcDbLine
 10
433.0948030244535
 20
239.5398019316659
 30
0.000000000000000
 11
433.2132271169705
 21
239.2738170649565
 31
0.000000000000000
  0
LINE
  5
1A4
100
AcDbEntity
  8
A3
  6
CONTINUOUS
 62
7
100
AcDbLine
 10
433.0948030244533
 20
239.5398019316659
 30
0.000000000000000
 11
432.8288181577433
 21
239.6582260241831
 31
0.000000000000000
  0
LINE
  5
1A5
100
AcDbEntity
  8
A3
  6
CONTINUOUS
 62
7
100
AcDbLine
 10
432.8288181577432
 20
239.6582260241833
 30
0.000000000000000
 11
432.3492002620777
 21
239.6665977856928
 31
0.000000000000000
  0
ARC
  5
1A6
100
AcDbEntity
  8
A3
  6
CONTINUOUS
 62
7
100
AcDbCircle
 10
433.5945535503872
 20
240.0395524576000
 30
0.000000000000000
 40
1.300000000000000
100
AcDbArc
 50
343.3282509640040
 51
376.6717490359751
  0
ARC
  5
1A7
100
AcDbEntity
  8
A3
  6
CONTINUOUS
 62
7
100
AcDbCircle
 10
433.5945535503872
 20
240.0395524576000
 30
0.000000000000000
 40
1.300000000000000
100
AcDbArc
 50
253.3282509640079
 51
286.6717490359734
  0
ARC
  5
1A8
100
AcDbEntity
  8
A3
  6
CONTINUOUS
 62
7
100
AcDbCircle
 10
433.5945535503872
 20
240.0395524576000
 30
0.000000000000000
 40
1.300000000000000
100
AcDbArc
 50
73.32825096401454
 51
106.6717490359855
  0
ARC
  5
1A9
100
AcDbEntity
  8
A3
  6
CONTINUOUS
 62
7
100
AcDbCircle
 10
433.5945535503872
 20
240.0395524576000
 30
0.000000000000000
 40
1.300000000000000
100
AcDbArc
 50
163.3282509640185
 51
196.6717490359765
  0
CIRCLE
  5
1AA
100
AcDbEntity
  8
A3
  6
CONTINUOUS
 62
7
100
AcDbCircle
 10
441.5945535503886
 20
252.0395524576020
 30
0.000000000000000
 40
2.600000000000000
  0
LINE
  5
1AB
100
AcDbEntity
  8
A3
  6
CONTINUOUS
 62
7
100
AcDbLine
 10
441.0948030244544
 20
252.5393029835361
 30
0.000000000000000
 11
441.2132271169715
 21
252.8052878502455
 31
0.000000000000000
  0
LINE
  5
1AC
100
AcDbEntity
  8
A3
  6
CONTINUOUS
 62
7
100
AcDbLine
 10
441.0948030244545
 20
252.5393029835359
 30
0.000000000000000
 11
440.8288181577446
 21
252.4208788910187
 31
0.000000000000000
  0
LINE
  5
1AD
100
AcDbEntity
  8
A3
  6
CONTINUOUS
 62
7
100
AcDbLine
 10
441.2132271169716
 20
252.8052878502453
 30
0.000000000000000
 11
441.2215988784814
 21
253.2849057459112
 31
0.000000000000000
  0
LINE
  5
1AE
100
AcDbEntity
  8
A3
  6
CONTINUOUS
 62
7
100
AcDbLine
 10
440.8288181577445
 20
252.4208788910187
 30
0.000000000000000
 11
440.3492002620795
 21
252.4125071295092
 31
0.000000000000000
  0
LINE
  5
1AF
100
AcDbEntity
  8
A3
  6
CONTINUOUS
 62
7
100
AcDbLine
 10
441.9758799838054
 20
252.8052878502455
 30
0.000000000000000
 11
441.9675082222959
 21
253.2849057459111
 31
0.000000000000000
  0
LINE
  5
1B0
100
AcDbEntity
  8
A3
  6
CONTINUOUS
 62
7
100
AcDbLine
 10
442.0943040763225
 20
252.5393029835361
 30
0.000000000000000
 11
441.9758799838054
 21
252.8052878502458
 31
0.000000000000000
  0
LINE
  5
1B1
100
AcDbEntity
  8
A3
  6
CONTINUOUS
 62
7
100
AcDbLine
 10
442.0943040763225
 20
252.5393029835362
 30
0.000000000000000
 11
442.3602889430326
 21
252.4208788910190
 31
0.000000000000000
  0
LINE
  5
1B2
100
AcDbEntity
  8
A3
  6
CONTINUOUS
 62
7
100
AcDbLine
 10
442.3602889430323
 20
252.4208788910185
 30
0.000000000000000
 11
442.8399068386976
 21
252.4125071295090
 31
0.000000000000000
  0
LINE
  5
1B3
100
AcDbEntity
  8
A3
  6
CONTINUOUS
 62
7
100
AcDbLine
 10
442.3602889430319
 20
251.6582260241852
 30
0.000000000000000
 11
442.8399068386976
 21
251.6665977856947
 31
0.000000000000000
  0
LINE
  5
1B4
100
AcDbEntity
  8
A3
  6
CONTINUOUS
 62
7
100
AcDbLine
 10
442.0943040763223
 20
251.5398019316679
 30
0.000000000000000
 11
442.3602889430317
 21
251.6582260241850
 31
0.000000000000000
  0
LINE
  5
1B5
100
AcDbEntity
  8
A3
  6
CONTINUOUS
 62
7
100
AcDbLine
 10
442.0943040763227
 20
251.5398019316680
 30
0.000000000000000
 11
441.9758799838054
 21
251.2738170649580
 31
0.000000000000000
  0
LINE
  5
1B6
100
AcDbEntity
  8
A3
  6
CONTINUOUS
 62
7
100
AcDbLine
 10
441.9758799838052
 20
251.2738170649579
 30
0.000000000000000
 11
441.9675082222956
 21
250.7941991692927
 31
0.000000000000000
  0
LINE
  5
1B7
100
AcDbEntity
  8
A3
  6
CONTINUOUS
 62
7
100
AcDbLine
 10
441.2132271169714
 20
251.2738170649585
 30
0.000000000000000
 11
441.2215988784810
 21
250.7941991692927
 31
0.000000000000000
  0
LINE
  5
1B8
100
AcDbEntity
  8
A3
  6
CONTINUOUS
 62
7
100
AcDbLine
 10
441.0948030244548
 20
251.5398019316679
 30
0.000000000000000
 11
441.2132271169718
 21
251.2738170649584
 31
0.000000000000000
  0
LINE
  5
1B9
100
AcDbEntity
  8
A3
  6
CONTINUOUS
 62
7
100
AcDbLine
 10
441.0948030244548
 20
251.5398019316680
 30
0.000000000000000
 11
440.8288181577448
 21
251.6582260241853
 31
0.000000000000000
  0
LINE
  5
1BA
100
AcDbEntity
  8
A3
  6
CONTINUOUS
 62
7
100
AcDbLine
 10
440.8288181577445
 20
251.6582260241853
 30
0.000000000000000
 11
440.3492002620793
 21
251.6665977856947
 31
0.000000000000000
  0
ARC
  5
1BB
100
AcDbEntity
  8
A3
  6
CONTINUOUS
 62
7
100
AcDbCircle
 10
441.5945535503886
 20
252.0395524576020
 30
0.000000000000000
 40
1.300000000000000
100
AcDbArc
 50
343.3282509640040
 51
376.6717490359751
  0
ARC
  5
1BC
100
AcDbEntity
  8
A3
  6
CONTINUOUS
 62
7
100
AcDbCircle
 10
441.5945535503886
 20
252.0395524576020
 30
0.000000000000000
 40
1.300000000000000
100
AcDbArc
 50
253.3282509640079
 51
286.6717490359734
  0
ARC
  5
1BD
100
AcDbEntity
  8
A3
  6
CONTINUOUS
 62
7
100
AcDbCircle
 10
441.5945535503886
 20
252.0395524576020
 30
0.000000000000000
 40
1.300000000000000
100
AcDbArc
 50
73.32825096401454
 51
106.6717490359855
  0
ARC
  5
1BE
100
AcDbEntity
  8
A3
  6
CONTINUOUS
 62
7
100
AcDbCircle
 10
441.5945535503886
 20
252.0395524576020
 30
0.000000000000000
 40
1.300000000000000
100
AcDbArc
 50
163.3282509640185
 51
196.6717490359765
  0
LINE
  5
1BF
100
AcDbEntity
  8
A3
  6
CONTINUOUS
 62
7
100
AcDbLine
 10
204.3068118493223
 20
266.7895524583736
 30
0.000000000000000
 11
188.8068118493223
 21
266.7895524581851
 31
0.000000000000000
  0
LINE
  5
1C0
100
AcDbEntity
  8
A3
  6
CONTINUOUS
 62
7
100
AcDbLine
 10
205.3068118493344
 20
265.7895524583752
 30
0.000000000000000
 11
205.3068118493889
 21
233.7895524583525
 31
0.000000000000000
  0
LINE
  5
1C1
100
AcDbEntity
  8
A3
  6
CONTINUOUS
 62
7
100
AcDbLine
 10
187.8068118493344
 20
265.7895524581833
 30
0.000000000000000
 11
187.8068118493899
 21
233.7895524583490
 31
0.000000000000000
  0
LINE
  5
1C2
100
AcDbEntity
  8
A3
  6
CONTINUOUS
 62
7
100
AcDbLine
 10
188.8068118493899
 20
232.7895524583507
 30
0.000000000000000
 11
204.3068118493890
 21
232.7895524583507
 31
0.000000000000000
  0
ARC
  5
1C3
100
AcDbEntity
  8
A3
  6
CONTINUOUS
 62
7
100
AcDbCircle
 10
188.8068118493343
 20
265.7895524581850
 30
0.000000000000000
 40
1.000000000000000
100
AcDbArc
 50
90.00000000000000
 51
180.0000000000000
  0
ARC
  5
1C4
100
AcDbEntity
  8
A3
  6
CONTINUOUS
 62
7
100
AcDbCircle
 10
188.8068118493899
 20
233.7895524583507
 30
0.000000000000000
 40
1.000000000000000
100
AcDbArc
 50
180.0000000000000
 51
270.0000000000000
  0
ARC
  5
1C5
100
AcDbEntity
  8
A3
  6
CONTINUOUS
 62
7
100
AcDbCircle
 10
204.3068118493890
 20
233.7895524583507
 30
0.000000000000000
 40
1.000000000000000
100
AcDbArc
 50
270.0000000000000
 51
360.0000000000000
  0
ARC
  5
1C6
100
AcDbEntity
  8
A3
  6
CONTINUOUS
 62
7
100
AcDbCircle
 10
204.3068118493344
 20
265.7895524583736
 30
0.000000000000000
 40
1.000000000000000
100
AcDbArc
 50
0.000000000000000
 51
90.00000000000000
  0
LINE
  5
1C7
100
AcDbEntity
  8
A3
  6
CONTINUOUS
 62
7
100
AcDbLine
 10
188.8068118493283
 20
265.0395524583206
 30
0.000000000000000
 11
188.8068118494267
 21
235.0395524583180
 31
0.000000000000000
  0
LINE
  5
1C8
100
AcDbEntity
  8
A3
  6
CONTINUOUS
 62
7
100
AcDbLine
 10
188.8068118493284
 20
265.0395524583182
 30
0.000000000000000
 11
202.8068118493233
 21
265.0395524583293
 31
0.000000000000000
  0
LINE
  5
1C9
100
AcDbEntity
  8
A3
  6
CONTINUOUS
 62
7
100
AcDbLine
 10
192.3068118493762
 20
265.0395524583207
 30
0.000000000000000
 11
192.3068118493762
 21
266.7895524582276
 31
0.000000000000000
  0
LINE
  5
1CA
100
AcDbEntity
  8
A3
  6
CONTINUOUS
 62
7
100
AcDbLine
 10
192.6305714485419
 20
263.5395524583211
 30
0.000000000000000
 11
192.6305714485419
 21
265.0395524583211
 31
0.000000000000000
  0
LINE
  5
1CB
100
AcDbEntity
  8
A3
  6
CONTINUOUS
 62
7
100
AcDbLine
 10
192.6305714485417
 20
263.5395524583212
 30
0.000000000000000
 11
198.6305714485417
 21
263.5395524583260
 31
0.000000000000000
  0
LINE
  5
1CC
100
AcDbEntity
  8
A3
  6
CONTINUOUS
 62
7
100
AcDbLine
 10
198.6305714485419
 20
263.5395524583258
 30
0.000000000000000
 11
198.6305714485419
 21
265.0395524583258
 31
0.000000000000000
  0
LINE
  5
1CD
100
AcDbEntity
  8
A3
  6
CONTINUOUS
 62
7
100
AcDbLine
 10
199.3068118493762
 20
265.0395524583264
 30
0.000000000000000
 11
199.3068118493762
 21
266.7895524583128
 31
0.000000000000000
  0
LINE
  5
1CE
100
AcDbEntity
  8
A3
  6
CONTINUOUS
 62
7
100
AcDbLine
 10
202.8068118493234
 20
265.0395524583266
 30
0.000000000000000
 11
202.8068118494265
 21
235.0395524583288
 31
0.000000000000000
  0
LINE
  5
1CF
100
AcDbEntity
  8
A3
  6
CONTINUOUS
 62
7
100
AcDbLine
 10
187.8068118493877
 20
235.0395524583169
 30
0.000000000000000
 11
202.8068118494266
 21
235.0395524583290
 31
0.000000000000000
  0
LINE
  5
1D0
100
AcDbEntity
  8
A3
  6
CONTINUOUS
 62
7
100
AcDbLine
 10
193.5568118493756
 20
234.5395524583218
 30
0.000000000000000
 11
198.0568118493756
 21
234.5395524583255
 31
0.000000000000000
  0
LINE
  5
1D1
100
AcDbEntity
  8
A3
  6
CONTINUOUS
 62
7
100
AcDbLine
 10
198.0568118493755
 20
234.5395524583253
 30
0.000000000000000
 11
198.0568118493755
 21
235.0395524583253
 31
0.000000000000000
  0
LINE
  5
1D2
100
AcDbEntity
  8
A3
  6
CONTINUOUS
 62
7
100
AcDbLine
 10
193.5568118493755
 20
234.5395524583217
 30
0.000000000000000
 11
193.5568118493755
 21
235.0395524583217
 31
0.000000000000000
  0
LINE
  5
1D3
100
AcDbEntity
  8
A3
  6
CONTINUOUS
 62
7
100
AcDbLine
 10
187.8068118493668
 20
247.0336334701772
 30
0.000000000000000
 11
188.8068118493798
 21
247.0336334701767
 31
0.000000000000000
  0
LINE
  5
1D4
100
AcDbEntity
  8
A3
  6
CONTINUOUS
 62
7
100
AcDbLine
 10
466.0607087978485
 20
295.2895524574288
 30
0.000000000000000
 11
489.6705399273621
 21
301.7058307147651
 31
0.000000000000000
  0
ARC
  5
1D5
100
AcDbEntity
  8
A3
  6
CONTINUOUS
 62
7
100
AcDbCircle
 10
489.9327911144485
 20
300.7408310697539
 30
0.000000000000000
 40
1.000000000000000
100
AcDbArc
 50
15.20368165026751
 51
105.2036816502674
  0
LINE
  5
1D6
100
AcDbEntity
  8
A3
  6
CONTINUOUS
 62
7
100
AcDbLine
 10
492.7335490690965
 20
294.2480847417376
 30
0.000000000000000
 11
490.8977907594590
 21
301.0030822568436
 31
0.000000000000000
  0
ARC
  5
1D7
100
AcDbEntity
  8
A3
  6
CONTINUOUS
 62
7
100
AcDbCircle
 10
491.7685494240861
 20
293.9858335546477
 30
0.000000000000000
 40
1.000000000000000
100
AcDbArc
 50
285.2036816502675
 51
375.2036816502675
  0
LINE
  5
1D8
100
AcDbEntity
  8
A3
  6
CONTINUOUS
 62
7
100
AcDbLine
 10
471.2833082434406
 20
287.3824333872828
 30
0.000000000000000
 11
492.0308006111723
 21
293.0208339096363
 31
0.000000000000000
  0
CIRCLE
  5
1D9
100
AcDbEntity
  8
A3
  6
CONTINUOUS
 62
7
100
AcDbCircle
 10
486.8595460956997
 20
296.7968273863730
 30
0.000000000000000
 40
2.100000000000000
  0
ARC
  5
1DA
100
AcDbEntity
  8
A3
  6
CONTINUOUS
 62
7
100
AcDbCircle
 10
471.5455594305270
 20
286.4174337422718
 30
0.000000000000000
 40
1.000000000000000
100
AcDbArc
 50
105.2036816502674
 51
195.2036816502676
  0
LINE
  5
1DB
100
AcDbEntity
  8
A3
  6
CONTINUOUS
 62
7
100
AcDbLine
 10
470.8428109726020
 20
285.1901829101739
 30
0.000000000000000
 11
470.5805597855156
 21
286.1551825551851
 31
0.000000000000000
  0
LINE
  5
1DC
100
AcDbEntity
  8
A3
  6
CONTINUOUS
 62
7
100
AcDbLine
 10
469.0945535504634
 20
284.7150712490884
 30
0.000000000000000
 11
470.8428109726017
 21
285.1901829101739
 31
0.000000000000000
  0
LINE
  5
1DD
100
AcDbEntity
  8
A3
  6
CONTINUOUS
 62
7
100
AcDbLine
 10
384.5945535504700
 20
224.2895524575480
 30
0.000000000000000
 11
376.5945535504766
 21
224.2895524575464
 31
0.000000000000000
  0
LINE
  5
1DE
100
AcDbEntity
  8
A3
  6
CONTINUOUS
 62
7
100
AcDbLine
 10
384.5945535504707
 20
220.7895524575745
 30
0.000000000000000
 11
384.5945535504700
 21
224.2895524575480
 31
0.000000000000000
  0
LINE
  5
1DF
100
AcDbEntity
  8
A3
  6
CONTINUOUS
 62
7
100
AcDbLine
 10
418.0945535504739
 20
220.7895524575809
 30
0.000000000000000
 11
418.0945535504732
 21
224.2895524574810
 31
0.000000000000000
  0
LINE
  5
1E0
100
AcDbEntity
  8
A3
  6
CONTINUOUS
 62
7
100
AcDbLine
 10
418.0945535504733
 20
224.2895524574810
 30
0.000000000000000
 11
426.0945535505354
 21
224.2895524574652
 31
0.000000000000000
  0
LINE
  5
1E1
100
AcDbEntity
  8
A3
  6
CONTINUOUS
 62
7
100
AcDbLine
 10
426.0945535504739
 20
220.7895524575823
 30
0.000000000000000
 11
426.0945535504732
 21
224.2895524574652
 31
0.000000000000000
  0
LINE
  5
1E2
100
AcDbEntity
  8
A3
  6
CONTINUOUS
 62
7
100
AcDbLine
 10
456.5945535504771
 20
224.2895524573789
 30
0.000000000000000
 11
464.5945535505357
 21
224.2895524573563
 31
0.000000000000000
  0
LINE
  5
1E3
100
AcDbEntity
  8
A3
  6
CONTINUOUS
 62
7
100
AcDbLine
 10
456.5945535504770
 20
224.2895524573787
 30
0.000000000000000
 11
456.5945535504877
 21
220.7895524575881
 31
0.000000000000000
  0
LINE
  5
1E4
100
AcDbEntity
  8
A3
  6
CONTINUOUS
 62
7
100
AcDbLine
 10
384.5945535504704
 20
222.2895524575480
 30
0.000000000000000
 11
376.5945535504770
 21
222.2895524575464
 31
0.000000000000000
  0
LINE
  5
1E5
100
AcDbEntity
  8
A3
  6
CONTINUOUS
 62
7
100
AcDbLine
 10
376.5945535504768
 20
224.2895524575464
 30
0.000000000000000
 11
376.5945535504815
 21
220.7895524575810
 31
0.000000000000000
  0
LINE
  5
1E6
100
AcDbEntity
  8
A3
  6
CONTINUOUS
 62
7
100
AcDbLine
 10
418.0945535504736
 20
222.2895524575544
 30
0.000000000000000
 11
426.0945535504736
 21
222.2895524575560
 31
0.000000000000000
  0
LINE
  5
1E7
100
AcDbEntity
  8
A3
  6
CONTINUOUS
 62
7
100
AcDbLine
 10
456.5945535504832
 20
222.2895524575391
 30
0.000000000000000
 11
464.5945535505359
 21
222.2895524575407
 31
0.000000000000000
  0
LINE
  5
1E8
100
AcDbEntity
  8
A3
  6
CONTINUOUS
 62
7
100
AcDbLine
 10
464.5945535505355
 20
224.2895524573564
 30
0.000000000000000
 11
464.5945535505396
 21
220.7895524575981
 31
0.000000000000000
  0
LINE
  5
1E9
100
AcDbEntity
  8
A3
  6
CONTINUOUS
 62
7
100
AcDbLine
 10
478.0945535504679
 20
278.2895524574631
 30
0.000000000000000
 11
469.0945535504636
 21
278.2895524574872
 31
0.000000000000000
  0
ARC
  5
1EA
100
AcDbEntity
  8
A3
  6
CONTINUOUS
 62
7
100
AcDbCircle
 10
478.0945535504652
 20
277.2895524574631
 30
0.000000000000000
 40
1.000000000000000
100
AcDbArc
 50
0.000000000000000
 51
90.00000000000000
  0
LINE
  5
1EB
100
AcDbEntity
  8
A3
  6
CONTINUOUS
 62
7
100
AcDbLine
 10
479.0945535504654
 20
274.2895524574607
 30
0.000000000000000
 11
479.0945535504652
 21
277.2895524574632
 31
0.000000000000000
  0
ARC
  5
1EC
100
AcDbEntity
  8
A3
  6
CONTINUOUS
 62
7
100
AcDbCircle
 10
478.0945535504654
 20
274.2895524574606
 30
0.000000000000000
 40
1.000000000000000
100
AcDbArc
 50
270.0000000000000
 51
360.0000000000000
  0
LINE
  5
1ED
100
AcDbEntity
  8
A3
  6
CONTINUOUS
 62
7
100
AcDbLine
 10
469.0945535504633
 20
273.2895524574865
 30
0.000000000000000
 11
478.0945535504624
 21
273.2895524574604
 31
0.000000000000000
  0
LINE
  5
1EE
100
AcDbEntity
  8
A3
  6
CONTINUOUS
 62
7
100
AcDbLine
 10
272.8068118493592
 20
342.5723405507073
 30
0.000000000000000
 11
272.8068118493541
 21
357.5723405507073
 31
0.000000000000000
  0
LINE
  5
1EF
100
AcDbEntity
  8
A5
  6
DASHED
 62
2
100
AcDbLine
 10
239.3068104630477
 20
343.5723405507073
 30
0.000000000000000
 11
239.3068104630521
 21
356.5723405507078
 31
0.000000000000000
  0
ARC
  5
1F0
100
AcDbEntity
  8
A5
  6
DASHED
 62
2
100
AcDbCircle
 10
240.3068104630511
 20
356.5723405507073
 30
0.000000000000000
 40
1.000000000000000
100
AcDbArc
 50
90.00000000000000
 51
180.0000000000000
  0
ARC
  5
1F1
100
AcDbEntity
  8
A5
  6
DASHED
 62
2
100
AcDbCircle
 10
240.3068104630487
 20
343.5723405507073
 30
0.000000000000000
 40
1.000000000000000
100
AcDbArc
 50
180.0000000000000
 51
270.0000000000000
  0
LINE
  5
1F2
100
AcDbEntity
  8
A3
  6
CONTINUOUS
 62
7
100
AcDbLine
 10
269.8068118493592
 20
342.5723405507074
 30
0.000000000000000
 11
269.8068118493541
 21
357.5723405507074
 31
0.000000000000000
  0
LINE
  5
1F3
100
AcDbEntity
  8
A5
  6
DASHED
 62
2
100
AcDbLine
 10
242.8068104630331
 20
346.5723405507073
 30
0.000000000000000
 11
242.8068104630331
 21
353.5723405507073
 31
0.000000000000000
  0
LINE
  5
1F4
100
AcDbEntity
  8
A5
  6
DASHED
 62
2
100
AcDbLine
 10
251.8068104630331
 20
346.5723405507073
 30
0.000000000000000
 11
251.8068104630331
 21
353.5723405507073
 31
0.000000000000000
  0
LINE
  5
1F5
100
AcDbEntity
  8
A5
  6
DASHED
 62
2
100
AcDbLine
 10
243.8068104630331
 20
345.5723405507073
 30
0.000000000000000
 11
250.8068104630331
 21
345.5723405507073
 31
0.000000000000000
  0
LINE
  5
1F6
100
AcDbEntity
  8
A5
  6
DASHED
 62
2
100
AcDbLine
 10
243.8068104630331
 20
354.5723405507073
 30
0.000000000000000
 11
250.8068104630331
 21
354.5723405507073
 31
0.000000000000000
  0
ARC
  5
1F7
100
AcDbEntity
  8
A5
  6
DASHED
 62
2
100
AcDbCircle
 10
250.8068104630331
 20
353.5723405507073
 30
0.000000000000000
 40
1.000000000000000
100
AcDbArc
 50
0.000000000000000
 51
90.00000000000000
  0
ARC
  5
1F8
100
AcDbEntity
  8
A5
  6
DASHED
 62
2
100
AcDbCircle
 10
250.8068104630331
 20
346.5723405507073
 30
0.000000000000000
 40
1.000000000000000
100
AcDbArc
 50
270.0000000000000
 51
360.0000000000000
  0
ARC
  5
1F9
100
AcDbEntity
  8
A5
  6
DASHED
 62
2
100
AcDbCircle
 10
243.8068104630331
 20
346.5723405507073
 30
0.000000000000000
 40
1.000000000000000
100
AcDbArc
 50
180.0000000000000
 51
270.0000000000000
  0
ARC
  5
1FA
100
AcDbEntity
  8
A5
  6
DASHED
 62
2
100
AcDbCircle
 10
243.8068104630331
 20
353.5723405507073
 30
0.000000000000000
 40
1.000000000000000
100
AcDbArc
 50
90.00000000000000
 51
180.0000000000000
  0
LINE
  5
1FB
100
AcDbEntity
  8
A3
  6
CONTINUOUS
 62
7
100
AcDbLine
 10
310.2006826999162
 20
298.7895524575854
 30
0.000000000000000
 11
323.2006826999162
 21
298.7895524575821
 31
0.000000000000000
  0
LINE
  5
1FC
100
AcDbEntity
  8
A3
  6
CONTINUOUS
 62
7
100
AcDbLine
 10
309.2006826999158
 20
261.7895524575019
 30
0.000000000000000
 11
324.2006826999158
 21
261.7895524574555
 31
0.000000000000000
  0
LINE
  5
1FD
100
AcDbEntity
  8
A3
  6
CONTINUOUS
 62
7
100
AcDbLine
 10
324.2006826999159
 20
297.7895524575821
 30
0.000000000000000
 11
324.2006826999159
 21
261.7895524574971
 31
0.000000000000000
  0
ARC
  5
1FE
100
AcDbEntity
  8
A3
  6
CONTINUOUS
 62
7
100
AcDbCircle
 10
310.2006826999159
 20
297.7895524575855
 30
0.000000000000000
 40
1.000000000000000
100
AcDbArc
 50
90.00000000000000
 51
180.0000000000000
  0
ARC
  5
1FF
100
AcDbEntity
  8
A3
  6
CONTINUOUS
 62
7
100
AcDbCircle
 10
323.2006826999159
 20
297.7895524575821
 30
0.000000000000000
 40
1.000000000000000
100
AcDbArc
 50
0.000000000000000
 51
90.00000000000000
  0
ARC
  5
200
100
AcDbEntity
  8
A3
  6
CONTINUOUS
 62
7
100
AcDbCircle
 10
316.7006826999159
 20
288.2895524575538
 30
0.000000000000000
 40
2.250000000000000
100
AcDbArc
 50
180.0000000000000
 51
360.0000000000000
  0
ARC
  5
201
100
AcDbEntity
  8
A3
  6
CONTINUOUS
 62
7
100
AcDbCircle
 10
316.7006826999159
 20
273.2895524575537
 30
0.000000000000000
 40
2.250000000000000
100
AcDbArc
 50
180.0000000000000
 51
360.0000000000000
  0
ARC
  5
202
100
AcDbEntity
  8
A3
  6
CONTINUOUS
 62
7
100
AcDbCircle
 10
316.7006826999159
 20
291.2895524575538
 30
0.000000000000000
 40
2.250000000000000
100
AcDbArc
 50
0.000000000000000
 51
180.0000000000000
  0
ARC
  5
203
100
AcDbEntity
  8
A3
  6
CONTINUOUS
 62
7
100
AcDbCircle
 10
316.7006826999159
 20
276.2895524575537
 30
0.000000000000000
 40
2.250000000000000
100
AcDbArc
 50
0.000000000000000
 51
180.0000000000000
  0
LINE
  5
204
100
AcDbEntity
  8
A3
  6
CONTINUOUS
 62
7
100
AcDbLine
 10
314.4506826999159
 20
291.2895524575538
 30
0.000000000000000
 11
314.4506826999159
 21
288.2895524575538
 31
0.000000000000000
  0
LINE
  5
205
100
AcDbEntity
  8
A3
  6
CONTINUOUS
 62
7
100
AcDbLine
 10
318.9506826999159
 20
291.2895524575538
 30
0.000000000000000
 11
318.9506826999159
 21
288.2895524575538
 31
0.000000000000000
  0
LINE
  5
206
100
AcDbEntity
  8
A3
  6
CONTINUOUS
 62
7
100
AcDbLine
 10
314.4506826999159
 20
276.2895524575537
 30
0.000000000000000
 11
314.4506826999159
 21
273.2895524575537
 31
0.000000000000000
  0
LINE
  5
207
100
AcDbEntity
  8
A3
  6
CONTINUOUS
 62
7
100
AcDbLine
 10
318.9506826999159
 20
276.2895524575537
 30
0.000000000000000
 11
318.9506826999159
 21
273.2895524575537
 31
0.000000000000000
  0
LINE
  5
208
100
AcDbEntity
  8
A3
  6
CONTINUOUS
 62
7
100
AcDbLine
 10
360.5945535504720
 20
298.7895524575919
 30
0.000000000000000
 11
363.5945535503026
 21
298.7895524575972
 31
0.000000000000000
  0
LINE
  5
209
100
AcDbEntity
  8
A3
  6
CONTINUOUS
 62
7
100
AcDbLine
 10
360.5945535504719
 20
298.7895524575918
 30
0.000000000000000
 11
360.5945535504777
 21
266.7895524575618
 31
0.000000000000000
  0
LINE
  5
20A
100
AcDbEntity
  8
A3
  6
CONTINUOUS
 62
7
100
AcDbLine
 10
363.5945535504719
 20
298.7895524575971
 30
0.000000000000000
 11
363.5945535504777
 21
266.7895524575623
 31
0.000000000000000
  0
ARC
  5
20B
100
AcDbEntity
  8
A3
  6
CONTINUOUS
 62
7
100
AcDbCircle
 10
365.5945535504777
 20
266.7895524575628
 30
0.000000000000000
 40
2.000000000000000
100
AcDbArc
 50
180.0000000000106
 51
270.0000000000105
  0
ARC
  5
20C
100
AcDbEntity
  8
A3
  6
CONTINUOUS
 62
7
100
AcDbCircle
 10
365.5945535504777
 20
266.7895524575628
 30
0.000000000000000
 40
5.000000000000000
100
AcDbArc
 50
180.0000000000106
 51
270.0000000000105
  0
LINE
  5
20D
100
AcDbEntity
  8
A3
  6
CONTINUOUS
 62
7
100
AcDbLine
 10
394.0945549368072
 20
264.7895524575692
 30
0.000000000000000
 11
365.5945535504781
 21
264.7895524575640
 31
0.000000000000000
  0
LINE
  5
20E
100
AcDbEntity
  8
A3
  6
CONTINUOUS
 62
7
100
AcDbLine
 10
394.0945549368078
 20
261.7895524575692
 30
0.000000000000000
 11
365.5945535504786
 21
261.7895524575640
 31
0.000000000000000
  0
LINE
  5
20F
100
AcDbEntity
  8
A3
  6
CONTINUOUS
 62
7
100
AcDbLine
 10
394.0945549368072
 20
264.7895524575692
 30
0.000000000000000
 11
394.0945549368078
 21
261.7895524575692
 31
0.000000000000000
  0
ARC
  5
210
100
AcDbEntity
  8
A3
  6
CONTINUOUS
 62
7
100
AcDbCircle
 10
388.1487649063995
 20
265.4599616682075
 30
0.000000000000000
 40
0.5000000000000000
100
AcDbArc
 50
321.6753965459742
 51
419.9999895826020
  0
LINE
  5
211
100
AcDbEntity
  8
A3
  6
CONTINUOUS
 62
7
100
AcDbLine
 10
388.3987649851285
 20
265.8929743246450
 30
0.000000000000000
 11
387.1636955106956
 21
266.6060423175871
 31
0.000000000000000
  0
ARC
  5
212
100
AcDbEntity
  8
A3
  6
CONTINUOUS
 62
7
100
AcDbCircle
 10
388.8945500051343
 20
260.7895557848965
 30
0.000000000000000
 40
1.000000000000000
100
AcDbArc
 50
180.0000000000106
 51
227.8028599105293
  0
ARC
  5
213
100
AcDbEntity
  8
A3
  6
CONTINUOUS
 62
7
100
AcDbCircle
 10
248.0068199243493
 20
264.1633600167589
 30
0.000000000000000
 40
3.000000000000000
100
AcDbArc
 50
12.04798505007156
 51
62.75419727061792
  0
ARC
  5
214
100
AcDbEntity
  8
A3
  6
CONTINUOUS
 62
7
100
AcDbCircle
 10
242.5068149401562
 20
263.2895557855607
 30
0.000000000000000
 40
3.000000000000000
100
AcDbArc
 50
29.99992660717575
 51
38.32460345403783
  0
LINE
  5
215
100
AcDbEntity
  8
A3
  6
CONTINUOUS
 62
7
100
AcDbLine
 10
245.5068153947012
 20
260.7895559667091
 30
0.000000000000000
 11
245.5068152128838
 21
261.7895524575630
 31
0.000000000000000
  0
LINE
  5
216
100
AcDbEntity
  8
A3
  6
CONTINUOUS
 62
7
100
AcDbLine
 10
251.0068180112414
 20
259.6324091603209
 30
0.000000000000000
 11
251.0068189220543
 21
261.7895524575630
 31
0.000000000000000
  0
LINE
  5
217
100
AcDbEntity
  8
A3
  6
CONTINUOUS
 62
7
100
AcDbLine
 10
239.8068170007618
 20
264.7895524575630
 30
0.000000000000000
 11
239.8068158492466
 21
266.1466956004456
 31
0.000000000000000
  0
ARC
  5
218
100
AcDbEntity
  8
A3
  6
CONTINUOUS
 62
7
100
AcDbCircle
 10
242.3068191219710
 20
262.2895557848910
 30
0.000000000000000
 40
2.500000000000000
100
AcDbArc
 50
191.5370368620371
 51
230.2275793969352
  0
LINE
  5
219
100
AcDbEntity
  8
A3
  6
CONTINUOUS
 62
7
100
AcDbLine
 10
324.2006826999161
 20
296.7895524578041
 30
0.000000000000000
 11
325.3006826999755
 21
296.7895524578037
 31
0.000000000000000
  0
LINE
  5
21A
100
AcDbEntity
  8
A3
  6
CONTINUOUS
 62
7
100
AcDbLine
 10
308.5006826999204
 20
296.7895524578097
 30
0.000000000000000
 11
309.2006826999157
 21
296.7895524578095
 31
0.000000000000000
  0
LINE
  5
21B
100
AcDbEntity
  8
A3
  6
CONTINUOUS
 62
7
100
AcDbLine
 10
382.3945464777811
 20
261.7895524575670
 30
0.000000000000000
 11
382.3945473885944
 21
259.6324091603249
 31
0.000000000000000
  0
ARC
  5
21C
100
AcDbEntity
  8
A3
  6
CONTINUOUS
 62
7
100
AcDbCircle
 10
385.3945454754855
 20
264.1633600167635
 30
0.000000000000000
 40
3.000000000000000
100
AcDbArc
 50
117.2458027293926
 51
167.9520149499389
  0
ARC
  5
21D
100
AcDbEntity
  8
A3
  6
CONTINUOUS
 62
7
100
AcDbCircle
 10
390.8945504596788
 20
263.2895557855662
 30
0.000000000000000
 40
3.000000000000000
100
AcDbArc
 50
141.6753965459727
 51
150.0000733928344
  0
LINE
  5
21E
100
AcDbEntity
  8
A3
  6
CONTINUOUS
 62
7
100
AcDbLine
 10
387.8945501869512
 20
261.7895524575680
 30
0.000000000000000
 11
387.8945500051340
 21
260.7895559667141
 31
0.000000000000000
  0
ARC
  5
21F
100
AcDbEntity
  8
A3
  6
CONTINUOUS
 62
7
100
AcDbCircle
 10
391.0945462778641
 20
262.2895557848967
 30
0.000000000000000
 40
2.500000000000000
100
AcDbArc
 50
309.7724206030753
 51
348.4629631379725
  0
LINE
  5
220
100
AcDbEntity
  8
A3
  6
CONTINUOUS
 62
7
100
AcDbLine
 10
393.5945495505875
 20
266.1466956004517
 30
0.000000000000000
 11
393.5945483990726
 21
264.7895524575691
 31
0.000000000000000
  0
LINE
  5
221
100
AcDbEntity
  8
A5
  6
DASHED
 62
2
100
AcDbLine
 10
240.3068104630510
 20
357.5723405507073
 30
0.000000000000000
 11
258.3068118493417
 21
357.5723405507073
 31
0.000000000000000
  0
LINE
  5
222
100
AcDbEntity
  8
A3
  6
CONTINUOUS
 62
7
100
AcDbLine
 10
258.3068118493418
 20
357.5723405507073
 30
0.000000000000000
 11
272.8068118493543
 21
357.5723405507073
 31
0.000000000000000
  0
LINE
  5
223
100
AcDbEntity
  8
A5
  6
DASHED
 62
2
100
AcDbLine
 10
240.3068104630487
 20
342.5723405507073
 30
0.000000000000000
 11
258.3068118493417
 21
342.5723405507073
 31
0.000000000000000
  0
LINE
  5
224
100
AcDbEntity
  8
A3
  6
CONTINUOUS
 62
7
100
AcDbLine
 10
258.3068118493418
 20
342.5723405507073
 30
0.000000000000000
 11
272.8068118493593
 21
342.5723405507073
 31
0.000000000000000
  0
LINE
  5
225
100
AcDbEntity
  8
A3
  6
CONTINUOUS
 62
7
100
AcDbLine
 10
308.5006826999206
 20
282.3395524576542
 30
0.000000000000000
 11
309.2006826999159
 21
282.3395524576542
 31
0.000000000000000
  0
LINE
  5
226
100
AcDbEntity
  8
A3
  6
CONTINUOUS
 62
7
100
AcDbLine
 10
309.1006826999205
 20
282.2895524576543
 30
0.000000000000000
 11
309.2006826999159
 21
282.2895524576543
 31
0.000000000000000
  0
LINE
  5
227
100
AcDbEntity
  8
A3
  6
CONTINUOUS
 62
7
100
AcDbLine
 10
309.2006826999159
 20
282.2895524576543
 30
0.000000000000000
 11
309.2006826999159
 21
297.7895524575855
 31
0.000000000000000
  0
LINE
  5
228
100
AcDbEntity
  8
A3
  6
CONTINUOUS
 62
7
100
AcDbLine
 10
309.2006826999159
 20
272.2895524576543
 30
0.000000000000000
 11
309.2006826999159
 21
282.2895524576543
 31
0.000000000000000
  0
LINE
  5
229
100
AcDbEntity
  8
A3
  6
CONTINUOUS
 62
7
100
AcDbLine
 10
309.2006826999159
 20
261.7895524574977
 30
0.000000000000000
 11
309.2006826999159
 21
272.2395524576542
 31
0.000000000000000
  0
LINE
  5
22A
100
AcDbEntity
  8
A3
  6
CONTINUOUS
 62
7
100
AcDbLine
 10
309.2006826999159
 20
272.2395524576542
 30
0.000000000000000
 11
309.2006826999159
 21
272.2895524576543
 31
0.000000000000000
  0
LINE
  5
22B
100
AcDbEntity
  8
A3
  6
CONTINUOUS
 62
7
100
AcDbLine
 10
324.2006826999159
 20
266.1058919540257
 30
0.000000000000000
 11
326.3006826999749
 21
266.1058919540257
 31
0.000000000000000
  0
LINE
  5
22C
100
AcDbEntity
  8
A3
  6
CONTINUOUS
 62
7
100
AcDbLine
 10
324.2006826999159
 20
265.1084332541949
 30
0.000000000000000
 11
326.3006826999749
 21
265.1084332541949
 31
0.000000000000000
  0
LINE
  5
22D
100
AcDbEntity
  8
A3
  6
CONTINUOUS
 62
7
100
AcDbLine
 10
318.4006826999112
 20
259.2895524576004
 30
0.000000000000000
 11
318.4006826999112
 21
261.7895524574735
 31
0.000000000000000
  0
LINE
  5
22E
100
AcDbEntity
  8
A3
  6
CONTINUOUS
 62
7
100
AcDbLine
 10
318.2006826999159
 20
259.2895524575938
 30
0.000000000000000
 11
318.2006826999159
 21
261.7895524574741
 31
0.000000000000000
  0
LINE
  5
22F
100
AcDbEntity
  8
A3
  6
CONTINUOUS
 62
7
100
AcDbLine
 10
315.2006826999159
 20
259.2895524575932
 30
0.000000000000000
 11
315.2006826999159
 21
261.7895524574834
 31
0.000000000000000
  0
LINE
  5
230
100
AcDbEntity
  8
A3
  6
CONTINUOUS
 62
7
100
AcDbLine
 10
315.0006826999206
 20
259.2895524575932
 30
0.000000000000000
 11
315.0006826999206
 21
261.7895524574841
 31
0.000000000000000
  0
LINE
  5
231
100
AcDbEntity
  8
A3
  6
CONTINUOUS
 62
7
100
AcDbLine
 10
310.0006826999206
 20
248.7895524576208
 30
0.000000000000000
 11
310.0006826999206
 21
261.7895524574996
 31
0.000000000000000
  0
LINE
  5
232
100
AcDbEntity
  8
A3
  6
CONTINUOUS
 62
7
100
AcDbLine
 10
309.1006826999205
 20
272.2895524576543
 30
0.000000000000000
 11
309.2006826999159
 21
272.2895524576543
 31
0.000000000000000
  0
LINE
  5
233
100
AcDbEntity
  8
A3
  6
CONTINUOUS
 62
7
100
AcDbLine
 10
308.5006826999206
 20
272.2395524576542
 30
0.000000000000000
 11
309.2006826999159
 21
272.2395524576542
 31
0.000000000000000
  0
LINE
  5
234
100
AcDbEntity
  8
A3
  6
CONTINUOUS
 62
7
100
AcDbLine
 10
324.2006826999159
 20
267.2895524576041
 30
0.000000000000000
 11
325.8006826999754
 21
267.2895524576057
 31
0.000000000000000
  0
ARC
  5
235
100
AcDbEntity
  8
A3
  6
CONTINUOUS
 62
7
100
AcDbCircle
 10
316.5006827001150
 20
190.1895524576882
 30
0.000000000000000
 40
0.9000000000000000
100
AcDbArc
 50
199.1881364537207
 51
340.8118635462794
  0
ARC
  5
236
100
AcDbEntity
  8
A3
  6
CONTINUOUS
 62
7
100
AcDbCircle
 10
318.2006827001148
 20
190.1895524576882
 30
0.000000000000000
 40
0.9000000000000000
100
AcDbArc
 50
199.1881364537206
 51
360.0000000000000
  0
ARC
  5
237
100
AcDbEntity
  8
A3
  6
CONTINUOUS
 62
7
100
AcDbCircle
 10
314.8006827001150
 20
190.1895524576882
 30
0.000000000000000
 40
0.9000000000000000
100
AcDbArc
 50
180.0000000000000
 51
340.8118635462794
  0
LINE
  5
238
100
AcDbEntity
  8
A3
  6
CONTINUOUS
 62
7
100
AcDbLine
 10
326.9845834431803
 20
187.8964569880164
 30
0.000000000000000
 11
305.9845834431803
 21
187.8964569880164
 31
0.000000000000000
  0
LINE
  5
239
100
AcDbEntity
  8
A3
  6
CONTINUOUS
 62
7
100
AcDbLine
 10
326.9845834431803
 20
194.5964569880165
 30
0.000000000000000
 11
326.9845834431803
 21
187.8964569880164
 31
0.000000000000000
  0
LINE
  5
23A
100
AcDbEntity
  8
A3
  6
CONTINUOUS
 62
7
100
AcDbLine
 10
313.8006827001150
 20
194.5964569880165
 30
0.000000000000000
 11
305.9845834431803
 21
194.5964569880165
 31
0.000000000000000
  0
LINE
  5
23B
100
AcDbEntity
  8
A3
  6
CONTINUOUS
 62
7
100
AcDbLine
 10
326.9845834431803
 20
194.5964569880165
 30
0.000000000000000
 11
319.2006827001148
 21
194.5964569880165
 31
0.000000000000000
  0
LINE
  5
23C
100
AcDbEntity
  8
A3
  6
CONTINUOUS
 62
7
100
AcDbLine
 10
305.9845834431803
 20
194.5964569880165
 30
0.000000000000000
 11
305.9845834431803
 21
187.8964569880164
 31
0.000000000000000
  0
LINE
  5
23D
100
AcDbEntity
  8
A3
  6
CONTINUOUS
 62
7
100
AcDbLine
 10
315.6506827001149
 20
190.1895524576882
 30
0.000000000000000
 11
315.6506827001149
 21
219.2895524576882
 31
0.000000000000000
  0
LINE
  5
23E
100
AcDbEntity
  8
A3
  6
CONTINUOUS
 62
7
100
AcDbLine
 10
313.9006827001149
 20
219.2895524576882
 30
0.000000000000000
 11
313.9006827001149
 21
190.1895524576882
 31
0.000000000000000
  0
LINE
  5
23F
100
AcDbEntity
  8
A3
  6
CONTINUOUS
 62
7
100
AcDbLine
 10
317.3506827001149
 20
219.2895524576882
 30
0.000000000000000
 11
317.3506827001149
 21
190.1895524576882
 31
0.000000000000000
  0
LINE
  5
240
100
AcDbEntity
  8
A3
  6
CONTINUOUS
 62
7
100
AcDbLine
 10
319.1006827001149
 20
190.1895524576882
 30
0.000000000000000
 11
319.1006827001149
 21
219.2895524576882
 31
0.000000000000000
  0
LINE
  5
241
100
AcDbEntity
  8
A3
  6
CONTINUOUS
 62
7
100
AcDbLine
 10
317.3506827001149
 20
190.1895524576882
 30
0.000000000000000
 11
317.3506827001149
 21
189.8937484685332
 31
0.000000000000000
  0
LINE
  5
242
100
AcDbEntity
  8
A3
  6
CONTINUOUS
 62
7
100
AcDbLine
 10
315.6506827001149
 20
189.8937484685333
 30
0.000000000000000
 11
315.6506827001149
 21
190.1895524576882
 31
0.000000000000000
  0
LINE
  5
243
100
AcDbEntity
  8
A3
  6
CONTINUOUS
 62
7
100
AcDbLine
 10
323.0106827001150
 20
219.7895524576882
 30
0.000000000000000
 11
323.0106827001150
 21
220.7895524576880
 31
0.000000000000000
  0
LINE
  5
244
100
AcDbEntity
  8
A3
  6
CONTINUOUS
 62
7
100
AcDbLine
 10
309.9906827001150
 20
220.7895524576161
 30
0.000000000000000
 11
309.9906827001150
 21
219.7895524576882
 31
0.000000000000000
  0
LINE
  5
245
100
AcDbEntity
  8
A3
  6
CONTINUOUS
 62
7
100
AcDbLine
 10
322.5106827001150
 20
219.2895524576882
 30
0.000000000000000
 11
310.4906827001150
 21
219.2895524576882
 31
0.000000000000000
  0
ARC
  5
246
100
AcDbEntity
  8
A3
  6
CONTINUOUS
 62
7
100
AcDbCircle
 10
176.6968118493508
 20
190.1895524575889
 30
0.000000000000000
 40
0.9000000000000000
100
AcDbArc
 50
270.0000000000000
 51
359.9999999999991
  0
ARC
  5
247
100
AcDbEntity
  8
A3
  6
CONTINUOUS
 62
7
100
AcDbCircle
 10
173.0968118493507
 20
193.7895524575890
 30
0.000000000000000
 40
0.9000000000000000
100
AcDbArc
 50
270.2554645199973
 51
359.6760282925771
  0
ARC
  5
248
100
AcDbEntity
  8
A3
  6
CONTINUOUS
 62
7
100
AcDbCircle
 10
174.8968118493508
 20
191.9895524575889
 30
0.000000000000000
 40
0.9000000000000000
100
AcDbArc
 50
270.0000000000000
 51
360.0000000000000
  0
LINE
  5
249
100
AcDbEntity
  8
A3
  6
CONTINUOUS
 62
7
100
AcDbLine
 10
177.5968118493507
 20
190.1895524575889
 30
0.000000000000000
 11
177.5968118493507
 21
219.2895524575890
 31
0.000000000000000
  0
LINE
  5
24A
100
AcDbEntity
  8
A3
  6
CONTINUOUS
 62
7
100
AcDbLine
 10
175.7968118493508
 20
191.9895524575889
 30
0.000000000000000
 11
175.7968118493508
 21
219.2895524575890
 31
0.000000000000000
  0
LINE
  5
24B
100
AcDbEntity
  8
A3
  6
CONTINUOUS
 62
7
100
AcDbLine
 10
173.9968118493507
 20
219.2895524575890
 30
0.000000000000000
 11
173.9968118493507
 21
193.7895524575890
 31
0.000000000000000
  0
LINE
  5
24C
100
AcDbEntity
  8
A3
  6
CONTINUOUS
 62
7
100
AcDbLine
 10
108.5968118493507
 20
194.5964569879172
 30
0.000000000000000
 11
85.59681184935084
 21
194.5964569879172
 31
0.000000000000000
  0
LINE
  5
24D
100
AcDbEntity
  8
A3
  6
CONTINUOUS
 62
7
100
AcDbLine
 10
108.5968118493507
 20
187.8964569879171
 30
0.000000000000000
 11
85.59681184935084
 21
187.8964569879171
 31
0.000000000000000
  0
LINE
  5
24E
100
AcDbEntity
  8
A3
  6
CONTINUOUS
 62
7
100
AcDbLine
 10
108.5968118493507
 20
194.5964569879172
 30
0.000000000000000
 11
108.5968118493507
 21
187.8964569879171
 31
0.000000000000000
  0
LINE
  5
24F
100
AcDbEntity
  8
A3
  6
CONTINUOUS
 62
7
100
AcDbLine
 10
85.59681184935084
 20
194.5964569879172
 30
0.000000000000000
 11
85.59681184935084
 21
187.8964569879171
 31
0.000000000000000
  0
SPLINE
  5
250
100
AcDbEntity
  8
A4
  6
CONTINUOUS
 62
4
100
AcDbSpline
210
0.000000000000000
220
0.000000000000000
230
1.000000000000000
 70
     8
 71
     3
 72
    10
 73
     6
 74
     0
 42
1.000000000000000e-07
 43
1.000000000000000e-07
 12
-0.9563232603305494
 22
-0.8074401890575018
 32
0.000000000000000
 13
-0.8657993174708736
 23
-0.8197910727918725
 33
0.000000000000000
 40
0.000000000000000
 40
0.000000000000000
 40
0.000000000000000
 40
0.000000000000000
 40
1.475929605114334
 40
3.341757728947386
 40
4.410374088508275
 40
4.410374088508275
 40
4.410374088508275
 40
4.410374088508275
 10
122.0089088356091
 20
192.8895524575889
 30
0.000000000000000
 10
121.5384202316153
 20
192.4923108311259
 30
0.000000000000000
 10
120.4731533494212
 20
191.5928876669775
 30
0.000000000000000
 10
122.7565800854966
 20
190.3834436385544
 30
0.000000000000000
 10
121.9097000752037
 20
189.5815665081914
 30
0.000000000000000
 10
121.6012976369550
 20
189.2895524575890
 30
0.000000000000000
  0
SPLINE
  5
251
100
AcDbEntity
  8
A4
  6
CONTINUOUS
 62
4
100
AcDbSpline
210
0.000000000000000
220
0.000000000000000
230
1.000000000000000
 70
     8
 71
     3
 72
    10
 73
     6
 74
     0
 42
1.000000000000000e-07
 43
1.000000000000000e-07
 12
-0.9563232603305494
 22
-0.8074401890575018
 32
0.000000000000000
 13
-0.8657993174711578
 23
-0.8197910727918725
 33
0.000000000000000
 40
0.000000000000000
 40
0.000000000000000
 40
0.000000000000000
 40
0.000000000000000
 40
1.475929605114334
 40
3.341757728947386
 40
4.410374088508275
 40
4.410374088508275
 40
4.410374088508275
 40
4.410374088508275
 10
124.7219686908561
 20
192.8895524575889
 30
0.000000000000000
 10
124.2514800868623
 20
192.4923108311259
 30
0.000000000000000
 10
123.1862132046683
 20
191.5928876669775
 30
0.000000000000000
 10
125.4696399407437
 20
190.3834436385544
 30
0.000000000000000
 10
124.6227599304509
 20
189.5815665081914
 30
0.000000000000000
 10
124.3143574922021
 20
189.2895524575890
 30
0.000000000000000
  0
LINE
  5
252
100
AcDbEntity
  8
A3
  6
CONTINUOUS
 62
7
100
AcDbLine
 10
108.5968118493507
 20
191.0895524575889
 30
0.000000000000000
 11
121.5528083582619
 21
191.0895524575889
 31
0.000000000000000
  0
LINE
  5
253
100
AcDbEntity
  8
A3
  6
CONTINUOUS
 62
7
100
AcDbLine
 10
124.2658682135090
 20
191.0895524575889
 30
0.000000000000000
 11
174.8968118493508
 21
191.0895524575889
 31
0.000000000000000
  0
LINE
  5
254
100
AcDbEntity
  8
A3
  6
CONTINUOUS
 62
7
100
AcDbLine
 10
122.0089088356065
 20
192.8895524575889
 30
0.000000000000000
 11
108.5968118493507
 21
192.8895524575889
 31
0.000000000000000
  0
LINE
  5
255
100
AcDbEntity
  8
A3
  6
CONTINUOUS
 62
7
100
AcDbLine
 10
173.0968118493507
 20
192.8895524575889
 30
0.000000000000000
 11
124.7219686908536
 21
192.8895524575889
 31
0.000000000000000
  0
LINE
  5
256
100
AcDbEntity
  8
A3
  6
CONTINUOUS
 62
7
100
AcDbLine
 10
108.5968118493507
 20
189.2895524575890
 30
0.000000000000000
 11
121.6012976369550
 21
189.2895524575890
 31
0.000000000000000
  0
LINE
  5
257
100
AcDbEntity
  8
A3
  6
CONTINUOUS
 62
7
100
AcDbLine
 10
124.3143574922021
 20
189.2895524575890
 30
0.000000000000000
 11
176.6968118493508
 21
189.2895524575890
 31
0.000000000000000
  0
ARC
  5
258
100
AcDbEntity
  8
A3
  6
CONTINUOUS
 62
7
100
AcDbCircle
 10
322.5106827001150
 20
219.7895524576882
 30
0.000000000000000
 40
0.5000000000000000
100
AcDbArc
 50
270.0000000000000
 51
360.0000000000000
  0
ARC
  5
259
100
AcDbEntity
  8
A3
  6
CONTINUOUS
 62
7
100
AcDbCircle
 10
310.4906827001150
 20
219.7895524576882
 30
0.000000000000000
 40
0.5000000000000000
100
AcDbArc
 50
180.0000000000000
 51
270.0000000000000
  0
ARC
  5
25A
100
AcDbEntity
  8
A3
  6
CONTINUOUS
 62
7
100
AcDbCircle
 10
176.7068118493355
 20
136.7704127358720
 30
0.000000000000000
 40
0.9000000000000000
100
AcDbArc
 50
289.1881364537206
 51
430.8118635462794
  0
ARC
  5
25B
100
AcDbEntity
  8
A3
  6
CONTINUOUS
 62
7
100
AcDbCircle
 10
176.7068118493355
 20
138.4704127358720
 30
0.000000000000000
 40
0.9000000000000000
100
AcDbArc
 50
289.1881364537206
 51
450.0000000000000
  0
ARC
  5
25C
100
AcDbEntity
  8
A3
  6
CONTINUOUS
 62
7
100
AcDbCircle
 10
176.7068118493355
 20
135.0704127358719
 30
0.000000000000000
 40
0.9000000000000000
100
AcDbArc
 50
270.0000000000000
 51
430.8118635462794
  0
LINE
  5
25D
100
AcDbEntity
  8
A3
  6
CONTINUOUS
 62
7
100
AcDbLine
 10
176.7068118493355
 20
137.6204127358720
 30
0.000000000000000
 11
177.0026158384906
 21
137.6204127358720
 31
0.000000000000000
  0
LINE
  5
25E
100
AcDbEntity
  8
A3
  6
CONTINUOUS
 62
7
100
AcDbLine
 10
177.0026158384906
 20
135.9204127358720
 30
0.000000000000000
 11
176.7068118493355
 21
135.9204127358720
 31
0.000000000000000
  0
LINE
  5
25F
100
AcDbEntity
  8
A3
  6
CONTINUOUS
 62
7
100
AcDbLine
 10
85.60681184933560
 20
126.3365119927374
 30
0.000000000000000
 11
108.6068118493355
 21
126.3365119927374
 31
0.000000000000000
  0
LINE
  5
260
100
AcDbEntity
  8
A3
  6
CONTINUOUS
 62
7
100
AcDbLine
 10
108.6068118493355
 20
126.3365119927374
 30
0.000000000000000
 11
108.6068118493355
 21
147.3365119927374
 31
0.000000000000000
  0
LINE
  5
261
100
AcDbEntity
  8
A3
  6
CONTINUOUS
 62
7
100
AcDbLine
 10
108.6068118493355
 20
147.3365119927374
 30
0.000000000000000
 11
85.60681184933560
 21
147.3365119927374
 31
0.000000000000000
  0
LINE
  5
262
100
AcDbEntity
  8
A3
  6
CONTINUOUS
 62
7
100
AcDbLine
 10
85.60681184933560
 20
147.3365119927374
 30
0.000000000000000
 11
85.60681184933560
 21
126.3365119927374
 31
0.000000000000000
  0
LINE
  5
263
100
AcDbEntity
  8
A3
  6
CONTINUOUS
 62
7
100
AcDbLine
 10
258.3068118493205
 20
128.9204127358379
 30
0.000000000000000
 11
267.8068118493564
 21
128.9204127358379
 31
0.000000000000000
  0
LINE
  5
264
100
AcDbEntity
  8
A3
  6
CONTINUOUS
 62
7
100
AcDbLine
 10
258.3068118490680
 20
143.9204127358378
 30
0.000000000000000
 11
267.8068118493564
 21
143.9204127358378
 31
0.000000000000000
  0
LINE
  5
265
100
AcDbEntity
  8
A3
  6
CONTINUOUS
 62
7
100
AcDbLine
 10
267.8068118493564
 20
128.9204127358379
 30
0.000000000000000
 11
272.8068118493564
 21
128.9204127358379
 31
0.000000000000000
  0
LINE
  5
266
100
AcDbEntity
  8
A3
  6
CONTINUOUS
 62
7
100
AcDbLine
 10
267.8068118493564
 20
143.9204127358378
 30
0.000000000000000
 11
272.8068118493564
 21
143.9204127358378
 31
0.000000000000000
  0
LINE
  5
267
100
AcDbEntity
  8
A3
  6
CONTINUOUS
 62
7
100
AcDbLine
 10
272.8068118493564
 20
128.9204127358379
 30
0.000000000000000
 11
272.8068118493564
 21
143.9204127358378
 31
0.000000000000000
  0
LINE
  5
268
100
AcDbEntity
  8
A3
  6
CONTINUOUS
 62
7
100
AcDbLine
 10
163.6086491311294
 20
142.9204127357693
 30
0.000000000000000
 11
163.6086491311294
 21
141.9204127357693
 31
0.000000000000000
  0
LINE
  5
269
100
AcDbEntity
  8
A3
  6
CONTINUOUS
 62
7
100
AcDbLine
 10
163.6086491311294
 20
141.9204127357693
 30
0.000000000000000
 11
163.8189182047367
 21
141.9204127357693
 31
0.000000000000000
  0
LINE
  5
26A
100
AcDbEntity
  8
A3
  6
CONTINUOUS
 62
7
100
AcDbLine
 10
163.6086491311294
 20
142.9204127357693
 30
0.000000000000000
 11
163.8189182047367
 21
142.9204127357693
 31
0.000000000000000
  0
LINE
  5
26B
100
AcDbEntity
  8
A3
  6
CONTINUOUS
 62
7
100
AcDbLine
 10
178.0805972394741
 20
142.9204127357693
 30
0.000000000000000
 11
180.8169139007722
 21
142.9204127357693
 31
0.000000000000000
  0
LINE
  5
26C
100
AcDbEntity
  8
A3
  6
CONTINUOUS
 62
7
100
AcDbLine
 10
172.6294852795470
 20
142.9204127357693
 30
0.000000000000000
 11
173.5330264591970
 21
142.9204127357693
 31
0.000000000000000
  0
LINE
  5
26D
100
AcDbEntity
  8
A3
  6
CONTINUOUS
 62
7
100
AcDbLine
 10
163.8189182047367
 20
142.9204127357693
 30
0.000000000000000
 11
164.3068118490849
 21
142.9204127357693
 31
0.000000000000000
  0
LINE
  5
26E
100
AcDbEntity
  8
A3
  6
CONTINUOUS
 62
7
100
AcDbLine
 10
163.8189182047367
 20
142.9204127357693
 30
0.000000000000000
 11
163.8189182047367
 21
139.5204127358026
 31
0.000000000000000
  0
ARC
  5
26F
100
AcDbEntity
  8
A3
  6
CONTINUOUS
 62
7
100
AcDbCircle
 10
163.8068118494741
 20
128.0204127357472
 30
0.000000000000000
 40
1.000000000000000
100
AcDbArc
 50
180.0000000000000
 51
270.0000000000000
  0
ARC
  5
270
100
AcDbEntity
  8
A3
  6
CONTINUOUS
 62
7
100
AcDbCircle
 10
165.3068118493358
 20
128.0204127357472
 30
0.000000000000000
 40
1.000000000000000
100
AcDbArc
 50
179.9999999999986
 51
269.9999999999886
  0
ARC
  5
271
100
AcDbEntity
  8
A3
  6
CONTINUOUS
 62
7
100
AcDbCircle
 10
257.3068118493356
 20
128.0204127357472
 30
0.000000000000000
 40
1.000000000000000
100
AcDbArc
 50
270.0000000000001
 51
360.0000000000000
  0
ARC
  5
272
100
AcDbEntity
  8
A3
  6
CONTINUOUS
 62
7
100
AcDbCircle
 10
181.3068118493355
 20
142.8204127358019
 30
0.000000000000000
 40
0.5000000000000000
100
AcDbArc
 50
90.00000000000000
 51
180.0000000000000
  0
ARC
  5
273
100
AcDbEntity
  8
A3
  6
CONTINUOUS
 62
7
100
AcDbCircle
 10
170.3068118493355
 20
142.8204127358019
 30
0.000000000000000
 40
0.5000000000000000
100
AcDbArc
 50
0.000000000000000
 51
90.00000000000000
  0
ARC
  5
274
100
AcDbEntity
  8
A3
  6
CONTINUOUS
 62
7
100
AcDbCircle
 10
175.8068118493355
 20
136.8204127358027
 30
0.000000000000000
 40
6.510000000000000
100
AcDbArc
 50
204.0206615544047
 51
516.9393645397107
  0
LINE
  5
275
100
AcDbEntity
  8
A3
  6
CONTINUOUS
 62
7
100
AcDbLine
 10
162.8068118494741
 20
134.1204127358026
 30
0.000000000000000
 11
162.8068118494741
 21
128.0204127357472
 31
0.000000000000000
  0
LINE
  5
276
100
AcDbEntity
  8
A3
  6
CONTINUOUS
 62
7
100
AcDbLine
 10
162.8068118491861
 20
144.8204127359968
 30
0.000000000000000
 11
162.8068118491861
 21
143.3204127359970
 31
0.000000000000000
  0
LINE
  5
277
100
AcDbEntity
  8
A3
  6
CONTINUOUS
 62
7
100
AcDbLine
 10
162.8068118491861
 20
144.8204127359968
 30
0.000000000000000
 11
164.3068118490529
 21
144.8204127359968
 31
0.000000000000000
  0
LINE
  5
278
100
AcDbEntity
  8
A3
  6
CONTINUOUS
 62
7
100
AcDbLine
 10
162.8068118491861
 20
143.3204127359970
 30
0.000000000000000
 11
164.3068118490529
 21
143.3204127359970
 31
0.000000000000000
  0
LINE
  5
279
100
AcDbEntity
  8
A3
  6
CONTINUOUS
 62
7
100
AcDbLine
 10
165.3068118493419
 20
127.0204127357472
 30
0.000000000000000
 11
163.8068118494741
 21
127.0204127357472
 31
0.000000000000000
  0
LINE
  5
27A
100
AcDbEntity
  8
A3
  6
CONTINUOUS
 62
7
100
AcDbLine
 10
172.6294852795470
 20
142.5023750613479
 30
0.000000000000000
 11
172.6294852795470
 21
143.3204127358027
 31
0.000000000000000
  0
LINE
  5
27B
100
AcDbEntity
  8
A3
  6
CONTINUOUS
 62
7
100
AcDbLine
 10
174.1294852795390
 20
128.5204127357472
 30
0.000000000000000
 11
174.1294852795390
 21
130.0204127357472
 31
0.000000000000000
  0
LINE
  5
27C
100
AcDbEntity
  8
A3
  6
CONTINUOUS
 62
7
100
AcDbLine
 10
207.8068118493410
 20
130.0204127357472
 30
0.000000000000000
 11
207.8068118493410
 21
128.5204127357472
 31
0.000000000000000
  0
LINE
  5
27D
100
AcDbEntity
  8
A3
  6
CONTINUOUS
 62
7
100
AcDbLine
 10
171.8068118493409
 20
141.9565688860811
 30
0.000000000000000
 11
171.8068118493409
 21
143.3204127358015
 31
0.000000000000000
  0
LINE
  5
27E
100
AcDbEntity
  8
A3
  6
CONTINUOUS
 62
7
100
AcDbLine
 10
171.8068118493409
 20
128.5204127357472
 30
0.000000000000000
 11
171.8068118493409
 21
130.0204127357472
 31
0.000000000000000
  0
LINE
  5
27F
100
AcDbEntity
  8
A3
  6
CONTINUOUS
 62
7
100
AcDbLine
 10
248.8068118493356
 20
127.0204127357472
 30
0.000000000000000
 11
256.8068118493356
 21
127.0204127357472
 31
0.000000000000000
  0
LINE
  5
280
100
AcDbEntity
  8
A3
  6
CONTINUOUS
 62
7
100
AcDbLine
 10
256.8068118493411
 20
128.5204127357472
 30
0.000000000000000
 11
248.8068118493356
 21
128.5204127357472
 31
0.000000000000000
  0
LINE
  5
281
100
AcDbEntity
  8
A3
  6
CONTINUOUS
 62
7
100
AcDbLine
 10
176.8068118493358
 20
127.0204127357472
 30
0.000000000000000
 11
168.8068118493358
 21
127.0204127357472
 31
0.000000000000000
  0
LINE
  5
282
100
AcDbEntity
  8
A3
  6
CONTINUOUS
 62
7
100
AcDbLine
 10
168.8068118493358
 20
128.5204127357472
 30
0.000000000000000
 11
176.8068118493358
 21
128.5204127357472
 31
0.000000000000000
  0
LINE
  5
283
100
AcDbEntity
  8
A3
  6
CONTINUOUS
 62
7
100
AcDbLine
 10
215.3068118493358
 20
127.0204127357472
 30
0.000000000000000
 11
207.3068118493358
 21
127.0204127357472
 31
0.000000000000000
  0
LINE
  5
284
100
AcDbEntity
  8
A3
  6
CONTINUOUS
 62
7
100
AcDbLine
 10
207.3068118493358
 20
128.5204127357472
 30
0.000000000000000
 11
215.3068118493358
 21
128.5204127357472
 31
0.000000000000000
  0
LINE
  5
285
100
AcDbEntity
  8
A3
  6
CONTINUOUS
 62
7
100
AcDbLine
 10
165.8068118493358
 20
127.0204127357472
 30
0.000000000000000
 11
165.3068118493358
 21
127.0204127357472
 31
0.000000000000000
  0
LINE
  5
286
100
AcDbEntity
  8
A3
  6
CONTINUOUS
 62
7
100
AcDbLine
 10
256.8068118493356
 20
128.0204127357472
 30
0.000000000000000
 11
256.8068118493356
 21
127.0204127357472
 31
0.000000000000000
  0
LINE
  5
287
100
AcDbEntity
  8
A3
  6
CONTINUOUS
 62
7
100
AcDbLine
 10
257.3068118493356
 20
127.0204127357472
 30
0.000000000000000
 11
256.8068118493356
 21
127.0204127357472
 31
0.000000000000000
  0
LINE
  5
288
100
AcDbEntity
  8
A3
  6
CONTINUOUS
 62
7
100
AcDbLine
 10
176.8068118493358
 20
128.0204127357472
 30
0.000000000000000
 11
176.8068118493358
 21
127.0204127357472
 31
0.000000000000000
  0
LINE
  5
289
100
AcDbEntity
  8
A3
  6
CONTINUOUS
 62
7
100
AcDbLine
 10
207.3068118493358
 20
127.0204127357472
 30
0.000000000000000
 11
207.3068118493358
 21
128.0204127357472
 31
0.000000000000000
  0
LINE
  5
28A
100
AcDbEntity
  8
A3
  6
CONTINUOUS
 62
7
100
AcDbLine
 10
207.3068118493358
 20
127.0204127357472
 30
0.000000000000000
 11
176.8068118493358
 21
127.0204127357472
 31
0.000000000000000
  0
LINE
  5
28B
100
AcDbEntity
  8
A3
  6
CONTINUOUS
 62
7
100
AcDbLine
 10
248.8068118493356
 20
128.0204127357472
 30
0.000000000000000
 11
248.8068118493356
 21
127.0204127357472
 31
0.000000000000000
  0
LINE
  5
28C
100
AcDbEntity
  8
A3
  6
CONTINUOUS
 62
7
100
AcDbLine
 10
215.3068118493358
 20
128.0204127357472
 30
0.000000000000000
 11
215.3068118493358
 21
127.0204127357472
 31
0.000000000000000
  0
LINE
  5
28D
100
AcDbEntity
  8
A3
  6
CONTINUOUS
 62
7
100
AcDbLine
 10
248.8068118493356
 20
127.0204127357472
 30
0.000000000000000
 11
215.3068118493358
 21
127.0204127357472
 31
0.000000000000000
  0
LINE
  5
28E
100
AcDbEntity
  8
A3
  6
CONTINUOUS
 62
7
100
AcDbLine
 10
168.8068118493358
 20
127.0204127357472
 30
0.000000000000000
 11
165.8068118493358
 21
127.0204127357472
 31
0.000000000000000
  0
LINE
  5
28F
100
AcDbEntity
  8
A3
  6
CONTINUOUS
 62
7
100
AcDbLine
 10
168.8068118493358
 20
127.0204127357472
 30
0.000000000000000
 11
168.8068118493358
 21
128.0204127357472
 31
0.000000000000000
  0
LINE
  5
290
100
AcDbEntity
  8
A3
  6
CONTINUOUS
 62
7
100
AcDbLine
 10
181.3068118493355
 20
143.3204127359970
 30
0.000000000000000
 11
176.1675056217714
 21
143.3204127359970
 31
0.000000000000000
  0
LINE
  5
291
100
AcDbEntity
  8
A3
  6
CONTINUOUS
 62
7
100
AcDbLine
 10
175.4461180768996
 20
143.3204127359969
 30
0.000000000000000
 11
170.3068118493355
 21
143.3204127358019
 31
0.000000000000000
  0
LINE
  5
292
100
AcDbEntity
  8
A3
  6
CONTINUOUS
 62
7
100
AcDbLine
 10
256.8068118490528
 20
144.8204127359968
 30
0.000000000000000
 11
165.8068118490528
 21
144.8204127359968
 31
0.000000000000000
  0
LINE
  5
293
100
AcDbEntity
  8
A3
  6
CONTINUOUS
 62
7
100
AcDbLine
 10
168.8068118493358
 20
130.0204127357472
 30
0.000000000000000
 11
168.8068118493358
 21
128.0204127357472
 31
0.000000000000000
  0
LINE
  5
294
100
AcDbEntity
  8
A3
  6
CONTINUOUS
 62
7
100
AcDbLine
 10
168.8068118493358
 20
130.0204127357472
 30
0.000000000000000
 11
176.8068118493358
 21
130.0204127357472
 31
0.000000000000000
  0
LINE
  5
295
100
AcDbEntity
  8
A3
  6
CONTINUOUS
 62
7
100
AcDbLine
 10
176.8068118493358
 20
130.0204127357472
 30
0.000000000000000
 11
176.8068118493358
 21
128.0204127357472
 31
0.000000000000000
  0
LINE
  5
296
100
AcDbEntity
  8
A3
  6
CONTINUOUS
 62
7
100
AcDbLine
 10
207.3068118493358
 20
130.0204127357472
 30
0.000000000000000
 11
207.3068118493358
 21
128.0204127357472
 31
0.000000000000000
  0
LINE
  5
297
100
AcDbEntity
  8
A3
  6
CONTINUOUS
 62
7
100
AcDbLine
 10
207.3068118493358
 20
130.0204127357472
 30
0.000000000000000
 11
215.3068118493358
 21
130.0204127357472
 31
0.000000000000000
  0
LINE
  5
298
100
AcDbEntity
  8
A3
  6
CONTINUOUS
 62
7
100
AcDbLine
 10
215.3068118493358
 20
130.0204127357472
 30
0.000000000000000
 11
215.3068118493358
 21
128.0204127357472
 31
0.000000000000000
  0
LINE
  5
299
100
AcDbEntity
  8
A3
  6
CONTINUOUS
 62
7
100
AcDbLine
 10
248.8068118493356
 20
130.0204127357472
 30
0.000000000000000
 11
248.8068118493356
 21
128.0204127357472
 31
0.000000000000000
  0
LINE
  5
29A
100
AcDbEntity
  8
A3
  6
CONTINUOUS
 62
7
100
AcDbLine
 10
256.8068118493356
 20
130.0204127357472
 30
0.000000000000000
 11
248.8068118493356
 21
130.0204127357472
 31
0.000000000000000
  0
LINE
  5
29B
100
AcDbEntity
  8
A3
  6
CONTINUOUS
 62
7
100
AcDbLine
 10
170.8068118493355
 20
140.9893574463978
 30
0.000000000000000
 11
170.8068118493355
 21
142.8204127358019
 31
0.000000000000000
  0
LINE
  5
29C
100
AcDbEntity
  8
A3
  6
CONTINUOUS
 62
7
100
AcDbLine
 10
180.8068118493355
 20
142.8204127358019
 30
0.000000000000000
 11
180.8068118493355
 21
140.9893574463978
 31
0.000000000000000
  0
LINE
  5
29D
100
AcDbEntity
  8
A3
  6
CONTINUOUS
 62
7
100
AcDbLine
 10
164.3068118490528
 20
144.8204127359968
 30
0.000000000000000
 11
165.8068118490528
 21
144.8204127359968
 31
0.000000000000000
  0
LINE
  5
29E
100
AcDbEntity
  8
A3
  6
CONTINUOUS
 62
7
100
AcDbLine
 10
164.3068118492328
 20
134.1204127358027
 30
0.000000000000000
 11
164.3068118493356
 21
128.0204127357473
 31
0.000000000000000
  0
LINE
  5
29F
100
AcDbEntity
  8
A3
  6
CONTINUOUS
 62
7
100
AcDbLine
 10
164.3068118490529
 20
144.8204127359969
 30
0.000000000000000
 11
164.3068118491421
 21
139.5204127358027
 31
0.000000000000000
  0
LINE
  5
2A0
100
AcDbEntity
  8
A3
  6
CONTINUOUS
 62
7
100
AcDbLine
 10
256.8068118493356
 20
130.0204127357472
 30
0.000000000000000
 11
256.8068118493356
 21
128.0204127357472
 31
0.000000000000000
  0
LINE
  5
2A1
100
AcDbEntity
  8
A3
  6
CONTINUOUS
 62
7
100
AcDbLine
 10
258.3068118490528
 20
144.8204127359969
 30
0.000000000000000
 11
258.3068118493356
 21
128.0204127357474
 31
0.000000000000000
  0
LINE
  5
2A2
100
AcDbEntity
  8
A3
  6
CONTINUOUS
 62
7
100
AcDbLine
 10
256.8068118490528
 20
144.8204127359968
 30
0.000000000000000
 11
258.3068118490528
 21
144.8204127359968
 31
0.000000000000000
  0
SPLINE
  5
2A3
100
AcDbEntity
  8
A4
  6
CONTINUOUS
 62
4
100
AcDbSpline
210
0.000000000000000
220
0.000000000000000
230
1.000000000000000
 70
     8
 71
     3
 72
    11
 73
     7
 74
     0
 42
1.000000000000000e-07
 43
1.000000000000000e-07
 12
-0.3317714485817760
 22
-0.8530357817692220
 32
0.000000000000000
 13
0.5470901205436576
 23
-0.9146477387383811
 33
0.000000000000000
 40
0.000000000000000
 40
0.000000000000000
 40
0.000000000000000
 40
0.000000000000000
 40
0.8347786084775581
 40
2.524324358960158
 40
4.432735504391572
 40
5.540646553731785
 40
5.540646553731785
 40
5.540646553731785
 40
5.540646553731785
 10
122.1137189273730
 20
139.3704127358719
 30
0.000000000000000
 10
122.0214003579797
 20
139.1330473949096
 30
0.000000000000000
 10
121.7511531698431
 20
138.3490634545674
 30
0.000000000000000
 10
122.9568687573176
 20
137.0073029715130
 30
0.000000000000000
 10
121.7176410185327
 20
135.4307237976205
 30
0.000000000000000
 10
122.2247639971359
 20
134.5081955360172
 30
0.000000000000000
 10
122.4268063936476
 20
134.1704127573497
 30
0.000000000000000
  0
SPLINE
  5
2A4
100
AcDbEntity
  8
A4
  6
CONTINUOUS
 62
4
100
AcDbSpline
210
0.000000000000000
220
0.000000000000000
230
1.000000000000000
 70
     8
 71
     3
 72
    11
 73
     7
 74
     0
 42
1.000000000000000e-07
 43
1.000000000000000e-07
 12
-0.3317714485816055
 22
-0.8530357817692220
 32
0.000000000000000
 13
0.5470901205439418
 23
-0.9146477387383811
 33
0.000000000000000
 40
0.000000000000000
 40
0.000000000000000
 40
0.000000000000000
 40
0.000000000000000
 40
0.8347786084775581
 40
2.524324358960158
 40
4.432735504391572
 40
5.540646553731785
 40
5.540646553731785
 40
5.540646553731785
 40
5.540646553731785
 10
120.7115332567574
 20
139.3704127358719
 30
0.000000000000000
 10
120.6192146873642
 20
139.1330473949096
 30
0.000000000000000
 10
120.3489674992275
 20
138.3490634545674
 30
0.000000000000000
 10
121.5546830867020
 20
137.0073029715130
 30
0.000000000000000
 10
120.3154553479172
 20
135.4307237976205
 30
0.000000000000000
 10
120.8225783265204
 20
134.5081955360172
 30
0.000000000000000
 10
121.0246207230322
 20
134.1704127573497
 30
0.000000000000000
  0
LINE
  5
2A5
100
AcDbEntity
  8
A3
  6
CONTINUOUS
 62
7
100
AcDbLine
 10
108.6068118493355
 20
134.1704127358720
 30
0.000000000000000
 11
121.0246207230299
 21
134.1704127358720
 31
0.000000000000000
  0
LINE
  5
2A6
100
AcDbEntity
  8
A3
  6
CONTINUOUS
 62
7
100
AcDbLine
 10
122.4268063936454
 20
134.1704127358720
 30
0.000000000000000
 11
176.7068118493355
 21
134.1704127358720
 31
0.000000000000000
  0
LINE
  5
2A7
100
AcDbEntity
  8
A3
  6
CONTINUOUS
 62
7
100
AcDbLine
 10
120.7795677301510
 20
135.9204127358720
 30
0.000000000000000
 11
108.6068118493355
 21
135.9204127358720
 31
0.000000000000000
  0
LINE
  5
2A8
100
AcDbEntity
  8
A3
  6
CONTINUOUS
 62
7
100
AcDbLine
 10
176.7068118493355
 20
135.9204127358720
 30
0.000000000000000
 11
122.1817534007665
 21
135.9204127358720
 31
0.000000000000000
  0
LINE
  5
2A9
100
AcDbEntity
  8
A3
  6
CONTINUOUS
 62
7
100
AcDbLine
 10
108.6068118493355
 20
137.6204127358720
 30
0.000000000000000
 11
120.9012658742047
 21
137.6204127358720
 31
0.000000000000000
  0
LINE
  5
2AA
100
AcDbEntity
  8
A3
  6
CONTINUOUS
 62
7
100
AcDbLine
 10
122.3034515448201
 20
137.6204127358720
 30
0.000000000000000
 11
176.7068118493355
 21
137.6204127358720
 31
0.000000000000000
  0
LINE
  5
2AB
100
AcDbEntity
  8
A3
  6
CONTINUOUS
 62
7
100
AcDbLine
 10
120.7115332567574
 20
139.3704127358720
 30
0.000000000000000
 11
108.6068118493355
 21
139.3704127358720
 31
0.000000000000000
  0
LINE
  5
2AC
100
AcDbEntity
  8
A3
  6
CONTINUOUS
 62
7
100
AcDbLine
 10
176.7068118493355
 20
139.3704127358720
 30
0.000000000000000
 11
122.1137189273729
 21
139.3704127358720
 31
0.000000000000000
  0
LINE
  5
2AD
100
AcDbEntity
  8
A3
  6
CONTINUOUS
 62
7
100
AcDbLine
 10
22.74048946928724
 20
194.5964569879026
 30
0.000000000000000
 11
22.74048946928724
 21
219.2895524575744
 31
0.000000000000000
  0
LINE
  5
2AE
100
AcDbEntity
  8
A3
  6
CONTINUOUS
 62
7
100
AcDbLine
 10
20.94048946921782
 20
219.2895524575743
 30
0.000000000000000
 11
20.94048946921782
 21
194.5964569879026
 31
0.000000000000000
  0
LINE
  5
2AF
100
AcDbEntity
  8
A3
  6
CONTINUOUS
 62
7
100
AcDbLine
 10
26.34048946921780
 20
194.5964569879026
 30
0.000000000000000
 11
26.34048946921780
 21
219.2895524575743
 31
0.000000000000000
  0
LINE
  5
2B0
100
AcDbEntity
  8
A3
  6
CONTINUOUS
 62
7
100
AcDbLine
 10
24.54048946928720
 20
194.5964569879026
 30
0.000000000000000
 11
24.54048946928720
 21
219.2895524575744
 31
0.000000000000000
  0
LINE
  5
2B1
100
AcDbEntity
  8
A3
  6
CONTINUOUS
 62
7
100
AcDbLine
 10
34.15658872615245
 20
194.5964569879026
 30
0.000000000000000
 11
13.15658872615245
 21
194.5964569879026
 31
0.000000000000000
  0
LINE
  5
2B2
100
AcDbEntity
  8
A3
  6
CONTINUOUS
 62
7
100
AcDbLine
 10
34.15658872615245
 20
187.8964569879025
 30
0.000000000000000
 11
13.15658872615245
 21
187.8964569879025
 31
0.000000000000000
  0
LINE
  5
2B3
100
AcDbEntity
  8
A3
  6
CONTINUOUS
 62
7
100
AcDbLine
 10
34.15658872615245
 20
194.5964569879026
 30
0.000000000000000
 11
34.15658872615245
 21
187.8964569879025
 31
0.000000000000000
  0
LINE
  5
2B4
100
AcDbEntity
  8
A3
  6
CONTINUOUS
 62
7
100
AcDbLine
 10
13.15658872615245
 20
194.5964569879026
 30
0.000000000000000
 11
13.15658872615245
 21
187.8964569879025
 31
0.000000000000000
  0
ARC
  5
2B5
100
AcDbEntity
  8
A3
  6
CONTINUOUS
 62
7
100
AcDbCircle
 10
29.74048946925302
 20
297.7895524575965
 30
0.000000000000000
 40
1.000000000000000
100
AcDbArc
 50
0.000000000000000
 51
90.00000000000189
  0
ARC
  5
2B6
100
AcDbEntity
  8
A3
  6
CONTINUOUS
 62
7
100
AcDbCircle
 10
16.74048946925302
 20
297.7895524575965
 30
0.000000000000000
 40
1.000000000000000
100
AcDbArc
 50
90.00000000000000
 51
180.0000000000000
  0
LINE
  5
2B7
100
AcDbEntity
  8
A3
  6
CONTINUOUS
 62
7
100
AcDbLine
 10
30.74048946925302
 20
297.7895524575965
 30
0.000000000000000
 11
30.74048946925302
 21
296.7895524574665
 31
0.000000000000000
  0
LINE
  5
2B8
100
AcDbEntity
  8
A3
  6
CONTINUOUS
 62
7
100
AcDbLine
 10
15.74048946925313
 20
297.7895524575965
 30
0.000000000000000
 11
15.74048946925313
 21
296.7895524574790
 31
0.000000000000000
  0
LINE
  5
2B9
100
AcDbEntity
  8
A3
  6
CONTINUOUS
 62
7
100
AcDbLine
 10
22.74048946920664
 20
298.7895524575965
 30
0.000000000000000
 11
29.74048946925291
 21
298.7895524575965
 31
0.000000000000000
  0
LINE
  5
2BA
100
AcDbEntity
  8
A3
  6
CONTINUOUS
 62
7
100
AcDbLine
 10
16.74048946925302
 20
298.7895524575965
 30
0.000000000000000
 11
21.74048946920664
 21
298.7895524575965
 31
0.000000000000000
  0
LINE
  5
2BB
100
AcDbEntity
  8
A3
  6
CONTINUOUS
 62
7
100
AcDbLine
 10
29.74048946918424
 20
288.8908105306375
 30
0.000000000000000
 11
29.74048946918424
 21
288.4931781796270
 31
0.000000000000000
  0
LINE
  5
2BC
100
AcDbEntity
  8
A3
  6
CONTINUOUS
 62
7
100
AcDbLine
 10
28.74048946918424
 20
288.8908105306375
 30
0.000000000000000
 11
28.74048946918424
 21
288.4931781796270
 31
0.000000000000000
  0
LINE
  5
2BD
100
AcDbEntity
  8
A3
  6
CONTINUOUS
 62
7
100
AcDbLine
 10
21.74048946920664
 20
285.8958927448681
 30
0.000000000000000
 11
21.74048946920664
 21
284.9142655614205
 31
0.000000000000000
  0
LINE
  5
2BE
100
AcDbEntity
  8
A3
  6
CONTINUOUS
 62
7
100
AcDbLine
 10
29.74048946918424
 20
288.4931781796270
 30
0.000000000000000
 11
29.74048946918424
 21
284.9142655614205
 31
0.000000000000000
  0
LINE
  5
2BF
100
AcDbEntity
  8
A3
  6
CONTINUOUS
 62
7
100
AcDbLine
 10
28.74048946918424
 20
288.4931781796270
 30
0.000000000000000
 11
28.74048946918424
 21
285.8958927448688
 31
0.000000000000000
  0
LINE
  5
2C0
100
AcDbEntity
  8
A3
  6
CONTINUOUS
 62
7
100
AcDbLine
 10
28.74048946918430
 20
285.8958927448688
 30
0.000000000000000
 11
22.74048946920658
 21
285.8958927448663
 31
0.000000000000000
  0
LINE
  5
2C1
100
AcDbEntity
  8
A3
  6
CONTINUOUS
 62
7
100
AcDbLine
 10
21.74048946920664
 20
284.9142655614205
 30
0.000000000000000
 11
21.74048946920664
 21
284.8194286439559
 31
0.000000000000000
  0
LINE
  5
2C2
100
AcDbEntity
  8
A3
  6
CONTINUOUS
 62
7
100
AcDbLine
 10
29.74048946918424
 20
284.9142655614205
 30
0.000000000000000
 11
29.74048946918424
 21
283.7041711562720
 31
0.000000000000000
  0
LINE
  5
2C3
100
AcDbEntity
  8
A3
  6
CONTINUOUS
 62
7
100
AcDbLine
 10
29.74048946918424
 20
284.9142655614205
 30
0.000000000000000
 11
21.74048946920664
 21
284.9142655614205
 31
0.000000000000000
  0
LINE
  5
2C4
100
AcDbEntity
  8
A3
  6
CONTINUOUS
 62
7
100
AcDbLine
 10
29.74048946918424
 20
295.3086333570030
 30
0.000000000000000
 11
28.74048946918424
 21
295.3086333570030
 31
0.000000000000000
  0
LINE
  5
2C5
100
AcDbEntity
  8
A3
  6
CONTINUOUS
 62
7
100
AcDbLine
 10
28.74048946918424
 20
295.3086333570030
 30
0.000000000000000
 11
28.74048946918424
 21
288.8908105306375
 31
0.000000000000000
  0
LINE
  5
2C6
100
AcDbEntity
  8
A3
  6
CONTINUOUS
 62
7
100
AcDbLine
 10
29.74048946918424
 20
295.3086333570030
 30
0.000000000000000
 11
29.74048946918424
 21
288.8908105306375
 31
0.000000000000000
  0
LINE
  5
2C7
100
AcDbEntity
  8
A3
  6
CONTINUOUS
 62
7
100
AcDbLine
 10
21.74048946920664
 20
287.0683289236923
 30
0.000000000000000
 11
21.74048946920664
 21
285.8958927448681
 31
0.000000000000000
  0
LINE
  5
2C8
100
AcDbEntity
  8
A3
  6
CONTINUOUS
 62
7
100
AcDbLine
 10
22.74048946920664
 20
287.0683289236923
 30
0.000000000000000
 11
22.74048946920664
 21
285.8958927448688
 31
0.000000000000000
  0
LINE
  5
2C9
100
AcDbEntity
  8
A3
  6
CONTINUOUS
 62
7
100
AcDbLine
 10
22.74048946920664
 20
300.0237397918972
 30
0.000000000000000
 11
21.74048946920664
 21
300.0237397918972
 31
0.000000000000000
  0
LINE
  5
2CA
100
AcDbEntity
  8
A3
  6
CONTINUOUS
 62
7
100
AcDbLine
 10
21.74048946920664
 20
300.0237397918972
 30
0.000000000000000
 11
21.74048946920664
 21
299.2145487872738
 31
0.000000000000000
  0
LINE
  5
2CB
100
AcDbEntity
  8
A3
  6
CONTINUOUS
 62
7
100
AcDbLine
 10
22.74048946920664
 20
300.0237397918972
 30
0.000000000000000
 11
22.74048946920664
 21
299.2145487872738
 31
0.000000000000000
  0
LINE
  5
2CC
100
AcDbEntity
  8
A3
  6
CONTINUOUS
 62
7
100
AcDbLine
 10
21.74048946920664
 20
291.1707223242861
 30
0.000000000000000
 11
21.74048946920664
 21
287.0683289236923
 31
0.000000000000000
  0
LINE
  5
2CD
100
AcDbEntity
  8
A3
  6
CONTINUOUS
 62
7
100
AcDbLine
 10
22.74048946920664
 20
291.1707223242861
 30
0.000000000000000
 11
22.74048946920664
 21
287.0683289236923
 31
0.000000000000000
  0
LINE
  5
2CE
100
AcDbEntity
  8
A3
  6
CONTINUOUS
 62
7
100
AcDbLine
 10
21.74048946920664
 20
299.2145487872738
 30
0.000000000000000
 11
21.74048946920664
 21
292.3431585031138
 31
0.000000000000000
  0
LINE
  5
2CF
100
AcDbEntity
  8
A3
  6
CONTINUOUS
 62
7
100
AcDbLine
 10
22.74048946920664
 20
299.2145487872738
 30
0.000000000000000
 11
22.74048946920664
 21
292.3431585031138
 31
0.000000000000000
  0
LINE
  5
2D0
100
AcDbEntity
  8
A3
  6
CONTINUOUS
 62
7
100
AcDbLine
 10
21.74048946920664
 20
292.3431585031137
 30
0.000000000000000
 11
21.74048946920664
 21
291.1707223242861
 31
0.000000000000000
  0
LINE
  5
2D1
100
AcDbEntity
  8
A3
  6
CONTINUOUS
 62
7
100
AcDbLine
 10
22.74048946920664
 20
292.3431585031137
 30
0.000000000000000
 11
22.74048946920664
 21
291.1707223242861
 31
0.000000000000000
  0
LINE
  5
2D2
100
AcDbEntity
  8
A3
  6
CONTINUOUS
 62
7
100
AcDbLine
 10
24.74048946920664
 20
267.7895258507452
 30
0.000000000000000
 11
24.74048946920664
 21
265.0395524575359
 31
0.000000000000000
  0
LINE
  5
2D3
100
AcDbEntity
  8
A3
  6
CONTINUOUS
 62
7
100
AcDbLine
 10
24.74048946920664
 20
286.2895524575487
 30
0.000000000000000
 11
24.74048946920664
 21
285.8958927448663
 31
0.000000000000000
  0
LINE
  5
2D4
100
AcDbEntity
  8
A3
  6
CONTINUOUS
 62
7
100
AcDbLine
 10
24.74048946920664
 20
268.2871232170837
 30
0.000000000000000
 11
24.74048946920664
 21
267.7895258507452
 31
0.000000000000000
  0
LINE
  5
2D5
100
AcDbEntity
  8
A3
  6
CONTINUOUS
 62
7
100
AcDbLine
 10
21.74048946920664
 20
267.7895258507452
 30
0.000000000000000
 11
24.74048946920664
 21
267.7895258507452
 31
0.000000000000000
  0
LINE
  5
2D6
100
AcDbEntity
  8
A3
  6
CONTINUOUS
 62
7
100
AcDbLine
 10
24.74048946920664
 20
273.2895082432773
 30
0.000000000000000
 11
24.74048946920664
 21
268.2871232170837
 31
0.000000000000000
  0
LINE
  5
2D7
100
AcDbEntity
  8
A3
  6
CONTINUOUS
 62
7
100
AcDbLine
 10
21.74048946920664
 20
279.2895250682136
 30
0.000000000000000
 11
24.74048946920664
 21
279.2895250682136
 31
0.000000000000000
  0
LINE
  5
2D8
100
AcDbEntity
  8
A3
  6
CONTINUOUS
 62
7
100
AcDbLine
 10
21.74048946920664
 20
274.2895074607233
 30
0.000000000000000
 11
21.74048946920664
 21
273.2895082432773
 31
0.000000000000000
  0
LINE
  5
2D9
100
AcDbEntity
  8
A3
  6
CONTINUOUS
 62
7
100
AcDbLine
 10
24.74048946920664
 20
274.2895074607233
 30
0.000000000000000
 11
24.74048946920664
 21
273.2895082432773
 31
0.000000000000000
  0
LINE
  5
2DA
100
AcDbEntity
  8
A3
  6
CONTINUOUS
 62
7
100
AcDbLine
 10
21.74048946920664
 20
273.2895082432773
 30
0.000000000000000
 11
24.74048946920664
 21
273.2895082432773
 31
0.000000000000000
  0
LINE
  5
2DB
100
AcDbEntity
  8
A3
  6
CONTINUOUS
 62
7
100
AcDbLine
 10
21.74048946920664
 20
279.2895082432690
 30
0.000000000000000
 11
21.74048946920664
 21
278.2895082432692
 31
0.000000000000000
  0
LINE
  5
2DC
100
AcDbEntity
  8
A3
  6
CONTINUOUS
 62
7
100
AcDbLine
 10
24.74048946920664
 20
279.2895082432690
 30
0.000000000000000
 11
24.74048946920664
 21
278.2895082432692
 31
0.000000000000000
  0
LINE
  5
2DD
100
AcDbEntity
  8
A3
  6
CONTINUOUS
 62
7
100
AcDbLine
 10
21.74048946920664
 20
278.2895082432692
 30
0.000000000000000
 11
21.74048946920664
 21
274.2895074607233
 31
0.000000000000000
  0
LINE
  5
2DE
100
AcDbEntity
  8
A3
  6
CONTINUOUS
 62
7
100
AcDbLine
 10
24.74048946920664
 20
278.2895082432692
 30
0.000000000000000
 11
24.74048946920664
 21
274.2895074607233
 31
0.000000000000000
  0
SPLINE
  5
2DF
100
AcDbEntity
  8
A3
  6
CONTINUOUS
 62
7
100
AcDbSpline
210
0.000000000000000
220
0.000000000000000
230
1.000000000000000
 70
     8
 71
     3
 72
    18
 73
    14
 74
     0
 42
1.000000000000000e-07
 43
1.000000000000000e-07
 12
-0.0001031910433084704
 22
-0.9999999946739990
 32
0.000000000000000
 13
0.9999992995498701
 23
0.001183597503768397
 33
0.000000000000000
 40
0.000000000000000
 40
0.000000000000000
 40
0.000000000000000
 40
0.000000000000000
 40
0.003395621536365000
 40
0.09451968895575520
 40
0.1912513317632502
 40
0.2898378315707749
 40
0.4031014817042173
 40
0.5169715152401545
 40
0.6463658552916808
 40
0.7794418284382985
 40
0.9257167751128111
 40
1.075131366844145
 40
1.232793105674784
 40
1.232793105674784
 40
1.232793105674784
 40
1.232793105674784
 10
13.84048946916243
 20
288.6914762463983
 30
0.000000000000000
 10
13.84048935236319
 20
288.6903443725589
 30
0.000000000000000
 10
13.84064155317878
 20
288.6588410241956
 30
0.000000000000000
 10
13.85030959784172
 20
288.5948000336873
 30
0.000000000000000
 10
13.89163714140693
 20
288.5073665375459
 30
0.000000000000000
 10
13.95801097530398
 20
288.4276797144054
 30
0.000000000000000
 10
14.04357049978762
 20
288.3598076652253
 30
0.000000000000000
 10
14.14741523262637
 20
288.3013145099247
 30
0.000000000000000
 10
14.26384516761050
 20
288.2538352002978
 30
0.000000000000000
 10
14.39483590125383
 20
288.2156627398759
 30
0.000000000000000
 10
14.53525006659459
 20
288.1880468263292
 30
0.000000000000000
 10
14.68553105442743
 20
288.1709379626386
 30
0.000000000000000
 10
14.78793559303028
 20
288.1669912558890
 30
0.000000000000000
 10
14.84048946916243
 20
288.1670534585692
 30
0.000000000000000
  0
ARC
  5
2E0
100
AcDbEntity
  8
A3
  6
CONTINUOUS
 62
7
100
AcDbCircle
 10
14.84048946916243
 20
295.7895524574832
 30
0.000000000000000
 40
0.9999999999964749
100
AcDbArc
 50
90.00000000000000
 51
180.0000000000000
  0
ARC
  5
2E1
100
AcDbEntity
  8
A3
  6
CONTINUOUS
 62
7
100
AcDbCircle
 10
14.84048946916243
 20
280.2895524575986
 30
0.000000000000000
 40
1.000000000000000
100
AcDbArc
 50
180.0000000000000
 51
270.0000000000007
  0
ARC
  5
2E2
100
AcDbEntity
  8
A3
  6
CONTINUOUS
 62
7
100
AcDbCircle
 10
14.84048946916243
 20
257.2895524576006
 30
0.000000000000000
 40
0.9999999999988065
100
AcDbArc
 50
90.00000000000000
 51
180.0000000000000
  0
ARC
  5
2E3
100
AcDbEntity
  8
A3
  6
CONTINUOUS
 62
7
100
AcDbCircle
 10
14.84048946916243
 20
221.7895524575743
 30
0.000000000000000
 40
1.000000000000000
100
AcDbArc
 50
180.0000000000000
 51
270.0000000000014
  0
ARC
  5
2E4
100
AcDbEntity
  8
A3
  6
CONTINUOUS
 62
7
100
AcDbCircle
 10
14.84048946916243
 20
294.2895524574653
 30
0.000000000000000
 40
1.000000000000000
100
AcDbArc
 50
89.99999999999858
 51
179.9999999999937
  0
LINE
  5
2E5
100
AcDbEntity
  8
A3
  6
CONTINUOUS
 62
7
100
AcDbLine
 10
24.74048946920664
 20
267.2895524575605
 30
0.000000000000000
 11
25.34048946924986
 21
267.2895524575605
 31
0.000000000000000
  0
LINE
  5
2E6
100
AcDbEntity
  8
A3
  6
CONTINUOUS
 62
7
100
AcDbLine
 10
25.34048946924986
 20
267.2895524575509
 30
0.000000000000000
 11
24.74048946920664
 21
267.2895524575509
 31
0.000000000000000
  0
LINE
  5
2E7
100
AcDbEntity
  8
A3
  6
CONTINUOUS
 62
7
100
AcDbLine
 10
25.34048946924986
 20
276.7895524575835
 30
0.000000000000000
 11
24.74048946920664
 21
276.7895524575835
 31
0.000000000000000
  0
LINE
  5
2E8
100
AcDbEntity
  8
A3
  6
CONTINUOUS
 62
7
100
AcDbLine
 10
24.74048946920664
 20
268.7895524575835
 30
0.000000000000000
 11
25.34048946924986
 21
268.7895524575835
 31
0.000000000000000
  0
LINE
  5
2E9
100
AcDbEntity
  8
A3
  6
CONTINUOUS
 62
7
100
AcDbLine
 10
29.74048946918424
 20
286.2895524575487
 30
0.000000000000000
 11
30.14048946921673
 21
286.2895524575487
 31
0.000000000000000
  0
LINE
  5
2EA
100
AcDbEntity
  8
A3
  6
CONTINUOUS
 62
7
100
AcDbLine
 10
22.74048946920664
 20
286.2895524575487
 30
0.000000000000000
 11
28.74048946918424
 21
286.2895524575487
 31
0.000000000000000
  0
LINE
  5
2EB
100
AcDbEntity
  8
A3
  6
CONTINUOUS
 62
7
100
AcDbLine
 10
25.34048946924998
 20
265.0395524575358
 30
0.000000000000000
 11
21.74048946920676
 21
265.0395524575385
 31
0.000000000000000
  0
LINE
  5
2EC
100
AcDbEntity
  8
A3
  6
CONTINUOUS
 62
7
100
AcDbLine
 10
13.84048946916243
 20
294.2895524574831
 30
0.000000000000000
 11
13.84048946916243
 21
295.7895524574832
 31
0.000000000000000
  0
LINE
  5
2ED
100
AcDbEntity
  8
A3
  6
CONTINUOUS
 62
7
100
AcDbLine
 10
31.64048946941193
 20
295.2895524574657
 30
0.000000000000000
 11
31.64048946941193
 21
296.7895524574657
 31
0.000000000000000
  0
LINE
  5
2EE
100
AcDbEntity
  8
A3
  6
CONTINUOUS
 62
7
100
AcDbLine
 10
21.74048946920652
 20
296.7895524574739
 30
0.000000000000000
 11
14.84048946916232
 21
296.7895524574797
 31
0.000000000000000
  0
LINE
  5
2EF
100
AcDbEntity
  8
A3
  6
CONTINUOUS
 62
7
100
AcDbLine
 10
31.64048946941199
 20
296.7895524574657
 30
0.000000000000000
 11
22.74048946920658
 21
296.7895524574732
 31
0.000000000000000
  0
LINE
  5
2F0
100
AcDbEntity
  8
A3
  6
CONTINUOUS
 62
7
100
AcDbLine
 10
28.74048946918447
 20
295.2895524574797
 30
0.000000000000000
 11
22.74048946920664
 21
295.2895524574797
 31
0.000000000000000
  0
LINE
  5
2F1
100
AcDbEntity
  8
A3
  6
CONTINUOUS
 62
7
100
AcDbLine
 10
30.14048946921775
 20
295.2895524574797
 30
0.000000000000000
 11
29.74048946918447
 21
295.2895524574797
 31
0.000000000000000
  0
LINE
  5
2F2
100
AcDbEntity
  8
A3
  6
CONTINUOUS
 62
7
100
AcDbLine
 10
23.64048946921775
 20
219.2895524575743
 30
0.000000000000000
 11
17.63048946921776
 21
219.2895524575743
 31
0.000000000000000
  0
LINE
  5
2F3
100
AcDbEntity
  8
A3
  6
CONTINUOUS
 62
7
100
AcDbLine
 10
30.15048946921775
 20
219.7895524575743
 30
0.000000000000000
 11
30.15048946921775
 21
220.7895524575023
 31
0.000000000000000
  0
LINE
  5
2F4
100
AcDbEntity
  8
A3
  6
CONTINUOUS
 62
7
100
AcDbLine
 10
17.13048946921776
 20
220.7895524575741
 30
0.000000000000000
 11
17.13048946921776
 21
219.7895524575743
 31
0.000000000000000
  0
LINE
  5
2F5
100
AcDbEntity
  8
A3
  6
CONTINUOUS
 62
7
100
AcDbLine
 10
29.65048946921775
 20
219.2895524575743
 30
0.000000000000000
 11
23.64048946921775
 21
219.2895524575743
 31
0.000000000000000
  0
LINE
  5
2F6
100
AcDbEntity
  8
A3
  6
CONTINUOUS
 62
7
100
AcDbLine
 10
13.84048946916243
 20
257.2895524576037
 30
0.000000000000000
 11
13.84048946916243
 21
280.2895524575986
 31
0.000000000000000
  0
LINE
  5
2F7
100
AcDbEntity
  8
A3
  6
CONTINUOUS
 62
7
100
AcDbLine
 10
21.74048946920664
 20
273.2895172426851
 30
0.000000000000000
 11
21.74048946920664
 21
258.2895524576023
 31
0.000000000000000
  0
LINE
  5
2F8
100
AcDbEntity
  8
A3
  6
CONTINUOUS
 62
7
100
AcDbLine
 10
28.74048946918447
 20
293.2895524575986
 30
0.000000000000000
 11
22.74048946920664
 21
293.2895524575986
 31
0.000000000000000
  0
LINE
  5
2F9
100
AcDbEntity
  8
A3
  6
CONTINUOUS
 62
7
100
AcDbLine
 10
30.14048946921673
 20
293.2895524575986
 30
0.000000000000000
 11
29.74048946918447
 21
293.2895524575986
 31
0.000000000000000
  0
LINE
  5
2FA
100
AcDbEntity
  8
A3
  6
CONTINUOUS
 62
7
100
AcDbLine
 10
29.74048946918447
 20
289.2895524575986
 30
0.000000000000000
 11
30.14048946921673
 21
289.2895524575986
 31
0.000000000000000
  0
LINE
  5
2FB
100
AcDbEntity
  8
A3
  6
CONTINUOUS
 62
7
100
AcDbLine
 10
22.74048946920664
 20
289.2895524575986
 30
0.000000000000000
 11
28.74048946918447
 21
289.2895524575986
 31
0.000000000000000
  0
LINE
  5
2FC
100
AcDbEntity
  8
A3
  6
CONTINUOUS
 62
7
100
AcDbLine
 10
30.14048946921775
 20
283.7041711562720
 30
0.000000000000000
 11
21.74048946920664
 21
283.7041711562720
 31
0.000000000000000
  0
LINE
  5
2FD
100
AcDbEntity
  8
A3
  6
CONTINUOUS
 62
7
100
AcDbLine
 10
13.84048946916243
 20
280.2895524575986
 30
0.000000000000000
 11
13.84048946916243
 21
288.6914762463983
 31
0.000000000000000
  0
LINE
  5
2FE
100
AcDbEntity
  8
A3
  6
CONTINUOUS
 62
7
100
AcDbLine
 10
13.84048946916243
 20
222.2895524575743
 30
0.000000000000000
 11
13.84048946916243
 21
257.2895524576006
 31
0.000000000000000
  0
LINE
  5
2FF
100
AcDbEntity
  8
A3
  6
CONTINUOUS
 62
7
100
AcDbLine
 10
13.84048946916243
 20
221.7895524575743
 30
0.000000000000000
 11
13.84048946916243
 21
222.2895524575743
 31
0.000000000000000
  0
LINE
  5
300
100
AcDbEntity
  8
A3
  6
CONTINUOUS
 62
7
100
AcDbLine
 10
30.14048946921704
 20
283.2041711562720
 30
0.000000000000000
 11
30.14048946941213
 21
288.1670534585559
 31
0.000000000000000
  0
LINE
  5
301
100
AcDbEntity
  8
A3
  6
CONTINUOUS
 62
7
100
AcDbLine
 10
31.64048946941193
 20
222.2895524575023
 30
0.000000000000000
 11
31.64048946941193
 21
288.1670534585560
 31
0.000000000000000
  0
LINE
  5
302
100
AcDbEntity
  8
A3
  6
CONTINUOUS
 62
7
100
AcDbLine
 10
21.74048946920664
 20
284.8194286439559
 30
0.000000000000000
 11
21.74048946920664
 21
283.2041711562720
 31
0.000000000000000
  0
LINE
  5
303
100
AcDbEntity
  8
A3
  6
CONTINUOUS
 62
7
100
AcDbLine
 10
25.34048946924986
 20
258.2895524577092
 30
0.000000000000000
 11
14.84048946916243
 21
258.2895524577092
 31
0.000000000000000
  0
LINE
  5
304
100
AcDbEntity
  8
A3
  6
CONTINUOUS
 62
7
100
AcDbLine
 10
14.84048946916243
 20
279.2895524577360
 30
0.000000000000000
 11
25.34048946924986
 21
279.2895524577360
 31
0.000000000000000
  0
LINE
  5
305
100
AcDbEntity
  8
A3
  6
CONTINUOUS
 62
7
100
AcDbLine
 10
25.34048946924986
 20
279.2895524577360
 30
0.000000000000000
 11
25.34048946924986
 21
258.2895524577092
 31
0.000000000000000
  0
LINE
  5
306
100
AcDbEntity
  8
A3
  6
CONTINUOUS
 62
7
100
AcDbLine
 10
31.64048946941193
 20
222.2895524575023
 30
0.000000000000000
 11
31.64048946941193
 21
220.7895524575023
 31
0.000000000000000
  0
LINE
  5
307
100
AcDbEntity
  8
A3
  6
CONTINUOUS
 62
7
100
AcDbLine
 10
31.64048946941196
 20
220.7895524575020
 30
0.000000000000000
 11
14.84048946916246
 21
220.7895524575741
 31
0.000000000000000
  0
LINE
  5
308
100
AcDbEntity
  8
A3
  6
CONTINUOUS
 62
7
100
AcDbLine
 10
13.84048946916243
 20
288.6914762463983
 30
0.000000000000000
 11
13.84048946916243
 21
294.2895524574653
 31
0.000000000000000
  0
LINE
  5
309
100
AcDbEntity
  8
A3
  6
CONTINUOUS
 62
7
100
AcDbLine
 10
21.74048946920664
 20
295.2895524574656
 30
0.000000000000000
 11
14.84048946916243
 21
295.2895524574656
 31
0.000000000000000
  0
LINE
  5
30A
100
AcDbEntity
  8
A3
  6
CONTINUOUS
 62
7
100
AcDbLine
 10
21.74048946920664
 20
288.1670534585692
 30
0.000000000000000
 11
14.84048946916243
 21
288.1670534585692
 31
0.000000000000000
  0
LINE
  5
30B
100
AcDbEntity
  8
A3
  6
CONTINUOUS
 62
7
100
AcDbLine
 10
30.14048946941216
 20
295.2895524574516
 30
0.000000000000000
 11
30.14048946941216
 21
288.1670534585561
 31
0.000000000000000
  0
LINE
  5
30C
100
AcDbEntity
  8
A3
  6
CONTINUOUS
 62
7
100
AcDbLine
 10
31.64048946941193
 20
295.2895524574516
 30
0.000000000000000
 11
31.64048946941193
 21
288.1670534585561
 31
0.000000000000000
  0
LINE
  5
30D
100
AcDbEntity
  8
A3
  6
CONTINUOUS
 62
7
100
AcDbLine
 10
30.14048946941216
 20
295.2895524574515
 30
0.000000000000000
 11
31.64048946941193
 21
295.2895524574515
 31
0.000000000000000
  0
LINE
  5
30E
100
AcDbEntity
  8
A3
  6
CONTINUOUS
 62
7
100
AcDbLine
 10
30.14048946941216
 20
288.1670534585560
 30
0.000000000000000
 11
31.64048946941193
 21
288.1670534585560
 31
0.000000000000000
  0
LINE
  5
30F
100
AcDbEntity
  8
A3
  6
CONTINUOUS
 62
7
100
AcDbLine
 10
463.5945535504807
 20
219.2895524575887
 30
0.000000000000000
 11
451.5945535504807
 21
219.2895524575887
 31
0.000000000000000
  0
ARC
  5
310
100
AcDbEntity
  8
A3
  6
CONTINUOUS
 62
7
100
AcDbCircle
 10
451.5945535504807
 20
219.7895524575887
 30
0.000000000000000
 40
0.5000000000000000
100
AcDbArc
 50
180.0000000000000
 51
270.0000000000000
  0
LINE
  5
311
100
AcDbEntity
  8
A3
  6
CONTINUOUS
 62
7
100
AcDbLine
 10
451.0945535504807
 20
220.7895524575887
 30
0.000000000000000
 11
451.0945535504807
 21
219.7895524575887
 31
0.000000000000000
  0
LINE
  5
312
100
AcDbEntity
  8
A3
  6
CONTINUOUS
 62
7
100
AcDbLine
 10
464.0945535504807
 20
220.7895524575887
 30
0.000000000000000
 11
464.0945535504807
 21
219.7895524575887
 31
0.000000000000000
  0
ARC
  5
313
100
AcDbEntity
  8
A3
  6
CONTINUOUS
 62
7
100
AcDbCircle
 10
463.5945535504807
 20
219.7895524575887
 30
0.000000000000000
 40
0.5000000000000000
100
AcDbArc
 50
270.0000000000000
 51
360.0000000000000
  0
ARC
  5
314
100
AcDbEntity
  8
A3
  6
CONTINUOUS
 62
7
100
AcDbCircle
 10
456.7045535504808
 20
190.1895524575889
 30
0.000000000000000
 40
0.9000000000000000
100
AcDbArc
 50
180.0000000000009
 51
270.0000000000000
  0
ARC
  5
315
100
AcDbEntity
  8
A3
  6
CONTINUOUS
 62
7
100
AcDbCircle
 10
460.3045535504807
 20
193.7895524575890
 30
0.000000000000000
 40
0.9000000000000000
100
AcDbArc
 50
180.3239717074229
 51
269.7445354800027
  0
ARC
  5
316
100
AcDbEntity
  8
A3
  6
CONTINUOUS
 62
7
100
AcDbCircle
 10
458.5045535504808
 20
191.9895524575889
 30
0.000000000000000
 40
0.9000000000000000
100
AcDbArc
 50
180.0000000000000
 51
270.0000000000000
  0
LINE
  5
317
100
AcDbEntity
  8
A3
  6
CONTINUOUS
 62
7
100
AcDbLine
 10
455.8045535504807
 20
190.1895524575889
 30
0.000000000000000
 11
455.8045535504807
 21
219.2895524575890
 31
0.000000000000000
  0
LINE
  5
318
100
AcDbEntity
  8
A3
  6
CONTINUOUS
 62
7
100
AcDbLine
 10
457.6045535504807
 20
191.9895524575889
 30
0.000000000000000
 11
457.6045535504807
 21
219.2895524575890
 31
0.000000000000000
  0
LINE
  5
319
100
AcDbEntity
  8
A3
  6
CONTINUOUS
 62
7
100
AcDbLine
 10
459.4045535504808
 20
219.2895524575890
 30
0.000000000000000
 11
459.4045535504808
 21
193.7895524575890
 31
0.000000000000000
  0
LINE
  5
31A
100
AcDbEntity
  8
A3
  6
CONTINUOUS
 62
7
100
AcDbLine
 10
524.8045535504807
 20
194.5964569879172
 30
0.000000000000000
 11
547.8045535504807
 21
194.5964569879172
 31
0.000000000000000
  0
LINE
  5
31B
100
AcDbEntity
  8
A3
  6
CONTINUOUS
 62
7
100
AcDbLine
 10
524.8045535504807
 20
187.8964569879171
 30
0.000000000000000
 11
547.8045535504807
 21
187.8964569879171
 31
0.000000000000000
  0
LINE
  5
31C
100
AcDbEntity
  8
A3
  6
CONTINUOUS
 62
7
100
AcDbLine
 10
524.8045535504807
 20
194.5964569879172
 30
0.000000000000000
 11
524.8045535504807
 21
187.8964569879171
 31
0.000000000000000
  0
LINE
  5
31D
100
AcDbEntity
  8
A3
  6
CONTINUOUS
 62
7
100
AcDbLine
 10
547.8045535504807
 20
194.5964569879172
 30
0.000000000000000
 11
547.8045535504807
 21
187.8964569879171
 31
0.000000000000000
  0
SPLINE
  5
31E
100
AcDbEntity
  8
A4
  6
CONTINUOUS
 62
4
100
AcDbSpline
210
0.000000000000000
220
0.000000000000000
230
1.000000000000000
 70
     8
 71
     3
 72
    10
 73
     6
 74
     0
 42
1.000000000000000e-07
 43
1.000000000000000e-07
 12
0.9563232603304641
 22
-0.8074401890575018
 32
0.000000000000000
 13
0.8657993174713283
 23
-0.8197910727918725
 33
0.000000000000000
 40
0.000000000000000
 40
0.000000000000000
 40
0.000000000000000
 40
0.000000000000000
 40
1.475929605114334
 40
3.341757728947386
 40
4.410374088508275
 40
4.410374088508275
 40
4.410374088508275
 40
4.410374088508275
 10
511.3924565642224
 20
192.8895524575889
 30
0.000000000000000
 10
511.8629451682161
 20
192.4923108311259
 30
0.000000000000000
 10
512.9282120504104
 20
191.5928876669775
 30
0.000000000000000
 10
510.6447853143350
 20
190.3834436385544
 30
0.000000000000000
 10
511.4916653246278
 20
189.5815665081914
 30
0.000000000000000
 10
511.8000677628766
 20
189.2895524575890
 30
0.000000000000000
  0
SPLINE
  5
31F
100
AcDbEntity
  8
A4
  6
CONTINUOUS
 62
4
100
AcDbSpline
210
0.000000000000000
220
0.000000000000000
230
1.000000000000000
 70
     8
 71
     3
 72
    10
 73
     6
 74
     0
 42
1.000000000000000e-07
 43
1.000000000000000e-07
 12
0.9563232603306915
 22
-0.8074401890575018
 32
0.000000000000000
 13
0.8657993174713283
 23
-0.8197910727918725
 33
0.000000000000000
 40
0.000000000000000
 40
0.000000000000000
 40
0.000000000000000
 40
0.000000000000000
 40
1.475929605114334
 40
3.341757728947386
 40
4.410374088508275
 40
4.410374088508275
 40
4.410374088508275
 40
4.410374088508275
 10
508.6793967089754
 20
192.8895524575889
 30
0.000000000000000
 10
509.1498853129692
 20
192.4923108311259
 30
0.000000000000000
 10
510.2151521951632
 20
191.5928876669775
 30
0.000000000000000
 10
507.9317254590878
 20
190.3834436385544
 30
0.000000000000000
 10
508.7786054693806
 20
189.5815665081914
 30
0.000000000000000
 10
509.0870079076294
 20
189.2895524575890
 30
0.000000000000000
  0
LINE
  5
320
100
AcDbEntity
  8
A3
  6
CONTINUOUS
 62
7
100
AcDbLine
 10
524.8045535504807
 20
191.0895524575889
 30
0.000000000000000
 11
511.8485570415696
 21
191.0895524575889
 31
0.000000000000000
  0
LINE
  5
321
100
AcDbEntity
  8
A3
  6
CONTINUOUS
 62
7
100
AcDbLine
 10
509.1354971863225
 20
191.0895524575889
 30
0.000000000000000
 11
458.5045535504808
 21
191.0895524575889
 31
0.000000000000000
  0
LINE
  5
322
100
AcDbEntity
  8
A3
  6
CONTINUOUS
 62
7
100
AcDbLine
 10
511.3924565642251
 20
192.8895524575889
 30
0.000000000000000
 11
524.8045535504807
 21
192.8895524575889
 31
0.000000000000000
  0
LINE
  5
323
100
AcDbEntity
  8
A3
  6
CONTINUOUS
 62
7
100
AcDbLine
 10
460.3045535504807
 20
192.8895524575889
 30
0.000000000000000
 11
508.6793967089779
 21
192.8895524575889
 31
0.000000000000000
  0
LINE
  5
324
100
AcDbEntity
  8
A3
  6
CONTINUOUS
 62
7
100
AcDbLine
 10
524.8045535504807
 20
189.2895524575890
 30
0.000000000000000
 11
511.8000677628766
 21
189.2895524575890
 31
0.000000000000000
  0
LINE
  5
325
100
AcDbEntity
  8
A3
  6
CONTINUOUS
 62
7
100
AcDbLine
 10
509.0870079076294
 20
189.2895524575890
 30
0.000000000000000
 11
456.7045535504808
 21
189.2895524575890
 31
0.000000000000000
  0
LINE
  5
326
100
AcDbEntity
  8
A3
  6
CONTINUOUS
 62
7
100
AcDbLine
 10
108.6068118493332
 20
360.1562412938077
 30
0.000000000000000
 11
108.6068118493332
 21
339.1562412938077
 31
0.000000000000000
  0
LINE
  5
327
100
AcDbEntity
  8
A3
  6
CONTINUOUS
 62
7
100
AcDbLine
 10
85.60681184933321
 20
360.1562412938077
 30
0.000000000000000
 11
108.6068118493332
 21
360.1562412938077
 31
0.000000000000000
  0
LINE
  5
328
100
AcDbEntity
  8
A3
  6
CONTINUOUS
 62
7
100
AcDbLine
 10
108.6068118493332
 20
339.1562412938077
 30
0.000000000000000
 11
85.60681184933321
 21
339.1562412938077
 31
0.000000000000000
  0
LINE
  5
329
100
AcDbEntity
  8
A3
  6
CONTINUOUS
 62
7
100
AcDbLine
 10
85.60681184933321
 20
339.1562412938077
 30
0.000000000000000
 11
85.60681184933321
 21
360.1562412938077
 31
0.000000000000000
  0
SPLINE
  5
32A
100
AcDbEntity
  8
A4
  6
CONTINUOUS
 62
4
100
AcDbSpline
210
0.000000000000000
220
0.000000000000000
230
1.000000000000000
 70
     8
 71
     3
 72
    11
 73
     7
 74
     0
 42
1.000000000000000e-07
 43
1.000000000000000e-07
 12
-0.3844704332795459
 22
-0.9730276920167853
 32
0.000000000000000
 13
0.5513058691271340
 23
-0.9143626387801760
 33
0.000000000000000
 40
0.000000000000000
 40
0.000000000000000
 40
0.000000000000000
 40
0.000000000000000
 40
0.8347786084775581
 40
2.524324358960158
 40
4.432735504391572
 40
5.650001009961804
 40
5.650001009961804
 40
5.650001009961804
 40
5.650001009961804
 10
120.7508394933975
 20
352.3723405507425
 30
0.000000000000000
 10
120.6438569289662
 20
352.1015863164918
 30
0.000000000000000
 10
120.3203475689570
 20
351.2828404815245
 30
0.000000000000000
 10
121.5546830866997
 20
349.9092307863835
 30
0.000000000000000
 10
120.2866583062009
 20
348.2960152341926
 30
0.000000000000000
 10
120.8610596004312
 20
347.3433479173322
 30
0.000000000000000
 10
121.0847548062668
 20
346.9723405507424
 30
0.000000000000000
  0
SPLINE
  5
32B
100
AcDbEntity
  8
A4
  6
CONTINUOUS
 62
4
100
AcDbSpline
210
0.000000000000000
220
0.000000000000000
230
1.000000000000000
 70
     8
 71
     3
 72
    11
 73
     7
 74
     0
 42
1.000000000000000e-07
 43
1.000000000000000e-07
 12
-0.3844704332799438
 22
-0.9730276920167853
 32
0.000000000000000
 13
0.5513058691267929
 23
-0.9143626387801760
 33
0.000000000000000
 40
0.000000000000000
 40
0.000000000000000
 40
0.000000000000000
 40
0.000000000000000
 40
0.8347786084775581
 40
2.524324358960158
 40
4.432735504391572
 40
5.650001009961804
 40
5.650001009961804
 40
5.650001009961804
 40
5.650001009961804
 10
122.1530251640131
 20
352.3723405507425
 30
0.000000000000000
 10
122.0460425995817
 20
352.1015863164918
 30
0.000000000000000
 10
121.7225332395726
 20
351.2828404815245
 30
0.000000000000000
 10
122.9568687573153
 20
349.9092307863835
 30
0.000000000000000
 10
121.6888439768164
 20
348.2960152341926
 30
0.000000000000000
 10
122.2632452710467
 20
347.3433479173322
 30
0.000000000000000
 10
122.4869404768822
 20
346.9723405507424
 30
0.000000000000000
  0
LINE
  5
32C
100
AcDbEntity
  8
A3
  6
CONTINUOUS
 62
7
100
AcDbLine
 10
108.6068118493332
 20
346.9723405507424
 30
0.000000000000000
 11
121.0847548057212
 21
346.9723405507424
 31
0.000000000000000
  0
LINE
  5
32D
100
AcDbEntity
  8
A3
  6
CONTINUOUS
 62
7
100
AcDbLine
 10
122.4869404763367
 20
346.9723405507424
 30
0.000000000000000
 11
164.3068118493533
 21
346.9723405507424
 31
0.000000000000000
  0
LINE
  5
32E
100
AcDbEntity
  8
A3
  6
CONTINUOUS
 62
7
100
AcDbLine
 10
108.6068118493332
 20
348.7723405507426
 30
0.000000000000000
 11
120.7443186800517
 21
348.7723405507426
 31
0.000000000000000
  0
LINE
  5
32F
100
AcDbEntity
  8
A3
  6
CONTINUOUS
 62
7
100
AcDbLine
 10
122.1465043506671
 20
348.7723405507426
 30
0.000000000000000
 11
164.3068118493418
 21
348.7723405507426
 31
0.000000000000000
  0
LINE
  5
330
100
AcDbEntity
  8
A3
  6
CONTINUOUS
 62
7
100
AcDbLine
 10
122.2813461728016
 20
350.5723405507425
 30
0.000000000000000
 11
140.8068118493835
 21
350.5723405507425
 31
0.000000000000000
  0
LINE
  5
331
100
AcDbEntity
  8
A3
  6
CONTINUOUS
 62
7
100
AcDbLine
 10
120.7508394933916
 20
352.3723405507425
 30
0.000000000000000
 11
108.6068118493332
 21
352.3723405507425
 31
0.000000000000000
  0
LINE
  5
332
100
AcDbEntity
  8
A3
  6
CONTINUOUS
 62
7
100
AcDbLine
 10
162.8068118494718
 20
352.3723405507425
 30
0.000000000000000
 11
122.1530251640071
 21
352.3723405507425
 31
0.000000000000000
  0
ARC
  5
333
100
AcDbEntity
  8
A3
  6
CONTINUOUS
 62
7
100
AcDbCircle
 10
29.65048946921775
 20
219.7895524575743
 30
0.000000000000000
 40
0.5000000000000000
100
AcDbArc
 50
270.0000000000000
 51
360.0000000000000
  0
ARC
  5
334
100
AcDbEntity
  8
A3
  6
CONTINUOUS
 62
7
100
AcDbCircle
 10
17.63048946921776
 20
219.7895524575743
 30
0.000000000000000
 40
0.5000000000000000
100
AcDbArc
 50
180.0000000000000
 51
270.0000000000000
  0
LINE
  5
335
100
AcDbEntity
  8
A6
  6
CENTER
 62
1
100
AcDbLine
 10
33.14048946941193
 20
243.7895692824505
 30
0.000000000000000
 11
12.34048946916243
 21
243.7895692824505
 31
0.000000000000000
  0
LINE
  5
336
100
AcDbEntity
  8
A6
  6
CENTER
 62
1
100
AcDbLine
 10
22.74048946928724
 20
186.3964738128471
 30
0.000000000000000
 11
22.74048946928724
 21
301.5237566168419
 31
0.000000000000000
  0
LINE
  5
337
100
AcDbEntity
  8
A6
  6
CENTER
 62
1
100
AcDbLine
 10
33.14048946941193
 20
263.2895692824237
 30
0.000000000000000
 11
12.34048946916243
 21
263.2895692824237
 31
0.000000000000000
  0
LINE
  5
338
100
AcDbEntity
  8
A6
  6
CENTER
 62
1
100
AcDbLine
 10
33.14048946941193
 20
286.2895692824508
 30
0.000000000000000
 11
12.34048946916243
 21
286.2895692824508
 31
0.000000000000000
  0
LINE
  5
339
100
AcDbEntity
  8
A5
  6
DASHED
 62
2
100
AcDbLine
 10
272.8068118493563
 20
293.5395524575612
 30
0.000000000000000
 11
269.8068118494633
 21
293.5395524575612
 31
0.000000000000000
  0
LINE
  5
33A
100
AcDbEntity
  8
A5
  6
DASHED
 62
2
100
AcDbLine
 10
272.8068118493562
 20
286.0395524575615
 30
0.000000000000000
 11
269.8068118494630
 21
286.0395524575616
 31
0.000000000000000
  0
LINE
  5
33B
100
AcDbEntity
  8
A5
  6
DASHED
 62
2
100
AcDbLine
 10
272.8068118493561
 20
278.5395524575611
 30
0.000000000000000
 11
269.8068118494630
 21
278.5395524575612
 31
0.000000000000000
  0
LINE
  5
33C
100
AcDbEntity
  8
A5
  6
DASHED
 62
2
100
AcDbLine
 10
272.8068118493558
 20
271.0395524575611
 30
0.000000000000000
 11
269.8068118494629
 21
271.0395524575612
 31
0.000000000000000
  0
LINE
  5
33D
100
AcDbEntity
  8
A6
  6
CENTER
 62
1
100
AcDbLine
 10
84.10681184933310
 20
350.5723405506731
 30
0.000000000000000
 11
274.3068118493541
 21
350.5723405506731
 31
0.000000000000000
  0
LINE
  5
33E
100
AcDbEntity
  8
A6
  6
CENTER
 62
1
100
AcDbLine
 10
224.8068118490505
 20
340.1723405505483
 30
0.000000000000000
 11
224.8068118490505
 21
360.9723405507980
 31
0.000000000000000
  0
LINE
  5
33F
100
AcDbEntity
  8
A6
  6
CENTER
 62
1
100
AcDbLine
 10
252.8068118490504
 20
340.1723405505483
 30
0.000000000000000
 11
252.8068118490504
 21
360.9723405507980
 31
0.000000000000000
  0
LINE
  5
340
100
AcDbEntity
  8
A5
  6
DASHED
 62
2
100
AcDbLine
 10
269.8068118493541
 20
352.8223405506731
 30
0.000000000000000
 11
272.8068118493541
 21
352.8223405506731
 31
0.000000000000000
  0
LINE
  5
341
100
AcDbEntity
  8
A5
  6
DASHED
 62
2
100
AcDbLine
 10
269.8068118493541
 20
348.3223405506731
 30
0.000000000000000
 11
272.8068118493541
 21
348.3223405506731
 31
0.000000000000000
  0
LINE
  5
342
100
AcDbEntity
  8
A6
  6
CENTER
 62
1
100
AcDbLine
 10
311.4506826999159
 20
289.7895524575538
 30
0.000000000000000
 11
321.9506826999159
 21
289.7895524575538
 31
0.000000000000000
  0
LINE
  5
343
100
AcDbEntity
  8
A6
  6
CENTER
 62
1
100
AcDbLine
 10
306.8006826997107
 20
286.2895524574994
 30
0.000000000000000
 11
327.6006826999603
 21
286.2895524574994
 31
0.000000000000000
  0
LINE
  5
344
100
AcDbEntity
  8
A6
  6
CENTER
 62
1
100
AcDbLine
 10
316.7006826999159
 20
269.5395524575537
 30
0.000000000000000
 11
316.7006826999159
 21
295.0395524575538
 31
0.000000000000000
  0
LINE
  5
345
100
AcDbEntity
  8
A6
  6
CENTER
 62
1
100
AcDbLine
 10
311.4506826999159
 20
274.7895524575537
 30
0.000000000000000
 11
321.9506826999159
 21
274.7895524575537
 31
0.000000000000000
  0
LINE
  5
346
100
AcDbEntity
  8
A6
  6
CENTER
 62
1
100
AcDbLine
 10
306.8006826997107
 20
243.7895524574995
 30
0.000000000000000
 11
327.6006826999605
 21
243.7895524574995
 31
0.000000000000000
  0
LINE
  5
347
100
AcDbEntity
  8
A6
  6
CENTER
 62
1
100
AcDbLine
 10
438.0945535504989
 20
294.7895524575690
 30
0.000000000000000
 11
438.0945535504989
 21
287.7895524575690
 31
0.000000000000000
  0
LINE
  5
348
100
AcDbEntity
  8
A6
  6
CENTER
 62
1
100
AcDbLine
 10
441.5945535504989
 20
291.2895524575690
 30
0.000000000000000
 11
434.5945535504989
 21
291.2895524575690
 31
0.000000000000000
  0
LINE
  5
349
100
AcDbEntity
  8
A6
  6
CENTER
 62
1
100
AcDbLine
 10
384.0945535504898
 20
286.2895524576125
 30
0.000000000000000
 11
377.0945535504898
 21
286.2895524576125
 31
0.000000000000000
  0
LINE
  5
34A
100
AcDbEntity
  8
A6
  6
CENTER
 62
1
100
AcDbLine
 10
380.5945535504898
 20
240.2895524575804
 30
0.000000000000000
 11
380.5945535504898
 21
289.7895524576125
 31
0.000000000000000
  0
LINE
  5
34B
100
AcDbEntity
  8
A6
  6
CENTER
 62
1
100
AcDbLine
 10
359.0945535504786
 20
289.7895524575627
 30
0.000000000000000
 11
365.0945535504786
 21
289.7895524575627
 31
0.000000000000000
  0
LINE
  5
34C
100
AcDbEntity
  8
A5
  6
DASHED
 62
2
100
AcDbLine
 10
363.5945535504787
 20
293.5395524575589
 30
0.000000000000000
 11
360.5945535505856
 21
293.5395524575590
 31
0.000000000000000
  0
LINE
  5
34D
100
AcDbEntity
  8
A5
  6
DASHED
 62
2
100
AcDbLine
 10
363.5945535504783
 20
286.0395524575591
 30
0.000000000000000
 11
360.5945535505857
 21
286.0395524575592
 31
0.000000000000000
  0
LINE
  5
34E
100
AcDbEntity
  8
A5
  6
DASHED
 62
2
100
AcDbLine
 10
363.5945535504786
 20
278.5395524575587
 30
0.000000000000000
 11
360.5945535505854
 21
278.5395524575588
 31
0.000000000000000
  0
LINE
  5
34F
100
AcDbEntity
  8
A5
  6
DASHED
 62
2
100
AcDbLine
 10
363.5945535504784
 20
271.0395524575588
 30
0.000000000000000
 11
360.5945535505853
 21
271.0395524575588
 31
0.000000000000000
  0
LINE
  5
350
100
AcDbEntity
  8
A6
  6
CENTER
 62
1
100
AcDbLine
 10
359.0945535504786
 20
274.7895524575626
 30
0.000000000000000
 11
365.0945535504786
 21
274.7895524575626
 31
0.000000000000000
  0
LINE
  5
351
100
AcDbEntity
  8
A6
  6
CENTER
 62
1
100
AcDbLine
 10
359.0945535504786
 20
258.7895524576051
 30
0.000000000000000
 11
470.5945535504995
 21
258.7895524576051
 31
0.000000000000000
  0
LINE
  5
352
100
AcDbEntity
  8
A6
  6
CENTER
 62
1
100
AcDbLine
 10
393.0945535504993
 20
256.2895524575767
 30
0.000000000000000
 11
393.0945535504993
 21
249.2895524575767
 31
0.000000000000000
  0
LINE
  5
353
100
AcDbEntity
  8
A6
  6
CENTER
 62
1
100
AcDbLine
 10
396.5945535504993
 20
252.7895524575767
 30
0.000000000000000
 11
389.5945535504993
 21
252.7895524575767
 31
0.000000000000000
  0
LINE
  5
354
100
AcDbEntity
  8
A6
  6
CENTER
 62
1
100
AcDbLine
 10
408.5945535504898
 20
266.7895524575804
 30
0.000000000000000
 11
408.5945535504898
 21
259.7895524575804
 31
0.000000000000000
  0
LINE
  5
355
100
AcDbEntity
  8
A6
  6
CENTER
 62
1
100
AcDbLine
 10
412.0945535504898
 20
263.2895524575804
 30
0.000000000000000
 11
405.0945535504898
 21
263.2895524575804
 31
0.000000000000000
  0
LINE
  5
356
100
AcDbEntity
  8
A6
  6
CENTER
 62
1
100
AcDbLine
 10
421.5945535504898
 20
276.2895524575858
 30
0.000000000000000
 11
421.5945535504898
 21
269.2895524575858
 31
0.000000000000000
  0
LINE
  5
357
100
AcDbEntity
  8
A6
  6
CENTER
 62
1
100
AcDbLine
 10
425.0945535504898
 20
272.7895524575858
 30
0.000000000000000
 11
418.0945535504898
 21
272.7895524575858
 31
0.000000000000000
  0
LINE
  5
358
100
AcDbEntity
  8
A6
  6
CENTER
 62
1
100
AcDbLine
 10
441.5945535504995
 20
256.0395524575767
 30
0.000000000000000
 11
441.5945535504995
 21
248.0395524575767
 31
0.000000000000000
  0
LINE
  5
359
100
AcDbEntity
  8
A6
  6
CENTER
 62
1
100
AcDbLine
 10
445.5945535504995
 20
252.0395524575767
 30
0.000000000000000
 11
437.5945535504995
 21
252.0395524575767
 31
0.000000000000000
  0
LINE
  5
35A
100
AcDbEntity
  8
A6
  6
CENTER
 62
1
100
AcDbLine
 10
437.5945535504995
 20
240.0395524575767
 30
0.000000000000000
 11
429.5945535504995
 21
240.0395524575767
 31
0.000000000000000
  0
LINE
  5
35B
100
AcDbEntity
  8
A6
  6
CENTER
 62
1
100
AcDbLine
 10
433.5945535504995
 20
244.0395524575767
 30
0.000000000000000
 11
433.5945535504995
 21
236.0395524575767
 31
0.000000000000000
  0
LINE
  5
35C
100
AcDbEntity
  8
A6
  6
CENTER
 62
1
100
AcDbLine
 10
384.0945535504898
 20
243.7895524575804
 30
0.000000000000000
 11
377.0945535504898
 21
243.7895524575804
 31
0.000000000000000
  0
LINE
  5
35D
100
AcDbEntity
  8
A6
  6
CENTER
 62
1
100
AcDbLine
 10
464.5945535504943
 20
232.2895524575727
 30
0.000000000000000
 11
464.5945535504943
 21
226.2895524575727
 31
0.000000000000000
  0
LINE
  5
35E
100
AcDbEntity
  8
A6
  6
CENTER
 62
1
100
AcDbLine
 10
467.5945535504943
 20
229.2895524575727
 30
0.000000000000000
 11
461.5945535504943
 21
229.2895524575727
 31
0.000000000000000
  0
LINE
  5
35F
100
AcDbEntity
  8
A6
  6
CENTER
 62
1
100
AcDbLine
 10
84.10681184933549
 20
135.9204127358720
 30
0.000000000000000
 11
274.3068118493564
 21
135.9204127358720
 31
0.000000000000000
  0
LINE
  5
360
100
AcDbEntity
  8
A6
  6
CENTER
 62
1
100
AcDbLine
 10
252.8068118490528
 20
146.3204127359968
 30
0.000000000000000
 11
252.8068118490528
 21
125.5204127357472
 31
0.000000000000000
  0
LINE
  5
361
100
AcDbEntity
  8
A6
  6
CENTER
 62
1
100
AcDbLine
 10
224.8068118490529
 20
146.3204127359968
 30
0.000000000000000
 11
224.8068118490529
 21
125.5204127357472
 31
0.000000000000000
  0
LINE
  5
362
100
AcDbEntity
  8
A6
  6
CENTER
 62
1
100
AcDbLine
 10
490.4595460956996
 20
296.7968273863730
 30
0.000000000000000
 11
483.2595460956998
 21
296.7968273863730
 31
0.000000000000000
  0
LINE
  5
363
100
AcDbEntity
  8
A6
  6
CENTER
 62
1
100
AcDbLine
 10
486.8595460956997
 20
300.3968273863730
 30
0.000000000000000
 11
486.8595460956997
 21
293.1968273863730
 31
0.000000000000000
  0
ARC
  5
364
100
AcDbEntity
  8
A3
  6
CONTINUOUS
 62
7
100
AcDbCircle
 10
387.4919074923534
 20
284.9800651000797
 30
0.000000000000000
 40
2.340816973839464
100
AcDbArc
 50
269.7453884096064
 51
353.6155324426474
  0
ARC
  5
365
100
AcDbEntity
  8
A3
  6
CONTINUOUS
 62
7
100
AcDbCircle
 10
387.4919074923534
 20
284.9800651000797
 30
0.000000000000000
 40
2.840816973839463
100
AcDbArc
 50
269.7902017242635
 51
335.6756223127232
  0
ARC
  5
366
100
AcDbEntity
  8
A3
  6
CONTINUOUS
 62
7
100
AcDbCircle
 10
392.4807927884228
 20
284.9292876415956
 30
0.000000000000000
 40
2.648430411930737
100
AcDbArc
 50
205.0020517430126
 51
274.3983689050905
  0
ARC
  5
367
100
AcDbEntity
  8
A3
  6
CONTINUOUS
 62
7
100
AcDbCircle
 10
392.4807927884228
 20
284.9292876415956
 30
0.000000000000000
 40
2.148430411930738
100
AcDbArc
 50
185.5965220404349
 51
275.4247701961633
  0
LINE
  5
368
100
AcDbEntity
  8
A3
  6
CONTINUOUS
 62
7
100
AcDbLine
 10
389.8327040008737
 20
285.2197673637337
 30
0.000000000000000
 11
389.8327040008737
 21
285.7374696162465
 31
0.000000000000000
  0
LINE
  5
369
100
AcDbEntity
  8
A3
  6
CONTINUOUS
 62
7
100
AcDbLine
 10
388.1199925138847
 20
285.7374696162465
 30
0.000000000000000
 11
388.1199925138847
 21
286.2374696162465
 31
0.000000000000000
  0
LINE
  5
36A
100
AcDbEntity
  8
A3
  6
CONTINUOUS
 62
7
100
AcDbLine
 10
389.8327040008737
 20
285.7374696162465
 30
0.000000000000000
 11
388.1199925138847
 21
285.7374696162465
 31
0.000000000000000
  0
LINE
  5
36B
100
AcDbEntity
  8
A3
  6
CONTINUOUS
 62
7
100
AcDbLine
 10
389.0130781640489
 20
285.2197673637337
 30
0.000000000000000
 11
389.8327040008737
 21
285.2197673637337
 31
0.000000000000000
  0
LINE
  5
36C
100
AcDbEntity
  8
A3
  6
CONTINUOUS
 62
7
100
AcDbLine
 10
389.0130781640489
 20
284.7197673637337
 30
0.000000000000000
 11
389.0130781640489
 21
285.2197673637337
 31
0.000000000000000
  0
LINE
  5
36D
100
AcDbEntity
  8
A3
  6
CONTINUOUS
 62
7
100
AcDbLine
 10
389.8182069557647
 20
284.7197673637337
 30
0.000000000000000
 11
389.0130781640489
 21
284.7197673637337
 31
0.000000000000000
  0
LINE
  5
36E
100
AcDbEntity
  8
A3
  6
CONTINUOUS
 62
7
100
AcDbLine
 10
387.4815053793875
 20
282.1392671708177
 30
0.000000000000000
 11
387.4815053793875
 21
282.6392712387882
 31
0.000000000000000
  0
LINE
  5
36F
100
AcDbEntity
  8
A3
  6
CONTINUOUS
 62
7
100
AcDbLine
 10
392.6839026223595
 20
282.7904796487484
 30
0.000000000000000
 11
392.6839026223595
 21
282.2886570271025
 31
0.000000000000000
  0
LINE
  5
370
100
AcDbEntity
  8
A3
  6
CONTINUOUS
 62
7
100
AcDbLine
 10
391.1938687051477
 20
284.7197673637337
 30
0.000000000000000
 11
390.3426032533082
 21
284.7197673637337
 31
0.000000000000000
  0
LINE
  5
371
100
AcDbEntity
  8
A3
  6
CONTINUOUS
 62
7
100
AcDbLine
 10
391.1938687051477
 20
285.2197673637337
 30
0.000000000000000
 11
391.1938687051477
 21
284.7197673637337
 31
0.000000000000000
  0
LINE
  5
372
100
AcDbEntity
  8
A3
  6
CONTINUOUS
 62
7
100
AcDbLine
 10
390.3327040008737
 20
285.2197673637337
 30
0.000000000000000
 11
391.1938687051477
 21
285.2197673637337
 31
0.000000000000000
  0
LINE
  5
373
100
AcDbEntity
  8
A3
  6
CONTINUOUS
 62
7
100
AcDbLine
 10
390.3327040008737
 20
285.7374696162465
 30
0.000000000000000
 11
390.3327040008737
 21
285.2197673637337
 31
0.000000000000000
  0
LINE
  5
374
100
AcDbEntity
  8
A3
  6
CONTINUOUS
 62
7
100
AcDbLine
 10
392.0454154878623
 20
285.7374696162465
 30
0.000000000000000
 11
390.3327040008737
 21
285.7374696162465
 31
0.000000000000000
  0
LINE
  5
375
100
AcDbEntity
  8
A3
  6
CONTINUOUS
 62
7
100
AcDbLine
 10
392.0454154878623
 20
286.2374696162465
 30
0.000000000000000
 11
392.0454154878623
 21
285.7374696162465
 31
0.000000000000000
  0
LINE
  5
376
100
AcDbEntity
  8
A3
  6
CONTINUOUS
 62
7
100
AcDbLine
 10
388.1199925138847
 20
286.2374696162465
 30
0.000000000000000
 11
392.0454154878623
 21
286.2374696162465
 31
0.000000000000000
  0
LINE
  5
377
100
AcDbEntity
  8
A3
  6
CONTINUOUS
 62
7
100
AcDbLine
 10
108.6068118493332
 20
350.5723405507426
 30
0.000000000000000
 11
120.8791605021859
 21
350.5723405507427
 31
0.000000000000000
  0
LINE
  5
378
100
AcDbEntity
  8
A3
  6
CONTINUOUS
 62
7
100
AcDbLine
 10
122.2813461728015
 20
350.5723405507427
 30
0.000000000000000
 11
140.8068118493835
 21
350.5723405507428
 31
0.000000000000000
  0
LINE
  5
379
100
AcDbEntity
  8
A6
  6
CENTER
 62
1
100
AcDbLine
 10
317.2006826997606
 20
301.5237397918906
 30
0.000000000000000
 11
317.2006826997606
 21
186.3964569878960
 31
0.000000000000000
  0
LINE
  5
37A
100
AcDbEntity
  8
A6
  6
CENTER
 62
1
100
AcDbLine
 10
306.8006826997105
 20
263.2895524574727
 30
0.000000000000000
 11
327.6006826999603
 21
263.2895524574727
 31
0.000000000000000
  0
LINE
  5
37B
100
AcDbEntity
  8
A6
  6
CENTER
 62
1
100
AcDbLine
 10
162.8068118493562
 20
258.7895524576734
 30
0.000000000000000
 11
274.3068118496600
 21
258.7895524576734
 31
0.000000000000000
  0
ENDSEC
  0
SECTION
  2
OBJECTS
  0
DICTIONARY
  5
3B0
100
AcDbDictionary
  3
ACAD_GROUP
350
3B1
  3
ACAD_LAYOUT
350
3B2
  3
ACAD_MLINESTYLE
350
3B3
  0
DICTIONARY
  5
3B1
102
{ACAD_REACTORS
330
3B0
102
}
330
3B0
100
AcDbDictionary
  0
DICTIONARY
  5
3B2
102
{ACAD_REACTORS
330
3B0
102
}
330
3B0
100
AcDbDictionary
  3
Model
350
3B4
  3
ﾚｲｱｳﾄ1
350
3B5
  3
ﾚｲｱｳﾄ2
350
3B6
  0
DICTIONARY
  5
3B3
102
{ACAD_REACTORS
330
3B0
102
}
330
3B0
100
AcDbDictionary
  3
STANDARD
350
3B7
  0
LAYOUT
  5
3B4
102
{ACAD_REACTORS
330
3B2
102
}
330
3B2
100
AcDbPlotSettings
 70
11952
  4
A3
 44
297.000000
 45
420.000000
 73
  1
 72
  1
100
AcDbLayout
  1
Model
 71
0
330
3A7
  0
LAYOUT
  5
3B5
102
{ACAD_REACTORS
330
3B2
102
}
330
3B2
100
AcDbPlotSettings
100
AcDbLayout
  1
ﾚｲｱｳﾄ1
 71
1
330
3A8
  0
LAYOUT
  5
3B6
102
{ACAD_REACTORS
330
3B2
102
}
330
3B2
100
AcDbPlotSettings
100
AcDbLayout
  1
ﾚｲｱｳﾄ2
 71
2
330
3A9
  0
MLINESTYLE
  5
3B7
102
{ACAD_REACTORS
330
3B3
102
}
330
3B3
100
AcDbMlineStyle
  2
STANDARD
 70
     0
  3

 62
   256
 51
90.00
 52
90.00
 71
     2
 49
0.50
 62
   256
  6
BYLAYER
 49
-0.50
 62
   256
  6
BYLAYER
  0
ENDSEC
  0
EOF
