  0
SECTION
  2
HEADER
  9
$ACADVER
  1
AC1015
  9
$ACADMAINTVER
 70
    20
  9
$DWGCODEPAGE
  3
ANSI_932
  9
$INSBASE
 10
0.0
 20
0.0
 30
0.0
  9
$EXTMIN
 10
10.0
 20
9.999999999999998
 30
0.0
  9
$EXTMAX
 10
536.7791109999997
 20
418.027439
 30
0.0
  9
$LIMMIN
 10
0.0
 20
0.0
  9
$LIMMAX
 10
633.6
 20
436.8
  9
$ORTHOMODE
 70
     0
  9
$REGENMODE
 70
     1
  9
$FILLMODE
 70
     1
  9
$QTEXTMODE
 70
     0
  9
$MIRRTEXT
 70
     1
  9
$LTSCALE
 40
20.0
  9
$ATTMODE
 70
     1
  9
$TEXTSIZE
 40
5.0
  9
$TRACEWID
 40
1.0
  9
$TEXTSTYLE
  7
STANDARD
  9
$CLAYER
  8
0
  9
$CELTYPE
  6
BYLAYER
  9
$CECOLOR
 62
   256
  9
$CELTSCALE
 40
1.0
  9
$DISPSILH
 70
     0
  9
$DIMSCALE
 40
1.0
  9
$DIMASZ
 40
2.5
  9
$DIMEXO
 40
1.0
  9
$DIMDLI
 40
10.0
  9
$DIMRND
 40
0.0
  9
$DIMDLE
 40
0.0
  9
$DIMEXE
 40
1.0
  9
$DIMTP
 40
0.0
  9
$DIMTM
 40
0.0
  9
$DIMTXT
 40
3.2
  9
$DIMCEN
 40
0.0
  9
$DIMTSZ
 40
0.0
  9
$DIMTOL
 70
     0
  9
$DIMLIM
 70
     0
  9
$DIMTIH
 70
     0
  9
$DIMTOH
 70
     0
  9
$DIMSE1
 70
     0
  9
$DIMSE2
 70
     0
  9
$DIMTAD
 70
     3
  9
$DIMZIN
 70
     8
  9
$DIMBLK
  1

  9
$DIMASO
 70
     1
  9
$DIMSHO
 70
     1
  9
$DIMPOST
  1

  9
$DIMAPOST
  1

  9
$DIMALT
 70
     0
  9
$DIMALTD
 70
     2
  9
$DIMALTF
 40
25.4
  9
$DIMLFAC
 40
1.0
  9
$DIMTOFL
 70
     1
  9
$DIMTVP
 40
0.0
  9
$DIMTIX
 70
     0
  9
$DIMSOXD
 70
     0
  9
$DIMSAH
 70
     1
  9
$DIMBLK1
  1
OPEN
  9
$DIMBLK2
  1
OPEN
  9
$DIMSTYLE
  2
STANDARD
  9
$DIMCLRD
 70
     0
  9
$DIMCLRE
 70
     0
  9
$DIMCLRT
 70
     0
  9
$DIMTFAC
 40
1.0
  9
$DIMGAP
 40
1.0
  9
$DIMJUST
 70
     0
  9
$DIMSD1
 70
     0
  9
$DIMSD2
 70
     0
  9
$DIMTOLJ
 70
     1
  9
$DIMTZIN
 70
     0
  9
$DIMALTZ
 70
     0
  9
$DIMALTTZ
 70
     0
  9
$DIMUPT
 70
     0
  9
$DIMDEC
 70
     4
  9
$DIMTDEC
 70
     4
  9
$DIMALTU
 70
     2
  9
$DIMALTTD
 70
     2
  9
$DIMTXSTY
  7
STANDARD
  9
$DIMAUNIT
 70
     0
  9
$DIMADEC
 70
     0
  9
$DIMALTRND
 40
0.0
  9
$DIMAZIN
 70
     0
  9
$DIMDSEP
 70
    46
  9
$DIMATFIT
 70
     3
  9
$DIMFRAC
 70
     0
  9
$DIMLDRBLK
  1
OPEN
  9
$DIMLUNIT
 70
     2
  9
$DIMLWD
 70
    -2
  9
$DIMLWE
 70
    -2
  9
$DIMTMOVE
 70
     0
  9
$LUNITS
 70
     2
  9
$LUPREC
 70
     4
  9
$SKETCHINC
 40
1.0
  9
$FILLETRAD
 40
1.0
  9
$AUNITS
 70
     0
  9
$AUPREC
 70
     2
  9
$MENU
  1
.
  9
$ELEVATION
 40
0.0
  9
$PELEVATION
 40
0.0
  9
$THICKNESS
 40
0.0
  9
$LIMCHECK
 70
     0
  9
$CHAMFERA
 40
10.0
  9
$CHAMFERB
 40
10.0
  9
$CHAMFERC
 40
0.0
  9
$CHAMFERD
 40
0.0
  9
$SKPOLY
 70
     0
  9
$TDCREATE
 40
2451345.361852199
  9
$TDUCREATE
 40
2451344.986852199
  9
$TDUPDATE
 40
2457618.723078079
  9
$TDUUPDATE
 40
2457618.348078079
  9
$TDINDWG
 40
0.0022285532
  9
$TDUSRTIMER
 40
0.0022280324
  9
$USRTIMER
 70
     1
  9
$ANGBASE
 50
0.0
  9
$ANGDIR
 70
     0
  9
$PDMODE
 70
     0
  9
$PDSIZE
 40
0.0
  9
$PLINEWID
 40
0.0
  9
$SPLFRAME
 70
     0
  9
$SPLINETYPE
 70
     6
  9
$SPLINESEGS
 70
     8
  9
$HANDSEED
  5
A5B4
  9
$SURFTAB1
 70
     6
  9
$SURFTAB2
 70
     6
  9
$SURFTYPE
 70
     6
  9
$SURFU
 70
     6
  9
$SURFV
 70
     6
  9
$UCSBASE
  2

  9
$UCSNAME
  2

  9
$UCSORG
 10
0.0
 20
0.0
 30
0.0
  9
$UCSXDIR
 10
1.0
 20
0.0
 30
0.0
  9
$UCSYDIR
 10
0.0
 20
1.0
 30
0.0
  9
$UCSORTHOREF
  2

  9
$UCSORTHOVIEW
 70
     0
  9
$UCSORGTOP
 10
0.0
 20
0.0
 30
0.0
  9
$UCSORGBOTTOM
 10
0.0
 20
0.0
 30
0.0
  9
$UCSORGLEFT
 10
0.0
 20
0.0
 30
0.0
  9
$UCSORGRIGHT
 10
0.0
 20
0.0
 30
0.0
  9
$UCSORGFRONT
 10
0.0
 20
0.0
 30
0.0
  9
$UCSORGBACK
 10
0.0
 20
0.0
 30
0.0
  9
$PUCSBASE
  2

  9
$PUCSNAME
  2

  9
$PUCSORG
 10
0.0
 20
0.0
 30
0.0
  9
$PUCSXDIR
 10
1.0
 20
0.0
 30
0.0
  9
$PUCSYDIR
 10
0.0
 20
1.0
 30
0.0
  9
$PUCSORTHOREF
  2

  9
$PUCSORTHOVIEW
 70
     0
  9
$PUCSORGTOP
 10
0.0
 20
0.0
 30
0.0
  9
$PUCSORGBOTTOM
 10
0.0
 20
0.0
 30
0.0
  9
$PUCSORGLEFT
 10
0.0
 20
0.0
 30
0.0
  9
$PUCSORGRIGHT
 10
0.0
 20
0.0
 30
0.0
  9
$PUCSORGFRONT
 10
0.0
 20
0.0
 30
0.0
  9
$PUCSORGBACK
 10
0.0
 20
0.0
 30
0.0
  9
$USERI1
 70
     0
  9
$USERI2
 70
     0
  9
$USERI3
 70
     0
  9
$USERI4
 70
     0
  9
$USERI5
 70
     0
  9
$USERR1
 40
0.0
  9
$USERR2
 40
0.0
  9
$USERR3
 40
0.0
  9
$USERR4
 40
0.0
  9
$USERR5
 40
0.0
  9
$WORLDVIEW
 70
     1
  9
$SHADEDGE
 70
     3
  9
$SHADEDIF
 70
    70
  9
$TILEMODE
 70
     1
  9
$MAXACTVP
 70
    16
  9
$PINSBASE
 10
0.0
 20
0.0
 30
0.0
  9
$PLIMCHECK
 70
     0
  9
$PEXTMIN
 10
1.000000000000000E+20
 20
1.000000000000000E+20
 30
1.000000000000000E+20
  9
$PEXTMAX
 10
-1.000000000000000E+20
 20
-1.000000000000000E+20
 30
-1.000000000000000E+20
  9
$PLIMMIN
 10
0.0
 20
0.0
  9
$PLIMMAX
 10
420.0
 20
297.0
  9
$UNITMODE
 70
     0
  9
$VISRETAIN
 70
     0
  9
$PLINEGEN
 70
     0
  9
$PSLTSCALE
 70
     0
  9
$TREEDEPTH
 70
  3020
  9
$CMLSTYLE
  2
STANDARD
  9
$CMLJUST
 70
     0
  9
$CMLSCALE
 40
1.0
  9
$PROXYGRAPHICS
 70
     1
  9
$MEASUREMENT
 70
     0
  9
$CELWEIGHT
370
    -1
  9
$ENDCAPS
280
     0
  9
$JOINSTYLE
280
     0
  9
$LWDISPLAY
290
     0
  9
$INSUNITS
 70
     0
  9
$HYPERLINKBASE
  1

  9
$STYLESHEET
  1

  9
$XEDIT
290
     1
  9
$CEPSNTYPE
380
     0
  9
$PSTYLEMODE
290
     1
  9
$FINGERPRINTGUID
  2
{3063D65F-A051-4A45-B59D-DB227A185ADF}
  9
$VERSIONGUID
  2
{011D5E3F-CCCC-483F-86D3-10114452DBF4}
  9
$EXTNAMES
290
     1
  9
$PSVPSCALE
 40
0.0
  9
$OLESTARTUP
290
     0
  0
ENDSEC
  0
SECTION
  2
CLASSES
  0
CLASS
  1
ACDBDICTIONARYWDFLT
  2
AcDbDictionaryWithDefault
  3
ObjectDBX Classes
 90
        0
280
     0
281
     0
  0
CLASS
  1
ACDBPLACEHOLDER
  2
AcDbPlaceHolder
  3
ObjectDBX Classes
 90
        0
280
     0
281
     0
  0
CLASS
  1
LAYOUT
  2
AcDbLayout
  3
ObjectDBX Classes
 90
        0
280
     0
281
     0
  0
CLASS
  1
DICTIONARYVAR
  2
AcDbDictionaryVar
  3
ObjectDBX Classes
 90
        0
280
     0
281
     0
  0
CLASS
  1
MATERIAL
  2
AcDbMaterial
  3
ObjectDBX Classes
 90
     1153
280
     0
281
     0
  0
CLASS
  1
VISUALSTYLE
  2
AcDbVisualStyle
  3
ObjectDBX Classes
 90
     4095
280
     0
281
     0
  0
CLASS
  1
TABLESTYLE
  2
AcDbTableStyle
  3
ObjectDBX Classes
 90
     4095
280
     0
281
     0
  0
CLASS
  1
SCALE
  2
AcDbScale
  3
ObjectDBX Classes
 90
     1153
280
     0
281
     0
  0
CLASS
  1
MLEADERSTYLE
  2
AcDbMLeaderStyle
  3
ACDB_MLEADERSTYLE_CLASS
 90
     4095
280
     0
281
     0
  0
CLASS
  1
ACDBSECTIONVIEWSTYLE
  2
AcDbSectionViewStyle
  3
ObjectDBX Classes
 90
     1025
280
     0
281
     0
  0
CLASS
  1
ACDBDETAILVIEWSTYLE
  2
AcDbDetailViewStyle
  3
ObjectDBX Classes
 90
     1025
280
     0
281
     0
  0
CLASS
  1
CELLSTYLEMAP
  2
AcDbCellStyleMap
  3
ObjectDBX Classes
 90
     1152
280
     0
281
     0
  0
ENDSEC
  0
SECTION
  2
TABLES
  0
TABLE
  2
VPORT
  5
A1DA
330
0
100
AcDbSymbolTable
 70
     1
  0
VPORT
  5
A4FD
330
A1DA
100
AcDbSymbolTableRecord
100
AcDbViewportTableRecord
  2
*ACTIVE
 70
     0
 10
0.0
 20
0.0
 11
1.0
 21
1.0
 12
441.8704675403345
 22
214.0177378283089
 13
0.0
 23
0.0
 14
10.0
 24
10.0
 15
10.0
 25
10.0
 16
0.0
 26
0.0
 36
1.0
 17
0.0
 27
0.0
 37
0.0
 40
412.7660982350788
 41
2.567642956764295
 42
50.0
 43
0.0
 44
0.0
 50
0.0
 51
0.0
 71
     0
 72
   100
 73
     1
 74
     0
 75
     0
 76
     0
 77
     0
 78
     0
281
     0
 65
     1
110
0.0
120
0.0
130
0.0
111
1.0
121
0.0
131
0.0
112
0.0
122
1.0
132
0.0
 79
     0
146
0.0
1001
ACAD_NAV_VCDISPLAY
1070
     3
  0
ENDTAB
  0
TABLE
  2
LTYPE
  5
A1D7
330
0
100
AcDbSymbolTable
 70
     4
  0
LTYPE
  5
A1E5
330
A1D7
100
AcDbSymbolTableRecord
100
AcDbLinetypeTableRecord
  2
BYBLOCK
 70
     0
  3

 72
    65
 73
     0
 40
0.0
  0
LTYPE
  5
A1E6
330
A1D7
100
AcDbSymbolTableRecord
100
AcDbLinetypeTableRecord
  2
BYLAYER
 70
     0
  3

 72
    65
 73
     0
 40
0.0
  0
LTYPE
  5
A1E7
330
A1D7
100
AcDbSymbolTableRecord
100
AcDbLinetypeTableRecord
  2
CONTINUOUS
 70
     0
  3
Solid line
 72
    65
 73
     0
 40
0.0
  0
LTYPE
  5
A1F5
330
A1D7
100
AcDbSymbolTableRecord
100
AcDbLinetypeTableRecord
  2
DASHED
 70
     0
  3
__ __ __ __ __ __ __ __ __ __ __ __ __ __ __ __
 72
    65
 73
     2
 40
0.75
 49
0.5
 74
     0
 49
-0.25
 74
     0
  0
LTYPE
  5
A1F6
330
A1D7
100
AcDbSymbolTableRecord
100
AcDbLinetypeTableRecord
  2
CENTER
 70
     0
  3
____ _ ____ _ ____ _ ____ _ ____ _ ____ _ ____ 
 72
    65
 73
     4
 40
2.0
 49
1.25
 74
     0
 49
-0.25
 74
     0
 49
0.25
 74
     0
 49
-0.25
 74
     0
  0
LTYPE
  5
A1F7
330
A1D7
100
AcDbSymbolTableRecord
100
AcDbLinetypeTableRecord
  2
PHANTOM
 70
     0
  3
______  __  __  ______  __  __  ______  __  __ 
 72
    65
 73
     6
 40
2.5
 49
1.25
 74
     0
 49
-0.25
 74
     0
 49
0.25
 74
     0
 49
-0.25
 74
     0
 49
0.25
 74
     0
 49
-0.25
 74
     0
  0
ENDTAB
  0
TABLE
  2
LAYER
  5
A1D4
330
0
100
AcDbSymbolTable
 70
     8
  0
LAYER
  5
A1E2
102
{ACAD_XDICTIONARY
360
A558
102
}
330
A1D4
100
AcDbSymbolTableRecord
100
AcDbLayerTableRecord
  2
0
 70
     0
 62
     7
  6
CONTINUOUS
370
    -3
390
A506
  0
LAYER
  5
A1F8
102
{ACAD_XDICTIONARY
360
A55A
102
}
330
A1D4
100
AcDbSymbolTableRecord
100
AcDbLayerTableRecord
  2
4
 70
     0
 62
     1
  6
CENTER
370
    -3
390
A506
  0
LAYER
  5
A1F9
102
{ACAD_XDICTIONARY
360
A55C
102
}
330
A1D4
100
AcDbSymbolTableRecord
100
AcDbLayerTableRecord
  2
5
 70
     0
 62
     6
  6
PHANTOM
370
    -3
390
A506
  0
LAYER
  5
A1FA
102
{ACAD_XDICTIONARY
360
A55E
102
}
330
A1D4
100
AcDbSymbolTableRecord
100
AcDbLayerTableRecord
  2
1
 70
     0
 62
     7
  6
CONTINUOUS
370
    -3
390
A506
  0
LAYER
  5
A1FB
102
{ACAD_XDICTIONARY
360
A560
102
}
330
A1D4
100
AcDbSymbolTableRecord
100
AcDbLayerTableRecord
  2
2
 70
     0
 62
     4
  6
CONTINUOUS
370
    -3
390
A506
  0
LAYER
  5
A1FC
102
{ACAD_XDICTIONARY
360
A562
102
}
330
A1D4
100
AcDbSymbolTableRecord
100
AcDbLayerTableRecord
  2
3
 70
     0
 62
     2
  6
DASHED
370
    -3
390
A506
  0
LAYER
  5
A1FD
102
{ACAD_XDICTIONARY
360
A564
102
}
330
A1D4
100
AcDbSymbolTableRecord
100
AcDbLayerTableRecord
  2
6
 70
     0
 62
     5
  6
CONTINUOUS
370
    -3
390
A506
  0
LAYER
  5
A1FE
102
{ACAD_XDICTIONARY
360
A566
102
}
330
A1D4
100
AcDbSymbolTableRecord
100
AcDbLayerTableRecord
  2
7
 70
     0
 62
     3
  6
CONTINUOUS
370
    -3
390
A506
  0
ENDTAB
  0
TABLE
  2
STYLE
  5
A1D5
330
0
100
AcDbSymbolTable
 70
     1
  0
STYLE
  5
A1E3
330
A1D5
100
AcDbSymbolTableRecord
100
AcDbTextStyleTableRecord
  2
STANDARD
 70
     0
 40
0.0
 41
1.0
 50
0.0
 71
     0
 42
5.0
  3
txt
  4

  0
ENDTAB
  0
TABLE
  2
VIEW
  5
A1D8
330
0
100
AcDbSymbolTable
 70
     0
  0
ENDTAB
  0
TABLE
  2
UCS
  5
A1D9
330
0
100
AcDbSymbolTable
 70
     0
  0
ENDTAB
  0
TABLE
  2
APPID
  5
A1DB
330
0
100
AcDbSymbolTable
 70
     3
  0
APPID
  5
A1E4
330
A1DB
100
AcDbSymbolTableRecord
100
AcDbRegAppTableRecord
  2
ACAD
 70
     0
  0
APPID
  5
A572
330
A1DB
100
AcDbSymbolTableRecord
100
AcDbRegAppTableRecord
  2
ACAD_NAV_VCDISPLAY
 70
     0
  0
APPID
  5
A5AB
330
A1DB
100
AcDbSymbolTableRecord
100
AcDbRegAppTableRecord
  2
ACAD_MLEADERVER
 70
     0
  0
ENDTAB
  0
TABLE
  2
DIMSTYLE
  5
A1DC
330
0
100
AcDbSymbolTable
 70
     1
100
AcDbDimStyleTable
 71
     0
  0
DIMSTYLE
105
A200
330
A1DC
100
AcDbSymbolTableRecord
100
AcDbDimStyleTableRecord
  2
STANDARD
 70
     0
 41
2.5
 42
1.0
 43
10.0
 44
1.0
 73
     0
 74
     0
 77
     3
 78
     8
140
3.2
141
0.0
147
1.0
172
     1
173
     1
284
     8
285
     8
286
     8
340
A1E3
  0
ENDTAB
  0
TABLE
  2
BLOCK_RECORD
  5
A1D3
330
0
100
AcDbSymbolTable
 70
     1
  0
BLOCK_RECORD
  5
A1F0
102
{ACAD_XDICTIONARY
360
A500
102
}
330
A1D3
100
AcDbSymbolTableRecord
100
AcDbBlockTableRecord
  2
*MODEL_SPACE
340
A554
  0
BLOCK_RECORD
  5
A1EC
102
{ACAD_XDICTIONARY
360
A4FE
102
}
330
A1D3
100
AcDbSymbolTableRecord
100
AcDbBlockTableRecord
  2
*PAPER_SPACE
340
A555
  0
BLOCK_RECORD
  5
A208
330
A1D3
100
AcDbSymbolTableRecord
100
AcDbBlockTableRecord
  2
_OPEN
340
0
  0
ENDTAB
  0
ENDSEC
  0
SECTION
  2
BLOCKS
  0
BLOCK
  5
A1F1
330
A1F0
100
AcDbEntity
  8
0
100
AcDbBlockBegin
  2
*MODEL_SPACE
 70
     0
 10
0.0
 20
0.0
 30
0.0
  3
*MODEL_SPACE
  1

  0
ENDBLK
  5
A1F2
330
A1F0
100
AcDbEntity
  8
0
100
AcDbBlockEnd
  0
BLOCK
  5
A1ED
330
A1EC
100
AcDbEntity
 67
     1
  8
0
100
AcDbBlockBegin
  2
*PAPER_SPACE
 70
     0
 10
0.0
 20
0.0
 30
0.0
  3
*PAPER_SPACE
  1

  0
ENDBLK
  5
A1EE
330
A1EC
100
AcDbEntity
 67
     1
  8
0
100
AcDbBlockEnd
  0
BLOCK
  5
A209
330
A208
100
AcDbEntity
  8
0
100
AcDbBlockBegin
  2
_OPEN
 70
     0
 10
0.0
 20
0.0
 30
0.0
  3
_OPEN
  1

  0
LINE
  5
A20A
330
A208
100
AcDbEntity
  8
0
  6
ByBlock
 62
     0
100
AcDbLine
 10
-1.0
 20
0.166667
 30
0.0
 11
0.0
 21
0.0
 31
0.0
  0
LINE
  5
A20B
330
A208
100
AcDbEntity
  8
0
  6
ByBlock
 62
     0
100
AcDbLine
 10
0.0
 20
0.0
 30
0.0
 11
-1.0
 21
-0.166667
 31
0.0
  0
LINE
  5
A20C
330
A208
100
AcDbEntity
  8
0
  6
ByBlock
 62
     0
100
AcDbLine
 10
0.0
 20
0.0
 30
0.0
 11
-1.0
 21
0.0
 31
0.0
  0
ENDBLK
  5
A20D
330
A208
100
AcDbEntity
  8
0
100
AcDbBlockEnd
  0
ENDSEC
  0
SECTION
  2
ENTITIES
  0
TEXT
  5
A20E
330
A1F0
100
AcDbEntity
  8
7
  6
Continuous
100
AcDbText
 10
10.0
 20
18.0
 30
0.0
 40
3.0
  1
TYPE No.105G-N-L
100
AcDbText
  0
TEXT
  5
A20F
330
A1F0
100
AcDbEntity
  8
7
  6
Continuous
100
AcDbText
 10
10.0
 20
26.0
 30
0.0
 40
3.0
  1
CODE No.19107
100
AcDbText
  0
TEXT
  5
A210
330
A1F0
100
AcDbEntity
  8
1
  6
Continuous
100
AcDbText
 10
10.0
 20
10.0
 30
0.0
 40
1.399999999999999
  1
LAYER
100
AcDbText
  0
TEXT
  5
A211
330
A1F0
100
AcDbEntity
  8
1
  6
Continuous
100
AcDbText
 10
17.97951099999998
 20
10.04873699999998
 30
0.0
 40
1.399999999999999
  1
1
100
AcDbText
  0
TEXT
  5
A212
330
A1F0
100
AcDbEntity
  8
7
  6
Continuous
100
AcDbText
 10
29.97951099999999
 20
10.04873699999998
 30
0.0
 40
1.399999999999999
  1
7
100
AcDbText
  0
TEXT
  5
A213
330
A1F0
100
AcDbEntity
  8
4
  6
CENTER
100
AcDbText
 10
23.97951099999999
 20
10.04873699999998
 30
0.0
 40
1.399999999999999
  1
4
100
AcDbText
  0
TEXT
  5
A214
330
A1F0
100
AcDbEntity
  8
3
  6
DASHED
100
AcDbText
 10
21.979511
 20
10.04873699999998
 30
0.0
 40
1.399999999999999
  1
3
100
AcDbText
  0
TEXT
  5
A215
330
A1F0
100
AcDbEntity
  8
2
  6
Continuous
100
AcDbText
 10
19.97951099999999
 20
10.04873699999998
 30
0.0
 40
1.399999999999999
  1
2
100
AcDbText
  0
TEXT
  5
A216
330
A1F0
100
AcDbEntity
  8
6
  6
Continuous
100
AcDbText
 10
27.979511
 20
10.04873699999998
 30
0.0
 40
1.399999999999999
  1
6
100
AcDbText
  0
TEXT
  5
A217
330
A1F0
100
AcDbEntity
  8
5
  6
PHANTOM
100
AcDbText
 10
25.97951099999999
 20
10.04873699999998
 30
0.0
 40
1.399999999999999
  1
5
100
AcDbText
  0
ARC
  5
A218
330
A1F0
100
AcDbEntity
  8
1
  6
Continuous
100
AcDbCircle
 10
241.859109
 20
263.257208
 30
0.0
 40
0.9569799999999998
100
AcDbArc
 50
24.04026499999999
 51
73.98808699999998
  0
LINE
  5
A219
330
A1F0
100
AcDbEntity
  8
1
  6
Continuous
100
AcDbLine
 10
241.3080789999999
 20
264.177061
 30
0.0
 11
241.1380789999999
 21
264.537061
 31
0.0
  0
ARC
  5
A21A
330
A1F0
100
AcDbEntity
  8
1
  6
Continuous
100
AcDbCircle
 10
238.521598
 20
265.7272879999998
 30
0.0
 40
4.697225
100
AcDbArc
 50
317.4697509999999
 51
333.713305
  0
LINE
  5
A21B
330
A1F0
100
AcDbEntity
  8
1
  6
Continuous
100
AcDbLine
 10
241.983079
 20
262.5520609999999
 30
0.0
 11
241.853079
 21
262.1920609999999
 31
0.0
  0
ARC
  5
A21C
330
A1F0
100
AcDbEntity
  8
1
  6
Continuous
100
AcDbCircle
 10
236.319498
 20
260.6260879999999
 30
0.0
 40
6.206
100
AcDbArc
 50
39.064301
 51
50.46037999999999
  0
ARC
  5
A21D
330
A1F0
100
AcDbEntity
  8
1
  6
Continuous
100
AcDbCircle
 10
238.2962459999999
 20
275.324652
 30
0.0
 40
10.63951799999999
100
AcDbArc
 50
296.2885769999999
 51
310.0709029999998
  0
LINE
  5
A21E
330
A1F0
100
AcDbEntity
  8
1
  6
Continuous
100
AcDbLine
 10
245.1452769999999
 20
267.1827769999998
 30
0.0
 11
245.1847809999999
 21
267.61009
 31
0.0
  0
LINE
  5
A21F
330
A1F0
100
AcDbEntity
  8
1
  6
Continuous
100
AcDbLine
 10
177.886928
 20
270.2100639999998
 30
0.0
 11
252.369828
 21
270.21009
 31
0.0
  0
LINE
  5
A220
330
A1F0
100
AcDbEntity
  8
1
  6
Continuous
100
AcDbLine
 10
252.369828
 20
267.6101109999998
 30
0.0
 11
252.369828
 21
270.2100779999998
 31
0.0
  0
ARC
  5
A221
330
A1F0
100
AcDbEntity
  8
1
  6
Continuous
100
AcDbCircle
 10
241.409122
 20
269.0230639999999
 30
0.0
 40
3.611003999999998
100
AcDbArc
 50
270.0
 51
296.2885769999999
  0
LINE
  5
A222
330
A1F0
100
AcDbEntity
  8
1
  6
Continuous
100
AcDbLine
 10
177.886928
 20
267.610293
 30
0.0
 11
252.369828
 21
267.61009
 31
0.0
  0
LINE
  5
A223
330
A1F0
100
AcDbEntity
  8
1
  6
Continuous
100
AcDbLine
 10
188.903995
 20
267.6101069999999
 30
0.0
 11
185.904028
 21
267.6101109999998
 31
0.0
  0
LINE
  5
A224
330
A1F0
100
AcDbEntity
  8
1
  6
Continuous
100
AcDbLine
 10
242.1369279999999
 20
260.8796549999999
 30
0.0
 11
242.1369279999999
 21
262.1920609999999
 31
0.0
  0
ARC
  5
A225
330
A1F0
100
AcDbEntity
  8
1
  6
Continuous
100
AcDbCircle
 10
196.414748
 20
263.257208
 30
0.0
 40
0.9569799999999998
100
AcDbArc
 50
106.011913
 51
155.9597349999999
  0
LINE
  5
A226
330
A1F0
100
AcDbEntity
  8
1
  6
Continuous
100
AcDbLine
 10
196.1507779999998
 20
264.177061
 30
0.0
 11
242.123079
 21
264.177061
 31
0.0
  0
LINE
  5
A227
330
A1F0
100
AcDbEntity
  8
1
  6
Continuous
100
AcDbLine
 10
196.965778
 20
264.177061
 30
0.0
 11
197.1357779999999
 21
264.537061
 31
0.0
  0
ARC
  5
A228
330
A1F0
100
AcDbEntity
  8
1
  6
Continuous
100
AcDbCircle
 10
199.752259
 20
265.7272879999998
 30
0.0
 40
4.697225
100
AcDbArc
 50
206.286695
 51
222.530249
  0
LINE
  5
A229
330
A1F0
100
AcDbEntity
  8
1
  6
Continuous
100
AcDbLine
 10
196.2907779999999
 20
262.5520609999999
 30
0.0
 11
196.420778
 21
262.1920609999999
 31
0.0
  0
ARC
  5
A22A
330
A1F0
100
AcDbEntity
  8
1
  6
Continuous
100
AcDbCircle
 10
201.954359
 20
260.6260879999999
 30
0.0
 40
6.206
100
AcDbArc
 50
129.5396199999998
 51
140.935699
  0
ARC
  5
A22B
330
A1F0
100
AcDbEntity
  8
1
  6
Continuous
100
AcDbCircle
 10
199.977611
 20
275.324652
 30
0.0
 40
10.63951799999999
100
AcDbArc
 50
229.929097
 51
243.711423
  0
LINE
  5
A22C
330
A1F0
100
AcDbEntity
  8
1
  6
Continuous
100
AcDbLine
 10
193.1285799999999
 20
267.1827769999998
 30
0.0
 11
193.089076
 21
267.61009
 31
0.0
  0
LINE
  5
A22D
330
A1F0
100
AcDbEntity
  8
1
  6
Continuous
100
AcDbLine
 10
177.886928
 20
267.6101109999998
 30
0.0
 11
177.886928
 21
270.2100639999998
 31
0.0
  0
ARC
  5
A22E
330
A1F0
100
AcDbEntity
  8
1
  6
Continuous
100
AcDbCircle
 10
196.8647349999999
 20
269.0230639999999
 30
0.0
 40
3.611003999999998
100
AcDbArc
 50
243.711423
 51
270.0
  0
LINE
  5
A22F
330
A1F0
100
AcDbEntity
  8
1
  6
Continuous
100
AcDbLine
 10
196.136928
 20
260.726323
 30
0.0
 11
196.136928
 21
262.1920609999999
 31
0.0
  0
LINE
  5
A230
330
A1F0
100
AcDbEntity
  8
1
  6
Continuous
100
AcDbLine
 10
196.136928
 20
262.1920609999999
 30
0.0
 11
242.1369279999999
 21
262.1920609999999
 31
0.0
  0
LINE
  5
A231
330
A1F0
100
AcDbEntity
  8
1
  6
Continuous
100
AcDbLine
 10
193.1285799999999
 20
267.1827769999998
 30
0.0
 11
245.1452769999999
 21
267.1827769999998
 31
0.0
  0
LINE
  5
A232
330
A1F0
100
AcDbEntity
  8
1
  6
Continuous
100
AcDbLine
 10
241.409122
 20
265.412059
 30
0.0
 11
196.8647349999999
 21
265.412059
 31
0.0
  0
CIRCLE
  5
A233
330
A1F0
100
AcDbEntity
  8
1
  6
Continuous
100
AcDbCircle
 10
219.1369279999999
 20
377.601229
 30
0.0
 40
11.72806699999999
  0
CIRCLE
  5
A234
330
A1F0
100
AcDbEntity
  8
1
  6
Continuous
100
AcDbCircle
 10
219.1369279999999
 20
377.601229
 30
0.0
 40
11.98217499999998
  0
ARC
  5
A235
330
A1F0
100
AcDbEntity
  8
1
  6
Continuous
100
AcDbCircle
 10
236.1369279999999
 20
348.156365
 30
0.0
 40
7.25
100
AcDbArc
 50
273.9311629999999
 51
326.068837
  0
ARC
  5
A236
330
A1F0
100
AcDbEntity
  8
1
  6
Continuous
100
AcDbCircle
 10
236.1369279999999
 20
407.046092
 30
0.0
 40
7.25
100
AcDbArc
 50
33.93116299999999
 51
86.06883700000002
  0
ARC
  5
A237
330
A1F0
100
AcDbEntity
  8
1
  6
Continuous
100
AcDbCircle
 10
185.136928
 20
377.601229
 30
0.0
 40
7.25
100
AcDbArc
 50
153.931163
 51
206.068837
  0
ARC
  5
A238
330
A1F0
100
AcDbEntity
  8
1
  6
Continuous
100
AcDbCircle
 10
232.5204970000001
 20
354.4202059999999
 30
0.0
 40
60.0
100
AcDbArc
 50
86.06883700000002
 51
153.931163
  0
ARC
  5
A239
330
A1F0
100
AcDbEntity
  8
1
  6
Continuous
100
AcDbCircle
 10
232.5204970000001
 20
400.7822509999998
 30
0.0
 40
60.0
100
AcDbArc
 50
206.068837
 51
273.9311629999999
  0
ARC
  5
A23A
330
A1F0
100
AcDbEntity
  8
1
  6
Continuous
100
AcDbCircle
 10
192.3697879999998
 20
377.601229
 30
0.0
 40
60.0
100
AcDbArc
 50
326.068837
 51
33.93116299999999
  0
CIRCLE
  5
A23B
330
A1F0
100
AcDbEntity
  8
1
  6
Continuous
100
AcDbCircle
 10
185.136928
 20
377.601229
 30
0.0
 40
3.5
  0
CIRCLE
  5
A23C
330
A1F0
100
AcDbEntity
  8
1
  6
Continuous
100
AcDbCircle
 10
236.1369279999999
 20
348.156365
 30
0.0
 40
3.5
  0
CIRCLE
  5
A23D
330
A1F0
100
AcDbEntity
  8
1
  6
Continuous
100
AcDbCircle
 10
236.1369279999999
 20
407.046092
 30
0.0
 40
3.5
  0
CIRCLE
  5
A23E
330
A1F0
100
AcDbEntity
  8
1
  6
Continuous
100
AcDbCircle
 10
219.1369279999999
 20
377.601229
 30
0.0
 40
23.524845
  0
CIRCLE
  5
A23F
330
A1F0
100
AcDbEntity
  8
1
  6
Continuous
100
AcDbCircle
 10
219.1369279999999
 20
377.601229
 30
0.0
 40
21.29342799999999
  0
LINE
  5
A240
330
A1F0
100
AcDbEntity
  8
1
  6
Continuous
100
AcDbLine
 10
189.169318
 20
396.051229
 30
0.0
 11
174.1275349999999
 21
396.051229
 31
0.0
  0
LINE
  5
A241
330
A1F0
100
AcDbEntity
  8
1
  6
Continuous
100
AcDbLine
 10
189.313345
 20
359.151229
 30
0.0
 11
174.1275349999999
 21
359.151229
 31
0.0
  0
ARC
  5
A242
330
A1F0
100
AcDbEntity
  8
1
  6
Continuous
100
AcDbCircle
 10
84.54118000000002
 20
263.257219
 30
0.0
 40
0.9569799999999998
100
AcDbArc
 50
24.04026499999999
 51
73.98808699999998
  0
LINE
  5
A243
330
A1F0
100
AcDbEntity
  8
1
  6
Continuous
100
AcDbLine
 10
83.99015099999997
 20
264.177072
 30
0.0
 11
83.82015099999998
 21
264.537072
 31
0.0
  0
ARC
  5
A244
330
A1F0
100
AcDbEntity
  8
1
  6
Continuous
100
AcDbCircle
 10
81.20366899999998
 20
265.7272999999999
 30
0.0
 40
4.697225
100
AcDbArc
 50
317.4697509999999
 51
333.713305
  0
ARC
  5
A245
330
A1F0
100
AcDbEntity
  8
1
  6
Continuous
100
AcDbCircle
 10
79.00156899999998
 20
260.6260999999999
 30
0.0
 40
6.206
100
AcDbArc
 50
39.064301
 51
50.46037999999999
  0
ARC
  5
A246
330
A1F0
100
AcDbEntity
  8
1
  6
Continuous
100
AcDbCircle
 10
80.97831799999999
 20
275.324663
 30
0.0
 40
10.63951799999999
100
AcDbArc
 50
296.2885769999999
 51
310.0709029999998
  0
LINE
  5
A247
330
A1F0
100
AcDbEntity
  8
1
  6
Continuous
100
AcDbLine
 10
87.82734899999999
 20
267.182789
 30
0.0
 11
87.86685199999999
 21
267.6101019999999
 31
0.0
  0
LINE
  5
A248
330
A1F0
100
AcDbEntity
  8
1
  6
Continuous
100
AcDbLine
 10
98.63800000000001
 20
270.210077
 30
0.0
 11
25.0
 21
270.210103
 31
0.0
  0
ARC
  5
A249
330
A1F0
100
AcDbEntity
  8
1
  6
Continuous
100
AcDbCircle
 10
84.091193
 20
269.023075
 30
0.0
 40
3.611003999999998
100
AcDbArc
 50
270.0
 51
296.2885769999999
  0
LINE
  5
A24A
330
A1F0
100
AcDbEntity
  8
1
  6
Continuous
100
AcDbLine
 10
98.63800000000001
 20
267.610293
 30
0.0
 11
25.0
 21
267.610092
 31
0.0
  0
LINE
  5
A24B
330
A1F0
100
AcDbEntity
  8
1
  6
Continuous
100
AcDbLine
 10
92.05193300000001
 20
267.610119
 30
0.0
 11
95.0519
 21
267.610122
 31
0.0
  0
LINE
  5
A24C
330
A1F0
100
AcDbEntity
  8
1
  6
Continuous
100
AcDbLine
 10
84.81900000000001
 20
260.872229
 30
0.0
 11
84.81900000000001
 21
262.1920719999998
 31
0.0
  0
ARC
  5
A24D
330
A1F0
100
AcDbEntity
  8
1
  6
Continuous
100
AcDbCircle
 10
39.09682
 20
263.257219
 30
0.0
 40
0.9569799999999998
100
AcDbArc
 50
106.011913
 51
155.9597349999999
  0
LINE
  5
A24E
330
A1F0
100
AcDbEntity
  8
1
  6
Continuous
100
AcDbLine
 10
38.83284899999999
 20
264.177072
 30
0.0
 11
84.80515099999998
 21
264.177072
 31
0.0
  0
LINE
  5
A24F
330
A1F0
100
AcDbEntity
  8
1
  6
Continuous
100
AcDbLine
 10
39.647849
 20
264.177072
 30
0.0
 11
39.817849
 21
264.537072
 31
0.0
  0
ARC
  5
A250
330
A1F0
100
AcDbEntity
  8
1
  6
Continuous
100
AcDbCircle
 10
42.43433099999999
 20
265.7272999999999
 30
0.0
 40
4.697225
100
AcDbArc
 50
206.286695
 51
222.530249
  0
ARC
  5
A251
330
A1F0
100
AcDbEntity
  8
1
  6
Continuous
100
AcDbCircle
 10
44.636431
 20
260.6260999999999
 30
0.0
 40
6.206
100
AcDbArc
 50
129.5396199999998
 51
140.935699
  0
ARC
  5
A252
330
A1F0
100
AcDbEntity
  8
1
  6
Continuous
100
AcDbCircle
 10
42.65968299999999
 20
275.324663
 30
0.0
 40
10.63951799999999
100
AcDbArc
 50
229.929097
 51
243.711423
  0
LINE
  5
A253
330
A1F0
100
AcDbEntity
  8
1
  6
Continuous
100
AcDbLine
 10
35.810651
 20
267.182789
 30
0.0
 11
35.77114799999999
 21
267.6101019999999
 31
0.0
  0
ARC
  5
A254
330
A1F0
100
AcDbEntity
  8
1
  6
Continuous
100
AcDbCircle
 10
39.546807
 20
269.023075
 30
0.0
 40
3.611003999999998
100
AcDbArc
 50
243.711423
 51
270.0
  0
LINE
  5
A255
330
A1F0
100
AcDbEntity
  8
1
  6
Continuous
100
AcDbLine
 10
38.819
 20
260.872229
 30
0.0
 11
38.819
 21
262.1920719999998
 31
0.0
  0
LINE
  5
A256
330
A1F0
100
AcDbEntity
  8
1
  6
Continuous
100
AcDbLine
 10
38.819
 20
262.1920719999998
 30
0.0
 11
84.81900000000001
 21
262.1920719999998
 31
0.0
  0
LINE
  5
A257
330
A1F0
100
AcDbEntity
  8
1
  6
Continuous
100
AcDbLine
 10
35.810651
 20
267.182789
 30
0.0
 11
87.82734899999999
 21
267.182789
 31
0.0
  0
LINE
  5
A258
330
A1F0
100
AcDbEntity
  8
1
  6
Continuous
100
AcDbLine
 10
84.091193
 20
265.4120709999999
 30
0.0
 11
39.546807
 21
265.4120709999999
 31
0.0
  0
LINE
  5
A259
330
A1F0
100
AcDbEntity
  8
1
  6
Continuous
100
AcDbLine
 10
84.66515099999998
 20
262.552072
 30
0.0
 11
84.535151
 21
262.1920719999998
 31
0.0
  0
LINE
  5
A25A
330
A1F0
100
AcDbEntity
  8
1
  6
Continuous
100
AcDbLine
 10
38.97284899999998
 20
262.552072
 30
0.0
 11
39.102849
 21
262.1920719999998
 31
0.0
  0
LINE
  5
A25B
330
A1F0
100
AcDbEntity
  8
1
  6
Continuous
100
AcDbLine
 10
98.63800000000001
 20
270.2100759999999
 30
0.0
 11
98.63800000000001
 21
267.610305
 31
0.0
  0
LINE
  5
A25C
330
A1F0
100
AcDbEntity
  8
1
  6
Continuous
100
AcDbLine
 10
25.0
 20
270.2100759999999
 30
0.0
 11
25.0
 21
267.610305
 31
0.0
  0
LINE
  5
A25D
330
A1F0
100
AcDbEntity
  8
1
  6
Continuous
100
AcDbLine
 10
73.319
 20
218.992344
 30
0.0
 11
73.319
 21
189.911743
 31
0.0
  0
LINE
  5
A25E
330
A1F0
100
AcDbEntity
  8
1
  6
Continuous
100
AcDbLine
 10
50.319
 20
218.992344
 30
0.0
 11
50.319
 21
189.911743
 31
0.0
  0
ARC
  5
A25F
330
A1F0
100
AcDbEntity
  8
1
  6
Continuous
100
AcDbCircle
 10
61.81899999999998
 20
202.210116
 30
0.0
 40
17.0
100
AcDbArc
 50
228.1896849999998
 51
311.810315
  0
ARC
  5
A260
330
A1F0
100
AcDbEntity
  8
1
  6
Continuous
100
AcDbCircle
 10
72.819
 20
189.911743
 30
0.0
 40
0.5
100
AcDbArc
 50
311.810315
 51
0.0
  0
ARC
  5
A261
330
A1F0
100
AcDbEntity
  8
1
  6
Continuous
100
AcDbCircle
 10
50.819
 20
189.911743
 30
0.0
 40
0.5
100
AcDbArc
 50
180.0
 51
228.1896849999998
  0
LINE
  5
A262
330
A1F0
100
AcDbEntity
  8
1
  6
Continuous
100
AcDbLine
 10
77.319
 20
223.1434419999999
 30
0.0
 11
77.319
 21
210.626448
 31
0.0
  0
LINE
  5
A263
330
A1F0
100
AcDbEntity
  8
1
  6
Continuous
100
AcDbLine
 10
76.40615600000002
 20
209.6302529999999
 30
0.0
 11
73.319
 21
209.360162
 31
0.0
  0
ARC
  5
A264
330
A1F0
100
AcDbEntity
  8
1
  6
Continuous
100
AcDbCircle
 10
76.319
 20
210.626448
 30
0.0
 40
1.0
100
AcDbArc
 50
275.0
 51
0.0
  0
LINE
  5
A265
330
A1F0
100
AcDbEntity
  8
1
  6
Continuous
100
AcDbLine
 10
41.08335799999998
 20
223.460116
 30
0.0
 11
43.36899999999999
 21
223.460116
 31
0.0
  0
LINE
  5
A266
330
A1F0
100
AcDbEntity
  8
1
  6
Continuous
100
AcDbLine
 10
41.08335799999998
 20
211.960116
 30
0.0
 11
43.36899999999999
 21
211.960116
 31
0.0
  0
ARC
  5
A267
330
A1F0
100
AcDbEntity
  8
1
  6
Continuous
100
AcDbCircle
 10
49.869
 20
217.710116
 30
0.0
 40
10.5
100
AcDbArc
 50
146.796177
 51
213.203823
  0
LINE
  5
A268
330
A1F0
100
AcDbEntity
  8
1
  6
Continuous
100
AcDbLine
 10
41.08335799999998
 20
223.460116
 30
0.0
 11
41.08335799999998
 21
211.960116
 31
0.0
  0
LINE
  5
A269
330
A1F0
100
AcDbEntity
  8
1
  6
Continuous
100
AcDbLine
 10
77.96899999999998
 20
221.710116
 30
0.0
 11
77.319
 21
221.710116
 31
0.0
  0
LINE
  5
A26A
330
A1F0
100
AcDbEntity
  8
1
  6
Continuous
100
AcDbLine
 10
77.96899999999998
 20
213.710116
 30
0.0
 11
77.319
 21
213.710116
 31
0.0
  0
LINE
  5
A26B
330
A1F0
100
AcDbEntity
  8
1
  6
Continuous
100
AcDbLine
 10
46.31899999999999
 20
223.1434419999999
 30
0.0
 11
46.31899999999999
 21
210.626448
 31
0.0
  0
LINE
  5
A26C
330
A1F0
100
AcDbEntity
  8
1
  6
Continuous
100
AcDbLine
 10
47.231844
 20
209.6302529999999
 30
0.0
 11
50.319
 21
209.360162
 31
0.0
  0
ARC
  5
A26D
330
A1F0
100
AcDbEntity
  8
1
  6
Continuous
100
AcDbCircle
 10
47.31899999999998
 20
210.626448
 30
0.0
 40
1.0
100
AcDbArc
 50
180.0
 51
265.0
  0
LINE
  5
A26E
330
A1F0
100
AcDbEntity
  8
1
  6
Continuous
100
AcDbLine
 10
45.66899999999999
 20
221.710116
 30
0.0
 11
46.31899999999999
 21
221.710116
 31
0.0
  0
LINE
  5
A26F
330
A1F0
100
AcDbEntity
  8
1
  6
Continuous
100
AcDbLine
 10
45.66899999999999
 20
213.710116
 30
0.0
 11
46.31899999999999
 21
213.710116
 31
0.0
  0
ARC
  5
A270
330
A1F0
100
AcDbEntity
  8
1
  6
Continuous
100
AcDbCircle
 10
73.16810699999997
 20
217.710116
 30
0.0
 40
9.100892999999999
100
AcDbArc
 50
327.7973949999998
 51
32.202605
  0
LINE
  5
A271
330
A1F0
100
AcDbEntity
  8
1
  6
Continuous
100
AcDbLine
 10
80.26899999999997
 20
222.210116
 30
0.0
 11
80.86899999999998
 21
222.560116
 31
0.0
  0
LINE
  5
A272
330
A1F0
100
AcDbEntity
  8
1
  6
Continuous
100
AcDbLine
 10
80.26899999999997
 20
213.210116
 30
0.0
 11
80.86899999999998
 21
212.860116
 31
0.0
  0
LINE
  5
A273
330
A1F0
100
AcDbEntity
  8
1
  6
Continuous
100
AcDbLine
 10
80.86899999999998
 20
212.860116
 30
0.0
 11
80.86899999999998
 21
222.560116
 31
0.0
  0
ARC
  5
A274
330
A1F0
100
AcDbEntity
  8
1
  6
Continuous
100
AcDbCircle
 10
195.136928
 20
217.710116
 30
0.0
 40
32.5
100
AcDbArc
 50
178.442385
 51
52.81642699999999
  0
LINE
  5
A275
330
A1F0
100
AcDbEntity
  8
1
  6
Continuous
100
AcDbLine
 10
212.260236
 20
222.779087
 30
0.0
 11
205.509307
 21
229.691779
 31
0.0
  0
LINE
  5
A276
330
A1F0
100
AcDbEntity
  8
1
  6
Continuous
100
AcDbLine
 10
243.833312
 20
250.1776769999999
 30
0.0
 11
242.490287
 21
249.983706
 31
0.0
  0
ARC
  5
A277
330
A1F0
100
AcDbEntity
  8
1
  6
Continuous
100
AcDbCircle
 10
240.467015
 20
258.0518649999999
 30
0.0
 40
2.820411
100
AcDbArc
 50
41.285311
 51
90.19098400000002
  0
LINE
  5
A278
330
A1F0
100
AcDbEntity
  8
1
  6
Continuous
100
AcDbLine
 10
243.9433699999999
 20
250.4437669999998
 30
0.0
 11
243.833312
 21
250.1776769999999
 31
0.0
  0
ARC
  5
A279
330
A1F0
100
AcDbEntity
  8
1
  6
Continuous
100
AcDbCircle
 10
80.12305000000003
 20
237.492893
 30
0.0
 40
164.417176
100
AcDbArc
 50
4.84405
 51
5.519198
  0
ARC
  5
A27A
330
A1F0
100
AcDbEntity
  8
1
  6
Continuous
100
AcDbCircle
 10
239.0425669999999
 20
250.9607879999999
 30
0.0
 40
4.927999999999999
100
AcDbArc
 50
353.9777279999999
 51
4.84405
  0
ARC
  5
A27B
330
A1F0
100
AcDbEntity
  8
1
  6
Continuous
100
AcDbCircle
 10
257.277237
 20
254.6108119999999
 30
0.0
 40
13.56211899999999
100
AcDbArc
 50
175.468618
 51
185.5191979999999
  0
ARC
  5
A27C
330
A1F0
100
AcDbEntity
  8
1
  6
Continuous
100
AcDbCircle
 10
239.352949
 20
256.957746
 30
0.0
 40
4.377780999999997
100
AcDbArc
 50
9.516367
 51
39.065585
  0
ARC
  5
A27D
330
A1F0
100
AcDbEntity
  8
1
  6
Continuous
100
AcDbCircle
 10
237.607194
 20
255.5407489999999
 30
0.0
 40
6.626233
100
AcDbArc
 50
39.065585
 51
41.285311
  0
ARC
  5
A27E
330
A1F0
100
AcDbEntity
  8
1
  6
Continuous
100
AcDbCircle
 10
235.6007259999999
 20
256.3287369999998
 30
0.0
 40
8.182361
100
AcDbArc
 50
355.468618
 51
9.516367
  0
ARC
  5
A27F
330
A1F0
100
AcDbEntity
  8
1
  6
Continuous
100
AcDbCircle
 10
241.8196739999999
 20
252.172629
 30
0.0
 40
2.172127999999998
100
AcDbArc
 50
267.579629
 51
281.533552
  0
ARC
  5
A280
330
A1F0
100
AcDbEntity
  8
1
  6
Continuous
100
AcDbCircle
 10
242.309752
 20
249.771014
 30
0.0
 40
0.278981
100
AcDbArc
 50
49.67518100000001
 51
101.533552
  0
ARC
  5
A281
330
A1F0
100
AcDbEntity
  8
1
  6
Continuous
100
AcDbCircle
 10
198.328283
 20
257.2254819999999
 30
0.0
 40
3.533937999999998
100
AcDbArc
 50
101.5869999999999
 51
142.0277369999998
  0
ARC
  5
A282
330
A1F0
100
AcDbEntity
  8
1
  6
Continuous
100
AcDbCircle
 10
198.047008
 20
258.5973259999998
 30
0.0
 40
2.133554999999998
100
AcDbArc
 50
90.19098400000002
 51
101.5869999999999
  0
ARC
  5
A283
330
A1F0
100
AcDbEntity
  8
1
  6
Continuous
100
AcDbCircle
 10
193.501232
 20
257.60298
 30
0.0
 40
1.011946999999999
100
AcDbArc
 50
285.369997
 51
343.5707649999999
  0
ARC
  5
A284
330
A1F0
100
AcDbEntity
  8
1
  6
Continuous
100
AcDbCircle
 10
200.481867
 20
255.5445959999999
 30
0.0
 40
6.265842
100
AcDbArc
 50
142.0277369999998
 51
163.570765
  0
ARC
  5
A285
330
A1F0
100
AcDbEntity
  8
1
  6
Continuous
100
AcDbCircle
 10
190.747455
 20
267.620991
 30
0.0
 40
11.40154899999999
100
AcDbArc
 50
278.315157
 51
285.369997
  0
ARC
  5
A286
330
A1F0
100
AcDbEntity
  8
1
  6
Continuous
100
AcDbCircle
 10
200.233988
 20
202.713376
 30
0.0
 40
54.195652
100
AcDbArc
 50
98.31515700000002
 51
102.146512
  0
ARC
  5
A287
330
A1F0
100
AcDbEntity
  8
1
  6
Continuous
100
AcDbCircle
 10
199.5880899999999
 20
205.714332
 30
0.0
 40
51.125974
100
AcDbArc
 50
102.146512
 51
133.102031
  0
ARC
  5
A288
330
A1F0
100
AcDbEntity
  8
1
  6
Continuous
100
AcDbCircle
 10
185.5416919999999
 20
220.723574
 30
0.0
 40
30.569257
100
AcDbArc
 50
133.102031
 51
144.509071
  0
ARC
  5
A289
330
A1F0
100
AcDbEntity
  8
1
  6
Continuous
100
AcDbCircle
 10
178.65697
 20
225.632754
 30
0.0
 40
22.11352199999998
100
AcDbArc
 50
144.509071
 51
168.560202
  0
LINE
  5
A28A
330
A1F0
100
AcDbEntity
  8
1
  6
Continuous
100
AcDbLine
 10
157.680293
 20
215.123079
 30
0.0
 11
156.9884529999999
 21
215.149677
 31
0.0
  0
LINE
  5
A28B
330
A1F0
100
AcDbEntity
  8
1
  6
Continuous
100
AcDbLine
 10
156.70981
 20
215.1331029999998
 30
0.0
 11
156.11793
 21
215.146116
 31
0.0
  0
LINE
  5
A28C
330
A1F0
100
AcDbEntity
  8
1
  6
Continuous
100
AcDbLine
 10
156.11793
 20
215.146116
 30
0.0
 11
156.0518979999999
 21
215.193071
 31
0.0
  0
LINE
  5
A28D
330
A1F0
100
AcDbEntity
  8
1
  6
Continuous
100
AcDbLine
 10
156.0518979999999
 20
215.193071
 30
0.0
 11
156.0389269999998
 21
215.1500619999999
 31
0.0
  0
LINE
  5
A28E
330
A1F0
100
AcDbEntity
  8
1
  6
Continuous
100
AcDbLine
 10
155.677535
 20
215.515296
 30
0.0
 11
155.766659
 21
215.237236
 31
0.0
  0
LINE
  5
A28F
330
A1F0
100
AcDbEntity
  8
1
  6
Continuous
100
AcDbLine
 10
156.0389269999998
 20
215.1500619999999
 30
0.0
 11
155.766659
 21
215.237236
 31
0.0
  0
ARC
  5
A290
330
A1F0
100
AcDbEntity
  8
1
  6
Continuous
100
AcDbCircle
 10
190.1675339999999
 20
214.4802789999999
 30
0.0
 40
34.505525
100
AcDbArc
 50
173.800109
 51
178.281116
  0
ARC
  5
A291
330
A1F0
100
AcDbEntity
  8
1
  6
Continuous
100
AcDbCircle
 10
81.14270999999998
 20
226.3239549999999
 30
0.0
 40
75.160718
100
AcDbArc
 50
353.8001089999998
 51
358.8760189999999
  0
ARC
  5
A292
330
A1F0
100
AcDbEntity
  8
1
  6
Continuous
100
AcDbCircle
 10
84.214946
 20
244.7438839999998
 30
0.0
 40
74.24275
100
AcDbArc
 50
347.7945759999998
 51
348.560202
  0
ARC
  5
A293
330
A1F0
100
AcDbEntity
  8
1
  6
Continuous
100
AcDbCircle
 10
178.1723409999999
 20
224.420265
 30
0.0
 40
21.88758599999999
100
AcDbArc
 50
167.794576
 51
178.8760189999999
  0
ARC
  5
A294
330
A1F0
100
AcDbEntity
  8
1
  6
Continuous
100
AcDbCircle
 10
157.745212
 20
215.2615759999999
 30
0.0
 40
0.152957
100
AcDbArc
 50
244.885758
 51
292.3839819999999
  0
ARC
  5
A295
330
A1F0
100
AcDbEntity
  8
1
  6
Continuous
100
AcDbCircle
 10
156.8349389999999
 20
215.3799859999999
 30
0.0
 40
0.276783
100
AcDbArc
 50
243.1224859999999
 51
303.6857659999999
  0
ARC
  5
A296
330
A1F0
100
AcDbEntity
  8
1
  6
Continuous
100
AcDbCircle
 10
208.561026
 20
219.166441
 30
0.0
 40
5.170626
100
AcDbArc
 50
303.0429129999999
 51
44.321711
  0
LINE
  5
A297
330
A1F0
100
AcDbEntity
  8
1
  6
Continuous
100
AcDbLine
 10
185.2110139999998
 20
215.2270399999999
 30
0.0
 11
177.839814
 21
220.5879279999999
 31
0.0
  0
ARC
  5
A298
330
A1F0
100
AcDbEntity
  8
1
  6
Continuous
100
AcDbCircle
 10
195.8642839999999
 20
217.8187
 30
0.0
 40
10.96397999999999
100
AcDbArc
 50
193.6729539999998
 51
303.0429129999999
  0
LINE
  5
A299
330
A1F0
100
AcDbEntity
  8
1
  6
Continuous
100
AcDbLine
 10
211.3803979999999
 20
214.8321
 30
0.0
 11
201.842581
 21
208.6280079999999
 31
0.0
  0
ARC
  5
A29A
330
A1F0
100
AcDbEntity
  8
1
  6
Continuous
100
AcDbCircle
 10
156.437892
 20
218.4358889999999
 30
0.0
 40
3.585935999999998
100
AcDbArc
 50
292.3839819999999
 51
302.3798959999999
  0
ARC
  5
A29B
330
A1F0
100
AcDbEntity
  8
1
  6
Continuous
100
AcDbCircle
 10
174.080685
 20
214.5140759999999
 30
0.0
 40
11.068251
100
AcDbArc
 50
122.6602669999999
 51
145.7454419999999
  0
ARC
  5
A29C
330
A1F0
100
AcDbEntity
  8
1
  6
Continuous
100
AcDbCircle
 10
169.808759
 20
219.4523109999999
 30
0.0
 40
4.698712999999997
100
AcDbArc
 50
72.364317
 51
111.225627
  0
ARC
  5
A29D
330
A1F0
100
AcDbEntity
  8
1
  6
Continuous
100
AcDbCircle
 10
138.8923829999999
 20
246.1046419999999
 30
0.0
 40
36.348793
100
AcDbArc
 50
302.3798959999999
 51
315.7571929999999
  0
ARC
  5
A29E
330
A1F0
100
AcDbEntity
  8
1
  6
Continuous
100
AcDbCircle
 10
164.2134649999999
 20
201.851749
 30
0.0
 40
23.167257
100
AcDbArc
 50
53.97255300000001
 51
72.364317
  0
LINE
  5
A29F
330
A1F0
100
AcDbEntity
  8
1
  6
Continuous
100
AcDbLine
 10
240.5688519999999
 20
249.7842799999999
 30
0.0
 11
237.4081509999999
 21
249.612334
 31
0.0
  0
ARC
  5
A2A0
330
A1F0
100
AcDbEntity
  8
1
  6
Continuous
100
AcDbCircle
 10
240.3248989999999
 20
254.268639
 30
0.0
 40
4.490991
100
AcDbArc
 50
273.1138749999999
 51
288.2047099999999
  0
LINE
  5
A2A1
330
A1F0
100
AcDbEntity
  8
1
  6
Continuous
100
AcDbLine
 10
237.4081509999999
 20
249.612334
 30
0.0
 11
229.7457749999999
 21
248.1951229999999
 31
0.0
  0
LINE
  5
A2A2
330
A1F0
100
AcDbEntity
  8
1
  6
Continuous
100
AcDbLine
 10
224.1469229999999
 20
246.31006
 30
0.0
 11
226.499954
 21
247.254027
 31
0.0
  0
ARC
  5
A2A3
330
A1F0
100
AcDbEntity
  8
1
  6
Continuous
100
AcDbCircle
 10
232.8453319999999
 20
231.436877
 30
0.0
 40
17.042478
100
AcDbArc
 50
100.478844
 51
111.8592149999999
  0
ARC
  5
A2A4
330
A1F0
100
AcDbEntity
  8
1
  6
Continuous
100
AcDbCircle
 10
207.9652269999999
 20
235.736989
 30
0.0
 40
4.944243
100
AcDbArc
 50
143.358797
 51
180.988011
  0
ARC
  5
A2A5
330
A1F0
100
AcDbEntity
  8
1
  6
Continuous
100
AcDbCircle
 10
211.7664959999999
 20
235.802544
 30
0.0
 40
8.746076999999997
100
AcDbArc
 50
180.988011
 51
224.3217109999999
  0
LINE
  5
A2A6
330
A1F0
100
AcDbEntity
  8
1
  6
Continuous
100
AcDbLine
 10
215.704667
 20
243.976062
 30
0.0
 11
206.4146809999999
 21
240.2318249999999
 31
0.0
  0
ARC
  5
A2A7
330
A1F0
100
AcDbEntity
  8
1
  6
Continuous
100
AcDbCircle
 10
206.806181
 20
239.260456
 30
0.0
 40
1.047296999999999
100
AcDbArc
 50
111.951408
 51
148.3802
  0
ARC
  5
A2A8
330
A1F0
100
AcDbEntity
  8
1
  6
Continuous
100
AcDbCircle
 10
209.5297739999999
 20
282.7462849999998
 30
0.0
 40
39.258879
100
AcDbArc
 50
279.0494319999999
 51
291.859215
  0
ARC
  5
A2A9
330
A1F0
100
AcDbEntity
  8
1
  6
Continuous
100
AcDbCircle
 10
203.90287
 20
241.047968
 30
0.0
 40
2.362162999999998
100
AcDbArc
 50
272.308628
 51
328.3802
  0
LINE
  5
A2AA
330
A1F0
100
AcDbEntity
  8
1
  6
Continuous
100
AcDbLine
 10
242.1369279999999
 20
260.877858
 30
0.0
 11
196.136928
 21
260.7245259999999
 31
0.0
  0
LINE
  5
A2AB
330
A1F0
100
AcDbEntity
  8
1
  6
Continuous
100
AcDbLine
 10
77.96899999999998
 20
223.839224
 30
0.0
 11
77.96899999999998
 21
206.8546399999999
 31
0.0
  0
LINE
  5
A2AC
330
A1F0
100
AcDbEntity
  8
1
  6
Continuous
100
AcDbLine
 10
80.26899999999997
 20
245.1703769999999
 30
0.0
 11
80.26899999999997
 21
206.8546399999999
 31
0.0
  0
ARC
  5
A2AD
330
A1F0
100
AcDbEntity
  8
1
  6
Continuous
100
AcDbCircle
 10
83.56900000000001
 20
258.1222289999999
 30
0.0
 40
2.75
100
AcDbArc
 50
0.0
 51
90.0
  0
ARC
  5
A2AE
330
A1F0
100
AcDbEntity
  8
1
  6
Continuous
100
AcDbCircle
 10
78.746505
 20
222.5302249999999
 30
0.0
 40
1.522494999999999
100
AcDbArc
 50
0.0
 51
145.7020409999998
  0
LINE
  5
A2AF
330
A1F0
100
AcDbEntity
  8
1
  6
Continuous
100
AcDbLine
 10
77.96899999999998
 20
206.8546399999999
 30
0.0
 11
80.26899999999997
 21
206.8546399999999
 31
0.0
  0
ARC
  5
A2B0
330
A1F0
100
AcDbEntity
  8
1
  6
Continuous
100
AcDbCircle
 10
25.26899999999999
 20
245.1703769999999
 30
0.0
 40
55.0
100
AcDbArc
 50
0.0
 51
7.259121999999998
  0
LINE
  5
A2B1
330
A1F0
100
AcDbEntity
  8
1
  6
Continuous
100
AcDbLine
 10
45.66899999999999
 20
223.839224
 30
0.0
 11
45.66899999999999
 21
206.8546399999999
 31
0.0
  0
LINE
  5
A2B2
330
A1F0
100
AcDbEntity
  8
1
  6
Continuous
100
AcDbLine
 10
43.36899999999999
 20
245.1703769999999
 30
0.0
 11
43.36899999999999
 21
206.8546399999999
 31
0.0
  0
ARC
  5
A2B3
330
A1F0
100
AcDbEntity
  8
1
  6
Continuous
100
AcDbCircle
 10
40.069
 20
258.1222289999999
 30
0.0
 40
2.75
100
AcDbArc
 50
90.0
 51
180.0
  0
LINE
  5
A2B4
330
A1F0
100
AcDbEntity
  8
1
  6
Continuous
100
AcDbLine
 10
84.81900000000001
 20
260.872229
 30
0.0
 11
38.819
 21
260.872229
 31
0.0
  0
ARC
  5
A2B5
330
A1F0
100
AcDbEntity
  8
1
  6
Continuous
100
AcDbCircle
 10
44.89149499999999
 20
222.5302249999999
 30
0.0
 40
1.522494999999999
100
AcDbArc
 50
34.29795900000001
 51
180.0
  0
LINE
  5
A2B6
330
A1F0
100
AcDbEntity
  8
1
  6
Continuous
100
AcDbLine
 10
45.66899999999999
 20
206.8546399999999
 30
0.0
 11
43.36899999999999
 21
206.8546399999999
 31
0.0
  0
ARC
  5
A2B7
330
A1F0
100
AcDbEntity
  8
1
  6
Continuous
100
AcDbCircle
 10
61.81899999999998
 20
212.0651339999998
 30
0.0
 40
44.907095
100
AcDbArc
 50
68.06923399999999
 51
111.930766
  0
ARC
  5
A2B8
330
A1F0
100
AcDbEntity
  8
1
  6
Continuous
100
AcDbCircle
 10
98.36899999999999
 20
245.1703769999999
 30
0.0
 40
55.0
100
AcDbArc
 50
172.740878
 51
180.0
  0
ARC
  5
A2B9
330
A1F0
100
AcDbEntity
  8
1
  6
Continuous
100
AcDbCircle
 10
61.81899999999998
 20
234.076502
 30
0.0
 40
18.967916
100
AcDbArc
 50
214.2979589999999
 51
325.7037889999998
  0
LINE
  5
A2BA
330
A1F0
100
AcDbEntity
  8
1
  6
Continuous
100
AcDbLine
 10
80.26899999999997
 20
215.2270399999999
 30
0.0
 11
77.96899999999998
 21
215.2270399999999
 31
0.0
  0
LINE
  5
A2BB
330
A1F0
100
AcDbEntity
  8
1
  6
Continuous
100
AcDbLine
 10
45.66899999999999
 20
215.2270399999999
 30
0.0
 11
43.36899999999999
 21
215.2270399999999
 31
0.0
  0
ARC
  5
A2BC
330
A1F0
100
AcDbEntity
  8
1
  6
Continuous
100
AcDbCircle
 10
144.56144
 20
243.0660519999999
 30
0.0
 40
30.0
100
AcDbArc
 50
291.9320859999999
 51
315.954264
  0
ARC
  5
A2BD
330
A1F0
100
AcDbEntity
  8
1
  6
Continuous
100
AcDbCircle
 10
195.136928
 20
217.710116
 30
0.0
 40
17.0
100
AcDbArc
 50
22.593125
 51
59.69656099999999
  0
LINE
  5
A2BE
330
A1F0
100
AcDbEntity
  8
1
  6
Continuous
100
AcDbLine
 10
203.3859539999999
 20
256.610136
 30
0.0
 11
203.3859539999999
 21
241.0991509999998
 31
0.0
  0
ARC
  5
A2BF
330
A1F0
100
AcDbEntity
  8
1
  6
Continuous
100
AcDbCircle
 10
190.7091259999999
 20
237.1410329999999
 30
0.0
 40
20.0
100
AcDbArc
 50
50.66589199999999
 51
77.71224699999997
  0
LINE
  5
A2C0
330
A1F0
100
AcDbEntity
  8
1
  6
Continuous
100
AcDbLine
 10
79.66899999999998
 20
252.6858849999999
 30
0.0
 11
79.66899999999998
 21
255.4222289999999
 31
0.0
  0
ARC
  5
A2C1
330
A1F0
100
AcDbEntity
  8
1
  6
Continuous
100
AcDbCircle
 10
76.91899999999998
 20
255.4222289999999
 30
0.0
 40
2.75
100
AcDbArc
 50
0.0
 51
93.03482800000002
  0
LINE
  5
A2C2
330
A1F0
100
AcDbEntity
  8
1
  6
Continuous
100
AcDbLine
 10
43.96899999999997
 20
252.6858849999999
 30
0.0
 11
43.96899999999997
 21
255.4222289999999
 31
0.0
  0
ARC
  5
A2C3
330
A1F0
100
AcDbEntity
  8
1
  6
Continuous
100
AcDbCircle
 10
61.81899999999998
 20
540.234729
 30
0.0
 40
282.4624999999999
100
AcDbArc
 50
266.965172
 51
273.034828
  0
ARC
  5
A2C4
330
A1F0
100
AcDbEntity
  8
1
  6
Continuous
100
AcDbCircle
 10
46.71899999999999
 20
255.4222289999999
 30
0.0
 40
2.75
100
AcDbArc
 50
86.96517199999998
 51
180.0
  0
ARC
  5
A2C5
330
A1F0
100
AcDbEntity
  8
1
  6
Continuous
100
AcDbCircle
 10
195.136928
 20
217.710116
 30
0.0
 40
17.0
100
AcDbArc
 50
22.593125
 51
59.69656099999999
  0
ARC
  5
A2C6
330
A1F0
100
AcDbEntity
  8
1
  6
Continuous
100
AcDbCircle
 10
195.136928
 20
217.710116
 30
0.0
 40
17.0
100
AcDbArc
 50
171.459549
 51
351.7504699999999
  0
ARC
  5
A2C7
330
A1F0
100
AcDbEntity
  8
1
  6
Continuous
100
AcDbCircle
 10
195.136928
 20
217.710116
 30
0.0
 40
28.019984
100
AcDbArc
 50
167.894809
 51
58.46702
  0
ARC
  5
A2C8
330
A1F0
100
AcDbEntity
  8
1
  6
Continuous
100
AcDbCircle
 10
195.136928
 20
217.710116
 30
0.0
 40
15.413057
100
AcDbArc
 50
174.574364
 51
346.0583649999999
  0
LINE
  5
A2C9
330
A1F0
100
AcDbEntity
  8
1
  6
Continuous
100
AcDbLine
 10
220.522335
 20
260.8066539999999
 30
0.0
 11
219.1369279999999
 21
262.1920609999999
 31
0.0
  0
LINE
  5
A2CA
330
A1F0
100
AcDbEntity
  8
1
  6
Continuous
100
AcDbLine
 10
219.1127649999998
 20
260.802011
 30
0.0
 11
217.7227149999999
 21
262.1920609999999
 31
0.0
  0
LINE
  5
A2CB
330
A1F0
100
AcDbEntity
  8
1
  6
Continuous
100
AcDbLine
 10
217.7031939999999
 20
260.797367
 30
0.0
 11
216.3085009999999
 21
262.1920609999999
 31
0.0
  0
LINE
  5
A2CC
330
A1F0
100
AcDbEntity
  8
1
  6
Continuous
100
AcDbLine
 10
216.293624
 20
260.792724
 30
0.0
 11
214.8942879999999
 21
262.1920609999999
 31
0.0
  0
LINE
  5
A2CD
330
A1F0
100
AcDbEntity
  8
1
  6
Continuous
100
AcDbLine
 10
214.884054
 20
260.7880799999999
 30
0.0
 11
213.480074
 21
262.1920609999999
 31
0.0
  0
LINE
  5
A2CE
330
A1F0
100
AcDbEntity
  8
1
  6
Continuous
100
AcDbLine
 10
213.4744839999999
 20
260.7834369999998
 30
0.0
 11
212.0658609999999
 21
262.1920609999999
 31
0.0
  0
LINE
  5
A2CF
330
A1F0
100
AcDbEntity
  8
1
  6
Continuous
100
AcDbLine
 10
212.0649139999999
 20
260.778794
 30
0.0
 11
210.651647
 21
262.1920609999999
 31
0.0
  0
LINE
  5
A2D0
330
A1F0
100
AcDbEntity
  8
1
  6
Continuous
100
AcDbLine
 10
210.6553439999999
 20
260.77415
 30
0.0
 11
209.237434
 21
262.1920609999999
 31
0.0
  0
LINE
  5
A2D1
330
A1F0
100
AcDbEntity
  8
1
  6
Continuous
100
AcDbLine
 10
209.2457739999999
 20
260.7695069999999
 30
0.0
 11
207.8232199999999
 21
262.1920609999999
 31
0.0
  0
LINE
  5
A2D2
330
A1F0
100
AcDbEntity
  8
1
  6
Continuous
100
AcDbLine
 10
207.836204
 20
260.7648629999999
 30
0.0
 11
206.409006
 21
262.1920609999999
 31
0.0
  0
LINE
  5
A2D3
330
A1F0
100
AcDbEntity
  8
1
  6
Continuous
100
AcDbLine
 10
206.426634
 20
260.76022
 30
0.0
 11
204.994793
 21
262.1920609999999
 31
0.0
  0
LINE
  5
A2D4
330
A1F0
100
AcDbEntity
  8
1
  6
Continuous
100
AcDbLine
 10
205.0170639999998
 20
260.7555759999999
 30
0.0
 11
203.5805789999999
 21
262.1920609999999
 31
0.0
  0
LINE
  5
A2D5
330
A1F0
100
AcDbEntity
  8
1
  6
Continuous
100
AcDbLine
 10
203.607494
 20
260.7509329999999
 30
0.0
 11
202.1663659999999
 21
262.1920609999999
 31
0.0
  0
LINE
  5
A2D6
330
A1F0
100
AcDbEntity
  8
1
  6
Continuous
100
AcDbLine
 10
202.1979239999998
 20
260.7462889999998
 30
0.0
 11
200.752152
 21
262.1920609999999
 31
0.0
  0
LINE
  5
A2D7
330
A1F0
100
AcDbEntity
  8
1
  6
Continuous
100
AcDbLine
 10
200.7883539999999
 20
260.741646
 30
0.0
 11
199.3379389999999
 21
262.1920609999999
 31
0.0
  0
LINE
  5
A2D8
330
A1F0
100
AcDbEntity
  8
1
  6
Continuous
100
AcDbLine
 10
199.378783
 20
260.737002
 30
0.0
 11
197.9237249999999
 21
262.1920609999999
 31
0.0
  0
LINE
  5
A2D9
330
A1F0
100
AcDbEntity
  8
1
  6
Continuous
100
AcDbLine
 10
197.969213
 20
260.7323589999999
 30
0.0
 11
196.509511
 21
262.1920609999999
 31
0.0
  0
LINE
  5
A2DA
330
A1F0
100
AcDbEntity
  8
1
  6
Continuous
100
AcDbLine
 10
196.5596429999999
 20
260.7277149999998
 30
0.0
 11
196.136928
 21
261.1504299999999
 31
0.0
  0
LINE
  5
A2DB
330
A1F0
100
AcDbEntity
  8
1
  6
Continuous
100
AcDbLine
 10
221.9319049999998
 20
260.811298
 30
0.0
 11
220.551142
 21
262.1920609999999
 31
0.0
  0
LINE
  5
A2DC
330
A1F0
100
AcDbEntity
  8
1
  6
Continuous
100
AcDbLine
 10
223.341475
 20
260.815941
 30
0.0
 11
221.965356
 21
262.1920609999999
 31
0.0
  0
LINE
  5
A2DD
330
A1F0
100
AcDbEntity
  8
1
  6
Continuous
100
AcDbLine
 10
224.751045
 20
260.820585
 30
0.0
 11
223.379569
 21
262.1920609999999
 31
0.0
  0
LINE
  5
A2DE
330
A1F0
100
AcDbEntity
  8
1
  6
Continuous
100
AcDbLine
 10
226.1606149999999
 20
260.8252279999999
 30
0.0
 11
224.793783
 21
262.1920609999999
 31
0.0
  0
LINE
  5
A2DF
330
A1F0
100
AcDbEntity
  8
1
  6
Continuous
100
AcDbLine
 10
227.570185
 20
260.829872
 30
0.0
 11
226.207996
 21
262.1920609999999
 31
0.0
  0
LINE
  5
A2E0
330
A1F0
100
AcDbEntity
  8
1
  6
Continuous
100
AcDbLine
 10
228.9797549999999
 20
260.834515
 30
0.0
 11
227.62221
 21
262.1920609999999
 31
0.0
  0
LINE
  5
A2E1
330
A1F0
100
AcDbEntity
  8
1
  6
Continuous
100
AcDbLine
 10
230.389325
 20
260.839159
 30
0.0
 11
229.0364229999999
 21
262.1920609999999
 31
0.0
  0
LINE
  5
A2E2
330
A1F0
100
AcDbEntity
  8
1
  6
Continuous
100
AcDbLine
 10
231.7988949999999
 20
260.8438019999999
 30
0.0
 11
230.4506369999999
 21
262.1920609999999
 31
0.0
  0
LINE
  5
A2E3
330
A1F0
100
AcDbEntity
  8
1
  6
Continuous
100
AcDbLine
 10
233.208465
 20
260.848446
 30
0.0
 11
231.864851
 21
262.1920609999999
 31
0.0
  0
LINE
  5
A2E4
330
A1F0
100
AcDbEntity
  8
1
  6
Continuous
100
AcDbLine
 10
234.618035
 20
260.853089
 30
0.0
 11
233.279064
 21
262.1920609999999
 31
0.0
  0
LINE
  5
A2E5
330
A1F0
100
AcDbEntity
  8
1
  6
Continuous
100
AcDbLine
 10
236.0276049999999
 20
260.857733
 30
0.0
 11
234.6932779999999
 21
262.1920609999999
 31
0.0
  0
LINE
  5
A2E6
330
A1F0
100
AcDbEntity
  8
1
  6
Continuous
100
AcDbLine
 10
237.4371759999999
 20
260.8623759999999
 30
0.0
 11
236.107491
 21
262.1920609999999
 31
0.0
  0
LINE
  5
A2E7
330
A1F0
100
AcDbEntity
  8
1
  6
Continuous
100
AcDbLine
 10
238.846746
 20
260.86702
 30
0.0
 11
237.5217049999999
 21
262.1920609999999
 31
0.0
  0
LINE
  5
A2E8
330
A1F0
100
AcDbEntity
  8
1
  6
Continuous
100
AcDbLine
 10
240.256316
 20
260.8716629999999
 30
0.0
 11
238.935918
 21
262.1920609999999
 31
0.0
  0
LINE
  5
A2E9
330
A1F0
100
AcDbEntity
  8
1
  6
Continuous
100
AcDbLine
 10
241.665886
 20
260.876307
 30
0.0
 11
240.3501319999998
 21
262.1920609999999
 31
0.0
  0
LINE
  5
A2EA
330
A1F0
100
AcDbEntity
  8
1
  6
Continuous
100
AcDbLine
 10
242.1369279999999
 20
261.819478
 30
0.0
 11
241.7643449999999
 21
262.1920609999999
 31
0.0
  0
LINE
  5
A2EB
330
A1F0
100
AcDbEntity
  8
1
  6
Continuous
100
AcDbLine
 10
217.742364
 20
260.797496
 30
0.0
 11
219.1369279999999
 21
262.1920609999999
 31
0.0
  0
LINE
  5
A2EC
330
A1F0
100
AcDbEntity
  8
1
  6
Continuous
100
AcDbLine
 10
216.3234769999998
 20
260.792822
 30
0.0
 11
217.7227149999999
 21
262.1920609999999
 31
0.0
  0
LINE
  5
A2ED
330
A1F0
100
AcDbEntity
  8
1
  6
Continuous
100
AcDbLine
 10
214.904589
 20
260.7881479999999
 30
0.0
 11
216.3085009999999
 21
262.1920609999999
 31
0.0
  0
LINE
  5
A2EE
330
A1F0
100
AcDbEntity
  8
1
  6
Continuous
100
AcDbLine
 10
213.4857009999998
 20
260.783474
 30
0.0
 11
214.8942879999999
 21
262.1920609999999
 31
0.0
  0
LINE
  5
A2EF
330
A1F0
100
AcDbEntity
  8
1
  6
Continuous
100
AcDbLine
 10
212.0668129999998
 20
260.7787999999998
 30
0.0
 11
213.480074
 21
262.1920609999999
 31
0.0
  0
LINE
  5
A2F0
330
A1F0
100
AcDbEntity
  8
1
  6
Continuous
100
AcDbLine
 10
210.6479259999999
 20
260.7741259999999
 30
0.0
 11
212.0658609999999
 21
262.1920609999999
 31
0.0
  0
LINE
  5
A2F1
330
A1F0
100
AcDbEntity
  8
1
  6
Continuous
100
AcDbLine
 10
209.229038
 20
260.7694509999999
 30
0.0
 11
210.651647
 21
262.1920609999999
 31
0.0
  0
LINE
  5
A2F2
330
A1F0
100
AcDbEntity
  8
1
  6
Continuous
100
AcDbLine
 10
207.8101499999999
 20
260.7647769999999
 30
0.0
 11
209.237434
 21
262.1920609999999
 31
0.0
  0
LINE
  5
A2F3
330
A1F0
100
AcDbEntity
  8
1
  6
Continuous
100
AcDbLine
 10
206.3912619999999
 20
260.7601029999999
 30
0.0
 11
207.8232199999999
 21
262.1920609999999
 31
0.0
  0
LINE
  5
A2F4
330
A1F0
100
AcDbEntity
  8
1
  6
Continuous
100
AcDbLine
 10
204.972375
 20
260.7554289999999
 30
0.0
 11
206.409006
 21
262.1920609999999
 31
0.0
  0
LINE
  5
A2F5
330
A1F0
100
AcDbEntity
  8
1
  6
Continuous
100
AcDbLine
 10
203.5534869999999
 20
260.7507549999999
 30
0.0
 11
204.994793
 21
262.1920609999999
 31
0.0
  0
LINE
  5
A2F6
330
A1F0
100
AcDbEntity
  8
1
  6
Continuous
100
AcDbLine
 10
202.1345989999999
 20
260.74608
 30
0.0
 11
203.5805789999999
 21
262.1920609999999
 31
0.0
  0
LINE
  5
A2F7
330
A1F0
100
AcDbEntity
  8
1
  6
Continuous
100
AcDbLine
 10
200.715711
 20
260.7414059999999
 30
0.0
 11
202.1663659999999
 21
262.1920609999999
 31
0.0
  0
LINE
  5
A2F8
330
A1F0
100
AcDbEntity
  8
1
  6
Continuous
100
AcDbLine
 10
199.2968239999999
 20
260.7367319999998
 30
0.0
 11
200.752152
 21
262.1920609999999
 31
0.0
  0
LINE
  5
A2F9
330
A1F0
100
AcDbEntity
  8
1
  6
Continuous
100
AcDbLine
 10
197.877936
 20
260.732058
 30
0.0
 11
199.3379389999999
 21
262.1920609999999
 31
0.0
  0
LINE
  5
A2FA
330
A1F0
100
AcDbEntity
  8
1
  6
Continuous
100
AcDbLine
 10
196.459048
 20
260.7273839999999
 30
0.0
 11
197.9237249999999
 21
262.1920609999999
 31
0.0
  0
LINE
  5
A2FB
330
A1F0
100
AcDbEntity
  8
1
  6
Continuous
100
AcDbLine
 10
196.136928
 20
261.819478
 30
0.0
 11
196.509511
 21
262.1920609999999
 31
0.0
  0
LINE
  5
A2FC
330
A1F0
100
AcDbEntity
  8
1
  6
Continuous
100
AcDbLine
 10
219.161252
 20
260.802171
 30
0.0
 11
220.551142
 21
262.1920609999999
 31
0.0
  0
LINE
  5
A2FD
330
A1F0
100
AcDbEntity
  8
1
  6
Continuous
100
AcDbLine
 10
220.5801399999999
 20
260.806845
 30
0.0
 11
221.965356
 21
262.1920609999999
 31
0.0
  0
LINE
  5
A2FE
330
A1F0
100
AcDbEntity
  8
1
  6
Continuous
100
AcDbLine
 10
221.9990279999999
 20
260.8115189999999
 30
0.0
 11
223.379569
 21
262.1920609999999
 31
0.0
  0
LINE
  5
A2FF
330
A1F0
100
AcDbEntity
  8
1
  6
Continuous
100
AcDbLine
 10
223.417915
 20
260.816193
 30
0.0
 11
224.793783
 21
262.1920609999999
 31
0.0
  0
LINE
  5
A300
330
A1F0
100
AcDbEntity
  8
1
  6
Continuous
100
AcDbLine
 10
224.8368029999999
 20
260.8208669999999
 30
0.0
 11
226.207996
 21
262.1920609999999
 31
0.0
  0
LINE
  5
A301
330
A1F0
100
AcDbEntity
  8
1
  6
Continuous
100
AcDbLine
 10
226.255691
 20
260.8255419999999
 30
0.0
 11
227.62221
 21
262.1920609999999
 31
0.0
  0
LINE
  5
A302
330
A1F0
100
AcDbEntity
  8
1
  6
Continuous
100
AcDbLine
 10
227.674579
 20
260.830216
 30
0.0
 11
229.0364229999999
 21
262.1920609999999
 31
0.0
  0
LINE
  5
A303
330
A1F0
100
AcDbEntity
  8
1
  6
Continuous
100
AcDbLine
 10
229.093466
 20
260.8348899999999
 30
0.0
 11
230.4506369999999
 21
262.1920609999999
 31
0.0
  0
LINE
  5
A304
330
A1F0
100
AcDbEntity
  8
1
  6
Continuous
100
AcDbLine
 10
230.5123539999999
 20
260.8395639999999
 30
0.0
 11
231.864851
 21
262.1920609999999
 31
0.0
  0
LINE
  5
A305
330
A1F0
100
AcDbEntity
  8
1
  6
Continuous
100
AcDbLine
 10
231.931242
 20
260.8442379999999
 30
0.0
 11
233.279064
 21
262.1920609999999
 31
0.0
  0
LINE
  5
A306
330
A1F0
100
AcDbEntity
  8
1
  6
Continuous
100
AcDbLine
 10
233.35013
 20
260.8489119999999
 30
0.0
 11
234.6932779999999
 21
262.1920609999999
 31
0.0
  0
LINE
  5
A307
330
A1F0
100
AcDbEntity
  8
1
  6
Continuous
100
AcDbLine
 10
234.7690169999999
 20
260.853587
 30
0.0
 11
236.107491
 21
262.1920609999999
 31
0.0
  0
LINE
  5
A308
330
A1F0
100
AcDbEntity
  8
1
  6
Continuous
100
AcDbLine
 10
236.1879049999998
 20
260.8582609999999
 30
0.0
 11
237.5217049999999
 21
262.1920609999999
 31
0.0
  0
LINE
  5
A309
330
A1F0
100
AcDbEntity
  8
1
  6
Continuous
100
AcDbLine
 10
237.606793
 20
260.862935
 30
0.0
 11
238.935918
 21
262.1920609999999
 31
0.0
  0
LINE
  5
A30A
330
A1F0
100
AcDbEntity
  8
1
  6
Continuous
100
AcDbLine
 10
239.0256809999999
 20
260.8676089999999
 30
0.0
 11
240.3501319999998
 21
262.1920609999999
 31
0.0
  0
LINE
  5
A30B
330
A1F0
100
AcDbEntity
  8
1
  6
Continuous
100
AcDbLine
 10
240.444568
 20
260.872283
 30
0.0
 11
241.7643449999999
 21
262.1920609999999
 31
0.0
  0
LINE
  5
A30C
330
A1F0
100
AcDbEntity
  8
1
  6
Continuous
100
AcDbLine
 10
242.1369279999999
 20
261.1504299999999
 30
0.0
 11
241.863456
 21
260.876958
 31
0.0
  0
LINE
  5
A30D
330
A1F0
100
AcDbEntity
  8
1
  6
Continuous
100
AcDbLine
 10
63.13884399999999
 20
260.872229
 30
0.0
 11
61.81899999999998
 21
262.1920719999998
 31
0.0
  0
LINE
  5
A30E
330
A1F0
100
AcDbEntity
  8
1
  6
Continuous
100
AcDbLine
 10
61.72463
 20
260.872229
 30
0.0
 11
60.404787
 21
262.1920719999998
 31
0.0
  0
LINE
  5
A30F
330
A1F0
100
AcDbEntity
  8
1
  6
Continuous
100
AcDbLine
 10
60.310417
 20
260.872229
 30
0.0
 11
58.99057299999999
 21
262.1920719999998
 31
0.0
  0
LINE
  5
A310
330
A1F0
100
AcDbEntity
  8
1
  6
Continuous
100
AcDbLine
 10
58.896203
 20
260.872229
 30
0.0
 11
57.576359
 21
262.1920719999998
 31
0.0
  0
LINE
  5
A311
330
A1F0
100
AcDbEntity
  8
1
  6
Continuous
100
AcDbLine
 10
57.481989
 20
260.872229
 30
0.0
 11
56.16214599999999
 21
262.1920719999998
 31
0.0
  0
LINE
  5
A312
330
A1F0
100
AcDbEntity
  8
1
  6
Continuous
100
AcDbLine
 10
56.067776
 20
260.872229
 30
0.0
 11
54.74793199999999
 21
262.1920719999998
 31
0.0
  0
LINE
  5
A313
330
A1F0
100
AcDbEntity
  8
1
  6
Continuous
100
AcDbLine
 10
54.653562
 20
260.872229
 30
0.0
 11
53.33371899999999
 21
262.1920719999998
 31
0.0
  0
LINE
  5
A314
330
A1F0
100
AcDbEntity
  8
1
  6
Continuous
100
AcDbLine
 10
53.239349
 20
260.872229
 30
0.0
 11
51.919505
 21
262.1920719999998
 31
0.0
  0
LINE
  5
A315
330
A1F0
100
AcDbEntity
  8
1
  6
Continuous
100
AcDbLine
 10
51.82513499999998
 20
260.872229
 30
0.0
 11
50.50529199999999
 21
262.1920719999998
 31
0.0
  0
LINE
  5
A316
330
A1F0
100
AcDbEntity
  8
1
  6
Continuous
100
AcDbLine
 10
50.410922
 20
260.872229
 30
0.0
 11
49.09107800000001
 21
262.1920719999998
 31
0.0
  0
LINE
  5
A317
330
A1F0
100
AcDbEntity
  8
1
  6
Continuous
100
AcDbLine
 10
48.99670799999999
 20
260.872229
 30
0.0
 11
47.676864
 21
262.1920719999998
 31
0.0
  0
LINE
  5
A318
330
A1F0
100
AcDbEntity
  8
1
  6
Continuous
100
AcDbLine
 10
47.582495
 20
260.872229
 30
0.0
 11
46.262651
 21
262.1920719999998
 31
0.0
  0
LINE
  5
A319
330
A1F0
100
AcDbEntity
  8
1
  6
Continuous
100
AcDbLine
 10
46.168281
 20
260.872229
 30
0.0
 11
44.84843699999998
 21
262.1920719999998
 31
0.0
  0
LINE
  5
A31A
330
A1F0
100
AcDbEntity
  8
1
  6
Continuous
100
AcDbLine
 10
44.75406699999999
 20
260.872229
 30
0.0
 11
43.434224
 21
262.1920719999998
 31
0.0
  0
LINE
  5
A31B
330
A1F0
100
AcDbEntity
  8
1
  6
Continuous
100
AcDbLine
 10
43.33985399999998
 20
260.872229
 30
0.0
 11
42.02001
 21
262.1920719999998
 31
0.0
  0
LINE
  5
A31C
330
A1F0
100
AcDbEntity
  8
1
  6
Continuous
100
AcDbLine
 10
41.92563999999999
 20
260.872229
 30
0.0
 11
40.60579699999999
 21
262.1920719999998
 31
0.0
  0
LINE
  5
A31D
330
A1F0
100
AcDbEntity
  8
1
  6
Continuous
100
AcDbLine
 10
40.51142699999998
 20
260.872229
 30
0.0
 11
39.191583
 21
262.1920719999998
 31
0.0
  0
LINE
  5
A31E
330
A1F0
100
AcDbEntity
  8
1
  6
Continuous
100
AcDbLine
 10
38.819
 20
261.150442
 30
0.0
 11
39.09721300000001
 21
260.872229
 31
0.0
  0
LINE
  5
A31F
330
A1F0
100
AcDbEntity
  8
1
  6
Continuous
100
AcDbLine
 10
64.553057
 20
260.872229
 30
0.0
 11
63.23321400000001
 21
262.1920719999998
 31
0.0
  0
LINE
  5
A320
330
A1F0
100
AcDbEntity
  8
1
  6
Continuous
100
AcDbLine
 10
65.96727099999999
 20
260.872229
 30
0.0
 11
64.64742700000001
 21
262.1920719999998
 31
0.0
  0
LINE
  5
A321
330
A1F0
100
AcDbEntity
  8
1
  6
Continuous
100
AcDbLine
 10
67.381484
 20
260.872229
 30
0.0
 11
66.06164099999999
 21
262.1920719999998
 31
0.0
  0
LINE
  5
A322
330
A1F0
100
AcDbEntity
  8
1
  6
Continuous
100
AcDbLine
 10
68.795698
 20
260.872229
 30
0.0
 11
67.475854
 21
262.1920719999998
 31
0.0
  0
LINE
  5
A323
330
A1F0
100
AcDbEntity
  8
1
  6
Continuous
100
AcDbLine
 10
70.209912
 20
260.872229
 30
0.0
 11
68.890068
 21
262.1920719999998
 31
0.0
  0
LINE
  5
A324
330
A1F0
100
AcDbEntity
  8
1
  6
Continuous
100
AcDbLine
 10
71.62412500000002
 20
260.872229
 30
0.0
 11
70.304281
 21
262.1920719999998
 31
0.0
  0
LINE
  5
A325
330
A1F0
100
AcDbEntity
  8
1
  6
Continuous
100
AcDbLine
 10
73.03833899999998
 20
260.872229
 30
0.0
 11
71.71849499999997
 21
262.1920719999998
 31
0.0
  0
LINE
  5
A326
330
A1F0
100
AcDbEntity
  8
1
  6
Continuous
100
AcDbLine
 10
74.45255199999998
 20
260.872229
 30
0.0
 11
73.13270899999998
 21
262.1920719999998
 31
0.0
  0
LINE
  5
A327
330
A1F0
100
AcDbEntity
  8
1
  6
Continuous
100
AcDbLine
 10
75.866766
 20
260.872229
 30
0.0
 11
74.54692199999998
 21
262.1920719999998
 31
0.0
  0
LINE
  5
A328
330
A1F0
100
AcDbEntity
  8
1
  6
Continuous
100
AcDbLine
 10
77.280979
 20
260.872229
 30
0.0
 11
75.96113599999998
 21
262.1920719999998
 31
0.0
  0
LINE
  5
A329
330
A1F0
100
AcDbEntity
  8
1
  6
Continuous
100
AcDbLine
 10
78.695193
 20
260.872229
 30
0.0
 11
77.37534899999999
 21
262.1920719999998
 31
0.0
  0
LINE
  5
A32A
330
A1F0
100
AcDbEntity
  8
1
  6
Continuous
100
AcDbLine
 10
80.10940600000003
 20
260.872229
 30
0.0
 11
78.789563
 21
262.1920719999998
 31
0.0
  0
LINE
  5
A32B
330
A1F0
100
AcDbEntity
  8
1
  6
Continuous
100
AcDbLine
 10
81.52361999999998
 20
260.872229
 30
0.0
 11
80.20377600000001
 21
262.1920719999998
 31
0.0
  0
LINE
  5
A32C
330
A1F0
100
AcDbEntity
  8
1
  6
Continuous
100
AcDbLine
 10
82.93783399999998
 20
260.872229
 30
0.0
 11
81.61799
 21
262.1920719999998
 31
0.0
  0
LINE
  5
A32D
330
A1F0
100
AcDbEntity
  8
1
  6
Continuous
100
AcDbLine
 10
84.35204699999998
 20
260.872229
 30
0.0
 11
83.03220399999998
 21
262.1920719999998
 31
0.0
  0
LINE
  5
A32E
330
A1F0
100
AcDbEntity
  8
1
  6
Continuous
100
AcDbLine
 10
84.81900000000001
 20
261.8194889999999
 30
0.0
 11
84.44641700000003
 21
262.1920719999998
 31
0.0
  0
LINE
  5
A32F
330
A1F0
100
AcDbEntity
  8
1
  6
Continuous
100
AcDbLine
 10
60.49915600000001
 20
260.872229
 30
0.0
 11
61.81899999999998
 21
262.1920719999998
 31
0.0
  0
LINE
  5
A330
330
A1F0
100
AcDbEntity
  8
1
  6
Continuous
100
AcDbLine
 10
61.91336999999999
 20
260.872229
 30
0.0
 11
63.23321400000001
 21
262.1920719999998
 31
0.0
  0
LINE
  5
A331
330
A1F0
100
AcDbEntity
  8
1
  6
Continuous
100
AcDbLine
 10
63.32758399999999
 20
260.872229
 30
0.0
 11
64.64742700000001
 21
262.1920719999998
 31
0.0
  0
LINE
  5
A332
330
A1F0
100
AcDbEntity
  8
1
  6
Continuous
100
AcDbLine
 10
64.74179699999999
 20
260.872229
 30
0.0
 11
66.06164099999999
 21
262.1920719999998
 31
0.0
  0
LINE
  5
A333
330
A1F0
100
AcDbEntity
  8
1
  6
Continuous
100
AcDbLine
 10
66.15601099999999
 20
260.872229
 30
0.0
 11
67.475854
 21
262.1920719999998
 31
0.0
  0
LINE
  5
A334
330
A1F0
100
AcDbEntity
  8
1
  6
Continuous
100
AcDbLine
 10
67.570224
 20
260.872229
 30
0.0
 11
68.890068
 21
262.1920719999998
 31
0.0
  0
LINE
  5
A335
330
A1F0
100
AcDbEntity
  8
1
  6
Continuous
100
AcDbLine
 10
68.98443799999999
 20
260.872229
 30
0.0
 11
70.304281
 21
262.1920719999998
 31
0.0
  0
LINE
  5
A336
330
A1F0
100
AcDbEntity
  8
1
  6
Continuous
100
AcDbLine
 10
70.398651
 20
260.872229
 30
0.0
 11
71.71849499999997
 21
262.1920719999998
 31
0.0
  0
LINE
  5
A337
330
A1F0
100
AcDbEntity
  8
1
  6
Continuous
100
AcDbLine
 10
71.812865
 20
260.872229
 30
0.0
 11
73.13270899999998
 21
262.1920719999998
 31
0.0
  0
LINE
  5
A338
330
A1F0
100
AcDbEntity
  8
1
  6
Continuous
100
AcDbLine
 10
73.227078
 20
260.872229
 30
0.0
 11
74.54692199999998
 21
262.1920719999998
 31
0.0
  0
LINE
  5
A339
330
A1F0
100
AcDbEntity
  8
1
  6
Continuous
100
AcDbLine
 10
74.64129200000002
 20
260.872229
 30
0.0
 11
75.96113599999998
 21
262.1920719999998
 31
0.0
  0
LINE
  5
A33A
330
A1F0
100
AcDbEntity
  8
1
  6
Continuous
100
AcDbLine
 10
76.05550599999998
 20
260.872229
 30
0.0
 11
77.37534899999999
 21
262.1920719999998
 31
0.0
  0
LINE
  5
A33B
330
A1F0
100
AcDbEntity
  8
1
  6
Continuous
100
AcDbLine
 10
77.469719
 20
260.872229
 30
0.0
 11
78.789563
 21
262.1920719999998
 31
0.0
  0
LINE
  5
A33C
330
A1F0
100
AcDbEntity
  8
1
  6
Continuous
100
AcDbLine
 10
78.883933
 20
260.872229
 30
0.0
 11
80.20377600000001
 21
262.1920719999998
 31
0.0
  0
LINE
  5
A33D
330
A1F0
100
AcDbEntity
  8
1
  6
Continuous
100
AcDbLine
 10
80.29814599999998
 20
260.872229
 30
0.0
 11
81.61799
 21
262.1920719999998
 31
0.0
  0
LINE
  5
A33E
330
A1F0
100
AcDbEntity
  8
1
  6
Continuous
100
AcDbLine
 10
81.71236
 20
260.872229
 30
0.0
 11
83.03220399999998
 21
262.1920719999998
 31
0.0
  0
LINE
  5
A33F
330
A1F0
100
AcDbEntity
  8
1
  6
Continuous
100
AcDbLine
 10
83.12657299999996
 20
260.872229
 30
0.0
 11
84.44641700000003
 21
262.1920719999998
 31
0.0
  0
LINE
  5
A340
330
A1F0
100
AcDbEntity
  8
1
  6
Continuous
100
AcDbLine
 10
84.54078699999998
 20
260.872229
 30
0.0
 11
84.81900000000001
 21
261.150442
 31
0.0
  0
LINE
  5
A341
330
A1F0
100
AcDbEntity
  8
1
  6
Continuous
100
AcDbLine
 10
59.084943
 20
260.872229
 30
0.0
 11
60.404787
 21
262.1920719999998
 31
0.0
  0
LINE
  5
A342
330
A1F0
100
AcDbEntity
  8
1
  6
Continuous
100
AcDbLine
 10
57.670729
 20
260.872229
 30
0.0
 11
58.99057299999999
 21
262.1920719999998
 31
0.0
  0
LINE
  5
A343
330
A1F0
100
AcDbEntity
  8
1
  6
Continuous
100
AcDbLine
 10
56.25651600000001
 20
260.872229
 30
0.0
 11
57.576359
 21
262.1920719999998
 31
0.0
  0
LINE
  5
A344
330
A1F0
100
AcDbEntity
  8
1
  6
Continuous
100
AcDbLine
 10
54.84230199999998
 20
260.872229
 30
0.0
 11
56.16214599999999
 21
262.1920719999998
 31
0.0
  0
LINE
  5
A345
330
A1F0
100
AcDbEntity
  8
1
  6
Continuous
100
AcDbLine
 10
53.428089
 20
260.872229
 30
0.0
 11
54.74793199999999
 21
262.1920719999998
 31
0.0
  0
LINE
  5
A346
330
A1F0
100
AcDbEntity
  8
1
  6
Continuous
100
AcDbLine
 10
52.013875
 20
260.872229
 30
0.0
 11
53.33371899999999
 21
262.1920719999998
 31
0.0
  0
LINE
  5
A347
330
A1F0
100
AcDbEntity
  8
1
  6
Continuous
100
AcDbLine
 10
50.599661
 20
260.872229
 30
0.0
 11
51.919505
 21
262.1920719999998
 31
0.0
  0
LINE
  5
A348
330
A1F0
100
AcDbEntity
  8
1
  6
Continuous
100
AcDbLine
 10
49.185448
 20
260.872229
 30
0.0
 11
50.50529199999999
 21
262.1920719999998
 31
0.0
  0
LINE
  5
A349
330
A1F0
100
AcDbEntity
  8
1
  6
Continuous
100
AcDbLine
 10
47.77123399999999
 20
260.872229
 30
0.0
 11
49.09107800000001
 21
262.1920719999998
 31
0.0
  0
LINE
  5
A34A
330
A1F0
100
AcDbEntity
  8
1
  6
Continuous
100
AcDbLine
 10
46.357021
 20
260.872229
 30
0.0
 11
47.676864
 21
262.1920719999998
 31
0.0
  0
LINE
  5
A34B
330
A1F0
100
AcDbEntity
  8
1
  6
Continuous
100
AcDbLine
 10
44.942807
 20
260.872229
 30
0.0
 11
46.262651
 21
262.1920719999998
 31
0.0
  0
LINE
  5
A34C
330
A1F0
100
AcDbEntity
  8
1
  6
Continuous
100
AcDbLine
 10
43.52859399999998
 20
260.872229
 30
0.0
 11
44.84843699999998
 21
262.1920719999998
 31
0.0
  0
LINE
  5
A34D
330
A1F0
100
AcDbEntity
  8
1
  6
Continuous
100
AcDbLine
 10
42.11438
 20
260.872229
 30
0.0
 11
43.434224
 21
262.1920719999998
 31
0.0
  0
LINE
  5
A34E
330
A1F0
100
AcDbEntity
  8
1
  6
Continuous
100
AcDbLine
 10
40.700167
 20
260.872229
 30
0.0
 11
42.02001
 21
262.1920719999998
 31
0.0
  0
LINE
  5
A34F
330
A1F0
100
AcDbEntity
  8
1
  6
Continuous
100
AcDbLine
 10
39.28595299999999
 20
260.872229
 30
0.0
 11
40.60579699999999
 21
262.1920719999998
 31
0.0
  0
LINE
  5
A350
330
A1F0
100
AcDbEntity
  8
1
  6
Continuous
100
AcDbLine
 10
38.819
 20
261.8194889999999
 30
0.0
 11
39.191583
 21
262.1920719999998
 31
0.0
  0
LINE
  5
A351
330
A1F0
100
AcDbEntity
  8
4
  6
CENTER
100
AcDbLine
 10
232.6369279999999
 20
217.710116
 30
0.0
 11
157.636928
 21
217.710116
 31
0.0
  0
LINE
  5
A352
330
A1F0
100
AcDbEntity
  8
4
  6
CENTER
100
AcDbLine
 10
257.3697879999999
 20
377.601229
 30
0.0
 11
150.677535
 21
377.601229
 31
0.0
  0
LINE
  5
A353
330
A1F0
100
AcDbEntity
  8
4
  6
CENTER
100
AcDbLine
 10
219.1369279999999
 20
337.175018
 30
0.0
 11
219.1369279999999
 21
418.027439
 31
0.0
  0
LINE
  5
A354
330
A1F0
100
AcDbEntity
  8
4
  6
CENTER
100
AcDbLine
 10
61.81899999999998
 20
180.210116
 30
0.0
 11
61.81899999999998
 21
275.2100899999999
 31
0.0
  0
LINE
  5
A355
330
A1F0
100
AcDbEntity
  8
4
  6
CENTER
100
AcDbLine
 10
36.369
 20
217.710116
 30
0.0
 11
85.26899999999997
 21
217.710116
 31
0.0
  0
CIRCLE
  5
A356
330
A1F0
100
AcDbEntity
  8
4
  6
CENTER
100
AcDbCircle
 10
219.1369279999999
 20
377.601229
 30
0.0
 40
34.0
  0
LINE
  5
A357
330
A1F0
100
AcDbEntity
  8
4
  6
CENTER
100
AcDbLine
 10
232.8869279999999
 20
401.416927
 30
0.0
 11
239.386928
 21
412.6752569999998
 31
0.0
  0
LINE
  5
A358
330
A1F0
100
AcDbEntity
  8
4
  6
CENTER
100
AcDbLine
 10
239.386928
 20
342.5272
 30
0.0
 11
232.8869279999999
 21
353.7855299999998
 31
0.0
  0
LINE
  5
A359
330
A1F0
100
AcDbEntity
  8
4
  6
CENTER
100
AcDbLine
 10
195.136928
 20
180.210116
 30
0.0
 11
195.136928
 21
253.210116
 31
0.0
  0
LINE
  5
A35A
330
A1F0
100
AcDbEntity
  8
4
  6
CENTER
100
AcDbLine
 10
219.1369279999999
 20
275.2100779999998
 30
0.0
 11
219.1369279999999
 21
240.0159879999999
 31
0.0
  0
LINE
  5
A35B
330
A1F0
100
AcDbEntity
  8
4
  6
CENTER
100
AcDbLine
 10
185.136928
 20
273.2100669999999
 30
0.0
 11
185.136928
 21
264.6102729999999
 31
0.0
  0
LINE
  5
A35C
330
A1F0
100
AcDbEntity
  8
4
  6
CENTER
100
AcDbLine
 10
236.1369279999999
 20
273.210084
 30
0.0
 11
236.1369279999999
 21
264.6101339999999
 31
0.0
  0
LINE
  5
A35D
330
A1F0
100
AcDbEntity
  8
4
  6
CENTER
100
AcDbLine
 10
32.374
 20
264.610112
 30
0.0
 11
32.374
 21
273.2101
 31
0.0
  0
LINE
  5
A35E
330
A1F0
100
AcDbEntity
  8
4
  6
CENTER
100
AcDbLine
 10
91.264
 20
264.6102729999999
 30
0.0
 11
91.264
 21
273.2100799999999
 31
0.0
  0
LINE
  5
A35F
330
A1F0
100
AcDbEntity
  8
1
  6
Continuous
100
AcDbLine
 10
327.778323
 20
238.3392289999999
 30
0.0
 11
327.778323
 21
206.8546399999999
 31
0.0
  0
LINE
  5
A360
330
A1F0
100
AcDbEntity
  8
1
  6
Continuous
100
AcDbLine
 10
364.678323
 20
238.3392289999999
 30
0.0
 11
364.678323
 21
206.8546399999999
 31
0.0
  0
LINE
  5
A361
330
A1F0
100
AcDbEntity
  8
4
  6
CENTER
100
AcDbLine
 10
346.228323
 20
180.210116
 30
0.0
 11
346.228323
 21
275.2100899999999
 31
0.0
  0
LINE
  5
A362
330
A1F0
100
AcDbEntity
  8
4
  6
CENTER
100
AcDbLine
 10
371.6783229999998
 20
217.710116
 30
0.0
 11
322.778323
 21
217.710116
 31
0.0
  0
ARC
  5
A363
330
A1F0
100
AcDbEntity
  8
1
  6
Continuous
100
AcDbCircle
 10
346.228323
 20
202.210116
 30
0.0
 40
17.0
100
AcDbArc
 50
228.1896849999998
 51
311.810315
  0
ARC
  5
A364
330
A1F0
100
AcDbEntity
  8
1
  6
Continuous
100
AcDbCircle
 10
346.228323
 20
234.076502
 30
0.0
 40
18.967916
100
AcDbArc
 50
214.2979589999999
 51
215.197567
  0
LINE
  5
A365
330
A1F0
100
AcDbEntity
  8
1
  6
Continuous
100
AcDbLine
 10
357.7283229999999
 20
245.508489
 30
0.0
 11
357.7283229999999
 21
189.911743
 31
0.0
  0
ARC
  5
A366
330
A1F0
100
AcDbEntity
  8
1
  6
Continuous
100
AcDbCircle
 10
357.228323
 20
189.911743
 30
0.0
 40
0.5
100
AcDbArc
 50
311.810315
 51
0.0
  0
ARC
  5
A367
330
A1F0
100
AcDbEntity
  8
1
  6
Continuous
100
AcDbCircle
 10
346.228323
 20
234.076502
 30
0.0
 40
18.967916
100
AcDbArc
 50
324.802433
 51
325.7020409999999
  0
LINE
  5
A368
330
A1F0
100
AcDbEntity
  8
1
  6
Continuous
100
AcDbLine
 10
362.378323
 20
221.710116
 30
0.0
 11
361.7283229999999
 21
221.710116
 31
0.0
  0
LINE
  5
A369
330
A1F0
100
AcDbEntity
  8
1
  6
Continuous
100
AcDbLine
 10
327.778323
 20
222.210116
 30
0.0
 11
327.178323
 21
222.560116
 31
0.0
  0
ARC
  5
A36A
330
A1F0
100
AcDbEntity
  8
1
  6
Continuous
100
AcDbCircle
 10
363.155828
 20
222.5302249999999
 30
0.0
 40
1.522494999999999
100
AcDbArc
 50
120.7090149999998
 51
145.7020409999998
  0
LINE
  5
A36B
330
A1F0
100
AcDbEntity
  8
1
  6
Continuous
100
AcDbLine
 10
360.8154789999999
 20
209.6302529999999
 30
0.0
 11
357.7283229999999
 21
209.360162
 31
0.0
  0
LINE
  5
A36C
330
A1F0
100
AcDbEntity
  8
1
  6
Continuous
100
AcDbLine
 10
362.378323
 20
213.710116
 30
0.0
 11
361.7283229999999
 21
213.710116
 31
0.0
  0
LINE
  5
A36D
330
A1F0
100
AcDbEntity
  8
1
  6
Continuous
100
AcDbLine
 10
327.778323
 20
213.210116
 30
0.0
 11
327.178323
 21
212.860116
 31
0.0
  0
LINE
  5
A36E
330
A1F0
100
AcDbEntity
  8
1
  6
Continuous
100
AcDbLine
 10
362.378323
 20
206.8546399999999
 30
0.0
 11
364.678323
 21
206.8546399999999
 31
0.0
  0
ARC
  5
A36F
330
A1F0
100
AcDbEntity
  8
1
  6
Continuous
100
AcDbCircle
 10
360.728323
 20
210.626448
 30
0.0
 40
1.0
100
AcDbArc
 50
275.0
 51
0.0
  0
LINE
  5
A370
330
A1F0
100
AcDbEntity
  8
1
  6
Continuous
100
AcDbLine
 10
361.7283229999999
 20
224.793784
 30
0.0
 11
361.7283229999999
 21
210.626448
 31
0.0
  0
ARC
  5
A371
330
A1F0
100
AcDbEntity
  8
1
  6
Continuous
100
AcDbCircle
 10
334.8792159999999
 20
217.710116
 30
0.0
 40
9.100892999999999
100
AcDbArc
 50
147.7973949999999
 51
212.2026049999998
  0
LINE
  5
A372
330
A1F0
100
AcDbEntity
  8
1
  6
Continuous
100
AcDbLine
 10
327.178323
 20
212.860116
 30
0.0
 11
327.178323
 21
222.560116
 31
0.0
  0
LINE
  5
A373
330
A1F0
100
AcDbEntity
  8
1
  6
Continuous
100
AcDbLine
 10
362.378323
 20
248.297558
 30
0.0
 11
362.378323
 21
206.8546399999999
 31
0.0
  0
LINE
  5
A374
330
A1F0
100
AcDbEntity
  8
1
  6
Continuous
100
AcDbLine
 10
334.7283229999998
 20
245.508489
 30
0.0
 11
334.7283229999998
 21
189.911743
 31
0.0
  0
ARC
  5
A375
330
A1F0
100
AcDbEntity
  8
1
  6
Continuous
100
AcDbCircle
 10
335.2283229999998
 20
189.911743
 30
0.0
 40
0.5
100
AcDbArc
 50
180.0
 51
228.1896849999998
  0
LINE
  5
A376
330
A1F0
100
AcDbEntity
  8
1
  6
Continuous
100
AcDbLine
 10
366.9639649999999
 20
223.460116
 30
0.0
 11
364.678323
 21
223.460116
 31
0.0
  0
LINE
  5
A377
330
A1F0
100
AcDbEntity
  8
1
  6
Continuous
100
AcDbLine
 10
330.078323
 20
221.710116
 30
0.0
 11
330.7283229999999
 21
221.710116
 31
0.0
  0
ARC
  5
A378
330
A1F0
100
AcDbEntity
  8
1
  6
Continuous
100
AcDbCircle
 10
329.300818
 20
222.5302249999999
 30
0.0
 40
1.522494999999999
100
AcDbArc
 50
34.29795900000001
 51
59.29098500000001
  0
LINE
  5
A379
330
A1F0
100
AcDbEntity
  8
1
  6
Continuous
100
AcDbLine
 10
366.9639649999999
 20
211.960116
 30
0.0
 11
364.678323
 21
211.960116
 31
0.0
  0
LINE
  5
A37A
330
A1F0
100
AcDbEntity
  8
1
  6
Continuous
100
AcDbLine
 10
330.078323
 20
213.710116
 30
0.0
 11
330.7283229999999
 21
213.710116
 31
0.0
  0
LINE
  5
A37B
330
A1F0
100
AcDbEntity
  8
1
  6
Continuous
100
AcDbLine
 10
331.6411669999999
 20
209.6302529999999
 30
0.0
 11
334.7283229999998
 21
209.360162
 31
0.0
  0
LINE
  5
A37C
330
A1F0
100
AcDbEntity
  8
1
  6
Continuous
100
AcDbLine
 10
330.078323
 20
206.8546399999999
 30
0.0
 11
327.778323
 21
206.8546399999999
 31
0.0
  0
ARC
  5
A37D
330
A1F0
100
AcDbEntity
  8
1
  6
Continuous
100
AcDbCircle
 10
331.728323
 20
210.626448
 30
0.0
 40
1.0
100
AcDbArc
 50
180.0
 51
265.0
  0
LINE
  5
A37E
330
A1F0
100
AcDbEntity
  8
1
  6
Continuous
100
AcDbLine
 10
330.7283229999999
 20
224.793784
 30
0.0
 11
330.7283229999999
 21
210.626448
 31
0.0
  0
ARC
  5
A37F
330
A1F0
100
AcDbEntity
  8
1
  6
Continuous
100
AcDbCircle
 10
358.1783229999999
 20
217.710116
 30
0.0
 40
10.5
100
AcDbArc
 50
326.7961769999998
 51
33.203823
  0
LINE
  5
A380
330
A1F0
100
AcDbEntity
  8
1
  6
Continuous
100
AcDbLine
 10
366.9639649999999
 20
223.460116
 30
0.0
 11
366.9639649999999
 21
211.960116
 31
0.0
  0
LINE
  5
A381
330
A1F0
100
AcDbEntity
  8
1
  6
Continuous
100
AcDbLine
 10
330.078323
 20
248.297558
 30
0.0
 11
330.078323
 21
206.8546399999999
 31
0.0
  0
LINE
  5
A382
330
A1F0
100
AcDbEntity
  8
1
  6
Continuous
100
AcDbLine
 10
309.4093229999999
 20
270.210077
 30
0.0
 11
383.0473229999999
 21
270.210103
 31
0.0
  0
LINE
  5
A383
330
A1F0
100
AcDbEntity
  8
1
  6
Continuous
100
AcDbLine
 10
309.4093229999999
 20
267.610293
 30
0.0
 11
383.0473229999999
 21
267.610092
 31
0.0
  0
LINE
  5
A384
330
A1F0
100
AcDbEntity
  8
1
  6
Continuous
100
AcDbLine
 10
372.236672
 20
267.182789
 30
0.0
 11
320.2199739999999
 21
267.182789
 31
0.0
  0
ARC
  5
A385
330
A1F0
100
AcDbEntity
  8
1
  6
Continuous
100
AcDbCircle
 10
367.9783229999999
 20
258.1222289999999
 30
0.0
 40
2.75
100
AcDbArc
 50
0.0
 51
90.0
  0
ARC
  5
A386
330
A1F0
100
AcDbEntity
  8
1
  6
Continuous
100
AcDbCircle
 10
365.3876399999999
 20
275.324663
 30
0.0
 40
10.63951799999999
100
AcDbArc
 50
296.2885769999999
 51
310.0709029999998
  0
LINE
  5
A387
330
A1F0
100
AcDbEntity
  8
1
  6
Continuous
100
AcDbLine
 10
383.0473229999999
 20
270.2100759999999
 30
0.0
 11
383.0473229999999
 21
267.610305
 31
0.0
  0
LINE
  5
A388
330
A1F0
100
AcDbEntity
  8
4
  6
CENTER
100
AcDbLine
 10
375.673323
 20
264.610112
 30
0.0
 11
375.673323
 21
273.2101
 31
0.0
  0
LINE
  5
A389
330
A1F0
100
AcDbEntity
  8
1
  6
Continuous
100
AcDbLine
 10
372.236672
 20
267.182789
 30
0.0
 11
372.276175
 21
267.6101019999999
 31
0.0
  0
LINE
  5
A38A
330
A1F0
100
AcDbEntity
  8
1
  6
Continuous
100
AcDbLine
 10
309.4093229999999
 20
270.2100759999999
 30
0.0
 11
309.4093229999999
 21
267.610305
 31
0.0
  0
LINE
  5
A38B
330
A1F0
100
AcDbEntity
  8
4
  6
CENTER
100
AcDbLine
 10
316.7833229999998
 20
264.6102729999999
 30
0.0
 11
316.7833229999998
 21
273.2100799999999
 31
0.0
  0
LINE
  5
A38C
330
A1F0
100
AcDbEntity
  8
1
  6
Continuous
100
AcDbLine
 10
369.2144739999998
 20
264.177072
 30
0.0
 11
323.242172
 21
264.177072
 31
0.0
  0
LINE
  5
A38D
330
A1F0
100
AcDbEntity
  8
1
  6
Continuous
100
AcDbLine
 10
369.228323
 20
262.1920719999998
 30
0.0
 11
323.228323
 21
262.1920719999998
 31
0.0
  0
LINE
  5
A38E
330
A1F0
100
AcDbEntity
  8
1
  6
Continuous
100
AcDbLine
 10
323.9561299999999
 20
265.4120709999999
 30
0.0
 11
368.500516
 21
265.4120709999999
 31
0.0
  0
LINE
  5
A38F
330
A1F0
100
AcDbEntity
  8
1
  6
Continuous
100
AcDbLine
 10
346.228323
 20
260.872229
 30
0.0
 11
323.228323
 21
260.872229
 31
0.0
  0
LINE
  5
A390
330
A1F0
100
AcDbEntity
  8
1
  6
Continuous
100
AcDbLine
 10
339.2516249999999
 20
260.872229
 30
0.0
 11
340.5714689999999
 21
262.1920719999998
 31
0.0
  0
LINE
  5
A391
330
A1F0
100
AcDbEntity
  8
1
  6
Continuous
100
AcDbLine
 10
340.477099
 20
260.872229
 30
0.0
 11
339.1572549999999
 21
262.1920719999998
 31
0.0
  0
LINE
  5
A392
330
A1F0
100
AcDbEntity
  8
1
  6
Continuous
100
AcDbLine
 10
370.7283229999999
 20
244.681049
 30
0.0
 11
370.7283229999999
 21
258.1222289999999
 31
0.0
  0
LINE
  5
A393
330
A1F0
100
AcDbEntity
  8
1
  6
Continuous
100
AcDbLine
 10
346.228323
 20
260.872229
 30
0.0
 11
369.228323
 21
260.872229
 31
0.0
  0
LINE
  5
A394
330
A1F0
100
AcDbEntity
  8
1
  6
Continuous
100
AcDbLine
 10
354.8079739999999
 20
260.872229
 30
0.0
 11
356.1278179999998
 21
262.1920719999998
 31
0.0
  0
LINE
  5
A395
330
A1F0
100
AcDbEntity
  8
1
  6
Continuous
100
AcDbLine
 10
356.033448
 20
260.872229
 30
0.0
 11
354.7136039999998
 21
262.1920719999998
 31
0.0
  0
ARC
  5
A396
330
A1F0
100
AcDbEntity
  8
1
  6
Continuous
100
AcDbCircle
 10
368.9505029999998
 20
263.257219
 30
0.0
 40
0.9569799999999998
100
AcDbArc
 50
24.04026499999999
 51
73.98808699999998
  0
LINE
  5
A397
330
A1F0
100
AcDbEntity
  8
1
  6
Continuous
100
AcDbLine
 10
368.399474
 20
264.177072
 30
0.0
 11
368.2294739999999
 21
264.537072
 31
0.0
  0
ARC
  5
A398
330
A1F0
100
AcDbEntity
  8
1
  6
Continuous
100
AcDbCircle
 10
365.612992
 20
265.7272999999999
 30
0.0
 40
4.697225
100
AcDbArc
 50
317.4697509999999
 51
333.713305
  0
ARC
  5
A399
330
A1F0
100
AcDbEntity
  8
1
  6
Continuous
100
AcDbCircle
 10
363.410892
 20
260.6260999999999
 30
0.0
 40
6.206
100
AcDbArc
 50
39.064301
 51
50.46037999999999
  0
ARC
  5
A39A
330
A1F0
100
AcDbEntity
  8
1
  6
Continuous
100
AcDbCircle
 10
368.500516
 20
269.023075
 30
0.0
 40
3.611003999999998
100
AcDbArc
 50
270.0
 51
296.2885769999999
  0
LINE
  5
A39B
330
A1F0
100
AcDbEntity
  8
1
  6
Continuous
100
AcDbLine
 10
369.0744739999999
 20
262.552072
 30
0.0
 11
368.944474
 21
262.1920719999998
 31
0.0
  0
LINE
  5
A39C
330
A1F0
100
AcDbEntity
  8
1
  6
Continuous
100
AcDbLine
 10
369.228323
 20
261.8194889999999
 30
0.0
 11
368.8557399999999
 21
262.1920719999998
 31
0.0
  0
LINE
  5
A39D
330
A1F0
100
AcDbEntity
  8
1
  6
Continuous
100
AcDbLine
 10
369.228323
 20
261.150442
 30
0.0
 11
368.95011
 21
260.872229
 31
0.0
  0
LINE
  5
A39E
330
A1F0
100
AcDbEntity
  8
1
  6
Continuous
100
AcDbLine
 10
369.228323
 20
260.872229
 30
0.0
 11
369.228323
 21
262.1920719999998
 31
0.0
  0
LINE
  5
A39F
330
A1F0
100
AcDbEntity
  8
1
  6
Continuous
100
AcDbLine
 10
360.4648279999998
 20
260.872229
 30
0.0
 11
361.784672
 21
262.1920719999998
 31
0.0
  0
LINE
  5
A3A0
330
A1F0
100
AcDbEntity
  8
1
  6
Continuous
100
AcDbLine
 10
361.8790419999998
 20
260.872229
 30
0.0
 11
363.1988859999998
 21
262.1920719999998
 31
0.0
  0
LINE
  5
A3A1
330
A1F0
100
AcDbEntity
  8
1
  6
Continuous
100
AcDbLine
 10
363.2932559999999
 20
260.872229
 30
0.0
 11
364.6130989999999
 21
262.1920719999998
 31
0.0
  0
LINE
  5
A3A2
330
A1F0
100
AcDbEntity
  8
1
  6
Continuous
100
AcDbLine
 10
364.707469
 20
260.872229
 30
0.0
 11
366.027313
 21
262.1920719999998
 31
0.0
  0
LINE
  5
A3A3
330
A1F0
100
AcDbEntity
  8
1
  6
Continuous
100
AcDbLine
 10
366.121683
 20
260.872229
 30
0.0
 11
367.4415259999999
 21
262.1920719999998
 31
0.0
  0
LINE
  5
A3A4
330
A1F0
100
AcDbEntity
  8
1
  6
Continuous
100
AcDbLine
 10
367.535896
 20
260.872229
 30
0.0
 11
368.8557399999999
 21
262.1920719999998
 31
0.0
  0
LINE
  5
A3A5
330
A1F0
100
AcDbEntity
  8
1
  6
Continuous
100
AcDbLine
 10
361.6903019999999
 20
260.872229
 30
0.0
 11
360.3704589999999
 21
262.1920719999998
 31
0.0
  0
LINE
  5
A3A6
330
A1F0
100
AcDbEntity
  8
1
  6
Continuous
100
AcDbLine
 10
363.1045159999998
 20
260.872229
 30
0.0
 11
361.784672
 21
262.1920719999998
 31
0.0
  0
LINE
  5
A3A7
330
A1F0
100
AcDbEntity
  8
1
  6
Continuous
100
AcDbLine
 10
364.5187289999999
 20
260.872229
 30
0.0
 11
363.1988859999998
 21
262.1920719999998
 31
0.0
  0
LINE
  5
A3A8
330
A1F0
100
AcDbEntity
  8
1
  6
Continuous
100
AcDbLine
 10
365.932943
 20
260.872229
 30
0.0
 11
364.6130989999999
 21
262.1920719999998
 31
0.0
  0
LINE
  5
A3A9
330
A1F0
100
AcDbEntity
  8
1
  6
Continuous
100
AcDbLine
 10
367.3471559999999
 20
260.872229
 30
0.0
 11
366.027313
 21
262.1920719999998
 31
0.0
  0
LINE
  5
A3AA
330
A1F0
100
AcDbEntity
  8
1
  6
Continuous
100
AcDbLine
 10
368.7613699999998
 20
260.872229
 30
0.0
 11
367.4415259999999
 21
262.1920719999998
 31
0.0
  0
LINE
  5
A3AB
330
A1F0
100
AcDbEntity
  8
1
  6
Continuous
100
AcDbLine
 10
356.222188
 20
260.872229
 30
0.0
 11
357.542031
 21
262.1920719999998
 31
0.0
  0
LINE
  5
A3AC
330
A1F0
100
AcDbEntity
  8
1
  6
Continuous
100
AcDbLine
 10
357.6364009999999
 20
260.872229
 30
0.0
 11
358.956245
 21
262.1920719999998
 31
0.0
  0
LINE
  5
A3AD
330
A1F0
100
AcDbEntity
  8
1
  6
Continuous
100
AcDbLine
 10
357.4476619999999
 20
260.872229
 30
0.0
 11
356.1278179999998
 21
262.1920719999998
 31
0.0
  0
LINE
  5
A3AE
330
A1F0
100
AcDbEntity
  8
1
  6
Continuous
100
AcDbLine
 10
358.861875
 20
260.872229
 30
0.0
 11
357.542031
 21
262.1920719999998
 31
0.0
  0
LINE
  5
A3AF
330
A1F0
100
AcDbEntity
  8
1
  6
Continuous
100
AcDbLine
 10
359.0506149999998
 20
260.872229
 30
0.0
 11
360.3704589999999
 21
262.1920719999998
 31
0.0
  0
LINE
  5
A3B0
330
A1F0
100
AcDbEntity
  8
1
  6
Continuous
100
AcDbLine
 10
360.276089
 20
260.872229
 30
0.0
 11
358.956245
 21
262.1920719999998
 31
0.0
  0
LINE
  5
A3B1
330
A1F0
100
AcDbEntity
  8
1
  6
Continuous
100
AcDbLine
 10
342.080052
 20
260.872229
 30
0.0
 11
343.399896
 21
262.1920719999998
 31
0.0
  0
LINE
  5
A3B2
330
A1F0
100
AcDbEntity
  8
1
  6
Continuous
100
AcDbLine
 10
343.3055259999998
 20
260.872229
 30
0.0
 11
341.985682
 21
262.1920719999998
 31
0.0
  0
LINE
  5
A3B3
330
A1F0
100
AcDbEntity
  8
1
  6
Continuous
100
AcDbLine
 10
340.665839
 20
260.872229
 30
0.0
 11
341.985682
 21
262.1920719999998
 31
0.0
  0
LINE
  5
A3B4
330
A1F0
100
AcDbEntity
  8
1
  6
Continuous
100
AcDbLine
 10
341.891312
 20
260.872229
 30
0.0
 11
340.5714689999999
 21
262.1920719999998
 31
0.0
  0
LINE
  5
A3B5
330
A1F0
100
AcDbEntity
  8
1
  6
Continuous
100
AcDbLine
 10
344.908479
 20
260.872229
 30
0.0
 11
346.228323
 21
262.1920719999998
 31
0.0
  0
LINE
  5
A3B6
330
A1F0
100
AcDbEntity
  8
1
  6
Continuous
100
AcDbLine
 10
346.322693
 20
260.872229
 30
0.0
 11
347.642536
 21
262.1920719999998
 31
0.0
  0
LINE
  5
A3B7
330
A1F0
100
AcDbEntity
  8
1
  6
Continuous
100
AcDbLine
 10
347.736906
 20
260.872229
 30
0.0
 11
349.05675
 21
262.1920719999998
 31
0.0
  0
LINE
  5
A3B8
330
A1F0
100
AcDbEntity
  8
1
  6
Continuous
100
AcDbLine
 10
349.15112
 20
260.872229
 30
0.0
 11
350.4709639999999
 21
262.1920719999998
 31
0.0
  0
LINE
  5
A3B9
330
A1F0
100
AcDbEntity
  8
1
  6
Continuous
100
AcDbLine
 10
350.565334
 20
260.872229
 30
0.0
 11
351.8851769999998
 21
262.1920719999998
 31
0.0
  0
LINE
  5
A3BA
330
A1F0
100
AcDbEntity
  8
1
  6
Continuous
100
AcDbLine
 10
351.979547
 20
260.872229
 30
0.0
 11
353.299391
 21
262.1920719999998
 31
0.0
  0
LINE
  5
A3BB
330
A1F0
100
AcDbEntity
  8
1
  6
Continuous
100
AcDbLine
 10
353.3937609999999
 20
260.872229
 30
0.0
 11
354.7136039999998
 21
262.1920719999998
 31
0.0
  0
LINE
  5
A3BC
330
A1F0
100
AcDbEntity
  8
1
  6
Continuous
100
AcDbLine
 10
347.5481669999999
 20
260.872229
 30
0.0
 11
346.228323
 21
262.1920719999998
 31
0.0
  0
LINE
  5
A3BD
330
A1F0
100
AcDbEntity
  8
1
  6
Continuous
100
AcDbLine
 10
346.1339529999999
 20
260.872229
 30
0.0
 11
344.814109
 21
262.1920719999998
 31
0.0
  0
LINE
  5
A3BE
330
A1F0
100
AcDbEntity
  8
1
  6
Continuous
100
AcDbLine
 10
348.9623799999998
 20
260.872229
 30
0.0
 11
347.642536
 21
262.1920719999998
 31
0.0
  0
LINE
  5
A3BF
330
A1F0
100
AcDbEntity
  8
1
  6
Continuous
100
AcDbLine
 10
350.376594
 20
260.872229
 30
0.0
 11
349.05675
 21
262.1920719999998
 31
0.0
  0
LINE
  5
A3C0
330
A1F0
100
AcDbEntity
  8
1
  6
Continuous
100
AcDbLine
 10
351.7908069999998
 20
260.872229
 30
0.0
 11
350.4709639999999
 21
262.1920719999998
 31
0.0
  0
LINE
  5
A3C1
330
A1F0
100
AcDbEntity
  8
1
  6
Continuous
100
AcDbLine
 10
353.2050209999999
 20
260.872229
 30
0.0
 11
351.8851769999998
 21
262.1920719999998
 31
0.0
  0
LINE
  5
A3C2
330
A1F0
100
AcDbEntity
  8
1
  6
Continuous
100
AcDbLine
 10
354.619234
 20
260.872229
 30
0.0
 11
353.299391
 21
262.1920719999998
 31
0.0
  0
LINE
  5
A3C3
330
A1F0
100
AcDbEntity
  8
1
  6
Continuous
100
AcDbLine
 10
343.4942659999999
 20
260.872229
 30
0.0
 11
344.814109
 21
262.1920719999998
 31
0.0
  0
LINE
  5
A3C4
330
A1F0
100
AcDbEntity
  8
1
  6
Continuous
100
AcDbLine
 10
344.7197389999999
 20
260.872229
 30
0.0
 11
343.399896
 21
262.1920719999998
 31
0.0
  0
LINE
  5
A3C5
330
A1F0
100
AcDbEntity
  8
1
  6
Continuous
100
AcDbLine
 10
321.728323
 20
244.681049
 30
0.0
 11
321.728323
 21
258.1222289999999
 31
0.0
  0
ARC
  5
A3C6
330
A1F0
100
AcDbEntity
  8
1
  6
Continuous
100
AcDbCircle
 10
326.843654
 20
265.7272999999999
 30
0.0
 40
4.697225
100
AcDbArc
 50
206.286695
 51
222.530249
  0
ARC
  5
A3C7
330
A1F0
100
AcDbEntity
  8
1
  6
Continuous
100
AcDbCircle
 10
323.9561299999999
 20
269.023075
 30
0.0
 40
3.611003999999998
100
AcDbArc
 50
243.711423
 51
270.0
  0
LINE
  5
A3C8
330
A1F0
100
AcDbEntity
  8
1
  6
Continuous
100
AcDbLine
 10
323.228323
 20
261.8194889999999
 30
0.0
 11
323.600906
 21
262.1920719999998
 31
0.0
  0
LINE
  5
A3C9
330
A1F0
100
AcDbEntity
  8
1
  6
Continuous
100
AcDbLine
 10
323.506536
 20
260.872229
 30
0.0
 11
323.228323
 21
261.150442
 31
0.0
  0
ARC
  5
A3CA
330
A1F0
100
AcDbEntity
  8
1
  6
Continuous
100
AcDbCircle
 10
324.4783229999999
 20
258.1222289999999
 30
0.0
 40
2.75
100
AcDbArc
 50
90.0
 51
180.0
  0
LINE
  5
A3CB
330
A1F0
100
AcDbEntity
  8
1
  6
Continuous
100
AcDbLine
 10
324.0571719999999
 20
264.177072
 30
0.0
 11
324.227172
 21
264.537072
 31
0.0
  0
ARC
  5
A3CC
330
A1F0
100
AcDbEntity
  8
1
  6
Continuous
100
AcDbCircle
 10
329.0457539999998
 20
260.6260999999999
 30
0.0
 40
6.206
100
AcDbArc
 50
129.5396199999998
 51
140.935699
  0
LINE
  5
A3CD
330
A1F0
100
AcDbEntity
  8
1
  6
Continuous
100
AcDbLine
 10
323.382172
 20
262.552072
 30
0.0
 11
323.512172
 21
262.1920719999998
 31
0.0
  0
LINE
  5
A3CE
330
A1F0
100
AcDbEntity
  8
1
  6
Continuous
100
AcDbLine
 10
337.8374109999999
 20
260.872229
 30
0.0
 11
339.1572549999999
 21
262.1920719999998
 31
0.0
  0
LINE
  5
A3CF
330
A1F0
100
AcDbEntity
  8
1
  6
Continuous
100
AcDbLine
 10
336.423198
 20
260.872229
 30
0.0
 11
337.743042
 21
262.1920719999998
 31
0.0
  0
LINE
  5
A3D0
330
A1F0
100
AcDbEntity
  8
1
  6
Continuous
100
AcDbLine
 10
335.0089839999998
 20
260.872229
 30
0.0
 11
336.3288279999999
 21
262.1920719999998
 31
0.0
  0
LINE
  5
A3D1
330
A1F0
100
AcDbEntity
  8
1
  6
Continuous
100
AcDbLine
 10
333.5947709999999
 20
260.872229
 30
0.0
 11
334.9146139999998
 21
262.1920719999998
 31
0.0
  0
LINE
  5
A3D2
330
A1F0
100
AcDbEntity
  8
1
  6
Continuous
100
AcDbLine
 10
332.1805569999999
 20
260.872229
 30
0.0
 11
333.5004009999999
 21
262.1920719999998
 31
0.0
  0
LINE
  5
A3D3
330
A1F0
100
AcDbEntity
  8
1
  6
Continuous
100
AcDbLine
 10
330.766344
 20
260.872229
 30
0.0
 11
332.0861869999998
 21
262.1920719999998
 31
0.0
  0
LINE
  5
A3D4
330
A1F0
100
AcDbEntity
  8
1
  6
Continuous
100
AcDbLine
 10
329.35213
 20
260.872229
 30
0.0
 11
330.6719739999999
 21
262.1920719999998
 31
0.0
  0
LINE
  5
A3D5
330
A1F0
100
AcDbEntity
  8
1
  6
Continuous
100
AcDbLine
 10
339.062885
 20
260.872229
 30
0.0
 11
337.743042
 21
262.1920719999998
 31
0.0
  0
LINE
  5
A3D6
330
A1F0
100
AcDbEntity
  8
1
  6
Continuous
100
AcDbLine
 10
337.6486719999999
 20
260.872229
 30
0.0
 11
336.3288279999999
 21
262.1920719999998
 31
0.0
  0
LINE
  5
A3D7
330
A1F0
100
AcDbEntity
  8
1
  6
Continuous
100
AcDbLine
 10
336.234458
 20
260.872229
 30
0.0
 11
334.9146139999998
 21
262.1920719999998
 31
0.0
  0
LINE
  5
A3D8
330
A1F0
100
AcDbEntity
  8
1
  6
Continuous
100
AcDbLine
 10
334.820245
 20
260.872229
 30
0.0
 11
333.5004009999999
 21
262.1920719999998
 31
0.0
  0
LINE
  5
A3D9
330
A1F0
100
AcDbEntity
  8
1
  6
Continuous
100
AcDbLine
 10
333.4060309999999
 20
260.872229
 30
0.0
 11
332.0861869999998
 21
262.1920719999998
 31
0.0
  0
LINE
  5
A3DA
330
A1F0
100
AcDbEntity
  8
1
  6
Continuous
100
AcDbLine
 10
331.9918169999999
 20
260.872229
 30
0.0
 11
330.6719739999999
 21
262.1920719999998
 31
0.0
  0
LINE
  5
A3DB
330
A1F0
100
AcDbEntity
  8
1
  6
Continuous
100
AcDbLine
 10
330.577604
 20
260.872229
 30
0.0
 11
329.25776
 21
262.1920719999998
 31
0.0
  0
LINE
  5
A3DC
330
A1F0
100
AcDbEntity
  8
1
  6
Continuous
100
AcDbLine
 10
326.5237029999998
 20
260.872229
 30
0.0
 11
327.843547
 21
262.1920719999998
 31
0.0
  0
LINE
  5
A3DD
330
A1F0
100
AcDbEntity
  8
1
  6
Continuous
100
AcDbLine
 10
325.109489
 20
260.872229
 30
0.0
 11
326.429333
 21
262.1920719999998
 31
0.0
  0
LINE
  5
A3DE
330
A1F0
100
AcDbEntity
  8
1
  6
Continuous
100
AcDbLine
 10
323.6952759999998
 20
260.872229
 30
0.0
 11
325.0151189999999
 21
262.1920719999998
 31
0.0
  0
LINE
  5
A3DF
330
A1F0
100
AcDbEntity
  8
1
  6
Continuous
100
AcDbLine
 10
327.7491769999999
 20
260.872229
 30
0.0
 11
326.429333
 21
262.1920719999998
 31
0.0
  0
LINE
  5
A3E0
330
A1F0
100
AcDbEntity
  8
1
  6
Continuous
100
AcDbLine
 10
326.334963
 20
260.872229
 30
0.0
 11
325.0151189999999
 21
262.1920719999998
 31
0.0
  0
LINE
  5
A3E1
330
A1F0
100
AcDbEntity
  8
1
  6
Continuous
100
AcDbLine
 10
324.92075
 20
260.872229
 30
0.0
 11
323.600906
 21
262.1920719999998
 31
0.0
  0
LINE
  5
A3E2
330
A1F0
100
AcDbEntity
  8
1
  6
Continuous
100
AcDbLine
 10
327.9379169999999
 20
260.872229
 30
0.0
 11
329.25776
 21
262.1920719999998
 31
0.0
  0
LINE
  5
A3E3
330
A1F0
100
AcDbEntity
  8
1
  6
Continuous
100
AcDbLine
 10
329.1633899999999
 20
260.872229
 30
0.0
 11
327.843547
 21
262.1920719999998
 31
0.0
  0
ARC
  5
A3E4
330
A1F0
100
AcDbEntity
  8
1
  6
Continuous
100
AcDbCircle
 10
323.506143
 20
263.257219
 30
0.0
 40
0.9569799999999998
100
AcDbArc
 50
106.011913
 51
155.9597349999999
  0
ARC
  5
A3E5
330
A1F0
100
AcDbEntity
  8
1
  6
Continuous
100
AcDbCircle
 10
327.069005
 20
275.324663
 30
0.0
 40
10.63951799999999
100
AcDbArc
 50
229.929097
 51
243.711423
  0
LINE
  5
A3E6
330
A1F0
100
AcDbEntity
  8
1
  6
Continuous
100
AcDbLine
 10
320.2199739999999
 20
267.182789
 30
0.0
 11
320.180471
 21
267.6101019999999
 31
0.0
  0
LINE
  5
A3E7
330
A1F0
100
AcDbEntity
  8
1
  6
Continuous
100
AcDbLine
 10
315.99539
 20
267.610119
 30
0.0
 11
312.995423
 21
267.610122
 31
0.0
  0
LINE
  5
A3E8
330
A1F0
100
AcDbEntity
  8
1
  6
Continuous
100
AcDbLine
 10
323.228323
 20
260.872229
 30
0.0
 11
323.228323
 21
262.1920719999998
 31
0.0
  0
ARC
  5
A3E9
330
A1F0
100
AcDbEntity
  8
1
  6
Continuous
100
AcDbCircle
 10
360.728323
 20
224.793784
 30
0.0
 40
1.0
100
AcDbArc
 50
0.0
 51
85.0
  0
LINE
  5
A3EA
330
A1F0
100
AcDbEntity
  8
1
  6
Continuous
100
AcDbLine
 10
360.8154789999999
 20
225.7899789999999
 30
0.0
 11
357.7283229999999
 21
226.06007
 31
0.0
  0
LINE
  5
A3EB
330
A1F0
100
AcDbEntity
  8
1
  6
Continuous
100
AcDbLine
 10
331.6411669999999
 20
225.7899789999999
 30
0.0
 11
334.7283229999998
 21
226.06007
 31
0.0
  0
ARC
  5
A3EC
330
A1F0
100
AcDbEntity
  8
1
  6
Continuous
100
AcDbCircle
 10
331.728323
 20
224.793784
 30
0.0
 40
1.0
100
AcDbArc
 50
95.0
 51
180.0
  0
ARC
  5
A3ED
330
A1F0
100
AcDbEntity
  8
1
  6
Continuous
100
AcDbCircle
 10
369.328323
 20
244.681049
 30
0.0
 40
1.399999999999999
100
AcDbArc
 50
0.0
 51
52.68591899999999
  0
ARC
  5
A3EE
330
A1F0
100
AcDbEntity
  8
1
  6
Continuous
100
AcDbCircle
 10
366.828323
 20
244.681049
 30
0.0
 40
1.6
100
AcDbArc
 50
0.0
 51
56.99123100000001
  0
ARC
  5
A3EF
330
A1F0
100
AcDbEntity
  8
1
  6
Continuous
100
AcDbCircle
 10
346.228323
 20
158.7107709999999
 30
0.0
 40
91.46690600000004
100
AcDbArc
 50
78.362892
 51
101.637108
  0
ARC
  5
A3F0
330
A1F0
100
AcDbEntity
  8
1
  6
Continuous
100
AcDbCircle
 10
361.9361109999999
 20
234.98233
 30
0.0
 40
13.594669
100
AcDbArc
 50
52.68591899999999
 51
78.362892
  0
ARC
  5
A3F1
330
A1F0
100
AcDbEntity
  8
1
  6
Continuous
100
AcDbCircle
 10
346.228323
 20
179.8743269999999
 30
0.0
 40
70.30335
100
AcDbArc
 50
76.71948499999998
 51
103.2805149999999
  0
ARC
  5
A3F2
330
A1F0
100
AcDbEntity
  8
1
  6
Continuous
100
AcDbCircle
 10
358.498039
 20
231.857834
 30
0.0
 40
16.89145199999999
100
AcDbArc
 50
56.99123100000001
 51
76.719483
  0
ARC
  5
A3F3
330
A1F0
100
AcDbEntity
  8
1
  6
Continuous
100
AcDbCircle
 10
333.9586069999999
 20
231.857834
 30
0.0
 40
16.89145199999999
100
AcDbArc
 50
103.280517
 51
123.0087689999999
  0
ARC
  5
A3F4
330
A1F0
100
AcDbEntity
  8
1
  6
Continuous
100
AcDbCircle
 10
330.520535
 20
234.98233
 30
0.0
 40
13.594669
100
AcDbArc
 50
101.637108
 51
127.314081
  0
ARC
  5
A3F5
330
A1F0
100
AcDbEntity
  8
1
  6
Continuous
100
AcDbCircle
 10
325.628323
 20
244.681049
 30
0.0
 40
1.6
100
AcDbArc
 50
123.0087689999999
 51
180.0
  0
ARC
  5
A3F6
330
A1F0
100
AcDbEntity
  8
1
  6
Continuous
100
AcDbCircle
 10
323.128323
 20
244.681049
 30
0.0
 40
1.399999999999999
100
AcDbArc
 50
127.314081
 51
180.0
  0
ARC
  5
A3F7
330
A1F0
100
AcDbEntity
  8
1
  6
Continuous
100
AcDbCircle
 10
346.228323
 20
233.210116
 30
0.0
 40
17.0
100
AcDbArc
 50
48.189685
 51
86.07693000000002
  0
ARC
  5
A3F8
330
A1F0
100
AcDbEntity
  8
1
  6
Continuous
100
AcDbCircle
 10
335.2283229999998
 20
245.508489
 30
0.0
 40
0.5
100
AcDbArc
 50
131.810315
 51
180.0
  0
ARC
  5
A3F9
330
A1F0
100
AcDbEntity
  8
1
  6
Continuous
100
AcDbCircle
 10
357.228323
 20
245.508489
 30
0.0
 40
0.5
100
AcDbArc
 50
0.0
 51
48.189685
  0
ARC
  5
A3FA
330
A1F0
100
AcDbEntity
  8
1
  6
Continuous
100
AcDbCircle
 10
346.228323
 20
233.210116
 30
0.0
 40
17.0
100
AcDbArc
 50
93.92307
 51
131.810315
  0
LINE
  5
A3FB
330
A1F0
100
AcDbEntity
  8
1
  6
Continuous
100
AcDbLine
 10
37.319
 20
244.681049
 30
0.0
 11
37.319
 21
258.1222289999999
 31
0.0
  0
LINE
  5
A3FC
330
A1F0
100
AcDbEntity
  8
1
  6
Continuous
100
AcDbLine
 10
86.31899999999998
 20
244.681049
 30
0.0
 11
86.31899999999998
 21
258.1222289999999
 31
0.0
  0
LINE
  5
A3FD
330
A1F0
100
AcDbEntity
  8
4
  6
CENTER
100
AcDbLine
 10
459.8197179999998
 20
217.710116
 30
0.0
 11
534.8197179999998
 21
217.710116
 31
0.0
  0
ARC
  5
A3FE
330
A1F0
100
AcDbEntity
  8
1
  6
Continuous
100
AcDbCircle
 10
547.8952059999998
 20
243.0660519999999
 30
0.0
 40
30.0
100
AcDbArc
 50
224.045736
 51
248.0679139999999
  0
ARC
  5
A3FF
330
A1F0
100
AcDbEntity
  8
1
  6
Continuous
100
AcDbCircle
 10
553.5642629999999
 20
246.1046419999999
 30
0.0
 40
36.348793
100
AcDbArc
 50
224.2428069999998
 51
237.6201039999999
  0
ARC
  5
A400
330
A1F0
100
AcDbEntity
  8
1
  6
Continuous
100
AcDbCircle
 10
506.914954
 20
220.723574
 30
0.0
 40
30.569257
100
AcDbArc
 50
35.490929
 51
46.897969
  0
ARC
  5
A401
330
A1F0
100
AcDbEntity
  8
1
  6
Continuous
100
AcDbCircle
 10
492.8685559999998
 20
205.714332
 30
0.0
 40
51.125974
100
AcDbArc
 50
46.897969
 51
77.853488
  0
ARC
  5
A402
330
A1F0
100
AcDbEntity
  8
1
  6
Continuous
100
AcDbCircle
 10
497.3197179999998
 20
217.710116
 30
0.0
 40
32.5
100
AcDbArc
 50
127.183573
 51
1.557615
  0
ARC
  5
A403
330
A1F0
100
AcDbEntity
  8
1
  6
Continuous
100
AcDbCircle
 10
514.284305
 20
224.420265
 30
0.0
 40
21.88758599999999
100
AcDbArc
 50
1.123980999999999
 51
12.205424
  0
ARC
  5
A404
330
A1F0
100
AcDbEntity
  8
1
  6
Continuous
100
AcDbCircle
 10
536.0187539999998
 20
218.4358889999999
 30
0.0
 40
3.585935999999998
100
AcDbArc
 50
237.6201039999999
 51
247.616018
  0
ARC
  5
A405
330
A1F0
100
AcDbEntity
  8
1
  6
Continuous
100
AcDbCircle
 10
535.621707
 20
215.3799859999999
 30
0.0
 40
0.276783
100
AcDbArc
 50
236.314234
 51
296.877514
  0
ARC
  5
A406
330
A1F0
100
AcDbEntity
  8
1
  6
Continuous
100
AcDbCircle
 10
534.7114339999999
 20
215.2615759999999
 30
0.0
 40
0.152957
100
AcDbArc
 50
247.616018
 51
295.114242
  0
ARC
  5
A407
330
A1F0
100
AcDbEntity
  8
1
  6
Continuous
100
AcDbCircle
 10
611.3139359999999
 20
226.3239549999999
 30
0.0
 40
75.160718
100
AcDbArc
 50
181.123981
 51
186.1998909999998
  0
ARC
  5
A408
330
A1F0
100
AcDbEntity
  8
1
  6
Continuous
100
AcDbCircle
 10
502.2891119999998
 20
214.4802789999999
 30
0.0
 40
34.505525
100
AcDbArc
 50
1.718883999999999
 51
6.199891
  0
LINE
  5
A409
330
A1F0
100
AcDbEntity
  8
1
  6
Continuous
100
AcDbLine
 10
536.417719
 20
215.1500619999999
 30
0.0
 11
536.689987
 21
215.237236
 31
0.0
  0
LINE
  5
A40A
330
A1F0
100
AcDbEntity
  8
1
  6
Continuous
100
AcDbLine
 10
536.7791109999997
 20
215.515296
 30
0.0
 11
536.689987
 21
215.237236
 31
0.0
  0
LINE
  5
A40B
330
A1F0
100
AcDbEntity
  8
1
  6
Continuous
100
AcDbLine
 10
536.404748
 20
215.193071
 30
0.0
 11
536.417719
 21
215.1500619999999
 31
0.0
  0
LINE
  5
A40C
330
A1F0
100
AcDbEntity
  8
1
  6
Continuous
100
AcDbLine
 10
536.338716
 20
215.146116
 30
0.0
 11
536.404748
 21
215.193071
 31
0.0
  0
LINE
  5
A40D
330
A1F0
100
AcDbEntity
  8
1
  6
Continuous
100
AcDbLine
 10
535.746836
 20
215.1331029999998
 30
0.0
 11
536.338716
 21
215.146116
 31
0.0
  0
LINE
  5
A40E
330
A1F0
100
AcDbEntity
  8
1
  6
Continuous
100
AcDbLine
 10
534.7763529999999
 20
215.123079
 30
0.0
 11
535.4681929999998
 21
215.149677
 31
0.0
  0
ARC
  5
A40F
330
A1F0
100
AcDbEntity
  8
1
  6
Continuous
100
AcDbCircle
 10
608.2417
 20
244.7438839999998
 30
0.0
 40
74.24275
100
AcDbArc
 50
191.439798
 51
192.2054239999999
  0
ARC
  5
A410
330
A1F0
100
AcDbEntity
  8
1
  6
Continuous
100
AcDbCircle
 10
513.799676
 20
225.632754
 30
0.0
 40
22.11352199999998
100
AcDbArc
 50
11.439798
 51
35.490929
  0
LINE
  5
A411
330
A1F0
100
AcDbEntity
  8
4
  6
CENTER
100
AcDbLine
 10
497.3197179999998
 20
180.210116
 30
0.0
 11
497.3197179999998
 21
253.210116
 31
0.0
  0
ARC
  5
A412
330
A1F0
100
AcDbEntity
  8
1
  6
Continuous
100
AcDbCircle
 10
497.3197179999998
 20
217.710116
 30
0.0
 40
28.019984
100
AcDbArc
 50
121.5329799999999
 51
12.10519099999999
  0
ARC
  5
A413
330
A1F0
100
AcDbEntity
  8
1
  6
Continuous
100
AcDbCircle
 10
497.3197179999998
 20
217.710116
 30
0.0
 40
17.0
100
AcDbArc
 50
188.24953
 51
8.540450999999999
  0
ARC
  5
A414
330
A1F0
100
AcDbEntity
  8
1
  6
Continuous
100
AcDbCircle
 10
497.3197179999998
 20
217.710116
 30
0.0
 40
17.0
100
AcDbArc
 50
120.3034389999999
 51
157.406875
  0
ARC
  5
A415
330
A1F0
100
AcDbEntity
  8
1
  6
Continuous
100
AcDbCircle
 10
497.3197179999998
 20
217.710116
 30
0.0
 40
17.0
100
AcDbArc
 50
120.3034389999999
 51
157.406875
  0
LINE
  5
A416
330
A1F0
100
AcDbEntity
  8
1
  6
Continuous
100
AcDbLine
 10
480.1964099999998
 20
222.779087
 30
0.0
 11
486.9473389999998
 21
229.691779
 31
0.0
  0
ARC
  5
A417
330
A1F0
100
AcDbEntity
  8
1
  6
Continuous
100
AcDbCircle
 10
497.3197179999998
 20
217.710116
 30
0.0
 40
15.413057
100
AcDbArc
 50
193.9416349999999
 51
5.425635999999999
  0
ARC
  5
A418
330
A1F0
100
AcDbEntity
  8
1
  6
Continuous
100
AcDbCircle
 10
496.5923619999998
 20
217.8187
 30
0.0
 40
10.96397999999999
100
AcDbArc
 50
236.957087
 51
346.3270459999998
  0
CIRCLE
  5
A419
330
A1F0
100
AcDbEntity
  8
1
  6
Continuous
100
AcDbCircle
 10
497.3197179999998
 20
217.710116
 30
0.0
 40
5.75
  0
LINE
  5
A41A
330
A1F0
100
AcDbEntity
  8
1
  6
Continuous
100
AcDbLine
 10
507.245632
 20
215.2270399999999
 30
0.0
 11
514.616832
 21
220.5879279999999
 31
0.0
  0
ARC
  5
A41B
330
A1F0
100
AcDbEntity
  8
1
  6
Continuous
100
AcDbCircle
 10
528.2431809999999
 20
201.851749
 30
0.0
 40
23.167257
100
AcDbArc
 50
107.635683
 51
126.027447
  0
ARC
  5
A41C
330
A1F0
100
AcDbEntity
  8
1
  6
Continuous
100
AcDbCircle
 10
522.647887
 20
219.4523109999999
 30
0.0
 40
4.698712999999997
100
AcDbArc
 50
68.774373
 51
107.635683
  0
ARC
  5
A41D
330
A1F0
100
AcDbEntity
  8
1
  6
Continuous
100
AcDbCircle
 10
518.375961
 20
214.5140759999999
 30
0.0
 40
11.068251
100
AcDbArc
 50
34.254558
 51
57.33973299999998
  0
LINE
  5
A41E
330
A1F0
100
AcDbEntity
  8
1
  6
Continuous
100
AcDbLine
 10
501.313545
 20
213.5734699999999
 30
0.0
 11
501.4760569999999
 21
213.5734699999999
 31
0.0
  0
LINE
  5
A41F
330
A1F0
100
AcDbEntity
  8
1
  6
Continuous
100
AcDbLine
 10
501.4760569999999
 20
221.6834449999999
 30
0.0
 11
501.4760569999999
 21
221.8467629999999
 31
0.0
  0
LINE
  5
A420
330
A1F0
100
AcDbEntity
  8
1
  6
Continuous
100
AcDbLine
 10
501.4760569999999
 20
213.5734699999999
 30
0.0
 11
501.4760569999999
 21
213.7367879999999
 31
0.0
  0
LINE
  5
A421
330
A1F0
100
AcDbEntity
  8
1
  6
Continuous
100
AcDbLine
 10
501.313545
 20
221.8467629999999
 30
0.0
 11
501.4760569999999
 21
221.8467629999999
 31
0.0
  0
ARC
  5
A422
330
A1F0
100
AcDbEntity
  8
1
  6
Continuous
100
AcDbCircle
 10
483.89562
 20
219.166441
 30
0.0
 40
5.170626
100
AcDbArc
 50
135.6782889999998
 51
236.957087
  0
LINE
  5
A423
330
A1F0
100
AcDbEntity
  8
1
  6
Continuous
100
AcDbLine
 10
481.076248
 20
214.8321
 30
0.0
 11
490.614065
 21
208.6280079999999
 31
0.0
  0
LINE
  5
A424
330
A1F0
100
AcDbEntity
  8
1
  6
Continuous
100
AcDbLine
 10
493.163378
 20
213.5734699999999
 30
0.0
 11
493.32589
 21
213.5734699999999
 31
0.0
  0
LINE
  5
A425
330
A1F0
100
AcDbEntity
  8
1
  6
Continuous
100
AcDbLine
 10
493.163378
 20
221.6834449999999
 30
0.0
 11
493.163378
 21
221.8467629999999
 31
0.0
  0
LINE
  5
A426
330
A1F0
100
AcDbEntity
  8
1
  6
Continuous
100
AcDbLine
 10
493.163378
 20
213.5734699999999
 30
0.0
 11
493.163378
 21
213.7367879999999
 31
0.0
  0
LINE
  5
A427
330
A1F0
100
AcDbEntity
  8
1
  6
Continuous
100
AcDbLine
 10
493.163378
 20
221.8467629999999
 30
0.0
 11
493.32589
 21
221.8467629999999
 31
0.0
  0
LINE
  5
A428
330
A1F0
100
AcDbEntity
  8
1
  6
Continuous
100
AcDbLine
 10
464.7820669999998
 20
260.830216
 30
0.0
 11
463.420223
 21
262.1920609999999
 31
0.0
  0
LINE
  5
A429
330
A1F0
100
AcDbEntity
  8
1
  6
Continuous
100
AcDbLine
 10
463.476891
 20
260.834515
 30
0.0
 11
464.834436
 21
262.1920609999999
 31
0.0
  0
LINE
  5
A42A
330
A1F0
100
AcDbEntity
  8
1
  6
Continuous
100
AcDbLine
 10
450.3197179999999
 20
260.877858
 30
0.0
 11
496.3197179999998
 21
260.7245259999999
 31
0.0
  0
ARC
  5
A42B
330
A1F0
100
AcDbEntity
  8
1
  6
Continuous
100
AcDbCircle
 10
459.6113139999998
 20
231.436877
 30
0.0
 40
17.042478
100
AcDbArc
 50
68.14078499999999
 51
79.521156
  0
LINE
  5
A42C
330
A1F0
100
AcDbEntity
  8
1
  6
Continuous
100
AcDbLine
 10
451.0475239999998
 20
265.412059
 30
0.0
 11
495.5919109999999
 21
265.412059
 31
0.0
  0
LINE
  5
A42D
330
A1F0
100
AcDbEntity
  8
1
  6
Continuous
100
AcDbLine
 10
499.3280659999999
 20
267.1827769999998
 30
0.0
 11
447.3113689999998
 21
267.1827769999998
 31
0.0
  0
LINE
  5
A42E
330
A1F0
100
AcDbEntity
  8
1
  6
Continuous
100
AcDbLine
 10
496.3197179999998
 20
262.1920609999999
 30
0.0
 11
450.3197179999999
 21
262.1920609999999
 31
0.0
  0
LINE
  5
A42F
330
A1F0
100
AcDbEntity
  8
1
  6
Continuous
100
AcDbLine
 10
496.3058679999998
 20
264.177061
 30
0.0
 11
450.333567
 21
264.177061
 31
0.0
  0
LINE
  5
A430
330
A1F0
100
AcDbEntity
  8
1
  6
Continuous
100
AcDbLine
 10
514.5697179999998
 20
267.610293
 30
0.0
 11
440.0868179999998
 21
267.61009
 31
0.0
  0
LINE
  5
A431
330
A1F0
100
AcDbEntity
  8
1
  6
Continuous
100
AcDbLine
 10
514.5697179999998
 20
270.2100639999998
 30
0.0
 11
440.0868179999998
 21
270.21009
 31
0.0
  0
LINE
  5
A432
330
A1F0
100
AcDbEntity
  8
4
  6
CENTER
100
AcDbLine
 10
507.319718
 20
273.2100669999999
 30
0.0
 11
507.319718
 21
264.6102729999999
 31
0.0
  0
LINE
  5
A433
330
A1F0
100
AcDbEntity
  8
4
  6
CENTER
100
AcDbLine
 10
473.3197179999998
 20
275.2100779999998
 30
0.0
 11
473.3197179999998
 21
240.0159879999999
 31
0.0
  0
LINE
  5
A434
330
A1F0
100
AcDbEntity
  8
1
  6
Continuous
100
AcDbLine
 10
514.5697179999998
 20
267.6101109999998
 30
0.0
 11
514.5697179999998
 21
270.2100639999998
 31
0.0
  0
LINE
  5
A435
330
A1F0
100
AcDbEntity
  8
1
  6
Continuous
100
AcDbLine
 10
496.3197179999998
 20
261.819478
 30
0.0
 11
495.9471349999998
 21
262.1920609999999
 31
0.0
  0
LINE
  5
A436
330
A1F0
100
AcDbEntity
  8
1
  6
Continuous
100
AcDbLine
 10
495.8970029999998
 20
260.7277149999998
 30
0.0
 11
496.3197179999998
 21
261.1504299999999
 31
0.0
  0
ARC
  5
A437
330
A1F0
100
AcDbEntity
  8
1
  6
Continuous
100
AcDbCircle
 10
501.7475199999998
 20
237.1410329999999
 30
0.0
 40
20.0
100
AcDbArc
 50
102.287753
 51
129.3341079999999
  0
ARC
  5
A438
330
A1F0
100
AcDbEntity
  8
1
  6
Continuous
100
AcDbCircle
 10
494.128363
 20
257.2254819999999
 30
0.0
 40
3.533937999999998
100
AcDbArc
 50
37.972263
 51
78.41299999999998
  0
ARC
  5
A439
330
A1F0
100
AcDbEntity
  8
1
  6
Continuous
100
AcDbCircle
 10
495.5919109999999
 20
269.0230639999999
 30
0.0
 40
3.611003999999998
100
AcDbArc
 50
270.0
 51
296.2885769999999
  0
LINE
  5
A43A
330
A1F0
100
AcDbEntity
  8
1
  6
Continuous
100
AcDbLine
 10
496.165868
 20
262.5520609999999
 30
0.0
 11
496.0358679999997
 21
262.1920609999999
 31
0.0
  0
ARC
  5
A43B
330
A1F0
100
AcDbEntity
  8
1
  6
Continuous
100
AcDbCircle
 10
492.222658
 20
202.713376
 30
0.0
 40
54.195652
100
AcDbArc
 50
77.853488
 51
81.68484300000001
  0
ARC
  5
A43C
330
A1F0
100
AcDbEntity
  8
1
  6
Continuous
100
AcDbCircle
 10
501.7091909999998
 20
267.620991
 30
0.0
 40
11.40154899999999
100
AcDbArc
 50
254.6300029999999
 51
261.684843
  0
ARC
  5
A43D
330
A1F0
100
AcDbEntity
  8
1
  6
Continuous
100
AcDbCircle
 10
491.974779
 20
255.5445959999999
 30
0.0
 40
6.265842
100
AcDbArc
 50
16.429235
 51
37.972263
  0
ARC
  5
A43E
330
A1F0
100
AcDbEntity
  8
1
  6
Continuous
100
AcDbCircle
 10
498.955414
 20
257.60298
 30
0.0
 40
1.011946999999999
100
AcDbArc
 50
196.429235
 51
254.6300029999999
  0
LINE
  5
A43F
330
A1F0
100
AcDbEntity
  8
1
  6
Continuous
100
AcDbLine
 10
496.3197179999998
 20
260.726323
 30
0.0
 11
496.3197179999998
 21
262.1920609999999
 31
0.0
  0
LINE
  5
A440
330
A1F0
100
AcDbEntity
  8
1
  6
Continuous
100
AcDbLine
 10
499.3280659999999
 20
267.1827769999998
 30
0.0
 11
499.3675699999998
 21
267.61009
 31
0.0
  0
ARC
  5
A441
330
A1F0
100
AcDbEntity
  8
1
  6
Continuous
100
AcDbCircle
 10
492.4790349999998
 20
275.324652
 30
0.0
 40
10.63951799999999
100
AcDbArc
 50
296.2885769999999
 51
310.0709029999998
  0
ARC
  5
A442
330
A1F0
100
AcDbEntity
  8
1
  6
Continuous
100
AcDbCircle
 10
492.704387
 20
265.7272879999998
 30
0.0
 40
4.697225
100
AcDbArc
 50
317.4697509999999
 51
333.713305
  0
ARC
  5
A443
330
A1F0
100
AcDbEntity
  8
1
  6
Continuous
100
AcDbCircle
 10
496.041898
 20
263.257208
 30
0.0
 40
0.9569799999999998
100
AcDbArc
 50
24.04026499999999
 51
73.98808699999998
  0
LINE
  5
A444
330
A1F0
100
AcDbEntity
  8
1
  6
Continuous
100
AcDbLine
 10
503.5526509999998
 20
267.6101069999999
 30
0.0
 11
506.5526179999998
 21
267.6101109999998
 31
0.0
  0
LINE
  5
A445
330
A1F0
100
AcDbEntity
  8
1
  6
Continuous
100
AcDbLine
 10
489.070692
 20
256.610136
 30
0.0
 11
489.070692
 21
241.0991509999998
 31
0.0
  0
LINE
  5
A446
330
A1F0
100
AcDbEntity
  8
1
  6
Continuous
100
AcDbLine
 10
468.309723
 20
246.31006
 30
0.0
 11
465.9566919999998
 21
247.254027
 31
0.0
  0
LINE
  5
A447
330
A1F0
100
AcDbEntity
  8
1
  6
Continuous
100
AcDbLine
 10
476.751979
 20
243.976062
 30
0.0
 11
486.041965
 21
240.2318249999999
 31
0.0
  0
ARC
  5
A448
330
A1F0
100
AcDbEntity
  8
1
  6
Continuous
100
AcDbCircle
 10
488.553776
 20
241.047968
 30
0.0
 40
2.362162999999998
100
AcDbArc
 50
211.6197999999999
 51
267.6913719999999
  0
ARC
  5
A449
330
A1F0
100
AcDbEntity
  8
1
  6
Continuous
100
AcDbCircle
 10
485.650465
 20
239.260456
 30
0.0
 40
1.047296999999999
100
AcDbArc
 50
31.6198
 51
68.048592
  0
ARC
  5
A44A
330
A1F0
100
AcDbEntity
  8
1
  6
Continuous
100
AcDbCircle
 10
480.69015
 20
235.802544
 30
0.0
 40
8.746076999999997
100
AcDbArc
 50
315.678289
 51
359.011989
  0
ARC
  5
A44B
330
A1F0
100
AcDbEntity
  8
1
  6
Continuous
100
AcDbCircle
 10
484.4914189999998
 20
235.736989
 30
0.0
 40
4.944243
100
AcDbArc
 50
359.011989
 51
36.64120299999999
  0
ARC
  5
A44C
330
A1F0
100
AcDbEntity
  8
1
  6
Continuous
100
AcDbCircle
 10
482.9268719999998
 20
282.7462849999998
 30
0.0
 40
39.258879
100
AcDbArc
 50
248.140785
 51
260.9505679999999
  0
LINE
  5
A44D
330
A1F0
100
AcDbEntity
  8
1
  6
Continuous
100
AcDbLine
 10
480.3898329999998
 20
260.7787999999998
 30
0.0
 11
478.976572
 21
262.1920609999999
 31
0.0
  0
LINE
  5
A44E
330
A1F0
100
AcDbEntity
  8
1
  6
Continuous
100
AcDbLine
 10
478.982162
 20
260.7834369999998
 30
0.0
 11
480.3907849999998
 21
262.1920609999999
 31
0.0
  0
LINE
  5
A44F
330
A1F0
100
AcDbEntity
  8
1
  6
Continuous
100
AcDbLine
 10
495.997598
 20
260.7273839999999
 30
0.0
 11
494.5329209999998
 21
262.1920609999999
 31
0.0
  0
LINE
  5
A450
330
A1F0
100
AcDbEntity
  8
1
  6
Continuous
100
AcDbLine
 10
494.5787099999998
 20
260.732058
 30
0.0
 11
493.118707
 21
262.1920609999999
 31
0.0
  0
LINE
  5
A451
330
A1F0
100
AcDbEntity
  8
1
  6
Continuous
100
AcDbLine
 10
493.1598219999998
 20
260.7367319999998
 30
0.0
 11
491.7044940000001
 21
262.1920609999999
 31
0.0
  0
LINE
  5
A452
330
A1F0
100
AcDbEntity
  8
1
  6
Continuous
100
AcDbLine
 10
491.7409349999998
 20
260.7414059999999
 30
0.0
 11
490.2902799999998
 21
262.1920609999999
 31
0.0
  0
LINE
  5
A453
330
A1F0
100
AcDbEntity
  8
1
  6
Continuous
100
AcDbLine
 10
490.3220469999998
 20
260.74608
 30
0.0
 11
488.8760669999999
 21
262.1920609999999
 31
0.0
  0
LINE
  5
A454
330
A1F0
100
AcDbEntity
  8
1
  6
Continuous
100
AcDbLine
 10
488.903159
 20
260.7507549999999
 30
0.0
 11
487.461853
 21
262.1920609999999
 31
0.0
  0
LINE
  5
A455
330
A1F0
100
AcDbEntity
  8
1
  6
Continuous
100
AcDbLine
 10
487.484271
 20
260.7554289999999
 30
0.0
 11
486.04764
 21
262.1920609999999
 31
0.0
  0
LINE
  5
A456
330
A1F0
100
AcDbEntity
  8
1
  6
Continuous
100
AcDbLine
 10
486.065384
 20
260.7601029999999
 30
0.0
 11
484.6334259999999
 21
262.1920609999999
 31
0.0
  0
LINE
  5
A457
330
A1F0
100
AcDbEntity
  8
1
  6
Continuous
100
AcDbLine
 10
484.646496
 20
260.7647769999999
 30
0.0
 11
483.219212
 21
262.1920609999999
 31
0.0
  0
LINE
  5
A458
330
A1F0
100
AcDbEntity
  8
1
  6
Continuous
100
AcDbLine
 10
483.2276079999998
 20
260.7694509999999
 30
0.0
 11
481.804999
 21
262.1920609999999
 31
0.0
  0
LINE
  5
A459
330
A1F0
100
AcDbEntity
  8
1
  6
Continuous
100
AcDbLine
 10
481.8087199999998
 20
260.7741259999999
 30
0.0
 11
480.3907849999998
 21
262.1920609999999
 31
0.0
  0
LINE
  5
A45A
330
A1F0
100
AcDbEntity
  8
1
  6
Continuous
100
AcDbLine
 10
494.487433
 20
260.7323589999999
 30
0.0
 11
495.9471349999998
 21
262.1920609999999
 31
0.0
  0
LINE
  5
A45B
330
A1F0
100
AcDbEntity
  8
1
  6
Continuous
100
AcDbLine
 10
493.0778629999998
 20
260.737002
 30
0.0
 11
494.5329209999998
 21
262.1920609999999
 31
0.0
  0
LINE
  5
A45C
330
A1F0
100
AcDbEntity
  8
1
  6
Continuous
100
AcDbLine
 10
491.668292
 20
260.741646
 30
0.0
 11
493.118707
 21
262.1920609999999
 31
0.0
  0
LINE
  5
A45D
330
A1F0
100
AcDbEntity
  8
1
  6
Continuous
100
AcDbLine
 10
490.258722
 20
260.7462889999998
 30
0.0
 11
491.7044940000001
 21
262.1920609999999
 31
0.0
  0
LINE
  5
A45E
330
A1F0
100
AcDbEntity
  8
1
  6
Continuous
100
AcDbLine
 10
488.8491519999998
 20
260.7509329999999
 30
0.0
 11
490.2902799999998
 21
262.1920609999999
 31
0.0
  0
LINE
  5
A45F
330
A1F0
100
AcDbEntity
  8
1
  6
Continuous
100
AcDbLine
 10
487.439582
 20
260.7555759999999
 30
0.0
 11
488.8760669999999
 21
262.1920609999999
 31
0.0
  0
LINE
  5
A460
330
A1F0
100
AcDbEntity
  8
1
  6
Continuous
100
AcDbLine
 10
486.0300119999998
 20
260.76022
 30
0.0
 11
487.461853
 21
262.1920609999999
 31
0.0
  0
LINE
  5
A461
330
A1F0
100
AcDbEntity
  8
1
  6
Continuous
100
AcDbLine
 10
484.6204419999998
 20
260.7648629999999
 30
0.0
 11
486.04764
 21
262.1920609999999
 31
0.0
  0
LINE
  5
A462
330
A1F0
100
AcDbEntity
  8
1
  6
Continuous
100
AcDbLine
 10
483.2108719999998
 20
260.7695069999999
 30
0.0
 11
484.6334259999999
 21
262.1920609999999
 31
0.0
  0
LINE
  5
A463
330
A1F0
100
AcDbEntity
  8
1
  6
Continuous
100
AcDbLine
 10
481.8013019999998
 20
260.77415
 30
0.0
 11
483.219212
 21
262.1920609999999
 31
0.0
  0
LINE
  5
A464
330
A1F0
100
AcDbEntity
  8
1
  6
Continuous
100
AcDbLine
 10
480.391732
 20
260.778794
 30
0.0
 11
481.804999
 21
262.1920609999999
 31
0.0
  0
ARC
  5
A465
330
A1F0
100
AcDbEntity
  8
1
  6
Continuous
100
AcDbCircle
 10
494.4096379999998
 20
258.5973259999998
 30
0.0
 40
2.133554999999998
100
AcDbArc
 50
78.41299999999998
 51
89.80901600000001
  0
ARC
  5
A466
330
A1F0
100
AcDbEntity
  8
1
  6
Continuous
100
AcDbCircle
 10
490.502287
 20
260.6260879999999
 30
0.0
 40
6.206
100
AcDbArc
 50
39.064301
 51
50.46037999999999
  0
LINE
  5
A467
330
A1F0
100
AcDbEntity
  8
1
  6
Continuous
100
AcDbLine
 10
495.4908679999999
 20
264.177061
 30
0.0
 11
495.3208679999998
 21
264.537061
 31
0.0
  0
LINE
  5
A468
330
A1F0
100
AcDbEntity
  8
1
  6
Continuous
100
AcDbLine
 10
466.2009549999998
 20
260.8255419999999
 30
0.0
 11
464.834436
 21
262.1920609999999
 31
0.0
  0
LINE
  5
A469
330
A1F0
100
AcDbEntity
  8
1
  6
Continuous
100
AcDbLine
 10
467.6198429999998
 20
260.8208669999999
 30
0.0
 11
466.2486499999998
 21
262.1920609999999
 31
0.0
  0
LINE
  5
A46A
330
A1F0
100
AcDbEntity
  8
1
  6
Continuous
100
AcDbLine
 10
469.038731
 20
260.816193
 30
0.0
 11
467.662863
 21
262.1920609999999
 31
0.0
  0
LINE
  5
A46B
330
A1F0
100
AcDbEntity
  8
1
  6
Continuous
100
AcDbLine
 10
470.457618
 20
260.8115189999999
 30
0.0
 11
469.0770769999998
 21
262.1920609999999
 31
0.0
  0
LINE
  5
A46C
330
A1F0
100
AcDbEntity
  8
1
  6
Continuous
100
AcDbLine
 10
471.8765059999998
 20
260.806845
 30
0.0
 11
470.49129
 21
262.1920609999999
 31
0.0
  0
LINE
  5
A46D
330
A1F0
100
AcDbEntity
  8
1
  6
Continuous
100
AcDbLine
 10
473.2953939999998
 20
260.802171
 30
0.0
 11
471.9055039999998
 21
262.1920609999999
 31
0.0
  0
LINE
  5
A46E
330
A1F0
100
AcDbEntity
  8
1
  6
Continuous
100
AcDbLine
 10
478.970945
 20
260.783474
 30
0.0
 11
477.562358
 21
262.1920609999999
 31
0.0
  0
LINE
  5
A46F
330
A1F0
100
AcDbEntity
  8
1
  6
Continuous
100
AcDbLine
 10
477.552057
 20
260.7881479999999
 30
0.0
 11
476.1481449999998
 21
262.1920609999999
 31
0.0
  0
LINE
  5
A470
330
A1F0
100
AcDbEntity
  8
1
  6
Continuous
100
AcDbLine
 10
476.133169
 20
260.792822
 30
0.0
 11
474.733931
 21
262.1920609999999
 31
0.0
  0
LINE
  5
A471
330
A1F0
100
AcDbEntity
  8
1
  6
Continuous
100
AcDbLine
 10
474.714282
 20
260.797496
 30
0.0
 11
473.3197179999998
 21
262.1920609999999
 31
0.0
  0
LINE
  5
A472
330
A1F0
100
AcDbEntity
  8
1
  6
Continuous
100
AcDbLine
 10
464.886461
 20
260.829872
 30
0.0
 11
466.2486499999998
 21
262.1920609999999
 31
0.0
  0
LINE
  5
A473
330
A1F0
100
AcDbEntity
  8
1
  6
Continuous
100
AcDbLine
 10
466.2960309999998
 20
260.8252279999999
 30
0.0
 11
467.662863
 21
262.1920609999999
 31
0.0
  0
LINE
  5
A474
330
A1F0
100
AcDbEntity
  8
1
  6
Continuous
100
AcDbLine
 10
467.705601
 20
260.820585
 30
0.0
 11
469.0770769999998
 21
262.1920609999999
 31
0.0
  0
LINE
  5
A475
330
A1F0
100
AcDbEntity
  8
1
  6
Continuous
100
AcDbLine
 10
469.1151709999998
 20
260.815941
 30
0.0
 11
470.49129
 21
262.1920609999999
 31
0.0
  0
LINE
  5
A476
330
A1F0
100
AcDbEntity
  8
1
  6
Continuous
100
AcDbLine
 10
470.524741
 20
260.811298
 30
0.0
 11
471.9055039999998
 21
262.1920609999999
 31
0.0
  0
LINE
  5
A477
330
A1F0
100
AcDbEntity
  8
1
  6
Continuous
100
AcDbLine
 10
477.572592
 20
260.7880799999999
 30
0.0
 11
478.976572
 21
262.1920609999999
 31
0.0
  0
LINE
  5
A478
330
A1F0
100
AcDbEntity
  8
1
  6
Continuous
100
AcDbLine
 10
476.1630219999998
 20
260.792724
 30
0.0
 11
477.562358
 21
262.1920609999999
 31
0.0
  0
LINE
  5
A479
330
A1F0
100
AcDbEntity
  8
1
  6
Continuous
100
AcDbLine
 10
474.753452
 20
260.797367
 30
0.0
 11
476.1481449999998
 21
262.1920609999999
 31
0.0
  0
LINE
  5
A47A
330
A1F0
100
AcDbEntity
  8
1
  6
Continuous
100
AcDbLine
 10
473.3438809999998
 20
260.802011
 30
0.0
 11
474.733931
 21
262.1920609999999
 31
0.0
  0
LINE
  5
A47B
330
A1F0
100
AcDbEntity
  8
1
  6
Continuous
100
AcDbLine
 10
471.9343109999998
 20
260.8066539999999
 30
0.0
 11
473.3197179999998
 21
262.1920609999999
 31
0.0
  0
LINE
  5
A47C
330
A1F0
100
AcDbEntity
  8
4
  6
CENTER
100
AcDbLine
 10
456.3197179999998
 20
273.210084
 30
0.0
 11
456.3197179999998
 21
264.6101339999999
 31
0.0
  0
LINE
  5
A47D
330
A1F0
100
AcDbEntity
  8
1
  6
Continuous
100
AcDbLine
 10
440.0868179999998
 20
267.6101109999998
 30
0.0
 11
440.0868179999998
 21
270.2100779999998
 31
0.0
  0
ARC
  5
A47E
330
A1F0
100
AcDbEntity
  8
1
  6
Continuous
100
AcDbCircle
 10
454.1603999999998
 20
275.324652
 30
0.0
 40
10.63951799999999
100
AcDbArc
 50
229.929097
 51
243.711423
  0
LINE
  5
A47F
330
A1F0
100
AcDbEntity
  8
1
  6
Continuous
100
AcDbLine
 10
450.3197179999999
 20
261.1504299999999
 30
0.0
 11
450.59319
 21
260.876958
 31
0.0
  0
LINE
  5
A480
330
A1F0
100
AcDbEntity
  8
1
  6
Continuous
100
AcDbLine
 10
452.012078
 20
260.872283
 30
0.0
 11
450.692301
 21
262.1920609999999
 31
0.0
  0
LINE
  5
A481
330
A1F0
100
AcDbEntity
  8
1
  6
Continuous
100
AcDbLine
 10
453.4309649999998
 20
260.8676089999999
 30
0.0
 11
452.1065139999998
 21
262.1920609999999
 31
0.0
  0
LINE
  5
A482
330
A1F0
100
AcDbEntity
  8
1
  6
Continuous
100
AcDbLine
 10
454.849853
 20
260.862935
 30
0.0
 11
453.520728
 21
262.1920609999999
 31
0.0
  0
LINE
  5
A483
330
A1F0
100
AcDbEntity
  8
1
  6
Continuous
100
AcDbLine
 10
456.2687409999998
 20
260.8582609999999
 30
0.0
 11
454.9349409999998
 21
262.1920609999999
 31
0.0
  0
LINE
  5
A484
330
A1F0
100
AcDbEntity
  8
1
  6
Continuous
100
AcDbLine
 10
457.687629
 20
260.853587
 30
0.0
 11
456.349155
 21
262.1920609999999
 31
0.0
  0
LINE
  5
A485
330
A1F0
100
AcDbEntity
  8
1
  6
Continuous
100
AcDbLine
 10
459.106516
 20
260.8489119999999
 30
0.0
 11
457.7633679999998
 21
262.1920609999999
 31
0.0
  0
LINE
  5
A486
330
A1F0
100
AcDbEntity
  8
1
  6
Continuous
100
AcDbLine
 10
460.525404
 20
260.8442379999999
 30
0.0
 11
459.1775819999998
 21
262.1920609999999
 31
0.0
  0
LINE
  5
A487
330
A1F0
100
AcDbEntity
  8
1
  6
Continuous
100
AcDbLine
 10
461.944292
 20
260.8395639999999
 30
0.0
 11
460.591795
 21
262.1920609999999
 31
0.0
  0
LINE
  5
A488
330
A1F0
100
AcDbEntity
  8
1
  6
Continuous
100
AcDbLine
 10
463.3631799999998
 20
260.8348899999999
 30
0.0
 11
462.0060089999998
 21
262.1920609999999
 31
0.0
  0
LINE
  5
A489
330
A1F0
100
AcDbEntity
  8
1
  6
Continuous
100
AcDbLine
 10
450.3197179999999
 20
261.819478
 30
0.0
 11
450.692301
 21
262.1920609999999
 31
0.0
  0
LINE
  5
A48A
330
A1F0
100
AcDbEntity
  8
1
  6
Continuous
100
AcDbLine
 10
450.79076
 20
260.876307
 30
0.0
 11
452.1065139999998
 21
262.1920609999999
 31
0.0
  0
LINE
  5
A48B
330
A1F0
100
AcDbEntity
  8
1
  6
Continuous
100
AcDbLine
 10
452.20033
 20
260.8716629999999
 30
0.0
 11
453.520728
 21
262.1920609999999
 31
0.0
  0
LINE
  5
A48C
330
A1F0
100
AcDbEntity
  8
1
  6
Continuous
100
AcDbLine
 10
453.6099
 20
260.86702
 30
0.0
 11
454.9349409999998
 21
262.1920609999999
 31
0.0
  0
LINE
  5
A48D
330
A1F0
100
AcDbEntity
  8
1
  6
Continuous
100
AcDbLine
 10
455.01947
 20
260.8623759999999
 30
0.0
 11
456.349155
 21
262.1920609999999
 31
0.0
  0
LINE
  5
A48E
330
A1F0
100
AcDbEntity
  8
1
  6
Continuous
100
AcDbLine
 10
456.4290409999999
 20
260.857733
 30
0.0
 11
457.7633679999998
 21
262.1920609999999
 31
0.0
  0
LINE
  5
A48F
330
A1F0
100
AcDbEntity
  8
1
  6
Continuous
100
AcDbLine
 10
457.838611
 20
260.853089
 30
0.0
 11
459.1775819999998
 21
262.1920609999999
 31
0.0
  0
LINE
  5
A490
330
A1F0
100
AcDbEntity
  8
1
  6
Continuous
100
AcDbLine
 10
459.2481809999998
 20
260.848446
 30
0.0
 11
460.591795
 21
262.1920609999999
 31
0.0
  0
LINE
  5
A491
330
A1F0
100
AcDbEntity
  8
1
  6
Continuous
100
AcDbLine
 10
460.657751
 20
260.8438019999999
 30
0.0
 11
462.0060089999998
 21
262.1920609999999
 31
0.0
  0
LINE
  5
A492
330
A1F0
100
AcDbEntity
  8
1
  6
Continuous
100
AcDbLine
 10
462.0673209999998
 20
260.839159
 30
0.0
 11
463.420223
 21
262.1920609999999
 31
0.0
  0
LINE
  5
A493
330
A1F0
100
AcDbEntity
  8
1
  6
Continuous
100
AcDbLine
 10
455.048495
 20
249.612334
 30
0.0
 11
462.7108709999998
 21
248.1951229999999
 31
0.0
  0
ARC
  5
A494
330
A1F0
100
AcDbEntity
  8
1
  6
Continuous
100
AcDbCircle
 10
452.1317469999998
 20
254.268639
 30
0.0
 40
4.490991
100
AcDbArc
 50
251.79529
 51
266.8861249999999
  0
LINE
  5
A495
330
A1F0
100
AcDbEntity
  8
1
  6
Continuous
100
AcDbLine
 10
451.887794
 20
249.7842799999999
 30
0.0
 11
455.048495
 21
249.612334
 31
0.0
  0
ARC
  5
A496
330
A1F0
100
AcDbEntity
  8
1
  6
Continuous
100
AcDbCircle
 10
450.1468939999998
 20
249.771014
 30
0.0
 40
0.278981
100
AcDbArc
 50
78.46644799999999
 51
130.3248189999999
  0
ARC
  5
A497
330
A1F0
100
AcDbEntity
  8
1
  6
Continuous
100
AcDbCircle
 10
450.6369719999998
 20
252.172629
 30
0.0
 40
2.172127999999998
100
AcDbArc
 50
258.466448
 51
272.420371
  0
ARC
  5
A498
330
A1F0
100
AcDbEntity
  8
1
  6
Continuous
100
AcDbCircle
 10
456.85592
 20
256.3287369999998
 30
0.0
 40
8.182361
100
AcDbArc
 50
170.483633
 51
184.531382
  0
ARC
  5
A499
330
A1F0
100
AcDbEntity
  8
1
  6
Continuous
100
AcDbCircle
 10
454.8494519999998
 20
255.5407489999999
 30
0.0
 40
6.626233
100
AcDbArc
 50
138.7146889999999
 51
140.934415
  0
ARC
  5
A49A
330
A1F0
100
AcDbEntity
  8
1
  6
Continuous
100
AcDbCircle
 10
453.1036969999998
 20
256.957746
 30
0.0
 40
4.377780999999997
100
AcDbArc
 50
140.934415
 51
170.483633
  0
ARC
  5
A49B
330
A1F0
100
AcDbEntity
  8
1
  6
Continuous
100
AcDbCircle
 10
435.1794089999998
 20
254.6108119999999
 30
0.0
 40
13.56211899999999
100
AcDbArc
 50
354.480802
 51
4.531381999999998
  0
ARC
  5
A49C
330
A1F0
100
AcDbEntity
  8
1
  6
Continuous
100
AcDbCircle
 10
453.414079
 20
250.9607879999999
 30
0.0
 40
4.927999999999999
100
AcDbArc
 50
175.1559499999999
 51
186.0222719999999
  0
ARC
  5
A49D
330
A1F0
100
AcDbEntity
  8
1
  6
Continuous
100
AcDbCircle
 10
612.3335959999998
 20
237.492893
 30
0.0
 40
164.417176
100
AcDbArc
 50
174.480802
 51
175.1559499999999
  0
LINE
  5
A49E
330
A1F0
100
AcDbEntity
  8
1
  6
Continuous
100
AcDbLine
 10
448.5132759999998
 20
250.4437669999998
 30
0.0
 11
448.623334
 21
250.1776769999999
 31
0.0
  0
ARC
  5
A49F
330
A1F0
100
AcDbEntity
  8
1
  6
Continuous
100
AcDbCircle
 10
451.989631
 20
258.0518649999999
 30
0.0
 40
2.820411
100
AcDbArc
 50
89.80901600000001
 51
138.7146889999999
  0
LINE
  5
A4A0
330
A1F0
100
AcDbEntity
  8
1
  6
Continuous
100
AcDbLine
 10
448.623334
 20
250.1776769999999
 30
0.0
 11
449.9663589999998
 21
249.983706
 31
0.0
  0
LINE
  5
A4A1
330
A1F0
100
AcDbEntity
  8
1
  6
Continuous
100
AcDbLine
 10
450.3197179999999
 20
260.8796549999999
 30
0.0
 11
450.3197179999999
 21
262.1920609999999
 31
0.0
  0
ARC
  5
A4A2
330
A1F0
100
AcDbEntity
  8
1
  6
Continuous
100
AcDbCircle
 10
451.0475239999998
 20
269.0230639999999
 30
0.0
 40
3.611003999999998
100
AcDbArc
 50
243.711423
 51
270.0
  0
ARC
  5
A4A3
330
A1F0
100
AcDbEntity
  8
1
  6
Continuous
100
AcDbCircle
 10
456.137148
 20
260.6260879999999
 30
0.0
 40
6.206
100
AcDbArc
 50
129.5396199999998
 51
140.935699
  0
LINE
  5
A4A4
330
A1F0
100
AcDbEntity
  8
1
  6
Continuous
100
AcDbLine
 10
450.473567
 20
262.5520609999999
 30
0.0
 11
450.603567
 21
262.1920609999999
 31
0.0
  0
ARC
  5
A4A5
330
A1F0
100
AcDbEntity
  8
1
  6
Continuous
100
AcDbCircle
 10
453.935048
 20
265.7272879999998
 30
0.0
 40
4.697225
100
AcDbArc
 50
206.286695
 51
222.530249
  0
LINE
  5
A4A6
330
A1F0
100
AcDbEntity
  8
1
  6
Continuous
100
AcDbLine
 10
451.1485669999998
 20
264.177061
 30
0.0
 11
451.3185669999998
 21
264.537061
 31
0.0
  0
ARC
  5
A4A7
330
A1F0
100
AcDbEntity
  8
1
  6
Continuous
100
AcDbCircle
 10
450.5975369999998
 20
263.257208
 30
0.0
 40
0.9569799999999998
100
AcDbArc
 50
106.011913
 51
155.9597349999999
  0
LINE
  5
A4A8
330
A1F0
100
AcDbEntity
  8
1
  6
Continuous
100
AcDbLine
 10
447.3113689999998
 20
267.1827769999998
 30
0.0
 11
447.271865
 21
267.61009
 31
0.0
  0
CIRCLE
  5
A4A9
330
A1F0
100
AcDbEntity
  8
1
  6
Continuous
100
AcDbCircle
 10
195.136928
 20
217.710116
 30
0.0
 40
4.849999999999997
  0
CIRCLE
  5
A4AA
330
A1F0
100
AcDbEntity
  8
4
  6
CENTER
100
AcDbCircle
 10
219.1369279999999
 20
77.818977
 30
0.0
 40
34.0
  0
LINE
  5
A4AB
330
A1F0
100
AcDbEntity
  8
4
  6
CENTER
100
AcDbLine
 10
219.1369279999999
 20
118.2451879999999
 30
0.0
 11
219.1369279999999
 21
37.392767
 31
0.0
  0
ARC
  5
A4AC
330
A1F0
100
AcDbEntity
  8
1
  6
Continuous
100
AcDbCircle
 10
192.3697879999998
 20
77.818977
 30
0.0
 40
60.0
100
AcDbArc
 50
326.068837
 51
33.93116299999999
  0
ARC
  5
A4AD
330
A1F0
100
AcDbEntity
  8
1
  6
Continuous
100
AcDbCircle
 10
232.5204970000001
 20
101.0
 30
0.0
 40
60.0
100
AcDbArc
 50
229.295257
 51
273.9311629999999
  0
LINE
  5
A4AE
330
A1F0
100
AcDbEntity
  8
4
  6
CENTER
100
AcDbLine
 10
257.3697879999999
 20
77.818977
 30
0.0
 11
150.677535
 21
77.818977
 31
0.0
  0
ARC
  5
A4AF
330
A1F0
100
AcDbEntity
  8
1
  6
Continuous
100
AcDbCircle
 10
232.5204970000001
 20
54.63795499999999
 30
0.0
 40
60.0
100
AcDbArc
 50
86.06883700000002
 51
136.0643229999998
  0
LINE
  5
A4B0
330
A1F0
100
AcDbEntity
  8
4
  6
CENTER
100
AcDbLine
 10
239.386928
 20
112.893006
 30
0.0
 11
232.8869279999999
 21
101.634676
 31
0.0
  0
CIRCLE
  5
A4B1
330
A1F0
100
AcDbEntity
  8
1
  6
Continuous
100
AcDbCircle
 10
236.1369279999999
 20
107.2638409999999
 30
0.0
 40
3.5
  0
ARC
  5
A4B2
330
A1F0
100
AcDbEntity
  8
1
  6
Continuous
100
AcDbCircle
 10
236.1369279999999
 20
107.2638409999999
 30
0.0
 40
7.25
100
AcDbArc
 50
33.93116299999999
 51
86.06883700000002
  0
LINE
  5
A4B3
330
A1F0
100
AcDbEntity
  8
4
  6
CENTER
100
AcDbLine
 10
232.8869279999999
 20
54.003279
 30
0.0
 11
239.386928
 21
42.74494899999999
 31
0.0
  0
CIRCLE
  5
A4B4
330
A1F0
100
AcDbEntity
  8
1
  6
Continuous
100
AcDbCircle
 10
236.1369279999999
 20
48.374114
 30
0.0
 40
3.5
  0
ARC
  5
A4B5
330
A1F0
100
AcDbEntity
  8
1
  6
Continuous
100
AcDbCircle
 10
236.1369279999999
 20
48.374114
 30
0.0
 40
7.25
100
AcDbArc
 50
273.9311629999999
 51
326.068837
  0
LINE
  5
A4B6
330
A1F0
100
AcDbEntity
  8
1
  6
Continuous
100
AcDbLine
 10
174.1275349999999
 20
96.268977
 30
0.0
 11
213.731652
 21
96.268977
 31
0.0
  0
ARC
  5
A4B7
330
A1F0
100
AcDbEntity
  8
1
  6
Continuous
100
AcDbCircle
 10
210.636928
 20
77.818977
 30
0.0
 40
17.0
100
AcDbArc
 50
318.189685
 51
41.810315
  0
LINE
  5
A4B8
330
A1F0
100
AcDbEntity
  8
1
  6
Continuous
100
AcDbLine
 10
167.338555
 20
66.318977
 30
0.0
 11
222.935301
 21
66.318977
 31
0.0
  0
ARC
  5
A4B9
330
A1F0
100
AcDbEntity
  8
1
  6
Continuous
100
AcDbCircle
 10
222.935301
 20
66.818977
 30
0.0
 40
0.5
100
AcDbArc
 50
270.0
 51
318.189685
  0
LINE
  5
A4BA
330
A1F0
100
AcDbEntity
  8
1
  6
Continuous
100
AcDbLine
 10
200.886928
 20
57.083335
 30
0.0
 11
200.886928
 21
59.368977
 31
0.0
  0
LINE
  5
A4BB
330
A1F0
100
AcDbEntity
  8
1
  6
Continuous
100
AcDbLine
 10
189.386928
 20
57.083335
 30
0.0
 11
189.386928
 21
59.368977
 31
0.0
  0
ARC
  5
A4BC
330
A1F0
100
AcDbEntity
  8
1
  6
Continuous
100
AcDbCircle
 10
195.136928
 20
65.868977
 30
0.0
 40
10.5
100
AcDbArc
 50
236.7961769999999
 51
303.2038229999999
  0
LINE
  5
A4BD
330
A1F0
100
AcDbEntity
  8
1
  6
Continuous
100
AcDbLine
 10
189.386928
 20
57.083335
 30
0.0
 11
200.886928
 21
57.083335
 31
0.0
  0
LINE
  5
A4BE
330
A1F0
100
AcDbEntity
  8
1
  6
Continuous
100
AcDbLine
 10
174.1275349999999
 20
61.66897699999999
 30
0.0
 11
213.731652
 21
61.66897699999999
 31
0.0
  0
LINE
  5
A4BF
330
A1F0
100
AcDbEntity
  8
1
  6
Continuous
100
AcDbLine
 10
199.136928
 20
61.66897699999999
 30
0.0
 11
199.136928
 21
62.31897700000001
 31
0.0
  0
LINE
  5
A4C0
330
A1F0
100
AcDbEntity
  8
1
  6
Continuous
100
AcDbLine
 10
191.136928
 20
61.66897699999999
 30
0.0
 11
191.136928
 21
62.31897700000001
 31
0.0
  0
ARC
  5
A4C1
330
A1F0
100
AcDbEntity
  8
1
  6
Continuous
100
AcDbCircle
 10
202.2205959999999
 20
63.31897699999998
 30
0.0
 40
1.0
100
AcDbArc
 50
270.0
 51
355.0
  0
LINE
  5
A4C2
330
A1F0
100
AcDbEntity
  8
1
  6
Continuous
100
AcDbLine
 10
203.216791
 20
63.231821
 30
0.0
 11
203.486882
 21
66.318977
 31
0.0
  0
LINE
  5
A4C3
330
A1F0
100
AcDbEntity
  8
1
  6
Continuous
100
AcDbLine
 10
188.05326
 20
62.31897700000001
 30
0.0
 11
202.2205959999999
 21
62.31897700000001
 31
0.0
  0
LINE
  5
A4C4
330
A1F0
100
AcDbEntity
  8
1
  6
Continuous
100
AcDbLine
 10
167.338555
 20
89.318977
 30
0.0
 11
222.935301
 21
89.318977
 31
0.0
  0
ARC
  5
A4C5
330
A1F0
100
AcDbEntity
  8
1
  6
Continuous
100
AcDbCircle
 10
222.935301
 20
88.81897700000001
 30
0.0
 40
0.5
100
AcDbArc
 50
41.810315
 51
90.0
  0
ARC
  5
A4C6
330
A1F0
100
AcDbEntity
  8
1
  6
Continuous
100
AcDbCircle
 10
195.136928
 20
89.16808399999998
 30
0.0
 40
9.100892999999999
100
AcDbArc
 50
57.79739499999998
 51
122.2026049999999
  0
LINE
  5
A4C7
330
A1F0
100
AcDbEntity
  8
1
  6
Continuous
100
AcDbLine
 10
190.636928
 20
96.268977
 30
0.0
 11
190.2869279999999
 21
96.86897700000001
 31
0.0
  0
LINE
  5
A4C8
330
A1F0
100
AcDbEntity
  8
1
  6
Continuous
100
AcDbLine
 10
199.636928
 20
96.268977
 30
0.0
 11
199.986928
 21
96.86897700000001
 31
0.0
  0
LINE
  5
A4C9
330
A1F0
100
AcDbEntity
  8
1
  6
Continuous
100
AcDbLine
 10
199.986928
 20
96.86897700000001
 30
0.0
 11
190.2869279999999
 21
96.86897700000001
 31
0.0
  0
LINE
  5
A4CA
330
A1F0
100
AcDbEntity
  8
1
  6
Continuous
100
AcDbLine
 10
174.1275349999999
 20
93.968977
 30
0.0
 11
213.731652
 21
93.968977
 31
0.0
  0
LINE
  5
A4CB
330
A1F0
100
AcDbEntity
  8
1
  6
Continuous
100
AcDbLine
 10
199.136928
 20
93.968977
 30
0.0
 11
199.136928
 21
93.318977
 31
0.0
  0
LINE
  5
A4CC
330
A1F0
100
AcDbEntity
  8
1
  6
Continuous
100
AcDbLine
 10
191.136928
 20
93.968977
 30
0.0
 11
191.136928
 21
93.318977
 31
0.0
  0
ARC
  5
A4CD
330
A1F0
100
AcDbEntity
  8
1
  6
Continuous
100
AcDbCircle
 10
202.2205959999999
 20
92.31897700000001
 30
0.0
 40
1.0
100
AcDbArc
 50
5.0
 51
90.0
  0
LINE
  5
A4CE
330
A1F0
100
AcDbEntity
  8
1
  6
Continuous
100
AcDbLine
 10
203.216791
 20
92.40613299999999
 30
0.0
 11
203.486882
 21
89.318977
 31
0.0
  0
LINE
  5
A4CF
330
A1F0
100
AcDbEntity
  8
1
  6
Continuous
100
AcDbLine
 10
188.05326
 20
93.318977
 30
0.0
 11
202.2205959999999
 21
93.318977
 31
0.0
  0
LINE
  5
A4D0
330
A1F0
100
AcDbEntity
  8
4
  6
CENTER
100
AcDbLine
 10
195.136928
 20
347.6012289999999
 30
0.0
 11
195.136928
 21
407.6012289999998
 31
0.0
  0
LINE
  5
A4D1
330
A1F0
100
AcDbEntity
  8
4
  6
CENTER
100
AcDbLine
 10
195.136928
 20
107.818977
 30
0.0
 11
195.136928
 21
47.818977
 31
0.0
  0
ARC
  5
A4D2
330
A1F0
100
AcDbEntity
  8
1
  6
Continuous
100
AcDbCircle
 10
179.636928
 20
77.818977
 30
0.0
 40
17.0
100
AcDbArc
 50
138.1896849999999
 51
221.810315
  0
ARC
  5
A4D3
330
A1F0
100
AcDbEntity
  8
1
  6
Continuous
100
AcDbCircle
 10
167.338555
 20
66.818977
 30
0.0
 40
0.5
100
AcDbArc
 50
221.810315
 51
270.0
  0
ARC
  5
A4D4
330
A1F0
100
AcDbEntity
  8
1
  6
Continuous
100
AcDbCircle
 10
167.338555
 20
88.81897700000001
 30
0.0
 40
0.5
100
AcDbArc
 50
90.0
 51
138.1896849999999
  0
LINE
  5
A4D5
330
A1F0
100
AcDbEntity
  8
1
  6
Continuous
100
AcDbLine
 10
187.0570649999999
 20
92.40613299999999
 30
0.0
 11
186.7869739999999
 21
89.318977
 31
0.0
  0
ARC
  5
A4D6
330
A1F0
100
AcDbEntity
  8
1
  6
Continuous
100
AcDbCircle
 10
188.05326
 20
92.31897700000001
 30
0.0
 40
1.0
100
AcDbArc
 50
90.0
 51
175.0
  0
LINE
  5
A4D7
330
A1F0
100
AcDbEntity
  8
1
  6
Continuous
100
AcDbLine
 10
187.0570649999999
 20
63.231821
 30
0.0
 11
186.7869739999999
 21
66.318977
 31
0.0
  0
ARC
  5
A4D8
330
A1F0
100
AcDbEntity
  8
1
  6
Continuous
100
AcDbCircle
 10
188.05326
 20
63.31897699999998
 30
0.0
 40
1.0
100
AcDbArc
 50
185.0
 51
270.0
  0
ARC
  5
A4D9
330
A1F0
100
AcDbEntity
  8
1
  6
Continuous
100
AcDbCircle
 10
174.1275349999999
 20
377.601229
 30
0.0
 40
18.44999999999998
100
AcDbArc
 50
90.0
 51
270.0
  0
LINE
  5
A4DA
330
A1F0
100
AcDbEntity
  8
1
  6
Continuous
100
AcDbLine
 10
213.731652
 20
59.368977
 30
0.0
 11
174.1275349999999
 21
59.368977
 31
0.0
  0
ARC
  5
A4DB
330
A1F0
100
AcDbEntity
  8
1
  6
Continuous
100
AcDbCircle
 10
174.1275349999999
 20
77.818977
 30
0.0
 40
18.44999999999998
100
AcDbArc
 50
90.0
 51
270.0
  0
ARC
  5
A4DC
330
A1F0
100
AcDbEntity
  8
1
  6
Continuous
100
AcDbCircle
 10
219.1369279999999
 20
77.818977
 30
0.0
 40
24.5
100
AcDbArc
 50
228.8562509999998
 51
131.143749
  0
ARC
  5
A4DD
330
A1F0
100
AcDbEntity
  8
1
  6
Continuous
100
AcDbCircle
 10
174.1275349999999
 20
77.818977
 30
0.0
 40
16.15
100
AcDbArc
 50
90.0
 51
270.0
  0
ARC
  5
A4DE
330
A1F0
100
AcDbEntity
  8
1
  6
Continuous
100
AcDbCircle
 10
219.1369279999999
 20
77.818977
 30
0.0
 40
22.2
100
AcDbArc
 50
236.209952
 51
123.7900479999999
  0
LINE
  5
A4DF
330
A1F0
100
AcDbEntity
  8
1
  6
Continuous
100
AcDbLine
 10
213.731652
 20
96.268977
 30
0.0
 11
213.731652
 21
93.968977
 31
0.0
  0
LINE
  5
A4E0
330
A1F0
100
AcDbEntity
  8
1
  6
Continuous
100
AcDbLine
 10
213.731652
 20
59.368977
 30
0.0
 11
213.731652
 21
61.66897699999999
 31
0.0
  0
ARC
  5
A4E1
330
A1F0
100
AcDbEntity
  8
1
  6
Continuous
100
AcDbCircle
 10
219.1369279999999
 20
77.818977
 30
0.0
 40
26.047853
100
AcDbArc
 50
225.0977189999999
 51
134.9022809999999
  0
LINE
  5
A4E2
330
A1F0
100
AcDbEntity
  8
1
  6
Continuous
100
AcDbLine
 10
185.2110139999998
 20
96.268977
 30
0.0
 11
185.2110139999998
 21
93.968977
 31
0.0
  0
LINE
  5
A4E3
330
A1F0
100
AcDbEntity
  8
1
  6
Continuous
100
AcDbLine
 10
185.2110139999998
 20
61.66897699999999
 30
0.0
 11
185.2110139999998
 21
59.368977
 31
0.0
  0
ARC
  5
A4E4
330
A1F0
100
AcDbEntity
  8
1
  6
Continuous
100
AcDbCircle
 10
45.79380299999999
 20
251.867293
 30
0.0
 40
2.0
100
AcDbArc
 50
111.930766
 51
172.740878
  0
ARC
  5
A4E5
330
A1F0
100
AcDbEntity
  8
1
  6
Continuous
100
AcDbCircle
 10
77.84419699999998
 20
251.867293
 30
0.0
 40
2.0
100
AcDbArc
 50
7.259121999999998
 51
68.06923399999999
  0
ARC
  5
A4E6
330
A1F0
100
AcDbEntity
  8
1
  6
Continuous
100
AcDbCircle
 10
367.228323
 20
244.681049
 30
0.0
 40
3.5
100
AcDbArc
 50
316.8185459999999
 51
0.0
  0
ARC
  5
A4E7
330
A1F0
100
AcDbEntity
  8
1
  6
Continuous
100
AcDbCircle
 10
360.907803
 20
250.612563
 30
0.0
 40
12.167862
100
AcDbArc
 50
291.240596
 51
316.8185459999999
  0
ARC
  5
A4E8
330
A1F0
100
AcDbEntity
  8
1
  6
Continuous
100
AcDbCircle
 10
364.9283229999999
 20
244.681049
 30
0.0
 40
3.5
100
AcDbArc
 50
306.775219
 51
0.0
  0
ARC
  5
A4E9
330
A1F0
100
AcDbEntity
  8
1
  6
Continuous
100
AcDbCircle
 10
349.6819249999999
 20
265.079718
 30
0.0
 40
28.966809
100
AcDbArc
 50
295.996006
 51
306.775219
  0
ARC
  5
A4EA
330
A1F0
100
AcDbEntity
  8
1
  6
Continuous
100
AcDbCircle
 10
365.6783229999998
 20
238.3392289999999
 30
0.0
 40
1.0
100
AcDbArc
 50
111.240596
 51
180.0
  0
ARC
  5
A4EB
330
A1F0
100
AcDbEntity
  8
1
  6
Continuous
100
AcDbCircle
 10
327.5283229999998
 20
244.681049
 30
0.0
 40
3.5
100
AcDbArc
 50
180.0
 51
233.224781
  0
ARC
  5
A4EC
330
A1F0
100
AcDbEntity
  8
1
  6
Continuous
100
AcDbCircle
 10
325.2283229999998
 20
244.681049
 30
0.0
 40
3.5
100
AcDbArc
 50
180.0
 51
223.181454
  0
ARC
  5
A4ED
330
A1F0
100
AcDbEntity
  8
1
  6
Continuous
100
AcDbCircle
 10
331.5488429999998
 20
250.612563
 30
0.0
 40
12.167862
100
AcDbArc
 50
223.181454
 51
248.7594039999999
  0
ARC
  5
A4EE
330
A1F0
100
AcDbEntity
  8
1
  6
Continuous
100
AcDbCircle
 10
342.774721
 20
265.079718
 30
0.0
 40
28.966809
100
AcDbArc
 50
233.224781
 51
244.003994
  0
ARC
  5
A4EF
330
A1F0
100
AcDbEntity
  8
1
  6
Continuous
100
AcDbCircle
 10
326.778323
 20
238.3392289999999
 30
0.0
 40
1.0
100
AcDbArc
 50
0.0
 51
68.75940400000001
  0
ARC
  5
A4F0
330
A1F0
100
AcDbEntity
  8
1
  6
Continuous
100
AcDbCircle
 10
76.49848
 20
250.612563
 30
0.0
 40
12.167862
100
AcDbArc
 50
291.240596
 51
316.8185459999999
  0
ARC
  5
A4F1
330
A1F0
100
AcDbEntity
  8
1
  6
Continuous
100
AcDbCircle
 10
81.26899999999997
 20
238.3392289999999
 30
0.0
 40
1.0
100
AcDbArc
 50
111.240596
 51
180.0
  0
ARC
  5
A4F2
330
A1F0
100
AcDbEntity
  8
1
  6
Continuous
100
AcDbCircle
 10
42.369
 20
238.3392289999999
 30
0.0
 40
1.0
100
AcDbArc
 50
0.0
 51
68.75940400000001
  0
ARC
  5
A4F3
330
A1F0
100
AcDbEntity
  8
1
  6
Continuous
100
AcDbCircle
 10
47.13951999999999
 20
250.612563
 30
0.0
 40
12.167862
100
AcDbArc
 50
223.181454
 51
248.7594039999999
  0
ARC
  5
A4F4
330
A1F0
100
AcDbEntity
  8
1
  6
Continuous
100
AcDbCircle
 10
82.819
 20
244.681049
 30
0.0
 40
3.5
100
AcDbArc
 50
316.8185459999999
 51
0.0
  0
ARC
  5
A4F5
330
A1F0
100
AcDbEntity
  8
1
  6
Continuous
100
AcDbCircle
 10
40.819
 20
244.681049
 30
0.0
 40
3.5
100
AcDbArc
 50
180.0
 51
223.181454
  0
ENDSEC
  0
SECTION
  2
OBJECTS
  0
DICTIONARY
  5
A1DE
330
0
100
AcDbDictionary
281
     1
  3
ACAD_CIP_PREVIOUS_PRODUCT_INFO
350
A557
  3
ACAD_COLOR
350
A539
  3
ACAD_DETAILVIEWSTYLE
350
A552
  3
ACAD_GROUP
350
A1DF
  3
ACAD_LAYOUT
350
A1EB
  3
ACAD_MATERIAL
350
A507
  3
ACAD_MLEADERSTYLE
350
A54E
  3
ACAD_MLINESTYLE
350
A1E8
  3
ACAD_PLOTSETTINGS
350
A1EA
  3
ACAD_PLOTSTYLENAME
350
A505
  3
ACAD_SCALELIST
350
A53C
  3
ACAD_SECTIONVIEWSTYLE
350
A550
  3
ACAD_TABLESTYLE
350
A53A
  3
ACAD_VISUALSTYLE
350
A520
  3
ACDB_RECOMPOSE_DATA
350
A575
  3
AcDbVariableDictionary
350
A568
  3
DWGPROPS
350
A576
  0
DICTIONARY
  5
A558
330
A1E2
100
AcDbDictionary
280
     1
281
     1
  3
ADSK_XREC_LAYER_RECONCILED
360
A559
  0
DICTIONARY
  5
A55A
330
A1F8
100
AcDbDictionary
280
     1
281
     1
  3
ADSK_XREC_LAYER_RECONCILED
360
A55B
  0
DICTIONARY
  5
A55C
330
A1F9
100
AcDbDictionary
280
     1
281
     1
  3
ADSK_XREC_LAYER_RECONCILED
360
A55D
  0
DICTIONARY
  5
A55E
330
A1FA
100
AcDbDictionary
280
     1
281
     1
  3
ADSK_XREC_LAYER_RECONCILED
360
A55F
  0
DICTIONARY
  5
A560
330
A1FB
100
AcDbDictionary
280
     1
281
     1
  3
ADSK_XREC_LAYER_RECONCILED
360
A561
  0
DICTIONARY
  5
A562
330
A1FC
100
AcDbDictionary
280
     1
281
     1
  3
ADSK_XREC_LAYER_RECONCILED
360
A563
  0
DICTIONARY
  5
A564
330
A1FD
100
AcDbDictionary
280
     1
281
     1
  3
ADSK_XREC_LAYER_RECONCILED
360
A565
  0
DICTIONARY
  5
A566
330
A1FE
100
AcDbDictionary
280
     1
281
     1
  3
ADSK_XREC_LAYER_RECONCILED
360
A567
  0
DICTIONARY
  5
A500
330
A1F0
100
AcDbDictionary
281
     1
  3
ACAD_LAYOUTSELFREF
350
A501
  0
DICTIONARY
  5
A4FE
330
A1EC
100
AcDbDictionary
281
     1
  3
ACAD_LAYOUTSELFREF
350
A4FF
  0
XRECORD
  5
A557
102
{ACAD_REACTORS
330
A1DE
102
}
330
A1DE
100
AcDbXrecord
280
     1
300
ACDLT
300
2014
300
ACDLT_F_S
  0
DICTIONARY
  5
A539
102
{ACAD_REACTORS
330
A1DE
102
}
330
A1DE
100
AcDbDictionary
281
     1
  0
DICTIONARY
  5
A552
102
{ACAD_REACTORS
330
A1DE
102
}
330
A1DE
100
AcDbDictionary
281
     1
  3
Imperial24
350
A553
  0
DICTIONARY
  5
A1DF
102
{ACAD_REACTORS
330
A1DE
102
}
330
A1DE
100
AcDbDictionary
281
     1
  0
DICTIONARY
  5
A1EB
102
{ACAD_REACTORS
330
A1DE
102
}
330
A1DE
100
AcDbDictionary
281
     1
  3
Model
350
A554
  3
レイアウト1
350
A555
  0
DICTIONARY
  5
A507
102
{ACAD_REACTORS
330
A1DE
102
}
330
A1DE
100
AcDbDictionary
281
     1
  3
ByBlock
350
A510
  3
ByLayer
350
A508
  3
Global
350
A518
  0
DICTIONARY
  5
A54E
102
{ACAD_REACTORS
330
A1DE
102
}
330
A1DE
100
AcDbDictionary
281
     1
  3
Standard
350
A54F
  0
DICTIONARY
  5
A1E8
102
{ACAD_REACTORS
330
A1DE
102
}
330
A1DE
100
AcDbDictionary
281
     1
  3
STANDARD
350
A1E9
  0
DICTIONARY
  5
A1EA
102
{ACAD_REACTORS
330
A1DE
102
}
330
A1DE
100
AcDbDictionary
281
     1
  0
ACDBDICTIONARYWDFLT
  5
A505
102
{ACAD_REACTORS
330
A1DE
102
}
330
A1DE
100
AcDbDictionary
281
     1
  3
Normal
350
A506
100
AcDbDictionaryWithDefault
340
A506
  0
DICTIONARY
  5
A53C
102
{ACAD_REACTORS
330
A1DE
102
}
330
A1DE
100
AcDbDictionary
281
     1
  3
A0
350
A53D
  3
A1
350
A53E
  3
A2
350
A53F
  3
A3
350
A540
  3
A4
350
A541
  3
A5
350
A542
  3
A6
350
A543
  3
A7
350
A544
  3
A8
350
A545
  3
A9
350
A546
  3
B0
350
A547
  3
B1
350
A548
  3
B2
350
A549
  3
B3
350
A54A
  3
B4
350
A54B
  3
B5
350
A54C
  3
B6
350
A54D
  0
DICTIONARY
  5
A550
102
{ACAD_REACTORS
330
A1DE
102
}
330
A1DE
100
AcDbDictionary
281
     1
  3
Imperial24
350
A551
  0
DICTIONARY
  5
A53A
102
{ACAD_REACTORS
330
A1DE
102
}
330
A1DE
100
AcDbDictionary
281
     1
  3
Standard
350
A53B
  0
DICTIONARY
  5
A520
102
{ACAD_REACTORS
330
A1DE
102
}
330
A1DE
100
AcDbDictionary
281
     1
  3
2dWireframe
350
A526
  3
Basic
350
A525
  3
Brighten
350
A52C
  3
ColorChange
350
A530
  3
Conceptual
350
A529
  3
Dim
350
A52B
  3
EdgeColorOff
350
A538
  3
Facepattern
350
A52F
  3
Flat
350
A521
  3
FlatWithEdges
350
A522
  3
Gouraud
350
A523
  3
GouraudWithEdges
350
A524
  3
Hidden
350
A528
  3
JitterOff
350
A536
  3
Linepattern
350
A52E
  3
OverhangOff
350
A537
  3
Realistic
350
A52A
  3
Shaded
350
A535
  3
Shaded with edges
350
A534
  3
Shades of Gray
350
A531
  3
Sketchy
350
A532
  3
Thicken
350
A52D
  3
Wireframe
350
A527
  3
X-Ray
350
A533
  0
XRECORD
  5
A575
102
{ACAD_REACTORS
330
A1DE
102
}
330
A1DE
100
AcDbXrecord
280
     1
 90
        1
330
A53B
  0
DICTIONARY
  5
A568
102
{ACAD_REACTORS
330
A1DE
102
}
330
A1DE
100
AcDbDictionary
281
     1
  3
CANNOSCALE
350
A56D
  3
CMLEADERSTYLE
350
A56A
  3
CTABLESTYLE
350
A569
  3
CVIEWDETAILSTYLE
350
A56B
  3
CVIEWSECTIONSTYLE
350
A56C
  3
DIMASSOC
350
A570
  3
INDEXCTL
350
A56F
  3
SORTENTS
350
A56E
  3
XCLIPFRAME
350
A571
  0
XRECORD
  5
A576
102
{ACAD_REACTORS
330
A1DE
102
}
330
A1DE
100
AcDbXrecord
280
     1
  1
DWGPROPS COOKIE
  2

  3

  4

  6

  7

  8
Yoshitsune
  9

300
=
301
=
302
=
303
=
304
=
305
=
306
=
307
=
308
=
309
=
 40
0.0022273958333333
 41
2451345.361852199
 42
2457618.723078079
  1

 90
        0
  0
XRECORD
  5
A559
102
{ACAD_REACTORS
330
A558
102
}
330
A558
100
AcDbXrecord
280
     1
290
     1
  0
XRECORD
  5
A55B
102
{ACAD_REACTORS
330
A55A
102
}
330
A55A
100
AcDbXrecord
280
     1
290
     1
  0
XRECORD
  5
A55D
102
{ACAD_REACTORS
330
A55C
102
}
330
A55C
100
AcDbXrecord
280
     1
290
     1
  0
XRECORD
  5
A55F
102
{ACAD_REACTORS
330
A55E
102
}
330
A55E
100
AcDbXrecord
280
     1
290
     1
  0
XRECORD
  5
A561
102
{ACAD_REACTORS
330
A560
102
}
330
A560
100
AcDbXrecord
280
     1
290
     1
  0
XRECORD
  5
A563
102
{ACAD_REACTORS
330
A562
102
}
330
A562
100
AcDbXrecord
280
     1
290
     1
  0
XRECORD
  5
A565
102
{ACAD_REACTORS
330
A564
102
}
330
A564
100
AcDbXrecord
280
     1
290
     1
  0
XRECORD
  5
A567
102
{ACAD_REACTORS
330
A566
102
}
330
A566
100
AcDbXrecord
280
     1
290
     1
  0
XRECORD
  5
A501
102
{ACAD_REACTORS
330
A500
102
}
330
A500
100
AcDbXrecord
280
     1
340
A1F0
  0
XRECORD
  5
A4FF
102
{ACAD_REACTORS
330
A4FE
102
}
330
A4FE
100
AcDbXrecord
280
     1
340
A1EC
  0
ACDBDETAILVIEWSTYLE
  5
A553
102
{ACAD_XDICTIONARY
360
A5AE
102
}
102
{ACAD_REACTORS
330
A552
102
}
330
A552
100
AcDbModelDocViewStyle
 70
     0
  3
Imperial24
290
     0
100
AcDbDetailViewStyle
 70
     0
 71
     0
 90
        3
 71
     1
340
A1E3
 40
0.24
340
0
 40
0.24
300

 40
0.36
280
     3
 71
     2
340
A1E7
 90
       25
 71
     3
340
A1E3
 40
0.24
 90
        1
 40
0.75
 90
        1
300
%<\AcVar ViewType \f "%tc1">% %<\AcVar ViewDetailId>%\PSCALE %<\AcVar ViewScale \f "%sn">%
 71
     4
340
A1E7
 90
       25
340
A1E7
 90
       25
280
     0
  0
LAYOUT
  5
A554
102
{ACAD_XDICTIONARY
360
A5B0
102
}
102
{ACAD_REACTORS
330
A1EB
102
}
330
A1EB
100
AcDbPlotSettings
  1

  2
Canon LBP9100C
  4

  6

 40
0.0
 41
0.0
 42
0.0
 43
0.0
 44
0.0
 45
0.0
 46
0.0
 47
0.0
 48
0.0
 49
0.0
140
0.0
141
0.0
142
1.0
143
1.0
 70
  1712
 72
     0
 73
     0
 74
     0
  7

 75
     0
147
1.0
148
0.0
149
0.0
100
AcDbLayout
  1
Model
 70
     1
 71
     0
 10
0.0
 20
0.0
 11
12.0
 21
9.0
 12
0.0
 22
0.0
 32
0.0
 14
0.0
 24
0.0
 34
0.0
 15
0.0
 25
0.0
 35
0.0
146
0.0
 13
0.0
 23
0.0
 33
0.0
 16
1.0
 26
0.0
 36
0.0
 17
0.0
 27
1.0
 37
0.0
 76
     0
330
A1F0
331
A4FD
  0
LAYOUT
  5
A555
102
{ACAD_XDICTIONARY
360
A5B2
102
}
102
{ACAD_REACTORS
330
A1EB
102
}
330
A1EB
100
AcDbPlotSettings
  1

  2
Canon LBP9100C
  4

  6

 40
0.0
 41
0.0
 42
0.0
 43
0.0
 44
0.0
 45
0.0
 46
0.0
 47
0.0
 48
0.0
 49
0.0
140
0.0
141
0.0
142
1.0
143
1.0
 70
   688
 72
     0
 73
     0
 74
     5
  7

 75
    16
147
1.0
148
0.0
149
0.0
100
AcDbLayout
  1
レイアウト1
 70
     0
 71
     1
 10
0.0
 20
0.0
 11
420.0
 21
297.0
 12
0.0
 22
0.0
 32
0.0
 14
1.000000000000000E+20
 24
1.000000000000000E+20
 34
1.000000000000000E+20
 15
-1.000000000000000E+20
 25
-1.000000000000000E+20
 35
-1.000000000000000E+20
146
0.0
 13
0.0
 23
0.0
 33
0.0
 16
1.0
 26
0.0
 36
0.0
 17
0.0
 27
1.0
 37
0.0
 76
     0
330
A1EC
  0
MATERIAL
  5
A510
102
{ACAD_XDICTIONARY
360
A511
102
}
102
{ACAD_REACTORS
330
A507
102
}
330
A507
100
AcDbMaterial
  1
ByBlock
 72
     0
 43
0.0208333333333333
 43
0.0
 43
0.0
 43
0.0
 43
0.0
 43
0.0208333333333333
 43
0.0
 43
0.0
 43
0.0
 43
0.0
 43
1.0
 43
0.0
 43
0.0
 43
0.0
 43
0.0
 43
1.0
 77
     0
 47
0.0208333333333333
 47
0.0
 47
0.0
 47
0.0
 47
0.0
 47
0.0208333333333333
 47
0.0
 47
0.0
 47
0.0
 47
0.0
 47
1.0
 47
0.0
 47
0.0
 47
0.0
 47
0.0
 47
1.0
171
     0
 49
0.0208333333333333
 49
0.0
 49
0.0
 49
0.0
 49
0.0
 49
0.0208333333333333
 49
0.0
 49
0.0
 49
0.0
 49
0.0
 49
1.0
 49
0.0
 49
0.0
 49
0.0
 49
0.0
 49
1.0
175
     0
142
0.0208333333333333
142
0.0
142
0.0
142
0.0
142
0.0
142
0.0208333333333333
142
0.0
142
0.0
142
0.0
142
0.0
142
1.0
142
0.0
142
0.0
142
0.0
142
0.0
142
1.0
179
     0
144
0.0208333333333333
144
0.0
144
0.0
144
0.0
144
0.0
144
0.0208333333333333
144
0.0
144
0.0
144
0.0
144
0.0
144
1.0
144
0.0
144
0.0
144
0.0
144
0.0
144
1.0
147
0.0208333333333333
147
0.0
147
0.0
147
0.0
147
0.0
147
0.0208333333333333
147
0.0
147
0.0
147
0.0
147
0.0
147
1.0
147
0.0
147
0.0
147
0.0
147
0.0
147
1.0
  0
MATERIAL
  5
A508
102
{ACAD_XDICTIONARY
360
A509
102
}
102
{ACAD_REACTORS
330
A507
102
}
330
A507
100
AcDbMaterial
  1
ByLayer
 72
     0
 43
0.0208333333333333
 43
0.0
 43
0.0
 43
0.0
 43
0.0
 43
0.0208333333333333
 43
0.0
 43
0.0
 43
0.0
 43
0.0
 43
1.0
 43
0.0
 43
0.0
 43
0.0
 43
0.0
 43
1.0
 77
     0
 47
0.0208333333333333
 47
0.0
 47
0.0
 47
0.0
 47
0.0
 47
0.0208333333333333
 47
0.0
 47
0.0
 47
0.0
 47
0.0
 47
1.0
 47
0.0
 47
0.0
 47
0.0
 47
0.0
 47
1.0
171
     0
 49
0.0208333333333333
 49
0.0
 49
0.0
 49
0.0
 49
0.0
 49
0.0208333333333333
 49
0.0
 49
0.0
 49
0.0
 49
0.0
 49
1.0
 49
0.0
 49
0.0
 49
0.0
 49
0.0
 49
1.0
175
     0
142
0.0208333333333333
142
0.0
142
0.0
142
0.0
142
0.0
142
0.0208333333333333
142
0.0
142
0.0
142
0.0
142
0.0
142
1.0
142
0.0
142
0.0
142
0.0
142
0.0
142
1.0
179
     0
144
0.0208333333333333
144
0.0
144
0.0
144
0.0
144
0.0
144
0.0208333333333333
144
0.0
144
0.0
144
0.0
144
0.0
144
1.0
144
0.0
144
0.0
144
0.0
144
0.0
144
1.0
147
0.0208333333333333
147
0.0
147
0.0
147
0.0
147
0.0
147
0.0208333333333333
147
0.0
147
0.0
147
0.0
147
0.0
147
1.0
147
0.0
147
0.0
147
0.0
147
0.0
147
1.0
  0
MATERIAL
  5
A518
102
{ACAD_XDICTIONARY
360
A519
102
}
102
{ACAD_REACTORS
330
A507
102
}
330
A507
100
AcDbMaterial
  1
Global
 72
     0
 43
0.0208333333333333
 43
0.0
 43
0.0
 43
0.0
 43
0.0
 43
0.0208333333333333
 43
0.0
 43
0.0
 43
0.0
 43
0.0
 43
1.0
 43
0.0
 43
0.0
 43
0.0
 43
0.0
 43
1.0
 77
     0
 47
0.0208333333333333
 47
0.0
 47
0.0
 47
0.0
 47
0.0
 47
0.0208333333333333
 47
0.0
 47
0.0
 47
0.0
 47
0.0
 47
1.0
 47
0.0
 47
0.0
 47
0.0
 47
0.0
 47
1.0
171
     0
 49
0.0208333333333333
 49
0.0
 49
0.0
 49
0.0
 49
0.0
 49
0.0208333333333333
 49
0.0
 49
0.0
 49
0.0
 49
0.0
 49
1.0
 49
0.0
 49
0.0
 49
0.0
 49
0.0
 49
1.0
175
     0
142
0.0208333333333333
142
0.0
142
0.0
142
0.0
142
0.0
142
0.0208333333333333
142
0.0
142
0.0
142
0.0
142
0.0
142
1.0
142
0.0
142
0.0
142
0.0
142
0.0
142
1.0
179
     0
144
0.0208333333333333
144
0.0
144
0.0
144
0.0
144
0.0
144
0.0208333333333333
144
0.0
144
0.0
144
0.0
144
0.0
144
1.0
144
0.0
144
0.0
144
0.0
144
0.0
144
1.0
147
0.0208333333333333
147
0.0
147
0.0
147
0.0
147
0.0
147
0.0208333333333333
147
0.0
147
0.0
147
0.0
147
0.0
147
1.0
147
0.0
147
0.0
147
0.0
147
0.0
147
1.0
  0
MLEADERSTYLE
  5
A54F
102
{ACAD_REACTORS
330
A54E
102
}
330
A54E
100
AcDbMLeaderStyle
170
     2
171
     1
172
     0
 90
        2
 40
0.0
 41
0.0
173
     1
 91
-1056964608
340
A1E5
 92
       -2
290
     1
 42
0.09
291
     1
 43
0.36
  3
Standard
 44
0.18
300

342
A1E3
174
     1
178
     6
175
     1
176
     0
 93
-1056964608
 45
0.18
292
     0
297
     0
 46
0.18
 94
-1056964608
 47
1.0
 49
1.0
140
1.0
293
     1
141
0.0
294
     1
177
     0
142
1.0
295
     0
296
     0
143
0.125
1001
ACAD_MLEADERVER
1070
     2
  0
MLINESTYLE
  5
A1E9
102
{ACAD_REACTORS
330
A1E8
102
}
330
A1E8
100
AcDbMlineStyle
  2
STANDARD
 70
     0
  3

 62
   256
 51
90.0
 52
90.0
 71
     2
 49
0.5
 62
   256
  6
BYLAYER
 49
-0.5
 62
   256
  6
BYLAYER
  0
ACDBPLACEHOLDER
  5
A506
102
{ACAD_REACTORS
330
A505
102
}
330
A505
  0
SCALE
  5
A53D
102
{ACAD_REACTORS
330
A53C
102
}
330
A53C
100
AcDbScale
 70
     0
300
1:1
140
1.0
141
1.0
290
     1
  0
SCALE
  5
A53E
102
{ACAD_REACTORS
330
A53C
102
}
330
A53C
100
AcDbScale
 70
     0
300
1/128" = 1'-0"
140
0.0078125
141
12.0
290
     0
  0
SCALE
  5
A53F
102
{ACAD_REACTORS
330
A53C
102
}
330
A53C
100
AcDbScale
 70
     0
300
1/64" = 1'-0"
140
0.015625
141
12.0
290
     0
  0
SCALE
  5
A540
102
{ACAD_REACTORS
330
A53C
102
}
330
A53C
100
AcDbScale
 70
     0
300
1/32" = 1'-0"
140
0.03125
141
12.0
290
     0
  0
SCALE
  5
A541
102
{ACAD_REACTORS
330
A53C
102
}
330
A53C
100
AcDbScale
 70
     0
300
1/16" = 1'-0"
140
0.0625
141
12.0
290
     0
  0
SCALE
  5
A542
102
{ACAD_REACTORS
330
A53C
102
}
330
A53C
100
AcDbScale
 70
     0
300
3/32" = 1'-0"
140
0.09375
141
12.0
290
     0
  0
SCALE
  5
A543
102
{ACAD_REACTORS
330
A53C
102
}
330
A53C
100
AcDbScale
 70
     0
300
1/8" = 1'-0"
140
0.125
141
12.0
290
     0
  0
SCALE
  5
A544
102
{ACAD_REACTORS
330
A53C
102
}
330
A53C
100
AcDbScale
 70
     0
300
3/16" = 1'-0"
140
0.1875
141
12.0
290
     0
  0
SCALE
  5
A545
102
{ACAD_REACTORS
330
A53C
102
}
330
A53C
100
AcDbScale
 70
     0
300
1/4" = 1'-0"
140
0.25
141
12.0
290
     0
  0
SCALE
  5
A546
102
{ACAD_REACTORS
330
A53C
102
}
330
A53C
100
AcDbScale
 70
     0
300
3/8" = 1'-0"
140
0.375
141
12.0
290
     0
  0
SCALE
  5
A547
102
{ACAD_REACTORS
330
A53C
102
}
330
A53C
100
AcDbScale
 70
     0
300
1/2" = 1'-0"
140
0.5
141
12.0
290
     0
  0
SCALE
  5
A548
102
{ACAD_REACTORS
330
A53C
102
}
330
A53C
100
AcDbScale
 70
     0
300
3/4" = 1'-0"
140
0.75
141
12.0
290
     0
  0
SCALE
  5
A549
102
{ACAD_REACTORS
330
A53C
102
}
330
A53C
100
AcDbScale
 70
     0
300
1" = 1'-0"
140
1.0
141
12.0
290
     0
  0
SCALE
  5
A54A
102
{ACAD_REACTORS
330
A53C
102
}
330
A53C
100
AcDbScale
 70
     0
300
1-1/2" = 1'-0"
140
1.5
141
12.0
290
     0
  0
SCALE
  5
A54B
102
{ACAD_REACTORS
330
A53C
102
}
330
A53C
100
AcDbScale
 70
     0
300
3" = 1'-0"
140
3.0
141
12.0
290
     0
  0
SCALE
  5
A54C
102
{ACAD_REACTORS
330
A53C
102
}
330
A53C
100
AcDbScale
 70
     0
300
6" = 1'-0"
140
6.0
141
12.0
290
     0
  0
SCALE
  5
A54D
102
{ACAD_REACTORS
330
A53C
102
}
330
A53C
100
AcDbScale
 70
     0
300
1'-0" = 1'-0"
140
12.0
141
12.0
290
     0
  0
ACDBSECTIONVIEWSTYLE
  5
A551
102
{ACAD_XDICTIONARY
360
A5AC
102
}
102
{ACAD_REACTORS
330
A550
102
}
330
A550
100
AcDbModelDocViewStyle
 70
     0
  3
Imperial24
290
     0
100
AcDbSectionViewStyle
 70
     0
 71
     0
 90
       78
 71
     1
340
A1E3
 40
0.24
340
0
340
0
 40
0.24
300
I, O, Q, S, X, Z
 40
0.48
 90
        3
 40
0.18
 90
        1
 71
     2
340
A1E7
 90
       25
340
A1E7
 90
       50
 40
0.24
 40
0.0
 40
0.24
 71
     3
340
A1E3
 40
0.24
 90
        1
 40
0.75
 90
        1
300
%<\AcVar ViewType \f "%tc1">% %<\AcVar ViewSectionStartId>%-%<\AcVar ViewSectionEndId>%\PSCALE %<\AcVar ViewScale \f "%sn">%
 71
     4
300
ANSI31
 40
1.0
 90
        0
290
     0
290
     0
 90
        6
 40
0.0
 40
1.570796326794896
 40
0.2617993877991494
 40
1.308996938995747
 40
-0.2617993877991494
 40
1.832595714594046
  0
TABLESTYLE
  5
A53B
102
{ACAD_XDICTIONARY
360
A573
102
}
102
{ACAD_REACTORS
330
A53A
102
}
330
A53A
100
AcDbTableStyle
  3
Standard
 70
     0
 71
     0
 40
0.06
 41
0.06
280
     0
281
     0
  7
STANDARD
140
0.18
170
     2
 62
     0
 63
     7
283
     0
274
    -2
284
     1
 64
     0
275
    -2
285
     1
 65
     0
276
    -2
286
     1
 66
     0
277
    -2
287
     1
 67
     0
278
    -2
288
     1
 68
     0
279
    -2
289
     1
 69
     0
  7
STANDARD
140
0.25
170
     5
 62
     0
 63
     7
283
     0
274
    -2
284
     1
 64
     0
275
    -2
285
     1
 65
     0
276
    -2
286
     1
 66
     0
277
    -2
287
     1
 67
     0
278
    -2
288
     1
 68
     0
279
    -2
289
     1
 69
     0
  7
STANDARD
140
0.18
170
     5
 62
     0
 63
     7
283
     0
274
    -2
284
     1
 64
     0
275
    -2
285
     1
 65
     0
276
    -2
286
     1
 66
     0
277
    -2
287
     1
 67
     0
278
    -2
288
     1
 68
     0
279
    -2
289
     1
 69
     0
  0
VISUALSTYLE
  5
A526
102
{ACAD_XDICTIONARY
360
A584
102
}
102
{ACAD_REACTORS
330
A520
102
}
330
A520
100
AcDbVisualStyle
  2
2dWireframe
 70
     4
 71
     0
 72
     2
 73
     0
 90
        0
 40
-0.6
 41
-30.0
 62
     5
 63
     7
 74
     1
 91
        4
 64
     7
 65
   257
 75
     1
175
     1
 42
1.0
 92
        0
 66
   257
 43
1.0
 76
     1
 77
     6
 78
     2
 67
     7
 79
     5
170
     0
171
     0
290
     0
174
     0
 93
        1
 44
0.0
173
     0
291
     0
 45
0.0
1001
ACAD
1000
AcDbSavedByObjectVersion
1070
     0
  0
VISUALSTYLE
  5
A525
102
{ACAD_XDICTIONARY
360
A582
102
}
102
{ACAD_REACTORS
330
A520
102
}
330
A520
100
AcDbVisualStyle
  2
Basic
 70
     7
 71
     1
 72
     0
 73
     1
 90
        0
 40
-0.6
 41
-30.0
 62
     5
 63
     7
 74
     0
 91
        4
 64
     7
 65
   257
 75
     1
175
     1
 42
1.0
 92
        8
 66
     7
 43
1.0
 76
     1
 77
     6
 78
     2
 67
     7
 79
     5
170
     0
171
     0
290
     0
174
     0
 93
        1
 44
0.0
173
     0
291
     1
 45
0.0
1001
ACAD
1000
AcDbSavedByObjectVersion
1070
     0
  0
VISUALSTYLE
  5
A52C
102
{ACAD_XDICTIONARY
360
A590
102
}
102
{ACAD_REACTORS
330
A520
102
}
330
A520
100
AcDbVisualStyle
  2
Brighten
 70
    12
 71
     2
 72
     2
 73
     0
 90
        0
 40
-0.6
 41
-30.0
 62
     5
 63
     7
 74
     1
 91
        4
 64
     7
 65
   257
 75
     1
175
     1
 42
1.0
 92
        8
 66
     7
 43
1.0
 76
     1
 77
     6
 78
     2
 67
     7
 79
     5
170
     0
171
     0
290
     0
174
     0
 93
        1
 44
50.0
173
     0
291
     1
 45
0.0
1001
ACAD
1000
AcDbSavedByObjectVersion
1070
     0
  0
VISUALSTYLE
  5
A530
102
{ACAD_XDICTIONARY
360
A598
102
}
102
{ACAD_REACTORS
330
A520
102
}
330
A520
100
AcDbVisualStyle
  2
ColorChange
 70
    16
 71
     2
 72
     2
 73
     3
 90
        0
 40
-0.6
 41
-30.0
 62
     5
 63
     8
 74
     1
 91
        4
 64
     7
 65
   257
 75
     1
175
     1
 42
1.0
 92
        8
 66
     8
 43
1.0
 76
     1
 77
     6
 78
     2
 67
     7
 79
     5
170
     0
171
     0
290
     0
174
     0
 93
        1
 44
0.0
173
     0
291
     1
 45
0.0
1001
ACAD
1000
AcDbSavedByObjectVersion
1070
     0
  0
VISUALSTYLE
  5
A529
102
{ACAD_XDICTIONARY
360
A58A
102
}
102
{ACAD_REACTORS
330
A520
102
}
330
A520
100
AcDbVisualStyle
  2
Conceptual
 70
     9
 71
     3
 72
     2
 73
     0
 90
        0
 40
-0.6
 41
-30.0
 62
     5
 63
     7
 74
     2
 91
        2
 64
     7
 65
   257
 75
     1
175
     1
 42
179.0
 92
        8
 66
     7
 43
1.0
 76
     1
 77
     6
 78
     2
 67
     7
 79
     3
170
     0
171
     0
290
     0
174
     0
 93
        1
 44
0.0
173
     0
291
     0
 45
0.0
1001
ACAD
1000
AcDbSavedByObjectVersion
1070
     0
  0
VISUALSTYLE
  5
A52B
102
{ACAD_XDICTIONARY
360
A58E
102
}
102
{ACAD_REACTORS
330
A520
102
}
330
A520
100
AcDbVisualStyle
  2
Dim
 70
    11
 71
     2
 72
     2
 73
     0
 90
        0
 40
-0.6
 41
-30.0
 62
     5
 63
     7
 74
     1
 91
        4
 64
     7
 65
   257
 75
     1
175
     1
 42
1.0
 92
        8
 66
     7
 43
1.0
 76
     1
 77
     6
 78
     2
 67
     7
 79
     5
170
     0
171
     0
290
     0
174
     0
 93
        1
 44
-50.0
173
     0
291
     1
 45
0.0
1001
ACAD
1000
AcDbSavedByObjectVersion
1070
     0
  0
VISUALSTYLE
  5
A538
102
{ACAD_XDICTIONARY
360
A5A8
102
}
102
{ACAD_REACTORS
330
A520
102
}
330
A520
100
AcDbVisualStyle
  2
EdgeColorOff
 70
    22
 71
     2
 72
     2
 73
     0
 90
        0
 40
-0.6
 41
-30.0
 62
     5
 63
     7
 74
     1
 91
        4
 64
     7
 65
   257
 75
     1
175
     1
 42
1.0
 92
        8
 66
     7
 43
1.0
 76
     1
 77
     6
 78
     2
 67
     7
 79
     5
170
     0
171
     0
290
     0
174
     0
 93
        1
 44
0.0
173
     0
291
     1
 45
0.0
1001
ACAD
1000
AcDbSavedByObjectVersion
1070
     0
  0
VISUALSTYLE
  5
A52F
102
{ACAD_XDICTIONARY
360
A596
102
}
102
{ACAD_REACTORS
330
A520
102
}
330
A520
100
AcDbVisualStyle
  2
Facepattern
 70
    15
 71
     2
 72
     2
 73
     0
 90
        0
 40
-0.6
 41
-30.0
 62
     5
 63
     7
 74
     1
 91
        4
 64
     7
 65
   257
 75
     1
175
     1
 42
1.0
 92
        8
 66
     7
 43
1.0
 76
     1
 77
     6
 78
     2
 67
     7
 79
     5
170
     0
171
     0
290
     0
174
     0
 93
        1
 44
0.0
173
     0
291
     1
 45
0.0
1001
ACAD
1000
AcDbSavedByObjectVersion
1070
     0
  0
VISUALSTYLE
  5
A521
102
{ACAD_XDICTIONARY
360
A57A
102
}
102
{ACAD_REACTORS
330
A520
102
}
330
A520
100
AcDbVisualStyle
  2
Flat
 70
     0
 71
     2
 72
     1
 73
     1
 90
        2
 40
-0.6
 41
30.0
 62
     5
 63
     7
 74
     0
 91
        0
 64
     7
 65
   257
 75
     1
175
     1
 42
1.0
 92
        8
 66
     7
 43
1.0
 76
     1
 77
     6
 78
     2
 67
     7
 79
     5
170
     0
171
     0
290
     0
174
     0
 93
       13
 44
0.0
173
     0
291
     1
 45
0.0
1001
ACAD
1000
AcDbSavedByObjectVersion
1070
     0
  0
VISUALSTYLE
  5
A522
102
{ACAD_XDICTIONARY
360
A57C
102
}
102
{ACAD_REACTORS
330
A520
102
}
330
A520
100
AcDbVisualStyle
  2
FlatWithEdges
 70
     1
 71
     2
 72
     1
 73
     1
 90
        2
 40
-0.6
 41
30.0
 62
     5
 63
     7
 74
     1
 91
        0
 64
     7
 65
   257
 75
     1
175
     1
 42
1.0
 92
        0
 66
   257
 43
1.0
 76
     1
 77
     6
 78
     2
 67
     7
 79
     5
170
     0
171
     0
290
     0
174
     0
 93
       13
 44
0.0
173
     0
291
     1
 45
0.0
1001
ACAD
1000
AcDbSavedByObjectVersion
1070
     0
  0
VISUALSTYLE
  5
A523
102
{ACAD_XDICTIONARY
360
A57E
102
}
102
{ACAD_REACTORS
330
A520
102
}
330
A520
100
AcDbVisualStyle
  2
Gouraud
 70
     2
 71
     2
 72
     2
 73
     1
 90
        2
 40
-0.6
 41
30.0
 62
     5
 63
     7
 74
     0
 91
        0
 64
     7
 65
   257
 75
     1
175
     1
 42
1.0
 92
        0
 66
     7
 43
1.0
 76
     1
 77
     6
 78
     2
 67
     7
 79
     5
170
     0
171
     0
290
     0
174
     0
 93
       13
 44
0.0
173
     0
291
     1
 45
0.0
1001
ACAD
1000
AcDbSavedByObjectVersion
1070
     0
  0
VISUALSTYLE
  5
A524
102
{ACAD_XDICTIONARY
360
A580
102
}
102
{ACAD_REACTORS
330
A520
102
}
330
A520
100
AcDbVisualStyle
  2
GouraudWithEdges
 70
     3
 71
     2
 72
     2
 73
     1
 90
        2
 40
-0.6
 41
30.0
 62
     5
 63
     7
 74
     1
 91
        0
 64
     7
 65
   257
 75
     1
175
     1
 42
1.0
 92
        0
 66
   257
 43
1.0
 76
     1
 77
     6
 78
     2
 67
     7
 79
     5
170
     0
171
     0
290
     0
174
     0
 93
       13
 44
0.0
173
     0
291
     1
 45
0.0
1001
ACAD
1000
AcDbSavedByObjectVersion
1070
     0
  0
VISUALSTYLE
  5
A528
102
{ACAD_XDICTIONARY
360
A588
102
}
102
{ACAD_REACTORS
330
A520
102
}
330
A520
100
AcDbVisualStyle
  2
Hidden
 70
     6
 71
     1
 72
     2
 73
     2
 90
        0
 40
-0.6
 41
-30.0
 62
     5
 63
     7
 74
     2
 91
        2
 64
     7
 65
   257
 75
     2
175
     1
 42
40.0
 92
        0
 66
   257
 43
1.0
 76
     1
 77
     6
 78
     2
 67
     7
 79
     3
170
     0
171
     0
290
     0
174
     0
 93
        1
 44
0.0
173
     0
291
     0
 45
0.0
1001
ACAD
1000
AcDbSavedByObjectVersion
1070
     0
  0
VISUALSTYLE
  5
A536
102
{ACAD_XDICTIONARY
360
A5A4
102
}
102
{ACAD_REACTORS
330
A520
102
}
330
A520
100
AcDbVisualStyle
  2
JitterOff
 70
    20
 71
     2
 72
     2
 73
     0
 90
        0
 40
-0.6
 41
-30.0
 62
     5
 63
     7
 74
     1
 91
        4
 64
     7
 65
   257
 75
     1
175
     1
 42
1.0
 92
       10
 66
     7
 43
1.0
 76
     1
 77
     6
 78
     2
 67
     7
 79
     5
170
     0
171
     0
290
     0
174
     0
 93
        1
 44
0.0
173
     0
291
     1
 45
0.0
1001
ACAD
1000
AcDbSavedByObjectVersion
1070
     0
  0
VISUALSTYLE
  5
A52E
102
{ACAD_XDICTIONARY
360
A594
102
}
102
{ACAD_REACTORS
330
A520
102
}
330
A520
100
AcDbVisualStyle
  2
Linepattern
 70
    14
 71
     2
 72
     2
 73
     0
 90
        0
 40
-0.6
 41
-30.0
 62
     5
 63
     7
 74
     1
 91
        4
 64
     7
 65
   257
 75
     7
175
     7
 42
1.0
 92
        8
 66
     7
 43
1.0
 76
     1
 77
     6
 78
     2
 67
     7
 79
     5
170
     0
171
     0
290
     0
174
     0
 93
        1
 44
0.0
173
     0
291
     1
 45
0.0
1001
ACAD
1000
AcDbSavedByObjectVersion
1070
     0
  0
VISUALSTYLE
  5
A537
102
{ACAD_XDICTIONARY
360
A5A6
102
}
102
{ACAD_REACTORS
330
A520
102
}
330
A520
100
AcDbVisualStyle
  2
OverhangOff
 70
    21
 71
     2
 72
     2
 73
     0
 90
        0
 40
-0.6
 41
-30.0
 62
     5
 63
     7
 74
     1
 91
        4
 64
     7
 65
   257
 75
     1
175
     1
 42
1.0
 92
        9
 66
     7
 43
1.0
 76
     1
 77
     6
 78
     2
 67
     7
 79
     5
170
     0
171
     0
290
     0
174
     0
 93
        1
 44
0.0
173
     0
291
     1
 45
0.0
1001
ACAD
1000
AcDbSavedByObjectVersion
1070
     0
  0
VISUALSTYLE
  5
A52A
102
{ACAD_XDICTIONARY
360
A58C
102
}
102
{ACAD_REACTORS
330
A520
102
}
330
A520
100
AcDbVisualStyle
  2
Realistic
 70
     8
 71
     2
 72
     3
 73
     0
 90
        2
 40
-0.6
 41
30.0
 62
     5
 63
     7
 74
     0
 91
        0
 64
     7
 65
   257
 75
     1
175
     1
 42
1.0
 92
        8
 66
   257
 43
1.0
 76
     1
 77
     6
 78
     2
 67
     7
 79
     3
170
     0
171
     0
290
     0
174
     0
 93
       13
 44
0.0
173
     0
291
     0
 45
0.0
1001
ACAD
1000
AcDbSavedByObjectVersion
1070
     0
  0
VISUALSTYLE
  5
A535
102
{ACAD_XDICTIONARY
360
A5A2
102
}
102
{ACAD_REACTORS
330
A520
102
}
330
A520
100
AcDbVisualStyle
  2
Shaded
 70
    27
 71
     2
 72
     2
 73
     1
 90
        2
 40
-0.6
 41
30.0
 62
     5
 63
     7
 74
     0
 91
        4
 64
     7
 65
   257
 75
     1
175
     1
 42
1.0
 92
        8
 66
   257
 43
1.0
 76
     1
 77
     6
 78
     2
 67
     8
 79
     3
170
     0
171
     0
290
     0
174
     0
 93
        5
 44
0.0
173
     0
291
     0
 45
0.0
1001
ACAD
1000
AcDbSavedByObjectVersion
1070
     0
  0
VISUALSTYLE
  5
A534
102
{ACAD_XDICTIONARY
360
A5A0
102
}
102
{ACAD_REACTORS
330
A520
102
}
330
A520
100
AcDbVisualStyle
  2
Shaded with edges
 70
    26
 71
     2
 72
     2
 73
     1
 90
        2
 40
-0.6
 41
30.0
 62
     5
 63
     7
 74
     1
 91
       10
 64
     7
 65
   257
 75
     2
175
     1
 42
1.0
 92
        8
 66
   257
 43
1.0
 76
     1
 77
     6
 78
     2
 67
     7
 79
     3
170
     0
171
     0
290
     0
174
     0
 93
        5
 44
0.0
173
     0
291
     0
 45
0.0
1001
ACAD
1000
AcDbSavedByObjectVersion
1070
     0
  0
VISUALSTYLE
  5
A531
102
{ACAD_XDICTIONARY
360
A59A
102
}
102
{ACAD_REACTORS
330
A520
102
}
330
A520
100
AcDbVisualStyle
  2
Shades of Gray
 70
    23
 71
     2
 72
     2
 73
     3
 90
        0
 40
-0.6
 41
-30.0
 62
     5
 63
     7
 74
     2
 91
        2
 64
     7
 65
     7
 75
     1
175
     1
 42
40.0
 92
        8
 66
     7
 43
1.0
 76
     1
 77
     6
 78
     2
 67
     7
 79
     3
170
     0
171
     0
290
     0
174
     0
 93
        1
 44
0.0
173
     0
291
     0
 45
0.0
1001
ACAD
1000
AcDbSavedByObjectVersion
1070
     0
  0
VISUALSTYLE
  5
A532
102
{ACAD_XDICTIONARY
360
A59C
102
}
102
{ACAD_REACTORS
330
A520
102
}
330
A520
100
AcDbVisualStyle
  2
Sketchy
 70
    24
 71
     1
 72
     2
 73
     2
 90
        0
 40
-0.6
 41
-30.0
 62
     5
 63
     7
 74
     2
 91
        2
 64
     7
 65
     7
 75
     1
175
     1
 42
40.0
 92
       11
 66
     7
 43
1.0
 76
     1
 77
     6
 78
     2
 67
     7
 79
     6
170
     0
171
     0
290
     0
174
     0
 93
        1
 44
0.0
173
     0
291
     0
 45
0.0
1001
ACAD
1000
AcDbSavedByObjectVersion
1070
     0
  0
VISUALSTYLE
  5
A52D
102
{ACAD_XDICTIONARY
360
A592
102
}
102
{ACAD_REACTORS
330
A520
102
}
330
A520
100
AcDbVisualStyle
  2
Thicken
 70
    13
 71
     2
 72
     2
 73
     0
 90
        0
 40
-0.6
 41
-30.0
 62
     5
 63
     7
 74
     1
 91
        4
 64
     7
 65
   257
 75
     1
175
     1
 42
1.0
 92
       12
 66
     7
 43
1.0
 76
     1
 77
     6
 78
     2
 67
     7
 79
     5
170
     0
171
     0
290
     0
174
     0
 93
        1
 44
0.0
173
     0
291
     1
 45
0.0
1001
ACAD
1000
AcDbSavedByObjectVersion
1070
     0
  0
VISUALSTYLE
  5
A527
102
{ACAD_XDICTIONARY
360
A586
102
}
102
{ACAD_REACTORS
330
A520
102
}
330
A520
100
AcDbVisualStyle
  2
Wireframe
 70
     5
 71
     0
 72
     2
 73
     0
 90
        0
 40
-0.6
 41
-30.0
 62
     5
 63
     7
 74
     1
 91
        4
 64
     7
 65
   257
 75
     1
175
     1
 42
1.0
 92
        0
 66
   257
 43
1.0
 76
     1
 77
     6
 78
     2
 67
     7
 79
     3
170
     0
171
     0
290
     0
174
     0
 93
        1
 44
0.0
173
     0
291
     0
 45
0.0
1001
ACAD
1000
AcDbSavedByObjectVersion
1070
     0
  0
VISUALSTYLE
  5
A533
102
{ACAD_XDICTIONARY
360
A59E
102
}
102
{ACAD_REACTORS
330
A520
102
}
330
A520
100
AcDbVisualStyle
  2
X-Ray
 70
    25
 71
     2
 72
     2
 73
     1
 90
        1
 40
0.5
 41
-30.0
 62
     5
 63
     7
 74
     1
 91
        0
 64
     7
 65
   257
 75
     1
175
     1
 42
1.0
 92
        8
 66
     7
 43
1.0
 76
     1
 77
     6
 78
     2
 67
     7
 79
     3
170
     0
171
     0
290
     0
174
     0
 93
       13
 44
0.0
173
     0
291
     0
 45
0.0
1001
ACAD
1000
AcDbSavedByObjectVersion
1070
     0
  0
DICTIONARYVAR
  5
A56D
102
{ACAD_REACTORS
330
A568
102
}
330
A568
100
DictionaryVariables
280
     0
  1
1:1
  0
DICTIONARYVAR
  5
A56A
102
{ACAD_REACTORS
330
A568
102
}
330
A568
100
DictionaryVariables
280
     0
  1
STANDARD
  0
DICTIONARYVAR
  5
A569
102
{ACAD_REACTORS
330
A568
102
}
330
A568
100
DictionaryVariables
280
     0
  1
STANDARD
  0
DICTIONARYVAR
  5
A56B
102
{ACAD_REACTORS
330
A568
102
}
330
A568
100
DictionaryVariables
280
     0
  1
Imperial24
  0
DICTIONARYVAR
  5
A56C
102
{ACAD_REACTORS
330
A568
102
}
330
A568
100
DictionaryVariables
280
     0
  1
Imperial24
  0
DICTIONARYVAR
  5
A570
102
{ACAD_REACTORS
330
A568
102
}
330
A568
100
DictionaryVariables
280
     0
  1
1
  0
DICTIONARYVAR
  5
A56F
102
{ACAD_REACTORS
330
A568
102
}
330
A568
100
DictionaryVariables
280
     0
  1
0
  0
DICTIONARYVAR
  5
A56E
102
{ACAD_REACTORS
330
A568
102
}
330
A568
100
DictionaryVariables
280
     0
  1
127
  0
DICTIONARYVAR
  5
A571
102
{ACAD_REACTORS
330
A568
102
}
330
A568
100
DictionaryVariables
280
     0
  1
2
  0
DICTIONARY
  5
A5AE
330
A553
100
AcDbDictionary
280
     1
281
     1
  3
ACAD_XREC_ROUNDTRIP
360
A5AF
  0
DICTIONARY
  5
A5B0
330
A554
100
AcDbDictionary
280
     1
281
     1
  3
ACAD_XREC_ROUNDTRIP
360
A5B1
  0
DICTIONARY
  5
A5B2
330
A555
100
AcDbDictionary
280
     1
281
     1
  3
ACAD_XREC_ROUNDTRIP
360
A5B3
  0
DICTIONARY
  5
A511
330
A510
100
AcDbDictionary
280
     1
281
     1
  3
ACAD_XREC_ROUNDTRIP
360
A578
  3
BUMPTILE
360
A513
  3
DIFFUSETILE
360
A512
  3
OPACITYTILE
360
A516
  3
REFLECTIONTILE
360
A515
  3
REFRACTIONTILE
360
A517
  3
SPECULARTILE
360
A514
  0
DICTIONARY
  5
A509
330
A508
100
AcDbDictionary
280
     1
281
     1
  3
ACAD_XREC_ROUNDTRIP
360
A577
  3
BUMPTILE
360
A50B
  3
DIFFUSETILE
360
A50A
  3
OPACITYTILE
360
A50E
  3
REFLECTIONTILE
360
A50D
  3
REFRACTIONTILE
360
A50F
  3
SPECULARTILE
360
A50C
  0
DICTIONARY
  5
A519
330
A518
100
AcDbDictionary
280
     1
281
     1
  3
ACAD_XREC_ROUNDTRIP
360
A579
  3
BUMPTILE
360
A51B
  3
DIFFUSETILE
360
A51A
  3
OPACITYTILE
360
A51E
  3
REFLECTIONTILE
360
A51D
  3
REFRACTIONTILE
360
A51F
  3
SPECULARTILE
360
A51C
  0
DICTIONARY
  5
A5AC
330
A551
100
AcDbDictionary
280
     1
281
     1
  3
ACAD_XREC_ROUNDTRIP
360
A5AD
  0
DICTIONARY
  5
A573
330
A53B
100
AcDbDictionary
280
     1
281
     1
  3
ACAD_ROUNDTRIP_2008_TABLESTYLE_CELLSTYLEMAP
360
A574
  3
ACAD_XREC_ROUNDTRIP
360
A5AA
  0
DICTIONARY
  5
A584
330
A526
100
AcDbDictionary
280
     1
281
     1
  3
ACAD_XREC_ROUNDTRIP
360
A585
  0
DICTIONARY
  5
A582
330
A525
100
AcDbDictionary
280
     1
281
     1
  3
ACAD_XREC_ROUNDTRIP
360
A583
  0
DICTIONARY
  5
A590
330
A52C
100
AcDbDictionary
280
     1
281
     1
  3
ACAD_XREC_ROUNDTRIP
360
A591
  0
DICTIONARY
  5
A598
330
A530
100
AcDbDictionary
280
     1
281
     1
  3
ACAD_XREC_ROUNDTRIP
360
A599
  0
DICTIONARY
  5
A58A
330
A529
100
AcDbDictionary
280
     1
281
     1
  3
ACAD_XREC_ROUNDTRIP
360
A58B
  0
DICTIONARY
  5
A58E
330
A52B
100
AcDbDictionary
280
     1
281
     1
  3
ACAD_XREC_ROUNDTRIP
360
A58F
  0
DICTIONARY
  5
A5A8
330
A538
100
AcDbDictionary
280
     1
281
     1
  3
ACAD_XREC_ROUNDTRIP
360
A5A9
  0
DICTIONARY
  5
A596
330
A52F
100
AcDbDictionary
280
     1
281
     1
  3
ACAD_XREC_ROUNDTRIP
360
A597
  0
DICTIONARY
  5
A57A
330
A521
100
AcDbDictionary
280
     1
281
     1
  3
ACAD_XREC_ROUNDTRIP
360
A57B
  0
DICTIONARY
  5
A57C
330
A522
100
AcDbDictionary
280
     1
281
     1
  3
ACAD_XREC_ROUNDTRIP
360
A57D
  0
DICTIONARY
  5
A57E
330
A523
100
AcDbDictionary
280
     1
281
     1
  3
ACAD_XREC_ROUNDTRIP
360
A57F
  0
DICTIONARY
  5
A580
330
A524
100
AcDbDictionary
280
     1
281
     1
  3
ACAD_XREC_ROUNDTRIP
360
A581
  0
DICTIONARY
  5
A588
330
A528
100
AcDbDictionary
280
     1
281
     1
  3
ACAD_XREC_ROUNDTRIP
360
A589
  0
DICTIONARY
  5
A5A4
330
A536
100
AcDbDictionary
280
     1
281
     1
  3
ACAD_XREC_ROUNDTRIP
360
A5A5
  0
DICTIONARY
  5
A594
330
A52E
100
AcDbDictionary
280
     1
281
     1
  3
ACAD_XREC_ROUNDTRIP
360
A595
  0
DICTIONARY
  5
A5A6
330
A537
100
AcDbDictionary
280
     1
281
     1
  3
ACAD_XREC_ROUNDTRIP
360
A5A7
  0
DICTIONARY
  5
A58C
330
A52A
100
AcDbDictionary
280
     1
281
     1
  3
ACAD_XREC_ROUNDTRIP
360
A58D
  0
DICTIONARY
  5
A5A2
330
A535
100
AcDbDictionary
280
     1
281
     1
  3
ACAD_XREC_ROUNDTRIP
360
A5A3
  0
DICTIONARY
  5
A5A0
330
A534
100
AcDbDictionary
280
     1
281
     1
  3
ACAD_XREC_ROUNDTRIP
360
A5A1
  0
DICTIONARY
  5
A59A
330
A531
100
AcDbDictionary
280
     1
281
     1
  3
ACAD_XREC_ROUNDTRIP
360
A59B
  0
DICTIONARY
  5
A59C
330
A532
100
AcDbDictionary
280
     1
281
     1
  3
ACAD_XREC_ROUNDTRIP
360
A59D
  0
DICTIONARY
  5
A592
330
A52D
100
AcDbDictionary
280
     1
281
     1
  3
ACAD_XREC_ROUNDTRIP
360
A593
  0
DICTIONARY
  5
A586
330
A527
100
AcDbDictionary
280
     1
281
     1
  3
ACAD_XREC_ROUNDTRIP
360
A587
  0
DICTIONARY
  5
A59E
330
A533
100
AcDbDictionary
280
     1
281
     1
  3
ACAD_XREC_ROUNDTRIP
360
A59F
  0
XRECORD
  5
A5AF
102
{ACAD_REACTORS
330
A5AE
102
}
330
A5AE
100
AcDbXrecord
280
     1
102
DISPLAYNAME
  1
Imperial24
102
FLAGS
 90
        0
  0
XRECORD
  5
A5B1
102
{ACAD_REACTORS
330
A5B0
102
}
330
A5B0
100
AcDbXrecord
280
     1
102
SHADEPLOT
 70
     0
102
SHADEPLOTRESLEVEL
 70
     2
102
SHADEPLOTCUSTOMDPI
 70
   300
  0
XRECORD
  5
A5B3
102
{ACAD_REACTORS
330
A5B2
102
}
330
A5B2
100
AcDbXrecord
280
     1
102
SHADEPLOT
 70
     0
102
SHADEPLOTRESLEVEL
 70
     2
102
SHADEPLOTCUSTOMDPI
 70
   300
  0
XRECORD
  5
A578
102
{ACAD_REACTORS
330
A511
102
}
330
A511
100
AcDbXrecord
280
     1
102
MATERIAL
148
0.0
149
0.0
149
0.0
 93
        0
 94
      127
282
     0
 72
     0
 77
     0
171
     0
175
     0
179
     0
273
     0
  0
XRECORD
  5
A513
102
{ACAD_REACTORS
330
A511
102
}
330
A511
100
AcDbXrecord
280
     1
270
     1
271
     1
  0
XRECORD
  5
A512
102
{ACAD_REACTORS
330
A511
102
}
330
A511
100
AcDbXrecord
280
     1
270
     1
271
     1
  0
XRECORD
  5
A516
102
{ACAD_REACTORS
330
A511
102
}
330
A511
100
AcDbXrecord
280
     1
270
     1
271
     1
  0
XRECORD
  5
A515
102
{ACAD_REACTORS
330
A511
102
}
330
A511
100
AcDbXrecord
280
     1
270
     1
271
     1
  0
XRECORD
  5
A517
102
{ACAD_REACTORS
330
A511
102
}
330
A511
100
AcDbXrecord
280
     1
270
     1
271
     1
  0
XRECORD
  5
A514
102
{ACAD_REACTORS
330
A511
102
}
330
A511
100
AcDbXrecord
280
     1
270
     1
271
     1
  0
XRECORD
  5
A577
102
{ACAD_REACTORS
330
A509
102
}
330
A509
100
AcDbXrecord
280
     1
102
MATERIAL
148
0.0
149
0.0
149
0.0
 93
        0
 94
      127
282
     0
 72
     0
 77
     0
171
     0
175
     0
179
     0
273
     0
  0
XRECORD
  5
A50B
102
{ACAD_REACTORS
330
A509
102
}
330
A509
100
AcDbXrecord
280
     1
270
     1
271
     1
  0
XRECORD
  5
A50A
102
{ACAD_REACTORS
330
A509
102
}
330
A509
100
AcDbXrecord
280
     1
270
     1
271
     1
  0
XRECORD
  5
A50E
102
{ACAD_REACTORS
330
A509
102
}
330
A509
100
AcDbXrecord
280
     1
270
     1
271
     1
  0
XRECORD
  5
A50D
102
{ACAD_REACTORS
330
A509
102
}
330
A509
100
AcDbXrecord
280
     1
270
     1
271
     1
  0
XRECORD
  5
A50F
102
{ACAD_REACTORS
330
A509
102
}
330
A509
100
AcDbXrecord
280
     1
270
     1
271
     1
  0
XRECORD
  5
A50C
102
{ACAD_REACTORS
330
A509
102
}
330
A509
100
AcDbXrecord
280
     1
270
     1
271
     1
  0
XRECORD
  5
A579
102
{ACAD_REACTORS
330
A519
102
}
330
A519
100
AcDbXrecord
280
     1
102
MATERIAL
148
0.0
149
0.0
149
0.0
 93
        0
 94
      127
282
     0
 72
     0
 77
     0
171
     0
175
     0
179
     0
273
     0
  0
XRECORD
  5
A51B
102
{ACAD_REACTORS
330
A519
102
}
330
A519
100
AcDbXrecord
280
     1
270
     1
271
     1
  0
XRECORD
  5
A51A
102
{ACAD_REACTORS
330
A519
102
}
330
A519
100
AcDbXrecord
280
     1
270
     1
271
     1
  0
XRECORD
  5
A51E
102
{ACAD_REACTORS
330
A519
102
}
330
A519
100
AcDbXrecord
280
     1
270
     1
271
     1
  0
XRECORD
  5
A51D
102
{ACAD_REACTORS
330
A519
102
}
330
A519
100
AcDbXrecord
280
     1
270
     1
271
     1
  0
XRECORD
  5
A51F
102
{ACAD_REACTORS
330
A519
102
}
330
A519
100
AcDbXrecord
280
     1
270
     1
271
     1
  0
XRECORD
  5
A51C
102
{ACAD_REACTORS
330
A519
102
}
330
A519
100
AcDbXrecord
280
     1
270
     1
271
     1
  0
XRECORD
  5
A5AD
102
{ACAD_REACTORS
330
A5AC
102
}
330
A5AC
100
AcDbXrecord
280
     1
102
DISPLAYNAME
  1
Imperial24
102
FLAGS
 90
        0
  0
CELLSTYLEMAP
  5
A574
102
{ACAD_REACTORS
330
A573
102
}
330
A573
100
AcDbCellStyleMap
 90
        3
300
CELLSTYLE
  1
TABLEFORMAT_BEGIN
 90
        5
170
     1
 91
        0
 92
    32768
 62
   257
 93
        1
300
CONTENTFORMAT
  1
CONTENTFORMAT_BEGIN
 90
        0
 91
        0
 92
      512
 93
        0
300

 40
0.0
140
1.0
 94
        5
 62
     0
340
A1E3
144
0.25
309
CONTENTFORMAT_END
171
     0
 94
        0
309
TABLEFORMAT_END
  1
CELLSTYLE_BEGIN
 90
        1
 91
        1
300
_TITLE
309
CELLSTYLE_END
300
CELLSTYLE
  1
TABLEFORMAT_BEGIN
 90
        5
170
     1
 91
        0
 92
        0
 62
   257
 93
        1
300
CONTENTFORMAT
  1
CONTENTFORMAT_BEGIN
 90
        0
 91
        0
 92
      512
 93
        0
300

 40
0.0
140
1.0
 94
        5
 62
     0
340
A1E3
144
0.18
309
CONTENTFORMAT_END
171
     0
 94
        0
309
TABLEFORMAT_END
  1
CELLSTYLE_BEGIN
 90
        2
 91
        1
300
_HEADER
309
CELLSTYLE_END
300
CELLSTYLE
  1
TABLEFORMAT_BEGIN
 90
        5
170
     1
 91
        0
 92
        0
 62
   257
 93
        1
300
CONTENTFORMAT
  1
CONTENTFORMAT_BEGIN
 90
        0
 91
        0
 92
      512
 93
        0
300

 40
0.0
140
1.0
 94
        2
 62
     0
340
A1E3
144
0.18
309
CONTENTFORMAT_END
171
     0
 94
        0
309
TABLEFORMAT_END
  1
CELLSTYLE_BEGIN
 90
        3
 91
        2
300
_DATA
309
CELLSTYLE_END
  0
XRECORD
  5
A5AA
102
{ACAD_REACTORS
330
A573
102
}
330
A573
100
AcDbXrecord
280
     1
102
ACAD_ROUNDTRIP_PRE2007_TABLESTYLE
 90
      512
 91
        0
  1

 92
      512
 93
        0
  2

 94
      512
 95
        0
  3

  0
XRECORD
  5
A585
102
{ACAD_REACTORS
330
A584
102
}
330
A584
100
AcDbXrecord
280
     1
102
RTVSPost2010Prop28
280
     1
102
RTVSPost2010PropOp28
 70
     1
102
RTVSPost2010Prop29
280
     1
102
RTVSPost2010PropOp29
 70
     1
102
RTVSPost2010Prop30
280
     0
102
RTVSPost2010PropOp30
 70
     1
102
RTVSPost2010Prop31
280
     0
102
RTVSPost2010PropOp31
 70
     1
102
RTVSPost2010Prop32
280
     0
102
RTVSPost2010PropOp32
 70
     1
102
RTVSPost2010Prop33
280
     0
102
RTVSPost2010PropOp33
 70
     1
102
RTVSPost2010Prop34
280
     0
102
RTVSPost2010PropOp34
 70
     1
102
RTVSPost2010Prop35
280
     0
102
RTVSPost2010PropOp35
 70
     1
102
RTVSPost2010Prop36
280
     0
102
RTVSPost2010PropOp36
 70
     1
102
RTVSPost2010Prop37
 90
       50
102
RTVSPost2010PropOp37
 70
     1
102
RTVSPost2010Prop38
140
0.0
102
RTVSPost2010PropOp38
 70
     1
102
RTVSPost2010Prop39
140
1.0
102
RTVSPost2010PropOp39
 70
     1
102
RTVSPost2010Prop40
 90
        0
102
RTVSPost2010PropOp40
 70
     1
102
RTVSPost2010Prop41ColorIndex
 90
       18
102
RTVSPost2010Prop41ColorRGB
 90
        0
102
RTVSPost2010PropOp41
 70
     1
102
RTVSPost2010Prop42
 90
       50
102
RTVSPost2010PropOp42
 70
     1
102
RTVSPost2010Prop43
 90
        3
102
RTVSPost2010PropOp43
 70
     1
102
RTVSPost2010Prop44ColorIndex
 90
        5
102
RTVSPost2010Prop44ColorRGB
 90
      255
102
RTVSPost2010PropOp44
 70
     1
102
RTVSPost2010Prop45
280
     0
102
RTVSPost2010PropOp45
 70
     1
102
RTVSPost2010Prop46
 90
       50
102
RTVSPost2010PropOp46
 70
     1
102
RTVSPost2010Prop47
 90
       50
102
RTVSPost2010PropOp47
 70
     1
102
RTVSPost2010Prop48
 90
       50
102
RTVSPost2010PropOp48
 70
     1
102
RTVSPost2010Prop49
280
     0
102
RTVSPost2010PropOp49
 70
     1
102
RTVSPost2010Prop50
 90
       50
102
RTVSPost2010PropOp50
 70
     1
102
RTVSPost2010Prop51ColorIndex
 90
      256
102
RTVSPost2010Prop51ColorRGB
 90
-16777216
102
RTVSPost2010PropOp51
 70
     0
102
RTVSPost2010Prop52
140
1.0
102
RTVSPost2010PropOp52
 70
     0
102
RTVSPost2010Prop53
 90
        2
102
RTVSPost2010PropOp53
 70
     1
102
RTVSPost2010Prop54
  1
strokes_ogs.tif
102
RTVSPost2010PropOp54
 70
     1
102
RTVSPost2010Prop55
280
     0
102
RTVSPost2010PropOp55
 70
     1
102
RTVSPost2010Prop56
140
1.0
102
RTVSPost2010PropOp56
 70
     1
102
RTVSPost2010Prop57
140
1.0
102
RTVSPost2010PropOp57
 70
     1
102
RTVSPropertyOp0
 70
     1
102
RTVSPropertyOp1
 70
     1
102
RTVSPropertyOp2
 70
     1
102
RTVSPropertyOp3
 70
     1
102
RTVSPropertyOp4
 70
     1
102
RTVSPropertyOp5
 70
     1
102
RTVSPropertyOp6
 70
     1
102
RTVSPropertyOp7
 70
     1
102
RTVSPropertyOp8
 70
     1
102
RTVSPropertyOp9
 70
     1
102
RTVSPropertyOp10
 70
     1
102
RTVSPropertyOp11
 70
     1
102
RTVSPropertyOp12
 70
     1
102
RTVSPropertyOp13
 70
     1
102
RTVSPropertyOp14
 70
     1
102
RTVSPropertyOp15
 70
     1
102
RTVSPropertyOp16
 70
     1
102
RTVSPropertyOp17
 70
     1
102
RTVSPropertyOp18
 70
     1
102
RTVSPropertyOp19
 70
     1
102
RTVSPropertyOp20
 70
     1
102
RTVSPropertyOp21
 70
     1
102
RTVSPropertyOp22
 70
     1
102
RTVSPropertyOp23
 70
     1
102
RTVSPropertyOp24
 70
     1
102
RTVSPropertyOp25
 70
     1
102
RTVSPropertyOp26
 70
     1
102
RTVSPropertyOp27
 70
     1
102
RTVSPropertyOp28
 70
     1
102
RTVSPropertyOp29
 70
     1
102
RTVSPropertyOp30
 70
     1
102
RTVSPropertyOp31
 70
     1
102
RTVSPropertyOp32
 70
     1
102
RTVSPropertyOp33
 70
     1
102
RTVSPropertyOp34
 70
     1
102
RTVSPropertyOp35
 70
     1
102
RTVSPropertyOp36
 70
     1
102
RTVSPropertyOp37
 70
     1
102
RTVSPropertyOp38
 70
     1
102
RTVSPropertyOp39
 70
     1
102
RTVSPropertyOp40
 70
     1
102
RTVSPropertyOp41
 70
     1
102
RTVSPropertyOp42
 70
     1
102
RTVSPropertyOp43
 70
     1
102
RTVSPropertyOp44
 70
     1
102
RTVSPropertyOp45
 70
     1
102
RTVSPropertyOp46
 70
     1
102
RTVSPropertyOp47
 70
     1
102
RTVSPropertyOp48
 70
     1
102
RTVSPropertyOp49
 70
     1
102
RTVSPropertyOp50
 70
     1
102
RTVSPropertyOp51
 70
     0
102
RTVSPropertyOp52
 70
     0
102
RTVSPropertyOp53
 70
     1
102
RTVSPropertyOp54
 70
     1
102
RTVSPropertyOp55
 70
     1
102
RTVSPropertyOp56
 70
     1
102
RTVSPropertyOp57
 70
     1
102
RTVSPropertyOp58
 70
     1
102
RTVSPropertyOp59
 70
     1
102
RTVSPropertyOp60
 70
     1
102
RTVSPropertyOp61
 70
     1
102
RTVSPropertyOp62
 70
     1
  0
XRECORD
  5
A583
102
{ACAD_REACTORS
330
A582
102
}
330
A582
100
AcDbXrecord
280
     1
102
RTVSPost2010Prop28
280
     0
102
RTVSPost2010PropOp28
 70
     1
102
RTVSPost2010Prop29
280
     1
102
RTVSPost2010PropOp29
 70
     1
102
RTVSPost2010Prop30
280
     1
102
RTVSPost2010PropOp30
 70
     1
102
RTVSPost2010Prop31
280
     0
102
RTVSPost2010PropOp31
 70
     1
102
RTVSPost2010Prop32
280
     0
102
RTVSPost2010PropOp32
 70
     1
102
RTVSPost2010Prop33
280
     0
102
RTVSPost2010PropOp33
 70
     1
102
RTVSPost2010Prop34
280
     0
102
RTVSPost2010PropOp34
 70
     1
102
RTVSPost2010Prop35
280
     0
102
RTVSPost2010PropOp35
 70
     1
102
RTVSPost2010Prop36
280
     0
102
RTVSPost2010PropOp36
 70
     1
102
RTVSPost2010Prop37
 90
       50
102
RTVSPost2010PropOp37
 70
     1
102
RTVSPost2010Prop38
140
0.0
102
RTVSPost2010PropOp38
 70
     1
102
RTVSPost2010Prop39
140
1.0
102
RTVSPost2010PropOp39
 70
     1
102
RTVSPost2010Prop40
 90
        0
102
RTVSPost2010PropOp40
 70
     1
102
RTVSPost2010Prop41ColorIndex
 90
       18
102
RTVSPost2010Prop41ColorRGB
 90
        0
102
RTVSPost2010PropOp41
 70
     1
102
RTVSPost2010Prop42
 90
       50
102
RTVSPost2010PropOp42
 70
     1
102
RTVSPost2010Prop43
 90
        3
102
RTVSPost2010PropOp43
 70
     1
102
RTVSPost2010Prop44ColorIndex
 90
        5
102
RTVSPost2010Prop44ColorRGB
 90
      255
102
RTVSPost2010PropOp44
 70
     1
102
RTVSPost2010Prop45
280
     0
102
RTVSPost2010PropOp45
 70
     1
102
RTVSPost2010Prop46
 90
       50
102
RTVSPost2010PropOp46
 70
     1
102
RTVSPost2010Prop47
 90
       50
102
RTVSPost2010PropOp47
 70
     1
102
RTVSPost2010Prop48
 90
       50
102
RTVSPost2010PropOp48
 70
     1
102
RTVSPost2010Prop49
280
     0
102
RTVSPost2010PropOp49
 70
     1
102
RTVSPost2010Prop50
 90
       50
102
RTVSPost2010PropOp50
 70
     1
102
RTVSPost2010Prop51ColorIndex
 90
      256
102
RTVSPost2010Prop51ColorRGB
 90
-16777216
102
RTVSPost2010PropOp51
 70
     0
102
RTVSPost2010Prop52
140
1.0
102
RTVSPost2010PropOp52
 70
     0
102
RTVSPost2010Prop53
 90
        2
102
RTVSPost2010PropOp53
 70
     1
102
RTVSPost2010Prop54
  1
strokes_ogs.tif
102
RTVSPost2010PropOp54
 70
     1
102
RTVSPost2010Prop55
280
     0
102
RTVSPost2010PropOp55
 70
     1
102
RTVSPost2010Prop56
140
1.0
102
RTVSPost2010PropOp56
 70
     1
102
RTVSPost2010Prop57
140
1.0
102
RTVSPost2010PropOp57
 70
     1
102
RTVSPropertyOp0
 70
     1
102
RTVSPropertyOp1
 70
     1
102
RTVSPropertyOp2
 70
     1
102
RTVSPropertyOp3
 70
     1
102
RTVSPropertyOp4
 70
     1
102
RTVSPropertyOp5
 70
     1
102
RTVSPropertyOp6
 70
     1
102
RTVSPropertyOp7
 70
     1
102
RTVSPropertyOp8
 70
     1
102
RTVSPropertyOp9
 70
     1
102
RTVSPropertyOp10
 70
     1
102
RTVSPropertyOp11
 70
     1
102
RTVSPropertyOp12
 70
     1
102
RTVSPropertyOp13
 70
     1
102
RTVSPropertyOp14
 70
     1
102
RTVSPropertyOp15
 70
     1
102
RTVSPropertyOp16
 70
     1
102
RTVSPropertyOp17
 70
     1
102
RTVSPropertyOp18
 70
     1
102
RTVSPropertyOp19
 70
     1
102
RTVSPropertyOp20
 70
     1
102
RTVSPropertyOp21
 70
     1
102
RTVSPropertyOp22
 70
     1
102
RTVSPropertyOp23
 70
     1
102
RTVSPropertyOp24
 70
     1
102
RTVSPropertyOp25
 70
     1
102
RTVSPropertyOp26
 70
     1
102
RTVSPropertyOp27
 70
     1
102
RTVSPropertyOp28
 70
     1
102
RTVSPropertyOp29
 70
     1
102
RTVSPropertyOp30
 70
     1
102
RTVSPropertyOp31
 70
     1
102
RTVSPropertyOp32
 70
     1
102
RTVSPropertyOp33
 70
     1
102
RTVSPropertyOp34
 70
     1
102
RTVSPropertyOp35
 70
     1
102
RTVSPropertyOp36
 70
     1
102
RTVSPropertyOp37
 70
     1
102
RTVSPropertyOp38
 70
     1
102
RTVSPropertyOp39
 70
     1
102
RTVSPropertyOp40
 70
     1
102
RTVSPropertyOp41
 70
     1
102
RTVSPropertyOp42
 70
     1
102
RTVSPropertyOp43
 70
     1
102
RTVSPropertyOp44
 70
     1
102
RTVSPropertyOp45
 70
     1
102
RTVSPropertyOp46
 70
     1
102
RTVSPropertyOp47
 70
     1
102
RTVSPropertyOp48
 70
     1
102
RTVSPropertyOp49
 70
     1
102
RTVSPropertyOp50
 70
     1
102
RTVSPropertyOp51
 70
     0
102
RTVSPropertyOp52
 70
     0
102
RTVSPropertyOp53
 70
     1
102
RTVSPropertyOp54
 70
     1
102
RTVSPropertyOp55
 70
     1
102
RTVSPropertyOp56
 70
     1
102
RTVSPropertyOp57
 70
     1
102
RTVSPropertyOp58
 70
     1
102
RTVSPropertyOp59
 70
     1
102
RTVSPropertyOp60
 70
     1
102
RTVSPropertyOp61
 70
     1
102
RTVSPropertyOp62
 70
     1
  0
XRECORD
  5
A591
102
{ACAD_REACTORS
330
A590
102
}
330
A590
100
AcDbXrecord
280
     1
102
RTVSPost2010Prop28
280
     0
102
RTVSPost2010PropOp28
 70
     1
102
RTVSPost2010Prop29
280
     1
102
RTVSPost2010PropOp29
 70
     1
102
RTVSPost2010Prop30
280
     1
102
RTVSPost2010PropOp30
 70
     1
102
RTVSPost2010Prop31
280
     0
102
RTVSPost2010PropOp31
 70
     1
102
RTVSPost2010Prop32
280
     0
102
RTVSPost2010PropOp32
 70
     1
102
RTVSPost2010Prop33
280
     0
102
RTVSPost2010PropOp33
 70
     1
102
RTVSPost2010Prop34
280
     0
102
RTVSPost2010PropOp34
 70
     1
102
RTVSPost2010Prop35
280
     0
102
RTVSPost2010PropOp35
 70
     1
102
RTVSPost2010Prop36
280
     0
102
RTVSPost2010PropOp36
 70
     1
102
RTVSPost2010Prop37
 90
       50
102
RTVSPost2010PropOp37
 70
     1
102
RTVSPost2010Prop38
140
0.0
102
RTVSPost2010PropOp38
 70
     1
102
RTVSPost2010Prop39
140
1.0
102
RTVSPost2010PropOp39
 70
     1
102
RTVSPost2010Prop40
 90
        0
102
RTVSPost2010PropOp40
 70
     1
102
RTVSPost2010Prop41ColorIndex
 90
       18
102
RTVSPost2010Prop41ColorRGB
 90
        0
102
RTVSPost2010PropOp41
 70
     1
102
RTVSPost2010Prop42
 90
       50
102
RTVSPost2010PropOp42
 70
     1
102
RTVSPost2010Prop43
 90
        3
102
RTVSPost2010PropOp43
 70
     1
102
RTVSPost2010Prop44ColorIndex
 90
        5
102
RTVSPost2010Prop44ColorRGB
 90
      255
102
RTVSPost2010PropOp44
 70
     1
102
RTVSPost2010Prop45
280
     0
102
RTVSPost2010PropOp45
 70
     1
102
RTVSPost2010Prop46
 90
       50
102
RTVSPost2010PropOp46
 70
     1
102
RTVSPost2010Prop47
 90
       50
102
RTVSPost2010PropOp47
 70
     1
102
RTVSPost2010Prop48
 90
       50
102
RTVSPost2010PropOp48
 70
     1
102
RTVSPost2010Prop49
280
     0
102
RTVSPost2010PropOp49
 70
     1
102
RTVSPost2010Prop50
 90
       50
102
RTVSPost2010PropOp50
 70
     1
102
RTVSPost2010Prop51ColorIndex
 90
      256
102
RTVSPost2010Prop51ColorRGB
 90
-16777216
102
RTVSPost2010PropOp51
 70
     0
102
RTVSPost2010Prop52
140
1.0
102
RTVSPost2010PropOp52
 70
     0
102
RTVSPost2010Prop53
 90
        2
102
RTVSPost2010PropOp53
 70
     1
102
RTVSPost2010Prop54
  1
strokes_ogs.tif
102
RTVSPost2010PropOp54
 70
     1
102
RTVSPost2010Prop55
280
     0
102
RTVSPost2010PropOp55
 70
     1
102
RTVSPost2010Prop56
140
1.0
102
RTVSPost2010PropOp56
 70
     1
102
RTVSPost2010Prop57
140
1.0
102
RTVSPost2010PropOp57
 70
     1
102
RTVSPropertyOp0
 70
     1
102
RTVSPropertyOp1
 70
     1
102
RTVSPropertyOp2
 70
     1
102
RTVSPropertyOp3
 70
     1
102
RTVSPropertyOp4
 70
     1
102
RTVSPropertyOp5
 70
     1
102
RTVSPropertyOp6
 70
     1
102
RTVSPropertyOp7
 70
     1
102
RTVSPropertyOp8
 70
     1
102
RTVSPropertyOp9
 70
     1
102
RTVSPropertyOp10
 70
     1
102
RTVSPropertyOp11
 70
     1
102
RTVSPropertyOp12
 70
     1
102
RTVSPropertyOp13
 70
     1
102
RTVSPropertyOp14
 70
     1
102
RTVSPropertyOp15
 70
     1
102
RTVSPropertyOp16
 70
     1
102
RTVSPropertyOp17
 70
     1
102
RTVSPropertyOp18
 70
     1
102
RTVSPropertyOp19
 70
     1
102
RTVSPropertyOp20
 70
     1
102
RTVSPropertyOp21
 70
     1
102
RTVSPropertyOp22
 70
     1
102
RTVSPropertyOp23
 70
     1
102
RTVSPropertyOp24
 70
     1
102
RTVSPropertyOp25
 70
     1
102
RTVSPropertyOp26
 70
     1
102
RTVSPropertyOp27
 70
     1
102
RTVSPropertyOp28
 70
     1
102
RTVSPropertyOp29
 70
     1
102
RTVSPropertyOp30
 70
     1
102
RTVSPropertyOp31
 70
     1
102
RTVSPropertyOp32
 70
     1
102
RTVSPropertyOp33
 70
     1
102
RTVSPropertyOp34
 70
     1
102
RTVSPropertyOp35
 70
     1
102
RTVSPropertyOp36
 70
     1
102
RTVSPropertyOp37
 70
     1
102
RTVSPropertyOp38
 70
     1
102
RTVSPropertyOp39
 70
     1
102
RTVSPropertyOp40
 70
     1
102
RTVSPropertyOp41
 70
     1
102
RTVSPropertyOp42
 70
     1
102
RTVSPropertyOp43
 70
     1
102
RTVSPropertyOp44
 70
     1
102
RTVSPropertyOp45
 70
     1
102
RTVSPropertyOp46
 70
     1
102
RTVSPropertyOp47
 70
     1
102
RTVSPropertyOp48
 70
     1
102
RTVSPropertyOp49
 70
     1
102
RTVSPropertyOp50
 70
     1
102
RTVSPropertyOp51
 70
     0
102
RTVSPropertyOp52
 70
     0
102
RTVSPropertyOp53
 70
     1
102
RTVSPropertyOp54
 70
     1
102
RTVSPropertyOp55
 70
     1
102
RTVSPropertyOp56
 70
     1
102
RTVSPropertyOp57
 70
     1
102
RTVSPropertyOp58
 70
     1
102
RTVSPropertyOp59
 70
     1
102
RTVSPropertyOp60
 70
     1
102
RTVSPropertyOp61
 70
     1
102
RTVSPropertyOp62
 70
     1
  0
XRECORD
  5
A599
102
{ACAD_REACTORS
330
A598
102
}
330
A598
100
AcDbXrecord
280
     1
102
RTVSPost2010Prop28
280
     0
102
RTVSPost2010PropOp28
 70
     1
102
RTVSPost2010Prop29
280
     1
102
RTVSPost2010PropOp29
 70
     1
102
RTVSPost2010Prop30
280
     1
102
RTVSPost2010PropOp30
 70
     1
102
RTVSPost2010Prop31
280
     0
102
RTVSPost2010PropOp31
 70
     1
102
RTVSPost2010Prop32
280
     0
102
RTVSPost2010PropOp32
 70
     1
102
RTVSPost2010Prop33
280
     0
102
RTVSPost2010PropOp33
 70
     1
102
RTVSPost2010Prop34
280
     0
102
RTVSPost2010PropOp34
 70
     1
102
RTVSPost2010Prop35
280
     0
102
RTVSPost2010PropOp35
 70
     1
102
RTVSPost2010Prop36
280
     0
102
RTVSPost2010PropOp36
 70
     1
102
RTVSPost2010Prop37
 90
       50
102
RTVSPost2010PropOp37
 70
     1
102
RTVSPost2010Prop38
140
0.0
102
RTVSPost2010PropOp38
 70
     1
102
RTVSPost2010Prop39
140
1.0
102
RTVSPost2010PropOp39
 70
     1
102
RTVSPost2010Prop40
 90
        0
102
RTVSPost2010PropOp40
 70
     1
102
RTVSPost2010Prop41ColorIndex
 90
       18
102
RTVSPost2010Prop41ColorRGB
 90
        0
102
RTVSPost2010PropOp41
 70
     1
102
RTVSPost2010Prop42
 90
       50
102
RTVSPost2010PropOp42
 70
     1
102
RTVSPost2010Prop43
 90
        3
102
RTVSPost2010PropOp43
 70
     1
102
RTVSPost2010Prop44ColorIndex
 90
        5
102
RTVSPost2010Prop44ColorRGB
 90
      255
102
RTVSPost2010PropOp44
 70
     1
102
RTVSPost2010Prop45
280
     0
102
RTVSPost2010PropOp45
 70
     1
102
RTVSPost2010Prop46
 90
       50
102
RTVSPost2010PropOp46
 70
     1
102
RTVSPost2010Prop47
 90
       50
102
RTVSPost2010PropOp47
 70
     1
102
RTVSPost2010Prop48
 90
       50
102
RTVSPost2010PropOp48
 70
     1
102
RTVSPost2010Prop49
280
     0
102
RTVSPost2010PropOp49
 70
     1
102
RTVSPost2010Prop50
 90
       50
102
RTVSPost2010PropOp50
 70
     1
102
RTVSPost2010Prop51ColorIndex
 90
      256
102
RTVSPost2010Prop51ColorRGB
 90
-16777216
102
RTVSPost2010PropOp51
 70
     0
102
RTVSPost2010Prop52
140
1.0
102
RTVSPost2010PropOp52
 70
     0
102
RTVSPost2010Prop53
 90
        2
102
RTVSPost2010PropOp53
 70
     1
102
RTVSPost2010Prop54
  1
strokes_ogs.tif
102
RTVSPost2010PropOp54
 70
     1
102
RTVSPost2010Prop55
280
     0
102
RTVSPost2010PropOp55
 70
     1
102
RTVSPost2010Prop56
140
1.0
102
RTVSPost2010PropOp56
 70
     1
102
RTVSPost2010Prop57
140
1.0
102
RTVSPost2010PropOp57
 70
     1
102
RTVSPropertyOp0
 70
     1
102
RTVSPropertyOp1
 70
     1
102
RTVSPropertyOp2
 70
     1
102
RTVSPropertyOp3
 70
     1
102
RTVSPropertyOp4
 70
     1
102
RTVSPropertyOp5
 70
     1
102
RTVSPropertyOp6
 70
     1
102
RTVSPropertyOp7
 70
     1
102
RTVSPropertyOp8
 70
     1
102
RTVSPropertyOp9
 70
     1
102
RTVSPropertyOp10
 70
     1
102
RTVSPropertyOp11
 70
     1
102
RTVSPropertyOp12
 70
     1
102
RTVSPropertyOp13
 70
     1
102
RTVSPropertyOp14
 70
     1
102
RTVSPropertyOp15
 70
     1
102
RTVSPropertyOp16
 70
     1
102
RTVSPropertyOp17
 70
     1
102
RTVSPropertyOp18
 70
     1
102
RTVSPropertyOp19
 70
     1
102
RTVSPropertyOp20
 70
     1
102
RTVSPropertyOp21
 70
     1
102
RTVSPropertyOp22
 70
     1
102
RTVSPropertyOp23
 70
     1
102
RTVSPropertyOp24
 70
     1
102
RTVSPropertyOp25
 70
     1
102
RTVSPropertyOp26
 70
     1
102
RTVSPropertyOp27
 70
     1
102
RTVSPropertyOp28
 70
     1
102
RTVSPropertyOp29
 70
     1
102
RTVSPropertyOp30
 70
     1
102
RTVSPropertyOp31
 70
     1
102
RTVSPropertyOp32
 70
     1
102
RTVSPropertyOp33
 70
     1
102
RTVSPropertyOp34
 70
     1
102
RTVSPropertyOp35
 70
     1
102
RTVSPropertyOp36
 70
     1
102
RTVSPropertyOp37
 70
     1
102
RTVSPropertyOp38
 70
     1
102
RTVSPropertyOp39
 70
     1
102
RTVSPropertyOp40
 70
     1
102
RTVSPropertyOp41
 70
     1
102
RTVSPropertyOp42
 70
     1
102
RTVSPropertyOp43
 70
     1
102
RTVSPropertyOp44
 70
     1
102
RTVSPropertyOp45
 70
     1
102
RTVSPropertyOp46
 70
     1
102
RTVSPropertyOp47
 70
     1
102
RTVSPropertyOp48
 70
     1
102
RTVSPropertyOp49
 70
     1
102
RTVSPropertyOp50
 70
     1
102
RTVSPropertyOp51
 70
     0
102
RTVSPropertyOp52
 70
     0
102
RTVSPropertyOp53
 70
     1
102
RTVSPropertyOp54
 70
     1
102
RTVSPropertyOp55
 70
     1
102
RTVSPropertyOp56
 70
     1
102
RTVSPropertyOp57
 70
     1
102
RTVSPropertyOp58
 70
     1
102
RTVSPropertyOp59
 70
     1
102
RTVSPropertyOp60
 70
     1
102
RTVSPropertyOp61
 70
     1
102
RTVSPropertyOp62
 70
     1
  0
XRECORD
  5
A58B
102
{ACAD_REACTORS
330
A58A
102
}
330
A58A
100
AcDbXrecord
280
     1
102
RTVSPost2010Prop28
280
     0
102
RTVSPost2010PropOp28
 70
     1
102
RTVSPost2010Prop29
280
     1
102
RTVSPost2010PropOp29
 70
     1
102
RTVSPost2010Prop30
280
     1
102
RTVSPost2010PropOp30
 70
     1
102
RTVSPost2010Prop31
280
     0
102
RTVSPost2010PropOp31
 70
     1
102
RTVSPost2010Prop32
280
     0
102
RTVSPost2010PropOp32
 70
     1
102
RTVSPost2010Prop33
280
     0
102
RTVSPost2010PropOp33
 70
     1
102
RTVSPost2010Prop34
280
     0
102
RTVSPost2010PropOp34
 70
     1
102
RTVSPost2010Prop35
280
     0
102
RTVSPost2010PropOp35
 70
     1
102
RTVSPost2010Prop36
280
     0
102
RTVSPost2010PropOp36
 70
     1
102
RTVSPost2010Prop37
 90
       50
102
RTVSPost2010PropOp37
 70
     1
102
RTVSPost2010Prop38
140
0.0
102
RTVSPost2010PropOp38
 70
     1
102
RTVSPost2010Prop39
140
1.0
102
RTVSPost2010PropOp39
 70
     1
102
RTVSPost2010Prop40
 90
        0
102
RTVSPost2010PropOp40
 70
     1
102
RTVSPost2010Prop41ColorIndex
 90
       18
102
RTVSPost2010Prop41ColorRGB
 90
        0
102
RTVSPost2010PropOp41
 70
     1
102
RTVSPost2010Prop42
 90
       50
102
RTVSPost2010PropOp42
 70
     1
102
RTVSPost2010Prop43
 90
        3
102
RTVSPost2010PropOp43
 70
     1
102
RTVSPost2010Prop44ColorIndex
 90
        5
102
RTVSPost2010Prop44ColorRGB
 90
      255
102
RTVSPost2010PropOp44
 70
     1
102
RTVSPost2010Prop45
280
     0
102
RTVSPost2010PropOp45
 70
     1
102
RTVSPost2010Prop46
 90
       50
102
RTVSPost2010PropOp46
 70
     1
102
RTVSPost2010Prop47
 90
       50
102
RTVSPost2010PropOp47
 70
     1
102
RTVSPost2010Prop48
 90
       50
102
RTVSPost2010PropOp48
 70
     1
102
RTVSPost2010Prop49
280
     0
102
RTVSPost2010PropOp49
 70
     1
102
RTVSPost2010Prop50
 90
       50
102
RTVSPost2010PropOp50
 70
     1
102
RTVSPost2010Prop51ColorIndex
 90
      256
102
RTVSPost2010Prop51ColorRGB
 90
-16777216
102
RTVSPost2010PropOp51
 70
     0
102
RTVSPost2010Prop52
140
1.0
102
RTVSPost2010PropOp52
 70
     0
102
RTVSPost2010Prop53
 90
        2
102
RTVSPost2010PropOp53
 70
     1
102
RTVSPost2010Prop54
  1
strokes_ogs.tif
102
RTVSPost2010PropOp54
 70
     1
102
RTVSPost2010Prop55
280
     0
102
RTVSPost2010PropOp55
 70
     1
102
RTVSPost2010Prop56
140
1.0
102
RTVSPost2010PropOp56
 70
     1
102
RTVSPost2010Prop57
140
1.0
102
RTVSPost2010PropOp57
 70
     1
102
RTVSPropertyOp0
 70
     1
102
RTVSPropertyOp1
 70
     1
102
RTVSPropertyOp2
 70
     1
102
RTVSPropertyOp3
 70
     1
102
RTVSPropertyOp4
 70
     1
102
RTVSPropertyOp5
 70
     1
102
RTVSPropertyOp6
 70
     1
102
RTVSPropertyOp7
 70
     1
102
RTVSPropertyOp8
 70
     1
102
RTVSPropertyOp9
 70
     1
102
RTVSPropertyOp10
 70
     1
102
RTVSPropertyOp11
 70
     1
102
RTVSPropertyOp12
 70
     1
102
RTVSPropertyOp13
 70
     1
102
RTVSPropertyOp14
 70
     1
102
RTVSPropertyOp15
 70
     1
102
RTVSPropertyOp16
 70
     1
102
RTVSPropertyOp17
 70
     1
102
RTVSPropertyOp18
 70
     1
102
RTVSPropertyOp19
 70
     1
102
RTVSPropertyOp20
 70
     1
102
RTVSPropertyOp21
 70
     1
102
RTVSPropertyOp22
 70
     1
102
RTVSPropertyOp23
 70
     1
102
RTVSPropertyOp24
 70
     1
102
RTVSPropertyOp25
 70
     1
102
RTVSPropertyOp26
 70
     1
102
RTVSPropertyOp27
 70
     1
102
RTVSPropertyOp28
 70
     1
102
RTVSPropertyOp29
 70
     1
102
RTVSPropertyOp30
 70
     1
102
RTVSPropertyOp31
 70
     1
102
RTVSPropertyOp32
 70
     1
102
RTVSPropertyOp33
 70
     1
102
RTVSPropertyOp34
 70
     1
102
RTVSPropertyOp35
 70
     1
102
RTVSPropertyOp36
 70
     1
102
RTVSPropertyOp37
 70
     1
102
RTVSPropertyOp38
 70
     1
102
RTVSPropertyOp39
 70
     1
102
RTVSPropertyOp40
 70
     1
102
RTVSPropertyOp41
 70
     1
102
RTVSPropertyOp42
 70
     1
102
RTVSPropertyOp43
 70
     1
102
RTVSPropertyOp44
 70
     1
102
RTVSPropertyOp45
 70
     1
102
RTVSPropertyOp46
 70
     1
102
RTVSPropertyOp47
 70
     1
102
RTVSPropertyOp48
 70
     1
102
RTVSPropertyOp49
 70
     1
102
RTVSPropertyOp50
 70
     1
102
RTVSPropertyOp51
 70
     0
102
RTVSPropertyOp52
 70
     0
102
RTVSPropertyOp53
 70
     1
102
RTVSPropertyOp54
 70
     1
102
RTVSPropertyOp55
 70
     1
102
RTVSPropertyOp56
 70
     1
102
RTVSPropertyOp57
 70
     1
102
RTVSPropertyOp58
 70
     1
102
RTVSPropertyOp59
 70
     1
102
RTVSPropertyOp60
 70
     1
102
RTVSPropertyOp61
 70
     1
102
RTVSPropertyOp62
 70
     1
  0
XRECORD
  5
A58F
102
{ACAD_REACTORS
330
A58E
102
}
330
A58E
100
AcDbXrecord
280
     1
102
RTVSPost2010Prop28
280
     0
102
RTVSPost2010PropOp28
 70
     1
102
RTVSPost2010Prop29
280
     1
102
RTVSPost2010PropOp29
 70
     1
102
RTVSPost2010Prop30
280
     1
102
RTVSPost2010PropOp30
 70
     1
102
RTVSPost2010Prop31
280
     0
102
RTVSPost2010PropOp31
 70
     1
102
RTVSPost2010Prop32
280
     0
102
RTVSPost2010PropOp32
 70
     1
102
RTVSPost2010Prop33
280
     0
102
RTVSPost2010PropOp33
 70
     1
102
RTVSPost2010Prop34
280
     0
102
RTVSPost2010PropOp34
 70
     1
102
RTVSPost2010Prop35
280
     0
102
RTVSPost2010PropOp35
 70
     1
102
RTVSPost2010Prop36
280
     0
102
RTVSPost2010PropOp36
 70
     1
102
RTVSPost2010Prop37
 90
       50
102
RTVSPost2010PropOp37
 70
     1
102
RTVSPost2010Prop38
140
0.0
102
RTVSPost2010PropOp38
 70
     1
102
RTVSPost2010Prop39
140
1.0
102
RTVSPost2010PropOp39
 70
     1
102
RTVSPost2010Prop40
 90
        0
102
RTVSPost2010PropOp40
 70
     1
102
RTVSPost2010Prop41ColorIndex
 90
       18
102
RTVSPost2010Prop41ColorRGB
 90
        0
102
RTVSPost2010PropOp41
 70
     1
102
RTVSPost2010Prop42
 90
       50
102
RTVSPost2010PropOp42
 70
     1
102
RTVSPost2010Prop43
 90
        3
102
RTVSPost2010PropOp43
 70
     1
102
RTVSPost2010Prop44ColorIndex
 90
        5
102
RTVSPost2010Prop44ColorRGB
 90
      255
102
RTVSPost2010PropOp44
 70
     1
102
RTVSPost2010Prop45
280
     0
102
RTVSPost2010PropOp45
 70
     1
102
RTVSPost2010Prop46
 90
       50
102
RTVSPost2010PropOp46
 70
     1
102
RTVSPost2010Prop47
 90
       50
102
RTVSPost2010PropOp47
 70
     1
102
RTVSPost2010Prop48
 90
       50
102
RTVSPost2010PropOp48
 70
     1
102
RTVSPost2010Prop49
280
     0
102
RTVSPost2010PropOp49
 70
     1
102
RTVSPost2010Prop50
 90
       50
102
RTVSPost2010PropOp50
 70
     1
102
RTVSPost2010Prop51ColorIndex
 90
      256
102
RTVSPost2010Prop51ColorRGB
 90
-16777216
102
RTVSPost2010PropOp51
 70
     0
102
RTVSPost2010Prop52
140
1.0
102
RTVSPost2010PropOp52
 70
     0
102
RTVSPost2010Prop53
 90
        2
102
RTVSPost2010PropOp53
 70
     1
102
RTVSPost2010Prop54
  1
strokes_ogs.tif
102
RTVSPost2010PropOp54
 70
     1
102
RTVSPost2010Prop55
280
     0
102
RTVSPost2010PropOp55
 70
     1
102
RTVSPost2010Prop56
140
1.0
102
RTVSPost2010PropOp56
 70
     1
102
RTVSPost2010Prop57
140
1.0
102
RTVSPost2010PropOp57
 70
     1
102
RTVSPropertyOp0
 70
     1
102
RTVSPropertyOp1
 70
     1
102
RTVSPropertyOp2
 70
     1
102
RTVSPropertyOp3
 70
     1
102
RTVSPropertyOp4
 70
     1
102
RTVSPropertyOp5
 70
     1
102
RTVSPropertyOp6
 70
     1
102
RTVSPropertyOp7
 70
     1
102
RTVSPropertyOp8
 70
     1
102
RTVSPropertyOp9
 70
     1
102
RTVSPropertyOp10
 70
     1
102
RTVSPropertyOp11
 70
     1
102
RTVSPropertyOp12
 70
     1
102
RTVSPropertyOp13
 70
     1
102
RTVSPropertyOp14
 70
     1
102
RTVSPropertyOp15
 70
     1
102
RTVSPropertyOp16
 70
     1
102
RTVSPropertyOp17
 70
     1
102
RTVSPropertyOp18
 70
     1
102
RTVSPropertyOp19
 70
     1
102
RTVSPropertyOp20
 70
     1
102
RTVSPropertyOp21
 70
     1
102
RTVSPropertyOp22
 70
     1
102
RTVSPropertyOp23
 70
     1
102
RTVSPropertyOp24
 70
     1
102
RTVSPropertyOp25
 70
     1
102
RTVSPropertyOp26
 70
     1
102
RTVSPropertyOp27
 70
     1
102
RTVSPropertyOp28
 70
     1
102
RTVSPropertyOp29
 70
     1
102
RTVSPropertyOp30
 70
     1
102
RTVSPropertyOp31
 70
     1
102
RTVSPropertyOp32
 70
     1
102
RTVSPropertyOp33
 70
     1
102
RTVSPropertyOp34
 70
     1
102
RTVSPropertyOp35
 70
     1
102
RTVSPropertyOp36
 70
     1
102
RTVSPropertyOp37
 70
     1
102
RTVSPropertyOp38
 70
     1
102
RTVSPropertyOp39
 70
     1
102
RTVSPropertyOp40
 70
     1
102
RTVSPropertyOp41
 70
     1
102
RTVSPropertyOp42
 70
     1
102
RTVSPropertyOp43
 70
     1
102
RTVSPropertyOp44
 70
     1
102
RTVSPropertyOp45
 70
     1
102
RTVSPropertyOp46
 70
     1
102
RTVSPropertyOp47
 70
     1
102
RTVSPropertyOp48
 70
     1
102
RTVSPropertyOp49
 70
     1
102
RTVSPropertyOp50
 70
     1
102
RTVSPropertyOp51
 70
     0
102
RTVSPropertyOp52
 70
     0
102
RTVSPropertyOp53
 70
     1
102
RTVSPropertyOp54
 70
     1
102
RTVSPropertyOp55
 70
     1
102
RTVSPropertyOp56
 70
     1
102
RTVSPropertyOp57
 70
     1
102
RTVSPropertyOp58
 70
     1
102
RTVSPropertyOp59
 70
     1
102
RTVSPropertyOp60
 70
     1
102
RTVSPropertyOp61
 70
     1
102
RTVSPropertyOp62
 70
     1
  0
XRECORD
  5
A5A9
102
{ACAD_REACTORS
330
A5A8
102
}
330
A5A8
100
AcDbXrecord
280
     1
102
RTVSPost2010Prop28
280
     0
102
RTVSPost2010PropOp28
 70
     1
102
RTVSPost2010Prop29
280
     1
102
RTVSPost2010PropOp29
 70
     1
102
RTVSPost2010Prop30
280
     1
102
RTVSPost2010PropOp30
 70
     1
102
RTVSPost2010Prop31
280
     0
102
RTVSPost2010PropOp31
 70
     1
102
RTVSPost2010Prop32
280
     0
102
RTVSPost2010PropOp32
 70
     1
102
RTVSPost2010Prop33
280
     0
102
RTVSPost2010PropOp33
 70
     1
102
RTVSPost2010Prop34
280
     0
102
RTVSPost2010PropOp34
 70
     1
102
RTVSPost2010Prop35
280
     0
102
RTVSPost2010PropOp35
 70
     1
102
RTVSPost2010Prop36
280
     0
102
RTVSPost2010PropOp36
 70
     1
102
RTVSPost2010Prop37
 90
       50
102
RTVSPost2010PropOp37
 70
     0
102
RTVSPost2010Prop38
140
0.0
102
RTVSPost2010PropOp38
 70
     0
102
RTVSPost2010Prop39
140
1.0
102
RTVSPost2010PropOp39
 70
     0
102
RTVSPost2010Prop40
 90
        0
102
RTVSPost2010PropOp40
 70
     0
102
RTVSPost2010Prop41ColorIndex
 90
       18
102
RTVSPost2010Prop41ColorRGB
 90
        0
102
RTVSPost2010PropOp41
 70
     0
102
RTVSPost2010Prop42
 90
       50
102
RTVSPost2010PropOp42
 70
     0
102
RTVSPost2010Prop43
 90
        3
102
RTVSPost2010PropOp43
 70
     0
102
RTVSPost2010Prop44ColorIndex
 90
        5
102
RTVSPost2010Prop44ColorRGB
 90
      255
102
RTVSPost2010PropOp44
 70
     0
102
RTVSPost2010Prop45
280
     0
102
RTVSPost2010PropOp45
 70
     1
102
RTVSPost2010Prop46
 90
       50
102
RTVSPost2010PropOp46
 70
     0
102
RTVSPost2010Prop47
 90
       50
102
RTVSPost2010PropOp47
 70
     0
102
RTVSPost2010Prop48
 90
       50
102
RTVSPost2010PropOp48
 70
     0
102
RTVSPost2010Prop49
280
     0
102
RTVSPost2010PropOp49
 70
     1
102
RTVSPost2010Prop50
 90
       50
102
RTVSPost2010PropOp50
 70
     0
102
RTVSPost2010Prop51ColorIndex
 90
      256
102
RTVSPost2010Prop51ColorRGB
 90
-16777216
102
RTVSPost2010PropOp51
 70
     0
102
RTVSPost2010Prop52
140
1.0
102
RTVSPost2010PropOp52
 70
     0
102
RTVSPost2010Prop53
 90
        2
102
RTVSPost2010PropOp53
 70
     0
102
RTVSPost2010Prop54
  1
strokes_ogs.tif
102
RTVSPost2010PropOp54
 70
     0
102
RTVSPost2010Prop55
280
     0
102
RTVSPost2010PropOp55
 70
     1
102
RTVSPost2010Prop56
140
1.0
102
RTVSPost2010PropOp56
 70
     0
102
RTVSPost2010Prop57
140
1.0
102
RTVSPost2010PropOp57
 70
     0
102
RTVSPropertyOp0
 70
     0
102
RTVSPropertyOp1
 70
     0
102
RTVSPropertyOp2
 70
     0
102
RTVSPropertyOp3
 70
     0
102
RTVSPropertyOp4
 70
     0
102
RTVSPropertyOp5
 70
     0
102
RTVSPropertyOp6
 70
     0
102
RTVSPropertyOp7
 70
     0
102
RTVSPropertyOp8
 70
     0
102
RTVSPropertyOp9
 70
     0
102
RTVSPropertyOp10
 70
     0
102
RTVSPropertyOp11
 70
     0
102
RTVSPropertyOp12
 70
     0
102
RTVSPropertyOp13
 70
     0
102
RTVSPropertyOp14
 70
     2
102
RTVSPropertyOp15
 70
     0
102
RTVSPropertyOp16
 70
     0
102
RTVSPropertyOp17
 70
     0
102
RTVSPropertyOp18
 70
     0
102
RTVSPropertyOp19
 70
     0
102
RTVSPropertyOp20
 70
     0
102
RTVSPropertyOp21
 70
     0
102
RTVSPropertyOp22
 70
     0
102
RTVSPropertyOp23
 70
     0
102
RTVSPropertyOp24
 70
     0
102
RTVSPropertyOp25
 70
     0
102
RTVSPropertyOp26
 70
     0
102
RTVSPropertyOp27
 70
     0
102
RTVSPropertyOp28
 70
     1
102
RTVSPropertyOp29
 70
     1
102
RTVSPropertyOp30
 70
     1
102
RTVSPropertyOp31
 70
     1
102
RTVSPropertyOp32
 70
     1
102
RTVSPropertyOp33
 70
     1
102
RTVSPropertyOp34
 70
     1
102
RTVSPropertyOp35
 70
     1
102
RTVSPropertyOp36
 70
     1
102
RTVSPropertyOp37
 70
     0
102
RTVSPropertyOp38
 70
     0
102
RTVSPropertyOp39
 70
     0
102
RTVSPropertyOp40
 70
     0
102
RTVSPropertyOp41
 70
     0
102
RTVSPropertyOp42
 70
     0
102
RTVSPropertyOp43
 70
     0
102
RTVSPropertyOp44
 70
     0
102
RTVSPropertyOp45
 70
     1
102
RTVSPropertyOp46
 70
     0
102
RTVSPropertyOp47
 70
     0
102
RTVSPropertyOp48
 70
     0
102
RTVSPropertyOp49
 70
     1
102
RTVSPropertyOp50
 70
     0
102
RTVSPropertyOp51
 70
     0
102
RTVSPropertyOp52
 70
     0
102
RTVSPropertyOp53
 70
     0
102
RTVSPropertyOp54
 70
     0
102
RTVSPropertyOp55
 70
     1
102
RTVSPropertyOp56
 70
     0
102
RTVSPropertyOp57
 70
     0
102
RTVSPropertyOp58
 70
     0
102
RTVSPropertyOp59
 70
     0
102
RTVSPropertyOp60
 70
     0
102
RTVSPropertyOp61
 70
     0
102
RTVSPropertyOp62
 70
     0
  0
XRECORD
  5
A597
102
{ACAD_REACTORS
330
A596
102
}
330
A596
100
AcDbXrecord
280
     1
102
RTVSPost2010Prop28
280
     0
102
RTVSPost2010PropOp28
 70
     1
102
RTVSPost2010Prop29
280
     1
102
RTVSPost2010PropOp29
 70
     1
102
RTVSPost2010Prop30
280
     1
102
RTVSPost2010PropOp30
 70
     1
102
RTVSPost2010Prop31
280
     0
102
RTVSPost2010PropOp31
 70
     1
102
RTVSPost2010Prop32
280
     0
102
RTVSPost2010PropOp32
 70
     1
102
RTVSPost2010Prop33
280
     0
102
RTVSPost2010PropOp33
 70
     1
102
RTVSPost2010Prop34
280
     0
102
RTVSPost2010PropOp34
 70
     1
102
RTVSPost2010Prop35
280
     0
102
RTVSPost2010PropOp35
 70
     1
102
RTVSPost2010Prop36
280
     0
102
RTVSPost2010PropOp36
 70
     1
102
RTVSPost2010Prop37
 90
       50
102
RTVSPost2010PropOp37
 70
     1
102
RTVSPost2010Prop38
140
0.0
102
RTVSPost2010PropOp38
 70
     1
102
RTVSPost2010Prop39
140
1.0
102
RTVSPost2010PropOp39
 70
     1
102
RTVSPost2010Prop40
 90
        0
102
RTVSPost2010PropOp40
 70
     1
102
RTVSPost2010Prop41ColorIndex
 90
       18
102
RTVSPost2010Prop41ColorRGB
 90
        0
102
RTVSPost2010PropOp41
 70
     1
102
RTVSPost2010Prop42
 90
       50
102
RTVSPost2010PropOp42
 70
     1
102
RTVSPost2010Prop43
 90
        3
102
RTVSPost2010PropOp43
 70
     1
102
RTVSPost2010Prop44ColorIndex
 90
        5
102
RTVSPost2010Prop44ColorRGB
 90
      255
102
RTVSPost2010PropOp44
 70
     1
102
RTVSPost2010Prop45
280
     0
102
RTVSPost2010PropOp45
 70
     1
102
RTVSPost2010Prop46
 90
       50
102
RTVSPost2010PropOp46
 70
     1
102
RTVSPost2010Prop47
 90
       50
102
RTVSPost2010PropOp47
 70
     1
102
RTVSPost2010Prop48
 90
       50
102
RTVSPost2010PropOp48
 70
     1
102
RTVSPost2010Prop49
280
     0
102
RTVSPost2010PropOp49
 70
     1
102
RTVSPost2010Prop50
 90
       50
102
RTVSPost2010PropOp50
 70
     1
102
RTVSPost2010Prop51ColorIndex
 90
      256
102
RTVSPost2010Prop51ColorRGB
 90
-16777216
102
RTVSPost2010PropOp51
 70
     0
102
RTVSPost2010Prop52
140
1.0
102
RTVSPost2010PropOp52
 70
     0
102
RTVSPost2010Prop53
 90
        2
102
RTVSPost2010PropOp53
 70
     1
102
RTVSPost2010Prop54
  1
strokes_ogs.tif
102
RTVSPost2010PropOp54
 70
     1
102
RTVSPost2010Prop55
280
     0
102
RTVSPost2010PropOp55
 70
     1
102
RTVSPost2010Prop56
140
1.0
102
RTVSPost2010PropOp56
 70
     1
102
RTVSPost2010Prop57
140
1.0
102
RTVSPost2010PropOp57
 70
     1
102
RTVSPropertyOp0
 70
     1
102
RTVSPropertyOp1
 70
     1
102
RTVSPropertyOp2
 70
     1
102
RTVSPropertyOp3
 70
     1
102
RTVSPropertyOp4
 70
     1
102
RTVSPropertyOp5
 70
     1
102
RTVSPropertyOp6
 70
     1
102
RTVSPropertyOp7
 70
     1
102
RTVSPropertyOp8
 70
     1
102
RTVSPropertyOp9
 70
     1
102
RTVSPropertyOp10
 70
     1
102
RTVSPropertyOp11
 70
     1
102
RTVSPropertyOp12
 70
     1
102
RTVSPropertyOp13
 70
     1
102
RTVSPropertyOp14
 70
     1
102
RTVSPropertyOp15
 70
     1
102
RTVSPropertyOp16
 70
     1
102
RTVSPropertyOp17
 70
     1
102
RTVSPropertyOp18
 70
     1
102
RTVSPropertyOp19
 70
     1
102
RTVSPropertyOp20
 70
     1
102
RTVSPropertyOp21
 70
     1
102
RTVSPropertyOp22
 70
     1
102
RTVSPropertyOp23
 70
     1
102
RTVSPropertyOp24
 70
     1
102
RTVSPropertyOp25
 70
     1
102
RTVSPropertyOp26
 70
     1
102
RTVSPropertyOp27
 70
     1
102
RTVSPropertyOp28
 70
     1
102
RTVSPropertyOp29
 70
     1
102
RTVSPropertyOp30
 70
     1
102
RTVSPropertyOp31
 70
     1
102
RTVSPropertyOp32
 70
     1
102
RTVSPropertyOp33
 70
     1
102
RTVSPropertyOp34
 70
     1
102
RTVSPropertyOp35
 70
     1
102
RTVSPropertyOp36
 70
     1
102
RTVSPropertyOp37
 70
     1
102
RTVSPropertyOp38
 70
     1
102
RTVSPropertyOp39
 70
     1
102
RTVSPropertyOp40
 70
     1
102
RTVSPropertyOp41
 70
     1
102
RTVSPropertyOp42
 70
     1
102
RTVSPropertyOp43
 70
     1
102
RTVSPropertyOp44
 70
     1
102
RTVSPropertyOp45
 70
     1
102
RTVSPropertyOp46
 70
     1
102
RTVSPropertyOp47
 70
     1
102
RTVSPropertyOp48
 70
     1
102
RTVSPropertyOp49
 70
     1
102
RTVSPropertyOp50
 70
     1
102
RTVSPropertyOp51
 70
     0
102
RTVSPropertyOp52
 70
     0
102
RTVSPropertyOp53
 70
     1
102
RTVSPropertyOp54
 70
     1
102
RTVSPropertyOp55
 70
     1
102
RTVSPropertyOp56
 70
     1
102
RTVSPropertyOp57
 70
     1
102
RTVSPropertyOp58
 70
     1
102
RTVSPropertyOp59
 70
     1
102
RTVSPropertyOp60
 70
     1
102
RTVSPropertyOp61
 70
     1
102
RTVSPropertyOp62
 70
     1
  0
XRECORD
  5
A57B
102
{ACAD_REACTORS
330
A57A
102
}
330
A57A
100
AcDbXrecord
280
     1
102
RTVSPost2010Prop28
280
     0
102
RTVSPost2010PropOp28
 70
     1
102
RTVSPost2010Prop29
280
     1
102
RTVSPost2010PropOp29
 70
     1
102
RTVSPost2010Prop30
280
     1
102
RTVSPost2010PropOp30
 70
     1
102
RTVSPost2010Prop31
280
     0
102
RTVSPost2010PropOp31
 70
     1
102
RTVSPost2010Prop32
280
     0
102
RTVSPost2010PropOp32
 70
     1
102
RTVSPost2010Prop33
280
     0
102
RTVSPost2010PropOp33
 70
     1
102
RTVSPost2010Prop34
280
     0
102
RTVSPost2010PropOp34
 70
     1
102
RTVSPost2010Prop35
280
     0
102
RTVSPost2010PropOp35
 70
     1
102
RTVSPost2010Prop36
280
     0
102
RTVSPost2010PropOp36
 70
     1
102
RTVSPost2010Prop37
 90
       50
102
RTVSPost2010PropOp37
 70
     1
102
RTVSPost2010Prop38
140
0.0
102
RTVSPost2010PropOp38
 70
     1
102
RTVSPost2010Prop39
140
1.0
102
RTVSPost2010PropOp39
 70
     1
102
RTVSPost2010Prop40
 90
        0
102
RTVSPost2010PropOp40
 70
     1
102
RTVSPost2010Prop41ColorIndex
 90
       18
102
RTVSPost2010Prop41ColorRGB
 90
        0
102
RTVSPost2010PropOp41
 70
     1
102
RTVSPost2010Prop42
 90
       50
102
RTVSPost2010PropOp42
 70
     1
102
RTVSPost2010Prop43
 90
        3
102
RTVSPost2010PropOp43
 70
     1
102
RTVSPost2010Prop44ColorIndex
 90
        5
102
RTVSPost2010Prop44ColorRGB
 90
      255
102
RTVSPost2010PropOp44
 70
     1
102
RTVSPost2010Prop45
280
     0
102
RTVSPost2010PropOp45
 70
     1
102
RTVSPost2010Prop46
 90
       50
102
RTVSPost2010PropOp46
 70
     1
102
RTVSPost2010Prop47
 90
       50
102
RTVSPost2010PropOp47
 70
     1
102
RTVSPost2010Prop48
 90
       50
102
RTVSPost2010PropOp48
 70
     1
102
RTVSPost2010Prop49
280
     0
102
RTVSPost2010PropOp49
 70
     1
102
RTVSPost2010Prop50
 90
       50
102
RTVSPost2010PropOp50
 70
     1
102
RTVSPost2010Prop51ColorIndex
 90
      256
102
RTVSPost2010Prop51ColorRGB
 90
-16777216
102
RTVSPost2010PropOp51
 70
     0
102
RTVSPost2010Prop52
140
1.0
102
RTVSPost2010PropOp52
 70
     0
102
RTVSPost2010Prop53
 90
        2
102
RTVSPost2010PropOp53
 70
     1
102
RTVSPost2010Prop54
  1
strokes_ogs.tif
102
RTVSPost2010PropOp54
 70
     1
102
RTVSPost2010Prop55
280
     0
102
RTVSPost2010PropOp55
 70
     1
102
RTVSPost2010Prop56
140
1.0
102
RTVSPost2010PropOp56
 70
     1
102
RTVSPost2010Prop57
140
1.0
102
RTVSPost2010PropOp57
 70
     1
102
RTVSPropertyOp0
 70
     1
102
RTVSPropertyOp1
 70
     1
102
RTVSPropertyOp2
 70
     1
102
RTVSPropertyOp3
 70
     1
102
RTVSPropertyOp4
 70
     1
102
RTVSPropertyOp5
 70
     1
102
RTVSPropertyOp6
 70
     1
102
RTVSPropertyOp7
 70
     1
102
RTVSPropertyOp8
 70
     1
102
RTVSPropertyOp9
 70
     1
102
RTVSPropertyOp10
 70
     1
102
RTVSPropertyOp11
 70
     1
102
RTVSPropertyOp12
 70
     1
102
RTVSPropertyOp13
 70
     1
102
RTVSPropertyOp14
 70
     1
102
RTVSPropertyOp15
 70
     1
102
RTVSPropertyOp16
 70
     1
102
RTVSPropertyOp17
 70
     1
102
RTVSPropertyOp18
 70
     1
102
RTVSPropertyOp19
 70
     1
102
RTVSPropertyOp20
 70
     1
102
RTVSPropertyOp21
 70
     1
102
RTVSPropertyOp22
 70
     1
102
RTVSPropertyOp23
 70
     1
102
RTVSPropertyOp24
 70
     1
102
RTVSPropertyOp25
 70
     1
102
RTVSPropertyOp26
 70
     1
102
RTVSPropertyOp27
 70
     1
102
RTVSPropertyOp28
 70
     1
102
RTVSPropertyOp29
 70
     1
102
RTVSPropertyOp30
 70
     1
102
RTVSPropertyOp31
 70
     1
102
RTVSPropertyOp32
 70
     1
102
RTVSPropertyOp33
 70
     1
102
RTVSPropertyOp34
 70
     1
102
RTVSPropertyOp35
 70
     1
102
RTVSPropertyOp36
 70
     1
102
RTVSPropertyOp37
 70
     1
102
RTVSPropertyOp38
 70
     1
102
RTVSPropertyOp39
 70
     1
102
RTVSPropertyOp40
 70
     1
102
RTVSPropertyOp41
 70
     1
102
RTVSPropertyOp42
 70
     1
102
RTVSPropertyOp43
 70
     1
102
RTVSPropertyOp44
 70
     1
102
RTVSPropertyOp45
 70
     1
102
RTVSPropertyOp46
 70
     1
102
RTVSPropertyOp47
 70
     1
102
RTVSPropertyOp48
 70
     1
102
RTVSPropertyOp49
 70
     1
102
RTVSPropertyOp50
 70
     1
102
RTVSPropertyOp51
 70
     0
102
RTVSPropertyOp52
 70
     0
102
RTVSPropertyOp53
 70
     1
102
RTVSPropertyOp54
 70
     1
102
RTVSPropertyOp55
 70
     1
102
RTVSPropertyOp56
 70
     1
102
RTVSPropertyOp57
 70
     1
102
RTVSPropertyOp58
 70
     1
102
RTVSPropertyOp59
 70
     1
102
RTVSPropertyOp60
 70
     1
102
RTVSPropertyOp61
 70
     1
102
RTVSPropertyOp62
 70
     1
  0
XRECORD
  5
A57D
102
{ACAD_REACTORS
330
A57C
102
}
330
A57C
100
AcDbXrecord
280
     1
102
RTVSPost2010Prop28
280
     0
102
RTVSPost2010PropOp28
 70
     1
102
RTVSPost2010Prop29
280
     1
102
RTVSPost2010PropOp29
 70
     1
102
RTVSPost2010Prop30
280
     1
102
RTVSPost2010PropOp30
 70
     1
102
RTVSPost2010Prop31
280
     0
102
RTVSPost2010PropOp31
 70
     1
102
RTVSPost2010Prop32
280
     0
102
RTVSPost2010PropOp32
 70
     1
102
RTVSPost2010Prop33
280
     0
102
RTVSPost2010PropOp33
 70
     1
102
RTVSPost2010Prop34
280
     0
102
RTVSPost2010PropOp34
 70
     1
102
RTVSPost2010Prop35
280
     0
102
RTVSPost2010PropOp35
 70
     1
102
RTVSPost2010Prop36
280
     0
102
RTVSPost2010PropOp36
 70
     1
102
RTVSPost2010Prop37
 90
       50
102
RTVSPost2010PropOp37
 70
     1
102
RTVSPost2010Prop38
140
0.0
102
RTVSPost2010PropOp38
 70
     1
102
RTVSPost2010Prop39
140
1.0
102
RTVSPost2010PropOp39
 70
     1
102
RTVSPost2010Prop40
 90
        0
102
RTVSPost2010PropOp40
 70
     1
102
RTVSPost2010Prop41ColorIndex
 90
       18
102
RTVSPost2010Prop41ColorRGB
 90
        0
102
RTVSPost2010PropOp41
 70
     1
102
RTVSPost2010Prop42
 90
       50
102
RTVSPost2010PropOp42
 70
     1
102
RTVSPost2010Prop43
 90
        3
102
RTVSPost2010PropOp43
 70
     1
102
RTVSPost2010Prop44ColorIndex
 90
        5
102
RTVSPost2010Prop44ColorRGB
 90
      255
102
RTVSPost2010PropOp44
 70
     1
102
RTVSPost2010Prop45
280
     0
102
RTVSPost2010PropOp45
 70
     1
102
RTVSPost2010Prop46
 90
       50
102
RTVSPost2010PropOp46
 70
     1
102
RTVSPost2010Prop47
 90
       50
102
RTVSPost2010PropOp47
 70
     1
102
RTVSPost2010Prop48
 90
       50
102
RTVSPost2010PropOp48
 70
     1
102
RTVSPost2010Prop49
280
     0
102
RTVSPost2010PropOp49
 70
     1
102
RTVSPost2010Prop50
 90
       50
102
RTVSPost2010PropOp50
 70
     1
102
RTVSPost2010Prop51ColorIndex
 90
      256
102
RTVSPost2010Prop51ColorRGB
 90
-16777216
102
RTVSPost2010PropOp51
 70
     0
102
RTVSPost2010Prop52
140
1.0
102
RTVSPost2010PropOp52
 70
     0
102
RTVSPost2010Prop53
 90
        2
102
RTVSPost2010PropOp53
 70
     1
102
RTVSPost2010Prop54
  1
strokes_ogs.tif
102
RTVSPost2010PropOp54
 70
     1
102
RTVSPost2010Prop55
280
     0
102
RTVSPost2010PropOp55
 70
     1
102
RTVSPost2010Prop56
140
1.0
102
RTVSPost2010PropOp56
 70
     1
102
RTVSPost2010Prop57
140
1.0
102
RTVSPost2010PropOp57
 70
     1
102
RTVSPropertyOp0
 70
     1
102
RTVSPropertyOp1
 70
     1
102
RTVSPropertyOp2
 70
     1
102
RTVSPropertyOp3
 70
     1
102
RTVSPropertyOp4
 70
     1
102
RTVSPropertyOp5
 70
     1
102
RTVSPropertyOp6
 70
     1
102
RTVSPropertyOp7
 70
     1
102
RTVSPropertyOp8
 70
     1
102
RTVSPropertyOp9
 70
     1
102
RTVSPropertyOp10
 70
     1
102
RTVSPropertyOp11
 70
     1
102
RTVSPropertyOp12
 70
     1
102
RTVSPropertyOp13
 70
     1
102
RTVSPropertyOp14
 70
     1
102
RTVSPropertyOp15
 70
     1
102
RTVSPropertyOp16
 70
     1
102
RTVSPropertyOp17
 70
     1
102
RTVSPropertyOp18
 70
     1
102
RTVSPropertyOp19
 70
     1
102
RTVSPropertyOp20
 70
     1
102
RTVSPropertyOp21
 70
     1
102
RTVSPropertyOp22
 70
     1
102
RTVSPropertyOp23
 70
     1
102
RTVSPropertyOp24
 70
     1
102
RTVSPropertyOp25
 70
     1
102
RTVSPropertyOp26
 70
     1
102
RTVSPropertyOp27
 70
     1
102
RTVSPropertyOp28
 70
     1
102
RTVSPropertyOp29
 70
     1
102
RTVSPropertyOp30
 70
     1
102
RTVSPropertyOp31
 70
     1
102
RTVSPropertyOp32
 70
     1
102
RTVSPropertyOp33
 70
     1
102
RTVSPropertyOp34
 70
     1
102
RTVSPropertyOp35
 70
     1
102
RTVSPropertyOp36
 70
     1
102
RTVSPropertyOp37
 70
     1
102
RTVSPropertyOp38
 70
     1
102
RTVSPropertyOp39
 70
     1
102
RTVSPropertyOp40
 70
     1
102
RTVSPropertyOp41
 70
     1
102
RTVSPropertyOp42
 70
     1
102
RTVSPropertyOp43
 70
     1
102
RTVSPropertyOp44
 70
     1
102
RTVSPropertyOp45
 70
     1
102
RTVSPropertyOp46
 70
     1
102
RTVSPropertyOp47
 70
     1
102
RTVSPropertyOp48
 70
     1
102
RTVSPropertyOp49
 70
     1
102
RTVSPropertyOp50
 70
     1
102
RTVSPropertyOp51
 70
     0
102
RTVSPropertyOp52
 70
     0
102
RTVSPropertyOp53
 70
     1
102
RTVSPropertyOp54
 70
     1
102
RTVSPropertyOp55
 70
     1
102
RTVSPropertyOp56
 70
     1
102
RTVSPropertyOp57
 70
     1
102
RTVSPropertyOp58
 70
     1
102
RTVSPropertyOp59
 70
     1
102
RTVSPropertyOp60
 70
     1
102
RTVSPropertyOp61
 70
     1
102
RTVSPropertyOp62
 70
     1
  0
XRECORD
  5
A57F
102
{ACAD_REACTORS
330
A57E
102
}
330
A57E
100
AcDbXrecord
280
     1
102
RTVSPost2010Prop28
280
     0
102
RTVSPost2010PropOp28
 70
     1
102
RTVSPost2010Prop29
280
     1
102
RTVSPost2010PropOp29
 70
     1
102
RTVSPost2010Prop30
280
     1
102
RTVSPost2010PropOp30
 70
     1
102
RTVSPost2010Prop31
280
     0
102
RTVSPost2010PropOp31
 70
     1
102
RTVSPost2010Prop32
280
     0
102
RTVSPost2010PropOp32
 70
     1
102
RTVSPost2010Prop33
280
     0
102
RTVSPost2010PropOp33
 70
     1
102
RTVSPost2010Prop34
280
     0
102
RTVSPost2010PropOp34
 70
     1
102
RTVSPost2010Prop35
280
     0
102
RTVSPost2010PropOp35
 70
     1
102
RTVSPost2010Prop36
280
     0
102
RTVSPost2010PropOp36
 70
     1
102
RTVSPost2010Prop37
 90
       50
102
RTVSPost2010PropOp37
 70
     1
102
RTVSPost2010Prop38
140
0.0
102
RTVSPost2010PropOp38
 70
     1
102
RTVSPost2010Prop39
140
1.0
102
RTVSPost2010PropOp39
 70
     1
102
RTVSPost2010Prop40
 90
        0
102
RTVSPost2010PropOp40
 70
     1
102
RTVSPost2010Prop41ColorIndex
 90
       18
102
RTVSPost2010Prop41ColorRGB
 90
        0
102
RTVSPost2010PropOp41
 70
     1
102
RTVSPost2010Prop42
 90
       50
102
RTVSPost2010PropOp42
 70
     1
102
RTVSPost2010Prop43
 90
        3
102
RTVSPost2010PropOp43
 70
     1
102
RTVSPost2010Prop44ColorIndex
 90
        5
102
RTVSPost2010Prop44ColorRGB
 90
      255
102
RTVSPost2010PropOp44
 70
     1
102
RTVSPost2010Prop45
280
     0
102
RTVSPost2010PropOp45
 70
     1
102
RTVSPost2010Prop46
 90
       50
102
RTVSPost2010PropOp46
 70
     1
102
RTVSPost2010Prop47
 90
       50
102
RTVSPost2010PropOp47
 70
     1
102
RTVSPost2010Prop48
 90
       50
102
RTVSPost2010PropOp48
 70
     1
102
RTVSPost2010Prop49
280
     0
102
RTVSPost2010PropOp49
 70
     1
102
RTVSPost2010Prop50
 90
       50
102
RTVSPost2010PropOp50
 70
     1
102
RTVSPost2010Prop51ColorIndex
 90
      256
102
RTVSPost2010Prop51ColorRGB
 90
-16777216
102
RTVSPost2010PropOp51
 70
     0
102
RTVSPost2010Prop52
140
1.0
102
RTVSPost2010PropOp52
 70
     0
102
RTVSPost2010Prop53
 90
        2
102
RTVSPost2010PropOp53
 70
     1
102
RTVSPost2010Prop54
  1
strokes_ogs.tif
102
RTVSPost2010PropOp54
 70
     1
102
RTVSPost2010Prop55
280
     0
102
RTVSPost2010PropOp55
 70
     1
102
RTVSPost2010Prop56
140
1.0
102
RTVSPost2010PropOp56
 70
     1
102
RTVSPost2010Prop57
140
1.0
102
RTVSPost2010PropOp57
 70
     1
102
RTVSPropertyOp0
 70
     1
102
RTVSPropertyOp1
 70
     1
102
RTVSPropertyOp2
 70
     1
102
RTVSPropertyOp3
 70
     1
102
RTVSPropertyOp4
 70
     1
102
RTVSPropertyOp5
 70
     1
102
RTVSPropertyOp6
 70
     1
102
RTVSPropertyOp7
 70
     1
102
RTVSPropertyOp8
 70
     1
102
RTVSPropertyOp9
 70
     1
102
RTVSPropertyOp10
 70
     1
102
RTVSPropertyOp11
 70
     1
102
RTVSPropertyOp12
 70
     1
102
RTVSPropertyOp13
 70
     1
102
RTVSPropertyOp14
 70
     1
102
RTVSPropertyOp15
 70
     1
102
RTVSPropertyOp16
 70
     1
102
RTVSPropertyOp17
 70
     1
102
RTVSPropertyOp18
 70
     1
102
RTVSPropertyOp19
 70
     1
102
RTVSPropertyOp20
 70
     1
102
RTVSPropertyOp21
 70
     1
102
RTVSPropertyOp22
 70
     1
102
RTVSPropertyOp23
 70
     1
102
RTVSPropertyOp24
 70
     1
102
RTVSPropertyOp25
 70
     1
102
RTVSPropertyOp26
 70
     1
102
RTVSPropertyOp27
 70
     1
102
RTVSPropertyOp28
 70
     1
102
RTVSPropertyOp29
 70
     1
102
RTVSPropertyOp30
 70
     1
102
RTVSPropertyOp31
 70
     1
102
RTVSPropertyOp32
 70
     1
102
RTVSPropertyOp33
 70
     1
102
RTVSPropertyOp34
 70
     1
102
RTVSPropertyOp35
 70
     1
102
RTVSPropertyOp36
 70
     1
102
RTVSPropertyOp37
 70
     1
102
RTVSPropertyOp38
 70
     1
102
RTVSPropertyOp39
 70
     1
102
RTVSPropertyOp40
 70
     1
102
RTVSPropertyOp41
 70
     1
102
RTVSPropertyOp42
 70
     1
102
RTVSPropertyOp43
 70
     1
102
RTVSPropertyOp44
 70
     1
102
RTVSPropertyOp45
 70
     1
102
RTVSPropertyOp46
 70
     1
102
RTVSPropertyOp47
 70
     1
102
RTVSPropertyOp48
 70
     1
102
RTVSPropertyOp49
 70
     1
102
RTVSPropertyOp50
 70
     1
102
RTVSPropertyOp51
 70
     0
102
RTVSPropertyOp52
 70
     0
102
RTVSPropertyOp53
 70
     1
102
RTVSPropertyOp54
 70
     1
102
RTVSPropertyOp55
 70
     1
102
RTVSPropertyOp56
 70
     1
102
RTVSPropertyOp57
 70
     1
102
RTVSPropertyOp58
 70
     1
102
RTVSPropertyOp59
 70
     1
102
RTVSPropertyOp60
 70
     1
102
RTVSPropertyOp61
 70
     1
102
RTVSPropertyOp62
 70
     1
  0
XRECORD
  5
A581
102
{ACAD_REACTORS
330
A580
102
}
330
A580
100
AcDbXrecord
280
     1
102
RTVSPost2010Prop28
280
     0
102
RTVSPost2010PropOp28
 70
     1
102
RTVSPost2010Prop29
280
     1
102
RTVSPost2010PropOp29
 70
     1
102
RTVSPost2010Prop30
280
     1
102
RTVSPost2010PropOp30
 70
     1
102
RTVSPost2010Prop31
280
     0
102
RTVSPost2010PropOp31
 70
     1
102
RTVSPost2010Prop32
280
     0
102
RTVSPost2010PropOp32
 70
     1
102
RTVSPost2010Prop33
280
     0
102
RTVSPost2010PropOp33
 70
     1
102
RTVSPost2010Prop34
280
     0
102
RTVSPost2010PropOp34
 70
     1
102
RTVSPost2010Prop35
280
     0
102
RTVSPost2010PropOp35
 70
     1
102
RTVSPost2010Prop36
280
     0
102
RTVSPost2010PropOp36
 70
     1
102
RTVSPost2010Prop37
 90
       50
102
RTVSPost2010PropOp37
 70
     1
102
RTVSPost2010Prop38
140
0.0
102
RTVSPost2010PropOp38
 70
     1
102
RTVSPost2010Prop39
140
1.0
102
RTVSPost2010PropOp39
 70
     1
102
RTVSPost2010Prop40
 90
        0
102
RTVSPost2010PropOp40
 70
     1
102
RTVSPost2010Prop41ColorIndex
 90
       18
102
RTVSPost2010Prop41ColorRGB
 90
        0
102
RTVSPost2010PropOp41
 70
     1
102
RTVSPost2010Prop42
 90
       50
102
RTVSPost2010PropOp42
 70
     1
102
RTVSPost2010Prop43
 90
        3
102
RTVSPost2010PropOp43
 70
     1
102
RTVSPost2010Prop44ColorIndex
 90
        5
102
RTVSPost2010Prop44ColorRGB
 90
      255
102
RTVSPost2010PropOp44
 70
     1
102
RTVSPost2010Prop45
280
     0
102
RTVSPost2010PropOp45
 70
     1
102
RTVSPost2010Prop46
 90
       50
102
RTVSPost2010PropOp46
 70
     1
102
RTVSPost2010Prop47
 90
       50
102
RTVSPost2010PropOp47
 70
     1
102
RTVSPost2010Prop48
 90
       50
102
RTVSPost2010PropOp48
 70
     1
102
RTVSPost2010Prop49
280
     0
102
RTVSPost2010PropOp49
 70
     1
102
RTVSPost2010Prop50
 90
       50
102
RTVSPost2010PropOp50
 70
     1
102
RTVSPost2010Prop51ColorIndex
 90
      256
102
RTVSPost2010Prop51ColorRGB
 90
-16777216
102
RTVSPost2010PropOp51
 70
     0
102
RTVSPost2010Prop52
140
1.0
102
RTVSPost2010PropOp52
 70
     0
102
RTVSPost2010Prop53
 90
        2
102
RTVSPost2010PropOp53
 70
     1
102
RTVSPost2010Prop54
  1
strokes_ogs.tif
102
RTVSPost2010PropOp54
 70
     1
102
RTVSPost2010Prop55
280
     0
102
RTVSPost2010PropOp55
 70
     1
102
RTVSPost2010Prop56
140
1.0
102
RTVSPost2010PropOp56
 70
     1
102
RTVSPost2010Prop57
140
1.0
102
RTVSPost2010PropOp57
 70
     1
102
RTVSPropertyOp0
 70
     1
102
RTVSPropertyOp1
 70
     1
102
RTVSPropertyOp2
 70
     1
102
RTVSPropertyOp3
 70
     1
102
RTVSPropertyOp4
 70
     1
102
RTVSPropertyOp5
 70
     1
102
RTVSPropertyOp6
 70
     1
102
RTVSPropertyOp7
 70
     1
102
RTVSPropertyOp8
 70
     1
102
RTVSPropertyOp9
 70
     1
102
RTVSPropertyOp10
 70
     1
102
RTVSPropertyOp11
 70
     1
102
RTVSPropertyOp12
 70
     1
102
RTVSPropertyOp13
 70
     1
102
RTVSPropertyOp14
 70
     1
102
RTVSPropertyOp15
 70
     1
102
RTVSPropertyOp16
 70
     1
102
RTVSPropertyOp17
 70
     1
102
RTVSPropertyOp18
 70
     1
102
RTVSPropertyOp19
 70
     1
102
RTVSPropertyOp20
 70
     1
102
RTVSPropertyOp21
 70
     1
102
RTVSPropertyOp22
 70
     1
102
RTVSPropertyOp23
 70
     1
102
RTVSPropertyOp24
 70
     1
102
RTVSPropertyOp25
 70
     1
102
RTVSPropertyOp26
 70
     1
102
RTVSPropertyOp27
 70
     1
102
RTVSPropertyOp28
 70
     1
102
RTVSPropertyOp29
 70
     1
102
RTVSPropertyOp30
 70
     1
102
RTVSPropertyOp31
 70
     1
102
RTVSPropertyOp32
 70
     1
102
RTVSPropertyOp33
 70
     1
102
RTVSPropertyOp34
 70
     1
102
RTVSPropertyOp35
 70
     1
102
RTVSPropertyOp36
 70
     1
102
RTVSPropertyOp37
 70
     1
102
RTVSPropertyOp38
 70
     1
102
RTVSPropertyOp39
 70
     1
102
RTVSPropertyOp40
 70
     1
102
RTVSPropertyOp41
 70
     1
102
RTVSPropertyOp42
 70
     1
102
RTVSPropertyOp43
 70
     1
102
RTVSPropertyOp44
 70
     1
102
RTVSPropertyOp45
 70
     1
102
RTVSPropertyOp46
 70
     1
102
RTVSPropertyOp47
 70
     1
102
RTVSPropertyOp48
 70
     1
102
RTVSPropertyOp49
 70
     1
102
RTVSPropertyOp50
 70
     1
102
RTVSPropertyOp51
 70
     0
102
RTVSPropertyOp52
 70
     0
102
RTVSPropertyOp53
 70
     1
102
RTVSPropertyOp54
 70
     1
102
RTVSPropertyOp55
 70
     1
102
RTVSPropertyOp56
 70
     1
102
RTVSPropertyOp57
 70
     1
102
RTVSPropertyOp58
 70
     1
102
RTVSPropertyOp59
 70
     1
102
RTVSPropertyOp60
 70
     1
102
RTVSPropertyOp61
 70
     1
102
RTVSPropertyOp62
 70
     1
  0
XRECORD
  5
A589
102
{ACAD_REACTORS
330
A588
102
}
330
A588
100
AcDbXrecord
280
     1
102
RTVSPost2010Prop28
280
     0
102
RTVSPost2010PropOp28
 70
     1
102
RTVSPost2010Prop29
280
     1
102
RTVSPost2010PropOp29
 70
     1
102
RTVSPost2010Prop30
280
     1
102
RTVSPost2010PropOp30
 70
     1
102
RTVSPost2010Prop31
280
     0
102
RTVSPost2010PropOp31
 70
     1
102
RTVSPost2010Prop32
280
     0
102
RTVSPost2010PropOp32
 70
     1
102
RTVSPost2010Prop33
280
     0
102
RTVSPost2010PropOp33
 70
     1
102
RTVSPost2010Prop34
280
     0
102
RTVSPost2010PropOp34
 70
     1
102
RTVSPost2010Prop35
280
     0
102
RTVSPost2010PropOp35
 70
     1
102
RTVSPost2010Prop36
280
     0
102
RTVSPost2010PropOp36
 70
     1
102
RTVSPost2010Prop37
 90
       50
102
RTVSPost2010PropOp37
 70
     1
102
RTVSPost2010Prop38
140
0.0
102
RTVSPost2010PropOp38
 70
     1
102
RTVSPost2010Prop39
140
1.0
102
RTVSPost2010PropOp39
 70
     1
102
RTVSPost2010Prop40
 90
        0
102
RTVSPost2010PropOp40
 70
     1
102
RTVSPost2010Prop41ColorIndex
 90
       18
102
RTVSPost2010Prop41ColorRGB
 90
        0
102
RTVSPost2010PropOp41
 70
     1
102
RTVSPost2010Prop42
 90
       50
102
RTVSPost2010PropOp42
 70
     1
102
RTVSPost2010Prop43
 90
        3
102
RTVSPost2010PropOp43
 70
     1
102
RTVSPost2010Prop44ColorIndex
 90
        5
102
RTVSPost2010Prop44ColorRGB
 90
      255
102
RTVSPost2010PropOp44
 70
     1
102
RTVSPost2010Prop45
280
     0
102
RTVSPost2010PropOp45
 70
     1
102
RTVSPost2010Prop46
 90
       50
102
RTVSPost2010PropOp46
 70
     1
102
RTVSPost2010Prop47
 90
       50
102
RTVSPost2010PropOp47
 70
     1
102
RTVSPost2010Prop48
 90
       50
102
RTVSPost2010PropOp48
 70
     1
102
RTVSPost2010Prop49
280
     0
102
RTVSPost2010PropOp49
 70
     1
102
RTVSPost2010Prop50
 90
       50
102
RTVSPost2010PropOp50
 70
     1
102
RTVSPost2010Prop51ColorIndex
 90
      256
102
RTVSPost2010Prop51ColorRGB
 90
-16777216
102
RTVSPost2010PropOp51
 70
     0
102
RTVSPost2010Prop52
140
1.0
102
RTVSPost2010PropOp52
 70
     0
102
RTVSPost2010Prop53
 90
        2
102
RTVSPost2010PropOp53
 70
     1
102
RTVSPost2010Prop54
  1
strokes_ogs.tif
102
RTVSPost2010PropOp54
 70
     1
102
RTVSPost2010Prop55
280
     0
102
RTVSPost2010PropOp55
 70
     1
102
RTVSPost2010Prop56
140
1.0
102
RTVSPost2010PropOp56
 70
     1
102
RTVSPost2010Prop57
140
1.0
102
RTVSPost2010PropOp57
 70
     1
102
RTVSPropertyOp0
 70
     1
102
RTVSPropertyOp1
 70
     1
102
RTVSPropertyOp2
 70
     1
102
RTVSPropertyOp3
 70
     1
102
RTVSPropertyOp4
 70
     1
102
RTVSPropertyOp5
 70
     1
102
RTVSPropertyOp6
 70
     1
102
RTVSPropertyOp7
 70
     1
102
RTVSPropertyOp8
 70
     1
102
RTVSPropertyOp9
 70
     1
102
RTVSPropertyOp10
 70
     1
102
RTVSPropertyOp11
 70
     1
102
RTVSPropertyOp12
 70
     1
102
RTVSPropertyOp13
 70
     1
102
RTVSPropertyOp14
 70
     1
102
RTVSPropertyOp15
 70
     1
102
RTVSPropertyOp16
 70
     1
102
RTVSPropertyOp17
 70
     1
102
RTVSPropertyOp18
 70
     1
102
RTVSPropertyOp19
 70
     1
102
RTVSPropertyOp20
 70
     1
102
RTVSPropertyOp21
 70
     1
102
RTVSPropertyOp22
 70
     1
102
RTVSPropertyOp23
 70
     1
102
RTVSPropertyOp24
 70
     1
102
RTVSPropertyOp25
 70
     1
102
RTVSPropertyOp26
 70
     1
102
RTVSPropertyOp27
 70
     1
102
RTVSPropertyOp28
 70
     1
102
RTVSPropertyOp29
 70
     1
102
RTVSPropertyOp30
 70
     1
102
RTVSPropertyOp31
 70
     1
102
RTVSPropertyOp32
 70
     1
102
RTVSPropertyOp33
 70
     1
102
RTVSPropertyOp34
 70
     1
102
RTVSPropertyOp35
 70
     1
102
RTVSPropertyOp36
 70
     1
102
RTVSPropertyOp37
 70
     1
102
RTVSPropertyOp38
 70
     1
102
RTVSPropertyOp39
 70
     1
102
RTVSPropertyOp40
 70
     1
102
RTVSPropertyOp41
 70
     1
102
RTVSPropertyOp42
 70
     1
102
RTVSPropertyOp43
 70
     1
102
RTVSPropertyOp44
 70
     1
102
RTVSPropertyOp45
 70
     1
102
RTVSPropertyOp46
 70
     1
102
RTVSPropertyOp47
 70
     1
102
RTVSPropertyOp48
 70
     1
102
RTVSPropertyOp49
 70
     1
102
RTVSPropertyOp50
 70
     1
102
RTVSPropertyOp51
 70
     0
102
RTVSPropertyOp52
 70
     0
102
RTVSPropertyOp53
 70
     1
102
RTVSPropertyOp54
 70
     1
102
RTVSPropertyOp55
 70
     1
102
RTVSPropertyOp56
 70
     1
102
RTVSPropertyOp57
 70
     1
102
RTVSPropertyOp58
 70
     1
102
RTVSPropertyOp59
 70
     1
102
RTVSPropertyOp60
 70
     1
102
RTVSPropertyOp61
 70
     1
102
RTVSPropertyOp62
 70
     1
  0
XRECORD
  5
A5A5
102
{ACAD_REACTORS
330
A5A4
102
}
330
A5A4
100
AcDbXrecord
280
     1
102
RTVSPost2010Prop28
280
     0
102
RTVSPost2010PropOp28
 70
     1
102
RTVSPost2010Prop29
280
     1
102
RTVSPost2010PropOp29
 70
     1
102
RTVSPost2010Prop30
280
     1
102
RTVSPost2010PropOp30
 70
     1
102
RTVSPost2010Prop31
280
     0
102
RTVSPost2010PropOp31
 70
     1
102
RTVSPost2010Prop32
280
     0
102
RTVSPost2010PropOp32
 70
     1
102
RTVSPost2010Prop33
280
     0
102
RTVSPost2010PropOp33
 70
     1
102
RTVSPost2010Prop34
280
     0
102
RTVSPost2010PropOp34
 70
     1
102
RTVSPost2010Prop35
280
     0
102
RTVSPost2010PropOp35
 70
     1
102
RTVSPost2010Prop36
280
     0
102
RTVSPost2010PropOp36
 70
     1
102
RTVSPost2010Prop37
 90
       50
102
RTVSPost2010PropOp37
 70
     0
102
RTVSPost2010Prop38
140
0.0
102
RTVSPost2010PropOp38
 70
     0
102
RTVSPost2010Prop39
140
1.0
102
RTVSPost2010PropOp39
 70
     0
102
RTVSPost2010Prop40
 90
        0
102
RTVSPost2010PropOp40
 70
     0
102
RTVSPost2010Prop41ColorIndex
 90
       18
102
RTVSPost2010Prop41ColorRGB
 90
        0
102
RTVSPost2010PropOp41
 70
     0
102
RTVSPost2010Prop42
 90
       50
102
RTVSPost2010PropOp42
 70
     0
102
RTVSPost2010Prop43
 90
        3
102
RTVSPost2010PropOp43
 70
     0
102
RTVSPost2010Prop44ColorIndex
 90
        5
102
RTVSPost2010Prop44ColorRGB
 90
      255
102
RTVSPost2010PropOp44
 70
     0
102
RTVSPost2010Prop45
280
     0
102
RTVSPost2010PropOp45
 70
     1
102
RTVSPost2010Prop46
 90
       50
102
RTVSPost2010PropOp46
 70
     0
102
RTVSPost2010Prop47
 90
       50
102
RTVSPost2010PropOp47
 70
     0
102
RTVSPost2010Prop48
 90
       50
102
RTVSPost2010PropOp48
 70
     0
102
RTVSPost2010Prop49
280
     0
102
RTVSPost2010PropOp49
 70
     1
102
RTVSPost2010Prop50
 90
       50
102
RTVSPost2010PropOp50
 70
     0
102
RTVSPost2010Prop51ColorIndex
 90
      256
102
RTVSPost2010Prop51ColorRGB
 90
-16777216
102
RTVSPost2010PropOp51
 70
     0
102
RTVSPost2010Prop52
140
1.0
102
RTVSPost2010PropOp52
 70
     0
102
RTVSPost2010Prop53
 90
        2
102
RTVSPost2010PropOp53
 70
     0
102
RTVSPost2010Prop54
  1
strokes_ogs.tif
102
RTVSPost2010PropOp54
 70
     0
102
RTVSPost2010Prop55
280
     0
102
RTVSPost2010PropOp55
 70
     1
102
RTVSPost2010Prop56
140
1.0
102
RTVSPost2010PropOp56
 70
     0
102
RTVSPost2010Prop57
140
1.0
102
RTVSPost2010PropOp57
 70
     0
102
RTVSPropertyOp0
 70
     0
102
RTVSPropertyOp1
 70
     0
102
RTVSPropertyOp2
 70
     0
102
RTVSPropertyOp3
 70
     0
102
RTVSPropertyOp4
 70
     0
102
RTVSPropertyOp5
 70
     0
102
RTVSPropertyOp6
 70
     0
102
RTVSPropertyOp7
 70
     0
102
RTVSPropertyOp8
 70
     0
102
RTVSPropertyOp9
 70
     0
102
RTVSPropertyOp10
 70
     0
102
RTVSPropertyOp11
 70
     0
102
RTVSPropertyOp12
 70
     0
102
RTVSPropertyOp13
 70
     0
102
RTVSPropertyOp14
 70
     2
102
RTVSPropertyOp15
 70
     0
102
RTVSPropertyOp16
 70
     0
102
RTVSPropertyOp17
 70
     0
102
RTVSPropertyOp18
 70
     0
102
RTVSPropertyOp19
 70
     0
102
RTVSPropertyOp20
 70
     0
102
RTVSPropertyOp21
 70
     0
102
RTVSPropertyOp22
 70
     0
102
RTVSPropertyOp23
 70
     0
102
RTVSPropertyOp24
 70
     0
102
RTVSPropertyOp25
 70
     0
102
RTVSPropertyOp26
 70
     0
102
RTVSPropertyOp27
 70
     0
102
RTVSPropertyOp28
 70
     1
102
RTVSPropertyOp29
 70
     1
102
RTVSPropertyOp30
 70
     1
102
RTVSPropertyOp31
 70
     1
102
RTVSPropertyOp32
 70
     1
102
RTVSPropertyOp33
 70
     1
102
RTVSPropertyOp34
 70
     1
102
RTVSPropertyOp35
 70
     1
102
RTVSPropertyOp36
 70
     1
102
RTVSPropertyOp37
 70
     0
102
RTVSPropertyOp38
 70
     0
102
RTVSPropertyOp39
 70
     0
102
RTVSPropertyOp40
 70
     0
102
RTVSPropertyOp41
 70
     0
102
RTVSPropertyOp42
 70
     0
102
RTVSPropertyOp43
 70
     0
102
RTVSPropertyOp44
 70
     0
102
RTVSPropertyOp45
 70
     1
102
RTVSPropertyOp46
 70
     0
102
RTVSPropertyOp47
 70
     0
102
RTVSPropertyOp48
 70
     0
102
RTVSPropertyOp49
 70
     1
102
RTVSPropertyOp50
 70
     0
102
RTVSPropertyOp51
 70
     0
102
RTVSPropertyOp52
 70
     0
102
RTVSPropertyOp53
 70
     0
102
RTVSPropertyOp54
 70
     0
102
RTVSPropertyOp55
 70
     1
102
RTVSPropertyOp56
 70
     0
102
RTVSPropertyOp57
 70
     0
102
RTVSPropertyOp58
 70
     0
102
RTVSPropertyOp59
 70
     0
102
RTVSPropertyOp60
 70
     0
102
RTVSPropertyOp61
 70
     0
102
RTVSPropertyOp62
 70
     0
  0
XRECORD
  5
A595
102
{ACAD_REACTORS
330
A594
102
}
330
A594
100
AcDbXrecord
280
     1
102
RTVSPost2010Prop28
280
     0
102
RTVSPost2010PropOp28
 70
     1
102
RTVSPost2010Prop29
280
     1
102
RTVSPost2010PropOp29
 70
     1
102
RTVSPost2010Prop30
280
     1
102
RTVSPost2010PropOp30
 70
     1
102
RTVSPost2010Prop31
280
     0
102
RTVSPost2010PropOp31
 70
     1
102
RTVSPost2010Prop32
280
     0
102
RTVSPost2010PropOp32
 70
     1
102
RTVSPost2010Prop33
280
     0
102
RTVSPost2010PropOp33
 70
     1
102
RTVSPost2010Prop34
280
     0
102
RTVSPost2010PropOp34
 70
     1
102
RTVSPost2010Prop35
280
     0
102
RTVSPost2010PropOp35
 70
     1
102
RTVSPost2010Prop36
280
     0
102
RTVSPost2010PropOp36
 70
     1
102
RTVSPost2010Prop37
 90
       50
102
RTVSPost2010PropOp37
 70
     1
102
RTVSPost2010Prop38
140
0.0
102
RTVSPost2010PropOp38
 70
     1
102
RTVSPost2010Prop39
140
1.0
102
RTVSPost2010PropOp39
 70
     1
102
RTVSPost2010Prop40
 90
        0
102
RTVSPost2010PropOp40
 70
     1
102
RTVSPost2010Prop41ColorIndex
 90
       18
102
RTVSPost2010Prop41ColorRGB
 90
        0
102
RTVSPost2010PropOp41
 70
     1
102
RTVSPost2010Prop42
 90
       50
102
RTVSPost2010PropOp42
 70
     1
102
RTVSPost2010Prop43
 90
        3
102
RTVSPost2010PropOp43
 70
     1
102
RTVSPost2010Prop44ColorIndex
 90
        5
102
RTVSPost2010Prop44ColorRGB
 90
      255
102
RTVSPost2010PropOp44
 70
     1
102
RTVSPost2010Prop45
280
     0
102
RTVSPost2010PropOp45
 70
     1
102
RTVSPost2010Prop46
 90
       50
102
RTVSPost2010PropOp46
 70
     1
102
RTVSPost2010Prop47
 90
       50
102
RTVSPost2010PropOp47
 70
     1
102
RTVSPost2010Prop48
 90
       50
102
RTVSPost2010PropOp48
 70
     1
102
RTVSPost2010Prop49
280
     0
102
RTVSPost2010PropOp49
 70
     1
102
RTVSPost2010Prop50
 90
       50
102
RTVSPost2010PropOp50
 70
     1
102
RTVSPost2010Prop51ColorIndex
 90
      256
102
RTVSPost2010Prop51ColorRGB
 90
-16777216
102
RTVSPost2010PropOp51
 70
     0
102
RTVSPost2010Prop52
140
1.0
102
RTVSPost2010PropOp52
 70
     0
102
RTVSPost2010Prop53
 90
        2
102
RTVSPost2010PropOp53
 70
     1
102
RTVSPost2010Prop54
  1
strokes_ogs.tif
102
RTVSPost2010PropOp54
 70
     1
102
RTVSPost2010Prop55
280
     0
102
RTVSPost2010PropOp55
 70
     1
102
RTVSPost2010Prop56
140
1.0
102
RTVSPost2010PropOp56
 70
     1
102
RTVSPost2010Prop57
140
1.0
102
RTVSPost2010PropOp57
 70
     1
102
RTVSPropertyOp0
 70
     1
102
RTVSPropertyOp1
 70
     1
102
RTVSPropertyOp2
 70
     1
102
RTVSPropertyOp3
 70
     1
102
RTVSPropertyOp4
 70
     1
102
RTVSPropertyOp5
 70
     1
102
RTVSPropertyOp6
 70
     1
102
RTVSPropertyOp7
 70
     1
102
RTVSPropertyOp8
 70
     1
102
RTVSPropertyOp9
 70
     1
102
RTVSPropertyOp10
 70
     1
102
RTVSPropertyOp11
 70
     1
102
RTVSPropertyOp12
 70
     1
102
RTVSPropertyOp13
 70
     1
102
RTVSPropertyOp14
 70
     1
102
RTVSPropertyOp15
 70
     1
102
RTVSPropertyOp16
 70
     1
102
RTVSPropertyOp17
 70
     1
102
RTVSPropertyOp18
 70
     1
102
RTVSPropertyOp19
 70
     1
102
RTVSPropertyOp20
 70
     1
102
RTVSPropertyOp21
 70
     1
102
RTVSPropertyOp22
 70
     1
102
RTVSPropertyOp23
 70
     1
102
RTVSPropertyOp24
 70
     1
102
RTVSPropertyOp25
 70
     1
102
RTVSPropertyOp26
 70
     1
102
RTVSPropertyOp27
 70
     1
102
RTVSPropertyOp28
 70
     1
102
RTVSPropertyOp29
 70
     1
102
RTVSPropertyOp30
 70
     1
102
RTVSPropertyOp31
 70
     1
102
RTVSPropertyOp32
 70
     1
102
RTVSPropertyOp33
 70
     1
102
RTVSPropertyOp34
 70
     1
102
RTVSPropertyOp35
 70
     1
102
RTVSPropertyOp36
 70
     1
102
RTVSPropertyOp37
 70
     1
102
RTVSPropertyOp38
 70
     1
102
RTVSPropertyOp39
 70
     1
102
RTVSPropertyOp40
 70
     1
102
RTVSPropertyOp41
 70
     1
102
RTVSPropertyOp42
 70
     1
102
RTVSPropertyOp43
 70
     1
102
RTVSPropertyOp44
 70
     1
102
RTVSPropertyOp45
 70
     1
102
RTVSPropertyOp46
 70
     1
102
RTVSPropertyOp47
 70
     1
102
RTVSPropertyOp48
 70
     1
102
RTVSPropertyOp49
 70
     1
102
RTVSPropertyOp50
 70
     1
102
RTVSPropertyOp51
 70
     0
102
RTVSPropertyOp52
 70
     0
102
RTVSPropertyOp53
 70
     1
102
RTVSPropertyOp54
 70
     1
102
RTVSPropertyOp55
 70
     1
102
RTVSPropertyOp56
 70
     1
102
RTVSPropertyOp57
 70
     1
102
RTVSPropertyOp58
 70
     1
102
RTVSPropertyOp59
 70
     1
102
RTVSPropertyOp60
 70
     1
102
RTVSPropertyOp61
 70
     1
102
RTVSPropertyOp62
 70
     1
  0
XRECORD
  5
A5A7
102
{ACAD_REACTORS
330
A5A6
102
}
330
A5A6
100
AcDbXrecord
280
     1
102
RTVSPost2010Prop28
280
     0
102
RTVSPost2010PropOp28
 70
     1
102
RTVSPost2010Prop29
280
     1
102
RTVSPost2010PropOp29
 70
     1
102
RTVSPost2010Prop30
280
     1
102
RTVSPost2010PropOp30
 70
     1
102
RTVSPost2010Prop31
280
     0
102
RTVSPost2010PropOp31
 70
     1
102
RTVSPost2010Prop32
280
     0
102
RTVSPost2010PropOp32
 70
     1
102
RTVSPost2010Prop33
280
     0
102
RTVSPost2010PropOp33
 70
     1
102
RTVSPost2010Prop34
280
     0
102
RTVSPost2010PropOp34
 70
     1
102
RTVSPost2010Prop35
280
     0
102
RTVSPost2010PropOp35
 70
     1
102
RTVSPost2010Prop36
280
     0
102
RTVSPost2010PropOp36
 70
     1
102
RTVSPost2010Prop37
 90
       50
102
RTVSPost2010PropOp37
 70
     0
102
RTVSPost2010Prop38
140
0.0
102
RTVSPost2010PropOp38
 70
     0
102
RTVSPost2010Prop39
140
1.0
102
RTVSPost2010PropOp39
 70
     0
102
RTVSPost2010Prop40
 90
        0
102
RTVSPost2010PropOp40
 70
     0
102
RTVSPost2010Prop41ColorIndex
 90
       18
102
RTVSPost2010Prop41ColorRGB
 90
        0
102
RTVSPost2010PropOp41
 70
     0
102
RTVSPost2010Prop42
 90
       50
102
RTVSPost2010PropOp42
 70
     0
102
RTVSPost2010Prop43
 90
        3
102
RTVSPost2010PropOp43
 70
     0
102
RTVSPost2010Prop44ColorIndex
 90
        5
102
RTVSPost2010Prop44ColorRGB
 90
      255
102
RTVSPost2010PropOp44
 70
     0
102
RTVSPost2010Prop45
280
     0
102
RTVSPost2010PropOp45
 70
     1
102
RTVSPost2010Prop46
 90
       50
102
RTVSPost2010PropOp46
 70
     0
102
RTVSPost2010Prop47
 90
       50
102
RTVSPost2010PropOp47
 70
     0
102
RTVSPost2010Prop48
 90
       50
102
RTVSPost2010PropOp48
 70
     0
102
RTVSPost2010Prop49
280
     0
102
RTVSPost2010PropOp49
 70
     1
102
RTVSPost2010Prop50
 90
       50
102
RTVSPost2010PropOp50
 70
     0
102
RTVSPost2010Prop51ColorIndex
 90
      256
102
RTVSPost2010Prop51ColorRGB
 90
-16777216
102
RTVSPost2010PropOp51
 70
     0
102
RTVSPost2010Prop52
140
1.0
102
RTVSPost2010PropOp52
 70
     0
102
RTVSPost2010Prop53
 90
        2
102
RTVSPost2010PropOp53
 70
     0
102
RTVSPost2010Prop54
  1
strokes_ogs.tif
102
RTVSPost2010PropOp54
 70
     0
102
RTVSPost2010Prop55
280
     0
102
RTVSPost2010PropOp55
 70
     1
102
RTVSPost2010Prop56
140
1.0
102
RTVSPost2010PropOp56
 70
     0
102
RTVSPost2010Prop57
140
1.0
102
RTVSPost2010PropOp57
 70
     0
102
RTVSPropertyOp0
 70
     0
102
RTVSPropertyOp1
 70
     0
102
RTVSPropertyOp2
 70
     0
102
RTVSPropertyOp3
 70
     0
102
RTVSPropertyOp4
 70
     0
102
RTVSPropertyOp5
 70
     0
102
RTVSPropertyOp6
 70
     0
102
RTVSPropertyOp7
 70
     0
102
RTVSPropertyOp8
 70
     0
102
RTVSPropertyOp9
 70
     0
102
RTVSPropertyOp10
 70
     0
102
RTVSPropertyOp11
 70
     0
102
RTVSPropertyOp12
 70
     0
102
RTVSPropertyOp13
 70
     0
102
RTVSPropertyOp14
 70
     2
102
RTVSPropertyOp15
 70
     0
102
RTVSPropertyOp16
 70
     0
102
RTVSPropertyOp17
 70
     0
102
RTVSPropertyOp18
 70
     0
102
RTVSPropertyOp19
 70
     0
102
RTVSPropertyOp20
 70
     0
102
RTVSPropertyOp21
 70
     0
102
RTVSPropertyOp22
 70
     0
102
RTVSPropertyOp23
 70
     0
102
RTVSPropertyOp24
 70
     0
102
RTVSPropertyOp25
 70
     0
102
RTVSPropertyOp26
 70
     0
102
RTVSPropertyOp27
 70
     0
102
RTVSPropertyOp28
 70
     1
102
RTVSPropertyOp29
 70
     1
102
RTVSPropertyOp30
 70
     1
102
RTVSPropertyOp31
 70
     1
102
RTVSPropertyOp32
 70
     1
102
RTVSPropertyOp33
 70
     1
102
RTVSPropertyOp34
 70
     1
102
RTVSPropertyOp35
 70
     1
102
RTVSPropertyOp36
 70
     1
102
RTVSPropertyOp37
 70
     0
102
RTVSPropertyOp38
 70
     0
102
RTVSPropertyOp39
 70
     0
102
RTVSPropertyOp40
 70
     0
102
RTVSPropertyOp41
 70
     0
102
RTVSPropertyOp42
 70
     0
102
RTVSPropertyOp43
 70
     0
102
RTVSPropertyOp44
 70
     0
102
RTVSPropertyOp45
 70
     1
102
RTVSPropertyOp46
 70
     0
102
RTVSPropertyOp47
 70
     0
102
RTVSPropertyOp48
 70
     0
102
RTVSPropertyOp49
 70
     1
102
RTVSPropertyOp50
 70
     0
102
RTVSPropertyOp51
 70
     0
102
RTVSPropertyOp52
 70
     0
102
RTVSPropertyOp53
 70
     0
102
RTVSPropertyOp54
 70
     0
102
RTVSPropertyOp55
 70
     1
102
RTVSPropertyOp56
 70
     0
102
RTVSPropertyOp57
 70
     0
102
RTVSPropertyOp58
 70
     0
102
RTVSPropertyOp59
 70
     0
102
RTVSPropertyOp60
 70
     0
102
RTVSPropertyOp61
 70
     0
102
RTVSPropertyOp62
 70
     0
  0
XRECORD
  5
A58D
102
{ACAD_REACTORS
330
A58C
102
}
330
A58C
100
AcDbXrecord
280
     1
102
RTVSPost2010Prop28
280
     0
102
RTVSPost2010PropOp28
 70
     1
102
RTVSPost2010Prop29
280
     1
102
RTVSPost2010PropOp29
 70
     1
102
RTVSPost2010Prop30
280
     1
102
RTVSPost2010PropOp30
 70
     1
102
RTVSPost2010Prop31
280
     0
102
RTVSPost2010PropOp31
 70
     1
102
RTVSPost2010Prop32
280
     0
102
RTVSPost2010PropOp32
 70
     1
102
RTVSPost2010Prop33
280
     0
102
RTVSPost2010PropOp33
 70
     1
102
RTVSPost2010Prop34
280
     0
102
RTVSPost2010PropOp34
 70
     1
102
RTVSPost2010Prop35
280
     0
102
RTVSPost2010PropOp35
 70
     1
102
RTVSPost2010Prop36
280
     0
102
RTVSPost2010PropOp36
 70
     1
102
RTVSPost2010Prop37
 90
       50
102
RTVSPost2010PropOp37
 70
     1
102
RTVSPost2010Prop38
140
0.0
102
RTVSPost2010PropOp38
 70
     1
102
RTVSPost2010Prop39
140
1.0
102
RTVSPost2010PropOp39
 70
     1
102
RTVSPost2010Prop40
 90
        0
102
RTVSPost2010PropOp40
 70
     1
102
RTVSPost2010Prop41ColorIndex
 90
       18
102
RTVSPost2010Prop41ColorRGB
 90
        0
102
RTVSPost2010PropOp41
 70
     1
102
RTVSPost2010Prop42
 90
       50
102
RTVSPost2010PropOp42
 70
     1
102
RTVSPost2010Prop43
 90
        3
102
RTVSPost2010PropOp43
 70
     1
102
RTVSPost2010Prop44ColorIndex
 90
        5
102
RTVSPost2010Prop44ColorRGB
 90
      255
102
RTVSPost2010PropOp44
 70
     1
102
RTVSPost2010Prop45
280
     0
102
RTVSPost2010PropOp45
 70
     1
102
RTVSPost2010Prop46
 90
       50
102
RTVSPost2010PropOp46
 70
     1
102
RTVSPost2010Prop47
 90
       50
102
RTVSPost2010PropOp47
 70
     1
102
RTVSPost2010Prop48
 90
       50
102
RTVSPost2010PropOp48
 70
     1
102
RTVSPost2010Prop49
280
     0
102
RTVSPost2010PropOp49
 70
     1
102
RTVSPost2010Prop50
 90
       50
102
RTVSPost2010PropOp50
 70
     1
102
RTVSPost2010Prop51ColorIndex
 90
      256
102
RTVSPost2010Prop51ColorRGB
 90
-16777216
102
RTVSPost2010PropOp51
 70
     0
102
RTVSPost2010Prop52
140
1.0
102
RTVSPost2010PropOp52
 70
     0
102
RTVSPost2010Prop53
 90
        2
102
RTVSPost2010PropOp53
 70
     1
102
RTVSPost2010Prop54
  1
strokes_ogs.tif
102
RTVSPost2010PropOp54
 70
     1
102
RTVSPost2010Prop55
280
     0
102
RTVSPost2010PropOp55
 70
     1
102
RTVSPost2010Prop56
140
1.0
102
RTVSPost2010PropOp56
 70
     1
102
RTVSPost2010Prop57
140
1.0
102
RTVSPost2010PropOp57
 70
     1
102
RTVSPropertyOp0
 70
     1
102
RTVSPropertyOp1
 70
     1
102
RTVSPropertyOp2
 70
     1
102
RTVSPropertyOp3
 70
     1
102
RTVSPropertyOp4
 70
     1
102
RTVSPropertyOp5
 70
     1
102
RTVSPropertyOp6
 70
     1
102
RTVSPropertyOp7
 70
     1
102
RTVSPropertyOp8
 70
     1
102
RTVSPropertyOp9
 70
     1
102
RTVSPropertyOp10
 70
     1
102
RTVSPropertyOp11
 70
     1
102
RTVSPropertyOp12
 70
     1
102
RTVSPropertyOp13
 70
     1
102
RTVSPropertyOp14
 70
     1
102
RTVSPropertyOp15
 70
     1
102
RTVSPropertyOp16
 70
     1
102
RTVSPropertyOp17
 70
     1
102
RTVSPropertyOp18
 70
     1
102
RTVSPropertyOp19
 70
     1
102
RTVSPropertyOp20
 70
     1
102
RTVSPropertyOp21
 70
     1
102
RTVSPropertyOp22
 70
     1
102
RTVSPropertyOp23
 70
     1
102
RTVSPropertyOp24
 70
     1
102
RTVSPropertyOp25
 70
     1
102
RTVSPropertyOp26
 70
     1
102
RTVSPropertyOp27
 70
     1
102
RTVSPropertyOp28
 70
     1
102
RTVSPropertyOp29
 70
     1
102
RTVSPropertyOp30
 70
     1
102
RTVSPropertyOp31
 70
     1
102
RTVSPropertyOp32
 70
     1
102
RTVSPropertyOp33
 70
     1
102
RTVSPropertyOp34
 70
     1
102
RTVSPropertyOp35
 70
     1
102
RTVSPropertyOp36
 70
     1
102
RTVSPropertyOp37
 70
     1
102
RTVSPropertyOp38
 70
     1
102
RTVSPropertyOp39
 70
     1
102
RTVSPropertyOp40
 70
     1
102
RTVSPropertyOp41
 70
     1
102
RTVSPropertyOp42
 70
     1
102
RTVSPropertyOp43
 70
     1
102
RTVSPropertyOp44
 70
     1
102
RTVSPropertyOp45
 70
     1
102
RTVSPropertyOp46
 70
     1
102
RTVSPropertyOp47
 70
     1
102
RTVSPropertyOp48
 70
     1
102
RTVSPropertyOp49
 70
     1
102
RTVSPropertyOp50
 70
     1
102
RTVSPropertyOp51
 70
     0
102
RTVSPropertyOp52
 70
     0
102
RTVSPropertyOp53
 70
     1
102
RTVSPropertyOp54
 70
     1
102
RTVSPropertyOp55
 70
     1
102
RTVSPropertyOp56
 70
     1
102
RTVSPropertyOp57
 70
     1
102
RTVSPropertyOp58
 70
     1
102
RTVSPropertyOp59
 70
     1
102
RTVSPropertyOp60
 70
     1
102
RTVSPropertyOp61
 70
     1
102
RTVSPropertyOp62
 70
     1
  0
XRECORD
  5
A5A3
102
{ACAD_REACTORS
330
A5A2
102
}
330
A5A2
100
AcDbXrecord
280
     1
102
RTVSPost2010Prop28
280
     0
102
RTVSPost2010PropOp28
 70
     1
102
RTVSPost2010Prop29
280
     1
102
RTVSPost2010PropOp29
 70
     1
102
RTVSPost2010Prop30
280
     1
102
RTVSPost2010PropOp30
 70
     1
102
RTVSPost2010Prop31
280
     0
102
RTVSPost2010PropOp31
 70
     1
102
RTVSPost2010Prop32
280
     0
102
RTVSPost2010PropOp32
 70
     1
102
RTVSPost2010Prop33
280
     0
102
RTVSPost2010PropOp33
 70
     1
102
RTVSPost2010Prop34
280
     0
102
RTVSPost2010PropOp34
 70
     1
102
RTVSPost2010Prop35
280
     0
102
RTVSPost2010PropOp35
 70
     1
102
RTVSPost2010Prop36
280
     0
102
RTVSPost2010PropOp36
 70
     1
102
RTVSPost2010Prop37
 90
       50
102
RTVSPost2010PropOp37
 70
     1
102
RTVSPost2010Prop38
140
0.0
102
RTVSPost2010PropOp38
 70
     1
102
RTVSPost2010Prop39
140
1.0
102
RTVSPost2010PropOp39
 70
     1
102
RTVSPost2010Prop40
 90
        0
102
RTVSPost2010PropOp40
 70
     1
102
RTVSPost2010Prop41ColorIndex
 90
       18
102
RTVSPost2010Prop41ColorRGB
 90
        0
102
RTVSPost2010PropOp41
 70
     1
102
RTVSPost2010Prop42
 90
       50
102
RTVSPost2010PropOp42
 70
     1
102
RTVSPost2010Prop43
 90
        3
102
RTVSPost2010PropOp43
 70
     1
102
RTVSPost2010Prop44ColorIndex
 90
        5
102
RTVSPost2010Prop44ColorRGB
 90
      255
102
RTVSPost2010PropOp44
 70
     1
102
RTVSPost2010Prop45
280
     0
102
RTVSPost2010PropOp45
 70
     1
102
RTVSPost2010Prop46
 90
       50
102
RTVSPost2010PropOp46
 70
     1
102
RTVSPost2010Prop47
 90
       50
102
RTVSPost2010PropOp47
 70
     1
102
RTVSPost2010Prop48
 90
       50
102
RTVSPost2010PropOp48
 70
     1
102
RTVSPost2010Prop49
280
     0
102
RTVSPost2010PropOp49
 70
     1
102
RTVSPost2010Prop50
 90
       50
102
RTVSPost2010PropOp50
 70
     1
102
RTVSPost2010Prop51ColorIndex
 90
      256
102
RTVSPost2010Prop51ColorRGB
 90
-16777216
102
RTVSPost2010PropOp51
 70
     0
102
RTVSPost2010Prop52
140
1.0
102
RTVSPost2010PropOp52
 70
     0
102
RTVSPost2010Prop53
 90
        2
102
RTVSPost2010PropOp53
 70
     1
102
RTVSPost2010Prop54
  1
strokes_ogs.tif
102
RTVSPost2010PropOp54
 70
     1
102
RTVSPost2010Prop55
280
     0
102
RTVSPost2010PropOp55
 70
     1
102
RTVSPost2010Prop56
140
1.0
102
RTVSPost2010PropOp56
 70
     1
102
RTVSPost2010Prop57
140
1.0
102
RTVSPost2010PropOp57
 70
     1
102
RTVSPropertyOp0
 70
     1
102
RTVSPropertyOp1
 70
     1
102
RTVSPropertyOp2
 70
     1
102
RTVSPropertyOp3
 70
     1
102
RTVSPropertyOp4
 70
     1
102
RTVSPropertyOp5
 70
     1
102
RTVSPropertyOp6
 70
     1
102
RTVSPropertyOp7
 70
     1
102
RTVSPropertyOp8
 70
     1
102
RTVSPropertyOp9
 70
     1
102
RTVSPropertyOp10
 70
     1
102
RTVSPropertyOp11
 70
     1
102
RTVSPropertyOp12
 70
     1
102
RTVSPropertyOp13
 70
     1
102
RTVSPropertyOp14
 70
     1
102
RTVSPropertyOp15
 70
     1
102
RTVSPropertyOp16
 70
     1
102
RTVSPropertyOp17
 70
     1
102
RTVSPropertyOp18
 70
     1
102
RTVSPropertyOp19
 70
     1
102
RTVSPropertyOp20
 70
     1
102
RTVSPropertyOp21
 70
     1
102
RTVSPropertyOp22
 70
     1
102
RTVSPropertyOp23
 70
     1
102
RTVSPropertyOp24
 70
     1
102
RTVSPropertyOp25
 70
     1
102
RTVSPropertyOp26
 70
     1
102
RTVSPropertyOp27
 70
     1
102
RTVSPropertyOp28
 70
     1
102
RTVSPropertyOp29
 70
     1
102
RTVSPropertyOp30
 70
     1
102
RTVSPropertyOp31
 70
     1
102
RTVSPropertyOp32
 70
     1
102
RTVSPropertyOp33
 70
     1
102
RTVSPropertyOp34
 70
     1
102
RTVSPropertyOp35
 70
     1
102
RTVSPropertyOp36
 70
     1
102
RTVSPropertyOp37
 70
     1
102
RTVSPropertyOp38
 70
     1
102
RTVSPropertyOp39
 70
     1
102
RTVSPropertyOp40
 70
     1
102
RTVSPropertyOp41
 70
     1
102
RTVSPropertyOp42
 70
     1
102
RTVSPropertyOp43
 70
     1
102
RTVSPropertyOp44
 70
     1
102
RTVSPropertyOp45
 70
     1
102
RTVSPropertyOp46
 70
     1
102
RTVSPropertyOp47
 70
     1
102
RTVSPropertyOp48
 70
     1
102
RTVSPropertyOp49
 70
     1
102
RTVSPropertyOp50
 70
     1
102
RTVSPropertyOp51
 70
     0
102
RTVSPropertyOp52
 70
     0
102
RTVSPropertyOp53
 70
     1
102
RTVSPropertyOp54
 70
     1
102
RTVSPropertyOp55
 70
     1
102
RTVSPropertyOp56
 70
     1
102
RTVSPropertyOp57
 70
     1
102
RTVSPropertyOp58
 70
     1
102
RTVSPropertyOp59
 70
     1
102
RTVSPropertyOp60
 70
     1
102
RTVSPropertyOp61
 70
     1
102
RTVSPropertyOp62
 70
     1
  0
XRECORD
  5
A5A1
102
{ACAD_REACTORS
330
A5A0
102
}
330
A5A0
100
AcDbXrecord
280
     1
102
RTVSPost2010Prop28
280
     0
102
RTVSPost2010PropOp28
 70
     1
102
RTVSPost2010Prop29
280
     1
102
RTVSPost2010PropOp29
 70
     1
102
RTVSPost2010Prop30
280
     1
102
RTVSPost2010PropOp30
 70
     1
102
RTVSPost2010Prop31
280
     0
102
RTVSPost2010PropOp31
 70
     1
102
RTVSPost2010Prop32
280
     0
102
RTVSPost2010PropOp32
 70
     1
102
RTVSPost2010Prop33
280
     0
102
RTVSPost2010PropOp33
 70
     1
102
RTVSPost2010Prop34
280
     0
102
RTVSPost2010PropOp34
 70
     1
102
RTVSPost2010Prop35
280
     0
102
RTVSPost2010PropOp35
 70
     1
102
RTVSPost2010Prop36
280
     0
102
RTVSPost2010PropOp36
 70
     1
102
RTVSPost2010Prop37
 90
       50
102
RTVSPost2010PropOp37
 70
     1
102
RTVSPost2010Prop38
140
0.0
102
RTVSPost2010PropOp38
 70
     1
102
RTVSPost2010Prop39
140
1.0
102
RTVSPost2010PropOp39
 70
     1
102
RTVSPost2010Prop40
 90
        0
102
RTVSPost2010PropOp40
 70
     1
102
RTVSPost2010Prop41ColorIndex
 90
       18
102
RTVSPost2010Prop41ColorRGB
 90
        0
102
RTVSPost2010PropOp41
 70
     1
102
RTVSPost2010Prop42
 90
       50
102
RTVSPost2010PropOp42
 70
     1
102
RTVSPost2010Prop43
 90
        3
102
RTVSPost2010PropOp43
 70
     1
102
RTVSPost2010Prop44ColorIndex
 90
        5
102
RTVSPost2010Prop44ColorRGB
 90
      255
102
RTVSPost2010PropOp44
 70
     1
102
RTVSPost2010Prop45
280
     0
102
RTVSPost2010PropOp45
 70
     1
102
RTVSPost2010Prop46
 90
       50
102
RTVSPost2010PropOp46
 70
     1
102
RTVSPost2010Prop47
 90
       50
102
RTVSPost2010PropOp47
 70
     1
102
RTVSPost2010Prop48
 90
       50
102
RTVSPost2010PropOp48
 70
     1
102
RTVSPost2010Prop49
280
     0
102
RTVSPost2010PropOp49
 70
     1
102
RTVSPost2010Prop50
 90
       50
102
RTVSPost2010PropOp50
 70
     1
102
RTVSPost2010Prop51ColorIndex
 90
      256
102
RTVSPost2010Prop51ColorRGB
 90
-16777216
102
RTVSPost2010PropOp51
 70
     0
102
RTVSPost2010Prop52
140
1.0
102
RTVSPost2010PropOp52
 70
     0
102
RTVSPost2010Prop53
 90
        2
102
RTVSPost2010PropOp53
 70
     1
102
RTVSPost2010Prop54
  1
strokes_ogs.tif
102
RTVSPost2010PropOp54
 70
     1
102
RTVSPost2010Prop55
280
     0
102
RTVSPost2010PropOp55
 70
     1
102
RTVSPost2010Prop56
140
1.0
102
RTVSPost2010PropOp56
 70
     1
102
RTVSPost2010Prop57
140
1.0
102
RTVSPost2010PropOp57
 70
     1
102
RTVSPropertyOp0
 70
     1
102
RTVSPropertyOp1
 70
     1
102
RTVSPropertyOp2
 70
     1
102
RTVSPropertyOp3
 70
     1
102
RTVSPropertyOp4
 70
     1
102
RTVSPropertyOp5
 70
     1
102
RTVSPropertyOp6
 70
     1
102
RTVSPropertyOp7
 70
     1
102
RTVSPropertyOp8
 70
     1
102
RTVSPropertyOp9
 70
     1
102
RTVSPropertyOp10
 70
     1
102
RTVSPropertyOp11
 70
     1
102
RTVSPropertyOp12
 70
     1
102
RTVSPropertyOp13
 70
     1
102
RTVSPropertyOp14
 70
     1
102
RTVSPropertyOp15
 70
     1
102
RTVSPropertyOp16
 70
     1
102
RTVSPropertyOp17
 70
     1
102
RTVSPropertyOp18
 70
     1
102
RTVSPropertyOp19
 70
     1
102
RTVSPropertyOp20
 70
     1
102
RTVSPropertyOp21
 70
     1
102
RTVSPropertyOp22
 70
     1
102
RTVSPropertyOp23
 70
     1
102
RTVSPropertyOp24
 70
     1
102
RTVSPropertyOp25
 70
     1
102
RTVSPropertyOp26
 70
     1
102
RTVSPropertyOp27
 70
     1
102
RTVSPropertyOp28
 70
     1
102
RTVSPropertyOp29
 70
     1
102
RTVSPropertyOp30
 70
     1
102
RTVSPropertyOp31
 70
     1
102
RTVSPropertyOp32
 70
     1
102
RTVSPropertyOp33
 70
     1
102
RTVSPropertyOp34
 70
     1
102
RTVSPropertyOp35
 70
     1
102
RTVSPropertyOp36
 70
     1
102
RTVSPropertyOp37
 70
     1
102
RTVSPropertyOp38
 70
     1
102
RTVSPropertyOp39
 70
     1
102
RTVSPropertyOp40
 70
     1
102
RTVSPropertyOp41
 70
     1
102
RTVSPropertyOp42
 70
     1
102
RTVSPropertyOp43
 70
     1
102
RTVSPropertyOp44
 70
     1
102
RTVSPropertyOp45
 70
     1
102
RTVSPropertyOp46
 70
     1
102
RTVSPropertyOp47
 70
     1
102
RTVSPropertyOp48
 70
     1
102
RTVSPropertyOp49
 70
     1
102
RTVSPropertyOp50
 70
     1
102
RTVSPropertyOp51
 70
     0
102
RTVSPropertyOp52
 70
     0
102
RTVSPropertyOp53
 70
     1
102
RTVSPropertyOp54
 70
     1
102
RTVSPropertyOp55
 70
     1
102
RTVSPropertyOp56
 70
     1
102
RTVSPropertyOp57
 70
     1
102
RTVSPropertyOp58
 70
     1
102
RTVSPropertyOp59
 70
     1
102
RTVSPropertyOp60
 70
     1
102
RTVSPropertyOp61
 70
     1
102
RTVSPropertyOp62
 70
     1
  0
XRECORD
  5
A59B
102
{ACAD_REACTORS
330
A59A
102
}
330
A59A
100
AcDbXrecord
280
     1
102
RTVSPost2010Prop28
280
     0
102
RTVSPost2010PropOp28
 70
     1
102
RTVSPost2010Prop29
280
     1
102
RTVSPost2010PropOp29
 70
     1
102
RTVSPost2010Prop30
280
     1
102
RTVSPost2010PropOp30
 70
     1
102
RTVSPost2010Prop31
280
     0
102
RTVSPost2010PropOp31
 70
     1
102
RTVSPost2010Prop32
280
     0
102
RTVSPost2010PropOp32
 70
     1
102
RTVSPost2010Prop33
280
     0
102
RTVSPost2010PropOp33
 70
     1
102
RTVSPost2010Prop34
280
     0
102
RTVSPost2010PropOp34
 70
     1
102
RTVSPost2010Prop35
280
     0
102
RTVSPost2010PropOp35
 70
     1
102
RTVSPost2010Prop36
280
     0
102
RTVSPost2010PropOp36
 70
     1
102
RTVSPost2010Prop37
 90
       50
102
RTVSPost2010PropOp37
 70
     1
102
RTVSPost2010Prop38
140
0.0
102
RTVSPost2010PropOp38
 70
     1
102
RTVSPost2010Prop39
140
1.0
102
RTVSPost2010PropOp39
 70
     1
102
RTVSPost2010Prop40
 90
        0
102
RTVSPost2010PropOp40
 70
     1
102
RTVSPost2010Prop41ColorIndex
 90
       18
102
RTVSPost2010Prop41ColorRGB
 90
        0
102
RTVSPost2010PropOp41
 70
     1
102
RTVSPost2010Prop42
 90
       50
102
RTVSPost2010PropOp42
 70
     1
102
RTVSPost2010Prop43
 90
        3
102
RTVSPost2010PropOp43
 70
     1
102
RTVSPost2010Prop44ColorIndex
 90
        5
102
RTVSPost2010Prop44ColorRGB
 90
      255
102
RTVSPost2010PropOp44
 70
     1
102
RTVSPost2010Prop45
280
     0
102
RTVSPost2010PropOp45
 70
     1
102
RTVSPost2010Prop46
 90
       50
102
RTVSPost2010PropOp46
 70
     1
102
RTVSPost2010Prop47
 90
       50
102
RTVSPost2010PropOp47
 70
     1
102
RTVSPost2010Prop48
 90
       50
102
RTVSPost2010PropOp48
 70
     1
102
RTVSPost2010Prop49
280
     0
102
RTVSPost2010PropOp49
 70
     1
102
RTVSPost2010Prop50
 90
       50
102
RTVSPost2010PropOp50
 70
     1
102
RTVSPost2010Prop51ColorIndex
 90
      256
102
RTVSPost2010Prop51ColorRGB
 90
-16777216
102
RTVSPost2010PropOp51
 70
     0
102
RTVSPost2010Prop52
140
1.0
102
RTVSPost2010PropOp52
 70
     0
102
RTVSPost2010Prop53
 90
        2
102
RTVSPost2010PropOp53
 70
     1
102
RTVSPost2010Prop54
  1
strokes_ogs.tif
102
RTVSPost2010PropOp54
 70
     1
102
RTVSPost2010Prop55
280
     0
102
RTVSPost2010PropOp55
 70
     1
102
RTVSPost2010Prop56
140
1.0
102
RTVSPost2010PropOp56
 70
     1
102
RTVSPost2010Prop57
140
1.0
102
RTVSPost2010PropOp57
 70
     1
102
RTVSPropertyOp0
 70
     1
102
RTVSPropertyOp1
 70
     1
102
RTVSPropertyOp2
 70
     1
102
RTVSPropertyOp3
 70
     1
102
RTVSPropertyOp4
 70
     1
102
RTVSPropertyOp5
 70
     1
102
RTVSPropertyOp6
 70
     1
102
RTVSPropertyOp7
 70
     1
102
RTVSPropertyOp8
 70
     1
102
RTVSPropertyOp9
 70
     1
102
RTVSPropertyOp10
 70
     1
102
RTVSPropertyOp11
 70
     1
102
RTVSPropertyOp12
 70
     1
102
RTVSPropertyOp13
 70
     1
102
RTVSPropertyOp14
 70
     1
102
RTVSPropertyOp15
 70
     1
102
RTVSPropertyOp16
 70
     1
102
RTVSPropertyOp17
 70
     1
102
RTVSPropertyOp18
 70
     1
102
RTVSPropertyOp19
 70
     1
102
RTVSPropertyOp20
 70
     1
102
RTVSPropertyOp21
 70
     1
102
RTVSPropertyOp22
 70
     1
102
RTVSPropertyOp23
 70
     1
102
RTVSPropertyOp24
 70
     1
102
RTVSPropertyOp25
 70
     1
102
RTVSPropertyOp26
 70
     1
102
RTVSPropertyOp27
 70
     1
102
RTVSPropertyOp28
 70
     1
102
RTVSPropertyOp29
 70
     1
102
RTVSPropertyOp30
 70
     1
102
RTVSPropertyOp31
 70
     1
102
RTVSPropertyOp32
 70
     1
102
RTVSPropertyOp33
 70
     1
102
RTVSPropertyOp34
 70
     1
102
RTVSPropertyOp35
 70
     1
102
RTVSPropertyOp36
 70
     1
102
RTVSPropertyOp37
 70
     1
102
RTVSPropertyOp38
 70
     1
102
RTVSPropertyOp39
 70
     1
102
RTVSPropertyOp40
 70
     1
102
RTVSPropertyOp41
 70
     1
102
RTVSPropertyOp42
 70
     1
102
RTVSPropertyOp43
 70
     1
102
RTVSPropertyOp44
 70
     1
102
RTVSPropertyOp45
 70
     1
102
RTVSPropertyOp46
 70
     1
102
RTVSPropertyOp47
 70
     1
102
RTVSPropertyOp48
 70
     1
102
RTVSPropertyOp49
 70
     1
102
RTVSPropertyOp50
 70
     1
102
RTVSPropertyOp51
 70
     0
102
RTVSPropertyOp52
 70
     0
102
RTVSPropertyOp53
 70
     1
102
RTVSPropertyOp54
 70
     1
102
RTVSPropertyOp55
 70
     1
102
RTVSPropertyOp56
 70
     1
102
RTVSPropertyOp57
 70
     1
102
RTVSPropertyOp58
 70
     1
102
RTVSPropertyOp59
 70
     1
102
RTVSPropertyOp60
 70
     1
102
RTVSPropertyOp61
 70
     1
102
RTVSPropertyOp62
 70
     1
  0
XRECORD
  5
A59D
102
{ACAD_REACTORS
330
A59C
102
}
330
A59C
100
AcDbXrecord
280
     1
102
RTVSPost2010Prop28
280
     0
102
RTVSPost2010PropOp28
 70
     1
102
RTVSPost2010Prop29
280
     1
102
RTVSPost2010PropOp29
 70
     1
102
RTVSPost2010Prop30
280
     1
102
RTVSPost2010PropOp30
 70
     1
102
RTVSPost2010Prop31
280
     0
102
RTVSPost2010PropOp31
 70
     1
102
RTVSPost2010Prop32
280
     0
102
RTVSPost2010PropOp32
 70
     1
102
RTVSPost2010Prop33
280
     0
102
RTVSPost2010PropOp33
 70
     1
102
RTVSPost2010Prop34
280
     0
102
RTVSPost2010PropOp34
 70
     1
102
RTVSPost2010Prop35
280
     0
102
RTVSPost2010PropOp35
 70
     1
102
RTVSPost2010Prop36
280
     0
102
RTVSPost2010PropOp36
 70
     1
102
RTVSPost2010Prop37
 90
       50
102
RTVSPost2010PropOp37
 70
     1
102
RTVSPost2010Prop38
140
0.0
102
RTVSPost2010PropOp38
 70
     1
102
RTVSPost2010Prop39
140
1.0
102
RTVSPost2010PropOp39
 70
     1
102
RTVSPost2010Prop40
 90
        0
102
RTVSPost2010PropOp40
 70
     1
102
RTVSPost2010Prop41ColorIndex
 90
       18
102
RTVSPost2010Prop41ColorRGB
 90
        0
102
RTVSPost2010PropOp41
 70
     1
102
RTVSPost2010Prop42
 90
       50
102
RTVSPost2010PropOp42
 70
     1
102
RTVSPost2010Prop43
 90
        3
102
RTVSPost2010PropOp43
 70
     1
102
RTVSPost2010Prop44ColorIndex
 90
        5
102
RTVSPost2010Prop44ColorRGB
 90
      255
102
RTVSPost2010PropOp44
 70
     1
102
RTVSPost2010Prop45
280
     0
102
RTVSPost2010PropOp45
 70
     1
102
RTVSPost2010Prop46
 90
       50
102
RTVSPost2010PropOp46
 70
     1
102
RTVSPost2010Prop47
 90
       50
102
RTVSPost2010PropOp47
 70
     1
102
RTVSPost2010Prop48
 90
       50
102
RTVSPost2010PropOp48
 70
     1
102
RTVSPost2010Prop49
280
     0
102
RTVSPost2010PropOp49
 70
     1
102
RTVSPost2010Prop50
 90
       50
102
RTVSPost2010PropOp50
 70
     1
102
RTVSPost2010Prop51ColorIndex
 90
      256
102
RTVSPost2010Prop51ColorRGB
 90
-16777216
102
RTVSPost2010PropOp51
 70
     0
102
RTVSPost2010Prop52
140
1.0
102
RTVSPost2010PropOp52
 70
     0
102
RTVSPost2010Prop53
 90
        2
102
RTVSPost2010PropOp53
 70
     1
102
RTVSPost2010Prop54
  1
strokes_ogs.tif
102
RTVSPost2010PropOp54
 70
     1
102
RTVSPost2010Prop55
280
     0
102
RTVSPost2010PropOp55
 70
     1
102
RTVSPost2010Prop56
140
1.0
102
RTVSPost2010PropOp56
 70
     1
102
RTVSPost2010Prop57
140
1.0
102
RTVSPost2010PropOp57
 70
     1
102
RTVSPropertyOp0
 70
     1
102
RTVSPropertyOp1
 70
     1
102
RTVSPropertyOp2
 70
     1
102
RTVSPropertyOp3
 70
     1
102
RTVSPropertyOp4
 70
     1
102
RTVSPropertyOp5
 70
     1
102
RTVSPropertyOp6
 70
     1
102
RTVSPropertyOp7
 70
     1
102
RTVSPropertyOp8
 70
     1
102
RTVSPropertyOp9
 70
     1
102
RTVSPropertyOp10
 70
     1
102
RTVSPropertyOp11
 70
     1
102
RTVSPropertyOp12
 70
     1
102
RTVSPropertyOp13
 70
     1
102
RTVSPropertyOp14
 70
     1
102
RTVSPropertyOp15
 70
     1
102
RTVSPropertyOp16
 70
     1
102
RTVSPropertyOp17
 70
     1
102
RTVSPropertyOp18
 70
     1
102
RTVSPropertyOp19
 70
     1
102
RTVSPropertyOp20
 70
     1
102
RTVSPropertyOp21
 70
     1
102
RTVSPropertyOp22
 70
     1
102
RTVSPropertyOp23
 70
     1
102
RTVSPropertyOp24
 70
     1
102
RTVSPropertyOp25
 70
     1
102
RTVSPropertyOp26
 70
     1
102
RTVSPropertyOp27
 70
     1
102
RTVSPropertyOp28
 70
     1
102
RTVSPropertyOp29
 70
     1
102
RTVSPropertyOp30
 70
     1
102
RTVSPropertyOp31
 70
     1
102
RTVSPropertyOp32
 70
     1
102
RTVSPropertyOp33
 70
     1
102
RTVSPropertyOp34
 70
     1
102
RTVSPropertyOp35
 70
     1
102
RTVSPropertyOp36
 70
     1
102
RTVSPropertyOp37
 70
     1
102
RTVSPropertyOp38
 70
     1
102
RTVSPropertyOp39
 70
     1
102
RTVSPropertyOp40
 70
     1
102
RTVSPropertyOp41
 70
     1
102
RTVSPropertyOp42
 70
     1
102
RTVSPropertyOp43
 70
     1
102
RTVSPropertyOp44
 70
     1
102
RTVSPropertyOp45
 70
     1
102
RTVSPropertyOp46
 70
     1
102
RTVSPropertyOp47
 70
     1
102
RTVSPropertyOp48
 70
     1
102
RTVSPropertyOp49
 70
     1
102
RTVSPropertyOp50
 70
     1
102
RTVSPropertyOp51
 70
     0
102
RTVSPropertyOp52
 70
     0
102
RTVSPropertyOp53
 70
     1
102
RTVSPropertyOp54
 70
     1
102
RTVSPropertyOp55
 70
     1
102
RTVSPropertyOp56
 70
     1
102
RTVSPropertyOp57
 70
     1
102
RTVSPropertyOp58
 70
     1
102
RTVSPropertyOp59
 70
     1
102
RTVSPropertyOp60
 70
     1
102
RTVSPropertyOp61
 70
     1
102
RTVSPropertyOp62
 70
     1
  0
XRECORD
  5
A593
102
{ACAD_REACTORS
330
A592
102
}
330
A592
100
AcDbXrecord
280
     1
102
RTVSPost2010Prop28
280
     0
102
RTVSPost2010PropOp28
 70
     1
102
RTVSPost2010Prop29
280
     1
102
RTVSPost2010PropOp29
 70
     1
102
RTVSPost2010Prop30
280
     1
102
RTVSPost2010PropOp30
 70
     1
102
RTVSPost2010Prop31
280
     0
102
RTVSPost2010PropOp31
 70
     1
102
RTVSPost2010Prop32
280
     0
102
RTVSPost2010PropOp32
 70
     1
102
RTVSPost2010Prop33
280
     0
102
RTVSPost2010PropOp33
 70
     1
102
RTVSPost2010Prop34
280
     0
102
RTVSPost2010PropOp34
 70
     1
102
RTVSPost2010Prop35
280
     0
102
RTVSPost2010PropOp35
 70
     1
102
RTVSPost2010Prop36
280
     0
102
RTVSPost2010PropOp36
 70
     1
102
RTVSPost2010Prop37
 90
       50
102
RTVSPost2010PropOp37
 70
     1
102
RTVSPost2010Prop38
140
0.0
102
RTVSPost2010PropOp38
 70
     1
102
RTVSPost2010Prop39
140
1.0
102
RTVSPost2010PropOp39
 70
     1
102
RTVSPost2010Prop40
 90
        0
102
RTVSPost2010PropOp40
 70
     1
102
RTVSPost2010Prop41ColorIndex
 90
       18
102
RTVSPost2010Prop41ColorRGB
 90
        0
102
RTVSPost2010PropOp41
 70
     1
102
RTVSPost2010Prop42
 90
       50
102
RTVSPost2010PropOp42
 70
     1
102
RTVSPost2010Prop43
 90
        3
102
RTVSPost2010PropOp43
 70
     1
102
RTVSPost2010Prop44ColorIndex
 90
        5
102
RTVSPost2010Prop44ColorRGB
 90
      255
102
RTVSPost2010PropOp44
 70
     1
102
RTVSPost2010Prop45
280
     0
102
RTVSPost2010PropOp45
 70
     1
102
RTVSPost2010Prop46
 90
       50
102
RTVSPost2010PropOp46
 70
     1
102
RTVSPost2010Prop47
 90
       50
102
RTVSPost2010PropOp47
 70
     1
102
RTVSPost2010Prop48
 90
       50
102
RTVSPost2010PropOp48
 70
     1
102
RTVSPost2010Prop49
280
     0
102
RTVSPost2010PropOp49
 70
     1
102
RTVSPost2010Prop50
 90
       50
102
RTVSPost2010PropOp50
 70
     1
102
RTVSPost2010Prop51ColorIndex
 90
      256
102
RTVSPost2010Prop51ColorRGB
 90
-16777216
102
RTVSPost2010PropOp51
 70
     0
102
RTVSPost2010Prop52
140
1.0
102
RTVSPost2010PropOp52
 70
     0
102
RTVSPost2010Prop53
 90
        2
102
RTVSPost2010PropOp53
 70
     1
102
RTVSPost2010Prop54
  1
strokes_ogs.tif
102
RTVSPost2010PropOp54
 70
     1
102
RTVSPost2010Prop55
280
     0
102
RTVSPost2010PropOp55
 70
     1
102
RTVSPost2010Prop56
140
1.0
102
RTVSPost2010PropOp56
 70
     1
102
RTVSPost2010Prop57
140
1.0
102
RTVSPost2010PropOp57
 70
     1
102
RTVSPropertyOp0
 70
     1
102
RTVSPropertyOp1
 70
     1
102
RTVSPropertyOp2
 70
     1
102
RTVSPropertyOp3
 70
     1
102
RTVSPropertyOp4
 70
     1
102
RTVSPropertyOp5
 70
     1
102
RTVSPropertyOp6
 70
     1
102
RTVSPropertyOp7
 70
     1
102
RTVSPropertyOp8
 70
     1
102
RTVSPropertyOp9
 70
     1
102
RTVSPropertyOp10
 70
     1
102
RTVSPropertyOp11
 70
     1
102
RTVSPropertyOp12
 70
     1
102
RTVSPropertyOp13
 70
     1
102
RTVSPropertyOp14
 70
     1
102
RTVSPropertyOp15
 70
     1
102
RTVSPropertyOp16
 70
     1
102
RTVSPropertyOp17
 70
     1
102
RTVSPropertyOp18
 70
     1
102
RTVSPropertyOp19
 70
     1
102
RTVSPropertyOp20
 70
     1
102
RTVSPropertyOp21
 70
     1
102
RTVSPropertyOp22
 70
     1
102
RTVSPropertyOp23
 70
     1
102
RTVSPropertyOp24
 70
     1
102
RTVSPropertyOp25
 70
     1
102
RTVSPropertyOp26
 70
     1
102
RTVSPropertyOp27
 70
     1
102
RTVSPropertyOp28
 70
     1
102
RTVSPropertyOp29
 70
     1
102
RTVSPropertyOp30
 70
     1
102
RTVSPropertyOp31
 70
     1
102
RTVSPropertyOp32
 70
     1
102
RTVSPropertyOp33
 70
     1
102
RTVSPropertyOp34
 70
     1
102
RTVSPropertyOp35
 70
     1
102
RTVSPropertyOp36
 70
     1
102
RTVSPropertyOp37
 70
     1
102
RTVSPropertyOp38
 70
     1
102
RTVSPropertyOp39
 70
     1
102
RTVSPropertyOp40
 70
     1
102
RTVSPropertyOp41
 70
     1
102
RTVSPropertyOp42
 70
     1
102
RTVSPropertyOp43
 70
     1
102
RTVSPropertyOp44
 70
     1
102
RTVSPropertyOp45
 70
     1
102
RTVSPropertyOp46
 70
     1
102
RTVSPropertyOp47
 70
     1
102
RTVSPropertyOp48
 70
     1
102
RTVSPropertyOp49
 70
     1
102
RTVSPropertyOp50
 70
     1
102
RTVSPropertyOp51
 70
     0
102
RTVSPropertyOp52
 70
     0
102
RTVSPropertyOp53
 70
     1
102
RTVSPropertyOp54
 70
     1
102
RTVSPropertyOp55
 70
     1
102
RTVSPropertyOp56
 70
     1
102
RTVSPropertyOp57
 70
     1
102
RTVSPropertyOp58
 70
     1
102
RTVSPropertyOp59
 70
     1
102
RTVSPropertyOp60
 70
     1
102
RTVSPropertyOp61
 70
     1
102
RTVSPropertyOp62
 70
     1
  0
XRECORD
  5
A587
102
{ACAD_REACTORS
330
A586
102
}
330
A586
100
AcDbXrecord
280
     1
102
RTVSPost2010Prop28
280
     0
102
RTVSPost2010PropOp28
 70
     1
102
RTVSPost2010Prop29
280
     1
102
RTVSPost2010PropOp29
 70
     1
102
RTVSPost2010Prop30
280
     1
102
RTVSPost2010PropOp30
 70
     1
102
RTVSPost2010Prop31
280
     0
102
RTVSPost2010PropOp31
 70
     1
102
RTVSPost2010Prop32
280
     0
102
RTVSPost2010PropOp32
 70
     1
102
RTVSPost2010Prop33
280
     0
102
RTVSPost2010PropOp33
 70
     1
102
RTVSPost2010Prop34
280
     0
102
RTVSPost2010PropOp34
 70
     1
102
RTVSPost2010Prop35
280
     0
102
RTVSPost2010PropOp35
 70
     1
102
RTVSPost2010Prop36
280
     0
102
RTVSPost2010PropOp36
 70
     1
102
RTVSPost2010Prop37
 90
       50
102
RTVSPost2010PropOp37
 70
     1
102
RTVSPost2010Prop38
140
0.0
102
RTVSPost2010PropOp38
 70
     1
102
RTVSPost2010Prop39
140
1.0
102
RTVSPost2010PropOp39
 70
     1
102
RTVSPost2010Prop40
 90
        0
102
RTVSPost2010PropOp40
 70
     1
102
RTVSPost2010Prop41ColorIndex
 90
       18
102
RTVSPost2010Prop41ColorRGB
 90
        0
102
RTVSPost2010PropOp41
 70
     1
102
RTVSPost2010Prop42
 90
       50
102
RTVSPost2010PropOp42
 70
     1
102
RTVSPost2010Prop43
 90
        3
102
RTVSPost2010PropOp43
 70
     1
102
RTVSPost2010Prop44ColorIndex
 90
        5
102
RTVSPost2010Prop44ColorRGB
 90
      255
102
RTVSPost2010PropOp44
 70
     1
102
RTVSPost2010Prop45
280
     0
102
RTVSPost2010PropOp45
 70
     1
102
RTVSPost2010Prop46
 90
       50
102
RTVSPost2010PropOp46
 70
     1
102
RTVSPost2010Prop47
 90
       50
102
RTVSPost2010PropOp47
 70
     1
102
RTVSPost2010Prop48
 90
       50
102
RTVSPost2010PropOp48
 70
     1
102
RTVSPost2010Prop49
280
     0
102
RTVSPost2010PropOp49
 70
     1
102
RTVSPost2010Prop50
 90
       50
102
RTVSPost2010PropOp50
 70
     1
102
RTVSPost2010Prop51ColorIndex
 90
      256
102
RTVSPost2010Prop51ColorRGB
 90
-16777216
102
RTVSPost2010PropOp51
 70
     0
102
RTVSPost2010Prop52
140
1.0
102
RTVSPost2010PropOp52
 70
     0
102
RTVSPost2010Prop53
 90
        2
102
RTVSPost2010PropOp53
 70
     1
102
RTVSPost2010Prop54
  1
strokes_ogs.tif
102
RTVSPost2010PropOp54
 70
     1
102
RTVSPost2010Prop55
280
     0
102
RTVSPost2010PropOp55
 70
     1
102
RTVSPost2010Prop56
140
1.0
102
RTVSPost2010PropOp56
 70
     1
102
RTVSPost2010Prop57
140
1.0
102
RTVSPost2010PropOp57
 70
     1
102
RTVSPropertyOp0
 70
     1
102
RTVSPropertyOp1
 70
     1
102
RTVSPropertyOp2
 70
     1
102
RTVSPropertyOp3
 70
     1
102
RTVSPropertyOp4
 70
     1
102
RTVSPropertyOp5
 70
     1
102
RTVSPropertyOp6
 70
     1
102
RTVSPropertyOp7
 70
     1
102
RTVSPropertyOp8
 70
     1
102
RTVSPropertyOp9
 70
     1
102
RTVSPropertyOp10
 70
     1
102
RTVSPropertyOp11
 70
     1
102
RTVSPropertyOp12
 70
     1
102
RTVSPropertyOp13
 70
     1
102
RTVSPropertyOp14
 70
     1
102
RTVSPropertyOp15
 70
     1
102
RTVSPropertyOp16
 70
     1
102
RTVSPropertyOp17
 70
     1
102
RTVSPropertyOp18
 70
     1
102
RTVSPropertyOp19
 70
     1
102
RTVSPropertyOp20
 70
     1
102
RTVSPropertyOp21
 70
     1
102
RTVSPropertyOp22
 70
     1
102
RTVSPropertyOp23
 70
     1
102
RTVSPropertyOp24
 70
     1
102
RTVSPropertyOp25
 70
     1
102
RTVSPropertyOp26
 70
     1
102
RTVSPropertyOp27
 70
     1
102
RTVSPropertyOp28
 70
     1
102
RTVSPropertyOp29
 70
     1
102
RTVSPropertyOp30
 70
     1
102
RTVSPropertyOp31
 70
     1
102
RTVSPropertyOp32
 70
     1
102
RTVSPropertyOp33
 70
     1
102
RTVSPropertyOp34
 70
     1
102
RTVSPropertyOp35
 70
     1
102
RTVSPropertyOp36
 70
     1
102
RTVSPropertyOp37
 70
     1
102
RTVSPropertyOp38
 70
     1
102
RTVSPropertyOp39
 70
     1
102
RTVSPropertyOp40
 70
     1
102
RTVSPropertyOp41
 70
     1
102
RTVSPropertyOp42
 70
     1
102
RTVSPropertyOp43
 70
     1
102
RTVSPropertyOp44
 70
     1
102
RTVSPropertyOp45
 70
     1
102
RTVSPropertyOp46
 70
     1
102
RTVSPropertyOp47
 70
     1
102
RTVSPropertyOp48
 70
     1
102
RTVSPropertyOp49
 70
     1
102
RTVSPropertyOp50
 70
     1
102
RTVSPropertyOp51
 70
     0
102
RTVSPropertyOp52
 70
     0
102
RTVSPropertyOp53
 70
     1
102
RTVSPropertyOp54
 70
     1
102
RTVSPropertyOp55
 70
     1
102
RTVSPropertyOp56
 70
     1
102
RTVSPropertyOp57
 70
     1
102
RTVSPropertyOp58
 70
     1
102
RTVSPropertyOp59
 70
     1
102
RTVSPropertyOp60
 70
     1
102
RTVSPropertyOp61
 70
     1
102
RTVSPropertyOp62
 70
     1
  0
XRECORD
  5
A59F
102
{ACAD_REACTORS
330
A59E
102
}
330
A59E
100
AcDbXrecord
280
     1
102
RTVSPost2010Prop28
280
     0
102
RTVSPost2010PropOp28
 70
     1
102
RTVSPost2010Prop29
280
     1
102
RTVSPost2010PropOp29
 70
     1
102
RTVSPost2010Prop30
280
     1
102
RTVSPost2010PropOp30
 70
     1
102
RTVSPost2010Prop31
280
     0
102
RTVSPost2010PropOp31
 70
     1
102
RTVSPost2010Prop32
280
     0
102
RTVSPost2010PropOp32
 70
     1
102
RTVSPost2010Prop33
280
     0
102
RTVSPost2010PropOp33
 70
     1
102
RTVSPost2010Prop34
280
     0
102
RTVSPost2010PropOp34
 70
     1
102
RTVSPost2010Prop35
280
     0
102
RTVSPost2010PropOp35
 70
     1
102
RTVSPost2010Prop36
280
     0
102
RTVSPost2010PropOp36
 70
     1
102
RTVSPost2010Prop37
 90
       50
102
RTVSPost2010PropOp37
 70
     1
102
RTVSPost2010Prop38
140
0.0
102
RTVSPost2010PropOp38
 70
     1
102
RTVSPost2010Prop39
140
1.0
102
RTVSPost2010PropOp39
 70
     1
102
RTVSPost2010Prop40
 90
        0
102
RTVSPost2010PropOp40
 70
     1
102
RTVSPost2010Prop41ColorIndex
 90
       18
102
RTVSPost2010Prop41ColorRGB
 90
        0
102
RTVSPost2010PropOp41
 70
     1
102
RTVSPost2010Prop42
 90
       50
102
RTVSPost2010PropOp42
 70
     1
102
RTVSPost2010Prop43
 90
        3
102
RTVSPost2010PropOp43
 70
     1
102
RTVSPost2010Prop44ColorIndex
 90
        5
102
RTVSPost2010Prop44ColorRGB
 90
      255
102
RTVSPost2010PropOp44
 70
     1
102
RTVSPost2010Prop45
280
     0
102
RTVSPost2010PropOp45
 70
     1
102
RTVSPost2010Prop46
 90
       50
102
RTVSPost2010PropOp46
 70
     1
102
RTVSPost2010Prop47
 90
       50
102
RTVSPost2010PropOp47
 70
     1
102
RTVSPost2010Prop48
 90
       50
102
RTVSPost2010PropOp48
 70
     1
102
RTVSPost2010Prop49
280
     0
102
RTVSPost2010PropOp49
 70
     1
102
RTVSPost2010Prop50
 90
       50
102
RTVSPost2010PropOp50
 70
     1
102
RTVSPost2010Prop51ColorIndex
 90
      256
102
RTVSPost2010Prop51ColorRGB
 90
-16777216
102
RTVSPost2010PropOp51
 70
     0
102
RTVSPost2010Prop52
140
1.0
102
RTVSPost2010PropOp52
 70
     0
102
RTVSPost2010Prop53
 90
        2
102
RTVSPost2010PropOp53
 70
     1
102
RTVSPost2010Prop54
  1
strokes_ogs.tif
102
RTVSPost2010PropOp54
 70
     1
102
RTVSPost2010Prop55
280
     0
102
RTVSPost2010PropOp55
 70
     1
102
RTVSPost2010Prop56
140
1.0
102
RTVSPost2010PropOp56
 70
     1
102
RTVSPost2010Prop57
140
1.0
102
RTVSPost2010PropOp57
 70
     1
102
RTVSPropertyOp0
 70
     1
102
RTVSPropertyOp1
 70
     1
102
RTVSPropertyOp2
 70
     1
102
RTVSPropertyOp3
 70
     1
102
RTVSPropertyOp4
 70
     1
102
RTVSPropertyOp5
 70
     1
102
RTVSPropertyOp6
 70
     1
102
RTVSPropertyOp7
 70
     1
102
RTVSPropertyOp8
 70
     1
102
RTVSPropertyOp9
 70
     1
102
RTVSPropertyOp10
 70
     1
102
RTVSPropertyOp11
 70
     1
102
RTVSPropertyOp12
 70
     1
102
RTVSPropertyOp13
 70
     1
102
RTVSPropertyOp14
 70
     1
102
RTVSPropertyOp15
 70
     1
102
RTVSPropertyOp16
 70
     1
102
RTVSPropertyOp17
 70
     1
102
RTVSPropertyOp18
 70
     1
102
RTVSPropertyOp19
 70
     1
102
RTVSPropertyOp20
 70
     1
102
RTVSPropertyOp21
 70
     1
102
RTVSPropertyOp22
 70
     1
102
RTVSPropertyOp23
 70
     1
102
RTVSPropertyOp24
 70
     1
102
RTVSPropertyOp25
 70
     1
102
RTVSPropertyOp26
 70
     1
102
RTVSPropertyOp27
 70
     1
102
RTVSPropertyOp28
 70
     1
102
RTVSPropertyOp29
 70
     1
102
RTVSPropertyOp30
 70
     1
102
RTVSPropertyOp31
 70
     1
102
RTVSPropertyOp32
 70
     1
102
RTVSPropertyOp33
 70
     1
102
RTVSPropertyOp34
 70
     1
102
RTVSPropertyOp35
 70
     1
102
RTVSPropertyOp36
 70
     1
102
RTVSPropertyOp37
 70
     1
102
RTVSPropertyOp38
 70
     1
102
RTVSPropertyOp39
 70
     1
102
RTVSPropertyOp40
 70
     1
102
RTVSPropertyOp41
 70
     1
102
RTVSPropertyOp42
 70
     1
102
RTVSPropertyOp43
 70
     1
102
RTVSPropertyOp44
 70
     1
102
RTVSPropertyOp45
 70
     1
102
RTVSPropertyOp46
 70
     1
102
RTVSPropertyOp47
 70
     1
102
RTVSPropertyOp48
 70
     1
102
RTVSPropertyOp49
 70
     1
102
RTVSPropertyOp50
 70
     1
102
RTVSPropertyOp51
 70
     0
102
RTVSPropertyOp52
 70
     0
102
RTVSPropertyOp53
 70
     1
102
RTVSPropertyOp54
 70
     1
102
RTVSPropertyOp55
 70
     1
102
RTVSPropertyOp56
 70
     1
102
RTVSPropertyOp57
 70
     1
102
RTVSPropertyOp58
 70
     1
102
RTVSPropertyOp59
 70
     1
102
RTVSPropertyOp60
 70
     1
102
RTVSPropertyOp61
 70
     1
102
RTVSPropertyOp62
 70
     1
  0
ENDSEC
  0
EOF
