  0
SECTION
  2
HEADER
  9
$ACADVER
  1
AC1015
  9
$ACADMAINTVER
 70
    20
  9
$DWGCODEPAGE
  3
ANSI_932
  9
$INSBASE
 10
0.0
 20
0.0
 30
0.0
  9
$EXTMIN
 10
9.99995
 20
9.999999999999998
 30
0.0
  9
$EXTMAX
 10
573.5504589999997
 20
379.9247119999998
 30
0.0
  9
$LIMMIN
 10
0.0
 20
0.0
  9
$LIMMAX
 10
594.0
 20
409.4999999999997
  9
$ORTHOMODE
 70
     0
  9
$REGENMODE
 70
     1
  9
$FILLMODE
 70
     1
  9
$QTEXTMODE
 70
     0
  9
$MIRRTEXT
 70
     1
  9
$LTSCALE
 40
20.0
  9
$ATTMODE
 70
     1
  9
$TEXTSIZE
 40
5.0
  9
$TRACEWID
 40
1.0
  9
$TEXTSTYLE
  7
STANDARD
  9
$CLAYER
  8
0
  9
$CELTYPE
  6
BYLAYER
  9
$CECOLOR
 62
   256
  9
$CELTSCALE
 40
1.0
  9
$DISPSILH
 70
     0
  9
$DIMSCALE
 40
1.0
  9
$DIMASZ
 40
3.0
  9
$DIMEXO
 40
1.0
  9
$DIMDLI
 40
10.0
  9
$DIMRND
 40
0.0
  9
$DIMDLE
 40
0.0
  9
$DIMEXE
 40
1.0
  9
$DIMTP
 40
0.0
  9
$DIMTM
 40
0.0
  9
$DIMTXT
 40
3.2
  9
$DIMCEN
 40
0.0
  9
$DIMTSZ
 40
0.0
  9
$DIMTOL
 70
     0
  9
$DIMLIM
 70
     0
  9
$DIMTIH
 70
     0
  9
$DIMTOH
 70
     0
  9
$DIMSE1
 70
     0
  9
$DIMSE2
 70
     0
  9
$DIMTAD
 70
     3
  9
$DIMZIN
 70
     8
  9
$DIMBLK
  1

  9
$DIMASO
 70
     1
  9
$DIMSHO
 70
     1
  9
$DIMPOST
  1

  9
$DIMAPOST
  1

  9
$DIMALT
 70
     0
  9
$DIMALTD
 70
     2
  9
$DIMALTF
 40
25.4
  9
$DIMLFAC
 40
1.0
  9
$DIMTOFL
 70
     1
  9
$DIMTVP
 40
0.0
  9
$DIMTIX
 70
     0
  9
$DIMSOXD
 70
     0
  9
$DIMSAH
 70
     1
  9
$DIMBLK1
  1
OPEN
  9
$DIMBLK2
  1
OPEN
  9
$DIMSTYLE
  2
STANDARD
  9
$DIMCLRD
 70
     0
  9
$DIMCLRE
 70
     0
  9
$DIMCLRT
 70
     0
  9
$DIMTFAC
 40
1.0
  9
$DIMGAP
 40
1.0
  9
$DIMJUST
 70
     0
  9
$DIMSD1
 70
     0
  9
$DIMSD2
 70
     0
  9
$DIMTOLJ
 70
     1
  9
$DIMTZIN
 70
     0
  9
$DIMALTZ
 70
     0
  9
$DIMALTTZ
 70
     0
  9
$DIMUPT
 70
     0
  9
$DIMDEC
 70
     4
  9
$DIMTDEC
 70
     4
  9
$DIMALTU
 70
     2
  9
$DIMALTTD
 70
     2
  9
$DIMTXSTY
  7
STANDARD
  9
$DIMAUNIT
 70
     0
  9
$DIMADEC
 70
     0
  9
$DIMALTRND
 40
0.0
  9
$DIMAZIN
 70
     0
  9
$DIMDSEP
 70
    46
  9
$DIMATFIT
 70
     3
  9
$DIMFRAC
 70
     0
  9
$DIMLDRBLK
  1
OPEN
  9
$DIMLUNIT
 70
     2
  9
$DIMLWD
 70
    -2
  9
$DIMLWE
 70
    -2
  9
$DIMTMOVE
 70
     0
  9
$LUNITS
 70
     2
  9
$LUPREC
 70
     4
  9
$SKETCHINC
 40
1.0
  9
$FILLETRAD
 40
2.0
  9
$AUNITS
 70
     0
  9
$AUPREC
 70
     2
  9
$MENU
  1
.
  9
$ELEVATION
 40
0.0
  9
$PELEVATION
 40
0.0
  9
$THICKNESS
 40
0.0
  9
$LIMCHECK
 70
     0
  9
$CHAMFERA
 40
10.0
  9
$CHAMFERB
 40
10.0
  9
$CHAMFERC
 40
0.0
  9
$CHAMFERD
 40
0.0
  9
$SKPOLY
 70
     0
  9
$TDCREATE
 40
2451303.376999884
  9
$TDUCREATE
 40
2451303.001999884
  9
$TDUPDATE
 40
2457192.687172813
  9
$TDUUPDATE
 40
2457192.312172812
  9
$TDINDWG
 40
0.0002440162
  9
$TDUSRTIMER
 40
0.0002436921
  9
$USRTIMER
 70
     1
  9
$ANGBASE
 50
0.0
  9
$ANGDIR
 70
     0
  9
$PDMODE
 70
    35
  9
$PDSIZE
 40
0.0
  9
$PLINEWID
 40
0.0
  9
$SPLFRAME
 70
     0
  9
$SPLINETYPE
 70
     6
  9
$SPLINESEGS
 70
     8
  9
$HANDSEED
  5
1AD05
  9
$SURFTAB1
 70
     6
  9
$SURFTAB2
 70
     6
  9
$SURFTYPE
 70
     6
  9
$SURFU
 70
     6
  9
$SURFV
 70
     6
  9
$UCSBASE
  2

  9
$UCSNAME
  2

  9
$UCSORG
 10
0.0
 20
0.0
 30
0.0
  9
$UCSXDIR
 10
1.0
 20
0.0
 30
0.0
  9
$UCSYDIR
 10
0.0
 20
1.0
 30
0.0
  9
$UCSORTHOREF
  2

  9
$UCSORTHOVIEW
 70
     0
  9
$UCSORGTOP
 10
0.0
 20
0.0
 30
0.0
  9
$UCSORGBOTTOM
 10
0.0
 20
0.0
 30
0.0
  9
$UCSORGLEFT
 10
0.0
 20
0.0
 30
0.0
  9
$UCSORGRIGHT
 10
0.0
 20
0.0
 30
0.0
  9
$UCSORGFRONT
 10
0.0
 20
0.0
 30
0.0
  9
$UCSORGBACK
 10
0.0
 20
0.0
 30
0.0
  9
$PUCSBASE
  2

  9
$PUCSNAME
  2

  9
$PUCSORG
 10
0.0
 20
0.0
 30
0.0
  9
$PUCSXDIR
 10
1.0
 20
0.0
 30
0.0
  9
$PUCSYDIR
 10
0.0
 20
1.0
 30
0.0
  9
$PUCSORTHOREF
  2

  9
$PUCSORTHOVIEW
 70
     0
  9
$PUCSORGTOP
 10
0.0
 20
0.0
 30
0.0
  9
$PUCSORGBOTTOM
 10
0.0
 20
0.0
 30
0.0
  9
$PUCSORGLEFT
 10
0.0
 20
0.0
 30
0.0
  9
$PUCSORGRIGHT
 10
0.0
 20
0.0
 30
0.0
  9
$PUCSORGFRONT
 10
0.0
 20
0.0
 30
0.0
  9
$PUCSORGBACK
 10
0.0
 20
0.0
 30
0.0
  9
$USERI1
 70
     0
  9
$USERI2
 70
     0
  9
$USERI3
 70
     0
  9
$USERI4
 70
     0
  9
$USERI5
 70
     0
  9
$USERR1
 40
0.0
  9
$USERR2
 40
0.0
  9
$USERR3
 40
0.0
  9
$USERR4
 40
0.0
  9
$USERR5
 40
0.0
  9
$WORLDVIEW
 70
     1
  9
$SHADEDGE
 70
     3
  9
$SHADEDIF
 70
    70
  9
$TILEMODE
 70
     1
  9
$MAXACTVP
 70
    16
  9
$PINSBASE
 10
0.0
 20
0.0
 30
0.0
  9
$PLIMCHECK
 70
     0
  9
$PEXTMIN
 10
1.000000000000000E+20
 20
1.000000000000000E+20
 30
1.000000000000000E+20
  9
$PEXTMAX
 10
-1.000000000000000E+20
 20
-1.000000000000000E+20
 30
-1.000000000000000E+20
  9
$PLIMMIN
 10
0.0
 20
0.0
  9
$PLIMMAX
 10
420.0
 20
297.0
  9
$UNITMODE
 70
     0
  9
$VISRETAIN
 70
     0
  9
$PLINEGEN
 70
     0
  9
$PSLTSCALE
 70
     0
  9
$TREEDEPTH
 70
  3020
  9
$CMLSTYLE
  2
STANDARD
  9
$CMLJUST
 70
     0
  9
$CMLSCALE
 40
1.0
  9
$PROXYGRAPHICS
 70
     1
  9
$MEASUREMENT
 70
     0
  9
$CELWEIGHT
370
    -1
  9
$ENDCAPS
280
     0
  9
$JOINSTYLE
280
     0
  9
$LWDISPLAY
290
     0
  9
$INSUNITS
 70
     0
  9
$HYPERLINKBASE
  1

  9
$STYLESHEET
  1

  9
$XEDIT
290
     1
  9
$CEPSNTYPE
380
     0
  9
$PSTYLEMODE
290
     1
  9
$FINGERPRINTGUID
  2
{30FAE9DE-117E-477C-8C11-845FEBEB1776}
  9
$VERSIONGUID
  2
{7129B4C9-0676-4B06-8FB1-23CBCF42D3F1}
  9
$EXTNAMES
290
     1
  9
$PSVPSCALE
 40
0.0
  9
$OLESTARTUP
290
     0
  0
ENDSEC
  0
SECTION
  2
CLASSES
  0
CLASS
  1
ACDBDICTIONARYWDFLT
  2
AcDbDictionaryWithDefault
  3
ObjectDBX Classes
 90
        0
280
     0
281
     0
  0
CLASS
  1
ACDBPLACEHOLDER
  2
AcDbPlaceHolder
  3
ObjectDBX Classes
 90
        0
280
     0
281
     0
  0
CLASS
  1
LAYOUT
  2
AcDbLayout
  3
ObjectDBX Classes
 90
        0
280
     0
281
     0
  0
CLASS
  1
DICTIONARYVAR
  2
AcDbDictionaryVar
  3
ObjectDBX Classes
 90
        0
280
     0
281
     0
  0
CLASS
  1
MATERIAL
  2
AcDbMaterial
  3
ObjectDBX Classes
 90
     1153
280
     0
281
     0
  0
CLASS
  1
VISUALSTYLE
  2
AcDbVisualStyle
  3
ObjectDBX Classes
 90
     4095
280
     0
281
     0
  0
CLASS
  1
TABLESTYLE
  2
AcDbTableStyle
  3
ObjectDBX Classes
 90
     4095
280
     0
281
     0
  0
CLASS
  1
SCALE
  2
AcDbScale
  3
ObjectDBX Classes
 90
     1153
280
     0
281
     0
  0
CLASS
  1
MLEADERSTYLE
  2
AcDbMLeaderStyle
  3
ACDB_MLEADERSTYLE_CLASS
 90
     4095
280
     0
281
     0
  0
CLASS
  1
ACDBSECTIONVIEWSTYLE
  2
AcDbSectionViewStyle
  3
ObjectDBX Classes
 90
     1025
280
     0
281
     0
  0
CLASS
  1
ACDBDETAILVIEWSTYLE
  2
AcDbDetailViewStyle
  3
ObjectDBX Classes
 90
     1025
280
     0
281
     0
  0
CLASS
  1
CELLSTYLEMAP
  2
AcDbCellStyleMap
  3
ObjectDBX Classes
 90
     1152
280
     0
281
     0
  0
ENDSEC
  0
SECTION
  2
TABLES
  0
TABLE
  2
VPORT
  5
1A96B
330
0
100
AcDbSymbolTable
 70
     1
  0
VPORT
  5
1AC4E
330
1A96B
100
AcDbSymbolTableRecord
100
AcDbViewportTableRecord
  2
*ACTIVE
 70
     0
 10
0.0
 20
0.0
 11
1.0
 21
1.0
 12
403.8367884111541
 22
194.9555177572248
 13
0.0
 23
0.0
 14
10.0
 24
10.0
 15
10.0
 25
10.0
 16
0.0
 26
0.0
 36
1.0
 17
0.0
 27
0.0
 37
0.0
 40
374.0286551584219
 41
2.35006605019815
 42
50.0
 43
0.0
 44
0.0
 50
0.0
 51
0.0
 71
     0
 72
   100
 73
     1
 74
     0
 75
     0
 76
     0
 77
     0
 78
     0
281
     0
 65
     1
110
0.0
120
0.0
130
0.0
111
1.0
121
0.0
131
0.0
112
0.0
122
1.0
132
0.0
 79
     0
146
0.0
1001
ACAD_NAV_VCDISPLAY
1070
     3
  0
ENDTAB
  0
TABLE
  2
LTYPE
  5
1A968
330
0
100
AcDbSymbolTable
 70
     4
  0
LTYPE
  5
1A976
330
1A968
100
AcDbSymbolTableRecord
100
AcDbLinetypeTableRecord
  2
BYBLOCK
 70
     0
  3

 72
    65
 73
     0
 40
0.0
  0
LTYPE
  5
1A977
330
1A968
100
AcDbSymbolTableRecord
100
AcDbLinetypeTableRecord
  2
BYLAYER
 70
     0
  3

 72
    65
 73
     0
 40
0.0
  0
LTYPE
  5
1A978
330
1A968
100
AcDbSymbolTableRecord
100
AcDbLinetypeTableRecord
  2
CONTINUOUS
 70
     0
  3
Solid line
 72
    65
 73
     0
 40
0.0
  0
LTYPE
  5
1A986
330
1A968
100
AcDbSymbolTableRecord
100
AcDbLinetypeTableRecord
  2
DASHED
 70
     0
  3
__ __ __ __ __ __ __ __ __ __ __ __ __ __ __ __
 72
    65
 73
     2
 40
0.75
 49
0.5
 74
     0
 49
-0.25
 74
     0
  0
LTYPE
  5
1A987
330
1A968
100
AcDbSymbolTableRecord
100
AcDbLinetypeTableRecord
  2
CENTER
 70
     0
  3
____ _ ____ _ ____ _ ____ _ ____ _ ____ _ ____ 
 72
    65
 73
     4
 40
2.0
 49
1.25
 74
     0
 49
-0.25
 74
     0
 49
0.25
 74
     0
 49
-0.25
 74
     0
  0
LTYPE
  5
1A988
330
1A968
100
AcDbSymbolTableRecord
100
AcDbLinetypeTableRecord
  2
PHANTOM
 70
     0
  3
______  __  __  ______  __  __  ______  __  __ 
 72
    65
 73
     6
 40
2.5
 49
1.25
 74
     0
 49
-0.25
 74
     0
 49
0.25
 74
     0
 49
-0.25
 74
     0
 49
0.25
 74
     0
 49
-0.25
 74
     0
  0
ENDTAB
  0
TABLE
  2
LAYER
  5
1A965
330
0
100
AcDbSymbolTable
 70
     8
  0
LAYER
  5
1A973
102
{ACAD_XDICTIONARY
360
1ACA9
102
}
330
1A965
100
AcDbSymbolTableRecord
100
AcDbLayerTableRecord
  2
0
 70
     0
 62
     7
  6
CONTINUOUS
370
    -3
390
1AC57
  0
LAYER
  5
1A989
102
{ACAD_XDICTIONARY
360
1ACAB
102
}
330
1A965
100
AcDbSymbolTableRecord
100
AcDbLayerTableRecord
  2
4
 70
     0
 62
     1
  6
CENTER
370
    -3
390
1AC57
  0
LAYER
  5
1A98A
102
{ACAD_XDICTIONARY
360
1ACAD
102
}
330
1A965
100
AcDbSymbolTableRecord
100
AcDbLayerTableRecord
  2
5
 70
     0
 62
     6
  6
PHANTOM
370
    -3
390
1AC57
  0
LAYER
  5
1A98B
102
{ACAD_XDICTIONARY
360
1ACAF
102
}
330
1A965
100
AcDbSymbolTableRecord
100
AcDbLayerTableRecord
  2
1
 70
     0
 62
     7
  6
CONTINUOUS
370
    -3
390
1AC57
  0
LAYER
  5
1A98C
102
{ACAD_XDICTIONARY
360
1ACB1
102
}
330
1A965
100
AcDbSymbolTableRecord
100
AcDbLayerTableRecord
  2
2
 70
     0
 62
     4
  6
CONTINUOUS
370
    -3
390
1AC57
  0
LAYER
  5
1A98D
102
{ACAD_XDICTIONARY
360
1ACB3
102
}
330
1A965
100
AcDbSymbolTableRecord
100
AcDbLayerTableRecord
  2
3
 70
     0
 62
     2
  6
DASHED
370
    -3
390
1AC57
  0
LAYER
  5
1A98E
102
{ACAD_XDICTIONARY
360
1ACB5
102
}
330
1A965
100
AcDbSymbolTableRecord
100
AcDbLayerTableRecord
  2
6
 70
     0
 62
     5
  6
CONTINUOUS
370
    -3
390
1AC57
  0
LAYER
  5
1A98F
102
{ACAD_XDICTIONARY
360
1ACB7
102
}
330
1A965
100
AcDbSymbolTableRecord
100
AcDbLayerTableRecord
  2
7
 70
     0
 62
     3
  6
CONTINUOUS
370
    -3
390
1AC57
  0
ENDTAB
  0
TABLE
  2
STYLE
  5
1A966
330
0
100
AcDbSymbolTable
 70
     1
  0
STYLE
  5
1A974
330
1A966
100
AcDbSymbolTableRecord
100
AcDbTextStyleTableRecord
  2
STANDARD
 70
     0
 40
0.0
 41
1.0
 50
0.0
 71
     0
 42
5.0
  3
txt
  4

  0
ENDTAB
  0
TABLE
  2
VIEW
  5
1A969
330
0
100
AcDbSymbolTable
 70
     1
  0
VIEW
  5
1A990
330
1A969
100
AcDbSymbolTableRecord
100
AcDbViewTableRecord
  2
7
 70
     0
 40
553.209199
 10
532.893607
 20
276.6046
 41
1065.787215
 11
0.0
 21
0.0
 31
1.0
 12
0.0
 22
0.0
 32
0.0
 42
50.0
 43
0.0
 44
0.0
 50
0.0
 71
     0
281
     0
 72
     0
  0
ENDTAB
  0
TABLE
  2
UCS
  5
1A96A
330
0
100
AcDbSymbolTable
 70
     0
  0
ENDTAB
  0
TABLE
  2
APPID
  5
1A96C
330
0
100
AcDbSymbolTable
 70
     3
  0
APPID
  5
1A975
330
1A96C
100
AcDbSymbolTableRecord
100
AcDbRegAppTableRecord
  2
ACAD
 70
     0
  0
APPID
  5
1ACC3
330
1A96C
100
AcDbSymbolTableRecord
100
AcDbRegAppTableRecord
  2
ACAD_NAV_VCDISPLAY
 70
     0
  0
APPID
  5
1ACFC
330
1A96C
100
AcDbSymbolTableRecord
100
AcDbRegAppTableRecord
  2
ACAD_MLEADERVER
 70
     0
  0
ENDTAB
  0
TABLE
  2
DIMSTYLE
  5
1A96D
330
0
100
AcDbSymbolTable
 70
     1
100
AcDbDimStyleTable
 71
     0
  0
DIMSTYLE
105
1A992
330
1A96D
100
AcDbSymbolTableRecord
100
AcDbDimStyleTableRecord
  2
STANDARD
 70
     0
 41
3.0
 42
1.0
 43
10.0
 44
1.0
 73
     0
 74
     0
 77
     3
 78
     8
140
3.2
141
0.0
147
1.0
172
     1
173
     1
284
     8
285
     8
286
     8
340
1A974
  0
ENDTAB
  0
TABLE
  2
BLOCK_RECORD
  5
1A964
330
0
100
AcDbSymbolTable
 70
     1
  0
BLOCK_RECORD
  5
1A981
102
{ACAD_XDICTIONARY
360
1AC51
102
}
330
1A964
100
AcDbSymbolTableRecord
100
AcDbBlockTableRecord
  2
*MODEL_SPACE
340
1ACA5
  0
BLOCK_RECORD
  5
1A97D
102
{ACAD_XDICTIONARY
360
1AC4F
102
}
330
1A964
100
AcDbSymbolTableRecord
100
AcDbBlockTableRecord
  2
*PAPER_SPACE
340
1ACA6
  0
BLOCK_RECORD
  5
1A99A
330
1A964
100
AcDbSymbolTableRecord
100
AcDbBlockTableRecord
  2
_OPEN
340
0
  0
ENDTAB
  0
ENDSEC
  0
SECTION
  2
BLOCKS
  0
BLOCK
  5
1A982
330
1A981
100
AcDbEntity
  8
0
100
AcDbBlockBegin
  2
*MODEL_SPACE
 70
     0
 10
0.0
 20
0.0
 30
0.0
  3
*MODEL_SPACE
  1

  0
ENDBLK
  5
1A983
330
1A981
100
AcDbEntity
  8
0
100
AcDbBlockEnd
  0
BLOCK
  5
1A97E
330
1A97D
100
AcDbEntity
 67
     1
  8
0
100
AcDbBlockBegin
  2
*PAPER_SPACE
 70
     0
 10
0.0
 20
0.0
 30
0.0
  3
*PAPER_SPACE
  1

  0
ENDBLK
  5
1A97F
330
1A97D
100
AcDbEntity
 67
     1
  8
0
100
AcDbBlockEnd
  0
BLOCK
  5
1A99B
330
1A99A
100
AcDbEntity
  8
0
100
AcDbBlockBegin
  2
_OPEN
 70
     0
 10
0.0
 20
0.0
 30
0.0
  3
_OPEN
  1

  0
LINE
  5
1A99C
330
1A99A
100
AcDbEntity
  8
0
  6
ByBlock
 62
     0
100
AcDbLine
 10
-1.0
 20
0.166667
 30
0.0
 11
0.0
 21
0.0
 31
0.0
  0
LINE
  5
1A99D
330
1A99A
100
AcDbEntity
  8
0
  6
ByBlock
 62
     0
100
AcDbLine
 10
0.0
 20
0.0
 30
0.0
 11
-1.0
 21
-0.166667
 31
0.0
  0
LINE
  5
1A99E
330
1A99A
100
AcDbEntity
  8
0
  6
ByBlock
 62
     0
100
AcDbLine
 10
0.0
 20
0.0
 30
0.0
 11
-1.0
 21
0.0
 31
0.0
  0
ENDBLK
  5
1A99F
330
1A99A
100
AcDbEntity
  8
0
100
AcDbBlockEnd
  0
ENDSEC
  0
SECTION
  2
ENTITIES
  0
TEXT
  5
1A9AA
330
1A981
100
AcDbEntity
  8
6
  6
Continuous
100
AcDbText
 10
27.97945
 20
10.0487
 30
0.0
 40
1.399999999999999
  1
6
 41
1.069393
100
AcDbText
  0
TEXT
  5
1A9AB
330
1A981
100
AcDbEntity
  8
1
  6
Continuous
100
AcDbText
 10
17.97945
 20
10.0487
 30
0.0
 40
1.399999999999999
  1
1
 41
1.069393
100
AcDbText
  0
TEXT
  5
1A9AC
330
1A981
100
AcDbEntity
  8
1
  6
Continuous
100
AcDbText
 10
9.99995
 20
10.0
 30
0.0
 40
1.399999999999999
  1
LAYER
 41
1.009912999999997
100
AcDbText
  0
TEXT
  5
1A9AD
330
1A981
100
AcDbEntity
  8
2
  6
Continuous
100
AcDbText
 10
19.97944999999998
 20
10.0487
 30
0.0
 40
1.399999999999999
  1
2
 41
1.069393
100
AcDbText
  0
TEXT
  5
1A9AE
330
1A981
100
AcDbEntity
  8
3
  6
DASHED
100
AcDbText
 10
21.97945
 20
10.0487
 30
0.0
 40
1.399999999999999
  1
3
 41
1.069393
100
AcDbText
  0
TEXT
  5
1A9AF
330
1A981
100
AcDbEntity
  8
4
  6
CENTER
100
AcDbText
 10
23.97944999999999
 20
10.0487
 30
0.0
 40
1.399999999999999
  1
4
 41
1.069393
100
AcDbText
  0
TEXT
  5
1A9B0
330
1A981
100
AcDbEntity
  8
5
  6
PHANTOM
100
AcDbText
 10
25.97945
 20
10.0487
 30
0.0
 40
1.399999999999999
  1
5
 41
1.069393
100
AcDbText
  0
TEXT
  5
1A9B1
330
1A981
100
AcDbEntity
  8
7
  6
Continuous
100
AcDbText
 10
10.00005
 20
26.0
 30
0.0
 40
3.0
  1
CODE No.9105
 41
1.003962999999999
100
AcDbText
  0
TEXT
  5
1A9B2
330
1A981
100
AcDbEntity
  8
7
  6
Continuous
100
AcDbText
 10
10.00005
 20
18.0
 30
0.0
 40
3.0
  1
TYPE No.106JH-P
 41
1.002350999999998
100
AcDbText
  0
TEXT
  5
1A9B3
330
1A981
100
AcDbEntity
  8
7
  6
Continuous
100
AcDbText
 10
29.97944999999999
 20
10.0487
 30
0.0
 40
1.399999999999999
  1
7
 41
1.069393
100
AcDbText
  0
LINE
  5
1A9B4
330
1A981
100
AcDbEntity
  8
1
  6
Continuous
100
AcDbLine
 10
357.3281989999999
 20
235.334021
 30
0.0
 11
373.672343
 21
235.334021
 31
0.0
  0
ARC
  5
1A9B5
330
1A981
100
AcDbEntity
  8
1
  6
Continuous
100
AcDbCircle
 10
365.500306
 20
206.9397659999999
 30
0.0
 40
30.0
100
AcDbArc
 50
77.16041199999998
 51
102.839588
  0
ARC
  5
1A9B6
330
1A981
100
AcDbEntity
  8
1
  6
Continuous
100
AcDbCircle
 10
359.500306
 20
233.2646599999999
 30
0.0
 40
3.0
100
AcDbArc
 50
102.839588
 51
136.726634
  0
ARC
  5
1A9B7
330
1A981
100
AcDbEntity
  8
1
  6
Continuous
100
AcDbCircle
 10
371.500306
 20
233.2646599999999
 30
0.0
 40
3.0
100
AcDbArc
 50
43.27336599999997
 51
77.16041199999998
  0
LINE
  5
1A9B8
330
1A981
100
AcDbEntity
  8
4
  6
CENTER
100
AcDbLine
 10
94.22690899999999
 20
196.497003
 30
0.0
 11
34.01794000000001
 21
196.497003
 31
0.0
  0
LINE
  5
1A9B9
330
1A981
100
AcDbEntity
  8
1
  6
Continuous
100
AcDbLine
 10
103.000153
 20
256.9967679999999
 30
0.0
 11
25.0
 21
256.9967679999999
 31
0.0
  0
ARC
  5
1A9BA
330
1A981
100
AcDbEntity
  8
1
  6
Continuous
100
AcDbCircle
 10
207.6273309999999
 20
232.5364079999999
 30
0.0
 40
48.160356
100
AcDbArc
 50
258.178396
 51
310.7312269999998
  0
LINE
  5
1A9BB
330
1A981
100
AcDbEntity
  8
1
  6
Continuous
100
AcDbLine
 10
266.5001559999998
 20
256.9967679999999
 30
0.0
 11
188.5000039999999
 21
256.9967679999999
 31
0.0
  0
LINE
  5
1A9BC
330
1A981
100
AcDbEntity
  8
1
  6
Continuous
100
AcDbLine
 10
266.5001559999998
 20
254.096768
 30
0.0
 11
266.5001559999998
 21
256.9967679999999
 31
0.0
  0
LINE
  5
1A9BD
330
1A981
100
AcDbEntity
  8
4
  6
CENTER
100
AcDbLine
 10
200.500153
 20
153.997003
 30
0.0
 11
200.500153
 21
238.9970029999998
 31
0.0
  0
ARC
  5
1A9BE
330
1A981
100
AcDbEntity
  8
1
  6
Continuous
100
AcDbCircle
 10
200.500153
 20
196.497003
 30
0.0
 40
27.5
100
AcDbArc
 50
93.185772
 51
342.74708
  0
ARC
  5
1A9BF
330
1A981
100
AcDbEntity
  8
1
  6
Continuous
100
AcDbCircle
 10
200.500153
 20
196.497003
 30
0.0
 40
37.5
100
AcDbArc
 50
92.05856999999999
 51
357.92806
  0
LINE
  5
1A9C0
330
1A981
100
AcDbEntity
  8
4
  6
CENTER
100
AcDbLine
 10
242.4501529999998
 20
196.497003
 30
0.0
 11
157.450153
 21
196.497003
 31
0.0
  0
ARC
  5
1A9C1
330
1A981
100
AcDbEntity
  8
1
  6
Continuous
100
AcDbCircle
 10
200.200153
 20
197.147003
 30
0.0
 40
12.0
100
AcDbArc
 50
142.106074
 51
258.2719539999998
  0
LINE
  5
1A9C2
330
1A981
100
AcDbEntity
  8
1
  6
Continuous
100
AcDbLine
 10
206.352665
 20
241.86797
 30
0.0
 11
210.7596079999999
 21
188.984825
 31
0.0
  0
ARC
  5
1A9C3
330
1A981
100
AcDbEntity
  8
1
  6
Continuous
100
AcDbCircle
 10
158.3684309999999
 20
229.704989
 30
0.0
 40
41.00863499999999
100
AcDbArc
 50
322.1060739999999
 51
5.60118
  0
LINE
  5
1A9C4
330
1A981
100
AcDbEntity
  8
4
  6
CENTER
100
AcDbLine
 10
227.5003209999999
 20
261.9967679999999
 30
0.0
 11
227.5003209999999
 21
183.2259469999999
 31
0.0
  0
ARC
  5
1A9C5
330
1A981
100
AcDbEntity
  8
1
  6
Continuous
100
AcDbCircle
 10
182.574026
 20
232.0788709999999
 30
0.0
 40
16.686913
100
AcDbArc
 50
5.60118
 51
35.48483
  0
ARC
  5
1A9C6
330
1A981
100
AcDbEntity
  8
1
  6
Continuous
100
AcDbCircle
 10
199.5667899999999
 20
244.1929049999999
 30
0.0
 40
4.181815
100
AcDbArc
 50
186.876414
 51
215.4848299999999
  0
LINE
  5
1A9C7
330
1A981
100
AcDbEntity
  8
1
  6
Continuous
100
AcDbLine
 10
188.5000039999999
 20
254.096768
 30
0.0
 11
188.5000039999999
 21
256.9967679999999
 31
0.0
  0
LINE
  5
1A9C8
330
1A981
100
AcDbEntity
  8
1
  6
Continuous
100
AcDbLine
 10
103.000153
 20
254.096768
 30
0.0
 11
103.000153
 21
256.9967679999999
 31
0.0
  0
LINE
  5
1A9C9
330
1A981
100
AcDbEntity
  8
4
  6
CENTER
100
AcDbLine
 10
267.0006789999998
 20
304.9952699999999
 30
0.0
 11
250.000679
 21
304.9952699999999
 31
0.0
  0
LINE
  5
1A9CA
330
1A981
100
AcDbEntity
  8
4
  6
CENTER
100
AcDbLine
 10
267.0006789999998
 20
366.99527
 30
0.0
 11
250.000679
 21
366.99527
 31
0.0
  0
LINE
  5
1A9CB
330
1A981
100
AcDbEntity
  8
4
  6
CENTER
100
AcDbLine
 10
271.2006789999999
 20
335.99527
 30
0.0
 11
157.450097
 21
335.99527
 31
0.0
  0
ARC
  5
1A9CC
330
1A981
100
AcDbEntity
  8
1
  6
Continuous
100
AcDbCircle
 10
227.5006789999999
 20
-1296.521397
 30
0.0
 40
1593.816667
100
AcDbArc
 50
88.89108399999996
 51
91.10891600000002
  0
ARC
  5
1A9CD
330
1A981
100
AcDbEntity
  8
1
  6
Continuous
100
AcDbCircle
 10
227.5006789999999
 20
1968.511937
 30
0.0
 40
1593.816667
100
AcDbArc
 50
268.8910839999999
 51
271.108916
  0
ARC
  5
1A9CE
330
1A981
100
AcDbEntity
  8
1
  6
Continuous
100
AcDbCircle
 10
1860.017346
 20
335.99527
 30
0.0
 40
1593.816667
100
AcDbArc
 50
178.8910839999998
 51
181.1089159999999
  0
LINE
  5
1A9CF
330
1A981
100
AcDbEntity
  8
4
  6
CENTER
100
AcDbLine
 10
258.5006789999998
 20
296.4952699999999
 30
0.0
 11
258.5006789999998
 21
313.4952699999999
 31
0.0
  0
CIRCLE
  5
1A9D0
330
1A981
100
AcDbEntity
  8
1
  6
Continuous
100
AcDbCircle
 10
258.5006789999998
 20
304.9952699999999
 30
0.0
 40
4.25
  0
ARC
  5
1A9D1
330
1A981
100
AcDbEntity
  8
1
  6
Continuous
100
AcDbCircle
 10
258.5006789999998
 20
304.9952699999999
 30
0.0
 40
8.0
100
AcDbArc
 50
268.8910839999999
 51
1.108916
  0
ARC
  5
1A9D2
330
1A981
100
AcDbEntity
  8
1
  6
Continuous
100
AcDbCircle
 10
258.5006789999998
 20
366.99527
 30
0.0
 40
8.0
100
AcDbArc
 50
358.891084
 51
91.10891600000002
  0
LINE
  5
1A9D3
330
1A981
100
AcDbEntity
  8
4
  6
CENTER
100
AcDbLine
 10
258.5006789999998
 20
358.49527
 30
0.0
 11
258.5006789999998
 21
375.49527
 31
0.0
  0
CIRCLE
  5
1A9D4
330
1A981
100
AcDbEntity
  8
1
  6
Continuous
100
AcDbCircle
 10
258.5006789999998
 20
366.99527
 30
0.0
 40
4.25
  0
LINE
  5
1A9D5
330
1A981
100
AcDbEntity
  8
4
  6
CENTER
100
AcDbLine
 10
227.5006789999999
 20
292.29527
 30
0.0
 11
227.5006789999999
 21
379.6952699999998
 31
0.0
  0
LINE
  5
1A9D6
330
1A981
100
AcDbEntity
  8
1
  6
Continuous
100
AcDbLine
 10
188.7435039999998
 20
349.4953729999999
 30
0.0
 11
166.2801189999998
 21
349.4953729999999
 31
0.0
  0
LINE
  5
1A9D7
330
1A981
100
AcDbEntity
  8
1
  6
Continuous
100
AcDbLine
 10
188.7435059999999
 20
322.4953729999999
 30
0.0
 11
166.2801189999998
 21
322.4953729999999
 31
0.0
  0
CIRCLE
  5
1A9D8
330
1A981
100
AcDbEntity
  8
1
  6
Continuous
100
AcDbCircle
 10
227.5006789999999
 20
335.99527
 30
0.0
 40
13.34999999999999
  0
ARC
  5
1A9D9
330
1A981
100
AcDbEntity
  8
1
  6
Continuous
100
AcDbCircle
 10
-1405.015987
 20
335.99527
 30
0.0
 40
1593.816667
100
AcDbArc
 50
358.891084
 51
1.108916
  0
LINE
  5
1A9DA
330
1A981
100
AcDbEntity
  8
4
  6
CENTER
100
AcDbLine
 10
196.5006789999999
 20
296.4952699999999
 30
0.0
 11
196.5006789999999
 21
313.4952699999999
 31
0.0
  0
CIRCLE
  5
1A9DB
330
1A981
100
AcDbEntity
  8
1
  6
Continuous
100
AcDbCircle
 10
196.5006789999999
 20
304.9952699999999
 30
0.0
 40
4.25
  0
LINE
  5
1A9DC
330
1A981
100
AcDbEntity
  8
4
  6
CENTER
100
AcDbLine
 10
205.0006789999999
 20
304.9952699999999
 30
0.0
 11
188.0006789999999
 21
304.9952699999999
 31
0.0
  0
ARC
  5
1A9DD
330
1A981
100
AcDbEntity
  8
1
  6
Continuous
100
AcDbCircle
 10
196.5006789999999
 20
304.9952699999999
 30
0.0
 40
8.0
100
AcDbArc
 50
178.8910839999998
 51
271.108916
  0
LINE
  5
1A9DE
330
1A981
100
AcDbEntity
  8
4
  6
CENTER
100
AcDbLine
 10
205.0006789999999
 20
366.99527
 30
0.0
 11
188.0006789999999
 21
366.99527
 31
0.0
  0
LINE
  5
1A9DF
330
1A981
100
AcDbEntity
  8
4
  6
CENTER
100
AcDbLine
 10
196.5006789999999
 20
358.49527
 30
0.0
 11
196.5006789999999
 21
375.49527
 31
0.0
  0
CIRCLE
  5
1A9E0
330
1A981
100
AcDbEntity
  8
1
  6
Continuous
100
AcDbCircle
 10
196.5006789999999
 20
366.99527
 30
0.0
 40
4.25
  0
ARC
  5
1A9E1
330
1A981
100
AcDbEntity
  8
1
  6
Continuous
100
AcDbCircle
 10
196.5006789999999
 20
366.99527
 30
0.0
 40
8.0
100
AcDbArc
 50
88.89108399999996
 51
181.1089159999999
  0
ARC
  5
1A9E2
330
1A981
100
AcDbEntity
  8
1
  6
Continuous
100
AcDbCircle
 10
363.0000969999999
 20
335.9953729999999
 30
0.0
 40
200.0
100
AcDbArc
 50
176.944716
 51
183.055284
  0
ARC
  5
1A9E3
330
1A981
100
AcDbEntity
  8
1
  6
Continuous
100
AcDbCircle
 10
166.2801189999998
 20
325.4953729999999
 30
0.0
 40
3.0
100
AcDbArc
 50
183.055284
 51
270.0
  0
ARC
  5
1A9E4
330
1A981
100
AcDbEntity
  8
1
  6
Continuous
100
AcDbCircle
 10
166.2801189999998
 20
346.4953729999999
 30
0.0
 40
3.0
100
AcDbArc
 50
90.0
 51
176.944716
  0
LINE
  5
1A9E5
330
1A981
100
AcDbEntity
  8
4
  6
CENTER
100
AcDbLine
 10
64.00015
 20
261.9967679999999
 30
0.0
 11
64.00015
 21
153.997003
 31
0.0
  0
LINE
  5
1A9E6
330
1A981
100
AcDbEntity
  8
1
  6
Continuous
100
AcDbLine
 10
50.50015
 20
230.7169819999999
 30
0.0
 11
50.50015
 21
162.277024
 31
0.0
  0
LINE
  5
1A9E7
330
1A981
100
AcDbEntity
  8
1
  6
Continuous
100
AcDbLine
 10
77.50015000000002
 20
230.7169819999999
 30
0.0
 11
77.50015000000002
 21
162.277024
 31
0.0
  0
ARC
  5
1A9E8
330
1A981
100
AcDbEntity
  8
1
  6
Continuous
100
AcDbCircle
 10
64.00015
 20
358.9970029999999
 30
0.0
 40
200.0
100
AcDbArc
 50
266.944716
 51
273.0552839999999
  0
ARC
  5
1A9E9
330
1A981
100
AcDbEntity
  8
1
  6
Continuous
100
AcDbCircle
 10
74.50015
 20
162.277024
 30
0.0
 40
3.0
100
AcDbArc
 50
273.0552839999999
 51
0.0
  0
ARC
  5
1A9EA
330
1A981
100
AcDbEntity
  8
1
  6
Continuous
100
AcDbCircle
 10
53.50014999999999
 20
162.277024
 30
0.0
 40
3.0
100
AcDbArc
 50
180.0
 51
266.944716
  0
LINE
  5
1A9EB
330
1A981
100
AcDbEntity
  8
1
  6
Continuous
100
AcDbLine
 10
79.25015000000001
 20
204.9970029999998
 30
0.0
 11
79.25015000000001
 21
187.997003
 31
0.0
  0
LINE
  5
1A9EC
330
1A981
100
AcDbEntity
  8
1
  6
Continuous
100
AcDbLine
 10
79.50015
 20
201.997003
 30
0.0
 11
79.50015
 21
190.997003
 31
0.0
  0
ARC
  5
1A9ED
330
1A981
100
AcDbEntity
  8
1
  6
Continuous
100
AcDbCircle
 10
76.71254300000002
 20
188.009321
 30
0.0
 40
2.537636999999997
100
AcDbArc
 50
288.08155
 51
359.721882
  0
LINE
  5
1A9EE
330
1A981
100
AcDbEntity
  8
1
  6
Continuous
100
AcDbLine
 10
82.30014999999999
 20
184.3861499999999
 30
0.0
 11
79.70014999999998
 21
184.3861499999999
 31
0.0
  0
LINE
  5
1A9EF
330
1A981
100
AcDbEntity
  8
1
  6
Continuous
100
AcDbLine
 10
79.50015
 20
190.997003
 30
0.0
 11
79.25015000000001
 21
190.997003
 31
0.0
  0
LINE
  5
1A9F0
330
1A981
100
AcDbEntity
  8
1
  6
Continuous
100
AcDbLine
 10
79.70014999999998
 20
192.497003
 30
0.0
 11
79.50015
 21
192.497003
 31
0.0
  0
LINE
  5
1A9F1
330
1A981
100
AcDbEntity
  8
1
  6
Continuous
100
AcDbLine
 10
79.70014999999998
 20
200.4970029999999
 30
0.0
 11
79.50015
 21
200.4970029999999
 31
0.0
  0
LINE
  5
1A9F2
330
1A981
100
AcDbEntity
  8
1
  6
Continuous
100
AcDbLine
 10
79.50015
 20
201.997003
 30
0.0
 11
79.25015000000001
 21
201.997003
 31
0.0
  0
ARC
  5
1A9F3
330
1A981
100
AcDbEntity
  8
1
  6
Continuous
100
AcDbCircle
 10
76.71254300000002
 20
204.984686
 30
0.0
 40
2.537636999999997
100
AcDbArc
 50
0.278118
 51
71.91845000000002
  0
LINE
  5
1A9F4
330
1A981
100
AcDbEntity
  8
1
  6
Continuous
100
AcDbLine
 10
48.75015
 20
204.9970029999998
 30
0.0
 11
48.75015
 21
187.997003
 31
0.0
  0
LINE
  5
1A9F5
330
1A981
100
AcDbEntity
  8
1
  6
Continuous
100
AcDbLine
 10
48.50014999999999
 20
201.997003
 30
0.0
 11
48.50014999999999
 21
190.997003
 31
0.0
  0
ARC
  5
1A9F6
330
1A981
100
AcDbEntity
  8
1
  6
Continuous
100
AcDbCircle
 10
51.287757
 20
188.009321
 30
0.0
 40
2.537636999999997
100
AcDbArc
 50
180.278118
 51
251.91845
  0
LINE
  5
1A9F7
330
1A981
100
AcDbEntity
  8
1
  6
Continuous
100
AcDbLine
 10
48.30015
 20
184.3861499999999
 30
0.0
 11
45.70015
 21
184.3861499999999
 31
0.0
  0
LINE
  5
1A9F8
330
1A981
100
AcDbEntity
  8
1
  6
Continuous
100
AcDbLine
 10
48.75015
 20
190.997003
 30
0.0
 11
48.50014999999999
 21
190.997003
 31
0.0
  0
LINE
  5
1A9F9
330
1A981
100
AcDbEntity
  8
1
  6
Continuous
100
AcDbLine
 10
48.50014999999999
 20
192.497003
 30
0.0
 11
48.329821
 21
192.497003
 31
0.0
  0
LINE
  5
1A9FA
330
1A981
100
AcDbEntity
  8
1
  6
Continuous
100
AcDbLine
 10
48.50014999999999
 20
200.4970029999999
 30
0.0
 11
48.329821
 21
200.4970029999999
 31
0.0
  0
LINE
  5
1A9FB
330
1A981
100
AcDbEntity
  8
1
  6
Continuous
100
AcDbLine
 10
48.50014999999999
 20
200.4970029999999
 30
0.0
 11
48.329821
 21
200.4970029999999
 31
0.0
  0
LINE
  5
1A9FC
330
1A981
100
AcDbEntity
  8
1
  6
Continuous
100
AcDbLine
 10
48.75015
 20
201.997003
 30
0.0
 11
48.50014999999999
 21
201.997003
 31
0.0
  0
ARC
  5
1A9FD
330
1A981
100
AcDbEntity
  8
1
  6
Continuous
100
AcDbCircle
 10
51.287757
 20
204.984686
 30
0.0
 40
2.537636999999997
100
AcDbArc
 50
108.0815499999998
 51
179.7218819999999
  0
LINE
  5
1A9FE
330
1A981
100
AcDbEntity
  8
1
  6
Continuous
100
AcDbLine
 10
52.80135
 20
240.0881249999999
 30
0.0
 11
53.805448
 21
241.092224
 31
0.0
  0
ARC
  5
1A9FF
330
1A981
100
AcDbEntity
  8
1
  6
Continuous
100
AcDbCircle
 10
64.00015
 20
33.997003
 30
0.0
 40
200.0
100
AcDbArc
 50
86.94471599999998
 51
93.055284
  0
LINE
  5
1AA00
330
1A981
100
AcDbEntity
  8
1
  6
Continuous
100
AcDbLine
 10
78.04987
 20
235.334021
 30
0.0
 11
49.95076599999999
 21
235.334021
 31
0.0
  0
LINE
  5
1AA01
330
1A981
100
AcDbEntity
  8
1
  6
Continuous
100
AcDbLine
 10
49.70015
 20
243.692224
 30
0.0
 11
78.30015
 21
243.692224
 31
0.0
  0
LINE
  5
1AA02
330
1A981
100
AcDbEntity
  8
1
  6
Continuous
100
AcDbLine
 10
69.771912
 20
240.0881249999999
 30
0.0
 11
70.77601099999998
 21
241.092224
 31
0.0
  0
LINE
  5
1AA03
330
1A981
100
AcDbEntity
  8
1
  6
Continuous
100
AcDbLine
 10
70.63040699999998
 20
240.0881249999999
 30
0.0
 11
69.62630899999999
 21
241.092224
 31
0.0
  0
LINE
  5
1AA04
330
1A981
100
AcDbEntity
  8
1
  6
Continuous
100
AcDbLine
 10
79.43983
 20
240.0881249999999
 30
0.0
 11
48.560499
 21
240.0881249999999
 31
0.0
  0
LINE
  5
1AA05
330
1A981
100
AcDbEntity
  8
1
  6
Continuous
100
AcDbLine
 10
79.69981
 20
239.129125
 30
0.0
 11
48.30015
 21
239.129125
 31
0.0
  0
LINE
  5
1AA06
330
1A981
100
AcDbEntity
  8
1
  6
Continuous
100
AcDbLine
 10
79.53234899999998
 20
239.894125
 30
0.0
 11
48.471149
 21
239.894125
 31
0.0
  0
ARC
  5
1AA07
330
1A981
100
AcDbEntity
  8
1
  6
Continuous
100
AcDbCircle
 10
78.04987
 20
241.3860179999999
 30
0.0
 40
6.051997
100
AcDbArc
 50
270.0
 51
285.8240159999999
  0
ARC
  5
1AA08
330
1A981
100
AcDbEntity
  8
1
  6
Continuous
100
AcDbCircle
 10
74.50015
 20
230.7169819999999
 30
0.0
 40
3.0
100
AcDbArc
 50
0.0
 51
86.94471599999998
  0
LINE
  5
1AA09
330
1A981
100
AcDbEntity
  8
1
  6
Continuous
100
AcDbLine
 10
78.257194
 20
240.0881249999999
 30
0.0
 11
78.877808
 21
240.7087399999999
 31
0.0
  0
LINE
  5
1AA0A
330
1A981
100
AcDbEntity
  8
1
  6
Continuous
100
AcDbLine
 10
79.115689
 20
240.0881249999999
 30
0.0
 11
78.16679
 21
241.037024
 31
0.0
  0
LINE
  5
1AA0B
330
1A981
100
AcDbEntity
  8
1
  6
Continuous
100
AcDbLine
 10
74.01455300000002
 20
240.0881249999999
 30
0.0
 11
75.01865200000001
 21
241.092224
 31
0.0
  0
LINE
  5
1AA0C
330
1A981
100
AcDbEntity
  8
1
  6
Continuous
100
AcDbLine
 10
74.87304799999998
 20
240.0881249999999
 30
0.0
 11
73.868949
 21
241.092224
 31
0.0
  0
LINE
  5
1AA0D
330
1A981
100
AcDbEntity
  8
1
  6
Continuous
100
AcDbLine
 10
75.42876699999998
 20
240.0881249999999
 30
0.0
 11
76.43286500000002
 21
241.092224
 31
0.0
  0
LINE
  5
1AA0E
330
1A981
100
AcDbEntity
  8
1
  6
Continuous
100
AcDbLine
 10
76.84298000000002
 20
240.0881249999999
 30
0.0
 11
77.842039
 21
241.0871849999999
 31
0.0
  0
LINE
  5
1AA0F
330
1A981
100
AcDbEntity
  8
1
  6
Continuous
100
AcDbLine
 10
76.287262
 20
240.0881249999999
 30
0.0
 11
75.283163
 21
241.092224
 31
0.0
  0
LINE
  5
1AA10
330
1A981
100
AcDbEntity
  8
1
  6
Continuous
100
AcDbLine
 10
77.701475
 20
240.0881249999999
 30
0.0
 11
76.69737600000002
 21
241.092224
 31
0.0
  0
LINE
  5
1AA11
330
1A981
100
AcDbEntity
  8
1
  6
Continuous
100
AcDbLine
 10
71.186126
 20
240.0881249999999
 30
0.0
 11
72.190225
 21
241.092224
 31
0.0
  0
LINE
  5
1AA12
330
1A981
100
AcDbEntity
  8
1
  6
Continuous
100
AcDbLine
 10
72.60034
 20
240.0881249999999
 30
0.0
 11
73.604438
 21
241.092224
 31
0.0
  0
LINE
  5
1AA13
330
1A981
100
AcDbEntity
  8
1
  6
Continuous
100
AcDbLine
 10
72.04462099999997
 20
240.0881249999999
 30
0.0
 11
71.04052199999998
 21
241.092224
 31
0.0
  0
LINE
  5
1AA14
330
1A981
100
AcDbEntity
  8
1
  6
Continuous
100
AcDbLine
 10
73.45883499999998
 20
240.0881249999999
 30
0.0
 11
72.45473599999998
 21
241.092224
 31
0.0
  0
LINE
  5
1AA15
330
1A981
100
AcDbEntity
  8
1
  6
Continuous
100
AcDbLine
 10
61.286631
 20
240.0881249999999
 30
0.0
 11
62.29073
 21
241.092224
 31
0.0
  0
LINE
  5
1AA16
330
1A981
100
AcDbEntity
  8
1
  6
Continuous
100
AcDbLine
 10
62.14512599999999
 20
240.0881249999999
 30
0.0
 11
61.141027
 21
241.092224
 31
0.0
  0
LINE
  5
1AA17
330
1A981
100
AcDbEntity
  8
1
  6
Continuous
100
AcDbLine
 10
65.52927199999999
 20
240.0881249999999
 30
0.0
 11
66.533371
 21
241.092224
 31
0.0
  0
LINE
  5
1AA18
330
1A981
100
AcDbEntity
  8
1
  6
Continuous
100
AcDbLine
 10
66.38776700000001
 20
240.0881249999999
 30
0.0
 11
65.383668
 21
241.092224
 31
0.0
  0
LINE
  5
1AA19
330
1A981
100
AcDbEntity
  8
1
  6
Continuous
100
AcDbLine
 10
66.943485
 20
240.0881249999999
 30
0.0
 11
67.94758399999999
 21
241.092224
 31
0.0
  0
LINE
  5
1AA1A
330
1A981
100
AcDbEntity
  8
1
  6
Continuous
100
AcDbLine
 10
68.35769899999999
 20
240.0881249999999
 30
0.0
 11
69.36179799999999
 21
241.092224
 31
0.0
  0
LINE
  5
1AA1B
330
1A981
100
AcDbEntity
  8
1
  6
Continuous
100
AcDbLine
 10
67.80198
 20
240.0881249999999
 30
0.0
 11
66.797881
 21
241.092224
 31
0.0
  0
LINE
  5
1AA1C
330
1A981
100
AcDbEntity
  8
1
  6
Continuous
100
AcDbLine
 10
69.21619399999999
 20
240.0881249999999
 30
0.0
 11
68.21209499999999
 21
241.092224
 31
0.0
  0
LINE
  5
1AA1D
330
1A981
100
AcDbEntity
  8
1
  6
Continuous
100
AcDbLine
 10
62.70084499999999
 20
240.0881249999999
 30
0.0
 11
63.704943
 21
241.092224
 31
0.0
  0
LINE
  5
1AA1E
330
1A981
100
AcDbEntity
  8
1
  6
Continuous
100
AcDbLine
 10
64.11505799999999
 20
240.0881249999999
 30
0.0
 11
65.119157
 21
241.092224
 31
0.0
  0
LINE
  5
1AA1F
330
1A981
100
AcDbEntity
  8
1
  6
Continuous
100
AcDbLine
 10
63.55934
 20
240.0881249999999
 30
0.0
 11
62.555241
 21
241.092224
 31
0.0
  0
LINE
  5
1AA20
330
1A981
100
AcDbEntity
  8
1
  6
Continuous
100
AcDbLine
 10
64.97355300000001
 20
240.0881249999999
 30
0.0
 11
63.96945399999999
 21
241.092224
 31
0.0
  0
LINE
  5
1AA21
330
1A981
100
AcDbEntity
  8
1
  6
Continuous
100
AcDbLine
 10
57.04399
 20
240.0881249999999
 30
0.0
 11
58.04808900000001
 21
241.092224
 31
0.0
  0
LINE
  5
1AA22
330
1A981
100
AcDbEntity
  8
1
  6
Continuous
100
AcDbLine
 10
58.458204
 20
240.0881249999999
 30
0.0
 11
59.46230299999999
 21
241.092224
 31
0.0
  0
LINE
  5
1AA23
330
1A981
100
AcDbEntity
  8
1
  6
Continuous
100
AcDbLine
 10
59.87241700000001
 20
240.0881249999999
 30
0.0
 11
60.876516
 21
241.092224
 31
0.0
  0
LINE
  5
1AA24
330
1A981
100
AcDbEntity
  8
1
  6
Continuous
100
AcDbLine
 10
59.316699
 20
240.0881249999999
 30
0.0
 11
58.3126
 21
241.092224
 31
0.0
  0
LINE
  5
1AA25
330
1A981
100
AcDbEntity
  8
1
  6
Continuous
100
AcDbLine
 10
60.730913
 20
240.0881249999999
 30
0.0
 11
59.72681399999999
 21
241.092224
 31
0.0
  0
LINE
  5
1AA26
330
1A981
100
AcDbEntity
  8
1
  6
Continuous
100
AcDbLine
 10
54.215563
 20
240.0881249999999
 30
0.0
 11
55.219662
 21
241.092224
 31
0.0
  0
LINE
  5
1AA27
330
1A981
100
AcDbEntity
  8
1
  6
Continuous
100
AcDbLine
 10
55.62977700000001
 20
240.0881249999999
 30
0.0
 11
56.633876
 21
241.092224
 31
0.0
  0
LINE
  5
1AA28
330
1A981
100
AcDbEntity
  8
1
  6
Continuous
100
AcDbLine
 10
55.07405799999999
 20
240.0881249999999
 30
0.0
 11
54.069959
 21
241.092224
 31
0.0
  0
LINE
  5
1AA29
330
1A981
100
AcDbEntity
  8
1
  6
Continuous
100
AcDbLine
 10
56.48827199999999
 20
240.0881249999999
 30
0.0
 11
55.484173
 21
241.092224
 31
0.0
  0
LINE
  5
1AA2A
330
1A981
100
AcDbEntity
  8
1
  6
Continuous
100
AcDbLine
 10
57.902485
 20
240.0881249999999
 30
0.0
 11
56.898387
 21
241.092224
 31
0.0
  0
ARC
  5
1AA2B
330
1A981
100
AcDbEntity
  8
1
  6
Continuous
100
AcDbCircle
 10
53.50014999999999
 20
230.7169819999999
 30
0.0
 40
3.0
100
AcDbArc
 50
93.055284
 51
180.0
  0
ARC
  5
1AA2C
330
1A981
100
AcDbEntity
  8
1
  6
Continuous
100
AcDbCircle
 10
49.95076599999999
 20
241.3860179999999
 30
0.0
 40
6.051997
100
AcDbArc
 50
254.1726779999998
 51
270.0
  0
LINE
  5
1AA2D
330
1A981
100
AcDbEntity
  8
1
  6
Continuous
100
AcDbLine
 10
49.972923
 20
240.0881249999999
 30
0.0
 11
50.977021
 21
241.092224
 31
0.0
  0
LINE
  5
1AA2E
330
1A981
100
AcDbEntity
  8
1
  6
Continuous
100
AcDbLine
 10
51.38713599999999
 20
240.0881249999999
 30
0.0
 11
52.39123499999998
 21
241.092224
 31
0.0
  0
LINE
  5
1AA2F
330
1A981
100
AcDbEntity
  8
1
  6
Continuous
100
AcDbLine
 10
50.83141799999999
 20
240.0881249999999
 30
0.0
 11
49.873381
 21
241.046161
 31
0.0
  0
LINE
  5
1AA30
330
1A981
100
AcDbEntity
  8
1
  6
Continuous
100
AcDbLine
 10
52.24563100000001
 20
240.0881249999999
 30
0.0
 11
51.241532
 21
241.092224
 31
0.0
  0
LINE
  5
1AA31
330
1A981
100
AcDbEntity
  8
1
  6
Continuous
100
AcDbLine
 10
53.65984499999999
 20
240.0881249999999
 30
0.0
 11
52.65574599999999
 21
241.092224
 31
0.0
  0
LINE
  5
1AA32
330
1A981
100
AcDbEntity
  8
1
  6
Continuous
100
AcDbLine
 10
48.558709
 20
240.0881249999999
 30
0.0
 11
49.28748399999999
 21
240.8169009999999
 31
0.0
  0
LINE
  5
1AA33
330
1A981
100
AcDbEntity
  8
1
  6
Continuous
100
AcDbLine
 10
49.417204
 20
240.0881249999999
 30
0.0
 11
48.943542
 21
240.5617869999999
 31
0.0
  0
LINE
  5
1AA34
330
1A981
100
AcDbEntity
  8
1
  6
Continuous
100
AcDbLine
 10
25.0
 20
254.096768
 30
0.0
 11
25.0
 21
256.9967679999999
 31
0.0
  0
LINE
  5
1AA35
330
1A981
100
AcDbEntity
  8
1
  6
Continuous
100
AcDbLine
 10
255.978771
 20
250.639767
 30
0.0
 11
199.0213889999999
 21
250.639767
 31
0.0
  0
LINE
  5
1AA36
330
1A981
100
AcDbEntity
  8
1
  6
Continuous
100
AcDbLine
 10
201.623153
 20
250.639767
 30
0.0
 11
202.52791
 21
248.658394
 31
0.0
  0
LINE
  5
1AA37
330
1A981
100
AcDbEntity
  8
1
  6
Continuous
100
AcDbLine
 10
253.377007
 20
250.639767
 30
0.0
 11
252.47225
 21
248.658394
 31
0.0
  0
ARC
  5
1AA38
330
1A981
100
AcDbEntity
  8
1
  6
Continuous
100
AcDbCircle
 10
203.0801349999999
 20
243.4558589999999
 30
0.0
 40
2.86247
100
AcDbArc
 50
88.60936599999998
 51
167.3499699999998
  0
LINE
  5
1AA39
330
1A981
100
AcDbEntity
  8
1
  6
Continuous
100
AcDbLine
 10
191.4301529999999
 20
243.692224
 30
0.0
 11
201.1496029999999
 21
243.692224
 31
0.0
  0
LINE
  5
1AA3A
330
1A981
100
AcDbEntity
  8
1
  6
Continuous
100
AcDbLine
 10
191.4301529999999
 20
241.092224
 30
0.0
 11
191.4301529999999
 21
243.692224
 31
0.0
  0
ARC
  5
1AA3B
330
1A981
100
AcDbEntity
  8
1
  6
Continuous
100
AcDbCircle
 10
199.7992849999999
 20
244.192224
 30
0.0
 40
0.5
100
AcDbArc
 50
270.0
 51
347.34997
  0
ARC
  5
1AA3C
330
1A981
100
AcDbEntity
  8
1
  6
Continuous
100
AcDbCircle
 10
255.506659
 20
258.660031
 30
0.0
 40
8.034175999999996
100
AcDbArc
 50
273.3722549999999
 51
325.3904129999999
  0
LINE
  5
1AA3D
330
1A981
100
AcDbEntity
  8
1
  6
Continuous
100
AcDbLine
 10
103.000153
 20
254.096768
 30
0.0
 11
25.0
 21
254.096768
 31
0.0
  0
LINE
  5
1AA3E
330
1A981
100
AcDbEntity
  8
1
  6
Continuous
100
AcDbLine
 10
266.5001559999998
 20
254.096768
 30
0.0
 11
188.5000039999999
 21
254.096768
 31
0.0
  0
LINE
  5
1AA3F
330
1A981
100
AcDbEntity
  8
1
  6
Continuous
100
AcDbLine
 10
92.47860000000001
 20
250.639767
 30
0.0
 11
35.521218
 21
250.639767
 31
0.0
  0
LINE
  5
1AA40
330
1A981
100
AcDbEntity
  8
1
  6
Continuous
100
AcDbLine
 10
89.87683599999998
 20
250.639767
 30
0.0
 11
88.97207899999997
 21
248.658394
 31
0.0
  0
LINE
  5
1AA41
330
1A981
100
AcDbEntity
  8
1
  6
Continuous
100
AcDbLine
 10
38.122982
 20
250.639767
 30
0.0
 11
39.02773899999999
 21
248.658394
 31
0.0
  0
LINE
  5
1AA42
330
1A981
100
AcDbEntity
  8
4
  6
CENTER
100
AcDbLine
 10
258.5003209999998
 20
259.896768
 30
0.0
 11
258.5003209999998
 21
251.196768
 31
0.0
  0
LINE
  5
1AA43
330
1A981
100
AcDbEntity
  8
4
  6
CENTER
100
AcDbLine
 10
196.5003209999999
 20
259.896768
 30
0.0
 11
196.5003209999999
 21
251.196768
 31
0.0
  0
LINE
  5
1AA44
330
1A981
100
AcDbEntity
  8
4
  6
CENTER
100
AcDbLine
 10
95.00015000000001
 20
259.896768
 30
0.0
 11
95.00015000000001
 21
251.196768
 31
0.0
  0
LINE
  5
1AA45
330
1A981
100
AcDbEntity
  8
4
  6
CENTER
100
AcDbLine
 10
33.00015
 20
259.896768
 30
0.0
 11
33.00015
 21
251.196768
 31
0.0
  0
LINE
  5
1AA46
330
1A981
100
AcDbEntity
  8
1
  6
Continuous
100
AcDbLine
 10
207.4727719999999
 20
246.3174859999998
 30
0.0
 11
209.8136799999998
 21
248.658394
 31
0.0
  0
LINE
  5
1AA47
330
1A981
100
AcDbEntity
  8
1
  6
Continuous
100
AcDbLine
 10
210.033269
 20
246.3174859999998
 30
0.0
 11
207.69236
 21
248.658394
 31
0.0
  0
LINE
  5
1AA48
330
1A981
100
AcDbEntity
  8
1
  6
Continuous
100
AcDbLine
 10
254.388321
 20
248.658394
 30
0.0
 11
200.612321
 21
248.658394
 31
0.0
  0
LINE
  5
1AA49
330
1A981
100
AcDbEntity
  8
1
  6
Continuous
100
AcDbLine
 10
254.388321
 20
246.3174859999998
 30
0.0
 11
200.612321
 21
246.3174859999998
 31
0.0
  0
LINE
  5
1AA4A
330
1A981
100
AcDbEntity
  8
1
  6
Continuous
100
AcDbLine
 10
207.911948
 20
246.3174859999998
 30
0.0
 11
205.5710399999999
 21
248.658394
 31
0.0
  0
LINE
  5
1AA4B
330
1A981
100
AcDbEntity
  8
1
  6
Continuous
100
AcDbLine
 10
200.612321
 20
247.942317
 30
0.0
 11
201.328399
 21
248.658394
 31
0.0
  0
LINE
  5
1AA4C
330
1A981
100
AcDbEntity
  8
1
  6
Continuous
100
AcDbLine
 10
200.612321
 20
248.658394
 30
0.0
 11
200.612321
 21
246.3174859999998
 31
0.0
  0
LINE
  5
1AA4D
330
1A981
100
AcDbEntity
  8
1
  6
Continuous
100
AcDbLine
 10
201.108811
 20
246.3174859999998
 30
0.0
 11
203.4497189999999
 21
248.658394
 31
0.0
  0
LINE
  5
1AA4E
330
1A981
100
AcDbEntity
  8
1
  6
Continuous
100
AcDbLine
 10
203.669308
 20
246.3174859999998
 30
0.0
 11
201.328399
 21
248.658394
 31
0.0
  0
LINE
  5
1AA4F
330
1A981
100
AcDbEntity
  8
1
  6
Continuous
100
AcDbLine
 10
203.230131
 20
246.3174859999998
 30
0.0
 11
205.5710399999999
 21
248.658394
 31
0.0
  0
LINE
  5
1AA50
330
1A981
100
AcDbEntity
  8
1
  6
Continuous
100
AcDbLine
 10
205.790628
 20
246.3174859999998
 30
0.0
 11
203.4497189999999
 21
248.658394
 31
0.0
  0
LINE
  5
1AA51
330
1A981
100
AcDbEntity
  8
1
  6
Continuous
100
AcDbLine
 10
205.3514509999998
 20
246.3174859999998
 30
0.0
 11
207.69236
 21
248.658394
 31
0.0
  0
LINE
  5
1AA52
330
1A981
100
AcDbEntity
  8
1
  6
Continuous
100
AcDbLine
 10
241.4138969999999
 20
246.3174859999998
 30
0.0
 11
243.754806
 21
248.658394
 31
0.0
  0
LINE
  5
1AA53
330
1A981
100
AcDbEntity
  8
1
  6
Continuous
100
AcDbLine
 10
243.974394
 20
246.3174859999998
 30
0.0
 11
241.633485
 21
248.658394
 31
0.0
  0
LINE
  5
1AA54
330
1A981
100
AcDbEntity
  8
1
  6
Continuous
100
AcDbLine
 10
224.443334
 20
246.3174859999998
 30
0.0
 11
226.7842429999999
 21
248.658394
 31
0.0
  0
LINE
  5
1AA55
330
1A981
100
AcDbEntity
  8
1
  6
Continuous
100
AcDbLine
 10
227.0038309999999
 20
246.3174859999998
 30
0.0
 11
224.6629229999999
 21
248.658394
 31
0.0
  0
LINE
  5
1AA56
330
1A981
100
AcDbEntity
  8
1
  6
Continuous
100
AcDbLine
 10
215.9580529999999
 20
246.3174859999998
 30
0.0
 11
218.2989619999999
 21
248.658394
 31
0.0
  0
LINE
  5
1AA57
330
1A981
100
AcDbEntity
  8
1
  6
Continuous
100
AcDbLine
 10
218.51855
 20
246.3174859999998
 30
0.0
 11
216.1776409999999
 21
248.658394
 31
0.0
  0
LINE
  5
1AA58
330
1A981
100
AcDbEntity
  8
1
  6
Continuous
100
AcDbLine
 10
218.0793729999999
 20
246.3174859999998
 30
0.0
 11
220.4202819999999
 21
248.658394
 31
0.0
  0
LINE
  5
1AA59
330
1A981
100
AcDbEntity
  8
1
  6
Continuous
100
AcDbLine
 10
220.63987
 20
246.3174859999998
 30
0.0
 11
218.2989619999999
 21
248.658394
 31
0.0
  0
LINE
  5
1AA5A
330
1A981
100
AcDbEntity
  8
1
  6
Continuous
100
AcDbLine
 10
220.2006939999999
 20
246.3174859999998
 30
0.0
 11
222.541602
 21
248.658394
 31
0.0
  0
LINE
  5
1AA5B
330
1A981
100
AcDbEntity
  8
1
  6
Continuous
100
AcDbLine
 10
222.761191
 20
246.3174859999998
 30
0.0
 11
220.4202819999999
 21
248.658394
 31
0.0
  0
LINE
  5
1AA5C
330
1A981
100
AcDbEntity
  8
1
  6
Continuous
100
AcDbLine
 10
222.322014
 20
246.3174859999998
 30
0.0
 11
224.6629229999999
 21
248.658394
 31
0.0
  0
LINE
  5
1AA5D
330
1A981
100
AcDbEntity
  8
1
  6
Continuous
100
AcDbLine
 10
224.8825109999999
 20
246.3174859999998
 30
0.0
 11
222.541602
 21
248.658394
 31
0.0
  0
LINE
  5
1AA5E
330
1A981
100
AcDbEntity
  8
1
  6
Continuous
100
AcDbLine
 10
209.5940919999999
 20
246.3174859999998
 30
0.0
 11
211.9350009999998
 21
248.658394
 31
0.0
  0
LINE
  5
1AA5F
330
1A981
100
AcDbEntity
  8
1
  6
Continuous
100
AcDbLine
 10
212.1545889999999
 20
246.3174859999998
 30
0.0
 11
209.8136799999998
 21
248.658394
 31
0.0
  0
LINE
  5
1AA60
330
1A981
100
AcDbEntity
  8
1
  6
Continuous
100
AcDbLine
 10
211.7154119999999
 20
246.3174859999998
 30
0.0
 11
214.0563209999999
 21
248.658394
 31
0.0
  0
LINE
  5
1AA61
330
1A981
100
AcDbEntity
  8
1
  6
Continuous
100
AcDbLine
 10
214.2759089999999
 20
246.3174859999998
 30
0.0
 11
211.9350009999998
 21
248.658394
 31
0.0
  0
LINE
  5
1AA62
330
1A981
100
AcDbEntity
  8
1
  6
Continuous
100
AcDbLine
 10
213.836733
 20
246.3174859999998
 30
0.0
 11
216.1776409999999
 21
248.658394
 31
0.0
  0
LINE
  5
1AA63
330
1A981
100
AcDbEntity
  8
1
  6
Continuous
100
AcDbLine
 10
216.3972299999998
 20
246.3174859999998
 30
0.0
 11
214.0563209999999
 21
248.658394
 31
0.0
  0
LINE
  5
1AA64
330
1A981
100
AcDbEntity
  8
1
  6
Continuous
100
AcDbLine
 10
235.0499359999998
 20
246.3174859999998
 30
0.0
 11
237.390845
 21
248.658394
 31
0.0
  0
LINE
  5
1AA65
330
1A981
100
AcDbEntity
  8
1
  6
Continuous
100
AcDbLine
 10
237.6104329999999
 20
246.3174859999998
 30
0.0
 11
235.269524
 21
248.658394
 31
0.0
  0
LINE
  5
1AA66
330
1A981
100
AcDbEntity
  8
1
  6
Continuous
100
AcDbLine
 10
237.171256
 20
246.3174859999998
 30
0.0
 11
239.5121649999999
 21
248.658394
 31
0.0
  0
LINE
  5
1AA67
330
1A981
100
AcDbEntity
  8
1
  6
Continuous
100
AcDbLine
 10
239.7317529999999
 20
246.3174859999998
 30
0.0
 11
237.390845
 21
248.658394
 31
0.0
  0
LINE
  5
1AA68
330
1A981
100
AcDbEntity
  8
1
  6
Continuous
100
AcDbLine
 10
239.292577
 20
246.3174859999998
 30
0.0
 11
241.633485
 21
248.658394
 31
0.0
  0
LINE
  5
1AA69
330
1A981
100
AcDbEntity
  8
1
  6
Continuous
100
AcDbLine
 10
241.853074
 20
246.3174859999998
 30
0.0
 11
239.5121649999999
 21
248.658394
 31
0.0
  0
LINE
  5
1AA6A
330
1A981
100
AcDbEntity
  8
1
  6
Continuous
100
AcDbLine
 10
226.564655
 20
246.3174859999998
 30
0.0
 11
228.905563
 21
248.658394
 31
0.0
  0
LINE
  5
1AA6B
330
1A981
100
AcDbEntity
  8
1
  6
Continuous
100
AcDbLine
 10
229.125152
 20
246.3174859999998
 30
0.0
 11
226.7842429999999
 21
248.658394
 31
0.0
  0
LINE
  5
1AA6C
330
1A981
100
AcDbEntity
  8
1
  6
Continuous
100
AcDbLine
 10
228.685975
 20
246.3174859999998
 30
0.0
 11
231.0268839999999
 21
248.658394
 31
0.0
  0
LINE
  5
1AA6D
330
1A981
100
AcDbEntity
  8
1
  6
Continuous
100
AcDbLine
 10
231.246472
 20
246.3174859999998
 30
0.0
 11
228.905563
 21
248.658394
 31
0.0
  0
LINE
  5
1AA6E
330
1A981
100
AcDbEntity
  8
1
  6
Continuous
100
AcDbLine
 10
230.807295
 20
246.3174859999998
 30
0.0
 11
233.148204
 21
248.658394
 31
0.0
  0
LINE
  5
1AA6F
330
1A981
100
AcDbEntity
  8
1
  6
Continuous
100
AcDbLine
 10
233.3677919999999
 20
246.3174859999998
 30
0.0
 11
231.0268839999999
 21
248.658394
 31
0.0
  0
LINE
  5
1AA70
330
1A981
100
AcDbEntity
  8
1
  6
Continuous
100
AcDbLine
 10
232.928616
 20
246.3174859999998
 30
0.0
 11
235.269524
 21
248.658394
 31
0.0
  0
LINE
  5
1AA71
330
1A981
100
AcDbEntity
  8
1
  6
Continuous
100
AcDbLine
 10
235.4891129999999
 20
246.3174859999998
 30
0.0
 11
233.148204
 21
248.658394
 31
0.0
  0
LINE
  5
1AA72
330
1A981
100
AcDbEntity
  8
1
  6
Continuous
100
AcDbLine
 10
254.388321
 20
248.631481
 30
0.0
 11
254.3614069999999
 21
248.658394
 31
0.0
  0
LINE
  5
1AA73
330
1A981
100
AcDbEntity
  8
1
  6
Continuous
100
AcDbLine
 10
243.5352169999999
 20
246.3174859999998
 30
0.0
 11
245.8761259999999
 21
248.658394
 31
0.0
  0
LINE
  5
1AA74
330
1A981
100
AcDbEntity
  8
1
  6
Continuous
100
AcDbLine
 10
246.095714
 20
246.3174859999998
 30
0.0
 11
243.754806
 21
248.658394
 31
0.0
  0
LINE
  5
1AA75
330
1A981
100
AcDbEntity
  8
1
  6
Continuous
100
AcDbLine
 10
245.6565379999999
 20
246.3174859999998
 30
0.0
 11
247.997446
 21
248.658394
 31
0.0
  0
LINE
  5
1AA76
330
1A981
100
AcDbEntity
  8
1
  6
Continuous
100
AcDbLine
 10
248.217035
 20
246.3174859999998
 30
0.0
 11
245.8761259999999
 21
248.658394
 31
0.0
  0
LINE
  5
1AA77
330
1A981
100
AcDbEntity
  8
1
  6
Continuous
100
AcDbLine
 10
247.777858
 20
246.3174859999998
 30
0.0
 11
250.1187669999999
 21
248.658394
 31
0.0
  0
LINE
  5
1AA78
330
1A981
100
AcDbEntity
  8
1
  6
Continuous
100
AcDbLine
 10
254.388321
 20
248.658394
 30
0.0
 11
254.388321
 21
246.3174859999998
 31
0.0
  0
LINE
  5
1AA79
330
1A981
100
AcDbEntity
  8
1
  6
Continuous
100
AcDbLine
 10
249.8991779999998
 20
246.3174859999998
 30
0.0
 11
252.2400869999999
 21
248.658394
 31
0.0
  0
LINE
  5
1AA7A
330
1A981
100
AcDbEntity
  8
1
  6
Continuous
100
AcDbLine
 10
250.3383549999998
 20
246.3174859999998
 30
0.0
 11
247.997446
 21
248.658394
 31
0.0
  0
LINE
  5
1AA7B
330
1A981
100
AcDbEntity
  8
1
  6
Continuous
100
AcDbLine
 10
252.459675
 20
246.3174859999998
 30
0.0
 11
250.1187669999999
 21
248.658394
 31
0.0
  0
LINE
  5
1AA7C
330
1A981
100
AcDbEntity
  8
1
  6
Continuous
100
AcDbLine
 10
252.020499
 20
246.3174859999998
 30
0.0
 11
254.3614069999999
 21
248.658394
 31
0.0
  0
LINE
  5
1AA7D
330
1A981
100
AcDbEntity
  8
1
  6
Continuous
100
AcDbLine
 10
254.388321
 20
246.5101619999999
 30
0.0
 11
252.2400869999999
 21
248.658394
 31
0.0
  0
LINE
  5
1AA7E
330
1A981
100
AcDbEntity
  8
1
  6
Continuous
100
AcDbLine
 10
50.77573799999999
 20
246.3174859999998
 30
0.0
 11
48.43482999999999
 21
248.658394
 31
0.0
  0
LINE
  5
1AA7F
330
1A981
100
AcDbEntity
  8
1
  6
Continuous
100
AcDbLine
 10
48.215241
 20
246.3174859999998
 30
0.0
 11
50.55615
 21
248.658394
 31
0.0
  0
LINE
  5
1AA80
330
1A981
100
AcDbEntity
  8
1
  6
Continuous
100
AcDbLine
 10
90.88815
 20
246.3174859999998
 30
0.0
 11
37.11215
 21
246.3174859999998
 31
0.0
  0
LINE
  5
1AA81
330
1A981
100
AcDbEntity
  8
1
  6
Continuous
100
AcDbLine
 10
90.88815
 20
248.658394
 30
0.0
 11
37.11215
 21
248.658394
 31
0.0
  0
LINE
  5
1AA82
330
1A981
100
AcDbEntity
  8
1
  6
Continuous
100
AcDbLine
 10
48.654418
 20
246.3174859999998
 30
0.0
 11
46.313509
 21
248.658394
 31
0.0
  0
LINE
  5
1AA83
330
1A981
100
AcDbEntity
  8
1
  6
Continuous
100
AcDbLine
 10
46.09392099999999
 20
246.3174859999998
 30
0.0
 11
48.43482999999999
 21
248.658394
 31
0.0
  0
LINE
  5
1AA84
330
1A981
100
AcDbEntity
  8
1
  6
Continuous
100
AcDbLine
 10
41.85127999999997
 20
246.3174859999998
 30
0.0
 11
44.19218899999999
 21
248.658394
 31
0.0
  0
LINE
  5
1AA85
330
1A981
100
AcDbEntity
  8
1
  6
Continuous
100
AcDbLine
 10
42.290457
 20
246.3174859999998
 30
0.0
 11
39.949548
 21
248.658394
 31
0.0
  0
LINE
  5
1AA86
330
1A981
100
AcDbEntity
  8
1
  6
Continuous
100
AcDbLine
 10
39.72996
 20
246.3174859999998
 30
0.0
 11
42.070869
 21
248.658394
 31
0.0
  0
LINE
  5
1AA87
330
1A981
100
AcDbEntity
  8
1
  6
Continuous
100
AcDbLine
 10
40.16913699999999
 20
246.3174859999998
 30
0.0
 11
37.828228
 21
248.658394
 31
0.0
  0
LINE
  5
1AA88
330
1A981
100
AcDbEntity
  8
1
  6
Continuous
100
AcDbLine
 10
37.60864
 20
246.3174859999998
 30
0.0
 11
39.949548
 21
248.658394
 31
0.0
  0
LINE
  5
1AA89
330
1A981
100
AcDbEntity
  8
1
  6
Continuous
100
AcDbLine
 10
37.11215
 20
248.658394
 30
0.0
 11
37.11215
 21
246.3174859999998
 31
0.0
  0
LINE
  5
1AA8A
330
1A981
100
AcDbEntity
  8
1
  6
Continuous
100
AcDbLine
 10
37.11215
 20
247.942317
 30
0.0
 11
37.828228
 21
248.658394
 31
0.0
  0
LINE
  5
1AA8B
330
1A981
100
AcDbEntity
  8
1
  6
Continuous
100
AcDbLine
 10
44.41177699999999
 20
246.3174859999998
 30
0.0
 11
42.070869
 21
248.658394
 31
0.0
  0
LINE
  5
1AA8C
330
1A981
100
AcDbEntity
  8
1
  6
Continuous
100
AcDbLine
 10
46.53309799999997
 20
246.3174859999998
 30
0.0
 11
44.19218899999999
 21
248.658394
 31
0.0
  0
LINE
  5
1AA8D
330
1A981
100
AcDbEntity
  8
1
  6
Continuous
100
AcDbLine
 10
43.97260099999999
 20
246.3174859999998
 30
0.0
 11
46.313509
 21
248.658394
 31
0.0
  0
LINE
  5
1AA8E
330
1A981
100
AcDbEntity
  8
1
  6
Continuous
100
AcDbLine
 10
84.71686400000001
 20
246.3174859999998
 30
0.0
 11
82.37595500000002
 21
248.658394
 31
0.0
  0
LINE
  5
1AA8F
330
1A981
100
AcDbEntity
  8
1
  6
Continuous
100
AcDbLine
 10
82.15636700000002
 20
246.3174859999998
 30
0.0
 11
84.49727499999999
 21
248.658394
 31
0.0
  0
LINE
  5
1AA90
330
1A981
100
AcDbEntity
  8
1
  6
Continuous
100
AcDbLine
 10
67.746301
 20
246.3174859999998
 30
0.0
 11
65.40539200000001
 21
248.658394
 31
0.0
  0
LINE
  5
1AA91
330
1A981
100
AcDbEntity
  8
1
  6
Continuous
100
AcDbLine
 10
65.18580400000001
 20
246.3174859999998
 30
0.0
 11
67.526713
 21
248.658394
 31
0.0
  0
LINE
  5
1AA92
330
1A981
100
AcDbEntity
  8
1
  6
Continuous
100
AcDbLine
 10
65.624981
 20
246.3174859999998
 30
0.0
 11
63.284072
 21
248.658394
 31
0.0
  0
LINE
  5
1AA93
330
1A981
100
AcDbEntity
  8
1
  6
Continuous
100
AcDbLine
 10
63.064484
 20
246.3174859999998
 30
0.0
 11
65.40539200000001
 21
248.658394
 31
0.0
  0
LINE
  5
1AA94
330
1A981
100
AcDbEntity
  8
1
  6
Continuous
100
AcDbLine
 10
52.897059
 20
246.3174859999998
 30
0.0
 11
50.55615
 21
248.658394
 31
0.0
  0
LINE
  5
1AA95
330
1A981
100
AcDbEntity
  8
1
  6
Continuous
100
AcDbLine
 10
50.336562
 20
246.3174859999998
 30
0.0
 11
52.67746999999999
 21
248.658394
 31
0.0
  0
LINE
  5
1AA96
330
1A981
100
AcDbEntity
  8
1
  6
Continuous
100
AcDbLine
 10
61.38234
 20
246.3174859999998
 30
0.0
 11
59.041431
 21
248.658394
 31
0.0
  0
LINE
  5
1AA97
330
1A981
100
AcDbEntity
  8
1
  6
Continuous
100
AcDbLine
 10
58.82184300000001
 20
246.3174859999998
 30
0.0
 11
61.162752
 21
248.658394
 31
0.0
  0
LINE
  5
1AA98
330
1A981
100
AcDbEntity
  8
1
  6
Continuous
100
AcDbLine
 10
59.26102
 20
246.3174859999998
 30
0.0
 11
56.920111
 21
248.658394
 31
0.0
  0
LINE
  5
1AA99
330
1A981
100
AcDbEntity
  8
1
  6
Continuous
100
AcDbLine
 10
56.700523
 20
246.3174859999998
 30
0.0
 11
59.041431
 21
248.658394
 31
0.0
  0
LINE
  5
1AA9A
330
1A981
100
AcDbEntity
  8
1
  6
Continuous
100
AcDbLine
 10
57.139699
 20
246.3174859999998
 30
0.0
 11
54.798791
 21
248.658394
 31
0.0
  0
LINE
  5
1AA9B
330
1A981
100
AcDbEntity
  8
1
  6
Continuous
100
AcDbLine
 10
54.579202
 20
246.3174859999998
 30
0.0
 11
56.920111
 21
248.658394
 31
0.0
  0
LINE
  5
1AA9C
330
1A981
100
AcDbEntity
  8
1
  6
Continuous
100
AcDbLine
 10
55.018379
 20
246.3174859999998
 30
0.0
 11
52.67746999999999
 21
248.658394
 31
0.0
  0
LINE
  5
1AA9D
330
1A981
100
AcDbEntity
  8
1
  6
Continuous
100
AcDbLine
 10
52.45788199999999
 20
246.3174859999998
 30
0.0
 11
54.798791
 21
248.658394
 31
0.0
  0
LINE
  5
1AA9E
330
1A981
100
AcDbEntity
  8
1
  6
Continuous
100
AcDbLine
 10
63.50366000000001
 20
246.3174859999998
 30
0.0
 11
61.162752
 21
248.658394
 31
0.0
  0
LINE
  5
1AA9F
330
1A981
100
AcDbEntity
  8
1
  6
Continuous
100
AcDbLine
 10
60.943163
 20
246.3174859999998
 30
0.0
 11
63.284072
 21
248.658394
 31
0.0
  0
LINE
  5
1AAA0
330
1A981
100
AcDbEntity
  8
1
  6
Continuous
100
AcDbLine
 10
82.59554300000003
 20
246.3174859999998
 30
0.0
 11
80.25463499999998
 21
248.658394
 31
0.0
  0
LINE
  5
1AAA1
330
1A981
100
AcDbEntity
  8
1
  6
Continuous
100
AcDbLine
 10
80.03504599999997
 20
246.3174859999998
 30
0.0
 11
82.37595500000002
 21
248.658394
 31
0.0
  0
LINE
  5
1AAA2
330
1A981
100
AcDbEntity
  8
1
  6
Continuous
100
AcDbLine
 10
71.98894200000002
 20
246.3174859999998
 30
0.0
 11
69.64803299999998
 21
248.658394
 31
0.0
  0
LINE
  5
1AAA3
330
1A981
100
AcDbEntity
  8
1
  6
Continuous
100
AcDbLine
 10
69.42844499999999
 20
246.3174859999998
 30
0.0
 11
71.76935300000002
 21
248.658394
 31
0.0
  0
LINE
  5
1AAA4
330
1A981
100
AcDbEntity
  8
1
  6
Continuous
100
AcDbLine
 10
69.86762099999999
 20
246.3174859999998
 30
0.0
 11
67.526713
 21
248.658394
 31
0.0
  0
LINE
  5
1AAA5
330
1A981
100
AcDbEntity
  8
1
  6
Continuous
100
AcDbLine
 10
67.307124
 20
246.3174859999998
 30
0.0
 11
69.64803299999998
 21
248.658394
 31
0.0
  0
LINE
  5
1AAA6
330
1A981
100
AcDbEntity
  8
1
  6
Continuous
100
AcDbLine
 10
78.352903
 20
246.3174859999998
 30
0.0
 11
76.011994
 21
248.658394
 31
0.0
  0
LINE
  5
1AAA7
330
1A981
100
AcDbEntity
  8
1
  6
Continuous
100
AcDbLine
 10
75.792406
 20
246.3174859999998
 30
0.0
 11
78.133314
 21
248.658394
 31
0.0
  0
LINE
  5
1AAA8
330
1A981
100
AcDbEntity
  8
1
  6
Continuous
100
AcDbLine
 10
76.23158199999997
 20
246.3174859999998
 30
0.0
 11
73.890674
 21
248.658394
 31
0.0
  0
LINE
  5
1AAA9
330
1A981
100
AcDbEntity
  8
1
  6
Continuous
100
AcDbLine
 10
73.67108499999997
 20
246.3174859999998
 30
0.0
 11
76.011994
 21
248.658394
 31
0.0
  0
LINE
  5
1AAAA
330
1A981
100
AcDbEntity
  8
1
  6
Continuous
100
AcDbLine
 10
74.11026200000002
 20
246.3174859999998
 30
0.0
 11
71.76935300000002
 21
248.658394
 31
0.0
  0
LINE
  5
1AAAB
330
1A981
100
AcDbEntity
  8
1
  6
Continuous
100
AcDbLine
 10
71.549765
 20
246.3174859999998
 30
0.0
 11
73.890674
 21
248.658394
 31
0.0
  0
LINE
  5
1AAAC
330
1A981
100
AcDbEntity
  8
1
  6
Continuous
100
AcDbLine
 10
80.47422299999999
 20
246.3174859999998
 30
0.0
 11
78.133314
 21
248.658394
 31
0.0
  0
LINE
  5
1AAAD
330
1A981
100
AcDbEntity
  8
1
  6
Continuous
100
AcDbLine
 10
77.91372599999998
 20
246.3174859999998
 30
0.0
 11
80.25463499999998
 21
248.658394
 31
0.0
  0
LINE
  5
1AAAE
330
1A981
100
AcDbEntity
  8
1
  6
Continuous
100
AcDbLine
 10
90.88815
 20
246.5101619999999
 30
0.0
 11
88.73991600000001
 21
248.658394
 31
0.0
  0
LINE
  5
1AAAF
330
1A981
100
AcDbEntity
  8
1
  6
Continuous
100
AcDbLine
 10
88.52032800000001
 20
246.3174859999998
 30
0.0
 11
90.861236
 21
248.658394
 31
0.0
  0
LINE
  5
1AAB0
330
1A981
100
AcDbEntity
  8
1
  6
Continuous
100
AcDbLine
 10
88.95950400000002
 20
246.3174859999998
 30
0.0
 11
86.61859599999997
 21
248.658394
 31
0.0
  0
LINE
  5
1AAB1
330
1A981
100
AcDbEntity
  8
1
  6
Continuous
100
AcDbLine
 10
86.83818399999998
 20
246.3174859999998
 30
0.0
 11
84.49727499999999
 21
248.658394
 31
0.0
  0
LINE
  5
1AAB2
330
1A981
100
AcDbEntity
  8
1
  6
Continuous
100
AcDbLine
 10
86.39900699999998
 20
246.3174859999998
 30
0.0
 11
88.73991600000001
 21
248.658394
 31
0.0
  0
LINE
  5
1AAB3
330
1A981
100
AcDbEntity
  8
1
  6
Continuous
100
AcDbLine
 10
90.88815
 20
248.658394
 30
0.0
 11
90.88815
 21
246.3174859999998
 31
0.0
  0
LINE
  5
1AAB4
330
1A981
100
AcDbEntity
  8
1
  6
Continuous
100
AcDbLine
 10
84.27768699999999
 20
246.3174859999998
 30
0.0
 11
86.61859599999997
 21
248.658394
 31
0.0
  0
LINE
  5
1AAB5
330
1A981
100
AcDbEntity
  8
1
  6
Continuous
100
AcDbLine
 10
90.88815
 20
248.631481
 30
0.0
 11
90.861236
 21
248.658394
 31
0.0
  0
LINE
  5
1AAB6
330
1A981
100
AcDbEntity
  8
4
  6
CENTER
100
AcDbLine
 10
365.500306
 20
261.9967679999999
 30
0.0
 11
365.500306
 21
153.997003
 31
0.0
  0
LINE
  5
1AAB7
330
1A981
100
AcDbEntity
  8
1
  6
Continuous
100
AcDbLine
 10
341.230116
 20
246.3174859999998
 30
0.0
 11
343.571025
 21
248.658394
 31
0.0
  0
LINE
  5
1AAB8
330
1A981
100
AcDbEntity
  8
1
  6
Continuous
100
AcDbLine
 10
343.790613
 20
246.3174859999998
 30
0.0
 11
341.449704
 21
248.658394
 31
0.0
  0
LINE
  5
1AAB9
330
1A981
100
AcDbEntity
  8
1
  6
Continuous
100
AcDbLine
 10
343.3514359999999
 20
246.3174859999998
 30
0.0
 11
345.6923450000001
 21
248.658394
 31
0.0
  0
LINE
  5
1AABA
330
1A981
100
AcDbEntity
  8
1
  6
Continuous
100
AcDbLine
 10
392.388306
 20
248.658394
 30
0.0
 11
338.612306
 21
248.658394
 31
0.0
  0
LINE
  5
1AABB
330
1A981
100
AcDbEntity
  8
1
  6
Continuous
100
AcDbLine
 10
392.388306
 20
246.3174859999998
 30
0.0
 11
338.612306
 21
246.3174859999998
 31
0.0
  0
LINE
  5
1AABC
330
1A981
100
AcDbEntity
  8
1
  6
Continuous
100
AcDbLine
 10
393.9787559999999
 20
250.639767
 30
0.0
 11
337.021374
 21
250.639767
 31
0.0
  0
LINE
  5
1AABD
330
1A981
100
AcDbEntity
  8
1
  6
Continuous
100
AcDbLine
 10
404.5003089999998
 20
254.096768
 30
0.0
 11
326.5001559999999
 21
254.096768
 31
0.0
  0
LINE
  5
1AABE
330
1A981
100
AcDbEntity
  8
1
  6
Continuous
100
AcDbLine
 10
404.5003089999998
 20
256.9967679999999
 30
0.0
 11
326.5001559999999
 21
256.9967679999999
 31
0.0
  0
LINE
  5
1AABF
330
1A981
100
AcDbEntity
  8
4
  6
CENTER
100
AcDbLine
 10
334.500306
 20
259.896768
 30
0.0
 11
334.500306
 21
251.196768
 31
0.0
  0
LINE
  5
1AAC0
330
1A981
100
AcDbEntity
  8
1
  6
Continuous
100
AcDbLine
 10
326.5001559999999
 20
254.096768
 30
0.0
 11
326.5001559999999
 21
256.9967679999999
 31
0.0
  0
LINE
  5
1AAC1
330
1A981
100
AcDbEntity
  8
1
  6
Continuous
100
AcDbLine
 10
338.612306
 20
247.942317
 30
0.0
 11
339.3283839999999
 21
248.658394
 31
0.0
  0
LINE
  5
1AAC2
330
1A981
100
AcDbEntity
  8
1
  6
Continuous
100
AcDbLine
 10
338.612306
 20
248.658394
 30
0.0
 11
338.612306
 21
246.3174859999998
 31
0.0
  0
LINE
  5
1AAC3
330
1A981
100
AcDbEntity
  8
1
  6
Continuous
100
AcDbLine
 10
339.108796
 20
246.3174859999998
 30
0.0
 11
341.449704
 21
248.658394
 31
0.0
  0
LINE
  5
1AAC4
330
1A981
100
AcDbEntity
  8
1
  6
Continuous
100
AcDbLine
 10
341.6692929999999
 20
246.3174859999998
 30
0.0
 11
339.3283839999999
 21
248.658394
 31
0.0
  0
LINE
  5
1AAC5
330
1A981
100
AcDbEntity
  8
1
  6
Continuous
100
AcDbLine
 10
339.6231379999999
 20
250.639767
 30
0.0
 11
340.527895
 21
248.658394
 31
0.0
  0
LINE
  5
1AAC6
330
1A981
100
AcDbEntity
  8
4
  6
CENTER
100
AcDbLine
 10
396.500306
 20
259.896768
 30
0.0
 11
396.500306
 21
251.196768
 31
0.0
  0
LINE
  5
1AAC7
330
1A981
100
AcDbEntity
  8
1
  6
Continuous
100
AcDbLine
 10
404.5003089999998
 20
254.096768
 30
0.0
 11
404.5003089999998
 21
256.9967679999999
 31
0.0
  0
LINE
  5
1AAC8
330
1A981
100
AcDbEntity
  8
1
  6
Continuous
100
AcDbLine
 10
377.2925619999999
 20
246.3174859999998
 30
0.0
 11
379.63347
 21
248.658394
 31
0.0
  0
LINE
  5
1AAC9
330
1A981
100
AcDbEntity
  8
1
  6
Continuous
100
AcDbLine
 10
379.8530589999999
 20
246.3174859999998
 30
0.0
 11
377.51215
 21
248.658394
 31
0.0
  0
LINE
  5
1AACA
330
1A981
100
AcDbEntity
  8
1
  6
Continuous
100
AcDbLine
 10
360.7611759999999
 20
246.3174859999998
 30
0.0
 11
358.4202669999998
 21
248.658394
 31
0.0
  0
LINE
  5
1AACB
330
1A981
100
AcDbEntity
  8
1
  6
Continuous
100
AcDbLine
 10
360.3219989999999
 20
246.3174859999998
 30
0.0
 11
362.662908
 21
248.658394
 31
0.0
  0
LINE
  5
1AACC
330
1A981
100
AcDbEntity
  8
1
  6
Continuous
100
AcDbLine
 10
362.882496
 20
246.3174859999998
 30
0.0
 11
360.5415869999998
 21
248.658394
 31
0.0
  0
LINE
  5
1AACD
330
1A981
100
AcDbEntity
  8
1
  6
Continuous
100
AcDbLine
 10
353.9580379999999
 20
246.3174859999998
 30
0.0
 11
356.298947
 21
248.658394
 31
0.0
  0
LINE
  5
1AACE
330
1A981
100
AcDbEntity
  8
1
  6
Continuous
100
AcDbLine
 10
356.518535
 20
246.3174859999998
 30
0.0
 11
354.1776259999999
 21
248.658394
 31
0.0
  0
LINE
  5
1AACF
330
1A981
100
AcDbEntity
  8
1
  6
Continuous
100
AcDbLine
 10
356.079358
 20
246.3174859999998
 30
0.0
 11
358.4202669999998
 21
248.658394
 31
0.0
  0
LINE
  5
1AAD0
330
1A981
100
AcDbEntity
  8
1
  6
Continuous
100
AcDbLine
 10
358.6398549999998
 20
246.3174859999998
 30
0.0
 11
356.298947
 21
248.658394
 31
0.0
  0
LINE
  5
1AAD1
330
1A981
100
AcDbEntity
  8
1
  6
Continuous
100
AcDbLine
 10
358.2006789999998
 20
246.3174859999998
 30
0.0
 11
360.5415869999998
 21
248.658394
 31
0.0
  0
LINE
  5
1AAD2
330
1A981
100
AcDbEntity
  8
1
  6
Continuous
100
AcDbLine
 10
351.836718
 20
246.3174859999998
 30
0.0
 11
354.1776259999999
 21
248.658394
 31
0.0
  0
LINE
  5
1AAD3
330
1A981
100
AcDbEntity
  8
1
  6
Continuous
100
AcDbLine
 10
354.397215
 20
246.3174859999998
 30
0.0
 11
352.056306
 21
248.658394
 31
0.0
  0
LINE
  5
1AAD4
330
1A981
100
AcDbEntity
  8
1
  6
Continuous
100
AcDbLine
 10
345.472757
 20
246.3174859999998
 30
0.0
 11
347.813665
 21
248.658394
 31
0.0
  0
LINE
  5
1AAD5
330
1A981
100
AcDbEntity
  8
1
  6
Continuous
100
AcDbLine
 10
348.033254
 20
246.3174859999998
 30
0.0
 11
345.6923450000001
 21
248.658394
 31
0.0
  0
LINE
  5
1AAD6
330
1A981
100
AcDbEntity
  8
1
  6
Continuous
100
AcDbLine
 10
345.911933
 20
246.3174859999998
 30
0.0
 11
343.571025
 21
248.658394
 31
0.0
  0
LINE
  5
1AAD7
330
1A981
100
AcDbEntity
  8
1
  6
Continuous
100
AcDbLine
 10
347.5940770000002
 20
246.3174859999998
 30
0.0
 11
349.9349859999999
 21
248.658394
 31
0.0
  0
LINE
  5
1AAD8
330
1A981
100
AcDbEntity
  8
1
  6
Continuous
100
AcDbLine
 10
350.154574
 20
246.3174859999998
 30
0.0
 11
347.813665
 21
248.658394
 31
0.0
  0
LINE
  5
1AAD9
330
1A981
100
AcDbEntity
  8
1
  6
Continuous
100
AcDbLine
 10
349.7153969999998
 20
246.3174859999998
 30
0.0
 11
352.056306
 21
248.658394
 31
0.0
  0
LINE
  5
1AADA
330
1A981
100
AcDbEntity
  8
1
  6
Continuous
100
AcDbLine
 10
352.275894
 20
246.3174859999998
 30
0.0
 11
349.9349859999999
 21
248.658394
 31
0.0
  0
LINE
  5
1AADB
330
1A981
100
AcDbEntity
  8
1
  6
Continuous
100
AcDbLine
 10
373.049921
 20
246.3174859999998
 30
0.0
 11
375.3908299999998
 21
248.658394
 31
0.0
  0
LINE
  5
1AADC
330
1A981
100
AcDbEntity
  8
1
  6
Continuous
100
AcDbLine
 10
375.6104179999999
 20
246.3174859999998
 30
0.0
 11
373.2695089999999
 21
248.658394
 31
0.0
  0
LINE
  5
1AADD
330
1A981
100
AcDbEntity
  8
1
  6
Continuous
100
AcDbLine
 10
375.171241
 20
246.3174859999998
 30
0.0
 11
377.51215
 21
248.658394
 31
0.0
  0
LINE
  5
1AADE
330
1A981
100
AcDbEntity
  8
1
  6
Continuous
100
AcDbLine
 10
377.7317379999999
 20
246.3174859999998
 30
0.0
 11
375.3908299999998
 21
248.658394
 31
0.0
  0
LINE
  5
1AADF
330
1A981
100
AcDbEntity
  8
1
  6
Continuous
100
AcDbLine
 10
368.80728
 20
246.3174859999998
 30
0.0
 11
371.1481889999998
 21
248.658394
 31
0.0
  0
LINE
  5
1AAE0
330
1A981
100
AcDbEntity
  8
1
  6
Continuous
100
AcDbLine
 10
371.3677769999998
 20
246.3174859999998
 30
0.0
 11
369.0268689999999
 21
248.658394
 31
0.0
  0
LINE
  5
1AAE1
330
1A981
100
AcDbEntity
  8
1
  6
Continuous
100
AcDbLine
 10
370.9286009999999
 20
246.3174859999998
 30
0.0
 11
373.2695089999999
 21
248.658394
 31
0.0
  0
LINE
  5
1AAE2
330
1A981
100
AcDbEntity
  8
1
  6
Continuous
100
AcDbLine
 10
373.489098
 20
246.3174859999998
 30
0.0
 11
371.1481889999998
 21
248.658394
 31
0.0
  0
LINE
  5
1AAE3
330
1A981
100
AcDbEntity
  8
1
  6
Continuous
100
AcDbLine
 10
362.4433189999999
 20
246.3174859999998
 30
0.0
 11
364.7842279999999
 21
248.658394
 31
0.0
  0
LINE
  5
1AAE4
330
1A981
100
AcDbEntity
  8
1
  6
Continuous
100
AcDbLine
 10
365.0038159999998
 20
246.3174859999998
 30
0.0
 11
362.662908
 21
248.658394
 31
0.0
  0
LINE
  5
1AAE5
330
1A981
100
AcDbEntity
  8
1
  6
Continuous
100
AcDbLine
 10
364.5646399999998
 20
246.3174859999998
 30
0.0
 11
366.905548
 21
248.658394
 31
0.0
  0
LINE
  5
1AAE6
330
1A981
100
AcDbEntity
  8
1
  6
Continuous
100
AcDbLine
 10
367.125137
 20
246.3174859999998
 30
0.0
 11
364.7842279999999
 21
248.658394
 31
0.0
  0
LINE
  5
1AAE7
330
1A981
100
AcDbEntity
  8
1
  6
Continuous
100
AcDbLine
 10
366.68596
 20
246.3174859999998
 30
0.0
 11
369.0268689999999
 21
248.658394
 31
0.0
  0
LINE
  5
1AAE8
330
1A981
100
AcDbEntity
  8
1
  6
Continuous
100
AcDbLine
 10
369.2464569999998
 20
246.3174859999998
 30
0.0
 11
366.905548
 21
248.658394
 31
0.0
  0
LINE
  5
1AAE9
330
1A981
100
AcDbEntity
  8
1
  6
Continuous
100
AcDbLine
 10
392.388306
 20
248.631481
 30
0.0
 11
392.3613919999998
 21
248.658394
 31
0.0
  0
LINE
  5
1AAEA
330
1A981
100
AcDbEntity
  8
1
  6
Continuous
100
AcDbLine
 10
385.777843
 20
246.3174859999998
 30
0.0
 11
388.1187519999999
 21
248.658394
 31
0.0
  0
LINE
  5
1AAEB
330
1A981
100
AcDbEntity
  8
1
  6
Continuous
100
AcDbLine
 10
392.388306
 20
248.658394
 30
0.0
 11
392.388306
 21
246.3174859999998
 31
0.0
  0
LINE
  5
1AAEC
330
1A981
100
AcDbEntity
  8
1
  6
Continuous
100
AcDbLine
 10
387.8991629999999
 20
246.3174859999998
 30
0.0
 11
390.240072
 21
248.658394
 31
0.0
  0
LINE
  5
1AAED
330
1A981
100
AcDbEntity
  8
1
  6
Continuous
100
AcDbLine
 10
388.3383399999999
 20
246.3174859999998
 30
0.0
 11
385.997431
 21
248.658394
 31
0.0
  0
LINE
  5
1AAEE
330
1A981
100
AcDbEntity
  8
1
  6
Continuous
100
AcDbLine
 10
390.4596599999999
 20
246.3174859999998
 30
0.0
 11
388.1187519999999
 21
248.658394
 31
0.0
  0
LINE
  5
1AAEF
330
1A981
100
AcDbEntity
  8
1
  6
Continuous
100
AcDbLine
 10
390.020484
 20
246.3174859999998
 30
0.0
 11
392.3613919999998
 21
248.658394
 31
0.0
  0
LINE
  5
1AAF0
330
1A981
100
AcDbEntity
  8
1
  6
Continuous
100
AcDbLine
 10
392.388306
 20
246.5101619999999
 30
0.0
 11
390.240072
 21
248.658394
 31
0.0
  0
LINE
  5
1AAF1
330
1A981
100
AcDbEntity
  8
1
  6
Continuous
100
AcDbLine
 10
379.413882
 20
246.3174859999998
 30
0.0
 11
381.754791
 21
248.658394
 31
0.0
  0
LINE
  5
1AAF2
330
1A981
100
AcDbEntity
  8
1
  6
Continuous
100
AcDbLine
 10
381.974379
 20
246.3174859999998
 30
0.0
 11
379.63347
 21
248.658394
 31
0.0
  0
LINE
  5
1AAF3
330
1A981
100
AcDbEntity
  8
1
  6
Continuous
100
AcDbLine
 10
381.535202
 20
246.3174859999998
 30
0.0
 11
383.876111
 21
248.658394
 31
0.0
  0
LINE
  5
1AAF4
330
1A981
100
AcDbEntity
  8
1
  6
Continuous
100
AcDbLine
 10
384.095699
 20
246.3174859999998
 30
0.0
 11
381.754791
 21
248.658394
 31
0.0
  0
LINE
  5
1AAF5
330
1A981
100
AcDbEntity
  8
1
  6
Continuous
100
AcDbLine
 10
383.656523
 20
246.3174859999998
 30
0.0
 11
385.997431
 21
248.658394
 31
0.0
  0
LINE
  5
1AAF6
330
1A981
100
AcDbEntity
  8
1
  6
Continuous
100
AcDbLine
 10
386.2170199999998
 20
246.3174859999998
 30
0.0
 11
383.876111
 21
248.658394
 31
0.0
  0
LINE
  5
1AAF7
330
1A981
100
AcDbEntity
  8
1
  6
Continuous
100
AcDbLine
 10
391.376992
 20
250.639767
 30
0.0
 11
390.472235
 21
248.658394
 31
0.0
  0
LINE
  5
1AAF8
330
1A981
100
AcDbEntity
  8
1
  6
Continuous
100
AcDbLine
 10
379.000306
 20
224.4868499999999
 30
0.0
 11
379.000306
 21
162.277024
 31
0.0
  0
LINE
  5
1AAF9
330
1A981
100
AcDbEntity
  8
1
  6
Continuous
100
AcDbLine
 10
352.000306
 20
224.4868499999999
 30
0.0
 11
352.000306
 21
162.277024
 31
0.0
  0
LINE
  5
1AAFA
330
1A981
100
AcDbEntity
  8
4
  6
CENTER
100
AcDbLine
 10
397.961003
 20
196.497003
 30
0.0
 11
333.039641
 21
196.497003
 31
0.0
  0
ARC
  5
1AAFB
330
1A981
100
AcDbEntity
  8
1
  6
Continuous
100
AcDbCircle
 10
376.000306
 20
162.277024
 30
0.0
 40
3.0
100
AcDbArc
 50
273.0552839999999
 51
0.0
  0
ARC
  5
1AAFC
330
1A981
100
AcDbEntity
  8
1
  6
Continuous
100
AcDbCircle
 10
365.500306
 20
358.9970029999999
 30
0.0
 40
200.0
100
AcDbArc
 50
266.944716
 51
273.0552839999999
  0
ARC
  5
1AAFD
330
1A981
100
AcDbEntity
  8
1
  6
Continuous
100
AcDbCircle
 10
355.000306
 20
162.277024
 30
0.0
 40
3.0
100
AcDbArc
 50
180.0
 51
266.944716
  0
LINE
  5
1AAFE
330
1A981
100
AcDbEntity
  8
1
  6
Continuous
100
AcDbLine
 10
350.250306
 20
204.9970029999998
 30
0.0
 11
350.250306
 21
187.997003
 31
0.0
  0
LINE
  5
1AAFF
330
1A981
100
AcDbEntity
  8
1
  6
Continuous
100
AcDbLine
 10
349.8003059999998
 20
184.3861499999999
 30
0.0
 11
347.200306
 21
184.3861499999999
 31
0.0
  0
ARC
  5
1AB00
330
1A981
100
AcDbEntity
  8
1
  6
Continuous
100
AcDbCircle
 10
352.787913
 20
188.009321
 30
0.0
 40
2.537636999999997
100
AcDbArc
 50
180.278118
 51
251.91845
  0
ARC
  5
1AB01
330
1A981
100
AcDbEntity
  8
1
  6
Continuous
100
AcDbCircle
 10
352.787913
 20
204.984686
 30
0.0
 40
2.537636999999997
100
AcDbArc
 50
108.0815499999998
 51
179.7218819999999
  0
LINE
  5
1AB02
330
1A981
100
AcDbEntity
  8
1
  6
Continuous
100
AcDbLine
 10
350.250306
 20
201.997003
 30
0.0
 11
350.000306
 21
201.997003
 31
0.0
  0
LINE
  5
1AB03
330
1A981
100
AcDbEntity
  8
1
  6
Continuous
100
AcDbLine
 10
350.000306
 20
200.4970029999999
 30
0.0
 11
349.829977
 21
200.4970029999999
 31
0.0
  0
LINE
  5
1AB04
330
1A981
100
AcDbEntity
  8
1
  6
Continuous
100
AcDbLine
 10
350.000306
 20
200.4970029999999
 30
0.0
 11
349.829977
 21
200.4970029999999
 31
0.0
  0
LINE
  5
1AB05
330
1A981
100
AcDbEntity
  8
1
  6
Continuous
100
AcDbLine
 10
350.000306
 20
192.497003
 30
0.0
 11
349.829977
 21
192.497003
 31
0.0
  0
LINE
  5
1AB06
330
1A981
100
AcDbEntity
  8
1
  6
Continuous
100
AcDbLine
 10
350.250306
 20
190.997003
 30
0.0
 11
350.000306
 21
190.997003
 31
0.0
  0
LINE
  5
1AB07
330
1A981
100
AcDbEntity
  8
1
  6
Continuous
100
AcDbLine
 10
350.000306
 20
201.997003
 30
0.0
 11
350.000306
 21
190.997003
 31
0.0
  0
ARC
  5
1AB08
330
1A981
100
AcDbEntity
  8
1
  6
Continuous
100
AcDbCircle
 10
380.500306
 20
199.7847219999999
 30
0.0
 40
12.5
100
AcDbArc
 50
296.8207729999999
 51
21.436941
  0
ARC
  5
1AB09
330
1A981
100
AcDbEntity
  8
1
  6
Continuous
100
AcDbCircle
 10
388.8936089999999
 20
184.3442489999999
 30
0.0
 40
5.093474999999997
100
AcDbArc
 50
122.721231
 51
179.528657
  0
LINE
  5
1AB0A
330
1A981
100
AcDbEntity
  8
1
  6
Continuous
100
AcDbLine
 10
380.750306
 20
204.9970029999998
 30
0.0
 11
380.750306
 21
187.997003
 31
0.0
  0
LINE
  5
1AB0B
330
1A981
100
AcDbEntity
  8
1
  6
Continuous
100
AcDbLine
 10
383.8003059999999
 20
184.3861499999999
 30
0.0
 11
381.200306
 21
184.3861499999999
 31
0.0
  0
ARC
  5
1AB0C
330
1A981
100
AcDbEntity
  8
1
  6
Continuous
100
AcDbCircle
 10
378.212699
 20
188.009321
 30
0.0
 40
2.537636999999997
100
AcDbArc
 50
288.08155
 51
359.721882
  0
ARC
  5
1AB0D
330
1A981
100
AcDbEntity
  8
1
  6
Continuous
100
AcDbCircle
 10
378.212699
 20
204.984686
 30
0.0
 40
2.537636999999997
100
AcDbArc
 50
0.278118
 51
71.91845000000002
  0
LINE
  5
1AB0E
330
1A981
100
AcDbEntity
  8
1
  6
Continuous
100
AcDbLine
 10
381.000306
 20
201.997003
 30
0.0
 11
380.750306
 21
201.997003
 31
0.0
  0
LINE
  5
1AB0F
330
1A981
100
AcDbEntity
  8
1
  6
Continuous
100
AcDbLine
 10
381.170664
 20
200.4970029999999
 30
0.0
 11
381.000306
 21
200.4970029999999
 31
0.0
  0
LINE
  5
1AB10
330
1A981
100
AcDbEntity
  8
1
  6
Continuous
100
AcDbLine
 10
381.170664
 20
192.497003
 30
0.0
 11
381.000306
 21
192.497003
 31
0.0
  0
LINE
  5
1AB11
330
1A981
100
AcDbEntity
  8
1
  6
Continuous
100
AcDbLine
 10
381.000306
 20
190.997003
 30
0.0
 11
380.750306
 21
190.997003
 31
0.0
  0
LINE
  5
1AB12
330
1A981
100
AcDbEntity
  8
1
  6
Continuous
100
AcDbLine
 10
381.000306
 20
201.997003
 30
0.0
 11
381.000306
 21
190.997003
 31
0.0
  0
ARC
  5
1AB13
330
1A981
100
AcDbEntity
  8
1
  6
Continuous
100
AcDbCircle
 10
365.500306
 20
33.997003
 30
0.0
 40
200.0
100
AcDbArc
 50
87.35495500000004
 51
92.64504499999999
  0
ARC
  5
1AB14
330
1A981
100
AcDbEntity
  8
1
  6
Continuous
100
AcDbCircle
 10
308.382447
 20
175.432872
 30
0.0
 40
88.60569099999997
100
AcDbArc
 50
19.050015
 51
42.52376499999999
  0
LINE
  5
1AB15
330
1A981
100
AcDbEntity
  8
1
  6
Continuous
100
AcDbLine
 10
79.70014999999998
 20
239.092224
 30
0.0
 11
79.70014999999998
 21
184.3861499999999
 31
0.0
  0
LINE
  5
1AB16
330
1A981
100
AcDbEntity
  8
1
  6
Continuous
100
AcDbLine
 10
48.30015
 20
239.092224
 30
0.0
 11
48.30015
 21
184.3861499999999
 31
0.0
  0
LINE
  5
1AB17
330
1A981
100
AcDbEntity
  8
1
  6
Continuous
100
AcDbLine
 10
45.70015
 20
239.692224
 30
0.0
 11
45.70015
 21
184.3861499999999
 31
0.0
  0
ARC
  5
1AB18
330
1A981
100
AcDbEntity
  8
1
  6
Continuous
100
AcDbCircle
 10
49.70015
 20
239.692224
 30
0.0
 40
4.0
100
AcDbArc
 50
90.0
 51
180.0
  0
LINE
  5
1AB19
330
1A981
100
AcDbEntity
  8
1
  6
Continuous
100
AcDbLine
 10
50.30015
 20
241.092224
 30
0.0
 11
77.70014999999998
 21
241.092224
 31
0.0
  0
ARC
  5
1AB1A
330
1A981
100
AcDbEntity
  8
1
  6
Continuous
100
AcDbCircle
 10
50.30015
 20
239.092224
 30
0.0
 40
2.0
100
AcDbArc
 50
90.0
 51
180.0
  0
LINE
  5
1AB1B
330
1A981
100
AcDbEntity
  8
1
  6
Continuous
100
AcDbLine
 10
82.30014999999999
 20
239.692224
 30
0.0
 11
82.30014999999999
 21
184.3861499999999
 31
0.0
  0
ARC
  5
1AB1C
330
1A981
100
AcDbEntity
  8
1
  6
Continuous
100
AcDbCircle
 10
77.70014999999998
 20
239.092224
 30
0.0
 40
2.0
100
AcDbArc
 50
0.0
 51
90.0
  0
ARC
  5
1AB1D
330
1A981
100
AcDbEntity
  8
1
  6
Continuous
100
AcDbCircle
 10
78.30015
 20
239.692224
 30
0.0
 40
4.0
100
AcDbArc
 50
0.0
 51
90.0
  0
LINE
  5
1AB1E
330
1A981
100
AcDbEntity
  8
1
  6
Continuous
100
AcDbLine
 10
349.8003059999998
 20
221.182229
 30
0.0
 11
349.8003059999998
 21
184.3861499999999
 31
0.0
  0
ARC
  5
1AB1F
330
1A981
100
AcDbEntity
  8
1
  6
Continuous
100
AcDbCircle
 10
380.4846299999999
 20
199.7983859999999
 30
0.0
 40
9.919269999999999
100
AcDbArc
 50
296.865972
 51
20.08549899999999
  0
ARC
  5
1AB20
330
1A981
100
AcDbEntity
  8
1
  6
Continuous
100
AcDbCircle
 10
312.605317
 20
177.4107859999998
 30
0.0
 40
81.39072699999998
100
AcDbArc
 50
18.47657299999999
 51
35.33779899999998
  0
LINE
  5
1AB21
330
1A981
100
AcDbEntity
  8
1
  6
Continuous
100
AcDbLine
 10
381.200306
 20
221.182229
 30
0.0
 11
381.200306
 21
184.3861499999999
 31
0.0
  0
ARC
  5
1AB22
330
1A981
100
AcDbEntity
  8
1
  6
Continuous
100
AcDbCircle
 10
388.860545
 20
184.353258
 30
0.0
 40
7.659749999999998
100
AcDbArc
 50
120.549768
 51
179.753957
  0
ARC
  5
1AB23
330
1A981
100
AcDbEntity
  8
1
  6
Continuous
100
AcDbCircle
 10
427.5512899999998
 20
252.416548
 30
0.0
 40
56.011304
100
AcDbArc
 50
198.778904
 51
209.910325
  0
ARC
  5
1AB24
330
1A981
100
AcDbEntity
  8
1
  6
Continuous
100
AcDbCircle
 10
303.4493219999998
 20
252.416548
 30
0.0
 40
56.011304
100
AcDbArc
 50
330.089675
 51
341.2210959999999
  0
LINE
  5
1AB25
330
1A981
100
AcDbEntity
  8
1
  6
Continuous
100
AcDbLine
 10
43.20015
 20
189.4970029999998
 30
0.0
 11
43.20015
 21
203.497003
 31
0.0
  0
ARC
  5
1AB26
330
1A981
100
AcDbEntity
  8
1
  6
Continuous
100
AcDbCircle
 10
52.20015
 20
196.497003
 30
0.0
 40
11.40175399999999
100
AcDbArc
 50
142.1250159999999
 51
164.744881
  0
LINE
  5
1AB27
330
1A981
100
AcDbEntity
  8
1
  6
Continuous
100
AcDbLine
 10
43.20015
 20
189.4970029999998
 30
0.0
 11
45.70015
 21
189.4970029999998
 31
0.0
  0
ARC
  5
1AB28
330
1A981
100
AcDbEntity
  8
1
  6
Continuous
100
AcDbCircle
 10
52.20015
 20
196.497003
 30
0.0
 40
11.40175399999999
100
AcDbArc
 50
195.255119
 51
217.874984
  0
LINE
  5
1AB29
330
1A981
100
AcDbEntity
  8
1
  6
Continuous
100
AcDbLine
 10
41.20015
 20
193.497003
 30
0.0
 11
41.20015
 21
199.497003
 31
0.0
  0
LINE
  5
1AB2A
330
1A981
100
AcDbEntity
  8
1
  6
Continuous
100
AcDbLine
 10
43.20015
 20
203.497003
 30
0.0
 11
45.70015
 21
203.497003
 31
0.0
  0
LINE
  5
1AB2B
330
1A981
100
AcDbEntity
  8
1
  6
Continuous
100
AcDbLine
 10
84.836048
 20
203.4252069999999
 30
0.0
 11
84.30015
 21
202.4970029999999
 31
0.0
  0
LINE
  5
1AB2C
330
1A981
100
AcDbEntity
  8
1
  6
Continuous
100
AcDbLine
 10
88.76425199999998
 20
203.4252069999999
 30
0.0
 11
89.30015
 21
202.4970029999999
 31
0.0
  0
ARC
  5
1AB2D
330
1A981
100
AcDbEntity
  8
1
  6
Continuous
100
AcDbCircle
 10
87.36713700000001
 20
201.6931559999999
 30
0.0
 40
3.066986999999998
100
AcDbArc
 50
154.3842469999999
 51
214.384247
  0
ARC
  5
1AB2E
330
1A981
100
AcDbEntity
  8
1
  6
Continuous
100
AcDbCircle
 10
86.233163
 20
201.6931559999999
 30
0.0
 40
3.066986999999998
100
AcDbArc
 50
325.6157529999999
 51
25.615753
  0
LINE
  5
1AB2F
330
1A981
100
AcDbEntity
  8
1
  6
Continuous
100
AcDbLine
 10
84.30015
 20
203.997003
 30
0.0
 11
84.30015
 21
188.997003
 31
0.0
  0
ARC
  5
1AB30
330
1A981
100
AcDbEntity
  8
1
  6
Continuous
100
AcDbCircle
 10
87.36713700000001
 20
191.300851
 30
0.0
 40
3.066986999999998
100
AcDbArc
 50
145.615753
 51
205.615753
  0
LINE
  5
1AB31
330
1A981
100
AcDbEntity
  8
1
  6
Continuous
100
AcDbLine
 10
84.836048
 20
189.5687999999999
 30
0.0
 11
84.30015
 21
190.497003
 31
0.0
  0
ARC
  5
1AB32
330
1A981
100
AcDbEntity
  8
1
  6
Continuous
100
AcDbCircle
 10
95.764252
 20
196.497003
 30
0.0
 40
11.464102
100
AcDbArc
 50
162.412046
 51
197.5879539999999
  0
LINE
  5
1AB33
330
1A981
100
AcDbEntity
  8
1
  6
Continuous
100
AcDbLine
 10
84.30015
 20
198.497003
 30
0.0
 11
82.30014999999999
 21
196.497003
 31
0.0
  0
LINE
  5
1AB34
330
1A981
100
AcDbEntity
  8
1
  6
Continuous
100
AcDbLine
 10
84.30015
 20
196.497003
 30
0.0
 11
82.30014999999999
 21
194.497003
 31
0.0
  0
LINE
  5
1AB35
330
1A981
100
AcDbEntity
  8
1
  6
Continuous
100
AcDbLine
 10
82.30014999999999
 20
188.997003
 30
0.0
 11
84.30015
 21
188.997003
 31
0.0
  0
LINE
  5
1AB36
330
1A981
100
AcDbEntity
  8
1
  6
Continuous
100
AcDbLine
 10
91.20015
 20
199.297003
 30
0.0
 11
90.00015000000002
 21
200.4970029999999
 31
0.0
  0
LINE
  5
1AB37
330
1A981
100
AcDbEntity
  8
2
  6
Continuous
100
AcDbLine
 10
90.67664999999999
 20
193.173503
 30
0.0
 11
89.30015
 21
193.173503
 31
0.0
  0
LINE
  5
1AB38
330
1A981
100
AcDbEntity
  8
2
  6
Continuous
100
AcDbLine
 10
90.67664999999999
 20
199.820503
 30
0.0
 11
89.30015
 21
199.820503
 31
0.0
  0
LINE
  5
1AB39
330
1A981
100
AcDbEntity
  8
1
  6
Continuous
100
AcDbLine
 10
89.30015
 20
200.4970029999999
 30
0.0
 11
90.00015000000002
 21
200.4970029999999
 31
0.0
  0
LINE
  5
1AB3A
330
1A981
100
AcDbEntity
  8
1
  6
Continuous
100
AcDbLine
 10
91.20015
 20
199.297003
 30
0.0
 11
91.20015
 21
193.6970029999999
 31
0.0
  0
LINE
  5
1AB3B
330
1A981
100
AcDbEntity
  8
1
  6
Continuous
100
AcDbLine
 10
89.30015
 20
192.497003
 30
0.0
 11
90.00015000000002
 21
192.497003
 31
0.0
  0
LINE
  5
1AB3C
330
1A981
100
AcDbEntity
  8
1
  6
Continuous
100
AcDbLine
 10
91.20015
 20
193.6970029999999
 30
0.0
 11
90.00015000000002
 21
192.497003
 31
0.0
  0
LINE
  5
1AB3D
330
1A981
100
AcDbEntity
  8
1
  6
Continuous
100
AcDbLine
 10
90.00015000000002
 20
200.4970029999999
 30
0.0
 11
90.00015000000002
 21
192.497003
 31
0.0
  0
LINE
  5
1AB3E
330
1A981
100
AcDbEntity
  8
1
  6
Continuous
100
AcDbLine
 10
88.76425199999998
 20
199.961105
 30
0.0
 11
84.836048
 21
199.961105
 31
0.0
  0
ARC
  5
1AB3F
330
1A981
100
AcDbEntity
  8
1
  6
Continuous
100
AcDbCircle
 10
86.233163
 20
191.300851
 30
0.0
 40
3.066986999999998
100
AcDbArc
 50
334.384247
 51
34.38424699999998
  0
LINE
  5
1AB40
330
1A981
100
AcDbEntity
  8
1
  6
Continuous
100
AcDbLine
 10
88.76425199999998
 20
193.032902
 30
0.0
 11
84.836048
 21
193.032902
 31
0.0
  0
LINE
  5
1AB41
330
1A981
100
AcDbEntity
  8
1
  6
Continuous
100
AcDbLine
 10
88.76425199999998
 20
189.5687999999999
 30
0.0
 11
84.836048
 21
189.5687999999999
 31
0.0
  0
LINE
  5
1AB42
330
1A981
100
AcDbEntity
  8
1
  6
Continuous
100
AcDbLine
 10
88.76425199999998
 20
189.5687999999999
 30
0.0
 11
89.30015
 21
190.497003
 31
0.0
  0
ARC
  5
1AB43
330
1A981
100
AcDbEntity
  8
1
  6
Continuous
100
AcDbCircle
 10
77.836048
 20
196.497003
 30
0.0
 40
11.464102
100
AcDbArc
 50
342.4120459999999
 51
17.587954
  0
LINE
  5
1AB44
330
1A981
100
AcDbEntity
  8
1
  6
Continuous
100
AcDbLine
 10
89.30015
 20
202.4970029999999
 30
0.0
 11
89.30015
 21
190.497003
 31
0.0
  0
LINE
  5
1AB45
330
1A981
100
AcDbEntity
  8
1
  6
Continuous
100
AcDbLine
 10
82.30014999999999
 20
203.997003
 30
0.0
 11
84.30015
 21
203.997003
 31
0.0
  0
LINE
  5
1AB46
330
1A981
100
AcDbEntity
  8
1
  6
Continuous
100
AcDbLine
 10
88.76425199999998
 20
203.4252069999999
 30
0.0
 11
84.836048
 21
203.4252069999999
 31
0.0
  0
LINE
  5
1AB47
330
1A981
100
AcDbEntity
  8
1
  6
Continuous
100
AcDbLine
 10
340.200306
 20
192.7023499999999
 30
0.0
 11
340.200306
 21
190.497003
 31
0.0
  0
LINE
  5
1AB48
330
1A981
100
AcDbEntity
  8
1
  6
Continuous
100
AcDbLine
 10
340.7362039999998
 20
189.5687999999999
 30
0.0
 11
340.200306
 21
190.497003
 31
0.0
  0
LINE
  5
1AB49
330
1A981
100
AcDbEntity
  8
1
  6
Continuous
100
AcDbLine
 10
340.7362039999998
 20
189.5687999999999
 30
0.0
 11
343.297186
 21
189.5687999999999
 31
0.0
  0
ARC
  5
1AB4A
330
1A981
100
AcDbEntity
  8
1
  6
Continuous
100
AcDbCircle
 10
343.2672929999998
 20
191.300851
 30
0.0
 40
3.066986999999998
100
AcDbArc
 50
158.8048029999999
 51
205.615753
  0
LINE
  5
1AB4B
330
1A981
100
AcDbEntity
  8
1
  6
Continuous
100
AcDbLine
 10
339.500306
 20
193.847551
 30
0.0
 11
339.500306
 21
192.497003
 31
0.0
  0
LINE
  5
1AB4C
330
1A981
100
AcDbEntity
  8
1
  6
Continuous
100
AcDbLine
 10
338.300306
 20
193.6970029999999
 30
0.0
 11
339.500306
 21
192.497003
 31
0.0
  0
LINE
  5
1AB4D
330
1A981
100
AcDbEntity
  8
1
  6
Continuous
100
AcDbLine
 10
340.200306
 20
192.497003
 30
0.0
 11
339.500306
 21
192.497003
 31
0.0
  0
LINE
  5
1AB4E
330
1A981
100
AcDbEntity
  8
1
  6
Continuous
100
AcDbLine
 10
338.300306
 20
197.062591
 30
0.0
 11
338.300306
 21
193.6970029999999
 31
0.0
  0
LINE
  5
1AB4F
330
1A981
100
AcDbEntity
  8
2
  6
Continuous
100
AcDbLine
 10
338.8238059999999
 20
193.173503
 30
0.0
 11
339.891735
 21
193.173503
 31
0.0
  0
CIRCLE
  5
1AB50
330
1A981
100
AcDbEntity
  8
1
  6
Continuous
100
AcDbCircle
 10
200.500153
 20
196.497003
 30
0.0
 40
7.5
  0
CIRCLE
  5
1AB52
330
1A981
100
AcDbEntity
  8
2
  6
Continuous
100
AcDbCircle
 10
200.500153
 20
196.497003
 30
0.0
 40
3.3235
  0
CIRCLE
  5
1AB53
330
1A981
100
AcDbEntity
  8
1
  6
Continuous
100
AcDbCircle
 10
200.500153
 20
196.497003
 30
0.0
 40
4.0
  0
CIRCLE
  5
1AB54
330
1A981
100
AcDbEntity
  8
1
  6
Continuous
100
AcDbCircle
 10
200.500153
 20
196.497003
 30
0.0
 40
2.799999999999998
  0
LINE
  5
1AB55
330
1A981
100
AcDbEntity
  8
1
  6
Continuous
100
AcDbLine
 10
196.6172639999999
 20
241.092224
 30
0.0
 11
191.4301529999999
 21
241.092224
 31
0.0
  0
ARC
  5
1AB56
330
1A981
100
AcDbEntity
  8
1
  6
Continuous
100
AcDbCircle
 10
227.5003209999999
 20
79.998502
 30
0.0
 40
34.618797
100
AcDbArc
 50
221.193321
 51
131.6351589999999
  0
ARC
  5
1AB57
330
1A981
100
AcDbEntity
  8
1
  6
Continuous
100
AcDbCircle
 10
258.5003209999998
 20
48.998502
 30
0.0
 40
8.0
100
AcDbArc
 50
268.8910839999999
 51
1.108916
  0
LINE
  5
1AB58
330
1A981
100
AcDbEntity
  8
4
  6
CENTER
100
AcDbLine
 10
267.0003209999998
 20
48.998502
 30
0.0
 11
250.000321
 21
48.998502
 31
0.0
  0
CIRCLE
  5
1AB59
330
1A981
100
AcDbEntity
  8
1
  6
Continuous
100
AcDbCircle
 10
258.5003209999998
 20
48.998502
 30
0.0
 40
4.25
  0
ARC
  5
1AB5A
330
1A981
100
AcDbEntity
  8
1
  6
Continuous
100
AcDbCircle
 10
258.5003209999998
 20
110.998502
 30
0.0
 40
8.0
100
AcDbArc
 50
358.891084
 51
91.10891600000002
  0
LINE
  5
1AB5B
330
1A981
100
AcDbEntity
  8
4
  6
CENTER
100
AcDbLine
 10
267.0003209999998
 20
110.998502
 30
0.0
 11
250.000321
 21
110.998502
 31
0.0
  0
CIRCLE
  5
1AB5C
330
1A981
100
AcDbEntity
  8
1
  6
Continuous
100
AcDbCircle
 10
258.5003209999998
 20
110.998502
 30
0.0
 40
4.25
  0
LINE
  5
1AB5D
330
1A981
100
AcDbEntity
  8
4
  6
CENTER
100
AcDbLine
 10
271.2003209999999
 20
79.998502
 30
0.0
 11
162.4497389999999
 21
79.998502
 31
0.0
  0
ARC
  5
1AB5E
330
1A981
100
AcDbEntity
  8
1
  6
Continuous
100
AcDbCircle
 10
227.5003209999999
 20
79.998502
 30
0.0
 40
27.49995999999999
100
AcDbArc
 50
223.3410389999999
 51
135.161696
  0
LINE
  5
1AB5F
330
1A981
100
AcDbEntity
  8
4
  6
CENTER
100
AcDbLine
 10
200.500113
 20
52.24875
 30
0.0
 11
200.500113
 21
112.24875
 31
0.0
  0
LINE
  5
1AB60
330
1A981
100
AcDbEntity
  8
4
  6
CENTER
100
AcDbLine
 10
227.5003209999999
 20
123.698502
 30
0.0
 11
227.5003209999999
 21
36.29850199999999
 31
0.0
  0
LINE
  5
1AB61
330
1A981
100
AcDbEntity
  8
1
  6
Continuous
100
AcDbLine
 10
195.000113
 20
64.49839899999999
 30
0.0
 11
206.0001129999998
 21
64.49839899999999
 31
0.0
  0
ARC
  5
1AB62
330
1A981
100
AcDbEntity
  8
1
  6
Continuous
100
AcDbCircle
 10
200.500113
 20
68.19850200000001
 30
0.0
 40
11.40175399999999
100
AcDbArc
 50
232.1250159999999
 51
254.744881
  0
LINE
  5
1AB63
330
1A981
100
AcDbEntity
  8
1
  6
Continuous
100
AcDbLine
 10
192.0001129999999
 20
64.74839899999999
 30
0.0
 11
209.000113
 21
64.74839899999999
 31
0.0
  0
LINE
  5
1AB64
330
1A981
100
AcDbEntity
  8
1
  6
Continuous
100
AcDbLine
 10
207.5001129999999
 20
59.19850199999999
 30
0.0
 11
193.500113
 21
59.19850199999999
 31
0.0
  0
LINE
  5
1AB65
330
1A981
100
AcDbEntity
  8
1
  6
Continuous
100
AcDbLine
 10
206.885658
 20
61.69850199999999
 30
0.0
 11
188.21773
 21
61.69850199999999
 31
0.0
  0
LINE
  5
1AB66
330
1A981
100
AcDbEntity
  8
1
  6
Continuous
100
AcDbLine
 10
206.885658
 20
64.298502
 30
0.0
 11
188.21773
 21
64.298502
 31
0.0
  0
LINE
  5
1AB67
330
1A981
100
AcDbEntity
  8
4
  6
CENTER
100
AcDbLine
 10
205.0003209999999
 20
48.998502
 30
0.0
 11
188.0003209999999
 21
48.998502
 31
0.0
  0
CIRCLE
  5
1AB68
330
1A981
100
AcDbEntity
  8
1
  6
Continuous
100
AcDbCircle
 10
196.5003209999999
 20
48.998502
 30
0.0
 40
4.25
  0
ARC
  5
1AB69
330
1A981
100
AcDbEntity
  8
1
  6
Continuous
100
AcDbCircle
 10
196.5003209999999
 20
48.998502
 30
0.0
 40
8.0
100
AcDbArc
 50
178.8910839999998
 51
271.108916
  0
ARC
  5
1AB6A
330
1A981
100
AcDbEntity
  8
1
  6
Continuous
100
AcDbCircle
 10
-1405.016344999999
 20
79.998502
 30
0.0
 40
1593.816667
100
AcDbArc
 50
359.4355949999999
 51
359.514682
  0
ARC
  5
1AB6B
330
1A981
100
AcDbEntity
  8
1
  6
Continuous
100
AcDbCircle
 10
192.012431
 20
67.286006
 30
0.0
 40
2.537636999999997
100
AcDbArc
 50
198.08155
 51
269.7218819999998
  0
LINE
  5
1AB6C
330
1A981
100
AcDbEntity
  8
1
  6
Continuous
100
AcDbLine
 10
195.000113
 20
64.74839899999999
 30
0.0
 11
195.000113
 21
64.49839899999999
 31
0.0
  0
LINE
  5
1AB6D
330
1A981
100
AcDbEntity
  8
1
  6
Continuous
100
AcDbLine
 10
193.500113
 20
59.19850199999999
 30
0.0
 11
193.500113
 21
61.69850199999999
 31
0.0
  0
LINE
  5
1AB6E
330
1A981
100
AcDbEntity
  8
1
  6
Continuous
100
AcDbLine
 10
188.21773
 20
61.69850199999999
 30
0.0
 11
188.21773
 21
64.298502
 31
0.0
  0
ARC
  5
1AB6F
330
1A981
100
AcDbEntity
  8
1
  6
Continuous
100
AcDbCircle
 10
-1405.016344999999
 20
79.998502
 30
0.0
 40
1593.816667
100
AcDbArc
 50
358.891084
 51
359.342123
  0
LINE
  5
1AB70
330
1A981
100
AcDbEntity
  8
4
  6
CENTER
100
AcDbLine
 10
258.5003209999998
 20
57.498502
 30
0.0
 11
258.5003209999998
 21
40.498502
 31
0.0
  0
LINE
  5
1AB71
330
1A981
100
AcDbEntity
  8
4
  6
CENTER
100
AcDbLine
 10
196.5003209999999
 20
57.498502
 30
0.0
 11
196.5003209999999
 21
40.498502
 31
0.0
  0
ARC
  5
1AB72
330
1A981
100
AcDbEntity
  8
1
  6
Continuous
100
AcDbCircle
 10
227.5003209999999
 20
-1552.518165
 30
0.0
 40
1593.816667
100
AcDbArc
 50
88.89108399999996
 51
91.10891600000002
  0
ARC
  5
1AB73
330
1A981
100
AcDbEntity
  8
1
  6
Continuous
100
AcDbCircle
 10
208.9877949999999
 20
67.286006
 30
0.0
 40
2.537636999999997
100
AcDbArc
 50
270.278118
 51
341.91845
  0
ARC
  5
1AB74
330
1A981
100
AcDbEntity
  8
1
  6
Continuous
100
AcDbCircle
 10
239.2095639999999
 20
92.280052
 30
0.0
 40
43.12437599999999
100
AcDbArc
 50
226.835039
 51
243.2068799999999
  0
ARC
  5
1AB75
330
1A981
100
AcDbEntity
  8
1
  6
Continuous
100
AcDbCircle
 10
238.8044059999999
 20
92.100439
 30
0.0
 40
40.147421
100
AcDbArc
 50
226.513902
 51
243.894495
  0
ARC
  5
1AB76
330
1A981
100
AcDbEntity
  8
1
  6
Continuous
100
AcDbCircle
 10
206.885658
 20
56.69850199999999
 30
0.0
 40
5.0
100
AcDbArc
 50
55.632842
 51
90.0
  0
ARC
  5
1AB77
330
1A981
100
AcDbEntity
  8
1
  6
Continuous
100
AcDbCircle
 10
206.885658
 20
56.69850199999999
 30
0.0
 40
7.599999999999998
100
AcDbArc
 50
55.632842
 51
90.0
  0
LINE
  5
1AB78
330
1A981
100
AcDbEntity
  8
1
  6
Continuous
100
AcDbLine
 10
204.500113
 20
64.49839899999999
 30
0.0
 11
204.500113
 21
64.29839900000001
 31
0.0
  0
LINE
  5
1AB79
330
1A981
100
AcDbEntity
  8
1
  6
Continuous
100
AcDbLine
 10
206.0001129999998
 20
64.74839899999999
 30
0.0
 11
206.0001129999998
 21
64.49839899999999
 31
0.0
  0
LINE
  5
1AB7A
330
1A981
100
AcDbEntity
  8
1
  6
Continuous
100
AcDbLine
 10
196.500113
 20
64.49839899999999
 30
0.0
 11
196.500113
 21
64.29839900000001
 31
0.0
  0
LINE
  5
1AB7B
330
1A981
100
AcDbEntity
  8
1
  6
Continuous
100
AcDbLine
 10
203.5001129999999
 20
57.19850199999999
 30
0.0
 11
197.500113
 21
57.19850199999999
 31
0.0
  0
LINE
  5
1AB7C
330
1A981
100
AcDbEntity
  8
1
  6
Continuous
100
AcDbLine
 10
207.5001129999999
 20
59.19850199999999
 30
0.0
 11
207.5001129999999
 21
61.610355
 31
0.0
  0
ARC
  5
1AB7D
330
1A981
100
AcDbEntity
  8
1
  6
Continuous
100
AcDbCircle
 10
200.500113
 20
68.19850200000001
 30
0.0
 40
11.40175399999999
100
AcDbArc
 50
285.2551189999999
 51
307.8749839999999
  0
ARC
  5
1AB7E
330
1A981
100
AcDbEntity
  8
1
  6
Continuous
100
AcDbCircle
 10
197.500113
 20
108.9638129999999
 30
0.0
 40
8.665063999999999
100
AcDbArc
 50
249.7438419999999
 51
290.256158
  0
ARC
  5
1AB7F
330
1A981
100
AcDbEntity
  8
1
  6
Continuous
100
AcDbCircle
 10
197.500113
 20
96.633686
 30
0.0
 40
8.665063999999999
100
AcDbArc
 50
69.743842
 51
110.256158
  0
LINE
  5
1AB80
330
1A981
100
AcDbEntity
  8
1
  6
Continuous
100
AcDbLine
 10
194.5001129999999
 20
105.3487499999999
 30
0.0
 11
206.500113
 21
105.3487499999999
 31
0.0
  0
LINE
  5
1AB81
330
1A981
100
AcDbEntity
  8
1
  6
Continuous
100
AcDbLine
 10
195.000113
 20
95.498399
 30
0.0
 11
206.0001129999998
 21
95.498399
 31
0.0
  0
LINE
  5
1AB82
330
1A981
100
AcDbEntity
  8
1
  6
Continuous
100
AcDbLine
 10
192.0001129999999
 20
95.24839900000001
 30
0.0
 11
209.000113
 21
95.24839900000001
 31
0.0
  0
LINE
  5
1AB83
330
1A981
100
AcDbEntity
  8
1
  6
Continuous
100
AcDbLine
 10
193.0001129999999
 20
100.2987499999999
 30
0.0
 11
208.0001129999998
 21
100.2987499999999
 31
0.0
  0
LINE
  5
1AB84
330
1A981
100
AcDbEntity
  8
1
  6
Continuous
100
AcDbLine
 10
206.885658
 20
95.69850200000001
 30
0.0
 11
188.21773
 21
95.69850200000001
 31
0.0
  0
LINE
  5
1AB85
330
1A981
100
AcDbEntity
  8
1
  6
Continuous
100
AcDbLine
 10
206.885658
 20
98.29850200000002
 30
0.0
 11
188.21773
 21
98.29850200000002
 31
0.0
  0
LINE
  5
1AB86
330
1A981
100
AcDbEntity
  8
4
  6
CENTER
100
AcDbLine
 10
205.0003209999999
 20
110.998502
 30
0.0
 11
188.0003209999999
 21
110.998502
 31
0.0
  0
ARC
  5
1AB87
330
1A981
100
AcDbEntity
  8
1
  6
Continuous
100
AcDbCircle
 10
196.5003209999999
 20
110.998502
 30
0.0
 40
4.25
100
AcDbArc
 50
298.0795909999999
 51
280.436259
  0
ARC
  5
1AB88
330
1A981
100
AcDbEntity
  8
1
  6
Continuous
100
AcDbCircle
 10
196.5003209999999
 20
110.998502
 30
0.0
 40
8.0
100
AcDbArc
 50
88.89108399999996
 51
181.1089159999999
  0
ARC
  5
1AB89
330
1A981
100
AcDbEntity
  8
1
  6
Continuous
100
AcDbCircle
 10
-1405.016344999999
 20
79.998502
 30
0.0
 40
1593.816667
100
AcDbArc
 50
0.6578770000000001
 51
1.108916
  0
LINE
  5
1AB8A
330
1A981
100
AcDbEntity
  8
1
  6
Continuous
100
AcDbLine
 10
194.5001129999999
 20
105.2987499999999
 30
0.0
 11
194.5001129999999
 21
100.2987499999999
 31
0.0
  0
LINE
  5
1AB8B
330
1A981
100
AcDbEntity
  8
1
  6
Continuous
100
AcDbLine
 10
193.0001129999999
 20
98.29875000000001
 30
0.0
 11
193.0001129999999
 21
100.2987499999999
 31
0.0
  0
ARC
  5
1AB8C
330
1A981
100
AcDbEntity
  8
1
  6
Continuous
100
AcDbCircle
 10
192.012431
 20
92.71079099999999
 30
0.0
 40
2.537636999999997
100
AcDbArc
 50
90.278118
 51
161.91845
  0
LINE
  5
1AB8D
330
1A981
100
AcDbEntity
  8
1
  6
Continuous
100
AcDbLine
 10
195.000113
 20
95.498399
 30
0.0
 11
195.000113
 21
95.24839900000001
 31
0.0
  0
LINE
  5
1AB8E
330
1A981
100
AcDbEntity
  8
1
  6
Continuous
100
AcDbLine
 10
188.21773
 20
95.69850200000001
 30
0.0
 11
188.21773
 21
98.29850200000002
 31
0.0
  0
ARC
  5
1AB8F
330
1A981
100
AcDbEntity
  8
1
  6
Continuous
100
AcDbCircle
 10
-1405.016344999999
 20
79.998502
 30
0.0
 40
1593.816667
100
AcDbArc
 50
0.485311
 51
0.564405
  0
ARC
  5
1AB90
330
1A981
100
AcDbEntity
  8
1
  6
Continuous
100
AcDbCircle
 10
227.5003209999999
 20
1712.515169
 30
0.0
 40
1593.816667
100
AcDbArc
 50
268.8910839999999
 51
271.108916
  0
LINE
  5
1AB91
330
1A981
100
AcDbEntity
  8
4
  6
CENTER
100
AcDbLine
 10
196.5003209999999
 20
119.498502
 30
0.0
 11
196.5003209999999
 21
102.498502
 31
0.0
  0
ARC
  5
1AB92
330
1A981
100
AcDbEntity
  8
1
  6
Continuous
100
AcDbCircle
 10
239.8608589999998
 20
66.58743100000001
 30
0.0
 40
41.82449499999999
100
AcDbArc
 50
116.8946429999998
 51
133.301958
  0
ARC
  5
1AB93
330
1A981
100
AcDbEntity
  8
1
  6
Continuous
100
AcDbCircle
 10
239.2095639999999
 20
67.71695099999999
 30
0.0
 40
43.12437599999999
100
AcDbArc
 50
116.7931199999999
 51
133.164961
  0
ARC
  5
1AB94
330
1A981
100
AcDbEntity
  8
1
  6
Continuous
100
AcDbCircle
 10
206.885658
 20
103.2985019999999
 30
0.0
 40
7.599999999999998
100
AcDbArc
 50
270.0
 51
304.367158
  0
ARC
  5
1AB95
330
1A981
100
AcDbEntity
  8
1
  6
Continuous
100
AcDbCircle
 10
206.885658
 20
103.2985019999999
 30
0.0
 40
5.0
100
AcDbArc
 50
270.0
 51
304.367158
  0
LINE
  5
1AB96
330
1A981
100
AcDbEntity
  8
1
  6
Continuous
100
AcDbLine
 10
200.500113
 20
100.8346479999999
 30
0.0
 11
200.500113
 21
104.762851
 31
0.0
  0
LINE
  5
1AB97
330
1A981
100
AcDbEntity
  8
1
  6
Continuous
100
AcDbLine
 10
206.500113
 20
105.3487499999999
 30
0.0
 11
206.500113
 21
100.2987499999999
 31
0.0
  0
ARC
  5
1AB98
330
1A981
100
AcDbEntity
  8
1
  6
Continuous
100
AcDbCircle
 10
203.5001129999999
 20
109.0138129999999
 30
0.0
 40
8.665063999999999
100
AcDbArc
 50
249.7438419999999
 51
290.256158
  0
ARC
  5
1AB99
330
1A981
100
AcDbEntity
  8
1
  6
Continuous
100
AcDbCircle
 10
203.5001129999999
 20
96.683686
 30
0.0
 40
8.665063999999999
100
AcDbArc
 50
69.743842
 51
110.256158
  0
LINE
  5
1AB9A
330
1A981
100
AcDbEntity
  8
1
  6
Continuous
100
AcDbLine
 10
196.500113
 20
105.2987499999999
 30
0.0
 11
196.500113
 21
105.99875
 31
0.0
  0
LINE
  5
1AB9B
330
1A981
100
AcDbEntity
  8
2
  6
Continuous
100
AcDbLine
 10
197.1766129999998
 20
106.6752499999999
 30
0.0
 11
197.1766129999998
 21
105.2987499999999
 31
0.0
  0
LINE
  5
1AB9C
330
1A981
100
AcDbEntity
  8
1
  6
Continuous
100
AcDbLine
 10
196.500113
 20
105.99875
 30
0.0
 11
204.500113
 21
105.99875
 31
0.0
  0
LINE
  5
1AB9D
330
1A981
100
AcDbEntity
  8
1
  6
Continuous
100
AcDbLine
 10
197.7001129999999
 20
107.19875
 30
0.0
 11
196.500113
 21
105.99875
 31
0.0
  0
LINE
  5
1AB9E
330
1A981
100
AcDbEntity
  8
1
  6
Continuous
100
AcDbLine
 10
197.7001129999999
 20
107.19875
 30
0.0
 11
203.3001129999999
 21
107.19875
 31
0.0
  0
LINE
  5
1AB9F
330
1A981
100
AcDbEntity
  8
2
  6
Continuous
100
AcDbLine
 10
203.823613
 20
106.6752499999999
 30
0.0
 11
203.823613
 21
105.2987499999999
 31
0.0
  0
LINE
  5
1ABA0
330
1A981
100
AcDbEntity
  8
1
  6
Continuous
100
AcDbLine
 10
203.3001129999999
 20
107.19875
 30
0.0
 11
204.500113
 21
105.99875
 31
0.0
  0
LINE
  5
1ABA1
330
1A981
100
AcDbEntity
  8
1
  6
Continuous
100
AcDbLine
 10
204.500113
 20
105.2987499999999
 30
0.0
 11
204.500113
 21
105.99875
 31
0.0
  0
LINE
  5
1ABA2
330
1A981
100
AcDbEntity
  8
1
  6
Continuous
100
AcDbLine
 10
198.500113
 20
100.2987499999999
 30
0.0
 11
200.500113
 21
98.29875000000001
 31
0.0
  0
LINE
  5
1ABA3
330
1A981
100
AcDbEntity
  8
1
  6
Continuous
100
AcDbLine
 10
200.500113
 20
100.2987499999999
 30
0.0
 11
202.500113
 21
98.29875000000001
 31
0.0
  0
LINE
  5
1ABA4
330
1A981
100
AcDbEntity
  8
1
  6
Continuous
100
AcDbLine
 10
204.500113
 20
95.69839899999999
 30
0.0
 11
204.500113
 21
95.498399
 31
0.0
  0
LINE
  5
1ABA5
330
1A981
100
AcDbEntity
  8
1
  6
Continuous
100
AcDbLine
 10
206.0001129999998
 20
95.498399
 30
0.0
 11
206.0001129999998
 21
95.24839900000001
 31
0.0
  0
LINE
  5
1ABA6
330
1A981
100
AcDbEntity
  8
1
  6
Continuous
100
AcDbLine
 10
196.500113
 20
95.69839899999999
 30
0.0
 11
196.500113
 21
95.498399
 31
0.0
  0
LINE
  5
1ABA7
330
1A981
100
AcDbEntity
  8
1
  6
Continuous
100
AcDbLine
 10
208.0001129999998
 20
98.424285
 30
0.0
 11
208.0001129999998
 21
100.2987499999999
 31
0.0
  0
ARC
  5
1ABA8
330
1A981
100
AcDbEntity
  8
1
  6
Continuous
100
AcDbCircle
 10
208.9877949999999
 20
92.71079099999999
 30
0.0
 40
2.537636999999997
100
AcDbArc
 50
18.08155
 51
89.72188199999996
  0
LINE
  5
1ABA9
330
1A981
100
AcDbEntity
  8
4
  6
CENTER
100
AcDbLine
 10
258.5003209999998
 20
119.498502
 30
0.0
 11
258.5003209999998
 21
102.498502
 31
0.0
  0
ARC
  5
1ABAA
330
1A981
100
AcDbEntity
  8
1
  6
Continuous
100
AcDbCircle
 10
1860.016987999999
 20
79.998502
 30
0.0
 40
1593.816667
100
AcDbArc
 50
178.8910839999998
 51
181.1089159999999
  0
ARC
  5
1ABAB
330
1A981
100
AcDbEntity
  8
1
  6
Continuous
100
AcDbCircle
 10
362.9997389999999
 20
79.998605
 30
0.0
 40
200.0
100
AcDbArc
 50
176.944716
 51
183.055284
  0
ARC
  5
1ABAC
330
1A981
100
AcDbEntity
  8
1
  6
Continuous
100
AcDbCircle
 10
166.279761
 20
69.49860499999998
 30
0.0
 40
3.0
100
AcDbArc
 50
183.055284
 51
270.0
  0
ARC
  5
1ABAD
330
1A981
100
AcDbEntity
  8
1
  6
Continuous
100
AcDbCircle
 10
166.279761
 20
90.49860499999999
 30
0.0
 40
3.0
100
AcDbArc
 50
90.0
 51
176.944716
  0
LINE
  5
1ABAE
330
1A981
100
AcDbEntity
  8
1
  6
Continuous
100
AcDbLine
 10
234.720465
 20
93.498605
 30
0.0
 11
166.279761
 21
93.498605
 31
0.0
  0
LINE
  5
1ABAF
330
1A981
100
AcDbEntity
  8
1
  6
Continuous
100
AcDbLine
 10
234.720465
 20
66.49860499999999
 30
0.0
 11
166.279761
 21
66.49860499999999
 31
0.0
  0
ARC
  5
1ABB0
330
1A981
100
AcDbEntity
  8
1
  6
Continuous
100
AcDbCircle
 10
234.720465
 20
90.49860499999999
 30
0.0
 40
3.0
100
AcDbArc
 50
3.055283999999999
 51
90.0
  0
ARC
  5
1ABB1
330
1A981
100
AcDbEntity
  8
1
  6
Continuous
100
AcDbCircle
 10
38.00048699999999
 20
79.998605
 30
0.0
 40
200.0
100
AcDbArc
 50
356.9447160000001
 51
3.055283999999999
  0
ARC
  5
1ABB2
330
1A981
100
AcDbEntity
  8
1
  6
Continuous
100
AcDbCircle
 10
234.720465
 20
69.49860499999998
 30
0.0
 40
3.0
100
AcDbArc
 50
270.0
 51
356.9447160000001
  0
ARC
  5
1ABB3
330
1A981
100
AcDbEntity
  8
1
  6
Continuous
100
AcDbCircle
 10
223.1962289999999
 20
99.427429
 30
0.0
 40
7.599999999999998
100
AcDbArc
 50
102.4910129999999
 51
116.7931199999999
  0
ARC
  5
1ABB4
330
1A981
100
AcDbEntity
  8
1
  6
Continuous
100
AcDbCircle
 10
223.1962289999999
 20
60.569575
 30
0.0
 40
7.599999999999998
100
AcDbArc
 50
243.2068799999999
 51
257.5089869999998
  0
CIRCLE
  5
1ABB5
330
1A981
100
AcDbEntity
  8
1
  6
Continuous
100
AcDbCircle
 10
227.5006789999999
 20
335.99527
 30
0.0
 40
28.35
  0
LINE
  5
1ABB6
330
1A981
100
AcDbEntity
  8
1
  6
Continuous
100
AcDbLine
 10
188.21773
 20
317.69527
 30
0.0
 11
188.21773
 21
320.29527
 31
0.0
  0
LINE
  5
1ABB7
330
1A981
100
AcDbEntity
  8
1
  6
Continuous
100
AcDbLine
 10
188.21773
 20
351.69527
 30
0.0
 11
188.21773
 21
354.29527
 31
0.0
  0
LINE
  5
1ABB8
330
1A981
100
AcDbEntity
  8
1
  6
Continuous
100
AcDbLine
 10
188.6956169999999
 20
354.29527
 30
0.0
 11
188.21773
 21
354.29527
 31
0.0
  0
LINE
  5
1ABB9
330
1A981
100
AcDbEntity
  8
1
  6
Continuous
100
AcDbLine
 10
188.723351
 20
351.69527
 30
0.0
 11
188.21773
 21
351.69527
 31
0.0
  0
LINE
  5
1ABBA
330
1A981
100
AcDbEntity
  8
1
  6
Continuous
100
AcDbLine
 10
188.6956169999999
 20
317.69527
 30
0.0
 11
188.21773
 21
317.69527
 31
0.0
  0
LINE
  5
1ABBB
330
1A981
100
AcDbEntity
  8
1
  6
Continuous
100
AcDbLine
 10
188.723351
 20
320.29527
 30
0.0
 11
188.21773
 21
320.29527
 31
0.0
  0
LINE
  5
1ABBC
330
1A981
100
AcDbEntity
  8
4
  6
CENTER
100
AcDbLine
 10
200.500153
 20
292.065829
 30
0.0
 11
200.500153
 21
379.9247119999998
 31
0.0
  0
ARC
  5
1ABBD
330
1A981
100
AcDbEntity
  8
1
  6
Continuous
100
AcDbCircle
 10
530.500459
 20
196.497003
 30
0.0
 40
37.5
100
AcDbArc
 50
182.0719399999999
 51
87.94143000000003
  0
ARC
  5
1ABBE
330
1A981
100
AcDbEntity
  8
1
  6
Continuous
100
AcDbCircle
 10
530.500459
 20
196.497003
 30
0.0
 40
27.5
100
AcDbArc
 50
197.27077
 51
86.81422800000001
  0
LINE
  5
1ABBF
330
1A981
100
AcDbEntity
  8
4
  6
CENTER
100
AcDbLine
 10
530.500459
 20
153.997003
 30
0.0
 11
530.500459
 21
238.9970029999998
 31
0.0
  0
LINE
  5
1ABC0
330
1A981
100
AcDbEntity
  8
1
  6
Continuous
100
AcDbLine
 10
501.87546
 20
246.3174859999998
 30
0.0
 11
504.2163689999998
 21
248.658394
 31
0.0
  0
LINE
  5
1ABC1
330
1A981
100
AcDbEntity
  8
1
  6
Continuous
100
AcDbLine
 10
504.435957
 20
246.3174859999998
 30
0.0
 11
502.095049
 21
248.658394
 31
0.0
  0
LINE
  5
1ABC2
330
1A981
100
AcDbEntity
  8
1
  6
Continuous
100
AcDbLine
 10
476.6122909999999
 20
246.3174859999998
 30
0.0
 11
530.3882909999998
 21
246.3174859999998
 31
0.0
  0
LINE
  5
1ABC3
330
1A981
100
AcDbEntity
  8
1
  6
Continuous
100
AcDbLine
 10
476.6122909999999
 20
248.658394
 30
0.0
 11
530.3882909999998
 21
248.658394
 31
0.0
  0
LINE
  5
1ABC4
330
1A981
100
AcDbEntity
  8
1
  6
Continuous
100
AcDbLine
 10
464.500456
 20
254.096768
 30
0.0
 11
542.5006080000001
 21
254.096768
 31
0.0
  0
LINE
  5
1ABC5
330
1A981
100
AcDbEntity
  8
1
  6
Continuous
100
AcDbLine
 10
475.021841
 20
250.639767
 30
0.0
 11
531.979223
 21
250.639767
 31
0.0
  0
LINE
  5
1ABC6
330
1A981
100
AcDbEntity
  8
4
  6
CENTER
100
AcDbLine
 10
488.550459
 20
196.497003
 30
0.0
 11
573.5504589999997
 21
196.497003
 31
0.0
  0
LINE
  5
1ABC7
330
1A981
100
AcDbEntity
  8
1
  6
Continuous
100
AcDbLine
 10
464.500456
 20
256.9967679999999
 30
0.0
 11
542.5006080000001
 21
256.9967679999999
 31
0.0
  0
LINE
  5
1ABC8
330
1A981
100
AcDbEntity
  8
4
  6
CENTER
100
AcDbLine
 10
503.500291
 20
261.9967679999999
 30
0.0
 11
503.500291
 21
183.2259469999999
 31
0.0
  0
ARC
  5
1ABC9
330
1A981
100
AcDbEntity
  8
1
  6
Continuous
100
AcDbCircle
 10
572.6321809999998
 20
229.704989
 30
0.0
 40
41.00863499999999
100
AcDbArc
 50
174.3988199999998
 51
217.8939259999999
  0
LINE
  5
1ABCA
330
1A981
100
AcDbEntity
  8
1
  6
Continuous
100
AcDbLine
 10
524.6479469999997
 20
241.86797
 30
0.0
 11
520.241004
 21
188.984825
 31
0.0
  0
ARC
  5
1ABCB
330
1A981
100
AcDbEntity
  8
1
  6
Continuous
100
AcDbCircle
 10
530.8004589999998
 20
197.147003
 30
0.0
 40
12.0
100
AcDbArc
 50
281.728046
 51
37.893926
  0
LINE
  5
1ABCC
330
1A981
100
AcDbEntity
  8
1
  6
Continuous
100
AcDbLine
 10
542.5006080000001
 20
254.096768
 30
0.0
 11
542.5006080000001
 21
256.9967679999999
 31
0.0
  0
LINE
  5
1ABCD
330
1A981
100
AcDbEntity
  8
1
  6
Continuous
100
AcDbLine
 10
539.570459
 20
241.092224
 30
0.0
 11
539.570459
 21
243.692224
 31
0.0
  0
ARC
  5
1ABCE
330
1A981
100
AcDbEntity
  8
1
  6
Continuous
100
AcDbCircle
 10
531.4338219999998
 20
244.1929049999999
 30
0.0
 40
4.181815
100
AcDbArc
 50
324.51517
 51
353.1235859999999
  0
LINE
  5
1ABCF
330
1A981
100
AcDbEntity
  8
1
  6
Continuous
100
AcDbLine
 10
534.3833479999998
 20
241.092224
 30
0.0
 11
539.570459
 21
241.092224
 31
0.0
  0
ARC
  5
1ABD0
330
1A981
100
AcDbEntity
  8
1
  6
Continuous
100
AcDbCircle
 10
548.426586
 20
232.0788709999999
 30
0.0
 40
16.686913
100
AcDbArc
 50
144.5151699999998
 51
174.3988199999998
  0
LINE
  5
1ABD1
330
1A981
100
AcDbEntity
  8
1
  6
Continuous
100
AcDbLine
 10
520.9673429999997
 20
246.3174859999998
 30
0.0
 11
523.3082519999998
 21
248.658394
 31
0.0
  0
LINE
  5
1ABD2
330
1A981
100
AcDbEntity
  8
1
  6
Continuous
100
AcDbLine
 10
523.5278400000002
 20
246.3174859999998
 30
0.0
 11
521.1869319999998
 21
248.658394
 31
0.0
  0
LINE
  5
1ABD3
330
1A981
100
AcDbEntity
  8
1
  6
Continuous
100
AcDbLine
 10
525.649161
 20
246.3174859999998
 30
0.0
 11
523.3082519999998
 21
248.658394
 31
0.0
  0
LINE
  5
1ABD4
330
1A981
100
AcDbEntity
  8
1
  6
Continuous
100
AcDbLine
 10
525.2099839999998
 20
246.3174859999998
 30
0.0
 11
527.5508929999999
 21
248.658394
 31
0.0
  0
LINE
  5
1ABD5
330
1A981
100
AcDbEntity
  8
1
  6
Continuous
100
AcDbLine
 10
527.7704809999996
 20
246.3174859999998
 30
0.0
 11
525.429572
 21
248.658394
 31
0.0
  0
LINE
  5
1ABD6
330
1A981
100
AcDbEntity
  8
1
  6
Continuous
100
AcDbLine
 10
527.331304
 20
246.3174859999998
 30
0.0
 11
529.6722129999999
 21
248.658394
 31
0.0
  0
LINE
  5
1ABD7
330
1A981
100
AcDbEntity
  8
1
  6
Continuous
100
AcDbLine
 10
529.891801
 20
246.3174859999998
 30
0.0
 11
527.5508929999999
 21
248.658394
 31
0.0
  0
LINE
  5
1ABD8
330
1A981
100
AcDbEntity
  8
1
  6
Continuous
100
AcDbLine
 10
530.3882909999998
 20
248.658394
 30
0.0
 11
530.3882909999998
 21
246.3174859999998
 31
0.0
  0
LINE
  5
1ABD9
330
1A981
100
AcDbEntity
  8
1
  6
Continuous
100
AcDbLine
 10
530.3882909999998
 20
247.942317
 30
0.0
 11
529.6722129999999
 21
248.658394
 31
0.0
  0
LINE
  5
1ABDA
330
1A981
100
AcDbEntity
  8
1
  6
Continuous
100
AcDbLine
 10
523.088664
 20
246.3174859999998
 30
0.0
 11
525.429572
 21
248.658394
 31
0.0
  0
LINE
  5
1ABDB
330
1A981
100
AcDbEntity
  8
4
  6
CENTER
100
AcDbLine
 10
534.5002909999998
 20
259.896768
 30
0.0
 11
534.5002909999998
 21
251.196768
 31
0.0
  0
ARC
  5
1ABDC
330
1A981
100
AcDbEntity
  8
1
  6
Continuous
100
AcDbCircle
 10
531.201327
 20
244.192224
 30
0.0
 40
0.5
100
AcDbArc
 50
192.6500299999999
 51
270.0
  0
LINE
  5
1ABDD
330
1A981
100
AcDbEntity
  8
1
  6
Continuous
100
AcDbLine
 10
539.570459
 20
243.692224
 30
0.0
 11
531.201327
 21
243.692224
 31
0.0
  0
ARC
  5
1ABDE
330
1A981
100
AcDbEntity
  8
1
  6
Continuous
100
AcDbCircle
 10
527.9204769999998
 20
243.4558589999999
 30
0.0
 40
2.86247
100
AcDbArc
 50
12.65003
 51
91.39063400000003
  0
LINE
  5
1ABDF
330
1A981
100
AcDbEntity
  8
1
  6
Continuous
100
AcDbLine
 10
529.3774589999998
 20
250.639767
 30
0.0
 11
528.4727019999998
 21
248.658394
 31
0.0
  0
LINE
  5
1ABE0
330
1A981
100
AcDbEntity
  8
1
  6
Continuous
100
AcDbLine
 10
514.603382
 20
246.3174859999998
 30
0.0
 11
516.9442909999998
 21
248.658394
 31
0.0
  0
LINE
  5
1ABE1
330
1A981
100
AcDbEntity
  8
1
  6
Continuous
100
AcDbLine
 10
517.1638789999998
 20
246.3174859999998
 30
0.0
 11
514.822971
 21
248.658394
 31
0.0
  0
LINE
  5
1ABE2
330
1A981
100
AcDbEntity
  8
1
  6
Continuous
100
AcDbLine
 10
516.7247029999998
 20
246.3174859999998
 30
0.0
 11
519.0656109999999
 21
248.658394
 31
0.0
  0
LINE
  5
1ABE3
330
1A981
100
AcDbEntity
  8
1
  6
Continuous
100
AcDbLine
 10
519.2852
 20
246.3174859999998
 30
0.0
 11
516.9442909999998
 21
248.658394
 31
0.0
  0
LINE
  5
1ABE4
330
1A981
100
AcDbEntity
  8
1
  6
Continuous
100
AcDbLine
 10
518.8460229999998
 20
246.3174859999998
 30
0.0
 11
521.1869319999998
 21
248.658394
 31
0.0
  0
LINE
  5
1ABE5
330
1A981
100
AcDbEntity
  8
1
  6
Continuous
100
AcDbLine
 10
521.40652
 20
246.3174859999998
 30
0.0
 11
519.0656109999999
 21
248.658394
 31
0.0
  0
LINE
  5
1ABE6
330
1A981
100
AcDbEntity
  8
1
  6
Continuous
100
AcDbLine
 10
506.1181009999998
 20
246.3174859999998
 30
0.0
 11
508.4590099999998
 21
248.658394
 31
0.0
  0
LINE
  5
1ABE7
330
1A981
100
AcDbEntity
  8
1
  6
Continuous
100
AcDbLine
 10
508.678598
 20
246.3174859999998
 30
0.0
 11
506.3376889999998
 21
248.658394
 31
0.0
  0
LINE
  5
1ABE8
330
1A981
100
AcDbEntity
  8
1
  6
Continuous
100
AcDbLine
 10
508.239421
 20
246.3174859999998
 30
0.0
 11
510.5803299999998
 21
248.658394
 31
0.0
  0
LINE
  5
1ABE9
330
1A981
100
AcDbEntity
  8
1
  6
Continuous
100
AcDbLine
 10
510.799918
 20
246.3174859999998
 30
0.0
 11
508.4590099999998
 21
248.658394
 31
0.0
  0
LINE
  5
1ABEA
330
1A981
100
AcDbEntity
  8
1
  6
Continuous
100
AcDbLine
 10
510.360742
 20
246.3174859999998
 30
0.0
 11
512.7016499999998
 21
248.658394
 31
0.0
  0
LINE
  5
1ABEB
330
1A981
100
AcDbEntity
  8
1
  6
Continuous
100
AcDbLine
 10
512.921239
 20
246.3174859999998
 30
0.0
 11
510.5803299999998
 21
248.658394
 31
0.0
  0
LINE
  5
1ABEC
330
1A981
100
AcDbEntity
  8
1
  6
Continuous
100
AcDbLine
 10
512.482062
 20
246.3174859999998
 30
0.0
 11
514.822971
 21
248.658394
 31
0.0
  0
LINE
  5
1ABED
330
1A981
100
AcDbEntity
  8
1
  6
Continuous
100
AcDbLine
 10
515.042559
 20
246.3174859999998
 30
0.0
 11
512.7016499999998
 21
248.658394
 31
0.0
  0
LINE
  5
1ABEE
330
1A981
100
AcDbEntity
  8
1
  6
Continuous
100
AcDbLine
 10
503.9967809999998
 20
246.3174859999998
 30
0.0
 11
506.3376889999998
 21
248.658394
 31
0.0
  0
LINE
  5
1ABEF
330
1A981
100
AcDbEntity
  8
1
  6
Continuous
100
AcDbLine
 10
506.557278
 20
246.3174859999998
 30
0.0
 11
504.2163689999998
 21
248.658394
 31
0.0
  0
LINE
  5
1ABF0
330
1A981
100
AcDbEntity
  8
1
  6
Continuous
100
AcDbLine
 10
482.783577
 20
246.3174859999998
 30
0.0
 11
485.124486
 21
248.658394
 31
0.0
  0
LINE
  5
1ABF1
330
1A981
100
AcDbEntity
  8
1
  6
Continuous
100
AcDbLine
 10
485.3440739999999
 20
246.3174859999998
 30
0.0
 11
483.003166
 21
248.658394
 31
0.0
  0
LINE
  5
1ABF2
330
1A981
100
AcDbEntity
  8
1
  6
Continuous
100
AcDbLine
 10
484.904898
 20
246.3174859999998
 30
0.0
 11
487.2458059999998
 21
248.658394
 31
0.0
  0
LINE
  5
1ABF3
330
1A981
100
AcDbEntity
  8
1
  6
Continuous
100
AcDbLine
 10
487.4653949999998
 20
246.3174859999998
 30
0.0
 11
485.124486
 21
248.658394
 31
0.0
  0
LINE
  5
1ABF4
330
1A981
100
AcDbEntity
  8
1
  6
Continuous
100
AcDbLine
 10
495.511499
 20
246.3174859999998
 30
0.0
 11
497.852408
 21
248.658394
 31
0.0
  0
LINE
  5
1ABF5
330
1A981
100
AcDbEntity
  8
1
  6
Continuous
100
AcDbLine
 10
498.071996
 20
246.3174859999998
 30
0.0
 11
495.731088
 21
248.658394
 31
0.0
  0
LINE
  5
1ABF6
330
1A981
100
AcDbEntity
  8
1
  6
Continuous
100
AcDbLine
 10
497.63282
 20
246.3174859999998
 30
0.0
 11
499.9737279999997
 21
248.658394
 31
0.0
  0
LINE
  5
1ABF7
330
1A981
100
AcDbEntity
  8
1
  6
Continuous
100
AcDbLine
 10
500.193317
 20
246.3174859999998
 30
0.0
 11
497.852408
 21
248.658394
 31
0.0
  0
LINE
  5
1ABF8
330
1A981
100
AcDbEntity
  8
1
  6
Continuous
100
AcDbLine
 10
499.7541400000002
 20
246.3174859999998
 30
0.0
 11
502.095049
 21
248.658394
 31
0.0
  0
LINE
  5
1ABF9
330
1A981
100
AcDbEntity
  8
1
  6
Continuous
100
AcDbLine
 10
502.314637
 20
246.3174859999998
 30
0.0
 11
499.9737279999997
 21
248.658394
 31
0.0
  0
LINE
  5
1ABFA
330
1A981
100
AcDbEntity
  8
1
  6
Continuous
100
AcDbLine
 10
489.147538
 20
246.3174859999998
 30
0.0
 11
491.4884469999998
 21
248.658394
 31
0.0
  0
LINE
  5
1ABFB
330
1A981
100
AcDbEntity
  8
1
  6
Continuous
100
AcDbLine
 10
491.7080349999998
 20
246.3174859999998
 30
0.0
 11
489.3671269999998
 21
248.658394
 31
0.0
  0
LINE
  5
1ABFC
330
1A981
100
AcDbEntity
  8
1
  6
Continuous
100
AcDbLine
 10
491.268859
 20
246.3174859999998
 30
0.0
 11
493.6097669999998
 21
248.658394
 31
0.0
  0
LINE
  5
1ABFD
330
1A981
100
AcDbEntity
  8
1
  6
Continuous
100
AcDbLine
 10
493.8293559999998
 20
246.3174859999998
 30
0.0
 11
491.4884469999998
 21
248.658394
 31
0.0
  0
LINE
  5
1ABFE
330
1A981
100
AcDbEntity
  8
1
  6
Continuous
100
AcDbLine
 10
493.390179
 20
246.3174859999998
 30
0.0
 11
495.731088
 21
248.658394
 31
0.0
  0
LINE
  5
1ABFF
330
1A981
100
AcDbEntity
  8
1
  6
Continuous
100
AcDbLine
 10
495.950676
 20
246.3174859999998
 30
0.0
 11
493.6097669999998
 21
248.658394
 31
0.0
  0
LINE
  5
1AC00
330
1A981
100
AcDbEntity
  8
1
  6
Continuous
100
AcDbLine
 10
487.026218
 20
246.3174859999998
 30
0.0
 11
489.3671269999998
 21
248.658394
 31
0.0
  0
LINE
  5
1AC01
330
1A981
100
AcDbEntity
  8
1
  6
Continuous
100
AcDbLine
 10
489.5867149999999
 20
246.3174859999998
 30
0.0
 11
487.2458059999998
 21
248.658394
 31
0.0
  0
LINE
  5
1AC02
330
1A981
100
AcDbEntity
  8
1
  6
Continuous
100
AcDbLine
 10
476.6122909999999
 20
246.5101619999999
 30
0.0
 11
478.7605249999998
 21
248.658394
 31
0.0
  0
LINE
  5
1AC03
330
1A981
100
AcDbEntity
  8
1
  6
Continuous
100
AcDbLine
 10
478.9801129999998
 20
246.3174859999998
 30
0.0
 11
476.639205
 21
248.658394
 31
0.0
  0
LINE
  5
1AC04
330
1A981
100
AcDbEntity
  8
1
  6
Continuous
100
AcDbLine
 10
478.5409369999999
 20
246.3174859999998
 30
0.0
 11
480.881845
 21
248.658394
 31
0.0
  0
LINE
  5
1AC05
330
1A981
100
AcDbEntity
  8
1
  6
Continuous
100
AcDbLine
 10
480.662257
 20
246.3174859999998
 30
0.0
 11
483.003166
 21
248.658394
 31
0.0
  0
LINE
  5
1AC06
330
1A981
100
AcDbEntity
  8
1
  6
Continuous
100
AcDbLine
 10
481.1014339999998
 20
246.3174859999998
 30
0.0
 11
478.7605249999998
 21
248.658394
 31
0.0
  0
LINE
  5
1AC07
330
1A981
100
AcDbEntity
  8
1
  6
Continuous
100
AcDbLine
 10
476.6122909999999
 20
248.658394
 30
0.0
 11
476.6122909999999
 21
246.3174859999998
 31
0.0
  0
LINE
  5
1AC08
330
1A981
100
AcDbEntity
  8
1
  6
Continuous
100
AcDbLine
 10
483.2227539999998
 20
246.3174859999998
 30
0.0
 11
480.881845
 21
248.658394
 31
0.0
  0
LINE
  5
1AC09
330
1A981
100
AcDbEntity
  8
1
  6
Continuous
100
AcDbLine
 10
476.6122909999999
 20
248.631481
 30
0.0
 11
476.639205
 21
248.658394
 31
0.0
  0
LINE
  5
1AC0A
330
1A981
100
AcDbEntity
  8
4
  6
CENTER
100
AcDbLine
 10
472.5002909999998
 20
259.896768
 30
0.0
 11
472.5002909999998
 21
251.196768
 31
0.0
  0
LINE
  5
1AC0B
330
1A981
100
AcDbEntity
  8
1
  6
Continuous
100
AcDbLine
 10
477.623605
 20
250.639767
 30
0.0
 11
478.528362
 21
248.658394
 31
0.0
  0
LINE
  5
1AC0C
330
1A981
100
AcDbEntity
  8
1
  6
Continuous
100
AcDbLine
 10
464.500456
 20
254.096768
 30
0.0
 11
464.500456
 21
256.9967679999999
 31
0.0
  0
CIRCLE
  5
1AC0D
330
1A981
100
AcDbEntity
  8
1
  6
Continuous
100
AcDbCircle
 10
530.500459
 20
196.497003
 30
0.0
 40
7.0
  0
LINE
  5
1AC0E
330
1A981
100
AcDbEntity
  8
1
  6
Continuous
100
AcDbLine
 10
393.000306
 20
241.3174859999998
 30
0.0
 11
393.000306
 21
199.7847219999999
 31
0.0
  0
LINE
  5
1AC0F
330
1A981
100
AcDbEntity
  8
1
  6
Continuous
100
AcDbLine
 10
338.000306
 20
241.3174859999998
 30
0.0
 11
338.000306
 21
199.7847219999999
 31
0.0
  0
ARC
  5
1AC10
330
1A981
100
AcDbEntity
  8
1
  6
Continuous
100
AcDbCircle
 10
388.000306
 20
241.3174859999998
 30
0.0
 40
5.0
100
AcDbArc
 50
0.0
 51
90.0
  0
ARC
  5
1AC11
330
1A981
100
AcDbEntity
  8
1
  6
Continuous
100
AcDbCircle
 10
343.000306
 20
241.3174859999998
 30
0.0
 40
5.0
100
AcDbArc
 50
90.0
 51
180.0
  0
ARC
  5
1AC12
330
1A981
100
AcDbEntity
  8
1
  6
Continuous
100
AcDbCircle
 10
422.618165
 20
175.432872
 30
0.0
 40
88.60569099999997
100
AcDbArc
 50
137.476235
 51
160.9499849999999
  0
ARC
  5
1AC13
330
1A981
100
AcDbEntity
  8
1
  6
Continuous
100
AcDbCircle
 10
418.395295
 20
177.4107859999998
 30
0.0
 40
81.39072699999998
100
AcDbArc
 50
144.662201
 51
161.523427
  0
ARC
  5
1AC14
330
1A981
100
AcDbEntity
  8
1
  6
Continuous
100
AcDbCircle
 10
350.515982
 20
199.7983859999999
 30
0.0
 40
9.919269999999999
100
AcDbArc
 50
159.9145009999998
 51
243.134028
  0
ARC
  5
1AC15
330
1A981
100
AcDbEntity
  8
1
  6
Continuous
100
AcDbCircle
 10
350.500306
 20
199.7847219999999
 30
0.0
 40
12.5
100
AcDbArc
 50
158.563059
 51
243.1792269999998
  0
ARC
  5
1AC16
330
1A981
100
AcDbEntity
  8
1
  6
Continuous
100
AcDbCircle
 10
342.140067
 20
184.353258
 30
0.0
 40
7.659749999999998
100
AcDbArc
 50
0.246043
 51
59.45023199999999
  0
ARC
  5
1AC17
330
1A981
100
AcDbEntity
  8
1
  6
Continuous
100
AcDbCircle
 10
342.1070029999999
 20
184.3442489999999
 30
0.0
 40
5.093474999999997
100
AcDbArc
 50
0.471343
 51
57.278769
  0
LINE
  5
1AC18
330
1A981
100
AcDbEntity
  8
1
  6
Continuous
100
AcDbLine
 10
91.50015000000001
 20
241.3174859999998
 30
0.0
 11
91.50015000000001
 21
199.7847219999999
 31
0.0
  0
LINE
  5
1AC19
330
1A981
100
AcDbEntity
  8
1
  6
Continuous
100
AcDbLine
 10
36.50014999999999
 20
241.3174859999998
 30
0.0
 11
36.50014999999999
 21
199.7847219999999
 31
0.0
  0
ARC
  5
1AC1A
330
1A981
100
AcDbEntity
  8
1
  6
Continuous
100
AcDbCircle
 10
86.50015000000001
 20
241.3174859999998
 30
0.0
 40
5.0
100
AcDbArc
 50
0.0
 51
90.0
  0
ARC
  5
1AC1B
330
1A981
100
AcDbEntity
  8
1
  6
Continuous
100
AcDbCircle
 10
41.50014999999998
 20
241.3174859999998
 30
0.0
 40
5.0
100
AcDbArc
 50
90.0
 51
180.0
  0
ARC
  5
1AC1C
330
1A981
100
AcDbEntity
  8
1
  6
Continuous
100
AcDbCircle
 10
49.00014999999999
 20
199.7847219999999
 30
0.0
 40
12.5
100
AcDbArc
 50
180.0
 51
243.1792269999998
  0
ARC
  5
1AC1D
330
1A981
100
AcDbEntity
  8
1
  6
Continuous
100
AcDbCircle
 10
40.60684699999997
 20
184.3442489999999
 30
0.0
 40
5.093474999999997
100
AcDbArc
 50
0.471343
 51
57.278769
  0
ARC
  5
1AC1E
330
1A981
100
AcDbEntity
  8
1
  6
Continuous
100
AcDbCircle
 10
87.39345300000001
 20
184.3442489999999
 30
0.0
 40
5.093474999999997
100
AcDbArc
 50
122.721231
 51
179.528657
  0
ARC
  5
1AC1F
330
1A981
100
AcDbEntity
  8
1
  6
Continuous
100
AcDbCircle
 10
79.00015
 20
199.7847219999999
 30
0.0
 40
12.5
100
AcDbArc
 50
296.8207729999999
 51
305.187188
  0
ARC
  5
1AC20
330
1A981
100
AcDbEntity
  8
1
  6
Continuous
100
AcDbCircle
 10
79.00015
 20
199.7847219999999
 30
0.0
 40
12.5
100
AcDbArc
 50
347.4218809999999
 51
0.0
  0
LINE
  5
1AC21
330
1A981
100
AcDbEntity
  8
1
  6
Continuous
100
AcDbLine
 10
255.000281
 20
241.3174859999998
 30
0.0
 11
255.000281
 21
236.939766
 31
0.0
  0
ARC
  5
1AC22
330
1A981
100
AcDbEntity
  8
1
  6
Continuous
100
AcDbCircle
 10
199.4939829999999
 20
258.660031
 30
0.0
 40
8.034175999999996
100
AcDbArc
 50
214.6095869999999
 51
266.6277449999999
  0
ARC
  5
1AC23
330
1A981
100
AcDbEntity
  8
1
  6
Continuous
100
AcDbCircle
 10
35.99381199999999
 20
258.660031
 30
0.0
 40
8.034175999999996
100
AcDbArc
 50
214.6095869999999
 51
266.6277449999999
  0
ARC
  5
1AC24
330
1A981
100
AcDbEntity
  8
1
  6
Continuous
100
AcDbCircle
 10
92.00648800000001
 20
258.660031
 30
0.0
 40
8.034175999999996
100
AcDbArc
 50
273.3722549999999
 51
325.3904129999999
  0
ARC
  5
1AC25
330
1A981
100
AcDbEntity
  8
1
  6
Continuous
100
AcDbCircle
 10
337.493968
 20
258.660031
 30
0.0
 40
8.034175999999996
100
AcDbArc
 50
214.6095869999999
 51
266.6277449999999
  0
ARC
  5
1AC26
330
1A981
100
AcDbEntity
  8
1
  6
Continuous
100
AcDbCircle
 10
393.5066439999998
 20
258.660031
 30
0.0
 40
8.034175999999996
100
AcDbArc
 50
273.3722549999999
 51
325.3904129999999
  0
ARC
  5
1AC27
330
1A981
100
AcDbEntity
  8
1
  6
Continuous
100
AcDbCircle
 10
250.000281
 20
241.3174859999998
 30
0.0
 40
5.0
100
AcDbArc
 50
0.0
 51
90.0
  0
ARC
  5
1AC28
330
1A981
100
AcDbEntity
  8
1
  6
Continuous
100
AcDbCircle
 10
181.8654439999999
 20
240.270624
 30
0.0
 40
73.21064799999998
100
AcDbArc
 50
332.867044
 51
357.3923189999999
  0
ARC
  5
1AC29
330
1A981
100
AcDbEntity
  8
1
  6
Continuous
100
AcDbCircle
 10
219.477172
 20
218.774875
 30
0.0
 40
30.0
100
AcDbArc
 50
310.7312269999998
 51
336.6457049999999
  0
ARC
  5
1AC2A
330
1A981
100
AcDbEntity
  8
1
  6
Continuous
100
AcDbCircle
 10
481.0003309999998
 20
241.3174859999998
 30
0.0
 40
5.0
100
AcDbArc
 50
90.0
 51
180.0
  0
ARC
  5
1AC2B
330
1A981
100
AcDbEntity
  8
1
  6
Continuous
100
AcDbCircle
 10
549.135168
 20
240.270624
 30
0.0
 40
73.21064799999998
100
AcDbArc
 50
182.607681
 51
207.132956
  0
LINE
  5
1AC2C
330
1A981
100
AcDbEntity
  8
1
  6
Continuous
100
AcDbLine
 10
476.000331
 20
241.3174859999998
 30
0.0
 11
476.000331
 21
236.939766
 31
0.0
  0
ARC
  5
1AC2D
330
1A981
100
AcDbEntity
  8
1
  6
Continuous
100
AcDbCircle
 10
511.52344
 20
218.774875
 30
0.0
 40
30.0
100
AcDbArc
 50
203.354295
 51
229.268773
  0
ARC
  5
1AC2E
330
1A981
100
AcDbEntity
  8
1
  6
Continuous
100
AcDbCircle
 10
523.3732809999998
 20
232.5364079999999
 30
0.0
 40
48.160356
100
AcDbArc
 50
229.268773
 51
281.821604
  0
ARC
  5
1AC2F
330
1A981
100
AcDbEntity
  8
1
  6
Continuous
100
AcDbCircle
 10
475.4939529999998
 20
258.660031
 30
0.0
 40
8.034175999999996
100
AcDbArc
 50
214.6095869999999
 51
266.6277449999999
  0
ARC
  5
1AC30
330
1A981
100
AcDbEntity
  8
1
  6
Continuous
100
AcDbCircle
 10
531.5066289999998
 20
258.660031
 30
0.0
 40
8.034175999999996
100
AcDbArc
 50
273.3722549999999
 51
325.3904129999999
  0
ARC
  5
1AC31
330
1A981
100
AcDbEntity
  8
1
  6
Continuous
100
AcDbCircle
 10
227.5003209999999
 20
79.998502
 30
0.0
 40
24.89996
100
AcDbArc
 50
257.9286389999999
 51
102.4703099999999
  0
ARC
  5
1AC32
330
1A981
100
AcDbEntity
  8
1
  6
Continuous
100
AcDbCircle
 10
223.203249
 20
99.42898300000001
 30
0.0
 40
5.0
100
AcDbArc
 50
102.4703099999999
 51
116.8946429999998
  0
ARC
  5
1AC33
330
1A981
100
AcDbEntity
  8
1
  6
Continuous
100
AcDbCircle
 10
223.3386459999999
 20
60.53857199999999
 30
0.0
 40
5.0
100
AcDbArc
 50
243.894495
 51
257.9286389999999
  0
ARC
  5
1AC34
330
1A981
100
AcDbEntity
  8
1
  6
Continuous
100
AcDbCircle
 10
121.118009
 20
175.432872
 30
0.0
 40
88.60569099999997
100
AcDbArc
 50
137.476235
 51
138.2779659999999
  0
ARC
  5
1AC35
330
1A981
100
AcDbEntity
  8
1
  6
Continuous
100
AcDbCircle
 10
1.949165999999999
 20
252.416548
 30
0.0
 40
56.011304
100
AcDbArc
 50
340.569797
 51
341.238333
  0
LINE
  5
1AC36
330
1A981
100
AcDbEntity
  8
1
  6
Continuous
100
AcDbLine
 10
55.82804300000001
 20
235.334021
 30
0.0
 11
72.17218699999998
 21
235.334021
 31
0.0
  0
ARC
  5
1AC37
330
1A981
100
AcDbEntity
  8
1
  6
Continuous
100
AcDbCircle
 10
121.118009
 20
175.432872
 30
0.0
 40
86.00569099999999
100
AcDbArc
 50
145.1934089999998
 51
147.850581
  0
ARC
  5
1AC38
330
1A981
100
AcDbEntity
  8
1
  6
Continuous
100
AcDbCircle
 10
6.882291
 20
175.432872
 30
0.0
 40
88.60569099999997
100
AcDbArc
 50
41.72203399999999
 51
42.52376499999999
  0
ARC
  5
1AC39
330
1A981
100
AcDbEntity
  8
1
  6
Continuous
100
AcDbCircle
 10
126.051134
 20
252.416548
 30
0.0
 40
56.011304
100
AcDbArc
 50
198.761667
 51
199.430203
  0
ARC
  5
1AC3A
330
1A981
100
AcDbEntity
  8
1
  6
Continuous
100
AcDbCircle
 10
6.882291
 20
175.432872
 30
0.0
 40
86.00569099999999
100
AcDbArc
 50
32.149419
 51
34.806591
  0
ARC
  5
1AC3B
330
1A981
100
AcDbEntity
  8
1
  6
Continuous
100
AcDbCircle
 10
201.1496029999999
 20
245.692224
 30
0.0
 40
2.0
100
AcDbArc
 50
270.0
 51
0.0
  0
CIRCLE
  5
1AC41
330
1A981
100
AcDbEntity
  8
1
  6
Continuous
100
AcDbCircle
 10
200.5001529999999
 20
196.4970029999999
 30
0.0
 40
6.0
  0
LINE
  5
1AC42
330
1A981
100
AcDbEntity
  8
1
  6
Continuous
100
AcDbLine
 10
206.5001529999999
 20
199.9611049999998
 30
0.0
 11
206.5001529999999
 21
193.0329009999999
 31
0.0
  0
LINE
  5
1AC43
330
1A981
100
AcDbEntity
  8
1
  6
Continuous
100
AcDbLine
 10
194.5001529999999
 20
199.9611049999998
 30
0.0
 11
194.5001529999999
 21
193.0329009999999
 31
0.0
  0
LINE
  5
1AC44
330
1A981
100
AcDbEntity
  8
1
  6
Continuous
100
AcDbLine
 10
200.5001529999999
 20
189.5687999999998
 30
0.0
 11
206.5001529999999
 21
193.0329009999999
 31
0.0
  0
LINE
  5
1AC45
330
1A981
100
AcDbEntity
  8
1
  6
Continuous
100
AcDbLine
 10
200.5001529999999
 20
189.5687999999998
 30
0.0
 11
194.5001529999999
 21
193.0329009999999
 31
0.0
  0
LINE
  5
1AC46
330
1A981
100
AcDbEntity
  8
1
  6
Continuous
100
AcDbLine
 10
206.5001529999999
 20
199.9611049999998
 30
0.0
 11
200.5001529999999
 21
203.4252059999999
 31
0.0
  0
LINE
  5
1AC47
330
1A981
100
AcDbEntity
  8
1
  6
Continuous
100
AcDbLine
 10
194.5001529999999
 20
199.9611049999998
 30
0.0
 11
200.5001529999999
 21
203.4252059999999
 31
0.0
  0
ENDSEC
  0
SECTION
  2
OBJECTS
  0
DICTIONARY
  5
1A96F
330
0
100
AcDbDictionary
281
     1
  3
ACAD_CIP_PREVIOUS_PRODUCT_INFO
350
1ACA8
  3
ACAD_COLOR
350
1AC8A
  3
ACAD_DETAILVIEWSTYLE
350
1ACA3
  3
ACAD_GROUP
350
1A970
  3
ACAD_LAYOUT
350
1A97C
  3
ACAD_MATERIAL
350
1AC58
  3
ACAD_MLEADERSTYLE
350
1AC9F
  3
ACAD_MLINESTYLE
350
1A979
  3
ACAD_PLOTSETTINGS
350
1A97B
  3
ACAD_PLOTSTYLENAME
350
1AC56
  3
ACAD_SCALELIST
350
1AC8D
  3
ACAD_SECTIONVIEWSTYLE
350
1ACA1
  3
ACAD_TABLESTYLE
350
1AC8B
  3
ACAD_VISUALSTYLE
350
1AC71
  3
ACDB_RECOMPOSE_DATA
350
1ACC6
  3
AcDbVariableDictionary
350
1ACB9
  3
DWGPROPS
350
1ACC7
  0
DICTIONARY
  5
1ACA9
330
1A973
100
AcDbDictionary
280
     1
281
     1
  3
ADSK_XREC_LAYER_RECONCILED
360
1ACAA
  0
DICTIONARY
  5
1ACAB
330
1A989
100
AcDbDictionary
280
     1
281
     1
  3
ADSK_XREC_LAYER_RECONCILED
360
1ACAC
  0
DICTIONARY
  5
1ACAD
330
1A98A
100
AcDbDictionary
280
     1
281
     1
  3
ADSK_XREC_LAYER_RECONCILED
360
1ACAE
  0
DICTIONARY
  5
1ACAF
330
1A98B
100
AcDbDictionary
280
     1
281
     1
  3
ADSK_XREC_LAYER_RECONCILED
360
1ACB0
  0
DICTIONARY
  5
1ACB1
330
1A98C
100
AcDbDictionary
280
     1
281
     1
  3
ADSK_XREC_LAYER_RECONCILED
360
1ACB2
  0
DICTIONARY
  5
1ACB3
330
1A98D
100
AcDbDictionary
280
     1
281
     1
  3
ADSK_XREC_LAYER_RECONCILED
360
1ACB4
  0
DICTIONARY
  5
1ACB5
330
1A98E
100
AcDbDictionary
280
     1
281
     1
  3
ADSK_XREC_LAYER_RECONCILED
360
1ACB6
  0
DICTIONARY
  5
1ACB7
330
1A98F
100
AcDbDictionary
280
     1
281
     1
  3
ADSK_XREC_LAYER_RECONCILED
360
1ACB8
  0
DICTIONARY
  5
1AC51
330
1A981
100
AcDbDictionary
281
     1
  3
ACAD_LAYOUTSELFREF
350
1AC52
  0
DICTIONARY
  5
1AC4F
330
1A97D
100
AcDbDictionary
281
     1
  3
ACAD_LAYOUTSELFREF
350
1AC50
  0
XRECORD
  5
1ACA8
102
{ACAD_REACTORS
330
1A96F
102
}
330
1A96F
100
AcDbXrecord
280
     1
300
ACDLT
300
2014
300
ACDLT_F_S
  0
DICTIONARY
  5
1AC8A
102
{ACAD_REACTORS
330
1A96F
102
}
330
1A96F
100
AcDbDictionary
281
     1
  0
DICTIONARY
  5
1ACA3
102
{ACAD_REACTORS
330
1A96F
102
}
330
1A96F
100
AcDbDictionary
281
     1
  3
Imperial24
350
1ACA4
  0
DICTIONARY
  5
1A970
102
{ACAD_REACTORS
330
1A96F
102
}
330
1A96F
100
AcDbDictionary
281
     1
  0
DICTIONARY
  5
1A97C
102
{ACAD_REACTORS
330
1A96F
102
}
330
1A96F
100
AcDbDictionary
281
     1
  3
Model
350
1ACA5
  3
レイアウト1
350
1ACA6
  0
DICTIONARY
  5
1AC58
102
{ACAD_REACTORS
330
1A96F
102
}
330
1A96F
100
AcDbDictionary
281
     1
  3
ByBlock
350
1AC61
  3
ByLayer
350
1AC59
  3
Global
350
1AC69
  0
DICTIONARY
  5
1AC9F
102
{ACAD_REACTORS
330
1A96F
102
}
330
1A96F
100
AcDbDictionary
281
     1
  3
Standard
350
1ACA0
  0
DICTIONARY
  5
1A979
102
{ACAD_REACTORS
330
1A96F
102
}
330
1A96F
100
AcDbDictionary
281
     1
  3
STANDARD
350
1A97A
  0
DICTIONARY
  5
1A97B
102
{ACAD_REACTORS
330
1A96F
102
}
330
1A96F
100
AcDbDictionary
281
     1
  0
ACDBDICTIONARYWDFLT
  5
1AC56
102
{ACAD_REACTORS
330
1A96F
102
}
330
1A96F
100
AcDbDictionary
281
     1
  3
Normal
350
1AC57
100
AcDbDictionaryWithDefault
340
1AC57
  0
DICTIONARY
  5
1AC8D
102
{ACAD_REACTORS
330
1A96F
102
}
330
1A96F
100
AcDbDictionary
281
     1
  3
A0
350
1AC8E
  3
A1
350
1AC8F
  3
A2
350
1AC90
  3
A3
350
1AC91
  3
A4
350
1AC92
  3
A5
350
1AC93
  3
A6
350
1AC94
  3
A7
350
1AC95
  3
A8
350
1AC96
  3
A9
350
1AC97
  3
B0
350
1AC98
  3
B1
350
1AC99
  3
B2
350
1AC9A
  3
B3
350
1AC9B
  3
B4
350
1AC9C
  3
B5
350
1AC9D
  3
B6
350
1AC9E
  0
DICTIONARY
  5
1ACA1
102
{ACAD_REACTORS
330
1A96F
102
}
330
1A96F
100
AcDbDictionary
281
     1
  3
Imperial24
350
1ACA2
  0
DICTIONARY
  5
1AC8B
102
{ACAD_REACTORS
330
1A96F
102
}
330
1A96F
100
AcDbDictionary
281
     1
  3
Standard
350
1AC8C
  0
DICTIONARY
  5
1AC71
102
{ACAD_REACTORS
330
1A96F
102
}
330
1A96F
100
AcDbDictionary
281
     1
  3
2dWireframe
350
1AC77
  3
Basic
350
1AC76
  3
Brighten
350
1AC7D
  3
ColorChange
350
1AC81
  3
Conceptual
350
1AC7A
  3
Dim
350
1AC7C
  3
EdgeColorOff
350
1AC89
  3
Facepattern
350
1AC80
  3
Flat
350
1AC72
  3
FlatWithEdges
350
1AC73
  3
Gouraud
350
1AC74
  3
GouraudWithEdges
350
1AC75
  3
Hidden
350
1AC79
  3
JitterOff
350
1AC87
  3
Linepattern
350
1AC7F
  3
OverhangOff
350
1AC88
  3
Realistic
350
1AC7B
  3
Shaded
350
1AC86
  3
Shaded with edges
350
1AC85
  3
Shades of Gray
350
1AC82
  3
Sketchy
350
1AC83
  3
Thicken
350
1AC7E
  3
Wireframe
350
1AC78
  3
X-Ray
350
1AC84
  0
XRECORD
  5
1ACC6
102
{ACAD_REACTORS
330
1A96F
102
}
330
1A96F
100
AcDbXrecord
280
     1
 90
        1
330
1AC8C
  0
DICTIONARY
  5
1ACB9
102
{ACAD_REACTORS
330
1A96F
102
}
330
1A96F
100
AcDbDictionary
281
     1
  3
CANNOSCALE
350
1ACBE
  3
CMLEADERSTYLE
350
1ACBB
  3
CTABLESTYLE
350
1ACBA
  3
CVIEWDETAILSTYLE
350
1ACBC
  3
CVIEWSECTIONSTYLE
350
1ACBD
  3
DIMASSOC
350
1ACC1
  3
INDEXCTL
350
1ACC0
  3
SORTENTS
350
1ACBF
  3
XCLIPFRAME
350
1ACC2
  0
XRECORD
  5
1ACC7
102
{ACAD_REACTORS
330
1A96F
102
}
330
1A96F
100
AcDbXrecord
280
     1
  1
DWGPROPS COOKIE
  2

  3

  4

  6

  7

  8
Yoshitsune
  9

300
=
301
=
302
=
303
=
304
=
305
=
306
=
307
=
308
=
309
=
 40
0.0002433449074074
 41
2451303.376999884
 42
2457192.687172813
  1

 90
        0
  0
XRECORD
  5
1ACAA
102
{ACAD_REACTORS
330
1ACA9
102
}
330
1ACA9
100
AcDbXrecord
280
     1
290
     1
  0
XRECORD
  5
1ACAC
102
{ACAD_REACTORS
330
1ACAB
102
}
330
1ACAB
100
AcDbXrecord
280
     1
290
     1
  0
XRECORD
  5
1ACAE
102
{ACAD_REACTORS
330
1ACAD
102
}
330
1ACAD
100
AcDbXrecord
280
     1
290
     1
  0
XRECORD
  5
1ACB0
102
{ACAD_REACTORS
330
1ACAF
102
}
330
1ACAF
100
AcDbXrecord
280
     1
290
     1
  0
XRECORD
  5
1ACB2
102
{ACAD_REACTORS
330
1ACB1
102
}
330
1ACB1
100
AcDbXrecord
280
     1
290
     1
  0
XRECORD
  5
1ACB4
102
{ACAD_REACTORS
330
1ACB3
102
}
330
1ACB3
100
AcDbXrecord
280
     1
290
     1
  0
XRECORD
  5
1ACB6
102
{ACAD_REACTORS
330
1ACB5
102
}
330
1ACB5
100
AcDbXrecord
280
     1
290
     1
  0
XRECORD
  5
1ACB8
102
{ACAD_REACTORS
330
1ACB7
102
}
330
1ACB7
100
AcDbXrecord
280
     1
290
     1
  0
XRECORD
  5
1AC52
102
{ACAD_REACTORS
330
1AC51
102
}
330
1AC51
100
AcDbXrecord
280
     1
340
1A981
  0
XRECORD
  5
1AC50
102
{ACAD_REACTORS
330
1AC4F
102
}
330
1AC4F
100
AcDbXrecord
280
     1
340
1A97D
  0
ACDBDETAILVIEWSTYLE
  5
1ACA4
102
{ACAD_XDICTIONARY
360
1ACFF
102
}
102
{ACAD_REACTORS
330
1ACA3
102
}
330
1ACA3
100
AcDbModelDocViewStyle
 70
     0
  3
Imperial24
290
     0
100
AcDbDetailViewStyle
 70
     0
 71
     0
 90
        3
 71
     1
340
1A974
 40
0.24
340
0
 40
0.24
300

 40
0.36
280
     3
 71
     2
340
1A978
 90
       25
 71
     3
340
1A974
 40
0.24
 90
        1
 40
0.75
 90
        1
300
%<\AcVar ViewType \f "%tc1">% %<\AcVar ViewDetailId>%\PSCALE %<\AcVar ViewScale \f "%sn">%
 71
     4
340
1A978
 90
       25
340
1A978
 90
       25
280
     0
  0
LAYOUT
  5
1ACA5
102
{ACAD_XDICTIONARY
360
1AD01
102
}
102
{ACAD_REACTORS
330
1A97C
102
}
330
1A97C
100
AcDbPlotSettings
  1

  2
Canon LBP9100C
  4

  6

 40
0.0
 41
0.0
 42
0.0
 43
0.0
 44
0.0
 45
0.0
 46
0.0
 47
0.0
 48
0.0
 49
0.0
140
0.0
141
0.0
142
1.0
143
1.0
 70
  1712
 72
     0
 73
     0
 74
     0
  7

 75
     0
147
1.0
148
0.0
149
0.0
100
AcDbLayout
  1
Model
 70
     1
 71
     0
 10
0.0
 20
0.0
 11
12.0
 21
9.0
 12
0.0
 22
0.0
 32
0.0
 14
0.0
 24
0.0
 34
0.0
 15
0.0
 25
0.0
 35
0.0
146
0.0
 13
0.0
 23
0.0
 33
0.0
 16
1.0
 26
0.0
 36
0.0
 17
0.0
 27
1.0
 37
0.0
 76
     0
330
1A981
331
1AC4E
  0
LAYOUT
  5
1ACA6
102
{ACAD_XDICTIONARY
360
1AD03
102
}
102
{ACAD_REACTORS
330
1A97C
102
}
330
1A97C
100
AcDbPlotSettings
  1

  2
Canon LBP9100C
  4

  6

 40
0.0
 41
0.0
 42
0.0
 43
0.0
 44
0.0
 45
0.0
 46
0.0
 47
0.0
 48
0.0
 49
0.0
140
0.0
141
0.0
142
1.0
143
1.0
 70
   688
 72
     0
 73
     0
 74
     5
  7

 75
    16
147
1.0
148
0.0
149
0.0
100
AcDbLayout
  1
レイアウト1
 70
     0
 71
     1
 10
0.0
 20
0.0
 11
420.0
 21
297.0
 12
0.0
 22
0.0
 32
0.0
 14
1.000000000000000E+20
 24
1.000000000000000E+20
 34
1.000000000000000E+20
 15
-1.000000000000000E+20
 25
-1.000000000000000E+20
 35
-1.000000000000000E+20
146
0.0
 13
0.0
 23
0.0
 33
0.0
 16
1.0
 26
0.0
 36
0.0
 17
0.0
 27
1.0
 37
0.0
 76
     0
330
1A97D
  0
MATERIAL
  5
1AC61
102
{ACAD_XDICTIONARY
360
1AC62
102
}
102
{ACAD_REACTORS
330
1AC58
102
}
330
1AC58
100
AcDbMaterial
  1
ByBlock
 72
     0
 43
0.0208333333333333
 43
0.0
 43
0.0
 43
0.0
 43
0.0
 43
0.0208333333333333
 43
0.0
 43
0.0
 43
0.0
 43
0.0
 43
1.0
 43
0.0
 43
0.0
 43
0.0
 43
0.0
 43
1.0
 77
     0
 47
0.0208333333333333
 47
0.0
 47
0.0
 47
0.0
 47
0.0
 47
0.0208333333333333
 47
0.0
 47
0.0
 47
0.0
 47
0.0
 47
1.0
 47
0.0
 47
0.0
 47
0.0
 47
0.0
 47
1.0
171
     0
 49
0.0208333333333333
 49
0.0
 49
0.0
 49
0.0
 49
0.0
 49
0.0208333333333333
 49
0.0
 49
0.0
 49
0.0
 49
0.0
 49
1.0
 49
0.0
 49
0.0
 49
0.0
 49
0.0
 49
1.0
175
     0
142
0.0208333333333333
142
0.0
142
0.0
142
0.0
142
0.0
142
0.0208333333333333
142
0.0
142
0.0
142
0.0
142
0.0
142
1.0
142
0.0
142
0.0
142
0.0
142
0.0
142
1.0
179
     0
144
0.0208333333333333
144
0.0
144
0.0
144
0.0
144
0.0
144
0.0208333333333333
144
0.0
144
0.0
144
0.0
144
0.0
144
1.0
144
0.0
144
0.0
144
0.0
144
0.0
144
1.0
147
0.0208333333333333
147
0.0
147
0.0
147
0.0
147
0.0
147
0.0208333333333333
147
0.0
147
0.0
147
0.0
147
0.0
147
1.0
147
0.0
147
0.0
147
0.0
147
0.0
147
1.0
  0
MATERIAL
  5
1AC59
102
{ACAD_XDICTIONARY
360
1AC5A
102
}
102
{ACAD_REACTORS
330
1AC58
102
}
330
1AC58
100
AcDbMaterial
  1
ByLayer
 72
     0
 43
0.0208333333333333
 43
0.0
 43
0.0
 43
0.0
 43
0.0
 43
0.0208333333333333
 43
0.0
 43
0.0
 43
0.0
 43
0.0
 43
1.0
 43
0.0
 43
0.0
 43
0.0
 43
0.0
 43
1.0
 77
     0
 47
0.0208333333333333
 47
0.0
 47
0.0
 47
0.0
 47
0.0
 47
0.0208333333333333
 47
0.0
 47
0.0
 47
0.0
 47
0.0
 47
1.0
 47
0.0
 47
0.0
 47
0.0
 47
0.0
 47
1.0
171
     0
 49
0.0208333333333333
 49
0.0
 49
0.0
 49
0.0
 49
0.0
 49
0.0208333333333333
 49
0.0
 49
0.0
 49
0.0
 49
0.0
 49
1.0
 49
0.0
 49
0.0
 49
0.0
 49
0.0
 49
1.0
175
     0
142
0.0208333333333333
142
0.0
142
0.0
142
0.0
142
0.0
142
0.0208333333333333
142
0.0
142
0.0
142
0.0
142
0.0
142
1.0
142
0.0
142
0.0
142
0.0
142
0.0
142
1.0
179
     0
144
0.0208333333333333
144
0.0
144
0.0
144
0.0
144
0.0
144
0.0208333333333333
144
0.0
144
0.0
144
0.0
144
0.0
144
1.0
144
0.0
144
0.0
144
0.0
144
0.0
144
1.0
147
0.0208333333333333
147
0.0
147
0.0
147
0.0
147
0.0
147
0.0208333333333333
147
0.0
147
0.0
147
0.0
147
0.0
147
1.0
147
0.0
147
0.0
147
0.0
147
0.0
147
1.0
  0
MATERIAL
  5
1AC69
102
{ACAD_XDICTIONARY
360
1AC6A
102
}
102
{ACAD_REACTORS
330
1AC58
102
}
330
1AC58
100
AcDbMaterial
  1
Global
 72
     0
 43
0.0208333333333333
 43
0.0
 43
0.0
 43
0.0
 43
0.0
 43
0.0208333333333333
 43
0.0
 43
0.0
 43
0.0
 43
0.0
 43
1.0
 43
0.0
 43
0.0
 43
0.0
 43
0.0
 43
1.0
 77
     0
 47
0.0208333333333333
 47
0.0
 47
0.0
 47
0.0
 47
0.0
 47
0.0208333333333333
 47
0.0
 47
0.0
 47
0.0
 47
0.0
 47
1.0
 47
0.0
 47
0.0
 47
0.0
 47
0.0
 47
1.0
171
     0
 49
0.0208333333333333
 49
0.0
 49
0.0
 49
0.0
 49
0.0
 49
0.0208333333333333
 49
0.0
 49
0.0
 49
0.0
 49
0.0
 49
1.0
 49
0.0
 49
0.0
 49
0.0
 49
0.0
 49
1.0
175
     0
142
0.0208333333333333
142
0.0
142
0.0
142
0.0
142
0.0
142
0.0208333333333333
142
0.0
142
0.0
142
0.0
142
0.0
142
1.0
142
0.0
142
0.0
142
0.0
142
0.0
142
1.0
179
     0
144
0.0208333333333333
144
0.0
144
0.0
144
0.0
144
0.0
144
0.0208333333333333
144
0.0
144
0.0
144
0.0
144
0.0
144
1.0
144
0.0
144
0.0
144
0.0
144
0.0
144
1.0
147
0.0208333333333333
147
0.0
147
0.0
147
0.0
147
0.0
147
0.0208333333333333
147
0.0
147
0.0
147
0.0
147
0.0
147
1.0
147
0.0
147
0.0
147
0.0
147
0.0
147
1.0
  0
MLEADERSTYLE
  5
1ACA0
102
{ACAD_REACTORS
330
1AC9F
102
}
330
1AC9F
100
AcDbMLeaderStyle
170
     2
171
     1
172
     0
 90
        2
 40
0.0
 41
0.0
173
     1
 91
-1056964608
340
1A976
 92
       -2
290
     1
 42
0.09
291
     1
 43
0.36
  3
Standard
 44
0.18
300

342
1A974
174
     1
178
     6
175
     1
176
     0
 93
-1056964608
 45
0.18
292
     0
297
     0
 46
0.18
 94
-1056964608
 47
1.0
 49
1.0
140
1.0
293
     1
141
0.0
294
     1
177
     0
142
1.0
295
     0
296
     0
143
0.125
1001
ACAD_MLEADERVER
1070
     2
  0
MLINESTYLE
  5
1A97A
102
{ACAD_REACTORS
330
1A979
102
}
330
1A979
100
AcDbMlineStyle
  2
STANDARD
 70
     0
  3

 62
   256
 51
90.0
 52
90.0
 71
     2
 49
0.5
 62
   256
  6
BYLAYER
 49
-0.5
 62
   256
  6
BYLAYER
  0
ACDBPLACEHOLDER
  5
1AC57
102
{ACAD_REACTORS
330
1AC56
102
}
330
1AC56
  0
SCALE
  5
1AC8E
102
{ACAD_REACTORS
330
1AC8D
102
}
330
1AC8D
100
AcDbScale
 70
     0
300
1:1
140
1.0
141
1.0
290
     1
  0
SCALE
  5
1AC8F
102
{ACAD_REACTORS
330
1AC8D
102
}
330
1AC8D
100
AcDbScale
 70
     0
300
1/128" = 1'-0"
140
0.0078125
141
12.0
290
     0
  0
SCALE
  5
1AC90
102
{ACAD_REACTORS
330
1AC8D
102
}
330
1AC8D
100
AcDbScale
 70
     0
300
1/64" = 1'-0"
140
0.015625
141
12.0
290
     0
  0
SCALE
  5
1AC91
102
{ACAD_REACTORS
330
1AC8D
102
}
330
1AC8D
100
AcDbScale
 70
     0
300
1/32" = 1'-0"
140
0.03125
141
12.0
290
     0
  0
SCALE
  5
1AC92
102
{ACAD_REACTORS
330
1AC8D
102
}
330
1AC8D
100
AcDbScale
 70
     0
300
1/16" = 1'-0"
140
0.0625
141
12.0
290
     0
  0
SCALE
  5
1AC93
102
{ACAD_REACTORS
330
1AC8D
102
}
330
1AC8D
100
AcDbScale
 70
     0
300
3/32" = 1'-0"
140
0.09375
141
12.0
290
     0
  0
SCALE
  5
1AC94
102
{ACAD_REACTORS
330
1AC8D
102
}
330
1AC8D
100
AcDbScale
 70
     0
300
1/8" = 1'-0"
140
0.125
141
12.0
290
     0
  0
SCALE
  5
1AC95
102
{ACAD_REACTORS
330
1AC8D
102
}
330
1AC8D
100
AcDbScale
 70
     0
300
3/16" = 1'-0"
140
0.1875
141
12.0
290
     0
  0
SCALE
  5
1AC96
102
{ACAD_REACTORS
330
1AC8D
102
}
330
1AC8D
100
AcDbScale
 70
     0
300
1/4" = 1'-0"
140
0.25
141
12.0
290
     0
  0
SCALE
  5
1AC97
102
{ACAD_REACTORS
330
1AC8D
102
}
330
1AC8D
100
AcDbScale
 70
     0
300
3/8" = 1'-0"
140
0.375
141
12.0
290
     0
  0
SCALE
  5
1AC98
102
{ACAD_REACTORS
330
1AC8D
102
}
330
1AC8D
100
AcDbScale
 70
     0
300
1/2" = 1'-0"
140
0.5
141
12.0
290
     0
  0
SCALE
  5
1AC99
102
{ACAD_REACTORS
330
1AC8D
102
}
330
1AC8D
100
AcDbScale
 70
     0
300
3/4" = 1'-0"
140
0.75
141
12.0
290
     0
  0
SCALE
  5
1AC9A
102
{ACAD_REACTORS
330
1AC8D
102
}
330
1AC8D
100
AcDbScale
 70
     0
300
1" = 1'-0"
140
1.0
141
12.0
290
     0
  0
SCALE
  5
1AC9B
102
{ACAD_REACTORS
330
1AC8D
102
}
330
1AC8D
100
AcDbScale
 70
     0
300
1-1/2" = 1'-0"
140
1.5
141
12.0
290
     0
  0
SCALE
  5
1AC9C
102
{ACAD_REACTORS
330
1AC8D
102
}
330
1AC8D
100
AcDbScale
 70
     0
300
3" = 1'-0"
140
3.0
141
12.0
290
     0
  0
SCALE
  5
1AC9D
102
{ACAD_REACTORS
330
1AC8D
102
}
330
1AC8D
100
AcDbScale
 70
     0
300
6" = 1'-0"
140
6.0
141
12.0
290
     0
  0
SCALE
  5
1AC9E
102
{ACAD_REACTORS
330
1AC8D
102
}
330
1AC8D
100
AcDbScale
 70
     0
300
1'-0" = 1'-0"
140
12.0
141
12.0
290
     0
  0
ACDBSECTIONVIEWSTYLE
  5
1ACA2
102
{ACAD_XDICTIONARY
360
1ACFD
102
}
102
{ACAD_REACTORS
330
1ACA1
102
}
330
1ACA1
100
AcDbModelDocViewStyle
 70
     0
  3
Imperial24
290
     0
100
AcDbSectionViewStyle
 70
     0
 71
     0
 90
       78
 71
     1
340
1A974
 40
0.24
340
0
340
0
 40
0.24
300
I, O, Q, S, X, Z
 40
0.48
 90
        3
 40
0.18
 90
        1
 71
     2
340
1A978
 90
       25
340
1A978
 90
       50
 40
0.24
 40
0.0
 40
0.24
 71
     3
340
1A974
 40
0.24
 90
        1
 40
0.75
 90
        1
300
%<\AcVar ViewType \f "%tc1">% %<\AcVar ViewSectionStartId>%-%<\AcVar ViewSectionEndId>%\PSCALE %<\AcVar ViewScale \f "%sn">%
 71
     4
300
ANSI31
 40
1.0
 90
        0
290
     0
290
     0
 90
        6
 40
0.0
 40
1.570796326794896
 40
0.2617993877991494
 40
1.308996938995747
 40
-0.2617993877991494
 40
1.832595714594046
  0
TABLESTYLE
  5
1AC8C
102
{ACAD_XDICTIONARY
360
1ACC4
102
}
102
{ACAD_REACTORS
330
1AC8B
102
}
330
1AC8B
100
AcDbTableStyle
  3
Standard
 70
     0
 71
     0
 40
0.06
 41
0.06
280
     0
281
     0
  7
STANDARD
140
0.18
170
     2
 62
     0
 63
     7
283
     0
274
    -2
284
     1
 64
     0
275
    -2
285
     1
 65
     0
276
    -2
286
     1
 66
     0
277
    -2
287
     1
 67
     0
278
    -2
288
     1
 68
     0
279
    -2
289
     1
 69
     0
  7
STANDARD
140
0.25
170
     5
 62
     0
 63
     7
283
     0
274
    -2
284
     1
 64
     0
275
    -2
285
     1
 65
     0
276
    -2
286
     1
 66
     0
277
    -2
287
     1
 67
     0
278
    -2
288
     1
 68
     0
279
    -2
289
     1
 69
     0
  7
STANDARD
140
0.18
170
     5
 62
     0
 63
     7
283
     0
274
    -2
284
     1
 64
     0
275
    -2
285
     1
 65
     0
276
    -2
286
     1
 66
     0
277
    -2
287
     1
 67
     0
278
    -2
288
     1
 68
     0
279
    -2
289
     1
 69
     0
  0
VISUALSTYLE
  5
1AC77
102
{ACAD_XDICTIONARY
360
1ACD5
102
}
102
{ACAD_REACTORS
330
1AC71
102
}
330
1AC71
100
AcDbVisualStyle
  2
2dWireframe
 70
     4
 71
     0
 72
     2
 73
     0
 90
        0
 40
-0.6
 41
-30.0
 62
     5
 63
     7
 74
     1
 91
        4
 64
     7
 65
   257
 75
     1
175
     1
 42
1.0
 92
        0
 66
   257
 43
1.0
 76
     1
 77
     6
 78
     2
 67
     7
 79
     5
170
     0
171
     0
290
     0
174
     0
 93
        1
 44
0.0
173
     0
291
     0
 45
0.0
1001
ACAD
1000
AcDbSavedByObjectVersion
1070
     0
  0
VISUALSTYLE
  5
1AC76
102
{ACAD_XDICTIONARY
360
1ACD3
102
}
102
{ACAD_REACTORS
330
1AC71
102
}
330
1AC71
100
AcDbVisualStyle
  2
Basic
 70
     7
 71
     1
 72
     0
 73
     1
 90
        0
 40
-0.6
 41
-30.0
 62
     5
 63
     7
 74
     0
 91
        4
 64
     7
 65
   257
 75
     1
175
     1
 42
1.0
 92
        8
 66
     7
 43
1.0
 76
     1
 77
     6
 78
     2
 67
     7
 79
     5
170
     0
171
     0
290
     0
174
     0
 93
        1
 44
0.0
173
     0
291
     1
 45
0.0
1001
ACAD
1000
AcDbSavedByObjectVersion
1070
     0
  0
VISUALSTYLE
  5
1AC7D
102
{ACAD_XDICTIONARY
360
1ACE1
102
}
102
{ACAD_REACTORS
330
1AC71
102
}
330
1AC71
100
AcDbVisualStyle
  2
Brighten
 70
    12
 71
     2
 72
     2
 73
     0
 90
        0
 40
-0.6
 41
-30.0
 62
     5
 63
     7
 74
     1
 91
        4
 64
     7
 65
   257
 75
     1
175
     1
 42
1.0
 92
        8
 66
     7
 43
1.0
 76
     1
 77
     6
 78
     2
 67
     7
 79
     5
170
     0
171
     0
290
     0
174
     0
 93
        1
 44
50.0
173
     0
291
     1
 45
0.0
1001
ACAD
1000
AcDbSavedByObjectVersion
1070
     0
  0
VISUALSTYLE
  5
1AC81
102
{ACAD_XDICTIONARY
360
1ACE9
102
}
102
{ACAD_REACTORS
330
1AC71
102
}
330
1AC71
100
AcDbVisualStyle
  2
ColorChange
 70
    16
 71
     2
 72
     2
 73
     3
 90
        0
 40
-0.6
 41
-30.0
 62
     5
 63
     8
 74
     1
 91
        4
 64
     7
 65
   257
 75
     1
175
     1
 42
1.0
 92
        8
 66
     8
 43
1.0
 76
     1
 77
     6
 78
     2
 67
     7
 79
     5
170
     0
171
     0
290
     0
174
     0
 93
        1
 44
0.0
173
     0
291
     1
 45
0.0
1001
ACAD
1000
AcDbSavedByObjectVersion
1070
     0
  0
VISUALSTYLE
  5
1AC7A
102
{ACAD_XDICTIONARY
360
1ACDB
102
}
102
{ACAD_REACTORS
330
1AC71
102
}
330
1AC71
100
AcDbVisualStyle
  2
Conceptual
 70
     9
 71
     3
 72
     2
 73
     0
 90
        0
 40
-0.6
 41
-30.0
 62
     5
 63
     7
 74
     2
 91
        2
 64
     7
 65
   257
 75
     1
175
     1
 42
179.0
 92
        8
 66
     7
 43
1.0
 76
     1
 77
     6
 78
     2
 67
     7
 79
     3
170
     0
171
     0
290
     0
174
     0
 93
        1
 44
0.0
173
     0
291
     0
 45
0.0
1001
ACAD
1000
AcDbSavedByObjectVersion
1070
     0
  0
VISUALSTYLE
  5
1AC7C
102
{ACAD_XDICTIONARY
360
1ACDF
102
}
102
{ACAD_REACTORS
330
1AC71
102
}
330
1AC71
100
AcDbVisualStyle
  2
Dim
 70
    11
 71
     2
 72
     2
 73
     0
 90
        0
 40
-0.6
 41
-30.0
 62
     5
 63
     7
 74
     1
 91
        4
 64
     7
 65
   257
 75
     1
175
     1
 42
1.0
 92
        8
 66
     7
 43
1.0
 76
     1
 77
     6
 78
     2
 67
     7
 79
     5
170
     0
171
     0
290
     0
174
     0
 93
        1
 44
-50.0
173
     0
291
     1
 45
0.0
1001
ACAD
1000
AcDbSavedByObjectVersion
1070
     0
  0
VISUALSTYLE
  5
1AC89
102
{ACAD_XDICTIONARY
360
1ACF9
102
}
102
{ACAD_REACTORS
330
1AC71
102
}
330
1AC71
100
AcDbVisualStyle
  2
EdgeColorOff
 70
    22
 71
     2
 72
     2
 73
     0
 90
        0
 40
-0.6
 41
-30.0
 62
     5
 63
     7
 74
     1
 91
        4
 64
     7
 65
   257
 75
     1
175
     1
 42
1.0
 92
        8
 66
     7
 43
1.0
 76
     1
 77
     6
 78
     2
 67
     7
 79
     5
170
     0
171
     0
290
     0
174
     0
 93
        1
 44
0.0
173
     0
291
     1
 45
0.0
1001
ACAD
1000
AcDbSavedByObjectVersion
1070
     0
  0
VISUALSTYLE
  5
1AC80
102
{ACAD_XDICTIONARY
360
1ACE7
102
}
102
{ACAD_REACTORS
330
1AC71
102
}
330
1AC71
100
AcDbVisualStyle
  2
Facepattern
 70
    15
 71
     2
 72
     2
 73
     0
 90
        0
 40
-0.6
 41
-30.0
 62
     5
 63
     7
 74
     1
 91
        4
 64
     7
 65
   257
 75
     1
175
     1
 42
1.0
 92
        8
 66
     7
 43
1.0
 76
     1
 77
     6
 78
     2
 67
     7
 79
     5
170
     0
171
     0
290
     0
174
     0
 93
        1
 44
0.0
173
     0
291
     1
 45
0.0
1001
ACAD
1000
AcDbSavedByObjectVersion
1070
     0
  0
VISUALSTYLE
  5
1AC72
102
{ACAD_XDICTIONARY
360
1ACCB
102
}
102
{ACAD_REACTORS
330
1AC71
102
}
330
1AC71
100
AcDbVisualStyle
  2
Flat
 70
     0
 71
     2
 72
     1
 73
     1
 90
        2
 40
-0.6
 41
30.0
 62
     5
 63
     7
 74
     0
 91
        0
 64
     7
 65
   257
 75
     1
175
     1
 42
1.0
 92
        8
 66
     7
 43
1.0
 76
     1
 77
     6
 78
     2
 67
     7
 79
     5
170
     0
171
     0
290
     0
174
     0
 93
       13
 44
0.0
173
     0
291
     1
 45
0.0
1001
ACAD
1000
AcDbSavedByObjectVersion
1070
     0
  0
VISUALSTYLE
  5
1AC73
102
{ACAD_XDICTIONARY
360
1ACCD
102
}
102
{ACAD_REACTORS
330
1AC71
102
}
330
1AC71
100
AcDbVisualStyle
  2
FlatWithEdges
 70
     1
 71
     2
 72
     1
 73
     1
 90
        2
 40
-0.6
 41
30.0
 62
     5
 63
     7
 74
     1
 91
        0
 64
     7
 65
   257
 75
     1
175
     1
 42
1.0
 92
        0
 66
   257
 43
1.0
 76
     1
 77
     6
 78
     2
 67
     7
 79
     5
170
     0
171
     0
290
     0
174
     0
 93
       13
 44
0.0
173
     0
291
     1
 45
0.0
1001
ACAD
1000
AcDbSavedByObjectVersion
1070
     0
  0
VISUALSTYLE
  5
1AC74
102
{ACAD_XDICTIONARY
360
1ACCF
102
}
102
{ACAD_REACTORS
330
1AC71
102
}
330
1AC71
100
AcDbVisualStyle
  2
Gouraud
 70
     2
 71
     2
 72
     2
 73
     1
 90
        2
 40
-0.6
 41
30.0
 62
     5
 63
     7
 74
     0
 91
        0
 64
     7
 65
   257
 75
     1
175
     1
 42
1.0
 92
        0
 66
     7
 43
1.0
 76
     1
 77
     6
 78
     2
 67
     7
 79
     5
170
     0
171
     0
290
     0
174
     0
 93
       13
 44
0.0
173
     0
291
     1
 45
0.0
1001
ACAD
1000
AcDbSavedByObjectVersion
1070
     0
  0
VISUALSTYLE
  5
1AC75
102
{ACAD_XDICTIONARY
360
1ACD1
102
}
102
{ACAD_REACTORS
330
1AC71
102
}
330
1AC71
100
AcDbVisualStyle
  2
GouraudWithEdges
 70
     3
 71
     2
 72
     2
 73
     1
 90
        2
 40
-0.6
 41
30.0
 62
     5
 63
     7
 74
     1
 91
        0
 64
     7
 65
   257
 75
     1
175
     1
 42
1.0
 92
        0
 66
   257
 43
1.0
 76
     1
 77
     6
 78
     2
 67
     7
 79
     5
170
     0
171
     0
290
     0
174
     0
 93
       13
 44
0.0
173
     0
291
     1
 45
0.0
1001
ACAD
1000
AcDbSavedByObjectVersion
1070
     0
  0
VISUALSTYLE
  5
1AC79
102
{ACAD_XDICTIONARY
360
1ACD9
102
}
102
{ACAD_REACTORS
330
1AC71
102
}
330
1AC71
100
AcDbVisualStyle
  2
Hidden
 70
     6
 71
     1
 72
     2
 73
     2
 90
        0
 40
-0.6
 41
-30.0
 62
     5
 63
     7
 74
     2
 91
        2
 64
     7
 65
   257
 75
     2
175
     1
 42
40.0
 92
        0
 66
   257
 43
1.0
 76
     1
 77
     6
 78
     2
 67
     7
 79
     3
170
     0
171
     0
290
     0
174
     0
 93
        1
 44
0.0
173
     0
291
     0
 45
0.0
1001
ACAD
1000
AcDbSavedByObjectVersion
1070
     0
  0
VISUALSTYLE
  5
1AC87
102
{ACAD_XDICTIONARY
360
1ACF5
102
}
102
{ACAD_REACTORS
330
1AC71
102
}
330
1AC71
100
AcDbVisualStyle
  2
JitterOff
 70
    20
 71
     2
 72
     2
 73
     0
 90
        0
 40
-0.6
 41
-30.0
 62
     5
 63
     7
 74
     1
 91
        4
 64
     7
 65
   257
 75
     1
175
     1
 42
1.0
 92
       10
 66
     7
 43
1.0
 76
     1
 77
     6
 78
     2
 67
     7
 79
     5
170
     0
171
     0
290
     0
174
     0
 93
        1
 44
0.0
173
     0
291
     1
 45
0.0
1001
ACAD
1000
AcDbSavedByObjectVersion
1070
     0
  0
VISUALSTYLE
  5
1AC7F
102
{ACAD_XDICTIONARY
360
1ACE5
102
}
102
{ACAD_REACTORS
330
1AC71
102
}
330
1AC71
100
AcDbVisualStyle
  2
Linepattern
 70
    14
 71
     2
 72
     2
 73
     0
 90
        0
 40
-0.6
 41
-30.0
 62
     5
 63
     7
 74
     1
 91
        4
 64
     7
 65
   257
 75
     7
175
     7
 42
1.0
 92
        8
 66
     7
 43
1.0
 76
     1
 77
     6
 78
     2
 67
     7
 79
     5
170
     0
171
     0
290
     0
174
     0
 93
        1
 44
0.0
173
     0
291
     1
 45
0.0
1001
ACAD
1000
AcDbSavedByObjectVersion
1070
     0
  0
VISUALSTYLE
  5
1AC88
102
{ACAD_XDICTIONARY
360
1ACF7
102
}
102
{ACAD_REACTORS
330
1AC71
102
}
330
1AC71
100
AcDbVisualStyle
  2
OverhangOff
 70
    21
 71
     2
 72
     2
 73
     0
 90
        0
 40
-0.6
 41
-30.0
 62
     5
 63
     7
 74
     1
 91
        4
 64
     7
 65
   257
 75
     1
175
     1
 42
1.0
 92
        9
 66
     7
 43
1.0
 76
     1
 77
     6
 78
     2
 67
     7
 79
     5
170
     0
171
     0
290
     0
174
     0
 93
        1
 44
0.0
173
     0
291
     1
 45
0.0
1001
ACAD
1000
AcDbSavedByObjectVersion
1070
     0
  0
VISUALSTYLE
  5
1AC7B
102
{ACAD_XDICTIONARY
360
1ACDD
102
}
102
{ACAD_REACTORS
330
1AC71
102
}
330
1AC71
100
AcDbVisualStyle
  2
Realistic
 70
     8
 71
     2
 72
     3
 73
     0
 90
        2
 40
-0.6
 41
30.0
 62
     5
 63
     7
 74
     0
 91
        0
 64
     7
 65
   257
 75
     1
175
     1
 42
1.0
 92
        8
 66
   257
 43
1.0
 76
     1
 77
     6
 78
     2
 67
     7
 79
     3
170
     0
171
     0
290
     0
174
     0
 93
       13
 44
0.0
173
     0
291
     0
 45
0.0
1001
ACAD
1000
AcDbSavedByObjectVersion
1070
     0
  0
VISUALSTYLE
  5
1AC86
102
{ACAD_XDICTIONARY
360
1ACF3
102
}
102
{ACAD_REACTORS
330
1AC71
102
}
330
1AC71
100
AcDbVisualStyle
  2
Shaded
 70
    27
 71
     2
 72
     2
 73
     1
 90
        2
 40
-0.6
 41
30.0
 62
     5
 63
     7
 74
     0
 91
        4
 64
     7
 65
   257
 75
     1
175
     1
 42
1.0
 92
        8
 66
   257
 43
1.0
 76
     1
 77
     6
 78
     2
 67
     8
 79
     3
170
     0
171
     0
290
     0
174
     0
 93
        5
 44
0.0
173
     0
291
     0
 45
0.0
1001
ACAD
1000
AcDbSavedByObjectVersion
1070
     0
  0
VISUALSTYLE
  5
1AC85
102
{ACAD_XDICTIONARY
360
1ACF1
102
}
102
{ACAD_REACTORS
330
1AC71
102
}
330
1AC71
100
AcDbVisualStyle
  2
Shaded with edges
 70
    26
 71
     2
 72
     2
 73
     1
 90
        2
 40
-0.6
 41
30.0
 62
     5
 63
     7
 74
     1
 91
       10
 64
     7
 65
   257
 75
     2
175
     1
 42
1.0
 92
        8
 66
   257
 43
1.0
 76
     1
 77
     6
 78
     2
 67
     7
 79
     3
170
     0
171
     0
290
     0
174
     0
 93
        5
 44
0.0
173
     0
291
     0
 45
0.0
1001
ACAD
1000
AcDbSavedByObjectVersion
1070
     0
  0
VISUALSTYLE
  5
1AC82
102
{ACAD_XDICTIONARY
360
1ACEB
102
}
102
{ACAD_REACTORS
330
1AC71
102
}
330
1AC71
100
AcDbVisualStyle
  2
Shades of Gray
 70
    23
 71
     2
 72
     2
 73
     3
 90
        0
 40
-0.6
 41
-30.0
 62
     5
 63
     7
 74
     2
 91
        2
 64
     7
 65
     7
 75
     1
175
     1
 42
40.0
 92
        8
 66
     7
 43
1.0
 76
     1
 77
     6
 78
     2
 67
     7
 79
     3
170
     0
171
     0
290
     0
174
     0
 93
        1
 44
0.0
173
     0
291
     0
 45
0.0
1001
ACAD
1000
AcDbSavedByObjectVersion
1070
     0
  0
VISUALSTYLE
  5
1AC83
102
{ACAD_XDICTIONARY
360
1ACED
102
}
102
{ACAD_REACTORS
330
1AC71
102
}
330
1AC71
100
AcDbVisualStyle
  2
Sketchy
 70
    24
 71
     1
 72
     2
 73
     2
 90
        0
 40
-0.6
 41
-30.0
 62
     5
 63
     7
 74
     2
 91
        2
 64
     7
 65
     7
 75
     1
175
     1
 42
40.0
 92
       11
 66
     7
 43
1.0
 76
     1
 77
     6
 78
     2
 67
     7
 79
     6
170
     0
171
     0
290
     0
174
     0
 93
        1
 44
0.0
173
     0
291
     0
 45
0.0
1001
ACAD
1000
AcDbSavedByObjectVersion
1070
     0
  0
VISUALSTYLE
  5
1AC7E
102
{ACAD_XDICTIONARY
360
1ACE3
102
}
102
{ACAD_REACTORS
330
1AC71
102
}
330
1AC71
100
AcDbVisualStyle
  2
Thicken
 70
    13
 71
     2
 72
     2
 73
     0
 90
        0
 40
-0.6
 41
-30.0
 62
     5
 63
     7
 74
     1
 91
        4
 64
     7
 65
   257
 75
     1
175
     1
 42
1.0
 92
       12
 66
     7
 43
1.0
 76
     1
 77
     6
 78
     2
 67
     7
 79
     5
170
     0
171
     0
290
     0
174
     0
 93
        1
 44
0.0
173
     0
291
     1
 45
0.0
1001
ACAD
1000
AcDbSavedByObjectVersion
1070
     0
  0
VISUALSTYLE
  5
1AC78
102
{ACAD_XDICTIONARY
360
1ACD7
102
}
102
{ACAD_REACTORS
330
1AC71
102
}
330
1AC71
100
AcDbVisualStyle
  2
Wireframe
 70
     5
 71
     0
 72
     2
 73
     0
 90
        0
 40
-0.6
 41
-30.0
 62
     5
 63
     7
 74
     1
 91
        4
 64
     7
 65
   257
 75
     1
175
     1
 42
1.0
 92
        0
 66
   257
 43
1.0
 76
     1
 77
     6
 78
     2
 67
     7
 79
     3
170
     0
171
     0
290
     0
174
     0
 93
        1
 44
0.0
173
     0
291
     0
 45
0.0
1001
ACAD
1000
AcDbSavedByObjectVersion
1070
     0
  0
VISUALSTYLE
  5
1AC84
102
{ACAD_XDICTIONARY
360
1ACEF
102
}
102
{ACAD_REACTORS
330
1AC71
102
}
330
1AC71
100
AcDbVisualStyle
  2
X-Ray
 70
    25
 71
     2
 72
     2
 73
     1
 90
        1
 40
0.5
 41
-30.0
 62
     5
 63
     7
 74
     1
 91
        0
 64
     7
 65
   257
 75
     1
175
     1
 42
1.0
 92
        8
 66
     7
 43
1.0
 76
     1
 77
     6
 78
     2
 67
     7
 79
     3
170
     0
171
     0
290
     0
174
     0
 93
       13
 44
0.0
173
     0
291
     0
 45
0.0
1001
ACAD
1000
AcDbSavedByObjectVersion
1070
     0
  0
DICTIONARYVAR
  5
1ACBE
102
{ACAD_REACTORS
330
1ACB9
102
}
330
1ACB9
100
DictionaryVariables
280
     0
  1
1:1
  0
DICTIONARYVAR
  5
1ACBB
102
{ACAD_REACTORS
330
1ACB9
102
}
330
1ACB9
100
DictionaryVariables
280
     0
  1
STANDARD
  0
DICTIONARYVAR
  5
1ACBA
102
{ACAD_REACTORS
330
1ACB9
102
}
330
1ACB9
100
DictionaryVariables
280
     0
  1
STANDARD
  0
DICTIONARYVAR
  5
1ACBC
102
{ACAD_REACTORS
330
1ACB9
102
}
330
1ACB9
100
DictionaryVariables
280
     0
  1
Imperial24
  0
DICTIONARYVAR
  5
1ACBD
102
{ACAD_REACTORS
330
1ACB9
102
}
330
1ACB9
100
DictionaryVariables
280
     0
  1
Imperial24
  0
DICTIONARYVAR
  5
1ACC1
102
{ACAD_REACTORS
330
1ACB9
102
}
330
1ACB9
100
DictionaryVariables
280
     0
  1
1
  0
DICTIONARYVAR
  5
1ACC0
102
{ACAD_REACTORS
330
1ACB9
102
}
330
1ACB9
100
DictionaryVariables
280
     0
  1
0
  0
DICTIONARYVAR
  5
1ACBF
102
{ACAD_REACTORS
330
1ACB9
102
}
330
1ACB9
100
DictionaryVariables
280
     0
  1
127
  0
DICTIONARYVAR
  5
1ACC2
102
{ACAD_REACTORS
330
1ACB9
102
}
330
1ACB9
100
DictionaryVariables
280
     0
  1
2
  0
DICTIONARY
  5
1ACFF
330
1ACA4
100
AcDbDictionary
280
     1
281
     1
  3
ACAD_XREC_ROUNDTRIP
360
1AD00
  0
DICTIONARY
  5
1AD01
330
1ACA5
100
AcDbDictionary
280
     1
281
     1
  3
ACAD_XREC_ROUNDTRIP
360
1AD02
  0
DICTIONARY
  5
1AD03
330
1ACA6
100
AcDbDictionary
280
     1
281
     1
  3
ACAD_XREC_ROUNDTRIP
360
1AD04
  0
DICTIONARY
  5
1AC62
330
1AC61
100
AcDbDictionary
280
     1
281
     1
  3
ACAD_XREC_ROUNDTRIP
360
1ACC9
  3
BUMPTILE
360
1AC64
  3
DIFFUSETILE
360
1AC63
  3
OPACITYTILE
360
1AC67
  3
REFLECTIONTILE
360
1AC66
  3
REFRACTIONTILE
360
1AC68
  3
SPECULARTILE
360
1AC65
  0
DICTIONARY
  5
1AC5A
330
1AC59
100
AcDbDictionary
280
     1
281
     1
  3
ACAD_XREC_ROUNDTRIP
360
1ACC8
  3
BUMPTILE
360
1AC5C
  3
DIFFUSETILE
360
1AC5B
  3
OPACITYTILE
360
1AC5F
  3
REFLECTIONTILE
360
1AC5E
  3
REFRACTIONTILE
360
1AC60
  3
SPECULARTILE
360
1AC5D
  0
DICTIONARY
  5
1AC6A
330
1AC69
100
AcDbDictionary
280
     1
281
     1
  3
ACAD_XREC_ROUNDTRIP
360
1ACCA
  3
BUMPTILE
360
1AC6C
  3
DIFFUSETILE
360
1AC6B
  3
OPACITYTILE
360
1AC6F
  3
REFLECTIONTILE
360
1AC6E
  3
REFRACTIONTILE
360
1AC70
  3
SPECULARTILE
360
1AC6D
  0
DICTIONARY
  5
1ACFD
330
1ACA2
100
AcDbDictionary
280
     1
281
     1
  3
ACAD_XREC_ROUNDTRIP
360
1ACFE
  0
DICTIONARY
  5
1ACC4
330
1AC8C
100
AcDbDictionary
280
     1
281
     1
  3
ACAD_ROUNDTRIP_2008_TABLESTYLE_CELLSTYLEMAP
360
1ACC5
  3
ACAD_XREC_ROUNDTRIP
360
1ACFB
  0
DICTIONARY
  5
1ACD5
330
1AC77
100
AcDbDictionary
280
     1
281
     1
  3
ACAD_XREC_ROUNDTRIP
360
1ACD6
  0
DICTIONARY
  5
1ACD3
330
1AC76
100
AcDbDictionary
280
     1
281
     1
  3
ACAD_XREC_ROUNDTRIP
360
1ACD4
  0
DICTIONARY
  5
1ACE1
330
1AC7D
100
AcDbDictionary
280
     1
281
     1
  3
ACAD_XREC_ROUNDTRIP
360
1ACE2
  0
DICTIONARY
  5
1ACE9
330
1AC81
100
AcDbDictionary
280
     1
281
     1
  3
ACAD_XREC_ROUNDTRIP
360
1ACEA
  0
DICTIONARY
  5
1ACDB
330
1AC7A
100
AcDbDictionary
280
     1
281
     1
  3
ACAD_XREC_ROUNDTRIP
360
1ACDC
  0
DICTIONARY
  5
1ACDF
330
1AC7C
100
AcDbDictionary
280
     1
281
     1
  3
ACAD_XREC_ROUNDTRIP
360
1ACE0
  0
DICTIONARY
  5
1ACF9
330
1AC89
100
AcDbDictionary
280
     1
281
     1
  3
ACAD_XREC_ROUNDTRIP
360
1ACFA
  0
DICTIONARY
  5
1ACE7
330
1AC80
100
AcDbDictionary
280
     1
281
     1
  3
ACAD_XREC_ROUNDTRIP
360
1ACE8
  0
DICTIONARY
  5
1ACCB
330
1AC72
100
AcDbDictionary
280
     1
281
     1
  3
ACAD_XREC_ROUNDTRIP
360
1ACCC
  0
DICTIONARY
  5
1ACCD
330
1AC73
100
AcDbDictionary
280
     1
281
     1
  3
ACAD_XREC_ROUNDTRIP
360
1ACCE
  0
DICTIONARY
  5
1ACCF
330
1AC74
100
AcDbDictionary
280
     1
281
     1
  3
ACAD_XREC_ROUNDTRIP
360
1ACD0
  0
DICTIONARY
  5
1ACD1
330
1AC75
100
AcDbDictionary
280
     1
281
     1
  3
ACAD_XREC_ROUNDTRIP
360
1ACD2
  0
DICTIONARY
  5
1ACD9
330
1AC79
100
AcDbDictionary
280
     1
281
     1
  3
ACAD_XREC_ROUNDTRIP
360
1ACDA
  0
DICTIONARY
  5
1ACF5
330
1AC87
100
AcDbDictionary
280
     1
281
     1
  3
ACAD_XREC_ROUNDTRIP
360
1ACF6
  0
DICTIONARY
  5
1ACE5
330
1AC7F
100
AcDbDictionary
280
     1
281
     1
  3
ACAD_XREC_ROUNDTRIP
360
1ACE6
  0
DICTIONARY
  5
1ACF7
330
1AC88
100
AcDbDictionary
280
     1
281
     1
  3
ACAD_XREC_ROUNDTRIP
360
1ACF8
  0
DICTIONARY
  5
1ACDD
330
1AC7B
100
AcDbDictionary
280
     1
281
     1
  3
ACAD_XREC_ROUNDTRIP
360
1ACDE
  0
DICTIONARY
  5
1ACF3
330
1AC86
100
AcDbDictionary
280
     1
281
     1
  3
ACAD_XREC_ROUNDTRIP
360
1ACF4
  0
DICTIONARY
  5
1ACF1
330
1AC85
100
AcDbDictionary
280
     1
281
     1
  3
ACAD_XREC_ROUNDTRIP
360
1ACF2
  0
DICTIONARY
  5
1ACEB
330
1AC82
100
AcDbDictionary
280
     1
281
     1
  3
ACAD_XREC_ROUNDTRIP
360
1ACEC
  0
DICTIONARY
  5
1ACED
330
1AC83
100
AcDbDictionary
280
     1
281
     1
  3
ACAD_XREC_ROUNDTRIP
360
1ACEE
  0
DICTIONARY
  5
1ACE3
330
1AC7E
100
AcDbDictionary
280
     1
281
     1
  3
ACAD_XREC_ROUNDTRIP
360
1ACE4
  0
DICTIONARY
  5
1ACD7
330
1AC78
100
AcDbDictionary
280
     1
281
     1
  3
ACAD_XREC_ROUNDTRIP
360
1ACD8
  0
DICTIONARY
  5
1ACEF
330
1AC84
100
AcDbDictionary
280
     1
281
     1
  3
ACAD_XREC_ROUNDTRIP
360
1ACF0
  0
XRECORD
  5
1AD00
102
{ACAD_REACTORS
330
1ACFF
102
}
330
1ACFF
100
AcDbXrecord
280
     1
102
DISPLAYNAME
  1
Imperial24
102
FLAGS
 90
        0
  0
XRECORD
  5
1AD02
102
{ACAD_REACTORS
330
1AD01
102
}
330
1AD01
100
AcDbXrecord
280
     1
102
SHADEPLOT
 70
     0
102
SHADEPLOTRESLEVEL
 70
     2
102
SHADEPLOTCUSTOMDPI
 70
   300
  0
XRECORD
  5
1AD04
102
{ACAD_REACTORS
330
1AD03
102
}
330
1AD03
100
AcDbXrecord
280
     1
102
SHADEPLOT
 70
     0
102
SHADEPLOTRESLEVEL
 70
     2
102
SHADEPLOTCUSTOMDPI
 70
   300
  0
XRECORD
  5
1ACC9
102
{ACAD_REACTORS
330
1AC62
102
}
330
1AC62
100
AcDbXrecord
280
     1
102
MATERIAL
148
0.0
149
0.0
149
0.0
 93
        0
 94
      127
282
     0
 72
     0
 77
     0
171
     0
175
     0
179
     0
273
     0
  0
XRECORD
  5
1AC64
102
{ACAD_REACTORS
330
1AC62
102
}
330
1AC62
100
AcDbXrecord
280
     1
270
     1
271
     1
  0
XRECORD
  5
1AC63
102
{ACAD_REACTORS
330
1AC62
102
}
330
1AC62
100
AcDbXrecord
280
     1
270
     1
271
     1
  0
XRECORD
  5
1AC67
102
{ACAD_REACTORS
330
1AC62
102
}
330
1AC62
100
AcDbXrecord
280
     1
270
     1
271
     1
  0
XRECORD
  5
1AC66
102
{ACAD_REACTORS
330
1AC62
102
}
330
1AC62
100
AcDbXrecord
280
     1
270
     1
271
     1
  0
XRECORD
  5
1AC68
102
{ACAD_REACTORS
330
1AC62
102
}
330
1AC62
100
AcDbXrecord
280
     1
270
     1
271
     1
  0
XRECORD
  5
1AC65
102
{ACAD_REACTORS
330
1AC62
102
}
330
1AC62
100
AcDbXrecord
280
     1
270
     1
271
     1
  0
XRECORD
  5
1ACC8
102
{ACAD_REACTORS
330
1AC5A
102
}
330
1AC5A
100
AcDbXrecord
280
     1
102
MATERIAL
148
0.0
149
0.0
149
0.0
 93
        0
 94
      127
282
     0
 72
     0
 77
     0
171
     0
175
     0
179
     0
273
     0
  0
XRECORD
  5
1AC5C
102
{ACAD_REACTORS
330
1AC5A
102
}
330
1AC5A
100
AcDbXrecord
280
     1
270
     1
271
     1
  0
XRECORD
  5
1AC5B
102
{ACAD_REACTORS
330
1AC5A
102
}
330
1AC5A
100
AcDbXrecord
280
     1
270
     1
271
     1
  0
XRECORD
  5
1AC5F
102
{ACAD_REACTORS
330
1AC5A
102
}
330
1AC5A
100
AcDbXrecord
280
     1
270
     1
271
     1
  0
XRECORD
  5
1AC5E
102
{ACAD_REACTORS
330
1AC5A
102
}
330
1AC5A
100
AcDbXrecord
280
     1
270
     1
271
     1
  0
XRECORD
  5
1AC60
102
{ACAD_REACTORS
330
1AC5A
102
}
330
1AC5A
100
AcDbXrecord
280
     1
270
     1
271
     1
  0
XRECORD
  5
1AC5D
102
{ACAD_REACTORS
330
1AC5A
102
}
330
1AC5A
100
AcDbXrecord
280
     1
270
     1
271
     1
  0
XRECORD
  5
1ACCA
102
{ACAD_REACTORS
330
1AC6A
102
}
330
1AC6A
100
AcDbXrecord
280
     1
102
MATERIAL
148
0.0
149
0.0
149
0.0
 93
        0
 94
      127
282
     0
 72
     0
 77
     0
171
     0
175
     0
179
     0
273
     0
  0
XRECORD
  5
1AC6C
102
{ACAD_REACTORS
330
1AC6A
102
}
330
1AC6A
100
AcDbXrecord
280
     1
270
     1
271
     1
  0
XRECORD
  5
1AC6B
102
{ACAD_REACTORS
330
1AC6A
102
}
330
1AC6A
100
AcDbXrecord
280
     1
270
     1
271
     1
  0
XRECORD
  5
1AC6F
102
{ACAD_REACTORS
330
1AC6A
102
}
330
1AC6A
100
AcDbXrecord
280
     1
270
     1
271
     1
  0
XRECORD
  5
1AC6E
102
{ACAD_REACTORS
330
1AC6A
102
}
330
1AC6A
100
AcDbXrecord
280
     1
270
     1
271
     1
  0
XRECORD
  5
1AC70
102
{ACAD_REACTORS
330
1AC6A
102
}
330
1AC6A
100
AcDbXrecord
280
     1
270
     1
271
     1
  0
XRECORD
  5
1AC6D
102
{ACAD_REACTORS
330
1AC6A
102
}
330
1AC6A
100
AcDbXrecord
280
     1
270
     1
271
     1
  0
XRECORD
  5
1ACFE
102
{ACAD_REACTORS
330
1ACFD
102
}
330
1ACFD
100
AcDbXrecord
280
     1
102
DISPLAYNAME
  1
Imperial24
102
FLAGS
 90
        0
  0
CELLSTYLEMAP
  5
1ACC5
102
{ACAD_REACTORS
330
1ACC4
102
}
330
1ACC4
100
AcDbCellStyleMap
 90
        3
300
CELLSTYLE
  1
TABLEFORMAT_BEGIN
 90
        5
170
     1
 91
        0
 92
    32768
 62
   257
 93
        1
300
CONTENTFORMAT
  1
CONTENTFORMAT_BEGIN
 90
        0
 91
        0
 92
      512
 93
        0
300

 40
0.0
140
1.0
 94
        5
 62
     0
340
1A974
144
0.25
309
CONTENTFORMAT_END
171
     0
 94
        0
309
TABLEFORMAT_END
  1
CELLSTYLE_BEGIN
 90
        1
 91
        1
300
_TITLE
309
CELLSTYLE_END
300
CELLSTYLE
  1
TABLEFORMAT_BEGIN
 90
        5
170
     1
 91
        0
 92
        0
 62
   257
 93
        1
300
CONTENTFORMAT
  1
CONTENTFORMAT_BEGIN
 90
        0
 91
        0
 92
      512
 93
        0
300

 40
0.0
140
1.0
 94
        5
 62
     0
340
1A974
144
0.18
309
CONTENTFORMAT_END
171
     0
 94
        0
309
TABLEFORMAT_END
  1
CELLSTYLE_BEGIN
 90
        2
 91
        1
300
_HEADER
309
CELLSTYLE_END
300
CELLSTYLE
  1
TABLEFORMAT_BEGIN
 90
        5
170
     1
 91
        0
 92
        0
 62
   257
 93
        1
300
CONTENTFORMAT
  1
CONTENTFORMAT_BEGIN
 90
        0
 91
        0
 92
      512
 93
        0
300

 40
0.0
140
1.0
 94
        2
 62
     0
340
1A974
144
0.18
309
CONTENTFORMAT_END
171
     0
 94
        0
309
TABLEFORMAT_END
  1
CELLSTYLE_BEGIN
 90
        3
 91
        2
300
_DATA
309
CELLSTYLE_END
  0
XRECORD
  5
1ACFB
102
{ACAD_REACTORS
330
1ACC4
102
}
330
1ACC4
100
AcDbXrecord
280
     1
102
ACAD_ROUNDTRIP_PRE2007_TABLESTYLE
 90
      512
 91
        0
  1

 92
      512
 93
        0
  2

 94
      512
 95
        0
  3

  0
XRECORD
  5
1ACD6
102
{ACAD_REACTORS
330
1ACD5
102
}
330
1ACD5
100
AcDbXrecord
280
     1
102
RTVSPost2010Prop28
280
     1
102
RTVSPost2010PropOp28
 70
     1
102
RTVSPost2010Prop29
280
     1
102
RTVSPost2010PropOp29
 70
     1
102
RTVSPost2010Prop30
280
     0
102
RTVSPost2010PropOp30
 70
     1
102
RTVSPost2010Prop31
280
     0
102
RTVSPost2010PropOp31
 70
     1
102
RTVSPost2010Prop32
280
     0
102
RTVSPost2010PropOp32
 70
     1
102
RTVSPost2010Prop33
280
     0
102
RTVSPost2010PropOp33
 70
     1
102
RTVSPost2010Prop34
280
     0
102
RTVSPost2010PropOp34
 70
     1
102
RTVSPost2010Prop35
280
     0
102
RTVSPost2010PropOp35
 70
     1
102
RTVSPost2010Prop36
280
     0
102
RTVSPost2010PropOp36
 70
     1
102
RTVSPost2010Prop37
 90
       50
102
RTVSPost2010PropOp37
 70
     1
102
RTVSPost2010Prop38
140
0.0
102
RTVSPost2010PropOp38
 70
     1
102
RTVSPost2010Prop39
140
1.0
102
RTVSPost2010PropOp39
 70
     1
102
RTVSPost2010Prop40
 90
        0
102
RTVSPost2010PropOp40
 70
     1
102
RTVSPost2010Prop41ColorIndex
 90
       18
102
RTVSPost2010Prop41ColorRGB
 90
        0
102
RTVSPost2010PropOp41
 70
     1
102
RTVSPost2010Prop42
 90
       50
102
RTVSPost2010PropOp42
 70
     1
102
RTVSPost2010Prop43
 90
        3
102
RTVSPost2010PropOp43
 70
     1
102
RTVSPost2010Prop44ColorIndex
 90
        5
102
RTVSPost2010Prop44ColorRGB
 90
      255
102
RTVSPost2010PropOp44
 70
     1
102
RTVSPost2010Prop45
280
     0
102
RTVSPost2010PropOp45
 70
     1
102
RTVSPost2010Prop46
 90
       50
102
RTVSPost2010PropOp46
 70
     1
102
RTVSPost2010Prop47
 90
       50
102
RTVSPost2010PropOp47
 70
     1
102
RTVSPost2010Prop48
 90
       50
102
RTVSPost2010PropOp48
 70
     1
102
RTVSPost2010Prop49
280
     0
102
RTVSPost2010PropOp49
 70
     1
102
RTVSPost2010Prop50
 90
       50
102
RTVSPost2010PropOp50
 70
     1
102
RTVSPost2010Prop51ColorIndex
 90
      256
102
RTVSPost2010Prop51ColorRGB
 90
-16777216
102
RTVSPost2010PropOp51
 70
     0
102
RTVSPost2010Prop52
140
1.0
102
RTVSPost2010PropOp52
 70
     0
102
RTVSPost2010Prop53
 90
        2
102
RTVSPost2010PropOp53
 70
     1
102
RTVSPost2010Prop54
  1
strokes_ogs.tif
102
RTVSPost2010PropOp54
 70
     1
102
RTVSPost2010Prop55
280
     0
102
RTVSPost2010PropOp55
 70
     1
102
RTVSPost2010Prop56
140
1.0
102
RTVSPost2010PropOp56
 70
     1
102
RTVSPost2010Prop57
140
1.0
102
RTVSPost2010PropOp57
 70
     1
102
RTVSPropertyOp0
 70
     1
102
RTVSPropertyOp1
 70
     1
102
RTVSPropertyOp2
 70
     1
102
RTVSPropertyOp3
 70
     1
102
RTVSPropertyOp4
 70
     1
102
RTVSPropertyOp5
 70
     1
102
RTVSPropertyOp6
 70
     1
102
RTVSPropertyOp7
 70
     1
102
RTVSPropertyOp8
 70
     1
102
RTVSPropertyOp9
 70
     1
102
RTVSPropertyOp10
 70
     1
102
RTVSPropertyOp11
 70
     1
102
RTVSPropertyOp12
 70
     1
102
RTVSPropertyOp13
 70
     1
102
RTVSPropertyOp14
 70
     1
102
RTVSPropertyOp15
 70
     1
102
RTVSPropertyOp16
 70
     1
102
RTVSPropertyOp17
 70
     1
102
RTVSPropertyOp18
 70
     1
102
RTVSPropertyOp19
 70
     1
102
RTVSPropertyOp20
 70
     1
102
RTVSPropertyOp21
 70
     1
102
RTVSPropertyOp22
 70
     1
102
RTVSPropertyOp23
 70
     1
102
RTVSPropertyOp24
 70
     1
102
RTVSPropertyOp25
 70
     1
102
RTVSPropertyOp26
 70
     1
102
RTVSPropertyOp27
 70
     1
102
RTVSPropertyOp28
 70
     1
102
RTVSPropertyOp29
 70
     1
102
RTVSPropertyOp30
 70
     1
102
RTVSPropertyOp31
 70
     1
102
RTVSPropertyOp32
 70
     1
102
RTVSPropertyOp33
 70
     1
102
RTVSPropertyOp34
 70
     1
102
RTVSPropertyOp35
 70
     1
102
RTVSPropertyOp36
 70
     1
102
RTVSPropertyOp37
 70
     1
102
RTVSPropertyOp38
 70
     1
102
RTVSPropertyOp39
 70
     1
102
RTVSPropertyOp40
 70
     1
102
RTVSPropertyOp41
 70
     1
102
RTVSPropertyOp42
 70
     1
102
RTVSPropertyOp43
 70
     1
102
RTVSPropertyOp44
 70
     1
102
RTVSPropertyOp45
 70
     1
102
RTVSPropertyOp46
 70
     1
102
RTVSPropertyOp47
 70
     1
102
RTVSPropertyOp48
 70
     1
102
RTVSPropertyOp49
 70
     1
102
RTVSPropertyOp50
 70
     1
102
RTVSPropertyOp51
 70
     0
102
RTVSPropertyOp52
 70
     0
102
RTVSPropertyOp53
 70
     1
102
RTVSPropertyOp54
 70
     1
102
RTVSPropertyOp55
 70
     1
102
RTVSPropertyOp56
 70
     1
102
RTVSPropertyOp57
 70
     1
102
RTVSPropertyOp58
 70
     1
102
RTVSPropertyOp59
 70
     1
102
RTVSPropertyOp60
 70
     1
102
RTVSPropertyOp61
 70
     1
102
RTVSPropertyOp62
 70
     1
  0
XRECORD
  5
1ACD4
102
{ACAD_REACTORS
330
1ACD3
102
}
330
1ACD3
100
AcDbXrecord
280
     1
102
RTVSPost2010Prop28
280
     0
102
RTVSPost2010PropOp28
 70
     1
102
RTVSPost2010Prop29
280
     1
102
RTVSPost2010PropOp29
 70
     1
102
RTVSPost2010Prop30
280
     1
102
RTVSPost2010PropOp30
 70
     1
102
RTVSPost2010Prop31
280
     0
102
RTVSPost2010PropOp31
 70
     1
102
RTVSPost2010Prop32
280
     0
102
RTVSPost2010PropOp32
 70
     1
102
RTVSPost2010Prop33
280
     0
102
RTVSPost2010PropOp33
 70
     1
102
RTVSPost2010Prop34
280
     0
102
RTVSPost2010PropOp34
 70
     1
102
RTVSPost2010Prop35
280
     0
102
RTVSPost2010PropOp35
 70
     1
102
RTVSPost2010Prop36
280
     0
102
RTVSPost2010PropOp36
 70
     1
102
RTVSPost2010Prop37
 90
       50
102
RTVSPost2010PropOp37
 70
     1
102
RTVSPost2010Prop38
140
0.0
102
RTVSPost2010PropOp38
 70
     1
102
RTVSPost2010Prop39
140
1.0
102
RTVSPost2010PropOp39
 70
     1
102
RTVSPost2010Prop40
 90
        0
102
RTVSPost2010PropOp40
 70
     1
102
RTVSPost2010Prop41ColorIndex
 90
       18
102
RTVSPost2010Prop41ColorRGB
 90
        0
102
RTVSPost2010PropOp41
 70
     1
102
RTVSPost2010Prop42
 90
       50
102
RTVSPost2010PropOp42
 70
     1
102
RTVSPost2010Prop43
 90
        3
102
RTVSPost2010PropOp43
 70
     1
102
RTVSPost2010Prop44ColorIndex
 90
        5
102
RTVSPost2010Prop44ColorRGB
 90
      255
102
RTVSPost2010PropOp44
 70
     1
102
RTVSPost2010Prop45
280
     0
102
RTVSPost2010PropOp45
 70
     1
102
RTVSPost2010Prop46
 90
       50
102
RTVSPost2010PropOp46
 70
     1
102
RTVSPost2010Prop47
 90
       50
102
RTVSPost2010PropOp47
 70
     1
102
RTVSPost2010Prop48
 90
       50
102
RTVSPost2010PropOp48
 70
     1
102
RTVSPost2010Prop49
280
     0
102
RTVSPost2010PropOp49
 70
     1
102
RTVSPost2010Prop50
 90
       50
102
RTVSPost2010PropOp50
 70
     1
102
RTVSPost2010Prop51ColorIndex
 90
      256
102
RTVSPost2010Prop51ColorRGB
 90
-16777216
102
RTVSPost2010PropOp51
 70
     0
102
RTVSPost2010Prop52
140
1.0
102
RTVSPost2010PropOp52
 70
     0
102
RTVSPost2010Prop53
 90
        2
102
RTVSPost2010PropOp53
 70
     1
102
RTVSPost2010Prop54
  1
strokes_ogs.tif
102
RTVSPost2010PropOp54
 70
     1
102
RTVSPost2010Prop55
280
     0
102
RTVSPost2010PropOp55
 70
     1
102
RTVSPost2010Prop56
140
1.0
102
RTVSPost2010PropOp56
 70
     1
102
RTVSPost2010Prop57
140
1.0
102
RTVSPost2010PropOp57
 70
     1
102
RTVSPropertyOp0
 70
     1
102
RTVSPropertyOp1
 70
     1
102
RTVSPropertyOp2
 70
     1
102
RTVSPropertyOp3
 70
     1
102
RTVSPropertyOp4
 70
     1
102
RTVSPropertyOp5
 70
     1
102
RTVSPropertyOp6
 70
     1
102
RTVSPropertyOp7
 70
     1
102
RTVSPropertyOp8
 70
     1
102
RTVSPropertyOp9
 70
     1
102
RTVSPropertyOp10
 70
     1
102
RTVSPropertyOp11
 70
     1
102
RTVSPropertyOp12
 70
     1
102
RTVSPropertyOp13
 70
     1
102
RTVSPropertyOp14
 70
     1
102
RTVSPropertyOp15
 70
     1
102
RTVSPropertyOp16
 70
     1
102
RTVSPropertyOp17
 70
     1
102
RTVSPropertyOp18
 70
     1
102
RTVSPropertyOp19
 70
     1
102
RTVSPropertyOp20
 70
     1
102
RTVSPropertyOp21
 70
     1
102
RTVSPropertyOp22
 70
     1
102
RTVSPropertyOp23
 70
     1
102
RTVSPropertyOp24
 70
     1
102
RTVSPropertyOp25
 70
     1
102
RTVSPropertyOp26
 70
     1
102
RTVSPropertyOp27
 70
     1
102
RTVSPropertyOp28
 70
     1
102
RTVSPropertyOp29
 70
     1
102
RTVSPropertyOp30
 70
     1
102
RTVSPropertyOp31
 70
     1
102
RTVSPropertyOp32
 70
     1
102
RTVSPropertyOp33
 70
     1
102
RTVSPropertyOp34
 70
     1
102
RTVSPropertyOp35
 70
     1
102
RTVSPropertyOp36
 70
     1
102
RTVSPropertyOp37
 70
     1
102
RTVSPropertyOp38
 70
     1
102
RTVSPropertyOp39
 70
     1
102
RTVSPropertyOp40
 70
     1
102
RTVSPropertyOp41
 70
     1
102
RTVSPropertyOp42
 70
     1
102
RTVSPropertyOp43
 70
     1
102
RTVSPropertyOp44
 70
     1
102
RTVSPropertyOp45
 70
     1
102
RTVSPropertyOp46
 70
     1
102
RTVSPropertyOp47
 70
     1
102
RTVSPropertyOp48
 70
     1
102
RTVSPropertyOp49
 70
     1
102
RTVSPropertyOp50
 70
     1
102
RTVSPropertyOp51
 70
     0
102
RTVSPropertyOp52
 70
     0
102
RTVSPropertyOp53
 70
     1
102
RTVSPropertyOp54
 70
     1
102
RTVSPropertyOp55
 70
     1
102
RTVSPropertyOp56
 70
     1
102
RTVSPropertyOp57
 70
     1
102
RTVSPropertyOp58
 70
     1
102
RTVSPropertyOp59
 70
     1
102
RTVSPropertyOp60
 70
     1
102
RTVSPropertyOp61
 70
     1
102
RTVSPropertyOp62
 70
     1
  0
XRECORD
  5
1ACE2
102
{ACAD_REACTORS
330
1ACE1
102
}
330
1ACE1
100
AcDbXrecord
280
     1
102
RTVSPost2010Prop28
280
     0
102
RTVSPost2010PropOp28
 70
     1
102
RTVSPost2010Prop29
280
     1
102
RTVSPost2010PropOp29
 70
     1
102
RTVSPost2010Prop30
280
     1
102
RTVSPost2010PropOp30
 70
     1
102
RTVSPost2010Prop31
280
     0
102
RTVSPost2010PropOp31
 70
     1
102
RTVSPost2010Prop32
280
     0
102
RTVSPost2010PropOp32
 70
     1
102
RTVSPost2010Prop33
280
     0
102
RTVSPost2010PropOp33
 70
     1
102
RTVSPost2010Prop34
280
     0
102
RTVSPost2010PropOp34
 70
     1
102
RTVSPost2010Prop35
280
     0
102
RTVSPost2010PropOp35
 70
     1
102
RTVSPost2010Prop36
280
     0
102
RTVSPost2010PropOp36
 70
     1
102
RTVSPost2010Prop37
 90
       50
102
RTVSPost2010PropOp37
 70
     1
102
RTVSPost2010Prop38
140
0.0
102
RTVSPost2010PropOp38
 70
     1
102
RTVSPost2010Prop39
140
1.0
102
RTVSPost2010PropOp39
 70
     1
102
RTVSPost2010Prop40
 90
        0
102
RTVSPost2010PropOp40
 70
     1
102
RTVSPost2010Prop41ColorIndex
 90
       18
102
RTVSPost2010Prop41ColorRGB
 90
        0
102
RTVSPost2010PropOp41
 70
     1
102
RTVSPost2010Prop42
 90
       50
102
RTVSPost2010PropOp42
 70
     1
102
RTVSPost2010Prop43
 90
        3
102
RTVSPost2010PropOp43
 70
     1
102
RTVSPost2010Prop44ColorIndex
 90
        5
102
RTVSPost2010Prop44ColorRGB
 90
      255
102
RTVSPost2010PropOp44
 70
     1
102
RTVSPost2010Prop45
280
     0
102
RTVSPost2010PropOp45
 70
     1
102
RTVSPost2010Prop46
 90
       50
102
RTVSPost2010PropOp46
 70
     1
102
RTVSPost2010Prop47
 90
       50
102
RTVSPost2010PropOp47
 70
     1
102
RTVSPost2010Prop48
 90
       50
102
RTVSPost2010PropOp48
 70
     1
102
RTVSPost2010Prop49
280
     0
102
RTVSPost2010PropOp49
 70
     1
102
RTVSPost2010Prop50
 90
       50
102
RTVSPost2010PropOp50
 70
     1
102
RTVSPost2010Prop51ColorIndex
 90
      256
102
RTVSPost2010Prop51ColorRGB
 90
-16777216
102
RTVSPost2010PropOp51
 70
     0
102
RTVSPost2010Prop52
140
1.0
102
RTVSPost2010PropOp52
 70
     0
102
RTVSPost2010Prop53
 90
        2
102
RTVSPost2010PropOp53
 70
     1
102
RTVSPost2010Prop54
  1
strokes_ogs.tif
102
RTVSPost2010PropOp54
 70
     1
102
RTVSPost2010Prop55
280
     0
102
RTVSPost2010PropOp55
 70
     1
102
RTVSPost2010Prop56
140
1.0
102
RTVSPost2010PropOp56
 70
     1
102
RTVSPost2010Prop57
140
1.0
102
RTVSPost2010PropOp57
 70
     1
102
RTVSPropertyOp0
 70
     1
102
RTVSPropertyOp1
 70
     1
102
RTVSPropertyOp2
 70
     1
102
RTVSPropertyOp3
 70
     1
102
RTVSPropertyOp4
 70
     1
102
RTVSPropertyOp5
 70
     1
102
RTVSPropertyOp6
 70
     1
102
RTVSPropertyOp7
 70
     1
102
RTVSPropertyOp8
 70
     1
102
RTVSPropertyOp9
 70
     1
102
RTVSPropertyOp10
 70
     1
102
RTVSPropertyOp11
 70
     1
102
RTVSPropertyOp12
 70
     1
102
RTVSPropertyOp13
 70
     1
102
RTVSPropertyOp14
 70
     1
102
RTVSPropertyOp15
 70
     1
102
RTVSPropertyOp16
 70
     1
102
RTVSPropertyOp17
 70
     1
102
RTVSPropertyOp18
 70
     1
102
RTVSPropertyOp19
 70
     1
102
RTVSPropertyOp20
 70
     1
102
RTVSPropertyOp21
 70
     1
102
RTVSPropertyOp22
 70
     1
102
RTVSPropertyOp23
 70
     1
102
RTVSPropertyOp24
 70
     1
102
RTVSPropertyOp25
 70
     1
102
RTVSPropertyOp26
 70
     1
102
RTVSPropertyOp27
 70
     1
102
RTVSPropertyOp28
 70
     1
102
RTVSPropertyOp29
 70
     1
102
RTVSPropertyOp30
 70
     1
102
RTVSPropertyOp31
 70
     1
102
RTVSPropertyOp32
 70
     1
102
RTVSPropertyOp33
 70
     1
102
RTVSPropertyOp34
 70
     1
102
RTVSPropertyOp35
 70
     1
102
RTVSPropertyOp36
 70
     1
102
RTVSPropertyOp37
 70
     1
102
RTVSPropertyOp38
 70
     1
102
RTVSPropertyOp39
 70
     1
102
RTVSPropertyOp40
 70
     1
102
RTVSPropertyOp41
 70
     1
102
RTVSPropertyOp42
 70
     1
102
RTVSPropertyOp43
 70
     1
102
RTVSPropertyOp44
 70
     1
102
RTVSPropertyOp45
 70
     1
102
RTVSPropertyOp46
 70
     1
102
RTVSPropertyOp47
 70
     1
102
RTVSPropertyOp48
 70
     1
102
RTVSPropertyOp49
 70
     1
102
RTVSPropertyOp50
 70
     1
102
RTVSPropertyOp51
 70
     0
102
RTVSPropertyOp52
 70
     0
102
RTVSPropertyOp53
 70
     1
102
RTVSPropertyOp54
 70
     1
102
RTVSPropertyOp55
 70
     1
102
RTVSPropertyOp56
 70
     1
102
RTVSPropertyOp57
 70
     1
102
RTVSPropertyOp58
 70
     1
102
RTVSPropertyOp59
 70
     1
102
RTVSPropertyOp60
 70
     1
102
RTVSPropertyOp61
 70
     1
102
RTVSPropertyOp62
 70
     1
  0
XRECORD
  5
1ACEA
102
{ACAD_REACTORS
330
1ACE9
102
}
330
1ACE9
100
AcDbXrecord
280
     1
102
RTVSPost2010Prop28
280
     0
102
RTVSPost2010PropOp28
 70
     1
102
RTVSPost2010Prop29
280
     1
102
RTVSPost2010PropOp29
 70
     1
102
RTVSPost2010Prop30
280
     1
102
RTVSPost2010PropOp30
 70
     1
102
RTVSPost2010Prop31
280
     0
102
RTVSPost2010PropOp31
 70
     1
102
RTVSPost2010Prop32
280
     0
102
RTVSPost2010PropOp32
 70
     1
102
RTVSPost2010Prop33
280
     0
102
RTVSPost2010PropOp33
 70
     1
102
RTVSPost2010Prop34
280
     0
102
RTVSPost2010PropOp34
 70
     1
102
RTVSPost2010Prop35
280
     0
102
RTVSPost2010PropOp35
 70
     1
102
RTVSPost2010Prop36
280
     0
102
RTVSPost2010PropOp36
 70
     1
102
RTVSPost2010Prop37
 90
       50
102
RTVSPost2010PropOp37
 70
     1
102
RTVSPost2010Prop38
140
0.0
102
RTVSPost2010PropOp38
 70
     1
102
RTVSPost2010Prop39
140
1.0
102
RTVSPost2010PropOp39
 70
     1
102
RTVSPost2010Prop40
 90
        0
102
RTVSPost2010PropOp40
 70
     1
102
RTVSPost2010Prop41ColorIndex
 90
       18
102
RTVSPost2010Prop41ColorRGB
 90
        0
102
RTVSPost2010PropOp41
 70
     1
102
RTVSPost2010Prop42
 90
       50
102
RTVSPost2010PropOp42
 70
     1
102
RTVSPost2010Prop43
 90
        3
102
RTVSPost2010PropOp43
 70
     1
102
RTVSPost2010Prop44ColorIndex
 90
        5
102
RTVSPost2010Prop44ColorRGB
 90
      255
102
RTVSPost2010PropOp44
 70
     1
102
RTVSPost2010Prop45
280
     0
102
RTVSPost2010PropOp45
 70
     1
102
RTVSPost2010Prop46
 90
       50
102
RTVSPost2010PropOp46
 70
     1
102
RTVSPost2010Prop47
 90
       50
102
RTVSPost2010PropOp47
 70
     1
102
RTVSPost2010Prop48
 90
       50
102
RTVSPost2010PropOp48
 70
     1
102
RTVSPost2010Prop49
280
     0
102
RTVSPost2010PropOp49
 70
     1
102
RTVSPost2010Prop50
 90
       50
102
RTVSPost2010PropOp50
 70
     1
102
RTVSPost2010Prop51ColorIndex
 90
      256
102
RTVSPost2010Prop51ColorRGB
 90
-16777216
102
RTVSPost2010PropOp51
 70
     0
102
RTVSPost2010Prop52
140
1.0
102
RTVSPost2010PropOp52
 70
     0
102
RTVSPost2010Prop53
 90
        2
102
RTVSPost2010PropOp53
 70
     1
102
RTVSPost2010Prop54
  1
strokes_ogs.tif
102
RTVSPost2010PropOp54
 70
     1
102
RTVSPost2010Prop55
280
     0
102
RTVSPost2010PropOp55
 70
     1
102
RTVSPost2010Prop56
140
1.0
102
RTVSPost2010PropOp56
 70
     1
102
RTVSPost2010Prop57
140
1.0
102
RTVSPost2010PropOp57
 70
     1
102
RTVSPropertyOp0
 70
     1
102
RTVSPropertyOp1
 70
     1
102
RTVSPropertyOp2
 70
     1
102
RTVSPropertyOp3
 70
     1
102
RTVSPropertyOp4
 70
     1
102
RTVSPropertyOp5
 70
     1
102
RTVSPropertyOp6
 70
     1
102
RTVSPropertyOp7
 70
     1
102
RTVSPropertyOp8
 70
     1
102
RTVSPropertyOp9
 70
     1
102
RTVSPropertyOp10
 70
     1
102
RTVSPropertyOp11
 70
     1
102
RTVSPropertyOp12
 70
     1
102
RTVSPropertyOp13
 70
     1
102
RTVSPropertyOp14
 70
     1
102
RTVSPropertyOp15
 70
     1
102
RTVSPropertyOp16
 70
     1
102
RTVSPropertyOp17
 70
     1
102
RTVSPropertyOp18
 70
     1
102
RTVSPropertyOp19
 70
     1
102
RTVSPropertyOp20
 70
     1
102
RTVSPropertyOp21
 70
     1
102
RTVSPropertyOp22
 70
     1
102
RTVSPropertyOp23
 70
     1
102
RTVSPropertyOp24
 70
     1
102
RTVSPropertyOp25
 70
     1
102
RTVSPropertyOp26
 70
     1
102
RTVSPropertyOp27
 70
     1
102
RTVSPropertyOp28
 70
     1
102
RTVSPropertyOp29
 70
     1
102
RTVSPropertyOp30
 70
     1
102
RTVSPropertyOp31
 70
     1
102
RTVSPropertyOp32
 70
     1
102
RTVSPropertyOp33
 70
     1
102
RTVSPropertyOp34
 70
     1
102
RTVSPropertyOp35
 70
     1
102
RTVSPropertyOp36
 70
     1
102
RTVSPropertyOp37
 70
     1
102
RTVSPropertyOp38
 70
     1
102
RTVSPropertyOp39
 70
     1
102
RTVSPropertyOp40
 70
     1
102
RTVSPropertyOp41
 70
     1
102
RTVSPropertyOp42
 70
     1
102
RTVSPropertyOp43
 70
     1
102
RTVSPropertyOp44
 70
     1
102
RTVSPropertyOp45
 70
     1
102
RTVSPropertyOp46
 70
     1
102
RTVSPropertyOp47
 70
     1
102
RTVSPropertyOp48
 70
     1
102
RTVSPropertyOp49
 70
     1
102
RTVSPropertyOp50
 70
     1
102
RTVSPropertyOp51
 70
     0
102
RTVSPropertyOp52
 70
     0
102
RTVSPropertyOp53
 70
     1
102
RTVSPropertyOp54
 70
     1
102
RTVSPropertyOp55
 70
     1
102
RTVSPropertyOp56
 70
     1
102
RTVSPropertyOp57
 70
     1
102
RTVSPropertyOp58
 70
     1
102
RTVSPropertyOp59
 70
     1
102
RTVSPropertyOp60
 70
     1
102
RTVSPropertyOp61
 70
     1
102
RTVSPropertyOp62
 70
     1
  0
XRECORD
  5
1ACDC
102
{ACAD_REACTORS
330
1ACDB
102
}
330
1ACDB
100
AcDbXrecord
280
     1
102
RTVSPost2010Prop28
280
     0
102
RTVSPost2010PropOp28
 70
     1
102
RTVSPost2010Prop29
280
     1
102
RTVSPost2010PropOp29
 70
     1
102
RTVSPost2010Prop30
280
     1
102
RTVSPost2010PropOp30
 70
     1
102
RTVSPost2010Prop31
280
     0
102
RTVSPost2010PropOp31
 70
     1
102
RTVSPost2010Prop32
280
     0
102
RTVSPost2010PropOp32
 70
     1
102
RTVSPost2010Prop33
280
     0
102
RTVSPost2010PropOp33
 70
     1
102
RTVSPost2010Prop34
280
     0
102
RTVSPost2010PropOp34
 70
     1
102
RTVSPost2010Prop35
280
     0
102
RTVSPost2010PropOp35
 70
     1
102
RTVSPost2010Prop36
280
     0
102
RTVSPost2010PropOp36
 70
     1
102
RTVSPost2010Prop37
 90
       50
102
RTVSPost2010PropOp37
 70
     1
102
RTVSPost2010Prop38
140
0.0
102
RTVSPost2010PropOp38
 70
     1
102
RTVSPost2010Prop39
140
1.0
102
RTVSPost2010PropOp39
 70
     1
102
RTVSPost2010Prop40
 90
        0
102
RTVSPost2010PropOp40
 70
     1
102
RTVSPost2010Prop41ColorIndex
 90
       18
102
RTVSPost2010Prop41ColorRGB
 90
        0
102
RTVSPost2010PropOp41
 70
     1
102
RTVSPost2010Prop42
 90
       50
102
RTVSPost2010PropOp42
 70
     1
102
RTVSPost2010Prop43
 90
        3
102
RTVSPost2010PropOp43
 70
     1
102
RTVSPost2010Prop44ColorIndex
 90
        5
102
RTVSPost2010Prop44ColorRGB
 90
      255
102
RTVSPost2010PropOp44
 70
     1
102
RTVSPost2010Prop45
280
     0
102
RTVSPost2010PropOp45
 70
     1
102
RTVSPost2010Prop46
 90
       50
102
RTVSPost2010PropOp46
 70
     1
102
RTVSPost2010Prop47
 90
       50
102
RTVSPost2010PropOp47
 70
     1
102
RTVSPost2010Prop48
 90
       50
102
RTVSPost2010PropOp48
 70
     1
102
RTVSPost2010Prop49
280
     0
102
RTVSPost2010PropOp49
 70
     1
102
RTVSPost2010Prop50
 90
       50
102
RTVSPost2010PropOp50
 70
     1
102
RTVSPost2010Prop51ColorIndex
 90
      256
102
RTVSPost2010Prop51ColorRGB
 90
-16777216
102
RTVSPost2010PropOp51
 70
     0
102
RTVSPost2010Prop52
140
1.0
102
RTVSPost2010PropOp52
 70
     0
102
RTVSPost2010Prop53
 90
        2
102
RTVSPost2010PropOp53
 70
     1
102
RTVSPost2010Prop54
  1
strokes_ogs.tif
102
RTVSPost2010PropOp54
 70
     1
102
RTVSPost2010Prop55
280
     0
102
RTVSPost2010PropOp55
 70
     1
102
RTVSPost2010Prop56
140
1.0
102
RTVSPost2010PropOp56
 70
     1
102
RTVSPost2010Prop57
140
1.0
102
RTVSPost2010PropOp57
 70
     1
102
RTVSPropertyOp0
 70
     1
102
RTVSPropertyOp1
 70
     1
102
RTVSPropertyOp2
 70
     1
102
RTVSPropertyOp3
 70
     1
102
RTVSPropertyOp4
 70
     1
102
RTVSPropertyOp5
 70
     1
102
RTVSPropertyOp6
 70
     1
102
RTVSPropertyOp7
 70
     1
102
RTVSPropertyOp8
 70
     1
102
RTVSPropertyOp9
 70
     1
102
RTVSPropertyOp10
 70
     1
102
RTVSPropertyOp11
 70
     1
102
RTVSPropertyOp12
 70
     1
102
RTVSPropertyOp13
 70
     1
102
RTVSPropertyOp14
 70
     1
102
RTVSPropertyOp15
 70
     1
102
RTVSPropertyOp16
 70
     1
102
RTVSPropertyOp17
 70
     1
102
RTVSPropertyOp18
 70
     1
102
RTVSPropertyOp19
 70
     1
102
RTVSPropertyOp20
 70
     1
102
RTVSPropertyOp21
 70
     1
102
RTVSPropertyOp22
 70
     1
102
RTVSPropertyOp23
 70
     1
102
RTVSPropertyOp24
 70
     1
102
RTVSPropertyOp25
 70
     1
102
RTVSPropertyOp26
 70
     1
102
RTVSPropertyOp27
 70
     1
102
RTVSPropertyOp28
 70
     1
102
RTVSPropertyOp29
 70
     1
102
RTVSPropertyOp30
 70
     1
102
RTVSPropertyOp31
 70
     1
102
RTVSPropertyOp32
 70
     1
102
RTVSPropertyOp33
 70
     1
102
RTVSPropertyOp34
 70
     1
102
RTVSPropertyOp35
 70
     1
102
RTVSPropertyOp36
 70
     1
102
RTVSPropertyOp37
 70
     1
102
RTVSPropertyOp38
 70
     1
102
RTVSPropertyOp39
 70
     1
102
RTVSPropertyOp40
 70
     1
102
RTVSPropertyOp41
 70
     1
102
RTVSPropertyOp42
 70
     1
102
RTVSPropertyOp43
 70
     1
102
RTVSPropertyOp44
 70
     1
102
RTVSPropertyOp45
 70
     1
102
RTVSPropertyOp46
 70
     1
102
RTVSPropertyOp47
 70
     1
102
RTVSPropertyOp48
 70
     1
102
RTVSPropertyOp49
 70
     1
102
RTVSPropertyOp50
 70
     1
102
RTVSPropertyOp51
 70
     0
102
RTVSPropertyOp52
 70
     0
102
RTVSPropertyOp53
 70
     1
102
RTVSPropertyOp54
 70
     1
102
RTVSPropertyOp55
 70
     1
102
RTVSPropertyOp56
 70
     1
102
RTVSPropertyOp57
 70
     1
102
RTVSPropertyOp58
 70
     1
102
RTVSPropertyOp59
 70
     1
102
RTVSPropertyOp60
 70
     1
102
RTVSPropertyOp61
 70
     1
102
RTVSPropertyOp62
 70
     1
  0
XRECORD
  5
1ACE0
102
{ACAD_REACTORS
330
1ACDF
102
}
330
1ACDF
100
AcDbXrecord
280
     1
102
RTVSPost2010Prop28
280
     0
102
RTVSPost2010PropOp28
 70
     1
102
RTVSPost2010Prop29
280
     1
102
RTVSPost2010PropOp29
 70
     1
102
RTVSPost2010Prop30
280
     1
102
RTVSPost2010PropOp30
 70
     1
102
RTVSPost2010Prop31
280
     0
102
RTVSPost2010PropOp31
 70
     1
102
RTVSPost2010Prop32
280
     0
102
RTVSPost2010PropOp32
 70
     1
102
RTVSPost2010Prop33
280
     0
102
RTVSPost2010PropOp33
 70
     1
102
RTVSPost2010Prop34
280
     0
102
RTVSPost2010PropOp34
 70
     1
102
RTVSPost2010Prop35
280
     0
102
RTVSPost2010PropOp35
 70
     1
102
RTVSPost2010Prop36
280
     0
102
RTVSPost2010PropOp36
 70
     1
102
RTVSPost2010Prop37
 90
       50
102
RTVSPost2010PropOp37
 70
     1
102
RTVSPost2010Prop38
140
0.0
102
RTVSPost2010PropOp38
 70
     1
102
RTVSPost2010Prop39
140
1.0
102
RTVSPost2010PropOp39
 70
     1
102
RTVSPost2010Prop40
 90
        0
102
RTVSPost2010PropOp40
 70
     1
102
RTVSPost2010Prop41ColorIndex
 90
       18
102
RTVSPost2010Prop41ColorRGB
 90
        0
102
RTVSPost2010PropOp41
 70
     1
102
RTVSPost2010Prop42
 90
       50
102
RTVSPost2010PropOp42
 70
     1
102
RTVSPost2010Prop43
 90
        3
102
RTVSPost2010PropOp43
 70
     1
102
RTVSPost2010Prop44ColorIndex
 90
        5
102
RTVSPost2010Prop44ColorRGB
 90
      255
102
RTVSPost2010PropOp44
 70
     1
102
RTVSPost2010Prop45
280
     0
102
RTVSPost2010PropOp45
 70
     1
102
RTVSPost2010Prop46
 90
       50
102
RTVSPost2010PropOp46
 70
     1
102
RTVSPost2010Prop47
 90
       50
102
RTVSPost2010PropOp47
 70
     1
102
RTVSPost2010Prop48
 90
       50
102
RTVSPost2010PropOp48
 70
     1
102
RTVSPost2010Prop49
280
     0
102
RTVSPost2010PropOp49
 70
     1
102
RTVSPost2010Prop50
 90
       50
102
RTVSPost2010PropOp50
 70
     1
102
RTVSPost2010Prop51ColorIndex
 90
      256
102
RTVSPost2010Prop51ColorRGB
 90
-16777216
102
RTVSPost2010PropOp51
 70
     0
102
RTVSPost2010Prop52
140
1.0
102
RTVSPost2010PropOp52
 70
     0
102
RTVSPost2010Prop53
 90
        2
102
RTVSPost2010PropOp53
 70
     1
102
RTVSPost2010Prop54
  1
strokes_ogs.tif
102
RTVSPost2010PropOp54
 70
     1
102
RTVSPost2010Prop55
280
     0
102
RTVSPost2010PropOp55
 70
     1
102
RTVSPost2010Prop56
140
1.0
102
RTVSPost2010PropOp56
 70
     1
102
RTVSPost2010Prop57
140
1.0
102
RTVSPost2010PropOp57
 70
     1
102
RTVSPropertyOp0
 70
     1
102
RTVSPropertyOp1
 70
     1
102
RTVSPropertyOp2
 70
     1
102
RTVSPropertyOp3
 70
     1
102
RTVSPropertyOp4
 70
     1
102
RTVSPropertyOp5
 70
     1
102
RTVSPropertyOp6
 70
     1
102
RTVSPropertyOp7
 70
     1
102
RTVSPropertyOp8
 70
     1
102
RTVSPropertyOp9
 70
     1
102
RTVSPropertyOp10
 70
     1
102
RTVSPropertyOp11
 70
     1
102
RTVSPropertyOp12
 70
     1
102
RTVSPropertyOp13
 70
     1
102
RTVSPropertyOp14
 70
     1
102
RTVSPropertyOp15
 70
     1
102
RTVSPropertyOp16
 70
     1
102
RTVSPropertyOp17
 70
     1
102
RTVSPropertyOp18
 70
     1
102
RTVSPropertyOp19
 70
     1
102
RTVSPropertyOp20
 70
     1
102
RTVSPropertyOp21
 70
     1
102
RTVSPropertyOp22
 70
     1
102
RTVSPropertyOp23
 70
     1
102
RTVSPropertyOp24
 70
     1
102
RTVSPropertyOp25
 70
     1
102
RTVSPropertyOp26
 70
     1
102
RTVSPropertyOp27
 70
     1
102
RTVSPropertyOp28
 70
     1
102
RTVSPropertyOp29
 70
     1
102
RTVSPropertyOp30
 70
     1
102
RTVSPropertyOp31
 70
     1
102
RTVSPropertyOp32
 70
     1
102
RTVSPropertyOp33
 70
     1
102
RTVSPropertyOp34
 70
     1
102
RTVSPropertyOp35
 70
     1
102
RTVSPropertyOp36
 70
     1
102
RTVSPropertyOp37
 70
     1
102
RTVSPropertyOp38
 70
     1
102
RTVSPropertyOp39
 70
     1
102
RTVSPropertyOp40
 70
     1
102
RTVSPropertyOp41
 70
     1
102
RTVSPropertyOp42
 70
     1
102
RTVSPropertyOp43
 70
     1
102
RTVSPropertyOp44
 70
     1
102
RTVSPropertyOp45
 70
     1
102
RTVSPropertyOp46
 70
     1
102
RTVSPropertyOp47
 70
     1
102
RTVSPropertyOp48
 70
     1
102
RTVSPropertyOp49
 70
     1
102
RTVSPropertyOp50
 70
     1
102
RTVSPropertyOp51
 70
     0
102
RTVSPropertyOp52
 70
     0
102
RTVSPropertyOp53
 70
     1
102
RTVSPropertyOp54
 70
     1
102
RTVSPropertyOp55
 70
     1
102
RTVSPropertyOp56
 70
     1
102
RTVSPropertyOp57
 70
     1
102
RTVSPropertyOp58
 70
     1
102
RTVSPropertyOp59
 70
     1
102
RTVSPropertyOp60
 70
     1
102
RTVSPropertyOp61
 70
     1
102
RTVSPropertyOp62
 70
     1
  0
XRECORD
  5
1ACFA
102
{ACAD_REACTORS
330
1ACF9
102
}
330
1ACF9
100
AcDbXrecord
280
     1
102
RTVSPost2010Prop28
280
     0
102
RTVSPost2010PropOp28
 70
     1
102
RTVSPost2010Prop29
280
     1
102
RTVSPost2010PropOp29
 70
     1
102
RTVSPost2010Prop30
280
     1
102
RTVSPost2010PropOp30
 70
     1
102
RTVSPost2010Prop31
280
     0
102
RTVSPost2010PropOp31
 70
     1
102
RTVSPost2010Prop32
280
     0
102
RTVSPost2010PropOp32
 70
     1
102
RTVSPost2010Prop33
280
     0
102
RTVSPost2010PropOp33
 70
     1
102
RTVSPost2010Prop34
280
     0
102
RTVSPost2010PropOp34
 70
     1
102
RTVSPost2010Prop35
280
     0
102
RTVSPost2010PropOp35
 70
     1
102
RTVSPost2010Prop36
280
     0
102
RTVSPost2010PropOp36
 70
     1
102
RTVSPost2010Prop37
 90
       50
102
RTVSPost2010PropOp37
 70
     0
102
RTVSPost2010Prop38
140
0.0
102
RTVSPost2010PropOp38
 70
     0
102
RTVSPost2010Prop39
140
1.0
102
RTVSPost2010PropOp39
 70
     0
102
RTVSPost2010Prop40
 90
        0
102
RTVSPost2010PropOp40
 70
     0
102
RTVSPost2010Prop41ColorIndex
 90
       18
102
RTVSPost2010Prop41ColorRGB
 90
        0
102
RTVSPost2010PropOp41
 70
     0
102
RTVSPost2010Prop42
 90
       50
102
RTVSPost2010PropOp42
 70
     0
102
RTVSPost2010Prop43
 90
        3
102
RTVSPost2010PropOp43
 70
     0
102
RTVSPost2010Prop44ColorIndex
 90
        5
102
RTVSPost2010Prop44ColorRGB
 90
      255
102
RTVSPost2010PropOp44
 70
     0
102
RTVSPost2010Prop45
280
     0
102
RTVSPost2010PropOp45
 70
     1
102
RTVSPost2010Prop46
 90
       50
102
RTVSPost2010PropOp46
 70
     0
102
RTVSPost2010Prop47
 90
       50
102
RTVSPost2010PropOp47
 70
     0
102
RTVSPost2010Prop48
 90
       50
102
RTVSPost2010PropOp48
 70
     0
102
RTVSPost2010Prop49
280
     0
102
RTVSPost2010PropOp49
 70
     1
102
RTVSPost2010Prop50
 90
       50
102
RTVSPost2010PropOp50
 70
     0
102
RTVSPost2010Prop51ColorIndex
 90
      256
102
RTVSPost2010Prop51ColorRGB
 90
-16777216
102
RTVSPost2010PropOp51
 70
     0
102
RTVSPost2010Prop52
140
1.0
102
RTVSPost2010PropOp52
 70
     0
102
RTVSPost2010Prop53
 90
        2
102
RTVSPost2010PropOp53
 70
     0
102
RTVSPost2010Prop54
  1
strokes_ogs.tif
102
RTVSPost2010PropOp54
 70
     0
102
RTVSPost2010Prop55
280
     0
102
RTVSPost2010PropOp55
 70
     1
102
RTVSPost2010Prop56
140
1.0
102
RTVSPost2010PropOp56
 70
     0
102
RTVSPost2010Prop57
140
1.0
102
RTVSPost2010PropOp57
 70
     0
102
RTVSPropertyOp0
 70
     0
102
RTVSPropertyOp1
 70
     0
102
RTVSPropertyOp2
 70
     0
102
RTVSPropertyOp3
 70
     0
102
RTVSPropertyOp4
 70
     0
102
RTVSPropertyOp5
 70
     0
102
RTVSPropertyOp6
 70
     0
102
RTVSPropertyOp7
 70
     0
102
RTVSPropertyOp8
 70
     0
102
RTVSPropertyOp9
 70
     0
102
RTVSPropertyOp10
 70
     0
102
RTVSPropertyOp11
 70
     0
102
RTVSPropertyOp12
 70
     0
102
RTVSPropertyOp13
 70
     0
102
RTVSPropertyOp14
 70
     2
102
RTVSPropertyOp15
 70
     0
102
RTVSPropertyOp16
 70
     0
102
RTVSPropertyOp17
 70
     0
102
RTVSPropertyOp18
 70
     0
102
RTVSPropertyOp19
 70
     0
102
RTVSPropertyOp20
 70
     0
102
RTVSPropertyOp21
 70
     0
102
RTVSPropertyOp22
 70
     0
102
RTVSPropertyOp23
 70
     0
102
RTVSPropertyOp24
 70
     0
102
RTVSPropertyOp25
 70
     0
102
RTVSPropertyOp26
 70
     0
102
RTVSPropertyOp27
 70
     0
102
RTVSPropertyOp28
 70
     1
102
RTVSPropertyOp29
 70
     1
102
RTVSPropertyOp30
 70
     1
102
RTVSPropertyOp31
 70
     1
102
RTVSPropertyOp32
 70
     1
102
RTVSPropertyOp33
 70
     1
102
RTVSPropertyOp34
 70
     1
102
RTVSPropertyOp35
 70
     1
102
RTVSPropertyOp36
 70
     1
102
RTVSPropertyOp37
 70
     0
102
RTVSPropertyOp38
 70
     0
102
RTVSPropertyOp39
 70
     0
102
RTVSPropertyOp40
 70
     0
102
RTVSPropertyOp41
 70
     0
102
RTVSPropertyOp42
 70
     0
102
RTVSPropertyOp43
 70
     0
102
RTVSPropertyOp44
 70
     0
102
RTVSPropertyOp45
 70
     1
102
RTVSPropertyOp46
 70
     0
102
RTVSPropertyOp47
 70
     0
102
RTVSPropertyOp48
 70
     0
102
RTVSPropertyOp49
 70
     1
102
RTVSPropertyOp50
 70
     0
102
RTVSPropertyOp51
 70
     0
102
RTVSPropertyOp52
 70
     0
102
RTVSPropertyOp53
 70
     0
102
RTVSPropertyOp54
 70
     0
102
RTVSPropertyOp55
 70
     1
102
RTVSPropertyOp56
 70
     0
102
RTVSPropertyOp57
 70
     0
102
RTVSPropertyOp58
 70
     0
102
RTVSPropertyOp59
 70
     0
102
RTVSPropertyOp60
 70
     0
102
RTVSPropertyOp61
 70
     0
102
RTVSPropertyOp62
 70
     0
  0
XRECORD
  5
1ACE8
102
{ACAD_REACTORS
330
1ACE7
102
}
330
1ACE7
100
AcDbXrecord
280
     1
102
RTVSPost2010Prop28
280
     0
102
RTVSPost2010PropOp28
 70
     1
102
RTVSPost2010Prop29
280
     1
102
RTVSPost2010PropOp29
 70
     1
102
RTVSPost2010Prop30
280
     1
102
RTVSPost2010PropOp30
 70
     1
102
RTVSPost2010Prop31
280
     0
102
RTVSPost2010PropOp31
 70
     1
102
RTVSPost2010Prop32
280
     0
102
RTVSPost2010PropOp32
 70
     1
102
RTVSPost2010Prop33
280
     0
102
RTVSPost2010PropOp33
 70
     1
102
RTVSPost2010Prop34
280
     0
102
RTVSPost2010PropOp34
 70
     1
102
RTVSPost2010Prop35
280
     0
102
RTVSPost2010PropOp35
 70
     1
102
RTVSPost2010Prop36
280
     0
102
RTVSPost2010PropOp36
 70
     1
102
RTVSPost2010Prop37
 90
       50
102
RTVSPost2010PropOp37
 70
     1
102
RTVSPost2010Prop38
140
0.0
102
RTVSPost2010PropOp38
 70
     1
102
RTVSPost2010Prop39
140
1.0
102
RTVSPost2010PropOp39
 70
     1
102
RTVSPost2010Prop40
 90
        0
102
RTVSPost2010PropOp40
 70
     1
102
RTVSPost2010Prop41ColorIndex
 90
       18
102
RTVSPost2010Prop41ColorRGB
 90
        0
102
RTVSPost2010PropOp41
 70
     1
102
RTVSPost2010Prop42
 90
       50
102
RTVSPost2010PropOp42
 70
     1
102
RTVSPost2010Prop43
 90
        3
102
RTVSPost2010PropOp43
 70
     1
102
RTVSPost2010Prop44ColorIndex
 90
        5
102
RTVSPost2010Prop44ColorRGB
 90
      255
102
RTVSPost2010PropOp44
 70
     1
102
RTVSPost2010Prop45
280
     0
102
RTVSPost2010PropOp45
 70
     1
102
RTVSPost2010Prop46
 90
       50
102
RTVSPost2010PropOp46
 70
     1
102
RTVSPost2010Prop47
 90
       50
102
RTVSPost2010PropOp47
 70
     1
102
RTVSPost2010Prop48
 90
       50
102
RTVSPost2010PropOp48
 70
     1
102
RTVSPost2010Prop49
280
     0
102
RTVSPost2010PropOp49
 70
     1
102
RTVSPost2010Prop50
 90
       50
102
RTVSPost2010PropOp50
 70
     1
102
RTVSPost2010Prop51ColorIndex
 90
      256
102
RTVSPost2010Prop51ColorRGB
 90
-16777216
102
RTVSPost2010PropOp51
 70
     0
102
RTVSPost2010Prop52
140
1.0
102
RTVSPost2010PropOp52
 70
     0
102
RTVSPost2010Prop53
 90
        2
102
RTVSPost2010PropOp53
 70
     1
102
RTVSPost2010Prop54
  1
strokes_ogs.tif
102
RTVSPost2010PropOp54
 70
     1
102
RTVSPost2010Prop55
280
     0
102
RTVSPost2010PropOp55
 70
     1
102
RTVSPost2010Prop56
140
1.0
102
RTVSPost2010PropOp56
 70
     1
102
RTVSPost2010Prop57
140
1.0
102
RTVSPost2010PropOp57
 70
     1
102
RTVSPropertyOp0
 70
     1
102
RTVSPropertyOp1
 70
     1
102
RTVSPropertyOp2
 70
     1
102
RTVSPropertyOp3
 70
     1
102
RTVSPropertyOp4
 70
     1
102
RTVSPropertyOp5
 70
     1
102
RTVSPropertyOp6
 70
     1
102
RTVSPropertyOp7
 70
     1
102
RTVSPropertyOp8
 70
     1
102
RTVSPropertyOp9
 70
     1
102
RTVSPropertyOp10
 70
     1
102
RTVSPropertyOp11
 70
     1
102
RTVSPropertyOp12
 70
     1
102
RTVSPropertyOp13
 70
     1
102
RTVSPropertyOp14
 70
     1
102
RTVSPropertyOp15
 70
     1
102
RTVSPropertyOp16
 70
     1
102
RTVSPropertyOp17
 70
     1
102
RTVSPropertyOp18
 70
     1
102
RTVSPropertyOp19
 70
     1
102
RTVSPropertyOp20
 70
     1
102
RTVSPropertyOp21
 70
     1
102
RTVSPropertyOp22
 70
     1
102
RTVSPropertyOp23
 70
     1
102
RTVSPropertyOp24
 70
     1
102
RTVSPropertyOp25
 70
     1
102
RTVSPropertyOp26
 70
     1
102
RTVSPropertyOp27
 70
     1
102
RTVSPropertyOp28
 70
     1
102
RTVSPropertyOp29
 70
     1
102
RTVSPropertyOp30
 70
     1
102
RTVSPropertyOp31
 70
     1
102
RTVSPropertyOp32
 70
     1
102
RTVSPropertyOp33
 70
     1
102
RTVSPropertyOp34
 70
     1
102
RTVSPropertyOp35
 70
     1
102
RTVSPropertyOp36
 70
     1
102
RTVSPropertyOp37
 70
     1
102
RTVSPropertyOp38
 70
     1
102
RTVSPropertyOp39
 70
     1
102
RTVSPropertyOp40
 70
     1
102
RTVSPropertyOp41
 70
     1
102
RTVSPropertyOp42
 70
     1
102
RTVSPropertyOp43
 70
     1
102
RTVSPropertyOp44
 70
     1
102
RTVSPropertyOp45
 70
     1
102
RTVSPropertyOp46
 70
     1
102
RTVSPropertyOp47
 70
     1
102
RTVSPropertyOp48
 70
     1
102
RTVSPropertyOp49
 70
     1
102
RTVSPropertyOp50
 70
     1
102
RTVSPropertyOp51
 70
     0
102
RTVSPropertyOp52
 70
     0
102
RTVSPropertyOp53
 70
     1
102
RTVSPropertyOp54
 70
     1
102
RTVSPropertyOp55
 70
     1
102
RTVSPropertyOp56
 70
     1
102
RTVSPropertyOp57
 70
     1
102
RTVSPropertyOp58
 70
     1
102
RTVSPropertyOp59
 70
     1
102
RTVSPropertyOp60
 70
     1
102
RTVSPropertyOp61
 70
     1
102
RTVSPropertyOp62
 70
     1
  0
XRECORD
  5
1ACCC
102
{ACAD_REACTORS
330
1ACCB
102
}
330
1ACCB
100
AcDbXrecord
280
     1
102
RTVSPost2010Prop28
280
     0
102
RTVSPost2010PropOp28
 70
     1
102
RTVSPost2010Prop29
280
     1
102
RTVSPost2010PropOp29
 70
     1
102
RTVSPost2010Prop30
280
     1
102
RTVSPost2010PropOp30
 70
     1
102
RTVSPost2010Prop31
280
     0
102
RTVSPost2010PropOp31
 70
     1
102
RTVSPost2010Prop32
280
     0
102
RTVSPost2010PropOp32
 70
     1
102
RTVSPost2010Prop33
280
     0
102
RTVSPost2010PropOp33
 70
     1
102
RTVSPost2010Prop34
280
     0
102
RTVSPost2010PropOp34
 70
     1
102
RTVSPost2010Prop35
280
     0
102
RTVSPost2010PropOp35
 70
     1
102
RTVSPost2010Prop36
280
     0
102
RTVSPost2010PropOp36
 70
     1
102
RTVSPost2010Prop37
 90
       50
102
RTVSPost2010PropOp37
 70
     1
102
RTVSPost2010Prop38
140
0.0
102
RTVSPost2010PropOp38
 70
     1
102
RTVSPost2010Prop39
140
1.0
102
RTVSPost2010PropOp39
 70
     1
102
RTVSPost2010Prop40
 90
        0
102
RTVSPost2010PropOp40
 70
     1
102
RTVSPost2010Prop41ColorIndex
 90
       18
102
RTVSPost2010Prop41ColorRGB
 90
        0
102
RTVSPost2010PropOp41
 70
     1
102
RTVSPost2010Prop42
 90
       50
102
RTVSPost2010PropOp42
 70
     1
102
RTVSPost2010Prop43
 90
        3
102
RTVSPost2010PropOp43
 70
     1
102
RTVSPost2010Prop44ColorIndex
 90
        5
102
RTVSPost2010Prop44ColorRGB
 90
      255
102
RTVSPost2010PropOp44
 70
     1
102
RTVSPost2010Prop45
280
     0
102
RTVSPost2010PropOp45
 70
     1
102
RTVSPost2010Prop46
 90
       50
102
RTVSPost2010PropOp46
 70
     1
102
RTVSPost2010Prop47
 90
       50
102
RTVSPost2010PropOp47
 70
     1
102
RTVSPost2010Prop48
 90
       50
102
RTVSPost2010PropOp48
 70
     1
102
RTVSPost2010Prop49
280
     0
102
RTVSPost2010PropOp49
 70
     1
102
RTVSPost2010Prop50
 90
       50
102
RTVSPost2010PropOp50
 70
     1
102
RTVSPost2010Prop51ColorIndex
 90
      256
102
RTVSPost2010Prop51ColorRGB
 90
-16777216
102
RTVSPost2010PropOp51
 70
     0
102
RTVSPost2010Prop52
140
1.0
102
RTVSPost2010PropOp52
 70
     0
102
RTVSPost2010Prop53
 90
        2
102
RTVSPost2010PropOp53
 70
     1
102
RTVSPost2010Prop54
  1
strokes_ogs.tif
102
RTVSPost2010PropOp54
 70
     1
102
RTVSPost2010Prop55
280
     0
102
RTVSPost2010PropOp55
 70
     1
102
RTVSPost2010Prop56
140
1.0
102
RTVSPost2010PropOp56
 70
     1
102
RTVSPost2010Prop57
140
1.0
102
RTVSPost2010PropOp57
 70
     1
102
RTVSPropertyOp0
 70
     1
102
RTVSPropertyOp1
 70
     1
102
RTVSPropertyOp2
 70
     1
102
RTVSPropertyOp3
 70
     1
102
RTVSPropertyOp4
 70
     1
102
RTVSPropertyOp5
 70
     1
102
RTVSPropertyOp6
 70
     1
102
RTVSPropertyOp7
 70
     1
102
RTVSPropertyOp8
 70
     1
102
RTVSPropertyOp9
 70
     1
102
RTVSPropertyOp10
 70
     1
102
RTVSPropertyOp11
 70
     1
102
RTVSPropertyOp12
 70
     1
102
RTVSPropertyOp13
 70
     1
102
RTVSPropertyOp14
 70
     1
102
RTVSPropertyOp15
 70
     1
102
RTVSPropertyOp16
 70
     1
102
RTVSPropertyOp17
 70
     1
102
RTVSPropertyOp18
 70
     1
102
RTVSPropertyOp19
 70
     1
102
RTVSPropertyOp20
 70
     1
102
RTVSPropertyOp21
 70
     1
102
RTVSPropertyOp22
 70
     1
102
RTVSPropertyOp23
 70
     1
102
RTVSPropertyOp24
 70
     1
102
RTVSPropertyOp25
 70
     1
102
RTVSPropertyOp26
 70
     1
102
RTVSPropertyOp27
 70
     1
102
RTVSPropertyOp28
 70
     1
102
RTVSPropertyOp29
 70
     1
102
RTVSPropertyOp30
 70
     1
102
RTVSPropertyOp31
 70
     1
102
RTVSPropertyOp32
 70
     1
102
RTVSPropertyOp33
 70
     1
102
RTVSPropertyOp34
 70
     1
102
RTVSPropertyOp35
 70
     1
102
RTVSPropertyOp36
 70
     1
102
RTVSPropertyOp37
 70
     1
102
RTVSPropertyOp38
 70
     1
102
RTVSPropertyOp39
 70
     1
102
RTVSPropertyOp40
 70
     1
102
RTVSPropertyOp41
 70
     1
102
RTVSPropertyOp42
 70
     1
102
RTVSPropertyOp43
 70
     1
102
RTVSPropertyOp44
 70
     1
102
RTVSPropertyOp45
 70
     1
102
RTVSPropertyOp46
 70
     1
102
RTVSPropertyOp47
 70
     1
102
RTVSPropertyOp48
 70
     1
102
RTVSPropertyOp49
 70
     1
102
RTVSPropertyOp50
 70
     1
102
RTVSPropertyOp51
 70
     0
102
RTVSPropertyOp52
 70
     0
102
RTVSPropertyOp53
 70
     1
102
RTVSPropertyOp54
 70
     1
102
RTVSPropertyOp55
 70
     1
102
RTVSPropertyOp56
 70
     1
102
RTVSPropertyOp57
 70
     1
102
RTVSPropertyOp58
 70
     1
102
RTVSPropertyOp59
 70
     1
102
RTVSPropertyOp60
 70
     1
102
RTVSPropertyOp61
 70
     1
102
RTVSPropertyOp62
 70
     1
  0
XRECORD
  5
1ACCE
102
{ACAD_REACTORS
330
1ACCD
102
}
330
1ACCD
100
AcDbXrecord
280
     1
102
RTVSPost2010Prop28
280
     0
102
RTVSPost2010PropOp28
 70
     1
102
RTVSPost2010Prop29
280
     1
102
RTVSPost2010PropOp29
 70
     1
102
RTVSPost2010Prop30
280
     1
102
RTVSPost2010PropOp30
 70
     1
102
RTVSPost2010Prop31
280
     0
102
RTVSPost2010PropOp31
 70
     1
102
RTVSPost2010Prop32
280
     0
102
RTVSPost2010PropOp32
 70
     1
102
RTVSPost2010Prop33
280
     0
102
RTVSPost2010PropOp33
 70
     1
102
RTVSPost2010Prop34
280
     0
102
RTVSPost2010PropOp34
 70
     1
102
RTVSPost2010Prop35
280
     0
102
RTVSPost2010PropOp35
 70
     1
102
RTVSPost2010Prop36
280
     0
102
RTVSPost2010PropOp36
 70
     1
102
RTVSPost2010Prop37
 90
       50
102
RTVSPost2010PropOp37
 70
     1
102
RTVSPost2010Prop38
140
0.0
102
RTVSPost2010PropOp38
 70
     1
102
RTVSPost2010Prop39
140
1.0
102
RTVSPost2010PropOp39
 70
     1
102
RTVSPost2010Prop40
 90
        0
102
RTVSPost2010PropOp40
 70
     1
102
RTVSPost2010Prop41ColorIndex
 90
       18
102
RTVSPost2010Prop41ColorRGB
 90
        0
102
RTVSPost2010PropOp41
 70
     1
102
RTVSPost2010Prop42
 90
       50
102
RTVSPost2010PropOp42
 70
     1
102
RTVSPost2010Prop43
 90
        3
102
RTVSPost2010PropOp43
 70
     1
102
RTVSPost2010Prop44ColorIndex
 90
        5
102
RTVSPost2010Prop44ColorRGB
 90
      255
102
RTVSPost2010PropOp44
 70
     1
102
RTVSPost2010Prop45
280
     0
102
RTVSPost2010PropOp45
 70
     1
102
RTVSPost2010Prop46
 90
       50
102
RTVSPost2010PropOp46
 70
     1
102
RTVSPost2010Prop47
 90
       50
102
RTVSPost2010PropOp47
 70
     1
102
RTVSPost2010Prop48
 90
       50
102
RTVSPost2010PropOp48
 70
     1
102
RTVSPost2010Prop49
280
     0
102
RTVSPost2010PropOp49
 70
     1
102
RTVSPost2010Prop50
 90
       50
102
RTVSPost2010PropOp50
 70
     1
102
RTVSPost2010Prop51ColorIndex
 90
      256
102
RTVSPost2010Prop51ColorRGB
 90
-16777216
102
RTVSPost2010PropOp51
 70
     0
102
RTVSPost2010Prop52
140
1.0
102
RTVSPost2010PropOp52
 70
     0
102
RTVSPost2010Prop53
 90
        2
102
RTVSPost2010PropOp53
 70
     1
102
RTVSPost2010Prop54
  1
strokes_ogs.tif
102
RTVSPost2010PropOp54
 70
     1
102
RTVSPost2010Prop55
280
     0
102
RTVSPost2010PropOp55
 70
     1
102
RTVSPost2010Prop56
140
1.0
102
RTVSPost2010PropOp56
 70
     1
102
RTVSPost2010Prop57
140
1.0
102
RTVSPost2010PropOp57
 70
     1
102
RTVSPropertyOp0
 70
     1
102
RTVSPropertyOp1
 70
     1
102
RTVSPropertyOp2
 70
     1
102
RTVSPropertyOp3
 70
     1
102
RTVSPropertyOp4
 70
     1
102
RTVSPropertyOp5
 70
     1
102
RTVSPropertyOp6
 70
     1
102
RTVSPropertyOp7
 70
     1
102
RTVSPropertyOp8
 70
     1
102
RTVSPropertyOp9
 70
     1
102
RTVSPropertyOp10
 70
     1
102
RTVSPropertyOp11
 70
     1
102
RTVSPropertyOp12
 70
     1
102
RTVSPropertyOp13
 70
     1
102
RTVSPropertyOp14
 70
     1
102
RTVSPropertyOp15
 70
     1
102
RTVSPropertyOp16
 70
     1
102
RTVSPropertyOp17
 70
     1
102
RTVSPropertyOp18
 70
     1
102
RTVSPropertyOp19
 70
     1
102
RTVSPropertyOp20
 70
     1
102
RTVSPropertyOp21
 70
     1
102
RTVSPropertyOp22
 70
     1
102
RTVSPropertyOp23
 70
     1
102
RTVSPropertyOp24
 70
     1
102
RTVSPropertyOp25
 70
     1
102
RTVSPropertyOp26
 70
     1
102
RTVSPropertyOp27
 70
     1
102
RTVSPropertyOp28
 70
     1
102
RTVSPropertyOp29
 70
     1
102
RTVSPropertyOp30
 70
     1
102
RTVSPropertyOp31
 70
     1
102
RTVSPropertyOp32
 70
     1
102
RTVSPropertyOp33
 70
     1
102
RTVSPropertyOp34
 70
     1
102
RTVSPropertyOp35
 70
     1
102
RTVSPropertyOp36
 70
     1
102
RTVSPropertyOp37
 70
     1
102
RTVSPropertyOp38
 70
     1
102
RTVSPropertyOp39
 70
     1
102
RTVSPropertyOp40
 70
     1
102
RTVSPropertyOp41
 70
     1
102
RTVSPropertyOp42
 70
     1
102
RTVSPropertyOp43
 70
     1
102
RTVSPropertyOp44
 70
     1
102
RTVSPropertyOp45
 70
     1
102
RTVSPropertyOp46
 70
     1
102
RTVSPropertyOp47
 70
     1
102
RTVSPropertyOp48
 70
     1
102
RTVSPropertyOp49
 70
     1
102
RTVSPropertyOp50
 70
     1
102
RTVSPropertyOp51
 70
     0
102
RTVSPropertyOp52
 70
     0
102
RTVSPropertyOp53
 70
     1
102
RTVSPropertyOp54
 70
     1
102
RTVSPropertyOp55
 70
     1
102
RTVSPropertyOp56
 70
     1
102
RTVSPropertyOp57
 70
     1
102
RTVSPropertyOp58
 70
     1
102
RTVSPropertyOp59
 70
     1
102
RTVSPropertyOp60
 70
     1
102
RTVSPropertyOp61
 70
     1
102
RTVSPropertyOp62
 70
     1
  0
XRECORD
  5
1ACD0
102
{ACAD_REACTORS
330
1ACCF
102
}
330
1ACCF
100
AcDbXrecord
280
     1
102
RTVSPost2010Prop28
280
     0
102
RTVSPost2010PropOp28
 70
     1
102
RTVSPost2010Prop29
280
     1
102
RTVSPost2010PropOp29
 70
     1
102
RTVSPost2010Prop30
280
     1
102
RTVSPost2010PropOp30
 70
     1
102
RTVSPost2010Prop31
280
     0
102
RTVSPost2010PropOp31
 70
     1
102
RTVSPost2010Prop32
280
     0
102
RTVSPost2010PropOp32
 70
     1
102
RTVSPost2010Prop33
280
     0
102
RTVSPost2010PropOp33
 70
     1
102
RTVSPost2010Prop34
280
     0
102
RTVSPost2010PropOp34
 70
     1
102
RTVSPost2010Prop35
280
     0
102
RTVSPost2010PropOp35
 70
     1
102
RTVSPost2010Prop36
280
     0
102
RTVSPost2010PropOp36
 70
     1
102
RTVSPost2010Prop37
 90
       50
102
RTVSPost2010PropOp37
 70
     1
102
RTVSPost2010Prop38
140
0.0
102
RTVSPost2010PropOp38
 70
     1
102
RTVSPost2010Prop39
140
1.0
102
RTVSPost2010PropOp39
 70
     1
102
RTVSPost2010Prop40
 90
        0
102
RTVSPost2010PropOp40
 70
     1
102
RTVSPost2010Prop41ColorIndex
 90
       18
102
RTVSPost2010Prop41ColorRGB
 90
        0
102
RTVSPost2010PropOp41
 70
     1
102
RTVSPost2010Prop42
 90
       50
102
RTVSPost2010PropOp42
 70
     1
102
RTVSPost2010Prop43
 90
        3
102
RTVSPost2010PropOp43
 70
     1
102
RTVSPost2010Prop44ColorIndex
 90
        5
102
RTVSPost2010Prop44ColorRGB
 90
      255
102
RTVSPost2010PropOp44
 70
     1
102
RTVSPost2010Prop45
280
     0
102
RTVSPost2010PropOp45
 70
     1
102
RTVSPost2010Prop46
 90
       50
102
RTVSPost2010PropOp46
 70
     1
102
RTVSPost2010Prop47
 90
       50
102
RTVSPost2010PropOp47
 70
     1
102
RTVSPost2010Prop48
 90
       50
102
RTVSPost2010PropOp48
 70
     1
102
RTVSPost2010Prop49
280
     0
102
RTVSPost2010PropOp49
 70
     1
102
RTVSPost2010Prop50
 90
       50
102
RTVSPost2010PropOp50
 70
     1
102
RTVSPost2010Prop51ColorIndex
 90
      256
102
RTVSPost2010Prop51ColorRGB
 90
-16777216
102
RTVSPost2010PropOp51
 70
     0
102
RTVSPost2010Prop52
140
1.0
102
RTVSPost2010PropOp52
 70
     0
102
RTVSPost2010Prop53
 90
        2
102
RTVSPost2010PropOp53
 70
     1
102
RTVSPost2010Prop54
  1
strokes_ogs.tif
102
RTVSPost2010PropOp54
 70
     1
102
RTVSPost2010Prop55
280
     0
102
RTVSPost2010PropOp55
 70
     1
102
RTVSPost2010Prop56
140
1.0
102
RTVSPost2010PropOp56
 70
     1
102
RTVSPost2010Prop57
140
1.0
102
RTVSPost2010PropOp57
 70
     1
102
RTVSPropertyOp0
 70
     1
102
RTVSPropertyOp1
 70
     1
102
RTVSPropertyOp2
 70
     1
102
RTVSPropertyOp3
 70
     1
102
RTVSPropertyOp4
 70
     1
102
RTVSPropertyOp5
 70
     1
102
RTVSPropertyOp6
 70
     1
102
RTVSPropertyOp7
 70
     1
102
RTVSPropertyOp8
 70
     1
102
RTVSPropertyOp9
 70
     1
102
RTVSPropertyOp10
 70
     1
102
RTVSPropertyOp11
 70
     1
102
RTVSPropertyOp12
 70
     1
102
RTVSPropertyOp13
 70
     1
102
RTVSPropertyOp14
 70
     1
102
RTVSPropertyOp15
 70
     1
102
RTVSPropertyOp16
 70
     1
102
RTVSPropertyOp17
 70
     1
102
RTVSPropertyOp18
 70
     1
102
RTVSPropertyOp19
 70
     1
102
RTVSPropertyOp20
 70
     1
102
RTVSPropertyOp21
 70
     1
102
RTVSPropertyOp22
 70
     1
102
RTVSPropertyOp23
 70
     1
102
RTVSPropertyOp24
 70
     1
102
RTVSPropertyOp25
 70
     1
102
RTVSPropertyOp26
 70
     1
102
RTVSPropertyOp27
 70
     1
102
RTVSPropertyOp28
 70
     1
102
RTVSPropertyOp29
 70
     1
102
RTVSPropertyOp30
 70
     1
102
RTVSPropertyOp31
 70
     1
102
RTVSPropertyOp32
 70
     1
102
RTVSPropertyOp33
 70
     1
102
RTVSPropertyOp34
 70
     1
102
RTVSPropertyOp35
 70
     1
102
RTVSPropertyOp36
 70
     1
102
RTVSPropertyOp37
 70
     1
102
RTVSPropertyOp38
 70
     1
102
RTVSPropertyOp39
 70
     1
102
RTVSPropertyOp40
 70
     1
102
RTVSPropertyOp41
 70
     1
102
RTVSPropertyOp42
 70
     1
102
RTVSPropertyOp43
 70
     1
102
RTVSPropertyOp44
 70
     1
102
RTVSPropertyOp45
 70
     1
102
RTVSPropertyOp46
 70
     1
102
RTVSPropertyOp47
 70
     1
102
RTVSPropertyOp48
 70
     1
102
RTVSPropertyOp49
 70
     1
102
RTVSPropertyOp50
 70
     1
102
RTVSPropertyOp51
 70
     0
102
RTVSPropertyOp52
 70
     0
102
RTVSPropertyOp53
 70
     1
102
RTVSPropertyOp54
 70
     1
102
RTVSPropertyOp55
 70
     1
102
RTVSPropertyOp56
 70
     1
102
RTVSPropertyOp57
 70
     1
102
RTVSPropertyOp58
 70
     1
102
RTVSPropertyOp59
 70
     1
102
RTVSPropertyOp60
 70
     1
102
RTVSPropertyOp61
 70
     1
102
RTVSPropertyOp62
 70
     1
  0
XRECORD
  5
1ACD2
102
{ACAD_REACTORS
330
1ACD1
102
}
330
1ACD1
100
AcDbXrecord
280
     1
102
RTVSPost2010Prop28
280
     0
102
RTVSPost2010PropOp28
 70
     1
102
RTVSPost2010Prop29
280
     1
102
RTVSPost2010PropOp29
 70
     1
102
RTVSPost2010Prop30
280
     1
102
RTVSPost2010PropOp30
 70
     1
102
RTVSPost2010Prop31
280
     0
102
RTVSPost2010PropOp31
 70
     1
102
RTVSPost2010Prop32
280
     0
102
RTVSPost2010PropOp32
 70
     1
102
RTVSPost2010Prop33
280
     0
102
RTVSPost2010PropOp33
 70
     1
102
RTVSPost2010Prop34
280
     0
102
RTVSPost2010PropOp34
 70
     1
102
RTVSPost2010Prop35
280
     0
102
RTVSPost2010PropOp35
 70
     1
102
RTVSPost2010Prop36
280
     0
102
RTVSPost2010PropOp36
 70
     1
102
RTVSPost2010Prop37
 90
       50
102
RTVSPost2010PropOp37
 70
     1
102
RTVSPost2010Prop38
140
0.0
102
RTVSPost2010PropOp38
 70
     1
102
RTVSPost2010Prop39
140
1.0
102
RTVSPost2010PropOp39
 70
     1
102
RTVSPost2010Prop40
 90
        0
102
RTVSPost2010PropOp40
 70
     1
102
RTVSPost2010Prop41ColorIndex
 90
       18
102
RTVSPost2010Prop41ColorRGB
 90
        0
102
RTVSPost2010PropOp41
 70
     1
102
RTVSPost2010Prop42
 90
       50
102
RTVSPost2010PropOp42
 70
     1
102
RTVSPost2010Prop43
 90
        3
102
RTVSPost2010PropOp43
 70
     1
102
RTVSPost2010Prop44ColorIndex
 90
        5
102
RTVSPost2010Prop44ColorRGB
 90
      255
102
RTVSPost2010PropOp44
 70
     1
102
RTVSPost2010Prop45
280
     0
102
RTVSPost2010PropOp45
 70
     1
102
RTVSPost2010Prop46
 90
       50
102
RTVSPost2010PropOp46
 70
     1
102
RTVSPost2010Prop47
 90
       50
102
RTVSPost2010PropOp47
 70
     1
102
RTVSPost2010Prop48
 90
       50
102
RTVSPost2010PropOp48
 70
     1
102
RTVSPost2010Prop49
280
     0
102
RTVSPost2010PropOp49
 70
     1
102
RTVSPost2010Prop50
 90
       50
102
RTVSPost2010PropOp50
 70
     1
102
RTVSPost2010Prop51ColorIndex
 90
      256
102
RTVSPost2010Prop51ColorRGB
 90
-16777216
102
RTVSPost2010PropOp51
 70
     0
102
RTVSPost2010Prop52
140
1.0
102
RTVSPost2010PropOp52
 70
     0
102
RTVSPost2010Prop53
 90
        2
102
RTVSPost2010PropOp53
 70
     1
102
RTVSPost2010Prop54
  1
strokes_ogs.tif
102
RTVSPost2010PropOp54
 70
     1
102
RTVSPost2010Prop55
280
     0
102
RTVSPost2010PropOp55
 70
     1
102
RTVSPost2010Prop56
140
1.0
102
RTVSPost2010PropOp56
 70
     1
102
RTVSPost2010Prop57
140
1.0
102
RTVSPost2010PropOp57
 70
     1
102
RTVSPropertyOp0
 70
     1
102
RTVSPropertyOp1
 70
     1
102
RTVSPropertyOp2
 70
     1
102
RTVSPropertyOp3
 70
     1
102
RTVSPropertyOp4
 70
     1
102
RTVSPropertyOp5
 70
     1
102
RTVSPropertyOp6
 70
     1
102
RTVSPropertyOp7
 70
     1
102
RTVSPropertyOp8
 70
     1
102
RTVSPropertyOp9
 70
     1
102
RTVSPropertyOp10
 70
     1
102
RTVSPropertyOp11
 70
     1
102
RTVSPropertyOp12
 70
     1
102
RTVSPropertyOp13
 70
     1
102
RTVSPropertyOp14
 70
     1
102
RTVSPropertyOp15
 70
     1
102
RTVSPropertyOp16
 70
     1
102
RTVSPropertyOp17
 70
     1
102
RTVSPropertyOp18
 70
     1
102
RTVSPropertyOp19
 70
     1
102
RTVSPropertyOp20
 70
     1
102
RTVSPropertyOp21
 70
     1
102
RTVSPropertyOp22
 70
     1
102
RTVSPropertyOp23
 70
     1
102
RTVSPropertyOp24
 70
     1
102
RTVSPropertyOp25
 70
     1
102
RTVSPropertyOp26
 70
     1
102
RTVSPropertyOp27
 70
     1
102
RTVSPropertyOp28
 70
     1
102
RTVSPropertyOp29
 70
     1
102
RTVSPropertyOp30
 70
     1
102
RTVSPropertyOp31
 70
     1
102
RTVSPropertyOp32
 70
     1
102
RTVSPropertyOp33
 70
     1
102
RTVSPropertyOp34
 70
     1
102
RTVSPropertyOp35
 70
     1
102
RTVSPropertyOp36
 70
     1
102
RTVSPropertyOp37
 70
     1
102
RTVSPropertyOp38
 70
     1
102
RTVSPropertyOp39
 70
     1
102
RTVSPropertyOp40
 70
     1
102
RTVSPropertyOp41
 70
     1
102
RTVSPropertyOp42
 70
     1
102
RTVSPropertyOp43
 70
     1
102
RTVSPropertyOp44
 70
     1
102
RTVSPropertyOp45
 70
     1
102
RTVSPropertyOp46
 70
     1
102
RTVSPropertyOp47
 70
     1
102
RTVSPropertyOp48
 70
     1
102
RTVSPropertyOp49
 70
     1
102
RTVSPropertyOp50
 70
     1
102
RTVSPropertyOp51
 70
     0
102
RTVSPropertyOp52
 70
     0
102
RTVSPropertyOp53
 70
     1
102
RTVSPropertyOp54
 70
     1
102
RTVSPropertyOp55
 70
     1
102
RTVSPropertyOp56
 70
     1
102
RTVSPropertyOp57
 70
     1
102
RTVSPropertyOp58
 70
     1
102
RTVSPropertyOp59
 70
     1
102
RTVSPropertyOp60
 70
     1
102
RTVSPropertyOp61
 70
     1
102
RTVSPropertyOp62
 70
     1
  0
XRECORD
  5
1ACDA
102
{ACAD_REACTORS
330
1ACD9
102
}
330
1ACD9
100
AcDbXrecord
280
     1
102
RTVSPost2010Prop28
280
     0
102
RTVSPost2010PropOp28
 70
     1
102
RTVSPost2010Prop29
280
     1
102
RTVSPost2010PropOp29
 70
     1
102
RTVSPost2010Prop30
280
     1
102
RTVSPost2010PropOp30
 70
     1
102
RTVSPost2010Prop31
280
     0
102
RTVSPost2010PropOp31
 70
     1
102
RTVSPost2010Prop32
280
     0
102
RTVSPost2010PropOp32
 70
     1
102
RTVSPost2010Prop33
280
     0
102
RTVSPost2010PropOp33
 70
     1
102
RTVSPost2010Prop34
280
     0
102
RTVSPost2010PropOp34
 70
     1
102
RTVSPost2010Prop35
280
     0
102
RTVSPost2010PropOp35
 70
     1
102
RTVSPost2010Prop36
280
     0
102
RTVSPost2010PropOp36
 70
     1
102
RTVSPost2010Prop37
 90
       50
102
RTVSPost2010PropOp37
 70
     1
102
RTVSPost2010Prop38
140
0.0
102
RTVSPost2010PropOp38
 70
     1
102
RTVSPost2010Prop39
140
1.0
102
RTVSPost2010PropOp39
 70
     1
102
RTVSPost2010Prop40
 90
        0
102
RTVSPost2010PropOp40
 70
     1
102
RTVSPost2010Prop41ColorIndex
 90
       18
102
RTVSPost2010Prop41ColorRGB
 90
        0
102
RTVSPost2010PropOp41
 70
     1
102
RTVSPost2010Prop42
 90
       50
102
RTVSPost2010PropOp42
 70
     1
102
RTVSPost2010Prop43
 90
        3
102
RTVSPost2010PropOp43
 70
     1
102
RTVSPost2010Prop44ColorIndex
 90
        5
102
RTVSPost2010Prop44ColorRGB
 90
      255
102
RTVSPost2010PropOp44
 70
     1
102
RTVSPost2010Prop45
280
     0
102
RTVSPost2010PropOp45
 70
     1
102
RTVSPost2010Prop46
 90
       50
102
RTVSPost2010PropOp46
 70
     1
102
RTVSPost2010Prop47
 90
       50
102
RTVSPost2010PropOp47
 70
     1
102
RTVSPost2010Prop48
 90
       50
102
RTVSPost2010PropOp48
 70
     1
102
RTVSPost2010Prop49
280
     0
102
RTVSPost2010PropOp49
 70
     1
102
RTVSPost2010Prop50
 90
       50
102
RTVSPost2010PropOp50
 70
     1
102
RTVSPost2010Prop51ColorIndex
 90
      256
102
RTVSPost2010Prop51ColorRGB
 90
-16777216
102
RTVSPost2010PropOp51
 70
     0
102
RTVSPost2010Prop52
140
1.0
102
RTVSPost2010PropOp52
 70
     0
102
RTVSPost2010Prop53
 90
        2
102
RTVSPost2010PropOp53
 70
     1
102
RTVSPost2010Prop54
  1
strokes_ogs.tif
102
RTVSPost2010PropOp54
 70
     1
102
RTVSPost2010Prop55
280
     0
102
RTVSPost2010PropOp55
 70
     1
102
RTVSPost2010Prop56
140
1.0
102
RTVSPost2010PropOp56
 70
     1
102
RTVSPost2010Prop57
140
1.0
102
RTVSPost2010PropOp57
 70
     1
102
RTVSPropertyOp0
 70
     1
102
RTVSPropertyOp1
 70
     1
102
RTVSPropertyOp2
 70
     1
102
RTVSPropertyOp3
 70
     1
102
RTVSPropertyOp4
 70
     1
102
RTVSPropertyOp5
 70
     1
102
RTVSPropertyOp6
 70
     1
102
RTVSPropertyOp7
 70
     1
102
RTVSPropertyOp8
 70
     1
102
RTVSPropertyOp9
 70
     1
102
RTVSPropertyOp10
 70
     1
102
RTVSPropertyOp11
 70
     1
102
RTVSPropertyOp12
 70
     1
102
RTVSPropertyOp13
 70
     1
102
RTVSPropertyOp14
 70
     1
102
RTVSPropertyOp15
 70
     1
102
RTVSPropertyOp16
 70
     1
102
RTVSPropertyOp17
 70
     1
102
RTVSPropertyOp18
 70
     1
102
RTVSPropertyOp19
 70
     1
102
RTVSPropertyOp20
 70
     1
102
RTVSPropertyOp21
 70
     1
102
RTVSPropertyOp22
 70
     1
102
RTVSPropertyOp23
 70
     1
102
RTVSPropertyOp24
 70
     1
102
RTVSPropertyOp25
 70
     1
102
RTVSPropertyOp26
 70
     1
102
RTVSPropertyOp27
 70
     1
102
RTVSPropertyOp28
 70
     1
102
RTVSPropertyOp29
 70
     1
102
RTVSPropertyOp30
 70
     1
102
RTVSPropertyOp31
 70
     1
102
RTVSPropertyOp32
 70
     1
102
RTVSPropertyOp33
 70
     1
102
RTVSPropertyOp34
 70
     1
102
RTVSPropertyOp35
 70
     1
102
RTVSPropertyOp36
 70
     1
102
RTVSPropertyOp37
 70
     1
102
RTVSPropertyOp38
 70
     1
102
RTVSPropertyOp39
 70
     1
102
RTVSPropertyOp40
 70
     1
102
RTVSPropertyOp41
 70
     1
102
RTVSPropertyOp42
 70
     1
102
RTVSPropertyOp43
 70
     1
102
RTVSPropertyOp44
 70
     1
102
RTVSPropertyOp45
 70
     1
102
RTVSPropertyOp46
 70
     1
102
RTVSPropertyOp47
 70
     1
102
RTVSPropertyOp48
 70
     1
102
RTVSPropertyOp49
 70
     1
102
RTVSPropertyOp50
 70
     1
102
RTVSPropertyOp51
 70
     0
102
RTVSPropertyOp52
 70
     0
102
RTVSPropertyOp53
 70
     1
102
RTVSPropertyOp54
 70
     1
102
RTVSPropertyOp55
 70
     1
102
RTVSPropertyOp56
 70
     1
102
RTVSPropertyOp57
 70
     1
102
RTVSPropertyOp58
 70
     1
102
RTVSPropertyOp59
 70
     1
102
RTVSPropertyOp60
 70
     1
102
RTVSPropertyOp61
 70
     1
102
RTVSPropertyOp62
 70
     1
  0
XRECORD
  5
1ACF6
102
{ACAD_REACTORS
330
1ACF5
102
}
330
1ACF5
100
AcDbXrecord
280
     1
102
RTVSPost2010Prop28
280
     0
102
RTVSPost2010PropOp28
 70
     1
102
RTVSPost2010Prop29
280
     1
102
RTVSPost2010PropOp29
 70
     1
102
RTVSPost2010Prop30
280
     1
102
RTVSPost2010PropOp30
 70
     1
102
RTVSPost2010Prop31
280
     0
102
RTVSPost2010PropOp31
 70
     1
102
RTVSPost2010Prop32
280
     0
102
RTVSPost2010PropOp32
 70
     1
102
RTVSPost2010Prop33
280
     0
102
RTVSPost2010PropOp33
 70
     1
102
RTVSPost2010Prop34
280
     0
102
RTVSPost2010PropOp34
 70
     1
102
RTVSPost2010Prop35
280
     0
102
RTVSPost2010PropOp35
 70
     1
102
RTVSPost2010Prop36
280
     0
102
RTVSPost2010PropOp36
 70
     1
102
RTVSPost2010Prop37
 90
       50
102
RTVSPost2010PropOp37
 70
     0
102
RTVSPost2010Prop38
140
0.0
102
RTVSPost2010PropOp38
 70
     0
102
RTVSPost2010Prop39
140
1.0
102
RTVSPost2010PropOp39
 70
     0
102
RTVSPost2010Prop40
 90
        0
102
RTVSPost2010PropOp40
 70
     0
102
RTVSPost2010Prop41ColorIndex
 90
       18
102
RTVSPost2010Prop41ColorRGB
 90
        0
102
RTVSPost2010PropOp41
 70
     0
102
RTVSPost2010Prop42
 90
       50
102
RTVSPost2010PropOp42
 70
     0
102
RTVSPost2010Prop43
 90
        3
102
RTVSPost2010PropOp43
 70
     0
102
RTVSPost2010Prop44ColorIndex
 90
        5
102
RTVSPost2010Prop44ColorRGB
 90
      255
102
RTVSPost2010PropOp44
 70
     0
102
RTVSPost2010Prop45
280
     0
102
RTVSPost2010PropOp45
 70
     1
102
RTVSPost2010Prop46
 90
       50
102
RTVSPost2010PropOp46
 70
     0
102
RTVSPost2010Prop47
 90
       50
102
RTVSPost2010PropOp47
 70
     0
102
RTVSPost2010Prop48
 90
       50
102
RTVSPost2010PropOp48
 70
     0
102
RTVSPost2010Prop49
280
     0
102
RTVSPost2010PropOp49
 70
     1
102
RTVSPost2010Prop50
 90
       50
102
RTVSPost2010PropOp50
 70
     0
102
RTVSPost2010Prop51ColorIndex
 90
      256
102
RTVSPost2010Prop51ColorRGB
 90
-16777216
102
RTVSPost2010PropOp51
 70
     0
102
RTVSPost2010Prop52
140
1.0
102
RTVSPost2010PropOp52
 70
     0
102
RTVSPost2010Prop53
 90
        2
102
RTVSPost2010PropOp53
 70
     0
102
RTVSPost2010Prop54
  1
strokes_ogs.tif
102
RTVSPost2010PropOp54
 70
     0
102
RTVSPost2010Prop55
280
     0
102
RTVSPost2010PropOp55
 70
     1
102
RTVSPost2010Prop56
140
1.0
102
RTVSPost2010PropOp56
 70
     0
102
RTVSPost2010Prop57
140
1.0
102
RTVSPost2010PropOp57
 70
     0
102
RTVSPropertyOp0
 70
     0
102
RTVSPropertyOp1
 70
     0
102
RTVSPropertyOp2
 70
     0
102
RTVSPropertyOp3
 70
     0
102
RTVSPropertyOp4
 70
     0
102
RTVSPropertyOp5
 70
     0
102
RTVSPropertyOp6
 70
     0
102
RTVSPropertyOp7
 70
     0
102
RTVSPropertyOp8
 70
     0
102
RTVSPropertyOp9
 70
     0
102
RTVSPropertyOp10
 70
     0
102
RTVSPropertyOp11
 70
     0
102
RTVSPropertyOp12
 70
     0
102
RTVSPropertyOp13
 70
     0
102
RTVSPropertyOp14
 70
     2
102
RTVSPropertyOp15
 70
     0
102
RTVSPropertyOp16
 70
     0
102
RTVSPropertyOp17
 70
     0
102
RTVSPropertyOp18
 70
     0
102
RTVSPropertyOp19
 70
     0
102
RTVSPropertyOp20
 70
     0
102
RTVSPropertyOp21
 70
     0
102
RTVSPropertyOp22
 70
     0
102
RTVSPropertyOp23
 70
     0
102
RTVSPropertyOp24
 70
     0
102
RTVSPropertyOp25
 70
     0
102
RTVSPropertyOp26
 70
     0
102
RTVSPropertyOp27
 70
     0
102
RTVSPropertyOp28
 70
     1
102
RTVSPropertyOp29
 70
     1
102
RTVSPropertyOp30
 70
     1
102
RTVSPropertyOp31
 70
     1
102
RTVSPropertyOp32
 70
     1
102
RTVSPropertyOp33
 70
     1
102
RTVSPropertyOp34
 70
     1
102
RTVSPropertyOp35
 70
     1
102
RTVSPropertyOp36
 70
     1
102
RTVSPropertyOp37
 70
     0
102
RTVSPropertyOp38
 70
     0
102
RTVSPropertyOp39
 70
     0
102
RTVSPropertyOp40
 70
     0
102
RTVSPropertyOp41
 70
     0
102
RTVSPropertyOp42
 70
     0
102
RTVSPropertyOp43
 70
     0
102
RTVSPropertyOp44
 70
     0
102
RTVSPropertyOp45
 70
     1
102
RTVSPropertyOp46
 70
     0
102
RTVSPropertyOp47
 70
     0
102
RTVSPropertyOp48
 70
     0
102
RTVSPropertyOp49
 70
     1
102
RTVSPropertyOp50
 70
     0
102
RTVSPropertyOp51
 70
     0
102
RTVSPropertyOp52
 70
     0
102
RTVSPropertyOp53
 70
     0
102
RTVSPropertyOp54
 70
     0
102
RTVSPropertyOp55
 70
     1
102
RTVSPropertyOp56
 70
     0
102
RTVSPropertyOp57
 70
     0
102
RTVSPropertyOp58
 70
     0
102
RTVSPropertyOp59
 70
     0
102
RTVSPropertyOp60
 70
     0
102
RTVSPropertyOp61
 70
     0
102
RTVSPropertyOp62
 70
     0
  0
XRECORD
  5
1ACE6
102
{ACAD_REACTORS
330
1ACE5
102
}
330
1ACE5
100
AcDbXrecord
280
     1
102
RTVSPost2010Prop28
280
     0
102
RTVSPost2010PropOp28
 70
     1
102
RTVSPost2010Prop29
280
     1
102
RTVSPost2010PropOp29
 70
     1
102
RTVSPost2010Prop30
280
     1
102
RTVSPost2010PropOp30
 70
     1
102
RTVSPost2010Prop31
280
     0
102
RTVSPost2010PropOp31
 70
     1
102
RTVSPost2010Prop32
280
     0
102
RTVSPost2010PropOp32
 70
     1
102
RTVSPost2010Prop33
280
     0
102
RTVSPost2010PropOp33
 70
     1
102
RTVSPost2010Prop34
280
     0
102
RTVSPost2010PropOp34
 70
     1
102
RTVSPost2010Prop35
280
     0
102
RTVSPost2010PropOp35
 70
     1
102
RTVSPost2010Prop36
280
     0
102
RTVSPost2010PropOp36
 70
     1
102
RTVSPost2010Prop37
 90
       50
102
RTVSPost2010PropOp37
 70
     1
102
RTVSPost2010Prop38
140
0.0
102
RTVSPost2010PropOp38
 70
     1
102
RTVSPost2010Prop39
140
1.0
102
RTVSPost2010PropOp39
 70
     1
102
RTVSPost2010Prop40
 90
        0
102
RTVSPost2010PropOp40
 70
     1
102
RTVSPost2010Prop41ColorIndex
 90
       18
102
RTVSPost2010Prop41ColorRGB
 90
        0
102
RTVSPost2010PropOp41
 70
     1
102
RTVSPost2010Prop42
 90
       50
102
RTVSPost2010PropOp42
 70
     1
102
RTVSPost2010Prop43
 90
        3
102
RTVSPost2010PropOp43
 70
     1
102
RTVSPost2010Prop44ColorIndex
 90
        5
102
RTVSPost2010Prop44ColorRGB
 90
      255
102
RTVSPost2010PropOp44
 70
     1
102
RTVSPost2010Prop45
280
     0
102
RTVSPost2010PropOp45
 70
     1
102
RTVSPost2010Prop46
 90
       50
102
RTVSPost2010PropOp46
 70
     1
102
RTVSPost2010Prop47
 90
       50
102
RTVSPost2010PropOp47
 70
     1
102
RTVSPost2010Prop48
 90
       50
102
RTVSPost2010PropOp48
 70
     1
102
RTVSPost2010Prop49
280
     0
102
RTVSPost2010PropOp49
 70
     1
102
RTVSPost2010Prop50
 90
       50
102
RTVSPost2010PropOp50
 70
     1
102
RTVSPost2010Prop51ColorIndex
 90
      256
102
RTVSPost2010Prop51ColorRGB
 90
-16777216
102
RTVSPost2010PropOp51
 70
     0
102
RTVSPost2010Prop52
140
1.0
102
RTVSPost2010PropOp52
 70
     0
102
RTVSPost2010Prop53
 90
        2
102
RTVSPost2010PropOp53
 70
     1
102
RTVSPost2010Prop54
  1
strokes_ogs.tif
102
RTVSPost2010PropOp54
 70
     1
102
RTVSPost2010Prop55
280
     0
102
RTVSPost2010PropOp55
 70
     1
102
RTVSPost2010Prop56
140
1.0
102
RTVSPost2010PropOp56
 70
     1
102
RTVSPost2010Prop57
140
1.0
102
RTVSPost2010PropOp57
 70
     1
102
RTVSPropertyOp0
 70
     1
102
RTVSPropertyOp1
 70
     1
102
RTVSPropertyOp2
 70
     1
102
RTVSPropertyOp3
 70
     1
102
RTVSPropertyOp4
 70
     1
102
RTVSPropertyOp5
 70
     1
102
RTVSPropertyOp6
 70
     1
102
RTVSPropertyOp7
 70
     1
102
RTVSPropertyOp8
 70
     1
102
RTVSPropertyOp9
 70
     1
102
RTVSPropertyOp10
 70
     1
102
RTVSPropertyOp11
 70
     1
102
RTVSPropertyOp12
 70
     1
102
RTVSPropertyOp13
 70
     1
102
RTVSPropertyOp14
 70
     1
102
RTVSPropertyOp15
 70
     1
102
RTVSPropertyOp16
 70
     1
102
RTVSPropertyOp17
 70
     1
102
RTVSPropertyOp18
 70
     1
102
RTVSPropertyOp19
 70
     1
102
RTVSPropertyOp20
 70
     1
102
RTVSPropertyOp21
 70
     1
102
RTVSPropertyOp22
 70
     1
102
RTVSPropertyOp23
 70
     1
102
RTVSPropertyOp24
 70
     1
102
RTVSPropertyOp25
 70
     1
102
RTVSPropertyOp26
 70
     1
102
RTVSPropertyOp27
 70
     1
102
RTVSPropertyOp28
 70
     1
102
RTVSPropertyOp29
 70
     1
102
RTVSPropertyOp30
 70
     1
102
RTVSPropertyOp31
 70
     1
102
RTVSPropertyOp32
 70
     1
102
RTVSPropertyOp33
 70
     1
102
RTVSPropertyOp34
 70
     1
102
RTVSPropertyOp35
 70
     1
102
RTVSPropertyOp36
 70
     1
102
RTVSPropertyOp37
 70
     1
102
RTVSPropertyOp38
 70
     1
102
RTVSPropertyOp39
 70
     1
102
RTVSPropertyOp40
 70
     1
102
RTVSPropertyOp41
 70
     1
102
RTVSPropertyOp42
 70
     1
102
RTVSPropertyOp43
 70
     1
102
RTVSPropertyOp44
 70
     1
102
RTVSPropertyOp45
 70
     1
102
RTVSPropertyOp46
 70
     1
102
RTVSPropertyOp47
 70
     1
102
RTVSPropertyOp48
 70
     1
102
RTVSPropertyOp49
 70
     1
102
RTVSPropertyOp50
 70
     1
102
RTVSPropertyOp51
 70
     0
102
RTVSPropertyOp52
 70
     0
102
RTVSPropertyOp53
 70
     1
102
RTVSPropertyOp54
 70
     1
102
RTVSPropertyOp55
 70
     1
102
RTVSPropertyOp56
 70
     1
102
RTVSPropertyOp57
 70
     1
102
RTVSPropertyOp58
 70
     1
102
RTVSPropertyOp59
 70
     1
102
RTVSPropertyOp60
 70
     1
102
RTVSPropertyOp61
 70
     1
102
RTVSPropertyOp62
 70
     1
  0
XRECORD
  5
1ACF8
102
{ACAD_REACTORS
330
1ACF7
102
}
330
1ACF7
100
AcDbXrecord
280
     1
102
RTVSPost2010Prop28
280
     0
102
RTVSPost2010PropOp28
 70
     1
102
RTVSPost2010Prop29
280
     1
102
RTVSPost2010PropOp29
 70
     1
102
RTVSPost2010Prop30
280
     1
102
RTVSPost2010PropOp30
 70
     1
102
RTVSPost2010Prop31
280
     0
102
RTVSPost2010PropOp31
 70
     1
102
RTVSPost2010Prop32
280
     0
102
RTVSPost2010PropOp32
 70
     1
102
RTVSPost2010Prop33
280
     0
102
RTVSPost2010PropOp33
 70
     1
102
RTVSPost2010Prop34
280
     0
102
RTVSPost2010PropOp34
 70
     1
102
RTVSPost2010Prop35
280
     0
102
RTVSPost2010PropOp35
 70
     1
102
RTVSPost2010Prop36
280
     0
102
RTVSPost2010PropOp36
 70
     1
102
RTVSPost2010Prop37
 90
       50
102
RTVSPost2010PropOp37
 70
     0
102
RTVSPost2010Prop38
140
0.0
102
RTVSPost2010PropOp38
 70
     0
102
RTVSPost2010Prop39
140
1.0
102
RTVSPost2010PropOp39
 70
     0
102
RTVSPost2010Prop40
 90
        0
102
RTVSPost2010PropOp40
 70
     0
102
RTVSPost2010Prop41ColorIndex
 90
       18
102
RTVSPost2010Prop41ColorRGB
 90
        0
102
RTVSPost2010PropOp41
 70
     0
102
RTVSPost2010Prop42
 90
       50
102
RTVSPost2010PropOp42
 70
     0
102
RTVSPost2010Prop43
 90
        3
102
RTVSPost2010PropOp43
 70
     0
102
RTVSPost2010Prop44ColorIndex
 90
        5
102
RTVSPost2010Prop44ColorRGB
 90
      255
102
RTVSPost2010PropOp44
 70
     0
102
RTVSPost2010Prop45
280
     0
102
RTVSPost2010PropOp45
 70
     1
102
RTVSPost2010Prop46
 90
       50
102
RTVSPost2010PropOp46
 70
     0
102
RTVSPost2010Prop47
 90
       50
102
RTVSPost2010PropOp47
 70
     0
102
RTVSPost2010Prop48
 90
       50
102
RTVSPost2010PropOp48
 70
     0
102
RTVSPost2010Prop49
280
     0
102
RTVSPost2010PropOp49
 70
     1
102
RTVSPost2010Prop50
 90
       50
102
RTVSPost2010PropOp50
 70
     0
102
RTVSPost2010Prop51ColorIndex
 90
      256
102
RTVSPost2010Prop51ColorRGB
 90
-16777216
102
RTVSPost2010PropOp51
 70
     0
102
RTVSPost2010Prop52
140
1.0
102
RTVSPost2010PropOp52
 70
     0
102
RTVSPost2010Prop53
 90
        2
102
RTVSPost2010PropOp53
 70
     0
102
RTVSPost2010Prop54
  1
strokes_ogs.tif
102
RTVSPost2010PropOp54
 70
     0
102
RTVSPost2010Prop55
280
     0
102
RTVSPost2010PropOp55
 70
     1
102
RTVSPost2010Prop56
140
1.0
102
RTVSPost2010PropOp56
 70
     0
102
RTVSPost2010Prop57
140
1.0
102
RTVSPost2010PropOp57
 70
     0
102
RTVSPropertyOp0
 70
     0
102
RTVSPropertyOp1
 70
     0
102
RTVSPropertyOp2
 70
     0
102
RTVSPropertyOp3
 70
     0
102
RTVSPropertyOp4
 70
     0
102
RTVSPropertyOp5
 70
     0
102
RTVSPropertyOp6
 70
     0
102
RTVSPropertyOp7
 70
     0
102
RTVSPropertyOp8
 70
     0
102
RTVSPropertyOp9
 70
     0
102
RTVSPropertyOp10
 70
     0
102
RTVSPropertyOp11
 70
     0
102
RTVSPropertyOp12
 70
     0
102
RTVSPropertyOp13
 70
     0
102
RTVSPropertyOp14
 70
     2
102
RTVSPropertyOp15
 70
     0
102
RTVSPropertyOp16
 70
     0
102
RTVSPropertyOp17
 70
     0
102
RTVSPropertyOp18
 70
     0
102
RTVSPropertyOp19
 70
     0
102
RTVSPropertyOp20
 70
     0
102
RTVSPropertyOp21
 70
     0
102
RTVSPropertyOp22
 70
     0
102
RTVSPropertyOp23
 70
     0
102
RTVSPropertyOp24
 70
     0
102
RTVSPropertyOp25
 70
     0
102
RTVSPropertyOp26
 70
     0
102
RTVSPropertyOp27
 70
     0
102
RTVSPropertyOp28
 70
     1
102
RTVSPropertyOp29
 70
     1
102
RTVSPropertyOp30
 70
     1
102
RTVSPropertyOp31
 70
     1
102
RTVSPropertyOp32
 70
     1
102
RTVSPropertyOp33
 70
     1
102
RTVSPropertyOp34
 70
     1
102
RTVSPropertyOp35
 70
     1
102
RTVSPropertyOp36
 70
     1
102
RTVSPropertyOp37
 70
     0
102
RTVSPropertyOp38
 70
     0
102
RTVSPropertyOp39
 70
     0
102
RTVSPropertyOp40
 70
     0
102
RTVSPropertyOp41
 70
     0
102
RTVSPropertyOp42
 70
     0
102
RTVSPropertyOp43
 70
     0
102
RTVSPropertyOp44
 70
     0
102
RTVSPropertyOp45
 70
     1
102
RTVSPropertyOp46
 70
     0
102
RTVSPropertyOp47
 70
     0
102
RTVSPropertyOp48
 70
     0
102
RTVSPropertyOp49
 70
     1
102
RTVSPropertyOp50
 70
     0
102
RTVSPropertyOp51
 70
     0
102
RTVSPropertyOp52
 70
     0
102
RTVSPropertyOp53
 70
     0
102
RTVSPropertyOp54
 70
     0
102
RTVSPropertyOp55
 70
     1
102
RTVSPropertyOp56
 70
     0
102
RTVSPropertyOp57
 70
     0
102
RTVSPropertyOp58
 70
     0
102
RTVSPropertyOp59
 70
     0
102
RTVSPropertyOp60
 70
     0
102
RTVSPropertyOp61
 70
     0
102
RTVSPropertyOp62
 70
     0
  0
XRECORD
  5
1ACDE
102
{ACAD_REACTORS
330
1ACDD
102
}
330
1ACDD
100
AcDbXrecord
280
     1
102
RTVSPost2010Prop28
280
     0
102
RTVSPost2010PropOp28
 70
     1
102
RTVSPost2010Prop29
280
     1
102
RTVSPost2010PropOp29
 70
     1
102
RTVSPost2010Prop30
280
     1
102
RTVSPost2010PropOp30
 70
     1
102
RTVSPost2010Prop31
280
     0
102
RTVSPost2010PropOp31
 70
     1
102
RTVSPost2010Prop32
280
     0
102
RTVSPost2010PropOp32
 70
     1
102
RTVSPost2010Prop33
280
     0
102
RTVSPost2010PropOp33
 70
     1
102
RTVSPost2010Prop34
280
     0
102
RTVSPost2010PropOp34
 70
     1
102
RTVSPost2010Prop35
280
     0
102
RTVSPost2010PropOp35
 70
     1
102
RTVSPost2010Prop36
280
     0
102
RTVSPost2010PropOp36
 70
     1
102
RTVSPost2010Prop37
 90
       50
102
RTVSPost2010PropOp37
 70
     1
102
RTVSPost2010Prop38
140
0.0
102
RTVSPost2010PropOp38
 70
     1
102
RTVSPost2010Prop39
140
1.0
102
RTVSPost2010PropOp39
 70
     1
102
RTVSPost2010Prop40
 90
        0
102
RTVSPost2010PropOp40
 70
     1
102
RTVSPost2010Prop41ColorIndex
 90
       18
102
RTVSPost2010Prop41ColorRGB
 90
        0
102
RTVSPost2010PropOp41
 70
     1
102
RTVSPost2010Prop42
 90
       50
102
RTVSPost2010PropOp42
 70
     1
102
RTVSPost2010Prop43
 90
        3
102
RTVSPost2010PropOp43
 70
     1
102
RTVSPost2010Prop44ColorIndex
 90
        5
102
RTVSPost2010Prop44ColorRGB
 90
      255
102
RTVSPost2010PropOp44
 70
     1
102
RTVSPost2010Prop45
280
     0
102
RTVSPost2010PropOp45
 70
     1
102
RTVSPost2010Prop46
 90
       50
102
RTVSPost2010PropOp46
 70
     1
102
RTVSPost2010Prop47
 90
       50
102
RTVSPost2010PropOp47
 70
     1
102
RTVSPost2010Prop48
 90
       50
102
RTVSPost2010PropOp48
 70
     1
102
RTVSPost2010Prop49
280
     0
102
RTVSPost2010PropOp49
 70
     1
102
RTVSPost2010Prop50
 90
       50
102
RTVSPost2010PropOp50
 70
     1
102
RTVSPost2010Prop51ColorIndex
 90
      256
102
RTVSPost2010Prop51ColorRGB
 90
-16777216
102
RTVSPost2010PropOp51
 70
     0
102
RTVSPost2010Prop52
140
1.0
102
RTVSPost2010PropOp52
 70
     0
102
RTVSPost2010Prop53
 90
        2
102
RTVSPost2010PropOp53
 70
     1
102
RTVSPost2010Prop54
  1
strokes_ogs.tif
102
RTVSPost2010PropOp54
 70
     1
102
RTVSPost2010Prop55
280
     0
102
RTVSPost2010PropOp55
 70
     1
102
RTVSPost2010Prop56
140
1.0
102
RTVSPost2010PropOp56
 70
     1
102
RTVSPost2010Prop57
140
1.0
102
RTVSPost2010PropOp57
 70
     1
102
RTVSPropertyOp0
 70
     1
102
RTVSPropertyOp1
 70
     1
102
RTVSPropertyOp2
 70
     1
102
RTVSPropertyOp3
 70
     1
102
RTVSPropertyOp4
 70
     1
102
RTVSPropertyOp5
 70
     1
102
RTVSPropertyOp6
 70
     1
102
RTVSPropertyOp7
 70
     1
102
RTVSPropertyOp8
 70
     1
102
RTVSPropertyOp9
 70
     1
102
RTVSPropertyOp10
 70
     1
102
RTVSPropertyOp11
 70
     1
102
RTVSPropertyOp12
 70
     1
102
RTVSPropertyOp13
 70
     1
102
RTVSPropertyOp14
 70
     1
102
RTVSPropertyOp15
 70
     1
102
RTVSPropertyOp16
 70
     1
102
RTVSPropertyOp17
 70
     1
102
RTVSPropertyOp18
 70
     1
102
RTVSPropertyOp19
 70
     1
102
RTVSPropertyOp20
 70
     1
102
RTVSPropertyOp21
 70
     1
102
RTVSPropertyOp22
 70
     1
102
RTVSPropertyOp23
 70
     1
102
RTVSPropertyOp24
 70
     1
102
RTVSPropertyOp25
 70
     1
102
RTVSPropertyOp26
 70
     1
102
RTVSPropertyOp27
 70
     1
102
RTVSPropertyOp28
 70
     1
102
RTVSPropertyOp29
 70
     1
102
RTVSPropertyOp30
 70
     1
102
RTVSPropertyOp31
 70
     1
102
RTVSPropertyOp32
 70
     1
102
RTVSPropertyOp33
 70
     1
102
RTVSPropertyOp34
 70
     1
102
RTVSPropertyOp35
 70
     1
102
RTVSPropertyOp36
 70
     1
102
RTVSPropertyOp37
 70
     1
102
RTVSPropertyOp38
 70
     1
102
RTVSPropertyOp39
 70
     1
102
RTVSPropertyOp40
 70
     1
102
RTVSPropertyOp41
 70
     1
102
RTVSPropertyOp42
 70
     1
102
RTVSPropertyOp43
 70
     1
102
RTVSPropertyOp44
 70
     1
102
RTVSPropertyOp45
 70
     1
102
RTVSPropertyOp46
 70
     1
102
RTVSPropertyOp47
 70
     1
102
RTVSPropertyOp48
 70
     1
102
RTVSPropertyOp49
 70
     1
102
RTVSPropertyOp50
 70
     1
102
RTVSPropertyOp51
 70
     0
102
RTVSPropertyOp52
 70
     0
102
RTVSPropertyOp53
 70
     1
102
RTVSPropertyOp54
 70
     1
102
RTVSPropertyOp55
 70
     1
102
RTVSPropertyOp56
 70
     1
102
RTVSPropertyOp57
 70
     1
102
RTVSPropertyOp58
 70
     1
102
RTVSPropertyOp59
 70
     1
102
RTVSPropertyOp60
 70
     1
102
RTVSPropertyOp61
 70
     1
102
RTVSPropertyOp62
 70
     1
  0
XRECORD
  5
1ACF4
102
{ACAD_REACTORS
330
1ACF3
102
}
330
1ACF3
100
AcDbXrecord
280
     1
102
RTVSPost2010Prop28
280
     0
102
RTVSPost2010PropOp28
 70
     1
102
RTVSPost2010Prop29
280
     1
102
RTVSPost2010PropOp29
 70
     1
102
RTVSPost2010Prop30
280
     1
102
RTVSPost2010PropOp30
 70
     1
102
RTVSPost2010Prop31
280
     0
102
RTVSPost2010PropOp31
 70
     1
102
RTVSPost2010Prop32
280
     0
102
RTVSPost2010PropOp32
 70
     1
102
RTVSPost2010Prop33
280
     0
102
RTVSPost2010PropOp33
 70
     1
102
RTVSPost2010Prop34
280
     0
102
RTVSPost2010PropOp34
 70
     1
102
RTVSPost2010Prop35
280
     0
102
RTVSPost2010PropOp35
 70
     1
102
RTVSPost2010Prop36
280
     0
102
RTVSPost2010PropOp36
 70
     1
102
RTVSPost2010Prop37
 90
       50
102
RTVSPost2010PropOp37
 70
     1
102
RTVSPost2010Prop38
140
0.0
102
RTVSPost2010PropOp38
 70
     1
102
RTVSPost2010Prop39
140
1.0
102
RTVSPost2010PropOp39
 70
     1
102
RTVSPost2010Prop40
 90
        0
102
RTVSPost2010PropOp40
 70
     1
102
RTVSPost2010Prop41ColorIndex
 90
       18
102
RTVSPost2010Prop41ColorRGB
 90
        0
102
RTVSPost2010PropOp41
 70
     1
102
RTVSPost2010Prop42
 90
       50
102
RTVSPost2010PropOp42
 70
     1
102
RTVSPost2010Prop43
 90
        3
102
RTVSPost2010PropOp43
 70
     1
102
RTVSPost2010Prop44ColorIndex
 90
        5
102
RTVSPost2010Prop44ColorRGB
 90
      255
102
RTVSPost2010PropOp44
 70
     1
102
RTVSPost2010Prop45
280
     0
102
RTVSPost2010PropOp45
 70
     1
102
RTVSPost2010Prop46
 90
       50
102
RTVSPost2010PropOp46
 70
     1
102
RTVSPost2010Prop47
 90
       50
102
RTVSPost2010PropOp47
 70
     1
102
RTVSPost2010Prop48
 90
       50
102
RTVSPost2010PropOp48
 70
     1
102
RTVSPost2010Prop49
280
     0
102
RTVSPost2010PropOp49
 70
     1
102
RTVSPost2010Prop50
 90
       50
102
RTVSPost2010PropOp50
 70
     1
102
RTVSPost2010Prop51ColorIndex
 90
      256
102
RTVSPost2010Prop51ColorRGB
 90
-16777216
102
RTVSPost2010PropOp51
 70
     0
102
RTVSPost2010Prop52
140
1.0
102
RTVSPost2010PropOp52
 70
     0
102
RTVSPost2010Prop53
 90
        2
102
RTVSPost2010PropOp53
 70
     1
102
RTVSPost2010Prop54
  1
strokes_ogs.tif
102
RTVSPost2010PropOp54
 70
     1
102
RTVSPost2010Prop55
280
     0
102
RTVSPost2010PropOp55
 70
     1
102
RTVSPost2010Prop56
140
1.0
102
RTVSPost2010PropOp56
 70
     1
102
RTVSPost2010Prop57
140
1.0
102
RTVSPost2010PropOp57
 70
     1
102
RTVSPropertyOp0
 70
     1
102
RTVSPropertyOp1
 70
     1
102
RTVSPropertyOp2
 70
     1
102
RTVSPropertyOp3
 70
     1
102
RTVSPropertyOp4
 70
     1
102
RTVSPropertyOp5
 70
     1
102
RTVSPropertyOp6
 70
     1
102
RTVSPropertyOp7
 70
     1
102
RTVSPropertyOp8
 70
     1
102
RTVSPropertyOp9
 70
     1
102
RTVSPropertyOp10
 70
     1
102
RTVSPropertyOp11
 70
     1
102
RTVSPropertyOp12
 70
     1
102
RTVSPropertyOp13
 70
     1
102
RTVSPropertyOp14
 70
     1
102
RTVSPropertyOp15
 70
     1
102
RTVSPropertyOp16
 70
     1
102
RTVSPropertyOp17
 70
     1
102
RTVSPropertyOp18
 70
     1
102
RTVSPropertyOp19
 70
     1
102
RTVSPropertyOp20
 70
     1
102
RTVSPropertyOp21
 70
     1
102
RTVSPropertyOp22
 70
     1
102
RTVSPropertyOp23
 70
     1
102
RTVSPropertyOp24
 70
     1
102
RTVSPropertyOp25
 70
     1
102
RTVSPropertyOp26
 70
     1
102
RTVSPropertyOp27
 70
     1
102
RTVSPropertyOp28
 70
     1
102
RTVSPropertyOp29
 70
     1
102
RTVSPropertyOp30
 70
     1
102
RTVSPropertyOp31
 70
     1
102
RTVSPropertyOp32
 70
     1
102
RTVSPropertyOp33
 70
     1
102
RTVSPropertyOp34
 70
     1
102
RTVSPropertyOp35
 70
     1
102
RTVSPropertyOp36
 70
     1
102
RTVSPropertyOp37
 70
     1
102
RTVSPropertyOp38
 70
     1
102
RTVSPropertyOp39
 70
     1
102
RTVSPropertyOp40
 70
     1
102
RTVSPropertyOp41
 70
     1
102
RTVSPropertyOp42
 70
     1
102
RTVSPropertyOp43
 70
     1
102
RTVSPropertyOp44
 70
     1
102
RTVSPropertyOp45
 70
     1
102
RTVSPropertyOp46
 70
     1
102
RTVSPropertyOp47
 70
     1
102
RTVSPropertyOp48
 70
     1
102
RTVSPropertyOp49
 70
     1
102
RTVSPropertyOp50
 70
     1
102
RTVSPropertyOp51
 70
     0
102
RTVSPropertyOp52
 70
     0
102
RTVSPropertyOp53
 70
     1
102
RTVSPropertyOp54
 70
     1
102
RTVSPropertyOp55
 70
     1
102
RTVSPropertyOp56
 70
     1
102
RTVSPropertyOp57
 70
     1
102
RTVSPropertyOp58
 70
     1
102
RTVSPropertyOp59
 70
     1
102
RTVSPropertyOp60
 70
     1
102
RTVSPropertyOp61
 70
     1
102
RTVSPropertyOp62
 70
     1
  0
XRECORD
  5
1ACF2
102
{ACAD_REACTORS
330
1ACF1
102
}
330
1ACF1
100
AcDbXrecord
280
     1
102
RTVSPost2010Prop28
280
     0
102
RTVSPost2010PropOp28
 70
     1
102
RTVSPost2010Prop29
280
     1
102
RTVSPost2010PropOp29
 70
     1
102
RTVSPost2010Prop30
280
     1
102
RTVSPost2010PropOp30
 70
     1
102
RTVSPost2010Prop31
280
     0
102
RTVSPost2010PropOp31
 70
     1
102
RTVSPost2010Prop32
280
     0
102
RTVSPost2010PropOp32
 70
     1
102
RTVSPost2010Prop33
280
     0
102
RTVSPost2010PropOp33
 70
     1
102
RTVSPost2010Prop34
280
     0
102
RTVSPost2010PropOp34
 70
     1
102
RTVSPost2010Prop35
280
     0
102
RTVSPost2010PropOp35
 70
     1
102
RTVSPost2010Prop36
280
     0
102
RTVSPost2010PropOp36
 70
     1
102
RTVSPost2010Prop37
 90
       50
102
RTVSPost2010PropOp37
 70
     1
102
RTVSPost2010Prop38
140
0.0
102
RTVSPost2010PropOp38
 70
     1
102
RTVSPost2010Prop39
140
1.0
102
RTVSPost2010PropOp39
 70
     1
102
RTVSPost2010Prop40
 90
        0
102
RTVSPost2010PropOp40
 70
     1
102
RTVSPost2010Prop41ColorIndex
 90
       18
102
RTVSPost2010Prop41ColorRGB
 90
        0
102
RTVSPost2010PropOp41
 70
     1
102
RTVSPost2010Prop42
 90
       50
102
RTVSPost2010PropOp42
 70
     1
102
RTVSPost2010Prop43
 90
        3
102
RTVSPost2010PropOp43
 70
     1
102
RTVSPost2010Prop44ColorIndex
 90
        5
102
RTVSPost2010Prop44ColorRGB
 90
      255
102
RTVSPost2010PropOp44
 70
     1
102
RTVSPost2010Prop45
280
     0
102
RTVSPost2010PropOp45
 70
     1
102
RTVSPost2010Prop46
 90
       50
102
RTVSPost2010PropOp46
 70
     1
102
RTVSPost2010Prop47
 90
       50
102
RTVSPost2010PropOp47
 70
     1
102
RTVSPost2010Prop48
 90
       50
102
RTVSPost2010PropOp48
 70
     1
102
RTVSPost2010Prop49
280
     0
102
RTVSPost2010PropOp49
 70
     1
102
RTVSPost2010Prop50
 90
       50
102
RTVSPost2010PropOp50
 70
     1
102
RTVSPost2010Prop51ColorIndex
 90
      256
102
RTVSPost2010Prop51ColorRGB
 90
-16777216
102
RTVSPost2010PropOp51
 70
     0
102
RTVSPost2010Prop52
140
1.0
102
RTVSPost2010PropOp52
 70
     0
102
RTVSPost2010Prop53
 90
        2
102
RTVSPost2010PropOp53
 70
     1
102
RTVSPost2010Prop54
  1
strokes_ogs.tif
102
RTVSPost2010PropOp54
 70
     1
102
RTVSPost2010Prop55
280
     0
102
RTVSPost2010PropOp55
 70
     1
102
RTVSPost2010Prop56
140
1.0
102
RTVSPost2010PropOp56
 70
     1
102
RTVSPost2010Prop57
140
1.0
102
RTVSPost2010PropOp57
 70
     1
102
RTVSPropertyOp0
 70
     1
102
RTVSPropertyOp1
 70
     1
102
RTVSPropertyOp2
 70
     1
102
RTVSPropertyOp3
 70
     1
102
RTVSPropertyOp4
 70
     1
102
RTVSPropertyOp5
 70
     1
102
RTVSPropertyOp6
 70
     1
102
RTVSPropertyOp7
 70
     1
102
RTVSPropertyOp8
 70
     1
102
RTVSPropertyOp9
 70
     1
102
RTVSPropertyOp10
 70
     1
102
RTVSPropertyOp11
 70
     1
102
RTVSPropertyOp12
 70
     1
102
RTVSPropertyOp13
 70
     1
102
RTVSPropertyOp14
 70
     1
102
RTVSPropertyOp15
 70
     1
102
RTVSPropertyOp16
 70
     1
102
RTVSPropertyOp17
 70
     1
102
RTVSPropertyOp18
 70
     1
102
RTVSPropertyOp19
 70
     1
102
RTVSPropertyOp20
 70
     1
102
RTVSPropertyOp21
 70
     1
102
RTVSPropertyOp22
 70
     1
102
RTVSPropertyOp23
 70
     1
102
RTVSPropertyOp24
 70
     1
102
RTVSPropertyOp25
 70
     1
102
RTVSPropertyOp26
 70
     1
102
RTVSPropertyOp27
 70
     1
102
RTVSPropertyOp28
 70
     1
102
RTVSPropertyOp29
 70
     1
102
RTVSPropertyOp30
 70
     1
102
RTVSPropertyOp31
 70
     1
102
RTVSPropertyOp32
 70
     1
102
RTVSPropertyOp33
 70
     1
102
RTVSPropertyOp34
 70
     1
102
RTVSPropertyOp35
 70
     1
102
RTVSPropertyOp36
 70
     1
102
RTVSPropertyOp37
 70
     1
102
RTVSPropertyOp38
 70
     1
102
RTVSPropertyOp39
 70
     1
102
RTVSPropertyOp40
 70
     1
102
RTVSPropertyOp41
 70
     1
102
RTVSPropertyOp42
 70
     1
102
RTVSPropertyOp43
 70
     1
102
RTVSPropertyOp44
 70
     1
102
RTVSPropertyOp45
 70
     1
102
RTVSPropertyOp46
 70
     1
102
RTVSPropertyOp47
 70
     1
102
RTVSPropertyOp48
 70
     1
102
RTVSPropertyOp49
 70
     1
102
RTVSPropertyOp50
 70
     1
102
RTVSPropertyOp51
 70
     0
102
RTVSPropertyOp52
 70
     0
102
RTVSPropertyOp53
 70
     1
102
RTVSPropertyOp54
 70
     1
102
RTVSPropertyOp55
 70
     1
102
RTVSPropertyOp56
 70
     1
102
RTVSPropertyOp57
 70
     1
102
RTVSPropertyOp58
 70
     1
102
RTVSPropertyOp59
 70
     1
102
RTVSPropertyOp60
 70
     1
102
RTVSPropertyOp61
 70
     1
102
RTVSPropertyOp62
 70
     1
  0
XRECORD
  5
1ACEC
102
{ACAD_REACTORS
330
1ACEB
102
}
330
1ACEB
100
AcDbXrecord
280
     1
102
RTVSPost2010Prop28
280
     0
102
RTVSPost2010PropOp28
 70
     1
102
RTVSPost2010Prop29
280
     1
102
RTVSPost2010PropOp29
 70
     1
102
RTVSPost2010Prop30
280
     1
102
RTVSPost2010PropOp30
 70
     1
102
RTVSPost2010Prop31
280
     0
102
RTVSPost2010PropOp31
 70
     1
102
RTVSPost2010Prop32
280
     0
102
RTVSPost2010PropOp32
 70
     1
102
RTVSPost2010Prop33
280
     0
102
RTVSPost2010PropOp33
 70
     1
102
RTVSPost2010Prop34
280
     0
102
RTVSPost2010PropOp34
 70
     1
102
RTVSPost2010Prop35
280
     0
102
RTVSPost2010PropOp35
 70
     1
102
RTVSPost2010Prop36
280
     0
102
RTVSPost2010PropOp36
 70
     1
102
RTVSPost2010Prop37
 90
       50
102
RTVSPost2010PropOp37
 70
     1
102
RTVSPost2010Prop38
140
0.0
102
RTVSPost2010PropOp38
 70
     1
102
RTVSPost2010Prop39
140
1.0
102
RTVSPost2010PropOp39
 70
     1
102
RTVSPost2010Prop40
 90
        0
102
RTVSPost2010PropOp40
 70
     1
102
RTVSPost2010Prop41ColorIndex
 90
       18
102
RTVSPost2010Prop41ColorRGB
 90
        0
102
RTVSPost2010PropOp41
 70
     1
102
RTVSPost2010Prop42
 90
       50
102
RTVSPost2010PropOp42
 70
     1
102
RTVSPost2010Prop43
 90
        3
102
RTVSPost2010PropOp43
 70
     1
102
RTVSPost2010Prop44ColorIndex
 90
        5
102
RTVSPost2010Prop44ColorRGB
 90
      255
102
RTVSPost2010PropOp44
 70
     1
102
RTVSPost2010Prop45
280
     0
102
RTVSPost2010PropOp45
 70
     1
102
RTVSPost2010Prop46
 90
       50
102
RTVSPost2010PropOp46
 70
     1
102
RTVSPost2010Prop47
 90
       50
102
RTVSPost2010PropOp47
 70
     1
102
RTVSPost2010Prop48
 90
       50
102
RTVSPost2010PropOp48
 70
     1
102
RTVSPost2010Prop49
280
     0
102
RTVSPost2010PropOp49
 70
     1
102
RTVSPost2010Prop50
 90
       50
102
RTVSPost2010PropOp50
 70
     1
102
RTVSPost2010Prop51ColorIndex
 90
      256
102
RTVSPost2010Prop51ColorRGB
 90
-16777216
102
RTVSPost2010PropOp51
 70
     0
102
RTVSPost2010Prop52
140
1.0
102
RTVSPost2010PropOp52
 70
     0
102
RTVSPost2010Prop53
 90
        2
102
RTVSPost2010PropOp53
 70
     1
102
RTVSPost2010Prop54
  1
strokes_ogs.tif
102
RTVSPost2010PropOp54
 70
     1
102
RTVSPost2010Prop55
280
     0
102
RTVSPost2010PropOp55
 70
     1
102
RTVSPost2010Prop56
140
1.0
102
RTVSPost2010PropOp56
 70
     1
102
RTVSPost2010Prop57
140
1.0
102
RTVSPost2010PropOp57
 70
     1
102
RTVSPropertyOp0
 70
     1
102
RTVSPropertyOp1
 70
     1
102
RTVSPropertyOp2
 70
     1
102
RTVSPropertyOp3
 70
     1
102
RTVSPropertyOp4
 70
     1
102
RTVSPropertyOp5
 70
     1
102
RTVSPropertyOp6
 70
     1
102
RTVSPropertyOp7
 70
     1
102
RTVSPropertyOp8
 70
     1
102
RTVSPropertyOp9
 70
     1
102
RTVSPropertyOp10
 70
     1
102
RTVSPropertyOp11
 70
     1
102
RTVSPropertyOp12
 70
     1
102
RTVSPropertyOp13
 70
     1
102
RTVSPropertyOp14
 70
     1
102
RTVSPropertyOp15
 70
     1
102
RTVSPropertyOp16
 70
     1
102
RTVSPropertyOp17
 70
     1
102
RTVSPropertyOp18
 70
     1
102
RTVSPropertyOp19
 70
     1
102
RTVSPropertyOp20
 70
     1
102
RTVSPropertyOp21
 70
     1
102
RTVSPropertyOp22
 70
     1
102
RTVSPropertyOp23
 70
     1
102
RTVSPropertyOp24
 70
     1
102
RTVSPropertyOp25
 70
     1
102
RTVSPropertyOp26
 70
     1
102
RTVSPropertyOp27
 70
     1
102
RTVSPropertyOp28
 70
     1
102
RTVSPropertyOp29
 70
     1
102
RTVSPropertyOp30
 70
     1
102
RTVSPropertyOp31
 70
     1
102
RTVSPropertyOp32
 70
     1
102
RTVSPropertyOp33
 70
     1
102
RTVSPropertyOp34
 70
     1
102
RTVSPropertyOp35
 70
     1
102
RTVSPropertyOp36
 70
     1
102
RTVSPropertyOp37
 70
     1
102
RTVSPropertyOp38
 70
     1
102
RTVSPropertyOp39
 70
     1
102
RTVSPropertyOp40
 70
     1
102
RTVSPropertyOp41
 70
     1
102
RTVSPropertyOp42
 70
     1
102
RTVSPropertyOp43
 70
     1
102
RTVSPropertyOp44
 70
     1
102
RTVSPropertyOp45
 70
     1
102
RTVSPropertyOp46
 70
     1
102
RTVSPropertyOp47
 70
     1
102
RTVSPropertyOp48
 70
     1
102
RTVSPropertyOp49
 70
     1
102
RTVSPropertyOp50
 70
     1
102
RTVSPropertyOp51
 70
     0
102
RTVSPropertyOp52
 70
     0
102
RTVSPropertyOp53
 70
     1
102
RTVSPropertyOp54
 70
     1
102
RTVSPropertyOp55
 70
     1
102
RTVSPropertyOp56
 70
     1
102
RTVSPropertyOp57
 70
     1
102
RTVSPropertyOp58
 70
     1
102
RTVSPropertyOp59
 70
     1
102
RTVSPropertyOp60
 70
     1
102
RTVSPropertyOp61
 70
     1
102
RTVSPropertyOp62
 70
     1
  0
XRECORD
  5
1ACEE
102
{ACAD_REACTORS
330
1ACED
102
}
330
1ACED
100
AcDbXrecord
280
     1
102
RTVSPost2010Prop28
280
     0
102
RTVSPost2010PropOp28
 70
     1
102
RTVSPost2010Prop29
280
     1
102
RTVSPost2010PropOp29
 70
     1
102
RTVSPost2010Prop30
280
     1
102
RTVSPost2010PropOp30
 70
     1
102
RTVSPost2010Prop31
280
     0
102
RTVSPost2010PropOp31
 70
     1
102
RTVSPost2010Prop32
280
     0
102
RTVSPost2010PropOp32
 70
     1
102
RTVSPost2010Prop33
280
     0
102
RTVSPost2010PropOp33
 70
     1
102
RTVSPost2010Prop34
280
     0
102
RTVSPost2010PropOp34
 70
     1
102
RTVSPost2010Prop35
280
     0
102
RTVSPost2010PropOp35
 70
     1
102
RTVSPost2010Prop36
280
     0
102
RTVSPost2010PropOp36
 70
     1
102
RTVSPost2010Prop37
 90
       50
102
RTVSPost2010PropOp37
 70
     1
102
RTVSPost2010Prop38
140
0.0
102
RTVSPost2010PropOp38
 70
     1
102
RTVSPost2010Prop39
140
1.0
102
RTVSPost2010PropOp39
 70
     1
102
RTVSPost2010Prop40
 90
        0
102
RTVSPost2010PropOp40
 70
     1
102
RTVSPost2010Prop41ColorIndex
 90
       18
102
RTVSPost2010Prop41ColorRGB
 90
        0
102
RTVSPost2010PropOp41
 70
     1
102
RTVSPost2010Prop42
 90
       50
102
RTVSPost2010PropOp42
 70
     1
102
RTVSPost2010Prop43
 90
        3
102
RTVSPost2010PropOp43
 70
     1
102
RTVSPost2010Prop44ColorIndex
 90
        5
102
RTVSPost2010Prop44ColorRGB
 90
      255
102
RTVSPost2010PropOp44
 70
     1
102
RTVSPost2010Prop45
280
     0
102
RTVSPost2010PropOp45
 70
     1
102
RTVSPost2010Prop46
 90
       50
102
RTVSPost2010PropOp46
 70
     1
102
RTVSPost2010Prop47
 90
       50
102
RTVSPost2010PropOp47
 70
     1
102
RTVSPost2010Prop48
 90
       50
102
RTVSPost2010PropOp48
 70
     1
102
RTVSPost2010Prop49
280
     0
102
RTVSPost2010PropOp49
 70
     1
102
RTVSPost2010Prop50
 90
       50
102
RTVSPost2010PropOp50
 70
     1
102
RTVSPost2010Prop51ColorIndex
 90
      256
102
RTVSPost2010Prop51ColorRGB
 90
-16777216
102
RTVSPost2010PropOp51
 70
     0
102
RTVSPost2010Prop52
140
1.0
102
RTVSPost2010PropOp52
 70
     0
102
RTVSPost2010Prop53
 90
        2
102
RTVSPost2010PropOp53
 70
     1
102
RTVSPost2010Prop54
  1
strokes_ogs.tif
102
RTVSPost2010PropOp54
 70
     1
102
RTVSPost2010Prop55
280
     0
102
RTVSPost2010PropOp55
 70
     1
102
RTVSPost2010Prop56
140
1.0
102
RTVSPost2010PropOp56
 70
     1
102
RTVSPost2010Prop57
140
1.0
102
RTVSPost2010PropOp57
 70
     1
102
RTVSPropertyOp0
 70
     1
102
RTVSPropertyOp1
 70
     1
102
RTVSPropertyOp2
 70
     1
102
RTVSPropertyOp3
 70
     1
102
RTVSPropertyOp4
 70
     1
102
RTVSPropertyOp5
 70
     1
102
RTVSPropertyOp6
 70
     1
102
RTVSPropertyOp7
 70
     1
102
RTVSPropertyOp8
 70
     1
102
RTVSPropertyOp9
 70
     1
102
RTVSPropertyOp10
 70
     1
102
RTVSPropertyOp11
 70
     1
102
RTVSPropertyOp12
 70
     1
102
RTVSPropertyOp13
 70
     1
102
RTVSPropertyOp14
 70
     1
102
RTVSPropertyOp15
 70
     1
102
RTVSPropertyOp16
 70
     1
102
RTVSPropertyOp17
 70
     1
102
RTVSPropertyOp18
 70
     1
102
RTVSPropertyOp19
 70
     1
102
RTVSPropertyOp20
 70
     1
102
RTVSPropertyOp21
 70
     1
102
RTVSPropertyOp22
 70
     1
102
RTVSPropertyOp23
 70
     1
102
RTVSPropertyOp24
 70
     1
102
RTVSPropertyOp25
 70
     1
102
RTVSPropertyOp26
 70
     1
102
RTVSPropertyOp27
 70
     1
102
RTVSPropertyOp28
 70
     1
102
RTVSPropertyOp29
 70
     1
102
RTVSPropertyOp30
 70
     1
102
RTVSPropertyOp31
 70
     1
102
RTVSPropertyOp32
 70
     1
102
RTVSPropertyOp33
 70
     1
102
RTVSPropertyOp34
 70
     1
102
RTVSPropertyOp35
 70
     1
102
RTVSPropertyOp36
 70
     1
102
RTVSPropertyOp37
 70
     1
102
RTVSPropertyOp38
 70
     1
102
RTVSPropertyOp39
 70
     1
102
RTVSPropertyOp40
 70
     1
102
RTVSPropertyOp41
 70
     1
102
RTVSPropertyOp42
 70
     1
102
RTVSPropertyOp43
 70
     1
102
RTVSPropertyOp44
 70
     1
102
RTVSPropertyOp45
 70
     1
102
RTVSPropertyOp46
 70
     1
102
RTVSPropertyOp47
 70
     1
102
RTVSPropertyOp48
 70
     1
102
RTVSPropertyOp49
 70
     1
102
RTVSPropertyOp50
 70
     1
102
RTVSPropertyOp51
 70
     0
102
RTVSPropertyOp52
 70
     0
102
RTVSPropertyOp53
 70
     1
102
RTVSPropertyOp54
 70
     1
102
RTVSPropertyOp55
 70
     1
102
RTVSPropertyOp56
 70
     1
102
RTVSPropertyOp57
 70
     1
102
RTVSPropertyOp58
 70
     1
102
RTVSPropertyOp59
 70
     1
102
RTVSPropertyOp60
 70
     1
102
RTVSPropertyOp61
 70
     1
102
RTVSPropertyOp62
 70
     1
  0
XRECORD
  5
1ACE4
102
{ACAD_REACTORS
330
1ACE3
102
}
330
1ACE3
100
AcDbXrecord
280
     1
102
RTVSPost2010Prop28
280
     0
102
RTVSPost2010PropOp28
 70
     1
102
RTVSPost2010Prop29
280
     1
102
RTVSPost2010PropOp29
 70
     1
102
RTVSPost2010Prop30
280
     1
102
RTVSPost2010PropOp30
 70
     1
102
RTVSPost2010Prop31
280
     0
102
RTVSPost2010PropOp31
 70
     1
102
RTVSPost2010Prop32
280
     0
102
RTVSPost2010PropOp32
 70
     1
102
RTVSPost2010Prop33
280
     0
102
RTVSPost2010PropOp33
 70
     1
102
RTVSPost2010Prop34
280
     0
102
RTVSPost2010PropOp34
 70
     1
102
RTVSPost2010Prop35
280
     0
102
RTVSPost2010PropOp35
 70
     1
102
RTVSPost2010Prop36
280
     0
102
RTVSPost2010PropOp36
 70
     1
102
RTVSPost2010Prop37
 90
       50
102
RTVSPost2010PropOp37
 70
     1
102
RTVSPost2010Prop38
140
0.0
102
RTVSPost2010PropOp38
 70
     1
102
RTVSPost2010Prop39
140
1.0
102
RTVSPost2010PropOp39
 70
     1
102
RTVSPost2010Prop40
 90
        0
102
RTVSPost2010PropOp40
 70
     1
102
RTVSPost2010Prop41ColorIndex
 90
       18
102
RTVSPost2010Prop41ColorRGB
 90
        0
102
RTVSPost2010PropOp41
 70
     1
102
RTVSPost2010Prop42
 90
       50
102
RTVSPost2010PropOp42
 70
     1
102
RTVSPost2010Prop43
 90
        3
102
RTVSPost2010PropOp43
 70
     1
102
RTVSPost2010Prop44ColorIndex
 90
        5
102
RTVSPost2010Prop44ColorRGB
 90
      255
102
RTVSPost2010PropOp44
 70
     1
102
RTVSPost2010Prop45
280
     0
102
RTVSPost2010PropOp45
 70
     1
102
RTVSPost2010Prop46
 90
       50
102
RTVSPost2010PropOp46
 70
     1
102
RTVSPost2010Prop47
 90
       50
102
RTVSPost2010PropOp47
 70
     1
102
RTVSPost2010Prop48
 90
       50
102
RTVSPost2010PropOp48
 70
     1
102
RTVSPost2010Prop49
280
     0
102
RTVSPost2010PropOp49
 70
     1
102
RTVSPost2010Prop50
 90
       50
102
RTVSPost2010PropOp50
 70
     1
102
RTVSPost2010Prop51ColorIndex
 90
      256
102
RTVSPost2010Prop51ColorRGB
 90
-16777216
102
RTVSPost2010PropOp51
 70
     0
102
RTVSPost2010Prop52
140
1.0
102
RTVSPost2010PropOp52
 70
     0
102
RTVSPost2010Prop53
 90
        2
102
RTVSPost2010PropOp53
 70
     1
102
RTVSPost2010Prop54
  1
strokes_ogs.tif
102
RTVSPost2010PropOp54
 70
     1
102
RTVSPost2010Prop55
280
     0
102
RTVSPost2010PropOp55
 70
     1
102
RTVSPost2010Prop56
140
1.0
102
RTVSPost2010PropOp56
 70
     1
102
RTVSPost2010Prop57
140
1.0
102
RTVSPost2010PropOp57
 70
     1
102
RTVSPropertyOp0
 70
     1
102
RTVSPropertyOp1
 70
     1
102
RTVSPropertyOp2
 70
     1
102
RTVSPropertyOp3
 70
     1
102
RTVSPropertyOp4
 70
     1
102
RTVSPropertyOp5
 70
     1
102
RTVSPropertyOp6
 70
     1
102
RTVSPropertyOp7
 70
     1
102
RTVSPropertyOp8
 70
     1
102
RTVSPropertyOp9
 70
     1
102
RTVSPropertyOp10
 70
     1
102
RTVSPropertyOp11
 70
     1
102
RTVSPropertyOp12
 70
     1
102
RTVSPropertyOp13
 70
     1
102
RTVSPropertyOp14
 70
     1
102
RTVSPropertyOp15
 70
     1
102
RTVSPropertyOp16
 70
     1
102
RTVSPropertyOp17
 70
     1
102
RTVSPropertyOp18
 70
     1
102
RTVSPropertyOp19
 70
     1
102
RTVSPropertyOp20
 70
     1
102
RTVSPropertyOp21
 70
     1
102
RTVSPropertyOp22
 70
     1
102
RTVSPropertyOp23
 70
     1
102
RTVSPropertyOp24
 70
     1
102
RTVSPropertyOp25
 70
     1
102
RTVSPropertyOp26
 70
     1
102
RTVSPropertyOp27
 70
     1
102
RTVSPropertyOp28
 70
     1
102
RTVSPropertyOp29
 70
     1
102
RTVSPropertyOp30
 70
     1
102
RTVSPropertyOp31
 70
     1
102
RTVSPropertyOp32
 70
     1
102
RTVSPropertyOp33
 70
     1
102
RTVSPropertyOp34
 70
     1
102
RTVSPropertyOp35
 70
     1
102
RTVSPropertyOp36
 70
     1
102
RTVSPropertyOp37
 70
     1
102
RTVSPropertyOp38
 70
     1
102
RTVSPropertyOp39
 70
     1
102
RTVSPropertyOp40
 70
     1
102
RTVSPropertyOp41
 70
     1
102
RTVSPropertyOp42
 70
     1
102
RTVSPropertyOp43
 70
     1
102
RTVSPropertyOp44
 70
     1
102
RTVSPropertyOp45
 70
     1
102
RTVSPropertyOp46
 70
     1
102
RTVSPropertyOp47
 70
     1
102
RTVSPropertyOp48
 70
     1
102
RTVSPropertyOp49
 70
     1
102
RTVSPropertyOp50
 70
     1
102
RTVSPropertyOp51
 70
     0
102
RTVSPropertyOp52
 70
     0
102
RTVSPropertyOp53
 70
     1
102
RTVSPropertyOp54
 70
     1
102
RTVSPropertyOp55
 70
     1
102
RTVSPropertyOp56
 70
     1
102
RTVSPropertyOp57
 70
     1
102
RTVSPropertyOp58
 70
     1
102
RTVSPropertyOp59
 70
     1
102
RTVSPropertyOp60
 70
     1
102
RTVSPropertyOp61
 70
     1
102
RTVSPropertyOp62
 70
     1
  0
XRECORD
  5
1ACD8
102
{ACAD_REACTORS
330
1ACD7
102
}
330
1ACD7
100
AcDbXrecord
280
     1
102
RTVSPost2010Prop28
280
     0
102
RTVSPost2010PropOp28
 70
     1
102
RTVSPost2010Prop29
280
     1
102
RTVSPost2010PropOp29
 70
     1
102
RTVSPost2010Prop30
280
     1
102
RTVSPost2010PropOp30
 70
     1
102
RTVSPost2010Prop31
280
     0
102
RTVSPost2010PropOp31
 70
     1
102
RTVSPost2010Prop32
280
     0
102
RTVSPost2010PropOp32
 70
     1
102
RTVSPost2010Prop33
280
     0
102
RTVSPost2010PropOp33
 70
     1
102
RTVSPost2010Prop34
280
     0
102
RTVSPost2010PropOp34
 70
     1
102
RTVSPost2010Prop35
280
     0
102
RTVSPost2010PropOp35
 70
     1
102
RTVSPost2010Prop36
280
     0
102
RTVSPost2010PropOp36
 70
     1
102
RTVSPost2010Prop37
 90
       50
102
RTVSPost2010PropOp37
 70
     1
102
RTVSPost2010Prop38
140
0.0
102
RTVSPost2010PropOp38
 70
     1
102
RTVSPost2010Prop39
140
1.0
102
RTVSPost2010PropOp39
 70
     1
102
RTVSPost2010Prop40
 90
        0
102
RTVSPost2010PropOp40
 70
     1
102
RTVSPost2010Prop41ColorIndex
 90
       18
102
RTVSPost2010Prop41ColorRGB
 90
        0
102
RTVSPost2010PropOp41
 70
     1
102
RTVSPost2010Prop42
 90
       50
102
RTVSPost2010PropOp42
 70
     1
102
RTVSPost2010Prop43
 90
        3
102
RTVSPost2010PropOp43
 70
     1
102
RTVSPost2010Prop44ColorIndex
 90
        5
102
RTVSPost2010Prop44ColorRGB
 90
      255
102
RTVSPost2010PropOp44
 70
     1
102
RTVSPost2010Prop45
280
     0
102
RTVSPost2010PropOp45
 70
     1
102
RTVSPost2010Prop46
 90
       50
102
RTVSPost2010PropOp46
 70
     1
102
RTVSPost2010Prop47
 90
       50
102
RTVSPost2010PropOp47
 70
     1
102
RTVSPost2010Prop48
 90
       50
102
RTVSPost2010PropOp48
 70
     1
102
RTVSPost2010Prop49
280
     0
102
RTVSPost2010PropOp49
 70
     1
102
RTVSPost2010Prop50
 90
       50
102
RTVSPost2010PropOp50
 70
     1
102
RTVSPost2010Prop51ColorIndex
 90
      256
102
RTVSPost2010Prop51ColorRGB
 90
-16777216
102
RTVSPost2010PropOp51
 70
     0
102
RTVSPost2010Prop52
140
1.0
102
RTVSPost2010PropOp52
 70
     0
102
RTVSPost2010Prop53
 90
        2
102
RTVSPost2010PropOp53
 70
     1
102
RTVSPost2010Prop54
  1
strokes_ogs.tif
102
RTVSPost2010PropOp54
 70
     1
102
RTVSPost2010Prop55
280
     0
102
RTVSPost2010PropOp55
 70
     1
102
RTVSPost2010Prop56
140
1.0
102
RTVSPost2010PropOp56
 70
     1
102
RTVSPost2010Prop57
140
1.0
102
RTVSPost2010PropOp57
 70
     1
102
RTVSPropertyOp0
 70
     1
102
RTVSPropertyOp1
 70
     1
102
RTVSPropertyOp2
 70
     1
102
RTVSPropertyOp3
 70
     1
102
RTVSPropertyOp4
 70
     1
102
RTVSPropertyOp5
 70
     1
102
RTVSPropertyOp6
 70
     1
102
RTVSPropertyOp7
 70
     1
102
RTVSPropertyOp8
 70
     1
102
RTVSPropertyOp9
 70
     1
102
RTVSPropertyOp10
 70
     1
102
RTVSPropertyOp11
 70
     1
102
RTVSPropertyOp12
 70
     1
102
RTVSPropertyOp13
 70
     1
102
RTVSPropertyOp14
 70
     1
102
RTVSPropertyOp15
 70
     1
102
RTVSPropertyOp16
 70
     1
102
RTVSPropertyOp17
 70
     1
102
RTVSPropertyOp18
 70
     1
102
RTVSPropertyOp19
 70
     1
102
RTVSPropertyOp20
 70
     1
102
RTVSPropertyOp21
 70
     1
102
RTVSPropertyOp22
 70
     1
102
RTVSPropertyOp23
 70
     1
102
RTVSPropertyOp24
 70
     1
102
RTVSPropertyOp25
 70
     1
102
RTVSPropertyOp26
 70
     1
102
RTVSPropertyOp27
 70
     1
102
RTVSPropertyOp28
 70
     1
102
RTVSPropertyOp29
 70
     1
102
RTVSPropertyOp30
 70
     1
102
RTVSPropertyOp31
 70
     1
102
RTVSPropertyOp32
 70
     1
102
RTVSPropertyOp33
 70
     1
102
RTVSPropertyOp34
 70
     1
102
RTVSPropertyOp35
 70
     1
102
RTVSPropertyOp36
 70
     1
102
RTVSPropertyOp37
 70
     1
102
RTVSPropertyOp38
 70
     1
102
RTVSPropertyOp39
 70
     1
102
RTVSPropertyOp40
 70
     1
102
RTVSPropertyOp41
 70
     1
102
RTVSPropertyOp42
 70
     1
102
RTVSPropertyOp43
 70
     1
102
RTVSPropertyOp44
 70
     1
102
RTVSPropertyOp45
 70
     1
102
RTVSPropertyOp46
 70
     1
102
RTVSPropertyOp47
 70
     1
102
RTVSPropertyOp48
 70
     1
102
RTVSPropertyOp49
 70
     1
102
RTVSPropertyOp50
 70
     1
102
RTVSPropertyOp51
 70
     0
102
RTVSPropertyOp52
 70
     0
102
RTVSPropertyOp53
 70
     1
102
RTVSPropertyOp54
 70
     1
102
RTVSPropertyOp55
 70
     1
102
RTVSPropertyOp56
 70
     1
102
RTVSPropertyOp57
 70
     1
102
RTVSPropertyOp58
 70
     1
102
RTVSPropertyOp59
 70
     1
102
RTVSPropertyOp60
 70
     1
102
RTVSPropertyOp61
 70
     1
102
RTVSPropertyOp62
 70
     1
  0
XRECORD
  5
1ACF0
102
{ACAD_REACTORS
330
1ACEF
102
}
330
1ACEF
100
AcDbXrecord
280
     1
102
RTVSPost2010Prop28
280
     0
102
RTVSPost2010PropOp28
 70
     1
102
RTVSPost2010Prop29
280
     1
102
RTVSPost2010PropOp29
 70
     1
102
RTVSPost2010Prop30
280
     1
102
RTVSPost2010PropOp30
 70
     1
102
RTVSPost2010Prop31
280
     0
102
RTVSPost2010PropOp31
 70
     1
102
RTVSPost2010Prop32
280
     0
102
RTVSPost2010PropOp32
 70
     1
102
RTVSPost2010Prop33
280
     0
102
RTVSPost2010PropOp33
 70
     1
102
RTVSPost2010Prop34
280
     0
102
RTVSPost2010PropOp34
 70
     1
102
RTVSPost2010Prop35
280
     0
102
RTVSPost2010PropOp35
 70
     1
102
RTVSPost2010Prop36
280
     0
102
RTVSPost2010PropOp36
 70
     1
102
RTVSPost2010Prop37
 90
       50
102
RTVSPost2010PropOp37
 70
     1
102
RTVSPost2010Prop38
140
0.0
102
RTVSPost2010PropOp38
 70
     1
102
RTVSPost2010Prop39
140
1.0
102
RTVSPost2010PropOp39
 70
     1
102
RTVSPost2010Prop40
 90
        0
102
RTVSPost2010PropOp40
 70
     1
102
RTVSPost2010Prop41ColorIndex
 90
       18
102
RTVSPost2010Prop41ColorRGB
 90
        0
102
RTVSPost2010PropOp41
 70
     1
102
RTVSPost2010Prop42
 90
       50
102
RTVSPost2010PropOp42
 70
     1
102
RTVSPost2010Prop43
 90
        3
102
RTVSPost2010PropOp43
 70
     1
102
RTVSPost2010Prop44ColorIndex
 90
        5
102
RTVSPost2010Prop44ColorRGB
 90
      255
102
RTVSPost2010PropOp44
 70
     1
102
RTVSPost2010Prop45
280
     0
102
RTVSPost2010PropOp45
 70
     1
102
RTVSPost2010Prop46
 90
       50
102
RTVSPost2010PropOp46
 70
     1
102
RTVSPost2010Prop47
 90
       50
102
RTVSPost2010PropOp47
 70
     1
102
RTVSPost2010Prop48
 90
       50
102
RTVSPost2010PropOp48
 70
     1
102
RTVSPost2010Prop49
280
     0
102
RTVSPost2010PropOp49
 70
     1
102
RTVSPost2010Prop50
 90
       50
102
RTVSPost2010PropOp50
 70
     1
102
RTVSPost2010Prop51ColorIndex
 90
      256
102
RTVSPost2010Prop51ColorRGB
 90
-16777216
102
RTVSPost2010PropOp51
 70
     0
102
RTVSPost2010Prop52
140
1.0
102
RTVSPost2010PropOp52
 70
     0
102
RTVSPost2010Prop53
 90
        2
102
RTVSPost2010PropOp53
 70
     1
102
RTVSPost2010Prop54
  1
strokes_ogs.tif
102
RTVSPost2010PropOp54
 70
     1
102
RTVSPost2010Prop55
280
     0
102
RTVSPost2010PropOp55
 70
     1
102
RTVSPost2010Prop56
140
1.0
102
RTVSPost2010PropOp56
 70
     1
102
RTVSPost2010Prop57
140
1.0
102
RTVSPost2010PropOp57
 70
     1
102
RTVSPropertyOp0
 70
     1
102
RTVSPropertyOp1
 70
     1
102
RTVSPropertyOp2
 70
     1
102
RTVSPropertyOp3
 70
     1
102
RTVSPropertyOp4
 70
     1
102
RTVSPropertyOp5
 70
     1
102
RTVSPropertyOp6
 70
     1
102
RTVSPropertyOp7
 70
     1
102
RTVSPropertyOp8
 70
     1
102
RTVSPropertyOp9
 70
     1
102
RTVSPropertyOp10
 70
     1
102
RTVSPropertyOp11
 70
     1
102
RTVSPropertyOp12
 70
     1
102
RTVSPropertyOp13
 70
     1
102
RTVSPropertyOp14
 70
     1
102
RTVSPropertyOp15
 70
     1
102
RTVSPropertyOp16
 70
     1
102
RTVSPropertyOp17
 70
     1
102
RTVSPropertyOp18
 70
     1
102
RTVSPropertyOp19
 70
     1
102
RTVSPropertyOp20
 70
     1
102
RTVSPropertyOp21
 70
     1
102
RTVSPropertyOp22
 70
     1
102
RTVSPropertyOp23
 70
     1
102
RTVSPropertyOp24
 70
     1
102
RTVSPropertyOp25
 70
     1
102
RTVSPropertyOp26
 70
     1
102
RTVSPropertyOp27
 70
     1
102
RTVSPropertyOp28
 70
     1
102
RTVSPropertyOp29
 70
     1
102
RTVSPropertyOp30
 70
     1
102
RTVSPropertyOp31
 70
     1
102
RTVSPropertyOp32
 70
     1
102
RTVSPropertyOp33
 70
     1
102
RTVSPropertyOp34
 70
     1
102
RTVSPropertyOp35
 70
     1
102
RTVSPropertyOp36
 70
     1
102
RTVSPropertyOp37
 70
     1
102
RTVSPropertyOp38
 70
     1
102
RTVSPropertyOp39
 70
     1
102
RTVSPropertyOp40
 70
     1
102
RTVSPropertyOp41
 70
     1
102
RTVSPropertyOp42
 70
     1
102
RTVSPropertyOp43
 70
     1
102
RTVSPropertyOp44
 70
     1
102
RTVSPropertyOp45
 70
     1
102
RTVSPropertyOp46
 70
     1
102
RTVSPropertyOp47
 70
     1
102
RTVSPropertyOp48
 70
     1
102
RTVSPropertyOp49
 70
     1
102
RTVSPropertyOp50
 70
     1
102
RTVSPropertyOp51
 70
     0
102
RTVSPropertyOp52
 70
     0
102
RTVSPropertyOp53
 70
     1
102
RTVSPropertyOp54
 70
     1
102
RTVSPropertyOp55
 70
     1
102
RTVSPropertyOp56
 70
     1
102
RTVSPropertyOp57
 70
     1
102
RTVSPropertyOp58
 70
     1
102
RTVSPropertyOp59
 70
     1
102
RTVSPropertyOp60
 70
     1
102
RTVSPropertyOp61
 70
     1
102
RTVSPropertyOp62
 70
     1
  0
ENDSEC
  0
EOF
