  0
SECTION
  2
HEADER
  9
$ACADVER
  1
AC1015
  9
$ACADMAINTVER
 70
    20
  9
$DWGCODEPAGE
  3
ANSI_932
  9
$INSBASE
 10
0.0
 20
0.0
 30
0.0
  9
$EXTMIN
 10
10.0
 20
9.999999999999998
 30
0.0
  9
$EXTMAX
 10
750.8176399999999
 20
523.614636
 30
0.0
  9
$LIMMIN
 10
0.0
 20
0.0
  9
$LIMMAX
 10
792.0
 20
546.0
  9
$ORTHOMODE
 70
     0
  9
$REGENMODE
 70
     1
  9
$FILLMODE
 70
     1
  9
$QTEXTMODE
 70
     0
  9
$MIRRTEXT
 70
     1
  9
$LTSCALE
 40
20.0
  9
$ATTMODE
 70
     1
  9
$TEXTSIZE
 40
5.0
  9
$TRACEWID
 40
1.0
  9
$TEXTSTYLE
  7
STANDARD
  9
$CLAYER
  8
0
  9
$CELTYPE
  6
BYLAYER
  9
$CECOLOR
 62
   256
  9
$CELTSCALE
 40
1.0
  9
$DISPSILH
 70
     0
  9
$DIMSCALE
 40
1.0
  9
$DIMASZ
 40
3.0
  9
$DIMEXO
 40
1.0
  9
$DIMDLI
 40
10.0
  9
$DIMRND
 40
0.0
  9
$DIMDLE
 40
0.0
  9
$DIMEXE
 40
1.0
  9
$DIMTP
 40
0.0
  9
$DIMTM
 40
0.0
  9
$DIMTXT
 40
3.2
  9
$DIMCEN
 40
0.0
  9
$DIMTSZ
 40
0.0
  9
$DIMTOL
 70
     0
  9
$DIMLIM
 70
     0
  9
$DIMTIH
 70
     0
  9
$DIMTOH
 70
     0
  9
$DIMSE1
 70
     0
  9
$DIMSE2
 70
     0
  9
$DIMTAD
 70
     3
  9
$DIMZIN
 70
     8
  9
$DIMBLK
  1

  9
$DIMASO
 70
     1
  9
$DIMSHO
 70
     1
  9
$DIMPOST
  1

  9
$DIMAPOST
  1

  9
$DIMALT
 70
     0
  9
$DIMALTD
 70
     2
  9
$DIMALTF
 40
25.4
  9
$DIMLFAC
 40
1.0
  9
$DIMTOFL
 70
     1
  9
$DIMTVP
 40
0.0
  9
$DIMTIX
 70
     0
  9
$DIMSOXD
 70
     0
  9
$DIMSAH
 70
     1
  9
$DIMBLK1
  1
OPEN
  9
$DIMBLK2
  1
OPEN
  9
$DIMSTYLE
  2
STANDARD
  9
$DIMCLRD
 70
     0
  9
$DIMCLRE
 70
     0
  9
$DIMCLRT
 70
     0
  9
$DIMTFAC
 40
1.0
  9
$DIMGAP
 40
1.0
  9
$DIMJUST
 70
     0
  9
$DIMSD1
 70
     0
  9
$DIMSD2
 70
     0
  9
$DIMTOLJ
 70
     1
  9
$DIMTZIN
 70
     0
  9
$DIMALTZ
 70
     0
  9
$DIMALTTZ
 70
     0
  9
$DIMUPT
 70
     0
  9
$DIMDEC
 70
     4
  9
$DIMTDEC
 70
     4
  9
$DIMALTU
 70
     2
  9
$DIMALTTD
 70
     2
  9
$DIMTXSTY
  7
STANDARD
  9
$DIMAUNIT
 70
     0
  9
$DIMADEC
 70
     0
  9
$DIMALTRND
 40
0.0
  9
$DIMAZIN
 70
     0
  9
$DIMDSEP
 70
    46
  9
$DIMATFIT
 70
     3
  9
$DIMFRAC
 70
     0
  9
$DIMLDRBLK
  1
OPEN
  9
$DIMLUNIT
 70
     2
  9
$DIMLWD
 70
    -2
  9
$DIMLWE
 70
    -2
  9
$DIMTMOVE
 70
     0
  9
$LUNITS
 70
     2
  9
$LUPREC
 70
     4
  9
$SKETCHINC
 40
1.0
  9
$FILLETRAD
 40
12.3
  9
$AUNITS
 70
     0
  9
$AUPREC
 70
     2
  9
$MENU
  1
.
  9
$ELEVATION
 40
0.0
  9
$PELEVATION
 40
0.0
  9
$THICKNESS
 40
0.0
  9
$LIMCHECK
 70
     0
  9
$CHAMFERA
 40
10.0
  9
$CHAMFERB
 40
10.0
  9
$CHAMFERC
 40
0.0
  9
$CHAMFERD
 40
0.0
  9
$SKPOLY
 70
     0
  9
$TDCREATE
 40
2451301.719305209
  9
$TDUCREATE
 40
2451301.344305209
  9
$TDUPDATE
 40
2457618.724081655
  9
$TDUUPDATE
 40
2457618.349081655
  9
$TDINDWG
 40
0.0000512963
  9
$TDUSRTIMER
 40
0.0000509606
  9
$USRTIMER
 70
     1
  9
$ANGBASE
 50
0.0
  9
$ANGDIR
 70
     0
  9
$PDMODE
 70
     0
  9
$PDSIZE
 40
0.0
  9
$PLINEWID
 40
0.0
  9
$SPLFRAME
 70
     0
  9
$SPLINETYPE
 70
     6
  9
$SPLINESEGS
 70
     8
  9
$HANDSEED
  5
AE50
  9
$SURFTAB1
 70
     6
  9
$SURFTAB2
 70
     6
  9
$SURFTYPE
 70
     6
  9
$SURFU
 70
     6
  9
$SURFV
 70
     6
  9
$UCSBASE
  2

  9
$UCSNAME
  2

  9
$UCSORG
 10
0.0
 20
0.0
 30
0.0
  9
$UCSXDIR
 10
1.0
 20
0.0
 30
0.0
  9
$UCSYDIR
 10
0.0
 20
1.0
 30
0.0
  9
$UCSORTHOREF
  2

  9
$UCSORTHOVIEW
 70
     0
  9
$UCSORGTOP
 10
0.0
 20
0.0
 30
0.0
  9
$UCSORGBOTTOM
 10
0.0
 20
0.0
 30
0.0
  9
$UCSORGLEFT
 10
0.0
 20
0.0
 30
0.0
  9
$UCSORGRIGHT
 10
0.0
 20
0.0
 30
0.0
  9
$UCSORGFRONT
 10
0.0
 20
0.0
 30
0.0
  9
$UCSORGBACK
 10
0.0
 20
0.0
 30
0.0
  9
$PUCSBASE
  2

  9
$PUCSNAME
  2

  9
$PUCSORG
 10
0.0
 20
0.0
 30
0.0
  9
$PUCSXDIR
 10
1.0
 20
0.0
 30
0.0
  9
$PUCSYDIR
 10
0.0
 20
1.0
 30
0.0
  9
$PUCSORTHOREF
  2

  9
$PUCSORTHOVIEW
 70
     0
  9
$PUCSORGTOP
 10
0.0
 20
0.0
 30
0.0
  9
$PUCSORGBOTTOM
 10
0.0
 20
0.0
 30
0.0
  9
$PUCSORGLEFT
 10
0.0
 20
0.0
 30
0.0
  9
$PUCSORGRIGHT
 10
0.0
 20
0.0
 30
0.0
  9
$PUCSORGFRONT
 10
0.0
 20
0.0
 30
0.0
  9
$PUCSORGBACK
 10
0.0
 20
0.0
 30
0.0
  9
$USERI1
 70
     0
  9
$USERI2
 70
     0
  9
$USERI3
 70
     0
  9
$USERI4
 70
     0
  9
$USERI5
 70
     0
  9
$USERR1
 40
0.0
  9
$USERR2
 40
0.0
  9
$USERR3
 40
0.0
  9
$USERR4
 40
0.0
  9
$USERR5
 40
0.0
  9
$WORLDVIEW
 70
     1
  9
$SHADEDGE
 70
     3
  9
$SHADEDIF
 70
    70
  9
$TILEMODE
 70
     1
  9
$MAXACTVP
 70
    16
  9
$PINSBASE
 10
0.0
 20
0.0
 30
0.0
  9
$PLIMCHECK
 70
     0
  9
$PEXTMIN
 10
1.000000000000000E+20
 20
1.000000000000000E+20
 30
1.000000000000000E+20
  9
$PEXTMAX
 10
-1.000000000000000E+20
 20
-1.000000000000000E+20
 30
-1.000000000000000E+20
  9
$PLIMMIN
 10
0.0
 20
0.0
  9
$PLIMMAX
 10
420.0
 20
297.0
  9
$UNITMODE
 70
     0
  9
$VISRETAIN
 70
     0
  9
$PLINEGEN
 70
     0
  9
$PSLTSCALE
 70
     0
  9
$TREEDEPTH
 70
  3020
  9
$CMLSTYLE
  2
STANDARD
  9
$CMLJUST
 70
     0
  9
$CMLSCALE
 40
1.0
  9
$PROXYGRAPHICS
 70
     1
  9
$MEASUREMENT
 70
     0
  9
$CELWEIGHT
370
    -1
  9
$ENDCAPS
280
     0
  9
$JOINSTYLE
280
     0
  9
$LWDISPLAY
290
     0
  9
$INSUNITS
 70
     0
  9
$HYPERLINKBASE
  1

  9
$STYLESHEET
  1

  9
$XEDIT
290
     1
  9
$CEPSNTYPE
380
     0
  9
$PSTYLEMODE
290
     1
  9
$FINGERPRINTGUID
  2
{CA643189-7A5A-48B5-98EA-906E326B2ACE}
  9
$VERSIONGUID
  2
{0F0B4FB5-6E64-4F07-89E6-12640E6B7BB7}
  9
$EXTNAMES
290
     1
  9
$PSVPSCALE
 40
0.0
  9
$OLESTARTUP
290
     0
  0
ENDSEC
  0
SECTION
  2
CLASSES
  0
CLASS
  1
ACDBDICTIONARYWDFLT
  2
AcDbDictionaryWithDefault
  3
ObjectDBX Classes
 90
        0
280
     0
281
     0
  0
CLASS
  1
ACDBPLACEHOLDER
  2
AcDbPlaceHolder
  3
ObjectDBX Classes
 90
        0
280
     0
281
     0
  0
CLASS
  1
LAYOUT
  2
AcDbLayout
  3
ObjectDBX Classes
 90
        0
280
     0
281
     0
  0
CLASS
  1
DICTIONARYVAR
  2
AcDbDictionaryVar
  3
ObjectDBX Classes
 90
        0
280
     0
281
     0
  0
CLASS
  1
MATERIAL
  2
AcDbMaterial
  3
ObjectDBX Classes
 90
     1153
280
     0
281
     0
  0
CLASS
  1
VISUALSTYLE
  2
AcDbVisualStyle
  3
ObjectDBX Classes
 90
     4095
280
     0
281
     0
  0
CLASS
  1
TABLESTYLE
  2
AcDbTableStyle
  3
ObjectDBX Classes
 90
     4095
280
     0
281
     0
  0
CLASS
  1
SCALE
  2
AcDbScale
  3
ObjectDBX Classes
 90
     1153
280
     0
281
     0
  0
CLASS
  1
MLEADERSTYLE
  2
AcDbMLeaderStyle
  3
ACDB_MLEADERSTYLE_CLASS
 90
     4095
280
     0
281
     0
  0
CLASS
  1
ACDBSECTIONVIEWSTYLE
  2
AcDbSectionViewStyle
  3
ObjectDBX Classes
 90
     1025
280
     0
281
     0
  0
CLASS
  1
ACDBDETAILVIEWSTYLE
  2
AcDbDetailViewStyle
  3
ObjectDBX Classes
 90
     1025
280
     0
281
     0
  0
CLASS
  1
CELLSTYLEMAP
  2
AcDbCellStyleMap
  3
ObjectDBX Classes
 90
     1152
280
     0
281
     0
  0
ENDSEC
  0
SECTION
  2
TABLES
  0
TABLE
  2
VPORT
  5
AAA5
330
0
100
AcDbSymbolTable
 70
     1
  0
VPORT
  5
AD99
330
AAA5
100
AcDbSymbolTableRecord
100
AcDbViewportTableRecord
  2
*ACTIVE
 70
     0
 10
0.0
 20
0.0
 11
1.0
 21
1.0
 12
592.4890580369068
 22
266.8140118841709
 13
0.0
 23
0.0
 14
10.0
 24
10.0
 15
10.0
 25
10.0
 16
0.0
 26
0.0
 36
1.0
 17
0.0
 27
0.0
 37
0.0
 40
519.4397577851585
 41
2.567642956764295
 42
50.0
 43
0.0
 44
0.0
 50
0.0
 51
0.0
 71
     0
 72
   100
 73
     1
 74
     0
 75
     0
 76
     0
 77
     0
 78
     0
281
     0
 65
     1
110
0.0
120
0.0
130
0.0
111
1.0
121
0.0
131
0.0
112
0.0
122
1.0
132
0.0
 79
     0
146
0.0
1001
ACAD_NAV_VCDISPLAY
1070
     3
  0
ENDTAB
  0
TABLE
  2
LTYPE
  5
AAA2
330
0
100
AcDbSymbolTable
 70
     4
  0
LTYPE
  5
AAB0
330
AAA2
100
AcDbSymbolTableRecord
100
AcDbLinetypeTableRecord
  2
BYBLOCK
 70
     0
  3

 72
    65
 73
     0
 40
0.0
  0
LTYPE
  5
AAB1
330
AAA2
100
AcDbSymbolTableRecord
100
AcDbLinetypeTableRecord
  2
BYLAYER
 70
     0
  3

 72
    65
 73
     0
 40
0.0
  0
LTYPE
  5
AAB2
330
AAA2
100
AcDbSymbolTableRecord
100
AcDbLinetypeTableRecord
  2
CONTINUOUS
 70
     0
  3
Solid line
 72
    65
 73
     0
 40
0.0
  0
LTYPE
  5
AAC0
330
AAA2
100
AcDbSymbolTableRecord
100
AcDbLinetypeTableRecord
  2
DASHED
 70
     0
  3
__ __ __ __ __ __ __ __ __ __ __ __ __ __ __ __
 72
    65
 73
     2
 40
0.75
 49
0.5
 74
     0
 49
-0.25
 74
     0
  0
LTYPE
  5
AAC1
330
AAA2
100
AcDbSymbolTableRecord
100
AcDbLinetypeTableRecord
  2
CENTER
 70
     0
  3
____ _ ____ _ ____ _ ____ _ ____ _ ____ _ ____ 
 72
    65
 73
     4
 40
2.0
 49
1.25
 74
     0
 49
-0.25
 74
     0
 49
0.25
 74
     0
 49
-0.25
 74
     0
  0
LTYPE
  5
AAC2
330
AAA2
100
AcDbSymbolTableRecord
100
AcDbLinetypeTableRecord
  2
PHANTOM
 70
     0
  3
______  __  __  ______  __  __  ______  __  __ 
 72
    65
 73
     6
 40
2.5
 49
1.25
 74
     0
 49
-0.25
 74
     0
 49
0.25
 74
     0
 49
-0.25
 74
     0
 49
0.25
 74
     0
 49
-0.25
 74
     0
  0
ENDTAB
  0
TABLE
  2
LAYER
  5
AA9F
330
0
100
AcDbSymbolTable
 70
     8
  0
LAYER
  5
AAAD
102
{ACAD_XDICTIONARY
360
ADF4
102
}
330
AA9F
100
AcDbSymbolTableRecord
100
AcDbLayerTableRecord
  2
0
 70
     0
 62
     7
  6
CONTINUOUS
370
    -3
390
ADA2
  0
LAYER
  5
AAC3
102
{ACAD_XDICTIONARY
360
ADF6
102
}
330
AA9F
100
AcDbSymbolTableRecord
100
AcDbLayerTableRecord
  2
4
 70
     0
 62
     1
  6
CENTER
370
    -3
390
ADA2
  0
LAYER
  5
AAC4
102
{ACAD_XDICTIONARY
360
ADF8
102
}
330
AA9F
100
AcDbSymbolTableRecord
100
AcDbLayerTableRecord
  2
5
 70
     0
 62
     6
  6
PHANTOM
370
    -3
390
ADA2
  0
LAYER
  5
AAC5
102
{ACAD_XDICTIONARY
360
ADFA
102
}
330
AA9F
100
AcDbSymbolTableRecord
100
AcDbLayerTableRecord
  2
1
 70
     0
 62
     7
  6
CONTINUOUS
370
    -3
390
ADA2
  0
LAYER
  5
AAC6
102
{ACAD_XDICTIONARY
360
ADFC
102
}
330
AA9F
100
AcDbSymbolTableRecord
100
AcDbLayerTableRecord
  2
2
 70
     0
 62
     4
  6
CONTINUOUS
370
    -3
390
ADA2
  0
LAYER
  5
AAC7
102
{ACAD_XDICTIONARY
360
ADFE
102
}
330
AA9F
100
AcDbSymbolTableRecord
100
AcDbLayerTableRecord
  2
3
 70
     0
 62
     2
  6
DASHED
370
    -3
390
ADA2
  0
LAYER
  5
AAC8
102
{ACAD_XDICTIONARY
360
AE00
102
}
330
AA9F
100
AcDbSymbolTableRecord
100
AcDbLayerTableRecord
  2
6
 70
     0
 62
     5
  6
CONTINUOUS
370
    -3
390
ADA2
  0
LAYER
  5
AAC9
102
{ACAD_XDICTIONARY
360
AE02
102
}
330
AA9F
100
AcDbSymbolTableRecord
100
AcDbLayerTableRecord
  2
7
 70
     0
 62
     3
  6
CONTINUOUS
370
    -3
390
ADA2
  0
ENDTAB
  0
TABLE
  2
STYLE
  5
AAA0
330
0
100
AcDbSymbolTable
 70
     1
  0
STYLE
  5
AAAE
330
AAA0
100
AcDbSymbolTableRecord
100
AcDbTextStyleTableRecord
  2
STANDARD
 70
     0
 40
0.0
 41
1.0
 50
0.0
 71
     0
 42
5.0
  3
txt
  4

  0
ENDTAB
  0
TABLE
  2
VIEW
  5
AAA3
330
0
100
AcDbSymbolTable
 70
     0
  0
ENDTAB
  0
TABLE
  2
UCS
  5
AAA4
330
0
100
AcDbSymbolTable
 70
     0
  0
ENDTAB
  0
TABLE
  2
APPID
  5
AAA6
330
0
100
AcDbSymbolTable
 70
     3
  0
APPID
  5
AAAF
330
AAA6
100
AcDbSymbolTableRecord
100
AcDbRegAppTableRecord
  2
ACAD
 70
     0
  0
APPID
  5
AE0E
330
AAA6
100
AcDbSymbolTableRecord
100
AcDbRegAppTableRecord
  2
ACAD_NAV_VCDISPLAY
 70
     0
  0
APPID
  5
AE47
330
AAA6
100
AcDbSymbolTableRecord
100
AcDbRegAppTableRecord
  2
ACAD_MLEADERVER
 70
     0
  0
ENDTAB
  0
TABLE
  2
DIMSTYLE
  5
AAA7
330
0
100
AcDbSymbolTable
 70
     1
100
AcDbDimStyleTable
 71
     0
  0
DIMSTYLE
105
AACB
330
AAA7
100
AcDbSymbolTableRecord
100
AcDbDimStyleTableRecord
  2
STANDARD
 70
     0
 41
3.0
 42
1.0
 43
10.0
 44
1.0
 73
     0
 74
     0
 77
     3
 78
     8
140
3.2
141
0.0
147
1.0
172
     1
173
     1
284
     8
285
     8
286
     8
340
AAAE
  0
ENDTAB
  0
TABLE
  2
BLOCK_RECORD
  5
AA9E
330
0
100
AcDbSymbolTable
 70
     1
  0
BLOCK_RECORD
  5
AABB
102
{ACAD_XDICTIONARY
360
AD9C
102
}
330
AA9E
100
AcDbSymbolTableRecord
100
AcDbBlockTableRecord
  2
*MODEL_SPACE
340
ADF0
  0
BLOCK_RECORD
  5
AAB7
102
{ACAD_XDICTIONARY
360
AD9A
102
}
330
AA9E
100
AcDbSymbolTableRecord
100
AcDbBlockTableRecord
  2
*PAPER_SPACE
340
ADF1
  0
BLOCK_RECORD
  5
AAD3
330
AA9E
100
AcDbSymbolTableRecord
100
AcDbBlockTableRecord
  2
_OPEN
340
0
  0
ENDTAB
  0
ENDSEC
  0
SECTION
  2
BLOCKS
  0
BLOCK
  5
AABC
330
AABB
100
AcDbEntity
  8
0
100
AcDbBlockBegin
  2
*MODEL_SPACE
 70
     0
 10
0.0
 20
0.0
 30
0.0
  3
*MODEL_SPACE
  1

  0
ENDBLK
  5
AABD
330
AABB
100
AcDbEntity
  8
0
100
AcDbBlockEnd
  0
BLOCK
  5
AAB8
330
AAB7
100
AcDbEntity
 67
     1
  8
0
100
AcDbBlockBegin
  2
*PAPER_SPACE
 70
     0
 10
0.0
 20
0.0
 30
0.0
  3
*PAPER_SPACE
  1

  0
ENDBLK
  5
AAB9
330
AAB7
100
AcDbEntity
 67
     1
  8
0
100
AcDbBlockEnd
  0
BLOCK
  5
AAD4
330
AAD3
100
AcDbEntity
  8
0
100
AcDbBlockBegin
  2
_OPEN
 70
     0
 10
0.0
 20
0.0
 30
0.0
  3
_OPEN
  1

  0
LINE
  5
AAD5
330
AAD3
100
AcDbEntity
  8
0
  6
ByBlock
 62
     0
100
AcDbLine
 10
-1.0
 20
0.166667
 30
0.0
 11
0.0
 21
0.0
 31
0.0
  0
LINE
  5
AAD6
330
AAD3
100
AcDbEntity
  8
0
  6
ByBlock
 62
     0
100
AcDbLine
 10
0.0
 20
0.0
 30
0.0
 11
-1.0
 21
-0.166667
 31
0.0
  0
LINE
  5
AAD7
330
AAD3
100
AcDbEntity
  8
0
  6
ByBlock
 62
     0
100
AcDbLine
 10
0.0
 20
0.0
 30
0.0
 11
-1.0
 21
0.0
 31
0.0
  0
ENDBLK
  5
AAD8
330
AAD3
100
AcDbEntity
  8
0
100
AcDbBlockEnd
  0
ENDSEC
  0
SECTION
  2
ENTITIES
  0
TEXT
  5
AAD9
330
AABB
100
AcDbEntity
  8
7
  6
Continuous
100
AcDbText
 10
10.0
 20
18.0
 30
0.0
 40
3.0
  1
TYPE No.209M d=21
100
AcDbText
  0
TEXT
  5
AADA
330
AABB
100
AcDbEntity
  8
7
  6
Continuous
100
AcDbText
 10
10.0
 20
26.0
 30
0.0
 40
3.0
  1
CODE No.9192
100
AcDbText
  0
TEXT
  5
AADB
330
AABB
100
AcDbEntity
  8
1
  6
Continuous
100
AcDbText
 10
10.0
 20
10.0
 30
0.0
 40
1.399999999999999
  1
LAYER
100
AcDbText
  0
TEXT
  5
AADC
330
AABB
100
AcDbEntity
  8
1
  6
Continuous
100
AcDbText
 10
17.97951099999998
 20
10.04873699999998
 30
0.0
 40
1.399999999999999
  1
1
100
AcDbText
  0
TEXT
  5
AADD
330
AABB
100
AcDbEntity
  8
7
  6
Continuous
100
AcDbText
 10
29.97951099999999
 20
10.04873699999998
 30
0.0
 40
1.399999999999999
  1
7
100
AcDbText
  0
TEXT
  5
AADE
330
AABB
100
AcDbEntity
  8
4
  6
CENTER
100
AcDbText
 10
23.97951099999999
 20
10.04873699999998
 30
0.0
 40
1.399999999999999
  1
4
100
AcDbText
  0
TEXT
  5
AADF
330
AABB
100
AcDbEntity
  8
3
  6
DASHED
100
AcDbText
 10
21.979511
 20
10.04873699999998
 30
0.0
 40
1.399999999999999
  1
3
100
AcDbText
  0
TEXT
  5
AAE0
330
AABB
100
AcDbEntity
  8
2
  6
Continuous
100
AcDbText
 10
19.97951099999999
 20
10.04873699999998
 30
0.0
 40
1.399999999999999
  1
2
100
AcDbText
  0
TEXT
  5
AAE1
330
AABB
100
AcDbEntity
  8
6
  6
Continuous
100
AcDbText
 10
27.979511
 20
10.04873699999998
 30
0.0
 40
1.399999999999999
  1
6
100
AcDbText
  0
TEXT
  5
AAE2
330
AABB
100
AcDbEntity
  8
5
  6
PHANTOM
100
AcDbText
 10
25.97951099999999
 20
10.04873699999998
 30
0.0
 40
1.399999999999999
  1
5
100
AcDbText
  0
LINE
  5
AAE3
330
AABB
100
AcDbEntity
  8
4
  6
CENTER
100
AcDbLine
 10
305.933854
 20
424.010787
 30
0.0
 11
305.933854
 21
252.3000779999999
 31
0.0
  0
LINE
  5
AAE4
330
AABB
100
AcDbEntity
  8
4
  6
CENTER
100
AcDbLine
 10
336.933854
 20
236.9758589999999
 30
0.0
 11
175.2057259999999
 21
236.9758589999999
 31
0.0
  0
ARC
  5
AAE5
330
AABB
100
AcDbEntity
  8
1
  6
Continuous
100
AcDbCircle
 10
255.933854
 20
236.9758589999999
 30
0.0
 40
58.5
100
AcDbArc
 50
54.175155
 51
23.98668699999999
  0
LINE
  5
AAE6
330
AABB
100
AcDbEntity
  8
1
  6
Continuous
100
AcDbLine
 10
261.6655809999999
 20
228.478224
 30
0.0
 11
307.418871
 21
259.339208
 31
0.0
  0
LINE
  5
AAE7
330
AABB
100
AcDbEntity
  8
1
  6
Continuous
100
AcDbLine
 10
325.0838539999999
 20
322.4758589999999
 30
0.0
 11
286.783854
 21
322.4758589999999
 31
0.0
  0
LINE
  5
AAE8
330
AABB
100
AcDbEntity
  8
1
  6
Continuous
100
AcDbLine
 10
318.5838539999999
 20
338.4758589999999
 30
0.0
 11
293.283854
 21
338.4758589999999
 31
0.0
  0
ARC
  5
AAE9
330
AABB
100
AcDbEntity
  8
1
  6
Continuous
100
AcDbCircle
 10
371.4338539999998
 20
289.825734
 30
0.0
 40
50.0
100
AcDbArc
 50
163.4423119999999
 51
187.815448
  0
ARC
  5
AAEA
330
AABB
100
AcDbEntity
  8
1
  6
Continuous
100
AcDbCircle
 10
286.449137
 20
290.4281169999998
 30
0.0
 40
37.5
100
AcDbArc
 50
304.0
 51
336.673568
  0
ARC
  5
AAEB
330
AABB
100
AcDbEntity
  8
1
  6
Continuous
100
AcDbCircle
 10
308.028337
 20
281.122841
 30
0.0
 40
14.0
100
AcDbArc
 50
336.673568
 51
7.815447999999999
  0
ARC
  5
AAEC
330
AABB
100
AcDbEntity
  8
1
  6
Continuous
100
AcDbCircle
 10
322.433854
 20
318.675859
 30
0.0
 40
4.0
100
AcDbArc
 50
0.0
 51
71.80512799999998
  0
ARC
  5
AAED
330
AABB
100
AcDbEntity
  8
1
  6
Continuous
100
AcDbCircle
 10
334.051056
 20
300.9399759999999
 30
0.0
 40
11.0
100
AcDbArc
 50
133.826179
 51
163.4423119999999
  0
LINE
  5
AAEE
330
AABB
100
AcDbEntity
  8
1
  6
Continuous
100
AcDbLine
 10
326.433854
 20
318.675859
 30
0.0
 11
326.433854
 21
308.8758589999998
 31
0.0
  0
ARC
  5
AAEF
330
AABB
100
AcDbEntity
  8
1
  6
Continuous
100
AcDbCircle
 10
318.5838539999999
 20
331.9758589999999
 30
0.0
 40
6.5
100
AcDbArc
 50
0.0
 51
90.0
  0
LINE
  5
AAF0
330
AABB
100
AcDbEntity
  8
1
  6
Continuous
100
AcDbLine
 10
325.0838539999999
 20
331.9758589999999
 30
0.0
 11
325.0838539999999
 21
322.4758589999999
 31
0.0
  0
LINE
  5
AAF1
330
AABB
100
AcDbEntity
  8
4
  6
CENTER
100
AcDbLine
 10
255.933854
 20
155.975859
 30
0.0
 11
255.933854
 21
317.9758589999999
 31
0.0
  0
ARC
  5
AAF2
330
AABB
100
AcDbEntity
  8
1
  6
Continuous
100
AcDbCircle
 10
255.933854
 20
236.9758589999999
 30
0.0
 40
16.0
100
AcDbArc
 50
77.83844000000001
 51
354.16156
  0
ARC
  5
AAF3
330
AABB
100
AcDbEntity
  8
1
  6
Continuous
100
AcDbCircle
 10
255.933854
 20
236.9758589999999
 30
0.0
 40
20.5
100
AcDbArc
 50
68.0
 51
4.0
  0
CIRCLE
  5
AAF4
330
AABB
100
AcDbEntity
  8
1
  6
Continuous
100
AcDbCircle
 10
282.9719759999999
 20
199.761078
 30
0.0
 40
3.5
  0
CIRCLE
  5
AAF5
330
AABB
100
AcDbEntity
  8
1
  6
Continuous
100
AcDbCircle
 10
228.895733
 20
199.761078
 30
0.0
 40
3.5
  0
CIRCLE
  5
AAF6
330
AABB
100
AcDbEntity
  8
1
  6
Continuous
100
AcDbCircle
 10
212.1852539999999
 20
251.190641
 30
0.0
 40
3.5
  0
ARC
  5
AAF7
330
AABB
100
AcDbEntity
  8
1
  6
Continuous
100
AcDbCircle
 10
246.4338539999999
 20
294.9799259999998
 30
0.0
 40
45.0
100
AcDbArc
 50
339.541171
 51
11.25676099999999
  0
ARC
  5
AAF8
330
AABB
100
AcDbEntity
  8
1
  6
Continuous
100
AcDbCircle
 10
255.933854
 20
236.9758589999999
 30
0.0
 40
10.25
100
AcDbArc
 50
340.401521
 51
91.598479
  0
ARC
  5
AAF9
330
AABB
100
AcDbEntity
  8
1
  6
Continuous
100
AcDbCircle
 10
261.0221619999999
 20
228.61927
 30
0.0
 40
20.0
100
AcDbArc
 50
80.149466
 51
98.85475200000001
  0
ARC
  5
AAFA
330
AABB
100
AcDbEntity
  8
1
  6
Continuous
100
AcDbCircle
 10
255.933854
 20
236.9758589999999
 30
0.0
 40
10.25
100
AcDbArc
 50
128.0
 51
304.0
  0
LINE
  5
AAFB
330
AABB
100
AcDbEntity
  8
1
  6
Continuous
100
AcDbLine
 10
249.623324
 20
245.05297
 30
0.0
 11
282.1701739999999
 21
270.481355
 31
0.0
  0
ARC
  5
AAFC
330
AABB
100
AcDbEntity
  8
1
  6
Continuous
100
AcDbCircle
 10
299.682454
 20
251.190641
 30
0.0
 40
3.5
100
AcDbArc
 50
170.0451769999999
 51
77.954823
  0
ARC
  5
AAFD
330
AABB
100
AcDbEntity
  8
1
  6
Continuous
100
AcDbCircle
 10
249.558638
 20
244.397456
 30
0.0
 40
20.0
100
AcDbArc
 50
333.1452479999999
 51
351.8505339999999
  0
ARC
  5
AAFE
330
AABB
100
AcDbEntity
  8
1
  6
Continuous
100
AcDbCircle
 10
263.4172609999998
 20
242.412873
 30
0.0
 40
6.0
100
AcDbArc
 50
351.8505339999999
 51
80.149466
  0
ARC
  5
AAFF
330
AABB
100
AcDbEntity
  8
1
  6
Continuous
100
AcDbCircle
 10
269.8569439999999
 20
286.24157
 30
0.0
 40
20.0
100
AcDbArc
 50
308.0
 51
339.541171
  0
CIRCLE
  5
AB00
330
AABB
100
AcDbEntity
  8
1
  6
Continuous
100
AcDbCircle
 10
255.933854
 20
282.9758589999999
 30
0.0
 40
3.5
  0
ARC
  5
AB01
330
AABB
100
AcDbEntity
  8
1
  6
Continuous
100
AcDbCircle
 10
289.433854
 20
318.675859
 30
0.0
 40
4.0
100
AcDbArc
 50
108.1948719999999
 51
180.0
  0
ARC
  5
AB02
330
AABB
100
AcDbEntity
  8
1
  6
Continuous
100
AcDbCircle
 10
284.1932009999998
 20
302.4953599999999
 30
0.0
 40
6.5
100
AcDbArc
 50
11.25676099999999
 51
78.996454
  0
LINE
  5
AB03
330
AABB
100
AcDbEntity
  8
1
  6
Continuous
100
AcDbLine
 10
285.433854
 20
318.675859
 30
0.0
 11
285.433854
 21
308.8758589999998
 31
0.0
  0
ARC
  5
AB04
330
AABB
100
AcDbEntity
  8
1
  6
Continuous
100
AcDbCircle
 10
293.283854
 20
331.9758589999999
 30
0.0
 40
6.5
100
AcDbArc
 50
90.0
 51
180.0
  0
LINE
  5
AB05
330
AABB
100
AcDbEntity
  8
1
  6
Continuous
100
AcDbLine
 10
286.783854
 20
331.9758589999999
 30
0.0
 11
286.783854
 21
322.4758589999999
 31
0.0
  0
LINE
  5
AB06
330
AABB
100
AcDbEntity
  8
4
  6
CENTER
100
AcDbLine
 10
337.1633979999999
 20
486.801795
 30
0.0
 11
175.2057259999999
 21
486.801795
 31
0.0
  0
CIRCLE
  5
AB07
330
AABB
100
AcDbEntity
  8
1
  6
Continuous
100
AcDbCircle
 10
305.9334779999999
 20
486.801795
 30
0.0
 40
6.0
  0
CIRCLE
  5
AB08
330
AABB
100
AcDbEntity
  8
1
  6
Continuous
100
AcDbCircle
 10
305.9334779999999
 20
486.801795
 30
0.0
 40
19.15
  0
LINE
  5
AB09
330
AABB
100
AcDbEntity
  8
4
  6
CENTER
100
AcDbLine
 10
255.9334779999999
 20
523.614636
 30
0.0
 11
255.9334779999999
 21
449.6002059999998
 31
0.0
  0
LINE
  5
AB0A
330
AABB
100
AcDbEntity
  8
4
  6
CENTER
100
AcDbLine
 10
305.9334779999999
 20
515.9722659999999
 30
0.0
 11
305.9334779999999
 21
456.511985
 31
0.0
  0
ARC
  5
AB0B
330
AABB
100
AcDbEntity
  8
1
  6
Continuous
100
AcDbCircle
 10
270.482192
 20
473.1481289999998
 30
0.0
 40
30.0
100
AcDbArc
 50
55.26464800000001
 51
78.557979
  0
ARC
  5
AB0C
330
AABB
100
AcDbEntity
  8
1
  6
Continuous
100
AcDbCircle
 10
241.384765
 20
473.1481289999998
 30
0.0
 40
30.0
100
AcDbArc
 50
101.4420209999999
 51
124.735352
  0
LINE
  5
AB0D
330
AABB
100
AcDbEntity
  8
1
  6
Continuous
100
AcDbLine
 10
262.287727
 20
506.701908
 30
0.0
 11
249.57923
 21
506.701908
 31
0.0
  0
LINE
  5
AB0E
330
AABB
100
AcDbEntity
  8
1
  6
Continuous
100
AcDbLine
 10
239.9334779999998
 20
506.601908
 30
0.0
 11
271.933478
 21
506.601908
 31
0.0
  0
LINE
  5
AB0F
330
AABB
100
AcDbEntity
  8
1
  6
Continuous
100
AcDbLine
 10
276.4334779999999
 20
502.551908
 30
0.0
 11
235.4334779999998
 21
502.551908
 31
0.0
  0
LINE
  5
AB10
330
AABB
100
AcDbEntity
  8
1
  6
Continuous
100
AcDbLine
 10
273.605051
 20
504.551908
 30
0.0
 11
238.2619049999999
 21
504.551908
 31
0.0
  0
ARC
  5
AB11
330
AABB
100
AcDbEntity
  8
1
  6
Continuous
100
AcDbCircle
 10
273.605051
 20
501.551908
 30
0.0
 40
3.0
100
AcDbArc
 50
19.47122099999998
 51
90.0
  0
ARC
  5
AB12
330
AABB
100
AcDbEntity
  8
1
  6
Continuous
100
AcDbCircle
 10
262.287727
 20
510.7019079999998
 30
0.0
 40
4.0
100
AcDbArc
 50
270.0
 51
311.409622
  0
LINE
  5
AB13
330
AABB
100
AcDbEntity
  8
1
  6
Continuous
100
AcDbLine
 10
271.933478
 20
506.601908
 30
0.0
 11
271.933478
 21
504.551908
 31
0.0
  0
LINE
  5
AB14
330
AABB
100
AcDbEntity
  8
1
  6
Continuous
100
AcDbLine
 10
261.908478
 20
506.701908
 30
0.0
 11
261.908478
 21
506.601908
 31
0.0
  0
ARC
  5
AB15
330
AABB
100
AcDbEntity
  8
1
  6
Continuous
100
AcDbCircle
 10
238.2619049999999
 20
501.551908
 30
0.0
 40
3.0
100
AcDbArc
 50
90.0
 51
160.528779
  0
ARC
  5
AB16
330
AABB
100
AcDbEntity
  8
1
  6
Continuous
100
AcDbCircle
 10
249.57923
 20
510.7019079999998
 30
0.0
 40
4.0
100
AcDbArc
 50
228.5903779999999
 51
270.0
  0
LINE
  5
AB17
330
AABB
100
AcDbEntity
  8
1
  6
Continuous
100
AcDbLine
 10
249.9584779999999
 20
506.701908
 30
0.0
 11
249.9584779999999
 21
506.601908
 31
0.0
  0
LINE
  5
AB18
330
AABB
100
AcDbEntity
  8
1
  6
Continuous
100
AcDbLine
 10
245.6834779999998
 20
510.001908
 30
0.0
 11
245.6834779999998
 21
507.701908
 31
0.0
  0
LINE
  5
AB19
330
AABB
100
AcDbEntity
  8
1
  6
Continuous
100
AcDbLine
 10
239.9334779999998
 20
506.601908
 30
0.0
 11
239.9334779999998
 21
504.551908
 31
0.0
  0
LINE
  5
AB1A
330
AABB
100
AcDbEntity
  8
1
  6
Continuous
100
AcDbLine
 10
262.287727
 20
466.9019079999998
 30
0.0
 11
249.57923
 21
466.9019079999998
 31
0.0
  0
LINE
  5
AB1B
330
AABB
100
AcDbEntity
  8
1
  6
Continuous
100
AcDbLine
 10
239.9334779999998
 20
467.001908
 30
0.0
 11
271.933478
 21
467.001908
 31
0.0
  0
LINE
  5
AB1C
330
AABB
100
AcDbEntity
  8
1
  6
Continuous
100
AcDbLine
 10
276.4334779999999
 20
471.051908
 30
0.0
 11
235.4334779999998
 21
471.051908
 31
0.0
  0
LINE
  5
AB1D
330
AABB
100
AcDbEntity
  8
1
  6
Continuous
100
AcDbLine
 10
273.605051
 20
469.051908
 30
0.0
 11
238.2619049999999
 21
469.051908
 31
0.0
  0
ARC
  5
AB1E
330
AABB
100
AcDbEntity
  8
1
  6
Continuous
100
AcDbCircle
 10
270.482192
 20
500.455686
 30
0.0
 40
30.0
100
AcDbArc
 50
281.442021
 51
304.7353549999999
  0
ARC
  5
AB1F
330
AABB
100
AcDbEntity
  8
1
  6
Continuous
100
AcDbCircle
 10
273.605051
 20
472.051908
 30
0.0
 40
3.0
100
AcDbArc
 50
270.0
 51
340.528779
  0
LINE
  5
AB20
330
AABB
100
AcDbEntity
  8
1
  6
Continuous
100
AcDbLine
 10
271.933478
 20
469.051908
 30
0.0
 11
271.933478
 21
467.001908
 31
0.0
  0
LINE
  5
AB21
330
AABB
100
AcDbEntity
  8
1
  6
Continuous
100
AcDbLine
 10
261.908478
 20
467.001908
 30
0.0
 11
261.908478
 21
466.9019079999998
 31
0.0
  0
ARC
  5
AB22
330
AABB
100
AcDbEntity
  8
1
  6
Continuous
100
AcDbCircle
 10
262.287727
 20
462.9019079999998
 30
0.0
 40
4.0
100
AcDbArc
 50
48.590378
 51
90.0
  0
LINE
  5
AB23
330
AABB
100
AcDbEntity
  8
1
  6
Continuous
100
AcDbLine
 10
245.6834779999998
 20
465.901908
 30
0.0
 11
245.6834779999998
 21
463.6019079999998
 31
0.0
  0
ARC
  5
AB24
330
AABB
100
AcDbEntity
  8
1
  6
Continuous
100
AcDbCircle
 10
238.2619049999999
 20
472.051908
 30
0.0
 40
3.0
100
AcDbArc
 50
199.4712209999999
 51
270.0
  0
ARC
  5
AB25
330
AABB
100
AcDbEntity
  8
1
  6
Continuous
100
AcDbCircle
 10
249.57923
 20
462.9019079999998
 30
0.0
 40
4.0
100
AcDbArc
 50
90.0
 51
131.4096219999999
  0
LINE
  5
AB26
330
AABB
100
AcDbEntity
  8
1
  6
Continuous
100
AcDbLine
 10
249.9584779999999
 20
467.001908
 30
0.0
 11
249.9584779999999
 21
466.9019079999998
 31
0.0
  0
LINE
  5
AB27
330
AABB
100
AcDbEntity
  8
1
  6
Continuous
100
AcDbLine
 10
239.9334779999998
 20
469.051908
 30
0.0
 11
239.9334779999998
 21
467.001908
 31
0.0
  0
ARC
  5
AB28
330
AABB
100
AcDbEntity
  8
1
  6
Continuous
100
AcDbCircle
 10
241.384765
 20
500.455686
 30
0.0
 40
30.0
100
AcDbArc
 50
235.264645
 51
258.557979
  0
LINE
  5
AB29
330
AABB
100
AcDbEntity
  8
4
  6
CENTER
100
AcDbLine
 10
68.99196100000001
 20
423.546607
 30
0.0
 11
68.99196100000001
 21
156.2480909999998
 31
0.0
  0
LINE
  5
AB2A
330
AABB
100
AcDbEntity
  8
1
  6
Continuous
100
AcDbLine
 10
88.791848
 20
220.9758439999998
 30
0.0
 11
88.791848
 21
252.975844
 31
0.0
  0
LINE
  5
AB2B
330
AABB
100
AcDbEntity
  8
1
  6
Continuous
100
AcDbLine
 10
49.191848
 20
220.9758439999998
 30
0.0
 11
49.191848
 21
252.975844
 31
0.0
  0
LINE
  5
AB2C
330
AABB
100
AcDbEntity
  8
1
  6
Continuous
100
AcDbLine
 10
84.74184800000001
 20
257.475844
 30
0.0
 11
84.74184800000001
 21
216.4758439999999
 31
0.0
  0
LINE
  5
AB2D
330
AABB
100
AcDbEntity
  8
1
  6
Continuous
100
AcDbLine
 10
53.241848
 20
257.475844
 30
0.0
 11
53.241848
 21
216.4758439999999
 31
0.0
  0
LINE
  5
AB2E
330
AABB
100
AcDbEntity
  8
1
  6
Continuous
100
AcDbLine
 10
86.741848
 20
254.6474169999999
 30
0.0
 11
86.741848
 21
219.3042709999998
 31
0.0
  0
LINE
  5
AB2F
330
AABB
100
AcDbEntity
  8
1
  6
Continuous
100
AcDbLine
 10
51.241848
 20
254.6474169999999
 30
0.0
 11
51.241848
 21
219.3042709999998
 31
0.0
  0
ARC
  5
AB30
330
AABB
100
AcDbEntity
  8
1
  6
Continuous
100
AcDbCircle
 10
54.24184799999999
 20
219.3042709999998
 30
0.0
 40
3.0
100
AcDbArc
 50
180.0
 51
250.5287789999999
  0
LINE
  5
AB31
330
AABB
100
AcDbEntity
  8
1
  6
Continuous
100
AcDbLine
 10
49.191848
 20
220.9758439999998
 30
0.0
 11
51.241848
 21
220.9758439999998
 31
0.0
  0
ARC
  5
AB32
330
AABB
100
AcDbEntity
  8
1
  6
Continuous
100
AcDbCircle
 10
82.64562599999997
 20
222.4271299999998
 30
0.0
 40
30.0
100
AcDbArc
 50
191.4420209999999
 51
214.7353549999999
  0
ARC
  5
AB33
330
AABB
100
AcDbEntity
  8
1
  6
Continuous
100
AcDbCircle
 10
55.338069
 20
222.4271299999998
 30
0.0
 40
30.0
100
AcDbArc
 50
325.264648
 51
348.557979
  0
LINE
  5
AB34
330
AABB
100
AcDbEntity
  8
1
  6
Continuous
100
AcDbLine
 10
86.741848
 20
220.9758439999998
 30
0.0
 11
88.791848
 21
220.9758439999998
 31
0.0
  0
ARC
  5
AB35
330
AABB
100
AcDbEntity
  8
1
  6
Continuous
100
AcDbCircle
 10
83.741848
 20
219.3042709999998
 30
0.0
 40
3.0
100
AcDbArc
 50
289.471221
 51
0.0
  0
LINE
  5
AB36
330
AABB
100
AcDbEntity
  8
4
  6
CENTER
100
AcDbLine
 10
32.17912
 20
236.975844
 30
0.0
 11
106.19355
 21
236.975844
 31
0.0
  0
ARC
  5
AB37
330
AABB
100
AcDbEntity
  8
1
  6
Continuous
100
AcDbCircle
 10
119.491848
 20
292.775844
 30
0.0
 40
30.0
100
AcDbArc
 50
180.0
 51
192.0970529999999
  0
ARC
  5
AB38
330
AABB
100
AcDbEntity
  8
1
  6
Continuous
100
AcDbCircle
 10
18.491848
 20
292.775844
 30
0.0
 40
30.0
100
AcDbArc
 50
347.902947
 51
0.0
  0
ARC
  5
AB39
330
AABB
100
AcDbEntity
  8
1
  6
Continuous
100
AcDbCircle
 10
251.351848
 20
292.775844
 30
0.0
 40
166.5599999999998
100
AcDbArc
 50
175.568982
 51
184.334819
  0
ARC
  5
AB3A
330
AABB
100
AcDbEntity
  8
1
  6
Continuous
100
AcDbCircle
 10
-113.3681519999999
 20
292.775844
 30
0.0
 40
166.5599999999998
100
AcDbArc
 50
355.665181
 51
4.431017999999999
  0
ARC
  5
AB3B
330
AABB
100
AcDbEntity
  8
1
  6
Continuous
100
AcDbCircle
 10
251.351848
 20
292.775844
 30
0.0
 40
168.86
100
AcDbArc
 50
175.628398
 51
184.334819
  0
ARC
  5
AB3C
330
AABB
100
AcDbEntity
  8
1
  6
Continuous
100
AcDbCircle
 10
-113.3681519999999
 20
292.775844
 30
0.0
 40
168.86
100
AcDbArc
 50
355.665181
 51
4.371601999999998
  0
ARC
  5
AB3D
330
AABB
100
AcDbEntity
  8
1
  6
Continuous
100
AcDbCircle
 10
54.24184799999999
 20
254.6474169999999
 30
0.0
 40
3.0
100
AcDbArc
 50
109.4712209999999
 51
180.0
  0
ARC
  5
AB3E
330
AABB
100
AcDbEntity
  8
1
  6
Continuous
100
AcDbCircle
 10
35.06601699999999
 20
281.5243029999999
 30
0.0
 40
17.7
100
AcDbArc
 50
337.2957169999999
 51
355.665181
  0
ARC
  5
AB3F
330
AABB
100
AcDbEntity
  8
1
  6
Continuous
100
AcDbCircle
 10
118.091848
 20
246.786552
 30
0.0
 40
70.0
100
AcDbArc
 50
157.295717
 51
180.0
  0
ARC
  5
AB40
330
AABB
100
AcDbEntity
  8
1
  6
Continuous
100
AcDbCircle
 10
292.274173
 20
234.096729
 30
0.0
 40
250.0
100
AcDbArc
 50
167.9029469999998
 51
177.751751
  0
ARC
  5
AB41
330
AABB
100
AcDbEntity
  8
1
  6
Continuous
100
AcDbCircle
 10
118.091848
 20
246.786552
 30
0.0
 40
72.29999999999998
100
AcDbArc
 50
157.295717
 51
180.0
  0
LINE
  5
AB42
330
AABB
100
AcDbEntity
  8
1
  6
Continuous
100
AcDbLine
 10
49.091848
 20
243.330093
 30
0.0
 11
49.091848
 21
230.621595
 31
0.0
  0
LINE
  5
AB43
330
AABB
100
AcDbEntity
  8
1
  6
Continuous
100
AcDbLine
 10
45.791848
 20
246.786552
 30
0.0
 11
45.791848
 21
226.7258439999999
 31
0.0
  0
LINE
  5
AB44
330
AABB
100
AcDbEntity
  8
1
  6
Continuous
100
AcDbLine
 10
48.091848
 20
246.786552
 30
0.0
 11
48.091848
 21
226.7258439999999
 31
0.0
  0
LINE
  5
AB45
330
AABB
100
AcDbEntity
  8
1
  6
Continuous
100
AcDbLine
 10
45.791848
 20
226.7258439999999
 30
0.0
 11
48.091848
 21
226.7258439999999
 31
0.0
  0
ARC
  5
AB46
330
AABB
100
AcDbEntity
  8
1
  6
Continuous
100
AcDbCircle
 10
57.791848
 20
236.975844
 30
0.0
 40
15.5
100
AcDbArc
 50
208.9385279999999
 51
219.2680259999999
  0
ARC
  5
AB47
330
AABB
100
AcDbEntity
  8
1
  6
Continuous
100
AcDbCircle
 10
45.09184799999998
 20
230.621595
 30
0.0
 40
4.0
100
AcDbArc
 50
318.5903779999998
 51
0.0
  0
LINE
  5
AB48
330
AABB
100
AcDbEntity
  8
1
  6
Continuous
100
AcDbLine
 10
49.091848
 20
231.000844
 30
0.0
 11
49.191848
 21
231.000844
 31
0.0
  0
ARC
  5
AB49
330
AABB
100
AcDbEntity
  8
1
  6
Continuous
100
AcDbCircle
 10
57.791848
 20
236.975844
 30
0.0
 40
15.5
100
AcDbArc
 50
140.731974
 51
151.061472
  0
LINE
  5
AB4A
330
AABB
100
AcDbEntity
  8
1
  6
Continuous
100
AcDbLine
 10
49.091848
 20
242.9508439999999
 30
0.0
 11
49.191848
 21
242.9508439999999
 31
0.0
  0
ARC
  5
AB4B
330
AABB
100
AcDbEntity
  8
1
  6
Continuous
100
AcDbCircle
 10
45.09184799999998
 20
243.330093
 30
0.0
 40
4.0
100
AcDbArc
 50
0.0
 51
41.40962199999999
  0
LINE
  5
AB4C
330
AABB
100
AcDbEntity
  8
1
  6
Continuous
100
AcDbLine
 10
49.191848
 20
252.975844
 30
0.0
 11
51.241848
 21
252.975844
 31
0.0
  0
ARC
  5
AB4D
330
AABB
100
AcDbEntity
  8
1
  6
Continuous
100
AcDbCircle
 10
83.741848
 20
254.6474169999999
 30
0.0
 40
3.0
100
AcDbArc
 50
0.0
 51
70.528779
  0
ARC
  5
AB4E
330
AABB
100
AcDbEntity
  8
1
  6
Continuous
100
AcDbCircle
 10
-154.2904769999998
 20
234.096729
 30
0.0
 40
250.0
100
AcDbArc
 50
2.248248999999999
 51
12.09705299999999
  0
ARC
  5
AB4F
330
AABB
100
AcDbEntity
  8
1
  6
Continuous
100
AcDbCircle
 10
19.891848
 20
246.786552
 30
0.0
 40
72.29999999999998
100
AcDbArc
 50
0.0
 51
22.704283
  0
ARC
  5
AB50
330
AABB
100
AcDbEntity
  8
1
  6
Continuous
100
AcDbCircle
 10
19.891848
 20
246.786552
 30
0.0
 40
70.0
100
AcDbArc
 50
0.0
 51
22.704283
  0
LINE
  5
AB51
330
AABB
100
AcDbEntity
  8
1
  6
Continuous
100
AcDbLine
 10
88.89184799999998
 20
243.330093
 30
0.0
 11
88.89184799999998
 21
230.621595
 31
0.0
  0
LINE
  5
AB52
330
AABB
100
AcDbEntity
  8
1
  6
Continuous
100
AcDbLine
 10
94.49184800000001
 20
244.475844
 30
0.0
 11
94.49184800000001
 21
229.4758439999998
 31
0.0
  0
LINE
  5
AB53
330
AABB
100
AcDbEntity
  8
1
  6
Continuous
100
AcDbLine
 10
92.19184799999998
 20
246.786552
 30
0.0
 11
92.19184799999998
 21
226.7258439999999
 31
0.0
  0
LINE
  5
AB54
330
AABB
100
AcDbEntity
  8
1
  6
Continuous
100
AcDbLine
 10
89.89184799999998
 20
246.786552
 30
0.0
 11
89.89184799999998
 21
226.7258439999999
 31
0.0
  0
LINE
  5
AB55
330
AABB
100
AcDbEntity
  8
1
  6
Continuous
100
AcDbLine
 10
92.19184799999998
 20
229.4758439999998
 30
0.0
 11
94.49184800000001
 21
229.4758439999998
 31
0.0
  0
ARC
  5
AB56
330
AABB
100
AcDbEntity
  8
1
  6
Continuous
100
AcDbCircle
 10
80.19184799999996
 20
236.975844
 30
0.0
 40
15.5
100
AcDbArc
 50
320.7319739999999
 51
331.0614719999999
  0
ARC
  5
AB57
330
AABB
100
AcDbEntity
  8
1
  6
Continuous
100
AcDbCircle
 10
92.89184799999999
 20
230.621595
 30
0.0
 40
4.0
100
AcDbArc
 50
180.0
 51
221.409622
  0
LINE
  5
AB58
330
AABB
100
AcDbEntity
  8
1
  6
Continuous
100
AcDbLine
 10
89.89184799999998
 20
226.7258439999999
 30
0.0
 11
92.19184799999998
 21
226.7258439999999
 31
0.0
  0
LINE
  5
AB59
330
AABB
100
AcDbEntity
  8
1
  6
Continuous
100
AcDbLine
 10
88.791848
 20
231.000844
 30
0.0
 11
88.89184799999998
 21
231.000844
 31
0.0
  0
LINE
  5
AB5A
330
AABB
100
AcDbEntity
  8
1
  6
Continuous
100
AcDbLine
 10
86.741848
 20
252.975844
 30
0.0
 11
88.791848
 21
252.975844
 31
0.0
  0
ARC
  5
AB5B
330
AABB
100
AcDbEntity
  8
1
  6
Continuous
100
AcDbCircle
 10
80.19184799999996
 20
236.975844
 30
0.0
 40
15.5
100
AcDbArc
 50
28.938528
 51
39.268026
  0
LINE
  5
AB5C
330
AABB
100
AcDbEntity
  8
1
  6
Continuous
100
AcDbLine
 10
92.19184799999998
 20
244.475844
 30
0.0
 11
94.49184800000001
 21
244.475844
 31
0.0
  0
LINE
  5
AB5D
330
AABB
100
AcDbEntity
  8
1
  6
Continuous
100
AcDbLine
 10
88.791848
 20
242.9508439999999
 30
0.0
 11
88.89184799999998
 21
242.9508439999999
 31
0.0
  0
ARC
  5
AB5E
330
AABB
100
AcDbEntity
  8
1
  6
Continuous
100
AcDbCircle
 10
92.89184799999999
 20
243.330093
 30
0.0
 40
4.0
100
AcDbArc
 50
138.5903779999999
 51
180.0
  0
ARC
  5
AB5F
330
AABB
100
AcDbEntity
  8
1
  6
Continuous
100
AcDbCircle
 10
82.64562599999997
 20
251.524558
 30
0.0
 40
30.0
100
AcDbArc
 50
145.264645
 51
168.557979
  0
ARC
  5
AB60
330
AABB
100
AcDbEntity
  8
1
  6
Continuous
100
AcDbCircle
 10
35.06601699999999
 20
281.5243029999999
 30
0.0
 40
20.0
100
AcDbArc
 50
337.2957169999999
 51
355.665181
  0
ARC
  5
AB61
330
AABB
100
AcDbEntity
  8
1
  6
Continuous
100
AcDbCircle
 10
55.338069
 20
251.524558
 30
0.0
 40
30.0
100
AcDbArc
 50
11.44202099999999
 51
34.735352
  0
ARC
  5
AB62
330
AABB
100
AcDbEntity
  8
1
  6
Continuous
100
AcDbCircle
 10
102.917679
 20
281.5243029999999
 30
0.0
 40
17.7
100
AcDbArc
 50
184.334819
 51
202.704283
  0
ARC
  5
AB63
330
AABB
100
AcDbEntity
  8
1
  6
Continuous
100
AcDbCircle
 10
102.917679
 20
281.5243029999999
 30
0.0
 40
20.0
100
AcDbArc
 50
184.334819
 51
202.704283
  0
ARC
  5
AB64
330
AABB
100
AcDbEntity
  8
1
  6
Continuous
100
AcDbCircle
 10
55.68504499999999
 20
305.8758439999999
 30
0.0
 40
3.0
100
AcDbArc
 50
90.0
 51
184.431018
  0
ARC
  5
AB65
330
AABB
100
AcDbEntity
  8
1
  6
Continuous
100
AcDbCircle
 10
56.341961
 20
331.975844
 30
0.0
 40
6.5
100
AcDbArc
 50
90.0
 51
180.0
  0
LINE
  5
AB66
330
AABB
100
AcDbEntity
  8
1
  6
Continuous
100
AcDbLine
 10
49.841961
 20
322.475844
 30
0.0
 11
88.14196099999998
 21
322.475844
 31
0.0
  0
ARC
  5
AB67
330
AABB
100
AcDbEntity
  8
1
  6
Continuous
100
AcDbCircle
 10
52.49196099999998
 20
318.6758439999999
 30
0.0
 40
4.0
100
AcDbArc
 50
108.1948719999999
 51
180.0
  0
LINE
  5
AB68
330
AABB
100
AcDbEntity
  8
1
  6
Continuous
100
AcDbLine
 10
48.49184799999999
 20
318.6758439999999
 30
0.0
 11
48.49184799999999
 21
292.775844
 31
0.0
  0
LINE
  5
AB69
330
AABB
100
AcDbEntity
  8
1
  6
Continuous
100
AcDbLine
 10
49.841961
 20
331.975844
 30
0.0
 11
49.841961
 21
322.475844
 31
0.0
  0
ARC
  5
AB6A
330
AABB
100
AcDbEntity
  8
1
  6
Continuous
100
AcDbCircle
 10
85.49196100000001
 20
318.6758439999999
 30
0.0
 40
4.0
100
AcDbArc
 50
0.0
 51
71.80512799999998
  0
LINE
  5
AB6B
330
AABB
100
AcDbEntity
  8
1
  6
Continuous
100
AcDbLine
 10
55.68504499999999
 20
308.8758439999998
 30
0.0
 11
61.33755
 21
308.8758439999998
 31
0.0
  0
ARC
  5
AB6C
330
AABB
100
AcDbEntity
  8
1
  6
Continuous
100
AcDbCircle
 10
57.99184799999999
 20
305.8758439999999
 30
0.0
 40
3.0
100
AcDbArc
 50
90.0
 51
184.3716019999999
  0
LINE
  5
AB6D
330
AABB
100
AcDbEntity
  8
1
  6
Continuous
100
AcDbLine
 10
89.49184800000002
 20
318.6758439999999
 30
0.0
 11
89.49184800000002
 21
292.775844
 31
0.0
  0
ARC
  5
AB6E
330
AABB
100
AcDbEntity
  8
1
  6
Continuous
100
AcDbCircle
 10
79.991848
 20
305.8758439999999
 30
0.0
 40
3.0
100
AcDbArc
 50
355.6283979999999
 51
90.0
  0
LINE
  5
AB6F
330
AABB
100
AcDbEntity
  8
1
  6
Continuous
100
AcDbLine
 10
76.646371
 20
308.8758439999998
 30
0.0
 11
82.29864999999998
 21
308.8758439999998
 31
0.0
  0
ARC
  5
AB70
330
AABB
100
AcDbEntity
  8
1
  6
Continuous
100
AcDbCircle
 10
82.29864999999998
 20
305.8758439999999
 30
0.0
 40
3.0
100
AcDbArc
 50
355.568982
 51
90.0
  0
LINE
  5
AB71
330
AABB
100
AcDbEntity
  8
1
  6
Continuous
100
AcDbLine
 10
56.341961
 20
338.475844
 30
0.0
 11
81.64196099999998
 21
338.475844
 31
0.0
  0
ARC
  5
AB72
330
AABB
100
AcDbEntity
  8
1
  6
Continuous
100
AcDbCircle
 10
81.64196099999998
 20
331.975844
 30
0.0
 40
6.5
100
AcDbArc
 50
0.0
 51
90.0
  0
LINE
  5
AB73
330
AABB
100
AcDbEntity
  8
1
  6
Continuous
100
AcDbLine
 10
88.14196099999998
 20
331.975844
 30
0.0
 11
88.14196099999998
 21
322.475844
 31
0.0
  0
LINE
  5
AB74
330
AABB
100
AcDbEntity
  8
1
  6
Continuous
100
AcDbLine
 10
43.49184799999998
 20
244.475844
 30
0.0
 11
43.49184799999998
 21
229.4758439999998
 31
0.0
  0
LINE
  5
AB75
330
AABB
100
AcDbEntity
  8
1
  6
Continuous
100
AcDbLine
 10
43.49184799999998
 20
243.904048
 30
0.0
 11
43.49184799999998
 21
230.047641
 31
0.0
  0
ARC
  5
AB76
330
AABB
100
AcDbEntity
  8
1
  6
Continuous
100
AcDbCircle
 10
49.45594899999999
 20
236.975844
 30
0.0
 40
11.464102
100
AcDbArc
 50
162.412046
 51
197.5879539999999
  0
LINE
  5
AB77
330
AABB
100
AcDbEntity
  8
1
  6
Continuous
100
AcDbLine
 10
37.99184799999999
 20
242.975844
 30
0.0
 11
37.99184799999999
 21
230.9758439999999
 31
0.0
  0
LINE
  5
AB78
330
AABB
100
AcDbEntity
  8
1
  6
Continuous
100
AcDbLine
 10
43.49184799999998
 20
229.4758439999998
 30
0.0
 11
45.791848
 21
229.4758439999998
 31
0.0
  0
LINE
  5
AB79
330
AABB
100
AcDbEntity
  8
1
  6
Continuous
100
AcDbLine
 10
38.527746
 20
233.511743
 30
0.0
 11
43.49184799999998
 21
233.511743
 31
0.0
  0
LINE
  5
AB7A
330
AABB
100
AcDbEntity
  8
1
  6
Continuous
100
AcDbLine
 10
38.527746
 20
230.047641
 30
0.0
 11
37.99184799999999
 21
230.9758439999999
 31
0.0
  0
LINE
  5
AB7B
330
AABB
100
AcDbEntity
  8
1
  6
Continuous
100
AcDbLine
 10
38.527746
 20
230.047641
 30
0.0
 11
43.49184799999998
 21
230.047641
 31
0.0
  0
ARC
  5
AB7C
330
AABB
100
AcDbEntity
  8
1
  6
Continuous
100
AcDbCircle
 10
41.058835
 20
231.7796919999999
 30
0.0
 40
3.066986999999998
100
AcDbArc
 50
145.615753
 51
205.615753
  0
LINE
  5
AB7D
330
AABB
100
AcDbEntity
  8
1
  6
Continuous
100
AcDbLine
 10
43.49184799999998
 20
244.475844
 30
0.0
 11
45.791848
 21
244.475844
 31
0.0
  0
LINE
  5
AB7E
330
AABB
100
AcDbEntity
  8
1
  6
Continuous
100
AcDbLine
 10
38.527746
 20
243.904048
 30
0.0
 11
37.99184799999999
 21
242.975844
 31
0.0
  0
ARC
  5
AB7F
330
AABB
100
AcDbEntity
  8
1
  6
Continuous
100
AcDbCircle
 10
41.058835
 20
242.171997
 30
0.0
 40
3.066986999999998
100
AcDbArc
 50
154.3842469999999
 51
214.384247
  0
LINE
  5
AB80
330
AABB
100
AcDbEntity
  8
1
  6
Continuous
100
AcDbLine
 10
38.527746
 20
243.904048
 30
0.0
 11
43.49184799999998
 21
243.904048
 31
0.0
  0
LINE
  5
AB81
330
AABB
100
AcDbEntity
  8
1
  6
Continuous
100
AcDbLine
 10
38.527746
 20
240.439946
 30
0.0
 11
43.49184799999998
 21
240.439946
 31
0.0
  0
LINE
  5
AB82
330
AABB
100
AcDbEntity
  8
1
  6
Continuous
100
AcDbLine
 10
99.49184800000001
 20
242.975844
 30
0.0
 11
99.49184800000001
 21
230.9758439999999
 31
0.0
  0
LINE
  5
AB83
330
AABB
100
AcDbEntity
  8
1
  6
Continuous
100
AcDbLine
 10
100.991848
 20
239.9758439999998
 30
0.0
 11
100.991848
 21
233.975844
 31
0.0
  0
ARC
  5
AB84
330
AABB
100
AcDbEntity
  8
1
  6
Continuous
100
AcDbCircle
 10
88.02774599999997
 20
236.975844
 30
0.0
 40
11.464102
100
AcDbArc
 50
342.4120459999999
 51
17.587954
  0
LINE
  5
AB85
330
AABB
100
AcDbEntity
  8
1
  6
Continuous
100
AcDbLine
 10
94.49184800000001
 20
242.975844
 30
0.0
 11
94.49184800000001
 21
230.9758439999999
 31
0.0
  0
ARC
  5
AB86
330
AABB
100
AcDbEntity
  8
1
  6
Continuous
100
AcDbCircle
 10
105.955949
 20
236.975844
 30
0.0
 40
11.464102
100
AcDbArc
 50
162.412046
 51
197.5879539999999
  0
LINE
  5
AB87
330
AABB
100
AcDbEntity
  8
1
  6
Continuous
100
AcDbLine
 10
95.027746
 20
230.047641
 30
0.0
 11
98.955949
 21
230.047641
 31
0.0
  0
LINE
  5
AB88
330
AABB
100
AcDbEntity
  8
1
  6
Continuous
100
AcDbLine
 10
95.027746
 20
233.511743
 30
0.0
 11
98.955949
 21
233.511743
 31
0.0
  0
ARC
  5
AB89
330
AABB
100
AcDbEntity
  8
1
  6
Continuous
100
AcDbCircle
 10
97.55883500000001
 20
231.7796919999999
 30
0.0
 40
3.066986999999998
100
AcDbArc
 50
145.615753
 51
214.384247
  0
ARC
  5
AB8A
330
AABB
100
AcDbEntity
  8
1
  6
Continuous
100
AcDbCircle
 10
96.42485999999999
 20
231.7796919999999
 30
0.0
 40
3.066986999999998
100
AcDbArc
 50
334.384247
 51
34.38424699999998
  0
LINE
  5
AB8B
330
AABB
100
AcDbEntity
  8
1
  6
Continuous
100
AcDbLine
 10
98.955949
 20
230.047641
 30
0.0
 11
99.49184800000001
 21
230.9758439999999
 31
0.0
  0
LINE
  5
AB8C
330
AABB
100
AcDbEntity
  8
1
  6
Continuous
100
AcDbLine
 10
99.99184800000001
 20
232.9758439999999
 30
0.0
 11
100.991848
 21
233.975844
 31
0.0
  0
LINE
  5
AB8D
330
AABB
100
AcDbEntity
  8
1
  6
Continuous
100
AcDbLine
 10
99.49184800000001
 20
232.9758439999999
 30
0.0
 11
99.99184800000001
 21
232.9758439999999
 31
0.0
  0
LINE
  5
AB8E
330
AABB
100
AcDbEntity
  8
2
  6
Continuous
100
AcDbLine
 10
99.49184800000001
 20
233.652344
 30
0.0
 11
100.6683479999999
 21
233.652344
 31
0.0
  0
LINE
  5
AB8F
330
AABB
100
AcDbEntity
  8
1
  6
Continuous
100
AcDbLine
 10
95.027746
 20
240.439946
 30
0.0
 11
98.955949
 21
240.439946
 31
0.0
  0
LINE
  5
AB90
330
AABB
100
AcDbEntity
  8
1
  6
Continuous
100
AcDbLine
 10
95.027746
 20
243.904048
 30
0.0
 11
98.955949
 21
243.904048
 31
0.0
  0
ARC
  5
AB91
330
AABB
100
AcDbEntity
  8
1
  6
Continuous
100
AcDbCircle
 10
97.55883500000001
 20
242.171997
 30
0.0
 40
3.066986999999998
100
AcDbArc
 50
145.615753
 51
214.384247
  0
LINE
  5
AB92
330
AABB
100
AcDbEntity
  8
2
  6
Continuous
100
AcDbLine
 10
99.49184800000001
 20
240.2993439999999
 30
0.0
 11
100.6683479999999
 21
240.2993439999999
 31
0.0
  0
LINE
  5
AB93
330
AABB
100
AcDbEntity
  8
1
  6
Continuous
100
AcDbLine
 10
99.99184800000001
 20
240.975844
 30
0.0
 11
100.991848
 21
239.9758439999998
 31
0.0
  0
LINE
  5
AB94
330
AABB
100
AcDbEntity
  8
1
  6
Continuous
100
AcDbLine
 10
99.49184800000001
 20
240.975844
 30
0.0
 11
99.99184800000001
 21
240.975844
 31
0.0
  0
ARC
  5
AB95
330
AABB
100
AcDbEntity
  8
1
  6
Continuous
100
AcDbCircle
 10
96.42485999999999
 20
242.171997
 30
0.0
 40
3.066986999999998
100
AcDbArc
 50
325.6157529999999
 51
25.615753
  0
LINE
  5
AB96
330
AABB
100
AcDbEntity
  8
1
  6
Continuous
100
AcDbLine
 10
98.955949
 20
243.904048
 30
0.0
 11
99.49184800000001
 21
242.975844
 31
0.0
  0
LINE
  5
AB97
330
AABB
100
AcDbEntity
  8
1
  6
Continuous
100
AcDbLine
 10
249.9334779999998
 20
512.301908
 30
0.0
 11
261.9334779999999
 21
512.301908
 31
0.0
  0
LINE
  5
AB98
330
AABB
100
AcDbEntity
  8
1
  6
Continuous
100
AcDbLine
 10
263.4334779999999
 20
512.301908
 30
0.0
 11
248.4334779999998
 21
512.301908
 31
0.0
  0
LINE
  5
AB99
330
AABB
100
AcDbEntity
  8
1
  6
Continuous
100
AcDbLine
 10
248.4334779999998
 20
512.301908
 30
0.0
 11
248.4334779999998
 21
510.001908
 31
0.0
  0
LINE
  5
AB9A
330
AABB
100
AcDbEntity
  8
1
  6
Continuous
100
AcDbLine
 10
263.4334779999999
 20
512.301908
 30
0.0
 11
263.4334779999999
 21
511.669192
 31
0.0
  0
LINE
  5
AB9B
330
AABB
100
AcDbEntity
  8
1
  6
Continuous
100
AcDbLine
 10
261.9334779999999
 20
517.801908
 30
0.0
 11
249.9334779999998
 21
517.801908
 31
0.0
  0
ARC
  5
AB9C
330
AABB
100
AcDbEntity
  8
1
  6
Continuous
100
AcDbCircle
 10
258.9334779999999
 20
509.136845
 30
0.0
 40
8.665063999999999
100
AcDbArc
 50
69.743842
 51
110.256158
  0
LINE
  5
AB9D
330
AABB
100
AcDbEntity
  8
1
  6
Continuous
100
AcDbLine
 10
261.9334779999999
 20
512.301908
 30
0.0
 11
261.9334779999999
 21
517.801908
 31
0.0
  0
LINE
  5
AB9E
330
AABB
100
AcDbEntity
  8
1
  6
Continuous
100
AcDbLine
 10
249.9334779999998
 20
512.301908
 30
0.0
 11
249.9334779999998
 21
517.801908
 31
0.0
  0
ARC
  5
AB9F
330
AABB
100
AcDbEntity
  8
1
  6
Continuous
100
AcDbCircle
 10
252.9334779999998
 20
509.136845
 30
0.0
 40
8.665063999999999
100
AcDbArc
 50
69.743842
 51
110.256158
  0
LINE
  5
ABA0
330
AABB
100
AcDbEntity
  8
1
  6
Continuous
100
AcDbLine
 10
255.9334779999999
 20
517.2660099999999
 30
0.0
 11
255.9334779999999
 21
512.301908
 31
0.0
  0
LINE
  5
ABA1
330
AABB
100
AcDbEntity
  8
1
  6
Continuous
100
AcDbLine
 10
258.9334779999999
 20
454.801908
 30
0.0
 11
252.9334779999998
 21
454.801908
 31
0.0
  0
LINE
  5
ABA2
330
AABB
100
AcDbEntity
  8
1
  6
Continuous
100
AcDbLine
 10
261.9334779999999
 20
456.301908
 30
0.0
 11
249.9334779999998
 21
456.301908
 31
0.0
  0
ARC
  5
ABA3
330
AABB
100
AcDbEntity
  8
1
  6
Continuous
100
AcDbCircle
 10
258.9334779999999
 20
464.966972
 30
0.0
 40
8.665063999999999
100
AcDbArc
 50
249.7438419999999
 51
290.256158
  0
LINE
  5
ABA4
330
AABB
100
AcDbEntity
  8
1
  6
Continuous
100
AcDbLine
 10
252.609978
 20
456.301908
 30
0.0
 11
252.609978
 21
455.1254079999998
 31
0.0
  0
LINE
  5
ABA5
330
AABB
100
AcDbEntity
  8
1
  6
Continuous
100
AcDbLine
 10
251.9334779999998
 20
456.301908
 30
0.0
 11
251.9334779999998
 21
455.801908
 31
0.0
  0
LINE
  5
ABA6
330
AABB
100
AcDbEntity
  8
1
  6
Continuous
100
AcDbLine
 10
251.9334779999998
 20
455.801908
 30
0.0
 11
252.9334779999998
 21
454.801908
 31
0.0
  0
ARC
  5
ABA7
330
AABB
100
AcDbEntity
  8
1
  6
Continuous
100
AcDbCircle
 10
252.9334779999998
 20
464.966972
 30
0.0
 40
8.665063999999999
100
AcDbArc
 50
249.7438419999999
 51
290.256158
  0
LINE
  5
ABA8
330
AABB
100
AcDbEntity
  8
1
  6
Continuous
100
AcDbLine
 10
255.9334779999999
 20
460.7660099999998
 30
0.0
 11
255.9334779999999
 21
456.837807
 31
0.0
  0
LINE
  5
ABA9
330
AABB
100
AcDbEntity
  8
1
  6
Continuous
100
AcDbLine
 10
249.9334779999998
 20
456.301908
 30
0.0
 11
249.9334779999998
 21
461.3019079999999
 31
0.0
  0
LINE
  5
ABAA
330
AABB
100
AcDbEntity
  8
2
  6
Continuous
100
AcDbLine
 10
259.256978
 20
456.301908
 30
0.0
 11
259.256978
 21
455.1254079999998
 31
0.0
  0
LINE
  5
ABAB
330
AABB
100
AcDbEntity
  8
1
  6
Continuous
100
AcDbLine
 10
259.9334779999999
 20
455.801908
 30
0.0
 11
258.9334779999999
 21
454.801908
 31
0.0
  0
LINE
  5
ABAC
330
AABB
100
AcDbEntity
  8
1
  6
Continuous
100
AcDbLine
 10
259.9334779999999
 20
456.301908
 30
0.0
 11
259.9334779999999
 21
455.801908
 31
0.0
  0
LINE
  5
ABAD
330
AABB
100
AcDbEntity
  8
1
  6
Continuous
100
AcDbLine
 10
261.9334779999999
 20
456.301908
 30
0.0
 11
261.9334779999999
 21
461.3019079999999
 31
0.0
  0
ARC
  5
ABAE
330
AABB
100
AcDbEntity
  8
1
  6
Continuous
100
AcDbCircle
 10
252.9334779999998
 20
452.6368449999998
 30
0.0
 40
8.665063999999999
100
AcDbArc
 50
69.743842
 51
110.256158
  0
ARC
  5
ABAF
330
AABB
100
AcDbEntity
  8
1
  6
Continuous
100
AcDbCircle
 10
258.9334779999999
 20
452.6368449999998
 30
0.0
 40
8.665063999999999
100
AcDbArc
 50
69.743842
 51
110.256158
  0
LINE
  5
ABB0
330
AABB
100
AcDbEntity
  8
1
  6
Continuous
100
AcDbLine
 10
261.9334779999999
 20
461.3019079999999
 30
0.0
 11
249.9334779999998
 21
461.3019079999999
 31
0.0
  0
LINE
  5
ABB1
330
AABB
100
AcDbEntity
  8
1
  6
Continuous
100
AcDbLine
 10
248.4334779999998
 20
463.6019079999998
 30
0.0
 11
248.4334779999998
 21
461.3019079999999
 31
0.0
  0
LINE
  5
ABB2
330
AABB
100
AcDbEntity
  8
1
  6
Continuous
100
AcDbLine
 10
263.4334779999999
 20
461.934524
 30
0.0
 11
263.4334779999999
 21
461.3019079999999
 31
0.0
  0
LINE
  5
ABB3
330
AABB
100
AcDbEntity
  8
1
  6
Continuous
100
AcDbLine
 10
263.4334779999999
 20
461.3019079999999
 30
0.0
 11
248.4334779999998
 21
461.3019079999999
 31
0.0
  0
ARC
  5
ABB4
330
AABB
100
AcDbEntity
  8
1
  6
Continuous
100
AcDbCircle
 10
686.158185
 20
234.096729
 30
0.0
 40
250.0
100
AcDbArc
 50
167.9029469999998
 51
177.751751
  0
ARC
  5
ABB5
330
AABB
100
AcDbEntity
  8
1
  6
Continuous
100
AcDbCircle
 10
239.593535
 20
234.096729
 30
0.0
 40
250.0
100
AcDbArc
 50
2.248248999999999
 51
12.09705299999999
  0
LINE
  5
ABB6
330
AABB
100
AcDbEntity
  8
4
  6
CENTER
100
AcDbLine
 10
462.875747
 20
423.546607
 30
0.0
 11
462.875747
 21
156.2480909999998
 31
0.0
  0
ARC
  5
ABB7
330
AABB
100
AcDbEntity
  8
1
  6
Continuous
100
AcDbCircle
 10
476.5296389999998
 20
251.524558
 30
0.0
 40
30.0
100
AcDbArc
 50
145.264648
 51
168.557979
  0
ARC
  5
ABB8
330
AABB
100
AcDbEntity
  8
1
  6
Continuous
100
AcDbCircle
 10
476.5296389999998
 20
222.4271299999998
 30
0.0
 40
30.0
100
AcDbArc
 50
191.4420209999999
 51
214.735352
  0
LINE
  5
ABB9
330
AABB
100
AcDbEntity
  8
4
  6
CENTER
100
AcDbLine
 10
499.6885879999998
 20
236.975844
 30
0.0
 11
425.6741579999999
 21
236.975844
 31
0.0
  0
LINE
  5
ABBA
330
AABB
100
AcDbEntity
  8
1
  6
Continuous
100
AcDbLine
 10
493.8758599999998
 20
242.975844
 30
0.0
 11
493.8758599999998
 21
230.9758439999999
 31
0.0
  0
ARC
  5
ABBB
330
AABB
100
AcDbEntity
  8
1
  6
Continuous
100
AcDbCircle
 10
482.411758
 20
236.975844
 30
0.0
 40
11.464102
100
AcDbArc
 50
342.4120459999999
 51
17.587954
  0
LINE
  5
ABBC
330
AABB
100
AcDbEntity
  8
1
  6
Continuous
100
AcDbLine
 10
488.37586
 20
233.531544
 30
0.0
 11
488.37586
 21
230.047641
 31
0.0
  0
LINE
  5
ABBD
330
AABB
100
AcDbEntity
  8
1
  6
Continuous
100
AcDbLine
 10
488.37586
 20
233.531544
 30
0.0
 11
488.37586
 21
229.4758439999998
 31
0.0
  0
LINE
  5
ABBE
330
AABB
100
AcDbEntity
  8
1
  6
Continuous
100
AcDbLine
 10
483.7758599999999
 20
246.786552
 30
0.0
 11
483.7758599999999
 21
226.7258439999999
 31
0.0
  0
LINE
  5
ABBF
330
AABB
100
AcDbEntity
  8
1
  6
Continuous
100
AcDbLine
 10
486.0758599999998
 20
246.786552
 30
0.0
 11
486.0758599999998
 21
226.7258439999999
 31
0.0
  0
LINE
  5
ABC0
330
AABB
100
AcDbEntity
  8
1
  6
Continuous
100
AcDbLine
 10
482.77586
 20
243.330093
 30
0.0
 11
482.77586
 21
230.621595
 31
0.0
  0
LINE
  5
ABC1
330
AABB
100
AcDbEntity
  8
1
  6
Continuous
100
AcDbLine
 10
480.6258599999998
 20
254.6474169999999
 30
0.0
 11
480.6258599999998
 21
219.3042709999998
 31
0.0
  0
LINE
  5
ABC2
330
AABB
100
AcDbEntity
  8
1
  6
Continuous
100
AcDbLine
 10
478.62586
 20
257.475844
 30
0.0
 11
478.62586
 21
216.4758439999999
 31
0.0
  0
LINE
  5
ABC3
330
AABB
100
AcDbEntity
  8
1
  6
Continuous
100
AcDbLine
 10
482.6758599999998
 20
220.9758439999998
 30
0.0
 11
482.6758599999998
 21
252.975844
 31
0.0
  0
LINE
  5
ABC4
330
AABB
100
AcDbEntity
  8
1
  6
Continuous
100
AcDbLine
 10
482.6758599999998
 20
220.9758439999998
 30
0.0
 11
480.6258599999998
 21
220.9758439999998
 31
0.0
  0
ARC
  5
ABC5
330
AABB
100
AcDbEntity
  8
1
  6
Continuous
100
AcDbCircle
 10
490.8088719999998
 20
231.7796919999999
 30
0.0
 40
3.066986999999998
100
AcDbArc
 50
334.384247
 51
34.38424699999998
  0
LINE
  5
ABC6
330
AABB
100
AcDbEntity
  8
1
  6
Continuous
100
AcDbLine
 10
493.339961
 20
230.047641
 30
0.0
 11
488.37586
 21
230.047641
 31
0.0
  0
LINE
  5
ABC7
330
AABB
100
AcDbEntity
  8
1
  6
Continuous
100
AcDbLine
 10
493.339961
 20
230.047641
 30
0.0
 11
493.8758599999998
 21
230.9758439999999
 31
0.0
  0
LINE
  5
ABC8
330
AABB
100
AcDbEntity
  8
1
  6
Continuous
100
AcDbLine
 10
493.339961
 20
233.511743
 30
0.0
 11
488.37586
 21
233.511743
 31
0.0
  0
LINE
  5
ABC9
330
AABB
100
AcDbEntity
  8
1
  6
Continuous
100
AcDbLine
 10
488.37586
 20
229.4758439999998
 30
0.0
 11
487.6405199999998
 21
229.4758439999998
 31
0.0
  0
LINE
  5
ABCA
330
AABB
100
AcDbEntity
  8
1
  6
Continuous
100
AcDbLine
 10
482.77586
 20
231.000844
 30
0.0
 11
482.6758599999998
 21
231.000844
 31
0.0
  0
ARC
  5
ABCB
330
AABB
100
AcDbEntity
  8
1
  6
Continuous
100
AcDbCircle
 10
486.77586
 20
230.621595
 30
0.0
 40
4.0
100
AcDbArc
 50
180.0
 51
221.409622
  0
ARC
  5
ABCC
330
AABB
100
AcDbEntity
  8
1
  6
Continuous
100
AcDbCircle
 10
474.0758599999998
 20
236.975844
 30
0.0
 40
15.5
100
AcDbArc
 50
320.7319739999999
 51
331.0614719999999
  0
LINE
  5
ABCD
330
AABB
100
AcDbEntity
  8
1
  6
Continuous
100
AcDbLine
 10
486.0758599999998
 20
226.7258439999999
 30
0.0
 11
483.7758599999999
 21
226.7258439999999
 31
0.0
  0
ARC
  5
ABCE
330
AABB
100
AcDbEntity
  8
1
  6
Continuous
100
AcDbCircle
 10
477.62586
 20
219.3042709999998
 30
0.0
 40
3.0
100
AcDbArc
 50
289.471221
 51
0.0
  0
ARC
  5
ABCF
330
AABB
100
AcDbEntity
  8
1
  6
Continuous
100
AcDbCircle
 10
449.222082
 20
222.4271299999998
 30
0.0
 40
30.0
100
AcDbArc
 50
325.2646449999998
 51
348.557979
  0
LINE
  5
ABD0
330
AABB
100
AcDbEntity
  8
1
  6
Continuous
100
AcDbLine
 10
482.6758599999998
 20
252.975844
 30
0.0
 11
480.6258599999998
 21
252.975844
 31
0.0
  0
ARC
  5
ABD1
330
AABB
100
AcDbEntity
  8
1
  6
Continuous
100
AcDbCircle
 10
413.77586
 20
246.786552
 30
0.0
 40
72.29999999999998
100
AcDbArc
 50
0.0
 51
22.704283
  0
ARC
  5
ABD2
330
AABB
100
AcDbEntity
  8
1
  6
Continuous
100
AcDbCircle
 10
413.77586
 20
246.786552
 30
0.0
 40
70.0
100
AcDbArc
 50
0.0
 51
22.704283
  0
LINE
  5
ABD3
330
AABB
100
AcDbEntity
  8
1
  6
Continuous
100
AcDbLine
 10
493.339961
 20
240.439946
 30
0.0
 11
489.193472
 21
240.439946
 31
0.0
  0
LINE
  5
ABD4
330
AABB
100
AcDbEntity
  8
1
  6
Continuous
100
AcDbLine
 10
493.339961
 20
243.904048
 30
0.0
 11
489.401094
 21
243.904048
 31
0.0
  0
ARC
  5
ABD5
330
AABB
100
AcDbEntity
  8
1
  6
Continuous
100
AcDbCircle
 10
490.8088719999998
 20
242.171997
 30
0.0
 40
3.066986999999998
100
AcDbArc
 50
325.6157529999999
 51
25.615753
  0
LINE
  5
ABD6
330
AABB
100
AcDbEntity
  8
1
  6
Continuous
100
AcDbLine
 10
493.339961
 20
243.904048
 30
0.0
 11
493.8758599999998
 21
242.975844
 31
0.0
  0
ARC
  5
ABD7
330
AABB
100
AcDbEntity
  8
1
  6
Continuous
100
AcDbCircle
 10
486.77586
 20
243.330093
 30
0.0
 40
4.0
100
AcDbArc
 50
138.5903779999999
 51
180.0
  0
LINE
  5
ABD8
330
AABB
100
AcDbEntity
  8
1
  6
Continuous
100
AcDbLine
 10
482.77586
 20
242.9508439999999
 30
0.0
 11
482.6758599999998
 21
242.9508439999999
 31
0.0
  0
ARC
  5
ABD9
330
AABB
100
AcDbEntity
  8
1
  6
Continuous
100
AcDbCircle
 10
449.222082
 20
251.524558
 30
0.0
 40
30.0
100
AcDbArc
 50
11.44202099999999
 51
34.735355
  0
ARC
  5
ABDA
330
AABB
100
AcDbEntity
  8
1
  6
Continuous
100
AcDbCircle
 10
477.62586
 20
254.6474169999999
 30
0.0
 40
3.0
100
AcDbArc
 50
0.0
 51
70.528779
  0
ARC
  5
ABDB
330
AABB
100
AcDbEntity
  8
1
  6
Continuous
100
AcDbCircle
 10
496.801691
 20
281.5243029999999
 30
0.0
 40
17.7
100
AcDbArc
 50
184.334819
 51
202.704283
  0
ARC
  5
ABDC
330
AABB
100
AcDbEntity
  8
1
  6
Continuous
100
AcDbCircle
 10
496.801691
 20
281.5243029999999
 30
0.0
 40
20.0
100
AcDbArc
 50
184.334819
 51
202.704283
  0
ARC
  5
ABDD
330
AABB
100
AcDbEntity
  8
1
  6
Continuous
100
AcDbCircle
 10
425.9117579999998
 20
236.975844
 30
0.0
 40
11.464102
100
AcDbArc
 50
342.4120459999999
 51
349.3229129999999
  0
LINE
  5
ABDE
330
AABB
100
AcDbEntity
  8
1
  6
Continuous
100
AcDbLine
 10
437.37586
 20
233.5301109999999
 30
0.0
 11
437.37586
 21
230.9758439999999
 31
0.0
  0
ARC
  5
ABDF
330
AABB
100
AcDbEntity
  8
1
  6
Continuous
100
AcDbCircle
 10
443.839961
 20
236.975844
 30
0.0
 40
11.464102
100
AcDbArc
 50
162.412046
 51
197.5879539999999
  0
LINE
  5
ABE0
330
AABB
100
AcDbEntity
  8
1
  6
Continuous
100
AcDbLine
 10
430.8758599999999
 20
239.9758439999998
 30
0.0
 11
430.8758599999999
 21
233.975844
 31
0.0
  0
LINE
  5
ABE1
330
AABB
100
AcDbEntity
  8
1
  6
Continuous
100
AcDbLine
 10
432.3758599999998
 20
242.975844
 30
0.0
 11
432.3758599999998
 21
230.9758439999999
 31
0.0
  0
LINE
  5
ABE2
330
AABB
100
AcDbEntity
  8
1
  6
Continuous
100
AcDbLine
 10
441.9758599999998
 20
246.786552
 30
0.0
 11
441.9758599999998
 21
226.7258439999999
 31
0.0
  0
LINE
  5
ABE3
330
AABB
100
AcDbEntity
  8
1
  6
Continuous
100
AcDbLine
 10
439.6758599999998
 20
246.786552
 30
0.0
 11
439.6758599999998
 21
226.7258439999999
 31
0.0
  0
LINE
  5
ABE4
330
AABB
100
AcDbEntity
  8
1
  6
Continuous
100
AcDbLine
 10
437.37586
 20
233.5301109999999
 30
0.0
 11
437.37586
 21
229.4758439999998
 31
0.0
  0
LINE
  5
ABE5
330
AABB
100
AcDbEntity
  8
1
  6
Continuous
100
AcDbLine
 10
442.9758599999998
 20
243.330093
 30
0.0
 11
442.9758599999998
 21
230.621595
 31
0.0
  0
LINE
  5
ABE6
330
AABB
100
AcDbEntity
  8
1
  6
Continuous
100
AcDbLine
 10
445.12586
 20
254.6474169999999
 30
0.0
 11
445.12586
 21
219.3042709999998
 31
0.0
  0
LINE
  5
ABE7
330
AABB
100
AcDbEntity
  8
1
  6
Continuous
100
AcDbLine
 10
447.1258599999998
 20
257.475844
 30
0.0
 11
447.1258599999998
 21
216.4758439999999
 31
0.0
  0
LINE
  5
ABE8
330
AABB
100
AcDbEntity
  8
1
  6
Continuous
100
AcDbLine
 10
443.0758599999998
 20
220.9758439999998
 30
0.0
 11
443.0758599999998
 21
252.975844
 31
0.0
  0
ARC
  5
ABE9
330
AABB
100
AcDbEntity
  8
1
  6
Continuous
100
AcDbCircle
 10
448.12586
 20
219.3042709999998
 30
0.0
 40
3.0
100
AcDbArc
 50
180.0
 51
250.5287789999999
  0
LINE
  5
ABEA
330
AABB
100
AcDbEntity
  8
1
  6
Continuous
100
AcDbLine
 10
436.8399609999998
 20
233.511743
 30
0.0
 11
432.911758
 21
233.511743
 31
0.0
  0
LINE
  5
ABEB
330
AABB
100
AcDbEntity
  8
1
  6
Continuous
100
AcDbLine
 10
436.8399609999998
 20
230.047641
 30
0.0
 11
432.911758
 21
230.047641
 31
0.0
  0
ARC
  5
ABEC
330
AABB
100
AcDbEntity
  8
1
  6
Continuous
100
AcDbCircle
 10
434.3088719999998
 20
231.7796919999999
 30
0.0
 40
3.066986999999998
100
AcDbArc
 50
325.6157529999999
 51
34.38424699999998
  0
LINE
  5
ABED
330
AABB
100
AcDbEntity
  8
1
  6
Continuous
100
AcDbLine
 10
443.0758599999998
 20
231.000844
 30
0.0
 11
442.9758599999998
 21
231.000844
 31
0.0
  0
LINE
  5
ABEE
330
AABB
100
AcDbEntity
  8
1
  6
Continuous
100
AcDbLine
 10
441.9758599999998
 20
226.7258439999999
 30
0.0
 11
439.6758599999998
 21
226.7258439999999
 31
0.0
  0
ARC
  5
ABEF
330
AABB
100
AcDbEntity
  8
1
  6
Continuous
100
AcDbCircle
 10
438.9758599999998
 20
230.621595
 30
0.0
 40
4.0
100
AcDbArc
 50
318.5903779999998
 51
0.0
  0
ARC
  5
ABF0
330
AABB
100
AcDbEntity
  8
1
  6
Continuous
100
AcDbCircle
 10
451.6758599999998
 20
236.975844
 30
0.0
 40
15.5
100
AcDbArc
 50
208.9385279999999
 51
219.2680259999999
  0
LINE
  5
ABF1
330
AABB
100
AcDbEntity
  8
1
  6
Continuous
100
AcDbLine
 10
438.1111999999998
 20
229.4758439999998
 30
0.0
 11
437.37586
 21
229.4758439999998
 31
0.0
  0
LINE
  5
ABF2
330
AABB
100
AcDbEntity
  8
1
  6
Continuous
100
AcDbLine
 10
445.12586
 20
220.9758439999998
 30
0.0
 11
443.0758599999998
 21
220.9758439999998
 31
0.0
  0
LINE
  5
ABF3
330
AABB
100
AcDbEntity
  8
2
  6
Continuous
100
AcDbLine
 10
432.3758599999998
 20
233.652344
 30
0.0
 11
431.19936
 21
233.652344
 31
0.0
  0
LINE
  5
ABF4
330
AABB
100
AcDbEntity
  8
1
  6
Continuous
100
AcDbLine
 10
432.3758599999998
 20
232.9758439999999
 30
0.0
 11
431.8758599999998
 21
232.9758439999999
 31
0.0
  0
LINE
  5
ABF5
330
AABB
100
AcDbEntity
  8
1
  6
Continuous
100
AcDbLine
 10
431.8758599999998
 20
232.9758439999999
 30
0.0
 11
430.8758599999999
 21
233.975844
 31
0.0
  0
LINE
  5
ABF6
330
AABB
100
AcDbEntity
  8
1
  6
Continuous
100
AcDbLine
 10
432.911758
 20
230.047641
 30
0.0
 11
432.3758599999998
 21
230.9758439999999
 31
0.0
  0
ARC
  5
ABF7
330
AABB
100
AcDbEntity
  8
1
  6
Continuous
100
AcDbCircle
 10
435.442847
 20
231.7796919999999
 30
0.0
 40
3.066986999999998
100
AcDbArc
 50
145.615753
 51
205.615753
  0
ARC
  5
ABF8
330
AABB
100
AcDbEntity
  8
1
  6
Continuous
100
AcDbCircle
 10
511.9758599999998
 20
246.786552
 30
0.0
 40
70.0
100
AcDbArc
 50
157.295717
 51
180.0
  0
ARC
  5
ABF9
330
AABB
100
AcDbEntity
  8
1
  6
Continuous
100
AcDbCircle
 10
511.9758599999998
 20
246.786552
 30
0.0
 40
72.29999999999998
100
AcDbArc
 50
157.295717
 51
180.0
  0
LINE
  5
ABFA
330
AABB
100
AcDbEntity
  8
1
  6
Continuous
100
AcDbLine
 10
436.3503999999998
 20
243.904048
 30
0.0
 11
432.911758
 21
243.904048
 31
0.0
  0
LINE
  5
ABFB
330
AABB
100
AcDbEntity
  8
1
  6
Continuous
100
AcDbLine
 10
436.558021
 20
240.439946
 30
0.0
 11
432.911758
 21
240.439946
 31
0.0
  0
ARC
  5
ABFC
330
AABB
100
AcDbEntity
  8
1
  6
Continuous
100
AcDbCircle
 10
448.12586
 20
254.6474169999999
 30
0.0
 40
3.0
100
AcDbArc
 50
109.4712209999999
 51
180.0
  0
ARC
  5
ABFD
330
AABB
100
AcDbEntity
  8
1
  6
Continuous
100
AcDbCircle
 10
438.9758599999998
 20
243.330093
 30
0.0
 40
4.0
100
AcDbArc
 50
0.0
 51
41.40962199999999
  0
LINE
  5
ABFE
330
AABB
100
AcDbEntity
  8
1
  6
Continuous
100
AcDbLine
 10
443.0758599999998
 20
242.9508439999999
 30
0.0
 11
442.9758599999998
 21
242.9508439999999
 31
0.0
  0
LINE
  5
ABFF
330
AABB
100
AcDbEntity
  8
1
  6
Continuous
100
AcDbLine
 10
445.12586
 20
252.975844
 30
0.0
 11
443.0758599999998
 21
252.975844
 31
0.0
  0
LINE
  5
AC00
330
AABB
100
AcDbEntity
  8
1
  6
Continuous
100
AcDbLine
 10
432.911758
 20
243.904048
 30
0.0
 11
432.3758599999998
 21
242.975844
 31
0.0
  0
ARC
  5
AC01
330
AABB
100
AcDbEntity
  8
1
  6
Continuous
100
AcDbCircle
 10
435.442847
 20
242.171997
 30
0.0
 40
3.066986999999998
100
AcDbArc
 50
154.3842469999999
 51
214.384247
  0
LINE
  5
AC02
330
AABB
100
AcDbEntity
  8
1
  6
Continuous
100
AcDbLine
 10
432.3758599999998
 20
240.975844
 30
0.0
 11
431.8758599999998
 21
240.975844
 31
0.0
  0
LINE
  5
AC03
330
AABB
100
AcDbEntity
  8
1
  6
Continuous
100
AcDbLine
 10
431.8758599999998
 20
240.975844
 30
0.0
 11
430.8758599999999
 21
239.9758439999998
 31
0.0
  0
LINE
  5
AC04
330
AABB
100
AcDbEntity
  8
2
  6
Continuous
100
AcDbLine
 10
432.3758599999998
 20
240.2993439999999
 30
0.0
 11
431.19936
 21
240.2993439999999
 31
0.0
  0
ARC
  5
AC05
330
AABB
100
AcDbEntity
  8
1
  6
Continuous
100
AcDbCircle
 10
428.9500289999998
 20
281.5243029999999
 30
0.0
 40
20.0
100
AcDbArc
 50
337.2957169999999
 51
355.665181
  0
ARC
  5
AC06
330
AABB
100
AcDbEntity
  8
1
  6
Continuous
100
AcDbCircle
 10
428.9500289999998
 20
281.5243029999999
 30
0.0
 40
17.7
100
AcDbArc
 50
337.2957169999999
 51
354.646724
  0
ARC
  5
AC07
330
AABB
100
AcDbEntity
  8
1
  6
Continuous
100
AcDbCircle
 10
450.2257469999998
 20
331.975844
 30
0.0
 40
6.5
100
AcDbArc
 50
90.0
 51
180.0
  0
LINE
  5
AC08
330
AABB
100
AcDbEntity
  8
1
  6
Continuous
100
AcDbLine
 10
482.0257469999998
 20
322.475844
 30
0.0
 11
443.7257469999998
 21
322.475844
 31
0.0
  0
LINE
  5
AC09
330
AABB
100
AcDbEntity
  8
1
  6
Continuous
100
AcDbLine
 10
482.0257469999998
 20
331.975844
 30
0.0
 11
482.0257469999998
 21
322.475844
 31
0.0
  0
ARC
  5
AC0A
330
AABB
100
AcDbEntity
  8
1
  6
Continuous
100
AcDbCircle
 10
479.375747
 20
318.6758439999999
 30
0.0
 40
4.0
100
AcDbArc
 50
0.0
 51
71.80512799999998
  0
LINE
  5
AC0B
330
AABB
100
AcDbEntity
  8
1
  6
Continuous
100
AcDbLine
 10
483.37586
 20
318.6758439999999
 30
0.0
 11
483.37586
 21
292.775844
 31
0.0
  0
ARC
  5
AC0C
330
AABB
100
AcDbEntity
  8
1
  6
Continuous
100
AcDbCircle
 10
513.37586
 20
292.775844
 30
0.0
 40
30.0
100
AcDbArc
 50
180.0
 51
192.0970529999999
  0
ARC
  5
AC0D
330
AABB
100
AcDbEntity
  8
1
  6
Continuous
100
AcDbCircle
 10
475.525747
 20
331.975844
 30
0.0
 40
6.5
100
AcDbArc
 50
0.0
 51
90.0
  0
LINE
  5
AC0E
330
AABB
100
AcDbEntity
  8
1
  6
Continuous
100
AcDbLine
 10
475.525747
 20
338.475844
 30
0.0
 11
450.2257469999998
 21
338.475844
 31
0.0
  0
LINE
  5
AC0F
330
AABB
100
AcDbEntity
  8
1
  6
Continuous
100
AcDbLine
 10
443.7257469999998
 20
331.975844
 30
0.0
 11
443.7257469999998
 21
322.475844
 31
0.0
  0
LINE
  5
AC10
330
AABB
100
AcDbEntity
  8
1
  6
Continuous
100
AcDbLine
 10
442.37586
 20
318.6758439999999
 30
0.0
 11
442.37586
 21
292.775844
 31
0.0
  0
ARC
  5
AC11
330
AABB
100
AcDbEntity
  8
1
  6
Continuous
100
AcDbCircle
 10
412.37586
 20
292.775844
 30
0.0
 40
30.0
100
AcDbArc
 50
347.902947
 51
0.0
  0
ARC
  5
AC12
330
AABB
100
AcDbEntity
  8
1
  6
Continuous
100
AcDbCircle
 10
446.375747
 20
318.6758439999999
 30
0.0
 40
4.0
100
AcDbArc
 50
108.1948719999999
 51
180.0
  0
ARC
  5
AC13
330
AABB
100
AcDbEntity
  8
1
  6
Continuous
100
AcDbCircle
 10
664.729332
 20
228.61927
 30
0.0
 40
20.0
100
AcDbArc
 50
81.14524799999998
 51
99.85053399999999
  0
LINE
  5
AC14
330
AABB
100
AcDbEntity
  8
1
  6
Continuous
100
AcDbLine
 10
676.1281699999998
 20
245.05297
 30
0.0
 11
643.58132
 21
270.481355
 31
0.0
  0
ARC
  5
AC15
330
AABB
100
AcDbEntity
  8
1
  6
Continuous
100
AcDbCircle
 10
669.81764
 20
236.9758589999999
 30
0.0
 40
16.0
100
AcDbArc
 50
185.83844
 51
102.1615599999998
  0
ARC
  5
AC16
330
AABB
100
AcDbEntity
  8
1
  6
Continuous
100
AcDbCircle
 10
669.81764
 20
236.9758589999999
 30
0.0
 40
20.5
100
AcDbArc
 50
176.0
 51
112.0
  0
ARC
  5
AC17
330
AABB
100
AcDbEntity
  8
1
  6
Continuous
100
AcDbCircle
 10
669.81764
 20
236.9758589999999
 30
0.0
 40
10.25
100
AcDbArc
 50
88.401521
 51
199.5984789999999
  0
LINE
  5
AC18
330
AABB
100
AcDbEntity
  8
1
  6
Continuous
100
AcDbLine
 10
664.0859129999999
 20
228.478224
 30
0.0
 11
618.332623
 21
259.339208
 31
0.0
  0
LINE
  5
AC19
330
AABB
100
AcDbEntity
  8
4
  6
CENTER
100
AcDbLine
 10
588.8176399999998
 20
236.9758589999999
 30
0.0
 11
750.8176399999999
 21
236.9758589999999
 31
0.0
  0
ARC
  5
AC1A
330
AABB
100
AcDbEntity
  8
1
  6
Continuous
100
AcDbCircle
 10
669.81764
 20
236.9758589999999
 30
0.0
 40
58.5
100
AcDbArc
 50
156.0133129999998
 51
125.824845
  0
LINE
  5
AC1B
330
AABB
100
AcDbEntity
  8
4
  6
CENTER
100
AcDbLine
 10
669.81764
 20
155.975859
 30
0.0
 11
669.81764
 21
317.9758589999999
 31
0.0
  0
CIRCLE
  5
AC1C
330
AABB
100
AcDbEntity
  8
1
  6
Continuous
100
AcDbCircle
 10
669.81764
 20
282.9758589999999
 30
0.0
 40
3.5
  0
ARC
  5
AC1D
330
AABB
100
AcDbEntity
  8
1
  6
Continuous
100
AcDbCircle
 10
669.81764
 20
236.9758589999999
 30
0.0
 40
10.25
100
AcDbArc
 50
236.0
 51
52.0
  0
CIRCLE
  5
AC1E
330
AABB
100
AcDbEntity
  8
1
  6
Continuous
100
AcDbCircle
 10
696.855761
 20
199.761078
 30
0.0
 40
3.5
  0
CIRCLE
  5
AC1F
330
AABB
100
AcDbEntity
  8
1
  6
Continuous
100
AcDbCircle
 10
713.56624
 20
251.190641
 30
0.0
 40
3.5
  0
LINE
  5
AC20
330
AABB
100
AcDbEntity
  8
4
  6
CENTER
100
AcDbLine
 10
619.81764
 20
424.010787
 30
0.0
 11
619.81764
 21
252.3000779999999
 31
0.0
  0
ARC
  5
AC21
330
AABB
100
AcDbEntity
  8
1
  6
Continuous
100
AcDbCircle
 10
554.31764
 20
289.825734
 30
0.0
 40
50.0
100
AcDbArc
 50
352.1845519999998
 51
16.55768799999999
  0
ARC
  5
AC22
330
AABB
100
AcDbEntity
  8
1
  6
Continuous
100
AcDbCircle
 10
679.31764
 20
294.9799259999998
 30
0.0
 40
45.0
100
AcDbArc
 50
168.7432389999998
 51
200.458829
  0
ARC
  5
AC23
330
AABB
100
AcDbEntity
  8
1
  6
Continuous
100
AcDbCircle
 10
676.192856
 20
244.397456
 30
0.0
 40
20.0
100
AcDbArc
 50
188.149466
 51
206.8547519999999
  0
CIRCLE
  5
AC24
330
AABB
100
AcDbEntity
  8
1
  6
Continuous
100
AcDbCircle
 10
642.7795179999999
 20
199.761078
 30
0.0
 40
3.5
  0
ARC
  5
AC25
330
AABB
100
AcDbEntity
  8
1
  6
Continuous
100
AcDbCircle
 10
662.334233
 20
242.412873
 30
0.0
 40
6.0
100
AcDbArc
 50
99.85053399999999
 51
188.149466
  0
ARC
  5
AC26
330
AABB
100
AcDbEntity
  8
1
  6
Continuous
100
AcDbCircle
 10
655.89455
 20
286.24157
 30
0.0
 40
20.0
100
AcDbArc
 50
200.458829
 51
232.0
  0
ARC
  5
AC27
330
AABB
100
AcDbEntity
  8
1
  6
Continuous
100
AcDbCircle
 10
639.302357
 20
290.4281169999998
 30
0.0
 40
37.5
100
AcDbArc
 50
203.326432
 51
236.0
  0
ARC
  5
AC28
330
AABB
100
AcDbEntity
  8
1
  6
Continuous
100
AcDbCircle
 10
626.0690400000002
 20
251.190641
 30
0.0
 40
3.5
100
AcDbArc
 50
102.045177
 51
9.954822999999999
  0
ARC
  5
AC29
330
AABB
100
AcDbEntity
  8
1
  6
Continuous
100
AcDbCircle
 10
617.723157
 20
281.122841
 30
0.0
 40
14.0
100
AcDbArc
 50
172.184552
 51
203.326432
  0
LINE
  5
AC2A
330
AABB
100
AcDbEntity
  8
1
  6
Continuous
100
AcDbLine
 10
600.6676399999999
 20
331.9758589999999
 30
0.0
 11
600.6676399999999
 21
322.4758589999999
 31
0.0
  0
LINE
  5
AC2B
330
AABB
100
AcDbEntity
  8
1
  6
Continuous
100
AcDbLine
 10
638.9676399999999
 20
331.9758589999999
 30
0.0
 11
638.9676399999999
 21
322.4758589999999
 31
0.0
  0
LINE
  5
AC2C
330
AABB
100
AcDbEntity
  8
1
  6
Continuous
100
AcDbLine
 10
600.6676399999999
 20
322.4758589999999
 30
0.0
 11
638.9676399999999
 21
322.4758589999999
 31
0.0
  0
ARC
  5
AC2D
330
AABB
100
AcDbEntity
  8
1
  6
Continuous
100
AcDbCircle
 10
641.5582929999999
 20
302.4953599999999
 30
0.0
 40
6.5
100
AcDbArc
 50
101.003546
 51
168.7432389999998
  0
ARC
  5
AC2E
330
AABB
100
AcDbEntity
  8
1
  6
Continuous
100
AcDbCircle
 10
636.31764
 20
318.675859
 30
0.0
 40
4.0
100
AcDbArc
 50
0.0
 51
71.80512799999998
  0
LINE
  5
AC2F
330
AABB
100
AcDbEntity
  8
1
  6
Continuous
100
AcDbLine
 10
640.3176399999997
 20
318.675859
 30
0.0
 11
640.3176399999997
 21
308.8758589999998
 31
0.0
  0
ARC
  5
AC30
330
AABB
100
AcDbEntity
  8
1
  6
Continuous
100
AcDbCircle
 10
591.7004379999997
 20
300.9399759999999
 30
0.0
 40
11.0
100
AcDbArc
 50
16.55768799999999
 51
46.17382099999999
  0
ARC
  5
AC31
330
AABB
100
AcDbEntity
  8
1
  6
Continuous
100
AcDbCircle
 10
603.31764
 20
318.675859
 30
0.0
 40
4.0
100
AcDbArc
 50
108.1948719999999
 51
180.0
  0
LINE
  5
AC32
330
AABB
100
AcDbEntity
  8
1
  6
Continuous
100
AcDbLine
 10
599.31764
 20
318.675859
 30
0.0
 11
599.31764
 21
308.8758589999998
 31
0.0
  0
LINE
  5
AC33
330
AABB
100
AcDbEntity
  8
1
  6
Continuous
100
AcDbLine
 10
607.16764
 20
338.4758589999999
 30
0.0
 11
632.4676400000002
 21
338.4758589999999
 31
0.0
  0
ARC
  5
AC34
330
AABB
100
AcDbEntity
  8
1
  6
Continuous
100
AcDbCircle
 10
632.4676400000002
 20
331.9758589999999
 30
0.0
 40
6.5
100
AcDbArc
 50
0.0
 51
90.0
  0
ARC
  5
AC35
330
AABB
100
AcDbEntity
  8
1
  6
Continuous
100
AcDbCircle
 10
607.16764
 20
331.9758589999999
 30
0.0
 40
6.5
100
AcDbArc
 50
90.0
 51
180.0
  0
LINE
  5
AC36
330
AABB
100
AcDbEntity
  8
4
  6
CENTER
100
AcDbLine
 10
337.1637740000001
 20
77.12664100000002
 30
0.0
 11
175.2057259999999
 21
77.12664100000002
 31
0.0
  0
LINE
  5
AC37
330
AABB
100
AcDbEntity
  8
1
  6
Continuous
100
AcDbLine
 10
273.605427
 20
59.376528
 30
0.0
 11
238.2622809999999
 21
59.376528
 31
0.0
  0
LINE
  5
AC38
330
AABB
100
AcDbEntity
  8
1
  6
Continuous
100
AcDbLine
 10
276.433854
 20
61.376528
 30
0.0
 11
235.433854
 21
61.376528
 31
0.0
  0
LINE
  5
AC39
330
AABB
100
AcDbEntity
  8
1
  6
Continuous
100
AcDbLine
 10
239.933854
 20
57.326528
 30
0.0
 11
271.9338539999998
 21
57.326528
 31
0.0
  0
ARC
  5
AC3A
330
AABB
100
AcDbEntity
  8
1
  6
Continuous
100
AcDbCircle
 10
262.2881029999999
 20
53.226528
 30
0.0
 40
4.0
100
AcDbArc
 50
48.590378
 51
90.0
  0
LINE
  5
AC3B
330
AABB
100
AcDbEntity
  8
1
  6
Continuous
100
AcDbLine
 10
273.605427
 20
94.87652799999999
 30
0.0
 11
238.2622809999999
 21
94.87652799999999
 31
0.0
  0
LINE
  5
AC3C
330
AABB
100
AcDbEntity
  8
1
  6
Continuous
100
AcDbLine
 10
276.433854
 20
92.87652800000001
 30
0.0
 11
235.433854
 21
92.87652800000001
 31
0.0
  0
LINE
  5
AC3D
330
AABB
100
AcDbEntity
  8
1
  6
Continuous
100
AcDbLine
 10
239.933854
 20
96.92652800000001
 30
0.0
 11
271.9338539999998
 21
96.92652800000001
 31
0.0
  0
ARC
  5
AC3E
330
AABB
100
AcDbEntity
  8
1
  6
Continuous
100
AcDbCircle
 10
262.2881029999999
 20
101.026528
 30
0.0
 40
4.0
100
AcDbArc
 50
270.0
 51
311.409622
  0
LINE
  5
AC3F
330
AABB
100
AcDbEntity
  8
4
  6
CENTER
100
AcDbLine
 10
255.933854
 20
40.3138
 30
0.0
 11
255.933854
 21
114.32823
 31
0.0
  0
ARC
  5
AC40
330
AABB
100
AcDbEntity
  8
1
  6
Continuous
100
AcDbCircle
 10
241.3851409999999
 20
63.47274999999999
 30
0.0
 40
30.0
100
AcDbArc
 50
101.4420209999999
 51
124.734977
  0
ARC
  5
AC41
330
AABB
100
AcDbEntity
  8
1
  6
Continuous
100
AcDbCircle
 10
249.5796059999999
 20
101.026528
 30
0.0
 40
4.0
100
AcDbArc
 50
228.5903779999999
 51
270.0
  0
ARC
  5
AC42
330
AABB
100
AcDbEntity
  8
1
  6
Continuous
100
AcDbCircle
 10
238.2622809999999
 20
91.876528
 30
0.0
 40
3.0
100
AcDbArc
 50
90.0
 51
160.528779
  0
LINE
  5
AC43
330
AABB
100
AcDbEntity
  8
1
  6
Continuous
100
AcDbLine
 10
239.933854
 20
94.87652799999999
 30
0.0
 11
239.933854
 21
96.92652800000001
 31
0.0
  0
LINE
  5
AC44
330
AABB
100
AcDbEntity
  8
1
  6
Continuous
100
AcDbLine
 10
245.683854
 20
98.02652800000002
 30
0.0
 11
245.683854
 21
100.3265279999999
 31
0.0
  0
ARC
  5
AC45
330
AABB
100
AcDbEntity
  8
1
  6
Continuous
100
AcDbCircle
 10
258.9338539999999
 20
111.291592
 30
0.0
 40
8.665063999999999
100
AcDbArc
 50
249.7438419999999
 51
290.256158
  0
ARC
  5
AC46
330
AABB
100
AcDbEntity
  8
1
  6
Continuous
100
AcDbCircle
 10
258.9338539999999
 20
98.961465
 30
0.0
 40
8.665063999999999
100
AcDbArc
 50
69.743842
 51
110.256158
  0
LINE
  5
AC47
330
AABB
100
AcDbEntity
  8
1
  6
Continuous
100
AcDbLine
 10
259.933854
 20
107.6265279999999
 30
0.0
 11
259.933854
 21
108.126528
 31
0.0
  0
LINE
  5
AC48
330
AABB
100
AcDbEntity
  8
1
  6
Continuous
100
AcDbLine
 10
259.933854
 20
108.126528
 30
0.0
 11
258.9338539999999
 21
109.126528
 31
0.0
  0
LINE
  5
AC49
330
AABB
100
AcDbEntity
  8
2
  6
Continuous
100
AcDbLine
 10
259.257354
 20
107.6265279999999
 30
0.0
 11
259.257354
 21
108.8030279999999
 31
0.0
  0
LINE
  5
AC4A
330
AABB
100
AcDbEntity
  8
1
  6
Continuous
100
AcDbLine
 10
255.933854
 20
103.162427
 30
0.0
 11
255.933854
 21
107.09063
 31
0.0
  0
LINE
  5
AC4B
330
AABB
100
AcDbEntity
  8
1
  6
Continuous
100
AcDbLine
 10
251.933854
 20
108.126528
 30
0.0
 11
252.9338539999999
 21
109.126528
 31
0.0
  0
LINE
  5
AC4C
330
AABB
100
AcDbEntity
  8
1
  6
Continuous
100
AcDbLine
 10
251.933854
 20
107.6265279999999
 30
0.0
 11
251.933854
 21
108.126528
 31
0.0
  0
LINE
  5
AC4D
330
AABB
100
AcDbEntity
  8
2
  6
Continuous
100
AcDbLine
 10
252.610354
 20
107.6265279999999
 30
0.0
 11
252.610354
 21
108.8030279999999
 31
0.0
  0
LINE
  5
AC4E
330
AABB
100
AcDbEntity
  8
1
  6
Continuous
100
AcDbLine
 10
258.9338539999999
 20
109.126528
 30
0.0
 11
252.9338539999999
 21
109.126528
 31
0.0
  0
LINE
  5
AC4F
330
AABB
100
AcDbEntity
  8
1
  6
Continuous
100
AcDbLine
 10
261.933854
 20
107.6265279999999
 30
0.0
 11
261.933854
 21
102.626528
 31
0.0
  0
LINE
  5
AC50
330
AABB
100
AcDbEntity
  8
1
  6
Continuous
100
AcDbLine
 10
249.933854
 20
107.6265279999999
 30
0.0
 11
249.933854
 21
102.626528
 31
0.0
  0
LINE
  5
AC51
330
AABB
100
AcDbEntity
  8
1
  6
Continuous
100
AcDbLine
 10
261.933854
 20
102.626528
 30
0.0
 11
249.933854
 21
102.626528
 31
0.0
  0
LINE
  5
AC52
330
AABB
100
AcDbEntity
  8
1
  6
Continuous
100
AcDbLine
 10
261.933854
 20
107.6265279999999
 30
0.0
 11
249.933854
 21
107.6265279999999
 31
0.0
  0
ARC
  5
AC53
330
AABB
100
AcDbEntity
  8
1
  6
Continuous
100
AcDbCircle
 10
252.9338539999999
 20
111.291592
 30
0.0
 40
8.665063999999999
100
AcDbArc
 50
249.7438419999999
 51
290.256158
  0
ARC
  5
AC54
330
AABB
100
AcDbEntity
  8
1
  6
Continuous
100
AcDbCircle
 10
252.9338539999999
 20
98.961465
 30
0.0
 40
8.665063999999999
100
AcDbArc
 50
69.743842
 51
110.256158
  0
LINE
  5
AC55
330
AABB
100
AcDbEntity
  8
1
  6
Continuous
100
AcDbLine
 10
263.4338539999999
 20
101.9939119999999
 30
0.0
 11
263.4338539999999
 21
102.626528
 31
0.0
  0
LINE
  5
AC56
330
AABB
100
AcDbEntity
  8
1
  6
Continuous
100
AcDbLine
 10
248.4338539999999
 20
100.3265279999999
 30
0.0
 11
248.4338539999999
 21
102.626528
 31
0.0
  0
LINE
  5
AC57
330
AABB
100
AcDbEntity
  8
1
  6
Continuous
100
AcDbLine
 10
263.4338539999999
 20
102.626528
 30
0.0
 11
248.4338539999999
 21
102.626528
 31
0.0
  0
LINE
  5
AC58
330
AABB
100
AcDbEntity
  8
1
  6
Continuous
100
AcDbLine
 10
262.2881029999999
 20
97.02652800000002
 30
0.0
 11
249.5796059999999
 21
97.02652800000002
 31
0.0
  0
LINE
  5
AC59
330
AABB
100
AcDbEntity
  8
1
  6
Continuous
100
AcDbLine
 10
261.908854
 20
96.92652800000001
 30
0.0
 11
261.908854
 21
97.02652800000002
 31
0.0
  0
LINE
  5
AC5A
330
AABB
100
AcDbEntity
  8
1
  6
Continuous
100
AcDbLine
 10
249.9588539999999
 20
96.92652800000001
 30
0.0
 11
249.9588539999999
 21
97.02652800000002
 31
0.0
  0
ARC
  5
AC5B
330
AABB
100
AcDbEntity
  8
1
  6
Continuous
100
AcDbCircle
 10
241.3851409999999
 20
90.78030699999999
 30
0.0
 40
30.0
100
AcDbArc
 50
235.2642689999999
 51
258.557979
  0
LINE
  5
AC5C
330
AABB
100
AcDbEntity
  8
1
  6
Continuous
100
AcDbLine
 10
255.933854
 20
46.662427
 30
0.0
 11
255.933854
 21
51.626528
 31
0.0
  0
LINE
  5
AC5D
330
AABB
100
AcDbEntity
  8
1
  6
Continuous
100
AcDbLine
 10
249.933854
 20
51.626528
 30
0.0
 11
249.933854
 21
46.126528
 31
0.0
  0
LINE
  5
AC5E
330
AABB
100
AcDbEntity
  8
1
  6
Continuous
100
AcDbLine
 10
261.933854
 20
51.626528
 30
0.0
 11
261.933854
 21
46.126528
 31
0.0
  0
ARC
  5
AC5F
330
AABB
100
AcDbEntity
  8
1
  6
Continuous
100
AcDbCircle
 10
249.5796059999999
 20
53.226528
 30
0.0
 40
4.0
100
AcDbArc
 50
90.0
 51
131.4096219999999
  0
ARC
  5
AC60
330
AABB
100
AcDbEntity
  8
1
  6
Continuous
100
AcDbCircle
 10
238.2622809999999
 20
62.376528
 30
0.0
 40
3.0
100
AcDbArc
 50
199.4712209999999
 51
270.0
  0
LINE
  5
AC61
330
AABB
100
AcDbEntity
  8
1
  6
Continuous
100
AcDbLine
 10
239.933854
 20
57.326528
 30
0.0
 11
239.933854
 21
59.376528
 31
0.0
  0
LINE
  5
AC62
330
AABB
100
AcDbEntity
  8
1
  6
Continuous
100
AcDbLine
 10
245.683854
 20
53.926528
 30
0.0
 11
245.683854
 21
56.226528
 31
0.0
  0
LINE
  5
AC63
330
AABB
100
AcDbEntity
  8
1
  6
Continuous
100
AcDbLine
 10
249.933854
 20
51.626528
 30
0.0
 11
261.933854
 21
51.626528
 31
0.0
  0
LINE
  5
AC64
330
AABB
100
AcDbEntity
  8
1
  6
Continuous
100
AcDbLine
 10
263.4338539999999
 20
51.626528
 30
0.0
 11
263.4338539999999
 21
52.259245
 31
0.0
  0
LINE
  5
AC65
330
AABB
100
AcDbEntity
  8
1
  6
Continuous
100
AcDbLine
 10
248.4338539999999
 20
51.626528
 30
0.0
 11
248.4338539999999
 21
53.926528
 31
0.0
  0
LINE
  5
AC66
330
AABB
100
AcDbEntity
  8
1
  6
Continuous
100
AcDbLine
 10
263.4338539999999
 20
51.626528
 30
0.0
 11
248.4338539999999
 21
51.626528
 31
0.0
  0
LINE
  5
AC67
330
AABB
100
AcDbEntity
  8
1
  6
Continuous
100
AcDbLine
 10
262.2881029999999
 20
57.226528
 30
0.0
 11
249.5796059999999
 21
57.226528
 31
0.0
  0
LINE
  5
AC68
330
AABB
100
AcDbEntity
  8
1
  6
Continuous
100
AcDbLine
 10
261.908854
 20
57.226528
 30
0.0
 11
261.908854
 21
57.326528
 31
0.0
  0
LINE
  5
AC69
330
AABB
100
AcDbEntity
  8
1
  6
Continuous
100
AcDbLine
 10
249.9588539999999
 20
57.226528
 30
0.0
 11
249.9588539999999
 21
57.326528
 31
0.0
  0
ARC
  5
AC6A
330
AABB
100
AcDbEntity
  8
1
  6
Continuous
100
AcDbCircle
 10
252.9338539999999
 20
54.791592
 30
0.0
 40
8.665063999999999
100
AcDbArc
 50
249.7438419999999
 51
290.256158
  0
LINE
  5
AC6B
330
AABB
100
AcDbEntity
  8
1
  6
Continuous
100
AcDbLine
 10
261.933854
 20
46.126528
 30
0.0
 11
249.933854
 21
46.126528
 31
0.0
  0
ARC
  5
AC6C
330
AABB
100
AcDbEntity
  8
1
  6
Continuous
100
AcDbCircle
 10
258.9338539999999
 20
54.791592
 30
0.0
 40
8.665063999999999
100
AcDbArc
 50
249.7438419999999
 51
290.256158
  0
LINE
  5
AC6D
330
AABB
100
AcDbEntity
  8
4
  6
CENTER
100
AcDbLine
 10
305.933854
 20
47.95617
 30
0.0
 11
305.933854
 21
107.4164509999999
 31
0.0
  0
LINE
  5
AC6E
330
AABB
100
AcDbEntity
  8
1
  6
Continuous
100
AcDbLine
 10
271.9338539999998
 20
94.87652799999999
 30
0.0
 11
271.9338539999998
 21
96.92652800000001
 31
0.0
  0
ARC
  5
AC6F
330
AABB
100
AcDbEntity
  8
1
  6
Continuous
100
AcDbCircle
 10
273.605427
 20
91.876528
 30
0.0
 40
3.0
100
AcDbArc
 50
19.47122099999998
 51
90.0
  0
LINE
  5
AC70
330
AABB
100
AcDbEntity
  8
1
  6
Continuous
100
AcDbLine
 10
271.9338539999998
 20
57.326528
 30
0.0
 11
271.9338539999998
 21
59.376528
 31
0.0
  0
ARC
  5
AC71
330
AABB
100
AcDbEntity
  8
1
  6
Continuous
100
AcDbCircle
 10
273.605427
 20
62.376528
 30
0.0
 40
3.0
100
AcDbArc
 50
270.0
 51
340.528779
  0
LINE
  5
AC72
330
AABB
100
AcDbEntity
  8
1
  6
Continuous
100
AcDbLine
 10
249.933854
 20
240.439961
 30
0.0
 11
255.933854
 21
243.904063
 31
0.0
  0
LINE
  5
AC73
330
AABB
100
AcDbEntity
  8
1
  6
Continuous
100
AcDbLine
 10
249.933854
 20
240.439961
 30
0.0
 11
249.933854
 21
233.5117579999999
 31
0.0
  0
CIRCLE
  5
AC74
330
AABB
100
AcDbEntity
  8
1
  6
Continuous
100
AcDbCircle
 10
255.933854
 20
236.9758589999999
 30
0.0
 40
4.0
  0
CIRCLE
  5
AC75
330
AABB
100
AcDbEntity
  8
2
  6
Continuous
100
AcDbCircle
 10
255.933854
 20
236.9758589999999
 30
0.0
 40
3.3235
  0
LINE
  5
AC76
330
AABB
100
AcDbEntity
  8
1
  6
Continuous
100
AcDbLine
 10
261.933854
 20
240.439961
 30
0.0
 11
255.933854
 21
243.904063
 31
0.0
  0
LINE
  5
AC77
330
AABB
100
AcDbEntity
  8
1
  6
Continuous
100
AcDbLine
 10
261.933854
 20
240.439961
 30
0.0
 11
261.933854
 21
233.5117579999999
 31
0.0
  0
LINE
  5
AC78
330
AABB
100
AcDbEntity
  8
1
  6
Continuous
100
AcDbLine
 10
255.933854
 20
230.0476559999999
 30
0.0
 11
261.933854
 21
233.5117579999999
 31
0.0
  0
LINE
  5
AC79
330
AABB
100
AcDbEntity
  8
1
  6
Continuous
100
AcDbLine
 10
255.933854
 20
230.0476559999999
 30
0.0
 11
249.933854
 21
233.5117579999999
 31
0.0
  0
CIRCLE
  5
AC7A
330
AABB
100
AcDbEntity
  8
1
  6
Continuous
100
AcDbCircle
 10
255.933854
 20
236.9758589999999
 30
0.0
 40
7.5
  0
CIRCLE
  5
AC7B
330
AABB
100
AcDbEntity
  8
1
  6
Continuous
100
AcDbCircle
 10
255.933854
 20
236.9758589999999
 30
0.0
 40
8.0
  0
CIRCLE
  5
AC7C
330
AABB
100
AcDbEntity
  8
1
  6
Continuous
100
AcDbCircle
 10
669.81764
 20
236.9758589999999
 30
0.0
 40
7.5
  0
CIRCLE
  5
AC7D
330
AABB
100
AcDbEntity
  8
1
  6
Continuous
100
AcDbCircle
 10
669.81764
 20
236.9758589999999
 30
0.0
 40
8.0
  0
CIRCLE
  5
AC7E
330
AABB
100
AcDbEntity
  8
1
  6
Continuous
100
AcDbCircle
 10
669.81764
 20
236.9758589999999
 30
0.0
 40
6.0
  0
LINE
  5
AC7F
330
AABB
100
AcDbEntity
  8
1
  6
Continuous
100
AcDbLine
 10
675.8176399999999
 20
240.439961
 30
0.0
 11
669.81764
 21
243.904063
 31
0.0
  0
LINE
  5
AC80
330
AABB
100
AcDbEntity
  8
1
  6
Continuous
100
AcDbLine
 10
663.8176399999998
 20
240.439961
 30
0.0
 11
669.81764
 21
243.904063
 31
0.0
  0
LINE
  5
AC81
330
AABB
100
AcDbEntity
  8
1
  6
Continuous
100
AcDbLine
 10
663.8176399999998
 20
240.439961
 30
0.0
 11
663.8176399999998
 21
233.5117579999999
 31
0.0
  0
LINE
  5
AC82
330
AABB
100
AcDbEntity
  8
1
  6
Continuous
100
AcDbLine
 10
669.81764
 20
230.0476559999999
 30
0.0
 11
663.8176399999998
 21
233.5117579999999
 31
0.0
  0
LINE
  5
AC83
330
AABB
100
AcDbEntity
  8
1
  6
Continuous
100
AcDbLine
 10
669.81764
 20
230.0476559999999
 30
0.0
 11
675.8176399999999
 21
233.5117579999999
 31
0.0
  0
LINE
  5
AC84
330
AABB
100
AcDbEntity
  8
1
  6
Continuous
100
AcDbLine
 10
675.8176399999999
 20
240.439961
 30
0.0
 11
675.8176399999999
 21
233.5117579999999
 31
0.0
  0
LINE
  5
AC85
330
AABB
100
AcDbEntity
  8
1
  6
Continuous
100
AcDbLine
 10
462.875747
 20
308.8758589999998
 30
0.0
 11
459.3545859999998
 21
308.8758589999998
 31
0.0
  0
ARC
  5
AC86
330
AABB
100
AcDbEntity
  8
1
  6
Continuous
100
AcDbCircle
 10
24.160826
 20
350.3847609999998
 30
0.0
 40
428.2314179999998
100
AcDbArc
 50
350.6172009999998
 51
353.249958
  0
ARC
  5
AC87
330
AABB
100
AcDbEntity
  8
1
  6
Continuous
100
AcDbCircle
 10
456.5292119999998
 20
278.939993
 30
0.0
 40
10.0
100
AcDbArc
 50
170.6172009999999
 51
174.646724
  0
ARC
  5
AC88
330
AABB
100
AcDbEntity
  8
1
  6
Continuous
100
AcDbCircle
 10
459.3545859999998
 20
298.8758589999998
 30
0.0
 40
10.0
100
AcDbArc
 50
90.0
 51
173.2499579999999
  0
ARC
  5
AC89
330
AABB
100
AcDbEntity
  8
1
  6
Continuous
100
AcDbCircle
 10
380.8769679999999
 20
296.027935
 30
0.0
 40
69.875935
100
AcDbArc
 50
346.750223
 51
5.955662999999998
  0
LINE
  5
AC8A
330
AABB
100
AcDbEntity
  8
1
  6
Continuous
100
AcDbLine
 10
462.875747
 20
308.8758589999998
 30
0.0
 11
466.396907
 21
308.8758589999998
 31
0.0
  0
ARC
  5
AC8B
330
AABB
100
AcDbEntity
  8
1
  6
Continuous
100
AcDbCircle
 10
544.8745249999998
 20
296.027935
 30
0.0
 40
69.875935
100
AcDbArc
 50
174.044337
 51
193.2497769999999
  0
ARC
  5
AC8C
330
AABB
100
AcDbEntity
  8
1
  6
Continuous
100
AcDbCircle
 10
901.5906679999996
 20
350.3847609999998
 30
0.0
 40
428.2314179999998
100
AcDbArc
 50
186.7500419999998
 51
189.382799
  0
ARC
  5
AC8D
330
AABB
100
AcDbEntity
  8
1
  6
Continuous
100
AcDbCircle
 10
466.396907
 20
298.8758589999998
 30
0.0
 40
10.0
100
AcDbArc
 50
6.750041999999997
 51
90.0
  0
LINE
  5
AC8E
330
AABB
100
AcDbEntity
  8
1
  6
Continuous
100
AcDbLine
 10
319.9338539999998
 20
88.126641
 30
0.0
 11
191.933854
 21
88.126641
 31
0.0
  0
LINE
  5
AC8F
330
AABB
100
AcDbEntity
  8
1
  6
Continuous
100
AcDbLine
 10
319.9338539999998
 20
66.126641
 30
0.0
 11
191.933854
 21
66.126641
 31
0.0
  0
ARC
  5
AC90
330
AABB
100
AcDbEntity
  8
1
  6
Continuous
100
AcDbCircle
 10
191.933854
 20
77.12664100000002
 30
0.0
 40
11.0
100
AcDbArc
 50
90.0
 51
270.0
  0
ARC
  5
AC91
330
AABB
100
AcDbEntity
  8
1
  6
Continuous
100
AcDbCircle
 10
319.9338539999998
 20
77.12664100000002
 30
0.0
 40
11.0
100
AcDbArc
 50
270.0
 51
90.0
  0
LINE
  5
AC92
330
AABB
100
AcDbEntity
  8
1
  6
Continuous
100
AcDbLine
 10
288.698702
 20
497.801908
 30
0.0
 11
192.283478
 21
497.801908
 31
0.0
  0
LINE
  5
AC93
330
AABB
100
AcDbEntity
  8
1
  6
Continuous
100
AcDbLine
 10
288.6985569999998
 20
475.801908
 30
0.0
 11
192.283478
 21
475.801908
 31
0.0
  0
ARC
  5
AC94
330
AABB
100
AcDbEntity
  8
1
  6
Continuous
100
AcDbCircle
 10
191.9334779999998
 20
486.801795
 30
0.0
 40
11.0
100
AcDbArc
 50
90.0
 51
270.0
  0
ARC
  5
AC95
330
AABB
100
AcDbEntity
  8
1
  6
Continuous
100
AcDbCircle
 10
319.933478
 20
486.801795
 30
0.0
 40
11.0
100
AcDbArc
 50
289.5863589999999
 51
70.413641
  0
CIRCLE
  5
AC96
330
AABB
100
AcDbEntity
  8
2
  6
Continuous
100
AcDbCircle
 10
305.9334779999999
 20
486.801795
 30
0.0
 40
5.3235
  0
CIRCLE
  5
AC97
330
AABB
100
AcDbEntity
  8
1
  6
Continuous
100
AcDbCircle
 10
305.9334779999999
 20
486.801795
 30
0.0
 40
4.5
  0
ARC
  5
AC98
330
AABB
100
AcDbEntity
  8
1
  6
Continuous
100
AcDbCircle
 10
255.933854
 20
236.9758589999999
 30
0.0
 40
75.0
100
AcDbArc
 50
62.447723
 51
30.422456
  0
LINE
  5
AC99
330
AABB
100
AcDbEntity
  8
1
  6
Continuous
100
AcDbLine
 10
57.99184799999999
 20
300.975844
 30
0.0
 11
57.99184799999999
 21
173.325844
 31
0.0
  0
LINE
  5
AC9A
330
AABB
100
AcDbEntity
  8
1
  6
Continuous
100
AcDbLine
 10
79.991848
 20
300.975844
 30
0.0
 11
79.991848
 21
173.325844
 31
0.0
  0
ARC
  5
AC9B
330
AABB
100
AcDbEntity
  8
1
  6
Continuous
100
AcDbCircle
 10
68.99196100000001
 20
172.9758439999999
 30
0.0
 40
11.0
100
AcDbArc
 50
180.0
 51
0.0
  0
ARC
  5
AC9C
330
AABB
100
AcDbEntity
  8
1
  6
Continuous
100
AcDbCircle
 10
68.99196100000001
 20
300.975844
 30
0.0
 40
11.0
100
AcDbArc
 50
0.0
 51
180.0
  0
LINE
  5
AC9D
330
AABB
100
AcDbEntity
  8
1
  6
Continuous
100
AcDbLine
 10
451.8758599999999
 20
300.6258439999998
 30
0.0
 11
451.8758599999999
 21
173.325844
 31
0.0
  0
LINE
  5
AC9E
330
AABB
100
AcDbEntity
  8
1
  6
Continuous
100
AcDbLine
 10
473.8758599999998
 20
300.6258439999998
 30
0.0
 11
473.8758599999998
 21
173.325844
 31
0.0
  0
ARC
  5
AC9F
330
AABB
100
AcDbEntity
  8
1
  6
Continuous
100
AcDbCircle
 10
462.875747
 20
172.9758439999999
 30
0.0
 40
11.0
100
AcDbArc
 50
180.0
 51
0.0
  0
ARC
  5
ACA0
330
AABB
100
AcDbEntity
  8
1
  6
Continuous
100
AcDbCircle
 10
462.875747
 20
300.975844
 30
0.0
 40
11.0
100
AcDbArc
 50
0.0
 51
34.405638
  0
ARC
  5
ACA1
330
AABB
100
AcDbEntity
  8
1
  6
Continuous
100
AcDbCircle
 10
462.875747
 20
300.975844
 30
0.0
 40
11.0
100
AcDbArc
 50
145.594362
 51
180.0
  0
ARC
  5
ACA2
330
AABB
100
AcDbEntity
  8
1
  6
Continuous
100
AcDbCircle
 10
669.81764
 20
236.9758589999999
 30
0.0
 40
75.0
100
AcDbArc
 50
149.5775439999999
 51
117.552277
  0
LINE
  5
ACA3
330
AABB
100
AcDbEntity
  8
1
  6
Continuous
100
AcDbLine
 10
99.99184800000001
 20
240.975844
 30
0.0
 11
99.99184800000001
 21
232.9758439999999
 31
0.0
  0
LINE
  5
ACA4
330
AABB
100
AcDbEntity
  8
1
  6
Continuous
100
AcDbLine
 10
431.8758599999998
 20
240.975844
 30
0.0
 11
431.8758599999998
 21
232.9758439999999
 31
0.0
  0
LINE
  5
ACA5
330
AABB
100
AcDbEntity
  8
1
  6
Continuous
100
AcDbLine
 10
251.9334779999998
 20
455.801908
 30
0.0
 11
259.9334779999999
 21
455.801908
 31
0.0
  0
LINE
  5
ACA6
330
AABB
100
AcDbEntity
  8
1
  6
Continuous
100
AcDbLine
 10
251.933854
 20
108.126528
 30
0.0
 11
259.933854
 21
108.126528
 31
0.0
  0
ARC
  5
ACA7
330
AABB
100
AcDbEntity
  8
1
  6
Continuous
100
AcDbCircle
 10
399.476381
 20
247.5554219999999
 30
0.0
 40
89.99881399999997
100
AcDbArc
 50
348.4111759999998
 51
357.674795
  0
ARC
  5
ACA8
330
AABB
100
AcDbEntity
  8
1
  6
Continuous
100
AcDbCircle
 10
526.275113
 20
247.5554219999999
 30
0.0
 40
89.99881399999997
100
AcDbArc
 50
182.325205
 51
191.5888239999999
  0
CIRCLE
  5
ACA9
330
AABB
100
AcDbEntity
  8
1
  6
Continuous
100
AcDbCircle
 10
305.9334779999999
 20
486.801795
 30
0.0
 40
13.0
  0
ARC
  5
ACAA
330
AABB
100
AcDbEntity
  8
1
  6
Continuous
100
AcDbCircle
 10
305.9334779999999
 20
486.801795
 30
0.0
 40
10.7
100
AcDbArc
 50
294.326207
 51
65.673793
  0
LINE
  5
ACAB
330
AABB
100
AcDbEntity
  8
1
  6
Continuous
100
AcDbLine
 10
310.341142
 20
496.551795
 30
0.0
 11
301.525814
 21
496.551795
 31
0.0
  0
LINE
  5
ACAC
330
AABB
100
AcDbEntity
  8
1
  6
Continuous
100
AcDbLine
 10
310.341142
 20
477.051795
 30
0.0
 11
301.525814
 21
477.051795
 31
0.0
  0
ARC
  5
ACAD
330
AABB
100
AcDbEntity
  8
1
  6
Continuous
100
AcDbCircle
 10
305.9334779999999
 20
486.801795
 30
0.0
 40
10.7
100
AcDbArc
 50
114.326207
 51
245.673793
  0
ARC
  5
ACAE
330
AABB
100
AcDbEntity
  8
1
  6
Continuous
100
AcDbCircle
 10
-31.9205
 20
394.515463
 30
0.0
 40
348.654346
100
AcDbArc
 50
357.619569
 51
2.377015
  0
ARC
  5
ACAF
330
AABB
100
AcDbEntity
  8
1
  6
Continuous
100
AcDbCircle
 10
643.7881929999997
 20
394.515463
 30
0.0
 40
348.654346
100
AcDbArc
 50
177.6229849999998
 51
182.380431
  0
LINE
  5
ACB0
330
AABB
100
AcDbEntity
  8
1
  6
Continuous
100
AcDbLine
 10
292.933847
 20
344.575844
 30
0.0
 11
318.933847
 21
344.575844
 31
0.0
  0
LINE
  5
ACB1
330
AABB
100
AcDbEntity
  8
1
  6
Continuous
100
AcDbLine
 10
292.933847
 20
342.975844
 30
0.0
 11
318.933847
 21
342.975844
 31
0.0
  0
LINE
  5
ACB2
330
AABB
100
AcDbEntity
  8
1
  6
Continuous
100
AcDbLine
 10
293.809354
 20
342.9758589999999
 30
0.0
 11
293.809354
 21
338.4758589999999
 31
0.0
  0
LINE
  5
ACB3
330
AABB
100
AcDbEntity
  8
1
  6
Continuous
100
AcDbLine
 10
292.933847
 20
344.575844
 30
0.0
 11
292.933847
 21
342.975844
 31
0.0
  0
ARC
  5
ACB4
330
AABB
100
AcDbEntity
  8
1
  6
Continuous
100
AcDbCircle
 10
21.26696799999999
 20
363.1871219999999
 30
0.0
 40
295.4668789999999
100
AcDbArc
 50
357.4178549999999
 51
2.586525999999999
  0
ARC
  5
ACB5
330
AABB
100
AcDbEntity
  8
1
  6
Continuous
100
AcDbCircle
 10
590.6006969999999
 20
363.1871219999999
 30
0.0
 40
295.46685
100
AcDbArc
 50
177.413473
 51
182.582145
  0
LINE
  5
ACB6
330
AABB
100
AcDbEntity
  8
1
  6
Continuous
100
AcDbLine
 10
295.433847
 20
349.8758439999999
 30
0.0
 11
316.433847
 21
349.8758439999999
 31
0.0
  0
LINE
  5
ACB7
330
AABB
100
AcDbEntity
  8
1
  6
Continuous
100
AcDbLine
 10
295.433847
 20
345.575844
 30
0.0
 11
295.433847
 21
349.8758439999999
 31
0.0
  0
ARC
  5
ACB8
330
AABB
100
AcDbEntity
  8
1
  6
Continuous
100
AcDbCircle
 10
296.433847
 20
345.575844
 30
0.0
 40
1.0
100
AcDbArc
 50
180.0
 51
270.0
  0
LINE
  5
ACB9
330
AABB
100
AcDbEntity
  8
1
  6
Continuous
100
AcDbLine
 10
299.871854
 20
342.9758589999999
 30
0.0
 11
299.871854
 21
338.4758589999999
 31
0.0
  0
LINE
  5
ACBA
330
AABB
100
AcDbEntity
  8
1
  6
Continuous
100
AcDbLine
 10
316.433847
 20
345.575844
 30
0.0
 11
316.433847
 21
349.8758439999999
 31
0.0
  0
ARC
  5
ACBB
330
AABB
100
AcDbEntity
  8
1
  6
Continuous
100
AcDbCircle
 10
315.433847
 20
345.575844
 30
0.0
 40
1.0
100
AcDbArc
 50
270.0
 51
0.0
  0
LINE
  5
ACBC
330
AABB
100
AcDbEntity
  8
1
  6
Continuous
100
AcDbLine
 10
318.058354
 20
342.9758589999999
 30
0.0
 11
318.058354
 21
338.4758589999999
 31
0.0
  0
LINE
  5
ACBD
330
AABB
100
AcDbEntity
  8
1
  6
Continuous
100
AcDbLine
 10
311.995854
 20
342.9758589999999
 30
0.0
 11
311.995854
 21
338.4758589999999
 31
0.0
  0
LINE
  5
ACBE
330
AABB
100
AcDbEntity
  8
1
  6
Continuous
100
AcDbLine
 10
318.933847
 20
342.975844
 30
0.0
 11
318.933847
 21
344.575844
 31
0.0
  0
LINE
  5
ACBF
330
AABB
100
AcDbEntity
  8
1
  6
Continuous
100
AcDbLine
 10
296.433847
 20
377.4758439999998
 30
0.0
 11
315.433847
 21
377.4758439999998
 31
0.0
  0
LINE
  5
ACC0
330
AABB
100
AcDbEntity
  8
1
  6
Continuous
100
AcDbLine
 10
296.433847
 20
379.075844
 30
0.0
 11
315.433847
 21
379.075844
 31
0.0
  0
LINE
  5
ACC1
330
AABB
100
AcDbEntity
  8
1
  6
Continuous
100
AcDbLine
 10
297.0338469999999
 20
379.075844
 30
0.0
 11
297.0338469999999
 21
377.4758439999998
 31
0.0
  0
ARC
  5
ACC2
330
AABB
100
AcDbEntity
  8
1
  6
Continuous
100
AcDbCircle
 10
296.433847
 20
380.075844
 30
0.0
 40
1.0
100
AcDbArc
 50
182.380431
 51
270.0
  0
ARC
  5
ACC3
330
AABB
100
AcDbEntity
  8
1
  6
Continuous
100
AcDbCircle
 10
296.433847
 20
376.475844
 30
0.0
 40
1.0
100
AcDbArc
 50
90.0
 51
177.413473
  0
LINE
  5
ACC4
330
AABB
100
AcDbEntity
  8
1
  6
Continuous
100
AcDbLine
 10
314.833847
 20
377.4758439999998
 30
0.0
 11
314.833847
 21
379.075844
 31
0.0
  0
ARC
  5
ACC5
330
AABB
100
AcDbEntity
  8
1
  6
Continuous
100
AcDbCircle
 10
315.433847
 20
380.075844
 30
0.0
 40
1.0
100
AcDbArc
 50
270.0
 51
357.619569
  0
ARC
  5
ACC6
330
AABB
100
AcDbEntity
  8
1
  6
Continuous
100
AcDbCircle
 10
315.433847
 20
376.475844
 30
0.0
 40
1.0
100
AcDbArc
 50
2.586525999999999
 51
90.0
  0
LINE
  5
ACC7
330
AABB
100
AcDbEntity
  8
1
  6
Continuous
100
AcDbLine
 10
301.433847
 20
417.9758439999998
 30
0.0
 11
310.433847
 21
417.9758439999998
 31
0.0
  0
LINE
  5
ACC8
330
AABB
100
AcDbEntity
  8
1
  6
Continuous
100
AcDbLine
 10
299.933847
 20
416.4758439999998
 30
0.0
 11
311.933847
 21
416.4758439999998
 31
0.0
  0
LINE
  5
ACC9
330
AABB
100
AcDbEntity
  8
1
  6
Continuous
100
AcDbLine
 10
295.2338539999999
 20
411.975844
 30
0.0
 11
316.6338539999999
 21
411.975844
 31
0.0
  0
LINE
  5
ACCA
330
AABB
100
AcDbEntity
  8
1
  6
Continuous
100
AcDbLine
 10
295.2338539999999
 20
415.975844
 30
0.0
 11
316.6338539999999
 21
415.975844
 31
0.0
  0
LINE
  5
ACCB
330
AABB
100
AcDbEntity
  8
1
  6
Continuous
100
AcDbLine
 10
295.433847
 20
408.9758439999997
 30
0.0
 11
316.433847
 21
408.9758439999997
 31
0.0
  0
LINE
  5
ACCC
330
AABB
100
AcDbEntity
  8
1
  6
Continuous
100
AcDbLine
 10
299.933847
 20
416.4758439999998
 30
0.0
 11
299.933847
 21
415.975844
 31
0.0
  0
LINE
  5
ACCD
330
AABB
100
AcDbEntity
  8
1
  6
Continuous
100
AcDbLine
 10
301.526566
 20
415.975844
 30
0.0
 11
301.526566
 21
411.975844
 31
0.0
  0
LINE
  5
ACCE
330
AABB
100
AcDbEntity
  8
1
  6
Continuous
100
AcDbLine
 10
299.933847
 20
416.4758439999998
 30
0.0
 11
301.433847
 21
417.9758439999998
 31
0.0
  0
LINE
  5
ACCF
330
AABB
100
AcDbEntity
  8
1
  6
Continuous
100
AcDbLine
 10
295.2338539999999
 20
415.975844
 30
0.0
 11
295.2338539999999
 21
411.975844
 31
0.0
  0
LINE
  5
ACD0
330
AABB
100
AcDbEntity
  8
1
  6
Continuous
100
AcDbLine
 10
296.433847
 20
411.975844
 30
0.0
 11
296.433847
 21
408.9758439999997
 31
0.0
  0
LINE
  5
ACD1
330
AABB
100
AcDbEntity
  8
1
  6
Continuous
100
AcDbLine
 10
311.933847
 20
416.4758439999998
 30
0.0
 11
311.933847
 21
415.975844
 31
0.0
  0
LINE
  5
ACD2
330
AABB
100
AcDbEntity
  8
1
  6
Continuous
100
AcDbLine
 10
316.6338539999999
 20
411.975844
 30
0.0
 11
316.6338539999999
 21
415.975844
 31
0.0
  0
LINE
  5
ACD3
330
AABB
100
AcDbEntity
  8
1
  6
Continuous
100
AcDbLine
 10
310.3418939999999
 20
415.975844
 30
0.0
 11
310.3418939999999
 21
411.975844
 31
0.0
  0
LINE
  5
ACD4
330
AABB
100
AcDbEntity
  8
1
  6
Continuous
100
AcDbLine
 10
311.933847
 20
416.4758439999998
 30
0.0
 11
310.433847
 21
417.9758439999998
 31
0.0
  0
LINE
  5
ACD5
330
AABB
100
AcDbEntity
  8
1
  6
Continuous
100
AcDbLine
 10
315.433847
 20
408.9758439999997
 30
0.0
 11
315.433847
 21
411.975844
 31
0.0
  0
LINE
  5
ACD6
330
AABB
100
AcDbEntity
  8
2
  6
Continuous
100
AcDbLine
 10
300.6103539999998
 20
417.1523509999998
 30
0.0
 11
300.6103539999998
 21
415.975844
 31
0.0
  0
LINE
  5
ACD7
330
AABB
100
AcDbEntity
  8
2
  6
Continuous
100
AcDbLine
 10
311.257354
 20
417.152337
 30
0.0
 11
311.257354
 21
415.975844
 31
0.0
  0
ARC
  5
ACD8
330
AABB
100
AcDbEntity
  8
1
  6
Continuous
100
AcDbCircle
 10
-268.862386
 20
394.515463
 30
0.0
 40
348.654346
100
AcDbArc
 50
357.619569
 51
2.377015
  0
ARC
  5
ACD9
330
AABB
100
AcDbEntity
  8
1
  6
Continuous
100
AcDbCircle
 10
406.8463069999998
 20
394.515463
 30
0.0
 40
348.654346
100
AcDbArc
 50
177.6229849999998
 51
182.380431
  0
LINE
  5
ACDA
330
AABB
100
AcDbEntity
  8
1
  6
Continuous
100
AcDbLine
 10
59.49196099999999
 20
377.4758439999998
 30
0.0
 11
78.491961
 21
377.4758439999998
 31
0.0
  0
LINE
  5
ACDB
330
AABB
100
AcDbEntity
  8
1
  6
Continuous
100
AcDbLine
 10
59.49196099999999
 20
379.075844
 30
0.0
 11
78.491961
 21
379.075844
 31
0.0
  0
LINE
  5
ACDC
330
AABB
100
AcDbEntity
  8
1
  6
Continuous
100
AcDbLine
 10
55.991961
 20
344.575844
 30
0.0
 11
81.99196099999998
 21
344.575844
 31
0.0
  0
LINE
  5
ACDD
330
AABB
100
AcDbEntity
  8
1
  6
Continuous
100
AcDbLine
 10
58.491961
 20
349.8758439999999
 30
0.0
 11
79.491961
 21
349.8758439999999
 31
0.0
  0
LINE
  5
ACDE
330
AABB
100
AcDbEntity
  8
1
  6
Continuous
100
AcDbLine
 10
55.991961
 20
342.975844
 30
0.0
 11
81.99196099999998
 21
342.975844
 31
0.0
  0
ARC
  5
ACDF
330
AABB
100
AcDbEntity
  8
1
  6
Continuous
100
AcDbCircle
 10
353.658811
 20
363.1871219999999
 30
0.0
 40
295.46685
100
AcDbArc
 50
177.413473
 51
182.582145
  0
LINE
  5
ACE0
330
AABB
100
AcDbEntity
  8
1
  6
Continuous
100
AcDbLine
 10
58.491961
 20
345.575844
 30
0.0
 11
58.491961
 21
349.8758439999999
 31
0.0
  0
ARC
  5
ACE1
330
AABB
100
AcDbEntity
  8
1
  6
Continuous
100
AcDbCircle
 10
59.49196099999999
 20
345.575844
 30
0.0
 40
1.0
100
AcDbArc
 50
180.0
 51
270.0
  0
LINE
  5
ACE2
330
AABB
100
AcDbEntity
  8
1
  6
Continuous
100
AcDbLine
 10
58.491961
 20
342.975844
 30
0.0
 11
58.491961
 21
338.475844
 31
0.0
  0
LINE
  5
ACE3
330
AABB
100
AcDbEntity
  8
1
  6
Continuous
100
AcDbLine
 10
55.991961
 20
344.575844
 30
0.0
 11
55.991961
 21
342.975844
 31
0.0
  0
LINE
  5
ACE4
330
AABB
100
AcDbEntity
  8
1
  6
Continuous
100
AcDbLine
 10
60.091961
 20
379.075844
 30
0.0
 11
60.091961
 21
377.4758439999998
 31
0.0
  0
ARC
  5
ACE5
330
AABB
100
AcDbEntity
  8
1
  6
Continuous
100
AcDbCircle
 10
59.49196099999999
 20
380.075844
 30
0.0
 40
1.0
100
AcDbArc
 50
182.380431
 51
270.0
  0
ARC
  5
ACE6
330
AABB
100
AcDbEntity
  8
1
  6
Continuous
100
AcDbCircle
 10
59.49196099999999
 20
376.475844
 30
0.0
 40
1.0
100
AcDbArc
 50
90.0
 51
177.413473
  0
ARC
  5
ACE7
330
AABB
100
AcDbEntity
  8
1
  6
Continuous
100
AcDbCircle
 10
-215.6749179999999
 20
363.1871219999999
 30
0.0
 40
295.4668789999999
100
AcDbArc
 50
357.4178549999999
 51
2.586525999999999
  0
LINE
  5
ACE8
330
AABB
100
AcDbEntity
  8
1
  6
Continuous
100
AcDbLine
 10
79.491961
 20
345.575844
 30
0.0
 11
79.491961
 21
349.8758439999999
 31
0.0
  0
ARC
  5
ACE9
330
AABB
100
AcDbEntity
  8
1
  6
Continuous
100
AcDbCircle
 10
78.491961
 20
345.575844
 30
0.0
 40
1.0
100
AcDbArc
 50
270.0
 51
0.0
  0
LINE
  5
ACEA
330
AABB
100
AcDbEntity
  8
1
  6
Continuous
100
AcDbLine
 10
79.491961
 20
342.975844
 30
0.0
 11
79.491961
 21
338.475844
 31
0.0
  0
LINE
  5
ACEB
330
AABB
100
AcDbEntity
  8
1
  6
Continuous
100
AcDbLine
 10
81.99196099999998
 20
342.975844
 30
0.0
 11
81.99196099999998
 21
344.575844
 31
0.0
  0
LINE
  5
ACEC
330
AABB
100
AcDbEntity
  8
1
  6
Continuous
100
AcDbLine
 10
77.89196099999998
 20
377.4758439999998
 30
0.0
 11
77.89196099999998
 21
379.075844
 31
0.0
  0
ARC
  5
ACED
330
AABB
100
AcDbEntity
  8
1
  6
Continuous
100
AcDbCircle
 10
78.491961
 20
380.075844
 30
0.0
 40
1.0
100
AcDbArc
 50
270.0
 51
357.619569
  0
ARC
  5
ACEE
330
AABB
100
AcDbEntity
  8
1
  6
Continuous
100
AcDbCircle
 10
78.491961
 20
376.475844
 30
0.0
 40
1.0
100
AcDbArc
 50
2.586525999999999
 51
90.0
  0
LINE
  5
ACEF
330
AABB
100
AcDbEntity
  8
1
  6
Continuous
100
AcDbLine
 10
64.491961
 20
417.9758439999998
 30
0.0
 11
73.491961
 21
417.9758439999998
 31
0.0
  0
LINE
  5
ACF0
330
AABB
100
AcDbEntity
  8
1
  6
Continuous
100
AcDbLine
 10
62.99196099999999
 20
416.4758439999998
 30
0.0
 11
74.991961
 21
416.4758439999998
 31
0.0
  0
LINE
  5
ACF1
330
AABB
100
AcDbEntity
  8
1
  6
Continuous
100
AcDbLine
 10
59.24196099999999
 20
411.975844
 30
0.0
 11
78.741961
 21
411.975844
 31
0.0
  0
LINE
  5
ACF2
330
AABB
100
AcDbEntity
  8
1
  6
Continuous
100
AcDbLine
 10
59.24196099999999
 20
415.975844
 30
0.0
 11
78.741961
 21
415.975844
 31
0.0
  0
LINE
  5
ACF3
330
AABB
100
AcDbEntity
  8
1
  6
Continuous
100
AcDbLine
 10
58.491961
 20
408.9758439999997
 30
0.0
 11
79.491961
 21
408.9758439999997
 31
0.0
  0
LINE
  5
ACF4
330
AABB
100
AcDbEntity
  8
2
  6
Continuous
100
AcDbLine
 10
63.668461
 20
417.1523439999998
 30
0.0
 11
63.668461
 21
415.975844
 31
0.0
  0
LINE
  5
ACF5
330
AABB
100
AcDbEntity
  8
1
  6
Continuous
100
AcDbLine
 10
62.99196099999999
 20
416.4758439999998
 30
0.0
 11
62.99196099999999
 21
415.975844
 31
0.0
  0
LINE
  5
ACF6
330
AABB
100
AcDbEntity
  8
1
  6
Continuous
100
AcDbLine
 10
59.24196099999999
 20
415.975844
 30
0.0
 11
59.24196099999999
 21
411.975844
 31
0.0
  0
LINE
  5
ACF7
330
AABB
100
AcDbEntity
  8
1
  6
Continuous
100
AcDbLine
 10
62.99196099999999
 20
416.4758439999998
 30
0.0
 11
64.491961
 21
417.9758439999998
 31
0.0
  0
LINE
  5
ACF8
330
AABB
100
AcDbEntity
  8
1
  6
Continuous
100
AcDbLine
 10
59.49196099999999
 20
411.975844
 30
0.0
 11
59.49196099999999
 21
408.9758439999997
 31
0.0
  0
LINE
  5
ACF9
330
AABB
100
AcDbEntity
  8
2
  6
Continuous
100
AcDbLine
 10
74.315461
 20
417.1523439999998
 30
0.0
 11
74.315461
 21
415.975844
 31
0.0
  0
LINE
  5
ACFA
330
AABB
100
AcDbEntity
  8
1
  6
Continuous
100
AcDbLine
 10
78.741961
 20
411.975844
 30
0.0
 11
78.741961
 21
415.975844
 31
0.0
  0
LINE
  5
ACFB
330
AABB
100
AcDbEntity
  8
1
  6
Continuous
100
AcDbLine
 10
74.991961
 20
416.4758439999998
 30
0.0
 11
74.991961
 21
415.975844
 31
0.0
  0
LINE
  5
ACFC
330
AABB
100
AcDbEntity
  8
1
  6
Continuous
100
AcDbLine
 10
74.991961
 20
416.4758439999998
 30
0.0
 11
73.491961
 21
417.9758439999998
 31
0.0
  0
LINE
  5
ACFD
330
AABB
100
AcDbEntity
  8
1
  6
Continuous
100
AcDbLine
 10
78.491961
 20
408.9758439999997
 30
0.0
 11
78.491961
 21
411.975844
 31
0.0
  0
ARC
  5
ACFE
330
AABB
100
AcDbEntity
  8
1
  6
Continuous
100
AcDbCircle
 10
305.9334779999999
 20
486.801795
 30
0.0
 40
10.5
100
AcDbArc
 50
248.213211
 51
291.786789
  0
ARC
  5
ACFF
330
AABB
100
AcDbEntity
  8
1
  6
Continuous
100
AcDbCircle
 10
305.9334779999999
 20
486.801795
 30
0.0
 40
10.5
100
AcDbArc
 50
68.213211
 51
111.7867889999999
  0
ARC
  5
AD00
330
AABB
100
AcDbEntity
  8
1
  6
Continuous
100
AcDbCircle
 10
747.5425969999998
 20
363.1871219999999
 30
0.0
 40
295.46685
100
AcDbArc
 50
177.413473
 51
182.582145
  0
ARC
  5
AD01
330
AABB
100
AcDbEntity
  8
1
  6
Continuous
100
AcDbCircle
 10
178.208868
 20
363.1871219999999
 30
0.0
 40
295.4668789999999
100
AcDbArc
 50
357.4178549999999
 51
2.586525999999999
  0
LINE
  5
AD02
330
AABB
100
AcDbEntity
  8
1
  6
Continuous
100
AcDbLine
 10
449.875747
 20
344.575844
 30
0.0
 11
475.8757469999998
 21
344.575844
 31
0.0
  0
LINE
  5
AD03
330
AABB
100
AcDbEntity
  8
1
  6
Continuous
100
AcDbLine
 10
452.3757469999998
 20
349.8758439999999
 30
0.0
 11
473.3757469999998
 21
349.8758439999999
 31
0.0
  0
LINE
  5
AD04
330
AABB
100
AcDbEntity
  8
1
  6
Continuous
100
AcDbLine
 10
449.875747
 20
342.975844
 30
0.0
 11
475.8757469999998
 21
342.975844
 31
0.0
  0
LINE
  5
AD05
330
AABB
100
AcDbEntity
  8
1
  6
Continuous
100
AcDbLine
 10
452.3757469999998
 20
345.575844
 30
0.0
 11
452.3757469999998
 21
349.8758439999999
 31
0.0
  0
ARC
  5
AD06
330
AABB
100
AcDbEntity
  8
1
  6
Continuous
100
AcDbCircle
 10
453.375747
 20
345.575844
 30
0.0
 40
1.0
100
AcDbArc
 50
180.0
 51
270.0
  0
LINE
  5
AD07
330
AABB
100
AcDbEntity
  8
1
  6
Continuous
100
AcDbLine
 10
452.3757469999998
 20
342.975844
 30
0.0
 11
452.3757469999998
 21
338.475844
 31
0.0
  0
LINE
  5
AD08
330
AABB
100
AcDbEntity
  8
1
  6
Continuous
100
AcDbLine
 10
449.875747
 20
344.575844
 30
0.0
 11
449.875747
 21
342.975844
 31
0.0
  0
LINE
  5
AD09
330
AABB
100
AcDbEntity
  8
1
  6
Continuous
100
AcDbLine
 10
473.3757469999998
 20
345.575844
 30
0.0
 11
473.3757469999998
 21
349.8758439999999
 31
0.0
  0
ARC
  5
AD0A
330
AABB
100
AcDbEntity
  8
1
  6
Continuous
100
AcDbCircle
 10
472.3757469999998
 20
345.575844
 30
0.0
 40
1.0
100
AcDbArc
 50
270.0
 51
0.0
  0
LINE
  5
AD0B
330
AABB
100
AcDbEntity
  8
1
  6
Continuous
100
AcDbLine
 10
473.3757469999998
 20
342.975844
 30
0.0
 11
473.3757469999998
 21
338.475844
 31
0.0
  0
LINE
  5
AD0C
330
AABB
100
AcDbEntity
  8
1
  6
Continuous
100
AcDbLine
 10
475.8757469999998
 20
342.975844
 30
0.0
 11
475.8757469999998
 21
344.575844
 31
0.0
  0
LINE
  5
AD0D
330
AABB
100
AcDbEntity
  8
1
  6
Continuous
100
AcDbLine
 10
456.875747
 20
416.4758439999998
 30
0.0
 11
458.375747
 21
417.9758439999998
 31
0.0
  0
LINE
  5
AD0E
330
AABB
100
AcDbEntity
  8
1
  6
Continuous
100
AcDbLine
 10
453.375747
 20
379.075844
 30
0.0
 11
472.3757469999998
 21
379.075844
 31
0.0
  0
LINE
  5
AD0F
330
AABB
100
AcDbEntity
  8
1
  6
Continuous
100
AcDbLine
 10
456.875747
 20
416.4758439999998
 30
0.0
 11
468.8757469999997
 21
416.4758439999998
 31
0.0
  0
LINE
  5
AD10
330
AABB
100
AcDbEntity
  8
1
  6
Continuous
100
AcDbLine
 10
453.1257469999998
 20
411.975844
 30
0.0
 11
472.625747
 21
411.975844
 31
0.0
  0
LINE
  5
AD11
330
AABB
100
AcDbEntity
  8
1
  6
Continuous
100
AcDbLine
 10
453.1257469999998
 20
415.975844
 30
0.0
 11
472.625747
 21
415.975844
 31
0.0
  0
LINE
  5
AD12
330
AABB
100
AcDbEntity
  8
1
  6
Continuous
100
AcDbLine
 10
452.3757469999998
 20
408.9758439999997
 30
0.0
 11
473.3757469999998
 21
408.9758439999997
 31
0.0
  0
LINE
  5
AD13
330
AABB
100
AcDbEntity
  8
1
  6
Continuous
100
AcDbLine
 10
453.375747
 20
377.4758439999998
 30
0.0
 11
472.3757469999998
 21
377.4758439999998
 31
0.0
  0
ARC
  5
AD14
330
AABB
100
AcDbEntity
  8
1
  6
Continuous
100
AcDbCircle
 10
800.7300929999999
 20
394.515463
 30
0.0
 40
348.654346
100
AcDbArc
 50
177.6229849999998
 51
182.380431
  0
ARC
  5
AD15
330
AABB
100
AcDbEntity
  8
1
  6
Continuous
100
AcDbCircle
 10
453.375747
 20
380.075844
 30
0.0
 40
1.0
100
AcDbArc
 50
182.380431
 51
270.0
  0
ARC
  5
AD16
330
AABB
100
AcDbEntity
  8
1
  6
Continuous
100
AcDbCircle
 10
453.375747
 20
376.475844
 30
0.0
 40
1.0
100
AcDbArc
 50
90.0
 51
177.413473
  0
LINE
  5
AD17
330
AABB
100
AcDbEntity
  8
1
  6
Continuous
100
AcDbLine
 10
453.9757469999998
 20
379.075844
 30
0.0
 11
453.9757469999998
 21
377.4758439999998
 31
0.0
  0
LINE
  5
AD18
330
AABB
100
AcDbEntity
  8
2
  6
Continuous
100
AcDbLine
 10
457.552247
 20
417.1523439999998
 30
0.0
 11
457.552247
 21
415.975844
 31
0.0
  0
LINE
  5
AD19
330
AABB
100
AcDbEntity
  8
1
  6
Continuous
100
AcDbLine
 10
456.875747
 20
416.4758439999998
 30
0.0
 11
456.875747
 21
415.975844
 31
0.0
  0
LINE
  5
AD1A
330
AABB
100
AcDbEntity
  8
1
  6
Continuous
100
AcDbLine
 10
453.1257469999998
 20
415.975844
 30
0.0
 11
453.1257469999998
 21
411.975844
 31
0.0
  0
LINE
  5
AD1B
330
AABB
100
AcDbEntity
  8
1
  6
Continuous
100
AcDbLine
 10
453.375747
 20
411.975844
 30
0.0
 11
453.375747
 21
408.9758439999997
 31
0.0
  0
ARC
  5
AD1C
330
AABB
100
AcDbEntity
  8
1
  6
Continuous
100
AcDbCircle
 10
125.0213999999999
 20
394.515463
 30
0.0
 40
348.654346
100
AcDbArc
 50
357.619569
 51
2.377015
  0
ARC
  5
AD1D
330
AABB
100
AcDbEntity
  8
1
  6
Continuous
100
AcDbCircle
 10
472.3757469999998
 20
380.075844
 30
0.0
 40
1.0
100
AcDbArc
 50
270.0
 51
357.619569
  0
ARC
  5
AD1E
330
AABB
100
AcDbEntity
  8
1
  6
Continuous
100
AcDbCircle
 10
472.3757469999998
 20
376.475844
 30
0.0
 40
1.0
100
AcDbArc
 50
2.586525999999999
 51
90.0
  0
LINE
  5
AD1F
330
AABB
100
AcDbEntity
  8
1
  6
Continuous
100
AcDbLine
 10
471.7757469999998
 20
377.4758439999998
 30
0.0
 11
471.7757469999998
 21
379.075844
 31
0.0
  0
LINE
  5
AD20
330
AABB
100
AcDbEntity
  8
2
  6
Continuous
100
AcDbLine
 10
468.1992469999998
 20
417.1523439999998
 30
0.0
 11
468.1992469999998
 21
415.975844
 31
0.0
  0
LINE
  5
AD21
330
AABB
100
AcDbEntity
  8
1
  6
Continuous
100
AcDbLine
 10
472.625747
 20
411.975844
 30
0.0
 11
472.625747
 21
415.975844
 31
0.0
  0
LINE
  5
AD22
330
AABB
100
AcDbEntity
  8
1
  6
Continuous
100
AcDbLine
 10
468.8757469999997
 20
416.4758439999998
 30
0.0
 11
468.8757469999997
 21
415.975844
 31
0.0
  0
LINE
  5
AD23
330
AABB
100
AcDbEntity
  8
1
  6
Continuous
100
AcDbLine
 10
468.8757469999997
 20
416.4758439999998
 30
0.0
 11
467.3757469999998
 21
417.9758439999998
 31
0.0
  0
LINE
  5
AD24
330
AABB
100
AcDbEntity
  8
1
  6
Continuous
100
AcDbLine
 10
472.3757469999998
 20
408.9758439999997
 30
0.0
 11
472.3757469999998
 21
411.975844
 31
0.0
  0
LINE
  5
AD25
330
AABB
100
AcDbEntity
  8
1
  6
Continuous
100
AcDbLine
 10
458.375747
 20
417.9758439999998
 30
0.0
 11
467.3757469999998
 21
417.9758439999998
 31
0.0
  0
ARC
  5
AD26
330
AABB
100
AcDbEntity
  8
1
  6
Continuous
100
AcDbCircle
 10
904.484483
 20
363.1871219999999
 30
0.0
 40
295.46685
100
AcDbArc
 50
177.413473
 51
182.582145
  0
ARC
  5
AD27
330
AABB
100
AcDbEntity
  8
1
  6
Continuous
100
AcDbCircle
 10
335.150754
 20
363.1871219999999
 30
0.0
 40
295.4668789999999
100
AcDbArc
 50
357.4178549999999
 51
2.586525999999999
  0
LINE
  5
AD28
330
AABB
100
AcDbEntity
  8
1
  6
Continuous
100
AcDbLine
 10
606.817633
 20
344.575844
 30
0.0
 11
632.8176329999998
 21
344.575844
 31
0.0
  0
LINE
  5
AD29
330
AABB
100
AcDbEntity
  8
1
  6
Continuous
100
AcDbLine
 10
606.817633
 20
342.975844
 30
0.0
 11
632.8176329999998
 21
342.975844
 31
0.0
  0
LINE
  5
AD2A
330
AABB
100
AcDbEntity
  8
1
  6
Continuous
100
AcDbLine
 10
609.317633
 20
349.8758439999999
 30
0.0
 11
630.317633
 21
349.8758439999999
 31
0.0
  0
LINE
  5
AD2B
330
AABB
100
AcDbEntity
  8
1
  6
Continuous
100
AcDbLine
 10
613.7556400000002
 20
342.9758589999999
 30
0.0
 11
613.7556400000002
 21
338.4758589999999
 31
0.0
  0
LINE
  5
AD2C
330
AABB
100
AcDbEntity
  8
1
  6
Continuous
100
AcDbLine
 10
606.817633
 20
344.575844
 30
0.0
 11
606.817633
 21
342.975844
 31
0.0
  0
LINE
  5
AD2D
330
AABB
100
AcDbEntity
  8
1
  6
Continuous
100
AcDbLine
 10
609.317633
 20
345.575844
 30
0.0
 11
609.317633
 21
349.8758439999999
 31
0.0
  0
ARC
  5
AD2E
330
AABB
100
AcDbEntity
  8
1
  6
Continuous
100
AcDbCircle
 10
610.317633
 20
345.575844
 30
0.0
 40
1.0
100
AcDbArc
 50
180.0
 51
270.0
  0
LINE
  5
AD2F
330
AABB
100
AcDbEntity
  8
1
  6
Continuous
100
AcDbLine
 10
607.6931400000002
 20
342.9758589999999
 30
0.0
 11
607.6931400000002
 21
338.4758589999999
 31
0.0
  0
LINE
  5
AD30
330
AABB
100
AcDbEntity
  8
1
  6
Continuous
100
AcDbLine
 10
630.317633
 20
345.575844
 30
0.0
 11
630.317633
 21
349.8758439999999
 31
0.0
  0
ARC
  5
AD31
330
AABB
100
AcDbEntity
  8
1
  6
Continuous
100
AcDbCircle
 10
629.317633
 20
345.575844
 30
0.0
 40
1.0
100
AcDbArc
 50
270.0
 51
0.0
  0
LINE
  5
AD32
330
AABB
100
AcDbEntity
  8
1
  6
Continuous
100
AcDbLine
 10
632.8176329999998
 20
342.975844
 30
0.0
 11
632.8176329999998
 21
344.575844
 31
0.0
  0
LINE
  5
AD33
330
AABB
100
AcDbEntity
  8
1
  6
Continuous
100
AcDbLine
 10
631.94214
 20
342.9758589999999
 30
0.0
 11
631.94214
 21
338.4758589999999
 31
0.0
  0
LINE
  5
AD34
330
AABB
100
AcDbEntity
  8
1
  6
Continuous
100
AcDbLine
 10
625.87964
 20
342.9758589999999
 30
0.0
 11
625.87964
 21
338.4758589999999
 31
0.0
  0
ARC
  5
AD35
330
AABB
100
AcDbEntity
  8
1
  6
Continuous
100
AcDbCircle
 10
957.671979
 20
394.515463
 30
0.0
 40
348.654346
100
AcDbArc
 50
177.6229849999998
 51
182.380431
  0
ARC
  5
AD36
330
AABB
100
AcDbEntity
  8
1
  6
Continuous
100
AcDbCircle
 10
281.963286
 20
394.515463
 30
0.0
 40
348.654346
100
AcDbArc
 50
357.619569
 51
2.377015
  0
LINE
  5
AD37
330
AABB
100
AcDbEntity
  8
1
  6
Continuous
100
AcDbLine
 10
610.317633
 20
377.4758439999998
 30
0.0
 11
629.317633
 21
377.4758439999998
 31
0.0
  0
LINE
  5
AD38
330
AABB
100
AcDbEntity
  8
1
  6
Continuous
100
AcDbLine
 10
610.317633
 20
379.075844
 30
0.0
 11
629.317633
 21
379.075844
 31
0.0
  0
LINE
  5
AD39
330
AABB
100
AcDbEntity
  8
1
  6
Continuous
100
AcDbLine
 10
610.917633
 20
379.075844
 30
0.0
 11
610.917633
 21
377.4758439999998
 31
0.0
  0
ARC
  5
AD3A
330
AABB
100
AcDbEntity
  8
1
  6
Continuous
100
AcDbCircle
 10
610.317633
 20
380.075844
 30
0.0
 40
1.0
100
AcDbArc
 50
182.380431
 51
270.0
  0
ARC
  5
AD3B
330
AABB
100
AcDbEntity
  8
1
  6
Continuous
100
AcDbCircle
 10
610.317633
 20
376.475844
 30
0.0
 40
1.0
100
AcDbArc
 50
90.0
 51
177.413473
  0
LINE
  5
AD3C
330
AABB
100
AcDbEntity
  8
1
  6
Continuous
100
AcDbLine
 10
628.717633
 20
377.4758439999998
 30
0.0
 11
628.717633
 21
379.075844
 31
0.0
  0
ARC
  5
AD3D
330
AABB
100
AcDbEntity
  8
1
  6
Continuous
100
AcDbCircle
 10
629.317633
 20
380.075844
 30
0.0
 40
1.0
100
AcDbArc
 50
270.0
 51
357.619569
  0
ARC
  5
AD3E
330
AABB
100
AcDbEntity
  8
1
  6
Continuous
100
AcDbCircle
 10
629.317633
 20
376.475844
 30
0.0
 40
1.0
100
AcDbArc
 50
2.586525999999999
 51
90.0
  0
LINE
  5
AD3F
330
AABB
100
AcDbEntity
  8
1
  6
Continuous
100
AcDbLine
 10
615.3176329999999
 20
417.9758439999998
 30
0.0
 11
624.3176329999998
 21
417.9758439999998
 31
0.0
  0
LINE
  5
AD40
330
AABB
100
AcDbEntity
  8
1
  6
Continuous
100
AcDbLine
 10
613.817633
 20
416.4758439999998
 30
0.0
 11
625.817633
 21
416.4758439999998
 31
0.0
  0
LINE
  5
AD41
330
AABB
100
AcDbEntity
  8
1
  6
Continuous
100
AcDbLine
 10
609.1176400000001
 20
411.975844
 30
0.0
 11
630.51764
 21
411.975844
 31
0.0
  0
LINE
  5
AD42
330
AABB
100
AcDbEntity
  8
1
  6
Continuous
100
AcDbLine
 10
609.1176400000001
 20
415.975844
 30
0.0
 11
630.51764
 21
415.975844
 31
0.0
  0
LINE
  5
AD43
330
AABB
100
AcDbEntity
  8
1
  6
Continuous
100
AcDbLine
 10
609.317633
 20
408.9758439999997
 30
0.0
 11
630.317633
 21
408.9758439999997
 31
0.0
  0
LINE
  5
AD44
330
AABB
100
AcDbEntity
  8
2
  6
Continuous
100
AcDbLine
 10
614.49414
 20
417.1523509999998
 30
0.0
 11
614.49414
 21
415.975844
 31
0.0
  0
LINE
  5
AD45
330
AABB
100
AcDbEntity
  8
1
  6
Continuous
100
AcDbLine
 10
613.817633
 20
416.4758439999998
 30
0.0
 11
613.817633
 21
415.975844
 31
0.0
  0
LINE
  5
AD46
330
AABB
100
AcDbEntity
  8
1
  6
Continuous
100
AcDbLine
 10
615.4103519999997
 20
415.975844
 30
0.0
 11
615.4103519999997
 21
411.975844
 31
0.0
  0
LINE
  5
AD47
330
AABB
100
AcDbEntity
  8
1
  6
Continuous
100
AcDbLine
 10
613.817633
 20
416.4758439999998
 30
0.0
 11
615.3176329999999
 21
417.9758439999998
 31
0.0
  0
LINE
  5
AD48
330
AABB
100
AcDbEntity
  8
1
  6
Continuous
100
AcDbLine
 10
609.1176400000001
 20
415.975844
 30
0.0
 11
609.1176400000001
 21
411.975844
 31
0.0
  0
LINE
  5
AD49
330
AABB
100
AcDbEntity
  8
1
  6
Continuous
100
AcDbLine
 10
610.317633
 20
411.975844
 30
0.0
 11
610.317633
 21
408.9758439999997
 31
0.0
  0
LINE
  5
AD4A
330
AABB
100
AcDbEntity
  8
1
  6
Continuous
100
AcDbLine
 10
630.51764
 20
411.975844
 30
0.0
 11
630.51764
 21
415.975844
 31
0.0
  0
LINE
  5
AD4B
330
AABB
100
AcDbEntity
  8
1
  6
Continuous
100
AcDbLine
 10
629.317633
 20
408.9758439999997
 30
0.0
 11
629.317633
 21
411.975844
 31
0.0
  0
LINE
  5
AD4C
330
AABB
100
AcDbEntity
  8
2
  6
Continuous
100
AcDbLine
 10
625.1411400000002
 20
417.152337
 30
0.0
 11
625.1411400000002
 21
415.975844
 31
0.0
  0
LINE
  5
AD4D
330
AABB
100
AcDbEntity
  8
1
  6
Continuous
100
AcDbLine
 10
625.817633
 20
416.4758439999998
 30
0.0
 11
625.817633
 21
415.975844
 31
0.0
  0
LINE
  5
AD4E
330
AABB
100
AcDbEntity
  8
1
  6
Continuous
100
AcDbLine
 10
624.2256799999998
 20
415.975844
 30
0.0
 11
624.2256799999998
 21
411.975844
 31
0.0
  0
LINE
  5
AD4F
330
AABB
100
AcDbEntity
  8
1
  6
Continuous
100
AcDbLine
 10
625.817633
 20
416.4758439999998
 30
0.0
 11
624.3176329999998
 21
417.9758439999998
 31
0.0
  0
ARC
  5
AD50
330
AABB
100
AcDbEntity
  8
1
  6
Continuous
100
AcDbCircle
 10
255.933854
 20
236.9758589999999
 30
0.0
 40
31.64269099999999
100
AcDbArc
 50
56.900729
 51
15.099271
  0
ARC
  5
AD51
330
AABB
100
AcDbEntity
  8
1
  6
Continuous
100
AcDbCircle
 10
669.81764
 20
236.9758589999999
 30
0.0
 40
31.64269099999999
100
AcDbArc
 50
164.900729
 51
123.0992709999998
  0
ARC
  5
AD52
330
AABB
100
AcDbEntity
  8
1
  6
Continuous
100
AcDbCircle
 10
255.933854
 20
236.9758589999999
 30
0.0
 40
55.0
100
AcDbArc
 50
52.85268399999999
 51
23.259355
  0
ARC
  5
AD53
330
AABB
100
AcDbEntity
  8
1
  6
Continuous
100
AcDbCircle
 10
669.81764
 20
236.9758589999999
 30
0.0
 40
55.0
100
AcDbArc
 50
156.740645
 51
127.1473159999999
  0
ARC
  5
AD54
330
AABB
100
AcDbEntity
  8
1
  6
Continuous
100
AcDbCircle
 10
280.1540489999999
 20
436.3067159999998
 30
0.0
 40
77.195079
100
AcDbArc
 50
62.954166
 51
69.49809000000001
  0
ARC
  5
AD55
330
AABB
100
AcDbEntity
  8
1
  6
Continuous
100
AcDbCircle
 10
305.9334779999999
 20
486.801795
 30
0.0
 40
20.5
100
AcDbArc
 50
297.0462239999998
 51
62.954166
  0
ARC
  5
AD56
330
AABB
100
AcDbEntity
  8
1
  6
Continuous
100
AcDbCircle
 10
280.1540489999999
 20
537.296874
 30
0.0
 40
77.195079
100
AcDbArc
 50
290.50191
 51
297.045834
  0
LINE
  5
AD57
330
AABB
100
AcDbEntity
  8
1
  6
Continuous
100
AcDbLine
 10
270.6592979999999
 20
460.9773299999998
 30
0.0
 11
304.6914399999999
 21
464.4083329999999
 31
0.0
  0
LINE
  5
AD58
330
AABB
100
AcDbEntity
  8
4
  6
CENTER
100
AcDbLine
 10
305.9334779999999
 20
515.9722659999999
 30
0.0
 11
305.9334779999999
 21
456.511985
 31
0.0
  0
ARC
  5
AD59
330
AABB
100
AcDbEntity
  8
1
  6
Continuous
100
AcDbCircle
 10
303.6883599999999
 20
474.3578969999998
 30
0.0
 40
10.0
100
AcDbArc
 50
275.7569099999999
 51
290.50191
  0
LINE
  5
AD5A
330
AABB
100
AcDbEntity
  8
1
  6
Continuous
100
AcDbLine
 10
270.6592979999999
 20
512.62626
 30
0.0
 11
304.6914399999999
 21
509.195258
 31
0.0
  0
ARC
  5
AD5B
330
AABB
100
AcDbEntity
  8
1
  6
Continuous
100
AcDbCircle
 10
303.6883599999999
 20
499.245694
 30
0.0
 40
10.0
100
AcDbArc
 50
69.49809000000001
 51
84.24308999999999
  0
ARC
  5
AD5C
330
AABB
100
AcDbEntity
  8
1
  6
Continuous
100
AcDbCircle
 10
280.1540489999999
 20
436.3067159999998
 30
0.0
 40
77.195079
100
AcDbArc
 50
98.98809100000001
 51
103.078943
  0
ARC
  5
AD5D
330
AABB
100
AcDbEntity
  8
1
  6
Continuous
100
AcDbCircle
 10
269.656218
 20
502.6766959999998
 30
0.0
 40
10.0
100
AcDbArc
 50
84.24308999999999
 51
98.98809100000001
  0
ARC
  5
AD5E
330
AABB
100
AcDbEntity
  8
1
  6
Continuous
100
AcDbCircle
 10
249.622948
 20
567.7250759999998
 30
0.0
 40
57.72316800000001
100
AcDbArc
 50
270.0
 51
283.0789429999999
  0
LINE
  5
AD5F
330
AABB
100
AcDbEntity
  8
1
  6
Continuous
100
AcDbLine
 10
266.1834779999999
 20
510.001908
 30
0.0
 11
245.6834779999998
 21
510.001908
 31
0.0
  0
ARC
  5
AD60
330
AABB
100
AcDbEntity
  8
1
  6
Continuous
100
AcDbCircle
 10
266.1834779999999
 20
460.9239599999998
 30
0.0
 40
46.777948
100
AcDbArc
 50
84.030339
 51
90.0
  0
LINE
  5
AD61
330
AABB
100
AcDbEntity
  8
1
  6
Continuous
100
AcDbLine
 10
298.7462680000001
 20
504.551908
 30
0.0
 11
271.04847
 21
507.448236
 31
0.0
  0
LINE
  5
AD62
330
AABB
100
AcDbEntity
  8
1
  6
Continuous
100
AcDbLine
 10
298.7462680000001
 20
504.551908
 30
0.0
 11
275.6261529999998
 21
509.084949
 31
0.0
  0
ARC
  5
AD63
330
AABB
100
AcDbEntity
  8
1
  6
Continuous
100
AcDbCircle
 10
266.1834779999999
 20
460.9239599999998
 30
0.0
 40
49.077948
100
AcDbArc
 50
78.90702799999998
 51
90.0
  0
LINE
  5
AD64
330
AABB
100
AcDbEntity
  8
1
  6
Continuous
100
AcDbLine
 10
266.1834779999999
 20
507.701908
 30
0.0
 11
245.6834779999998
 21
507.701908
 31
0.0
  0
LINE
  5
AD65
330
AABB
100
AcDbEntity
  8
1
  6
Continuous
100
AcDbLine
 10
298.7462680000001
 20
469.051682
 30
0.0
 11
271.04847
 21
466.1553539999998
 31
0.0
  0
LINE
  5
AD66
330
AABB
100
AcDbEntity
  8
1
  6
Continuous
100
AcDbLine
 10
298.7462680000001
 20
469.051682
 30
0.0
 11
275.6261529999998
 21
464.5186409999998
 31
0.0
  0
ARC
  5
AD67
330
AABB
100
AcDbEntity
  8
1
  6
Continuous
100
AcDbCircle
 10
266.1834779999999
 20
512.6796299999998
 30
0.0
 40
46.777948
100
AcDbArc
 50
270.0
 51
275.9696609999999
  0
ARC
  5
AD68
330
AABB
100
AcDbEntity
  8
1
  6
Continuous
100
AcDbCircle
 10
266.1834779999999
 20
512.6796299999998
 30
0.0
 40
49.077948
100
AcDbArc
 50
270.0
 51
281.0929719999999
  0
LINE
  5
AD69
330
AABB
100
AcDbEntity
  8
1
  6
Continuous
100
AcDbLine
 10
266.1834779999999
 20
465.9016819999997
 30
0.0
 11
245.6834779999998
 21
465.9016819999997
 31
0.0
  0
LINE
  5
AD6A
330
AABB
100
AcDbEntity
  8
1
  6
Continuous
100
AcDbLine
 10
266.1834779999999
 20
463.601682
 30
0.0
 11
245.6834779999998
 21
463.601682
 31
0.0
  0
ARC
  5
AD6B
330
AABB
100
AcDbEntity
  8
1
  6
Continuous
100
AcDbCircle
 10
269.656218
 20
470.926895
 30
0.0
 40
10.0
100
AcDbArc
 50
261.0119089999999
 51
275.7569099999999
  0
ARC
  5
AD6C
330
AABB
100
AcDbEntity
  8
1
  6
Continuous
100
AcDbCircle
 10
280.1540489999999
 20
537.296874
 30
0.0
 40
77.195079
100
AcDbArc
 50
256.9210569999999
 51
261.0119089999999
  0
ARC
  5
AD6D
330
AABB
100
AcDbEntity
  8
1
  6
Continuous
100
AcDbCircle
 10
249.622948
 20
405.878514
 30
0.0
 40
57.72316800000001
100
AcDbArc
 50
76.92105699999998
 51
90.0
  0
ARC
  5
AD6E
330
AABB
100
AcDbEntity
  8
1
  6
Continuous
100
AcDbCircle
 10
305.9334779999999
 20
486.801795
 30
0.0
 40
20.5
100
AcDbArc
 50
118.4721379999999
 51
241.527862
  0
ARC
  5
AD6F
330
AABB
100
AcDbEntity
  8
1
  6
Continuous
100
AcDbCircle
 10
305.933854
 20
77.12664100000002
 30
0.0
 40
18.2
100
AcDbArc
 50
37.138896
 51
67.380135
  0
ARC
  5
AD70
330
AABB
100
AcDbEntity
  8
1
  6
Continuous
100
AcDbCircle
 10
274.3241319999999
 20
-57.58730599999999
 30
0.0
 40
158.353498
100
AcDbArc
 50
75.020139
 51
92.49008600000001
  0
ARC
  5
AD71
330
AABB
100
AcDbEntity
  8
1
  6
Continuous
100
AcDbCircle
 10
280.154425
 20
26.63156199999999
 30
0.0
 40
77.195079
100
AcDbArc
 50
62.954166
 51
69.49809000000001
  0
ARC
  5
AD72
330
AABB
100
AcDbEntity
  8
1
  6
Continuous
100
AcDbCircle
 10
303.688736
 20
89.57053899999998
 30
0.0
 40
10.0
100
AcDbArc
 50
69.49809000000001
 51
84.24308999999999
  0
ARC
  5
AD73
330
AABB
100
AcDbEntity
  8
1
  6
Continuous
100
AcDbCircle
 10
305.933854
 20
77.12664100000002
 30
0.0
 40
20.5
100
AcDbArc
 50
30.36701199999999
 51
62.954166
  0
ARC
  5
AD74
330
AABB
100
AcDbEntity
  8
1
  6
Continuous
100
AcDbCircle
 10
277.942451
 20
-28.43815499999999
 30
0.0
 40
127.2695619999999
100
AcDbArc
 50
74.04160400000002
 51
94.72520400000002
  0
ARC
  5
AD75
330
AABB
100
AcDbEntity
  8
1
  6
Continuous
100
AcDbCircle
 10
305.933854
 20
77.12664100000002
 30
0.0
 40
18.2
100
AcDbArc
 50
82.91844000000002
 51
142.814637
  0
ARC
  5
AD76
330
AABB
100
AcDbEntity
  8
1
  6
Continuous
100
AcDbCircle
 10
266.183854
 20
51.247381
 30
0.0
 40
46.77914699999997
100
AcDbArc
 50
55.329379
 51
90.0
  0
ARC
  5
AD77
330
AABB
100
AcDbEntity
  8
1
  6
Continuous
100
AcDbCircle
 10
305.933854
 20
77.12664100000002
 30
0.0
 40
20.5
100
AcDbArc
 50
137.4092679999999
 51
147.548509
  0
ARC
  5
AD78
330
AABB
100
AcDbEntity
  8
1
  6
Continuous
100
AcDbCircle
 10
270.482568
 20
63.47274999999999
 30
0.0
 40
30.0
100
AcDbArc
 50
55.265023
 51
78.557979
  0
ARC
  5
AD79
330
AABB
100
AcDbEntity
  8
1
  6
Continuous
100
AcDbCircle
 10
270.482568
 20
90.78030699999999
 30
0.0
 40
30.0
100
AcDbArc
 50
281.442021
 51
304.735731
  0
ARC
  5
AD7A
330
AABB
100
AcDbEntity
  8
1
  6
Continuous
100
AcDbCircle
 10
266.183854
 20
103.004476
 30
0.0
 40
46.777948
100
AcDbArc
 50
270.0
 51
304.6716079999999
  0
ARC
  5
AD7B
330
AABB
100
AcDbEntity
  8
1
  6
Continuous
100
AcDbCircle
 10
305.933854
 20
77.12664100000002
 30
0.0
 40
20.5
100
AcDbArc
 50
212.451491
 51
222.5907649999999
  0
ARC
  5
AD7C
330
AABB
100
AcDbEntity
  8
1
  6
Continuous
100
AcDbCircle
 10
305.933854
 20
77.12664100000002
 30
0.0
 40
18.2
100
AcDbArc
 50
217.185363
 51
322.861104
  0
ARC
  5
AD7D
330
AABB
100
AcDbEntity
  8
1
  6
Continuous
100
AcDbCircle
 10
277.942451
 20
182.691437
 30
0.0
 40
127.2695619999999
100
AcDbArc
 50
265.2747959999999
 51
285.958396
  0
ARC
  5
AD7E
330
AABB
100
AcDbEntity
  8
1
  6
Continuous
100
AcDbCircle
 10
274.3241319999999
 20
211.840588
 30
0.0
 40
158.353498
100
AcDbArc
 50
267.5099139999999
 51
284.9798609999999
  0
ARC
  5
AD7F
330
AABB
100
AcDbEntity
  8
1
  6
Continuous
100
AcDbCircle
 10
280.154425
 20
127.62172
 30
0.0
 40
77.195079
100
AcDbArc
 50
290.50191
 51
297.045834
  0
ARC
  5
AD80
330
AABB
100
AcDbEntity
  8
1
  6
Continuous
100
AcDbCircle
 10
305.933854
 20
77.12664100000002
 30
0.0
 40
20.5
100
AcDbArc
 50
297.0462239999998
 51
329.632988
  0
LINE
  5
AD81
330
AABB
100
AcDbEntity
  8
1
  6
Continuous
100
AcDbLine
 10
270.659674
 20
51.302176
 30
0.0
 11
304.691816
 21
54.73317900000001
 31
0.0
  0
ARC
  5
AD82
330
AABB
100
AcDbEntity
  8
1
  6
Continuous
100
AcDbCircle
 10
303.688736
 20
64.682743
 30
0.0
 40
10.0
100
AcDbArc
 50
275.7569099999999
 51
290.50191
  0
ARC
  5
AD83
330
AABB
100
AcDbEntity
  8
1
  6
Continuous
100
AcDbCircle
 10
269.6565939999999
 20
61.251741
 30
0.0
 40
10.0
100
AcDbArc
 50
261.0119089999999
 51
275.7569099999999
  0
ARC
  5
AD84
330
AABB
100
AcDbEntity
  8
1
  6
Continuous
100
AcDbCircle
 10
280.154425
 20
127.62172
 30
0.0
 40
77.195079
100
AcDbArc
 50
256.9210569999999
 51
261.0119089999999
  0
ARC
  5
AD85
330
AABB
100
AcDbEntity
  8
1
  6
Continuous
100
AcDbCircle
 10
264.788427
 20
41.626754
 30
0.0
 40
12.3
100
AcDbArc
 50
77.53058700000003
 51
90.0
  0
LINE
  5
AD86
330
AABB
100
AcDbEntity
  8
1
  6
Continuous
100
AcDbLine
 10
264.788427
 20
53.926528
 30
0.0
 11
245.683854
 21
53.926528
 31
0.0
  0
ARC
  5
AD87
330
AABB
100
AcDbEntity
  8
1
  6
Continuous
100
AcDbCircle
 10
264.755081
 20
46.226754
 30
0.0
 40
10.0
100
AcDbArc
 50
74.316114
 51
90.0
  0
LINE
  5
AD88
330
AABB
100
AcDbEntity
  8
1
  6
Continuous
100
AcDbLine
 10
266.183854
 20
56.226528
 30
0.0
 11
245.683854
 21
56.226528
 31
0.0
  0
ARC
  5
AD89
330
AABB
100
AcDbEntity
  8
1
  6
Continuous
100
AcDbCircle
 10
249.623324
 20
-3.79664
 30
0.0
 40
57.72316800000001
100
AcDbArc
 50
76.92105699999998
 51
90.0
  0
LINE
  5
AD8A
330
AABB
100
AcDbEntity
  8
1
  6
Continuous
100
AcDbLine
 10
270.659674
 20
102.951106
 30
0.0
 11
304.691816
 21
99.520104
 31
0.0
  0
ARC
  5
AD8B
330
AABB
100
AcDbEntity
  8
1
  6
Continuous
100
AcDbCircle
 10
269.6565939999999
 20
93.00154199999999
 30
0.0
 40
10.0
100
AcDbArc
 50
84.24308999999999
 51
98.98809100000001
  0
ARC
  5
AD8C
330
AABB
100
AcDbEntity
  8
1
  6
Continuous
100
AcDbCircle
 10
280.154425
 20
26.63156199999999
 30
0.0
 40
77.195079
100
AcDbArc
 50
98.98809100000001
 51
103.078943
  0
ARC
  5
AD8D
330
AABB
100
AcDbEntity
  8
1
  6
Continuous
100
AcDbCircle
 10
249.623324
 20
158.049922
 30
0.0
 40
57.72316800000001
100
AcDbArc
 50
270.0
 51
283.0789429999999
  0
LINE
  5
AD8E
330
AABB
100
AcDbEntity
  8
1
  6
Continuous
100
AcDbLine
 10
264.788427
 20
100.3265279999999
 30
0.0
 11
245.683854
 21
100.3265279999999
 31
0.0
  0
ARC
  5
AD8F
330
AABB
100
AcDbEntity
  8
1
  6
Continuous
100
AcDbCircle
 10
264.788427
 20
112.6265279999999
 30
0.0
 40
12.3
100
AcDbArc
 50
270.0
 51
282.4694129999999
  0
ARC
  5
AD90
330
AABB
100
AcDbEntity
  8
1
  6
Continuous
100
AcDbCircle
 10
264.755081
 20
108.026528
 30
0.0
 40
10.0
100
AcDbArc
 50
270.0
 51
285.6838859999998
  0
LINE
  5
AD91
330
AABB
100
AcDbEntity
  8
1
  6
Continuous
100
AcDbLine
 10
266.183854
 20
98.02652800000002
 30
0.0
 11
245.683854
 21
98.02652800000002
 31
0.0
  0
ENDSEC
  0
SECTION
  2
OBJECTS
  0
DICTIONARY
  5
AAA9
330
0
100
AcDbDictionary
281
     1
  3
ACAD_CIP_PREVIOUS_PRODUCT_INFO
350
ADF3
  3
ACAD_COLOR
350
ADD5
  3
ACAD_DETAILVIEWSTYLE
350
ADEE
  3
ACAD_GROUP
350
AAAA
  3
ACAD_LAYOUT
350
AAB6
  3
ACAD_MATERIAL
350
ADA3
  3
ACAD_MLEADERSTYLE
350
ADEA
  3
ACAD_MLINESTYLE
350
AAB3
  3
ACAD_PLOTSETTINGS
350
AAB5
  3
ACAD_PLOTSTYLENAME
350
ADA1
  3
ACAD_SCALELIST
350
ADD8
  3
ACAD_SECTIONVIEWSTYLE
350
ADEC
  3
ACAD_TABLESTYLE
350
ADD6
  3
ACAD_VISUALSTYLE
350
ADBC
  3
ACDB_RECOMPOSE_DATA
350
AE11
  3
AcDbVariableDictionary
350
AE04
  3
DWGPROPS
350
AE12
  0
DICTIONARY
  5
ADF4
330
AAAD
100
AcDbDictionary
280
     1
281
     1
  3
ADSK_XREC_LAYER_RECONCILED
360
ADF5
  0
DICTIONARY
  5
ADF6
330
AAC3
100
AcDbDictionary
280
     1
281
     1
  3
ADSK_XREC_LAYER_RECONCILED
360
ADF7
  0
DICTIONARY
  5
ADF8
330
AAC4
100
AcDbDictionary
280
     1
281
     1
  3
ADSK_XREC_LAYER_RECONCILED
360
ADF9
  0
DICTIONARY
  5
ADFA
330
AAC5
100
AcDbDictionary
280
     1
281
     1
  3
ADSK_XREC_LAYER_RECONCILED
360
ADFB
  0
DICTIONARY
  5
ADFC
330
AAC6
100
AcDbDictionary
280
     1
281
     1
  3
ADSK_XREC_LAYER_RECONCILED
360
ADFD
  0
DICTIONARY
  5
ADFE
330
AAC7
100
AcDbDictionary
280
     1
281
     1
  3
ADSK_XREC_LAYER_RECONCILED
360
ADFF
  0
DICTIONARY
  5
AE00
330
AAC8
100
AcDbDictionary
280
     1
281
     1
  3
ADSK_XREC_LAYER_RECONCILED
360
AE01
  0
DICTIONARY
  5
AE02
330
AAC9
100
AcDbDictionary
280
     1
281
     1
  3
ADSK_XREC_LAYER_RECONCILED
360
AE03
  0
DICTIONARY
  5
AD9C
330
AABB
100
AcDbDictionary
281
     1
  3
ACAD_LAYOUTSELFREF
350
AD9D
  0
DICTIONARY
  5
AD9A
330
AAB7
100
AcDbDictionary
281
     1
  3
ACAD_LAYOUTSELFREF
350
AD9B
  0
XRECORD
  5
ADF3
102
{ACAD_REACTORS
330
AAA9
102
}
330
AAA9
100
AcDbXrecord
280
     1
300
ACDLT
300
2014
300
ACDLT_F_S
  0
DICTIONARY
  5
ADD5
102
{ACAD_REACTORS
330
AAA9
102
}
330
AAA9
100
AcDbDictionary
281
     1
  0
DICTIONARY
  5
ADEE
102
{ACAD_REACTORS
330
AAA9
102
}
330
AAA9
100
AcDbDictionary
281
     1
  3
Imperial24
350
ADEF
  0
DICTIONARY
  5
AAAA
102
{ACAD_REACTORS
330
AAA9
102
}
330
AAA9
100
AcDbDictionary
281
     1
  0
DICTIONARY
  5
AAB6
102
{ACAD_REACTORS
330
AAA9
102
}
330
AAA9
100
AcDbDictionary
281
     1
  3
Model
350
ADF0
  3
レイアウト1
350
ADF1
  0
DICTIONARY
  5
ADA3
102
{ACAD_REACTORS
330
AAA9
102
}
330
AAA9
100
AcDbDictionary
281
     1
  3
ByBlock
350
ADAC
  3
ByLayer
350
ADA4
  3
Global
350
ADB4
  0
DICTIONARY
  5
ADEA
102
{ACAD_REACTORS
330
AAA9
102
}
330
AAA9
100
AcDbDictionary
281
     1
  3
Standard
350
ADEB
  0
DICTIONARY
  5
AAB3
102
{ACAD_REACTORS
330
AAA9
102
}
330
AAA9
100
AcDbDictionary
281
     1
  3
STANDARD
350
AAB4
  0
DICTIONARY
  5
AAB5
102
{ACAD_REACTORS
330
AAA9
102
}
330
AAA9
100
AcDbDictionary
281
     1
  0
ACDBDICTIONARYWDFLT
  5
ADA1
102
{ACAD_REACTORS
330
AAA9
102
}
330
AAA9
100
AcDbDictionary
281
     1
  3
Normal
350
ADA2
100
AcDbDictionaryWithDefault
340
ADA2
  0
DICTIONARY
  5
ADD8
102
{ACAD_REACTORS
330
AAA9
102
}
330
AAA9
100
AcDbDictionary
281
     1
  3
A0
350
ADD9
  3
A1
350
ADDA
  3
A2
350
ADDB
  3
A3
350
ADDC
  3
A4
350
ADDD
  3
A5
350
ADDE
  3
A6
350
ADDF
  3
A7
350
ADE0
  3
A8
350
ADE1
  3
A9
350
ADE2
  3
B0
350
ADE3
  3
B1
350
ADE4
  3
B2
350
ADE5
  3
B3
350
ADE6
  3
B4
350
ADE7
  3
B5
350
ADE8
  3
B6
350
ADE9
  0
DICTIONARY
  5
ADEC
102
{ACAD_REACTORS
330
AAA9
102
}
330
AAA9
100
AcDbDictionary
281
     1
  3
Imperial24
350
ADED
  0
DICTIONARY
  5
ADD6
102
{ACAD_REACTORS
330
AAA9
102
}
330
AAA9
100
AcDbDictionary
281
     1
  3
Standard
350
ADD7
  0
DICTIONARY
  5
ADBC
102
{ACAD_REACTORS
330
AAA9
102
}
330
AAA9
100
AcDbDictionary
281
     1
  3
2dWireframe
350
ADC2
  3
Basic
350
ADC1
  3
Brighten
350
ADC8
  3
ColorChange
350
ADCC
  3
Conceptual
350
ADC5
  3
Dim
350
ADC7
  3
EdgeColorOff
350
ADD4
  3
Facepattern
350
ADCB
  3
Flat
350
ADBD
  3
FlatWithEdges
350
ADBE
  3
Gouraud
350
ADBF
  3
GouraudWithEdges
350
ADC0
  3
Hidden
350
ADC4
  3
JitterOff
350
ADD2
  3
Linepattern
350
ADCA
  3
OverhangOff
350
ADD3
  3
Realistic
350
ADC6
  3
Shaded
350
ADD1
  3
Shaded with edges
350
ADD0
  3
Shades of Gray
350
ADCD
  3
Sketchy
350
ADCE
  3
Thicken
350
ADC9
  3
Wireframe
350
ADC3
  3
X-Ray
350
ADCF
  0
XRECORD
  5
AE11
102
{ACAD_REACTORS
330
AAA9
102
}
330
AAA9
100
AcDbXrecord
280
     1
 90
        1
330
ADD7
  0
DICTIONARY
  5
AE04
102
{ACAD_REACTORS
330
AAA9
102
}
330
AAA9
100
AcDbDictionary
281
     1
  3
CANNOSCALE
350
AE09
  3
CMLEADERSTYLE
350
AE06
  3
CTABLESTYLE
350
AE05
  3
CVIEWDETAILSTYLE
350
AE07
  3
CVIEWSECTIONSTYLE
350
AE08
  3
DIMASSOC
350
AE0C
  3
INDEXCTL
350
AE0B
  3
SORTENTS
350
AE0A
  3
XCLIPFRAME
350
AE0D
  0
XRECORD
  5
AE12
102
{ACAD_REACTORS
330
AAA9
102
}
330
AAA9
100
AcDbXrecord
280
     1
  1
DWGPROPS COOKIE
  2

  3

  4

  6

  7

  8
Yoshitsune
  9

300
=
301
=
302
=
303
=
304
=
305
=
306
=
307
=
308
=
309
=
 40
0.0000503703703704
 41
2451301.719305209
 42
2457618.724081655
  1

 90
        0
  0
XRECORD
  5
ADF5
102
{ACAD_REACTORS
330
ADF4
102
}
330
ADF4
100
AcDbXrecord
280
     1
290
     1
  0
XRECORD
  5
ADF7
102
{ACAD_REACTORS
330
ADF6
102
}
330
ADF6
100
AcDbXrecord
280
     1
290
     1
  0
XRECORD
  5
ADF9
102
{ACAD_REACTORS
330
ADF8
102
}
330
ADF8
100
AcDbXrecord
280
     1
290
     1
  0
XRECORD
  5
ADFB
102
{ACAD_REACTORS
330
ADFA
102
}
330
ADFA
100
AcDbXrecord
280
     1
290
     1
  0
XRECORD
  5
ADFD
102
{ACAD_REACTORS
330
ADFC
102
}
330
ADFC
100
AcDbXrecord
280
     1
290
     1
  0
XRECORD
  5
ADFF
102
{ACAD_REACTORS
330
ADFE
102
}
330
ADFE
100
AcDbXrecord
280
     1
290
     1
  0
XRECORD
  5
AE01
102
{ACAD_REACTORS
330
AE00
102
}
330
AE00
100
AcDbXrecord
280
     1
290
     1
  0
XRECORD
  5
AE03
102
{ACAD_REACTORS
330
AE02
102
}
330
AE02
100
AcDbXrecord
280
     1
290
     1
  0
XRECORD
  5
AD9D
102
{ACAD_REACTORS
330
AD9C
102
}
330
AD9C
100
AcDbXrecord
280
     1
340
AABB
  0
XRECORD
  5
AD9B
102
{ACAD_REACTORS
330
AD9A
102
}
330
AD9A
100
AcDbXrecord
280
     1
340
AAB7
  0
ACDBDETAILVIEWSTYLE
  5
ADEF
102
{ACAD_XDICTIONARY
360
AE4A
102
}
102
{ACAD_REACTORS
330
ADEE
102
}
330
ADEE
100
AcDbModelDocViewStyle
 70
     0
  3
Imperial24
290
     0
100
AcDbDetailViewStyle
 70
     0
 71
     0
 90
        3
 71
     1
340
AAAE
 40
0.24
340
0
 40
0.24
300

 40
0.36
280
     3
 71
     2
340
AAB2
 90
       25
 71
     3
340
AAAE
 40
0.24
 90
        1
 40
0.75
 90
        1
300
%<\AcVar ViewType \f "%tc1">% %<\AcVar ViewDetailId>%\PSCALE %<\AcVar ViewScale \f "%sn">%
 71
     4
340
AAB2
 90
       25
340
AAB2
 90
       25
280
     0
  0
LAYOUT
  5
ADF0
102
{ACAD_XDICTIONARY
360
AE4C
102
}
102
{ACAD_REACTORS
330
AAB6
102
}
330
AAB6
100
AcDbPlotSettings
  1

  2
Canon LBP9100C
  4

  6

 40
0.0
 41
0.0
 42
0.0
 43
0.0
 44
0.0
 45
0.0
 46
0.0
 47
0.0
 48
0.0
 49
0.0
140
0.0
141
0.0
142
1.0
143
1.0
 70
  1712
 72
     0
 73
     0
 74
     0
  7

 75
     0
147
1.0
148
0.0
149
0.0
100
AcDbLayout
  1
Model
 70
     1
 71
     0
 10
0.0
 20
0.0
 11
12.0
 21
9.0
 12
0.0
 22
0.0
 32
0.0
 14
0.0
 24
0.0
 34
0.0
 15
0.0
 25
0.0
 35
0.0
146
0.0
 13
0.0
 23
0.0
 33
0.0
 16
1.0
 26
0.0
 36
0.0
 17
0.0
 27
1.0
 37
0.0
 76
     0
330
AABB
331
AD99
  0
LAYOUT
  5
ADF1
102
{ACAD_XDICTIONARY
360
AE4E
102
}
102
{ACAD_REACTORS
330
AAB6
102
}
330
AAB6
100
AcDbPlotSettings
  1

  2
Canon LBP9100C
  4

  6

 40
0.0
 41
0.0
 42
0.0
 43
0.0
 44
0.0
 45
0.0
 46
0.0
 47
0.0
 48
0.0
 49
0.0
140
0.0
141
0.0
142
1.0
143
1.0
 70
   688
 72
     0
 73
     0
 74
     5
  7

 75
    16
147
1.0
148
0.0
149
0.0
100
AcDbLayout
  1
レイアウト1
 70
     0
 71
     1
 10
0.0
 20
0.0
 11
420.0
 21
297.0
 12
0.0
 22
0.0
 32
0.0
 14
1.000000000000000E+20
 24
1.000000000000000E+20
 34
1.000000000000000E+20
 15
-1.000000000000000E+20
 25
-1.000000000000000E+20
 35
-1.000000000000000E+20
146
0.0
 13
0.0
 23
0.0
 33
0.0
 16
1.0
 26
0.0
 36
0.0
 17
0.0
 27
1.0
 37
0.0
 76
     0
330
AAB7
  0
MATERIAL
  5
ADAC
102
{ACAD_XDICTIONARY
360
ADAD
102
}
102
{ACAD_REACTORS
330
ADA3
102
}
330
ADA3
100
AcDbMaterial
  1
ByBlock
 72
     0
 43
0.0208333333333333
 43
0.0
 43
0.0
 43
0.0
 43
0.0
 43
0.0208333333333333
 43
0.0
 43
0.0
 43
0.0
 43
0.0
 43
1.0
 43
0.0
 43
0.0
 43
0.0
 43
0.0
 43
1.0
 77
     0
 47
0.0208333333333333
 47
0.0
 47
0.0
 47
0.0
 47
0.0
 47
0.0208333333333333
 47
0.0
 47
0.0
 47
0.0
 47
0.0
 47
1.0
 47
0.0
 47
0.0
 47
0.0
 47
0.0
 47
1.0
171
     0
 49
0.0208333333333333
 49
0.0
 49
0.0
 49
0.0
 49
0.0
 49
0.0208333333333333
 49
0.0
 49
0.0
 49
0.0
 49
0.0
 49
1.0
 49
0.0
 49
0.0
 49
0.0
 49
0.0
 49
1.0
175
     0
142
0.0208333333333333
142
0.0
142
0.0
142
0.0
142
0.0
142
0.0208333333333333
142
0.0
142
0.0
142
0.0
142
0.0
142
1.0
142
0.0
142
0.0
142
0.0
142
0.0
142
1.0
179
     0
144
0.0208333333333333
144
0.0
144
0.0
144
0.0
144
0.0
144
0.0208333333333333
144
0.0
144
0.0
144
0.0
144
0.0
144
1.0
144
0.0
144
0.0
144
0.0
144
0.0
144
1.0
147
0.0208333333333333
147
0.0
147
0.0
147
0.0
147
0.0
147
0.0208333333333333
147
0.0
147
0.0
147
0.0
147
0.0
147
1.0
147
0.0
147
0.0
147
0.0
147
0.0
147
1.0
  0
MATERIAL
  5
ADA4
102
{ACAD_XDICTIONARY
360
ADA5
102
}
102
{ACAD_REACTORS
330
ADA3
102
}
330
ADA3
100
AcDbMaterial
  1
ByLayer
 72
     0
 43
0.0208333333333333
 43
0.0
 43
0.0
 43
0.0
 43
0.0
 43
0.0208333333333333
 43
0.0
 43
0.0
 43
0.0
 43
0.0
 43
1.0
 43
0.0
 43
0.0
 43
0.0
 43
0.0
 43
1.0
 77
     0
 47
0.0208333333333333
 47
0.0
 47
0.0
 47
0.0
 47
0.0
 47
0.0208333333333333
 47
0.0
 47
0.0
 47
0.0
 47
0.0
 47
1.0
 47
0.0
 47
0.0
 47
0.0
 47
0.0
 47
1.0
171
     0
 49
0.0208333333333333
 49
0.0
 49
0.0
 49
0.0
 49
0.0
 49
0.0208333333333333
 49
0.0
 49
0.0
 49
0.0
 49
0.0
 49
1.0
 49
0.0
 49
0.0
 49
0.0
 49
0.0
 49
1.0
175
     0
142
0.0208333333333333
142
0.0
142
0.0
142
0.0
142
0.0
142
0.0208333333333333
142
0.0
142
0.0
142
0.0
142
0.0
142
1.0
142
0.0
142
0.0
142
0.0
142
0.0
142
1.0
179
     0
144
0.0208333333333333
144
0.0
144
0.0
144
0.0
144
0.0
144
0.0208333333333333
144
0.0
144
0.0
144
0.0
144
0.0
144
1.0
144
0.0
144
0.0
144
0.0
144
0.0
144
1.0
147
0.0208333333333333
147
0.0
147
0.0
147
0.0
147
0.0
147
0.0208333333333333
147
0.0
147
0.0
147
0.0
147
0.0
147
1.0
147
0.0
147
0.0
147
0.0
147
0.0
147
1.0
  0
MATERIAL
  5
ADB4
102
{ACAD_XDICTIONARY
360
ADB5
102
}
102
{ACAD_REACTORS
330
ADA3
102
}
330
ADA3
100
AcDbMaterial
  1
Global
 72
     0
 43
0.0208333333333333
 43
0.0
 43
0.0
 43
0.0
 43
0.0
 43
0.0208333333333333
 43
0.0
 43
0.0
 43
0.0
 43
0.0
 43
1.0
 43
0.0
 43
0.0
 43
0.0
 43
0.0
 43
1.0
 77
     0
 47
0.0208333333333333
 47
0.0
 47
0.0
 47
0.0
 47
0.0
 47
0.0208333333333333
 47
0.0
 47
0.0
 47
0.0
 47
0.0
 47
1.0
 47
0.0
 47
0.0
 47
0.0
 47
0.0
 47
1.0
171
     0
 49
0.0208333333333333
 49
0.0
 49
0.0
 49
0.0
 49
0.0
 49
0.0208333333333333
 49
0.0
 49
0.0
 49
0.0
 49
0.0
 49
1.0
 49
0.0
 49
0.0
 49
0.0
 49
0.0
 49
1.0
175
     0
142
0.0208333333333333
142
0.0
142
0.0
142
0.0
142
0.0
142
0.0208333333333333
142
0.0
142
0.0
142
0.0
142
0.0
142
1.0
142
0.0
142
0.0
142
0.0
142
0.0
142
1.0
179
     0
144
0.0208333333333333
144
0.0
144
0.0
144
0.0
144
0.0
144
0.0208333333333333
144
0.0
144
0.0
144
0.0
144
0.0
144
1.0
144
0.0
144
0.0
144
0.0
144
0.0
144
1.0
147
0.0208333333333333
147
0.0
147
0.0
147
0.0
147
0.0
147
0.0208333333333333
147
0.0
147
0.0
147
0.0
147
0.0
147
1.0
147
0.0
147
0.0
147
0.0
147
0.0
147
1.0
  0
MLEADERSTYLE
  5
ADEB
102
{ACAD_REACTORS
330
ADEA
102
}
330
ADEA
100
AcDbMLeaderStyle
170
     2
171
     1
172
     0
 90
        2
 40
0.0
 41
0.0
173
     1
 91
-1056964608
340
AAB0
 92
       -2
290
     1
 42
0.09
291
     1
 43
0.36
  3
Standard
 44
0.18
300

342
AAAE
174
     1
178
     6
175
     1
176
     0
 93
-1056964608
 45
0.18
292
     0
297
     0
 46
0.18
 94
-1056964608
 47
1.0
 49
1.0
140
1.0
293
     1
141
0.0
294
     1
177
     0
142
1.0
295
     0
296
     0
143
0.125
1001
ACAD_MLEADERVER
1070
     2
  0
MLINESTYLE
  5
AAB4
102
{ACAD_REACTORS
330
AAB3
102
}
330
AAB3
100
AcDbMlineStyle
  2
STANDARD
 70
     0
  3

 62
   256
 51
90.0
 52
90.0
 71
     2
 49
0.5
 62
   256
  6
BYLAYER
 49
-0.5
 62
   256
  6
BYLAYER
  0
ACDBPLACEHOLDER
  5
ADA2
102
{ACAD_REACTORS
330
ADA1
102
}
330
ADA1
  0
SCALE
  5
ADD9
102
{ACAD_REACTORS
330
ADD8
102
}
330
ADD8
100
AcDbScale
 70
     0
300
1:1
140
1.0
141
1.0
290
     1
  0
SCALE
  5
ADDA
102
{ACAD_REACTORS
330
ADD8
102
}
330
ADD8
100
AcDbScale
 70
     0
300
1/128" = 1'-0"
140
0.0078125
141
12.0
290
     0
  0
SCALE
  5
ADDB
102
{ACAD_REACTORS
330
ADD8
102
}
330
ADD8
100
AcDbScale
 70
     0
300
1/64" = 1'-0"
140
0.015625
141
12.0
290
     0
  0
SCALE
  5
ADDC
102
{ACAD_REACTORS
330
ADD8
102
}
330
ADD8
100
AcDbScale
 70
     0
300
1/32" = 1'-0"
140
0.03125
141
12.0
290
     0
  0
SCALE
  5
ADDD
102
{ACAD_REACTORS
330
ADD8
102
}
330
ADD8
100
AcDbScale
 70
     0
300
1/16" = 1'-0"
140
0.0625
141
12.0
290
     0
  0
SCALE
  5
ADDE
102
{ACAD_REACTORS
330
ADD8
102
}
330
ADD8
100
AcDbScale
 70
     0
300
3/32" = 1'-0"
140
0.09375
141
12.0
290
     0
  0
SCALE
  5
ADDF
102
{ACAD_REACTORS
330
ADD8
102
}
330
ADD8
100
AcDbScale
 70
     0
300
1/8" = 1'-0"
140
0.125
141
12.0
290
     0
  0
SCALE
  5
ADE0
102
{ACAD_REACTORS
330
ADD8
102
}
330
ADD8
100
AcDbScale
 70
     0
300
3/16" = 1'-0"
140
0.1875
141
12.0
290
     0
  0
SCALE
  5
ADE1
102
{ACAD_REACTORS
330
ADD8
102
}
330
ADD8
100
AcDbScale
 70
     0
300
1/4" = 1'-0"
140
0.25
141
12.0
290
     0
  0
SCALE
  5
ADE2
102
{ACAD_REACTORS
330
ADD8
102
}
330
ADD8
100
AcDbScale
 70
     0
300
3/8" = 1'-0"
140
0.375
141
12.0
290
     0
  0
SCALE
  5
ADE3
102
{ACAD_REACTORS
330
ADD8
102
}
330
ADD8
100
AcDbScale
 70
     0
300
1/2" = 1'-0"
140
0.5
141
12.0
290
     0
  0
SCALE
  5
ADE4
102
{ACAD_REACTORS
330
ADD8
102
}
330
ADD8
100
AcDbScale
 70
     0
300
3/4" = 1'-0"
140
0.75
141
12.0
290
     0
  0
SCALE
  5
ADE5
102
{ACAD_REACTORS
330
ADD8
102
}
330
ADD8
100
AcDbScale
 70
     0
300
1" = 1'-0"
140
1.0
141
12.0
290
     0
  0
SCALE
  5
ADE6
102
{ACAD_REACTORS
330
ADD8
102
}
330
ADD8
100
AcDbScale
 70
     0
300
1-1/2" = 1'-0"
140
1.5
141
12.0
290
     0
  0
SCALE
  5
ADE7
102
{ACAD_REACTORS
330
ADD8
102
}
330
ADD8
100
AcDbScale
 70
     0
300
3" = 1'-0"
140
3.0
141
12.0
290
     0
  0
SCALE
  5
ADE8
102
{ACAD_REACTORS
330
ADD8
102
}
330
ADD8
100
AcDbScale
 70
     0
300
6" = 1'-0"
140
6.0
141
12.0
290
     0
  0
SCALE
  5
ADE9
102
{ACAD_REACTORS
330
ADD8
102
}
330
ADD8
100
AcDbScale
 70
     0
300
1'-0" = 1'-0"
140
12.0
141
12.0
290
     0
  0
ACDBSECTIONVIEWSTYLE
  5
ADED
102
{ACAD_XDICTIONARY
360
AE48
102
}
102
{ACAD_REACTORS
330
ADEC
102
}
330
ADEC
100
AcDbModelDocViewStyle
 70
     0
  3
Imperial24
290
     0
100
AcDbSectionViewStyle
 70
     0
 71
     0
 90
       78
 71
     1
340
AAAE
 40
0.24
340
0
340
0
 40
0.24
300
I, O, Q, S, X, Z
 40
0.48
 90
        3
 40
0.18
 90
        1
 71
     2
340
AAB2
 90
       25
340
AAB2
 90
       50
 40
0.24
 40
0.0
 40
0.24
 71
     3
340
AAAE
 40
0.24
 90
        1
 40
0.75
 90
        1
300
%<\AcVar ViewType \f "%tc1">% %<\AcVar ViewSectionStartId>%-%<\AcVar ViewSectionEndId>%\PSCALE %<\AcVar ViewScale \f "%sn">%
 71
     4
300
ANSI31
 40
1.0
 90
        0
290
     0
290
     0
 90
        6
 40
0.0
 40
1.570796326794896
 40
0.2617993877991494
 40
1.308996938995747
 40
-0.2617993877991494
 40
1.832595714594046
  0
TABLESTYLE
  5
ADD7
102
{ACAD_XDICTIONARY
360
AE0F
102
}
102
{ACAD_REACTORS
330
ADD6
102
}
330
ADD6
100
AcDbTableStyle
  3
Standard
 70
     0
 71
     0
 40
0.06
 41
0.06
280
     0
281
     0
  7
STANDARD
140
0.18
170
     2
 62
     0
 63
     7
283
     0
274
    -2
284
     1
 64
     0
275
    -2
285
     1
 65
     0
276
    -2
286
     1
 66
     0
277
    -2
287
     1
 67
     0
278
    -2
288
     1
 68
     0
279
    -2
289
     1
 69
     0
  7
STANDARD
140
0.25
170
     5
 62
     0
 63
     7
283
     0
274
    -2
284
     1
 64
     0
275
    -2
285
     1
 65
     0
276
    -2
286
     1
 66
     0
277
    -2
287
     1
 67
     0
278
    -2
288
     1
 68
     0
279
    -2
289
     1
 69
     0
  7
STANDARD
140
0.18
170
     5
 62
     0
 63
     7
283
     0
274
    -2
284
     1
 64
     0
275
    -2
285
     1
 65
     0
276
    -2
286
     1
 66
     0
277
    -2
287
     1
 67
     0
278
    -2
288
     1
 68
     0
279
    -2
289
     1
 69
     0
  0
VISUALSTYLE
  5
ADC2
102
{ACAD_XDICTIONARY
360
AE20
102
}
102
{ACAD_REACTORS
330
ADBC
102
}
330
ADBC
100
AcDbVisualStyle
  2
2dWireframe
 70
     4
 71
     0
 72
     2
 73
     0
 90
        0
 40
-0.6
 41
-30.0
 62
     5
 63
     7
 74
     1
 91
        4
 64
     7
 65
   257
 75
     1
175
     1
 42
1.0
 92
        0
 66
   257
 43
1.0
 76
     1
 77
     6
 78
     2
 67
     7
 79
     5
170
     0
171
     0
290
     0
174
     0
 93
        1
 44
0.0
173
     0
291
     0
 45
0.0
1001
ACAD
1000
AcDbSavedByObjectVersion
1070
     0
  0
VISUALSTYLE
  5
ADC1
102
{ACAD_XDICTIONARY
360
AE1E
102
}
102
{ACAD_REACTORS
330
ADBC
102
}
330
ADBC
100
AcDbVisualStyle
  2
Basic
 70
     7
 71
     1
 72
     0
 73
     1
 90
        0
 40
-0.6
 41
-30.0
 62
     5
 63
     7
 74
     0
 91
        4
 64
     7
 65
   257
 75
     1
175
     1
 42
1.0
 92
        8
 66
     7
 43
1.0
 76
     1
 77
     6
 78
     2
 67
     7
 79
     5
170
     0
171
     0
290
     0
174
     0
 93
        1
 44
0.0
173
     0
291
     1
 45
0.0
1001
ACAD
1000
AcDbSavedByObjectVersion
1070
     0
  0
VISUALSTYLE
  5
ADC8
102
{ACAD_XDICTIONARY
360
AE2C
102
}
102
{ACAD_REACTORS
330
ADBC
102
}
330
ADBC
100
AcDbVisualStyle
  2
Brighten
 70
    12
 71
     2
 72
     2
 73
     0
 90
        0
 40
-0.6
 41
-30.0
 62
     5
 63
     7
 74
     1
 91
        4
 64
     7
 65
   257
 75
     1
175
     1
 42
1.0
 92
        8
 66
     7
 43
1.0
 76
     1
 77
     6
 78
     2
 67
     7
 79
     5
170
     0
171
     0
290
     0
174
     0
 93
        1
 44
50.0
173
     0
291
     1
 45
0.0
1001
ACAD
1000
AcDbSavedByObjectVersion
1070
     0
  0
VISUALSTYLE
  5
ADCC
102
{ACAD_XDICTIONARY
360
AE34
102
}
102
{ACAD_REACTORS
330
ADBC
102
}
330
ADBC
100
AcDbVisualStyle
  2
ColorChange
 70
    16
 71
     2
 72
     2
 73
     3
 90
        0
 40
-0.6
 41
-30.0
 62
     5
 63
     8
 74
     1
 91
        4
 64
     7
 65
   257
 75
     1
175
     1
 42
1.0
 92
        8
 66
     8
 43
1.0
 76
     1
 77
     6
 78
     2
 67
     7
 79
     5
170
     0
171
     0
290
     0
174
     0
 93
        1
 44
0.0
173
     0
291
     1
 45
0.0
1001
ACAD
1000
AcDbSavedByObjectVersion
1070
     0
  0
VISUALSTYLE
  5
ADC5
102
{ACAD_XDICTIONARY
360
AE26
102
}
102
{ACAD_REACTORS
330
ADBC
102
}
330
ADBC
100
AcDbVisualStyle
  2
Conceptual
 70
     9
 71
     3
 72
     2
 73
     0
 90
        0
 40
-0.6
 41
-30.0
 62
     5
 63
     7
 74
     2
 91
        2
 64
     7
 65
   257
 75
     1
175
     1
 42
179.0
 92
        8
 66
     7
 43
1.0
 76
     1
 77
     6
 78
     2
 67
     7
 79
     3
170
     0
171
     0
290
     0
174
     0
 93
        1
 44
0.0
173
     0
291
     0
 45
0.0
1001
ACAD
1000
AcDbSavedByObjectVersion
1070
     0
  0
VISUALSTYLE
  5
ADC7
102
{ACAD_XDICTIONARY
360
AE2A
102
}
102
{ACAD_REACTORS
330
ADBC
102
}
330
ADBC
100
AcDbVisualStyle
  2
Dim
 70
    11
 71
     2
 72
     2
 73
     0
 90
        0
 40
-0.6
 41
-30.0
 62
     5
 63
     7
 74
     1
 91
        4
 64
     7
 65
   257
 75
     1
175
     1
 42
1.0
 92
        8
 66
     7
 43
1.0
 76
     1
 77
     6
 78
     2
 67
     7
 79
     5
170
     0
171
     0
290
     0
174
     0
 93
        1
 44
-50.0
173
     0
291
     1
 45
0.0
1001
ACAD
1000
AcDbSavedByObjectVersion
1070
     0
  0
VISUALSTYLE
  5
ADD4
102
{ACAD_XDICTIONARY
360
AE44
102
}
102
{ACAD_REACTORS
330
ADBC
102
}
330
ADBC
100
AcDbVisualStyle
  2
EdgeColorOff
 70
    22
 71
     2
 72
     2
 73
     0
 90
        0
 40
-0.6
 41
-30.0
 62
     5
 63
     7
 74
     1
 91
        4
 64
     7
 65
   257
 75
     1
175
     1
 42
1.0
 92
        8
 66
     7
 43
1.0
 76
     1
 77
     6
 78
     2
 67
     7
 79
     5
170
     0
171
     0
290
     0
174
     0
 93
        1
 44
0.0
173
     0
291
     1
 45
0.0
1001
ACAD
1000
AcDbSavedByObjectVersion
1070
     0
  0
VISUALSTYLE
  5
ADCB
102
{ACAD_XDICTIONARY
360
AE32
102
}
102
{ACAD_REACTORS
330
ADBC
102
}
330
ADBC
100
AcDbVisualStyle
  2
Facepattern
 70
    15
 71
     2
 72
     2
 73
     0
 90
        0
 40
-0.6
 41
-30.0
 62
     5
 63
     7
 74
     1
 91
        4
 64
     7
 65
   257
 75
     1
175
     1
 42
1.0
 92
        8
 66
     7
 43
1.0
 76
     1
 77
     6
 78
     2
 67
     7
 79
     5
170
     0
171
     0
290
     0
174
     0
 93
        1
 44
0.0
173
     0
291
     1
 45
0.0
1001
ACAD
1000
AcDbSavedByObjectVersion
1070
     0
  0
VISUALSTYLE
  5
ADBD
102
{ACAD_XDICTIONARY
360
AE16
102
}
102
{ACAD_REACTORS
330
ADBC
102
}
330
ADBC
100
AcDbVisualStyle
  2
Flat
 70
     0
 71
     2
 72
     1
 73
     1
 90
        2
 40
-0.6
 41
30.0
 62
     5
 63
     7
 74
     0
 91
        0
 64
     7
 65
   257
 75
     1
175
     1
 42
1.0
 92
        8
 66
     7
 43
1.0
 76
     1
 77
     6
 78
     2
 67
     7
 79
     5
170
     0
171
     0
290
     0
174
     0
 93
       13
 44
0.0
173
     0
291
     1
 45
0.0
1001
ACAD
1000
AcDbSavedByObjectVersion
1070
     0
  0
VISUALSTYLE
  5
ADBE
102
{ACAD_XDICTIONARY
360
AE18
102
}
102
{ACAD_REACTORS
330
ADBC
102
}
330
ADBC
100
AcDbVisualStyle
  2
FlatWithEdges
 70
     1
 71
     2
 72
     1
 73
     1
 90
        2
 40
-0.6
 41
30.0
 62
     5
 63
     7
 74
     1
 91
        0
 64
     7
 65
   257
 75
     1
175
     1
 42
1.0
 92
        0
 66
   257
 43
1.0
 76
     1
 77
     6
 78
     2
 67
     7
 79
     5
170
     0
171
     0
290
     0
174
     0
 93
       13
 44
0.0
173
     0
291
     1
 45
0.0
1001
ACAD
1000
AcDbSavedByObjectVersion
1070
     0
  0
VISUALSTYLE
  5
ADBF
102
{ACAD_XDICTIONARY
360
AE1A
102
}
102
{ACAD_REACTORS
330
ADBC
102
}
330
ADBC
100
AcDbVisualStyle
  2
Gouraud
 70
     2
 71
     2
 72
     2
 73
     1
 90
        2
 40
-0.6
 41
30.0
 62
     5
 63
     7
 74
     0
 91
        0
 64
     7
 65
   257
 75
     1
175
     1
 42
1.0
 92
        0
 66
     7
 43
1.0
 76
     1
 77
     6
 78
     2
 67
     7
 79
     5
170
     0
171
     0
290
     0
174
     0
 93
       13
 44
0.0
173
     0
291
     1
 45
0.0
1001
ACAD
1000
AcDbSavedByObjectVersion
1070
     0
  0
VISUALSTYLE
  5
ADC0
102
{ACAD_XDICTIONARY
360
AE1C
102
}
102
{ACAD_REACTORS
330
ADBC
102
}
330
ADBC
100
AcDbVisualStyle
  2
GouraudWithEdges
 70
     3
 71
     2
 72
     2
 73
     1
 90
        2
 40
-0.6
 41
30.0
 62
     5
 63
     7
 74
     1
 91
        0
 64
     7
 65
   257
 75
     1
175
     1
 42
1.0
 92
        0
 66
   257
 43
1.0
 76
     1
 77
     6
 78
     2
 67
     7
 79
     5
170
     0
171
     0
290
     0
174
     0
 93
       13
 44
0.0
173
     0
291
     1
 45
0.0
1001
ACAD
1000
AcDbSavedByObjectVersion
1070
     0
  0
VISUALSTYLE
  5
ADC4
102
{ACAD_XDICTIONARY
360
AE24
102
}
102
{ACAD_REACTORS
330
ADBC
102
}
330
ADBC
100
AcDbVisualStyle
  2
Hidden
 70
     6
 71
     1
 72
     2
 73
     2
 90
        0
 40
-0.6
 41
-30.0
 62
     5
 63
     7
 74
     2
 91
        2
 64
     7
 65
   257
 75
     2
175
     1
 42
40.0
 92
        0
 66
   257
 43
1.0
 76
     1
 77
     6
 78
     2
 67
     7
 79
     3
170
     0
171
     0
290
     0
174
     0
 93
        1
 44
0.0
173
     0
291
     0
 45
0.0
1001
ACAD
1000
AcDbSavedByObjectVersion
1070
     0
  0
VISUALSTYLE
  5
ADD2
102
{ACAD_XDICTIONARY
360
AE40
102
}
102
{ACAD_REACTORS
330
ADBC
102
}
330
ADBC
100
AcDbVisualStyle
  2
JitterOff
 70
    20
 71
     2
 72
     2
 73
     0
 90
        0
 40
-0.6
 41
-30.0
 62
     5
 63
     7
 74
     1
 91
        4
 64
     7
 65
   257
 75
     1
175
     1
 42
1.0
 92
       10
 66
     7
 43
1.0
 76
     1
 77
     6
 78
     2
 67
     7
 79
     5
170
     0
171
     0
290
     0
174
     0
 93
        1
 44
0.0
173
     0
291
     1
 45
0.0
1001
ACAD
1000
AcDbSavedByObjectVersion
1070
     0
  0
VISUALSTYLE
  5
ADCA
102
{ACAD_XDICTIONARY
360
AE30
102
}
102
{ACAD_REACTORS
330
ADBC
102
}
330
ADBC
100
AcDbVisualStyle
  2
Linepattern
 70
    14
 71
     2
 72
     2
 73
     0
 90
        0
 40
-0.6
 41
-30.0
 62
     5
 63
     7
 74
     1
 91
        4
 64
     7
 65
   257
 75
     7
175
     7
 42
1.0
 92
        8
 66
     7
 43
1.0
 76
     1
 77
     6
 78
     2
 67
     7
 79
     5
170
     0
171
     0
290
     0
174
     0
 93
        1
 44
0.0
173
     0
291
     1
 45
0.0
1001
ACAD
1000
AcDbSavedByObjectVersion
1070
     0
  0
VISUALSTYLE
  5
ADD3
102
{ACAD_XDICTIONARY
360
AE42
102
}
102
{ACAD_REACTORS
330
ADBC
102
}
330
ADBC
100
AcDbVisualStyle
  2
OverhangOff
 70
    21
 71
     2
 72
     2
 73
     0
 90
        0
 40
-0.6
 41
-30.0
 62
     5
 63
     7
 74
     1
 91
        4
 64
     7
 65
   257
 75
     1
175
     1
 42
1.0
 92
        9
 66
     7
 43
1.0
 76
     1
 77
     6
 78
     2
 67
     7
 79
     5
170
     0
171
     0
290
     0
174
     0
 93
        1
 44
0.0
173
     0
291
     1
 45
0.0
1001
ACAD
1000
AcDbSavedByObjectVersion
1070
     0
  0
VISUALSTYLE
  5
ADC6
102
{ACAD_XDICTIONARY
360
AE28
102
}
102
{ACAD_REACTORS
330
ADBC
102
}
330
ADBC
100
AcDbVisualStyle
  2
Realistic
 70
     8
 71
     2
 72
     3
 73
     0
 90
        2
 40
-0.6
 41
30.0
 62
     5
 63
     7
 74
     0
 91
        0
 64
     7
 65
   257
 75
     1
175
     1
 42
1.0
 92
        8
 66
   257
 43
1.0
 76
     1
 77
     6
 78
     2
 67
     7
 79
     3
170
     0
171
     0
290
     0
174
     0
 93
       13
 44
0.0
173
     0
291
     0
 45
0.0
1001
ACAD
1000
AcDbSavedByObjectVersion
1070
     0
  0
VISUALSTYLE
  5
ADD1
102
{ACAD_XDICTIONARY
360
AE3E
102
}
102
{ACAD_REACTORS
330
ADBC
102
}
330
ADBC
100
AcDbVisualStyle
  2
Shaded
 70
    27
 71
     2
 72
     2
 73
     1
 90
        2
 40
-0.6
 41
30.0
 62
     5
 63
     7
 74
     0
 91
        4
 64
     7
 65
   257
 75
     1
175
     1
 42
1.0
 92
        8
 66
   257
 43
1.0
 76
     1
 77
     6
 78
     2
 67
     8
 79
     3
170
     0
171
     0
290
     0
174
     0
 93
        5
 44
0.0
173
     0
291
     0
 45
0.0
1001
ACAD
1000
AcDbSavedByObjectVersion
1070
     0
  0
VISUALSTYLE
  5
ADD0
102
{ACAD_XDICTIONARY
360
AE3C
102
}
102
{ACAD_REACTORS
330
ADBC
102
}
330
ADBC
100
AcDbVisualStyle
  2
Shaded with edges
 70
    26
 71
     2
 72
     2
 73
     1
 90
        2
 40
-0.6
 41
30.0
 62
     5
 63
     7
 74
     1
 91
       10
 64
     7
 65
   257
 75
     2
175
     1
 42
1.0
 92
        8
 66
   257
 43
1.0
 76
     1
 77
     6
 78
     2
 67
     7
 79
     3
170
     0
171
     0
290
     0
174
     0
 93
        5
 44
0.0
173
     0
291
     0
 45
0.0
1001
ACAD
1000
AcDbSavedByObjectVersion
1070
     0
  0
VISUALSTYLE
  5
ADCD
102
{ACAD_XDICTIONARY
360
AE36
102
}
102
{ACAD_REACTORS
330
ADBC
102
}
330
ADBC
100
AcDbVisualStyle
  2
Shades of Gray
 70
    23
 71
     2
 72
     2
 73
     3
 90
        0
 40
-0.6
 41
-30.0
 62
     5
 63
     7
 74
     2
 91
        2
 64
     7
 65
     7
 75
     1
175
     1
 42
40.0
 92
        8
 66
     7
 43
1.0
 76
     1
 77
     6
 78
     2
 67
     7
 79
     3
170
     0
171
     0
290
     0
174
     0
 93
        1
 44
0.0
173
     0
291
     0
 45
0.0
1001
ACAD
1000
AcDbSavedByObjectVersion
1070
     0
  0
VISUALSTYLE
  5
ADCE
102
{ACAD_XDICTIONARY
360
AE38
102
}
102
{ACAD_REACTORS
330
ADBC
102
}
330
ADBC
100
AcDbVisualStyle
  2
Sketchy
 70
    24
 71
     1
 72
     2
 73
     2
 90
        0
 40
-0.6
 41
-30.0
 62
     5
 63
     7
 74
     2
 91
        2
 64
     7
 65
     7
 75
     1
175
     1
 42
40.0
 92
       11
 66
     7
 43
1.0
 76
     1
 77
     6
 78
     2
 67
     7
 79
     6
170
     0
171
     0
290
     0
174
     0
 93
        1
 44
0.0
173
     0
291
     0
 45
0.0
1001
ACAD
1000
AcDbSavedByObjectVersion
1070
     0
  0
VISUALSTYLE
  5
ADC9
102
{ACAD_XDICTIONARY
360
AE2E
102
}
102
{ACAD_REACTORS
330
ADBC
102
}
330
ADBC
100
AcDbVisualStyle
  2
Thicken
 70
    13
 71
     2
 72
     2
 73
     0
 90
        0
 40
-0.6
 41
-30.0
 62
     5
 63
     7
 74
     1
 91
        4
 64
     7
 65
   257
 75
     1
175
     1
 42
1.0
 92
       12
 66
     7
 43
1.0
 76
     1
 77
     6
 78
     2
 67
     7
 79
     5
170
     0
171
     0
290
     0
174
     0
 93
        1
 44
0.0
173
     0
291
     1
 45
0.0
1001
ACAD
1000
AcDbSavedByObjectVersion
1070
     0
  0
VISUALSTYLE
  5
ADC3
102
{ACAD_XDICTIONARY
360
AE22
102
}
102
{ACAD_REACTORS
330
ADBC
102
}
330
ADBC
100
AcDbVisualStyle
  2
Wireframe
 70
     5
 71
     0
 72
     2
 73
     0
 90
        0
 40
-0.6
 41
-30.0
 62
     5
 63
     7
 74
     1
 91
        4
 64
     7
 65
   257
 75
     1
175
     1
 42
1.0
 92
        0
 66
   257
 43
1.0
 76
     1
 77
     6
 78
     2
 67
     7
 79
     3
170
     0
171
     0
290
     0
174
     0
 93
        1
 44
0.0
173
     0
291
     0
 45
0.0
1001
ACAD
1000
AcDbSavedByObjectVersion
1070
     0
  0
VISUALSTYLE
  5
ADCF
102
{ACAD_XDICTIONARY
360
AE3A
102
}
102
{ACAD_REACTORS
330
ADBC
102
}
330
ADBC
100
AcDbVisualStyle
  2
X-Ray
 70
    25
 71
     2
 72
     2
 73
     1
 90
        1
 40
0.5
 41
-30.0
 62
     5
 63
     7
 74
     1
 91
        0
 64
     7
 65
   257
 75
     1
175
     1
 42
1.0
 92
        8
 66
     7
 43
1.0
 76
     1
 77
     6
 78
     2
 67
     7
 79
     3
170
     0
171
     0
290
     0
174
     0
 93
       13
 44
0.0
173
     0
291
     0
 45
0.0
1001
ACAD
1000
AcDbSavedByObjectVersion
1070
     0
  0
DICTIONARYVAR
  5
AE09
102
{ACAD_REACTORS
330
AE04
102
}
330
AE04
100
DictionaryVariables
280
     0
  1
1:1
  0
DICTIONARYVAR
  5
AE06
102
{ACAD_REACTORS
330
AE04
102
}
330
AE04
100
DictionaryVariables
280
     0
  1
STANDARD
  0
DICTIONARYVAR
  5
AE05
102
{ACAD_REACTORS
330
AE04
102
}
330
AE04
100
DictionaryVariables
280
     0
  1
STANDARD
  0
DICTIONARYVAR
  5
AE07
102
{ACAD_REACTORS
330
AE04
102
}
330
AE04
100
DictionaryVariables
280
     0
  1
Imperial24
  0
DICTIONARYVAR
  5
AE08
102
{ACAD_REACTORS
330
AE04
102
}
330
AE04
100
DictionaryVariables
280
     0
  1
Imperial24
  0
DICTIONARYVAR
  5
AE0C
102
{ACAD_REACTORS
330
AE04
102
}
330
AE04
100
DictionaryVariables
280
     0
  1
1
  0
DICTIONARYVAR
  5
AE0B
102
{ACAD_REACTORS
330
AE04
102
}
330
AE04
100
DictionaryVariables
280
     0
  1
0
  0
DICTIONARYVAR
  5
AE0A
102
{ACAD_REACTORS
330
AE04
102
}
330
AE04
100
DictionaryVariables
280
     0
  1
127
  0
DICTIONARYVAR
  5
AE0D
102
{ACAD_REACTORS
330
AE04
102
}
330
AE04
100
DictionaryVariables
280
     0
  1
2
  0
DICTIONARY
  5
AE4A
330
ADEF
100
AcDbDictionary
280
     1
281
     1
  3
ACAD_XREC_ROUNDTRIP
360
AE4B
  0
DICTIONARY
  5
AE4C
330
ADF0
100
AcDbDictionary
280
     1
281
     1
  3
ACAD_XREC_ROUNDTRIP
360
AE4D
  0
DICTIONARY
  5
AE4E
330
ADF1
100
AcDbDictionary
280
     1
281
     1
  3
ACAD_XREC_ROUNDTRIP
360
AE4F
  0
DICTIONARY
  5
ADAD
330
ADAC
100
AcDbDictionary
280
     1
281
     1
  3
ACAD_XREC_ROUNDTRIP
360
AE14
  3
BUMPTILE
360
ADAF
  3
DIFFUSETILE
360
ADAE
  3
OPACITYTILE
360
ADB2
  3
REFLECTIONTILE
360
ADB1
  3
REFRACTIONTILE
360
ADB3
  3
SPECULARTILE
360
ADB0
  0
DICTIONARY
  5
ADA5
330
ADA4
100
AcDbDictionary
280
     1
281
     1
  3
ACAD_XREC_ROUNDTRIP
360
AE13
  3
BUMPTILE
360
ADA7
  3
DIFFUSETILE
360
ADA6
  3
OPACITYTILE
360
ADAA
  3
REFLECTIONTILE
360
ADA9
  3
REFRACTIONTILE
360
ADAB
  3
SPECULARTILE
360
ADA8
  0
DICTIONARY
  5
ADB5
330
ADB4
100
AcDbDictionary
280
     1
281
     1
  3
ACAD_XREC_ROUNDTRIP
360
AE15
  3
BUMPTILE
360
ADB7
  3
DIFFUSETILE
360
ADB6
  3
OPACITYTILE
360
ADBA
  3
REFLECTIONTILE
360
ADB9
  3
REFRACTIONTILE
360
ADBB
  3
SPECULARTILE
360
ADB8
  0
DICTIONARY
  5
AE48
330
ADED
100
AcDbDictionary
280
     1
281
     1
  3
ACAD_XREC_ROUNDTRIP
360
AE49
  0
DICTIONARY
  5
AE0F
330
ADD7
100
AcDbDictionary
280
     1
281
     1
  3
ACAD_ROUNDTRIP_2008_TABLESTYLE_CELLSTYLEMAP
360
AE10
  3
ACAD_XREC_ROUNDTRIP
360
AE46
  0
DICTIONARY
  5
AE20
330
ADC2
100
AcDbDictionary
280
     1
281
     1
  3
ACAD_XREC_ROUNDTRIP
360
AE21
  0
DICTIONARY
  5
AE1E
330
ADC1
100
AcDbDictionary
280
     1
281
     1
  3
ACAD_XREC_ROUNDTRIP
360
AE1F
  0
DICTIONARY
  5
AE2C
330
ADC8
100
AcDbDictionary
280
     1
281
     1
  3
ACAD_XREC_ROUNDTRIP
360
AE2D
  0
DICTIONARY
  5
AE34
330
ADCC
100
AcDbDictionary
280
     1
281
     1
  3
ACAD_XREC_ROUNDTRIP
360
AE35
  0
DICTIONARY
  5
AE26
330
ADC5
100
AcDbDictionary
280
     1
281
     1
  3
ACAD_XREC_ROUNDTRIP
360
AE27
  0
DICTIONARY
  5
AE2A
330
ADC7
100
AcDbDictionary
280
     1
281
     1
  3
ACAD_XREC_ROUNDTRIP
360
AE2B
  0
DICTIONARY
  5
AE44
330
ADD4
100
AcDbDictionary
280
     1
281
     1
  3
ACAD_XREC_ROUNDTRIP
360
AE45
  0
DICTIONARY
  5
AE32
330
ADCB
100
AcDbDictionary
280
     1
281
     1
  3
ACAD_XREC_ROUNDTRIP
360
AE33
  0
DICTIONARY
  5
AE16
330
ADBD
100
AcDbDictionary
280
     1
281
     1
  3
ACAD_XREC_ROUNDTRIP
360
AE17
  0
DICTIONARY
  5
AE18
330
ADBE
100
AcDbDictionary
280
     1
281
     1
  3
ACAD_XREC_ROUNDTRIP
360
AE19
  0
DICTIONARY
  5
AE1A
330
ADBF
100
AcDbDictionary
280
     1
281
     1
  3
ACAD_XREC_ROUNDTRIP
360
AE1B
  0
DICTIONARY
  5
AE1C
330
ADC0
100
AcDbDictionary
280
     1
281
     1
  3
ACAD_XREC_ROUNDTRIP
360
AE1D
  0
DICTIONARY
  5
AE24
330
ADC4
100
AcDbDictionary
280
     1
281
     1
  3
ACAD_XREC_ROUNDTRIP
360
AE25
  0
DICTIONARY
  5
AE40
330
ADD2
100
AcDbDictionary
280
     1
281
     1
  3
ACAD_XREC_ROUNDTRIP
360
AE41
  0
DICTIONARY
  5
AE30
330
ADCA
100
AcDbDictionary
280
     1
281
     1
  3
ACAD_XREC_ROUNDTRIP
360
AE31
  0
DICTIONARY
  5
AE42
330
ADD3
100
AcDbDictionary
280
     1
281
     1
  3
ACAD_XREC_ROUNDTRIP
360
AE43
  0
DICTIONARY
  5
AE28
330
ADC6
100
AcDbDictionary
280
     1
281
     1
  3
ACAD_XREC_ROUNDTRIP
360
AE29
  0
DICTIONARY
  5
AE3E
330
ADD1
100
AcDbDictionary
280
     1
281
     1
  3
ACAD_XREC_ROUNDTRIP
360
AE3F
  0
DICTIONARY
  5
AE3C
330
ADD0
100
AcDbDictionary
280
     1
281
     1
  3
ACAD_XREC_ROUNDTRIP
360
AE3D
  0
DICTIONARY
  5
AE36
330
ADCD
100
AcDbDictionary
280
     1
281
     1
  3
ACAD_XREC_ROUNDTRIP
360
AE37
  0
DICTIONARY
  5
AE38
330
ADCE
100
AcDbDictionary
280
     1
281
     1
  3
ACAD_XREC_ROUNDTRIP
360
AE39
  0
DICTIONARY
  5
AE2E
330
ADC9
100
AcDbDictionary
280
     1
281
     1
  3
ACAD_XREC_ROUNDTRIP
360
AE2F
  0
DICTIONARY
  5
AE22
330
ADC3
100
AcDbDictionary
280
     1
281
     1
  3
ACAD_XREC_ROUNDTRIP
360
AE23
  0
DICTIONARY
  5
AE3A
330
ADCF
100
AcDbDictionary
280
     1
281
     1
  3
ACAD_XREC_ROUNDTRIP
360
AE3B
  0
XRECORD
  5
AE4B
102
{ACAD_REACTORS
330
AE4A
102
}
330
AE4A
100
AcDbXrecord
280
     1
102
DISPLAYNAME
  1
Imperial24
102
FLAGS
 90
        0
  0
XRECORD
  5
AE4D
102
{ACAD_REACTORS
330
AE4C
102
}
330
AE4C
100
AcDbXrecord
280
     1
102
SHADEPLOT
 70
     0
102
SHADEPLOTRESLEVEL
 70
     2
102
SHADEPLOTCUSTOMDPI
 70
   300
  0
XRECORD
  5
AE4F
102
{ACAD_REACTORS
330
AE4E
102
}
330
AE4E
100
AcDbXrecord
280
     1
102
SHADEPLOT
 70
     0
102
SHADEPLOTRESLEVEL
 70
     2
102
SHADEPLOTCUSTOMDPI
 70
   300
  0
XRECORD
  5
AE14
102
{ACAD_REACTORS
330
ADAD
102
}
330
ADAD
100
AcDbXrecord
280
     1
102
MATERIAL
148
0.0
149
0.0
149
0.0
 93
        0
 94
      127
282
     0
 72
     0
 77
     0
171
     0
175
     0
179
     0
273
     0
  0
XRECORD
  5
ADAF
102
{ACAD_REACTORS
330
ADAD
102
}
330
ADAD
100
AcDbXrecord
280
     1
270
     1
271
     1
  0
XRECORD
  5
ADAE
102
{ACAD_REACTORS
330
ADAD
102
}
330
ADAD
100
AcDbXrecord
280
     1
270
     1
271
     1
  0
XRECORD
  5
ADB2
102
{ACAD_REACTORS
330
ADAD
102
}
330
ADAD
100
AcDbXrecord
280
     1
270
     1
271
     1
  0
XRECORD
  5
ADB1
102
{ACAD_REACTORS
330
ADAD
102
}
330
ADAD
100
AcDbXrecord
280
     1
270
     1
271
     1
  0
XRECORD
  5
ADB3
102
{ACAD_REACTORS
330
ADAD
102
}
330
ADAD
100
AcDbXrecord
280
     1
270
     1
271
     1
  0
XRECORD
  5
ADB0
102
{ACAD_REACTORS
330
ADAD
102
}
330
ADAD
100
AcDbXrecord
280
     1
270
     1
271
     1
  0
XRECORD
  5
AE13
102
{ACAD_REACTORS
330
ADA5
102
}
330
ADA5
100
AcDbXrecord
280
     1
102
MATERIAL
148
0.0
149
0.0
149
0.0
 93
        0
 94
      127
282
     0
 72
     0
 77
     0
171
     0
175
     0
179
     0
273
     0
  0
XRECORD
  5
ADA7
102
{ACAD_REACTORS
330
ADA5
102
}
330
ADA5
100
AcDbXrecord
280
     1
270
     1
271
     1
  0
XRECORD
  5
ADA6
102
{ACAD_REACTORS
330
ADA5
102
}
330
ADA5
100
AcDbXrecord
280
     1
270
     1
271
     1
  0
XRECORD
  5
ADAA
102
{ACAD_REACTORS
330
ADA5
102
}
330
ADA5
100
AcDbXrecord
280
     1
270
     1
271
     1
  0
XRECORD
  5
ADA9
102
{ACAD_REACTORS
330
ADA5
102
}
330
ADA5
100
AcDbXrecord
280
     1
270
     1
271
     1
  0
XRECORD
  5
ADAB
102
{ACAD_REACTORS
330
ADA5
102
}
330
ADA5
100
AcDbXrecord
280
     1
270
     1
271
     1
  0
XRECORD
  5
ADA8
102
{ACAD_REACTORS
330
ADA5
102
}
330
ADA5
100
AcDbXrecord
280
     1
270
     1
271
     1
  0
XRECORD
  5
AE15
102
{ACAD_REACTORS
330
ADB5
102
}
330
ADB5
100
AcDbXrecord
280
     1
102
MATERIAL
148
0.0
149
0.0
149
0.0
 93
        0
 94
      127
282
     0
 72
     0
 77
     0
171
     0
175
     0
179
     0
273
     0
  0
XRECORD
  5
ADB7
102
{ACAD_REACTORS
330
ADB5
102
}
330
ADB5
100
AcDbXrecord
280
     1
270
     1
271
     1
  0
XRECORD
  5
ADB6
102
{ACAD_REACTORS
330
ADB5
102
}
330
ADB5
100
AcDbXrecord
280
     1
270
     1
271
     1
  0
XRECORD
  5
ADBA
102
{ACAD_REACTORS
330
ADB5
102
}
330
ADB5
100
AcDbXrecord
280
     1
270
     1
271
     1
  0
XRECORD
  5
ADB9
102
{ACAD_REACTORS
330
ADB5
102
}
330
ADB5
100
AcDbXrecord
280
     1
270
     1
271
     1
  0
XRECORD
  5
ADBB
102
{ACAD_REACTORS
330
ADB5
102
}
330
ADB5
100
AcDbXrecord
280
     1
270
     1
271
     1
  0
XRECORD
  5
ADB8
102
{ACAD_REACTORS
330
ADB5
102
}
330
ADB5
100
AcDbXrecord
280
     1
270
     1
271
     1
  0
XRECORD
  5
AE49
102
{ACAD_REACTORS
330
AE48
102
}
330
AE48
100
AcDbXrecord
280
     1
102
DISPLAYNAME
  1
Imperial24
102
FLAGS
 90
        0
  0
CELLSTYLEMAP
  5
AE10
102
{ACAD_REACTORS
330
AE0F
102
}
330
AE0F
100
AcDbCellStyleMap
 90
        3
300
CELLSTYLE
  1
TABLEFORMAT_BEGIN
 90
        5
170
     1
 91
        0
 92
    32768
 62
   257
 93
        1
300
CONTENTFORMAT
  1
CONTENTFORMAT_BEGIN
 90
        0
 91
        0
 92
      512
 93
        0
300

 40
0.0
140
1.0
 94
        5
 62
     0
340
AAAE
144
0.25
309
CONTENTFORMAT_END
171
     0
 94
        0
309
TABLEFORMAT_END
  1
CELLSTYLE_BEGIN
 90
        1
 91
        1
300
_TITLE
309
CELLSTYLE_END
300
CELLSTYLE
  1
TABLEFORMAT_BEGIN
 90
        5
170
     1
 91
        0
 92
        0
 62
   257
 93
        1
300
CONTENTFORMAT
  1
CONTENTFORMAT_BEGIN
 90
        0
 91
        0
 92
      512
 93
        0
300

 40
0.0
140
1.0
 94
        5
 62
     0
340
AAAE
144
0.18
309
CONTENTFORMAT_END
171
     0
 94
        0
309
TABLEFORMAT_END
  1
CELLSTYLE_BEGIN
 90
        2
 91
        1
300
_HEADER
309
CELLSTYLE_END
300
CELLSTYLE
  1
TABLEFORMAT_BEGIN
 90
        5
170
     1
 91
        0
 92
        0
 62
   257
 93
        1
300
CONTENTFORMAT
  1
CONTENTFORMAT_BEGIN
 90
        0
 91
        0
 92
      512
 93
        0
300

 40
0.0
140
1.0
 94
        2
 62
     0
340
AAAE
144
0.18
309
CONTENTFORMAT_END
171
     0
 94
        0
309
TABLEFORMAT_END
  1
CELLSTYLE_BEGIN
 90
        3
 91
        2
300
_DATA
309
CELLSTYLE_END
  0
XRECORD
  5
AE46
102
{ACAD_REACTORS
330
AE0F
102
}
330
AE0F
100
AcDbXrecord
280
     1
102
ACAD_ROUNDTRIP_PRE2007_TABLESTYLE
 90
      512
 91
        0
  1

 92
      512
 93
        0
  2

 94
      512
 95
        0
  3

  0
XRECORD
  5
AE21
102
{ACAD_REACTORS
330
AE20
102
}
330
AE20
100
AcDbXrecord
280
     1
102
RTVSPost2010Prop28
280
     1
102
RTVSPost2010PropOp28
 70
     1
102
RTVSPost2010Prop29
280
     1
102
RTVSPost2010PropOp29
 70
     1
102
RTVSPost2010Prop30
280
     0
102
RTVSPost2010PropOp30
 70
     1
102
RTVSPost2010Prop31
280
     0
102
RTVSPost2010PropOp31
 70
     1
102
RTVSPost2010Prop32
280
     0
102
RTVSPost2010PropOp32
 70
     1
102
RTVSPost2010Prop33
280
     0
102
RTVSPost2010PropOp33
 70
     1
102
RTVSPost2010Prop34
280
     0
102
RTVSPost2010PropOp34
 70
     1
102
RTVSPost2010Prop35
280
     0
102
RTVSPost2010PropOp35
 70
     1
102
RTVSPost2010Prop36
280
     0
102
RTVSPost2010PropOp36
 70
     1
102
RTVSPost2010Prop37
 90
       50
102
RTVSPost2010PropOp37
 70
     1
102
RTVSPost2010Prop38
140
0.0
102
RTVSPost2010PropOp38
 70
     1
102
RTVSPost2010Prop39
140
1.0
102
RTVSPost2010PropOp39
 70
     1
102
RTVSPost2010Prop40
 90
        0
102
RTVSPost2010PropOp40
 70
     1
102
RTVSPost2010Prop41ColorIndex
 90
       18
102
RTVSPost2010Prop41ColorRGB
 90
        0
102
RTVSPost2010PropOp41
 70
     1
102
RTVSPost2010Prop42
 90
       50
102
RTVSPost2010PropOp42
 70
     1
102
RTVSPost2010Prop43
 90
        3
102
RTVSPost2010PropOp43
 70
     1
102
RTVSPost2010Prop44ColorIndex
 90
        5
102
RTVSPost2010Prop44ColorRGB
 90
      255
102
RTVSPost2010PropOp44
 70
     1
102
RTVSPost2010Prop45
280
     0
102
RTVSPost2010PropOp45
 70
     1
102
RTVSPost2010Prop46
 90
       50
102
RTVSPost2010PropOp46
 70
     1
102
RTVSPost2010Prop47
 90
       50
102
RTVSPost2010PropOp47
 70
     1
102
RTVSPost2010Prop48
 90
       50
102
RTVSPost2010PropOp48
 70
     1
102
RTVSPost2010Prop49
280
     0
102
RTVSPost2010PropOp49
 70
     1
102
RTVSPost2010Prop50
 90
       50
102
RTVSPost2010PropOp50
 70
     1
102
RTVSPost2010Prop51ColorIndex
 90
      256
102
RTVSPost2010Prop51ColorRGB
 90
-16777216
102
RTVSPost2010PropOp51
 70
     0
102
RTVSPost2010Prop52
140
1.0
102
RTVSPost2010PropOp52
 70
     0
102
RTVSPost2010Prop53
 90
        2
102
RTVSPost2010PropOp53
 70
     1
102
RTVSPost2010Prop54
  1
strokes_ogs.tif
102
RTVSPost2010PropOp54
 70
     1
102
RTVSPost2010Prop55
280
     0
102
RTVSPost2010PropOp55
 70
     1
102
RTVSPost2010Prop56
140
1.0
102
RTVSPost2010PropOp56
 70
     1
102
RTVSPost2010Prop57
140
1.0
102
RTVSPost2010PropOp57
 70
     1
102
RTVSPropertyOp0
 70
     1
102
RTVSPropertyOp1
 70
     1
102
RTVSPropertyOp2
 70
     1
102
RTVSPropertyOp3
 70
     1
102
RTVSPropertyOp4
 70
     1
102
RTVSPropertyOp5
 70
     1
102
RTVSPropertyOp6
 70
     1
102
RTVSPropertyOp7
 70
     1
102
RTVSPropertyOp8
 70
     1
102
RTVSPropertyOp9
 70
     1
102
RTVSPropertyOp10
 70
     1
102
RTVSPropertyOp11
 70
     1
102
RTVSPropertyOp12
 70
     1
102
RTVSPropertyOp13
 70
     1
102
RTVSPropertyOp14
 70
     1
102
RTVSPropertyOp15
 70
     1
102
RTVSPropertyOp16
 70
     1
102
RTVSPropertyOp17
 70
     1
102
RTVSPropertyOp18
 70
     1
102
RTVSPropertyOp19
 70
     1
102
RTVSPropertyOp20
 70
     1
102
RTVSPropertyOp21
 70
     1
102
RTVSPropertyOp22
 70
     1
102
RTVSPropertyOp23
 70
     1
102
RTVSPropertyOp24
 70
     1
102
RTVSPropertyOp25
 70
     1
102
RTVSPropertyOp26
 70
     1
102
RTVSPropertyOp27
 70
     1
102
RTVSPropertyOp28
 70
     1
102
RTVSPropertyOp29
 70
     1
102
RTVSPropertyOp30
 70
     1
102
RTVSPropertyOp31
 70
     1
102
RTVSPropertyOp32
 70
     1
102
RTVSPropertyOp33
 70
     1
102
RTVSPropertyOp34
 70
     1
102
RTVSPropertyOp35
 70
     1
102
RTVSPropertyOp36
 70
     1
102
RTVSPropertyOp37
 70
     1
102
RTVSPropertyOp38
 70
     1
102
RTVSPropertyOp39
 70
     1
102
RTVSPropertyOp40
 70
     1
102
RTVSPropertyOp41
 70
     1
102
RTVSPropertyOp42
 70
     1
102
RTVSPropertyOp43
 70
     1
102
RTVSPropertyOp44
 70
     1
102
RTVSPropertyOp45
 70
     1
102
RTVSPropertyOp46
 70
     1
102
RTVSPropertyOp47
 70
     1
102
RTVSPropertyOp48
 70
     1
102
RTVSPropertyOp49
 70
     1
102
RTVSPropertyOp50
 70
     1
102
RTVSPropertyOp51
 70
     0
102
RTVSPropertyOp52
 70
     0
102
RTVSPropertyOp53
 70
     1
102
RTVSPropertyOp54
 70
     1
102
RTVSPropertyOp55
 70
     1
102
RTVSPropertyOp56
 70
     1
102
RTVSPropertyOp57
 70
     1
102
RTVSPropertyOp58
 70
     1
102
RTVSPropertyOp59
 70
     1
102
RTVSPropertyOp60
 70
     1
102
RTVSPropertyOp61
 70
     1
102
RTVSPropertyOp62
 70
     1
  0
XRECORD
  5
AE1F
102
{ACAD_REACTORS
330
AE1E
102
}
330
AE1E
100
AcDbXrecord
280
     1
102
RTVSPost2010Prop28
280
     0
102
RTVSPost2010PropOp28
 70
     1
102
RTVSPost2010Prop29
280
     1
102
RTVSPost2010PropOp29
 70
     1
102
RTVSPost2010Prop30
280
     1
102
RTVSPost2010PropOp30
 70
     1
102
RTVSPost2010Prop31
280
     0
102
RTVSPost2010PropOp31
 70
     1
102
RTVSPost2010Prop32
280
     0
102
RTVSPost2010PropOp32
 70
     1
102
RTVSPost2010Prop33
280
     0
102
RTVSPost2010PropOp33
 70
     1
102
RTVSPost2010Prop34
280
     0
102
RTVSPost2010PropOp34
 70
     1
102
RTVSPost2010Prop35
280
     0
102
RTVSPost2010PropOp35
 70
     1
102
RTVSPost2010Prop36
280
     0
102
RTVSPost2010PropOp36
 70
     1
102
RTVSPost2010Prop37
 90
       50
102
RTVSPost2010PropOp37
 70
     1
102
RTVSPost2010Prop38
140
0.0
102
RTVSPost2010PropOp38
 70
     1
102
RTVSPost2010Prop39
140
1.0
102
RTVSPost2010PropOp39
 70
     1
102
RTVSPost2010Prop40
 90
        0
102
RTVSPost2010PropOp40
 70
     1
102
RTVSPost2010Prop41ColorIndex
 90
       18
102
RTVSPost2010Prop41ColorRGB
 90
        0
102
RTVSPost2010PropOp41
 70
     1
102
RTVSPost2010Prop42
 90
       50
102
RTVSPost2010PropOp42
 70
     1
102
RTVSPost2010Prop43
 90
        3
102
RTVSPost2010PropOp43
 70
     1
102
RTVSPost2010Prop44ColorIndex
 90
        5
102
RTVSPost2010Prop44ColorRGB
 90
      255
102
RTVSPost2010PropOp44
 70
     1
102
RTVSPost2010Prop45
280
     0
102
RTVSPost2010PropOp45
 70
     1
102
RTVSPost2010Prop46
 90
       50
102
RTVSPost2010PropOp46
 70
     1
102
RTVSPost2010Prop47
 90
       50
102
RTVSPost2010PropOp47
 70
     1
102
RTVSPost2010Prop48
 90
       50
102
RTVSPost2010PropOp48
 70
     1
102
RTVSPost2010Prop49
280
     0
102
RTVSPost2010PropOp49
 70
     1
102
RTVSPost2010Prop50
 90
       50
102
RTVSPost2010PropOp50
 70
     1
102
RTVSPost2010Prop51ColorIndex
 90
      256
102
RTVSPost2010Prop51ColorRGB
 90
-16777216
102
RTVSPost2010PropOp51
 70
     0
102
RTVSPost2010Prop52
140
1.0
102
RTVSPost2010PropOp52
 70
     0
102
RTVSPost2010Prop53
 90
        2
102
RTVSPost2010PropOp53
 70
     1
102
RTVSPost2010Prop54
  1
strokes_ogs.tif
102
RTVSPost2010PropOp54
 70
     1
102
RTVSPost2010Prop55
280
     0
102
RTVSPost2010PropOp55
 70
     1
102
RTVSPost2010Prop56
140
1.0
102
RTVSPost2010PropOp56
 70
     1
102
RTVSPost2010Prop57
140
1.0
102
RTVSPost2010PropOp57
 70
     1
102
RTVSPropertyOp0
 70
     1
102
RTVSPropertyOp1
 70
     1
102
RTVSPropertyOp2
 70
     1
102
RTVSPropertyOp3
 70
     1
102
RTVSPropertyOp4
 70
     1
102
RTVSPropertyOp5
 70
     1
102
RTVSPropertyOp6
 70
     1
102
RTVSPropertyOp7
 70
     1
102
RTVSPropertyOp8
 70
     1
102
RTVSPropertyOp9
 70
     1
102
RTVSPropertyOp10
 70
     1
102
RTVSPropertyOp11
 70
     1
102
RTVSPropertyOp12
 70
     1
102
RTVSPropertyOp13
 70
     1
102
RTVSPropertyOp14
 70
     1
102
RTVSPropertyOp15
 70
     1
102
RTVSPropertyOp16
 70
     1
102
RTVSPropertyOp17
 70
     1
102
RTVSPropertyOp18
 70
     1
102
RTVSPropertyOp19
 70
     1
102
RTVSPropertyOp20
 70
     1
102
RTVSPropertyOp21
 70
     1
102
RTVSPropertyOp22
 70
     1
102
RTVSPropertyOp23
 70
     1
102
RTVSPropertyOp24
 70
     1
102
RTVSPropertyOp25
 70
     1
102
RTVSPropertyOp26
 70
     1
102
RTVSPropertyOp27
 70
     1
102
RTVSPropertyOp28
 70
     1
102
RTVSPropertyOp29
 70
     1
102
RTVSPropertyOp30
 70
     1
102
RTVSPropertyOp31
 70
     1
102
RTVSPropertyOp32
 70
     1
102
RTVSPropertyOp33
 70
     1
102
RTVSPropertyOp34
 70
     1
102
RTVSPropertyOp35
 70
     1
102
RTVSPropertyOp36
 70
     1
102
RTVSPropertyOp37
 70
     1
102
RTVSPropertyOp38
 70
     1
102
RTVSPropertyOp39
 70
     1
102
RTVSPropertyOp40
 70
     1
102
RTVSPropertyOp41
 70
     1
102
RTVSPropertyOp42
 70
     1
102
RTVSPropertyOp43
 70
     1
102
RTVSPropertyOp44
 70
     1
102
RTVSPropertyOp45
 70
     1
102
RTVSPropertyOp46
 70
     1
102
RTVSPropertyOp47
 70
     1
102
RTVSPropertyOp48
 70
     1
102
RTVSPropertyOp49
 70
     1
102
RTVSPropertyOp50
 70
     1
102
RTVSPropertyOp51
 70
     0
102
RTVSPropertyOp52
 70
     0
102
RTVSPropertyOp53
 70
     1
102
RTVSPropertyOp54
 70
     1
102
RTVSPropertyOp55
 70
     1
102
RTVSPropertyOp56
 70
     1
102
RTVSPropertyOp57
 70
     1
102
RTVSPropertyOp58
 70
     1
102
RTVSPropertyOp59
 70
     1
102
RTVSPropertyOp60
 70
     1
102
RTVSPropertyOp61
 70
     1
102
RTVSPropertyOp62
 70
     1
  0
XRECORD
  5
AE2D
102
{ACAD_REACTORS
330
AE2C
102
}
330
AE2C
100
AcDbXrecord
280
     1
102
RTVSPost2010Prop28
280
     0
102
RTVSPost2010PropOp28
 70
     1
102
RTVSPost2010Prop29
280
     1
102
RTVSPost2010PropOp29
 70
     1
102
RTVSPost2010Prop30
280
     1
102
RTVSPost2010PropOp30
 70
     1
102
RTVSPost2010Prop31
280
     0
102
RTVSPost2010PropOp31
 70
     1
102
RTVSPost2010Prop32
280
     0
102
RTVSPost2010PropOp32
 70
     1
102
RTVSPost2010Prop33
280
     0
102
RTVSPost2010PropOp33
 70
     1
102
RTVSPost2010Prop34
280
     0
102
RTVSPost2010PropOp34
 70
     1
102
RTVSPost2010Prop35
280
     0
102
RTVSPost2010PropOp35
 70
     1
102
RTVSPost2010Prop36
280
     0
102
RTVSPost2010PropOp36
 70
     1
102
RTVSPost2010Prop37
 90
       50
102
RTVSPost2010PropOp37
 70
     1
102
RTVSPost2010Prop38
140
0.0
102
RTVSPost2010PropOp38
 70
     1
102
RTVSPost2010Prop39
140
1.0
102
RTVSPost2010PropOp39
 70
     1
102
RTVSPost2010Prop40
 90
        0
102
RTVSPost2010PropOp40
 70
     1
102
RTVSPost2010Prop41ColorIndex
 90
       18
102
RTVSPost2010Prop41ColorRGB
 90
        0
102
RTVSPost2010PropOp41
 70
     1
102
RTVSPost2010Prop42
 90
       50
102
RTVSPost2010PropOp42
 70
     1
102
RTVSPost2010Prop43
 90
        3
102
RTVSPost2010PropOp43
 70
     1
102
RTVSPost2010Prop44ColorIndex
 90
        5
102
RTVSPost2010Prop44ColorRGB
 90
      255
102
RTVSPost2010PropOp44
 70
     1
102
RTVSPost2010Prop45
280
     0
102
RTVSPost2010PropOp45
 70
     1
102
RTVSPost2010Prop46
 90
       50
102
RTVSPost2010PropOp46
 70
     1
102
RTVSPost2010Prop47
 90
       50
102
RTVSPost2010PropOp47
 70
     1
102
RTVSPost2010Prop48
 90
       50
102
RTVSPost2010PropOp48
 70
     1
102
RTVSPost2010Prop49
280
     0
102
RTVSPost2010PropOp49
 70
     1
102
RTVSPost2010Prop50
 90
       50
102
RTVSPost2010PropOp50
 70
     1
102
RTVSPost2010Prop51ColorIndex
 90
      256
102
RTVSPost2010Prop51ColorRGB
 90
-16777216
102
RTVSPost2010PropOp51
 70
     0
102
RTVSPost2010Prop52
140
1.0
102
RTVSPost2010PropOp52
 70
     0
102
RTVSPost2010Prop53
 90
        2
102
RTVSPost2010PropOp53
 70
     1
102
RTVSPost2010Prop54
  1
strokes_ogs.tif
102
RTVSPost2010PropOp54
 70
     1
102
RTVSPost2010Prop55
280
     0
102
RTVSPost2010PropOp55
 70
     1
102
RTVSPost2010Prop56
140
1.0
102
RTVSPost2010PropOp56
 70
     1
102
RTVSPost2010Prop57
140
1.0
102
RTVSPost2010PropOp57
 70
     1
102
RTVSPropertyOp0
 70
     1
102
RTVSPropertyOp1
 70
     1
102
RTVSPropertyOp2
 70
     1
102
RTVSPropertyOp3
 70
     1
102
RTVSPropertyOp4
 70
     1
102
RTVSPropertyOp5
 70
     1
102
RTVSPropertyOp6
 70
     1
102
RTVSPropertyOp7
 70
     1
102
RTVSPropertyOp8
 70
     1
102
RTVSPropertyOp9
 70
     1
102
RTVSPropertyOp10
 70
     1
102
RTVSPropertyOp11
 70
     1
102
RTVSPropertyOp12
 70
     1
102
RTVSPropertyOp13
 70
     1
102
RTVSPropertyOp14
 70
     1
102
RTVSPropertyOp15
 70
     1
102
RTVSPropertyOp16
 70
     1
102
RTVSPropertyOp17
 70
     1
102
RTVSPropertyOp18
 70
     1
102
RTVSPropertyOp19
 70
     1
102
RTVSPropertyOp20
 70
     1
102
RTVSPropertyOp21
 70
     1
102
RTVSPropertyOp22
 70
     1
102
RTVSPropertyOp23
 70
     1
102
RTVSPropertyOp24
 70
     1
102
RTVSPropertyOp25
 70
     1
102
RTVSPropertyOp26
 70
     1
102
RTVSPropertyOp27
 70
     1
102
RTVSPropertyOp28
 70
     1
102
RTVSPropertyOp29
 70
     1
102
RTVSPropertyOp30
 70
     1
102
RTVSPropertyOp31
 70
     1
102
RTVSPropertyOp32
 70
     1
102
RTVSPropertyOp33
 70
     1
102
RTVSPropertyOp34
 70
     1
102
RTVSPropertyOp35
 70
     1
102
RTVSPropertyOp36
 70
     1
102
RTVSPropertyOp37
 70
     1
102
RTVSPropertyOp38
 70
     1
102
RTVSPropertyOp39
 70
     1
102
RTVSPropertyOp40
 70
     1
102
RTVSPropertyOp41
 70
     1
102
RTVSPropertyOp42
 70
     1
102
RTVSPropertyOp43
 70
     1
102
RTVSPropertyOp44
 70
     1
102
RTVSPropertyOp45
 70
     1
102
RTVSPropertyOp46
 70
     1
102
RTVSPropertyOp47
 70
     1
102
RTVSPropertyOp48
 70
     1
102
RTVSPropertyOp49
 70
     1
102
RTVSPropertyOp50
 70
     1
102
RTVSPropertyOp51
 70
     0
102
RTVSPropertyOp52
 70
     0
102
RTVSPropertyOp53
 70
     1
102
RTVSPropertyOp54
 70
     1
102
RTVSPropertyOp55
 70
     1
102
RTVSPropertyOp56
 70
     1
102
RTVSPropertyOp57
 70
     1
102
RTVSPropertyOp58
 70
     1
102
RTVSPropertyOp59
 70
     1
102
RTVSPropertyOp60
 70
     1
102
RTVSPropertyOp61
 70
     1
102
RTVSPropertyOp62
 70
     1
  0
XRECORD
  5
AE35
102
{ACAD_REACTORS
330
AE34
102
}
330
AE34
100
AcDbXrecord
280
     1
102
RTVSPost2010Prop28
280
     0
102
RTVSPost2010PropOp28
 70
     1
102
RTVSPost2010Prop29
280
     1
102
RTVSPost2010PropOp29
 70
     1
102
RTVSPost2010Prop30
280
     1
102
RTVSPost2010PropOp30
 70
     1
102
RTVSPost2010Prop31
280
     0
102
RTVSPost2010PropOp31
 70
     1
102
RTVSPost2010Prop32
280
     0
102
RTVSPost2010PropOp32
 70
     1
102
RTVSPost2010Prop33
280
     0
102
RTVSPost2010PropOp33
 70
     1
102
RTVSPost2010Prop34
280
     0
102
RTVSPost2010PropOp34
 70
     1
102
RTVSPost2010Prop35
280
     0
102
RTVSPost2010PropOp35
 70
     1
102
RTVSPost2010Prop36
280
     0
102
RTVSPost2010PropOp36
 70
     1
102
RTVSPost2010Prop37
 90
       50
102
RTVSPost2010PropOp37
 70
     1
102
RTVSPost2010Prop38
140
0.0
102
RTVSPost2010PropOp38
 70
     1
102
RTVSPost2010Prop39
140
1.0
102
RTVSPost2010PropOp39
 70
     1
102
RTVSPost2010Prop40
 90
        0
102
RTVSPost2010PropOp40
 70
     1
102
RTVSPost2010Prop41ColorIndex
 90
       18
102
RTVSPost2010Prop41ColorRGB
 90
        0
102
RTVSPost2010PropOp41
 70
     1
102
RTVSPost2010Prop42
 90
       50
102
RTVSPost2010PropOp42
 70
     1
102
RTVSPost2010Prop43
 90
        3
102
RTVSPost2010PropOp43
 70
     1
102
RTVSPost2010Prop44ColorIndex
 90
        5
102
RTVSPost2010Prop44ColorRGB
 90
      255
102
RTVSPost2010PropOp44
 70
     1
102
RTVSPost2010Prop45
280
     0
102
RTVSPost2010PropOp45
 70
     1
102
RTVSPost2010Prop46
 90
       50
102
RTVSPost2010PropOp46
 70
     1
102
RTVSPost2010Prop47
 90
       50
102
RTVSPost2010PropOp47
 70
     1
102
RTVSPost2010Prop48
 90
       50
102
RTVSPost2010PropOp48
 70
     1
102
RTVSPost2010Prop49
280
     0
102
RTVSPost2010PropOp49
 70
     1
102
RTVSPost2010Prop50
 90
       50
102
RTVSPost2010PropOp50
 70
     1
102
RTVSPost2010Prop51ColorIndex
 90
      256
102
RTVSPost2010Prop51ColorRGB
 90
-16777216
102
RTVSPost2010PropOp51
 70
     0
102
RTVSPost2010Prop52
140
1.0
102
RTVSPost2010PropOp52
 70
     0
102
RTVSPost2010Prop53
 90
        2
102
RTVSPost2010PropOp53
 70
     1
102
RTVSPost2010Prop54
  1
strokes_ogs.tif
102
RTVSPost2010PropOp54
 70
     1
102
RTVSPost2010Prop55
280
     0
102
RTVSPost2010PropOp55
 70
     1
102
RTVSPost2010Prop56
140
1.0
102
RTVSPost2010PropOp56
 70
     1
102
RTVSPost2010Prop57
140
1.0
102
RTVSPost2010PropOp57
 70
     1
102
RTVSPropertyOp0
 70
     1
102
RTVSPropertyOp1
 70
     1
102
RTVSPropertyOp2
 70
     1
102
RTVSPropertyOp3
 70
     1
102
RTVSPropertyOp4
 70
     1
102
RTVSPropertyOp5
 70
     1
102
RTVSPropertyOp6
 70
     1
102
RTVSPropertyOp7
 70
     1
102
RTVSPropertyOp8
 70
     1
102
RTVSPropertyOp9
 70
     1
102
RTVSPropertyOp10
 70
     1
102
RTVSPropertyOp11
 70
     1
102
RTVSPropertyOp12
 70
     1
102
RTVSPropertyOp13
 70
     1
102
RTVSPropertyOp14
 70
     1
102
RTVSPropertyOp15
 70
     1
102
RTVSPropertyOp16
 70
     1
102
RTVSPropertyOp17
 70
     1
102
RTVSPropertyOp18
 70
     1
102
RTVSPropertyOp19
 70
     1
102
RTVSPropertyOp20
 70
     1
102
RTVSPropertyOp21
 70
     1
102
RTVSPropertyOp22
 70
     1
102
RTVSPropertyOp23
 70
     1
102
RTVSPropertyOp24
 70
     1
102
RTVSPropertyOp25
 70
     1
102
RTVSPropertyOp26
 70
     1
102
RTVSPropertyOp27
 70
     1
102
RTVSPropertyOp28
 70
     1
102
RTVSPropertyOp29
 70
     1
102
RTVSPropertyOp30
 70
     1
102
RTVSPropertyOp31
 70
     1
102
RTVSPropertyOp32
 70
     1
102
RTVSPropertyOp33
 70
     1
102
RTVSPropertyOp34
 70
     1
102
RTVSPropertyOp35
 70
     1
102
RTVSPropertyOp36
 70
     1
102
RTVSPropertyOp37
 70
     1
102
RTVSPropertyOp38
 70
     1
102
RTVSPropertyOp39
 70
     1
102
RTVSPropertyOp40
 70
     1
102
RTVSPropertyOp41
 70
     1
102
RTVSPropertyOp42
 70
     1
102
RTVSPropertyOp43
 70
     1
102
RTVSPropertyOp44
 70
     1
102
RTVSPropertyOp45
 70
     1
102
RTVSPropertyOp46
 70
     1
102
RTVSPropertyOp47
 70
     1
102
RTVSPropertyOp48
 70
     1
102
RTVSPropertyOp49
 70
     1
102
RTVSPropertyOp50
 70
     1
102
RTVSPropertyOp51
 70
     0
102
RTVSPropertyOp52
 70
     0
102
RTVSPropertyOp53
 70
     1
102
RTVSPropertyOp54
 70
     1
102
RTVSPropertyOp55
 70
     1
102
RTVSPropertyOp56
 70
     1
102
RTVSPropertyOp57
 70
     1
102
RTVSPropertyOp58
 70
     1
102
RTVSPropertyOp59
 70
     1
102
RTVSPropertyOp60
 70
     1
102
RTVSPropertyOp61
 70
     1
102
RTVSPropertyOp62
 70
     1
  0
XRECORD
  5
AE27
102
{ACAD_REACTORS
330
AE26
102
}
330
AE26
100
AcDbXrecord
280
     1
102
RTVSPost2010Prop28
280
     0
102
RTVSPost2010PropOp28
 70
     1
102
RTVSPost2010Prop29
280
     1
102
RTVSPost2010PropOp29
 70
     1
102
RTVSPost2010Prop30
280
     1
102
RTVSPost2010PropOp30
 70
     1
102
RTVSPost2010Prop31
280
     0
102
RTVSPost2010PropOp31
 70
     1
102
RTVSPost2010Prop32
280
     0
102
RTVSPost2010PropOp32
 70
     1
102
RTVSPost2010Prop33
280
     0
102
RTVSPost2010PropOp33
 70
     1
102
RTVSPost2010Prop34
280
     0
102
RTVSPost2010PropOp34
 70
     1
102
RTVSPost2010Prop35
280
     0
102
RTVSPost2010PropOp35
 70
     1
102
RTVSPost2010Prop36
280
     0
102
RTVSPost2010PropOp36
 70
     1
102
RTVSPost2010Prop37
 90
       50
102
RTVSPost2010PropOp37
 70
     1
102
RTVSPost2010Prop38
140
0.0
102
RTVSPost2010PropOp38
 70
     1
102
RTVSPost2010Prop39
140
1.0
102
RTVSPost2010PropOp39
 70
     1
102
RTVSPost2010Prop40
 90
        0
102
RTVSPost2010PropOp40
 70
     1
102
RTVSPost2010Prop41ColorIndex
 90
       18
102
RTVSPost2010Prop41ColorRGB
 90
        0
102
RTVSPost2010PropOp41
 70
     1
102
RTVSPost2010Prop42
 90
       50
102
RTVSPost2010PropOp42
 70
     1
102
RTVSPost2010Prop43
 90
        3
102
RTVSPost2010PropOp43
 70
     1
102
RTVSPost2010Prop44ColorIndex
 90
        5
102
RTVSPost2010Prop44ColorRGB
 90
      255
102
RTVSPost2010PropOp44
 70
     1
102
RTVSPost2010Prop45
280
     0
102
RTVSPost2010PropOp45
 70
     1
102
RTVSPost2010Prop46
 90
       50
102
RTVSPost2010PropOp46
 70
     1
102
RTVSPost2010Prop47
 90
       50
102
RTVSPost2010PropOp47
 70
     1
102
RTVSPost2010Prop48
 90
       50
102
RTVSPost2010PropOp48
 70
     1
102
RTVSPost2010Prop49
280
     0
102
RTVSPost2010PropOp49
 70
     1
102
RTVSPost2010Prop50
 90
       50
102
RTVSPost2010PropOp50
 70
     1
102
RTVSPost2010Prop51ColorIndex
 90
      256
102
RTVSPost2010Prop51ColorRGB
 90
-16777216
102
RTVSPost2010PropOp51
 70
     0
102
RTVSPost2010Prop52
140
1.0
102
RTVSPost2010PropOp52
 70
     0
102
RTVSPost2010Prop53
 90
        2
102
RTVSPost2010PropOp53
 70
     1
102
RTVSPost2010Prop54
  1
strokes_ogs.tif
102
RTVSPost2010PropOp54
 70
     1
102
RTVSPost2010Prop55
280
     0
102
RTVSPost2010PropOp55
 70
     1
102
RTVSPost2010Prop56
140
1.0
102
RTVSPost2010PropOp56
 70
     1
102
RTVSPost2010Prop57
140
1.0
102
RTVSPost2010PropOp57
 70
     1
102
RTVSPropertyOp0
 70
     1
102
RTVSPropertyOp1
 70
     1
102
RTVSPropertyOp2
 70
     1
102
RTVSPropertyOp3
 70
     1
102
RTVSPropertyOp4
 70
     1
102
RTVSPropertyOp5
 70
     1
102
RTVSPropertyOp6
 70
     1
102
RTVSPropertyOp7
 70
     1
102
RTVSPropertyOp8
 70
     1
102
RTVSPropertyOp9
 70
     1
102
RTVSPropertyOp10
 70
     1
102
RTVSPropertyOp11
 70
     1
102
RTVSPropertyOp12
 70
     1
102
RTVSPropertyOp13
 70
     1
102
RTVSPropertyOp14
 70
     1
102
RTVSPropertyOp15
 70
     1
102
RTVSPropertyOp16
 70
     1
102
RTVSPropertyOp17
 70
     1
102
RTVSPropertyOp18
 70
     1
102
RTVSPropertyOp19
 70
     1
102
RTVSPropertyOp20
 70
     1
102
RTVSPropertyOp21
 70
     1
102
RTVSPropertyOp22
 70
     1
102
RTVSPropertyOp23
 70
     1
102
RTVSPropertyOp24
 70
     1
102
RTVSPropertyOp25
 70
     1
102
RTVSPropertyOp26
 70
     1
102
RTVSPropertyOp27
 70
     1
102
RTVSPropertyOp28
 70
     1
102
RTVSPropertyOp29
 70
     1
102
RTVSPropertyOp30
 70
     1
102
RTVSPropertyOp31
 70
     1
102
RTVSPropertyOp32
 70
     1
102
RTVSPropertyOp33
 70
     1
102
RTVSPropertyOp34
 70
     1
102
RTVSPropertyOp35
 70
     1
102
RTVSPropertyOp36
 70
     1
102
RTVSPropertyOp37
 70
     1
102
RTVSPropertyOp38
 70
     1
102
RTVSPropertyOp39
 70
     1
102
RTVSPropertyOp40
 70
     1
102
RTVSPropertyOp41
 70
     1
102
RTVSPropertyOp42
 70
     1
102
RTVSPropertyOp43
 70
     1
102
RTVSPropertyOp44
 70
     1
102
RTVSPropertyOp45
 70
     1
102
RTVSPropertyOp46
 70
     1
102
RTVSPropertyOp47
 70
     1
102
RTVSPropertyOp48
 70
     1
102
RTVSPropertyOp49
 70
     1
102
RTVSPropertyOp50
 70
     1
102
RTVSPropertyOp51
 70
     0
102
RTVSPropertyOp52
 70
     0
102
RTVSPropertyOp53
 70
     1
102
RTVSPropertyOp54
 70
     1
102
RTVSPropertyOp55
 70
     1
102
RTVSPropertyOp56
 70
     1
102
RTVSPropertyOp57
 70
     1
102
RTVSPropertyOp58
 70
     1
102
RTVSPropertyOp59
 70
     1
102
RTVSPropertyOp60
 70
     1
102
RTVSPropertyOp61
 70
     1
102
RTVSPropertyOp62
 70
     1
  0
XRECORD
  5
AE2B
102
{ACAD_REACTORS
330
AE2A
102
}
330
AE2A
100
AcDbXrecord
280
     1
102
RTVSPost2010Prop28
280
     0
102
RTVSPost2010PropOp28
 70
     1
102
RTVSPost2010Prop29
280
     1
102
RTVSPost2010PropOp29
 70
     1
102
RTVSPost2010Prop30
280
     1
102
RTVSPost2010PropOp30
 70
     1
102
RTVSPost2010Prop31
280
     0
102
RTVSPost2010PropOp31
 70
     1
102
RTVSPost2010Prop32
280
     0
102
RTVSPost2010PropOp32
 70
     1
102
RTVSPost2010Prop33
280
     0
102
RTVSPost2010PropOp33
 70
     1
102
RTVSPost2010Prop34
280
     0
102
RTVSPost2010PropOp34
 70
     1
102
RTVSPost2010Prop35
280
     0
102
RTVSPost2010PropOp35
 70
     1
102
RTVSPost2010Prop36
280
     0
102
RTVSPost2010PropOp36
 70
     1
102
RTVSPost2010Prop37
 90
       50
102
RTVSPost2010PropOp37
 70
     1
102
RTVSPost2010Prop38
140
0.0
102
RTVSPost2010PropOp38
 70
     1
102
RTVSPost2010Prop39
140
1.0
102
RTVSPost2010PropOp39
 70
     1
102
RTVSPost2010Prop40
 90
        0
102
RTVSPost2010PropOp40
 70
     1
102
RTVSPost2010Prop41ColorIndex
 90
       18
102
RTVSPost2010Prop41ColorRGB
 90
        0
102
RTVSPost2010PropOp41
 70
     1
102
RTVSPost2010Prop42
 90
       50
102
RTVSPost2010PropOp42
 70
     1
102
RTVSPost2010Prop43
 90
        3
102
RTVSPost2010PropOp43
 70
     1
102
RTVSPost2010Prop44ColorIndex
 90
        5
102
RTVSPost2010Prop44ColorRGB
 90
      255
102
RTVSPost2010PropOp44
 70
     1
102
RTVSPost2010Prop45
280
     0
102
RTVSPost2010PropOp45
 70
     1
102
RTVSPost2010Prop46
 90
       50
102
RTVSPost2010PropOp46
 70
     1
102
RTVSPost2010Prop47
 90
       50
102
RTVSPost2010PropOp47
 70
     1
102
RTVSPost2010Prop48
 90
       50
102
RTVSPost2010PropOp48
 70
     1
102
RTVSPost2010Prop49
280
     0
102
RTVSPost2010PropOp49
 70
     1
102
RTVSPost2010Prop50
 90
       50
102
RTVSPost2010PropOp50
 70
     1
102
RTVSPost2010Prop51ColorIndex
 90
      256
102
RTVSPost2010Prop51ColorRGB
 90
-16777216
102
RTVSPost2010PropOp51
 70
     0
102
RTVSPost2010Prop52
140
1.0
102
RTVSPost2010PropOp52
 70
     0
102
RTVSPost2010Prop53
 90
        2
102
RTVSPost2010PropOp53
 70
     1
102
RTVSPost2010Prop54
  1
strokes_ogs.tif
102
RTVSPost2010PropOp54
 70
     1
102
RTVSPost2010Prop55
280
     0
102
RTVSPost2010PropOp55
 70
     1
102
RTVSPost2010Prop56
140
1.0
102
RTVSPost2010PropOp56
 70
     1
102
RTVSPost2010Prop57
140
1.0
102
RTVSPost2010PropOp57
 70
     1
102
RTVSPropertyOp0
 70
     1
102
RTVSPropertyOp1
 70
     1
102
RTVSPropertyOp2
 70
     1
102
RTVSPropertyOp3
 70
     1
102
RTVSPropertyOp4
 70
     1
102
RTVSPropertyOp5
 70
     1
102
RTVSPropertyOp6
 70
     1
102
RTVSPropertyOp7
 70
     1
102
RTVSPropertyOp8
 70
     1
102
RTVSPropertyOp9
 70
     1
102
RTVSPropertyOp10
 70
     1
102
RTVSPropertyOp11
 70
     1
102
RTVSPropertyOp12
 70
     1
102
RTVSPropertyOp13
 70
     1
102
RTVSPropertyOp14
 70
     1
102
RTVSPropertyOp15
 70
     1
102
RTVSPropertyOp16
 70
     1
102
RTVSPropertyOp17
 70
     1
102
RTVSPropertyOp18
 70
     1
102
RTVSPropertyOp19
 70
     1
102
RTVSPropertyOp20
 70
     1
102
RTVSPropertyOp21
 70
     1
102
RTVSPropertyOp22
 70
     1
102
RTVSPropertyOp23
 70
     1
102
RTVSPropertyOp24
 70
     1
102
RTVSPropertyOp25
 70
     1
102
RTVSPropertyOp26
 70
     1
102
RTVSPropertyOp27
 70
     1
102
RTVSPropertyOp28
 70
     1
102
RTVSPropertyOp29
 70
     1
102
RTVSPropertyOp30
 70
     1
102
RTVSPropertyOp31
 70
     1
102
RTVSPropertyOp32
 70
     1
102
RTVSPropertyOp33
 70
     1
102
RTVSPropertyOp34
 70
     1
102
RTVSPropertyOp35
 70
     1
102
RTVSPropertyOp36
 70
     1
102
RTVSPropertyOp37
 70
     1
102
RTVSPropertyOp38
 70
     1
102
RTVSPropertyOp39
 70
     1
102
RTVSPropertyOp40
 70
     1
102
RTVSPropertyOp41
 70
     1
102
RTVSPropertyOp42
 70
     1
102
RTVSPropertyOp43
 70
     1
102
RTVSPropertyOp44
 70
     1
102
RTVSPropertyOp45
 70
     1
102
RTVSPropertyOp46
 70
     1
102
RTVSPropertyOp47
 70
     1
102
RTVSPropertyOp48
 70
     1
102
RTVSPropertyOp49
 70
     1
102
RTVSPropertyOp50
 70
     1
102
RTVSPropertyOp51
 70
     0
102
RTVSPropertyOp52
 70
     0
102
RTVSPropertyOp53
 70
     1
102
RTVSPropertyOp54
 70
     1
102
RTVSPropertyOp55
 70
     1
102
RTVSPropertyOp56
 70
     1
102
RTVSPropertyOp57
 70
     1
102
RTVSPropertyOp58
 70
     1
102
RTVSPropertyOp59
 70
     1
102
RTVSPropertyOp60
 70
     1
102
RTVSPropertyOp61
 70
     1
102
RTVSPropertyOp62
 70
     1
  0
XRECORD
  5
AE45
102
{ACAD_REACTORS
330
AE44
102
}
330
AE44
100
AcDbXrecord
280
     1
102
RTVSPost2010Prop28
280
     0
102
RTVSPost2010PropOp28
 70
     1
102
RTVSPost2010Prop29
280
     1
102
RTVSPost2010PropOp29
 70
     1
102
RTVSPost2010Prop30
280
     1
102
RTVSPost2010PropOp30
 70
     1
102
RTVSPost2010Prop31
280
     0
102
RTVSPost2010PropOp31
 70
     1
102
RTVSPost2010Prop32
280
     0
102
RTVSPost2010PropOp32
 70
     1
102
RTVSPost2010Prop33
280
     0
102
RTVSPost2010PropOp33
 70
     1
102
RTVSPost2010Prop34
280
     0
102
RTVSPost2010PropOp34
 70
     1
102
RTVSPost2010Prop35
280
     0
102
RTVSPost2010PropOp35
 70
     1
102
RTVSPost2010Prop36
280
     0
102
RTVSPost2010PropOp36
 70
     1
102
RTVSPost2010Prop37
 90
       50
102
RTVSPost2010PropOp37
 70
     0
102
RTVSPost2010Prop38
140
0.0
102
RTVSPost2010PropOp38
 70
     0
102
RTVSPost2010Prop39
140
1.0
102
RTVSPost2010PropOp39
 70
     0
102
RTVSPost2010Prop40
 90
        0
102
RTVSPost2010PropOp40
 70
     0
102
RTVSPost2010Prop41ColorIndex
 90
       18
102
RTVSPost2010Prop41ColorRGB
 90
        0
102
RTVSPost2010PropOp41
 70
     0
102
RTVSPost2010Prop42
 90
       50
102
RTVSPost2010PropOp42
 70
     0
102
RTVSPost2010Prop43
 90
        3
102
RTVSPost2010PropOp43
 70
     0
102
RTVSPost2010Prop44ColorIndex
 90
        5
102
RTVSPost2010Prop44ColorRGB
 90
      255
102
RTVSPost2010PropOp44
 70
     0
102
RTVSPost2010Prop45
280
     0
102
RTVSPost2010PropOp45
 70
     1
102
RTVSPost2010Prop46
 90
       50
102
RTVSPost2010PropOp46
 70
     0
102
RTVSPost2010Prop47
 90
       50
102
RTVSPost2010PropOp47
 70
     0
102
RTVSPost2010Prop48
 90
       50
102
RTVSPost2010PropOp48
 70
     0
102
RTVSPost2010Prop49
280
     0
102
RTVSPost2010PropOp49
 70
     1
102
RTVSPost2010Prop50
 90
       50
102
RTVSPost2010PropOp50
 70
     0
102
RTVSPost2010Prop51ColorIndex
 90
      256
102
RTVSPost2010Prop51ColorRGB
 90
-16777216
102
RTVSPost2010PropOp51
 70
     0
102
RTVSPost2010Prop52
140
1.0
102
RTVSPost2010PropOp52
 70
     0
102
RTVSPost2010Prop53
 90
        2
102
RTVSPost2010PropOp53
 70
     0
102
RTVSPost2010Prop54
  1
strokes_ogs.tif
102
RTVSPost2010PropOp54
 70
     0
102
RTVSPost2010Prop55
280
     0
102
RTVSPost2010PropOp55
 70
     1
102
RTVSPost2010Prop56
140
1.0
102
RTVSPost2010PropOp56
 70
     0
102
RTVSPost2010Prop57
140
1.0
102
RTVSPost2010PropOp57
 70
     0
102
RTVSPropertyOp0
 70
     0
102
RTVSPropertyOp1
 70
     0
102
RTVSPropertyOp2
 70
     0
102
RTVSPropertyOp3
 70
     0
102
RTVSPropertyOp4
 70
     0
102
RTVSPropertyOp5
 70
     0
102
RTVSPropertyOp6
 70
     0
102
RTVSPropertyOp7
 70
     0
102
RTVSPropertyOp8
 70
     0
102
RTVSPropertyOp9
 70
     0
102
RTVSPropertyOp10
 70
     0
102
RTVSPropertyOp11
 70
     0
102
RTVSPropertyOp12
 70
     0
102
RTVSPropertyOp13
 70
     0
102
RTVSPropertyOp14
 70
     2
102
RTVSPropertyOp15
 70
     0
102
RTVSPropertyOp16
 70
     0
102
RTVSPropertyOp17
 70
     0
102
RTVSPropertyOp18
 70
     0
102
RTVSPropertyOp19
 70
     0
102
RTVSPropertyOp20
 70
     0
102
RTVSPropertyOp21
 70
     0
102
RTVSPropertyOp22
 70
     0
102
RTVSPropertyOp23
 70
     0
102
RTVSPropertyOp24
 70
     0
102
RTVSPropertyOp25
 70
     0
102
RTVSPropertyOp26
 70
     0
102
RTVSPropertyOp27
 70
     0
102
RTVSPropertyOp28
 70
     1
102
RTVSPropertyOp29
 70
     1
102
RTVSPropertyOp30
 70
     1
102
RTVSPropertyOp31
 70
     1
102
RTVSPropertyOp32
 70
     1
102
RTVSPropertyOp33
 70
     1
102
RTVSPropertyOp34
 70
     1
102
RTVSPropertyOp35
 70
     1
102
RTVSPropertyOp36
 70
     1
102
RTVSPropertyOp37
 70
     0
102
RTVSPropertyOp38
 70
     0
102
RTVSPropertyOp39
 70
     0
102
RTVSPropertyOp40
 70
     0
102
RTVSPropertyOp41
 70
     0
102
RTVSPropertyOp42
 70
     0
102
RTVSPropertyOp43
 70
     0
102
RTVSPropertyOp44
 70
     0
102
RTVSPropertyOp45
 70
     1
102
RTVSPropertyOp46
 70
     0
102
RTVSPropertyOp47
 70
     0
102
RTVSPropertyOp48
 70
     0
102
RTVSPropertyOp49
 70
     1
102
RTVSPropertyOp50
 70
     0
102
RTVSPropertyOp51
 70
     0
102
RTVSPropertyOp52
 70
     0
102
RTVSPropertyOp53
 70
     0
102
RTVSPropertyOp54
 70
     0
102
RTVSPropertyOp55
 70
     1
102
RTVSPropertyOp56
 70
     0
102
RTVSPropertyOp57
 70
     0
102
RTVSPropertyOp58
 70
     0
102
RTVSPropertyOp59
 70
     0
102
RTVSPropertyOp60
 70
     0
102
RTVSPropertyOp61
 70
     0
102
RTVSPropertyOp62
 70
     0
  0
XRECORD
  5
AE33
102
{ACAD_REACTORS
330
AE32
102
}
330
AE32
100
AcDbXrecord
280
     1
102
RTVSPost2010Prop28
280
     0
102
RTVSPost2010PropOp28
 70
     1
102
RTVSPost2010Prop29
280
     1
102
RTVSPost2010PropOp29
 70
     1
102
RTVSPost2010Prop30
280
     1
102
RTVSPost2010PropOp30
 70
     1
102
RTVSPost2010Prop31
280
     0
102
RTVSPost2010PropOp31
 70
     1
102
RTVSPost2010Prop32
280
     0
102
RTVSPost2010PropOp32
 70
     1
102
RTVSPost2010Prop33
280
     0
102
RTVSPost2010PropOp33
 70
     1
102
RTVSPost2010Prop34
280
     0
102
RTVSPost2010PropOp34
 70
     1
102
RTVSPost2010Prop35
280
     0
102
RTVSPost2010PropOp35
 70
     1
102
RTVSPost2010Prop36
280
     0
102
RTVSPost2010PropOp36
 70
     1
102
RTVSPost2010Prop37
 90
       50
102
RTVSPost2010PropOp37
 70
     1
102
RTVSPost2010Prop38
140
0.0
102
RTVSPost2010PropOp38
 70
     1
102
RTVSPost2010Prop39
140
1.0
102
RTVSPost2010PropOp39
 70
     1
102
RTVSPost2010Prop40
 90
        0
102
RTVSPost2010PropOp40
 70
     1
102
RTVSPost2010Prop41ColorIndex
 90
       18
102
RTVSPost2010Prop41ColorRGB
 90
        0
102
RTVSPost2010PropOp41
 70
     1
102
RTVSPost2010Prop42
 90
       50
102
RTVSPost2010PropOp42
 70
     1
102
RTVSPost2010Prop43
 90
        3
102
RTVSPost2010PropOp43
 70
     1
102
RTVSPost2010Prop44ColorIndex
 90
        5
102
RTVSPost2010Prop44ColorRGB
 90
      255
102
RTVSPost2010PropOp44
 70
     1
102
RTVSPost2010Prop45
280
     0
102
RTVSPost2010PropOp45
 70
     1
102
RTVSPost2010Prop46
 90
       50
102
RTVSPost2010PropOp46
 70
     1
102
RTVSPost2010Prop47
 90
       50
102
RTVSPost2010PropOp47
 70
     1
102
RTVSPost2010Prop48
 90
       50
102
RTVSPost2010PropOp48
 70
     1
102
RTVSPost2010Prop49
280
     0
102
RTVSPost2010PropOp49
 70
     1
102
RTVSPost2010Prop50
 90
       50
102
RTVSPost2010PropOp50
 70
     1
102
RTVSPost2010Prop51ColorIndex
 90
      256
102
RTVSPost2010Prop51ColorRGB
 90
-16777216
102
RTVSPost2010PropOp51
 70
     0
102
RTVSPost2010Prop52
140
1.0
102
RTVSPost2010PropOp52
 70
     0
102
RTVSPost2010Prop53
 90
        2
102
RTVSPost2010PropOp53
 70
     1
102
RTVSPost2010Prop54
  1
strokes_ogs.tif
102
RTVSPost2010PropOp54
 70
     1
102
RTVSPost2010Prop55
280
     0
102
RTVSPost2010PropOp55
 70
     1
102
RTVSPost2010Prop56
140
1.0
102
RTVSPost2010PropOp56
 70
     1
102
RTVSPost2010Prop57
140
1.0
102
RTVSPost2010PropOp57
 70
     1
102
RTVSPropertyOp0
 70
     1
102
RTVSPropertyOp1
 70
     1
102
RTVSPropertyOp2
 70
     1
102
RTVSPropertyOp3
 70
     1
102
RTVSPropertyOp4
 70
     1
102
RTVSPropertyOp5
 70
     1
102
RTVSPropertyOp6
 70
     1
102
RTVSPropertyOp7
 70
     1
102
RTVSPropertyOp8
 70
     1
102
RTVSPropertyOp9
 70
     1
102
RTVSPropertyOp10
 70
     1
102
RTVSPropertyOp11
 70
     1
102
RTVSPropertyOp12
 70
     1
102
RTVSPropertyOp13
 70
     1
102
RTVSPropertyOp14
 70
     1
102
RTVSPropertyOp15
 70
     1
102
RTVSPropertyOp16
 70
     1
102
RTVSPropertyOp17
 70
     1
102
RTVSPropertyOp18
 70
     1
102
RTVSPropertyOp19
 70
     1
102
RTVSPropertyOp20
 70
     1
102
RTVSPropertyOp21
 70
     1
102
RTVSPropertyOp22
 70
     1
102
RTVSPropertyOp23
 70
     1
102
RTVSPropertyOp24
 70
     1
102
RTVSPropertyOp25
 70
     1
102
RTVSPropertyOp26
 70
     1
102
RTVSPropertyOp27
 70
     1
102
RTVSPropertyOp28
 70
     1
102
RTVSPropertyOp29
 70
     1
102
RTVSPropertyOp30
 70
     1
102
RTVSPropertyOp31
 70
     1
102
RTVSPropertyOp32
 70
     1
102
RTVSPropertyOp33
 70
     1
102
RTVSPropertyOp34
 70
     1
102
RTVSPropertyOp35
 70
     1
102
RTVSPropertyOp36
 70
     1
102
RTVSPropertyOp37
 70
     1
102
RTVSPropertyOp38
 70
     1
102
RTVSPropertyOp39
 70
     1
102
RTVSPropertyOp40
 70
     1
102
RTVSPropertyOp41
 70
     1
102
RTVSPropertyOp42
 70
     1
102
RTVSPropertyOp43
 70
     1
102
RTVSPropertyOp44
 70
     1
102
RTVSPropertyOp45
 70
     1
102
RTVSPropertyOp46
 70
     1
102
RTVSPropertyOp47
 70
     1
102
RTVSPropertyOp48
 70
     1
102
RTVSPropertyOp49
 70
     1
102
RTVSPropertyOp50
 70
     1
102
RTVSPropertyOp51
 70
     0
102
RTVSPropertyOp52
 70
     0
102
RTVSPropertyOp53
 70
     1
102
RTVSPropertyOp54
 70
     1
102
RTVSPropertyOp55
 70
     1
102
RTVSPropertyOp56
 70
     1
102
RTVSPropertyOp57
 70
     1
102
RTVSPropertyOp58
 70
     1
102
RTVSPropertyOp59
 70
     1
102
RTVSPropertyOp60
 70
     1
102
RTVSPropertyOp61
 70
     1
102
RTVSPropertyOp62
 70
     1
  0
XRECORD
  5
AE17
102
{ACAD_REACTORS
330
AE16
102
}
330
AE16
100
AcDbXrecord
280
     1
102
RTVSPost2010Prop28
280
     0
102
RTVSPost2010PropOp28
 70
     1
102
RTVSPost2010Prop29
280
     1
102
RTVSPost2010PropOp29
 70
     1
102
RTVSPost2010Prop30
280
     1
102
RTVSPost2010PropOp30
 70
     1
102
RTVSPost2010Prop31
280
     0
102
RTVSPost2010PropOp31
 70
     1
102
RTVSPost2010Prop32
280
     0
102
RTVSPost2010PropOp32
 70
     1
102
RTVSPost2010Prop33
280
     0
102
RTVSPost2010PropOp33
 70
     1
102
RTVSPost2010Prop34
280
     0
102
RTVSPost2010PropOp34
 70
     1
102
RTVSPost2010Prop35
280
     0
102
RTVSPost2010PropOp35
 70
     1
102
RTVSPost2010Prop36
280
     0
102
RTVSPost2010PropOp36
 70
     1
102
RTVSPost2010Prop37
 90
       50
102
RTVSPost2010PropOp37
 70
     1
102
RTVSPost2010Prop38
140
0.0
102
RTVSPost2010PropOp38
 70
     1
102
RTVSPost2010Prop39
140
1.0
102
RTVSPost2010PropOp39
 70
     1
102
RTVSPost2010Prop40
 90
        0
102
RTVSPost2010PropOp40
 70
     1
102
RTVSPost2010Prop41ColorIndex
 90
       18
102
RTVSPost2010Prop41ColorRGB
 90
        0
102
RTVSPost2010PropOp41
 70
     1
102
RTVSPost2010Prop42
 90
       50
102
RTVSPost2010PropOp42
 70
     1
102
RTVSPost2010Prop43
 90
        3
102
RTVSPost2010PropOp43
 70
     1
102
RTVSPost2010Prop44ColorIndex
 90
        5
102
RTVSPost2010Prop44ColorRGB
 90
      255
102
RTVSPost2010PropOp44
 70
     1
102
RTVSPost2010Prop45
280
     0
102
RTVSPost2010PropOp45
 70
     1
102
RTVSPost2010Prop46
 90
       50
102
RTVSPost2010PropOp46
 70
     1
102
RTVSPost2010Prop47
 90
       50
102
RTVSPost2010PropOp47
 70
     1
102
RTVSPost2010Prop48
 90
       50
102
RTVSPost2010PropOp48
 70
     1
102
RTVSPost2010Prop49
280
     0
102
RTVSPost2010PropOp49
 70
     1
102
RTVSPost2010Prop50
 90
       50
102
RTVSPost2010PropOp50
 70
     1
102
RTVSPost2010Prop51ColorIndex
 90
      256
102
RTVSPost2010Prop51ColorRGB
 90
-16777216
102
RTVSPost2010PropOp51
 70
     0
102
RTVSPost2010Prop52
140
1.0
102
RTVSPost2010PropOp52
 70
     0
102
RTVSPost2010Prop53
 90
        2
102
RTVSPost2010PropOp53
 70
     1
102
RTVSPost2010Prop54
  1
strokes_ogs.tif
102
RTVSPost2010PropOp54
 70
     1
102
RTVSPost2010Prop55
280
     0
102
RTVSPost2010PropOp55
 70
     1
102
RTVSPost2010Prop56
140
1.0
102
RTVSPost2010PropOp56
 70
     1
102
RTVSPost2010Prop57
140
1.0
102
RTVSPost2010PropOp57
 70
     1
102
RTVSPropertyOp0
 70
     1
102
RTVSPropertyOp1
 70
     1
102
RTVSPropertyOp2
 70
     1
102
RTVSPropertyOp3
 70
     1
102
RTVSPropertyOp4
 70
     1
102
RTVSPropertyOp5
 70
     1
102
RTVSPropertyOp6
 70
     1
102
RTVSPropertyOp7
 70
     1
102
RTVSPropertyOp8
 70
     1
102
RTVSPropertyOp9
 70
     1
102
RTVSPropertyOp10
 70
     1
102
RTVSPropertyOp11
 70
     1
102
RTVSPropertyOp12
 70
     1
102
RTVSPropertyOp13
 70
     1
102
RTVSPropertyOp14
 70
     1
102
RTVSPropertyOp15
 70
     1
102
RTVSPropertyOp16
 70
     1
102
RTVSPropertyOp17
 70
     1
102
RTVSPropertyOp18
 70
     1
102
RTVSPropertyOp19
 70
     1
102
RTVSPropertyOp20
 70
     1
102
RTVSPropertyOp21
 70
     1
102
RTVSPropertyOp22
 70
     1
102
RTVSPropertyOp23
 70
     1
102
RTVSPropertyOp24
 70
     1
102
RTVSPropertyOp25
 70
     1
102
RTVSPropertyOp26
 70
     1
102
RTVSPropertyOp27
 70
     1
102
RTVSPropertyOp28
 70
     1
102
RTVSPropertyOp29
 70
     1
102
RTVSPropertyOp30
 70
     1
102
RTVSPropertyOp31
 70
     1
102
RTVSPropertyOp32
 70
     1
102
RTVSPropertyOp33
 70
     1
102
RTVSPropertyOp34
 70
     1
102
RTVSPropertyOp35
 70
     1
102
RTVSPropertyOp36
 70
     1
102
RTVSPropertyOp37
 70
     1
102
RTVSPropertyOp38
 70
     1
102
RTVSPropertyOp39
 70
     1
102
RTVSPropertyOp40
 70
     1
102
RTVSPropertyOp41
 70
     1
102
RTVSPropertyOp42
 70
     1
102
RTVSPropertyOp43
 70
     1
102
RTVSPropertyOp44
 70
     1
102
RTVSPropertyOp45
 70
     1
102
RTVSPropertyOp46
 70
     1
102
RTVSPropertyOp47
 70
     1
102
RTVSPropertyOp48
 70
     1
102
RTVSPropertyOp49
 70
     1
102
RTVSPropertyOp50
 70
     1
102
RTVSPropertyOp51
 70
     0
102
RTVSPropertyOp52
 70
     0
102
RTVSPropertyOp53
 70
     1
102
RTVSPropertyOp54
 70
     1
102
RTVSPropertyOp55
 70
     1
102
RTVSPropertyOp56
 70
     1
102
RTVSPropertyOp57
 70
     1
102
RTVSPropertyOp58
 70
     1
102
RTVSPropertyOp59
 70
     1
102
RTVSPropertyOp60
 70
     1
102
RTVSPropertyOp61
 70
     1
102
RTVSPropertyOp62
 70
     1
  0
XRECORD
  5
AE19
102
{ACAD_REACTORS
330
AE18
102
}
330
AE18
100
AcDbXrecord
280
     1
102
RTVSPost2010Prop28
280
     0
102
RTVSPost2010PropOp28
 70
     1
102
RTVSPost2010Prop29
280
     1
102
RTVSPost2010PropOp29
 70
     1
102
RTVSPost2010Prop30
280
     1
102
RTVSPost2010PropOp30
 70
     1
102
RTVSPost2010Prop31
280
     0
102
RTVSPost2010PropOp31
 70
     1
102
RTVSPost2010Prop32
280
     0
102
RTVSPost2010PropOp32
 70
     1
102
RTVSPost2010Prop33
280
     0
102
RTVSPost2010PropOp33
 70
     1
102
RTVSPost2010Prop34
280
     0
102
RTVSPost2010PropOp34
 70
     1
102
RTVSPost2010Prop35
280
     0
102
RTVSPost2010PropOp35
 70
     1
102
RTVSPost2010Prop36
280
     0
102
RTVSPost2010PropOp36
 70
     1
102
RTVSPost2010Prop37
 90
       50
102
RTVSPost2010PropOp37
 70
     1
102
RTVSPost2010Prop38
140
0.0
102
RTVSPost2010PropOp38
 70
     1
102
RTVSPost2010Prop39
140
1.0
102
RTVSPost2010PropOp39
 70
     1
102
RTVSPost2010Prop40
 90
        0
102
RTVSPost2010PropOp40
 70
     1
102
RTVSPost2010Prop41ColorIndex
 90
       18
102
RTVSPost2010Prop41ColorRGB
 90
        0
102
RTVSPost2010PropOp41
 70
     1
102
RTVSPost2010Prop42
 90
       50
102
RTVSPost2010PropOp42
 70
     1
102
RTVSPost2010Prop43
 90
        3
102
RTVSPost2010PropOp43
 70
     1
102
RTVSPost2010Prop44ColorIndex
 90
        5
102
RTVSPost2010Prop44ColorRGB
 90
      255
102
RTVSPost2010PropOp44
 70
     1
102
RTVSPost2010Prop45
280
     0
102
RTVSPost2010PropOp45
 70
     1
102
RTVSPost2010Prop46
 90
       50
102
RTVSPost2010PropOp46
 70
     1
102
RTVSPost2010Prop47
 90
       50
102
RTVSPost2010PropOp47
 70
     1
102
RTVSPost2010Prop48
 90
       50
102
RTVSPost2010PropOp48
 70
     1
102
RTVSPost2010Prop49
280
     0
102
RTVSPost2010PropOp49
 70
     1
102
RTVSPost2010Prop50
 90
       50
102
RTVSPost2010PropOp50
 70
     1
102
RTVSPost2010Prop51ColorIndex
 90
      256
102
RTVSPost2010Prop51ColorRGB
 90
-16777216
102
RTVSPost2010PropOp51
 70
     0
102
RTVSPost2010Prop52
140
1.0
102
RTVSPost2010PropOp52
 70
     0
102
RTVSPost2010Prop53
 90
        2
102
RTVSPost2010PropOp53
 70
     1
102
RTVSPost2010Prop54
  1
strokes_ogs.tif
102
RTVSPost2010PropOp54
 70
     1
102
RTVSPost2010Prop55
280
     0
102
RTVSPost2010PropOp55
 70
     1
102
RTVSPost2010Prop56
140
1.0
102
RTVSPost2010PropOp56
 70
     1
102
RTVSPost2010Prop57
140
1.0
102
RTVSPost2010PropOp57
 70
     1
102
RTVSPropertyOp0
 70
     1
102
RTVSPropertyOp1
 70
     1
102
RTVSPropertyOp2
 70
     1
102
RTVSPropertyOp3
 70
     1
102
RTVSPropertyOp4
 70
     1
102
RTVSPropertyOp5
 70
     1
102
RTVSPropertyOp6
 70
     1
102
RTVSPropertyOp7
 70
     1
102
RTVSPropertyOp8
 70
     1
102
RTVSPropertyOp9
 70
     1
102
RTVSPropertyOp10
 70
     1
102
RTVSPropertyOp11
 70
     1
102
RTVSPropertyOp12
 70
     1
102
RTVSPropertyOp13
 70
     1
102
RTVSPropertyOp14
 70
     1
102
RTVSPropertyOp15
 70
     1
102
RTVSPropertyOp16
 70
     1
102
RTVSPropertyOp17
 70
     1
102
RTVSPropertyOp18
 70
     1
102
RTVSPropertyOp19
 70
     1
102
RTVSPropertyOp20
 70
     1
102
RTVSPropertyOp21
 70
     1
102
RTVSPropertyOp22
 70
     1
102
RTVSPropertyOp23
 70
     1
102
RTVSPropertyOp24
 70
     1
102
RTVSPropertyOp25
 70
     1
102
RTVSPropertyOp26
 70
     1
102
RTVSPropertyOp27
 70
     1
102
RTVSPropertyOp28
 70
     1
102
RTVSPropertyOp29
 70
     1
102
RTVSPropertyOp30
 70
     1
102
RTVSPropertyOp31
 70
     1
102
RTVSPropertyOp32
 70
     1
102
RTVSPropertyOp33
 70
     1
102
RTVSPropertyOp34
 70
     1
102
RTVSPropertyOp35
 70
     1
102
RTVSPropertyOp36
 70
     1
102
RTVSPropertyOp37
 70
     1
102
RTVSPropertyOp38
 70
     1
102
RTVSPropertyOp39
 70
     1
102
RTVSPropertyOp40
 70
     1
102
RTVSPropertyOp41
 70
     1
102
RTVSPropertyOp42
 70
     1
102
RTVSPropertyOp43
 70
     1
102
RTVSPropertyOp44
 70
     1
102
RTVSPropertyOp45
 70
     1
102
RTVSPropertyOp46
 70
     1
102
RTVSPropertyOp47
 70
     1
102
RTVSPropertyOp48
 70
     1
102
RTVSPropertyOp49
 70
     1
102
RTVSPropertyOp50
 70
     1
102
RTVSPropertyOp51
 70
     0
102
RTVSPropertyOp52
 70
     0
102
RTVSPropertyOp53
 70
     1
102
RTVSPropertyOp54
 70
     1
102
RTVSPropertyOp55
 70
     1
102
RTVSPropertyOp56
 70
     1
102
RTVSPropertyOp57
 70
     1
102
RTVSPropertyOp58
 70
     1
102
RTVSPropertyOp59
 70
     1
102
RTVSPropertyOp60
 70
     1
102
RTVSPropertyOp61
 70
     1
102
RTVSPropertyOp62
 70
     1
  0
XRECORD
  5
AE1B
102
{ACAD_REACTORS
330
AE1A
102
}
330
AE1A
100
AcDbXrecord
280
     1
102
RTVSPost2010Prop28
280
     0
102
RTVSPost2010PropOp28
 70
     1
102
RTVSPost2010Prop29
280
     1
102
RTVSPost2010PropOp29
 70
     1
102
RTVSPost2010Prop30
280
     1
102
RTVSPost2010PropOp30
 70
     1
102
RTVSPost2010Prop31
280
     0
102
RTVSPost2010PropOp31
 70
     1
102
RTVSPost2010Prop32
280
     0
102
RTVSPost2010PropOp32
 70
     1
102
RTVSPost2010Prop33
280
     0
102
RTVSPost2010PropOp33
 70
     1
102
RTVSPost2010Prop34
280
     0
102
RTVSPost2010PropOp34
 70
     1
102
RTVSPost2010Prop35
280
     0
102
RTVSPost2010PropOp35
 70
     1
102
RTVSPost2010Prop36
280
     0
102
RTVSPost2010PropOp36
 70
     1
102
RTVSPost2010Prop37
 90
       50
102
RTVSPost2010PropOp37
 70
     1
102
RTVSPost2010Prop38
140
0.0
102
RTVSPost2010PropOp38
 70
     1
102
RTVSPost2010Prop39
140
1.0
102
RTVSPost2010PropOp39
 70
     1
102
RTVSPost2010Prop40
 90
        0
102
RTVSPost2010PropOp40
 70
     1
102
RTVSPost2010Prop41ColorIndex
 90
       18
102
RTVSPost2010Prop41ColorRGB
 90
        0
102
RTVSPost2010PropOp41
 70
     1
102
RTVSPost2010Prop42
 90
       50
102
RTVSPost2010PropOp42
 70
     1
102
RTVSPost2010Prop43
 90
        3
102
RTVSPost2010PropOp43
 70
     1
102
RTVSPost2010Prop44ColorIndex
 90
        5
102
RTVSPost2010Prop44ColorRGB
 90
      255
102
RTVSPost2010PropOp44
 70
     1
102
RTVSPost2010Prop45
280
     0
102
RTVSPost2010PropOp45
 70
     1
102
RTVSPost2010Prop46
 90
       50
102
RTVSPost2010PropOp46
 70
     1
102
RTVSPost2010Prop47
 90
       50
102
RTVSPost2010PropOp47
 70
     1
102
RTVSPost2010Prop48
 90
       50
102
RTVSPost2010PropOp48
 70
     1
102
RTVSPost2010Prop49
280
     0
102
RTVSPost2010PropOp49
 70
     1
102
RTVSPost2010Prop50
 90
       50
102
RTVSPost2010PropOp50
 70
     1
102
RTVSPost2010Prop51ColorIndex
 90
      256
102
RTVSPost2010Prop51ColorRGB
 90
-16777216
102
RTVSPost2010PropOp51
 70
     0
102
RTVSPost2010Prop52
140
1.0
102
RTVSPost2010PropOp52
 70
     0
102
RTVSPost2010Prop53
 90
        2
102
RTVSPost2010PropOp53
 70
     1
102
RTVSPost2010Prop54
  1
strokes_ogs.tif
102
RTVSPost2010PropOp54
 70
     1
102
RTVSPost2010Prop55
280
     0
102
RTVSPost2010PropOp55
 70
     1
102
RTVSPost2010Prop56
140
1.0
102
RTVSPost2010PropOp56
 70
     1
102
RTVSPost2010Prop57
140
1.0
102
RTVSPost2010PropOp57
 70
     1
102
RTVSPropertyOp0
 70
     1
102
RTVSPropertyOp1
 70
     1
102
RTVSPropertyOp2
 70
     1
102
RTVSPropertyOp3
 70
     1
102
RTVSPropertyOp4
 70
     1
102
RTVSPropertyOp5
 70
     1
102
RTVSPropertyOp6
 70
     1
102
RTVSPropertyOp7
 70
     1
102
RTVSPropertyOp8
 70
     1
102
RTVSPropertyOp9
 70
     1
102
RTVSPropertyOp10
 70
     1
102
RTVSPropertyOp11
 70
     1
102
RTVSPropertyOp12
 70
     1
102
RTVSPropertyOp13
 70
     1
102
RTVSPropertyOp14
 70
     1
102
RTVSPropertyOp15
 70
     1
102
RTVSPropertyOp16
 70
     1
102
RTVSPropertyOp17
 70
     1
102
RTVSPropertyOp18
 70
     1
102
RTVSPropertyOp19
 70
     1
102
RTVSPropertyOp20
 70
     1
102
RTVSPropertyOp21
 70
     1
102
RTVSPropertyOp22
 70
     1
102
RTVSPropertyOp23
 70
     1
102
RTVSPropertyOp24
 70
     1
102
RTVSPropertyOp25
 70
     1
102
RTVSPropertyOp26
 70
     1
102
RTVSPropertyOp27
 70
     1
102
RTVSPropertyOp28
 70
     1
102
RTVSPropertyOp29
 70
     1
102
RTVSPropertyOp30
 70
     1
102
RTVSPropertyOp31
 70
     1
102
RTVSPropertyOp32
 70
     1
102
RTVSPropertyOp33
 70
     1
102
RTVSPropertyOp34
 70
     1
102
RTVSPropertyOp35
 70
     1
102
RTVSPropertyOp36
 70
     1
102
RTVSPropertyOp37
 70
     1
102
RTVSPropertyOp38
 70
     1
102
RTVSPropertyOp39
 70
     1
102
RTVSPropertyOp40
 70
     1
102
RTVSPropertyOp41
 70
     1
102
RTVSPropertyOp42
 70
     1
102
RTVSPropertyOp43
 70
     1
102
RTVSPropertyOp44
 70
     1
102
RTVSPropertyOp45
 70
     1
102
RTVSPropertyOp46
 70
     1
102
RTVSPropertyOp47
 70
     1
102
RTVSPropertyOp48
 70
     1
102
RTVSPropertyOp49
 70
     1
102
RTVSPropertyOp50
 70
     1
102
RTVSPropertyOp51
 70
     0
102
RTVSPropertyOp52
 70
     0
102
RTVSPropertyOp53
 70
     1
102
RTVSPropertyOp54
 70
     1
102
RTVSPropertyOp55
 70
     1
102
RTVSPropertyOp56
 70
     1
102
RTVSPropertyOp57
 70
     1
102
RTVSPropertyOp58
 70
     1
102
RTVSPropertyOp59
 70
     1
102
RTVSPropertyOp60
 70
     1
102
RTVSPropertyOp61
 70
     1
102
RTVSPropertyOp62
 70
     1
  0
XRECORD
  5
AE1D
102
{ACAD_REACTORS
330
AE1C
102
}
330
AE1C
100
AcDbXrecord
280
     1
102
RTVSPost2010Prop28
280
     0
102
RTVSPost2010PropOp28
 70
     1
102
RTVSPost2010Prop29
280
     1
102
RTVSPost2010PropOp29
 70
     1
102
RTVSPost2010Prop30
280
     1
102
RTVSPost2010PropOp30
 70
     1
102
RTVSPost2010Prop31
280
     0
102
RTVSPost2010PropOp31
 70
     1
102
RTVSPost2010Prop32
280
     0
102
RTVSPost2010PropOp32
 70
     1
102
RTVSPost2010Prop33
280
     0
102
RTVSPost2010PropOp33
 70
     1
102
RTVSPost2010Prop34
280
     0
102
RTVSPost2010PropOp34
 70
     1
102
RTVSPost2010Prop35
280
     0
102
RTVSPost2010PropOp35
 70
     1
102
RTVSPost2010Prop36
280
     0
102
RTVSPost2010PropOp36
 70
     1
102
RTVSPost2010Prop37
 90
       50
102
RTVSPost2010PropOp37
 70
     1
102
RTVSPost2010Prop38
140
0.0
102
RTVSPost2010PropOp38
 70
     1
102
RTVSPost2010Prop39
140
1.0
102
RTVSPost2010PropOp39
 70
     1
102
RTVSPost2010Prop40
 90
        0
102
RTVSPost2010PropOp40
 70
     1
102
RTVSPost2010Prop41ColorIndex
 90
       18
102
RTVSPost2010Prop41ColorRGB
 90
        0
102
RTVSPost2010PropOp41
 70
     1
102
RTVSPost2010Prop42
 90
       50
102
RTVSPost2010PropOp42
 70
     1
102
RTVSPost2010Prop43
 90
        3
102
RTVSPost2010PropOp43
 70
     1
102
RTVSPost2010Prop44ColorIndex
 90
        5
102
RTVSPost2010Prop44ColorRGB
 90
      255
102
RTVSPost2010PropOp44
 70
     1
102
RTVSPost2010Prop45
280
     0
102
RTVSPost2010PropOp45
 70
     1
102
RTVSPost2010Prop46
 90
       50
102
RTVSPost2010PropOp46
 70
     1
102
RTVSPost2010Prop47
 90
       50
102
RTVSPost2010PropOp47
 70
     1
102
RTVSPost2010Prop48
 90
       50
102
RTVSPost2010PropOp48
 70
     1
102
RTVSPost2010Prop49
280
     0
102
RTVSPost2010PropOp49
 70
     1
102
RTVSPost2010Prop50
 90
       50
102
RTVSPost2010PropOp50
 70
     1
102
RTVSPost2010Prop51ColorIndex
 90
      256
102
RTVSPost2010Prop51ColorRGB
 90
-16777216
102
RTVSPost2010PropOp51
 70
     0
102
RTVSPost2010Prop52
140
1.0
102
RTVSPost2010PropOp52
 70
     0
102
RTVSPost2010Prop53
 90
        2
102
RTVSPost2010PropOp53
 70
     1
102
RTVSPost2010Prop54
  1
strokes_ogs.tif
102
RTVSPost2010PropOp54
 70
     1
102
RTVSPost2010Prop55
280
     0
102
RTVSPost2010PropOp55
 70
     1
102
RTVSPost2010Prop56
140
1.0
102
RTVSPost2010PropOp56
 70
     1
102
RTVSPost2010Prop57
140
1.0
102
RTVSPost2010PropOp57
 70
     1
102
RTVSPropertyOp0
 70
     1
102
RTVSPropertyOp1
 70
     1
102
RTVSPropertyOp2
 70
     1
102
RTVSPropertyOp3
 70
     1
102
RTVSPropertyOp4
 70
     1
102
RTVSPropertyOp5
 70
     1
102
RTVSPropertyOp6
 70
     1
102
RTVSPropertyOp7
 70
     1
102
RTVSPropertyOp8
 70
     1
102
RTVSPropertyOp9
 70
     1
102
RTVSPropertyOp10
 70
     1
102
RTVSPropertyOp11
 70
     1
102
RTVSPropertyOp12
 70
     1
102
RTVSPropertyOp13
 70
     1
102
RTVSPropertyOp14
 70
     1
102
RTVSPropertyOp15
 70
     1
102
RTVSPropertyOp16
 70
     1
102
RTVSPropertyOp17
 70
     1
102
RTVSPropertyOp18
 70
     1
102
RTVSPropertyOp19
 70
     1
102
RTVSPropertyOp20
 70
     1
102
RTVSPropertyOp21
 70
     1
102
RTVSPropertyOp22
 70
     1
102
RTVSPropertyOp23
 70
     1
102
RTVSPropertyOp24
 70
     1
102
RTVSPropertyOp25
 70
     1
102
RTVSPropertyOp26
 70
     1
102
RTVSPropertyOp27
 70
     1
102
RTVSPropertyOp28
 70
     1
102
RTVSPropertyOp29
 70
     1
102
RTVSPropertyOp30
 70
     1
102
RTVSPropertyOp31
 70
     1
102
RTVSPropertyOp32
 70
     1
102
RTVSPropertyOp33
 70
     1
102
RTVSPropertyOp34
 70
     1
102
RTVSPropertyOp35
 70
     1
102
RTVSPropertyOp36
 70
     1
102
RTVSPropertyOp37
 70
     1
102
RTVSPropertyOp38
 70
     1
102
RTVSPropertyOp39
 70
     1
102
RTVSPropertyOp40
 70
     1
102
RTVSPropertyOp41
 70
     1
102
RTVSPropertyOp42
 70
     1
102
RTVSPropertyOp43
 70
     1
102
RTVSPropertyOp44
 70
     1
102
RTVSPropertyOp45
 70
     1
102
RTVSPropertyOp46
 70
     1
102
RTVSPropertyOp47
 70
     1
102
RTVSPropertyOp48
 70
     1
102
RTVSPropertyOp49
 70
     1
102
RTVSPropertyOp50
 70
     1
102
RTVSPropertyOp51
 70
     0
102
RTVSPropertyOp52
 70
     0
102
RTVSPropertyOp53
 70
     1
102
RTVSPropertyOp54
 70
     1
102
RTVSPropertyOp55
 70
     1
102
RTVSPropertyOp56
 70
     1
102
RTVSPropertyOp57
 70
     1
102
RTVSPropertyOp58
 70
     1
102
RTVSPropertyOp59
 70
     1
102
RTVSPropertyOp60
 70
     1
102
RTVSPropertyOp61
 70
     1
102
RTVSPropertyOp62
 70
     1
  0
XRECORD
  5
AE25
102
{ACAD_REACTORS
330
AE24
102
}
330
AE24
100
AcDbXrecord
280
     1
102
RTVSPost2010Prop28
280
     0
102
RTVSPost2010PropOp28
 70
     1
102
RTVSPost2010Prop29
280
     1
102
RTVSPost2010PropOp29
 70
     1
102
RTVSPost2010Prop30
280
     1
102
RTVSPost2010PropOp30
 70
     1
102
RTVSPost2010Prop31
280
     0
102
RTVSPost2010PropOp31
 70
     1
102
RTVSPost2010Prop32
280
     0
102
RTVSPost2010PropOp32
 70
     1
102
RTVSPost2010Prop33
280
     0
102
RTVSPost2010PropOp33
 70
     1
102
RTVSPost2010Prop34
280
     0
102
RTVSPost2010PropOp34
 70
     1
102
RTVSPost2010Prop35
280
     0
102
RTVSPost2010PropOp35
 70
     1
102
RTVSPost2010Prop36
280
     0
102
RTVSPost2010PropOp36
 70
     1
102
RTVSPost2010Prop37
 90
       50
102
RTVSPost2010PropOp37
 70
     1
102
RTVSPost2010Prop38
140
0.0
102
RTVSPost2010PropOp38
 70
     1
102
RTVSPost2010Prop39
140
1.0
102
RTVSPost2010PropOp39
 70
     1
102
RTVSPost2010Prop40
 90
        0
102
RTVSPost2010PropOp40
 70
     1
102
RTVSPost2010Prop41ColorIndex
 90
       18
102
RTVSPost2010Prop41ColorRGB
 90
        0
102
RTVSPost2010PropOp41
 70
     1
102
RTVSPost2010Prop42
 90
       50
102
RTVSPost2010PropOp42
 70
     1
102
RTVSPost2010Prop43
 90
        3
102
RTVSPost2010PropOp43
 70
     1
102
RTVSPost2010Prop44ColorIndex
 90
        5
102
RTVSPost2010Prop44ColorRGB
 90
      255
102
RTVSPost2010PropOp44
 70
     1
102
RTVSPost2010Prop45
280
     0
102
RTVSPost2010PropOp45
 70
     1
102
RTVSPost2010Prop46
 90
       50
102
RTVSPost2010PropOp46
 70
     1
102
RTVSPost2010Prop47
 90
       50
102
RTVSPost2010PropOp47
 70
     1
102
RTVSPost2010Prop48
 90
       50
102
RTVSPost2010PropOp48
 70
     1
102
RTVSPost2010Prop49
280
     0
102
RTVSPost2010PropOp49
 70
     1
102
RTVSPost2010Prop50
 90
       50
102
RTVSPost2010PropOp50
 70
     1
102
RTVSPost2010Prop51ColorIndex
 90
      256
102
RTVSPost2010Prop51ColorRGB
 90
-16777216
102
RTVSPost2010PropOp51
 70
     0
102
RTVSPost2010Prop52
140
1.0
102
RTVSPost2010PropOp52
 70
     0
102
RTVSPost2010Prop53
 90
        2
102
RTVSPost2010PropOp53
 70
     1
102
RTVSPost2010Prop54
  1
strokes_ogs.tif
102
RTVSPost2010PropOp54
 70
     1
102
RTVSPost2010Prop55
280
     0
102
RTVSPost2010PropOp55
 70
     1
102
RTVSPost2010Prop56
140
1.0
102
RTVSPost2010PropOp56
 70
     1
102
RTVSPost2010Prop57
140
1.0
102
RTVSPost2010PropOp57
 70
     1
102
RTVSPropertyOp0
 70
     1
102
RTVSPropertyOp1
 70
     1
102
RTVSPropertyOp2
 70
     1
102
RTVSPropertyOp3
 70
     1
102
RTVSPropertyOp4
 70
     1
102
RTVSPropertyOp5
 70
     1
102
RTVSPropertyOp6
 70
     1
102
RTVSPropertyOp7
 70
     1
102
RTVSPropertyOp8
 70
     1
102
RTVSPropertyOp9
 70
     1
102
RTVSPropertyOp10
 70
     1
102
RTVSPropertyOp11
 70
     1
102
RTVSPropertyOp12
 70
     1
102
RTVSPropertyOp13
 70
     1
102
RTVSPropertyOp14
 70
     1
102
RTVSPropertyOp15
 70
     1
102
RTVSPropertyOp16
 70
     1
102
RTVSPropertyOp17
 70
     1
102
RTVSPropertyOp18
 70
     1
102
RTVSPropertyOp19
 70
     1
102
RTVSPropertyOp20
 70
     1
102
RTVSPropertyOp21
 70
     1
102
RTVSPropertyOp22
 70
     1
102
RTVSPropertyOp23
 70
     1
102
RTVSPropertyOp24
 70
     1
102
RTVSPropertyOp25
 70
     1
102
RTVSPropertyOp26
 70
     1
102
RTVSPropertyOp27
 70
     1
102
RTVSPropertyOp28
 70
     1
102
RTVSPropertyOp29
 70
     1
102
RTVSPropertyOp30
 70
     1
102
RTVSPropertyOp31
 70
     1
102
RTVSPropertyOp32
 70
     1
102
RTVSPropertyOp33
 70
     1
102
RTVSPropertyOp34
 70
     1
102
RTVSPropertyOp35
 70
     1
102
RTVSPropertyOp36
 70
     1
102
RTVSPropertyOp37
 70
     1
102
RTVSPropertyOp38
 70
     1
102
RTVSPropertyOp39
 70
     1
102
RTVSPropertyOp40
 70
     1
102
RTVSPropertyOp41
 70
     1
102
RTVSPropertyOp42
 70
     1
102
RTVSPropertyOp43
 70
     1
102
RTVSPropertyOp44
 70
     1
102
RTVSPropertyOp45
 70
     1
102
RTVSPropertyOp46
 70
     1
102
RTVSPropertyOp47
 70
     1
102
RTVSPropertyOp48
 70
     1
102
RTVSPropertyOp49
 70
     1
102
RTVSPropertyOp50
 70
     1
102
RTVSPropertyOp51
 70
     0
102
RTVSPropertyOp52
 70
     0
102
RTVSPropertyOp53
 70
     1
102
RTVSPropertyOp54
 70
     1
102
RTVSPropertyOp55
 70
     1
102
RTVSPropertyOp56
 70
     1
102
RTVSPropertyOp57
 70
     1
102
RTVSPropertyOp58
 70
     1
102
RTVSPropertyOp59
 70
     1
102
RTVSPropertyOp60
 70
     1
102
RTVSPropertyOp61
 70
     1
102
RTVSPropertyOp62
 70
     1
  0
XRECORD
  5
AE41
102
{ACAD_REACTORS
330
AE40
102
}
330
AE40
100
AcDbXrecord
280
     1
102
RTVSPost2010Prop28
280
     0
102
RTVSPost2010PropOp28
 70
     1
102
RTVSPost2010Prop29
280
     1
102
RTVSPost2010PropOp29
 70
     1
102
RTVSPost2010Prop30
280
     1
102
RTVSPost2010PropOp30
 70
     1
102
RTVSPost2010Prop31
280
     0
102
RTVSPost2010PropOp31
 70
     1
102
RTVSPost2010Prop32
280
     0
102
RTVSPost2010PropOp32
 70
     1
102
RTVSPost2010Prop33
280
     0
102
RTVSPost2010PropOp33
 70
     1
102
RTVSPost2010Prop34
280
     0
102
RTVSPost2010PropOp34
 70
     1
102
RTVSPost2010Prop35
280
     0
102
RTVSPost2010PropOp35
 70
     1
102
RTVSPost2010Prop36
280
     0
102
RTVSPost2010PropOp36
 70
     1
102
RTVSPost2010Prop37
 90
       50
102
RTVSPost2010PropOp37
 70
     0
102
RTVSPost2010Prop38
140
0.0
102
RTVSPost2010PropOp38
 70
     0
102
RTVSPost2010Prop39
140
1.0
102
RTVSPost2010PropOp39
 70
     0
102
RTVSPost2010Prop40
 90
        0
102
RTVSPost2010PropOp40
 70
     0
102
RTVSPost2010Prop41ColorIndex
 90
       18
102
RTVSPost2010Prop41ColorRGB
 90
        0
102
RTVSPost2010PropOp41
 70
     0
102
RTVSPost2010Prop42
 90
       50
102
RTVSPost2010PropOp42
 70
     0
102
RTVSPost2010Prop43
 90
        3
102
RTVSPost2010PropOp43
 70
     0
102
RTVSPost2010Prop44ColorIndex
 90
        5
102
RTVSPost2010Prop44ColorRGB
 90
      255
102
RTVSPost2010PropOp44
 70
     0
102
RTVSPost2010Prop45
280
     0
102
RTVSPost2010PropOp45
 70
     1
102
RTVSPost2010Prop46
 90
       50
102
RTVSPost2010PropOp46
 70
     0
102
RTVSPost2010Prop47
 90
       50
102
RTVSPost2010PropOp47
 70
     0
102
RTVSPost2010Prop48
 90
       50
102
RTVSPost2010PropOp48
 70
     0
102
RTVSPost2010Prop49
280
     0
102
RTVSPost2010PropOp49
 70
     1
102
RTVSPost2010Prop50
 90
       50
102
RTVSPost2010PropOp50
 70
     0
102
RTVSPost2010Prop51ColorIndex
 90
      256
102
RTVSPost2010Prop51ColorRGB
 90
-16777216
102
RTVSPost2010PropOp51
 70
     0
102
RTVSPost2010Prop52
140
1.0
102
RTVSPost2010PropOp52
 70
     0
102
RTVSPost2010Prop53
 90
        2
102
RTVSPost2010PropOp53
 70
     0
102
RTVSPost2010Prop54
  1
strokes_ogs.tif
102
RTVSPost2010PropOp54
 70
     0
102
RTVSPost2010Prop55
280
     0
102
RTVSPost2010PropOp55
 70
     1
102
RTVSPost2010Prop56
140
1.0
102
RTVSPost2010PropOp56
 70
     0
102
RTVSPost2010Prop57
140
1.0
102
RTVSPost2010PropOp57
 70
     0
102
RTVSPropertyOp0
 70
     0
102
RTVSPropertyOp1
 70
     0
102
RTVSPropertyOp2
 70
     0
102
RTVSPropertyOp3
 70
     0
102
RTVSPropertyOp4
 70
     0
102
RTVSPropertyOp5
 70
     0
102
RTVSPropertyOp6
 70
     0
102
RTVSPropertyOp7
 70
     0
102
RTVSPropertyOp8
 70
     0
102
RTVSPropertyOp9
 70
     0
102
RTVSPropertyOp10
 70
     0
102
RTVSPropertyOp11
 70
     0
102
RTVSPropertyOp12
 70
     0
102
RTVSPropertyOp13
 70
     0
102
RTVSPropertyOp14
 70
     2
102
RTVSPropertyOp15
 70
     0
102
RTVSPropertyOp16
 70
     0
102
RTVSPropertyOp17
 70
     0
102
RTVSPropertyOp18
 70
     0
102
RTVSPropertyOp19
 70
     0
102
RTVSPropertyOp20
 70
     0
102
RTVSPropertyOp21
 70
     0
102
RTVSPropertyOp22
 70
     0
102
RTVSPropertyOp23
 70
     0
102
RTVSPropertyOp24
 70
     0
102
RTVSPropertyOp25
 70
     0
102
RTVSPropertyOp26
 70
     0
102
RTVSPropertyOp27
 70
     0
102
RTVSPropertyOp28
 70
     1
102
RTVSPropertyOp29
 70
     1
102
RTVSPropertyOp30
 70
     1
102
RTVSPropertyOp31
 70
     1
102
RTVSPropertyOp32
 70
     1
102
RTVSPropertyOp33
 70
     1
102
RTVSPropertyOp34
 70
     1
102
RTVSPropertyOp35
 70
     1
102
RTVSPropertyOp36
 70
     1
102
RTVSPropertyOp37
 70
     0
102
RTVSPropertyOp38
 70
     0
102
RTVSPropertyOp39
 70
     0
102
RTVSPropertyOp40
 70
     0
102
RTVSPropertyOp41
 70
     0
102
RTVSPropertyOp42
 70
     0
102
RTVSPropertyOp43
 70
     0
102
RTVSPropertyOp44
 70
     0
102
RTVSPropertyOp45
 70
     1
102
RTVSPropertyOp46
 70
     0
102
RTVSPropertyOp47
 70
     0
102
RTVSPropertyOp48
 70
     0
102
RTVSPropertyOp49
 70
     1
102
RTVSPropertyOp50
 70
     0
102
RTVSPropertyOp51
 70
     0
102
RTVSPropertyOp52
 70
     0
102
RTVSPropertyOp53
 70
     0
102
RTVSPropertyOp54
 70
     0
102
RTVSPropertyOp55
 70
     1
102
RTVSPropertyOp56
 70
     0
102
RTVSPropertyOp57
 70
     0
102
RTVSPropertyOp58
 70
     0
102
RTVSPropertyOp59
 70
     0
102
RTVSPropertyOp60
 70
     0
102
RTVSPropertyOp61
 70
     0
102
RTVSPropertyOp62
 70
     0
  0
XRECORD
  5
AE31
102
{ACAD_REACTORS
330
AE30
102
}
330
AE30
100
AcDbXrecord
280
     1
102
RTVSPost2010Prop28
280
     0
102
RTVSPost2010PropOp28
 70
     1
102
RTVSPost2010Prop29
280
     1
102
RTVSPost2010PropOp29
 70
     1
102
RTVSPost2010Prop30
280
     1
102
RTVSPost2010PropOp30
 70
     1
102
RTVSPost2010Prop31
280
     0
102
RTVSPost2010PropOp31
 70
     1
102
RTVSPost2010Prop32
280
     0
102
RTVSPost2010PropOp32
 70
     1
102
RTVSPost2010Prop33
280
     0
102
RTVSPost2010PropOp33
 70
     1
102
RTVSPost2010Prop34
280
     0
102
RTVSPost2010PropOp34
 70
     1
102
RTVSPost2010Prop35
280
     0
102
RTVSPost2010PropOp35
 70
     1
102
RTVSPost2010Prop36
280
     0
102
RTVSPost2010PropOp36
 70
     1
102
RTVSPost2010Prop37
 90
       50
102
RTVSPost2010PropOp37
 70
     1
102
RTVSPost2010Prop38
140
0.0
102
RTVSPost2010PropOp38
 70
     1
102
RTVSPost2010Prop39
140
1.0
102
RTVSPost2010PropOp39
 70
     1
102
RTVSPost2010Prop40
 90
        0
102
RTVSPost2010PropOp40
 70
     1
102
RTVSPost2010Prop41ColorIndex
 90
       18
102
RTVSPost2010Prop41ColorRGB
 90
        0
102
RTVSPost2010PropOp41
 70
     1
102
RTVSPost2010Prop42
 90
       50
102
RTVSPost2010PropOp42
 70
     1
102
RTVSPost2010Prop43
 90
        3
102
RTVSPost2010PropOp43
 70
     1
102
RTVSPost2010Prop44ColorIndex
 90
        5
102
RTVSPost2010Prop44ColorRGB
 90
      255
102
RTVSPost2010PropOp44
 70
     1
102
RTVSPost2010Prop45
280
     0
102
RTVSPost2010PropOp45
 70
     1
102
RTVSPost2010Prop46
 90
       50
102
RTVSPost2010PropOp46
 70
     1
102
RTVSPost2010Prop47
 90
       50
102
RTVSPost2010PropOp47
 70
     1
102
RTVSPost2010Prop48
 90
       50
102
RTVSPost2010PropOp48
 70
     1
102
RTVSPost2010Prop49
280
     0
102
RTVSPost2010PropOp49
 70
     1
102
RTVSPost2010Prop50
 90
       50
102
RTVSPost2010PropOp50
 70
     1
102
RTVSPost2010Prop51ColorIndex
 90
      256
102
RTVSPost2010Prop51ColorRGB
 90
-16777216
102
RTVSPost2010PropOp51
 70
     0
102
RTVSPost2010Prop52
140
1.0
102
RTVSPost2010PropOp52
 70
     0
102
RTVSPost2010Prop53
 90
        2
102
RTVSPost2010PropOp53
 70
     1
102
RTVSPost2010Prop54
  1
strokes_ogs.tif
102
RTVSPost2010PropOp54
 70
     1
102
RTVSPost2010Prop55
280
     0
102
RTVSPost2010PropOp55
 70
     1
102
RTVSPost2010Prop56
140
1.0
102
RTVSPost2010PropOp56
 70
     1
102
RTVSPost2010Prop57
140
1.0
102
RTVSPost2010PropOp57
 70
     1
102
RTVSPropertyOp0
 70
     1
102
RTVSPropertyOp1
 70
     1
102
RTVSPropertyOp2
 70
     1
102
RTVSPropertyOp3
 70
     1
102
RTVSPropertyOp4
 70
     1
102
RTVSPropertyOp5
 70
     1
102
RTVSPropertyOp6
 70
     1
102
RTVSPropertyOp7
 70
     1
102
RTVSPropertyOp8
 70
     1
102
RTVSPropertyOp9
 70
     1
102
RTVSPropertyOp10
 70
     1
102
RTVSPropertyOp11
 70
     1
102
RTVSPropertyOp12
 70
     1
102
RTVSPropertyOp13
 70
     1
102
RTVSPropertyOp14
 70
     1
102
RTVSPropertyOp15
 70
     1
102
RTVSPropertyOp16
 70
     1
102
RTVSPropertyOp17
 70
     1
102
RTVSPropertyOp18
 70
     1
102
RTVSPropertyOp19
 70
     1
102
RTVSPropertyOp20
 70
     1
102
RTVSPropertyOp21
 70
     1
102
RTVSPropertyOp22
 70
     1
102
RTVSPropertyOp23
 70
     1
102
RTVSPropertyOp24
 70
     1
102
RTVSPropertyOp25
 70
     1
102
RTVSPropertyOp26
 70
     1
102
RTVSPropertyOp27
 70
     1
102
RTVSPropertyOp28
 70
     1
102
RTVSPropertyOp29
 70
     1
102
RTVSPropertyOp30
 70
     1
102
RTVSPropertyOp31
 70
     1
102
RTVSPropertyOp32
 70
     1
102
RTVSPropertyOp33
 70
     1
102
RTVSPropertyOp34
 70
     1
102
RTVSPropertyOp35
 70
     1
102
RTVSPropertyOp36
 70
     1
102
RTVSPropertyOp37
 70
     1
102
RTVSPropertyOp38
 70
     1
102
RTVSPropertyOp39
 70
     1
102
RTVSPropertyOp40
 70
     1
102
RTVSPropertyOp41
 70
     1
102
RTVSPropertyOp42
 70
     1
102
RTVSPropertyOp43
 70
     1
102
RTVSPropertyOp44
 70
     1
102
RTVSPropertyOp45
 70
     1
102
RTVSPropertyOp46
 70
     1
102
RTVSPropertyOp47
 70
     1
102
RTVSPropertyOp48
 70
     1
102
RTVSPropertyOp49
 70
     1
102
RTVSPropertyOp50
 70
     1
102
RTVSPropertyOp51
 70
     0
102
RTVSPropertyOp52
 70
     0
102
RTVSPropertyOp53
 70
     1
102
RTVSPropertyOp54
 70
     1
102
RTVSPropertyOp55
 70
     1
102
RTVSPropertyOp56
 70
     1
102
RTVSPropertyOp57
 70
     1
102
RTVSPropertyOp58
 70
     1
102
RTVSPropertyOp59
 70
     1
102
RTVSPropertyOp60
 70
     1
102
RTVSPropertyOp61
 70
     1
102
RTVSPropertyOp62
 70
     1
  0
XRECORD
  5
AE43
102
{ACAD_REACTORS
330
AE42
102
}
330
AE42
100
AcDbXrecord
280
     1
102
RTVSPost2010Prop28
280
     0
102
RTVSPost2010PropOp28
 70
     1
102
RTVSPost2010Prop29
280
     1
102
RTVSPost2010PropOp29
 70
     1
102
RTVSPost2010Prop30
280
     1
102
RTVSPost2010PropOp30
 70
     1
102
RTVSPost2010Prop31
280
     0
102
RTVSPost2010PropOp31
 70
     1
102
RTVSPost2010Prop32
280
     0
102
RTVSPost2010PropOp32
 70
     1
102
RTVSPost2010Prop33
280
     0
102
RTVSPost2010PropOp33
 70
     1
102
RTVSPost2010Prop34
280
     0
102
RTVSPost2010PropOp34
 70
     1
102
RTVSPost2010Prop35
280
     0
102
RTVSPost2010PropOp35
 70
     1
102
RTVSPost2010Prop36
280
     0
102
RTVSPost2010PropOp36
 70
     1
102
RTVSPost2010Prop37
 90
       50
102
RTVSPost2010PropOp37
 70
     0
102
RTVSPost2010Prop38
140
0.0
102
RTVSPost2010PropOp38
 70
     0
102
RTVSPost2010Prop39
140
1.0
102
RTVSPost2010PropOp39
 70
     0
102
RTVSPost2010Prop40
 90
        0
102
RTVSPost2010PropOp40
 70
     0
102
RTVSPost2010Prop41ColorIndex
 90
       18
102
RTVSPost2010Prop41ColorRGB
 90
        0
102
RTVSPost2010PropOp41
 70
     0
102
RTVSPost2010Prop42
 90
       50
102
RTVSPost2010PropOp42
 70
     0
102
RTVSPost2010Prop43
 90
        3
102
RTVSPost2010PropOp43
 70
     0
102
RTVSPost2010Prop44ColorIndex
 90
        5
102
RTVSPost2010Prop44ColorRGB
 90
      255
102
RTVSPost2010PropOp44
 70
     0
102
RTVSPost2010Prop45
280
     0
102
RTVSPost2010PropOp45
 70
     1
102
RTVSPost2010Prop46
 90
       50
102
RTVSPost2010PropOp46
 70
     0
102
RTVSPost2010Prop47
 90
       50
102
RTVSPost2010PropOp47
 70
     0
102
RTVSPost2010Prop48
 90
       50
102
RTVSPost2010PropOp48
 70
     0
102
RTVSPost2010Prop49
280
     0
102
RTVSPost2010PropOp49
 70
     1
102
RTVSPost2010Prop50
 90
       50
102
RTVSPost2010PropOp50
 70
     0
102
RTVSPost2010Prop51ColorIndex
 90
      256
102
RTVSPost2010Prop51ColorRGB
 90
-16777216
102
RTVSPost2010PropOp51
 70
     0
102
RTVSPost2010Prop52
140
1.0
102
RTVSPost2010PropOp52
 70
     0
102
RTVSPost2010Prop53
 90
        2
102
RTVSPost2010PropOp53
 70
     0
102
RTVSPost2010Prop54
  1
strokes_ogs.tif
102
RTVSPost2010PropOp54
 70
     0
102
RTVSPost2010Prop55
280
     0
102
RTVSPost2010PropOp55
 70
     1
102
RTVSPost2010Prop56
140
1.0
102
RTVSPost2010PropOp56
 70
     0
102
RTVSPost2010Prop57
140
1.0
102
RTVSPost2010PropOp57
 70
     0
102
RTVSPropertyOp0
 70
     0
102
RTVSPropertyOp1
 70
     0
102
RTVSPropertyOp2
 70
     0
102
RTVSPropertyOp3
 70
     0
102
RTVSPropertyOp4
 70
     0
102
RTVSPropertyOp5
 70
     0
102
RTVSPropertyOp6
 70
     0
102
RTVSPropertyOp7
 70
     0
102
RTVSPropertyOp8
 70
     0
102
RTVSPropertyOp9
 70
     0
102
RTVSPropertyOp10
 70
     0
102
RTVSPropertyOp11
 70
     0
102
RTVSPropertyOp12
 70
     0
102
RTVSPropertyOp13
 70
     0
102
RTVSPropertyOp14
 70
     2
102
RTVSPropertyOp15
 70
     0
102
RTVSPropertyOp16
 70
     0
102
RTVSPropertyOp17
 70
     0
102
RTVSPropertyOp18
 70
     0
102
RTVSPropertyOp19
 70
     0
102
RTVSPropertyOp20
 70
     0
102
RTVSPropertyOp21
 70
     0
102
RTVSPropertyOp22
 70
     0
102
RTVSPropertyOp23
 70
     0
102
RTVSPropertyOp24
 70
     0
102
RTVSPropertyOp25
 70
     0
102
RTVSPropertyOp26
 70
     0
102
RTVSPropertyOp27
 70
     0
102
RTVSPropertyOp28
 70
     1
102
RTVSPropertyOp29
 70
     1
102
RTVSPropertyOp30
 70
     1
102
RTVSPropertyOp31
 70
     1
102
RTVSPropertyOp32
 70
     1
102
RTVSPropertyOp33
 70
     1
102
RTVSPropertyOp34
 70
     1
102
RTVSPropertyOp35
 70
     1
102
RTVSPropertyOp36
 70
     1
102
RTVSPropertyOp37
 70
     0
102
RTVSPropertyOp38
 70
     0
102
RTVSPropertyOp39
 70
     0
102
RTVSPropertyOp40
 70
     0
102
RTVSPropertyOp41
 70
     0
102
RTVSPropertyOp42
 70
     0
102
RTVSPropertyOp43
 70
     0
102
RTVSPropertyOp44
 70
     0
102
RTVSPropertyOp45
 70
     1
102
RTVSPropertyOp46
 70
     0
102
RTVSPropertyOp47
 70
     0
102
RTVSPropertyOp48
 70
     0
102
RTVSPropertyOp49
 70
     1
102
RTVSPropertyOp50
 70
     0
102
RTVSPropertyOp51
 70
     0
102
RTVSPropertyOp52
 70
     0
102
RTVSPropertyOp53
 70
     0
102
RTVSPropertyOp54
 70
     0
102
RTVSPropertyOp55
 70
     1
102
RTVSPropertyOp56
 70
     0
102
RTVSPropertyOp57
 70
     0
102
RTVSPropertyOp58
 70
     0
102
RTVSPropertyOp59
 70
     0
102
RTVSPropertyOp60
 70
     0
102
RTVSPropertyOp61
 70
     0
102
RTVSPropertyOp62
 70
     0
  0
XRECORD
  5
AE29
102
{ACAD_REACTORS
330
AE28
102
}
330
AE28
100
AcDbXrecord
280
     1
102
RTVSPost2010Prop28
280
     0
102
RTVSPost2010PropOp28
 70
     1
102
RTVSPost2010Prop29
280
     1
102
RTVSPost2010PropOp29
 70
     1
102
RTVSPost2010Prop30
280
     1
102
RTVSPost2010PropOp30
 70
     1
102
RTVSPost2010Prop31
280
     0
102
RTVSPost2010PropOp31
 70
     1
102
RTVSPost2010Prop32
280
     0
102
RTVSPost2010PropOp32
 70
     1
102
RTVSPost2010Prop33
280
     0
102
RTVSPost2010PropOp33
 70
     1
102
RTVSPost2010Prop34
280
     0
102
RTVSPost2010PropOp34
 70
     1
102
RTVSPost2010Prop35
280
     0
102
RTVSPost2010PropOp35
 70
     1
102
RTVSPost2010Prop36
280
     0
102
RTVSPost2010PropOp36
 70
     1
102
RTVSPost2010Prop37
 90
       50
102
RTVSPost2010PropOp37
 70
     1
102
RTVSPost2010Prop38
140
0.0
102
RTVSPost2010PropOp38
 70
     1
102
RTVSPost2010Prop39
140
1.0
102
RTVSPost2010PropOp39
 70
     1
102
RTVSPost2010Prop40
 90
        0
102
RTVSPost2010PropOp40
 70
     1
102
RTVSPost2010Prop41ColorIndex
 90
       18
102
RTVSPost2010Prop41ColorRGB
 90
        0
102
RTVSPost2010PropOp41
 70
     1
102
RTVSPost2010Prop42
 90
       50
102
RTVSPost2010PropOp42
 70
     1
102
RTVSPost2010Prop43
 90
        3
102
RTVSPost2010PropOp43
 70
     1
102
RTVSPost2010Prop44ColorIndex
 90
        5
102
RTVSPost2010Prop44ColorRGB
 90
      255
102
RTVSPost2010PropOp44
 70
     1
102
RTVSPost2010Prop45
280
     0
102
RTVSPost2010PropOp45
 70
     1
102
RTVSPost2010Prop46
 90
       50
102
RTVSPost2010PropOp46
 70
     1
102
RTVSPost2010Prop47
 90
       50
102
RTVSPost2010PropOp47
 70
     1
102
RTVSPost2010Prop48
 90
       50
102
RTVSPost2010PropOp48
 70
     1
102
RTVSPost2010Prop49
280
     0
102
RTVSPost2010PropOp49
 70
     1
102
RTVSPost2010Prop50
 90
       50
102
RTVSPost2010PropOp50
 70
     1
102
RTVSPost2010Prop51ColorIndex
 90
      256
102
RTVSPost2010Prop51ColorRGB
 90
-16777216
102
RTVSPost2010PropOp51
 70
     0
102
RTVSPost2010Prop52
140
1.0
102
RTVSPost2010PropOp52
 70
     0
102
RTVSPost2010Prop53
 90
        2
102
RTVSPost2010PropOp53
 70
     1
102
RTVSPost2010Prop54
  1
strokes_ogs.tif
102
RTVSPost2010PropOp54
 70
     1
102
RTVSPost2010Prop55
280
     0
102
RTVSPost2010PropOp55
 70
     1
102
RTVSPost2010Prop56
140
1.0
102
RTVSPost2010PropOp56
 70
     1
102
RTVSPost2010Prop57
140
1.0
102
RTVSPost2010PropOp57
 70
     1
102
RTVSPropertyOp0
 70
     1
102
RTVSPropertyOp1
 70
     1
102
RTVSPropertyOp2
 70
     1
102
RTVSPropertyOp3
 70
     1
102
RTVSPropertyOp4
 70
     1
102
RTVSPropertyOp5
 70
     1
102
RTVSPropertyOp6
 70
     1
102
RTVSPropertyOp7
 70
     1
102
RTVSPropertyOp8
 70
     1
102
RTVSPropertyOp9
 70
     1
102
RTVSPropertyOp10
 70
     1
102
RTVSPropertyOp11
 70
     1
102
RTVSPropertyOp12
 70
     1
102
RTVSPropertyOp13
 70
     1
102
RTVSPropertyOp14
 70
     1
102
RTVSPropertyOp15
 70
     1
102
RTVSPropertyOp16
 70
     1
102
RTVSPropertyOp17
 70
     1
102
RTVSPropertyOp18
 70
     1
102
RTVSPropertyOp19
 70
     1
102
RTVSPropertyOp20
 70
     1
102
RTVSPropertyOp21
 70
     1
102
RTVSPropertyOp22
 70
     1
102
RTVSPropertyOp23
 70
     1
102
RTVSPropertyOp24
 70
     1
102
RTVSPropertyOp25
 70
     1
102
RTVSPropertyOp26
 70
     1
102
RTVSPropertyOp27
 70
     1
102
RTVSPropertyOp28
 70
     1
102
RTVSPropertyOp29
 70
     1
102
RTVSPropertyOp30
 70
     1
102
RTVSPropertyOp31
 70
     1
102
RTVSPropertyOp32
 70
     1
102
RTVSPropertyOp33
 70
     1
102
RTVSPropertyOp34
 70
     1
102
RTVSPropertyOp35
 70
     1
102
RTVSPropertyOp36
 70
     1
102
RTVSPropertyOp37
 70
     1
102
RTVSPropertyOp38
 70
     1
102
RTVSPropertyOp39
 70
     1
102
RTVSPropertyOp40
 70
     1
102
RTVSPropertyOp41
 70
     1
102
RTVSPropertyOp42
 70
     1
102
RTVSPropertyOp43
 70
     1
102
RTVSPropertyOp44
 70
     1
102
RTVSPropertyOp45
 70
     1
102
RTVSPropertyOp46
 70
     1
102
RTVSPropertyOp47
 70
     1
102
RTVSPropertyOp48
 70
     1
102
RTVSPropertyOp49
 70
     1
102
RTVSPropertyOp50
 70
     1
102
RTVSPropertyOp51
 70
     0
102
RTVSPropertyOp52
 70
     0
102
RTVSPropertyOp53
 70
     1
102
RTVSPropertyOp54
 70
     1
102
RTVSPropertyOp55
 70
     1
102
RTVSPropertyOp56
 70
     1
102
RTVSPropertyOp57
 70
     1
102
RTVSPropertyOp58
 70
     1
102
RTVSPropertyOp59
 70
     1
102
RTVSPropertyOp60
 70
     1
102
RTVSPropertyOp61
 70
     1
102
RTVSPropertyOp62
 70
     1
  0
XRECORD
  5
AE3F
102
{ACAD_REACTORS
330
AE3E
102
}
330
AE3E
100
AcDbXrecord
280
     1
102
RTVSPost2010Prop28
280
     0
102
RTVSPost2010PropOp28
 70
     1
102
RTVSPost2010Prop29
280
     1
102
RTVSPost2010PropOp29
 70
     1
102
RTVSPost2010Prop30
280
     1
102
RTVSPost2010PropOp30
 70
     1
102
RTVSPost2010Prop31
280
     0
102
RTVSPost2010PropOp31
 70
     1
102
RTVSPost2010Prop32
280
     0
102
RTVSPost2010PropOp32
 70
     1
102
RTVSPost2010Prop33
280
     0
102
RTVSPost2010PropOp33
 70
     1
102
RTVSPost2010Prop34
280
     0
102
RTVSPost2010PropOp34
 70
     1
102
RTVSPost2010Prop35
280
     0
102
RTVSPost2010PropOp35
 70
     1
102
RTVSPost2010Prop36
280
     0
102
RTVSPost2010PropOp36
 70
     1
102
RTVSPost2010Prop37
 90
       50
102
RTVSPost2010PropOp37
 70
     1
102
RTVSPost2010Prop38
140
0.0
102
RTVSPost2010PropOp38
 70
     1
102
RTVSPost2010Prop39
140
1.0
102
RTVSPost2010PropOp39
 70
     1
102
RTVSPost2010Prop40
 90
        0
102
RTVSPost2010PropOp40
 70
     1
102
RTVSPost2010Prop41ColorIndex
 90
       18
102
RTVSPost2010Prop41ColorRGB
 90
        0
102
RTVSPost2010PropOp41
 70
     1
102
RTVSPost2010Prop42
 90
       50
102
RTVSPost2010PropOp42
 70
     1
102
RTVSPost2010Prop43
 90
        3
102
RTVSPost2010PropOp43
 70
     1
102
RTVSPost2010Prop44ColorIndex
 90
        5
102
RTVSPost2010Prop44ColorRGB
 90
      255
102
RTVSPost2010PropOp44
 70
     1
102
RTVSPost2010Prop45
280
     0
102
RTVSPost2010PropOp45
 70
     1
102
RTVSPost2010Prop46
 90
       50
102
RTVSPost2010PropOp46
 70
     1
102
RTVSPost2010Prop47
 90
       50
102
RTVSPost2010PropOp47
 70
     1
102
RTVSPost2010Prop48
 90
       50
102
RTVSPost2010PropOp48
 70
     1
102
RTVSPost2010Prop49
280
     0
102
RTVSPost2010PropOp49
 70
     1
102
RTVSPost2010Prop50
 90
       50
102
RTVSPost2010PropOp50
 70
     1
102
RTVSPost2010Prop51ColorIndex
 90
      256
102
RTVSPost2010Prop51ColorRGB
 90
-16777216
102
RTVSPost2010PropOp51
 70
     0
102
RTVSPost2010Prop52
140
1.0
102
RTVSPost2010PropOp52
 70
     0
102
RTVSPost2010Prop53
 90
        2
102
RTVSPost2010PropOp53
 70
     1
102
RTVSPost2010Prop54
  1
strokes_ogs.tif
102
RTVSPost2010PropOp54
 70
     1
102
RTVSPost2010Prop55
280
     0
102
RTVSPost2010PropOp55
 70
     1
102
RTVSPost2010Prop56
140
1.0
102
RTVSPost2010PropOp56
 70
     1
102
RTVSPost2010Prop57
140
1.0
102
RTVSPost2010PropOp57
 70
     1
102
RTVSPropertyOp0
 70
     1
102
RTVSPropertyOp1
 70
     1
102
RTVSPropertyOp2
 70
     1
102
RTVSPropertyOp3
 70
     1
102
RTVSPropertyOp4
 70
     1
102
RTVSPropertyOp5
 70
     1
102
RTVSPropertyOp6
 70
     1
102
RTVSPropertyOp7
 70
     1
102
RTVSPropertyOp8
 70
     1
102
RTVSPropertyOp9
 70
     1
102
RTVSPropertyOp10
 70
     1
102
RTVSPropertyOp11
 70
     1
102
RTVSPropertyOp12
 70
     1
102
RTVSPropertyOp13
 70
     1
102
RTVSPropertyOp14
 70
     1
102
RTVSPropertyOp15
 70
     1
102
RTVSPropertyOp16
 70
     1
102
RTVSPropertyOp17
 70
     1
102
RTVSPropertyOp18
 70
     1
102
RTVSPropertyOp19
 70
     1
102
RTVSPropertyOp20
 70
     1
102
RTVSPropertyOp21
 70
     1
102
RTVSPropertyOp22
 70
     1
102
RTVSPropertyOp23
 70
     1
102
RTVSPropertyOp24
 70
     1
102
RTVSPropertyOp25
 70
     1
102
RTVSPropertyOp26
 70
     1
102
RTVSPropertyOp27
 70
     1
102
RTVSPropertyOp28
 70
     1
102
RTVSPropertyOp29
 70
     1
102
RTVSPropertyOp30
 70
     1
102
RTVSPropertyOp31
 70
     1
102
RTVSPropertyOp32
 70
     1
102
RTVSPropertyOp33
 70
     1
102
RTVSPropertyOp34
 70
     1
102
RTVSPropertyOp35
 70
     1
102
RTVSPropertyOp36
 70
     1
102
RTVSPropertyOp37
 70
     1
102
RTVSPropertyOp38
 70
     1
102
RTVSPropertyOp39
 70
     1
102
RTVSPropertyOp40
 70
     1
102
RTVSPropertyOp41
 70
     1
102
RTVSPropertyOp42
 70
     1
102
RTVSPropertyOp43
 70
     1
102
RTVSPropertyOp44
 70
     1
102
RTVSPropertyOp45
 70
     1
102
RTVSPropertyOp46
 70
     1
102
RTVSPropertyOp47
 70
     1
102
RTVSPropertyOp48
 70
     1
102
RTVSPropertyOp49
 70
     1
102
RTVSPropertyOp50
 70
     1
102
RTVSPropertyOp51
 70
     0
102
RTVSPropertyOp52
 70
     0
102
RTVSPropertyOp53
 70
     1
102
RTVSPropertyOp54
 70
     1
102
RTVSPropertyOp55
 70
     1
102
RTVSPropertyOp56
 70
     1
102
RTVSPropertyOp57
 70
     1
102
RTVSPropertyOp58
 70
     1
102
RTVSPropertyOp59
 70
     1
102
RTVSPropertyOp60
 70
     1
102
RTVSPropertyOp61
 70
     1
102
RTVSPropertyOp62
 70
     1
  0
XRECORD
  5
AE3D
102
{ACAD_REACTORS
330
AE3C
102
}
330
AE3C
100
AcDbXrecord
280
     1
102
RTVSPost2010Prop28
280
     0
102
RTVSPost2010PropOp28
 70
     1
102
RTVSPost2010Prop29
280
     1
102
RTVSPost2010PropOp29
 70
     1
102
RTVSPost2010Prop30
280
     1
102
RTVSPost2010PropOp30
 70
     1
102
RTVSPost2010Prop31
280
     0
102
RTVSPost2010PropOp31
 70
     1
102
RTVSPost2010Prop32
280
     0
102
RTVSPost2010PropOp32
 70
     1
102
RTVSPost2010Prop33
280
     0
102
RTVSPost2010PropOp33
 70
     1
102
RTVSPost2010Prop34
280
     0
102
RTVSPost2010PropOp34
 70
     1
102
RTVSPost2010Prop35
280
     0
102
RTVSPost2010PropOp35
 70
     1
102
RTVSPost2010Prop36
280
     0
102
RTVSPost2010PropOp36
 70
     1
102
RTVSPost2010Prop37
 90
       50
102
RTVSPost2010PropOp37
 70
     1
102
RTVSPost2010Prop38
140
0.0
102
RTVSPost2010PropOp38
 70
     1
102
RTVSPost2010Prop39
140
1.0
102
RTVSPost2010PropOp39
 70
     1
102
RTVSPost2010Prop40
 90
        0
102
RTVSPost2010PropOp40
 70
     1
102
RTVSPost2010Prop41ColorIndex
 90
       18
102
RTVSPost2010Prop41ColorRGB
 90
        0
102
RTVSPost2010PropOp41
 70
     1
102
RTVSPost2010Prop42
 90
       50
102
RTVSPost2010PropOp42
 70
     1
102
RTVSPost2010Prop43
 90
        3
102
RTVSPost2010PropOp43
 70
     1
102
RTVSPost2010Prop44ColorIndex
 90
        5
102
RTVSPost2010Prop44ColorRGB
 90
      255
102
RTVSPost2010PropOp44
 70
     1
102
RTVSPost2010Prop45
280
     0
102
RTVSPost2010PropOp45
 70
     1
102
RTVSPost2010Prop46
 90
       50
102
RTVSPost2010PropOp46
 70
     1
102
RTVSPost2010Prop47
 90
       50
102
RTVSPost2010PropOp47
 70
     1
102
RTVSPost2010Prop48
 90
       50
102
RTVSPost2010PropOp48
 70
     1
102
RTVSPost2010Prop49
280
     0
102
RTVSPost2010PropOp49
 70
     1
102
RTVSPost2010Prop50
 90
       50
102
RTVSPost2010PropOp50
 70
     1
102
RTVSPost2010Prop51ColorIndex
 90
      256
102
RTVSPost2010Prop51ColorRGB
 90
-16777216
102
RTVSPost2010PropOp51
 70
     0
102
RTVSPost2010Prop52
140
1.0
102
RTVSPost2010PropOp52
 70
     0
102
RTVSPost2010Prop53
 90
        2
102
RTVSPost2010PropOp53
 70
     1
102
RTVSPost2010Prop54
  1
strokes_ogs.tif
102
RTVSPost2010PropOp54
 70
     1
102
RTVSPost2010Prop55
280
     0
102
RTVSPost2010PropOp55
 70
     1
102
RTVSPost2010Prop56
140
1.0
102
RTVSPost2010PropOp56
 70
     1
102
RTVSPost2010Prop57
140
1.0
102
RTVSPost2010PropOp57
 70
     1
102
RTVSPropertyOp0
 70
     1
102
RTVSPropertyOp1
 70
     1
102
RTVSPropertyOp2
 70
     1
102
RTVSPropertyOp3
 70
     1
102
RTVSPropertyOp4
 70
     1
102
RTVSPropertyOp5
 70
     1
102
RTVSPropertyOp6
 70
     1
102
RTVSPropertyOp7
 70
     1
102
RTVSPropertyOp8
 70
     1
102
RTVSPropertyOp9
 70
     1
102
RTVSPropertyOp10
 70
     1
102
RTVSPropertyOp11
 70
     1
102
RTVSPropertyOp12
 70
     1
102
RTVSPropertyOp13
 70
     1
102
RTVSPropertyOp14
 70
     1
102
RTVSPropertyOp15
 70
     1
102
RTVSPropertyOp16
 70
     1
102
RTVSPropertyOp17
 70
     1
102
RTVSPropertyOp18
 70
     1
102
RTVSPropertyOp19
 70
     1
102
RTVSPropertyOp20
 70
     1
102
RTVSPropertyOp21
 70
     1
102
RTVSPropertyOp22
 70
     1
102
RTVSPropertyOp23
 70
     1
102
RTVSPropertyOp24
 70
     1
102
RTVSPropertyOp25
 70
     1
102
RTVSPropertyOp26
 70
     1
102
RTVSPropertyOp27
 70
     1
102
RTVSPropertyOp28
 70
     1
102
RTVSPropertyOp29
 70
     1
102
RTVSPropertyOp30
 70
     1
102
RTVSPropertyOp31
 70
     1
102
RTVSPropertyOp32
 70
     1
102
RTVSPropertyOp33
 70
     1
102
RTVSPropertyOp34
 70
     1
102
RTVSPropertyOp35
 70
     1
102
RTVSPropertyOp36
 70
     1
102
RTVSPropertyOp37
 70
     1
102
RTVSPropertyOp38
 70
     1
102
RTVSPropertyOp39
 70
     1
102
RTVSPropertyOp40
 70
     1
102
RTVSPropertyOp41
 70
     1
102
RTVSPropertyOp42
 70
     1
102
RTVSPropertyOp43
 70
     1
102
RTVSPropertyOp44
 70
     1
102
RTVSPropertyOp45
 70
     1
102
RTVSPropertyOp46
 70
     1
102
RTVSPropertyOp47
 70
     1
102
RTVSPropertyOp48
 70
     1
102
RTVSPropertyOp49
 70
     1
102
RTVSPropertyOp50
 70
     1
102
RTVSPropertyOp51
 70
     0
102
RTVSPropertyOp52
 70
     0
102
RTVSPropertyOp53
 70
     1
102
RTVSPropertyOp54
 70
     1
102
RTVSPropertyOp55
 70
     1
102
RTVSPropertyOp56
 70
     1
102
RTVSPropertyOp57
 70
     1
102
RTVSPropertyOp58
 70
     1
102
RTVSPropertyOp59
 70
     1
102
RTVSPropertyOp60
 70
     1
102
RTVSPropertyOp61
 70
     1
102
RTVSPropertyOp62
 70
     1
  0
XRECORD
  5
AE37
102
{ACAD_REACTORS
330
AE36
102
}
330
AE36
100
AcDbXrecord
280
     1
102
RTVSPost2010Prop28
280
     0
102
RTVSPost2010PropOp28
 70
     1
102
RTVSPost2010Prop29
280
     1
102
RTVSPost2010PropOp29
 70
     1
102
RTVSPost2010Prop30
280
     1
102
RTVSPost2010PropOp30
 70
     1
102
RTVSPost2010Prop31
280
     0
102
RTVSPost2010PropOp31
 70
     1
102
RTVSPost2010Prop32
280
     0
102
RTVSPost2010PropOp32
 70
     1
102
RTVSPost2010Prop33
280
     0
102
RTVSPost2010PropOp33
 70
     1
102
RTVSPost2010Prop34
280
     0
102
RTVSPost2010PropOp34
 70
     1
102
RTVSPost2010Prop35
280
     0
102
RTVSPost2010PropOp35
 70
     1
102
RTVSPost2010Prop36
280
     0
102
RTVSPost2010PropOp36
 70
     1
102
RTVSPost2010Prop37
 90
       50
102
RTVSPost2010PropOp37
 70
     1
102
RTVSPost2010Prop38
140
0.0
102
RTVSPost2010PropOp38
 70
     1
102
RTVSPost2010Prop39
140
1.0
102
RTVSPost2010PropOp39
 70
     1
102
RTVSPost2010Prop40
 90
        0
102
RTVSPost2010PropOp40
 70
     1
102
RTVSPost2010Prop41ColorIndex
 90
       18
102
RTVSPost2010Prop41ColorRGB
 90
        0
102
RTVSPost2010PropOp41
 70
     1
102
RTVSPost2010Prop42
 90
       50
102
RTVSPost2010PropOp42
 70
     1
102
RTVSPost2010Prop43
 90
        3
102
RTVSPost2010PropOp43
 70
     1
102
RTVSPost2010Prop44ColorIndex
 90
        5
102
RTVSPost2010Prop44ColorRGB
 90
      255
102
RTVSPost2010PropOp44
 70
     1
102
RTVSPost2010Prop45
280
     0
102
RTVSPost2010PropOp45
 70
     1
102
RTVSPost2010Prop46
 90
       50
102
RTVSPost2010PropOp46
 70
     1
102
RTVSPost2010Prop47
 90
       50
102
RTVSPost2010PropOp47
 70
     1
102
RTVSPost2010Prop48
 90
       50
102
RTVSPost2010PropOp48
 70
     1
102
RTVSPost2010Prop49
280
     0
102
RTVSPost2010PropOp49
 70
     1
102
RTVSPost2010Prop50
 90
       50
102
RTVSPost2010PropOp50
 70
     1
102
RTVSPost2010Prop51ColorIndex
 90
      256
102
RTVSPost2010Prop51ColorRGB
 90
-16777216
102
RTVSPost2010PropOp51
 70
     0
102
RTVSPost2010Prop52
140
1.0
102
RTVSPost2010PropOp52
 70
     0
102
RTVSPost2010Prop53
 90
        2
102
RTVSPost2010PropOp53
 70
     1
102
RTVSPost2010Prop54
  1
strokes_ogs.tif
102
RTVSPost2010PropOp54
 70
     1
102
RTVSPost2010Prop55
280
     0
102
RTVSPost2010PropOp55
 70
     1
102
RTVSPost2010Prop56
140
1.0
102
RTVSPost2010PropOp56
 70
     1
102
RTVSPost2010Prop57
140
1.0
102
RTVSPost2010PropOp57
 70
     1
102
RTVSPropertyOp0
 70
     1
102
RTVSPropertyOp1
 70
     1
102
RTVSPropertyOp2
 70
     1
102
RTVSPropertyOp3
 70
     1
102
RTVSPropertyOp4
 70
     1
102
RTVSPropertyOp5
 70
     1
102
RTVSPropertyOp6
 70
     1
102
RTVSPropertyOp7
 70
     1
102
RTVSPropertyOp8
 70
     1
102
RTVSPropertyOp9
 70
     1
102
RTVSPropertyOp10
 70
     1
102
RTVSPropertyOp11
 70
     1
102
RTVSPropertyOp12
 70
     1
102
RTVSPropertyOp13
 70
     1
102
RTVSPropertyOp14
 70
     1
102
RTVSPropertyOp15
 70
     1
102
RTVSPropertyOp16
 70
     1
102
RTVSPropertyOp17
 70
     1
102
RTVSPropertyOp18
 70
     1
102
RTVSPropertyOp19
 70
     1
102
RTVSPropertyOp20
 70
     1
102
RTVSPropertyOp21
 70
     1
102
RTVSPropertyOp22
 70
     1
102
RTVSPropertyOp23
 70
     1
102
RTVSPropertyOp24
 70
     1
102
RTVSPropertyOp25
 70
     1
102
RTVSPropertyOp26
 70
     1
102
RTVSPropertyOp27
 70
     1
102
RTVSPropertyOp28
 70
     1
102
RTVSPropertyOp29
 70
     1
102
RTVSPropertyOp30
 70
     1
102
RTVSPropertyOp31
 70
     1
102
RTVSPropertyOp32
 70
     1
102
RTVSPropertyOp33
 70
     1
102
RTVSPropertyOp34
 70
     1
102
RTVSPropertyOp35
 70
     1
102
RTVSPropertyOp36
 70
     1
102
RTVSPropertyOp37
 70
     1
102
RTVSPropertyOp38
 70
     1
102
RTVSPropertyOp39
 70
     1
102
RTVSPropertyOp40
 70
     1
102
RTVSPropertyOp41
 70
     1
102
RTVSPropertyOp42
 70
     1
102
RTVSPropertyOp43
 70
     1
102
RTVSPropertyOp44
 70
     1
102
RTVSPropertyOp45
 70
     1
102
RTVSPropertyOp46
 70
     1
102
RTVSPropertyOp47
 70
     1
102
RTVSPropertyOp48
 70
     1
102
RTVSPropertyOp49
 70
     1
102
RTVSPropertyOp50
 70
     1
102
RTVSPropertyOp51
 70
     0
102
RTVSPropertyOp52
 70
     0
102
RTVSPropertyOp53
 70
     1
102
RTVSPropertyOp54
 70
     1
102
RTVSPropertyOp55
 70
     1
102
RTVSPropertyOp56
 70
     1
102
RTVSPropertyOp57
 70
     1
102
RTVSPropertyOp58
 70
     1
102
RTVSPropertyOp59
 70
     1
102
RTVSPropertyOp60
 70
     1
102
RTVSPropertyOp61
 70
     1
102
RTVSPropertyOp62
 70
     1
  0
XRECORD
  5
AE39
102
{ACAD_REACTORS
330
AE38
102
}
330
AE38
100
AcDbXrecord
280
     1
102
RTVSPost2010Prop28
280
     0
102
RTVSPost2010PropOp28
 70
     1
102
RTVSPost2010Prop29
280
     1
102
RTVSPost2010PropOp29
 70
     1
102
RTVSPost2010Prop30
280
     1
102
RTVSPost2010PropOp30
 70
     1
102
RTVSPost2010Prop31
280
     0
102
RTVSPost2010PropOp31
 70
     1
102
RTVSPost2010Prop32
280
     0
102
RTVSPost2010PropOp32
 70
     1
102
RTVSPost2010Prop33
280
     0
102
RTVSPost2010PropOp33
 70
     1
102
RTVSPost2010Prop34
280
     0
102
RTVSPost2010PropOp34
 70
     1
102
RTVSPost2010Prop35
280
     0
102
RTVSPost2010PropOp35
 70
     1
102
RTVSPost2010Prop36
280
     0
102
RTVSPost2010PropOp36
 70
     1
102
RTVSPost2010Prop37
 90
       50
102
RTVSPost2010PropOp37
 70
     1
102
RTVSPost2010Prop38
140
0.0
102
RTVSPost2010PropOp38
 70
     1
102
RTVSPost2010Prop39
140
1.0
102
RTVSPost2010PropOp39
 70
     1
102
RTVSPost2010Prop40
 90
        0
102
RTVSPost2010PropOp40
 70
     1
102
RTVSPost2010Prop41ColorIndex
 90
       18
102
RTVSPost2010Prop41ColorRGB
 90
        0
102
RTVSPost2010PropOp41
 70
     1
102
RTVSPost2010Prop42
 90
       50
102
RTVSPost2010PropOp42
 70
     1
102
RTVSPost2010Prop43
 90
        3
102
RTVSPost2010PropOp43
 70
     1
102
RTVSPost2010Prop44ColorIndex
 90
        5
102
RTVSPost2010Prop44ColorRGB
 90
      255
102
RTVSPost2010PropOp44
 70
     1
102
RTVSPost2010Prop45
280
     0
102
RTVSPost2010PropOp45
 70
     1
102
RTVSPost2010Prop46
 90
       50
102
RTVSPost2010PropOp46
 70
     1
102
RTVSPost2010Prop47
 90
       50
102
RTVSPost2010PropOp47
 70
     1
102
RTVSPost2010Prop48
 90
       50
102
RTVSPost2010PropOp48
 70
     1
102
RTVSPost2010Prop49
280
     0
102
RTVSPost2010PropOp49
 70
     1
102
RTVSPost2010Prop50
 90
       50
102
RTVSPost2010PropOp50
 70
     1
102
RTVSPost2010Prop51ColorIndex
 90
      256
102
RTVSPost2010Prop51ColorRGB
 90
-16777216
102
RTVSPost2010PropOp51
 70
     0
102
RTVSPost2010Prop52
140
1.0
102
RTVSPost2010PropOp52
 70
     0
102
RTVSPost2010Prop53
 90
        2
102
RTVSPost2010PropOp53
 70
     1
102
RTVSPost2010Prop54
  1
strokes_ogs.tif
102
RTVSPost2010PropOp54
 70
     1
102
RTVSPost2010Prop55
280
     0
102
RTVSPost2010PropOp55
 70
     1
102
RTVSPost2010Prop56
140
1.0
102
RTVSPost2010PropOp56
 70
     1
102
RTVSPost2010Prop57
140
1.0
102
RTVSPost2010PropOp57
 70
     1
102
RTVSPropertyOp0
 70
     1
102
RTVSPropertyOp1
 70
     1
102
RTVSPropertyOp2
 70
     1
102
RTVSPropertyOp3
 70
     1
102
RTVSPropertyOp4
 70
     1
102
RTVSPropertyOp5
 70
     1
102
RTVSPropertyOp6
 70
     1
102
RTVSPropertyOp7
 70
     1
102
RTVSPropertyOp8
 70
     1
102
RTVSPropertyOp9
 70
     1
102
RTVSPropertyOp10
 70
     1
102
RTVSPropertyOp11
 70
     1
102
RTVSPropertyOp12
 70
     1
102
RTVSPropertyOp13
 70
     1
102
RTVSPropertyOp14
 70
     1
102
RTVSPropertyOp15
 70
     1
102
RTVSPropertyOp16
 70
     1
102
RTVSPropertyOp17
 70
     1
102
RTVSPropertyOp18
 70
     1
102
RTVSPropertyOp19
 70
     1
102
RTVSPropertyOp20
 70
     1
102
RTVSPropertyOp21
 70
     1
102
RTVSPropertyOp22
 70
     1
102
RTVSPropertyOp23
 70
     1
102
RTVSPropertyOp24
 70
     1
102
RTVSPropertyOp25
 70
     1
102
RTVSPropertyOp26
 70
     1
102
RTVSPropertyOp27
 70
     1
102
RTVSPropertyOp28
 70
     1
102
RTVSPropertyOp29
 70
     1
102
RTVSPropertyOp30
 70
     1
102
RTVSPropertyOp31
 70
     1
102
RTVSPropertyOp32
 70
     1
102
RTVSPropertyOp33
 70
     1
102
RTVSPropertyOp34
 70
     1
102
RTVSPropertyOp35
 70
     1
102
RTVSPropertyOp36
 70
     1
102
RTVSPropertyOp37
 70
     1
102
RTVSPropertyOp38
 70
     1
102
RTVSPropertyOp39
 70
     1
102
RTVSPropertyOp40
 70
     1
102
RTVSPropertyOp41
 70
     1
102
RTVSPropertyOp42
 70
     1
102
RTVSPropertyOp43
 70
     1
102
RTVSPropertyOp44
 70
     1
102
RTVSPropertyOp45
 70
     1
102
RTVSPropertyOp46
 70
     1
102
RTVSPropertyOp47
 70
     1
102
RTVSPropertyOp48
 70
     1
102
RTVSPropertyOp49
 70
     1
102
RTVSPropertyOp50
 70
     1
102
RTVSPropertyOp51
 70
     0
102
RTVSPropertyOp52
 70
     0
102
RTVSPropertyOp53
 70
     1
102
RTVSPropertyOp54
 70
     1
102
RTVSPropertyOp55
 70
     1
102
RTVSPropertyOp56
 70
     1
102
RTVSPropertyOp57
 70
     1
102
RTVSPropertyOp58
 70
     1
102
RTVSPropertyOp59
 70
     1
102
RTVSPropertyOp60
 70
     1
102
RTVSPropertyOp61
 70
     1
102
RTVSPropertyOp62
 70
     1
  0
XRECORD
  5
AE2F
102
{ACAD_REACTORS
330
AE2E
102
}
330
AE2E
100
AcDbXrecord
280
     1
102
RTVSPost2010Prop28
280
     0
102
RTVSPost2010PropOp28
 70
     1
102
RTVSPost2010Prop29
280
     1
102
RTVSPost2010PropOp29
 70
     1
102
RTVSPost2010Prop30
280
     1
102
RTVSPost2010PropOp30
 70
     1
102
RTVSPost2010Prop31
280
     0
102
RTVSPost2010PropOp31
 70
     1
102
RTVSPost2010Prop32
280
     0
102
RTVSPost2010PropOp32
 70
     1
102
RTVSPost2010Prop33
280
     0
102
RTVSPost2010PropOp33
 70
     1
102
RTVSPost2010Prop34
280
     0
102
RTVSPost2010PropOp34
 70
     1
102
RTVSPost2010Prop35
280
     0
102
RTVSPost2010PropOp35
 70
     1
102
RTVSPost2010Prop36
280
     0
102
RTVSPost2010PropOp36
 70
     1
102
RTVSPost2010Prop37
 90
       50
102
RTVSPost2010PropOp37
 70
     1
102
RTVSPost2010Prop38
140
0.0
102
RTVSPost2010PropOp38
 70
     1
102
RTVSPost2010Prop39
140
1.0
102
RTVSPost2010PropOp39
 70
     1
102
RTVSPost2010Prop40
 90
        0
102
RTVSPost2010PropOp40
 70
     1
102
RTVSPost2010Prop41ColorIndex
 90
       18
102
RTVSPost2010Prop41ColorRGB
 90
        0
102
RTVSPost2010PropOp41
 70
     1
102
RTVSPost2010Prop42
 90
       50
102
RTVSPost2010PropOp42
 70
     1
102
RTVSPost2010Prop43
 90
        3
102
RTVSPost2010PropOp43
 70
     1
102
RTVSPost2010Prop44ColorIndex
 90
        5
102
RTVSPost2010Prop44ColorRGB
 90
      255
102
RTVSPost2010PropOp44
 70
     1
102
RTVSPost2010Prop45
280
     0
102
RTVSPost2010PropOp45
 70
     1
102
RTVSPost2010Prop46
 90
       50
102
RTVSPost2010PropOp46
 70
     1
102
RTVSPost2010Prop47
 90
       50
102
RTVSPost2010PropOp47
 70
     1
102
RTVSPost2010Prop48
 90
       50
102
RTVSPost2010PropOp48
 70
     1
102
RTVSPost2010Prop49
280
     0
102
RTVSPost2010PropOp49
 70
     1
102
RTVSPost2010Prop50
 90
       50
102
RTVSPost2010PropOp50
 70
     1
102
RTVSPost2010Prop51ColorIndex
 90
      256
102
RTVSPost2010Prop51ColorRGB
 90
-16777216
102
RTVSPost2010PropOp51
 70
     0
102
RTVSPost2010Prop52
140
1.0
102
RTVSPost2010PropOp52
 70
     0
102
RTVSPost2010Prop53
 90
        2
102
RTVSPost2010PropOp53
 70
     1
102
RTVSPost2010Prop54
  1
strokes_ogs.tif
102
RTVSPost2010PropOp54
 70
     1
102
RTVSPost2010Prop55
280
     0
102
RTVSPost2010PropOp55
 70
     1
102
RTVSPost2010Prop56
140
1.0
102
RTVSPost2010PropOp56
 70
     1
102
RTVSPost2010Prop57
140
1.0
102
RTVSPost2010PropOp57
 70
     1
102
RTVSPropertyOp0
 70
     1
102
RTVSPropertyOp1
 70
     1
102
RTVSPropertyOp2
 70
     1
102
RTVSPropertyOp3
 70
     1
102
RTVSPropertyOp4
 70
     1
102
RTVSPropertyOp5
 70
     1
102
RTVSPropertyOp6
 70
     1
102
RTVSPropertyOp7
 70
     1
102
RTVSPropertyOp8
 70
     1
102
RTVSPropertyOp9
 70
     1
102
RTVSPropertyOp10
 70
     1
102
RTVSPropertyOp11
 70
     1
102
RTVSPropertyOp12
 70
     1
102
RTVSPropertyOp13
 70
     1
102
RTVSPropertyOp14
 70
     1
102
RTVSPropertyOp15
 70
     1
102
RTVSPropertyOp16
 70
     1
102
RTVSPropertyOp17
 70
     1
102
RTVSPropertyOp18
 70
     1
102
RTVSPropertyOp19
 70
     1
102
RTVSPropertyOp20
 70
     1
102
RTVSPropertyOp21
 70
     1
102
RTVSPropertyOp22
 70
     1
102
RTVSPropertyOp23
 70
     1
102
RTVSPropertyOp24
 70
     1
102
RTVSPropertyOp25
 70
     1
102
RTVSPropertyOp26
 70
     1
102
RTVSPropertyOp27
 70
     1
102
RTVSPropertyOp28
 70
     1
102
RTVSPropertyOp29
 70
     1
102
RTVSPropertyOp30
 70
     1
102
RTVSPropertyOp31
 70
     1
102
RTVSPropertyOp32
 70
     1
102
RTVSPropertyOp33
 70
     1
102
RTVSPropertyOp34
 70
     1
102
RTVSPropertyOp35
 70
     1
102
RTVSPropertyOp36
 70
     1
102
RTVSPropertyOp37
 70
     1
102
RTVSPropertyOp38
 70
     1
102
RTVSPropertyOp39
 70
     1
102
RTVSPropertyOp40
 70
     1
102
RTVSPropertyOp41
 70
     1
102
RTVSPropertyOp42
 70
     1
102
RTVSPropertyOp43
 70
     1
102
RTVSPropertyOp44
 70
     1
102
RTVSPropertyOp45
 70
     1
102
RTVSPropertyOp46
 70
     1
102
RTVSPropertyOp47
 70
     1
102
RTVSPropertyOp48
 70
     1
102
RTVSPropertyOp49
 70
     1
102
RTVSPropertyOp50
 70
     1
102
RTVSPropertyOp51
 70
     0
102
RTVSPropertyOp52
 70
     0
102
RTVSPropertyOp53
 70
     1
102
RTVSPropertyOp54
 70
     1
102
RTVSPropertyOp55
 70
     1
102
RTVSPropertyOp56
 70
     1
102
RTVSPropertyOp57
 70
     1
102
RTVSPropertyOp58
 70
     1
102
RTVSPropertyOp59
 70
     1
102
RTVSPropertyOp60
 70
     1
102
RTVSPropertyOp61
 70
     1
102
RTVSPropertyOp62
 70
     1
  0
XRECORD
  5
AE23
102
{ACAD_REACTORS
330
AE22
102
}
330
AE22
100
AcDbXrecord
280
     1
102
RTVSPost2010Prop28
280
     0
102
RTVSPost2010PropOp28
 70
     1
102
RTVSPost2010Prop29
280
     1
102
RTVSPost2010PropOp29
 70
     1
102
RTVSPost2010Prop30
280
     1
102
RTVSPost2010PropOp30
 70
     1
102
RTVSPost2010Prop31
280
     0
102
RTVSPost2010PropOp31
 70
     1
102
RTVSPost2010Prop32
280
     0
102
RTVSPost2010PropOp32
 70
     1
102
RTVSPost2010Prop33
280
     0
102
RTVSPost2010PropOp33
 70
     1
102
RTVSPost2010Prop34
280
     0
102
RTVSPost2010PropOp34
 70
     1
102
RTVSPost2010Prop35
280
     0
102
RTVSPost2010PropOp35
 70
     1
102
RTVSPost2010Prop36
280
     0
102
RTVSPost2010PropOp36
 70
     1
102
RTVSPost2010Prop37
 90
       50
102
RTVSPost2010PropOp37
 70
     1
102
RTVSPost2010Prop38
140
0.0
102
RTVSPost2010PropOp38
 70
     1
102
RTVSPost2010Prop39
140
1.0
102
RTVSPost2010PropOp39
 70
     1
102
RTVSPost2010Prop40
 90
        0
102
RTVSPost2010PropOp40
 70
     1
102
RTVSPost2010Prop41ColorIndex
 90
       18
102
RTVSPost2010Prop41ColorRGB
 90
        0
102
RTVSPost2010PropOp41
 70
     1
102
RTVSPost2010Prop42
 90
       50
102
RTVSPost2010PropOp42
 70
     1
102
RTVSPost2010Prop43
 90
        3
102
RTVSPost2010PropOp43
 70
     1
102
RTVSPost2010Prop44ColorIndex
 90
        5
102
RTVSPost2010Prop44ColorRGB
 90
      255
102
RTVSPost2010PropOp44
 70
     1
102
RTVSPost2010Prop45
280
     0
102
RTVSPost2010PropOp45
 70
     1
102
RTVSPost2010Prop46
 90
       50
102
RTVSPost2010PropOp46
 70
     1
102
RTVSPost2010Prop47
 90
       50
102
RTVSPost2010PropOp47
 70
     1
102
RTVSPost2010Prop48
 90
       50
102
RTVSPost2010PropOp48
 70
     1
102
RTVSPost2010Prop49
280
     0
102
RTVSPost2010PropOp49
 70
     1
102
RTVSPost2010Prop50
 90
       50
102
RTVSPost2010PropOp50
 70
     1
102
RTVSPost2010Prop51ColorIndex
 90
      256
102
RTVSPost2010Prop51ColorRGB
 90
-16777216
102
RTVSPost2010PropOp51
 70
     0
102
RTVSPost2010Prop52
140
1.0
102
RTVSPost2010PropOp52
 70
     0
102
RTVSPost2010Prop53
 90
        2
102
RTVSPost2010PropOp53
 70
     1
102
RTVSPost2010Prop54
  1
strokes_ogs.tif
102
RTVSPost2010PropOp54
 70
     1
102
RTVSPost2010Prop55
280
     0
102
RTVSPost2010PropOp55
 70
     1
102
RTVSPost2010Prop56
140
1.0
102
RTVSPost2010PropOp56
 70
     1
102
RTVSPost2010Prop57
140
1.0
102
RTVSPost2010PropOp57
 70
     1
102
RTVSPropertyOp0
 70
     1
102
RTVSPropertyOp1
 70
     1
102
RTVSPropertyOp2
 70
     1
102
RTVSPropertyOp3
 70
     1
102
RTVSPropertyOp4
 70
     1
102
RTVSPropertyOp5
 70
     1
102
RTVSPropertyOp6
 70
     1
102
RTVSPropertyOp7
 70
     1
102
RTVSPropertyOp8
 70
     1
102
RTVSPropertyOp9
 70
     1
102
RTVSPropertyOp10
 70
     1
102
RTVSPropertyOp11
 70
     1
102
RTVSPropertyOp12
 70
     1
102
RTVSPropertyOp13
 70
     1
102
RTVSPropertyOp14
 70
     1
102
RTVSPropertyOp15
 70
     1
102
RTVSPropertyOp16
 70
     1
102
RTVSPropertyOp17
 70
     1
102
RTVSPropertyOp18
 70
     1
102
RTVSPropertyOp19
 70
     1
102
RTVSPropertyOp20
 70
     1
102
RTVSPropertyOp21
 70
     1
102
RTVSPropertyOp22
 70
     1
102
RTVSPropertyOp23
 70
     1
102
RTVSPropertyOp24
 70
     1
102
RTVSPropertyOp25
 70
     1
102
RTVSPropertyOp26
 70
     1
102
RTVSPropertyOp27
 70
     1
102
RTVSPropertyOp28
 70
     1
102
RTVSPropertyOp29
 70
     1
102
RTVSPropertyOp30
 70
     1
102
RTVSPropertyOp31
 70
     1
102
RTVSPropertyOp32
 70
     1
102
RTVSPropertyOp33
 70
     1
102
RTVSPropertyOp34
 70
     1
102
RTVSPropertyOp35
 70
     1
102
RTVSPropertyOp36
 70
     1
102
RTVSPropertyOp37
 70
     1
102
RTVSPropertyOp38
 70
     1
102
RTVSPropertyOp39
 70
     1
102
RTVSPropertyOp40
 70
     1
102
RTVSPropertyOp41
 70
     1
102
RTVSPropertyOp42
 70
     1
102
RTVSPropertyOp43
 70
     1
102
RTVSPropertyOp44
 70
     1
102
RTVSPropertyOp45
 70
     1
102
RTVSPropertyOp46
 70
     1
102
RTVSPropertyOp47
 70
     1
102
RTVSPropertyOp48
 70
     1
102
RTVSPropertyOp49
 70
     1
102
RTVSPropertyOp50
 70
     1
102
RTVSPropertyOp51
 70
     0
102
RTVSPropertyOp52
 70
     0
102
RTVSPropertyOp53
 70
     1
102
RTVSPropertyOp54
 70
     1
102
RTVSPropertyOp55
 70
     1
102
RTVSPropertyOp56
 70
     1
102
RTVSPropertyOp57
 70
     1
102
RTVSPropertyOp58
 70
     1
102
RTVSPropertyOp59
 70
     1
102
RTVSPropertyOp60
 70
     1
102
RTVSPropertyOp61
 70
     1
102
RTVSPropertyOp62
 70
     1
  0
XRECORD
  5
AE3B
102
{ACAD_REACTORS
330
AE3A
102
}
330
AE3A
100
AcDbXrecord
280
     1
102
RTVSPost2010Prop28
280
     0
102
RTVSPost2010PropOp28
 70
     1
102
RTVSPost2010Prop29
280
     1
102
RTVSPost2010PropOp29
 70
     1
102
RTVSPost2010Prop30
280
     1
102
RTVSPost2010PropOp30
 70
     1
102
RTVSPost2010Prop31
280
     0
102
RTVSPost2010PropOp31
 70
     1
102
RTVSPost2010Prop32
280
     0
102
RTVSPost2010PropOp32
 70
     1
102
RTVSPost2010Prop33
280
     0
102
RTVSPost2010PropOp33
 70
     1
102
RTVSPost2010Prop34
280
     0
102
RTVSPost2010PropOp34
 70
     1
102
RTVSPost2010Prop35
280
     0
102
RTVSPost2010PropOp35
 70
     1
102
RTVSPost2010Prop36
280
     0
102
RTVSPost2010PropOp36
 70
     1
102
RTVSPost2010Prop37
 90
       50
102
RTVSPost2010PropOp37
 70
     1
102
RTVSPost2010Prop38
140
0.0
102
RTVSPost2010PropOp38
 70
     1
102
RTVSPost2010Prop39
140
1.0
102
RTVSPost2010PropOp39
 70
     1
102
RTVSPost2010Prop40
 90
        0
102
RTVSPost2010PropOp40
 70
     1
102
RTVSPost2010Prop41ColorIndex
 90
       18
102
RTVSPost2010Prop41ColorRGB
 90
        0
102
RTVSPost2010PropOp41
 70
     1
102
RTVSPost2010Prop42
 90
       50
102
RTVSPost2010PropOp42
 70
     1
102
RTVSPost2010Prop43
 90
        3
102
RTVSPost2010PropOp43
 70
     1
102
RTVSPost2010Prop44ColorIndex
 90
        5
102
RTVSPost2010Prop44ColorRGB
 90
      255
102
RTVSPost2010PropOp44
 70
     1
102
RTVSPost2010Prop45
280
     0
102
RTVSPost2010PropOp45
 70
     1
102
RTVSPost2010Prop46
 90
       50
102
RTVSPost2010PropOp46
 70
     1
102
RTVSPost2010Prop47
 90
       50
102
RTVSPost2010PropOp47
 70
     1
102
RTVSPost2010Prop48
 90
       50
102
RTVSPost2010PropOp48
 70
     1
102
RTVSPost2010Prop49
280
     0
102
RTVSPost2010PropOp49
 70
     1
102
RTVSPost2010Prop50
 90
       50
102
RTVSPost2010PropOp50
 70
     1
102
RTVSPost2010Prop51ColorIndex
 90
      256
102
RTVSPost2010Prop51ColorRGB
 90
-16777216
102
RTVSPost2010PropOp51
 70
     0
102
RTVSPost2010Prop52
140
1.0
102
RTVSPost2010PropOp52
 70
     0
102
RTVSPost2010Prop53
 90
        2
102
RTVSPost2010PropOp53
 70
     1
102
RTVSPost2010Prop54
  1
strokes_ogs.tif
102
RTVSPost2010PropOp54
 70
     1
102
RTVSPost2010Prop55
280
     0
102
RTVSPost2010PropOp55
 70
     1
102
RTVSPost2010Prop56
140
1.0
102
RTVSPost2010PropOp56
 70
     1
102
RTVSPost2010Prop57
140
1.0
102
RTVSPost2010PropOp57
 70
     1
102
RTVSPropertyOp0
 70
     1
102
RTVSPropertyOp1
 70
     1
102
RTVSPropertyOp2
 70
     1
102
RTVSPropertyOp3
 70
     1
102
RTVSPropertyOp4
 70
     1
102
RTVSPropertyOp5
 70
     1
102
RTVSPropertyOp6
 70
     1
102
RTVSPropertyOp7
 70
     1
102
RTVSPropertyOp8
 70
     1
102
RTVSPropertyOp9
 70
     1
102
RTVSPropertyOp10
 70
     1
102
RTVSPropertyOp11
 70
     1
102
RTVSPropertyOp12
 70
     1
102
RTVSPropertyOp13
 70
     1
102
RTVSPropertyOp14
 70
     1
102
RTVSPropertyOp15
 70
     1
102
RTVSPropertyOp16
 70
     1
102
RTVSPropertyOp17
 70
     1
102
RTVSPropertyOp18
 70
     1
102
RTVSPropertyOp19
 70
     1
102
RTVSPropertyOp20
 70
     1
102
RTVSPropertyOp21
 70
     1
102
RTVSPropertyOp22
 70
     1
102
RTVSPropertyOp23
 70
     1
102
RTVSPropertyOp24
 70
     1
102
RTVSPropertyOp25
 70
     1
102
RTVSPropertyOp26
 70
     1
102
RTVSPropertyOp27
 70
     1
102
RTVSPropertyOp28
 70
     1
102
RTVSPropertyOp29
 70
     1
102
RTVSPropertyOp30
 70
     1
102
RTVSPropertyOp31
 70
     1
102
RTVSPropertyOp32
 70
     1
102
RTVSPropertyOp33
 70
     1
102
RTVSPropertyOp34
 70
     1
102
RTVSPropertyOp35
 70
     1
102
RTVSPropertyOp36
 70
     1
102
RTVSPropertyOp37
 70
     1
102
RTVSPropertyOp38
 70
     1
102
RTVSPropertyOp39
 70
     1
102
RTVSPropertyOp40
 70
     1
102
RTVSPropertyOp41
 70
     1
102
RTVSPropertyOp42
 70
     1
102
RTVSPropertyOp43
 70
     1
102
RTVSPropertyOp44
 70
     1
102
RTVSPropertyOp45
 70
     1
102
RTVSPropertyOp46
 70
     1
102
RTVSPropertyOp47
 70
     1
102
RTVSPropertyOp48
 70
     1
102
RTVSPropertyOp49
 70
     1
102
RTVSPropertyOp50
 70
     1
102
RTVSPropertyOp51
 70
     0
102
RTVSPropertyOp52
 70
     0
102
RTVSPropertyOp53
 70
     1
102
RTVSPropertyOp54
 70
     1
102
RTVSPropertyOp55
 70
     1
102
RTVSPropertyOp56
 70
     1
102
RTVSPropertyOp57
 70
     1
102
RTVSPropertyOp58
 70
     1
102
RTVSPropertyOp59
 70
     1
102
RTVSPropertyOp60
 70
     1
102
RTVSPropertyOp61
 70
     1
102
RTVSPropertyOp62
 70
     1
  0
ENDSEC
  0
EOF
