  0
SECTION
  2
HEADER
  9
$ACADVER
  1
AC1015
  9
$ACADMAINTVER
 70
    20
  9
$DWGCODEPAGE
  3
ANSI_932
  9
$INSBASE
 10
0.0
 20
0.0
 30
0.0
  9
$EXTMIN
 10
9.9999975266385
 20
10.0
 30
0.0
  9
$EXTMAX
 10
617.1746139085296
 20
510.161837562186
 30
0.0
  9
$LIMMIN
 10
0.0000015376081137
 20
-0.0000001931532552
  9
$LIMMAX
 10
792.0000015376082
 20
545.9999998068466
  9
$ORTHOMODE
 70
     1
  9
$REGENMODE
 70
     1
  9
$FILLMODE
 70
     1
  9
$QTEXTMODE
 70
     0
  9
$MIRRTEXT
 70
     1
  9
$LTSCALE
 40
1.0
  9
$ATTMODE
 70
     1
  9
$TEXTSIZE
 40
2.5
  9
$TRACEWID
 40
1.0
  9
$TEXTSTYLE
  7
STANDARD
  9
$CLAYER
  8
0
  9
$CELTYPE
  6
BYLAYER
  9
$CECOLOR
 62
   256
  9
$CELTSCALE
 40
1.0
  9
$DISPSILH
 70
     0
  9
$DIMSCALE
 40
1.0
  9
$DIMASZ
 40
3.0
  9
$DIMEXO
 40
1.0
  9
$DIMDLI
 40
10.0
  9
$DIMRND
 40
0.0
  9
$DIMDLE
 40
0.0
  9
$DIMEXE
 40
1.0
  9
$DIMTP
 40
0.0
  9
$DIMTM
 40
0.0
  9
$DIMTXT
 40
3.2
  9
$DIMCEN
 40
0.0
  9
$DIMTSZ
 40
0.0
  9
$DIMTOL
 70
     0
  9
$DIMLIM
 70
     0
  9
$DIMTIH
 70
     0
  9
$DIMTOH
 70
     0
  9
$DIMSE1
 70
     0
  9
$DIMSE2
 70
     0
  9
$DIMTAD
 70
     3
  9
$DIMZIN
 70
     8
  9
$DIMBLK
  1

  9
$DIMASO
 70
     1
  9
$DIMSHO
 70
     1
  9
$DIMPOST
  1

  9
$DIMAPOST
  1

  9
$DIMALT
 70
     0
  9
$DIMALTD
 70
     2
  9
$DIMALTF
 40
25.4
  9
$DIMLFAC
 40
1.0
  9
$DIMTOFL
 70
     1
  9
$DIMTVP
 40
0.0
  9
$DIMTIX
 70
     0
  9
$DIMSOXD
 70
     0
  9
$DIMSAH
 70
     1
  9
$DIMBLK1
  1
OPEN
  9
$DIMBLK2
  1
OPEN
  9
$DIMSTYLE
  2
STANDARD
  9
$DIMCLRD
 70
     0
  9
$DIMCLRE
 70
     0
  9
$DIMCLRT
 70
     0
  9
$DIMTFAC
 40
1.0
  9
$DIMGAP
 40
1.0
  9
$DIMJUST
 70
     0
  9
$DIMSD1
 70
     0
  9
$DIMSD2
 70
     0
  9
$DIMTOLJ
 70
     1
  9
$DIMTZIN
 70
     0
  9
$DIMALTZ
 70
     0
  9
$DIMALTTZ
 70
     0
  9
$DIMUPT
 70
     0
  9
$DIMDEC
 70
     3
  9
$DIMTDEC
 70
     3
  9
$DIMALTU
 70
     2
  9
$DIMALTTD
 70
     2
  9
$DIMTXSTY
  7
STANDARD
  9
$DIMAUNIT
 70
     0
  9
$DIMADEC
 70
     0
  9
$DIMALTRND
 40
0.0
  9
$DIMAZIN
 70
     0
  9
$DIMDSEP
 70
    46
  9
$DIMATFIT
 70
     3
  9
$DIMFRAC
 70
     0
  9
$DIMLDRBLK
  1
OPEN
  9
$DIMLUNIT
 70
     2
  9
$DIMLWD
 70
    -2
  9
$DIMLWE
 70
    -2
  9
$DIMTMOVE
 70
     0
  9
$LUNITS
 70
     2
  9
$LUPREC
 70
     4
  9
$SKETCHINC
 40
1.0
  9
$FILLETRAD
 40
2.0
  9
$AUNITS
 70
     0
  9
$AUPREC
 70
     0
  9
$MENU
  1
.
  9
$ELEVATION
 40
0.0
  9
$PELEVATION
 40
0.0
  9
$THICKNESS
 40
0.0
  9
$LIMCHECK
 70
     0
  9
$CHAMFERA
 40
10.0
  9
$CHAMFERB
 40
10.0
  9
$CHAMFERC
 40
20.0
  9
$CHAMFERD
 40
0.0
  9
$SKPOLY
 70
     0
  9
$TDCREATE
 40
2454526.717009005
  9
$TDUCREATE
 40
2454526.342009005
  9
$TDUPDATE
 40
2457192.688601481
  9
$TDUUPDATE
 40
2457192.313601481
  9
$TDINDWG
 40
0.0999115162
  9
$TDUSRTIMER
 40
0.0999114931
  9
$USRTIMER
 70
     1
  9
$ANGBASE
 50
0.0
  9
$ANGDIR
 70
     0
  9
$PDMODE
 70
     0
  9
$PDSIZE
 40
0.0
  9
$PLINEWID
 40
0.0
  9
$SPLFRAME
 70
     0
  9
$SPLINETYPE
 70
     6
  9
$SPLINESEGS
 70
     8
  9
$HANDSEED
  5
3187
  9
$SURFTAB1
 70
     6
  9
$SURFTAB2
 70
     6
  9
$SURFTYPE
 70
     6
  9
$SURFU
 70
     6
  9
$SURFV
 70
     6
  9
$UCSBASE
  2

  9
$UCSNAME
  2

  9
$UCSORG
 10
0.0
 20
0.0
 30
0.0
  9
$UCSXDIR
 10
1.0
 20
0.0
 30
0.0
  9
$UCSYDIR
 10
0.0
 20
1.0
 30
0.0
  9
$UCSORTHOREF
  2

  9
$UCSORTHOVIEW
 70
     0
  9
$UCSORGTOP
 10
0.0
 20
0.0
 30
0.0
  9
$UCSORGBOTTOM
 10
0.0
 20
0.0
 30
0.0
  9
$UCSORGLEFT
 10
0.0
 20
0.0
 30
0.0
  9
$UCSORGRIGHT
 10
0.0
 20
0.0
 30
0.0
  9
$UCSORGFRONT
 10
0.0
 20
0.0
 30
0.0
  9
$UCSORGBACK
 10
0.0
 20
0.0
 30
0.0
  9
$PUCSBASE
  2

  9
$PUCSNAME
  2

  9
$PUCSORG
 10
0.0
 20
0.0
 30
0.0
  9
$PUCSXDIR
 10
1.0
 20
0.0
 30
0.0
  9
$PUCSYDIR
 10
0.0
 20
1.0
 30
0.0
  9
$PUCSORTHOREF
  2

  9
$PUCSORTHOVIEW
 70
     0
  9
$PUCSORGTOP
 10
0.0
 20
0.0
 30
0.0
  9
$PUCSORGBOTTOM
 10
0.0
 20
0.0
 30
0.0
  9
$PUCSORGLEFT
 10
0.0
 20
0.0
 30
0.0
  9
$PUCSORGRIGHT
 10
0.0
 20
0.0
 30
0.0
  9
$PUCSORGFRONT
 10
0.0
 20
0.0
 30
0.0
  9
$PUCSORGBACK
 10
0.0
 20
0.0
 30
0.0
  9
$USERI1
 70
     0
  9
$USERI2
 70
     0
  9
$USERI3
 70
     0
  9
$USERI4
 70
     0
  9
$USERI5
 70
     0
  9
$USERR1
 40
0.0
  9
$USERR2
 40
0.0
  9
$USERR3
 40
0.0
  9
$USERR4
 40
0.0
  9
$USERR5
 40
0.0
  9
$WORLDVIEW
 70
     1
  9
$SHADEDGE
 70
     3
  9
$SHADEDIF
 70
    70
  9
$TILEMODE
 70
     1
  9
$MAXACTVP
 70
    48
  9
$PINSBASE
 10
0.0
 20
0.0
 30
0.0
  9
$PLIMCHECK
 70
     0
  9
$PEXTMIN
 10
1.000000000000000E+20
 20
1.000000000000000E+20
 30
1.000000000000000E+20
  9
$PEXTMAX
 10
-1.000000000000000E+20
 20
-1.000000000000000E+20
 30
-1.000000000000000E+20
  9
$PLIMMIN
 10
0.0
 20
0.0
  9
$PLIMMAX
 10
420.0
 20
297.0
  9
$UNITMODE
 70
     0
  9
$VISRETAIN
 70
     1
  9
$PLINEGEN
 70
     0
  9
$PSLTSCALE
 70
     1
  9
$TREEDEPTH
 70
  3020
  9
$CMLSTYLE
  2
STANDARD
  9
$CMLJUST
 70
     0
  9
$CMLSCALE
 40
20.0
  9
$PROXYGRAPHICS
 70
     1
  9
$MEASUREMENT
 70
     0
  9
$CELWEIGHT
370
    -1
  9
$ENDCAPS
280
     0
  9
$JOINSTYLE
280
     0
  9
$LWDISPLAY
290
     0
  9
$INSUNITS
 70
     0
  9
$HYPERLINKBASE
  1

  9
$STYLESHEET
  1

  9
$XEDIT
290
     1
  9
$CEPSNTYPE
380
     0
  9
$PSTYLEMODE
290
     1
  9
$FINGERPRINTGUID
  2
{15DC3190-57C5-40B5-B344-BF5D76811494}
  9
$VERSIONGUID
  2
{418CA43F-95A3-48BE-A918-2974DF2F01D1}
  9
$EXTNAMES
290
     1
  9
$PSVPSCALE
 40
0.0
  9
$OLESTARTUP
290
     0
  0
ENDSEC
  0
SECTION
  2
CLASSES
  0
CLASS
  1
ACDBDICTIONARYWDFLT
  2
AcDbDictionaryWithDefault
  3
ObjectDBX Classes
 90
        0
280
     0
281
     0
  0
CLASS
  1
ACDBPLACEHOLDER
  2
AcDbPlaceHolder
  3
ObjectDBX Classes
 90
        0
280
     0
281
     0
  0
CLASS
  1
LAYOUT
  2
AcDbLayout
  3
ObjectDBX Classes
 90
        0
280
     0
281
     0
  0
CLASS
  1
DICTIONARYVAR
  2
AcDbDictionaryVar
  3
ObjectDBX Classes
 90
        0
280
     0
281
     0
  0
CLASS
  1
MATERIAL
  2
AcDbMaterial
  3
ObjectDBX Classes
 90
     1153
280
     0
281
     0
  0
CLASS
  1
VISUALSTYLE
  2
AcDbVisualStyle
  3
ObjectDBX Classes
 90
     4095
280
     0
281
     0
  0
CLASS
  1
TABLESTYLE
  2
AcDbTableStyle
  3
ObjectDBX Classes
 90
     4095
280
     0
281
     0
  0
CLASS
  1
SCALE
  2
AcDbScale
  3
ObjectDBX Classes
 90
     1153
280
     0
281
     0
  0
CLASS
  1
MLEADERSTYLE
  2
AcDbMLeaderStyle
  3
ACDB_MLEADERSTYLE_CLASS
 90
     4095
280
     0
281
     0
  0
CLASS
  1
ACDBSECTIONVIEWSTYLE
  2
AcDbSectionViewStyle
  3
ObjectDBX Classes
 90
     1025
280
     0
281
     0
  0
CLASS
  1
ACDBDETAILVIEWSTYLE
  2
AcDbDetailViewStyle
  3
ObjectDBX Classes
 90
     1025
280
     0
281
     0
  0
CLASS
  1
CELLSTYLEMAP
  2
AcDbCellStyleMap
  3
ObjectDBX Classes
 90
     1152
280
     0
281
     0
  0
ENDSEC
  0
SECTION
  2
TABLES
  0
TABLE
  2
VPORT
  5
8
330
0
100
AcDbSymbolTable
 70
     1
  0
VPORT
  5
30D1
330
8
100
AcDbSymbolTableRecord
100
AcDbViewportTableRecord
  2
*ACTIVE
 70
     0
 10
0.0
 20
0.0
 11
1.0
 21
1.0
 12
506.1113631891775
 22
260.0864878794749
 13
0.0
 23
0.0
 14
10.0
 24
10.0
 15
10.0
 25
10.0
 16
0.0
 26
0.0
 36
1.0
 17
0.0
 27
0.0
 37
0.0
 40
504.1602172314301
 41
2.35006605019815
 42
50.0
 43
0.0
 44
0.0
 50
0.0
 51
0.0
 71
     0
 72
   100
 73
     1
 74
     0
 75
     0
 76
     0
 77
     0
 78
     0
281
     0
 65
     1
110
0.0
120
0.0
130
0.0
111
1.0
121
0.0
131
0.0
112
0.0
122
1.0
132
0.0
 79
     0
146
0.0
1001
ACAD_NAV_VCDISPLAY
1070
     3
  0
ENDTAB
  0
TABLE
  2
LTYPE
  5
5
330
0
100
AcDbSymbolTable
 70
     4
  0
LTYPE
  5
12
330
5
100
AcDbSymbolTableRecord
100
AcDbLinetypeTableRecord
  2
BYBLOCK
 70
     0
  3

 72
    65
 73
     0
 40
0.0
  0
LTYPE
  5
13
330
5
100
AcDbSymbolTableRecord
100
AcDbLinetypeTableRecord
  2
BYLAYER
 70
     0
  3

 72
    65
 73
     0
 40
0.0
  0
LTYPE
  5
14
330
5
100
AcDbSymbolTableRecord
100
AcDbLinetypeTableRecord
  2
CONTINUOUS
 70
     0
  3
Solid line
 72
    65
 73
     0
 40
0.0
  0
LTYPE
  5
4B
330
5
100
AcDbSymbolTableRecord
100
AcDbLinetypeTableRecord
  2
DASHED
 70
     0
  3
Dashed __ __ __ __ __ __ __ __ __ __ __ __ __ _
 72
    65
 73
     2
 40
19.04999999999999
 49
12.7
 74
     0
 49
-6.349999999999998
 74
     0
  0
LTYPE
  5
4C
330
5
100
AcDbSymbolTableRecord
100
AcDbLinetypeTableRecord
  2
CENTER
 70
     0
  3
Center ____ _ ____ _ ____ _ ____ _ ____ _ ____
 72
    65
 73
     4
 40
50.8
 49
31.75
 74
     0
 49
-6.349999999999998
 74
     0
 49
6.349999999999998
 74
     0
 49
-6.349999999999998
 74
     0
  0
LTYPE
  5
4D
330
5
100
AcDbSymbolTableRecord
100
AcDbLinetypeTableRecord
  2
PHANTOM
 70
     0
  3
Phantom ______  __  __  ______  __  __  ______
 72
    65
 73
     6
 40
63.5
 49
31.75
 74
     0
 49
-6.349999999999998
 74
     0
 49
6.349999999999998
 74
     0
 49
-6.349999999999998
 74
     0
 49
6.349999999999998
 74
     0
 49
-6.349999999999998
 74
     0
  0
ENDTAB
  0
TABLE
  2
LAYER
  5
2
330
0
100
AcDbSymbolTable
 70
     8
  0
LAYER
  5
E
102
{ACAD_XDICTIONARY
360
312B
102
}
330
2
100
AcDbSymbolTableRecord
100
AcDbLayerTableRecord
  2
0
 70
     0
 62
     7
  6
CONTINUOUS
370
    -3
390
30DA
  0
LAYER
  5
4E
102
{ACAD_XDICTIONARY
360
312D
102
}
330
2
100
AcDbSymbolTableRecord
100
AcDbLayerTableRecord
  2
4
 70
     0
 62
     1
  6
CENTER
370
    -3
390
30DA
  0
LAYER
  5
4F
102
{ACAD_XDICTIONARY
360
312F
102
}
330
2
100
AcDbSymbolTableRecord
100
AcDbLayerTableRecord
  2
5
 70
     0
 62
     6
  6
PHANTOM
370
    -3
390
30DA
  0
LAYER
  5
50
102
{ACAD_XDICTIONARY
360
3131
102
}
330
2
100
AcDbSymbolTableRecord
100
AcDbLayerTableRecord
  2
1
 70
     0
 62
     7
  6
CONTINUOUS
370
    -3
390
30DA
  0
LAYER
  5
51
102
{ACAD_XDICTIONARY
360
3133
102
}
330
2
100
AcDbSymbolTableRecord
100
AcDbLayerTableRecord
  2
2
 70
     0
 62
     4
  6
CONTINUOUS
370
    -3
390
30DA
  0
LAYER
  5
52
102
{ACAD_XDICTIONARY
360
3135
102
}
330
2
100
AcDbSymbolTableRecord
100
AcDbLayerTableRecord
  2
3
 70
     0
 62
     2
  6
DASHED
370
    -3
390
30DA
  0
LAYER
  5
53
102
{ACAD_XDICTIONARY
360
3137
102
}
330
2
100
AcDbSymbolTableRecord
100
AcDbLayerTableRecord
  2
6
 70
     0
 62
     5
  6
CONTINUOUS
370
    -3
390
30DA
  0
LAYER
  5
54
102
{ACAD_XDICTIONARY
360
3139
102
}
330
2
100
AcDbSymbolTableRecord
100
AcDbLayerTableRecord
  2
7
 70
     0
 62
     3
  6
CONTINUOUS
370
    -3
390
30DA
  0
ENDTAB
  0
TABLE
  2
STYLE
  5
3
330
0
100
AcDbSymbolTable
 70
     1
  0
STYLE
  5
F
330
3
100
AcDbSymbolTableRecord
100
AcDbTextStyleTableRecord
  2
STANDARD
 70
     0
 40
0.0
 41
1.0
 50
0.0
 71
     0
 42
2.5
  3
simplex.shx
  4

  0
ENDTAB
  0
TABLE
  2
VIEW
  5
6
330
0
100
AcDbSymbolTable
 70
     0
  0
ENDTAB
  0
TABLE
  2
UCS
  5
7
330
0
100
AcDbSymbolTable
 70
     0
  0
ENDTAB
  0
TABLE
  2
APPID
  5
9
330
0
100
AcDbSymbolTable
 70
     5
  0
APPID
  5
10
330
9
100
AcDbSymbolTableRecord
100
AcDbRegAppTableRecord
  2
ACAD
 70
     0
  0
APPID
  5
3E
330
9
100
AcDbSymbolTableRecord
100
AcDbRegAppTableRecord
  2
CONTENTTABDATA
 70
     0
  0
APPID
  5
3F
330
9
100
AcDbSymbolTableRecord
100
AcDbRegAppTableRecord
  2
CONTENTCURRENTTAB
 70
     0
  0
APPID
  5
3145
330
9
100
AcDbSymbolTableRecord
100
AcDbRegAppTableRecord
  2
ACAD_NAV_VCDISPLAY
 70
     0
  0
APPID
  5
317E
330
9
100
AcDbSymbolTableRecord
100
AcDbRegAppTableRecord
  2
ACAD_MLEADERVER
 70
     0
  0
ENDTAB
  0
TABLE
  2
DIMSTYLE
  5
A
330
0
100
AcDbSymbolTable
 70
     1
100
AcDbDimStyleTable
 71
     0
  0
DIMSTYLE
105
1D
330
A
100
AcDbSymbolTableRecord
100
AcDbDimStyleTableRecord
  2
STANDARD
 70
     0
 41
3.0
 42
1.0
 43
10.0
 44
1.0
 73
     0
 74
     0
 77
     3
 78
     8
140
3.2
141
0.0
147
1.0
172
     1
173
     1
271
     3
272
     3
340
F
341
2E
343
2E
344
2E
  0
ENDTAB
  0
TABLE
  2
BLOCK_RECORD
  5
1
330
0
100
AcDbSymbolTable
 70
     1
  0
BLOCK_RECORD
  5
18
102
{ACAD_XDICTIONARY
360
30D4
102
}
330
1
100
AcDbSymbolTableRecord
100
AcDbBlockTableRecord
  2
*MODEL_SPACE
340
3128
  0
BLOCK_RECORD
  5
15
102
{ACAD_XDICTIONARY
360
30D2
102
}
330
1
100
AcDbSymbolTableRecord
100
AcDbBlockTableRecord
  2
*PAPER_SPACE
340
3129
  0
BLOCK_RECORD
  5
2E
330
1
100
AcDbSymbolTableRecord
100
AcDbBlockTableRecord
  2
_OPEN
340
0
  0
ENDTAB
  0
ENDSEC
  0
SECTION
  2
BLOCKS
  0
BLOCK
  5
19
330
18
100
AcDbEntity
  8
0
100
AcDbBlockBegin
  2
*MODEL_SPACE
 70
     0
 10
0.0
 20
0.0
 30
0.0
  3
*MODEL_SPACE
  1

  0
ENDBLK
  5
1A
330
18
100
AcDbEntity
  8
0
100
AcDbBlockEnd
  0
BLOCK
  5
16
330
15
100
AcDbEntity
 67
     1
  8
0
100
AcDbBlockBegin
  2
*PAPER_SPACE
 70
     0
 10
0.0
 20
0.0
 30
0.0
  3
*PAPER_SPACE
  1

  0
ENDBLK
  5
17
330
15
100
AcDbEntity
 67
     1
  8
0
100
AcDbBlockEnd
  0
BLOCK
  5
2F
330
2E
100
AcDbEntity
  8
0
100
AcDbBlockBegin
  2
_OPEN
 70
     0
 10
0.0
 20
0.0
 30
0.0
  3
_OPEN
  1

  0
LINE
  5
30
330
2E
100
AcDbEntity
  8
0
  6
ByBlock
 62
     0
100
AcDbLine
 10
-1.0
 20
0.1666666666666666
 30
0.0
 11
0.0
 21
0.0
 31
0.0
  0
LINE
  5
31
330
2E
100
AcDbEntity
  8
0
  6
ByBlock
 62
     0
100
AcDbLine
 10
0.0
 20
0.0
 30
0.0
 11
-1.0
 21
-0.1666666666666666
 31
0.0
  0
LINE
  5
32
330
2E
100
AcDbEntity
  8
0
  6
ByBlock
 62
     0
100
AcDbLine
 10
0.0
 20
0.0
 30
0.0
 11
-1.0
 21
0.0
 31
0.0
  0
ENDBLK
  5
33
330
2E
100
AcDbEntity
  8
0
100
AcDbBlockEnd
  0
ENDSEC
  0
SECTION
  2
ENTITIES
  0
TEXT
  5
63
330
18
100
AcDbEntity
  8
4
  6
CENTER
 48
0.25
100
AcDbText
 10
23.97950852663849
 20
10.0
 30
0.0
 40
1.399999999999999
  1
4
100
AcDbText
  0
TEXT
  5
64
330
18
100
AcDbEntity
  8
7
  6
Continuous
 48
0.25
100
AcDbText
 10
9.999997526638502
 20
26.0000007607689
 30
0.0
 40
3.0
  1
CODE No.9834
100
AcDbText
  0
TEXT
  5
65
330
18
100
AcDbEntity
  8
7
  6
Continuous
 48
0.25
100
AcDbText
 10
9.999997526638502
 20
18.00000076076889
 30
0.0
 40
3.0
  1
TYPE No.606X-N
100
AcDbText
  0
TEXT
  5
66
330
18
100
AcDbEntity
  8
1
  6
Continuous
 48
0.25
100
AcDbText
 10
9.999997526638502
 20
10.00000076076889
 30
0.0
 40
1.399999999999999
  1
LAYER
100
AcDbText
  0
TEXT
  5
67
330
18
100
AcDbEntity
  8
2
  6
Continuous
 48
0.25
100
AcDbText
 10
19.9795085266385
 20
10.0
 30
0.0
 40
1.399999999999999
  1
2
100
AcDbText
  0
TEXT
  5
68
330
18
100
AcDbEntity
  8
3
  6
DASHED
 48
0.25
100
AcDbText
 10
21.9795085266385
 20
10.0
 30
0.0
 40
1.399999999999999
  1
3
100
AcDbText
  0
TEXT
  5
69
330
18
100
AcDbEntity
  8
1
  6
Continuous
 48
0.25
100
AcDbText
 10
17.9795085266385
 20
10.0
 30
0.0
 40
1.399999999999999
  1
1
100
AcDbText
  0
TEXT
  5
6A
330
18
100
AcDbEntity
  8
5
  6
PHANTOM
 48
0.25
100
AcDbText
 10
25.9795085266385
 20
10.0
 30
0.0
 40
1.399999999999999
  1
5
100
AcDbText
  0
TEXT
  5
6B
330
18
100
AcDbEntity
  8
6
  6
Continuous
 48
0.25
100
AcDbText
 10
27.9795085266385
 20
10.0
 30
0.0
 40
1.399999999999999
  1
6
100
AcDbText
  0
TEXT
  5
6C
330
18
100
AcDbEntity
  8
7
  6
Continuous
 48
0.25
100
AcDbText
 10
29.9795085266385
 20
10.0
 30
0.0
 40
1.399999999999999
  1
7
100
AcDbText
  0
ARC
  5
2431
330
18
100
AcDbEntity
  8
1
  6
Continuous
100
AcDbCircle
 10
229.1617142245195
 20
241.8776824701881
 30
0.0
 40
19.0
100
AcDbArc
 50
189.3167589999998
 51
350.6832410000002
  0
ARC
  5
2443
330
18
100
AcDbEntity
  8
1
  6
Continuous
100
AcDbCircle
 10
239.4117142245195
 20
305.0084544701882
 30
0.0
 40
28.869234
100
AcDbArc
 50
96.78646000000231
 51
109.783055
  0
LINE
  5
2444
330
18
100
AcDbEntity
  8
1
  6
Continuous
100
AcDbLine
 10
222.1081302245195
 20
333.8776894701882
 30
0.0
 11
236.2152992245195
 21
333.8776894701882
 31
0.0
  0
LINE
  5
2445
330
18
100
AcDbEntity
  8
1
  6
Continuous
100
AcDbLine
 10
236.9404682245195
 20
320.6090714701882
 30
0.0
 11
221.3829642245195
 21
320.6090714701882
 31
0.0
  0
LINE
  5
2446
330
18
100
AcDbEntity
  8
1
  6
Continuous
100
AcDbLine
 10
222.9117142245195
 20
328.0286654701881
 30
0.0
 11
235.4117142245195
 21
328.0286654701881
 31
0.0
  0
LINE
  5
2447
330
18
100
AcDbEntity
  8
1
  6
Continuous
100
AcDbLine
 10
222.9117112245195
 20
332.1738534701882
 30
0.0
 11
235.4117182245195
 21
332.1738534701882
 31
0.0
  0
LINE
  5
2448
330
18
100
AcDbEntity
  8
1
  6
Continuous
100
AcDbLine
 10
266.6338502245195
 20
316.3776824701881
 30
0.0
 11
191.6895782245195
 21
316.3776824701881
 31
0.0
  0
LINE
  5
244B
330
18
100
AcDbEntity
  8
1
  6
Continuous
100
AcDbLine
 10
233.1617142245195
 20
239.5682814701881
 30
0.0
 11
229.1617142245195
 21
237.2588804701881
 31
0.0
  0
LINE
  5
244C
330
18
100
AcDbEntity
  8
1
  6
Continuous
100
AcDbLine
 10
233.1617142245195
 20
244.1870834701882
 30
0.0
 11
229.1617142245195
 21
246.4964844701881
 31
0.0
  0
CIRCLE
  5
244D
330
18
100
AcDbEntity
  8
1
  6
Continuous
100
AcDbCircle
 10
229.1617142245195
 20
241.8776824701881
 30
0.0
 40
10.0
  0
ARC
  5
244E
330
18
100
AcDbEntity
  8
1
  6
Continuous
100
AcDbCircle
 10
229.1617142245195
 20
241.8776824701881
 30
0.0
 40
21.49999999999999
100
AcDbArc
 50
161.4115010000013
 51
18.58849899999865
  0
ARC
  5
244F
330
18
100
AcDbEntity
  8
1
  6
Continuous
100
AcDbCircle
 10
229.1617142245195
 20
241.8776824701881
 30
0.0
 40
22.5
100
AcDbArc
 50
156.929435999999
 51
23.07056400000099
  0
ARC
  5
2450
330
18
100
AcDbEntity
  8
1
  6
Continuous
100
AcDbCircle
 10
229.1617142245195
 20
241.8776824701881
 30
0.0
 40
37.5
100
AcDbArc
 50
129.7590259999979
 51
50.24097400000208
  0
LINE
  5
2451
330
18
100
AcDbEntity
  8
4
  6
CENTER
 48
0.7
100
AcDbLine
 10
183.6617142245195
 20
241.8776824701881
 30
0.0
 11
274.6617142245195
 21
241.8776824701881
 31
0.0
  0
CIRCLE
  5
2452
330
18
100
AcDbEntity
  8
1
  6
Continuous
100
AcDbCircle
 10
229.1617142245195
 20
241.8776824701881
 30
0.0
 40
10.5
  0
LINE
  5
2453
330
18
100
AcDbEntity
  8
1
  6
Continuous
100
AcDbLine
 10
210.4123552245196
 20
238.8017254701882
 30
0.0
 11
203.1880972245195
 21
282.8368644701881
 31
0.0
  0
LINE
  5
2454
330
18
100
AcDbEntity
  8
4
  6
CENTER
 48
0.7
100
AcDbLine
 10
229.1617142245195
 20
196.3776824701881
 30
0.0
 11
229.1617142245194
 21
341.8776894701882
 31
0.0
  0
LINE
  5
2455
330
18
100
AcDbEntity
  8
1
  6
Continuous
100
AcDbLine
 10
229.1617142245195
 20
237.2588804701881
 30
0.0
 11
225.1617142245195
 21
239.5682814701881
 31
0.0
  0
LINE
  5
2456
330
18
100
AcDbEntity
  8
1
  6
Continuous
100
AcDbLine
 10
229.1617142245195
 20
246.4964844701881
 30
0.0
 11
225.1617142245195
 21
244.1870834701882
 31
0.0
  0
LINE
  5
2457
330
18
100
AcDbEntity
  8
1
  6
Continuous
100
AcDbLine
 10
225.1617142245195
 20
239.5682814701881
 30
0.0
 11
225.1617142245195
 21
244.1870834701882
 31
0.0
  0
LINE
  5
245E
330
18
100
AcDbEntity
  8
1
  6
Continuous
100
AcDbLine
 10
179.1617142245195
 20
328.0286654701881
 30
0.0
 11
190.1617142245195
 21
320.6090714701882
 31
0.0
  0
LINE
  5
245F
330
18
100
AcDbEntity
  8
1
  6
Continuous
100
AcDbLine
 10
190.1617142245195
 20
320.3776824701881
 30
0.0
 11
190.1617142245195
 21
326.3776824701881
 31
0.0
  0
ARC
  5
2460
330
18
100
AcDbEntity
  8
1
  6
Continuous
100
AcDbCircle
 10
219.8829642245196
 20
321.6090714701882
 30
0.0
 40
1.0
100
AcDbArc
 50
270.0
 51
0.0
  0
ARC
  5
2461
330
18
100
AcDbEntity
  8
1
  6
Continuous
100
AcDbCircle
 10
196.8245142245195
 20
286.5998884701881
 30
0.0
 40
4.777794
100
AcDbArc
 50
72.83701299999873
 51
90.0
  0
LINE
  5
2462
330
18
100
AcDbEntity
  8
1
  6
Continuous
100
AcDbLine
 10
202.1617142245195
 20
303.3776824701881
 30
0.0
 11
190.1617142245195
 21
303.3776824701881
 31
0.0
  0
LINE
  5
2463
330
18
100
AcDbEntity
  8
1
  6
Continuous
100
AcDbLine
 10
202.1617142245195
 20
309.3776824701881
 30
0.0
 11
190.1617142245195
 21
309.3776824701881
 31
0.0
  0
LINE
  5
2464
330
18
100
AcDbEntity
  8
1
  6
Continuous
100
AcDbLine
 10
190.1617142245195
 20
302.6456314701882
 30
0.0
 11
190.1617142245195
 21
293.3776824701881
 31
0.0
  0
ARC
  5
2465
330
18
100
AcDbEntity
  8
1
  6
Continuous
100
AcDbCircle
 10
192.1617142245195
 20
293.3776824701881
 30
0.0
 40
2.0
100
AcDbArc
 50
180.0
 51
270.0
  0
LINE
  5
2466
330
18
100
AcDbEntity
  8
1
  6
Continuous
100
AcDbLine
 10
192.1617142245195
 20
291.3776824701881
 30
0.0
 11
196.8245142245195
 21
291.3776824701881
 31
0.0
  0
ARC
  5
2467
330
18
100
AcDbEntity
  8
1
  6
Continuous
100
AcDbCircle
 10
190.1617142245195
 20
308.3776824701881
 30
0.0
 40
1.0
100
AcDbArc
 50
119.9999999999997
 51
180.0
  0
ARC
  5
2468
330
18
100
AcDbEntity
  8
1
  6
Continuous
100
AcDbCircle
 10
189.1617142245195
 20
302.6456314701882
 30
0.0
 40
1.0
100
AcDbArc
 50
0.0
 51
60.00000000000028
  0
ARC
  5
2469
330
18
100
AcDbEntity
  8
1
  6
Continuous
100
AcDbCircle
 10
190.1617142245195
 20
304.3776824701881
 30
0.0
 40
1.0
100
AcDbArc
 50
180.0
 51
240.0000000000002
  0
ARC
  5
246A
330
18
100
AcDbEntity
  8
1
  6
Continuous
100
AcDbCircle
 10
190.1617142245195
 20
304.3776824701881
 30
0.0
 40
1.0
100
AcDbArc
 50
240.0000000000002
 51
270.0
  0
LINE
  5
246B
330
18
100
AcDbEntity
  8
1
  6
Continuous
100
AcDbLine
 10
189.1617142245195
 20
308.3776824701881
 30
0.0
 11
189.1617142245195
 21
304.3776824701881
 31
0.0
  0
ARC
  5
246C
330
18
100
AcDbEntity
  8
1
  6
Continuous
100
AcDbCircle
 10
192.1617142245195
 20
314.3776824701881
 30
0.0
 40
2.0
100
AcDbArc
 50
90.0
 51
180.0
  0
ARC
  5
246D
330
18
100
AcDbEntity
  8
1
  6
Continuous
100
AcDbCircle
 10
190.1617142245195
 20
308.3776824701881
 30
0.0
 40
1.0
100
AcDbArc
 50
90.0
 51
119.9999999999997
  0
ARC
  5
246E
330
18
100
AcDbEntity
  8
1
  6
Continuous
100
AcDbCircle
 10
189.1617142245195
 20
310.1097334701881
 30
0.0
 40
1.0
100
AcDbArc
 50
299.9999999999997
 51
0.0
  0
LINE
  5
246F
330
18
100
AcDbEntity
  8
1
  6
Continuous
100
AcDbLine
 10
190.1617142245195
 20
314.3776824701881
 30
0.0
 11
190.1617142245195
 21
310.1097334701881
 31
0.0
  0
ARC
  5
2470
330
18
100
AcDbEntity
  8
1
  6
Continuous
100
AcDbCircle
 10
196.1617142245195
 20
320.3776824701881
 30
0.0
 40
6.0
100
AcDbArc
 50
180.0
 51
221.8103149999995
  0
LINE
  5
2471
330
18
100
AcDbEntity
  8
1
  6
Continuous
100
AcDbLine
 10
203.1617142245195
 20
283.1606494701881
 30
0.0
 11
203.1617142245195
 21
314.3776824701881
 31
0.0
  0
ARC
  5
2472
330
18
100
AcDbEntity
  8
1
  6
Continuous
100
AcDbCircle
 10
103.1617142245195
 20
283.6005774701881
 30
0.0
 40
100.0
100
AcDbArc
 50
0.0
 51
2.464432000000711
  0
ARC
  5
2473
330
18
100
AcDbEntity
  8
1
  6
Continuous
100
AcDbCircle
 10
205.1617142245195
 20
283.1606494701881
 30
0.0
 40
2.0
100
AcDbArc
 50
180.0
 51
189.3167589999998
  0
ARC
  5
2474
330
18
100
AcDbEntity
  8
1
  6
Continuous
100
AcDbCircle
 10
194.6970232245195
 20
279.7113254701881
 30
0.0
 40
11.987407
100
AcDbArc
 50
47.85165099999828
 51
72.83701299999873
  0
ARC
  5
2475
330
18
100
AcDbEntity
  8
1
  6
Continuous
100
AcDbCircle
 10
202.0701502245195
 20
287.8574964701881
 30
0.0
 40
1.0
100
AcDbArc
 50
2.464432000000711
 51
47.85165099999828
  0
ARC
  5
2493
330
18
100
AcDbEntity
  8
1
  6
Continuous
100
AcDbCircle
 10
202.1617142245195
 20
302.3776824701881
 30
0.0
 40
1.0
100
AcDbArc
 50
0.0
 51
90.0
  0
ARC
  5
2494
330
18
100
AcDbEntity
  8
1
  6
Continuous
100
AcDbCircle
 10
205.1617142245195
 20
314.3776824701881
 30
0.0
 40
2.0
100
AcDbArc
 50
90.0
 51
180.0
  0
ARC
  5
2495
330
18
100
AcDbEntity
  8
1
  6
Continuous
100
AcDbCircle
 10
202.1617142245195
 20
310.3776824701881
 30
0.0
 40
1.0
100
AcDbArc
 50
270.0
 51
0.0
  0
LINE
  5
2499
330
18
100
AcDbEntity
  8
1
  6
Continuous
100
AcDbLine
 10
179.1617142245195
 20
334.3776824701881
 30
0.0
 11
220.7117142245195
 21
334.3776824701881
 31
0.0
  0
LINE
  5
249A
330
18
100
AcDbEntity
  8
1
  6
Continuous
100
AcDbLine
 10
220.8829612245196
 20
329.3776824701881
 30
0.0
 11
179.1617142245195
 21
329.3776824701881
 31
0.0
  0
LINE
  5
249B
330
18
100
AcDbEntity
  8
1
  6
Continuous
100
AcDbLine
 10
179.1617142245195
 20
334.3776824701881
 30
0.0
 11
179.1617142245195
 21
328.0286654701881
 31
0.0
  0
LINE
  5
249C
330
18
100
AcDbEntity
  8
4
  6
CENTER
 48
0.2
100
AcDbLine
 10
190.1617142245195
 20
338.3776824701882
 30
0.0
 11
190.1617142245195
 21
325.3776824701881
 31
0.0
  0
ARC
  5
249D
330
18
100
AcDbEntity
  8
1
  6
Continuous
100
AcDbCircle
 10
187.1617142245195
 20
326.3776824701881
 30
0.0
 40
3.0
100
AcDbArc
 50
0.0
 51
90.0
  0
ARC
  5
249E
330
18
100
AcDbEntity
  8
1
  6
Continuous
100
AcDbCircle
 10
218.9117142245195
 20
305.0084544701882
 30
0.0
 40
28.869234
100
AcDbArc
 50
70.21694499999995
 51
83.2135399999977
  0
ARC
  5
249F
330
18
100
AcDbEntity
  8
1
  6
Continuous
100
AcDbCircle
 10
220.7117142245195
 20
332.1776824701881
 30
0.0
 40
2.2
100
AcDbArc
 50
359.9002750000007
 51
90.0
  0
ARC
  5
24A0
330
18
100
AcDbEntity
  8
1
  6
Continuous
100
AcDbCircle
 10
222.9117142245195
 20
330.2286654701882
 30
0.0
 40
2.2
100
AcDbArc
 50
202.7561809999988
 51
270.0
  0
LINE
  5
24A1
330
18
100
AcDbEntity
  8
1
  6
Continuous
100
AcDbLine
 10
220.8829642245195
 20
328.5876884701881
 30
0.0
 11
220.8829642245195
 21
322.1090714701881
 31
0.0
  0
ARC
  5
24A2
330
18
100
AcDbEntity
  8
1
  6
Continuous
100
AcDbCircle
 10
220.7117142245195
 20
332.1776824701881
 30
0.0
 40
2.2
100
AcDbArc
 50
359.9002750000007
 51
0.0
  0
LINE
  5
24A3
330
18
100
AcDbEntity
  8
1
  6
Continuous
100
AcDbLine
 10
247.9110742245195
 20
238.8017254701882
 30
0.0
 11
255.1353312245195
 21
282.8368644701881
 31
0.0
  0
LINE
  5
24A4
330
18
100
AcDbEntity
  8
1
  6
Continuous
100
AcDbLine
 10
233.1617142245195
 20
239.5682814701881
 30
0.0
 11
233.1617142245195
 21
244.1870834701882
 31
0.0
  0
ARC
  5
24A7
330
18
100
AcDbEntity
  8
1
  6
Continuous
100
AcDbCircle
 10
238.4404682245195
 20
321.6090714701882
 30
0.0
 40
1.0
100
AcDbArc
 50
180.0
 51
270.0
  0
LINE
  5
24A8
330
18
100
AcDbEntity
  8
1
  6
Continuous
100
AcDbLine
 10
279.1617142245195
 20
328.0286654701881
 30
0.0
 11
268.1617142245195
 21
320.6090714701882
 31
0.0
  0
LINE
  5
24A9
330
18
100
AcDbEntity
  8
1
  6
Continuous
100
AcDbLine
 10
268.1617142245195
 20
320.3776824701881
 30
0.0
 11
268.1617142245195
 21
326.3776824701881
 31
0.0
  0
LINE
  5
24AA
330
18
100
AcDbEntity
  8
1
  6
Continuous
100
AcDbLine
 10
266.1617142245195
 20
291.3776824701881
 30
0.0
 11
261.4989142245196
 21
291.3776824701881
 31
0.0
  0
LINE
  5
24AB
330
18
100
AcDbEntity
  8
1
  6
Continuous
100
AcDbLine
 10
256.1617142245195
 20
303.3776824701881
 30
0.0
 11
268.1617142245195
 21
303.3776824701881
 31
0.0
  0
LINE
  5
24AC
330
18
100
AcDbEntity
  8
1
  6
Continuous
100
AcDbLine
 10
256.1617142245195
 20
309.3776824701881
 30
0.0
 11
268.1617142245195
 21
309.3776824701881
 31
0.0
  0
LINE
  5
24AD
330
18
100
AcDbEntity
  8
1
  6
Continuous
100
AcDbLine
 10
255.1617142245195
 20
314.3776824701881
 30
0.0
 11
255.1617142245195
 21
283.1606494701881
 31
0.0
  0
ARC
  5
24C5
330
18
100
AcDbEntity
  8
1
  6
Continuous
100
AcDbCircle
 10
355.1617142245195
 20
283.6005774701881
 30
0.0
 40
100.0
100
AcDbArc
 50
177.5355679999992
 51
180.0
  0
ARC
  5
24C6
330
18
100
AcDbEntity
  8
1
  6
Continuous
100
AcDbCircle
 10
253.1617142245195
 20
283.1606494701881
 30
0.0
 40
2.0
100
AcDbArc
 50
350.6832410000002
 51
0.0
  0
ARC
  5
24C7
330
18
100
AcDbEntity
  8
1
  6
Continuous
100
AcDbCircle
 10
263.6264052245195
 20
279.7113254701881
 30
0.0
 40
11.987407
100
AcDbArc
 50
107.1629870000012
 51
132.1483490000016
  0
ARC
  5
24C8
330
18
100
AcDbEntity
  8
1
  6
Continuous
100
AcDbCircle
 10
256.2532792245196
 20
287.8574964701881
 30
0.0
 40
1.0
100
AcDbArc
 50
132.1483490000016
 51
177.5355679999992
  0
ARC
  5
24C9
330
18
100
AcDbEntity
  8
1
  6
Continuous
100
AcDbCircle
 10
261.4989142245196
 20
286.5998884701881
 30
0.0
 40
4.777794
100
AcDbArc
 50
90.0
 51
107.1629870000012
  0
ARC
  5
24CB
330
18
100
AcDbEntity
  8
1
  6
Continuous
100
AcDbCircle
 10
256.1617142245195
 20
302.3776824701881
 30
0.0
 40
1.0
100
AcDbArc
 50
90.0
 51
180.0
  0
ARC
  5
24CC
330
18
100
AcDbEntity
  8
1
  6
Continuous
100
AcDbCircle
 10
253.1617142245195
 20
314.3776824701881
 30
0.0
 40
2.0
100
AcDbArc
 50
0.0
 51
90.0
  0
ARC
  5
24CD
330
18
100
AcDbEntity
  8
1
  6
Continuous
100
AcDbCircle
 10
256.1617142245195
 20
310.3776824701881
 30
0.0
 40
1.0
100
AcDbArc
 50
180.0
 51
270.0
  0
LINE
  5
24CE
330
18
100
AcDbEntity
  8
1
  6
Continuous
100
AcDbLine
 10
268.1617142245195
 20
302.6456314701882
 30
0.0
 11
268.1617142245195
 21
293.3776824701881
 31
0.0
  0
ARC
  5
24CF
330
18
100
AcDbEntity
  8
1
  6
Continuous
100
AcDbCircle
 10
266.1617142245195
 20
293.3776824701881
 30
0.0
 40
2.0
100
AcDbArc
 50
270.0
 51
0.0
  0
ARC
  5
24D0
330
18
100
AcDbEntity
  8
1
  6
Continuous
100
AcDbCircle
 10
268.1617142245195
 20
308.3776824701881
 30
0.0
 40
1.0
100
AcDbArc
 50
0.0
 51
60.00000000000028
  0
ARC
  5
24D1
330
18
100
AcDbEntity
  8
1
  6
Continuous
100
AcDbCircle
 10
269.1617142245195
 20
302.6456314701882
 30
0.0
 40
1.0
100
AcDbArc
 50
119.9999999999997
 51
180.0
  0
ARC
  5
24D2
330
18
100
AcDbEntity
  8
1
  6
Continuous
100
AcDbCircle
 10
268.1617142245195
 20
304.3776824701881
 30
0.0
 40
1.0
100
AcDbArc
 50
299.9999999999997
 51
0.0
  0
ARC
  5
24D3
330
18
100
AcDbEntity
  8
1
  6
Continuous
100
AcDbCircle
 10
268.1617142245195
 20
304.3776824701881
 30
0.0
 40
1.0
100
AcDbArc
 50
270.0
 51
299.9999999999997
  0
LINE
  5
24D4
330
18
100
AcDbEntity
  8
1
  6
Continuous
100
AcDbLine
 10
269.1617142245195
 20
308.3776824701881
 30
0.0
 11
269.1617142245195
 21
304.3776824701881
 31
0.0
  0
ARC
  5
24D5
330
18
100
AcDbEntity
  8
1
  6
Continuous
100
AcDbCircle
 10
266.1617142245195
 20
314.3776824701881
 30
0.0
 40
2.0
100
AcDbArc
 50
0.0
 51
90.0
  0
ARC
  5
24D6
330
18
100
AcDbEntity
  8
1
  6
Continuous
100
AcDbCircle
 10
268.1617142245195
 20
308.3776824701881
 30
0.0
 40
1.0
100
AcDbArc
 50
60.00000000000028
 51
90.0
  0
ARC
  5
24D7
330
18
100
AcDbEntity
  8
1
  6
Continuous
100
AcDbCircle
 10
269.1617142245195
 20
310.1097334701881
 30
0.0
 40
1.0
100
AcDbArc
 50
180.0
 51
240.0000000000002
  0
LINE
  5
24D8
330
18
100
AcDbEntity
  8
1
  6
Continuous
100
AcDbLine
 10
268.1617142245195
 20
314.3776824701881
 30
0.0
 11
268.1617142245195
 21
310.1097334701881
 31
0.0
  0
ARC
  5
24D9
330
18
100
AcDbEntity
  8
1
  6
Continuous
100
AcDbCircle
 10
262.1617142245195
 20
320.3776824701881
 30
0.0
 40
6.0
100
AcDbArc
 50
318.1896850000004
 51
0.0
  0
LINE
  5
24DA
330
18
100
AcDbEntity
  8
1
  6
Continuous
100
AcDbLine
 10
237.6117142245195
 20
334.3776824701881
 30
0.0
 11
279.1617142245195
 21
334.3776824701881
 31
0.0
  0
LINE
  5
24DB
330
18
100
AcDbEntity
  8
1
  6
Continuous
100
AcDbLine
 10
237.4404682245195
 20
329.3776824701881
 30
0.0
 11
279.1617142245195
 21
329.3776824701881
 31
0.0
  0
ARC
  5
24DC
330
18
100
AcDbEntity
  8
1
  6
Continuous
100
AcDbCircle
 10
237.6117142245195
 20
332.1776824701881
 30
0.0
 40
2.2
100
AcDbArc
 50
90.0
 51
180.0997249999992
  0
LINE
  5
24DD
330
18
100
AcDbEntity
  8
1
  6
Continuous
100
AcDbLine
 10
237.4404682245195
 20
328.5876884701881
 30
0.0
 11
237.4404682245195
 21
322.1090714701881
 31
0.0
  0
ARC
  5
24DE
330
18
100
AcDbEntity
  8
1
  6
Continuous
100
AcDbCircle
 10
235.4117182245195
 20
330.2286654701882
 30
0.0
 40
2.2
100
AcDbArc
 50
270.0
 51
337.2438190000011
  0
LINE
  5
24DF
330
18
100
AcDbEntity
  8
4
  6
CENTER
 48
0.2
100
AcDbLine
 10
268.1617142245195
 20
338.3776824701882
 30
0.0
 11
268.1617142245195
 21
325.3776824701881
 31
0.0
  0
LINE
  5
24E0
330
18
100
AcDbEntity
  8
1
  6
Continuous
100
AcDbLine
 10
279.1617142245195
 20
334.3776824701881
 30
0.0
 11
279.1617142245195
 21
328.0286654701881
 31
0.0
  0
ARC
  5
24E1
330
18
100
AcDbEntity
  8
1
  6
Continuous
100
AcDbCircle
 10
271.1617142245195
 20
326.3776824701881
 30
0.0
 40
3.0
100
AcDbArc
 50
90.0
 51
180.0
  0
CIRCLE
  5
24E2
330
18
100
AcDbEntity
  8
1
  6
Continuous
100
AcDbCircle
 10
229.1617142245195
 20
452.1618375621859
 30
0.0
 40
20.5
  0
LINE
  5
24E3
330
18
100
AcDbEntity
  8
1
  6
Continuous
100
AcDbLine
 10
229.1617142245195
 20
428.4904765621861
 30
0.0
 11
249.6617142245195
 21
440.326156562186
 31
0.0
  0
LINE
  5
24E4
330
18
100
AcDbEntity
  8
1
  6
Continuous
100
AcDbLine
 10
249.6617142245195
 20
463.9975175621859
 30
0.0
 11
229.1617142245195
 21
475.8331985621861
 31
0.0
  0
CIRCLE
  5
24E5
330
18
100
AcDbEntity
  8
1
  6
Continuous
100
AcDbCircle
 10
229.1617142245195
 20
452.1618375621859
 30
0.0
 40
31.69999999999999
  0
CIRCLE
  5
24E6
330
18
100
AcDbEntity
  8
1
  6
Continuous
100
AcDbCircle
 10
229.1617142245195
 20
452.1618375621859
 30
0.0
 40
34.0
  0
CIRCLE
  5
24E7
330
18
100
AcDbEntity
  8
1
  6
Continuous
100
AcDbCircle
 10
229.1617142245195
 20
452.1618375621859
 30
0.0
 40
34.0
  0
LINE
  5
24E8
330
18
100
AcDbEntity
  8
4
  6
CENTER
 48
0.7
100
AcDbLine
 10
171.1617142245195
 20
452.1618375621859
 30
0.0
 11
287.1617142245195
 21
452.1618375621859
 31
0.0
  0
LINE
  5
24E9
330
18
100
AcDbEntity
  8
1
  6
Continuous
100
AcDbLine
 10
268.1617142245195
 20
502.1618375621859
 30
0.0
 11
190.1617142245195
 21
502.1618375621859
 31
0.0
  0
LINE
  5
24EA
330
18
100
AcDbEntity
  8
1
  6
Continuous
100
AcDbLine
 10
190.1617142245195
 20
402.1618375621859
 30
0.0
 11
268.1617142245195
 21
402.1618375621859
 31
0.0
  0
LINE
  5
24EB
330
18
100
AcDbEntity
  8
1
  6
Continuous
100
AcDbLine
 10
229.1617142245195
 20
428.4904765621861
 30
0.0
 11
208.6617142245195
 21
440.326156562186
 31
0.0
  0
LINE
  5
24EC
330
18
100
AcDbEntity
  8
4
  6
CENTER
 48
0.7
100
AcDbLine
 10
229.1617142245195
 20
394.1618375621861
 30
0.0
 11
229.1617142245195
 21
510.161837562186
 31
0.0
  0
LINE
  5
24ED
330
18
100
AcDbEntity
  8
1
  6
Continuous
100
AcDbLine
 10
179.1617142245195
 20
491.1618375621859
 30
0.0
 11
179.1617142245195
 21
413.1618375621861
 31
0.0
  0
LINE
  5
24EE
330
18
100
AcDbEntity
  8
4
  6
CENTER
 48
0.2
100
AcDbLine
 10
180.9117142245195
 20
413.1618375621861
 30
0.0
 11
199.4117142245195
 21
413.1618375621861
 31
0.0
  0
LINE
  5
24EF
330
18
100
AcDbEntity
  8
4
  6
CENTER
 48
0.2
100
AcDbLine
 10
190.1617142245195
 20
403.9118375621859
 30
0.0
 11
190.1617142245195
 21
422.4118375621861
 31
0.0
  0
ARC
  5
24F0
330
18
100
AcDbEntity
  8
1
  6
Continuous
100
AcDbCircle
 10
190.1617142245195
 20
413.1618375621861
 30
0.0
 40
11.0
100
AcDbArc
 50
180.0
 51
270.0
  0
CIRCLE
  5
24F1
330
18
100
AcDbEntity
  8
1
  6
Continuous
100
AcDbCircle
 10
190.1617142245195
 20
413.1618375621861
 30
0.0
 40
5.25
  0
LINE
  5
24F2
330
18
100
AcDbEntity
  8
1
  6
Continuous
100
AcDbLine
 10
222.9117142245195
 20
402.1618375621859
 30
0.0
 11
222.9117142245195
 21
414.0837925621861
 31
0.0
  0
ARC
  5
24F3
330
18
100
AcDbEntity
  8
1
  6
Continuous
100
AcDbCircle
 10
216.9117142245195
 20
414.0837925621861
 30
0.0
 40
6.0
100
AcDbArc
 50
0.0
 51
72.16661700000253
  0
ARC
  5
24F4
330
18
100
AcDbEntity
  8
1
  6
Continuous
100
AcDbCircle
 10
191.0836692245195
 20
439.9118375621859
 30
0.0
 40
6.0
100
AcDbArc
 50
17.83338299999902
 51
90.0
  0
ARC
  5
24F5
330
18
100
AcDbEntity
  8
1
  6
Continuous
100
AcDbCircle
 10
191.0836692245195
 20
464.4118375621859
 30
0.0
 40
6.0
100
AcDbArc
 50
270.0
 51
342.166617000001
  0
LINE
  5
24F6
330
18
100
AcDbEntity
  8
1
  6
Continuous
100
AcDbLine
 10
179.1617142245195
 20
445.9118375621859
 30
0.0
 11
191.0836692245195
 21
445.9118375621859
 31
0.0
  0
LINE
  5
24F7
330
18
100
AcDbEntity
  8
1
  6
Continuous
100
AcDbLine
 10
179.1617142245195
 20
458.4118375621859
 30
0.0
 11
191.0836692245195
 21
458.4118375621859
 31
0.0
  0
LINE
  5
24F8
330
18
100
AcDbEntity
  8
1
  6
Continuous
100
AcDbLine
 10
208.6617142245195
 20
440.326156562186
 30
0.0
 11
208.6617142245195
 21
463.9975175621859
 31
0.0
  0
LINE
  5
24F9
330
18
100
AcDbEntity
  8
1
  6
Continuous
100
AcDbLine
 10
208.6617142245195
 20
463.9975175621859
 30
0.0
 11
229.1617142245195
 21
475.8331985621861
 31
0.0
  0
LINE
  5
24FA
330
18
100
AcDbEntity
  8
4
  6
CENTER
 48
0.2
100
AcDbLine
 10
180.9117142245195
 20
491.1618375621859
 30
0.0
 11
199.4117142245195
 21
491.1618375621859
 31
0.0
  0
LINE
  5
24FB
330
18
100
AcDbEntity
  8
4
  6
CENTER
 48
0.2
100
AcDbLine
 10
190.1617142245195
 20
481.9118375621861
 30
0.0
 11
190.1617142245195
 21
500.4118375621859
 31
0.0
  0
ARC
  5
24FC
330
18
100
AcDbEntity
  8
1
  6
Continuous
100
AcDbCircle
 10
190.1617142245195
 20
491.1618375621859
 30
0.0
 40
11.0
100
AcDbArc
 50
90.0
 51
180.0
  0
CIRCLE
  5
24FD
330
18
100
AcDbEntity
  8
1
  6
Continuous
100
AcDbCircle
 10
190.1617142245195
 20
491.1618375621859
 30
0.0
 40
5.25
  0
LINE
  5
24FE
330
18
100
AcDbEntity
  8
1
  6
Continuous
100
AcDbLine
 10
222.9117142245195
 20
502.1618375621859
 30
0.0
 11
222.9117142245195
 21
490.2398825621861
 31
0.0
  0
ARC
  5
24FF
330
18
100
AcDbEntity
  8
1
  6
Continuous
100
AcDbCircle
 10
216.9117142245195
 20
490.2398825621861
 30
0.0
 40
6.0
100
AcDbArc
 50
287.8333829999974
 51
0.0
  0
LINE
  5
2500
330
18
100
AcDbEntity
  8
1
  6
Continuous
100
AcDbLine
 10
279.1617142245195
 20
413.1618375621861
 30
0.0
 11
279.1617142245195
 21
491.1618375621859
 31
0.0
  0
LINE
  5
2501
330
18
100
AcDbEntity
  8
4
  6
CENTER
 48
0.2
100
AcDbLine
 10
258.9117142245195
 20
413.1618375621861
 30
0.0
 11
277.4117142245195
 21
413.1618375621861
 31
0.0
  0
LINE
  5
2502
330
18
100
AcDbEntity
  8
1
  6
Continuous
100
AcDbLine
 10
235.4117142245195
 20
402.1618375621859
 30
0.0
 11
235.4117142245195
 21
414.0837925621861
 31
0.0
  0
ARC
  5
2503
330
18
100
AcDbEntity
  8
1
  6
Continuous
100
AcDbCircle
 10
241.4117142245195
 20
414.0837925621861
 30
0.0
 40
6.0
100
AcDbArc
 50
107.8333829999974
 51
180.0
  0
LINE
  5
2504
330
18
100
AcDbEntity
  8
4
  6
CENTER
 48
0.2
100
AcDbLine
 10
268.1617142245195
 20
403.9118375621859
 30
0.0
 11
268.1617142245195
 21
422.4118375621861
 31
0.0
  0
ARC
  5
2505
330
18
100
AcDbEntity
  8
1
  6
Continuous
100
AcDbCircle
 10
268.1617142245195
 20
413.1618375621861
 30
0.0
 40
11.0
100
AcDbArc
 50
270.0
 51
0.0
  0
CIRCLE
  5
2506
330
18
100
AcDbEntity
  8
1
  6
Continuous
100
AcDbCircle
 10
268.1617142245195
 20
413.1618375621861
 30
0.0
 40
5.25
  0
ARC
  5
2507
330
18
100
AcDbEntity
  8
1
  6
Continuous
100
AcDbCircle
 10
267.2397592245195
 20
464.4118375621859
 30
0.0
 40
6.0
100
AcDbArc
 50
197.833382999999
 51
270.0
  0
ARC
  5
2508
330
18
100
AcDbEntity
  8
1
  6
Continuous
100
AcDbCircle
 10
267.2397592245195
 20
439.9118375621859
 30
0.0
 40
6.0
100
AcDbArc
 50
90.0
 51
162.1666170000009
  0
LINE
  5
2509
330
18
100
AcDbEntity
  8
1
  6
Continuous
100
AcDbLine
 10
249.6617142245195
 20
440.326156562186
 30
0.0
 11
249.6617142245195
 21
463.9975175621859
 31
0.0
  0
LINE
  5
250A
330
18
100
AcDbEntity
  8
1
  6
Continuous
100
AcDbLine
 10
279.1617142245195
 20
445.9118375621859
 30
0.0
 11
267.2397592245195
 21
445.9118375621859
 31
0.0
  0
LINE
  5
250B
330
18
100
AcDbEntity
  8
1
  6
Continuous
100
AcDbLine
 10
279.1617142245195
 20
458.4118375621859
 30
0.0
 11
267.2397592245195
 21
458.4118375621859
 31
0.0
  0
LINE
  5
250C
330
18
100
AcDbEntity
  8
4
  6
CENTER
 48
0.2
100
AcDbLine
 10
258.9117142245195
 20
491.1618375621859
 30
0.0
 11
277.4117142245195
 21
491.1618375621859
 31
0.0
  0
LINE
  5
250D
330
18
100
AcDbEntity
  8
1
  6
Continuous
100
AcDbLine
 10
235.4117142245195
 20
502.1618375621859
 30
0.0
 11
235.4117142245195
 21
490.2398825621861
 31
0.0
  0
ARC
  5
250E
330
18
100
AcDbEntity
  8
1
  6
Continuous
100
AcDbCircle
 10
241.4117142245195
 20
490.2398825621861
 30
0.0
 40
6.0
100
AcDbArc
 50
180.0
 51
252.1666170000024
  0
LINE
  5
250F
330
18
100
AcDbEntity
  8
4
  6
CENTER
 48
0.2
100
AcDbLine
 10
268.1617142245195
 20
481.9118375621861
 30
0.0
 11
268.1617142245195
 21
500.4118375621859
 31
0.0
  0
ARC
  5
2510
330
18
100
AcDbEntity
  8
1
  6
Continuous
100
AcDbCircle
 10
268.1617142245195
 20
491.1618375621859
 30
0.0
 40
11.0
100
AcDbArc
 50
0.0
 51
90.0
  0
CIRCLE
  5
2511
330
18
100
AcDbEntity
  8
1
  6
Continuous
100
AcDbCircle
 10
268.1617142245195
 20
491.1618375621859
 30
0.0
 40
5.25
  0
LINE
  5
2512
330
18
100
AcDbEntity
  8
1
  6
Continuous
100
AcDbLine
 10
435.6181640665245
 20
314.3776824701881
 30
0.0
 11
435.6181640665245
 21
224.8776824701881
 31
0.0
  0
LINE
  5
2513
330
18
100
AcDbEntity
  8
1
  6
Continuous
100
AcDbLine
 10
424.3181640665246
 20
281.3776824701881
 30
0.0
 11
424.3181640665246
 21
224.8776824701881
 31
0.0
  0
LINE
  5
2514
330
18
100
AcDbEntity
  8
1
  6
Continuous
100
AcDbLine
 10
372.0181640665245
 20
281.3776824701881
 30
0.0
 11
372.0181640665245
 21
224.8776824701881
 31
0.0
  0
LINE
  5
2515
330
18
100
AcDbEntity
  8
1
  6
Continuous
100
AcDbLine
 10
360.7181640665245
 20
314.3776824701881
 30
0.0
 11
360.7181640665245
 21
224.8776824701881
 31
0.0
  0
LINE
  5
2516
330
18
100
AcDbEntity
  8
4
  6
CENTER
 48
0.7
100
AcDbLine
 10
398.1681640665247
 20
196.3776824701882
 30
0.0
 11
398.1681640665245
 21
341.8776894701882
 31
0.0
  0
ARC
  5
2517
330
18
100
AcDbEntity
  8
1
  6
Continuous
100
AcDbCircle
 10
416.1682130665245
 20
273.1539484701881
 30
0.0
 40
6.0
100
AcDbArc
 50
0.0
 51
85.54347100000072
  0
LINE
  5
2518
330
18
100
AcDbEntity
  8
1
  6
Continuous
100
AcDbLine
 10
398.6682130665245
 20
275.8789074701881
 30
0.0
 11
398.6682130665245
 21
207.8764564701881
 31
0.0
  0
ARC
  5
2519
330
18
100
AcDbEntity
  8
1
  6
Continuous
100
AcDbCircle
 10
380.1682130665245
 20
273.1539484701881
 30
0.0
 40
6.0
100
AcDbArc
 50
94.45652899999927
 51
180.0
  0
LINE
  5
251A
330
18
100
AcDbEntity
  8
1
  6
Continuous
100
AcDbLine
 10
397.6682130665247
 20
275.8789074701881
 30
0.0
 11
397.6682130665247
 21
207.8764564701881
 31
0.0
  0
ARC
  5
251B
330
18
100
AcDbEntity
  8
1
  6
Continuous
100
AcDbCircle
 10
410.4182130665245
 20
284.3776824701881
 30
0.0
 40
80.0
100
AcDbArc
 50
263.4750210000004
 51
274.4565289999993
  0
LINE
  5
251C
330
18
100
AcDbEntity
  8
4
  6
CENTER
 48
0.7
100
AcDbLine
 10
352.7181640665245
 20
241.8776824701882
 30
0.0
 11
443.6181640665245
 21
241.8776824701881
 31
0.0
  0
LINE
  5
251D
330
18
100
AcDbEntity
  8
1
  6
Continuous
100
AcDbLine
 10
372.5182130665245
 20
225.0608974701881
 30
0.0
 11
372.5182130665245
 21
258.6944664701881
 31
0.0
  0
LINE
  5
251E
330
18
100
AcDbEntity
  8
1
  6
Continuous
100
AcDbLine
 10
374.1682130665245
 20
273.1539484701881
 30
0.0
 11
374.1682130665245
 21
210.6014154701881
 31
0.0
  0
ARC
  5
251F
330
18
100
AcDbEntity
  8
1
  6
Continuous
100
AcDbCircle
 10
370.0181640665245
 20
224.8776824701881
 30
0.0
 40
2.0
100
AcDbArc
 50
270.0
 51
0.0
  0
ARC
  5
2520
330
18
100
AcDbEntity
  8
1
  6
Continuous
100
AcDbCircle
 10
362.7181640665245
 20
224.8776824701881
 30
0.0
 40
2.0
100
AcDbArc
 50
180.0
 51
270.0
  0
LINE
  5
2521
330
18
100
AcDbEntity
  8
1
  6
Continuous
100
AcDbLine
 10
362.7181640665245
 20
222.8776824701881
 30
0.0
 11
370.0181640665245
 21
222.8776824701881
 31
0.0
  0
ARC
  5
2522
330
18
100
AcDbEntity
  8
1
  6
Continuous
100
AcDbCircle
 10
401.6682130665246
 20
207.8764564701881
 30
0.0
 40
3.0
100
AcDbArc
 50
180.0
 51
263.4750210000004
  0
ARC
  5
2523
330
18
100
AcDbEntity
  8
1
  6
Continuous
100
AcDbCircle
 10
385.9182130665245
 20
284.3776824701881
 30
0.0
 40
80.0
100
AcDbArc
 50
265.5434710000006
 51
276.5249789999995
  0
ARC
  5
2524
330
18
100
AcDbEntity
  8
1
  6
Continuous
100
AcDbCircle
 10
380.1682130665245
 20
210.6014154701881
 30
0.0
 40
6.0
100
AcDbArc
 50
180.0
 51
265.5434710000006
  0
ARC
  5
2525
330
18
100
AcDbEntity
  8
1
  6
Continuous
100
AcDbCircle
 10
394.6682130665245
 20
207.8764564701881
 30
0.0
 40
3.0
100
AcDbArc
 50
276.5249789999995
 51
0.0
  0
LINE
  5
2526
330
18
100
AcDbEntity
  8
1
  6
Continuous
100
AcDbLine
 10
373.4947040665247
 20
224.0932344701881
 30
0.0
 11
374.1417210665247
 21
221.1621294701881
 31
0.0
  0
ARC
  5
2527
330
18
100
AcDbEntity
  8
1
  6
Continuous
100
AcDbCircle
 10
375.1182130665245
 20
221.3776824701881
 30
0.0
 40
1.0
100
AcDbArc
 50
192.4479449999993
 51
198.1948720000006
  0
ARC
  5
2528
330
18
100
AcDbEntity
  8
1
  6
Continuous
100
AcDbCircle
 10
372.5182110665246
 20
223.8776824701881
 30
0.0
 40
1.0
100
AcDbArc
 50
12.44794499999933
 51
80.40585800000023
  0
ARC
  5
2529
330
18
100
AcDbEntity
  8
1
  6
Continuous
100
AcDbCircle
 10
372.7182130665247
 20
225.0608974701881
 30
0.0
 40
0.2
100
AcDbArc
 50
180.0
 51
260.4058580000002
  0
LINE
  5
252B
330
18
100
AcDbEntity
  8
1
  6
Continuous
100
AcDbLine
 10
398.1682130665245
 20
230.3776824701882
 30
0.0
 11
398.1682130665245
 21
253.3776824701881
 31
0.0
  0
LINE
  5
252D
330
18
100
AcDbEntity
  8
1
  6
Continuous
100
AcDbLine
 10
372.0181640665245
 20
234.4026824701882
 30
0.0
 11
372.5182130665245
 21
234.4026824701882
 31
0.0
  0
LINE
  5
252E
330
18
100
AcDbEntity
  8
1
  6
Continuous
100
AcDbLine
 10
372.0181640665245
 20
249.3526824701882
 30
0.0
 11
372.5182130665245
 21
249.3526824701882
 31
0.0
  0
LINE
  5
2531
330
18
100
AcDbEntity
  8
1
  6
Continuous
100
AcDbLine
 10
398.6682130665245
 20
229.8776824701881
 30
0.0
 11
398.1682130665245
 21
230.3776824701881
 31
0.0
  0
LINE
  5
2532
330
18
100
AcDbEntity
  8
1
  6
Continuous
100
AcDbLine
 10
397.6682130665247
 20
229.8776824701881
 30
0.0
 11
398.1682130665245
 21
230.3776824701881
 31
0.0
  0
ARC
  5
2533
330
18
100
AcDbEntity
  8
1
  6
Continuous
100
AcDbCircle
 10
375.1182130665245
 20
262.3776824701881
 30
0.0
 40
1.0
100
AcDbArc
 50
161.8051279999993
 51
167.5520550000006
  0
ARC
  5
2534
330
18
100
AcDbEntity
  8
1
  6
Continuous
100
AcDbCircle
 10
372.5182110665246
 20
259.8776824701881
 30
0.0
 40
1.0
100
AcDbArc
 50
279.5941419999997
 51
347.5520550000006
  0
ARC
  5
2535
330
18
100
AcDbEntity
  8
1
  6
Continuous
100
AcDbCircle
 10
372.7182130665247
 20
258.6944664701881
 30
0.0
 40
0.2
100
AcDbArc
 50
99.59414199999978
 51
180.0
  0
LINE
  5
2536
330
18
100
AcDbEntity
  8
1
  6
Continuous
100
AcDbLine
 10
373.4947040665247
 20
259.6621294701881
 30
0.0
 11
374.1417210665247
 21
262.5932344701881
 31
0.0
  0
LINE
  5
2537
330
18
100
AcDbEntity
  8
1
  6
Continuous
100
AcDbLine
 10
398.6682130665245
 20
253.8776824701881
 30
0.0
 11
398.1682130665245
 21
253.3776824701881
 31
0.0
  0
LINE
  5
2538
330
18
100
AcDbEntity
  8
1
  6
Continuous
100
AcDbLine
 10
397.6682130665247
 20
253.8776824701881
 30
0.0
 11
398.1682130665245
 21
253.3776824701881
 31
0.0
  0
LINE
  5
2539
330
18
100
AcDbEntity
  8
1
  6
Continuous
100
AcDbLine
 10
423.8182130665244
 20
225.0608974701881
 30
0.0
 11
423.8182130665244
 21
258.6944664701881
 31
0.0
  0
LINE
  5
253A
330
18
100
AcDbEntity
  8
1
  6
Continuous
100
AcDbLine
 10
422.1682130665247
 20
273.1539484701881
 30
0.0
 11
422.1682130665247
 21
210.6014154701881
 31
0.0
  0
ARC
  5
253B
330
18
100
AcDbEntity
  8
1
  6
Continuous
100
AcDbCircle
 10
416.1682130665245
 20
210.6014154701881
 30
0.0
 40
6.0
100
AcDbArc
 50
274.4565289999993
 51
0.0
  0
LINE
  5
253C
330
18
100
AcDbEntity
  8
1
  6
Continuous
100
AcDbLine
 10
426.3181640665244
 20
222.8776824701881
 30
0.0
 11
433.6181640665245
 21
222.8776824701881
 31
0.0
  0
LINE
  5
253D
330
18
100
AcDbEntity
  8
1
  6
Continuous
100
AcDbLine
 10
422.8417220665244
 20
224.0932344701881
 30
0.0
 11
422.1947050665246
 21
221.1621294701881
 31
0.0
  0
ARC
  5
253E
330
18
100
AcDbEntity
  8
1
  6
Continuous
100
AcDbCircle
 10
421.2182130665246
 20
221.3776824701881
 30
0.0
 40
1.0
100
AcDbArc
 50
341.8051279999994
 51
347.5520550000006
  0
ARC
  5
253F
330
18
100
AcDbEntity
  8
1
  6
Continuous
100
AcDbCircle
 10
423.6182130665245
 20
225.0608974701881
 30
0.0
 40
0.2
100
AcDbArc
 50
279.5941419999997
 51
0.0
  0
ARC
  5
2540
330
18
100
AcDbEntity
  8
1
  6
Continuous
100
AcDbCircle
 10
423.8182140665244
 20
223.8776824701881
 30
0.0
 40
1.0
100
AcDbArc
 50
99.59414199999978
 51
167.5520550000006
  0
ARC
  5
2541
330
18
100
AcDbEntity
  8
1
  6
Continuous
100
AcDbCircle
 10
426.3181640665244
 20
224.8776824701881
 30
0.0
 40
2.0
100
AcDbArc
 50
180.0
 51
270.0
  0
ARC
  5
2542
330
18
100
AcDbEntity
  8
1
  6
Continuous
100
AcDbCircle
 10
433.6181640665245
 20
224.8776824701881
 30
0.0
 40
2.0
100
AcDbArc
 50
270.0
 51
0.0
  0
LINE
  5
2544
330
18
100
AcDbEntity
  8
1
  6
Continuous
100
AcDbLine
 10
424.3181640665246
 20
234.4026824701882
 30
0.0
 11
423.8181160665245
 21
234.4026824701882
 31
0.0
  0
LINE
  5
2545
330
18
100
AcDbEntity
  8
1
  6
Continuous
100
AcDbLine
 10
424.3181640665246
 20
249.3526824701882
 30
0.0
 11
423.8181160665245
 21
249.3526824701882
 31
0.0
  0
ARC
  5
2546
330
18
100
AcDbEntity
  8
1
  6
Continuous
100
AcDbCircle
 10
421.2182130665246
 20
262.3776824701881
 30
0.0
 40
1.0
100
AcDbArc
 50
12.44794499999933
 51
18.19487200000065
  0
ARC
  5
2547
330
18
100
AcDbEntity
  8
1
  6
Continuous
100
AcDbCircle
 10
423.6182130665245
 20
258.6944664701881
 30
0.0
 40
0.2
100
AcDbArc
 50
0.0
 51
80.40585800000023
  0
ARC
  5
2548
330
18
100
AcDbEntity
  8
1
  6
Continuous
100
AcDbCircle
 10
423.8182140665244
 20
259.8776824701881
 30
0.0
 40
1.0
100
AcDbArc
 50
192.4479449999993
 51
260.4058580000002
  0
LINE
  5
2549
330
18
100
AcDbEntity
  8
1
  6
Continuous
100
AcDbLine
 10
422.8417220665244
 20
259.6621294701881
 30
0.0
 11
422.1947050665246
 21
262.5932344701881
 31
0.0
  0
LINE
  5
254A
330
18
100
AcDbEntity
  8
1
  6
Continuous
100
AcDbLine
 10
382.0181640665247
 20
291.3776824701881
 30
0.0
 11
414.3181640665245
 21
291.3776824701881
 31
0.0
  0
LINE
  5
254B
330
18
100
AcDbEntity
  8
1
  6
Continuous
100
AcDbLine
 10
372.2683640665245
 20
303.3776824701881
 30
0.0
 11
424.0679640665247
 21
303.3776824701881
 31
0.0
  0
LINE
  5
254C
330
18
100
AcDbEntity
  8
1
  6
Continuous
100
AcDbLine
 10
372.2683640665245
 20
309.3776824701881
 30
0.0
 11
424.0679640665247
 21
309.3776824701881
 31
0.0
  0
ARC
  5
254F
330
18
100
AcDbEntity
  8
1
  6
Continuous
100
AcDbCircle
 10
398.1681640665245
 20
295.6990544701881
 30
0.0
 40
38.17863499999999
100
AcDbArc
 50
80.10102099999732
 51
99.89897900000269
  0
LINE
  5
2551
330
18
100
AcDbEntity
  8
1
  6
Continuous
100
AcDbLine
 10
405.9469180665246
 20
320.6090784701881
 30
0.0
 11
390.3894140665245
 21
320.6090784701881
 31
0.0
  0
LINE
  5
2552
330
18
100
AcDbEntity
  8
1
  6
Continuous
100
AcDbLine
 10
391.9181640665245
 20
328.0286714701881
 30
0.0
 11
404.4181640665246
 21
328.0286714701881
 31
0.0
  0
LINE
  5
2553
330
18
100
AcDbEntity
  8
1
  6
Continuous
100
AcDbLine
 10
391.9181610665246
 20
332.1738594701881
 30
0.0
 11
404.4181680665245
 21
332.1738594701881
 31
0.0
  0
LINE
  5
2554
330
18
100
AcDbEntity
  8
1
  6
Continuous
100
AcDbLine
 10
435.6403000665244
 20
316.3776894701882
 30
0.0
 11
360.6960280665246
 21
316.3776894701882
 31
0.0
  0
ARC
  5
2555
330
18
100
AcDbEntity
  8
1
  6
Continuous
100
AcDbCircle
 10
410.4182130665245
 20
199.3776824701881
 30
0.0
 40
80.0
100
AcDbArc
 50
85.54347100000072
 51
96.5249789999995
  0
LINE
  5
2556
330
18
100
AcDbEntity
  8
1
  6
Continuous
100
AcDbLine
 10
348.1681640665245
 20
328.0286714701881
 30
0.0
 11
359.1681640665246
 21
320.6090784701881
 31
0.0
  0
LINE
  5
2557
330
18
100
AcDbEntity
  8
1
  6
Continuous
100
AcDbLine
 10
359.1681640665246
 20
320.3776894701882
 30
0.0
 11
359.1681640665246
 21
326.3776894701881
 31
0.0
  0
ARC
  5
2558
330
18
100
AcDbEntity
  8
1
  6
Continuous
100
AcDbCircle
 10
388.8894140665245
 20
321.6090784701882
 30
0.0
 40
1.0
100
AcDbArc
 50
270.0
 51
0.0
  0
LINE
  5
2559
330
18
100
AcDbEntity
  8
1
  6
Continuous
100
AcDbLine
 10
360.7181640665245
 20
282.9976824701881
 30
0.0
 11
372.0181640665245
 21
282.9976824701881
 31
0.0
  0
ARC
  5
255A
330
18
100
AcDbEntity
  8
1
  6
Continuous
100
AcDbCircle
 10
382.0181640665247
 20
281.3776824701881
 30
0.0
 40
10.0
100
AcDbArc
 50
90.0
 51
180.0
  0
ARC
  5
255B
330
18
100
AcDbEntity
  8
1
  6
Continuous
100
AcDbCircle
 10
362.7181640665245
 20
314.3776824701881
 30
0.0
 40
2.0
100
AcDbArc
 50
90.0
 51
180.0
  0
ARC
  5
255C
330
18
100
AcDbEntity
  8
1
  6
Continuous
100
AcDbCircle
 10
365.1681640665245
 20
320.3776894701882
 30
0.0
 40
6.0
100
AcDbArc
 50
180.0
 51
221.8103149999995
  0
LINE
  5
255D
330
18
100
AcDbEntity
  8
1
  6
Continuous
100
AcDbLine
 10
372.2683640665245
 20
303.3776824701881
 30
0.0
 11
372.2683640665245
 21
291.3776824701881
 31
0.0
  0
ARC
  5
255E
330
18
100
AcDbEntity
  8
1
  6
Continuous
100
AcDbCircle
 10
385.9182130665245
 20
199.3776824701881
 30
0.0
 40
80.0
100
AcDbArc
 50
83.47502100000047
 51
94.45652899999927
  0
ARC
  5
255F
330
18
100
AcDbEntity
  8
1
  6
Continuous
100
AcDbCircle
 10
394.6682130665245
 20
275.8789074701881
 30
0.0
 40
3.0
100
AcDbArc
 50
0.0
 51
83.47502100000047
  0
ARC
  5
2560
330
18
100
AcDbEntity
  8
1
  6
Continuous
100
AcDbCircle
 10
401.6682130665246
 20
275.8789074701881
 30
0.0
 40
3.0
100
AcDbArc
 50
96.5249789999995
 51
180.0
  0
ARC
  5
2561
330
18
100
AcDbEntity
  8
1
  6
Continuous
100
AcDbCircle
 10
372.2683640665245
 20
308.1407824701881
 30
0.0
 40
1.2369
100
AcDbArc
 50
90.0
 51
180.0
  0
ARC
  5
2562
330
18
100
AcDbEntity
  8
1
  6
Continuous
100
AcDbCircle
 10
372.2683640665245
 20
304.6145824701881
 30
0.0
 40
1.2369
100
AcDbArc
 50
180.0
 51
270.0
  0
LINE
  5
2563
330
18
100
AcDbEntity
  8
1
  6
Continuous
100
AcDbLine
 10
371.0314640665245
 20
308.1407824701881
 30
0.0
 11
371.0314640665245
 21
304.6145824701881
 31
0.0
  0
LINE
  5
2564
330
18
100
AcDbEntity
  8
1
  6
Continuous
100
AcDbLine
 10
372.2683640665245
 20
309.3776824701881
 30
0.0
 11
372.2683640665245
 21
314.3776824701881
 31
0.0
  0
LINE
  5
2565
330
18
100
AcDbEntity
  8
1
  6
Continuous
100
AcDbLine
 10
348.1681640665245
 20
334.3776894701881
 30
0.0
 11
389.7181640665245
 21
334.3776894701881
 31
0.0
  0
LINE
  5
2566
330
18
100
AcDbEntity
  8
1
  6
Continuous
100
AcDbLine
 10
389.8894110665247
 20
329.3776894701882
 30
0.0
 11
348.1681640665245
 21
329.3776894701882
 31
0.0
  0
LINE
  5
2567
330
18
100
AcDbEntity
  8
1
  6
Continuous
100
AcDbLine
 10
348.1681640665245
 20
334.3776894701881
 30
0.0
 11
348.1681640665245
 21
328.0286714701881
 31
0.0
  0
LINE
  5
2568
330
18
100
AcDbEntity
  8
4
  6
CENTER
 48
0.2
100
AcDbLine
 10
359.1681640665246
 20
338.3776894701882
 30
0.0
 11
359.1681640665246
 21
325.3776894701882
 31
0.0
  0
ARC
  5
2569
330
18
100
AcDbEntity
  8
1
  6
Continuous
100
AcDbCircle
 10
356.1681640665245
 20
326.3776894701881
 30
0.0
 40
3.0
100
AcDbArc
 50
0.0
 51
90.0
  0
ARC
  5
256A
330
18
100
AcDbEntity
  8
1
  6
Continuous
100
AcDbCircle
 10
389.7181640665245
 20
332.1776894701881
 30
0.0
 40
2.2
100
AcDbArc
 50
359.9002750000007
 51
90.0
  0
LINE
  5
256B
330
18
100
AcDbEntity
  8
1
  6
Continuous
100
AcDbLine
 10
389.8894140665245
 20
328.5876944701882
 30
0.0
 11
389.8894140665245
 21
322.1090784701881
 31
0.0
  0
ARC
  5
256C
330
18
100
AcDbEntity
  8
1
  6
Continuous
100
AcDbCircle
 10
391.9181640665245
 20
330.2286714701882
 30
0.0
 40
2.2
100
AcDbArc
 50
202.7561809999988
 51
270.0
  0
ARC
  5
256D
330
18
100
AcDbEntity
  8
1
  6
Continuous
100
AcDbCircle
 10
389.7181640665245
 20
332.1776894701881
 30
0.0
 40
2.2
100
AcDbArc
 50
359.9002750000007
 51
0.0
  0
LINE
  5
256E
330
18
100
AcDbEntity
  8
1
  6
Continuous
100
AcDbLine
 10
405.2217400621477
 20
333.8776894701882
 30
0.0
 11
391.1145880665245
 21
333.8776894701882
 31
0.0
  0
ARC
  5
256F
330
18
100
AcDbEntity
  8
1
  6
Continuous
100
AcDbCircle
 10
407.4469180665245
 20
321.6090784701882
 30
0.0
 40
1.0
100
AcDbArc
 50
180.0
 51
270.0
  0
LINE
  5
2570
330
18
100
AcDbEntity
  8
1
  6
Continuous
100
AcDbLine
 10
448.1681640665246
 20
328.0286714701881
 30
0.0
 11
437.1681640665245
 21
320.6090784701881
 31
0.0
  0
LINE
  5
2571
330
18
100
AcDbEntity
  8
1
  6
Continuous
100
AcDbLine
 10
437.1681640665245
 20
320.3776894701882
 30
0.0
 11
437.1681640665245
 21
326.3776894701881
 31
0.0
  0
ARC
  5
2572
330
18
100
AcDbEntity
  8
1
  6
Continuous
100
AcDbCircle
 10
431.1681640665246
 20
320.3776894701882
 30
0.0
 40
6.0
100
AcDbArc
 50
318.1896850000004
 51
0.0
  0
LINE
  5
2573
330
18
100
AcDbEntity
  8
1
  6
Continuous
100
AcDbLine
 10
424.0679640665247
 20
303.3776824701881
 30
0.0
 11
424.0679640665247
 21
291.3776824701881
 31
0.0
  0
ARC
  5
2574
330
18
100
AcDbEntity
  8
1
  6
Continuous
100
AcDbCircle
 10
414.3181640665245
 20
281.3776824701881
 30
0.0
 40
10.0
100
AcDbArc
 50
0.0
 51
90.0
  0
LINE
  5
2575
330
18
100
AcDbEntity
  8
1
  6
Continuous
100
AcDbLine
 10
424.3181640665246
 20
282.9976824701881
 30
0.0
 11
435.6181640665245
 21
282.9976824701881
 31
0.0
  0
ARC
  5
2576
330
18
100
AcDbEntity
  8
1
  6
Continuous
100
AcDbCircle
 10
424.0679640665247
 20
308.1407824701881
 30
0.0
 40
1.2369
100
AcDbArc
 50
0.0
 51
90.0
  0
ARC
  5
2577
330
18
100
AcDbEntity
  8
1
  6
Continuous
100
AcDbCircle
 10
424.0679640665247
 20
304.6145824701881
 30
0.0
 40
1.2369
100
AcDbArc
 50
270.0
 51
0.0
  0
LINE
  5
2578
330
18
100
AcDbEntity
  8
1
  6
Continuous
100
AcDbLine
 10
425.3048640665245
 20
308.1407824701881
 30
0.0
 11
425.3048640665245
 21
304.6145824701881
 31
0.0
  0
LINE
  5
2579
330
18
100
AcDbEntity
  8
1
  6
Continuous
100
AcDbLine
 10
424.0679640665247
 20
309.3776824701881
 30
0.0
 11
424.0679640665247
 21
314.3776824701881
 31
0.0
  0
ARC
  5
257A
330
18
100
AcDbEntity
  8
1
  6
Continuous
100
AcDbCircle
 10
433.6181640665245
 20
314.3776824701881
 30
0.0
 40
2.0
100
AcDbArc
 50
0.0
 51
90.0
  0
LINE
  5
257B
330
18
100
AcDbEntity
  8
1
  6
Continuous
100
AcDbLine
 10
406.6181640665245
 20
334.3776894701881
 30
0.0
 11
448.1681640665246
 21
334.3776894701881
 31
0.0
  0
LINE
  5
257C
330
18
100
AcDbEntity
  8
1
  6
Continuous
100
AcDbLine
 10
406.4469180665246
 20
329.3776894701882
 30
0.0
 11
448.1681640665246
 21
329.3776894701882
 31
0.0
  0
ARC
  5
257D
330
18
100
AcDbEntity
  8
1
  6
Continuous
100
AcDbCircle
 10
406.6181640665245
 20
332.1776894701881
 30
0.0
 40
2.2
100
AcDbArc
 50
90.0
 51
180.0997249999992
  0
LINE
  5
257E
330
18
100
AcDbEntity
  8
1
  6
Continuous
100
AcDbLine
 10
406.4469180665246
 20
328.5876944701882
 30
0.0
 11
406.4469180665246
 21
322.1090784701881
 31
0.0
  0
ARC
  5
257F
330
18
100
AcDbEntity
  8
1
  6
Continuous
100
AcDbCircle
 10
404.4181680665245
 20
330.2286714701882
 30
0.0
 40
2.2
100
AcDbArc
 50
270.0
 51
337.2438190000011
  0
LINE
  5
2580
330
18
100
AcDbEntity
  8
4
  6
CENTER
 48
0.2
100
AcDbLine
 10
437.1681640665245
 20
338.3776894701882
 30
0.0
 11
437.1681640665245
 21
325.3776894701882
 31
0.0
  0
LINE
  5
2581
330
18
100
AcDbEntity
  8
1
  6
Continuous
100
AcDbLine
 10
448.1681640665246
 20
334.3776894701881
 30
0.0
 11
448.1681640665246
 21
328.0286714701881
 31
0.0
  0
ARC
  5
2582
330
18
100
AcDbEntity
  8
1
  6
Continuous
100
AcDbCircle
 10
440.1681640665246
 20
326.3776894701881
 30
0.0
 40
3.0
100
AcDbArc
 50
90.0
 51
180.0
  0
ARC
  5
2881
330
18
100
AcDbEntity
  8
1
  6
Continuous
100
AcDbCircle
 10
534.1746139085296
 20
320.3776824701881
 30
0.0
 40
6.0
100
AcDbArc
 50
180.0
 51
221.8103149999995
  0
ARC
  5
2882
330
18
100
AcDbEntity
  8
1
  6
Continuous
100
AcDbCircle
 10
600.1746139085296
 20
320.3776824701881
 30
0.0
 40
6.0
100
AcDbArc
 50
318.1896850000004
 51
0.000000000000007
  0
LINE
  5
2883
330
18
100
AcDbEntity
  8
4
  6
CENTER
 48
0.7
100
AcDbLine
 10
567.1746139085296
 20
196.3776824701881
 30
0.0
 11
567.1746139085297
 21
341.8776894701882
 31
0.0
  0
CIRCLE
  5
2885
330
18
100
AcDbEntity
  8
1
  6
Continuous
100
AcDbCircle
 10
567.1746139085296
 20
241.8776824701881
 30
0.0
 40
10.5
  0
ARC
  5
2886
330
18
100
AcDbEntity
  8
1
  6
Continuous
100
AcDbCircle
 10
567.1746139085296
 20
241.8776824701881
 30
0.0
 40
37.5
100
AcDbArc
 50
129.7590259999979
 51
50.24097400000208
  0
ARC
  5
2887
330
18
100
AcDbEntity
  8
1
  6
Continuous
100
AcDbCircle
 10
567.1746139085296
 20
241.8776824701881
 30
0.0
 40
22.5
100
AcDbArc
 50
156.929435999999
 51
23.070564000001
  0
ARC
  5
2888
330
18
100
AcDbEntity
  8
1
  6
Continuous
100
AcDbCircle
 10
567.1746139085296
 20
241.8776824701881
 30
0.0
 40
21.49999999999999
100
AcDbArc
 50
161.4115010000013
 51
18.58849899999866
  0
CIRCLE
  5
2889
330
18
100
AcDbEntity
  8
1
  6
Continuous
100
AcDbCircle
 10
567.1746139085296
 20
241.8776824701881
 30
0.0
 40
10.0
  0
LINE
  5
288A
330
18
100
AcDbEntity
  8
1
  6
Continuous
100
AcDbLine
 10
529.7024779085295
 20
316.3776824701881
 30
0.0
 11
604.6467499085297
 21
316.3776824701881
 31
0.0
  0
ARC
  5
288B
330
18
100
AcDbEntity
  8
1
  6
Continuous
100
AcDbCircle
 10
567.1746139085296
 20
241.8776824701881
 30
0.0
 40
19.0
100
AcDbArc
 50
189.3167589999998
 51
350.6832410000002
  0
LINE
  5
288C
330
18
100
AcDbEntity
  8
4
  6
CENTER
 48
0.7
100
AcDbLine
 10
612.6746139085296
 20
241.8776824701881
 30
0.0
 11
521.6746139085296
 21
241.8776824701881
 31
0.0
  0
LINE
  5
288D
330
18
100
AcDbEntity
  8
1
  6
Continuous
100
AcDbLine
 10
585.9239729085295
 20
238.8017254701882
 30
0.0
 11
593.1482309085295
 21
282.8368644701881
 31
0.0
  0
ARC
  5
288E
330
18
100
AcDbEntity
  8
1
  6
Continuous
100
AcDbCircle
 10
693.1746139085296
 20
283.6005774701881
 30
0.0
 40
100.0
100
AcDbArc
 50
177.5355679999992
 51
180.0
  0
LINE
  5
288F
330
18
100
AcDbEntity
  8
1
  6
Continuous
100
AcDbLine
 10
593.1746139085296
 20
283.1606494701881
 30
0.0
 11
593.1746139085296
 21
314.3776824701881
 31
0.0
  0
ARC
  5
2890
330
18
100
AcDbEntity
  8
1
  6
Continuous
100
AcDbCircle
 10
591.1746139085296
 20
283.1606494701881
 30
0.0
 40
2.0
100
AcDbArc
 50
350.6832410000002
 51
0.000000000000007
  0
ARC
  5
2891
330
18
100
AcDbEntity
  8
1
  6
Continuous
100
AcDbCircle
 10
591.1746139085296
 20
314.3776824701881
 30
0.0
 40
2.0
100
AcDbArc
 50
0.000000000000007
 51
90.0
  0
LINE
  5
2892
330
18
100
AcDbEntity
  8
1
  6
Continuous
100
AcDbLine
 10
606.1746139085296
 20
302.6456314701882
 30
0.0
 11
606.1746139085296
 21
293.3776824701881
 31
0.0
  0
LINE
  5
2893
330
18
100
AcDbEntity
  8
1
  6
Continuous
100
AcDbLine
 10
604.1746139085296
 20
291.3776824701881
 30
0.0
 11
599.5118139085295
 21
291.3776824701881
 31
0.0
  0
ARC
  5
2894
330
18
100
AcDbEntity
  8
1
  6
Continuous
100
AcDbCircle
 10
604.1746139085296
 20
293.3776824701881
 30
0.0
 40
2.0
100
AcDbArc
 50
270.0
 51
0.000000000000007
  0
ARC
  5
2895
330
18
100
AcDbEntity
  8
1
  6
Continuous
100
AcDbCircle
 10
594.2661779085296
 20
287.8574964701881
 30
0.0
 40
1.0
100
AcDbArc
 50
132.1483490000016
 51
177.5355679999992
  0
ARC
  5
2896
330
18
100
AcDbEntity
  8
1
  6
Continuous
100
AcDbCircle
 10
601.6393049085295
 20
279.7113254701881
 30
0.0
 40
11.987407
100
AcDbArc
 50
107.1629870000012
 51
132.1483490000016
  0
ARC
  5
2897
330
18
100
AcDbEntity
  8
1
  6
Continuous
100
AcDbCircle
 10
599.5118139085295
 20
286.5998884701881
 30
0.0
 40
4.777794
100
AcDbArc
 50
90.0
 51
107.1629870000012
  0
LINE
  5
2898
330
18
100
AcDbEntity
  8
1
  6
Continuous
100
AcDbLine
 10
594.1746139085296
 20
309.3776824701881
 30
0.0
 11
606.1746139085296
 21
309.3776824701881
 31
0.0
  0
LINE
  5
2899
330
18
100
AcDbEntity
  8
1
  6
Continuous
100
AcDbLine
 10
594.1746139085296
 20
303.3776824701881
 30
0.0
 11
606.1746139085296
 21
303.3776824701881
 31
0.0
  0
LINE
  5
289A
330
18
100
AcDbEntity
  8
1
  6
Continuous
100
AcDbLine
 10
606.1746139085296
 20
314.3776824701881
 30
0.0
 11
606.1746139085296
 21
310.1097334701881
 31
0.0
  0
ARC
  5
289B
330
18
100
AcDbEntity
  8
1
  6
Continuous
100
AcDbCircle
 10
607.1746139085296
 20
310.1097334701881
 30
0.0
 40
1.0
100
AcDbArc
 50
180.0
 51
240.0000000000003
  0
ARC
  5
289C
330
18
100
AcDbEntity
  8
1
  6
Continuous
100
AcDbCircle
 10
606.1746139085296
 20
308.3776824701881
 30
0.0
 40
1.0
100
AcDbArc
 50
60.00000000000024
 51
90.0
  0
ARC
  5
289D
330
18
100
AcDbEntity
  8
1
  6
Continuous
100
AcDbCircle
 10
604.1746139085296
 20
314.3776824701881
 30
0.0
 40
2.0
100
AcDbArc
 50
0.000000000000007
 51
90.0
  0
LINE
  5
289E
330
18
100
AcDbEntity
  8
1
  6
Continuous
100
AcDbLine
 10
607.1746139085296
 20
308.3776824701881
 30
0.0
 11
607.1746139085296
 21
304.3776824701881
 31
0.0
  0
ARC
  5
289F
330
18
100
AcDbEntity
  8
1
  6
Continuous
100
AcDbCircle
 10
606.1746139085296
 20
304.3776824701881
 30
0.0
 40
1.0
100
AcDbArc
 50
270.0
 51
299.9999999999997
  0
ARC
  5
28A0
330
18
100
AcDbEntity
  8
1
  6
Continuous
100
AcDbCircle
 10
606.1746139085296
 20
304.3776824701881
 30
0.0
 40
1.0
100
AcDbArc
 50
299.9999999999997
 51
0.000000000000007
  0
ARC
  5
28A1
330
18
100
AcDbEntity
  8
1
  6
Continuous
100
AcDbCircle
 10
607.1746139085296
 20
302.6456314701882
 30
0.0
 40
1.0
100
AcDbArc
 50
119.9999999999997
 51
180.0
  0
ARC
  5
28A2
330
18
100
AcDbEntity
  8
1
  6
Continuous
100
AcDbCircle
 10
606.1746139085296
 20
308.3776824701881
 30
0.0
 40
1.0
100
AcDbArc
 50
0.000000000000007
 51
60.00000000000024
  0
ARC
  5
28A3
330
18
100
AcDbEntity
  8
1
  6
Continuous
100
AcDbCircle
 10
594.1746139085296
 20
310.3776824701881
 30
0.0
 40
1.0
100
AcDbArc
 50
180.0
 51
270.0
  0
ARC
  5
28A4
330
18
100
AcDbEntity
  8
1
  6
Continuous
100
AcDbCircle
 10
594.1746139085296
 20
302.3776824701881
 30
0.0
 40
1.0
100
AcDbArc
 50
90.0
 51
180.0
  0
LINE
  5
28A5
330
18
100
AcDbEntity
  8
1
  6
Continuous
100
AcDbLine
 10
548.4252539085296
 20
238.8017254701882
 30
0.0
 11
541.2009969085296
 21
282.8368644701881
 31
0.0
  0
ARC
  5
28AC
330
18
100
AcDbEntity
  8
1
  6
Continuous
100
AcDbCircle
 10
540.1746139085296
 20
310.3776824701881
 30
0.0
 40
1.0
100
AcDbArc
 50
270.0
 51
0.000000000000007
  0
ARC
  5
28AD
330
18
100
AcDbEntity
  8
1
  6
Continuous
100
AcDbCircle
 10
540.1746139085296
 20
302.3776824701881
 30
0.0
 40
1.0
100
AcDbArc
 50
0.000000000000007
 51
90.0
  0
ARC
  5
28AE
330
18
100
AcDbEntity
  8
1
  6
Continuous
100
AcDbCircle
 10
532.7099229085296
 20
279.7113254701881
 30
0.0
 40
11.987407
100
AcDbArc
 50
47.85165099999828
 51
72.83701299999875
  0
ARC
  5
28AF
330
18
100
AcDbEntity
  8
1
  6
Continuous
100
AcDbCircle
 10
441.1746139085296
 20
283.6005774701881
 30
0.0
 40
100.0
100
AcDbArc
 50
0.000000000000007
 51
2.464432000000711
  0
LINE
  5
28B0
330
18
100
AcDbEntity
  8
1
  6
Continuous
100
AcDbLine
 10
541.1746139085296
 20
314.3776824701881
 30
0.0
 11
541.1746139085296
 21
283.1606494701881
 31
0.0
  0
ARC
  5
28B1
330
18
100
AcDbEntity
  8
1
  6
Continuous
100
AcDbCircle
 10
543.1746139085296
 20
283.1606494701881
 30
0.0
 40
2.0
100
AcDbArc
 50
180.0
 51
189.3167589999998
  0
ARC
  5
28B2
330
18
100
AcDbEntity
  8
1
  6
Continuous
100
AcDbCircle
 10
540.0830489085296
 20
287.8574964701881
 30
0.0
 40
1.0
100
AcDbArc
 50
2.464432000000711
 51
47.85165099999828
  0
ARC
  5
28B3
330
18
100
AcDbEntity
  8
1
  6
Continuous
100
AcDbCircle
 10
543.1746139085296
 20
314.3776824701881
 30
0.0
 40
2.0
100
AcDbArc
 50
90.0
 51
180.0
  0
LINE
  5
28B4
330
18
100
AcDbEntity
  8
1
  6
Continuous
100
AcDbLine
 10
528.1746139085296
 20
302.6456314701882
 30
0.0
 11
528.1746139085296
 21
293.3776824701881
 31
0.0
  0
LINE
  5
28B5
330
18
100
AcDbEntity
  8
1
  6
Continuous
100
AcDbLine
 10
530.1746139085296
 20
291.3776824701881
 30
0.0
 11
534.8374139085295
 21
291.3776824701881
 31
0.0
  0
ARC
  5
28B6
330
18
100
AcDbEntity
  8
1
  6
Continuous
100
AcDbCircle
 10
534.8374139085295
 20
286.5998884701881
 30
0.0
 40
4.777794
100
AcDbArc
 50
72.83701299999875
 51
90.0
  0
ARC
  5
28B7
330
18
100
AcDbEntity
  8
1
  6
Continuous
100
AcDbCircle
 10
530.1746139085296
 20
293.3776824701881
 30
0.0
 40
2.0
100
AcDbArc
 50
180.0
 51
270.0
  0
LINE
  5
28B8
330
18
100
AcDbEntity
  8
1
  6
Continuous
100
AcDbLine
 10
540.1746139085296
 20
309.3776824701881
 30
0.0
 11
528.1746139085296
 21
309.3776824701881
 31
0.0
  0
LINE
  5
28B9
330
18
100
AcDbEntity
  8
1
  6
Continuous
100
AcDbLine
 10
540.1746139085296
 20
303.3776824701881
 30
0.0
 11
528.1746139085296
 21
303.3776824701881
 31
0.0
  0
LINE
  5
28BA
330
18
100
AcDbEntity
  8
1
  6
Continuous
100
AcDbLine
 10
528.1746139085296
 20
314.3776824701881
 30
0.0
 11
528.1746139085296
 21
310.1097334701881
 31
0.0
  0
ARC
  5
28BB
330
18
100
AcDbEntity
  8
1
  6
Continuous
100
AcDbCircle
 10
527.1746139085296
 20
310.1097334701881
 30
0.0
 40
1.0
100
AcDbArc
 50
299.9999999999997
 51
0.000000000000007
  0
ARC
  5
28BC
330
18
100
AcDbEntity
  8
1
  6
Continuous
100
AcDbCircle
 10
528.1746139085296
 20
308.3776824701881
 30
0.0
 40
1.0
100
AcDbArc
 50
90.0
 51
119.9999999999997
  0
ARC
  5
28BD
330
18
100
AcDbEntity
  8
1
  6
Continuous
100
AcDbCircle
 10
530.1746139085296
 20
314.3776824701881
 30
0.0
 40
2.0
100
AcDbArc
 50
90.0
 51
180.0
  0
LINE
  5
28BE
330
18
100
AcDbEntity
  8
1
  6
Continuous
100
AcDbLine
 10
527.1746139085296
 20
308.3776824701881
 30
0.0
 11
527.1746139085296
 21
304.3776824701881
 31
0.0
  0
ARC
  5
28BF
330
18
100
AcDbEntity
  8
1
  6
Continuous
100
AcDbCircle
 10
528.1746139085296
 20
304.3776824701881
 30
0.0
 40
1.0
100
AcDbArc
 50
240.0000000000003
 51
270.0
  0
ARC
  5
28C0
330
18
100
AcDbEntity
  8
1
  6
Continuous
100
AcDbCircle
 10
528.1746139085296
 20
304.3776824701881
 30
0.0
 40
1.0
100
AcDbArc
 50
180.0
 51
240.0000000000003
  0
ARC
  5
28C1
330
18
100
AcDbEntity
  8
1
  6
Continuous
100
AcDbCircle
 10
527.1746139085296
 20
302.6456314701882
 30
0.0
 40
1.0
100
AcDbArc
 50
0.000000000000007
 51
60.00000000000024
  0
ARC
  5
28C2
330
18
100
AcDbEntity
  8
1
  6
Continuous
100
AcDbCircle
 10
528.1746139085296
 20
308.3776824701881
 30
0.0
 40
1.0
100
AcDbArc
 50
119.9999999999997
 51
180.0
  0
ARC
  5
28C5
330
18
100
AcDbEntity
  8
1
  6
Continuous
100
AcDbCircle
 10
573.4246139085296
 20
330.2286654701882
 30
0.0
 40
2.2
100
AcDbArc
 50
270.0
 51
337.2438190000011
  0
ARC
  5
28C6
330
18
100
AcDbEntity
  8
1
  6
Continuous
100
AcDbCircle
 10
575.6246139085297
 20
332.1776824701881
 30
0.0
 40
2.2
100
AcDbArc
 50
90.0
 51
180.0997249999992
  0
LINE
  5
28C7
330
18
100
AcDbEntity
  8
1
  6
Continuous
100
AcDbLine
 10
559.3958599085294
 20
320.6090714701882
 30
0.0
 11
574.9533639085297
 21
320.6090714701882
 31
0.0
  0
ARC
  5
28C8
330
18
100
AcDbEntity
  8
1
  6
Continuous
100
AcDbCircle
 10
609.1746139085296
 20
326.3776824701881
 30
0.0
 40
3.0
100
AcDbArc
 50
90.0
 51
180.0
  0
LINE
  5
28C9
330
18
100
AcDbEntity
  8
1
  6
Continuous
100
AcDbLine
 10
575.4533669085295
 20
329.3776824701881
 30
0.0
 11
617.1746139085296
 21
329.3776824701881
 31
0.0
  0
LINE
  5
28CA
330
18
100
AcDbEntity
  8
1
  6
Continuous
100
AcDbLine
 10
617.1746139085296
 20
334.3776824701881
 30
0.0
 11
575.6246139085297
 21
334.3776824701881
 31
0.0
  0
LINE
  5
28CB
330
18
100
AcDbEntity
  8
1
  6
Continuous
100
AcDbLine
 10
617.1746139085296
 20
328.0286654701881
 30
0.0
 11
606.1746139085296
 21
320.6090714701882
 31
0.0
  0
LINE
  5
28CC
330
18
100
AcDbEntity
  8
1
  6
Continuous
100
AcDbLine
 10
617.1746139085296
 20
334.3776824701881
 30
0.0
 11
617.1746139085296
 21
328.0286654701881
 31
0.0
  0
LINE
  5
28CD
330
18
100
AcDbEntity
  8
4
  6
CENTER
 48
0.2
100
AcDbLine
 10
606.1746139085296
 20
338.3776824701882
 30
0.0
 11
606.1746139085296
 21
325.3776824701881
 31
0.0
  0
LINE
  5
28CE
330
18
100
AcDbEntity
  8
1
  6
Continuous
100
AcDbLine
 10
606.1746139085296
 20
320.3776824701881
 30
0.0
 11
606.1746139085296
 21
326.3776824701881
 31
0.0
  0
LINE
  5
28CF
330
18
100
AcDbEntity
  8
1
  6
Continuous
100
AcDbLine
 10
575.4533639085297
 20
328.5876884701881
 30
0.0
 11
575.4533639085297
 21
322.1090714701881
 31
0.0
  0
ARC
  5
28D0
330
18
100
AcDbEntity
  8
1
  6
Continuous
100
AcDbCircle
 10
576.4533639085295
 20
321.6090714701882
 30
0.0
 40
1.0
100
AcDbArc
 50
180.0
 51
270.0
  0
LINE
  5
28D1
330
18
100
AcDbEntity
  8
1
  6
Continuous
100
AcDbLine
 10
558.8958599085295
 20
329.3776824701881
 30
0.0
 11
517.1746139085296
 21
329.3776824701881
 31
0.0
  0
LINE
  5
28D2
330
18
100
AcDbEntity
  8
1
  6
Continuous
100
AcDbLine
 10
558.7246139085294
 20
334.3776824701881
 30
0.0
 11
517.1746139085296
 21
334.3776824701881
 31
0.0
  0
ARC
  5
28D3
330
18
100
AcDbEntity
  8
1
  6
Continuous
100
AcDbCircle
 10
558.7246139085294
 20
332.1776824701881
 30
0.0
 40
2.2
100
AcDbArc
 50
359.9002750000007
 51
90.0
  0
ARC
  5
28D4
330
18
100
AcDbEntity
  8
1
  6
Continuous
100
AcDbCircle
 10
577.4246139085296
 20
305.0084544701882
 30
0.0
 40
28.869234
100
AcDbArc
 50
96.78646000000231
 51
109.783055
  0
ARC
  5
28D5
330
18
100
AcDbEntity
  8
1
  6
Continuous
100
AcDbCircle
 10
556.9246139085296
 20
305.0084544701882
 30
0.0
 40
28.869234
100
AcDbArc
 50
70.21694499999997
 51
83.2135399999977
  0
LINE
  5
28D6
330
18
100
AcDbEntity
  8
1
  6
Continuous
100
AcDbLine
 10
573.4246169085293
 20
332.1738534701882
 30
0.0
 11
560.9246099085296
 21
332.1738534701882
 31
0.0
  0
LINE
  5
28D7
330
18
100
AcDbEntity
  8
1
  6
Continuous
100
AcDbLine
 10
573.4246139085296
 20
328.0286654701881
 30
0.0
 11
560.9246139085296
 21
328.0286654701881
 31
0.0
  0
ARC
  5
28D8
330
18
100
AcDbEntity
  8
1
  6
Continuous
100
AcDbCircle
 10
575.6246139085297
 20
332.1776824701881
 30
0.0
 40
2.2
100
AcDbArc
 50
180.0
 51
180.0997249999992
  0
ARC
  5
28D9
330
18
100
AcDbEntity
  8
1
  6
Continuous
100
AcDbCircle
 10
560.9246099085296
 20
330.2286654701882
 30
0.0
 40
2.2
100
AcDbArc
 50
202.7561809999988
 51
270.0
  0
LINE
  5
28DA
330
18
100
AcDbEntity
  8
1
  6
Continuous
100
AcDbLine
 10
558.8958599085295
 20
328.5876884701881
 30
0.0
 11
558.8958599085295
 21
322.1090714701881
 31
0.0
  0
ARC
  5
28DB
330
18
100
AcDbEntity
  8
1
  6
Continuous
100
AcDbCircle
 10
557.8958599085295
 20
321.6090714701882
 30
0.0
 40
1.0
100
AcDbArc
 50
270.0
 51
0.000000000000007
  0
LINE
  5
28DC
330
18
100
AcDbEntity
  8
1
  6
Continuous
100
AcDbLine
 10
574.2281979085296
 20
333.8776894701882
 30
0.0
 11
560.1210289085296
 21
333.8776894701882
 31
0.0
  0
LINE
  5
28DD
330
18
100
AcDbEntity
  8
1
  6
Continuous
100
AcDbLine
 10
517.1746139085296
 20
328.0286654701881
 30
0.0
 11
528.1746139085296
 21
320.6090714701882
 31
0.0
  0
LINE
  5
28DE
330
18
100
AcDbEntity
  8
4
  6
CENTER
 48
0.2
100
AcDbLine
 10
528.1746139085296
 20
338.3776824701882
 30
0.0
 11
528.1746139085296
 21
325.3776824701881
 31
0.0
  0
ARC
  5
28DF
330
18
100
AcDbEntity
  8
1
  6
Continuous
100
AcDbCircle
 10
525.1746139085296
 20
326.3776824701881
 30
0.0
 40
3.0
100
AcDbArc
 50
0.000000000000007
 51
90.0
  0
LINE
  5
28E0
330
18
100
AcDbEntity
  8
1
  6
Continuous
100
AcDbLine
 10
528.1746139085296
 20
320.3776824701881
 30
0.0
 11
528.1746139085296
 21
326.3776824701881
 31
0.0
  0
LINE
  5
28E1
330
18
100
AcDbEntity
  8
1
  6
Continuous
100
AcDbLine
 10
517.1746139085296
 20
334.3776824701881
 30
0.0
 11
517.1746139085296
 21
328.0286654701881
 31
0.0
  0
LINE
  5
297C
330
18
100
AcDbEntity
  8
1
  6
Continuous
100
AcDbLine
 10
51.8765103825142
 20
329.3776894701882
 30
0.0
 11
10.15526438251424
 21
329.3776894701882
 31
0.0
  0
LINE
  5
297D
330
18
100
AcDbEntity
  8
1
  6
Continuous
100
AcDbLine
 10
51.70526438251432
 20
334.3776894701881
 30
0.0
 11
10.15526438251424
 21
334.3776894701881
 31
0.0
  0
ARC
  5
297E
330
18
100
AcDbEntity
  8
1
  6
Continuous
100
AcDbCircle
 10
34.25546438251422
 20
304.6145824701881
 30
0.0
 40
1.2369
100
AcDbArc
 50
180.0
 51
270.0
  0
ARC
  5
297F
330
18
100
AcDbEntity
  8
1
  6
Continuous
100
AcDbCircle
 10
34.25546438251422
 20
308.1407824701881
 30
0.0
 40
1.2369
100
AcDbArc
 50
90.0
 51
180.0
  0
LINE
  5
2980
330
18
100
AcDbEntity
  8
1
  6
Continuous
100
AcDbLine
 10
34.00526438251427
 20
282.9976824701881
 30
0.0
 11
22.70526438251431
 21
282.9976824701881
 31
0.0
  0
ARC
  5
2981
330
18
100
AcDbEntity
  8
1
  6
Continuous
100
AcDbCircle
 10
44.00526438251428
 20
281.3776824701881
 30
0.0
 40
10.0
100
AcDbArc
 50
90.0
 51
180.0
  0
LINE
  5
2982
330
18
100
AcDbEntity
  8
1
  6
Continuous
100
AcDbLine
 10
22.68312838251426
 20
316.3776894701882
 30
0.0
 11
97.62740038251422
 21
316.3776894701882
 31
0.0
  0
ARC
  5
2983
330
18
100
AcDbEntity
  8
1
  6
Continuous
100
AcDbCircle
 10
32.00526438251427
 20
224.8776824701881
 30
0.0
 40
2.0
100
AcDbArc
 50
270.0
 51
0.000000000000007
  0
LINE
  5
2984
330
18
100
AcDbEntity
  8
4
  6
CENTER
 48
0.7
100
AcDbLine
 10
105.6052643825142
 20
241.8776824701882
 30
0.0
 11
14.70526438251431
 21
241.8776824701881
 31
0.0
  0
ARC
  5
2987
330
18
100
AcDbEntity
  8
1
  6
Continuous
100
AcDbCircle
 10
93.15526438251422
 20
320.3776894701882
 30
0.0
 40
6.0
100
AcDbArc
 50
318.1896850000004
 51
0.000000000000007
  0
LINE
  5
2988
330
18
100
AcDbEntity
  8
4
  6
CENTER
 48
0.7
100
AcDbLine
 10
60.15526438251413
 20
196.3776824701882
 30
0.0
 11
60.15526438251423
 21
341.8776894701882
 31
0.0
  0
LINE
  5
2989
330
18
100
AcDbEntity
  8
1
  6
Continuous
100
AcDbLine
 10
36.15521538251425
 20
273.1539484701881
 30
0.0
 11
36.15521538251425
 21
210.6014154701881
 31
0.0
  0
LINE
  5
298A
330
18
100
AcDbEntity
  8
1
  6
Continuous
100
AcDbLine
 10
34.50521538251428
 20
225.0608974701881
 30
0.0
 11
34.50521538251428
 21
258.6944664701881
 31
0.0
  0
LINE
  5
298B
330
18
100
AcDbEntity
  8
1
  6
Continuous
100
AcDbLine
 10
60.15521538251426
 20
230.3776824701882
 30
0.0
 11
60.15521538251426
 21
253.3776824701881
 31
0.0
  0
LINE
  5
298C
330
18
100
AcDbEntity
  8
1
  6
Continuous
100
AcDbLine
 10
84.15521538251423
 20
273.1539484701881
 30
0.0
 11
84.15521538251423
 21
210.6014154701881
 31
0.0
  0
LINE
  5
298D
330
18
100
AcDbEntity
  8
1
  6
Continuous
100
AcDbLine
 10
85.80521538251423
 20
225.0608974701881
 30
0.0
 11
85.80521538251423
 21
258.6944664701881
 31
0.0
  0
LINE
  5
298E
330
18
100
AcDbEntity
  8
1
  6
Continuous
100
AcDbLine
 10
60.65521538251426
 20
275.8789074701881
 30
0.0
 11
60.65521538251426
 21
207.8764564701881
 31
0.0
  0
LINE
  5
298F
330
18
100
AcDbEntity
  8
1
  6
Continuous
100
AcDbLine
 10
59.65521538251426
 20
275.8789074701881
 30
0.0
 11
59.65521538251426
 21
207.8764564701881
 31
0.0
  0
LINE
  5
2990
330
18
100
AcDbEntity
  8
1
  6
Continuous
100
AcDbLine
 10
97.60526438251432
 20
314.3776824701881
 30
0.0
 11
97.60526438251432
 21
224.8776824701881
 31
0.0
  0
LINE
  5
2991
330
18
100
AcDbEntity
  8
1
  6
Continuous
100
AcDbLine
 10
86.3052643825142
 20
281.3776824701881
 30
0.0
 11
86.3052643825142
 21
224.8776824701881
 31
0.0
  0
LINE
  5
2992
330
18
100
AcDbEntity
  8
1
  6
Continuous
100
AcDbLine
 10
34.00526438251427
 20
281.3776824701881
 30
0.0
 11
34.00526438251427
 21
224.8776824701881
 31
0.0
  0
ARC
  5
2993
330
18
100
AcDbEntity
  8
1
  6
Continuous
100
AcDbCircle
 10
72.40521538251424
 20
284.3776824701881
 30
0.0
 40
80.0
100
AcDbArc
 50
263.4750210000004
 51
274.4565289999993
  0
ARC
  5
2994
330
18
100
AcDbEntity
  8
1
  6
Continuous
100
AcDbCircle
 10
78.15521538251427
 20
210.6014154701881
 30
0.0
 40
6.0
100
AcDbArc
 50
274.4565289999993
 51
0.000000000000007
  0
LINE
  5
2995
330
18
100
AcDbEntity
  8
1
  6
Continuous
100
AcDbLine
 10
95.60526438251429
 20
222.8776824701881
 30
0.0
 11
88.30526438251423
 21
222.8776824701881
 31
0.0
  0
ARC
  5
2996
330
18
100
AcDbEntity
  8
1
  6
Continuous
100
AcDbCircle
 10
95.60526438251429
 20
224.8776824701881
 30
0.0
 40
2.0
100
AcDbArc
 50
270.0
 51
0.000000000000007
  0
LINE
  5
2997
330
18
100
AcDbEntity
  8
1
  6
Continuous
100
AcDbLine
 10
86.3052643825142
 20
234.4026824701882
 30
0.0
 11
85.80521538251423
 21
234.4026824701882
 31
0.0
  0
ARC
  5
2998
330
18
100
AcDbEntity
  8
1
  6
Continuous
100
AcDbCircle
 10
85.60521538251419
 20
225.0608974701881
 30
0.0
 40
0.2
100
AcDbArc
 50
279.5941419999997
 51
0.000000000000007
  0
ARC
  5
2999
330
18
100
AcDbEntity
  8
1
  6
Continuous
100
AcDbCircle
 10
85.80521738251425
 20
223.8776824701881
 30
0.0
 40
1.0
100
AcDbArc
 50
99.59414199999978
 51
167.5520550000006
  0
ARC
  5
299A
330
18
100
AcDbEntity
  8
1
  6
Continuous
100
AcDbCircle
 10
83.20521538251432
 20
221.3776824701881
 30
0.0
 40
1.0
100
AcDbArc
 50
341.8051279999994
 51
347.5520550000006
  0
LINE
  5
299B
330
18
100
AcDbEntity
  8
1
  6
Continuous
100
AcDbLine
 10
84.82872438251424
 20
224.0932344701881
 30
0.0
 11
84.18170738251422
 21
221.1621294701881
 31
0.0
  0
ARC
  5
299C
330
18
100
AcDbEntity
  8
1
  6
Continuous
100
AcDbCircle
 10
88.30526438251423
 20
224.8776824701881
 30
0.0
 40
2.0
100
AcDbArc
 50
180.0
 51
270.0
  0
LINE
  5
299D
330
18
100
AcDbEntity
  8
1
  6
Continuous
100
AcDbLine
 10
86.3052643825142
 20
249.3526824701882
 30
0.0
 11
85.80521538251423
 21
249.3526824701882
 31
0.0
  0
ARC
  5
299E
330
18
100
AcDbEntity
  8
1
  6
Continuous
100
AcDbCircle
 10
47.90521538251424
 20
284.3776824701881
 30
0.0
 40
80.0
100
AcDbArc
 50
265.5434710000006
 51
276.5249789999995
  0
ARC
  5
299F
330
18
100
AcDbEntity
  8
1
  6
Continuous
100
AcDbCircle
 10
56.65521538251425
 20
207.8764564701881
 30
0.0
 40
3.0
100
AcDbArc
 50
276.5249789999995
 51
0.000000000000007
  0
ARC
  5
29A0
330
18
100
AcDbEntity
  8
1
  6
Continuous
100
AcDbCircle
 10
63.65521538251424
 20
207.8764564701881
 30
0.0
 40
3.0
100
AcDbArc
 50
180.0
 51
263.4750210000004
  0
ARC
  5
29A1
330
18
100
AcDbEntity
  8
1
  6
Continuous
100
AcDbCircle
 10
42.15521538251425
 20
210.6014154701881
 30
0.0
 40
6.0
100
AcDbArc
 50
180.0
 51
265.5434710000006
  0
LINE
  5
29A2
330
18
100
AcDbEntity
  8
1
  6
Continuous
100
AcDbLine
 10
60.65521538251426
 20
229.8776824701881
 30
0.0
 11
60.15521538251426
 21
230.3776824701881
 31
0.0
  0
LINE
  5
29A3
330
18
100
AcDbEntity
  8
1
  6
Continuous
100
AcDbLine
 10
59.65521538251426
 20
229.8776824701881
 30
0.0
 11
60.15521538251426
 21
230.3776824701881
 31
0.0
  0
LINE
  5
29A4
330
18
100
AcDbEntity
  8
1
  6
Continuous
100
AcDbLine
 10
34.00526438251427
 20
234.4026824701882
 30
0.0
 11
34.50531238251426
 21
234.4026824701882
 31
0.0
  0
ARC
  5
29A5
330
18
100
AcDbEntity
  8
1
  6
Continuous
100
AcDbCircle
 10
34.50521438251428
 20
223.8776824701881
 30
0.0
 40
1.0
100
AcDbArc
 50
12.44794499999935
 51
80.40585800000025
  0
ARC
  5
29A6
330
18
100
AcDbEntity
  8
1
  6
Continuous
100
AcDbCircle
 10
34.70521538251432
 20
225.0608974701881
 30
0.0
 40
0.2
100
AcDbArc
 50
180.0
 51
260.4058580000002
  0
ARC
  5
29A7
330
18
100
AcDbEntity
  8
1
  6
Continuous
100
AcDbCircle
 10
37.10521538251418
 20
221.3776824701881
 30
0.0
 40
1.0
100
AcDbArc
 50
192.4479449999993
 51
198.1948720000006
  0
LINE
  5
29A8
330
18
100
AcDbEntity
  8
1
  6
Continuous
100
AcDbLine
 10
35.48170638251429
 20
224.0932344701881
 30
0.0
 11
36.12872338251418
 21
221.1621294701881
 31
0.0
  0
LINE
  5
29A9
330
18
100
AcDbEntity
  8
1
  6
Continuous
100
AcDbLine
 10
34.00526438251427
 20
249.3526824701882
 30
0.0
 11
34.50531238251426
 21
249.3526824701882
 31
0.0
  0
ARC
  5
29AA
330
18
100
AcDbEntity
  8
1
  6
Continuous
100
AcDbCircle
 10
72.40521538251424
 20
199.3776824701881
 30
0.0
 40
80.0
100
AcDbArc
 50
85.54347100000073
 51
96.5249789999995
  0
LINE
  5
29AB
330
18
100
AcDbEntity
  8
1
  6
Continuous
100
AcDbLine
 10
86.05506438251429
 20
309.3776824701881
 30
0.0
 11
34.25546438251422
 21
309.3776824701881
 31
0.0
  0
LINE
  5
29AC
330
18
100
AcDbEntity
  8
1
  6
Continuous
100
AcDbLine
 10
86.05506438251429
 20
303.3776824701881
 30
0.0
 11
34.25546438251422
 21
303.3776824701881
 31
0.0
  0
LINE
  5
29AD
330
18
100
AcDbEntity
  8
1
  6
Continuous
100
AcDbLine
 10
76.30526438251422
 20
291.3776824701881
 30
0.0
 11
44.00526438251428
 21
291.3776824701881
 31
0.0
  0
ARC
  5
29AE
330
18
100
AcDbEntity
  8
1
  6
Continuous
100
AcDbCircle
 10
76.30526438251422
 20
281.3776824701881
 30
0.0
 40
10.0
100
AcDbArc
 50
0.000000000000007
 51
90.0
  0
ARC
  5
29AF
330
18
100
AcDbEntity
  8
1
  6
Continuous
100
AcDbCircle
 10
78.15521538251427
 20
273.1539484701881
 30
0.0
 40
6.0
100
AcDbArc
 50
0.000000000000007
 51
85.54347100000073
  0
LINE
  5
29B0
330
18
100
AcDbEntity
  8
1
  6
Continuous
100
AcDbLine
 10
84.82872438251424
 20
259.6621294701881
 30
0.0
 11
84.18170738251422
 21
262.5932344701881
 31
0.0
  0
ARC
  5
29B1
330
18
100
AcDbEntity
  8
1
  6
Continuous
100
AcDbCircle
 10
85.60521538251419
 20
258.6944664701881
 30
0.0
 40
0.2
100
AcDbArc
 50
0.000000000000007
 51
80.40585800000025
  0
ARC
  5
29B2
330
18
100
AcDbEntity
  8
1
  6
Continuous
100
AcDbCircle
 10
85.80521738251425
 20
259.8776824701881
 30
0.0
 40
1.0
100
AcDbArc
 50
192.4479449999993
 51
260.4058580000002
  0
ARC
  5
29B3
330
18
100
AcDbEntity
  8
1
  6
Continuous
100
AcDbCircle
 10
83.20521538251432
 20
262.3776824701881
 30
0.0
 40
1.0
100
AcDbArc
 50
12.44794499999935
 51
18.19487200000065
  0
LINE
  5
29B4
330
18
100
AcDbEntity
  8
1
  6
Continuous
100
AcDbLine
 10
97.60526438251432
 20
282.9976824701881
 30
0.0
 11
86.3052643825142
 21
282.9976824701881
 31
0.0
  0
LINE
  5
29B5
330
18
100
AcDbEntity
  8
1
  6
Continuous
100
AcDbLine
 10
86.05506438251429
 20
303.3776824701881
 30
0.0
 11
86.05506438251429
 21
291.3776824701881
 31
0.0
  0
ARC
  5
29B6
330
18
100
AcDbEntity
  8
1
  6
Continuous
100
AcDbCircle
 10
95.60526438251429
 20
314.3776824701881
 30
0.0
 40
2.0
100
AcDbArc
 50
0.000000000000007
 51
90.0
  0
LINE
  5
29B7
330
18
100
AcDbEntity
  8
1
  6
Continuous
100
AcDbLine
 10
86.05506438251429
 20
309.3776824701881
 30
0.0
 11
86.05506438251429
 21
314.3776824701881
 31
0.0
  0
LINE
  5
29B8
330
18
100
AcDbEntity
  8
1
  6
Continuous
100
AcDbLine
 10
87.29196438251426
 20
308.1407824701881
 30
0.0
 11
87.29196438251426
 21
304.6145824701881
 31
0.0
  0
ARC
  5
29B9
330
18
100
AcDbEntity
  8
1
  6
Continuous
100
AcDbCircle
 10
86.05506438251429
 20
304.6145824701881
 30
0.0
 40
1.2369
100
AcDbArc
 50
270.0
 51
0.000000000000007
  0
ARC
  5
29BA
330
18
100
AcDbEntity
  8
1
  6
Continuous
100
AcDbCircle
 10
86.05506438251429
 20
308.1407824701881
 30
0.0
 40
1.2369
100
AcDbArc
 50
0.000000000000007
 51
90.0
  0
ARC
  5
29BB
330
18
100
AcDbEntity
  8
1
  6
Continuous
100
AcDbCircle
 10
47.90521538251424
 20
199.3776824701881
 30
0.0
 40
80.0
100
AcDbArc
 50
83.47502100000051
 51
94.45652899999927
  0
LINE
  5
29BC
330
18
100
AcDbEntity
  8
1
  6
Continuous
100
AcDbLine
 10
60.65521538251426
 20
253.8776824701881
 30
0.0
 11
60.15521538251426
 21
253.3776824701881
 31
0.0
  0
LINE
  5
29BD
330
18
100
AcDbEntity
  8
1
  6
Continuous
100
AcDbLine
 10
59.65521538251426
 20
253.8776824701881
 30
0.0
 11
60.15521538251426
 21
253.3776824701881
 31
0.0
  0
ARC
  5
29BE
330
18
100
AcDbEntity
  8
1
  6
Continuous
100
AcDbCircle
 10
56.65521538251425
 20
275.8789074701881
 30
0.0
 40
3.0
100
AcDbArc
 50
0.000000000000007
 51
83.47502100000051
  0
ARC
  5
29BF
330
18
100
AcDbEntity
  8
1
  6
Continuous
100
AcDbCircle
 10
63.65521538251424
 20
275.8789074701881
 30
0.0
 40
3.0
100
AcDbArc
 50
96.5249789999995
 51
180.0
  0
LINE
  5
29C0
330
18
100
AcDbEntity
  8
1
  6
Continuous
100
AcDbLine
 10
35.48170638251429
 20
259.6621294701881
 30
0.0
 11
36.12872338251418
 21
262.5932344701881
 31
0.0
  0
ARC
  5
29C1
330
18
100
AcDbEntity
  8
1
  6
Continuous
100
AcDbCircle
 10
34.50521438251428
 20
259.8776824701881
 30
0.0
 40
1.0
100
AcDbArc
 50
279.5941419999997
 51
347.5520550000006
  0
ARC
  5
29C2
330
18
100
AcDbEntity
  8
1
  6
Continuous
100
AcDbCircle
 10
34.70521538251432
 20
258.6944664701881
 30
0.0
 40
0.2
100
AcDbArc
 50
99.59414199999978
 51
180.0
  0
ARC
  5
29C3
330
18
100
AcDbEntity
  8
1
  6
Continuous
100
AcDbCircle
 10
37.10521538251418
 20
262.3776824701881
 30
0.0
 40
1.0
100
AcDbArc
 50
161.8051279999993
 51
167.5520550000006
  0
ARC
  5
29C4
330
18
100
AcDbEntity
  8
1
  6
Continuous
100
AcDbCircle
 10
42.15521538251425
 20
273.1539484701881
 30
0.0
 40
6.0
100
AcDbArc
 50
94.45652899999927
 51
180.0
  0
LINE
  5
29C5
330
18
100
AcDbEntity
  8
1
  6
Continuous
100
AcDbLine
 10
34.25546438251422
 20
303.3776824701881
 30
0.0
 11
34.25546438251422
 21
291.3776824701881
 31
0.0
  0
LINE
  5
29C6
330
18
100
AcDbEntity
  8
1
  6
Continuous
100
AcDbLine
 10
34.25546438251422
 20
309.3776824701881
 30
0.0
 11
34.25546438251422
 21
314.3776824701881
 31
0.0
  0
ARC
  5
29C7
330
18
100
AcDbEntity
  8
1
  6
Continuous
100
AcDbCircle
 10
102.1552643825142
 20
326.3776894701881
 30
0.0
 40
3.0
100
AcDbArc
 50
90.0
 51
180.0
  0
LINE
  5
29C8
330
18
100
AcDbEntity
  8
1
  6
Continuous
100
AcDbLine
 10
68.43401738251419
 20
329.3776894701882
 30
0.0
 11
110.1552643825142
 21
329.3776894701882
 31
0.0
  0
LINE
  5
29C9
330
18
100
AcDbEntity
  8
1
  6
Continuous
100
AcDbLine
 10
110.1552643825142
 20
334.3776894701881
 30
0.0
 11
68.60526438251429
 21
334.3776894701881
 31
0.0
  0
LINE
  5
29CA
330
18
100
AcDbEntity
  8
1
  6
Continuous
100
AcDbLine
 10
110.1552643825142
 20
328.0286714701881
 30
0.0
 11
99.15526438251426
 21
320.6090784701881
 31
0.0
  0
LINE
  5
29CB
330
18
100
AcDbEntity
  8
1
  6
Continuous
100
AcDbLine
 10
110.1552643825142
 20
334.3776894701881
 30
0.0
 11
110.1552643825142
 21
328.0286714701881
 31
0.0
  0
LINE
  5
29CC
330
18
100
AcDbEntity
  8
1
  6
Continuous
100
AcDbLine
 10
53.10168838689118
 20
333.8776894701882
 30
0.0
 11
67.20884038251425
 21
333.8776894701882
 31
0.0
  0
ARC
  5
29CD
330
18
100
AcDbEntity
  8
1
  6
Continuous
100
AcDbCircle
 10
66.40526438251423
 20
330.2286714701882
 30
0.0
 40
2.2
100
AcDbArc
 50
270.0
 51
337.2438190000011
  0
ARC
  5
29CE
330
18
100
AcDbEntity
  8
1
  6
Continuous
100
AcDbCircle
 10
68.60526438251429
 20
332.1776894701881
 30
0.0
 40
2.2
100
AcDbArc
 50
90.0
 51
180.0997249999992
  0
LINE
  5
29CF
330
18
100
AcDbEntity
  8
1
  6
Continuous
100
AcDbLine
 10
52.3765103825142
 20
320.6090784701881
 30
0.0
 11
67.93401438251429
 21
320.6090784701881
 31
0.0
  0
LINE
  5
29D0
330
18
100
AcDbEntity
  8
4
  6
CENTER
 48
0.2
100
AcDbLine
 10
99.15526438251426
 20
338.3776894701882
 30
0.0
 11
99.15526438251426
 21
325.3776894701882
 31
0.0
  0
LINE
  5
29D1
330
18
100
AcDbEntity
  8
1
  6
Continuous
100
AcDbLine
 10
99.15526438251426
 20
320.3776894701882
 30
0.0
 11
99.15526438251426
 21
326.3776894701881
 31
0.0
  0
LINE
  5
29D2
330
18
100
AcDbEntity
  8
1
  6
Continuous
100
AcDbLine
 10
68.43401438251429
 20
328.5876944701882
 30
0.0
 11
68.43401438251429
 21
322.1090784701881
 31
0.0
  0
ARC
  5
29D3
330
18
100
AcDbEntity
  8
1
  6
Continuous
100
AcDbCircle
 10
69.43401438251432
 20
321.6090784701882
 30
0.0
 40
1.0
100
AcDbArc
 50
180.0
 51
270.0
  0
ARC
  5
29D4
330
18
100
AcDbEntity
  8
1
  6
Continuous
100
AcDbCircle
 10
51.70526438251432
 20
332.1776894701881
 30
0.0
 40
2.2
100
AcDbArc
 50
359.9002750000007
 51
90.0
  0
ARC
  5
29D5
330
18
100
AcDbEntity
  8
1
  6
Continuous
100
AcDbCircle
 10
60.15526438251423
 20
295.6990544701881
 30
0.0
 40
38.17863499999999
100
AcDbArc
 50
80.10102099999734
 51
99.89897900000269
  0
LINE
  5
29D6
330
18
100
AcDbEntity
  8
1
  6
Continuous
100
AcDbLine
 10
66.40526738251423
 20
332.1738594701881
 30
0.0
 11
53.90526038251426
 21
332.1738594701881
 31
0.0
  0
LINE
  5
29D7
330
18
100
AcDbEntity
  8
1
  6
Continuous
100
AcDbLine
 10
66.40526438251423
 20
328.0286714701881
 30
0.0
 11
53.90526438251423
 21
328.0286714701881
 31
0.0
  0
ARC
  5
29D8
330
18
100
AcDbEntity
  8
1
  6
Continuous
100
AcDbCircle
 10
68.60526438251429
 20
332.1776894701881
 30
0.0
 40
2.2
100
AcDbArc
 50
180.0
 51
180.0997249999992
  0
ARC
  5
29D9
330
18
100
AcDbEntity
  8
1
  6
Continuous
100
AcDbCircle
 10
53.90526038251426
 20
330.2286714701882
 30
0.0
 40
2.2
100
AcDbArc
 50
202.7561809999988
 51
270.0
  0
LINE
  5
29DA
330
18
100
AcDbEntity
  8
1
  6
Continuous
100
AcDbLine
 10
51.8765103825142
 20
328.5876944701882
 30
0.0
 11
51.8765103825142
 21
322.1090784701881
 31
0.0
  0
ARC
  5
29DB
330
18
100
AcDbEntity
  8
1
  6
Continuous
100
AcDbCircle
 10
50.87651038251419
 20
321.6090784701882
 30
0.0
 40
1.0
100
AcDbArc
 50
270.0
 51
0.000000000000007
  0
ARC
  5
29DC
330
18
100
AcDbEntity
  8
1
  6
Continuous
100
AcDbCircle
 10
27.15526438251425
 20
320.3776894701882
 30
0.0
 40
6.0
100
AcDbArc
 50
180.0
 51
221.8103149999995
  0
LINE
  5
29DD
330
18
100
AcDbEntity
  8
1
  6
Continuous
100
AcDbLine
 10
22.70526438251431
 20
314.3776824701881
 30
0.0
 11
22.70526438251431
 21
224.8776824701881
 31
0.0
  0
LINE
  5
29DE
330
18
100
AcDbEntity
  8
1
  6
Continuous
100
AcDbLine
 10
32.00526438251427
 20
222.8776824701881
 30
0.0
 11
24.70526438251431
 21
222.8776824701881
 31
0.0
  0
ARC
  5
29DF
330
18
100
AcDbEntity
  8
1
  6
Continuous
100
AcDbCircle
 10
24.70526438251431
 20
224.8776824701881
 30
0.0
 40
2.0
100
AcDbArc
 50
180.0
 51
270.0
  0
LINE
  5
29E0
330
18
100
AcDbEntity
  8
1
  6
Continuous
100
AcDbLine
 10
33.01856438251423
 20
308.1407824701881
 30
0.0
 11
33.01856438251423
 21
304.6145824701881
 31
0.0
  0
ARC
  5
29E1
330
18
100
AcDbEntity
  8
1
  6
Continuous
100
AcDbCircle
 10
24.70526438251431
 20
314.3776824701881
 30
0.0
 40
2.0
100
AcDbArc
 50
90.0
 51
180.0
  0
LINE
  5
29E3
330
18
100
AcDbEntity
  8
1
  6
Continuous
100
AcDbLine
 10
10.15526438251424
 20
328.0286714701881
 30
0.0
 11
21.15526438251424
 21
320.6090784701881
 31
0.0
  0
LINE
  5
29E4
330
18
100
AcDbEntity
  8
4
  6
CENTER
 48
0.2
100
AcDbLine
 10
21.15526438251424
 20
338.3776894701882
 30
0.0
 11
21.15526438251424
 21
325.3776894701882
 31
0.0
  0
ARC
  5
29E5
330
18
100
AcDbEntity
  8
1
  6
Continuous
100
AcDbCircle
 10
18.15526438251424
 20
326.3776894701881
 30
0.0
 40
3.0
100
AcDbArc
 50
0.000000000000007
 51
90.0
  0
LINE
  5
29E6
330
18
100
AcDbEntity
  8
1
  6
Continuous
100
AcDbLine
 10
21.15526438251424
 20
320.3776894701882
 30
0.0
 11
21.15526438251424
 21
326.3776894701881
 31
0.0
  0
LINE
  5
29E7
330
18
100
AcDbEntity
  8
1
  6
Continuous
100
AcDbLine
 10
10.15526438251424
 20
334.3776894701881
 30
0.0
 11
10.15526438251424
 21
328.0286714701881
 31
0.0
  0
CIRCLE
  5
2AB1
330
18
100
AcDbEntity
  8
1
  6
Continuous
100
AcDbCircle
 10
567.1746139085296
 20
241.8776824701881
 30
0.0
 40
5.0
  0
LINE
  5
2BF8
330
18
100
AcDbEntity
  8
4
  6
CENTER
 48
0.7
100
AcDbLine
 10
229.1617142245195
 20
144.0935343781902
 30
0.0
 11
229.1617142245195
 21
28.09353437819027
 31
0.0
  0
LINE
  5
2BFD
330
18
100
AcDbEntity
  8
1
  6
Continuous
100
AcDbLine
 10
179.1617142245195
 20
47.09353437819027
 30
0.0
 11
179.1617142245195
 21
125.0935343781902
 31
0.0
  0
LINE
  5
2C00
330
18
100
AcDbEntity
  8
1
  6
Continuous
100
AcDbLine
 10
279.1617142245195
 20
125.0935343781902
 30
0.0
 11
279.1617142245195
 21
47.09353437819027
 31
0.0
  0
LINE
  5
2C06
330
18
100
AcDbEntity
  8
1
  6
Continuous
100
AcDbLine
 10
190.1617142245195
 20
136.0935343781902
 30
0.0
 11
268.1617142245195
 21
136.0935343781902
 31
0.0
  0
LINE
  5
2C08
330
18
100
AcDbEntity
  8
4
  6
CENTER
 48
0.2
100
AcDbLine
 10
180.9117142245195
 20
125.0935343781902
 30
0.0
 11
199.4117142245195
 21
125.0935343781902
 31
0.0
  0
CIRCLE
  5
2C09
330
18
100
AcDbEntity
  8
1
  6
Continuous
100
AcDbCircle
 10
190.1617142245195
 20
125.0935343781902
 30
0.0
 40
5.25
  0
LINE
  5
2C0A
330
18
100
AcDbEntity
  8
4
  6
CENTER
 48
0.2
100
AcDbLine
 10
190.1617142245195
 20
134.3435343781902
 30
0.0
 11
190.1617142245195
 21
115.8435343781902
 31
0.0
  0
ARC
  5
2C0B
330
18
100
AcDbEntity
  8
1
  6
Continuous
100
AcDbCircle
 10
190.1617142245195
 20
125.0935343781902
 30
0.0
 40
11.0
100
AcDbArc
 50
90.00000000000005
 51
180.0
  0
LINE
  5
2C0F
330
18
100
AcDbEntity
  8
4
  6
CENTER
 48
0.2
100
AcDbLine
 10
258.9117142245195
 20
125.0935343781902
 30
0.0
 11
277.4117142245195
 21
125.0935343781902
 31
0.0
  0
LINE
  5
2C13
330
18
100
AcDbEntity
  8
4
  6
CENTER
 48
0.2
100
AcDbLine
 10
268.1617142245195
 20
134.3435343781902
 30
0.0
 11
268.1617142245195
 21
115.8435343781902
 31
0.0
  0
CIRCLE
  5
2C14
330
18
100
AcDbEntity
  8
1
  6
Continuous
100
AcDbCircle
 10
268.1617142245195
 20
125.0935343781902
 30
0.0
 40
5.25
  0
ARC
  5
2C15
330
18
100
AcDbEntity
  8
1
  6
Continuous
100
AcDbCircle
 10
268.1617142245195
 20
125.0935343781902
 30
0.0
 40
11.0
100
AcDbArc
 50
0.0
 51
90.00000000000005
  0
LINE
  5
2C17
330
18
100
AcDbEntity
  8
4
  6
CENTER
 48
0.7
100
AcDbLine
 10
171.1617142245195
 20
86.09353437819027
 30
0.0
 11
287.1617142245195
 21
86.09353437819027
 31
0.0
  0
LINE
  5
2C18
330
18
100
AcDbEntity
  8
1
  6
Continuous
100
AcDbLine
 10
268.1617142245195
 20
36.09353437819028
 30
0.0
 11
190.1617142245195
 21
36.09353437819028
 31
0.0
  0
LINE
  5
2C1D
330
18
100
AcDbEntity
  8
4
  6
CENTER
 48
0.2
100
AcDbLine
 10
180.9117142245195
 20
47.09353437819027
 30
0.0
 11
199.4117142245195
 21
47.09353437819027
 31
0.0
  0
CIRCLE
  5
2C1E
330
18
100
AcDbEntity
  8
1
  6
Continuous
100
AcDbCircle
 10
190.1617142245195
 20
47.09353437819027
 30
0.0
 40
5.25
  0
LINE
  5
2C20
330
18
100
AcDbEntity
  8
4
  6
CENTER
 48
0.2
100
AcDbLine
 10
190.1617142245195
 20
56.34353437819027
 30
0.0
 11
190.1617142245195
 21
37.84353437819028
 31
0.0
  0
ARC
  5
2C21
330
18
100
AcDbEntity
  8
1
  6
Continuous
100
AcDbCircle
 10
190.1617142245195
 20
47.09353437819027
 30
0.0
 40
11.0
100
AcDbArc
 50
180.0
 51
270.0
  0
LINE
  5
2C25
330
18
100
AcDbEntity
  8
4
  6
CENTER
 48
0.2
100
AcDbLine
 10
258.9117142245195
 20
47.09353437819027
 30
0.0
 11
277.4117142245195
 21
47.09353437819027
 31
0.0
  0
ARC
  5
2C2B
330
18
100
AcDbEntity
  8
1
  6
Continuous
100
AcDbCircle
 10
268.1617142245195
 20
47.09353437819027
 30
0.0
 40
11.0
100
AcDbArc
 50
270.0
 51
0.0
  0
LINE
  5
2C2C
330
18
100
AcDbEntity
  8
4
  6
CENTER
 48
0.2
100
AcDbLine
 10
268.1617142245195
 20
56.34353437819027
 30
0.0
 11
268.1617142245195
 21
37.84353437819028
 31
0.0
  0
CIRCLE
  5
2C2D
330
18
100
AcDbEntity
  8
1
  6
Continuous
100
AcDbCircle
 10
268.1617142245195
 20
47.09353437819027
 30
0.0
 40
5.25
  0
LINE
  5
2CAA
330
18
100
AcDbEntity
  8
1
  6
Continuous
100
AcDbLine
 10
253.1617142245195
 20
112.2435833781902
 30
0.0
 11
205.1617142245195
 21
112.2435833781902
 31
0.0
  0
LINE
  5
2CAB
330
18
100
AcDbEntity
  8
1
  6
Continuous
100
AcDbLine
 10
263.1629392245195
 20
85.59353437819027
 30
0.0
 11
195.1604882245194
 21
85.59353437819027
 31
0.0
  0
LINE
  5
2CAC
330
18
100
AcDbEntity
  8
1
  6
Continuous
100
AcDbLine
 10
263.1629392245195
 20
86.59353437819026
 30
0.0
 11
195.1604882245194
 21
86.59353437819026
 31
0.0
  0
LINE
  5
2CAD
330
18
100
AcDbEntity
  8
1
  6
Continuous
100
AcDbLine
 10
212.3449292245195
 20
111.7435343781902
 30
0.0
 11
245.9784982245195
 21
111.7435343781902
 31
0.0
  0
LINE
  5
2CAE
330
18
100
AcDbEntity
  8
1
  6
Continuous
100
AcDbLine
 10
260.4379802245195
 20
110.0935343781902
 30
0.0
 11
197.8854472245195
 21
110.0935343781902
 31
0.0
  0
LINE
  5
2CAF
330
18
100
AcDbEntity
  8
1
  6
Continuous
100
AcDbLine
 10
217.6617142245195
 20
86.09353437819027
 30
0.0
 11
240.6617142245195
 21
86.09353437819027
 31
0.0
  0
LINE
  5
2CB0
330
18
100
AcDbEntity
  8
1
  6
Continuous
100
AcDbLine
 10
212.3449292245195
 20
60.4435343781903
 30
0.0
 11
245.9784982245195
 21
60.4435343781903
 31
0.0
  0
LINE
  5
2CB1
330
18
100
AcDbEntity
  8
1
  6
Continuous
100
AcDbLine
 10
260.4379802245195
 20
62.09353437819028
 30
0.0
 11
197.8854472245195
 21
62.09353437819028
 31
0.0
  0
ARC
  5
2CB2
330
18
100
AcDbEntity
  8
1
  6
Continuous
100
AcDbCircle
 10
195.1604882245194
 20
89.59353437819027
 30
0.0
 40
3.0
100
AcDbArc
 50
186.5249789999995
 51
270.0
  0
ARC
  5
2CB3
330
18
100
AcDbEntity
  8
1
  6
Continuous
100
AcDbCircle
 10
197.8854472245195
 20
104.0935343781902
 30
0.0
 40
6.0
100
AcDbArc
 50
89.99999999999998
 51
175.5434710000006
  0
ARC
  5
2CB4
330
18
100
AcDbEntity
  8
1
  6
Continuous
100
AcDbCircle
 10
271.6617142245195
 20
98.34353437819029
 30
0.0
 40
80.0
100
AcDbArc
 50
175.5434710000006
 51
186.5249789999995
  0
LINE
  5
2CB7
330
18
100
AcDbEntity
  8
1
  6
Continuous
100
AcDbLine
 10
211.3772662245194
 20
110.7670433781902
 30
0.0
 11
208.4461612245195
 21
110.1200263781902
 31
0.0
  0
ARC
  5
2CB8
330
18
100
AcDbEntity
  8
1
  6
Continuous
100
AcDbCircle
 10
208.6617142245195
 20
109.1435343781903
 30
0.0
 40
1.0
100
AcDbArc
 50
102.4479449999993
 51
108.1948720000006
  0
ARC
  5
2CB9
330
18
100
AcDbEntity
  8
1
  6
Continuous
100
AcDbCircle
 10
211.1617142245195
 20
111.7435363781902
 30
0.0
 40
1.0
100
AcDbArc
 50
282.4479449999993
 51
350.4058580000001
  0
ARC
  5
2CBA
330
18
100
AcDbEntity
  8
1
  6
Continuous
100
AcDbCircle
 10
212.3449292245195
 20
111.5435343781902
 30
0.0
 40
0.2
100
AcDbArc
 50
89.99999999999998
 51
170.4058580000002
  0
LINE
  5
2CBB
330
18
100
AcDbEntity
  8
1
  6
Continuous
100
AcDbLine
 10
221.6867142245195
 20
112.2435833781902
 30
0.0
 11
221.6867142245195
 21
111.7435343781902
 31
0.0
  0
LINE
  5
2CBC
330
18
100
AcDbEntity
  8
1
  6
Continuous
100
AcDbLine
 10
236.6367142245195
 20
112.2435833781902
 30
0.0
 11
236.6367142245195
 21
111.7435343781902
 31
0.0
  0
ARC
  5
2CBD
330
18
100
AcDbEntity
  8
1
  6
Continuous
100
AcDbCircle
 10
271.6617142245195
 20
73.84353437819027
 30
0.0
 40
80.0
100
AcDbArc
 50
173.4750210000004
 51
184.4565289999993
  0
ARC
  5
2CBE
330
18
100
AcDbEntity
  8
1
  6
Continuous
100
AcDbCircle
 10
195.1604882245194
 20
82.59353437819028
 30
0.0
 40
3.0
100
AcDbArc
 50
89.99999999999998
 51
173.4750210000004
  0
ARC
  5
2CBF
330
18
100
AcDbEntity
  8
1
  6
Continuous
100
AcDbCircle
 10
197.8854472245195
 20
68.09353437819027
 30
0.0
 40
6.0
100
AcDbArc
 50
184.4565289999993
 51
270.0
  0
LINE
  5
2CC0
330
18
100
AcDbEntity
  8
1
  6
Continuous
100
AcDbLine
 10
217.1617142245195
 20
85.59353437819027
 30
0.0
 11
217.6617142245195
 21
86.09353437819027
 31
0.0
  0
LINE
  5
2CC1
330
18
100
AcDbEntity
  8
1
  6
Continuous
100
AcDbLine
 10
217.1617142245195
 20
86.59353437819026
 30
0.0
 11
217.6617142245195
 21
86.09353437819027
 31
0.0
  0
LINE
  5
2CC2
330
18
100
AcDbEntity
  8
1
  6
Continuous
100
AcDbLine
 10
211.3772662245194
 20
61.42002537819031
 30
0.0
 11
208.4461612245195
 21
62.0670423781902
 31
0.0
  0
ARC
  5
2CC3
330
18
100
AcDbEntity
  8
1
  6
Continuous
100
AcDbCircle
 10
208.6617142245195
 20
63.0435343781902
 30
0.0
 40
1.0
100
AcDbArc
 50
251.8051279999993
 51
257.5520550000006
  0
ARC
  5
2CC4
330
18
100
AcDbEntity
  8
1
  6
Continuous
100
AcDbCircle
 10
212.3449292245195
 20
60.64353437819034
 30
0.0
 40
0.2
100
AcDbArc
 50
189.5941419999997
 51
270.0
  0
ARC
  5
2CC5
330
18
100
AcDbEntity
  8
1
  6
Continuous
100
AcDbCircle
 10
211.1617142245195
 20
60.44353337819029
 30
0.0
 40
1.0
100
AcDbArc
 50
9.594141999999752
 51
77.55205500000066
  0
LINE
  5
2CC6
330
18
100
AcDbEntity
  8
1
  6
Continuous
100
AcDbLine
 10
221.6867142245195
 20
59.94358337819029
 30
0.0
 11
221.6867142245195
 21
60.44363137819028
 31
0.0
  0
LINE
  5
2CC8
330
18
100
AcDbEntity
  8
1
  6
Continuous
100
AcDbLine
 10
236.6367142245195
 20
59.94358337819029
 30
0.0
 11
236.6367142245195
 21
60.44363137819028
 31
0.0
  0
ARC
  5
2CC9
330
18
100
AcDbEntity
  8
1
  6
Continuous
100
AcDbCircle
 10
263.1629392245195
 20
89.59353437819027
 30
0.0
 40
3.0
100
AcDbArc
 50
270.0
 51
353.4750210000004
  0
ARC
  5
2CCA
330
18
100
AcDbEntity
  8
1
  6
Continuous
100
AcDbCircle
 10
260.4379802245195
 20
104.0935343781902
 30
0.0
 40
6.0
100
AcDbArc
 50
4.456528999999266
 51
89.99999999999998
  0
ARC
  5
2CCB
330
18
100
AcDbEntity
  8
1
  6
Continuous
100
AcDbCircle
 10
249.6617142245195
 20
109.1435343781903
 30
0.0
 40
1.0
100
AcDbArc
 50
71.80512799999933
 51
77.55205500000066
  0
ARC
  5
2CCC
330
18
100
AcDbEntity
  8
1
  6
Continuous
100
AcDbCircle
 10
247.1617142245195
 20
111.7435363781902
 30
0.0
 40
1.0
100
AcDbArc
 50
189.5941419999997
 51
257.5520550000006
  0
ARC
  5
2CCD
330
18
100
AcDbEntity
  8
1
  6
Continuous
100
AcDbCircle
 10
245.9784982245195
 20
111.5435343781902
 30
0.0
 40
0.2
100
AcDbArc
 50
9.594141999999752
 51
89.99999999999998
  0
LINE
  5
2CCE
330
18
100
AcDbEntity
  8
1
  6
Continuous
100
AcDbLine
 10
246.9461612245195
 20
110.7670433781902
 30
0.0
 11
249.8772662245195
 21
110.1200263781902
 31
0.0
  0
ARC
  5
2CCF
330
18
100
AcDbEntity
  8
1
  6
Continuous
100
AcDbCircle
 10
186.6617142245195
 20
98.34353437819029
 30
0.0
 40
80.0
100
AcDbArc
 50
353.4750210000004
 51
4.456528999999266
  0
ARC
  5
2CD0
330
18
100
AcDbEntity
  8
1
  6
Continuous
100
AcDbCircle
 10
186.6617142245195
 20
73.84353437819027
 30
0.0
 40
80.0
100
AcDbArc
 50
355.5434710000007
 51
6.524978999999484
  0
LINE
  5
2CD1
330
18
100
AcDbEntity
  8
1
  6
Continuous
100
AcDbLine
 10
241.1617142245195
 20
85.59353437819027
 30
0.0
 11
240.6617142245195
 21
86.09353437819027
 31
0.0
  0
LINE
  5
2CD2
330
18
100
AcDbEntity
  8
1
  6
Continuous
100
AcDbLine
 10
241.1617142245195
 20
86.59353437819026
 30
0.0
 11
240.6617142245195
 21
86.09353437819027
 31
0.0
  0
ARC
  5
2CD3
330
18
100
AcDbEntity
  8
1
  6
Continuous
100
AcDbCircle
 10
263.1629392245195
 20
82.59353437819028
 30
0.0
 40
3.0
100
AcDbArc
 50
6.524978999999484
 51
89.99999999999998
  0
ARC
  5
2CD4
330
18
100
AcDbEntity
  8
1
  6
Continuous
100
AcDbCircle
 10
249.6617142245195
 20
63.0435343781902
 30
0.0
 40
1.0
100
AcDbArc
 50
282.4479449999993
 51
288.1948720000006
  0
ARC
  5
2CD5
330
18
100
AcDbEntity
  8
1
  6
Continuous
100
AcDbCircle
 10
245.9784982245195
 20
60.64353437819033
 30
0.0
 40
0.2
100
AcDbArc
 50
270.0
 51
350.4058580000001
  0
ARC
  5
2CD6
330
18
100
AcDbEntity
  8
1
  6
Continuous
100
AcDbCircle
 10
247.1617142245195
 20
60.44353337819028
 30
0.0
 40
1.0
100
AcDbArc
 50
102.4479449999993
 51
170.4058580000002
  0
LINE
  5
2CD7
330
18
100
AcDbEntity
  8
1
  6
Continuous
100
AcDbLine
 10
246.9461612245195
 20
61.42002537819031
 30
0.0
 11
249.8772662245195
 21
62.0670423781902
 31
0.0
  0
ARC
  5
2CD8
330
18
100
AcDbEntity
  8
1
  6
Continuous
100
AcDbCircle
 10
260.4379802245195
 20
68.09353437819027
 30
0.0
 40
6.0
100
AcDbArc
 50
270.0
 51
355.5434710000007
  0
LINE
  5
2CDB
330
18
100
AcDbEntity
  8
1
  6
Continuous
100
AcDbLine
 10
253.1617142245195
 20
123.5435833781903
 30
0.0
 11
205.1617142245195
 21
123.5435833781903
 31
0.0
  0
LINE
  5
2CDC
330
18
100
AcDbEntity
  8
1
  6
Continuous
100
AcDbLine
 10
255.1617142245195
 20
121.5435833781903
 30
0.0
 11
255.1617142245195
 21
114.2435833781902
 31
0.0
  0
LINE
  5
2CDD
330
18
100
AcDbEntity
  8
1
  6
Continuous
100
AcDbLine
 10
203.1617142245195
 20
114.2435833781902
 30
0.0
 11
203.1617142245195
 21
121.5435833781903
 31
0.0
  0
ARC
  5
2CE0
330
18
100
AcDbEntity
  8
1
  6
Continuous
100
AcDbCircle
 10
205.1617142245195
 20
121.5435833781903
 30
0.0
 40
2.0
100
AcDbArc
 50
90.0
 51
180.0
  0
ARC
  5
2CE1
330
18
100
AcDbEntity
  8
1
  6
Continuous
100
AcDbCircle
 10
205.1617142245195
 20
114.2435833781902
 30
0.0
 40
2.0
100
AcDbArc
 50
179.9999999999999
 51
270.0
  0
ARC
  5
2CE2
330
18
100
AcDbEntity
  8
1
  6
Continuous
100
AcDbCircle
 10
253.1617142245195
 20
114.2435833781902
 30
0.0
 40
2.0
100
AcDbArc
 50
270.0
 51
0.0
  0
ARC
  5
2CE3
330
18
100
AcDbEntity
  8
1
  6
Continuous
100
AcDbCircle
 10
253.1617142245195
 20
121.5435833781903
 30
0.0
 40
2.0
100
AcDbArc
 50
0.0
 51
90.0
  0
LINE
  5
2CE4
330
18
100
AcDbEntity
  8
1
  6
Continuous
100
AcDbLine
 10
253.1617142245195
 20
48.64348537819023
 30
0.0
 11
205.1617142245195
 21
48.64348537819023
 31
0.0
  0
LINE
  5
2CE5
330
18
100
AcDbEntity
  8
1
  6
Continuous
100
AcDbLine
 10
253.1617142245195
 20
59.94348537819032
 30
0.0
 11
205.1617142245195
 21
59.94348537819028
 31
0.0
  0
ARC
  5
2CE6
330
18
100
AcDbEntity
  8
1
  6
Continuous
100
AcDbCircle
 10
253.1617142245195
 20
50.64348537819023
 30
0.0
 40
2.0
100
AcDbArc
 50
270.0
 51
0.0
  0
LINE
  5
2CE7
330
18
100
AcDbEntity
  8
1
  6
Continuous
100
AcDbLine
 10
255.1617142245195
 20
50.64348537819023
 30
0.0
 11
255.1617142245195
 21
57.94348537819032
 31
0.0
  0
ARC
  5
2CE8
330
18
100
AcDbEntity
  8
1
  6
Continuous
100
AcDbCircle
 10
253.1617142245195
 20
57.94348537819032
 30
0.0
 40
2.0
100
AcDbArc
 50
0.0
 51
90.00000000000005
  0
ARC
  5
2CE9
330
18
100
AcDbEntity
  8
1
  6
Continuous
100
AcDbCircle
 10
205.1617142245195
 20
50.64348537819023
 30
0.0
 40
2.0
100
AcDbArc
 50
180.0
 51
270.0
  0
LINE
  5
2CEA
330
18
100
AcDbEntity
  8
1
  6
Continuous
100
AcDbLine
 10
203.1617142245195
 20
57.94348537819029
 30
0.0
 11
203.1617142245195
 21
50.64348537819023
 31
0.0
  0
ARC
  5
2CEB
330
18
100
AcDbEntity
  8
1
  6
Continuous
100
AcDbCircle
 10
205.1617142245195
 20
57.94348537819029
 30
0.0
 40
2.0
100
AcDbArc
 50
90.00000000000005
 51
180.0
  0
ARC
  5
2CED
330
18
100
AcDbEntity
  8
1
  6
Continuous
100
AcDbCircle
 10
229.1617142245195
 20
86.09353437819027
 30
0.0
 40
38.99999999999997
100
AcDbArc
 50
104.519010612919
 51
106.2073955007642
  0
LINE
  5
2CEE
330
18
100
AcDbEntity
  8
1
  6
Continuous
100
AcDbLine
 10
237.4404682245195
 20
136.0935343781902
 30
0.0
 11
237.4404682245195
 21
125.7841783161195
 31
0.0
  0
LINE
  5
2CEF
330
18
100
AcDbEntity
  8
1
  6
Continuous
100
AcDbLine
 10
220.8829642245196
 20
136.0935343781902
 30
0.0
 11
220.8829642245195
 21
125.7841793520062
 31
0.0
  0
ARC
  5
2CF0
330
18
100
AcDbEntity
  8
1
  6
Continuous
100
AcDbCircle
 10
239.4404682245195
 20
125.7841783161195
 30
0.0
 40
2.0
100
AcDbArc
 50
180.0000000000004
 51
255.4809836128455
  0
ARC
  5
2CF1
330
18
100
AcDbEntity
  8
1
  6
Continuous
100
AcDbCircle
 10
218.8829642245195
 20
125.7841793520062
 30
0.0
 40
2.0
100
AcDbArc
 50
284.5190106129187
 51
359.9999999999996
  0
ARC
  5
2CF2
330
18
100
AcDbEntity
  8
1
  6
Continuous
100
AcDbCircle
 10
189.4710692507035
 20
75.81478437819029
 30
0.0
 40
2.0
100
AcDbArc
 50
63.05189234514595
 51
89.9999999999996
  0
LINE
  5
2CF3
330
18
100
AcDbEntity
  8
1
  6
Continuous
100
AcDbLine
 10
179.1617142245195
 20
77.81478437819036
 30
0.0
 11
189.4710692507035
 21
77.81478437819029
 31
0.0
  0
ARC
  5
2CF4
330
18
100
AcDbEntity
  8
1
  6
Continuous
100
AcDbCircle
 10
189.4710702865902
 20
96.3722883781903
 30
0.0
 40
2.0
100
AcDbArc
 50
270.0000000000004
 51
296.9481126673262
  0
LINE
  5
2CF5
330
18
100
AcDbEntity
  8
1
  6
Continuous
100
AcDbLine
 10
179.1617142245195
 20
94.37228837819029
 30
0.0
 11
189.4710702865902
 21
94.37228837819031
 31
0.0
  0
ARC
  5
2CF6
330
18
100
AcDbEntity
  8
1
  6
Continuous
100
AcDbCircle
 10
239.4404642245194
 20
46.40288940437435
 30
0.0
 40
2.0
100
AcDbArc
 50
104.5190106129187
 51
179.9999999999996
  0
LINE
  5
2CF7
330
18
100
AcDbEntity
  8
1
  6
Continuous
100
AcDbLine
 10
237.4404642245194
 20
36.09353437819035
 30
0.0
 11
237.4404642245194
 21
46.40288940437435
 31
0.0
  0
ARC
  5
2CF8
330
18
100
AcDbEntity
  8
1
  6
Continuous
100
AcDbCircle
 10
218.8829602245194
 20
46.402890440261
 30
0.0
 40
2.0
100
AcDbArc
 50
0.0000000000003997
 51
75.48098361284542
  0
LINE
  5
2CF9
330
18
100
AcDbEntity
  8
1
  6
Continuous
100
AcDbLine
 10
220.8829602245194
 20
36.09353437819035
 30
0.0
 11
220.8829602245194
 21
46.40289044026101
 31
0.0
  0
ARC
  5
2CFA
330
18
100
AcDbEntity
  8
1
  6
Continuous
100
AcDbCircle
 10
268.8523591983354
 20
96.37228437819018
 30
0.0
 40
2.0
100
AcDbArc
 50
243.0518923451461
 51
269.9999999999995
  0
LINE
  5
2CFB
330
18
100
AcDbEntity
  8
1
  6
Continuous
100
AcDbLine
 10
279.1617142245194
 20
94.37228437819014
 30
0.0
 11
268.8523591983354
 21
94.37228437819021
 31
0.0
  0
ARC
  5
2CFC
330
18
100
AcDbEntity
  8
1
  6
Continuous
100
AcDbCircle
 10
268.8523581624488
 20
75.81478037819015
 30
0.0
 40
2.0
100
AcDbArc
 50
90.00000000000033
 51
116.948112667328
  0
LINE
  5
2CFD
330
18
100
AcDbEntity
  8
1
  6
Continuous
100
AcDbLine
 10
279.1617142245194
 20
77.81478037819018
 30
0.0
 11
268.8523581624488
 21
77.81478037819018
 31
0.0
  0
ARC
  5
2CFE
330
18
100
AcDbEntity
  8
1
  6
Continuous
100
AcDbCircle
 10
237.8675454677729
 20
86.09353437819027
 30
0.0
 40
30.29416875674661
100
AcDbArc
 50
300.3217409745631
 51
307.605443368286
  0
ARC
  5
2CFF
330
18
100
AcDbEntity
  8
1
  6
Continuous
100
AcDbCircle
 10
220.4558829812661
 20
86.09353437819027
 30
0.0
 40
30.29416875674661
100
AcDbArc
 50
120.3217409745631
 51
127.6054433682861
  0
ARC
  5
2D02
330
18
100
AcDbEntity
  8
1
  6
Continuous
100
AcDbCircle
 10
229.1617142245195
 20
86.09353437819027
 30
0.0
 40
38.99999999999997
100
AcDbArc
 50
284.5190106129189
 51
286.2073955007642
  0
ARC
  5
2D03
330
18
100
AcDbEntity
  8
1
  6
Continuous
100
AcDbCircle
 10
229.1617142245195
 20
86.09353437819027
 30
0.0
 40
38.99999999999997
100
AcDbArc
 50
217.979872444852
 51
228.1896851042213
  0
ARC
  5
2D05
330
18
100
AcDbEntity
  8
1
  6
Continuous
100
AcDbCircle
 10
229.1617142245195
 20
86.09353437819027
 30
0.0
 40
38.99999999999997
100
AcDbArc
 50
37.97987244485202
 51
48.18968510422138
  0
ARC
  5
2D07
330
18
100
AcDbEntity
  8
1
  6
Continuous
100
AcDbCircle
 10
229.1617142245195
 20
86.09353437819027
 30
0.0
 40
38.99999999999997
100
AcDbArc
 50
311.8103148957786
 51
322.0201275551478
  0
ARC
  5
2D08
330
18
100
AcDbEntity
  8
1
  6
Continuous
100
AcDbCircle
 10
229.1617142245195
 20
86.09353437819027
 30
0.0
 40
38.99999999999997
100
AcDbArc
 50
253.7926044992357
 51
255.4809836128455
  0
ARC
  5
2D0A
330
18
100
AcDbEntity
  8
1
  6
Continuous
100
AcDbCircle
 10
238.8675454677729
 20
86.09353437819027
 30
0.0
 40
30.29416875674661
100
AcDbArc
 50
299.7725275509661
 51
307.605443368286
  0
ARC
  5
2D0B
330
18
100
AcDbEntity
  8
1
  6
Continuous
100
AcDbCircle
 10
219.4558829812661
 20
86.09353437819027
 30
0.0
 40
30.29416875674661
100
AcDbArc
 50
119.7725275509661
 51
127.6054433682861
  0
ARC
  5
2D0C
330
18
100
AcDbEntity
  8
1
  6
Continuous
100
AcDbCircle
 10
238.8675454677729
 20
86.09353437819027
 30
0.0
 40
30.29416875674661
100
AcDbArc
 50
52.39455663171382
 51
60.22747244903382
  0
ARC
  5
2D0D
330
18
100
AcDbEntity
  8
1
  6
Continuous
100
AcDbCircle
 10
237.8675454677729
 20
86.09353437819027
 30
0.0
 40
30.29416875674661
100
AcDbArc
 50
52.39455663171382
 51
59.67825902543686
  0
ARC
  5
2D0E
330
18
100
AcDbEntity
  8
1
  6
Continuous
100
AcDbCircle
 10
237.8675454677729
 20
86.09353437819027
 30
0.0
 40
30.29416875674661
100
AcDbArc
 50
341.6195885474039
 51
18.38041145259615
  0
ARC
  5
2D0F
330
18
100
AcDbEntity
  8
1
  6
Continuous
100
AcDbCircle
 10
238.8675454677729
 20
86.09353437819027
 30
0.0
 40
30.29416875674661
100
AcDbArc
 50
336.5586437719922
 51
23.44135622800768
  0
ARC
  5
2D10
330
18
100
AcDbEntity
  8
1
  6
Continuous
100
AcDbCircle
 10
220.4558829812661
 20
86.09353437819027
 30
0.0
 40
30.29416875674661
100
AcDbArc
 50
232.3945566317139
 51
239.6782590254368
  0
ARC
  5
2D11
330
18
100
AcDbEntity
  8
1
  6
Continuous
100
AcDbCircle
 10
219.4558829812661
 20
86.09353437819027
 30
0.0
 40
30.29416875674661
100
AcDbArc
 50
232.3945566317139
 51
240.2274724490338
  0
ARC
  5
2D12
330
18
100
AcDbEntity
  8
1
  6
Continuous
100
AcDbCircle
 10
220.4558829812661
 20
86.09353437819027
 30
0.0
 40
30.29416875674661
100
AcDbArc
 50
161.6195885474038
 51
198.3804114525961
  0
ARC
  5
2D13
330
18
100
AcDbEntity
  8
1
  6
Continuous
100
AcDbCircle
 10
219.4558829812661
 20
86.09353437819027
 30
0.0
 40
30.29416875674661
100
AcDbArc
 50
156.5586437719923
 51
203.4413562280076
  0
ARC
  5
2D14
330
18
100
AcDbEntity
  8
1
  6
Continuous
100
AcDbCircle
 10
229.1617142245195
 20
86.09353437819027
 30
0.0
 40
38.99999999999997
100
AcDbArc
 50
73.79260449923576
 51
75.48098361284562
  0
ARC
  5
2D15
330
18
100
AcDbEntity
  8
1
  6
Continuous
100
AcDbCircle
 10
229.1617142245195
 20
86.09353437819027
 30
0.0
 40
38.99999999999997
100
AcDbArc
 50
131.8103148957786
 51
142.020127555148
  0
ENDSEC
  0
SECTION
  2
OBJECTS
  0
DICTIONARY
  5
C
330
0
100
AcDbDictionary
281
     1
  3
ACAD_CIP_PREVIOUS_PRODUCT_INFO
350
312A
  3
ACAD_COLOR
350
310D
  3
ACAD_DETAILVIEWSTYLE
350
3126
  3
ACAD_GROUP
350
D
  3
ACAD_LAYOUT
350
94
  3
ACAD_MATERIAL
350
30DB
  3
ACAD_MLEADERSTYLE
350
3122
  3
ACAD_MLINESTYLE
350
1B
  3
ACAD_PLOTSETTINGS
350
95
  3
ACAD_PLOTSTYLENAME
350
30D9
  3
ACAD_SCALELIST
350
3110
  3
ACAD_SECTIONVIEWSTYLE
350
3124
  3
ACAD_TABLESTYLE
350
310E
  3
ACAD_VISUALSTYLE
350
30F4
  3
ACDB_RECOMPOSE_DATA
350
3148
  3
AcDbVariableDictionary
350
313B
  3
CONTENTDICTIONARY
350
3D
  3
DWGPROPS
350
3149
  0
DICTIONARY
  5
312B
330
E
100
AcDbDictionary
280
     1
281
     1
  3
ADSK_XREC_LAYER_RECONCILED
360
312C
  0
DICTIONARY
  5
312D
330
4E
100
AcDbDictionary
280
     1
281
     1
  3
ADSK_XREC_LAYER_RECONCILED
360
312E
  0
DICTIONARY
  5
312F
330
4F
100
AcDbDictionary
280
     1
281
     1
  3
ADSK_XREC_LAYER_RECONCILED
360
3130
  0
DICTIONARY
  5
3131
330
50
100
AcDbDictionary
280
     1
281
     1
  3
ADSK_XREC_LAYER_RECONCILED
360
3132
  0
DICTIONARY
  5
3133
330
51
100
AcDbDictionary
280
     1
281
     1
  3
ADSK_XREC_LAYER_RECONCILED
360
3134
  0
DICTIONARY
  5
3135
330
52
100
AcDbDictionary
280
     1
281
     1
  3
ADSK_XREC_LAYER_RECONCILED
360
3136
  0
DICTIONARY
  5
3137
330
53
100
AcDbDictionary
280
     1
281
     1
  3
ADSK_XREC_LAYER_RECONCILED
360
3138
  0
DICTIONARY
  5
3139
330
54
100
AcDbDictionary
280
     1
281
     1
  3
ADSK_XREC_LAYER_RECONCILED
360
313A
  0
DICTIONARY
  5
30D4
330
18
100
AcDbDictionary
281
     1
  3
ACAD_LAYOUTSELFREF
350
30D5
  0
DICTIONARY
  5
30D2
330
15
100
AcDbDictionary
281
     1
  3
ACAD_LAYOUTSELFREF
350
30D3
  0
XRECORD
  5
312A
102
{ACAD_REACTORS
330
C
102
}
330
C
100
AcDbXrecord
280
     1
300
ACDLT
300
2014
300
ACDLT_F_S
  0
DICTIONARY
  5
310D
102
{ACAD_REACTORS
330
C
102
}
330
C
100
AcDbDictionary
281
     1
  0
DICTIONARY
  5
3126
102
{ACAD_REACTORS
330
C
102
}
330
C
100
AcDbDictionary
281
     1
  3
Imperial24
350
3127
  0
DICTIONARY
  5
D
102
{ACAD_REACTORS
330
C
102
}
330
C
100
AcDbDictionary
281
     1
  0
DICTIONARY
  5
94
102
{ACAD_REACTORS
330
C
102
}
330
C
100
AcDbDictionary
281
     1
  3
Model
350
3128
  3
レイアウト1
350
3129
  0
DICTIONARY
  5
30DB
102
{ACAD_REACTORS
330
C
102
}
330
C
100
AcDbDictionary
281
     1
  3
ByBlock
350
30E4
  3
ByLayer
350
30DC
  3
Global
350
30EC
  0
DICTIONARY
  5
3122
102
{ACAD_REACTORS
330
C
102
}
330
C
100
AcDbDictionary
281
     1
  3
Standard
350
3123
  0
DICTIONARY
  5
1B
102
{ACAD_REACTORS
330
C
102
}
330
C
100
AcDbDictionary
281
     1
  3
STANDARD
350
1C
  0
DICTIONARY
  5
95
102
{ACAD_REACTORS
330
C
102
}
330
C
100
AcDbDictionary
281
     1
  0
ACDBDICTIONARYWDFLT
  5
30D9
102
{ACAD_REACTORS
330
C
102
}
330
C
100
AcDbDictionary
281
     1
  3
Normal
350
30DA
100
AcDbDictionaryWithDefault
340
30DA
  0
DICTIONARY
  5
3110
102
{ACAD_REACTORS
330
C
102
}
330
C
100
AcDbDictionary
281
     1
  3
A0
350
3111
  3
A1
350
3112
  3
A2
350
3113
  3
A3
350
3114
  3
A4
350
3115
  3
A5
350
3116
  3
A6
350
3117
  3
A7
350
3118
  3
A8
350
3119
  3
A9
350
311A
  3
B0
350
311B
  3
B1
350
311C
  3
B2
350
311D
  3
B3
350
311E
  3
B4
350
311F
  3
B5
350
3120
  3
B6
350
3121
  0
DICTIONARY
  5
3124
102
{ACAD_REACTORS
330
C
102
}
330
C
100
AcDbDictionary
281
     1
  3
Imperial24
350
3125
  0
DICTIONARY
  5
310E
102
{ACAD_REACTORS
330
C
102
}
330
C
100
AcDbDictionary
281
     1
  3
Standard
350
310F
  0
DICTIONARY
  5
30F4
102
{ACAD_REACTORS
330
C
102
}
330
C
100
AcDbDictionary
281
     1
  3
2dWireframe
350
30FA
  3
Basic
350
30F9
  3
Brighten
350
3100
  3
ColorChange
350
3104
  3
Conceptual
350
30FD
  3
Dim
350
30FF
  3
EdgeColorOff
350
310C
  3
Facepattern
350
3103
  3
Flat
350
30F5
  3
FlatWithEdges
350
30F6
  3
Gouraud
350
30F7
  3
GouraudWithEdges
350
30F8
  3
Hidden
350
30FC
  3
JitterOff
350
310A
  3
Linepattern
350
3102
  3
OverhangOff
350
310B
  3
Realistic
350
30FE
  3
Shaded
350
3109
  3
Shaded with edges
350
3108
  3
Shades of Gray
350
3105
  3
Sketchy
350
3106
  3
Thicken
350
3101
  3
Wireframe
350
30FB
  3
X-Ray
350
3107
  0
XRECORD
  5
3148
102
{ACAD_REACTORS
330
C
102
}
330
C
100
AcDbXrecord
280
     1
 90
        1
330
310F
  0
DICTIONARY
  5
313B
102
{ACAD_REACTORS
330
C
102
}
330
C
100
AcDbDictionary
281
     1
  3
CANNOSCALE
350
3140
  3
CMLEADERSTYLE
350
313D
  3
CTABLESTYLE
350
313C
  3
CVIEWDETAILSTYLE
350
313E
  3
CVIEWSECTIONSTYLE
350
313F
  3
DIMASSOC
350
3143
  3
INDEXCTL
350
3142
  3
SORTENTS
350
3141
  3
XCLIPFRAME
350
3144
  0
DICTIONARY
  5
3D
102
{ACAD_REACTORS
330
C
102
}
330
C
100
AcDbDictionary
281
     1
  0
XRECORD
  5
3149
102
{ACAD_REACTORS
330
C
102
}
330
C
100
AcDbXrecord
280
     1
  1
DWGPROPS COOKIE
  2

  3

  4

  6

  7

  8
Yoshitsune
  9

300
=
301
=
302
=
303
=
304
=
305
=
306
=
307
=
308
=
309
=
 40
0.0999107986111111
 41
2454526.717009005
 42
2457192.688601481
  1

 90
        0
  0
XRECORD
  5
312C
102
{ACAD_REACTORS
330
312B
102
}
330
312B
100
AcDbXrecord
280
     1
290
     1
  0
XRECORD
  5
312E
102
{ACAD_REACTORS
330
312D
102
}
330
312D
100
AcDbXrecord
280
     1
290
     1
  0
XRECORD
  5
3130
102
{ACAD_REACTORS
330
312F
102
}
330
312F
100
AcDbXrecord
280
     1
290
     1
  0
XRECORD
  5
3132
102
{ACAD_REACTORS
330
3131
102
}
330
3131
100
AcDbXrecord
280
     1
290
     1
  0
XRECORD
  5
3134
102
{ACAD_REACTORS
330
3133
102
}
330
3133
100
AcDbXrecord
280
     1
290
     1
  0
XRECORD
  5
3136
102
{ACAD_REACTORS
330
3135
102
}
330
3135
100
AcDbXrecord
280
     1
290
     1
  0
XRECORD
  5
3138
102
{ACAD_REACTORS
330
3137
102
}
330
3137
100
AcDbXrecord
280
     1
290
     1
  0
XRECORD
  5
313A
102
{ACAD_REACTORS
330
3139
102
}
330
3139
100
AcDbXrecord
280
     1
290
     1
  0
XRECORD
  5
30D5
102
{ACAD_REACTORS
330
30D4
102
}
330
30D4
100
AcDbXrecord
280
     1
340
18
  0
XRECORD
  5
30D3
102
{ACAD_REACTORS
330
30D2
102
}
330
30D2
100
AcDbXrecord
280
     1
340
15
  0
ACDBDETAILVIEWSTYLE
  5
3127
102
{ACAD_XDICTIONARY
360
3181
102
}
102
{ACAD_REACTORS
330
3126
102
}
330
3126
100
AcDbModelDocViewStyle
 70
     0
  3
Imperial24
290
     0
100
AcDbDetailViewStyle
 70
     0
 71
     0
 90
        3
 71
     1
340
F
 40
0.24
340
0
 40
0.24
300

 40
0.36
280
     3
 71
     2
340
14
 90
       25
 71
     3
340
F
 40
0.24
 90
        1
 40
0.75
 90
        1
300
%<\AcVar ViewType \f "%tc1">% %<\AcVar ViewDetailId>%\PSCALE %<\AcVar ViewScale \f "%sn">%
 71
     4
340
14
 90
       25
340
14
 90
       25
280
     0
  0
LAYOUT
  5
3128
102
{ACAD_XDICTIONARY
360
3183
102
}
102
{ACAD_REACTORS
330
94
102
}
330
94
100
AcDbPlotSettings
  1

  2
Canon LBP9100C
  4

  6

 40
0.0
 41
0.0
 42
0.0
 43
0.0
 44
0.0
 45
0.0
 46
0.0
 47
0.0
 48
0.0
 49
0.0
140
0.0
141
0.0
142
1.0
143
1.0
 70
  1712
 72
     0
 73
     0
 74
     0
  7

 75
     0
147
1.0
148
0.0
149
0.0
100
AcDbLayout
  1
Model
 70
     1
 71
     0
 10
0.0
 20
0.0
 11
12.0
 21
9.0
 12
0.0
 22
0.0
 32
0.0
 14
0.0
 24
0.0
 34
0.0
 15
0.0
 25
0.0
 35
0.0
146
0.0
 13
0.0
 23
0.0
 33
0.0
 16
1.0
 26
0.0
 36
0.0
 17
0.0
 27
1.0
 37
0.0
 76
     0
330
18
331
30D1
  0
LAYOUT
  5
3129
102
{ACAD_XDICTIONARY
360
3185
102
}
102
{ACAD_REACTORS
330
94
102
}
330
94
100
AcDbPlotSettings
  1

  2
Canon LBP9100C
  4

  6

 40
0.0
 41
0.0
 42
0.0
 43
0.0
 44
0.0
 45
0.0
 46
0.0
 47
0.0
 48
0.0
 49
0.0
140
0.0
141
0.0
142
1.0
143
1.0
 70
   688
 72
     0
 73
     0
 74
     5
  7

 75
    16
147
1.0
148
0.0
149
0.0
100
AcDbLayout
  1
レイアウト1
 70
     1
 71
     1
 10
0.0
 20
0.0
 11
420.0
 21
297.0
 12
0.0
 22
0.0
 32
0.0
 14
1.000000000000000E+20
 24
1.000000000000000E+20
 34
1.000000000000000E+20
 15
-1.000000000000000E+20
 25
-1.000000000000000E+20
 35
-1.000000000000000E+20
146
0.0
 13
0.0
 23
0.0
 33
0.0
 16
1.0
 26
0.0
 36
0.0
 17
0.0
 27
1.0
 37
0.0
 76
     0
330
15
  0
MATERIAL
  5
30E4
102
{ACAD_XDICTIONARY
360
30E5
102
}
102
{ACAD_REACTORS
330
30DB
102
}
330
30DB
100
AcDbMaterial
  1
ByBlock
 72
     0
 43
0.0208333333333333
 43
0.0
 43
0.0
 43
0.0
 43
0.0
 43
0.0208333333333333
 43
0.0
 43
0.0
 43
0.0
 43
0.0
 43
1.0
 43
0.0
 43
0.0
 43
0.0
 43
0.0
 43
1.0
 77
     0
 47
0.0208333333333333
 47
0.0
 47
0.0
 47
0.0
 47
0.0
 47
0.0208333333333333
 47
0.0
 47
0.0
 47
0.0
 47
0.0
 47
1.0
 47
0.0
 47
0.0
 47
0.0
 47
0.0
 47
1.0
171
     0
 49
0.0208333333333333
 49
0.0
 49
0.0
 49
0.0
 49
0.0
 49
0.0208333333333333
 49
0.0
 49
0.0
 49
0.0
 49
0.0
 49
1.0
 49
0.0
 49
0.0
 49
0.0
 49
0.0
 49
1.0
175
     0
142
0.0208333333333333
142
0.0
142
0.0
142
0.0
142
0.0
142
0.0208333333333333
142
0.0
142
0.0
142
0.0
142
0.0
142
1.0
142
0.0
142
0.0
142
0.0
142
0.0
142
1.0
179
     0
144
0.0208333333333333
144
0.0
144
0.0
144
0.0
144
0.0
144
0.0208333333333333
144
0.0
144
0.0
144
0.0
144
0.0
144
1.0
144
0.0
144
0.0
144
0.0
144
0.0
144
1.0
147
0.0208333333333333
147
0.0
147
0.0
147
0.0
147
0.0
147
0.0208333333333333
147
0.0
147
0.0
147
0.0
147
0.0
147
1.0
147
0.0
147
0.0
147
0.0
147
0.0
147
1.0
  0
MATERIAL
  5
30DC
102
{ACAD_XDICTIONARY
360
30DD
102
}
102
{ACAD_REACTORS
330
30DB
102
}
330
30DB
100
AcDbMaterial
  1
ByLayer
 72
     0
 43
0.0208333333333333
 43
0.0
 43
0.0
 43
0.0
 43
0.0
 43
0.0208333333333333
 43
0.0
 43
0.0
 43
0.0
 43
0.0
 43
1.0
 43
0.0
 43
0.0
 43
0.0
 43
0.0
 43
1.0
 77
     0
 47
0.0208333333333333
 47
0.0
 47
0.0
 47
0.0
 47
0.0
 47
0.0208333333333333
 47
0.0
 47
0.0
 47
0.0
 47
0.0
 47
1.0
 47
0.0
 47
0.0
 47
0.0
 47
0.0
 47
1.0
171
     0
 49
0.0208333333333333
 49
0.0
 49
0.0
 49
0.0
 49
0.0
 49
0.0208333333333333
 49
0.0
 49
0.0
 49
0.0
 49
0.0
 49
1.0
 49
0.0
 49
0.0
 49
0.0
 49
0.0
 49
1.0
175
     0
142
0.0208333333333333
142
0.0
142
0.0
142
0.0
142
0.0
142
0.0208333333333333
142
0.0
142
0.0
142
0.0
142
0.0
142
1.0
142
0.0
142
0.0
142
0.0
142
0.0
142
1.0
179
     0
144
0.0208333333333333
144
0.0
144
0.0
144
0.0
144
0.0
144
0.0208333333333333
144
0.0
144
0.0
144
0.0
144
0.0
144
1.0
144
0.0
144
0.0
144
0.0
144
0.0
144
1.0
147
0.0208333333333333
147
0.0
147
0.0
147
0.0
147
0.0
147
0.0208333333333333
147
0.0
147
0.0
147
0.0
147
0.0
147
1.0
147
0.0
147
0.0
147
0.0
147
0.0
147
1.0
  0
MATERIAL
  5
30EC
102
{ACAD_XDICTIONARY
360
30ED
102
}
102
{ACAD_REACTORS
330
30DB
102
}
330
30DB
100
AcDbMaterial
  1
Global
 72
     0
 43
0.0208333333333333
 43
0.0
 43
0.0
 43
0.0
 43
0.0
 43
0.0208333333333333
 43
0.0
 43
0.0
 43
0.0
 43
0.0
 43
1.0
 43
0.0
 43
0.0
 43
0.0
 43
0.0
 43
1.0
 77
     0
 47
0.0208333333333333
 47
0.0
 47
0.0
 47
0.0
 47
0.0
 47
0.0208333333333333
 47
0.0
 47
0.0
 47
0.0
 47
0.0
 47
1.0
 47
0.0
 47
0.0
 47
0.0
 47
0.0
 47
1.0
171
     0
 49
0.0208333333333333
 49
0.0
 49
0.0
 49
0.0
 49
0.0
 49
0.0208333333333333
 49
0.0
 49
0.0
 49
0.0
 49
0.0
 49
1.0
 49
0.0
 49
0.0
 49
0.0
 49
0.0
 49
1.0
175
     0
142
0.0208333333333333
142
0.0
142
0.0
142
0.0
142
0.0
142
0.0208333333333333
142
0.0
142
0.0
142
0.0
142
0.0
142
1.0
142
0.0
142
0.0
142
0.0
142
0.0
142
1.0
179
     0
144
0.0208333333333333
144
0.0
144
0.0
144
0.0
144
0.0
144
0.0208333333333333
144
0.0
144
0.0
144
0.0
144
0.0
144
1.0
144
0.0
144
0.0
144
0.0
144
0.0
144
1.0
147
0.0208333333333333
147
0.0
147
0.0
147
0.0
147
0.0
147
0.0208333333333333
147
0.0
147
0.0
147
0.0
147
0.0
147
1.0
147
0.0
147
0.0
147
0.0
147
0.0
147
1.0
  0
MLEADERSTYLE
  5
3123
102
{ACAD_REACTORS
330
3122
102
}
330
3122
100
AcDbMLeaderStyle
170
     2
171
     1
172
     0
 90
        2
 40
0.0
 41
0.0
173
     1
 91
-1056964608
340
12
 92
       -2
290
     1
 42
0.09
291
     1
 43
0.36
  3
Standard
 44
0.18
300

342
F
174
     1
178
     6
175
     1
176
     0
 93
-1056964608
 45
0.18
292
     0
297
     0
 46
0.18
 94
-1056964608
 47
1.0
 49
1.0
140
1.0
293
     1
141
0.0
294
     1
177
     0
142
1.0
295
     0
296
     0
143
0.125
1001
ACAD_MLEADERVER
1070
     2
  0
MLINESTYLE
  5
1C
102
{ACAD_REACTORS
330
1B
102
}
330
1B
100
AcDbMlineStyle
  2
STANDARD
 70
     0
  3

 62
   256
 51
90.0
 52
90.0
 71
     2
 49
0.5
 62
   256
  6
BYLAYER
 49
-0.5
 62
   256
  6
BYLAYER
  0
ACDBPLACEHOLDER
  5
30DA
102
{ACAD_REACTORS
330
30D9
102
}
330
30D9
  0
SCALE
  5
3111
102
{ACAD_REACTORS
330
3110
102
}
330
3110
100
AcDbScale
 70
     0
300
1:1
140
1.0
141
1.0
290
     1
  0
SCALE
  5
3112
102
{ACAD_REACTORS
330
3110
102
}
330
3110
100
AcDbScale
 70
     0
300
1/128" = 1'-0"
140
0.0078125
141
12.0
290
     0
  0
SCALE
  5
3113
102
{ACAD_REACTORS
330
3110
102
}
330
3110
100
AcDbScale
 70
     0
300
1/64" = 1'-0"
140
0.015625
141
12.0
290
     0
  0
SCALE
  5
3114
102
{ACAD_REACTORS
330
3110
102
}
330
3110
100
AcDbScale
 70
     0
300
1/32" = 1'-0"
140
0.03125
141
12.0
290
     0
  0
SCALE
  5
3115
102
{ACAD_REACTORS
330
3110
102
}
330
3110
100
AcDbScale
 70
     0
300
1/16" = 1'-0"
140
0.0625
141
12.0
290
     0
  0
SCALE
  5
3116
102
{ACAD_REACTORS
330
3110
102
}
330
3110
100
AcDbScale
 70
     0
300
3/32" = 1'-0"
140
0.09375
141
12.0
290
     0
  0
SCALE
  5
3117
102
{ACAD_REACTORS
330
3110
102
}
330
3110
100
AcDbScale
 70
     0
300
1/8" = 1'-0"
140
0.125
141
12.0
290
     0
  0
SCALE
  5
3118
102
{ACAD_REACTORS
330
3110
102
}
330
3110
100
AcDbScale
 70
     0
300
3/16" = 1'-0"
140
0.1875
141
12.0
290
     0
  0
SCALE
  5
3119
102
{ACAD_REACTORS
330
3110
102
}
330
3110
100
AcDbScale
 70
     0
300
1/4" = 1'-0"
140
0.25
141
12.0
290
     0
  0
SCALE
  5
311A
102
{ACAD_REACTORS
330
3110
102
}
330
3110
100
AcDbScale
 70
     0
300
3/8" = 1'-0"
140
0.375
141
12.0
290
     0
  0
SCALE
  5
311B
102
{ACAD_REACTORS
330
3110
102
}
330
3110
100
AcDbScale
 70
     0
300
1/2" = 1'-0"
140
0.5
141
12.0
290
     0
  0
SCALE
  5
311C
102
{ACAD_REACTORS
330
3110
102
}
330
3110
100
AcDbScale
 70
     0
300
3/4" = 1'-0"
140
0.75
141
12.0
290
     0
  0
SCALE
  5
311D
102
{ACAD_REACTORS
330
3110
102
}
330
3110
100
AcDbScale
 70
     0
300
1" = 1'-0"
140
1.0
141
12.0
290
     0
  0
SCALE
  5
311E
102
{ACAD_REACTORS
330
3110
102
}
330
3110
100
AcDbScale
 70
     0
300
1-1/2" = 1'-0"
140
1.5
141
12.0
290
     0
  0
SCALE
  5
311F
102
{ACAD_REACTORS
330
3110
102
}
330
3110
100
AcDbScale
 70
     0
300
3" = 1'-0"
140
3.0
141
12.0
290
     0
  0
SCALE
  5
3120
102
{ACAD_REACTORS
330
3110
102
}
330
3110
100
AcDbScale
 70
     0
300
6" = 1'-0"
140
6.0
141
12.0
290
     0
  0
SCALE
  5
3121
102
{ACAD_REACTORS
330
3110
102
}
330
3110
100
AcDbScale
 70
     0
300
1'-0" = 1'-0"
140
12.0
141
12.0
290
     0
  0
ACDBSECTIONVIEWSTYLE
  5
3125
102
{ACAD_XDICTIONARY
360
317F
102
}
102
{ACAD_REACTORS
330
3124
102
}
330
3124
100
AcDbModelDocViewStyle
 70
     0
  3
Imperial24
290
     0
100
AcDbSectionViewStyle
 70
     0
 71
     0
 90
       78
 71
     1
340
F
 40
0.24
340
0
340
0
 40
0.24
300
I, O, Q, S, X, Z
 40
0.48
 90
        3
 40
0.18
 90
        1
 71
     2
340
14
 90
       25
340
14
 90
       50
 40
0.24
 40
0.0
 40
0.24
 71
     3
340
F
 40
0.24
 90
        1
 40
0.75
 90
        1
300
%<\AcVar ViewType \f "%tc1">% %<\AcVar ViewSectionStartId>%-%<\AcVar ViewSectionEndId>%\PSCALE %<\AcVar ViewScale \f "%sn">%
 71
     4
300
ANSI31
 40
1.0
 90
        0
290
     0
290
     0
 90
        6
 40
0.0
 40
1.570796326794896
 40
0.2617993877991494
 40
1.308996938995747
 40
-0.2617993877991494
 40
1.832595714594046
  0
TABLESTYLE
  5
310F
102
{ACAD_XDICTIONARY
360
3146
102
}
102
{ACAD_REACTORS
330
310E
102
}
330
310E
100
AcDbTableStyle
  3
Standard
 70
     0
 71
     0
 40
0.06
 41
0.06
280
     0
281
     0
  7
STANDARD
140
0.18
170
     2
 62
     0
 63
     7
283
     0
274
    -2
284
     1
 64
     0
275
    -2
285
     1
 65
     0
276
    -2
286
     1
 66
     0
277
    -2
287
     1
 67
     0
278
    -2
288
     1
 68
     0
279
    -2
289
     1
 69
     0
  7
STANDARD
140
0.25
170
     5
 62
     0
 63
     7
283
     0
274
    -2
284
     1
 64
     0
275
    -2
285
     1
 65
     0
276
    -2
286
     1
 66
     0
277
    -2
287
     1
 67
     0
278
    -2
288
     1
 68
     0
279
    -2
289
     1
 69
     0
  7
STANDARD
140
0.18
170
     5
 62
     0
 63
     7
283
     0
274
    -2
284
     1
 64
     0
275
    -2
285
     1
 65
     0
276
    -2
286
     1
 66
     0
277
    -2
287
     1
 67
     0
278
    -2
288
     1
 68
     0
279
    -2
289
     1
 69
     0
  0
VISUALSTYLE
  5
30FA
102
{ACAD_XDICTIONARY
360
3157
102
}
102
{ACAD_REACTORS
330
30F4
102
}
330
30F4
100
AcDbVisualStyle
  2
2dWireframe
 70
     4
 71
     0
 72
     2
 73
     0
 90
        0
 40
-0.6
 41
-30.0
 62
     5
 63
     7
 74
     1
 91
        4
 64
     7
 65
   257
 75
     1
175
     1
 42
1.0
 92
        0
 66
   257
 43
1.0
 76
     1
 77
     6
 78
     2
 67
     7
 79
     5
170
     0
171
     0
290
     0
174
     0
 93
        1
 44
0.0
173
     0
291
     0
 45
0.0
1001
ACAD
1000
AcDbSavedByObjectVersion
1070
     0
  0
VISUALSTYLE
  5
30F9
102
{ACAD_XDICTIONARY
360
3155
102
}
102
{ACAD_REACTORS
330
30F4
102
}
330
30F4
100
AcDbVisualStyle
  2
Basic
 70
     7
 71
     1
 72
     0
 73
     1
 90
        0
 40
-0.6
 41
-30.0
 62
     5
 63
     7
 74
     0
 91
        4
 64
     7
 65
   257
 75
     1
175
     1
 42
1.0
 92
        8
 66
     7
 43
1.0
 76
     1
 77
     6
 78
     2
 67
     7
 79
     5
170
     0
171
     0
290
     0
174
     0
 93
        1
 44
0.0
173
     0
291
     1
 45
0.0
1001
ACAD
1000
AcDbSavedByObjectVersion
1070
     0
  0
VISUALSTYLE
  5
3100
102
{ACAD_XDICTIONARY
360
3163
102
}
102
{ACAD_REACTORS
330
30F4
102
}
330
30F4
100
AcDbVisualStyle
  2
Brighten
 70
    12
 71
     2
 72
     2
 73
     0
 90
        0
 40
-0.6
 41
-30.0
 62
     5
 63
     7
 74
     1
 91
        4
 64
     7
 65
   257
 75
     1
175
     1
 42
1.0
 92
        8
 66
     7
 43
1.0
 76
     1
 77
     6
 78
     2
 67
     7
 79
     5
170
     0
171
     0
290
     0
174
     0
 93
        1
 44
50.0
173
     0
291
     1
 45
0.0
1001
ACAD
1000
AcDbSavedByObjectVersion
1070
     0
  0
VISUALSTYLE
  5
3104
102
{ACAD_XDICTIONARY
360
316B
102
}
102
{ACAD_REACTORS
330
30F4
102
}
330
30F4
100
AcDbVisualStyle
  2
ColorChange
 70
    16
 71
     2
 72
     2
 73
     3
 90
        0
 40
-0.6
 41
-30.0
 62
     5
 63
     8
 74
     1
 91
        4
 64
     7
 65
   257
 75
     1
175
     1
 42
1.0
 92
        8
 66
     8
 43
1.0
 76
     1
 77
     6
 78
     2
 67
     7
 79
     5
170
     0
171
     0
290
     0
174
     0
 93
        1
 44
0.0
173
     0
291
     1
 45
0.0
1001
ACAD
1000
AcDbSavedByObjectVersion
1070
     0
  0
VISUALSTYLE
  5
30FD
102
{ACAD_XDICTIONARY
360
315D
102
}
102
{ACAD_REACTORS
330
30F4
102
}
330
30F4
100
AcDbVisualStyle
  2
Conceptual
 70
     9
 71
     3
 72
     2
 73
     0
 90
        0
 40
-0.6
 41
-30.0
 62
     5
 63
     7
 74
     2
 91
        2
 64
     7
 65
   257
 75
     1
175
     1
 42
179.0
 92
        8
 66
     7
 43
1.0
 76
     1
 77
     6
 78
     2
 67
     7
 79
     3
170
     0
171
     0
290
     0
174
     0
 93
        1
 44
0.0
173
     0
291
     0
 45
0.0
1001
ACAD
1000
AcDbSavedByObjectVersion
1070
     0
  0
VISUALSTYLE
  5
30FF
102
{ACAD_XDICTIONARY
360
3161
102
}
102
{ACAD_REACTORS
330
30F4
102
}
330
30F4
100
AcDbVisualStyle
  2
Dim
 70
    11
 71
     2
 72
     2
 73
     0
 90
        0
 40
-0.6
 41
-30.0
 62
     5
 63
     7
 74
     1
 91
        4
 64
     7
 65
   257
 75
     1
175
     1
 42
1.0
 92
        8
 66
     7
 43
1.0
 76
     1
 77
     6
 78
     2
 67
     7
 79
     5
170
     0
171
     0
290
     0
174
     0
 93
        1
 44
-50.0
173
     0
291
     1
 45
0.0
1001
ACAD
1000
AcDbSavedByObjectVersion
1070
     0
  0
VISUALSTYLE
  5
310C
102
{ACAD_XDICTIONARY
360
317B
102
}
102
{ACAD_REACTORS
330
30F4
102
}
330
30F4
100
AcDbVisualStyle
  2
EdgeColorOff
 70
    22
 71
     2
 72
     2
 73
     0
 90
        0
 40
-0.6
 41
-30.0
 62
     5
 63
     7
 74
     1
 91
        4
 64
     7
 65
   257
 75
     1
175
     1
 42
1.0
 92
        8
 66
     7
 43
1.0
 76
     1
 77
     6
 78
     2
 67
     7
 79
     5
170
     0
171
     0
290
     0
174
     0
 93
        1
 44
0.0
173
     0
291
     1
 45
0.0
1001
ACAD
1000
AcDbSavedByObjectVersion
1070
     0
  0
VISUALSTYLE
  5
3103
102
{ACAD_XDICTIONARY
360
3169
102
}
102
{ACAD_REACTORS
330
30F4
102
}
330
30F4
100
AcDbVisualStyle
  2
Facepattern
 70
    15
 71
     2
 72
     2
 73
     0
 90
        0
 40
-0.6
 41
-30.0
 62
     5
 63
     7
 74
     1
 91
        4
 64
     7
 65
   257
 75
     1
175
     1
 42
1.0
 92
        8
 66
     7
 43
1.0
 76
     1
 77
     6
 78
     2
 67
     7
 79
     5
170
     0
171
     0
290
     0
174
     0
 93
        1
 44
0.0
173
     0
291
     1
 45
0.0
1001
ACAD
1000
AcDbSavedByObjectVersion
1070
     0
  0
VISUALSTYLE
  5
30F5
102
{ACAD_XDICTIONARY
360
314D
102
}
102
{ACAD_REACTORS
330
30F4
102
}
330
30F4
100
AcDbVisualStyle
  2
Flat
 70
     0
 71
     2
 72
     1
 73
     1
 90
        2
 40
-0.6
 41
30.0
 62
     5
 63
     7
 74
     0
 91
        0
 64
     7
 65
   257
 75
     1
175
     1
 42
1.0
 92
        8
 66
     7
 43
1.0
 76
     1
 77
     6
 78
     2
 67
     7
 79
     5
170
     0
171
     0
290
     0
174
     0
 93
       13
 44
0.0
173
     0
291
     1
 45
0.0
1001
ACAD
1000
AcDbSavedByObjectVersion
1070
     0
  0
VISUALSTYLE
  5
30F6
102
{ACAD_XDICTIONARY
360
314F
102
}
102
{ACAD_REACTORS
330
30F4
102
}
330
30F4
100
AcDbVisualStyle
  2
FlatWithEdges
 70
     1
 71
     2
 72
     1
 73
     1
 90
        2
 40
-0.6
 41
30.0
 62
     5
 63
     7
 74
     1
 91
        0
 64
     7
 65
   257
 75
     1
175
     1
 42
1.0
 92
        0
 66
   257
 43
1.0
 76
     1
 77
     6
 78
     2
 67
     7
 79
     5
170
     0
171
     0
290
     0
174
     0
 93
       13
 44
0.0
173
     0
291
     1
 45
0.0
1001
ACAD
1000
AcDbSavedByObjectVersion
1070
     0
  0
VISUALSTYLE
  5
30F7
102
{ACAD_XDICTIONARY
360
3151
102
}
102
{ACAD_REACTORS
330
30F4
102
}
330
30F4
100
AcDbVisualStyle
  2
Gouraud
 70
     2
 71
     2
 72
     2
 73
     1
 90
        2
 40
-0.6
 41
30.0
 62
     5
 63
     7
 74
     0
 91
        0
 64
     7
 65
   257
 75
     1
175
     1
 42
1.0
 92
        0
 66
     7
 43
1.0
 76
     1
 77
     6
 78
     2
 67
     7
 79
     5
170
     0
171
     0
290
     0
174
     0
 93
       13
 44
0.0
173
     0
291
     1
 45
0.0
1001
ACAD
1000
AcDbSavedByObjectVersion
1070
     0
  0
VISUALSTYLE
  5
30F8
102
{ACAD_XDICTIONARY
360
3153
102
}
102
{ACAD_REACTORS
330
30F4
102
}
330
30F4
100
AcDbVisualStyle
  2
GouraudWithEdges
 70
     3
 71
     2
 72
     2
 73
     1
 90
        2
 40
-0.6
 41
30.0
 62
     5
 63
     7
 74
     1
 91
        0
 64
     7
 65
   257
 75
     1
175
     1
 42
1.0
 92
        0
 66
   257
 43
1.0
 76
     1
 77
     6
 78
     2
 67
     7
 79
     5
170
     0
171
     0
290
     0
174
     0
 93
       13
 44
0.0
173
     0
291
     1
 45
0.0
1001
ACAD
1000
AcDbSavedByObjectVersion
1070
     0
  0
VISUALSTYLE
  5
30FC
102
{ACAD_XDICTIONARY
360
315B
102
}
102
{ACAD_REACTORS
330
30F4
102
}
330
30F4
100
AcDbVisualStyle
  2
Hidden
 70
     6
 71
     1
 72
     2
 73
     2
 90
        0
 40
-0.6
 41
-30.0
 62
     5
 63
     7
 74
     2
 91
        2
 64
     7
 65
   257
 75
     2
175
     1
 42
40.0
 92
        0
 66
   257
 43
1.0
 76
     1
 77
     6
 78
     2
 67
     7
 79
     3
170
     0
171
     0
290
     0
174
     0
 93
        1
 44
0.0
173
     0
291
     0
 45
0.0
1001
ACAD
1000
AcDbSavedByObjectVersion
1070
     0
  0
VISUALSTYLE
  5
310A
102
{ACAD_XDICTIONARY
360
3177
102
}
102
{ACAD_REACTORS
330
30F4
102
}
330
30F4
100
AcDbVisualStyle
  2
JitterOff
 70
    20
 71
     2
 72
     2
 73
     0
 90
        0
 40
-0.6
 41
-30.0
 62
     5
 63
     7
 74
     1
 91
        4
 64
     7
 65
   257
 75
     1
175
     1
 42
1.0
 92
       10
 66
     7
 43
1.0
 76
     1
 77
     6
 78
     2
 67
     7
 79
     5
170
     0
171
     0
290
     0
174
     0
 93
        1
 44
0.0
173
     0
291
     1
 45
0.0
1001
ACAD
1000
AcDbSavedByObjectVersion
1070
     0
  0
VISUALSTYLE
  5
3102
102
{ACAD_XDICTIONARY
360
3167
102
}
102
{ACAD_REACTORS
330
30F4
102
}
330
30F4
100
AcDbVisualStyle
  2
Linepattern
 70
    14
 71
     2
 72
     2
 73
     0
 90
        0
 40
-0.6
 41
-30.0
 62
     5
 63
     7
 74
     1
 91
        4
 64
     7
 65
   257
 75
     7
175
     7
 42
1.0
 92
        8
 66
     7
 43
1.0
 76
     1
 77
     6
 78
     2
 67
     7
 79
     5
170
     0
171
     0
290
     0
174
     0
 93
        1
 44
0.0
173
     0
291
     1
 45
0.0
1001
ACAD
1000
AcDbSavedByObjectVersion
1070
     0
  0
VISUALSTYLE
  5
310B
102
{ACAD_XDICTIONARY
360
3179
102
}
102
{ACAD_REACTORS
330
30F4
102
}
330
30F4
100
AcDbVisualStyle
  2
OverhangOff
 70
    21
 71
     2
 72
     2
 73
     0
 90
        0
 40
-0.6
 41
-30.0
 62
     5
 63
     7
 74
     1
 91
        4
 64
     7
 65
   257
 75
     1
175
     1
 42
1.0
 92
        9
 66
     7
 43
1.0
 76
     1
 77
     6
 78
     2
 67
     7
 79
     5
170
     0
171
     0
290
     0
174
     0
 93
        1
 44
0.0
173
     0
291
     1
 45
0.0
1001
ACAD
1000
AcDbSavedByObjectVersion
1070
     0
  0
VISUALSTYLE
  5
30FE
102
{ACAD_XDICTIONARY
360
315F
102
}
102
{ACAD_REACTORS
330
30F4
102
}
330
30F4
100
AcDbVisualStyle
  2
Realistic
 70
     8
 71
     2
 72
     3
 73
     0
 90
        2
 40
-0.6
 41
30.0
 62
     5
 63
     7
 74
     0
 91
        0
 64
     7
 65
   257
 75
     1
175
     1
 42
1.0
 92
        8
 66
   257
 43
1.0
 76
     1
 77
     6
 78
     2
 67
     7
 79
     3
170
     0
171
     0
290
     0
174
     0
 93
       13
 44
0.0
173
     0
291
     0
 45
0.0
1001
ACAD
1000
AcDbSavedByObjectVersion
1070
     0
  0
VISUALSTYLE
  5
3109
102
{ACAD_XDICTIONARY
360
3175
102
}
102
{ACAD_REACTORS
330
30F4
102
}
330
30F4
100
AcDbVisualStyle
  2
Shaded
 70
    27
 71
     2
 72
     2
 73
     1
 90
        2
 40
-0.6
 41
30.0
 62
     5
 63
     7
 74
     0
 91
        4
 64
     7
 65
   257
 75
     1
175
     1
 42
1.0
 92
        8
 66
   257
 43
1.0
 76
     1
 77
     6
 78
     2
 67
     8
 79
     3
170
     0
171
     0
290
     0
174
     0
 93
        5
 44
0.0
173
     0
291
     0
 45
0.0
1001
ACAD
1000
AcDbSavedByObjectVersion
1070
     0
  0
VISUALSTYLE
  5
3108
102
{ACAD_XDICTIONARY
360
3173
102
}
102
{ACAD_REACTORS
330
30F4
102
}
330
30F4
100
AcDbVisualStyle
  2
Shaded with edges
 70
    26
 71
     2
 72
     2
 73
     1
 90
        2
 40
-0.6
 41
30.0
 62
     5
 63
     7
 74
     1
 91
       10
 64
     7
 65
   257
 75
     2
175
     1
 42
1.0
 92
        8
 66
   257
 43
1.0
 76
     1
 77
     6
 78
     2
 67
     7
 79
     3
170
     0
171
     0
290
     0
174
     0
 93
        5
 44
0.0
173
     0
291
     0
 45
0.0
1001
ACAD
1000
AcDbSavedByObjectVersion
1070
     0
  0
VISUALSTYLE
  5
3105
102
{ACAD_XDICTIONARY
360
316D
102
}
102
{ACAD_REACTORS
330
30F4
102
}
330
30F4
100
AcDbVisualStyle
  2
Shades of Gray
 70
    23
 71
     2
 72
     2
 73
     3
 90
        0
 40
-0.6
 41
-30.0
 62
     5
 63
     7
 74
     2
 91
        2
 64
     7
 65
     7
 75
     1
175
     1
 42
40.0
 92
        8
 66
     7
 43
1.0
 76
     1
 77
     6
 78
     2
 67
     7
 79
     3
170
     0
171
     0
290
     0
174
     0
 93
        1
 44
0.0
173
     0
291
     0
 45
0.0
1001
ACAD
1000
AcDbSavedByObjectVersion
1070
     0
  0
VISUALSTYLE
  5
3106
102
{ACAD_XDICTIONARY
360
316F
102
}
102
{ACAD_REACTORS
330
30F4
102
}
330
30F4
100
AcDbVisualStyle
  2
Sketchy
 70
    24
 71
     1
 72
     2
 73
     2
 90
        0
 40
-0.6
 41
-30.0
 62
     5
 63
     7
 74
     2
 91
        2
 64
     7
 65
     7
 75
     1
175
     1
 42
40.0
 92
       11
 66
     7
 43
1.0
 76
     1
 77
     6
 78
     2
 67
     7
 79
     6
170
     0
171
     0
290
     0
174
     0
 93
        1
 44
0.0
173
     0
291
     0
 45
0.0
1001
ACAD
1000
AcDbSavedByObjectVersion
1070
     0
  0
VISUALSTYLE
  5
3101
102
{ACAD_XDICTIONARY
360
3165
102
}
102
{ACAD_REACTORS
330
30F4
102
}
330
30F4
100
AcDbVisualStyle
  2
Thicken
 70
    13
 71
     2
 72
     2
 73
     0
 90
        0
 40
-0.6
 41
-30.0
 62
     5
 63
     7
 74
     1
 91
        4
 64
     7
 65
   257
 75
     1
175
     1
 42
1.0
 92
       12
 66
     7
 43
1.0
 76
     1
 77
     6
 78
     2
 67
     7
 79
     5
170
     0
171
     0
290
     0
174
     0
 93
        1
 44
0.0
173
     0
291
     1
 45
0.0
1001
ACAD
1000
AcDbSavedByObjectVersion
1070
     0
  0
VISUALSTYLE
  5
30FB
102
{ACAD_XDICTIONARY
360
3159
102
}
102
{ACAD_REACTORS
330
30F4
102
}
330
30F4
100
AcDbVisualStyle
  2
Wireframe
 70
     5
 71
     0
 72
     2
 73
     0
 90
        0
 40
-0.6
 41
-30.0
 62
     5
 63
     7
 74
     1
 91
        4
 64
     7
 65
   257
 75
     1
175
     1
 42
1.0
 92
        0
 66
   257
 43
1.0
 76
     1
 77
     6
 78
     2
 67
     7
 79
     3
170
     0
171
     0
290
     0
174
     0
 93
        1
 44
0.0
173
     0
291
     0
 45
0.0
1001
ACAD
1000
AcDbSavedByObjectVersion
1070
     0
  0
VISUALSTYLE
  5
3107
102
{ACAD_XDICTIONARY
360
3171
102
}
102
{ACAD_REACTORS
330
30F4
102
}
330
30F4
100
AcDbVisualStyle
  2
X-Ray
 70
    25
 71
     2
 72
     2
 73
     1
 90
        1
 40
0.5
 41
-30.0
 62
     5
 63
     7
 74
     1
 91
        0
 64
     7
 65
   257
 75
     1
175
     1
 42
1.0
 92
        8
 66
     7
 43
1.0
 76
     1
 77
     6
 78
     2
 67
     7
 79
     3
170
     0
171
     0
290
     0
174
     0
 93
       13
 44
0.0
173
     0
291
     0
 45
0.0
1001
ACAD
1000
AcDbSavedByObjectVersion
1070
     0
  0
DICTIONARYVAR
  5
3140
102
{ACAD_REACTORS
330
313B
102
}
330
313B
100
DictionaryVariables
280
     0
  1
1:1
  0
DICTIONARYVAR
  5
313D
102
{ACAD_REACTORS
330
313B
102
}
330
313B
100
DictionaryVariables
280
     0
  1
STANDARD
  0
DICTIONARYVAR
  5
313C
102
{ACAD_REACTORS
330
313B
102
}
330
313B
100
DictionaryVariables
280
     0
  1
STANDARD
  0
DICTIONARYVAR
  5
313E
102
{ACAD_REACTORS
330
313B
102
}
330
313B
100
DictionaryVariables
280
     0
  1
Imperial24
  0
DICTIONARYVAR
  5
313F
102
{ACAD_REACTORS
330
313B
102
}
330
313B
100
DictionaryVariables
280
     0
  1
Imperial24
  0
DICTIONARYVAR
  5
3143
102
{ACAD_REACTORS
330
313B
102
}
330
313B
100
DictionaryVariables
280
     0
  1
1
  0
DICTIONARYVAR
  5
3142
102
{ACAD_REACTORS
330
313B
102
}
330
313B
100
DictionaryVariables
280
     0
  1
0
  0
DICTIONARYVAR
  5
3141
102
{ACAD_REACTORS
330
313B
102
}
330
313B
100
DictionaryVariables
280
     0
  1
127
  0
DICTIONARYVAR
  5
3144
102
{ACAD_REACTORS
330
313B
102
}
330
313B
100
DictionaryVariables
280
     0
  1
2
  0
DICTIONARY
  5
3181
330
3127
100
AcDbDictionary
280
     1
281
     1
  3
ACAD_XREC_ROUNDTRIP
360
3182
  0
DICTIONARY
  5
3183
330
3128
100
AcDbDictionary
280
     1
281
     1
  3
ACAD_XREC_ROUNDTRIP
360
3184
  0
DICTIONARY
  5
3185
330
3129
100
AcDbDictionary
280
     1
281
     1
  3
ACAD_XREC_ROUNDTRIP
360
3186
  0
DICTIONARY
  5
30E5
330
30E4
100
AcDbDictionary
280
     1
281
     1
  3
ACAD_XREC_ROUNDTRIP
360
314B
  3
BUMPTILE
360
30E7
  3
DIFFUSETILE
360
30E6
  3
OPACITYTILE
360
30EA
  3
REFLECTIONTILE
360
30E9
  3
REFRACTIONTILE
360
30EB
  3
SPECULARTILE
360
30E8
  0
DICTIONARY
  5
30DD
330
30DC
100
AcDbDictionary
280
     1
281
     1
  3
ACAD_XREC_ROUNDTRIP
360
314A
  3
BUMPTILE
360
30DF
  3
DIFFUSETILE
360
30DE
  3
OPACITYTILE
360
30E2
  3
REFLECTIONTILE
360
30E1
  3
REFRACTIONTILE
360
30E3
  3
SPECULARTILE
360
30E0
  0
DICTIONARY
  5
30ED
330
30EC
100
AcDbDictionary
280
     1
281
     1
  3
ACAD_XREC_ROUNDTRIP
360
314C
  3
BUMPTILE
360
30EF
  3
DIFFUSETILE
360
30EE
  3
OPACITYTILE
360
30F2
  3
REFLECTIONTILE
360
30F1
  3
REFRACTIONTILE
360
30F3
  3
SPECULARTILE
360
30F0
  0
DICTIONARY
  5
317F
330
3125
100
AcDbDictionary
280
     1
281
     1
  3
ACAD_XREC_ROUNDTRIP
360
3180
  0
DICTIONARY
  5
3146
330
310F
100
AcDbDictionary
280
     1
281
     1
  3
ACAD_ROUNDTRIP_2008_TABLESTYLE_CELLSTYLEMAP
360
3147
  3
ACAD_XREC_ROUNDTRIP
360
317D
  0
DICTIONARY
  5
3157
330
30FA
100
AcDbDictionary
280
     1
281
     1
  3
ACAD_XREC_ROUNDTRIP
360
3158
  0
DICTIONARY
  5
3155
330
30F9
100
AcDbDictionary
280
     1
281
     1
  3
ACAD_XREC_ROUNDTRIP
360
3156
  0
DICTIONARY
  5
3163
330
3100
100
AcDbDictionary
280
     1
281
     1
  3
ACAD_XREC_ROUNDTRIP
360
3164
  0
DICTIONARY
  5
316B
330
3104
100
AcDbDictionary
280
     1
281
     1
  3
ACAD_XREC_ROUNDTRIP
360
316C
  0
DICTIONARY
  5
315D
330
30FD
100
AcDbDictionary
280
     1
281
     1
  3
ACAD_XREC_ROUNDTRIP
360
315E
  0
DICTIONARY
  5
3161
330
30FF
100
AcDbDictionary
280
     1
281
     1
  3
ACAD_XREC_ROUNDTRIP
360
3162
  0
DICTIONARY
  5
317B
330
310C
100
AcDbDictionary
280
     1
281
     1
  3
ACAD_XREC_ROUNDTRIP
360
317C
  0
DICTIONARY
  5
3169
330
3103
100
AcDbDictionary
280
     1
281
     1
  3
ACAD_XREC_ROUNDTRIP
360
316A
  0
DICTIONARY
  5
314D
330
30F5
100
AcDbDictionary
280
     1
281
     1
  3
ACAD_XREC_ROUNDTRIP
360
314E
  0
DICTIONARY
  5
314F
330
30F6
100
AcDbDictionary
280
     1
281
     1
  3
ACAD_XREC_ROUNDTRIP
360
3150
  0
DICTIONARY
  5
3151
330
30F7
100
AcDbDictionary
280
     1
281
     1
  3
ACAD_XREC_ROUNDTRIP
360
3152
  0
DICTIONARY
  5
3153
330
30F8
100
AcDbDictionary
280
     1
281
     1
  3
ACAD_XREC_ROUNDTRIP
360
3154
  0
DICTIONARY
  5
315B
330
30FC
100
AcDbDictionary
280
     1
281
     1
  3
ACAD_XREC_ROUNDTRIP
360
315C
  0
DICTIONARY
  5
3177
330
310A
100
AcDbDictionary
280
     1
281
     1
  3
ACAD_XREC_ROUNDTRIP
360
3178
  0
DICTIONARY
  5
3167
330
3102
100
AcDbDictionary
280
     1
281
     1
  3
ACAD_XREC_ROUNDTRIP
360
3168
  0
DICTIONARY
  5
3179
330
310B
100
AcDbDictionary
280
     1
281
     1
  3
ACAD_XREC_ROUNDTRIP
360
317A
  0
DICTIONARY
  5
315F
330
30FE
100
AcDbDictionary
280
     1
281
     1
  3
ACAD_XREC_ROUNDTRIP
360
3160
  0
DICTIONARY
  5
3175
330
3109
100
AcDbDictionary
280
     1
281
     1
  3
ACAD_XREC_ROUNDTRIP
360
3176
  0
DICTIONARY
  5
3173
330
3108
100
AcDbDictionary
280
     1
281
     1
  3
ACAD_XREC_ROUNDTRIP
360
3174
  0
DICTIONARY
  5
316D
330
3105
100
AcDbDictionary
280
     1
281
     1
  3
ACAD_XREC_ROUNDTRIP
360
316E
  0
DICTIONARY
  5
316F
330
3106
100
AcDbDictionary
280
     1
281
     1
  3
ACAD_XREC_ROUNDTRIP
360
3170
  0
DICTIONARY
  5
3165
330
3101
100
AcDbDictionary
280
     1
281
     1
  3
ACAD_XREC_ROUNDTRIP
360
3166
  0
DICTIONARY
  5
3159
330
30FB
100
AcDbDictionary
280
     1
281
     1
  3
ACAD_XREC_ROUNDTRIP
360
315A
  0
DICTIONARY
  5
3171
330
3107
100
AcDbDictionary
280
     1
281
     1
  3
ACAD_XREC_ROUNDTRIP
360
3172
  0
XRECORD
  5
3182
102
{ACAD_REACTORS
330
3181
102
}
330
3181
100
AcDbXrecord
280
     1
102
DISPLAYNAME
  1
Imperial24
102
FLAGS
 90
        0
  0
XRECORD
  5
3184
102
{ACAD_REACTORS
330
3183
102
}
330
3183
100
AcDbXrecord
280
     1
102
SHADEPLOT
 70
     0
102
SHADEPLOTRESLEVEL
 70
     2
102
SHADEPLOTCUSTOMDPI
 70
   300
  0
XRECORD
  5
3186
102
{ACAD_REACTORS
330
3185
102
}
330
3185
100
AcDbXrecord
280
     1
102
SHADEPLOT
 70
     0
102
SHADEPLOTRESLEVEL
 70
     2
102
SHADEPLOTCUSTOMDPI
 70
   300
  0
XRECORD
  5
314B
102
{ACAD_REACTORS
330
30E5
102
}
330
30E5
100
AcDbXrecord
280
     1
102
MATERIAL
148
0.0
149
0.0
149
0.0
 93
        0
 94
      127
282
     0
 72
     0
 77
     0
171
     0
175
     0
179
     0
273
     0
  0
XRECORD
  5
30E7
102
{ACAD_REACTORS
330
30E5
102
}
330
30E5
100
AcDbXrecord
280
     1
270
     1
271
     1
  0
XRECORD
  5
30E6
102
{ACAD_REACTORS
330
30E5
102
}
330
30E5
100
AcDbXrecord
280
     1
270
     1
271
     1
  0
XRECORD
  5
30EA
102
{ACAD_REACTORS
330
30E5
102
}
330
30E5
100
AcDbXrecord
280
     1
270
     1
271
     1
  0
XRECORD
  5
30E9
102
{ACAD_REACTORS
330
30E5
102
}
330
30E5
100
AcDbXrecord
280
     1
270
     1
271
     1
  0
XRECORD
  5
30EB
102
{ACAD_REACTORS
330
30E5
102
}
330
30E5
100
AcDbXrecord
280
     1
270
     1
271
     1
  0
XRECORD
  5
30E8
102
{ACAD_REACTORS
330
30E5
102
}
330
30E5
100
AcDbXrecord
280
     1
270
     1
271
     1
  0
XRECORD
  5
314A
102
{ACAD_REACTORS
330
30DD
102
}
330
30DD
100
AcDbXrecord
280
     1
102
MATERIAL
148
0.0
149
0.0
149
0.0
 93
        0
 94
      127
282
     0
 72
     0
 77
     0
171
     0
175
     0
179
     0
273
     0
  0
XRECORD
  5
30DF
102
{ACAD_REACTORS
330
30DD
102
}
330
30DD
100
AcDbXrecord
280
     1
270
     1
271
     1
  0
XRECORD
  5
30DE
102
{ACAD_REACTORS
330
30DD
102
}
330
30DD
100
AcDbXrecord
280
     1
270
     1
271
     1
  0
XRECORD
  5
30E2
102
{ACAD_REACTORS
330
30DD
102
}
330
30DD
100
AcDbXrecord
280
     1
270
     1
271
     1
  0
XRECORD
  5
30E1
102
{ACAD_REACTORS
330
30DD
102
}
330
30DD
100
AcDbXrecord
280
     1
270
     1
271
     1
  0
XRECORD
  5
30E3
102
{ACAD_REACTORS
330
30DD
102
}
330
30DD
100
AcDbXrecord
280
     1
270
     1
271
     1
  0
XRECORD
  5
30E0
102
{ACAD_REACTORS
330
30DD
102
}
330
30DD
100
AcDbXrecord
280
     1
270
     1
271
     1
  0
XRECORD
  5
314C
102
{ACAD_REACTORS
330
30ED
102
}
330
30ED
100
AcDbXrecord
280
     1
102
MATERIAL
148
0.0
149
0.0
149
0.0
 93
        0
 94
      127
282
     0
 72
     0
 77
     0
171
     0
175
     0
179
     0
273
     0
  0
XRECORD
  5
30EF
102
{ACAD_REACTORS
330
30ED
102
}
330
30ED
100
AcDbXrecord
280
     1
270
     1
271
     1
  0
XRECORD
  5
30EE
102
{ACAD_REACTORS
330
30ED
102
}
330
30ED
100
AcDbXrecord
280
     1
270
     1
271
     1
  0
XRECORD
  5
30F2
102
{ACAD_REACTORS
330
30ED
102
}
330
30ED
100
AcDbXrecord
280
     1
270
     1
271
     1
  0
XRECORD
  5
30F1
102
{ACAD_REACTORS
330
30ED
102
}
330
30ED
100
AcDbXrecord
280
     1
270
     1
271
     1
  0
XRECORD
  5
30F3
102
{ACAD_REACTORS
330
30ED
102
}
330
30ED
100
AcDbXrecord
280
     1
270
     1
271
     1
  0
XRECORD
  5
30F0
102
{ACAD_REACTORS
330
30ED
102
}
330
30ED
100
AcDbXrecord
280
     1
270
     1
271
     1
  0
XRECORD
  5
3180
102
{ACAD_REACTORS
330
317F
102
}
330
317F
100
AcDbXrecord
280
     1
102
DISPLAYNAME
  1
Imperial24
102
FLAGS
 90
        0
  0
CELLSTYLEMAP
  5
3147
102
{ACAD_REACTORS
330
3146
102
}
330
3146
100
AcDbCellStyleMap
 90
        3
300
CELLSTYLE
  1
TABLEFORMAT_BEGIN
 90
        5
170
     1
 91
        0
 92
    32768
 62
   257
 93
        1
300
CONTENTFORMAT
  1
CONTENTFORMAT_BEGIN
 90
        0
 91
        0
 92
      512
 93
        0
300

 40
0.0
140
1.0
 94
        5
 62
     0
340
F
144
0.25
309
CONTENTFORMAT_END
171
     0
 94
        0
309
TABLEFORMAT_END
  1
CELLSTYLE_BEGIN
 90
        1
 91
        1
300
_TITLE
309
CELLSTYLE_END
300
CELLSTYLE
  1
TABLEFORMAT_BEGIN
 90
        5
170
     1
 91
        0
 92
        0
 62
   257
 93
        1
300
CONTENTFORMAT
  1
CONTENTFORMAT_BEGIN
 90
        0
 91
        0
 92
      512
 93
        0
300

 40
0.0
140
1.0
 94
        5
 62
     0
340
F
144
0.18
309
CONTENTFORMAT_END
171
     0
 94
        0
309
TABLEFORMAT_END
  1
CELLSTYLE_BEGIN
 90
        2
 91
        1
300
_HEADER
309
CELLSTYLE_END
300
CELLSTYLE
  1
TABLEFORMAT_BEGIN
 90
        5
170
     1
 91
        0
 92
        0
 62
   257
 93
        1
300
CONTENTFORMAT
  1
CONTENTFORMAT_BEGIN
 90
        0
 91
        0
 92
      512
 93
        0
300

 40
0.0
140
1.0
 94
        2
 62
     0
340
F
144
0.18
309
CONTENTFORMAT_END
171
     0
 94
        0
309
TABLEFORMAT_END
  1
CELLSTYLE_BEGIN
 90
        3
 91
        2
300
_DATA
309
CELLSTYLE_END
  0
XRECORD
  5
317D
102
{ACAD_REACTORS
330
3146
102
}
330
3146
100
AcDbXrecord
280
     1
102
ACAD_ROUNDTRIP_PRE2007_TABLESTYLE
 90
      512
 91
        0
  1

 92
      512
 93
        0
  2

 94
      512
 95
        0
  3

  0
XRECORD
  5
3158
102
{ACAD_REACTORS
330
3157
102
}
330
3157
100
AcDbXrecord
280
     1
102
RTVSPost2010Prop28
280
     1
102
RTVSPost2010PropOp28
 70
     1
102
RTVSPost2010Prop29
280
     1
102
RTVSPost2010PropOp29
 70
     1
102
RTVSPost2010Prop30
280
     0
102
RTVSPost2010PropOp30
 70
     1
102
RTVSPost2010Prop31
280
     0
102
RTVSPost2010PropOp31
 70
     1
102
RTVSPost2010Prop32
280
     0
102
RTVSPost2010PropOp32
 70
     1
102
RTVSPost2010Prop33
280
     0
102
RTVSPost2010PropOp33
 70
     1
102
RTVSPost2010Prop34
280
     0
102
RTVSPost2010PropOp34
 70
     1
102
RTVSPost2010Prop35
280
     0
102
RTVSPost2010PropOp35
 70
     1
102
RTVSPost2010Prop36
280
     0
102
RTVSPost2010PropOp36
 70
     1
102
RTVSPost2010Prop37
 90
       50
102
RTVSPost2010PropOp37
 70
     1
102
RTVSPost2010Prop38
140
0.0
102
RTVSPost2010PropOp38
 70
     1
102
RTVSPost2010Prop39
140
1.0
102
RTVSPost2010PropOp39
 70
     1
102
RTVSPost2010Prop40
 90
        0
102
RTVSPost2010PropOp40
 70
     1
102
RTVSPost2010Prop41ColorIndex
 90
       18
102
RTVSPost2010Prop41ColorRGB
 90
        0
102
RTVSPost2010PropOp41
 70
     1
102
RTVSPost2010Prop42
 90
       50
102
RTVSPost2010PropOp42
 70
     1
102
RTVSPost2010Prop43
 90
        3
102
RTVSPost2010PropOp43
 70
     1
102
RTVSPost2010Prop44ColorIndex
 90
        5
102
RTVSPost2010Prop44ColorRGB
 90
      255
102
RTVSPost2010PropOp44
 70
     1
102
RTVSPost2010Prop45
280
     0
102
RTVSPost2010PropOp45
 70
     1
102
RTVSPost2010Prop46
 90
       50
102
RTVSPost2010PropOp46
 70
     1
102
RTVSPost2010Prop47
 90
       50
102
RTVSPost2010PropOp47
 70
     1
102
RTVSPost2010Prop48
 90
       50
102
RTVSPost2010PropOp48
 70
     1
102
RTVSPost2010Prop49
280
     0
102
RTVSPost2010PropOp49
 70
     1
102
RTVSPost2010Prop50
 90
       50
102
RTVSPost2010PropOp50
 70
     1
102
RTVSPost2010Prop51ColorIndex
 90
      256
102
RTVSPost2010Prop51ColorRGB
 90
-16777216
102
RTVSPost2010PropOp51
 70
     0
102
RTVSPost2010Prop52
140
1.0
102
RTVSPost2010PropOp52
 70
     0
102
RTVSPost2010Prop53
 90
        2
102
RTVSPost2010PropOp53
 70
     1
102
RTVSPost2010Prop54
  1
strokes_ogs.tif
102
RTVSPost2010PropOp54
 70
     1
102
RTVSPost2010Prop55
280
     0
102
RTVSPost2010PropOp55
 70
     1
102
RTVSPost2010Prop56
140
1.0
102
RTVSPost2010PropOp56
 70
     1
102
RTVSPost2010Prop57
140
1.0
102
RTVSPost2010PropOp57
 70
     1
102
RTVSPropertyOp0
 70
     1
102
RTVSPropertyOp1
 70
     1
102
RTVSPropertyOp2
 70
     1
102
RTVSPropertyOp3
 70
     1
102
RTVSPropertyOp4
 70
     1
102
RTVSPropertyOp5
 70
     1
102
RTVSPropertyOp6
 70
     1
102
RTVSPropertyOp7
 70
     1
102
RTVSPropertyOp8
 70
     1
102
RTVSPropertyOp9
 70
     1
102
RTVSPropertyOp10
 70
     1
102
RTVSPropertyOp11
 70
     1
102
RTVSPropertyOp12
 70
     1
102
RTVSPropertyOp13
 70
     1
102
RTVSPropertyOp14
 70
     1
102
RTVSPropertyOp15
 70
     1
102
RTVSPropertyOp16
 70
     1
102
RTVSPropertyOp17
 70
     1
102
RTVSPropertyOp18
 70
     1
102
RTVSPropertyOp19
 70
     1
102
RTVSPropertyOp20
 70
     1
102
RTVSPropertyOp21
 70
     1
102
RTVSPropertyOp22
 70
     1
102
RTVSPropertyOp23
 70
     1
102
RTVSPropertyOp24
 70
     1
102
RTVSPropertyOp25
 70
     1
102
RTVSPropertyOp26
 70
     1
102
RTVSPropertyOp27
 70
     1
102
RTVSPropertyOp28
 70
     1
102
RTVSPropertyOp29
 70
     1
102
RTVSPropertyOp30
 70
     1
102
RTVSPropertyOp31
 70
     1
102
RTVSPropertyOp32
 70
     1
102
RTVSPropertyOp33
 70
     1
102
RTVSPropertyOp34
 70
     1
102
RTVSPropertyOp35
 70
     1
102
RTVSPropertyOp36
 70
     1
102
RTVSPropertyOp37
 70
     1
102
RTVSPropertyOp38
 70
     1
102
RTVSPropertyOp39
 70
     1
102
RTVSPropertyOp40
 70
     1
102
RTVSPropertyOp41
 70
     1
102
RTVSPropertyOp42
 70
     1
102
RTVSPropertyOp43
 70
     1
102
RTVSPropertyOp44
 70
     1
102
RTVSPropertyOp45
 70
     1
102
RTVSPropertyOp46
 70
     1
102
RTVSPropertyOp47
 70
     1
102
RTVSPropertyOp48
 70
     1
102
RTVSPropertyOp49
 70
     1
102
RTVSPropertyOp50
 70
     1
102
RTVSPropertyOp51
 70
     0
102
RTVSPropertyOp52
 70
     0
102
RTVSPropertyOp53
 70
     1
102
RTVSPropertyOp54
 70
     1
102
RTVSPropertyOp55
 70
     1
102
RTVSPropertyOp56
 70
     1
102
RTVSPropertyOp57
 70
     1
102
RTVSPropertyOp58
 70
     1
102
RTVSPropertyOp59
 70
     1
102
RTVSPropertyOp60
 70
     1
102
RTVSPropertyOp61
 70
     1
102
RTVSPropertyOp62
 70
     1
  0
XRECORD
  5
3156
102
{ACAD_REACTORS
330
3155
102
}
330
3155
100
AcDbXrecord
280
     1
102
RTVSPost2010Prop28
280
     0
102
RTVSPost2010PropOp28
 70
     1
102
RTVSPost2010Prop29
280
     1
102
RTVSPost2010PropOp29
 70
     1
102
RTVSPost2010Prop30
280
     1
102
RTVSPost2010PropOp30
 70
     1
102
RTVSPost2010Prop31
280
     0
102
RTVSPost2010PropOp31
 70
     1
102
RTVSPost2010Prop32
280
     0
102
RTVSPost2010PropOp32
 70
     1
102
RTVSPost2010Prop33
280
     0
102
RTVSPost2010PropOp33
 70
     1
102
RTVSPost2010Prop34
280
     0
102
RTVSPost2010PropOp34
 70
     1
102
RTVSPost2010Prop35
280
     0
102
RTVSPost2010PropOp35
 70
     1
102
RTVSPost2010Prop36
280
     0
102
RTVSPost2010PropOp36
 70
     1
102
RTVSPost2010Prop37
 90
       50
102
RTVSPost2010PropOp37
 70
     1
102
RTVSPost2010Prop38
140
0.0
102
RTVSPost2010PropOp38
 70
     1
102
RTVSPost2010Prop39
140
1.0
102
RTVSPost2010PropOp39
 70
     1
102
RTVSPost2010Prop40
 90
        0
102
RTVSPost2010PropOp40
 70
     1
102
RTVSPost2010Prop41ColorIndex
 90
       18
102
RTVSPost2010Prop41ColorRGB
 90
        0
102
RTVSPost2010PropOp41
 70
     1
102
RTVSPost2010Prop42
 90
       50
102
RTVSPost2010PropOp42
 70
     1
102
RTVSPost2010Prop43
 90
        3
102
RTVSPost2010PropOp43
 70
     1
102
RTVSPost2010Prop44ColorIndex
 90
        5
102
RTVSPost2010Prop44ColorRGB
 90
      255
102
RTVSPost2010PropOp44
 70
     1
102
RTVSPost2010Prop45
280
     0
102
RTVSPost2010PropOp45
 70
     1
102
RTVSPost2010Prop46
 90
       50
102
RTVSPost2010PropOp46
 70
     1
102
RTVSPost2010Prop47
 90
       50
102
RTVSPost2010PropOp47
 70
     1
102
RTVSPost2010Prop48
 90
       50
102
RTVSPost2010PropOp48
 70
     1
102
RTVSPost2010Prop49
280
     0
102
RTVSPost2010PropOp49
 70
     1
102
RTVSPost2010Prop50
 90
       50
102
RTVSPost2010PropOp50
 70
     1
102
RTVSPost2010Prop51ColorIndex
 90
      256
102
RTVSPost2010Prop51ColorRGB
 90
-16777216
102
RTVSPost2010PropOp51
 70
     0
102
RTVSPost2010Prop52
140
1.0
102
RTVSPost2010PropOp52
 70
     0
102
RTVSPost2010Prop53
 90
        2
102
RTVSPost2010PropOp53
 70
     1
102
RTVSPost2010Prop54
  1
strokes_ogs.tif
102
RTVSPost2010PropOp54
 70
     1
102
RTVSPost2010Prop55
280
     0
102
RTVSPost2010PropOp55
 70
     1
102
RTVSPost2010Prop56
140
1.0
102
RTVSPost2010PropOp56
 70
     1
102
RTVSPost2010Prop57
140
1.0
102
RTVSPost2010PropOp57
 70
     1
102
RTVSPropertyOp0
 70
     1
102
RTVSPropertyOp1
 70
     1
102
RTVSPropertyOp2
 70
     1
102
RTVSPropertyOp3
 70
     1
102
RTVSPropertyOp4
 70
     1
102
RTVSPropertyOp5
 70
     1
102
RTVSPropertyOp6
 70
     1
102
RTVSPropertyOp7
 70
     1
102
RTVSPropertyOp8
 70
     1
102
RTVSPropertyOp9
 70
     1
102
RTVSPropertyOp10
 70
     1
102
RTVSPropertyOp11
 70
     1
102
RTVSPropertyOp12
 70
     1
102
RTVSPropertyOp13
 70
     1
102
RTVSPropertyOp14
 70
     1
102
RTVSPropertyOp15
 70
     1
102
RTVSPropertyOp16
 70
     1
102
RTVSPropertyOp17
 70
     1
102
RTVSPropertyOp18
 70
     1
102
RTVSPropertyOp19
 70
     1
102
RTVSPropertyOp20
 70
     1
102
RTVSPropertyOp21
 70
     1
102
RTVSPropertyOp22
 70
     1
102
RTVSPropertyOp23
 70
     1
102
RTVSPropertyOp24
 70
     1
102
RTVSPropertyOp25
 70
     1
102
RTVSPropertyOp26
 70
     1
102
RTVSPropertyOp27
 70
     1
102
RTVSPropertyOp28
 70
     1
102
RTVSPropertyOp29
 70
     1
102
RTVSPropertyOp30
 70
     1
102
RTVSPropertyOp31
 70
     1
102
RTVSPropertyOp32
 70
     1
102
RTVSPropertyOp33
 70
     1
102
RTVSPropertyOp34
 70
     1
102
RTVSPropertyOp35
 70
     1
102
RTVSPropertyOp36
 70
     1
102
RTVSPropertyOp37
 70
     1
102
RTVSPropertyOp38
 70
     1
102
RTVSPropertyOp39
 70
     1
102
RTVSPropertyOp40
 70
     1
102
RTVSPropertyOp41
 70
     1
102
RTVSPropertyOp42
 70
     1
102
RTVSPropertyOp43
 70
     1
102
RTVSPropertyOp44
 70
     1
102
RTVSPropertyOp45
 70
     1
102
RTVSPropertyOp46
 70
     1
102
RTVSPropertyOp47
 70
     1
102
RTVSPropertyOp48
 70
     1
102
RTVSPropertyOp49
 70
     1
102
RTVSPropertyOp50
 70
     1
102
RTVSPropertyOp51
 70
     0
102
RTVSPropertyOp52
 70
     0
102
RTVSPropertyOp53
 70
     1
102
RTVSPropertyOp54
 70
     1
102
RTVSPropertyOp55
 70
     1
102
RTVSPropertyOp56
 70
     1
102
RTVSPropertyOp57
 70
     1
102
RTVSPropertyOp58
 70
     1
102
RTVSPropertyOp59
 70
     1
102
RTVSPropertyOp60
 70
     1
102
RTVSPropertyOp61
 70
     1
102
RTVSPropertyOp62
 70
     1
  0
XRECORD
  5
3164
102
{ACAD_REACTORS
330
3163
102
}
330
3163
100
AcDbXrecord
280
     1
102
RTVSPost2010Prop28
280
     0
102
RTVSPost2010PropOp28
 70
     1
102
RTVSPost2010Prop29
280
     1
102
RTVSPost2010PropOp29
 70
     1
102
RTVSPost2010Prop30
280
     1
102
RTVSPost2010PropOp30
 70
     1
102
RTVSPost2010Prop31
280
     0
102
RTVSPost2010PropOp31
 70
     1
102
RTVSPost2010Prop32
280
     0
102
RTVSPost2010PropOp32
 70
     1
102
RTVSPost2010Prop33
280
     0
102
RTVSPost2010PropOp33
 70
     1
102
RTVSPost2010Prop34
280
     0
102
RTVSPost2010PropOp34
 70
     1
102
RTVSPost2010Prop35
280
     0
102
RTVSPost2010PropOp35
 70
     1
102
RTVSPost2010Prop36
280
     0
102
RTVSPost2010PropOp36
 70
     1
102
RTVSPost2010Prop37
 90
       50
102
RTVSPost2010PropOp37
 70
     1
102
RTVSPost2010Prop38
140
0.0
102
RTVSPost2010PropOp38
 70
     1
102
RTVSPost2010Prop39
140
1.0
102
RTVSPost2010PropOp39
 70
     1
102
RTVSPost2010Prop40
 90
        0
102
RTVSPost2010PropOp40
 70
     1
102
RTVSPost2010Prop41ColorIndex
 90
       18
102
RTVSPost2010Prop41ColorRGB
 90
        0
102
RTVSPost2010PropOp41
 70
     1
102
RTVSPost2010Prop42
 90
       50
102
RTVSPost2010PropOp42
 70
     1
102
RTVSPost2010Prop43
 90
        3
102
RTVSPost2010PropOp43
 70
     1
102
RTVSPost2010Prop44ColorIndex
 90
        5
102
RTVSPost2010Prop44ColorRGB
 90
      255
102
RTVSPost2010PropOp44
 70
     1
102
RTVSPost2010Prop45
280
     0
102
RTVSPost2010PropOp45
 70
     1
102
RTVSPost2010Prop46
 90
       50
102
RTVSPost2010PropOp46
 70
     1
102
RTVSPost2010Prop47
 90
       50
102
RTVSPost2010PropOp47
 70
     1
102
RTVSPost2010Prop48
 90
       50
102
RTVSPost2010PropOp48
 70
     1
102
RTVSPost2010Prop49
280
     0
102
RTVSPost2010PropOp49
 70
     1
102
RTVSPost2010Prop50
 90
       50
102
RTVSPost2010PropOp50
 70
     1
102
RTVSPost2010Prop51ColorIndex
 90
      256
102
RTVSPost2010Prop51ColorRGB
 90
-16777216
102
RTVSPost2010PropOp51
 70
     0
102
RTVSPost2010Prop52
140
1.0
102
RTVSPost2010PropOp52
 70
     0
102
RTVSPost2010Prop53
 90
        2
102
RTVSPost2010PropOp53
 70
     1
102
RTVSPost2010Prop54
  1
strokes_ogs.tif
102
RTVSPost2010PropOp54
 70
     1
102
RTVSPost2010Prop55
280
     0
102
RTVSPost2010PropOp55
 70
     1
102
RTVSPost2010Prop56
140
1.0
102
RTVSPost2010PropOp56
 70
     1
102
RTVSPost2010Prop57
140
1.0
102
RTVSPost2010PropOp57
 70
     1
102
RTVSPropertyOp0
 70
     1
102
RTVSPropertyOp1
 70
     1
102
RTVSPropertyOp2
 70
     1
102
RTVSPropertyOp3
 70
     1
102
RTVSPropertyOp4
 70
     1
102
RTVSPropertyOp5
 70
     1
102
RTVSPropertyOp6
 70
     1
102
RTVSPropertyOp7
 70
     1
102
RTVSPropertyOp8
 70
     1
102
RTVSPropertyOp9
 70
     1
102
RTVSPropertyOp10
 70
     1
102
RTVSPropertyOp11
 70
     1
102
RTVSPropertyOp12
 70
     1
102
RTVSPropertyOp13
 70
     1
102
RTVSPropertyOp14
 70
     1
102
RTVSPropertyOp15
 70
     1
102
RTVSPropertyOp16
 70
     1
102
RTVSPropertyOp17
 70
     1
102
RTVSPropertyOp18
 70
     1
102
RTVSPropertyOp19
 70
     1
102
RTVSPropertyOp20
 70
     1
102
RTVSPropertyOp21
 70
     1
102
RTVSPropertyOp22
 70
     1
102
RTVSPropertyOp23
 70
     1
102
RTVSPropertyOp24
 70
     1
102
RTVSPropertyOp25
 70
     1
102
RTVSPropertyOp26
 70
     1
102
RTVSPropertyOp27
 70
     1
102
RTVSPropertyOp28
 70
     1
102
RTVSPropertyOp29
 70
     1
102
RTVSPropertyOp30
 70
     1
102
RTVSPropertyOp31
 70
     1
102
RTVSPropertyOp32
 70
     1
102
RTVSPropertyOp33
 70
     1
102
RTVSPropertyOp34
 70
     1
102
RTVSPropertyOp35
 70
     1
102
RTVSPropertyOp36
 70
     1
102
RTVSPropertyOp37
 70
     1
102
RTVSPropertyOp38
 70
     1
102
RTVSPropertyOp39
 70
     1
102
RTVSPropertyOp40
 70
     1
102
RTVSPropertyOp41
 70
     1
102
RTVSPropertyOp42
 70
     1
102
RTVSPropertyOp43
 70
     1
102
RTVSPropertyOp44
 70
     1
102
RTVSPropertyOp45
 70
     1
102
RTVSPropertyOp46
 70
     1
102
RTVSPropertyOp47
 70
     1
102
RTVSPropertyOp48
 70
     1
102
RTVSPropertyOp49
 70
     1
102
RTVSPropertyOp50
 70
     1
102
RTVSPropertyOp51
 70
     0
102
RTVSPropertyOp52
 70
     0
102
RTVSPropertyOp53
 70
     1
102
RTVSPropertyOp54
 70
     1
102
RTVSPropertyOp55
 70
     1
102
RTVSPropertyOp56
 70
     1
102
RTVSPropertyOp57
 70
     1
102
RTVSPropertyOp58
 70
     1
102
RTVSPropertyOp59
 70
     1
102
RTVSPropertyOp60
 70
     1
102
RTVSPropertyOp61
 70
     1
102
RTVSPropertyOp62
 70
     1
  0
XRECORD
  5
316C
102
{ACAD_REACTORS
330
316B
102
}
330
316B
100
AcDbXrecord
280
     1
102
RTVSPost2010Prop28
280
     0
102
RTVSPost2010PropOp28
 70
     1
102
RTVSPost2010Prop29
280
     1
102
RTVSPost2010PropOp29
 70
     1
102
RTVSPost2010Prop30
280
     1
102
RTVSPost2010PropOp30
 70
     1
102
RTVSPost2010Prop31
280
     0
102
RTVSPost2010PropOp31
 70
     1
102
RTVSPost2010Prop32
280
     0
102
RTVSPost2010PropOp32
 70
     1
102
RTVSPost2010Prop33
280
     0
102
RTVSPost2010PropOp33
 70
     1
102
RTVSPost2010Prop34
280
     0
102
RTVSPost2010PropOp34
 70
     1
102
RTVSPost2010Prop35
280
     0
102
RTVSPost2010PropOp35
 70
     1
102
RTVSPost2010Prop36
280
     0
102
RTVSPost2010PropOp36
 70
     1
102
RTVSPost2010Prop37
 90
       50
102
RTVSPost2010PropOp37
 70
     1
102
RTVSPost2010Prop38
140
0.0
102
RTVSPost2010PropOp38
 70
     1
102
RTVSPost2010Prop39
140
1.0
102
RTVSPost2010PropOp39
 70
     1
102
RTVSPost2010Prop40
 90
        0
102
RTVSPost2010PropOp40
 70
     1
102
RTVSPost2010Prop41ColorIndex
 90
       18
102
RTVSPost2010Prop41ColorRGB
 90
        0
102
RTVSPost2010PropOp41
 70
     1
102
RTVSPost2010Prop42
 90
       50
102
RTVSPost2010PropOp42
 70
     1
102
RTVSPost2010Prop43
 90
        3
102
RTVSPost2010PropOp43
 70
     1
102
RTVSPost2010Prop44ColorIndex
 90
        5
102
RTVSPost2010Prop44ColorRGB
 90
      255
102
RTVSPost2010PropOp44
 70
     1
102
RTVSPost2010Prop45
280
     0
102
RTVSPost2010PropOp45
 70
     1
102
RTVSPost2010Prop46
 90
       50
102
RTVSPost2010PropOp46
 70
     1
102
RTVSPost2010Prop47
 90
       50
102
RTVSPost2010PropOp47
 70
     1
102
RTVSPost2010Prop48
 90
       50
102
RTVSPost2010PropOp48
 70
     1
102
RTVSPost2010Prop49
280
     0
102
RTVSPost2010PropOp49
 70
     1
102
RTVSPost2010Prop50
 90
       50
102
RTVSPost2010PropOp50
 70
     1
102
RTVSPost2010Prop51ColorIndex
 90
      256
102
RTVSPost2010Prop51ColorRGB
 90
-16777216
102
RTVSPost2010PropOp51
 70
     0
102
RTVSPost2010Prop52
140
1.0
102
RTVSPost2010PropOp52
 70
     0
102
RTVSPost2010Prop53
 90
        2
102
RTVSPost2010PropOp53
 70
     1
102
RTVSPost2010Prop54
  1
strokes_ogs.tif
102
RTVSPost2010PropOp54
 70
     1
102
RTVSPost2010Prop55
280
     0
102
RTVSPost2010PropOp55
 70
     1
102
RTVSPost2010Prop56
140
1.0
102
RTVSPost2010PropOp56
 70
     1
102
RTVSPost2010Prop57
140
1.0
102
RTVSPost2010PropOp57
 70
     1
102
RTVSPropertyOp0
 70
     1
102
RTVSPropertyOp1
 70
     1
102
RTVSPropertyOp2
 70
     1
102
RTVSPropertyOp3
 70
     1
102
RTVSPropertyOp4
 70
     1
102
RTVSPropertyOp5
 70
     1
102
RTVSPropertyOp6
 70
     1
102
RTVSPropertyOp7
 70
     1
102
RTVSPropertyOp8
 70
     1
102
RTVSPropertyOp9
 70
     1
102
RTVSPropertyOp10
 70
     1
102
RTVSPropertyOp11
 70
     1
102
RTVSPropertyOp12
 70
     1
102
RTVSPropertyOp13
 70
     1
102
RTVSPropertyOp14
 70
     1
102
RTVSPropertyOp15
 70
     1
102
RTVSPropertyOp16
 70
     1
102
RTVSPropertyOp17
 70
     1
102
RTVSPropertyOp18
 70
     1
102
RTVSPropertyOp19
 70
     1
102
RTVSPropertyOp20
 70
     1
102
RTVSPropertyOp21
 70
     1
102
RTVSPropertyOp22
 70
     1
102
RTVSPropertyOp23
 70
     1
102
RTVSPropertyOp24
 70
     1
102
RTVSPropertyOp25
 70
     1
102
RTVSPropertyOp26
 70
     1
102
RTVSPropertyOp27
 70
     1
102
RTVSPropertyOp28
 70
     1
102
RTVSPropertyOp29
 70
     1
102
RTVSPropertyOp30
 70
     1
102
RTVSPropertyOp31
 70
     1
102
RTVSPropertyOp32
 70
     1
102
RTVSPropertyOp33
 70
     1
102
RTVSPropertyOp34
 70
     1
102
RTVSPropertyOp35
 70
     1
102
RTVSPropertyOp36
 70
     1
102
RTVSPropertyOp37
 70
     1
102
RTVSPropertyOp38
 70
     1
102
RTVSPropertyOp39
 70
     1
102
RTVSPropertyOp40
 70
     1
102
RTVSPropertyOp41
 70
     1
102
RTVSPropertyOp42
 70
     1
102
RTVSPropertyOp43
 70
     1
102
RTVSPropertyOp44
 70
     1
102
RTVSPropertyOp45
 70
     1
102
RTVSPropertyOp46
 70
     1
102
RTVSPropertyOp47
 70
     1
102
RTVSPropertyOp48
 70
     1
102
RTVSPropertyOp49
 70
     1
102
RTVSPropertyOp50
 70
     1
102
RTVSPropertyOp51
 70
     0
102
RTVSPropertyOp52
 70
     0
102
RTVSPropertyOp53
 70
     1
102
RTVSPropertyOp54
 70
     1
102
RTVSPropertyOp55
 70
     1
102
RTVSPropertyOp56
 70
     1
102
RTVSPropertyOp57
 70
     1
102
RTVSPropertyOp58
 70
     1
102
RTVSPropertyOp59
 70
     1
102
RTVSPropertyOp60
 70
     1
102
RTVSPropertyOp61
 70
     1
102
RTVSPropertyOp62
 70
     1
  0
XRECORD
  5
315E
102
{ACAD_REACTORS
330
315D
102
}
330
315D
100
AcDbXrecord
280
     1
102
RTVSPost2010Prop28
280
     0
102
RTVSPost2010PropOp28
 70
     1
102
RTVSPost2010Prop29
280
     1
102
RTVSPost2010PropOp29
 70
     1
102
RTVSPost2010Prop30
280
     1
102
RTVSPost2010PropOp30
 70
     1
102
RTVSPost2010Prop31
280
     0
102
RTVSPost2010PropOp31
 70
     1
102
RTVSPost2010Prop32
280
     0
102
RTVSPost2010PropOp32
 70
     1
102
RTVSPost2010Prop33
280
     0
102
RTVSPost2010PropOp33
 70
     1
102
RTVSPost2010Prop34
280
     0
102
RTVSPost2010PropOp34
 70
     1
102
RTVSPost2010Prop35
280
     0
102
RTVSPost2010PropOp35
 70
     1
102
RTVSPost2010Prop36
280
     0
102
RTVSPost2010PropOp36
 70
     1
102
RTVSPost2010Prop37
 90
       50
102
RTVSPost2010PropOp37
 70
     1
102
RTVSPost2010Prop38
140
0.0
102
RTVSPost2010PropOp38
 70
     1
102
RTVSPost2010Prop39
140
1.0
102
RTVSPost2010PropOp39
 70
     1
102
RTVSPost2010Prop40
 90
        0
102
RTVSPost2010PropOp40
 70
     1
102
RTVSPost2010Prop41ColorIndex
 90
       18
102
RTVSPost2010Prop41ColorRGB
 90
        0
102
RTVSPost2010PropOp41
 70
     1
102
RTVSPost2010Prop42
 90
       50
102
RTVSPost2010PropOp42
 70
     1
102
RTVSPost2010Prop43
 90
        3
102
RTVSPost2010PropOp43
 70
     1
102
RTVSPost2010Prop44ColorIndex
 90
        5
102
RTVSPost2010Prop44ColorRGB
 90
      255
102
RTVSPost2010PropOp44
 70
     1
102
RTVSPost2010Prop45
280
     0
102
RTVSPost2010PropOp45
 70
     1
102
RTVSPost2010Prop46
 90
       50
102
RTVSPost2010PropOp46
 70
     1
102
RTVSPost2010Prop47
 90
       50
102
RTVSPost2010PropOp47
 70
     1
102
RTVSPost2010Prop48
 90
       50
102
RTVSPost2010PropOp48
 70
     1
102
RTVSPost2010Prop49
280
     0
102
RTVSPost2010PropOp49
 70
     1
102
RTVSPost2010Prop50
 90
       50
102
RTVSPost2010PropOp50
 70
     1
102
RTVSPost2010Prop51ColorIndex
 90
      256
102
RTVSPost2010Prop51ColorRGB
 90
-16777216
102
RTVSPost2010PropOp51
 70
     0
102
RTVSPost2010Prop52
140
1.0
102
RTVSPost2010PropOp52
 70
     0
102
RTVSPost2010Prop53
 90
        2
102
RTVSPost2010PropOp53
 70
     1
102
RTVSPost2010Prop54
  1
strokes_ogs.tif
102
RTVSPost2010PropOp54
 70
     1
102
RTVSPost2010Prop55
280
     0
102
RTVSPost2010PropOp55
 70
     1
102
RTVSPost2010Prop56
140
1.0
102
RTVSPost2010PropOp56
 70
     1
102
RTVSPost2010Prop57
140
1.0
102
RTVSPost2010PropOp57
 70
     1
102
RTVSPropertyOp0
 70
     1
102
RTVSPropertyOp1
 70
     1
102
RTVSPropertyOp2
 70
     1
102
RTVSPropertyOp3
 70
     1
102
RTVSPropertyOp4
 70
     1
102
RTVSPropertyOp5
 70
     1
102
RTVSPropertyOp6
 70
     1
102
RTVSPropertyOp7
 70
     1
102
RTVSPropertyOp8
 70
     1
102
RTVSPropertyOp9
 70
     1
102
RTVSPropertyOp10
 70
     1
102
RTVSPropertyOp11
 70
     1
102
RTVSPropertyOp12
 70
     1
102
RTVSPropertyOp13
 70
     1
102
RTVSPropertyOp14
 70
     1
102
RTVSPropertyOp15
 70
     1
102
RTVSPropertyOp16
 70
     1
102
RTVSPropertyOp17
 70
     1
102
RTVSPropertyOp18
 70
     1
102
RTVSPropertyOp19
 70
     1
102
RTVSPropertyOp20
 70
     1
102
RTVSPropertyOp21
 70
     1
102
RTVSPropertyOp22
 70
     1
102
RTVSPropertyOp23
 70
     1
102
RTVSPropertyOp24
 70
     1
102
RTVSPropertyOp25
 70
     1
102
RTVSPropertyOp26
 70
     1
102
RTVSPropertyOp27
 70
     1
102
RTVSPropertyOp28
 70
     1
102
RTVSPropertyOp29
 70
     1
102
RTVSPropertyOp30
 70
     1
102
RTVSPropertyOp31
 70
     1
102
RTVSPropertyOp32
 70
     1
102
RTVSPropertyOp33
 70
     1
102
RTVSPropertyOp34
 70
     1
102
RTVSPropertyOp35
 70
     1
102
RTVSPropertyOp36
 70
     1
102
RTVSPropertyOp37
 70
     1
102
RTVSPropertyOp38
 70
     1
102
RTVSPropertyOp39
 70
     1
102
RTVSPropertyOp40
 70
     1
102
RTVSPropertyOp41
 70
     1
102
RTVSPropertyOp42
 70
     1
102
RTVSPropertyOp43
 70
     1
102
RTVSPropertyOp44
 70
     1
102
RTVSPropertyOp45
 70
     1
102
RTVSPropertyOp46
 70
     1
102
RTVSPropertyOp47
 70
     1
102
RTVSPropertyOp48
 70
     1
102
RTVSPropertyOp49
 70
     1
102
RTVSPropertyOp50
 70
     1
102
RTVSPropertyOp51
 70
     0
102
RTVSPropertyOp52
 70
     0
102
RTVSPropertyOp53
 70
     1
102
RTVSPropertyOp54
 70
     1
102
RTVSPropertyOp55
 70
     1
102
RTVSPropertyOp56
 70
     1
102
RTVSPropertyOp57
 70
     1
102
RTVSPropertyOp58
 70
     1
102
RTVSPropertyOp59
 70
     1
102
RTVSPropertyOp60
 70
     1
102
RTVSPropertyOp61
 70
     1
102
RTVSPropertyOp62
 70
     1
  0
XRECORD
  5
3162
102
{ACAD_REACTORS
330
3161
102
}
330
3161
100
AcDbXrecord
280
     1
102
RTVSPost2010Prop28
280
     0
102
RTVSPost2010PropOp28
 70
     1
102
RTVSPost2010Prop29
280
     1
102
RTVSPost2010PropOp29
 70
     1
102
RTVSPost2010Prop30
280
     1
102
RTVSPost2010PropOp30
 70
     1
102
RTVSPost2010Prop31
280
     0
102
RTVSPost2010PropOp31
 70
     1
102
RTVSPost2010Prop32
280
     0
102
RTVSPost2010PropOp32
 70
     1
102
RTVSPost2010Prop33
280
     0
102
RTVSPost2010PropOp33
 70
     1
102
RTVSPost2010Prop34
280
     0
102
RTVSPost2010PropOp34
 70
     1
102
RTVSPost2010Prop35
280
     0
102
RTVSPost2010PropOp35
 70
     1
102
RTVSPost2010Prop36
280
     0
102
RTVSPost2010PropOp36
 70
     1
102
RTVSPost2010Prop37
 90
       50
102
RTVSPost2010PropOp37
 70
     1
102
RTVSPost2010Prop38
140
0.0
102
RTVSPost2010PropOp38
 70
     1
102
RTVSPost2010Prop39
140
1.0
102
RTVSPost2010PropOp39
 70
     1
102
RTVSPost2010Prop40
 90
        0
102
RTVSPost2010PropOp40
 70
     1
102
RTVSPost2010Prop41ColorIndex
 90
       18
102
RTVSPost2010Prop41ColorRGB
 90
        0
102
RTVSPost2010PropOp41
 70
     1
102
RTVSPost2010Prop42
 90
       50
102
RTVSPost2010PropOp42
 70
     1
102
RTVSPost2010Prop43
 90
        3
102
RTVSPost2010PropOp43
 70
     1
102
RTVSPost2010Prop44ColorIndex
 90
        5
102
RTVSPost2010Prop44ColorRGB
 90
      255
102
RTVSPost2010PropOp44
 70
     1
102
RTVSPost2010Prop45
280
     0
102
RTVSPost2010PropOp45
 70
     1
102
RTVSPost2010Prop46
 90
       50
102
RTVSPost2010PropOp46
 70
     1
102
RTVSPost2010Prop47
 90
       50
102
RTVSPost2010PropOp47
 70
     1
102
RTVSPost2010Prop48
 90
       50
102
RTVSPost2010PropOp48
 70
     1
102
RTVSPost2010Prop49
280
     0
102
RTVSPost2010PropOp49
 70
     1
102
RTVSPost2010Prop50
 90
       50
102
RTVSPost2010PropOp50
 70
     1
102
RTVSPost2010Prop51ColorIndex
 90
      256
102
RTVSPost2010Prop51ColorRGB
 90
-16777216
102
RTVSPost2010PropOp51
 70
     0
102
RTVSPost2010Prop52
140
1.0
102
RTVSPost2010PropOp52
 70
     0
102
RTVSPost2010Prop53
 90
        2
102
RTVSPost2010PropOp53
 70
     1
102
RTVSPost2010Prop54
  1
strokes_ogs.tif
102
RTVSPost2010PropOp54
 70
     1
102
RTVSPost2010Prop55
280
     0
102
RTVSPost2010PropOp55
 70
     1
102
RTVSPost2010Prop56
140
1.0
102
RTVSPost2010PropOp56
 70
     1
102
RTVSPost2010Prop57
140
1.0
102
RTVSPost2010PropOp57
 70
     1
102
RTVSPropertyOp0
 70
     1
102
RTVSPropertyOp1
 70
     1
102
RTVSPropertyOp2
 70
     1
102
RTVSPropertyOp3
 70
     1
102
RTVSPropertyOp4
 70
     1
102
RTVSPropertyOp5
 70
     1
102
RTVSPropertyOp6
 70
     1
102
RTVSPropertyOp7
 70
     1
102
RTVSPropertyOp8
 70
     1
102
RTVSPropertyOp9
 70
     1
102
RTVSPropertyOp10
 70
     1
102
RTVSPropertyOp11
 70
     1
102
RTVSPropertyOp12
 70
     1
102
RTVSPropertyOp13
 70
     1
102
RTVSPropertyOp14
 70
     1
102
RTVSPropertyOp15
 70
     1
102
RTVSPropertyOp16
 70
     1
102
RTVSPropertyOp17
 70
     1
102
RTVSPropertyOp18
 70
     1
102
RTVSPropertyOp19
 70
     1
102
RTVSPropertyOp20
 70
     1
102
RTVSPropertyOp21
 70
     1
102
RTVSPropertyOp22
 70
     1
102
RTVSPropertyOp23
 70
     1
102
RTVSPropertyOp24
 70
     1
102
RTVSPropertyOp25
 70
     1
102
RTVSPropertyOp26
 70
     1
102
RTVSPropertyOp27
 70
     1
102
RTVSPropertyOp28
 70
     1
102
RTVSPropertyOp29
 70
     1
102
RTVSPropertyOp30
 70
     1
102
RTVSPropertyOp31
 70
     1
102
RTVSPropertyOp32
 70
     1
102
RTVSPropertyOp33
 70
     1
102
RTVSPropertyOp34
 70
     1
102
RTVSPropertyOp35
 70
     1
102
RTVSPropertyOp36
 70
     1
102
RTVSPropertyOp37
 70
     1
102
RTVSPropertyOp38
 70
     1
102
RTVSPropertyOp39
 70
     1
102
RTVSPropertyOp40
 70
     1
102
RTVSPropertyOp41
 70
     1
102
RTVSPropertyOp42
 70
     1
102
RTVSPropertyOp43
 70
     1
102
RTVSPropertyOp44
 70
     1
102
RTVSPropertyOp45
 70
     1
102
RTVSPropertyOp46
 70
     1
102
RTVSPropertyOp47
 70
     1
102
RTVSPropertyOp48
 70
     1
102
RTVSPropertyOp49
 70
     1
102
RTVSPropertyOp50
 70
     1
102
RTVSPropertyOp51
 70
     0
102
RTVSPropertyOp52
 70
     0
102
RTVSPropertyOp53
 70
     1
102
RTVSPropertyOp54
 70
     1
102
RTVSPropertyOp55
 70
     1
102
RTVSPropertyOp56
 70
     1
102
RTVSPropertyOp57
 70
     1
102
RTVSPropertyOp58
 70
     1
102
RTVSPropertyOp59
 70
     1
102
RTVSPropertyOp60
 70
     1
102
RTVSPropertyOp61
 70
     1
102
RTVSPropertyOp62
 70
     1
  0
XRECORD
  5
317C
102
{ACAD_REACTORS
330
317B
102
}
330
317B
100
AcDbXrecord
280
     1
102
RTVSPost2010Prop28
280
     0
102
RTVSPost2010PropOp28
 70
     1
102
RTVSPost2010Prop29
280
     1
102
RTVSPost2010PropOp29
 70
     1
102
RTVSPost2010Prop30
280
     1
102
RTVSPost2010PropOp30
 70
     1
102
RTVSPost2010Prop31
280
     0
102
RTVSPost2010PropOp31
 70
     1
102
RTVSPost2010Prop32
280
     0
102
RTVSPost2010PropOp32
 70
     1
102
RTVSPost2010Prop33
280
     0
102
RTVSPost2010PropOp33
 70
     1
102
RTVSPost2010Prop34
280
     0
102
RTVSPost2010PropOp34
 70
     1
102
RTVSPost2010Prop35
280
     0
102
RTVSPost2010PropOp35
 70
     1
102
RTVSPost2010Prop36
280
     0
102
RTVSPost2010PropOp36
 70
     1
102
RTVSPost2010Prop37
 90
       50
102
RTVSPost2010PropOp37
 70
     0
102
RTVSPost2010Prop38
140
0.0
102
RTVSPost2010PropOp38
 70
     0
102
RTVSPost2010Prop39
140
1.0
102
RTVSPost2010PropOp39
 70
     0
102
RTVSPost2010Prop40
 90
        0
102
RTVSPost2010PropOp40
 70
     0
102
RTVSPost2010Prop41ColorIndex
 90
       18
102
RTVSPost2010Prop41ColorRGB
 90
        0
102
RTVSPost2010PropOp41
 70
     0
102
RTVSPost2010Prop42
 90
       50
102
RTVSPost2010PropOp42
 70
     0
102
RTVSPost2010Prop43
 90
        3
102
RTVSPost2010PropOp43
 70
     0
102
RTVSPost2010Prop44ColorIndex
 90
        5
102
RTVSPost2010Prop44ColorRGB
 90
      255
102
RTVSPost2010PropOp44
 70
     0
102
RTVSPost2010Prop45
280
     0
102
RTVSPost2010PropOp45
 70
     1
102
RTVSPost2010Prop46
 90
       50
102
RTVSPost2010PropOp46
 70
     0
102
RTVSPost2010Prop47
 90
       50
102
RTVSPost2010PropOp47
 70
     0
102
RTVSPost2010Prop48
 90
       50
102
RTVSPost2010PropOp48
 70
     0
102
RTVSPost2010Prop49
280
     0
102
RTVSPost2010PropOp49
 70
     1
102
RTVSPost2010Prop50
 90
       50
102
RTVSPost2010PropOp50
 70
     0
102
RTVSPost2010Prop51ColorIndex
 90
      256
102
RTVSPost2010Prop51ColorRGB
 90
-16777216
102
RTVSPost2010PropOp51
 70
     0
102
RTVSPost2010Prop52
140
1.0
102
RTVSPost2010PropOp52
 70
     0
102
RTVSPost2010Prop53
 90
        2
102
RTVSPost2010PropOp53
 70
     0
102
RTVSPost2010Prop54
  1
strokes_ogs.tif
102
RTVSPost2010PropOp54
 70
     0
102
RTVSPost2010Prop55
280
     0
102
RTVSPost2010PropOp55
 70
     1
102
RTVSPost2010Prop56
140
1.0
102
RTVSPost2010PropOp56
 70
     0
102
RTVSPost2010Prop57
140
1.0
102
RTVSPost2010PropOp57
 70
     0
102
RTVSPropertyOp0
 70
     0
102
RTVSPropertyOp1
 70
     0
102
RTVSPropertyOp2
 70
     0
102
RTVSPropertyOp3
 70
     0
102
RTVSPropertyOp4
 70
     0
102
RTVSPropertyOp5
 70
     0
102
RTVSPropertyOp6
 70
     0
102
RTVSPropertyOp7
 70
     0
102
RTVSPropertyOp8
 70
     0
102
RTVSPropertyOp9
 70
     0
102
RTVSPropertyOp10
 70
     0
102
RTVSPropertyOp11
 70
     0
102
RTVSPropertyOp12
 70
     0
102
RTVSPropertyOp13
 70
     0
102
RTVSPropertyOp14
 70
     2
102
RTVSPropertyOp15
 70
     0
102
RTVSPropertyOp16
 70
     0
102
RTVSPropertyOp17
 70
     0
102
RTVSPropertyOp18
 70
     0
102
RTVSPropertyOp19
 70
     0
102
RTVSPropertyOp20
 70
     0
102
RTVSPropertyOp21
 70
     0
102
RTVSPropertyOp22
 70
     0
102
RTVSPropertyOp23
 70
     0
102
RTVSPropertyOp24
 70
     0
102
RTVSPropertyOp25
 70
     0
102
RTVSPropertyOp26
 70
     0
102
RTVSPropertyOp27
 70
     0
102
RTVSPropertyOp28
 70
     1
102
RTVSPropertyOp29
 70
     1
102
RTVSPropertyOp30
 70
     1
102
RTVSPropertyOp31
 70
     1
102
RTVSPropertyOp32
 70
     1
102
RTVSPropertyOp33
 70
     1
102
RTVSPropertyOp34
 70
     1
102
RTVSPropertyOp35
 70
     1
102
RTVSPropertyOp36
 70
     1
102
RTVSPropertyOp37
 70
     0
102
RTVSPropertyOp38
 70
     0
102
RTVSPropertyOp39
 70
     0
102
RTVSPropertyOp40
 70
     0
102
RTVSPropertyOp41
 70
     0
102
RTVSPropertyOp42
 70
     0
102
RTVSPropertyOp43
 70
     0
102
RTVSPropertyOp44
 70
     0
102
RTVSPropertyOp45
 70
     1
102
RTVSPropertyOp46
 70
     0
102
RTVSPropertyOp47
 70
     0
102
RTVSPropertyOp48
 70
     0
102
RTVSPropertyOp49
 70
     1
102
RTVSPropertyOp50
 70
     0
102
RTVSPropertyOp51
 70
     0
102
RTVSPropertyOp52
 70
     0
102
RTVSPropertyOp53
 70
     0
102
RTVSPropertyOp54
 70
     0
102
RTVSPropertyOp55
 70
     1
102
RTVSPropertyOp56
 70
     0
102
RTVSPropertyOp57
 70
     0
102
RTVSPropertyOp58
 70
     0
102
RTVSPropertyOp59
 70
     0
102
RTVSPropertyOp60
 70
     0
102
RTVSPropertyOp61
 70
     0
102
RTVSPropertyOp62
 70
     0
  0
XRECORD
  5
316A
102
{ACAD_REACTORS
330
3169
102
}
330
3169
100
AcDbXrecord
280
     1
102
RTVSPost2010Prop28
280
     0
102
RTVSPost2010PropOp28
 70
     1
102
RTVSPost2010Prop29
280
     1
102
RTVSPost2010PropOp29
 70
     1
102
RTVSPost2010Prop30
280
     1
102
RTVSPost2010PropOp30
 70
     1
102
RTVSPost2010Prop31
280
     0
102
RTVSPost2010PropOp31
 70
     1
102
RTVSPost2010Prop32
280
     0
102
RTVSPost2010PropOp32
 70
     1
102
RTVSPost2010Prop33
280
     0
102
RTVSPost2010PropOp33
 70
     1
102
RTVSPost2010Prop34
280
     0
102
RTVSPost2010PropOp34
 70
     1
102
RTVSPost2010Prop35
280
     0
102
RTVSPost2010PropOp35
 70
     1
102
RTVSPost2010Prop36
280
     0
102
RTVSPost2010PropOp36
 70
     1
102
RTVSPost2010Prop37
 90
       50
102
RTVSPost2010PropOp37
 70
     1
102
RTVSPost2010Prop38
140
0.0
102
RTVSPost2010PropOp38
 70
     1
102
RTVSPost2010Prop39
140
1.0
102
RTVSPost2010PropOp39
 70
     1
102
RTVSPost2010Prop40
 90
        0
102
RTVSPost2010PropOp40
 70
     1
102
RTVSPost2010Prop41ColorIndex
 90
       18
102
RTVSPost2010Prop41ColorRGB
 90
        0
102
RTVSPost2010PropOp41
 70
     1
102
RTVSPost2010Prop42
 90
       50
102
RTVSPost2010PropOp42
 70
     1
102
RTVSPost2010Prop43
 90
        3
102
RTVSPost2010PropOp43
 70
     1
102
RTVSPost2010Prop44ColorIndex
 90
        5
102
RTVSPost2010Prop44ColorRGB
 90
      255
102
RTVSPost2010PropOp44
 70
     1
102
RTVSPost2010Prop45
280
     0
102
RTVSPost2010PropOp45
 70
     1
102
RTVSPost2010Prop46
 90
       50
102
RTVSPost2010PropOp46
 70
     1
102
RTVSPost2010Prop47
 90
       50
102
RTVSPost2010PropOp47
 70
     1
102
RTVSPost2010Prop48
 90
       50
102
RTVSPost2010PropOp48
 70
     1
102
RTVSPost2010Prop49
280
     0
102
RTVSPost2010PropOp49
 70
     1
102
RTVSPost2010Prop50
 90
       50
102
RTVSPost2010PropOp50
 70
     1
102
RTVSPost2010Prop51ColorIndex
 90
      256
102
RTVSPost2010Prop51ColorRGB
 90
-16777216
102
RTVSPost2010PropOp51
 70
     0
102
RTVSPost2010Prop52
140
1.0
102
RTVSPost2010PropOp52
 70
     0
102
RTVSPost2010Prop53
 90
        2
102
RTVSPost2010PropOp53
 70
     1
102
RTVSPost2010Prop54
  1
strokes_ogs.tif
102
RTVSPost2010PropOp54
 70
     1
102
RTVSPost2010Prop55
280
     0
102
RTVSPost2010PropOp55
 70
     1
102
RTVSPost2010Prop56
140
1.0
102
RTVSPost2010PropOp56
 70
     1
102
RTVSPost2010Prop57
140
1.0
102
RTVSPost2010PropOp57
 70
     1
102
RTVSPropertyOp0
 70
     1
102
RTVSPropertyOp1
 70
     1
102
RTVSPropertyOp2
 70
     1
102
RTVSPropertyOp3
 70
     1
102
RTVSPropertyOp4
 70
     1
102
RTVSPropertyOp5
 70
     1
102
RTVSPropertyOp6
 70
     1
102
RTVSPropertyOp7
 70
     1
102
RTVSPropertyOp8
 70
     1
102
RTVSPropertyOp9
 70
     1
102
RTVSPropertyOp10
 70
     1
102
RTVSPropertyOp11
 70
     1
102
RTVSPropertyOp12
 70
     1
102
RTVSPropertyOp13
 70
     1
102
RTVSPropertyOp14
 70
     1
102
RTVSPropertyOp15
 70
     1
102
RTVSPropertyOp16
 70
     1
102
RTVSPropertyOp17
 70
     1
102
RTVSPropertyOp18
 70
     1
102
RTVSPropertyOp19
 70
     1
102
RTVSPropertyOp20
 70
     1
102
RTVSPropertyOp21
 70
     1
102
RTVSPropertyOp22
 70
     1
102
RTVSPropertyOp23
 70
     1
102
RTVSPropertyOp24
 70
     1
102
RTVSPropertyOp25
 70
     1
102
RTVSPropertyOp26
 70
     1
102
RTVSPropertyOp27
 70
     1
102
RTVSPropertyOp28
 70
     1
102
RTVSPropertyOp29
 70
     1
102
RTVSPropertyOp30
 70
     1
102
RTVSPropertyOp31
 70
     1
102
RTVSPropertyOp32
 70
     1
102
RTVSPropertyOp33
 70
     1
102
RTVSPropertyOp34
 70
     1
102
RTVSPropertyOp35
 70
     1
102
RTVSPropertyOp36
 70
     1
102
RTVSPropertyOp37
 70
     1
102
RTVSPropertyOp38
 70
     1
102
RTVSPropertyOp39
 70
     1
102
RTVSPropertyOp40
 70
     1
102
RTVSPropertyOp41
 70
     1
102
RTVSPropertyOp42
 70
     1
102
RTVSPropertyOp43
 70
     1
102
RTVSPropertyOp44
 70
     1
102
RTVSPropertyOp45
 70
     1
102
RTVSPropertyOp46
 70
     1
102
RTVSPropertyOp47
 70
     1
102
RTVSPropertyOp48
 70
     1
102
RTVSPropertyOp49
 70
     1
102
RTVSPropertyOp50
 70
     1
102
RTVSPropertyOp51
 70
     0
102
RTVSPropertyOp52
 70
     0
102
RTVSPropertyOp53
 70
     1
102
RTVSPropertyOp54
 70
     1
102
RTVSPropertyOp55
 70
     1
102
RTVSPropertyOp56
 70
     1
102
RTVSPropertyOp57
 70
     1
102
RTVSPropertyOp58
 70
     1
102
RTVSPropertyOp59
 70
     1
102
RTVSPropertyOp60
 70
     1
102
RTVSPropertyOp61
 70
     1
102
RTVSPropertyOp62
 70
     1
  0
XRECORD
  5
314E
102
{ACAD_REACTORS
330
314D
102
}
330
314D
100
AcDbXrecord
280
     1
102
RTVSPost2010Prop28
280
     0
102
RTVSPost2010PropOp28
 70
     1
102
RTVSPost2010Prop29
280
     1
102
RTVSPost2010PropOp29
 70
     1
102
RTVSPost2010Prop30
280
     1
102
RTVSPost2010PropOp30
 70
     1
102
RTVSPost2010Prop31
280
     0
102
RTVSPost2010PropOp31
 70
     1
102
RTVSPost2010Prop32
280
     0
102
RTVSPost2010PropOp32
 70
     1
102
RTVSPost2010Prop33
280
     0
102
RTVSPost2010PropOp33
 70
     1
102
RTVSPost2010Prop34
280
     0
102
RTVSPost2010PropOp34
 70
     1
102
RTVSPost2010Prop35
280
     0
102
RTVSPost2010PropOp35
 70
     1
102
RTVSPost2010Prop36
280
     0
102
RTVSPost2010PropOp36
 70
     1
102
RTVSPost2010Prop37
 90
       50
102
RTVSPost2010PropOp37
 70
     1
102
RTVSPost2010Prop38
140
0.0
102
RTVSPost2010PropOp38
 70
     1
102
RTVSPost2010Prop39
140
1.0
102
RTVSPost2010PropOp39
 70
     1
102
RTVSPost2010Prop40
 90
        0
102
RTVSPost2010PropOp40
 70
     1
102
RTVSPost2010Prop41ColorIndex
 90
       18
102
RTVSPost2010Prop41ColorRGB
 90
        0
102
RTVSPost2010PropOp41
 70
     1
102
RTVSPost2010Prop42
 90
       50
102
RTVSPost2010PropOp42
 70
     1
102
RTVSPost2010Prop43
 90
        3
102
RTVSPost2010PropOp43
 70
     1
102
RTVSPost2010Prop44ColorIndex
 90
        5
102
RTVSPost2010Prop44ColorRGB
 90
      255
102
RTVSPost2010PropOp44
 70
     1
102
RTVSPost2010Prop45
280
     0
102
RTVSPost2010PropOp45
 70
     1
102
RTVSPost2010Prop46
 90
       50
102
RTVSPost2010PropOp46
 70
     1
102
RTVSPost2010Prop47
 90
       50
102
RTVSPost2010PropOp47
 70
     1
102
RTVSPost2010Prop48
 90
       50
102
RTVSPost2010PropOp48
 70
     1
102
RTVSPost2010Prop49
280
     0
102
RTVSPost2010PropOp49
 70
     1
102
RTVSPost2010Prop50
 90
       50
102
RTVSPost2010PropOp50
 70
     1
102
RTVSPost2010Prop51ColorIndex
 90
      256
102
RTVSPost2010Prop51ColorRGB
 90
-16777216
102
RTVSPost2010PropOp51
 70
     0
102
RTVSPost2010Prop52
140
1.0
102
RTVSPost2010PropOp52
 70
     0
102
RTVSPost2010Prop53
 90
        2
102
RTVSPost2010PropOp53
 70
     1
102
RTVSPost2010Prop54
  1
strokes_ogs.tif
102
RTVSPost2010PropOp54
 70
     1
102
RTVSPost2010Prop55
280
     0
102
RTVSPost2010PropOp55
 70
     1
102
RTVSPost2010Prop56
140
1.0
102
RTVSPost2010PropOp56
 70
     1
102
RTVSPost2010Prop57
140
1.0
102
RTVSPost2010PropOp57
 70
     1
102
RTVSPropertyOp0
 70
     1
102
RTVSPropertyOp1
 70
     1
102
RTVSPropertyOp2
 70
     1
102
RTVSPropertyOp3
 70
     1
102
RTVSPropertyOp4
 70
     1
102
RTVSPropertyOp5
 70
     1
102
RTVSPropertyOp6
 70
     1
102
RTVSPropertyOp7
 70
     1
102
RTVSPropertyOp8
 70
     1
102
RTVSPropertyOp9
 70
     1
102
RTVSPropertyOp10
 70
     1
102
RTVSPropertyOp11
 70
     1
102
RTVSPropertyOp12
 70
     1
102
RTVSPropertyOp13
 70
     1
102
RTVSPropertyOp14
 70
     1
102
RTVSPropertyOp15
 70
     1
102
RTVSPropertyOp16
 70
     1
102
RTVSPropertyOp17
 70
     1
102
RTVSPropertyOp18
 70
     1
102
RTVSPropertyOp19
 70
     1
102
RTVSPropertyOp20
 70
     1
102
RTVSPropertyOp21
 70
     1
102
RTVSPropertyOp22
 70
     1
102
RTVSPropertyOp23
 70
     1
102
RTVSPropertyOp24
 70
     1
102
RTVSPropertyOp25
 70
     1
102
RTVSPropertyOp26
 70
     1
102
RTVSPropertyOp27
 70
     1
102
RTVSPropertyOp28
 70
     1
102
RTVSPropertyOp29
 70
     1
102
RTVSPropertyOp30
 70
     1
102
RTVSPropertyOp31
 70
     1
102
RTVSPropertyOp32
 70
     1
102
RTVSPropertyOp33
 70
     1
102
RTVSPropertyOp34
 70
     1
102
RTVSPropertyOp35
 70
     1
102
RTVSPropertyOp36
 70
     1
102
RTVSPropertyOp37
 70
     1
102
RTVSPropertyOp38
 70
     1
102
RTVSPropertyOp39
 70
     1
102
RTVSPropertyOp40
 70
     1
102
RTVSPropertyOp41
 70
     1
102
RTVSPropertyOp42
 70
     1
102
RTVSPropertyOp43
 70
     1
102
RTVSPropertyOp44
 70
     1
102
RTVSPropertyOp45
 70
     1
102
RTVSPropertyOp46
 70
     1
102
RTVSPropertyOp47
 70
     1
102
RTVSPropertyOp48
 70
     1
102
RTVSPropertyOp49
 70
     1
102
RTVSPropertyOp50
 70
     1
102
RTVSPropertyOp51
 70
     0
102
RTVSPropertyOp52
 70
     0
102
RTVSPropertyOp53
 70
     1
102
RTVSPropertyOp54
 70
     1
102
RTVSPropertyOp55
 70
     1
102
RTVSPropertyOp56
 70
     1
102
RTVSPropertyOp57
 70
     1
102
RTVSPropertyOp58
 70
     1
102
RTVSPropertyOp59
 70
     1
102
RTVSPropertyOp60
 70
     1
102
RTVSPropertyOp61
 70
     1
102
RTVSPropertyOp62
 70
     1
  0
XRECORD
  5
3150
102
{ACAD_REACTORS
330
314F
102
}
330
314F
100
AcDbXrecord
280
     1
102
RTVSPost2010Prop28
280
     0
102
RTVSPost2010PropOp28
 70
     1
102
RTVSPost2010Prop29
280
     1
102
RTVSPost2010PropOp29
 70
     1
102
RTVSPost2010Prop30
280
     1
102
RTVSPost2010PropOp30
 70
     1
102
RTVSPost2010Prop31
280
     0
102
RTVSPost2010PropOp31
 70
     1
102
RTVSPost2010Prop32
280
     0
102
RTVSPost2010PropOp32
 70
     1
102
RTVSPost2010Prop33
280
     0
102
RTVSPost2010PropOp33
 70
     1
102
RTVSPost2010Prop34
280
     0
102
RTVSPost2010PropOp34
 70
     1
102
RTVSPost2010Prop35
280
     0
102
RTVSPost2010PropOp35
 70
     1
102
RTVSPost2010Prop36
280
     0
102
RTVSPost2010PropOp36
 70
     1
102
RTVSPost2010Prop37
 90
       50
102
RTVSPost2010PropOp37
 70
     1
102
RTVSPost2010Prop38
140
0.0
102
RTVSPost2010PropOp38
 70
     1
102
RTVSPost2010Prop39
140
1.0
102
RTVSPost2010PropOp39
 70
     1
102
RTVSPost2010Prop40
 90
        0
102
RTVSPost2010PropOp40
 70
     1
102
RTVSPost2010Prop41ColorIndex
 90
       18
102
RTVSPost2010Prop41ColorRGB
 90
        0
102
RTVSPost2010PropOp41
 70
     1
102
RTVSPost2010Prop42
 90
       50
102
RTVSPost2010PropOp42
 70
     1
102
RTVSPost2010Prop43
 90
        3
102
RTVSPost2010PropOp43
 70
     1
102
RTVSPost2010Prop44ColorIndex
 90
        5
102
RTVSPost2010Prop44ColorRGB
 90
      255
102
RTVSPost2010PropOp44
 70
     1
102
RTVSPost2010Prop45
280
     0
102
RTVSPost2010PropOp45
 70
     1
102
RTVSPost2010Prop46
 90
       50
102
RTVSPost2010PropOp46
 70
     1
102
RTVSPost2010Prop47
 90
       50
102
RTVSPost2010PropOp47
 70
     1
102
RTVSPost2010Prop48
 90
       50
102
RTVSPost2010PropOp48
 70
     1
102
RTVSPost2010Prop49
280
     0
102
RTVSPost2010PropOp49
 70
     1
102
RTVSPost2010Prop50
 90
       50
102
RTVSPost2010PropOp50
 70
     1
102
RTVSPost2010Prop51ColorIndex
 90
      256
102
RTVSPost2010Prop51ColorRGB
 90
-16777216
102
RTVSPost2010PropOp51
 70
     0
102
RTVSPost2010Prop52
140
1.0
102
RTVSPost2010PropOp52
 70
     0
102
RTVSPost2010Prop53
 90
        2
102
RTVSPost2010PropOp53
 70
     1
102
RTVSPost2010Prop54
  1
strokes_ogs.tif
102
RTVSPost2010PropOp54
 70
     1
102
RTVSPost2010Prop55
280
     0
102
RTVSPost2010PropOp55
 70
     1
102
RTVSPost2010Prop56
140
1.0
102
RTVSPost2010PropOp56
 70
     1
102
RTVSPost2010Prop57
140
1.0
102
RTVSPost2010PropOp57
 70
     1
102
RTVSPropertyOp0
 70
     1
102
RTVSPropertyOp1
 70
     1
102
RTVSPropertyOp2
 70
     1
102
RTVSPropertyOp3
 70
     1
102
RTVSPropertyOp4
 70
     1
102
RTVSPropertyOp5
 70
     1
102
RTVSPropertyOp6
 70
     1
102
RTVSPropertyOp7
 70
     1
102
RTVSPropertyOp8
 70
     1
102
RTVSPropertyOp9
 70
     1
102
RTVSPropertyOp10
 70
     1
102
RTVSPropertyOp11
 70
     1
102
RTVSPropertyOp12
 70
     1
102
RTVSPropertyOp13
 70
     1
102
RTVSPropertyOp14
 70
     1
102
RTVSPropertyOp15
 70
     1
102
RTVSPropertyOp16
 70
     1
102
RTVSPropertyOp17
 70
     1
102
RTVSPropertyOp18
 70
     1
102
RTVSPropertyOp19
 70
     1
102
RTVSPropertyOp20
 70
     1
102
RTVSPropertyOp21
 70
     1
102
RTVSPropertyOp22
 70
     1
102
RTVSPropertyOp23
 70
     1
102
RTVSPropertyOp24
 70
     1
102
RTVSPropertyOp25
 70
     1
102
RTVSPropertyOp26
 70
     1
102
RTVSPropertyOp27
 70
     1
102
RTVSPropertyOp28
 70
     1
102
RTVSPropertyOp29
 70
     1
102
RTVSPropertyOp30
 70
     1
102
RTVSPropertyOp31
 70
     1
102
RTVSPropertyOp32
 70
     1
102
RTVSPropertyOp33
 70
     1
102
RTVSPropertyOp34
 70
     1
102
RTVSPropertyOp35
 70
     1
102
RTVSPropertyOp36
 70
     1
102
RTVSPropertyOp37
 70
     1
102
RTVSPropertyOp38
 70
     1
102
RTVSPropertyOp39
 70
     1
102
RTVSPropertyOp40
 70
     1
102
RTVSPropertyOp41
 70
     1
102
RTVSPropertyOp42
 70
     1
102
RTVSPropertyOp43
 70
     1
102
RTVSPropertyOp44
 70
     1
102
RTVSPropertyOp45
 70
     1
102
RTVSPropertyOp46
 70
     1
102
RTVSPropertyOp47
 70
     1
102
RTVSPropertyOp48
 70
     1
102
RTVSPropertyOp49
 70
     1
102
RTVSPropertyOp50
 70
     1
102
RTVSPropertyOp51
 70
     0
102
RTVSPropertyOp52
 70
     0
102
RTVSPropertyOp53
 70
     1
102
RTVSPropertyOp54
 70
     1
102
RTVSPropertyOp55
 70
     1
102
RTVSPropertyOp56
 70
     1
102
RTVSPropertyOp57
 70
     1
102
RTVSPropertyOp58
 70
     1
102
RTVSPropertyOp59
 70
     1
102
RTVSPropertyOp60
 70
     1
102
RTVSPropertyOp61
 70
     1
102
RTVSPropertyOp62
 70
     1
  0
XRECORD
  5
3152
102
{ACAD_REACTORS
330
3151
102
}
330
3151
100
AcDbXrecord
280
     1
102
RTVSPost2010Prop28
280
     0
102
RTVSPost2010PropOp28
 70
     1
102
RTVSPost2010Prop29
280
     1
102
RTVSPost2010PropOp29
 70
     1
102
RTVSPost2010Prop30
280
     1
102
RTVSPost2010PropOp30
 70
     1
102
RTVSPost2010Prop31
280
     0
102
RTVSPost2010PropOp31
 70
     1
102
RTVSPost2010Prop32
280
     0
102
RTVSPost2010PropOp32
 70
     1
102
RTVSPost2010Prop33
280
     0
102
RTVSPost2010PropOp33
 70
     1
102
RTVSPost2010Prop34
280
     0
102
RTVSPost2010PropOp34
 70
     1
102
RTVSPost2010Prop35
280
     0
102
RTVSPost2010PropOp35
 70
     1
102
RTVSPost2010Prop36
280
     0
102
RTVSPost2010PropOp36
 70
     1
102
RTVSPost2010Prop37
 90
       50
102
RTVSPost2010PropOp37
 70
     1
102
RTVSPost2010Prop38
140
0.0
102
RTVSPost2010PropOp38
 70
     1
102
RTVSPost2010Prop39
140
1.0
102
RTVSPost2010PropOp39
 70
     1
102
RTVSPost2010Prop40
 90
        0
102
RTVSPost2010PropOp40
 70
     1
102
RTVSPost2010Prop41ColorIndex
 90
       18
102
RTVSPost2010Prop41ColorRGB
 90
        0
102
RTVSPost2010PropOp41
 70
     1
102
RTVSPost2010Prop42
 90
       50
102
RTVSPost2010PropOp42
 70
     1
102
RTVSPost2010Prop43
 90
        3
102
RTVSPost2010PropOp43
 70
     1
102
RTVSPost2010Prop44ColorIndex
 90
        5
102
RTVSPost2010Prop44ColorRGB
 90
      255
102
RTVSPost2010PropOp44
 70
     1
102
RTVSPost2010Prop45
280
     0
102
RTVSPost2010PropOp45
 70
     1
102
RTVSPost2010Prop46
 90
       50
102
RTVSPost2010PropOp46
 70
     1
102
RTVSPost2010Prop47
 90
       50
102
RTVSPost2010PropOp47
 70
     1
102
RTVSPost2010Prop48
 90
       50
102
RTVSPost2010PropOp48
 70
     1
102
RTVSPost2010Prop49
280
     0
102
RTVSPost2010PropOp49
 70
     1
102
RTVSPost2010Prop50
 90
       50
102
RTVSPost2010PropOp50
 70
     1
102
RTVSPost2010Prop51ColorIndex
 90
      256
102
RTVSPost2010Prop51ColorRGB
 90
-16777216
102
RTVSPost2010PropOp51
 70
     0
102
RTVSPost2010Prop52
140
1.0
102
RTVSPost2010PropOp52
 70
     0
102
RTVSPost2010Prop53
 90
        2
102
RTVSPost2010PropOp53
 70
     1
102
RTVSPost2010Prop54
  1
strokes_ogs.tif
102
RTVSPost2010PropOp54
 70
     1
102
RTVSPost2010Prop55
280
     0
102
RTVSPost2010PropOp55
 70
     1
102
RTVSPost2010Prop56
140
1.0
102
RTVSPost2010PropOp56
 70
     1
102
RTVSPost2010Prop57
140
1.0
102
RTVSPost2010PropOp57
 70
     1
102
RTVSPropertyOp0
 70
     1
102
RTVSPropertyOp1
 70
     1
102
RTVSPropertyOp2
 70
     1
102
RTVSPropertyOp3
 70
     1
102
RTVSPropertyOp4
 70
     1
102
RTVSPropertyOp5
 70
     1
102
RTVSPropertyOp6
 70
     1
102
RTVSPropertyOp7
 70
     1
102
RTVSPropertyOp8
 70
     1
102
RTVSPropertyOp9
 70
     1
102
RTVSPropertyOp10
 70
     1
102
RTVSPropertyOp11
 70
     1
102
RTVSPropertyOp12
 70
     1
102
RTVSPropertyOp13
 70
     1
102
RTVSPropertyOp14
 70
     1
102
RTVSPropertyOp15
 70
     1
102
RTVSPropertyOp16
 70
     1
102
RTVSPropertyOp17
 70
     1
102
RTVSPropertyOp18
 70
     1
102
RTVSPropertyOp19
 70
     1
102
RTVSPropertyOp20
 70
     1
102
RTVSPropertyOp21
 70
     1
102
RTVSPropertyOp22
 70
     1
102
RTVSPropertyOp23
 70
     1
102
RTVSPropertyOp24
 70
     1
102
RTVSPropertyOp25
 70
     1
102
RTVSPropertyOp26
 70
     1
102
RTVSPropertyOp27
 70
     1
102
RTVSPropertyOp28
 70
     1
102
RTVSPropertyOp29
 70
     1
102
RTVSPropertyOp30
 70
     1
102
RTVSPropertyOp31
 70
     1
102
RTVSPropertyOp32
 70
     1
102
RTVSPropertyOp33
 70
     1
102
RTVSPropertyOp34
 70
     1
102
RTVSPropertyOp35
 70
     1
102
RTVSPropertyOp36
 70
     1
102
RTVSPropertyOp37
 70
     1
102
RTVSPropertyOp38
 70
     1
102
RTVSPropertyOp39
 70
     1
102
RTVSPropertyOp40
 70
     1
102
RTVSPropertyOp41
 70
     1
102
RTVSPropertyOp42
 70
     1
102
RTVSPropertyOp43
 70
     1
102
RTVSPropertyOp44
 70
     1
102
RTVSPropertyOp45
 70
     1
102
RTVSPropertyOp46
 70
     1
102
RTVSPropertyOp47
 70
     1
102
RTVSPropertyOp48
 70
     1
102
RTVSPropertyOp49
 70
     1
102
RTVSPropertyOp50
 70
     1
102
RTVSPropertyOp51
 70
     0
102
RTVSPropertyOp52
 70
     0
102
RTVSPropertyOp53
 70
     1
102
RTVSPropertyOp54
 70
     1
102
RTVSPropertyOp55
 70
     1
102
RTVSPropertyOp56
 70
     1
102
RTVSPropertyOp57
 70
     1
102
RTVSPropertyOp58
 70
     1
102
RTVSPropertyOp59
 70
     1
102
RTVSPropertyOp60
 70
     1
102
RTVSPropertyOp61
 70
     1
102
RTVSPropertyOp62
 70
     1
  0
XRECORD
  5
3154
102
{ACAD_REACTORS
330
3153
102
}
330
3153
100
AcDbXrecord
280
     1
102
RTVSPost2010Prop28
280
     0
102
RTVSPost2010PropOp28
 70
     1
102
RTVSPost2010Prop29
280
     1
102
RTVSPost2010PropOp29
 70
     1
102
RTVSPost2010Prop30
280
     1
102
RTVSPost2010PropOp30
 70
     1
102
RTVSPost2010Prop31
280
     0
102
RTVSPost2010PropOp31
 70
     1
102
RTVSPost2010Prop32
280
     0
102
RTVSPost2010PropOp32
 70
     1
102
RTVSPost2010Prop33
280
     0
102
RTVSPost2010PropOp33
 70
     1
102
RTVSPost2010Prop34
280
     0
102
RTVSPost2010PropOp34
 70
     1
102
RTVSPost2010Prop35
280
     0
102
RTVSPost2010PropOp35
 70
     1
102
RTVSPost2010Prop36
280
     0
102
RTVSPost2010PropOp36
 70
     1
102
RTVSPost2010Prop37
 90
       50
102
RTVSPost2010PropOp37
 70
     1
102
RTVSPost2010Prop38
140
0.0
102
RTVSPost2010PropOp38
 70
     1
102
RTVSPost2010Prop39
140
1.0
102
RTVSPost2010PropOp39
 70
     1
102
RTVSPost2010Prop40
 90
        0
102
RTVSPost2010PropOp40
 70
     1
102
RTVSPost2010Prop41ColorIndex
 90
       18
102
RTVSPost2010Prop41ColorRGB
 90
        0
102
RTVSPost2010PropOp41
 70
     1
102
RTVSPost2010Prop42
 90
       50
102
RTVSPost2010PropOp42
 70
     1
102
RTVSPost2010Prop43
 90
        3
102
RTVSPost2010PropOp43
 70
     1
102
RTVSPost2010Prop44ColorIndex
 90
        5
102
RTVSPost2010Prop44ColorRGB
 90
      255
102
RTVSPost2010PropOp44
 70
     1
102
RTVSPost2010Prop45
280
     0
102
RTVSPost2010PropOp45
 70
     1
102
RTVSPost2010Prop46
 90
       50
102
RTVSPost2010PropOp46
 70
     1
102
RTVSPost2010Prop47
 90
       50
102
RTVSPost2010PropOp47
 70
     1
102
RTVSPost2010Prop48
 90
       50
102
RTVSPost2010PropOp48
 70
     1
102
RTVSPost2010Prop49
280
     0
102
RTVSPost2010PropOp49
 70
     1
102
RTVSPost2010Prop50
 90
       50
102
RTVSPost2010PropOp50
 70
     1
102
RTVSPost2010Prop51ColorIndex
 90
      256
102
RTVSPost2010Prop51ColorRGB
 90
-16777216
102
RTVSPost2010PropOp51
 70
     0
102
RTVSPost2010Prop52
140
1.0
102
RTVSPost2010PropOp52
 70
     0
102
RTVSPost2010Prop53
 90
        2
102
RTVSPost2010PropOp53
 70
     1
102
RTVSPost2010Prop54
  1
strokes_ogs.tif
102
RTVSPost2010PropOp54
 70
     1
102
RTVSPost2010Prop55
280
     0
102
RTVSPost2010PropOp55
 70
     1
102
RTVSPost2010Prop56
140
1.0
102
RTVSPost2010PropOp56
 70
     1
102
RTVSPost2010Prop57
140
1.0
102
RTVSPost2010PropOp57
 70
     1
102
RTVSPropertyOp0
 70
     1
102
RTVSPropertyOp1
 70
     1
102
RTVSPropertyOp2
 70
     1
102
RTVSPropertyOp3
 70
     1
102
RTVSPropertyOp4
 70
     1
102
RTVSPropertyOp5
 70
     1
102
RTVSPropertyOp6
 70
     1
102
RTVSPropertyOp7
 70
     1
102
RTVSPropertyOp8
 70
     1
102
RTVSPropertyOp9
 70
     1
102
RTVSPropertyOp10
 70
     1
102
RTVSPropertyOp11
 70
     1
102
RTVSPropertyOp12
 70
     1
102
RTVSPropertyOp13
 70
     1
102
RTVSPropertyOp14
 70
     1
102
RTVSPropertyOp15
 70
     1
102
RTVSPropertyOp16
 70
     1
102
RTVSPropertyOp17
 70
     1
102
RTVSPropertyOp18
 70
     1
102
RTVSPropertyOp19
 70
     1
102
RTVSPropertyOp20
 70
     1
102
RTVSPropertyOp21
 70
     1
102
RTVSPropertyOp22
 70
     1
102
RTVSPropertyOp23
 70
     1
102
RTVSPropertyOp24
 70
     1
102
RTVSPropertyOp25
 70
     1
102
RTVSPropertyOp26
 70
     1
102
RTVSPropertyOp27
 70
     1
102
RTVSPropertyOp28
 70
     1
102
RTVSPropertyOp29
 70
     1
102
RTVSPropertyOp30
 70
     1
102
RTVSPropertyOp31
 70
     1
102
RTVSPropertyOp32
 70
     1
102
RTVSPropertyOp33
 70
     1
102
RTVSPropertyOp34
 70
     1
102
RTVSPropertyOp35
 70
     1
102
RTVSPropertyOp36
 70
     1
102
RTVSPropertyOp37
 70
     1
102
RTVSPropertyOp38
 70
     1
102
RTVSPropertyOp39
 70
     1
102
RTVSPropertyOp40
 70
     1
102
RTVSPropertyOp41
 70
     1
102
RTVSPropertyOp42
 70
     1
102
RTVSPropertyOp43
 70
     1
102
RTVSPropertyOp44
 70
     1
102
RTVSPropertyOp45
 70
     1
102
RTVSPropertyOp46
 70
     1
102
RTVSPropertyOp47
 70
     1
102
RTVSPropertyOp48
 70
     1
102
RTVSPropertyOp49
 70
     1
102
RTVSPropertyOp50
 70
     1
102
RTVSPropertyOp51
 70
     0
102
RTVSPropertyOp52
 70
     0
102
RTVSPropertyOp53
 70
     1
102
RTVSPropertyOp54
 70
     1
102
RTVSPropertyOp55
 70
     1
102
RTVSPropertyOp56
 70
     1
102
RTVSPropertyOp57
 70
     1
102
RTVSPropertyOp58
 70
     1
102
RTVSPropertyOp59
 70
     1
102
RTVSPropertyOp60
 70
     1
102
RTVSPropertyOp61
 70
     1
102
RTVSPropertyOp62
 70
     1
  0
XRECORD
  5
315C
102
{ACAD_REACTORS
330
315B
102
}
330
315B
100
AcDbXrecord
280
     1
102
RTVSPost2010Prop28
280
     0
102
RTVSPost2010PropOp28
 70
     1
102
RTVSPost2010Prop29
280
     1
102
RTVSPost2010PropOp29
 70
     1
102
RTVSPost2010Prop30
280
     1
102
RTVSPost2010PropOp30
 70
     1
102
RTVSPost2010Prop31
280
     0
102
RTVSPost2010PropOp31
 70
     1
102
RTVSPost2010Prop32
280
     0
102
RTVSPost2010PropOp32
 70
     1
102
RTVSPost2010Prop33
280
     0
102
RTVSPost2010PropOp33
 70
     1
102
RTVSPost2010Prop34
280
     0
102
RTVSPost2010PropOp34
 70
     1
102
RTVSPost2010Prop35
280
     0
102
RTVSPost2010PropOp35
 70
     1
102
RTVSPost2010Prop36
280
     0
102
RTVSPost2010PropOp36
 70
     1
102
RTVSPost2010Prop37
 90
       50
102
RTVSPost2010PropOp37
 70
     1
102
RTVSPost2010Prop38
140
0.0
102
RTVSPost2010PropOp38
 70
     1
102
RTVSPost2010Prop39
140
1.0
102
RTVSPost2010PropOp39
 70
     1
102
RTVSPost2010Prop40
 90
        0
102
RTVSPost2010PropOp40
 70
     1
102
RTVSPost2010Prop41ColorIndex
 90
       18
102
RTVSPost2010Prop41ColorRGB
 90
        0
102
RTVSPost2010PropOp41
 70
     1
102
RTVSPost2010Prop42
 90
       50
102
RTVSPost2010PropOp42
 70
     1
102
RTVSPost2010Prop43
 90
        3
102
RTVSPost2010PropOp43
 70
     1
102
RTVSPost2010Prop44ColorIndex
 90
        5
102
RTVSPost2010Prop44ColorRGB
 90
      255
102
RTVSPost2010PropOp44
 70
     1
102
RTVSPost2010Prop45
280
     0
102
RTVSPost2010PropOp45
 70
     1
102
RTVSPost2010Prop46
 90
       50
102
RTVSPost2010PropOp46
 70
     1
102
RTVSPost2010Prop47
 90
       50
102
RTVSPost2010PropOp47
 70
     1
102
RTVSPost2010Prop48
 90
       50
102
RTVSPost2010PropOp48
 70
     1
102
RTVSPost2010Prop49
280
     0
102
RTVSPost2010PropOp49
 70
     1
102
RTVSPost2010Prop50
 90
       50
102
RTVSPost2010PropOp50
 70
     1
102
RTVSPost2010Prop51ColorIndex
 90
      256
102
RTVSPost2010Prop51ColorRGB
 90
-16777216
102
RTVSPost2010PropOp51
 70
     0
102
RTVSPost2010Prop52
140
1.0
102
RTVSPost2010PropOp52
 70
     0
102
RTVSPost2010Prop53
 90
        2
102
RTVSPost2010PropOp53
 70
     1
102
RTVSPost2010Prop54
  1
strokes_ogs.tif
102
RTVSPost2010PropOp54
 70
     1
102
RTVSPost2010Prop55
280
     0
102
RTVSPost2010PropOp55
 70
     1
102
RTVSPost2010Prop56
140
1.0
102
RTVSPost2010PropOp56
 70
     1
102
RTVSPost2010Prop57
140
1.0
102
RTVSPost2010PropOp57
 70
     1
102
RTVSPropertyOp0
 70
     1
102
RTVSPropertyOp1
 70
     1
102
RTVSPropertyOp2
 70
     1
102
RTVSPropertyOp3
 70
     1
102
RTVSPropertyOp4
 70
     1
102
RTVSPropertyOp5
 70
     1
102
RTVSPropertyOp6
 70
     1
102
RTVSPropertyOp7
 70
     1
102
RTVSPropertyOp8
 70
     1
102
RTVSPropertyOp9
 70
     1
102
RTVSPropertyOp10
 70
     1
102
RTVSPropertyOp11
 70
     1
102
RTVSPropertyOp12
 70
     1
102
RTVSPropertyOp13
 70
     1
102
RTVSPropertyOp14
 70
     1
102
RTVSPropertyOp15
 70
     1
102
RTVSPropertyOp16
 70
     1
102
RTVSPropertyOp17
 70
     1
102
RTVSPropertyOp18
 70
     1
102
RTVSPropertyOp19
 70
     1
102
RTVSPropertyOp20
 70
     1
102
RTVSPropertyOp21
 70
     1
102
RTVSPropertyOp22
 70
     1
102
RTVSPropertyOp23
 70
     1
102
RTVSPropertyOp24
 70
     1
102
RTVSPropertyOp25
 70
     1
102
RTVSPropertyOp26
 70
     1
102
RTVSPropertyOp27
 70
     1
102
RTVSPropertyOp28
 70
     1
102
RTVSPropertyOp29
 70
     1
102
RTVSPropertyOp30
 70
     1
102
RTVSPropertyOp31
 70
     1
102
RTVSPropertyOp32
 70
     1
102
RTVSPropertyOp33
 70
     1
102
RTVSPropertyOp34
 70
     1
102
RTVSPropertyOp35
 70
     1
102
RTVSPropertyOp36
 70
     1
102
RTVSPropertyOp37
 70
     1
102
RTVSPropertyOp38
 70
     1
102
RTVSPropertyOp39
 70
     1
102
RTVSPropertyOp40
 70
     1
102
RTVSPropertyOp41
 70
     1
102
RTVSPropertyOp42
 70
     1
102
RTVSPropertyOp43
 70
     1
102
RTVSPropertyOp44
 70
     1
102
RTVSPropertyOp45
 70
     1
102
RTVSPropertyOp46
 70
     1
102
RTVSPropertyOp47
 70
     1
102
RTVSPropertyOp48
 70
     1
102
RTVSPropertyOp49
 70
     1
102
RTVSPropertyOp50
 70
     1
102
RTVSPropertyOp51
 70
     0
102
RTVSPropertyOp52
 70
     0
102
RTVSPropertyOp53
 70
     1
102
RTVSPropertyOp54
 70
     1
102
RTVSPropertyOp55
 70
     1
102
RTVSPropertyOp56
 70
     1
102
RTVSPropertyOp57
 70
     1
102
RTVSPropertyOp58
 70
     1
102
RTVSPropertyOp59
 70
     1
102
RTVSPropertyOp60
 70
     1
102
RTVSPropertyOp61
 70
     1
102
RTVSPropertyOp62
 70
     1
  0
XRECORD
  5
3178
102
{ACAD_REACTORS
330
3177
102
}
330
3177
100
AcDbXrecord
280
     1
102
RTVSPost2010Prop28
280
     0
102
RTVSPost2010PropOp28
 70
     1
102
RTVSPost2010Prop29
280
     1
102
RTVSPost2010PropOp29
 70
     1
102
RTVSPost2010Prop30
280
     1
102
RTVSPost2010PropOp30
 70
     1
102
RTVSPost2010Prop31
280
     0
102
RTVSPost2010PropOp31
 70
     1
102
RTVSPost2010Prop32
280
     0
102
RTVSPost2010PropOp32
 70
     1
102
RTVSPost2010Prop33
280
     0
102
RTVSPost2010PropOp33
 70
     1
102
RTVSPost2010Prop34
280
     0
102
RTVSPost2010PropOp34
 70
     1
102
RTVSPost2010Prop35
280
     0
102
RTVSPost2010PropOp35
 70
     1
102
RTVSPost2010Prop36
280
     0
102
RTVSPost2010PropOp36
 70
     1
102
RTVSPost2010Prop37
 90
       50
102
RTVSPost2010PropOp37
 70
     0
102
RTVSPost2010Prop38
140
0.0
102
RTVSPost2010PropOp38
 70
     0
102
RTVSPost2010Prop39
140
1.0
102
RTVSPost2010PropOp39
 70
     0
102
RTVSPost2010Prop40
 90
        0
102
RTVSPost2010PropOp40
 70
     0
102
RTVSPost2010Prop41ColorIndex
 90
       18
102
RTVSPost2010Prop41ColorRGB
 90
        0
102
RTVSPost2010PropOp41
 70
     0
102
RTVSPost2010Prop42
 90
       50
102
RTVSPost2010PropOp42
 70
     0
102
RTVSPost2010Prop43
 90
        3
102
RTVSPost2010PropOp43
 70
     0
102
RTVSPost2010Prop44ColorIndex
 90
        5
102
RTVSPost2010Prop44ColorRGB
 90
      255
102
RTVSPost2010PropOp44
 70
     0
102
RTVSPost2010Prop45
280
     0
102
RTVSPost2010PropOp45
 70
     1
102
RTVSPost2010Prop46
 90
       50
102
RTVSPost2010PropOp46
 70
     0
102
RTVSPost2010Prop47
 90
       50
102
RTVSPost2010PropOp47
 70
     0
102
RTVSPost2010Prop48
 90
       50
102
RTVSPost2010PropOp48
 70
     0
102
RTVSPost2010Prop49
280
     0
102
RTVSPost2010PropOp49
 70
     1
102
RTVSPost2010Prop50
 90
       50
102
RTVSPost2010PropOp50
 70
     0
102
RTVSPost2010Prop51ColorIndex
 90
      256
102
RTVSPost2010Prop51ColorRGB
 90
-16777216
102
RTVSPost2010PropOp51
 70
     0
102
RTVSPost2010Prop52
140
1.0
102
RTVSPost2010PropOp52
 70
     0
102
RTVSPost2010Prop53
 90
        2
102
RTVSPost2010PropOp53
 70
     0
102
RTVSPost2010Prop54
  1
strokes_ogs.tif
102
RTVSPost2010PropOp54
 70
     0
102
RTVSPost2010Prop55
280
     0
102
RTVSPost2010PropOp55
 70
     1
102
RTVSPost2010Prop56
140
1.0
102
RTVSPost2010PropOp56
 70
     0
102
RTVSPost2010Prop57
140
1.0
102
RTVSPost2010PropOp57
 70
     0
102
RTVSPropertyOp0
 70
     0
102
RTVSPropertyOp1
 70
     0
102
RTVSPropertyOp2
 70
     0
102
RTVSPropertyOp3
 70
     0
102
RTVSPropertyOp4
 70
     0
102
RTVSPropertyOp5
 70
     0
102
RTVSPropertyOp6
 70
     0
102
RTVSPropertyOp7
 70
     0
102
RTVSPropertyOp8
 70
     0
102
RTVSPropertyOp9
 70
     0
102
RTVSPropertyOp10
 70
     0
102
RTVSPropertyOp11
 70
     0
102
RTVSPropertyOp12
 70
     0
102
RTVSPropertyOp13
 70
     0
102
RTVSPropertyOp14
 70
     2
102
RTVSPropertyOp15
 70
     0
102
RTVSPropertyOp16
 70
     0
102
RTVSPropertyOp17
 70
     0
102
RTVSPropertyOp18
 70
     0
102
RTVSPropertyOp19
 70
     0
102
RTVSPropertyOp20
 70
     0
102
RTVSPropertyOp21
 70
     0
102
RTVSPropertyOp22
 70
     0
102
RTVSPropertyOp23
 70
     0
102
RTVSPropertyOp24
 70
     0
102
RTVSPropertyOp25
 70
     0
102
RTVSPropertyOp26
 70
     0
102
RTVSPropertyOp27
 70
     0
102
RTVSPropertyOp28
 70
     1
102
RTVSPropertyOp29
 70
     1
102
RTVSPropertyOp30
 70
     1
102
RTVSPropertyOp31
 70
     1
102
RTVSPropertyOp32
 70
     1
102
RTVSPropertyOp33
 70
     1
102
RTVSPropertyOp34
 70
     1
102
RTVSPropertyOp35
 70
     1
102
RTVSPropertyOp36
 70
     1
102
RTVSPropertyOp37
 70
     0
102
RTVSPropertyOp38
 70
     0
102
RTVSPropertyOp39
 70
     0
102
RTVSPropertyOp40
 70
     0
102
RTVSPropertyOp41
 70
     0
102
RTVSPropertyOp42
 70
     0
102
RTVSPropertyOp43
 70
     0
102
RTVSPropertyOp44
 70
     0
102
RTVSPropertyOp45
 70
     1
102
RTVSPropertyOp46
 70
     0
102
RTVSPropertyOp47
 70
     0
102
RTVSPropertyOp48
 70
     0
102
RTVSPropertyOp49
 70
     1
102
RTVSPropertyOp50
 70
     0
102
RTVSPropertyOp51
 70
     0
102
RTVSPropertyOp52
 70
     0
102
RTVSPropertyOp53
 70
     0
102
RTVSPropertyOp54
 70
     0
102
RTVSPropertyOp55
 70
     1
102
RTVSPropertyOp56
 70
     0
102
RTVSPropertyOp57
 70
     0
102
RTVSPropertyOp58
 70
     0
102
RTVSPropertyOp59
 70
     0
102
RTVSPropertyOp60
 70
     0
102
RTVSPropertyOp61
 70
     0
102
RTVSPropertyOp62
 70
     0
  0
XRECORD
  5
3168
102
{ACAD_REACTORS
330
3167
102
}
330
3167
100
AcDbXrecord
280
     1
102
RTVSPost2010Prop28
280
     0
102
RTVSPost2010PropOp28
 70
     1
102
RTVSPost2010Prop29
280
     1
102
RTVSPost2010PropOp29
 70
     1
102
RTVSPost2010Prop30
280
     1
102
RTVSPost2010PropOp30
 70
     1
102
RTVSPost2010Prop31
280
     0
102
RTVSPost2010PropOp31
 70
     1
102
RTVSPost2010Prop32
280
     0
102
RTVSPost2010PropOp32
 70
     1
102
RTVSPost2010Prop33
280
     0
102
RTVSPost2010PropOp33
 70
     1
102
RTVSPost2010Prop34
280
     0
102
RTVSPost2010PropOp34
 70
     1
102
RTVSPost2010Prop35
280
     0
102
RTVSPost2010PropOp35
 70
     1
102
RTVSPost2010Prop36
280
     0
102
RTVSPost2010PropOp36
 70
     1
102
RTVSPost2010Prop37
 90
       50
102
RTVSPost2010PropOp37
 70
     1
102
RTVSPost2010Prop38
140
0.0
102
RTVSPost2010PropOp38
 70
     1
102
RTVSPost2010Prop39
140
1.0
102
RTVSPost2010PropOp39
 70
     1
102
RTVSPost2010Prop40
 90
        0
102
RTVSPost2010PropOp40
 70
     1
102
RTVSPost2010Prop41ColorIndex
 90
       18
102
RTVSPost2010Prop41ColorRGB
 90
        0
102
RTVSPost2010PropOp41
 70
     1
102
RTVSPost2010Prop42
 90
       50
102
RTVSPost2010PropOp42
 70
     1
102
RTVSPost2010Prop43
 90
        3
102
RTVSPost2010PropOp43
 70
     1
102
RTVSPost2010Prop44ColorIndex
 90
        5
102
RTVSPost2010Prop44ColorRGB
 90
      255
102
RTVSPost2010PropOp44
 70
     1
102
RTVSPost2010Prop45
280
     0
102
RTVSPost2010PropOp45
 70
     1
102
RTVSPost2010Prop46
 90
       50
102
RTVSPost2010PropOp46
 70
     1
102
RTVSPost2010Prop47
 90
       50
102
RTVSPost2010PropOp47
 70
     1
102
RTVSPost2010Prop48
 90
       50
102
RTVSPost2010PropOp48
 70
     1
102
RTVSPost2010Prop49
280
     0
102
RTVSPost2010PropOp49
 70
     1
102
RTVSPost2010Prop50
 90
       50
102
RTVSPost2010PropOp50
 70
     1
102
RTVSPost2010Prop51ColorIndex
 90
      256
102
RTVSPost2010Prop51ColorRGB
 90
-16777216
102
RTVSPost2010PropOp51
 70
     0
102
RTVSPost2010Prop52
140
1.0
102
RTVSPost2010PropOp52
 70
     0
102
RTVSPost2010Prop53
 90
        2
102
RTVSPost2010PropOp53
 70
     1
102
RTVSPost2010Prop54
  1
strokes_ogs.tif
102
RTVSPost2010PropOp54
 70
     1
102
RTVSPost2010Prop55
280
     0
102
RTVSPost2010PropOp55
 70
     1
102
RTVSPost2010Prop56
140
1.0
102
RTVSPost2010PropOp56
 70
     1
102
RTVSPost2010Prop57
140
1.0
102
RTVSPost2010PropOp57
 70
     1
102
RTVSPropertyOp0
 70
     1
102
RTVSPropertyOp1
 70
     1
102
RTVSPropertyOp2
 70
     1
102
RTVSPropertyOp3
 70
     1
102
RTVSPropertyOp4
 70
     1
102
RTVSPropertyOp5
 70
     1
102
RTVSPropertyOp6
 70
     1
102
RTVSPropertyOp7
 70
     1
102
RTVSPropertyOp8
 70
     1
102
RTVSPropertyOp9
 70
     1
102
RTVSPropertyOp10
 70
     1
102
RTVSPropertyOp11
 70
     1
102
RTVSPropertyOp12
 70
     1
102
RTVSPropertyOp13
 70
     1
102
RTVSPropertyOp14
 70
     1
102
RTVSPropertyOp15
 70
     1
102
RTVSPropertyOp16
 70
     1
102
RTVSPropertyOp17
 70
     1
102
RTVSPropertyOp18
 70
     1
102
RTVSPropertyOp19
 70
     1
102
RTVSPropertyOp20
 70
     1
102
RTVSPropertyOp21
 70
     1
102
RTVSPropertyOp22
 70
     1
102
RTVSPropertyOp23
 70
     1
102
RTVSPropertyOp24
 70
     1
102
RTVSPropertyOp25
 70
     1
102
RTVSPropertyOp26
 70
     1
102
RTVSPropertyOp27
 70
     1
102
RTVSPropertyOp28
 70
     1
102
RTVSPropertyOp29
 70
     1
102
RTVSPropertyOp30
 70
     1
102
RTVSPropertyOp31
 70
     1
102
RTVSPropertyOp32
 70
     1
102
RTVSPropertyOp33
 70
     1
102
RTVSPropertyOp34
 70
     1
102
RTVSPropertyOp35
 70
     1
102
RTVSPropertyOp36
 70
     1
102
RTVSPropertyOp37
 70
     1
102
RTVSPropertyOp38
 70
     1
102
RTVSPropertyOp39
 70
     1
102
RTVSPropertyOp40
 70
     1
102
RTVSPropertyOp41
 70
     1
102
RTVSPropertyOp42
 70
     1
102
RTVSPropertyOp43
 70
     1
102
RTVSPropertyOp44
 70
     1
102
RTVSPropertyOp45
 70
     1
102
RTVSPropertyOp46
 70
     1
102
RTVSPropertyOp47
 70
     1
102
RTVSPropertyOp48
 70
     1
102
RTVSPropertyOp49
 70
     1
102
RTVSPropertyOp50
 70
     1
102
RTVSPropertyOp51
 70
     0
102
RTVSPropertyOp52
 70
     0
102
RTVSPropertyOp53
 70
     1
102
RTVSPropertyOp54
 70
     1
102
RTVSPropertyOp55
 70
     1
102
RTVSPropertyOp56
 70
     1
102
RTVSPropertyOp57
 70
     1
102
RTVSPropertyOp58
 70
     1
102
RTVSPropertyOp59
 70
     1
102
RTVSPropertyOp60
 70
     1
102
RTVSPropertyOp61
 70
     1
102
RTVSPropertyOp62
 70
     1
  0
XRECORD
  5
317A
102
{ACAD_REACTORS
330
3179
102
}
330
3179
100
AcDbXrecord
280
     1
102
RTVSPost2010Prop28
280
     0
102
RTVSPost2010PropOp28
 70
     1
102
RTVSPost2010Prop29
280
     1
102
RTVSPost2010PropOp29
 70
     1
102
RTVSPost2010Prop30
280
     1
102
RTVSPost2010PropOp30
 70
     1
102
RTVSPost2010Prop31
280
     0
102
RTVSPost2010PropOp31
 70
     1
102
RTVSPost2010Prop32
280
     0
102
RTVSPost2010PropOp32
 70
     1
102
RTVSPost2010Prop33
280
     0
102
RTVSPost2010PropOp33
 70
     1
102
RTVSPost2010Prop34
280
     0
102
RTVSPost2010PropOp34
 70
     1
102
RTVSPost2010Prop35
280
     0
102
RTVSPost2010PropOp35
 70
     1
102
RTVSPost2010Prop36
280
     0
102
RTVSPost2010PropOp36
 70
     1
102
RTVSPost2010Prop37
 90
       50
102
RTVSPost2010PropOp37
 70
     0
102
RTVSPost2010Prop38
140
0.0
102
RTVSPost2010PropOp38
 70
     0
102
RTVSPost2010Prop39
140
1.0
102
RTVSPost2010PropOp39
 70
     0
102
RTVSPost2010Prop40
 90
        0
102
RTVSPost2010PropOp40
 70
     0
102
RTVSPost2010Prop41ColorIndex
 90
       18
102
RTVSPost2010Prop41ColorRGB
 90
        0
102
RTVSPost2010PropOp41
 70
     0
102
RTVSPost2010Prop42
 90
       50
102
RTVSPost2010PropOp42
 70
     0
102
RTVSPost2010Prop43
 90
        3
102
RTVSPost2010PropOp43
 70
     0
102
RTVSPost2010Prop44ColorIndex
 90
        5
102
RTVSPost2010Prop44ColorRGB
 90
      255
102
RTVSPost2010PropOp44
 70
     0
102
RTVSPost2010Prop45
280
     0
102
RTVSPost2010PropOp45
 70
     1
102
RTVSPost2010Prop46
 90
       50
102
RTVSPost2010PropOp46
 70
     0
102
RTVSPost2010Prop47
 90
       50
102
RTVSPost2010PropOp47
 70
     0
102
RTVSPost2010Prop48
 90
       50
102
RTVSPost2010PropOp48
 70
     0
102
RTVSPost2010Prop49
280
     0
102
RTVSPost2010PropOp49
 70
     1
102
RTVSPost2010Prop50
 90
       50
102
RTVSPost2010PropOp50
 70
     0
102
RTVSPost2010Prop51ColorIndex
 90
      256
102
RTVSPost2010Prop51ColorRGB
 90
-16777216
102
RTVSPost2010PropOp51
 70
     0
102
RTVSPost2010Prop52
140
1.0
102
RTVSPost2010PropOp52
 70
     0
102
RTVSPost2010Prop53
 90
        2
102
RTVSPost2010PropOp53
 70
     0
102
RTVSPost2010Prop54
  1
strokes_ogs.tif
102
RTVSPost2010PropOp54
 70
     0
102
RTVSPost2010Prop55
280
     0
102
RTVSPost2010PropOp55
 70
     1
102
RTVSPost2010Prop56
140
1.0
102
RTVSPost2010PropOp56
 70
     0
102
RTVSPost2010Prop57
140
1.0
102
RTVSPost2010PropOp57
 70
     0
102
RTVSPropertyOp0
 70
     0
102
RTVSPropertyOp1
 70
     0
102
RTVSPropertyOp2
 70
     0
102
RTVSPropertyOp3
 70
     0
102
RTVSPropertyOp4
 70
     0
102
RTVSPropertyOp5
 70
     0
102
RTVSPropertyOp6
 70
     0
102
RTVSPropertyOp7
 70
     0
102
RTVSPropertyOp8
 70
     0
102
RTVSPropertyOp9
 70
     0
102
RTVSPropertyOp10
 70
     0
102
RTVSPropertyOp11
 70
     0
102
RTVSPropertyOp12
 70
     0
102
RTVSPropertyOp13
 70
     0
102
RTVSPropertyOp14
 70
     2
102
RTVSPropertyOp15
 70
     0
102
RTVSPropertyOp16
 70
     0
102
RTVSPropertyOp17
 70
     0
102
RTVSPropertyOp18
 70
     0
102
RTVSPropertyOp19
 70
     0
102
RTVSPropertyOp20
 70
     0
102
RTVSPropertyOp21
 70
     0
102
RTVSPropertyOp22
 70
     0
102
RTVSPropertyOp23
 70
     0
102
RTVSPropertyOp24
 70
     0
102
RTVSPropertyOp25
 70
     0
102
RTVSPropertyOp26
 70
     0
102
RTVSPropertyOp27
 70
     0
102
RTVSPropertyOp28
 70
     1
102
RTVSPropertyOp29
 70
     1
102
RTVSPropertyOp30
 70
     1
102
RTVSPropertyOp31
 70
     1
102
RTVSPropertyOp32
 70
     1
102
RTVSPropertyOp33
 70
     1
102
RTVSPropertyOp34
 70
     1
102
RTVSPropertyOp35
 70
     1
102
RTVSPropertyOp36
 70
     1
102
RTVSPropertyOp37
 70
     0
102
RTVSPropertyOp38
 70
     0
102
RTVSPropertyOp39
 70
     0
102
RTVSPropertyOp40
 70
     0
102
RTVSPropertyOp41
 70
     0
102
RTVSPropertyOp42
 70
     0
102
RTVSPropertyOp43
 70
     0
102
RTVSPropertyOp44
 70
     0
102
RTVSPropertyOp45
 70
     1
102
RTVSPropertyOp46
 70
     0
102
RTVSPropertyOp47
 70
     0
102
RTVSPropertyOp48
 70
     0
102
RTVSPropertyOp49
 70
     1
102
RTVSPropertyOp50
 70
     0
102
RTVSPropertyOp51
 70
     0
102
RTVSPropertyOp52
 70
     0
102
RTVSPropertyOp53
 70
     0
102
RTVSPropertyOp54
 70
     0
102
RTVSPropertyOp55
 70
     1
102
RTVSPropertyOp56
 70
     0
102
RTVSPropertyOp57
 70
     0
102
RTVSPropertyOp58
 70
     0
102
RTVSPropertyOp59
 70
     0
102
RTVSPropertyOp60
 70
     0
102
RTVSPropertyOp61
 70
     0
102
RTVSPropertyOp62
 70
     0
  0
XRECORD
  5
3160
102
{ACAD_REACTORS
330
315F
102
}
330
315F
100
AcDbXrecord
280
     1
102
RTVSPost2010Prop28
280
     0
102
RTVSPost2010PropOp28
 70
     1
102
RTVSPost2010Prop29
280
     1
102
RTVSPost2010PropOp29
 70
     1
102
RTVSPost2010Prop30
280
     1
102
RTVSPost2010PropOp30
 70
     1
102
RTVSPost2010Prop31
280
     0
102
RTVSPost2010PropOp31
 70
     1
102
RTVSPost2010Prop32
280
     0
102
RTVSPost2010PropOp32
 70
     1
102
RTVSPost2010Prop33
280
     0
102
RTVSPost2010PropOp33
 70
     1
102
RTVSPost2010Prop34
280
     0
102
RTVSPost2010PropOp34
 70
     1
102
RTVSPost2010Prop35
280
     0
102
RTVSPost2010PropOp35
 70
     1
102
RTVSPost2010Prop36
280
     0
102
RTVSPost2010PropOp36
 70
     1
102
RTVSPost2010Prop37
 90
       50
102
RTVSPost2010PropOp37
 70
     1
102
RTVSPost2010Prop38
140
0.0
102
RTVSPost2010PropOp38
 70
     1
102
RTVSPost2010Prop39
140
1.0
102
RTVSPost2010PropOp39
 70
     1
102
RTVSPost2010Prop40
 90
        0
102
RTVSPost2010PropOp40
 70
     1
102
RTVSPost2010Prop41ColorIndex
 90
       18
102
RTVSPost2010Prop41ColorRGB
 90
        0
102
RTVSPost2010PropOp41
 70
     1
102
RTVSPost2010Prop42
 90
       50
102
RTVSPost2010PropOp42
 70
     1
102
RTVSPost2010Prop43
 90
        3
102
RTVSPost2010PropOp43
 70
     1
102
RTVSPost2010Prop44ColorIndex
 90
        5
102
RTVSPost2010Prop44ColorRGB
 90
      255
102
RTVSPost2010PropOp44
 70
     1
102
RTVSPost2010Prop45
280
     0
102
RTVSPost2010PropOp45
 70
     1
102
RTVSPost2010Prop46
 90
       50
102
RTVSPost2010PropOp46
 70
     1
102
RTVSPost2010Prop47
 90
       50
102
RTVSPost2010PropOp47
 70
     1
102
RTVSPost2010Prop48
 90
       50
102
RTVSPost2010PropOp48
 70
     1
102
RTVSPost2010Prop49
280
     0
102
RTVSPost2010PropOp49
 70
     1
102
RTVSPost2010Prop50
 90
       50
102
RTVSPost2010PropOp50
 70
     1
102
RTVSPost2010Prop51ColorIndex
 90
      256
102
RTVSPost2010Prop51ColorRGB
 90
-16777216
102
RTVSPost2010PropOp51
 70
     0
102
RTVSPost2010Prop52
140
1.0
102
RTVSPost2010PropOp52
 70
     0
102
RTVSPost2010Prop53
 90
        2
102
RTVSPost2010PropOp53
 70
     1
102
RTVSPost2010Prop54
  1
strokes_ogs.tif
102
RTVSPost2010PropOp54
 70
     1
102
RTVSPost2010Prop55
280
     0
102
RTVSPost2010PropOp55
 70
     1
102
RTVSPost2010Prop56
140
1.0
102
RTVSPost2010PropOp56
 70
     1
102
RTVSPost2010Prop57
140
1.0
102
RTVSPost2010PropOp57
 70
     1
102
RTVSPropertyOp0
 70
     1
102
RTVSPropertyOp1
 70
     1
102
RTVSPropertyOp2
 70
     1
102
RTVSPropertyOp3
 70
     1
102
RTVSPropertyOp4
 70
     1
102
RTVSPropertyOp5
 70
     1
102
RTVSPropertyOp6
 70
     1
102
RTVSPropertyOp7
 70
     1
102
RTVSPropertyOp8
 70
     1
102
RTVSPropertyOp9
 70
     1
102
RTVSPropertyOp10
 70
     1
102
RTVSPropertyOp11
 70
     1
102
RTVSPropertyOp12
 70
     1
102
RTVSPropertyOp13
 70
     1
102
RTVSPropertyOp14
 70
     1
102
RTVSPropertyOp15
 70
     1
102
RTVSPropertyOp16
 70
     1
102
RTVSPropertyOp17
 70
     1
102
RTVSPropertyOp18
 70
     1
102
RTVSPropertyOp19
 70
     1
102
RTVSPropertyOp20
 70
     1
102
RTVSPropertyOp21
 70
     1
102
RTVSPropertyOp22
 70
     1
102
RTVSPropertyOp23
 70
     1
102
RTVSPropertyOp24
 70
     1
102
RTVSPropertyOp25
 70
     1
102
RTVSPropertyOp26
 70
     1
102
RTVSPropertyOp27
 70
     1
102
RTVSPropertyOp28
 70
     1
102
RTVSPropertyOp29
 70
     1
102
RTVSPropertyOp30
 70
     1
102
RTVSPropertyOp31
 70
     1
102
RTVSPropertyOp32
 70
     1
102
RTVSPropertyOp33
 70
     1
102
RTVSPropertyOp34
 70
     1
102
RTVSPropertyOp35
 70
     1
102
RTVSPropertyOp36
 70
     1
102
RTVSPropertyOp37
 70
     1
102
RTVSPropertyOp38
 70
     1
102
RTVSPropertyOp39
 70
     1
102
RTVSPropertyOp40
 70
     1
102
RTVSPropertyOp41
 70
     1
102
RTVSPropertyOp42
 70
     1
102
RTVSPropertyOp43
 70
     1
102
RTVSPropertyOp44
 70
     1
102
RTVSPropertyOp45
 70
     1
102
RTVSPropertyOp46
 70
     1
102
RTVSPropertyOp47
 70
     1
102
RTVSPropertyOp48
 70
     1
102
RTVSPropertyOp49
 70
     1
102
RTVSPropertyOp50
 70
     1
102
RTVSPropertyOp51
 70
     0
102
RTVSPropertyOp52
 70
     0
102
RTVSPropertyOp53
 70
     1
102
RTVSPropertyOp54
 70
     1
102
RTVSPropertyOp55
 70
     1
102
RTVSPropertyOp56
 70
     1
102
RTVSPropertyOp57
 70
     1
102
RTVSPropertyOp58
 70
     1
102
RTVSPropertyOp59
 70
     1
102
RTVSPropertyOp60
 70
     1
102
RTVSPropertyOp61
 70
     1
102
RTVSPropertyOp62
 70
     1
  0
XRECORD
  5
3176
102
{ACAD_REACTORS
330
3175
102
}
330
3175
100
AcDbXrecord
280
     1
102
RTVSPost2010Prop28
280
     0
102
RTVSPost2010PropOp28
 70
     1
102
RTVSPost2010Prop29
280
     1
102
RTVSPost2010PropOp29
 70
     1
102
RTVSPost2010Prop30
280
     1
102
RTVSPost2010PropOp30
 70
     1
102
RTVSPost2010Prop31
280
     0
102
RTVSPost2010PropOp31
 70
     1
102
RTVSPost2010Prop32
280
     0
102
RTVSPost2010PropOp32
 70
     1
102
RTVSPost2010Prop33
280
     0
102
RTVSPost2010PropOp33
 70
     1
102
RTVSPost2010Prop34
280
     0
102
RTVSPost2010PropOp34
 70
     1
102
RTVSPost2010Prop35
280
     0
102
RTVSPost2010PropOp35
 70
     1
102
RTVSPost2010Prop36
280
     0
102
RTVSPost2010PropOp36
 70
     1
102
RTVSPost2010Prop37
 90
       50
102
RTVSPost2010PropOp37
 70
     1
102
RTVSPost2010Prop38
140
0.0
102
RTVSPost2010PropOp38
 70
     1
102
RTVSPost2010Prop39
140
1.0
102
RTVSPost2010PropOp39
 70
     1
102
RTVSPost2010Prop40
 90
        0
102
RTVSPost2010PropOp40
 70
     1
102
RTVSPost2010Prop41ColorIndex
 90
       18
102
RTVSPost2010Prop41ColorRGB
 90
        0
102
RTVSPost2010PropOp41
 70
     1
102
RTVSPost2010Prop42
 90
       50
102
RTVSPost2010PropOp42
 70
     1
102
RTVSPost2010Prop43
 90
        3
102
RTVSPost2010PropOp43
 70
     1
102
RTVSPost2010Prop44ColorIndex
 90
        5
102
RTVSPost2010Prop44ColorRGB
 90
      255
102
RTVSPost2010PropOp44
 70
     1
102
RTVSPost2010Prop45
280
     0
102
RTVSPost2010PropOp45
 70
     1
102
RTVSPost2010Prop46
 90
       50
102
RTVSPost2010PropOp46
 70
     1
102
RTVSPost2010Prop47
 90
       50
102
RTVSPost2010PropOp47
 70
     1
102
RTVSPost2010Prop48
 90
       50
102
RTVSPost2010PropOp48
 70
     1
102
RTVSPost2010Prop49
280
     0
102
RTVSPost2010PropOp49
 70
     1
102
RTVSPost2010Prop50
 90
       50
102
RTVSPost2010PropOp50
 70
     1
102
RTVSPost2010Prop51ColorIndex
 90
      256
102
RTVSPost2010Prop51ColorRGB
 90
-16777216
102
RTVSPost2010PropOp51
 70
     0
102
RTVSPost2010Prop52
140
1.0
102
RTVSPost2010PropOp52
 70
     0
102
RTVSPost2010Prop53
 90
        2
102
RTVSPost2010PropOp53
 70
     1
102
RTVSPost2010Prop54
  1
strokes_ogs.tif
102
RTVSPost2010PropOp54
 70
     1
102
RTVSPost2010Prop55
280
     0
102
RTVSPost2010PropOp55
 70
     1
102
RTVSPost2010Prop56
140
1.0
102
RTVSPost2010PropOp56
 70
     1
102
RTVSPost2010Prop57
140
1.0
102
RTVSPost2010PropOp57
 70
     1
102
RTVSPropertyOp0
 70
     1
102
RTVSPropertyOp1
 70
     1
102
RTVSPropertyOp2
 70
     1
102
RTVSPropertyOp3
 70
     1
102
RTVSPropertyOp4
 70
     1
102
RTVSPropertyOp5
 70
     1
102
RTVSPropertyOp6
 70
     1
102
RTVSPropertyOp7
 70
     1
102
RTVSPropertyOp8
 70
     1
102
RTVSPropertyOp9
 70
     1
102
RTVSPropertyOp10
 70
     1
102
RTVSPropertyOp11
 70
     1
102
RTVSPropertyOp12
 70
     1
102
RTVSPropertyOp13
 70
     1
102
RTVSPropertyOp14
 70
     1
102
RTVSPropertyOp15
 70
     1
102
RTVSPropertyOp16
 70
     1
102
RTVSPropertyOp17
 70
     1
102
RTVSPropertyOp18
 70
     1
102
RTVSPropertyOp19
 70
     1
102
RTVSPropertyOp20
 70
     1
102
RTVSPropertyOp21
 70
     1
102
RTVSPropertyOp22
 70
     1
102
RTVSPropertyOp23
 70
     1
102
RTVSPropertyOp24
 70
     1
102
RTVSPropertyOp25
 70
     1
102
RTVSPropertyOp26
 70
     1
102
RTVSPropertyOp27
 70
     1
102
RTVSPropertyOp28
 70
     1
102
RTVSPropertyOp29
 70
     1
102
RTVSPropertyOp30
 70
     1
102
RTVSPropertyOp31
 70
     1
102
RTVSPropertyOp32
 70
     1
102
RTVSPropertyOp33
 70
     1
102
RTVSPropertyOp34
 70
     1
102
RTVSPropertyOp35
 70
     1
102
RTVSPropertyOp36
 70
     1
102
RTVSPropertyOp37
 70
     1
102
RTVSPropertyOp38
 70
     1
102
RTVSPropertyOp39
 70
     1
102
RTVSPropertyOp40
 70
     1
102
RTVSPropertyOp41
 70
     1
102
RTVSPropertyOp42
 70
     1
102
RTVSPropertyOp43
 70
     1
102
RTVSPropertyOp44
 70
     1
102
RTVSPropertyOp45
 70
     1
102
RTVSPropertyOp46
 70
     1
102
RTVSPropertyOp47
 70
     1
102
RTVSPropertyOp48
 70
     1
102
RTVSPropertyOp49
 70
     1
102
RTVSPropertyOp50
 70
     1
102
RTVSPropertyOp51
 70
     0
102
RTVSPropertyOp52
 70
     0
102
RTVSPropertyOp53
 70
     1
102
RTVSPropertyOp54
 70
     1
102
RTVSPropertyOp55
 70
     1
102
RTVSPropertyOp56
 70
     1
102
RTVSPropertyOp57
 70
     1
102
RTVSPropertyOp58
 70
     1
102
RTVSPropertyOp59
 70
     1
102
RTVSPropertyOp60
 70
     1
102
RTVSPropertyOp61
 70
     1
102
RTVSPropertyOp62
 70
     1
  0
XRECORD
  5
3174
102
{ACAD_REACTORS
330
3173
102
}
330
3173
100
AcDbXrecord
280
     1
102
RTVSPost2010Prop28
280
     0
102
RTVSPost2010PropOp28
 70
     1
102
RTVSPost2010Prop29
280
     1
102
RTVSPost2010PropOp29
 70
     1
102
RTVSPost2010Prop30
280
     1
102
RTVSPost2010PropOp30
 70
     1
102
RTVSPost2010Prop31
280
     0
102
RTVSPost2010PropOp31
 70
     1
102
RTVSPost2010Prop32
280
     0
102
RTVSPost2010PropOp32
 70
     1
102
RTVSPost2010Prop33
280
     0
102
RTVSPost2010PropOp33
 70
     1
102
RTVSPost2010Prop34
280
     0
102
RTVSPost2010PropOp34
 70
     1
102
RTVSPost2010Prop35
280
     0
102
RTVSPost2010PropOp35
 70
     1
102
RTVSPost2010Prop36
280
     0
102
RTVSPost2010PropOp36
 70
     1
102
RTVSPost2010Prop37
 90
       50
102
RTVSPost2010PropOp37
 70
     1
102
RTVSPost2010Prop38
140
0.0
102
RTVSPost2010PropOp38
 70
     1
102
RTVSPost2010Prop39
140
1.0
102
RTVSPost2010PropOp39
 70
     1
102
RTVSPost2010Prop40
 90
        0
102
RTVSPost2010PropOp40
 70
     1
102
RTVSPost2010Prop41ColorIndex
 90
       18
102
RTVSPost2010Prop41ColorRGB
 90
        0
102
RTVSPost2010PropOp41
 70
     1
102
RTVSPost2010Prop42
 90
       50
102
RTVSPost2010PropOp42
 70
     1
102
RTVSPost2010Prop43
 90
        3
102
RTVSPost2010PropOp43
 70
     1
102
RTVSPost2010Prop44ColorIndex
 90
        5
102
RTVSPost2010Prop44ColorRGB
 90
      255
102
RTVSPost2010PropOp44
 70
     1
102
RTVSPost2010Prop45
280
     0
102
RTVSPost2010PropOp45
 70
     1
102
RTVSPost2010Prop46
 90
       50
102
RTVSPost2010PropOp46
 70
     1
102
RTVSPost2010Prop47
 90
       50
102
RTVSPost2010PropOp47
 70
     1
102
RTVSPost2010Prop48
 90
       50
102
RTVSPost2010PropOp48
 70
     1
102
RTVSPost2010Prop49
280
     0
102
RTVSPost2010PropOp49
 70
     1
102
RTVSPost2010Prop50
 90
       50
102
RTVSPost2010PropOp50
 70
     1
102
RTVSPost2010Prop51ColorIndex
 90
      256
102
RTVSPost2010Prop51ColorRGB
 90
-16777216
102
RTVSPost2010PropOp51
 70
     0
102
RTVSPost2010Prop52
140
1.0
102
RTVSPost2010PropOp52
 70
     0
102
RTVSPost2010Prop53
 90
        2
102
RTVSPost2010PropOp53
 70
     1
102
RTVSPost2010Prop54
  1
strokes_ogs.tif
102
RTVSPost2010PropOp54
 70
     1
102
RTVSPost2010Prop55
280
     0
102
RTVSPost2010PropOp55
 70
     1
102
RTVSPost2010Prop56
140
1.0
102
RTVSPost2010PropOp56
 70
     1
102
RTVSPost2010Prop57
140
1.0
102
RTVSPost2010PropOp57
 70
     1
102
RTVSPropertyOp0
 70
     1
102
RTVSPropertyOp1
 70
     1
102
RTVSPropertyOp2
 70
     1
102
RTVSPropertyOp3
 70
     1
102
RTVSPropertyOp4
 70
     1
102
RTVSPropertyOp5
 70
     1
102
RTVSPropertyOp6
 70
     1
102
RTVSPropertyOp7
 70
     1
102
RTVSPropertyOp8
 70
     1
102
RTVSPropertyOp9
 70
     1
102
RTVSPropertyOp10
 70
     1
102
RTVSPropertyOp11
 70
     1
102
RTVSPropertyOp12
 70
     1
102
RTVSPropertyOp13
 70
     1
102
RTVSPropertyOp14
 70
     1
102
RTVSPropertyOp15
 70
     1
102
RTVSPropertyOp16
 70
     1
102
RTVSPropertyOp17
 70
     1
102
RTVSPropertyOp18
 70
     1
102
RTVSPropertyOp19
 70
     1
102
RTVSPropertyOp20
 70
     1
102
RTVSPropertyOp21
 70
     1
102
RTVSPropertyOp22
 70
     1
102
RTVSPropertyOp23
 70
     1
102
RTVSPropertyOp24
 70
     1
102
RTVSPropertyOp25
 70
     1
102
RTVSPropertyOp26
 70
     1
102
RTVSPropertyOp27
 70
     1
102
RTVSPropertyOp28
 70
     1
102
RTVSPropertyOp29
 70
     1
102
RTVSPropertyOp30
 70
     1
102
RTVSPropertyOp31
 70
     1
102
RTVSPropertyOp32
 70
     1
102
RTVSPropertyOp33
 70
     1
102
RTVSPropertyOp34
 70
     1
102
RTVSPropertyOp35
 70
     1
102
RTVSPropertyOp36
 70
     1
102
RTVSPropertyOp37
 70
     1
102
RTVSPropertyOp38
 70
     1
102
RTVSPropertyOp39
 70
     1
102
RTVSPropertyOp40
 70
     1
102
RTVSPropertyOp41
 70
     1
102
RTVSPropertyOp42
 70
     1
102
RTVSPropertyOp43
 70
     1
102
RTVSPropertyOp44
 70
     1
102
RTVSPropertyOp45
 70
     1
102
RTVSPropertyOp46
 70
     1
102
RTVSPropertyOp47
 70
     1
102
RTVSPropertyOp48
 70
     1
102
RTVSPropertyOp49
 70
     1
102
RTVSPropertyOp50
 70
     1
102
RTVSPropertyOp51
 70
     0
102
RTVSPropertyOp52
 70
     0
102
RTVSPropertyOp53
 70
     1
102
RTVSPropertyOp54
 70
     1
102
RTVSPropertyOp55
 70
     1
102
RTVSPropertyOp56
 70
     1
102
RTVSPropertyOp57
 70
     1
102
RTVSPropertyOp58
 70
     1
102
RTVSPropertyOp59
 70
     1
102
RTVSPropertyOp60
 70
     1
102
RTVSPropertyOp61
 70
     1
102
RTVSPropertyOp62
 70
     1
  0
XRECORD
  5
316E
102
{ACAD_REACTORS
330
316D
102
}
330
316D
100
AcDbXrecord
280
     1
102
RTVSPost2010Prop28
280
     0
102
RTVSPost2010PropOp28
 70
     1
102
RTVSPost2010Prop29
280
     1
102
RTVSPost2010PropOp29
 70
     1
102
RTVSPost2010Prop30
280
     1
102
RTVSPost2010PropOp30
 70
     1
102
RTVSPost2010Prop31
280
     0
102
RTVSPost2010PropOp31
 70
     1
102
RTVSPost2010Prop32
280
     0
102
RTVSPost2010PropOp32
 70
     1
102
RTVSPost2010Prop33
280
     0
102
RTVSPost2010PropOp33
 70
     1
102
RTVSPost2010Prop34
280
     0
102
RTVSPost2010PropOp34
 70
     1
102
RTVSPost2010Prop35
280
     0
102
RTVSPost2010PropOp35
 70
     1
102
RTVSPost2010Prop36
280
     0
102
RTVSPost2010PropOp36
 70
     1
102
RTVSPost2010Prop37
 90
       50
102
RTVSPost2010PropOp37
 70
     1
102
RTVSPost2010Prop38
140
0.0
102
RTVSPost2010PropOp38
 70
     1
102
RTVSPost2010Prop39
140
1.0
102
RTVSPost2010PropOp39
 70
     1
102
RTVSPost2010Prop40
 90
        0
102
RTVSPost2010PropOp40
 70
     1
102
RTVSPost2010Prop41ColorIndex
 90
       18
102
RTVSPost2010Prop41ColorRGB
 90
        0
102
RTVSPost2010PropOp41
 70
     1
102
RTVSPost2010Prop42
 90
       50
102
RTVSPost2010PropOp42
 70
     1
102
RTVSPost2010Prop43
 90
        3
102
RTVSPost2010PropOp43
 70
     1
102
RTVSPost2010Prop44ColorIndex
 90
        5
102
RTVSPost2010Prop44ColorRGB
 90
      255
102
RTVSPost2010PropOp44
 70
     1
102
RTVSPost2010Prop45
280
     0
102
RTVSPost2010PropOp45
 70
     1
102
RTVSPost2010Prop46
 90
       50
102
RTVSPost2010PropOp46
 70
     1
102
RTVSPost2010Prop47
 90
       50
102
RTVSPost2010PropOp47
 70
     1
102
RTVSPost2010Prop48
 90
       50
102
RTVSPost2010PropOp48
 70
     1
102
RTVSPost2010Prop49
280
     0
102
RTVSPost2010PropOp49
 70
     1
102
RTVSPost2010Prop50
 90
       50
102
RTVSPost2010PropOp50
 70
     1
102
RTVSPost2010Prop51ColorIndex
 90
      256
102
RTVSPost2010Prop51ColorRGB
 90
-16777216
102
RTVSPost2010PropOp51
 70
     0
102
RTVSPost2010Prop52
140
1.0
102
RTVSPost2010PropOp52
 70
     0
102
RTVSPost2010Prop53
 90
        2
102
RTVSPost2010PropOp53
 70
     1
102
RTVSPost2010Prop54
  1
strokes_ogs.tif
102
RTVSPost2010PropOp54
 70
     1
102
RTVSPost2010Prop55
280
     0
102
RTVSPost2010PropOp55
 70
     1
102
RTVSPost2010Prop56
140
1.0
102
RTVSPost2010PropOp56
 70
     1
102
RTVSPost2010Prop57
140
1.0
102
RTVSPost2010PropOp57
 70
     1
102
RTVSPropertyOp0
 70
     1
102
RTVSPropertyOp1
 70
     1
102
RTVSPropertyOp2
 70
     1
102
RTVSPropertyOp3
 70
     1
102
RTVSPropertyOp4
 70
     1
102
RTVSPropertyOp5
 70
     1
102
RTVSPropertyOp6
 70
     1
102
RTVSPropertyOp7
 70
     1
102
RTVSPropertyOp8
 70
     1
102
RTVSPropertyOp9
 70
     1
102
RTVSPropertyOp10
 70
     1
102
RTVSPropertyOp11
 70
     1
102
RTVSPropertyOp12
 70
     1
102
RTVSPropertyOp13
 70
     1
102
RTVSPropertyOp14
 70
     1
102
RTVSPropertyOp15
 70
     1
102
RTVSPropertyOp16
 70
     1
102
RTVSPropertyOp17
 70
     1
102
RTVSPropertyOp18
 70
     1
102
RTVSPropertyOp19
 70
     1
102
RTVSPropertyOp20
 70
     1
102
RTVSPropertyOp21
 70
     1
102
RTVSPropertyOp22
 70
     1
102
RTVSPropertyOp23
 70
     1
102
RTVSPropertyOp24
 70
     1
102
RTVSPropertyOp25
 70
     1
102
RTVSPropertyOp26
 70
     1
102
RTVSPropertyOp27
 70
     1
102
RTVSPropertyOp28
 70
     1
102
RTVSPropertyOp29
 70
     1
102
RTVSPropertyOp30
 70
     1
102
RTVSPropertyOp31
 70
     1
102
RTVSPropertyOp32
 70
     1
102
RTVSPropertyOp33
 70
     1
102
RTVSPropertyOp34
 70
     1
102
RTVSPropertyOp35
 70
     1
102
RTVSPropertyOp36
 70
     1
102
RTVSPropertyOp37
 70
     1
102
RTVSPropertyOp38
 70
     1
102
RTVSPropertyOp39
 70
     1
102
RTVSPropertyOp40
 70
     1
102
RTVSPropertyOp41
 70
     1
102
RTVSPropertyOp42
 70
     1
102
RTVSPropertyOp43
 70
     1
102
RTVSPropertyOp44
 70
     1
102
RTVSPropertyOp45
 70
     1
102
RTVSPropertyOp46
 70
     1
102
RTVSPropertyOp47
 70
     1
102
RTVSPropertyOp48
 70
     1
102
RTVSPropertyOp49
 70
     1
102
RTVSPropertyOp50
 70
     1
102
RTVSPropertyOp51
 70
     0
102
RTVSPropertyOp52
 70
     0
102
RTVSPropertyOp53
 70
     1
102
RTVSPropertyOp54
 70
     1
102
RTVSPropertyOp55
 70
     1
102
RTVSPropertyOp56
 70
     1
102
RTVSPropertyOp57
 70
     1
102
RTVSPropertyOp58
 70
     1
102
RTVSPropertyOp59
 70
     1
102
RTVSPropertyOp60
 70
     1
102
RTVSPropertyOp61
 70
     1
102
RTVSPropertyOp62
 70
     1
  0
XRECORD
  5
3170
102
{ACAD_REACTORS
330
316F
102
}
330
316F
100
AcDbXrecord
280
     1
102
RTVSPost2010Prop28
280
     0
102
RTVSPost2010PropOp28
 70
     1
102
RTVSPost2010Prop29
280
     1
102
RTVSPost2010PropOp29
 70
     1
102
RTVSPost2010Prop30
280
     1
102
RTVSPost2010PropOp30
 70
     1
102
RTVSPost2010Prop31
280
     0
102
RTVSPost2010PropOp31
 70
     1
102
RTVSPost2010Prop32
280
     0
102
RTVSPost2010PropOp32
 70
     1
102
RTVSPost2010Prop33
280
     0
102
RTVSPost2010PropOp33
 70
     1
102
RTVSPost2010Prop34
280
     0
102
RTVSPost2010PropOp34
 70
     1
102
RTVSPost2010Prop35
280
     0
102
RTVSPost2010PropOp35
 70
     1
102
RTVSPost2010Prop36
280
     0
102
RTVSPost2010PropOp36
 70
     1
102
RTVSPost2010Prop37
 90
       50
102
RTVSPost2010PropOp37
 70
     1
102
RTVSPost2010Prop38
140
0.0
102
RTVSPost2010PropOp38
 70
     1
102
RTVSPost2010Prop39
140
1.0
102
RTVSPost2010PropOp39
 70
     1
102
RTVSPost2010Prop40
 90
        0
102
RTVSPost2010PropOp40
 70
     1
102
RTVSPost2010Prop41ColorIndex
 90
       18
102
RTVSPost2010Prop41ColorRGB
 90
        0
102
RTVSPost2010PropOp41
 70
     1
102
RTVSPost2010Prop42
 90
       50
102
RTVSPost2010PropOp42
 70
     1
102
RTVSPost2010Prop43
 90
        3
102
RTVSPost2010PropOp43
 70
     1
102
RTVSPost2010Prop44ColorIndex
 90
        5
102
RTVSPost2010Prop44ColorRGB
 90
      255
102
RTVSPost2010PropOp44
 70
     1
102
RTVSPost2010Prop45
280
     0
102
RTVSPost2010PropOp45
 70
     1
102
RTVSPost2010Prop46
 90
       50
102
RTVSPost2010PropOp46
 70
     1
102
RTVSPost2010Prop47
 90
       50
102
RTVSPost2010PropOp47
 70
     1
102
RTVSPost2010Prop48
 90
       50
102
RTVSPost2010PropOp48
 70
     1
102
RTVSPost2010Prop49
280
     0
102
RTVSPost2010PropOp49
 70
     1
102
RTVSPost2010Prop50
 90
       50
102
RTVSPost2010PropOp50
 70
     1
102
RTVSPost2010Prop51ColorIndex
 90
      256
102
RTVSPost2010Prop51ColorRGB
 90
-16777216
102
RTVSPost2010PropOp51
 70
     0
102
RTVSPost2010Prop52
140
1.0
102
RTVSPost2010PropOp52
 70
     0
102
RTVSPost2010Prop53
 90
        2
102
RTVSPost2010PropOp53
 70
     1
102
RTVSPost2010Prop54
  1
strokes_ogs.tif
102
RTVSPost2010PropOp54
 70
     1
102
RTVSPost2010Prop55
280
     0
102
RTVSPost2010PropOp55
 70
     1
102
RTVSPost2010Prop56
140
1.0
102
RTVSPost2010PropOp56
 70
     1
102
RTVSPost2010Prop57
140
1.0
102
RTVSPost2010PropOp57
 70
     1
102
RTVSPropertyOp0
 70
     1
102
RTVSPropertyOp1
 70
     1
102
RTVSPropertyOp2
 70
     1
102
RTVSPropertyOp3
 70
     1
102
RTVSPropertyOp4
 70
     1
102
RTVSPropertyOp5
 70
     1
102
RTVSPropertyOp6
 70
     1
102
RTVSPropertyOp7
 70
     1
102
RTVSPropertyOp8
 70
     1
102
RTVSPropertyOp9
 70
     1
102
RTVSPropertyOp10
 70
     1
102
RTVSPropertyOp11
 70
     1
102
RTVSPropertyOp12
 70
     1
102
RTVSPropertyOp13
 70
     1
102
RTVSPropertyOp14
 70
     1
102
RTVSPropertyOp15
 70
     1
102
RTVSPropertyOp16
 70
     1
102
RTVSPropertyOp17
 70
     1
102
RTVSPropertyOp18
 70
     1
102
RTVSPropertyOp19
 70
     1
102
RTVSPropertyOp20
 70
     1
102
RTVSPropertyOp21
 70
     1
102
RTVSPropertyOp22
 70
     1
102
RTVSPropertyOp23
 70
     1
102
RTVSPropertyOp24
 70
     1
102
RTVSPropertyOp25
 70
     1
102
RTVSPropertyOp26
 70
     1
102
RTVSPropertyOp27
 70
     1
102
RTVSPropertyOp28
 70
     1
102
RTVSPropertyOp29
 70
     1
102
RTVSPropertyOp30
 70
     1
102
RTVSPropertyOp31
 70
     1
102
RTVSPropertyOp32
 70
     1
102
RTVSPropertyOp33
 70
     1
102
RTVSPropertyOp34
 70
     1
102
RTVSPropertyOp35
 70
     1
102
RTVSPropertyOp36
 70
     1
102
RTVSPropertyOp37
 70
     1
102
RTVSPropertyOp38
 70
     1
102
RTVSPropertyOp39
 70
     1
102
RTVSPropertyOp40
 70
     1
102
RTVSPropertyOp41
 70
     1
102
RTVSPropertyOp42
 70
     1
102
RTVSPropertyOp43
 70
     1
102
RTVSPropertyOp44
 70
     1
102
RTVSPropertyOp45
 70
     1
102
RTVSPropertyOp46
 70
     1
102
RTVSPropertyOp47
 70
     1
102
RTVSPropertyOp48
 70
     1
102
RTVSPropertyOp49
 70
     1
102
RTVSPropertyOp50
 70
     1
102
RTVSPropertyOp51
 70
     0
102
RTVSPropertyOp52
 70
     0
102
RTVSPropertyOp53
 70
     1
102
RTVSPropertyOp54
 70
     1
102
RTVSPropertyOp55
 70
     1
102
RTVSPropertyOp56
 70
     1
102
RTVSPropertyOp57
 70
     1
102
RTVSPropertyOp58
 70
     1
102
RTVSPropertyOp59
 70
     1
102
RTVSPropertyOp60
 70
     1
102
RTVSPropertyOp61
 70
     1
102
RTVSPropertyOp62
 70
     1
  0
XRECORD
  5
3166
102
{ACAD_REACTORS
330
3165
102
}
330
3165
100
AcDbXrecord
280
     1
102
RTVSPost2010Prop28
280
     0
102
RTVSPost2010PropOp28
 70
     1
102
RTVSPost2010Prop29
280
     1
102
RTVSPost2010PropOp29
 70
     1
102
RTVSPost2010Prop30
280
     1
102
RTVSPost2010PropOp30
 70
     1
102
RTVSPost2010Prop31
280
     0
102
RTVSPost2010PropOp31
 70
     1
102
RTVSPost2010Prop32
280
     0
102
RTVSPost2010PropOp32
 70
     1
102
RTVSPost2010Prop33
280
     0
102
RTVSPost2010PropOp33
 70
     1
102
RTVSPost2010Prop34
280
     0
102
RTVSPost2010PropOp34
 70
     1
102
RTVSPost2010Prop35
280
     0
102
RTVSPost2010PropOp35
 70
     1
102
RTVSPost2010Prop36
280
     0
102
RTVSPost2010PropOp36
 70
     1
102
RTVSPost2010Prop37
 90
       50
102
RTVSPost2010PropOp37
 70
     1
102
RTVSPost2010Prop38
140
0.0
102
RTVSPost2010PropOp38
 70
     1
102
RTVSPost2010Prop39
140
1.0
102
RTVSPost2010PropOp39
 70
     1
102
RTVSPost2010Prop40
 90
        0
102
RTVSPost2010PropOp40
 70
     1
102
RTVSPost2010Prop41ColorIndex
 90
       18
102
RTVSPost2010Prop41ColorRGB
 90
        0
102
RTVSPost2010PropOp41
 70
     1
102
RTVSPost2010Prop42
 90
       50
102
RTVSPost2010PropOp42
 70
     1
102
RTVSPost2010Prop43
 90
        3
102
RTVSPost2010PropOp43
 70
     1
102
RTVSPost2010Prop44ColorIndex
 90
        5
102
RTVSPost2010Prop44ColorRGB
 90
      255
102
RTVSPost2010PropOp44
 70
     1
102
RTVSPost2010Prop45
280
     0
102
RTVSPost2010PropOp45
 70
     1
102
RTVSPost2010Prop46
 90
       50
102
RTVSPost2010PropOp46
 70
     1
102
RTVSPost2010Prop47
 90
       50
102
RTVSPost2010PropOp47
 70
     1
102
RTVSPost2010Prop48
 90
       50
102
RTVSPost2010PropOp48
 70
     1
102
RTVSPost2010Prop49
280
     0
102
RTVSPost2010PropOp49
 70
     1
102
RTVSPost2010Prop50
 90
       50
102
RTVSPost2010PropOp50
 70
     1
102
RTVSPost2010Prop51ColorIndex
 90
      256
102
RTVSPost2010Prop51ColorRGB
 90
-16777216
102
RTVSPost2010PropOp51
 70
     0
102
RTVSPost2010Prop52
140
1.0
102
RTVSPost2010PropOp52
 70
     0
102
RTVSPost2010Prop53
 90
        2
102
RTVSPost2010PropOp53
 70
     1
102
RTVSPost2010Prop54
  1
strokes_ogs.tif
102
RTVSPost2010PropOp54
 70
     1
102
RTVSPost2010Prop55
280
     0
102
RTVSPost2010PropOp55
 70
     1
102
RTVSPost2010Prop56
140
1.0
102
RTVSPost2010PropOp56
 70
     1
102
RTVSPost2010Prop57
140
1.0
102
RTVSPost2010PropOp57
 70
     1
102
RTVSPropertyOp0
 70
     1
102
RTVSPropertyOp1
 70
     1
102
RTVSPropertyOp2
 70
     1
102
RTVSPropertyOp3
 70
     1
102
RTVSPropertyOp4
 70
     1
102
RTVSPropertyOp5
 70
     1
102
RTVSPropertyOp6
 70
     1
102
RTVSPropertyOp7
 70
     1
102
RTVSPropertyOp8
 70
     1
102
RTVSPropertyOp9
 70
     1
102
RTVSPropertyOp10
 70
     1
102
RTVSPropertyOp11
 70
     1
102
RTVSPropertyOp12
 70
     1
102
RTVSPropertyOp13
 70
     1
102
RTVSPropertyOp14
 70
     1
102
RTVSPropertyOp15
 70
     1
102
RTVSPropertyOp16
 70
     1
102
RTVSPropertyOp17
 70
     1
102
RTVSPropertyOp18
 70
     1
102
RTVSPropertyOp19
 70
     1
102
RTVSPropertyOp20
 70
     1
102
RTVSPropertyOp21
 70
     1
102
RTVSPropertyOp22
 70
     1
102
RTVSPropertyOp23
 70
     1
102
RTVSPropertyOp24
 70
     1
102
RTVSPropertyOp25
 70
     1
102
RTVSPropertyOp26
 70
     1
102
RTVSPropertyOp27
 70
     1
102
RTVSPropertyOp28
 70
     1
102
RTVSPropertyOp29
 70
     1
102
RTVSPropertyOp30
 70
     1
102
RTVSPropertyOp31
 70
     1
102
RTVSPropertyOp32
 70
     1
102
RTVSPropertyOp33
 70
     1
102
RTVSPropertyOp34
 70
     1
102
RTVSPropertyOp35
 70
     1
102
RTVSPropertyOp36
 70
     1
102
RTVSPropertyOp37
 70
     1
102
RTVSPropertyOp38
 70
     1
102
RTVSPropertyOp39
 70
     1
102
RTVSPropertyOp40
 70
     1
102
RTVSPropertyOp41
 70
     1
102
RTVSPropertyOp42
 70
     1
102
RTVSPropertyOp43
 70
     1
102
RTVSPropertyOp44
 70
     1
102
RTVSPropertyOp45
 70
     1
102
RTVSPropertyOp46
 70
     1
102
RTVSPropertyOp47
 70
     1
102
RTVSPropertyOp48
 70
     1
102
RTVSPropertyOp49
 70
     1
102
RTVSPropertyOp50
 70
     1
102
RTVSPropertyOp51
 70
     0
102
RTVSPropertyOp52
 70
     0
102
RTVSPropertyOp53
 70
     1
102
RTVSPropertyOp54
 70
     1
102
RTVSPropertyOp55
 70
     1
102
RTVSPropertyOp56
 70
     1
102
RTVSPropertyOp57
 70
     1
102
RTVSPropertyOp58
 70
     1
102
RTVSPropertyOp59
 70
     1
102
RTVSPropertyOp60
 70
     1
102
RTVSPropertyOp61
 70
     1
102
RTVSPropertyOp62
 70
     1
  0
XRECORD
  5
315A
102
{ACAD_REACTORS
330
3159
102
}
330
3159
100
AcDbXrecord
280
     1
102
RTVSPost2010Prop28
280
     0
102
RTVSPost2010PropOp28
 70
     1
102
RTVSPost2010Prop29
280
     1
102
RTVSPost2010PropOp29
 70
     1
102
RTVSPost2010Prop30
280
     1
102
RTVSPost2010PropOp30
 70
     1
102
RTVSPost2010Prop31
280
     0
102
RTVSPost2010PropOp31
 70
     1
102
RTVSPost2010Prop32
280
     0
102
RTVSPost2010PropOp32
 70
     1
102
RTVSPost2010Prop33
280
     0
102
RTVSPost2010PropOp33
 70
     1
102
RTVSPost2010Prop34
280
     0
102
RTVSPost2010PropOp34
 70
     1
102
RTVSPost2010Prop35
280
     0
102
RTVSPost2010PropOp35
 70
     1
102
RTVSPost2010Prop36
280
     0
102
RTVSPost2010PropOp36
 70
     1
102
RTVSPost2010Prop37
 90
       50
102
RTVSPost2010PropOp37
 70
     1
102
RTVSPost2010Prop38
140
0.0
102
RTVSPost2010PropOp38
 70
     1
102
RTVSPost2010Prop39
140
1.0
102
RTVSPost2010PropOp39
 70
     1
102
RTVSPost2010Prop40
 90
        0
102
RTVSPost2010PropOp40
 70
     1
102
RTVSPost2010Prop41ColorIndex
 90
       18
102
RTVSPost2010Prop41ColorRGB
 90
        0
102
RTVSPost2010PropOp41
 70
     1
102
RTVSPost2010Prop42
 90
       50
102
RTVSPost2010PropOp42
 70
     1
102
RTVSPost2010Prop43
 90
        3
102
RTVSPost2010PropOp43
 70
     1
102
RTVSPost2010Prop44ColorIndex
 90
        5
102
RTVSPost2010Prop44ColorRGB
 90
      255
102
RTVSPost2010PropOp44
 70
     1
102
RTVSPost2010Prop45
280
     0
102
RTVSPost2010PropOp45
 70
     1
102
RTVSPost2010Prop46
 90
       50
102
RTVSPost2010PropOp46
 70
     1
102
RTVSPost2010Prop47
 90
       50
102
RTVSPost2010PropOp47
 70
     1
102
RTVSPost2010Prop48
 90
       50
102
RTVSPost2010PropOp48
 70
     1
102
RTVSPost2010Prop49
280
     0
102
RTVSPost2010PropOp49
 70
     1
102
RTVSPost2010Prop50
 90
       50
102
RTVSPost2010PropOp50
 70
     1
102
RTVSPost2010Prop51ColorIndex
 90
      256
102
RTVSPost2010Prop51ColorRGB
 90
-16777216
102
RTVSPost2010PropOp51
 70
     0
102
RTVSPost2010Prop52
140
1.0
102
RTVSPost2010PropOp52
 70
     0
102
RTVSPost2010Prop53
 90
        2
102
RTVSPost2010PropOp53
 70
     1
102
RTVSPost2010Prop54
  1
strokes_ogs.tif
102
RTVSPost2010PropOp54
 70
     1
102
RTVSPost2010Prop55
280
     0
102
RTVSPost2010PropOp55
 70
     1
102
RTVSPost2010Prop56
140
1.0
102
RTVSPost2010PropOp56
 70
     1
102
RTVSPost2010Prop57
140
1.0
102
RTVSPost2010PropOp57
 70
     1
102
RTVSPropertyOp0
 70
     1
102
RTVSPropertyOp1
 70
     1
102
RTVSPropertyOp2
 70
     1
102
RTVSPropertyOp3
 70
     1
102
RTVSPropertyOp4
 70
     1
102
RTVSPropertyOp5
 70
     1
102
RTVSPropertyOp6
 70
     1
102
RTVSPropertyOp7
 70
     1
102
RTVSPropertyOp8
 70
     1
102
RTVSPropertyOp9
 70
     1
102
RTVSPropertyOp10
 70
     1
102
RTVSPropertyOp11
 70
     1
102
RTVSPropertyOp12
 70
     1
102
RTVSPropertyOp13
 70
     1
102
RTVSPropertyOp14
 70
     1
102
RTVSPropertyOp15
 70
     1
102
RTVSPropertyOp16
 70
     1
102
RTVSPropertyOp17
 70
     1
102
RTVSPropertyOp18
 70
     1
102
RTVSPropertyOp19
 70
     1
102
RTVSPropertyOp20
 70
     1
102
RTVSPropertyOp21
 70
     1
102
RTVSPropertyOp22
 70
     1
102
RTVSPropertyOp23
 70
     1
102
RTVSPropertyOp24
 70
     1
102
RTVSPropertyOp25
 70
     1
102
RTVSPropertyOp26
 70
     1
102
RTVSPropertyOp27
 70
     1
102
RTVSPropertyOp28
 70
     1
102
RTVSPropertyOp29
 70
     1
102
RTVSPropertyOp30
 70
     1
102
RTVSPropertyOp31
 70
     1
102
RTVSPropertyOp32
 70
     1
102
RTVSPropertyOp33
 70
     1
102
RTVSPropertyOp34
 70
     1
102
RTVSPropertyOp35
 70
     1
102
RTVSPropertyOp36
 70
     1
102
RTVSPropertyOp37
 70
     1
102
RTVSPropertyOp38
 70
     1
102
RTVSPropertyOp39
 70
     1
102
RTVSPropertyOp40
 70
     1
102
RTVSPropertyOp41
 70
     1
102
RTVSPropertyOp42
 70
     1
102
RTVSPropertyOp43
 70
     1
102
RTVSPropertyOp44
 70
     1
102
RTVSPropertyOp45
 70
     1
102
RTVSPropertyOp46
 70
     1
102
RTVSPropertyOp47
 70
     1
102
RTVSPropertyOp48
 70
     1
102
RTVSPropertyOp49
 70
     1
102
RTVSPropertyOp50
 70
     1
102
RTVSPropertyOp51
 70
     0
102
RTVSPropertyOp52
 70
     0
102
RTVSPropertyOp53
 70
     1
102
RTVSPropertyOp54
 70
     1
102
RTVSPropertyOp55
 70
     1
102
RTVSPropertyOp56
 70
     1
102
RTVSPropertyOp57
 70
     1
102
RTVSPropertyOp58
 70
     1
102
RTVSPropertyOp59
 70
     1
102
RTVSPropertyOp60
 70
     1
102
RTVSPropertyOp61
 70
     1
102
RTVSPropertyOp62
 70
     1
  0
XRECORD
  5
3172
102
{ACAD_REACTORS
330
3171
102
}
330
3171
100
AcDbXrecord
280
     1
102
RTVSPost2010Prop28
280
     0
102
RTVSPost2010PropOp28
 70
     1
102
RTVSPost2010Prop29
280
     1
102
RTVSPost2010PropOp29
 70
     1
102
RTVSPost2010Prop30
280
     1
102
RTVSPost2010PropOp30
 70
     1
102
RTVSPost2010Prop31
280
     0
102
RTVSPost2010PropOp31
 70
     1
102
RTVSPost2010Prop32
280
     0
102
RTVSPost2010PropOp32
 70
     1
102
RTVSPost2010Prop33
280
     0
102
RTVSPost2010PropOp33
 70
     1
102
RTVSPost2010Prop34
280
     0
102
RTVSPost2010PropOp34
 70
     1
102
RTVSPost2010Prop35
280
     0
102
RTVSPost2010PropOp35
 70
     1
102
RTVSPost2010Prop36
280
     0
102
RTVSPost2010PropOp36
 70
     1
102
RTVSPost2010Prop37
 90
       50
102
RTVSPost2010PropOp37
 70
     1
102
RTVSPost2010Prop38
140
0.0
102
RTVSPost2010PropOp38
 70
     1
102
RTVSPost2010Prop39
140
1.0
102
RTVSPost2010PropOp39
 70
     1
102
RTVSPost2010Prop40
 90
        0
102
RTVSPost2010PropOp40
 70
     1
102
RTVSPost2010Prop41ColorIndex
 90
       18
102
RTVSPost2010Prop41ColorRGB
 90
        0
102
RTVSPost2010PropOp41
 70
     1
102
RTVSPost2010Prop42
 90
       50
102
RTVSPost2010PropOp42
 70
     1
102
RTVSPost2010Prop43
 90
        3
102
RTVSPost2010PropOp43
 70
     1
102
RTVSPost2010Prop44ColorIndex
 90
        5
102
RTVSPost2010Prop44ColorRGB
 90
      255
102
RTVSPost2010PropOp44
 70
     1
102
RTVSPost2010Prop45
280
     0
102
RTVSPost2010PropOp45
 70
     1
102
RTVSPost2010Prop46
 90
       50
102
RTVSPost2010PropOp46
 70
     1
102
RTVSPost2010Prop47
 90
       50
102
RTVSPost2010PropOp47
 70
     1
102
RTVSPost2010Prop48
 90
       50
102
RTVSPost2010PropOp48
 70
     1
102
RTVSPost2010Prop49
280
     0
102
RTVSPost2010PropOp49
 70
     1
102
RTVSPost2010Prop50
 90
       50
102
RTVSPost2010PropOp50
 70
     1
102
RTVSPost2010Prop51ColorIndex
 90
      256
102
RTVSPost2010Prop51ColorRGB
 90
-16777216
102
RTVSPost2010PropOp51
 70
     0
102
RTVSPost2010Prop52
140
1.0
102
RTVSPost2010PropOp52
 70
     0
102
RTVSPost2010Prop53
 90
        2
102
RTVSPost2010PropOp53
 70
     1
102
RTVSPost2010Prop54
  1
strokes_ogs.tif
102
RTVSPost2010PropOp54
 70
     1
102
RTVSPost2010Prop55
280
     0
102
RTVSPost2010PropOp55
 70
     1
102
RTVSPost2010Prop56
140
1.0
102
RTVSPost2010PropOp56
 70
     1
102
RTVSPost2010Prop57
140
1.0
102
RTVSPost2010PropOp57
 70
     1
102
RTVSPropertyOp0
 70
     1
102
RTVSPropertyOp1
 70
     1
102
RTVSPropertyOp2
 70
     1
102
RTVSPropertyOp3
 70
     1
102
RTVSPropertyOp4
 70
     1
102
RTVSPropertyOp5
 70
     1
102
RTVSPropertyOp6
 70
     1
102
RTVSPropertyOp7
 70
     1
102
RTVSPropertyOp8
 70
     1
102
RTVSPropertyOp9
 70
     1
102
RTVSPropertyOp10
 70
     1
102
RTVSPropertyOp11
 70
     1
102
RTVSPropertyOp12
 70
     1
102
RTVSPropertyOp13
 70
     1
102
RTVSPropertyOp14
 70
     1
102
RTVSPropertyOp15
 70
     1
102
RTVSPropertyOp16
 70
     1
102
RTVSPropertyOp17
 70
     1
102
RTVSPropertyOp18
 70
     1
102
RTVSPropertyOp19
 70
     1
102
RTVSPropertyOp20
 70
     1
102
RTVSPropertyOp21
 70
     1
102
RTVSPropertyOp22
 70
     1
102
RTVSPropertyOp23
 70
     1
102
RTVSPropertyOp24
 70
     1
102
RTVSPropertyOp25
 70
     1
102
RTVSPropertyOp26
 70
     1
102
RTVSPropertyOp27
 70
     1
102
RTVSPropertyOp28
 70
     1
102
RTVSPropertyOp29
 70
     1
102
RTVSPropertyOp30
 70
     1
102
RTVSPropertyOp31
 70
     1
102
RTVSPropertyOp32
 70
     1
102
RTVSPropertyOp33
 70
     1
102
RTVSPropertyOp34
 70
     1
102
RTVSPropertyOp35
 70
     1
102
RTVSPropertyOp36
 70
     1
102
RTVSPropertyOp37
 70
     1
102
RTVSPropertyOp38
 70
     1
102
RTVSPropertyOp39
 70
     1
102
RTVSPropertyOp40
 70
     1
102
RTVSPropertyOp41
 70
     1
102
RTVSPropertyOp42
 70
     1
102
RTVSPropertyOp43
 70
     1
102
RTVSPropertyOp44
 70
     1
102
RTVSPropertyOp45
 70
     1
102
RTVSPropertyOp46
 70
     1
102
RTVSPropertyOp47
 70
     1
102
RTVSPropertyOp48
 70
     1
102
RTVSPropertyOp49
 70
     1
102
RTVSPropertyOp50
 70
     1
102
RTVSPropertyOp51
 70
     0
102
RTVSPropertyOp52
 70
     0
102
RTVSPropertyOp53
 70
     1
102
RTVSPropertyOp54
 70
     1
102
RTVSPropertyOp55
 70
     1
102
RTVSPropertyOp56
 70
     1
102
RTVSPropertyOp57
 70
     1
102
RTVSPropertyOp58
 70
     1
102
RTVSPropertyOp59
 70
     1
102
RTVSPropertyOp60
 70
     1
102
RTVSPropertyOp61
 70
     1
102
RTVSPropertyOp62
 70
     1
  0
ENDSEC
  0
EOF
