  0
SECTION
  2
HEADER
  9
$ACADVER
  1
AC1015
  9
$ACADMAINTVER
 70
    20
  9
$DWGCODEPAGE
  3
ANSI_932
  9
$INSBASE
 10
0.0
 20
0.0
 30
0.0
  9
$EXTMIN
 10
9.999999064246818
 20
9.999999806846743
 30
0.0
  9
$EXTMAX
 10
599.21078509278
 20
423.1948358546755
 30
0.0
  9
$LIMMIN
 10
0.0000015376081137
 20
-0.0000001931532552
  9
$LIMMAX
 10
655.0000015376082
 20
451.5530301098769
  9
$ORTHOMODE
 70
     0
  9
$REGENMODE
 70
     1
  9
$FILLMODE
 70
     1
  9
$QTEXTMODE
 70
     0
  9
$MIRRTEXT
 70
     1
  9
$LTSCALE
 40
1.0
  9
$ATTMODE
 70
     1
  9
$TEXTSIZE
 40
2.5
  9
$TRACEWID
 40
1.0
  9
$TEXTSTYLE
  7
STANDARD
  9
$CLAYER
  8
0
  9
$CELTYPE
  6
BYLAYER
  9
$CECOLOR
 62
   256
  9
$CELTSCALE
 40
1.0
  9
$DISPSILH
 70
     0
  9
$DIMSCALE
 40
1.0
  9
$DIMASZ
 40
3.0
  9
$DIMEXO
 40
1.0
  9
$DIMDLI
 40
10.0
  9
$DIMRND
 40
0.0
  9
$DIMDLE
 40
0.0
  9
$DIMEXE
 40
1.0
  9
$DIMTP
 40
0.0
  9
$DIMTM
 40
0.0
  9
$DIMTXT
 40
3.2
  9
$DIMCEN
 40
0.0
  9
$DIMTSZ
 40
0.0
  9
$DIMTOL
 70
     0
  9
$DIMLIM
 70
     0
  9
$DIMTIH
 70
     0
  9
$DIMTOH
 70
     0
  9
$DIMSE1
 70
     0
  9
$DIMSE2
 70
     0
  9
$DIMTAD
 70
     3
  9
$DIMZIN
 70
     8
  9
$DIMBLK
  1

  9
$DIMASO
 70
     1
  9
$DIMSHO
 70
     1
  9
$DIMPOST
  1

  9
$DIMAPOST
  1

  9
$DIMALT
 70
     0
  9
$DIMALTD
 70
     2
  9
$DIMALTF
 40
25.4
  9
$DIMLFAC
 40
1.0
  9
$DIMTOFL
 70
     1
  9
$DIMTVP
 40
0.0
  9
$DIMTIX
 70
     0
  9
$DIMSOXD
 70
     0
  9
$DIMSAH
 70
     1
  9
$DIMBLK1
  1
OPEN
  9
$DIMBLK2
  1
OPEN
  9
$DIMSTYLE
  2
STANDARD
  9
$DIMCLRD
 70
     0
  9
$DIMCLRE
 70
     0
  9
$DIMCLRT
 70
     0
  9
$DIMTFAC
 40
1.0
  9
$DIMGAP
 40
1.0
  9
$DIMJUST
 70
     0
  9
$DIMSD1
 70
     0
  9
$DIMSD2
 70
     0
  9
$DIMTOLJ
 70
     1
  9
$DIMTZIN
 70
     0
  9
$DIMALTZ
 70
     0
  9
$DIMALTTZ
 70
     0
  9
$DIMUPT
 70
     0
  9
$DIMDEC
 70
     4
  9
$DIMTDEC
 70
     4
  9
$DIMALTU
 70
     2
  9
$DIMALTTD
 70
     2
  9
$DIMTXSTY
  7
STANDARD
  9
$DIMAUNIT
 70
     0
  9
$DIMADEC
 70
     0
  9
$DIMALTRND
 40
0.0
  9
$DIMAZIN
 70
     0
  9
$DIMDSEP
 70
    46
  9
$DIMATFIT
 70
     3
  9
$DIMFRAC
 70
     0
  9
$DIMLDRBLK
  1
OPEN
  9
$DIMLUNIT
 70
     2
  9
$DIMLWD
 70
    -2
  9
$DIMLWE
 70
    -2
  9
$DIMTMOVE
 70
     0
  9
$LUNITS
 70
     2
  9
$LUPREC
 70
     4
  9
$SKETCHINC
 40
1.0
  9
$FILLETRAD
 40
0.5
  9
$AUNITS
 70
     0
  9
$AUPREC
 70
     0
  9
$MENU
  1
.
  9
$ELEVATION
 40
0.0
  9
$PELEVATION
 40
0.0
  9
$THICKNESS
 40
0.0
  9
$LIMCHECK
 70
     0
  9
$CHAMFERA
 40
10.0
  9
$CHAMFERB
 40
10.0
  9
$CHAMFERC
 40
20.0
  9
$CHAMFERD
 40
0.0
  9
$SKPOLY
 70
     0
  9
$TDCREATE
 40
2453280.473932107
  9
$TDUCREATE
 40
2453280.098932107
  9
$TDUPDATE
 40
2457192.688820961
  9
$TDUUPDATE
 40
2457192.313820961
  9
$TDINDWG
 40
0.2104812384
  9
$TDUSRTIMER
 40
0.2104808681
  9
$USRTIMER
 70
     1
  9
$ANGBASE
 50
0.0
  9
$ANGDIR
 70
     0
  9
$PDMODE
 70
     0
  9
$PDSIZE
 40
0.0
  9
$PLINEWID
 40
0.0
  9
$SPLFRAME
 70
     0
  9
$SPLINETYPE
 70
     6
  9
$SPLINESEGS
 70
     8
  9
$HANDSEED
  5
1635
  9
$SURFTAB1
 70
     6
  9
$SURFTAB2
 70
     6
  9
$SURFTYPE
 70
     6
  9
$SURFU
 70
     6
  9
$SURFV
 70
     6
  9
$UCSBASE
  2

  9
$UCSNAME
  2

  9
$UCSORG
 10
0.0
 20
0.0
 30
0.0
  9
$UCSXDIR
 10
1.0
 20
0.0
 30
0.0
  9
$UCSYDIR
 10
0.0
 20
1.0
 30
0.0
  9
$UCSORTHOREF
  2

  9
$UCSORTHOVIEW
 70
     0
  9
$UCSORGTOP
 10
0.0
 20
0.0
 30
0.0
  9
$UCSORGBOTTOM
 10
0.0
 20
0.0
 30
0.0
  9
$UCSORGLEFT
 10
0.0
 20
0.0
 30
0.0
  9
$UCSORGRIGHT
 10
0.0
 20
0.0
 30
0.0
  9
$UCSORGFRONT
 10
0.0
 20
0.0
 30
0.0
  9
$UCSORGBACK
 10
0.0
 20
0.0
 30
0.0
  9
$PUCSBASE
  2

  9
$PUCSNAME
  2

  9
$PUCSORG
 10
0.0
 20
0.0
 30
0.0
  9
$PUCSXDIR
 10
1.0
 20
0.0
 30
0.0
  9
$PUCSYDIR
 10
0.0
 20
1.0
 30
0.0
  9
$PUCSORTHOREF
  2

  9
$PUCSORTHOVIEW
 70
     0
  9
$PUCSORGTOP
 10
0.0
 20
0.0
 30
0.0
  9
$PUCSORGBOTTOM
 10
0.0
 20
0.0
 30
0.0
  9
$PUCSORGLEFT
 10
0.0
 20
0.0
 30
0.0
  9
$PUCSORGRIGHT
 10
0.0
 20
0.0
 30
0.0
  9
$PUCSORGFRONT
 10
0.0
 20
0.0
 30
0.0
  9
$PUCSORGBACK
 10
0.0
 20
0.0
 30
0.0
  9
$USERI1
 70
     0
  9
$USERI2
 70
     0
  9
$USERI3
 70
     0
  9
$USERI4
 70
     0
  9
$USERI5
 70
     0
  9
$USERR1
 40
0.0
  9
$USERR2
 40
0.0
  9
$USERR3
 40
0.0
  9
$USERR4
 40
0.0
  9
$USERR5
 40
0.0
  9
$WORLDVIEW
 70
     1
  9
$SHADEDGE
 70
     3
  9
$SHADEDIF
 70
    70
  9
$TILEMODE
 70
     1
  9
$MAXACTVP
 70
    48
  9
$PINSBASE
 10
0.0
 20
0.0
 30
0.0
  9
$PLIMCHECK
 70
     0
  9
$PEXTMIN
 10
1.000000000000000E+20
 20
1.000000000000000E+20
 30
1.000000000000000E+20
  9
$PEXTMAX
 10
-1.000000000000000E+20
 20
-1.000000000000000E+20
 30
-1.000000000000000E+20
  9
$PLIMMIN
 10
0.0
 20
0.0
  9
$PLIMMAX
 10
420.0
 20
297.0
  9
$UNITMODE
 70
     0
  9
$VISRETAIN
 70
     1
  9
$PLINEGEN
 70
     0
  9
$PSLTSCALE
 70
     1
  9
$TREEDEPTH
 70
  3020
  9
$CMLSTYLE
  2
STANDARD
  9
$CMLJUST
 70
     0
  9
$CMLSCALE
 40
20.0
  9
$PROXYGRAPHICS
 70
     1
  9
$MEASUREMENT
 70
     0
  9
$CELWEIGHT
370
    -1
  9
$ENDCAPS
280
     0
  9
$JOINSTYLE
280
     0
  9
$LWDISPLAY
290
     0
  9
$INSUNITS
 70
     0
  9
$HYPERLINKBASE
  1

  9
$STYLESHEET
  1

  9
$XEDIT
290
     1
  9
$CEPSNTYPE
380
     0
  9
$PSTYLEMODE
290
     1
  9
$FINGERPRINTGUID
  2
{C67BFED3-0C59-42FB-B845-61F35DC12F55}
  9
$VERSIONGUID
  2
{D978777D-59B8-4007-BBEC-E4623039A870}
  9
$EXTNAMES
290
     1
  9
$PSVPSCALE
 40
0.0
  9
$OLESTARTUP
290
     0
  0
ENDSEC
  0
SECTION
  2
CLASSES
  0
CLASS
  1
ACDBDICTIONARYWDFLT
  2
AcDbDictionaryWithDefault
  3
ObjectDBX Classes
 90
        0
280
     0
281
     0
  0
CLASS
  1
ACDBPLACEHOLDER
  2
AcDbPlaceHolder
  3
ObjectDBX Classes
 90
        0
280
     0
281
     0
  0
CLASS
  1
LAYOUT
  2
AcDbLayout
  3
ObjectDBX Classes
 90
        0
280
     0
281
     0
  0
CLASS
  1
DICTIONARYVAR
  2
AcDbDictionaryVar
  3
ObjectDBX Classes
 90
        0
280
     0
281
     0
  0
CLASS
  1
MATERIAL
  2
AcDbMaterial
  3
ObjectDBX Classes
 90
     1153
280
     0
281
     0
  0
CLASS
  1
VISUALSTYLE
  2
AcDbVisualStyle
  3
ObjectDBX Classes
 90
     4095
280
     0
281
     0
  0
CLASS
  1
TABLESTYLE
  2
AcDbTableStyle
  3
ObjectDBX Classes
 90
     4095
280
     0
281
     0
  0
CLASS
  1
SCALE
  2
AcDbScale
  3
ObjectDBX Classes
 90
     1153
280
     0
281
     0
  0
CLASS
  1
MLEADERSTYLE
  2
AcDbMLeaderStyle
  3
ACDB_MLEADERSTYLE_CLASS
 90
     4095
280
     0
281
     0
  0
CLASS
  1
ACDBSECTIONVIEWSTYLE
  2
AcDbSectionViewStyle
  3
ObjectDBX Classes
 90
     1025
280
     0
281
     0
  0
CLASS
  1
ACDBDETAILVIEWSTYLE
  2
AcDbDetailViewStyle
  3
ObjectDBX Classes
 90
     1025
280
     0
281
     0
  0
CLASS
  1
CELLSTYLEMAP
  2
AcDbCellStyleMap
  3
ObjectDBX Classes
 90
     1152
280
     0
281
     0
  0
ENDSEC
  0
SECTION
  2
TABLES
  0
TABLE
  2
VPORT
  5
8
330
0
100
AcDbSymbolTable
 70
     1
  0
VPORT
  5
1581
330
8
100
AcDbSymbolTableRecord
100
AcDbViewportTableRecord
  2
*ACTIVE
 70
     0
 10
0.0
 20
0.0
 11
1.0
 21
1.0
 12
463.6670572748756
 22
216.5953878728252
 13
0.0
 23
0.0
 14
10.0
 24
10.0
 15
10.0
 25
10.0
 16
0.0
 26
0.0
 36
1.0
 17
0.0
 27
0.0
 37
0.0
 40
416.499289060045
 41
2.35006605019815
 42
50.0
 43
0.0
 44
0.0
 50
0.0
 51
0.0
 71
     0
 72
   100
 73
     1
 74
     0
 75
     0
 76
     0
 77
     0
 78
     0
281
     0
 65
     1
110
0.0
120
0.0
130
0.0
111
1.0
121
0.0
131
0.0
112
0.0
122
1.0
132
0.0
 79
     0
146
0.0
1001
ACAD_NAV_VCDISPLAY
1070
     3
  0
ENDTAB
  0
TABLE
  2
LTYPE
  5
5
330
0
100
AcDbSymbolTable
 70
     4
  0
LTYPE
  5
12
330
5
100
AcDbSymbolTableRecord
100
AcDbLinetypeTableRecord
  2
BYBLOCK
 70
     0
  3

 72
    65
 73
     0
 40
0.0
  0
LTYPE
  5
13
330
5
100
AcDbSymbolTableRecord
100
AcDbLinetypeTableRecord
  2
BYLAYER
 70
     0
  3

 72
    65
 73
     0
 40
0.0
  0
LTYPE
  5
14
330
5
100
AcDbSymbolTableRecord
100
AcDbLinetypeTableRecord
  2
CONTINUOUS
 70
     0
  3
Solid line
 72
    65
 73
     0
 40
0.0
  0
LTYPE
  5
62
330
5
100
AcDbSymbolTableRecord
100
AcDbLinetypeTableRecord
  2
DASHED
 70
     0
  3
Dashed __ __ __ __ __ __ __ __ __ __ __ __ __ _
 72
    65
 73
     2
 40
19.04999999999998
 49
12.7
 74
     0
 49
-6.349999999999997
 74
     0
  0
LTYPE
  5
63
330
5
100
AcDbSymbolTableRecord
100
AcDbLinetypeTableRecord
  2
CENTER
 70
     0
  3
Center ____ _ ____ _ ____ _ ____ _ ____ _ ____
 72
    65
 73
     4
 40
50.8
 49
31.75
 74
     0
 49
-6.349999999999997
 74
     0
 49
6.349999999999997
 74
     0
 49
-6.349999999999997
 74
     0
  0
LTYPE
  5
64
330
5
100
AcDbSymbolTableRecord
100
AcDbLinetypeTableRecord
  2
PHANTOM
 70
     0
  3
Phantom ______  __  __  ______  __  __  ______
 72
    65
 73
     6
 40
63.5
 49
31.75
 74
     0
 49
-6.349999999999997
 74
     0
 49
6.349999999999997
 74
     0
 49
-6.349999999999997
 74
     0
 49
6.349999999999997
 74
     0
 49
-6.349999999999997
 74
     0
  0
ENDTAB
  0
TABLE
  2
LAYER
  5
2
330
0
100
AcDbSymbolTable
 70
     8
  0
LAYER
  5
E
102
{ACAD_XDICTIONARY
360
15D9
102
}
330
2
100
AcDbSymbolTableRecord
100
AcDbLayerTableRecord
  2
0
 70
     0
 62
     7
  6
CONTINUOUS
370
    -3
390
1588
  0
LAYER
  5
65
102
{ACAD_XDICTIONARY
360
15DB
102
}
330
2
100
AcDbSymbolTableRecord
100
AcDbLayerTableRecord
  2
4
 70
     0
 62
     1
  6
CENTER
370
    -3
390
1588
  0
LAYER
  5
66
102
{ACAD_XDICTIONARY
360
15DD
102
}
330
2
100
AcDbSymbolTableRecord
100
AcDbLayerTableRecord
  2
5
 70
     0
 62
     6
  6
PHANTOM
370
    -3
390
1588
  0
LAYER
  5
67
102
{ACAD_XDICTIONARY
360
15DF
102
}
330
2
100
AcDbSymbolTableRecord
100
AcDbLayerTableRecord
  2
1
 70
     0
 62
     7
  6
CONTINUOUS
370
    -3
390
1588
  0
LAYER
  5
68
102
{ACAD_XDICTIONARY
360
15E1
102
}
330
2
100
AcDbSymbolTableRecord
100
AcDbLayerTableRecord
  2
2
 70
     0
 62
     4
  6
CONTINUOUS
370
    -3
390
1588
  0
LAYER
  5
69
102
{ACAD_XDICTIONARY
360
15E3
102
}
330
2
100
AcDbSymbolTableRecord
100
AcDbLayerTableRecord
  2
3
 70
     0
 62
     2
  6
DASHED
370
    -3
390
1588
  0
LAYER
  5
6A
102
{ACAD_XDICTIONARY
360
15E5
102
}
330
2
100
AcDbSymbolTableRecord
100
AcDbLayerTableRecord
  2
6
 70
     0
 62
     5
  6
CONTINUOUS
370
    -3
390
1588
  0
LAYER
  5
6B
102
{ACAD_XDICTIONARY
360
15E7
102
}
330
2
100
AcDbSymbolTableRecord
100
AcDbLayerTableRecord
  2
7
 70
     0
 62
     3
  6
CONTINUOUS
370
    -3
390
1588
  0
ENDTAB
  0
TABLE
  2
STYLE
  5
3
330
0
100
AcDbSymbolTable
 70
     1
  0
STYLE
  5
F
330
3
100
AcDbSymbolTableRecord
100
AcDbTextStyleTableRecord
  2
STANDARD
 70
     0
 40
0.0
 41
1.0
 50
0.0
 71
     0
 42
2.5
  3
simplex.shx
  4

  0
ENDTAB
  0
TABLE
  2
VIEW
  5
6
330
0
100
AcDbSymbolTable
 70
     0
  0
ENDTAB
  0
TABLE
  2
UCS
  5
7
330
0
100
AcDbSymbolTable
 70
     0
  0
ENDTAB
  0
TABLE
  2
APPID
  5
9
330
0
100
AcDbSymbolTable
 70
     5
  0
APPID
  5
10
330
9
100
AcDbSymbolTableRecord
100
AcDbRegAppTableRecord
  2
ACAD
 70
     0
  0
APPID
  5
3E
330
9
100
AcDbSymbolTableRecord
100
AcDbRegAppTableRecord
  2
CONTENTTABDATA
 70
     0
  0
APPID
  5
3F
330
9
100
AcDbSymbolTableRecord
100
AcDbRegAppTableRecord
  2
CONTENTCURRENTTAB
 70
     0
  0
APPID
  5
15F3
330
9
100
AcDbSymbolTableRecord
100
AcDbRegAppTableRecord
  2
ACAD_NAV_VCDISPLAY
 70
     0
  0
APPID
  5
162C
330
9
100
AcDbSymbolTableRecord
100
AcDbRegAppTableRecord
  2
ACAD_MLEADERVER
 70
     0
  0
ENDTAB
  0
TABLE
  2
DIMSTYLE
  5
A
330
0
100
AcDbSymbolTable
 70
     1
100
AcDbDimStyleTable
 71
     0
  0
DIMSTYLE
105
1D
330
A
100
AcDbSymbolTableRecord
100
AcDbDimStyleTableRecord
  2
STANDARD
 70
     0
 41
3.0
 42
1.0
 43
10.0
 44
1.0
 73
     0
 74
     0
 77
     3
 78
     8
140
3.2
141
0.0
147
1.0
172
     1
173
     1
340
F
341
2E
343
2E
344
2E
  0
ENDTAB
  0
TABLE
  2
BLOCK_RECORD
  5
1
330
0
100
AcDbSymbolTable
 70
     1
  0
BLOCK_RECORD
  5
18
102
{ACAD_XDICTIONARY
360
156B
102
}
330
1
100
AcDbSymbolTableRecord
100
AcDbBlockTableRecord
  2
*MODEL_SPACE
340
15D6
  0
BLOCK_RECORD
  5
15
102
{ACAD_XDICTIONARY
360
1569
102
}
330
1
100
AcDbSymbolTableRecord
100
AcDbBlockTableRecord
  2
*PAPER_SPACE
340
15D7
  0
BLOCK_RECORD
  5
2E
330
1
100
AcDbSymbolTableRecord
100
AcDbBlockTableRecord
  2
_OPEN
340
0
  0
ENDTAB
  0
ENDSEC
  0
SECTION
  2
BLOCKS
  0
BLOCK
  5
19
330
18
100
AcDbEntity
  8
0
100
AcDbBlockBegin
  2
*MODEL_SPACE
 70
     0
 10
0.0
 20
0.0
 30
0.0
  3
*MODEL_SPACE
  1

  0
ENDBLK
  5
1A
330
18
100
AcDbEntity
  8
0
100
AcDbBlockEnd
  0
BLOCK
  5
16
330
15
100
AcDbEntity
 67
     1
  8
0
100
AcDbBlockBegin
  2
*PAPER_SPACE
 70
     0
 10
0.0
 20
0.0
 30
0.0
  3
*PAPER_SPACE
  1

  0
ENDBLK
  5
17
330
15
100
AcDbEntity
 67
     1
  8
0
100
AcDbBlockEnd
  0
BLOCK
  5
2F
330
2E
100
AcDbEntity
  8
0
100
AcDbBlockBegin
  2
_OPEN
 70
     0
 10
0.0
 20
0.0
 30
0.0
  3
_OPEN
  1

  0
LINE
  5
30
330
2E
100
AcDbEntity
  8
0
  6
ByBlock
 62
     0
100
AcDbLine
 10
-1.0
 20
0.1666666666666666
 30
0.0
 11
0.0
 21
0.0
 31
0.0
  0
LINE
  5
31
330
2E
100
AcDbEntity
  8
0
  6
ByBlock
 62
     0
100
AcDbLine
 10
0.0
 20
0.0
 30
0.0
 11
-1.0
 21
-0.1666666666666666
 31
0.0
  0
LINE
  5
32
330
2E
100
AcDbEntity
  8
0
  6
ByBlock
 62
     0
100
AcDbLine
 10
0.0
 20
0.0
 30
0.0
 11
-1.0
 21
0.0
 31
0.0
  0
ENDBLK
  5
33
330
2E
100
AcDbEntity
  8
0
100
AcDbBlockEnd
  0
ENDSEC
  0
SECTION
  2
ENTITIES
  0
LINE
  5
1FA
330
18
100
AcDbEntity
  8
4
  6
CENTER
 48
0.4
100
AcDbLine
 10
173.4108407493249
 20
369.1948358546756
 30
0.0
 11
192.2108409493247
 21
369.1948358546756
 31
0.0
  0
LINE
  5
1FB
330
18
100
AcDbEntity
  8
1
  6
Continuous
100
AcDbLine
 10
181.3108408493246
 20
418.1948358546756
 30
0.0
 11
266.3108408493249
 21
418.1948358546756
 31
0.0
  0
LINE
  5
1FC
330
18
100
AcDbEntity
  8
4
  6
CENTER
 48
0.4
100
AcDbLine
 10
173.4108407493249
 20
409.1948358546756
 30
0.0
 11
192.2108409493247
 21
409.1948358546756
 31
0.0
  0
LINE
  5
1FD
330
18
100
AcDbEntity
  8
1
  6
Continuous
100
AcDbLine
 10
195.1858388493248
 20
355.1948454546756
 30
0.0
 11
188.4358428493247
 21
355.1948454546756
 31
0.0
  0
LINE
  5
1FE
330
18
100
AcDbEntity
  8
1
  6
Continuous
100
AcDbLine
 10
195.8108388493247
 20
355.8198454546756
 30
0.0
 11
187.8108428493247
 21
355.8198454546756
 31
0.0
  0
LINE
  5
201
330
18
100
AcDbEntity
  8
1
  6
Continuous
100
AcDbLine
 10
181.6108438493249
 20
274.4818147596561
 30
0.0
 11
206.2835108493246
 21
278.8322707596561
 31
0.0
  0
LINE
  5
202
330
18
100
AcDbEntity
  8
1
  6
Continuous
100
AcDbLine
 10
181.3108408493246
 20
360.1948328546756
 30
0.0
 11
266.310843467319
 21
360.1948358546759
 31
0.0
  0
LINE
  5
203
330
18
100
AcDbEntity
  8
1
  6
Continuous
100
AcDbLine
 10
173.8108408493246
 20
287.7322707596562
 30
0.0
 11
273.8108408493248
 21
287.7322707596562
 31
0.0
  0
LINE
  5
204
330
18
100
AcDbEntity
  8
1
  6
Continuous
100
AcDbLine
 10
173.8108408493246
 20
289.7322707596562
 30
0.0
 11
273.8108408493248
 21
289.7322707596562
 31
0.0
  0
LINE
  5
205
330
18
100
AcDbEntity
  8
4
  6
CENTER
 48
0.4
100
AcDbLine
 10
136.8108408493247
 20
389.1948358546756
 30
0.0
 11
276.2775108493249
 21
389.1948358546756
 31
0.0
  0
CIRCLE
  5
208
330
18
100
AcDbEntity
  8
1
  6
Continuous
100
AcDbCircle
 10
191.8108408493248
 20
217.7322707596561
 30
0.0
 40
4.0
  0
CIRCLE
  5
209
330
18
100
AcDbEntity
  8
2
  6
Continuous
100
AcDbCircle
 10
191.8108408493248
 20
217.7322707596561
 30
0.0
 40
3.4000001
  0
LINE
  5
20C
330
18
100
AcDbEntity
  8
4
  6
CENTER
 48
0.4
100
AcDbLine
 10
136.8108408493247
 20
217.7322707596561
 30
0.0
 11
246.8108408493248
 21
217.7322707596561
 31
0.0
  0
ARC
  5
20E
330
18
100
AcDbEntity
  8
5
  6
PHANTOM
 48
0.3
100
AcDbCircle
 10
192.7463308493249
 20
215.6311167596561
 30
0.0
 40
17.200001
100
AcDbArc
 50
83.22183200000296
 51
144.7781700000008
  0
ARC
  5
20F
330
18
100
AcDbEntity
  8
1
  6
Continuous
100
AcDbCircle
 10
190.1787108493249
 20
251.2371383596561
 30
0.0
 40
18.29999899999998
100
AcDbArc
 50
239.9999999999998
 51
270.7781699999981
  0
ARC
  5
211
330
18
100
AcDbEntity
  8
5
  6
PHANTOM
 48
0.3
100
AcDbCircle
 10
192.7463308493249
 20
215.6311167596561
 30
0.0
 40
15.2
100
AcDbArc
 50
83.22183200000296
 51
144.7781700000008
  0
ARC
  5
212
330
18
100
AcDbEntity
  8
1
  6
Continuous
100
AcDbCircle
 10
190.1787108493249
 20
251.2371383596561
 30
0.0
 40
20.29999899999999
100
AcDbArc
 50
239.9999999999998
 51
270.7781699999981
  0
ARC
  5
213
330
18
100
AcDbEntity
  8
1
  6
Continuous
100
AcDbCircle
 10
196.1608408493246
 20
225.2666907596561
 30
0.0
 40
21.0
100
AcDbArc
 50
200.8434600000005
 51
279.1565399999988
  0
ARC
  5
214
330
18
100
AcDbEntity
  8
5
  6
PHANTOM
 48
0.3
100
AcDbCircle
 10
188.2722408493246
 20
225.680115759656
 30
0.0
 40
21.0
100
AcDbArc
 50
254.8434600000029
 51
333.1565399999991
  0
LINE
  5
216
330
18
100
AcDbEntity
  8
1
  6
Continuous
100
AcDbLine
 10
74.07753872759736
 20
289.7322707596562
 30
0.0
 11
16.07753872759732
 21
289.7322707596562
 31
0.0
  0
LINE
  5
217
330
18
100
AcDbEntity
  8
1
  6
Continuous
100
AcDbLine
 10
74.07753872759736
 20
287.7322707596562
 30
0.0
 11
16.07753872759732
 21
287.7322707596562
 31
0.0
  0
LINE
  5
218
330
18
100
AcDbEntity
  8
1
  6
Continuous
100
AcDbLine
 10
68.32753872759735
 20
282.5322697596561
 30
0.0
 11
21.82753872759732
 21
282.5322697596561
 31
0.0
  0
ARC
  5
219
330
18
100
AcDbEntity
  8
1
  6
Continuous
100
AcDbCircle
 10
45.07753872759734
 20
602.0692507596561
 30
0.0
 40
329.5570399999998
100
AcDbArc
 50
267.3083100000027
 51
272.6916899999971
  0
ARC
  5
21A
330
18
100
AcDbEntity
  8
1
  6
Continuous
100
AcDbCircle
 10
45.07753872759734
 20
767.513280759656
 30
0.0
 40
493.03143
100
AcDbArc
 50
268.2075199999967
 51
271.7924799999966
  0
ARC
  5
21B
330
18
100
AcDbEntity
  8
1
  6
Continuous
100
AcDbCircle
 10
45.07753872759734
 20
402.7975907596561
 30
0.0
 40
125.2653199999999
100
AcDbArc
 50
261.7382799999979
 51
278.2617099999987
  0
LINE
  5
21C
330
18
100
AcDbEntity
  8
1
  6
Continuous
100
AcDbLine
 10
23.57753872759733
 20
281.3322707596561
 30
0.0
 11
66.57753872759736
 21
281.3322707596561
 31
0.0
  0
LINE
  5
21F
330
18
100
AcDbEntity
  8
4
  6
CENTER
 48
0.4
100
AcDbLine
 10
18.07756172759727
 20
217.7322707596561
 30
0.0
 11
84.07755172759719
 21
217.7322707596561
 31
0.0
  0
LINE
  5
221
330
18
100
AcDbEntity
  8
4
  6
CENTER
 48
0.4
100
AcDbLine
 10
45.07753872759734
 20
294.7322707596562
 30
0.0
 11
45.07753872759734
 21
162.7322707596561
 31
0.0
  0
TEXT
  5
222
330
18
100
AcDbEntity
  8
1
  6
Continuous
 48
0.25
100
AcDbText
 10
9.99999906424682
 20
10.00000056761564
 30
0.0
 40
1.399999999999999
  1
LAYER
100
AcDbText
  0
TEXT
  5
223
330
18
100
AcDbEntity
  8
7
  6
Continuous
 48
0.25
100
AcDbText
 10
9.99999906424682
 20
18.00000056761564
 30
0.0
 40
3.0
  1
TYPE No.TCA-315E-N100
100
AcDbText
  0
TEXT
  5
224
330
18
100
AcDbEntity
  8
7
  6
Continuous
 48
0.25
100
AcDbText
 10
9.99999906424682
 20
26.00000056761564
 30
0.0
 40
3.0
  1
CODE No.19224
100
AcDbText
  0
TEXT
  5
225
330
18
100
AcDbEntity
  8
7
  6
Continuous
 48
0.25
100
AcDbText
 10
29.97951006424682
 20
9.999999806846743
 30
0.0
 40
1.399999999999999
  1
7
100
AcDbText
  0
TEXT
  5
226
330
18
100
AcDbEntity
  8
6
  6
Continuous
 48
0.25
100
AcDbText
 10
27.97951006424682
 20
9.999999806846743
 30
0.0
 40
1.399999999999999
  1
6
100
AcDbText
  0
TEXT
  5
227
330
18
100
AcDbEntity
  8
5
  6
PHANTOM
 48
0.3
100
AcDbText
 10
25.97951006424682
 20
9.999999806846743
 30
0.0
 40
1.399999999999999
  1
5
100
AcDbText
  0
TEXT
  5
228
330
18
100
AcDbEntity
  8
1
  6
Continuous
 48
0.25
100
AcDbText
 10
17.97951006424682
 20
9.999999806846743
 30
0.0
 40
1.399999999999999
  1
1
100
AcDbText
  0
TEXT
  5
229
330
18
100
AcDbEntity
  8
3
  6
DASHED
 48
0.25
100
AcDbText
 10
21.97951006424682
 20
9.999999806846743
 30
0.0
 40
1.399999999999999
  1
3
100
AcDbText
  0
TEXT
  5
22A
330
18
100
AcDbEntity
  8
2
  6
Continuous
 48
0.25
100
AcDbText
 10
19.97951006424682
 20
9.999999806846743
 30
0.0
 40
1.399999999999999
  1
2
100
AcDbText
  0
TEXT
  5
22B
330
18
100
AcDbEntity
  8
4
  6
CENTER
 48
0.4
100
AcDbText
 10
23.97951006424682
 20
9.999999806846743
 30
0.0
 40
1.399999999999999
  1
4
100
AcDbText
  0
ARC
  5
22E
330
18
100
AcDbEntity
  8
1
  6
Continuous
100
AcDbCircle
 10
78.07717972759724
 20
251.4354758596561
 30
0.0
 40
58.0
100
AcDbArc
 50
180.20091
 51
207.2031999999995
  0
LINE
  5
22F
330
18
100
AcDbEntity
  8
1
  6
Continuous
100
AcDbLine
 10
27.07754672759731
 20
272.2242907596561
 30
0.0
 11
27.07754672759731
 21
207.0322737596561
 31
0.0
  0
LINE
  5
230
330
18
100
AcDbEntity
  8
1
  6
Continuous
100
AcDbLine
 10
29.07753872759734
 20
272.3763517596561
 30
0.0
 11
29.07753872759734
 21
207.0322737596561
 31
0.0
  0
LINE
  5
231
330
18
100
AcDbEntity
  8
1
  6
Continuous
100
AcDbLine
 10
23.07756172759727
 20
223.7322707596561
 30
0.0
 11
23.07756172759727
 21
211.7322707596561
 31
0.0
  0
LINE
  5
232
330
18
100
AcDbEntity
  8
1
  6
Continuous
100
AcDbLine
 10
27.07754672759731
 20
207.0322737596561
 30
0.0
 11
29.07753872759734
 21
207.0322737596561
 31
0.0
  0
ARC
  5
236
330
18
100
AcDbEntity
  8
1
  6
Continuous
100
AcDbCircle
 10
24.57756172759738
 20
216.232270759656
 30
0.0
 40
1.5
100
AcDbArc
 50
179.9999899999995
 51
270.0000299999965
  0
ARC
  5
237
330
18
100
AcDbEntity
  8
1
  6
Continuous
100
AcDbCircle
 10
24.57756172759738
 20
212.7322707596561
 30
0.0
 40
1.5
100
AcDbArc
 50
90.00001600000294
 51
180.0000100000002
  0
ARC
  5
238
330
18
100
AcDbEntity
  8
1
  6
Continuous
100
AcDbCircle
 10
24.57756172759738
 20
211.7322707596561
 30
0.0
 40
1.5
100
AcDbArc
 50
179.9999899999995
 51
270.0000299999965
  0
LINE
  5
239
330
18
100
AcDbEntity
  8
1
  6
Continuous
100
AcDbLine
 10
24.57756172759738
 20
214.7322707596561
 30
0.0
 11
25.57756172759727
 21
214.7322707596561
 31
0.0
  0
LINE
  5
23A
330
18
100
AcDbEntity
  8
1
  6
Continuous
100
AcDbLine
 10
24.57756172759738
 20
214.232270759656
 30
0.0
 11
25.57756172759727
 21
214.232270759656
 31
0.0
  0
LINE
  5
23B
330
18
100
AcDbEntity
  8
1
  6
Continuous
100
AcDbLine
 10
24.57756172759738
 20
210.232270759656
 30
0.0
 11
25.57756172759727
 21
210.232270759656
 31
0.0
  0
ARC
  5
23C
330
18
100
AcDbEntity
  8
1
  6
Continuous
100
AcDbCircle
 10
25.57756172759727
 20
216.232270759656
 30
0.0
 40
1.5
100
AcDbArc
 50
270.0000499999985
 51
0.0000359721780749
  0
ARC
  5
23D
330
18
100
AcDbEntity
  8
1
  6
Continuous
100
AcDbCircle
 10
25.57756172759727
 20
211.7322707596561
 30
0.0
 40
1.5
100
AcDbArc
 50
270.0000499999985
 51
0.0000359721780749
  0
ARC
  5
23E
330
18
100
AcDbEntity
  8
1
  6
Continuous
100
AcDbCircle
 10
25.57756172759727
 20
212.7322707596561
 30
0.0
 40
1.5
100
AcDbArc
 50
0.0000359721780749
 51
90.00001600000294
  0
ARC
  5
23F
330
18
100
AcDbEntity
  8
1
  6
Continuous
100
AcDbCircle
 10
24.57756172759738
 20
219.2322707596561
 30
0.0
 40
1.5
100
AcDbArc
 50
90.00001600000294
 51
180.0000100000002
  0
ARC
  5
240
330
18
100
AcDbEntity
  8
1
  6
Continuous
100
AcDbCircle
 10
24.57756172759738
 20
222.732270759656
 30
0.0
 40
1.5
100
AcDbArc
 50
179.9999899999995
 51
270.0000299999965
  0
LINE
  5
241
330
18
100
AcDbEntity
  8
1
  6
Continuous
100
AcDbLine
 10
24.57756172759738
 20
220.732270759656
 30
0.0
 11
25.57756172759727
 21
220.732270759656
 31
0.0
  0
LINE
  5
242
330
18
100
AcDbEntity
  8
1
  6
Continuous
100
AcDbLine
 10
24.57756172759738
 20
221.2322707596561
 30
0.0
 11
25.57756172759727
 21
221.2322707596561
 31
0.0
  0
ARC
  5
243
330
18
100
AcDbEntity
  8
1
  6
Continuous
100
AcDbCircle
 10
25.57756172759727
 20
222.732270759656
 30
0.0
 40
1.5
100
AcDbArc
 50
270.0000499999985
 51
0.0000359721780749
  0
ARC
  5
244
330
18
100
AcDbEntity
  8
1
  6
Continuous
100
AcDbCircle
 10
25.57756172759727
 20
219.2322707596561
 30
0.0
 40
1.5
100
AcDbArc
 50
0.0000359721780749
 51
90.00001600000294
  0
ARC
  5
245
330
18
100
AcDbEntity
  8
1
  6
Continuous
100
AcDbCircle
 10
24.57756172759738
 20
223.7322707596561
 30
0.0
 40
1.5
100
AcDbArc
 50
90.00001600000294
 51
180.0000100000002
  0
LINE
  5
246
330
18
100
AcDbEntity
  8
1
  6
Continuous
100
AcDbLine
 10
24.57756172759738
 20
225.2322707596561
 30
0.0
 11
25.57756172759727
 21
225.2322707596561
 31
0.0
  0
ARC
  5
247
330
18
100
AcDbEntity
  8
1
  6
Continuous
100
AcDbCircle
 10
25.57756172759727
 20
223.7322707596561
 30
0.0
 40
1.5
100
AcDbArc
 50
0.0000359721780749
 51
90.00001600000294
  0
LINE
  5
24A
330
18
100
AcDbEntity
  8
1
  6
Continuous
100
AcDbLine
 10
19.60307472759731
 20
283.8913227596561
 30
0.0
 11
17.7724317275973
 21
287.4604617596562
 31
0.0
  0
LINE
  5
24D
330
18
100
AcDbEntity
  8
1
  6
Continuous
100
AcDbLine
 10
16.07753872759732
 20
289.7322707596562
 30
0.0
 11
16.07753872759732
 21
287.7322707596562
 31
0.0
  0
ARC
  5
24E
330
18
100
AcDbEntity
  8
1
  6
Continuous
100
AcDbCircle
 10
17.32753872759732
 20
287.2322707596562
 30
0.0
 40
0.5
100
AcDbArc
 50
27.15370900000067
 51
90.00000299999769
  0
LINE
  5
24F
330
18
100
AcDbEntity
  8
1
  6
Continuous
100
AcDbLine
 10
20.07753872759733
 20
251.2320890596561
 30
0.0
 11
20.57804272759729
 21
278.3875537596561
 31
0.0
  0
ARC
  5
251
330
18
100
AcDbEntity
  8
1
  6
Continuous
100
AcDbCircle
 10
29.57754672759732
 20
272.2242907596561
 30
0.0
 40
2.5
100
AcDbArc
 50
88.2075220000012
 51
180.0000100000002
  0
ARC
  5
253
330
18
100
AcDbEntity
  8
1
  6
Continuous
100
AcDbCircle
 10
29.57753872759735
 20
272.3763517596561
 30
0.0
 40
0.5
100
AcDbArc
 50
87.30830699999764
 51
180.0000100000002
  0
LINE
  5
255
330
18
100
AcDbEntity
  8
4
  6
CENTER
 48
0.4
100
AcDbLine
 10
25.07753872759733
 20
294.7322707596562
 30
0.0
 11
25.07753872759733
 21
282.7322707596561
 31
0.0
  0
ARC
  5
256
330
18
100
AcDbEntity
  8
1
  6
Continuous
100
AcDbCircle
 10
30.65142172759736
 20
283.2102717596562
 30
0.0
 40
2.778000099999998
100
AcDbArc
 50
194.12632
 51
222.5338599999985
  0
ARC
  5
257
330
18
100
AcDbEntity
  8
1
  6
Continuous
100
AcDbCircle
 10
21.82753872759732
 20
285.0322697596561
 30
0.0
 40
2.5
100
AcDbArc
 50
207.1537099999983
 51
270.0
  0
ARC
  5
258
330
18
100
AcDbEntity
  8
1
  6
Continuous
100
AcDbCircle
 10
23.57753872759733
 20
278.3322707596561
 30
0.0
 40
3.0
100
AcDbArc
 50
90.00000299999769
 51
178.9440899999998
  0
ARC
  5
259
330
18
100
AcDbEntity
  8
1
  6
Continuous
100
AcDbCircle
 10
27.08161272759727
 20
283.2102717596562
 30
0.0
 40
2.778000099999998
100
AcDbArc
 50
194.12632
 51
222.5338599999985
  0
ARC
  5
25A
330
18
100
AcDbEntity
  8
1
  6
Continuous
100
AcDbCircle
 10
28.05562672759739
 20
283.2102717596562
 30
0.0
 40
2.778000099999998
100
AcDbArc
 50
194.12632
 51
222.5338599999985
  0
ARC
  5
25B
330
18
100
AcDbEntity
  8
1
  6
Continuous
100
AcDbCircle
 10
34.62165972759736
 20
283.2102717596562
 30
0.0
 40
2.778000099999998
100
AcDbArc
 50
194.12632
 51
222.5338599999985
  0
ARC
  5
25C
330
18
100
AcDbEntity
  8
1
  6
Continuous
100
AcDbCircle
 10
34.62165972759736
 20
283.2102717596562
 30
0.0
 40
2.778000099999998
100
AcDbArc
 50
317.4661299999983
 51
333.36576
  0
ARC
  5
25D
330
18
100
AcDbEntity
  8
1
  6
Continuous
100
AcDbCircle
 10
39.58809772759728
 20
283.2102717596562
 30
0.0
 40
2.778000099999998
100
AcDbArc
 50
194.12632
 51
222.5338599999985
  0
ARC
  5
25E
330
18
100
AcDbEntity
  8
1
  6
Continuous
100
AcDbCircle
 10
50.56697972759728
 20
283.2102717596562
 30
0.0
 40
2.778000099999998
100
AcDbArc
 50
194.12632
 51
222.5338599999985
  0
ARC
  5
25F
330
18
100
AcDbEntity
  8
1
  6
Continuous
100
AcDbCircle
 10
39.58809772759728
 20
283.2102717596562
 30
0.0
 40
2.778000099999998
100
AcDbArc
 50
317.4661299999983
 51
345.8736799999999
  0
ARC
  5
260
330
18
100
AcDbEntity
  8
1
  6
Continuous
100
AcDbCircle
 10
45.07753872759734
 20
283.2102717596562
 30
0.0
 40
2.778000099999998
100
AcDbArc
 50
194.12632
 51
222.5338599999985
  0
ARC
  5
261
330
18
100
AcDbEntity
  8
1
  6
Continuous
100
AcDbCircle
 10
45.07753872759734
 20
283.2102717596562
 30
0.0
 40
2.778000099999998
100
AcDbArc
 50
317.4661299999983
 51
345.8736799999999
  0
ARC
  5
262
330
18
100
AcDbEntity
  8
1
  6
Continuous
100
AcDbCircle
 10
50.56697972759728
 20
283.2102717596562
 30
0.0
 40
2.778000099999998
100
AcDbArc
 50
317.4661299999983
 51
345.8736799999999
  0
ARC
  5
263
330
18
100
AcDbEntity
  8
1
  6
Continuous
100
AcDbCircle
 10
55.53341772759733
 20
283.2102717596562
 30
0.0
 40
2.778000099999998
100
AcDbArc
 50
206.6342500000004
 51
222.5338599999985
  0
ARC
  5
265
330
18
100
AcDbEntity
  8
1
  6
Continuous
100
AcDbCircle
 10
73.11824172759725
 20
234.1070837596561
 30
0.0
 40
17.198839
100
AcDbArc
 50
53.71901799999807
 51
122.5188299999984
  0
ARC
  5
266
330
18
100
AcDbEntity
  8
1
  6
Continuous
100
AcDbCircle
 10
73.43241972759734
 20
234.243577759656
 30
0.0
 40
15.330301
100
AcDbArc
 50
50.01193900000091
 51
123.4866499999997
  0
LINE
  5
267
330
18
100
AcDbEntity
  8
1
  6
Continuous
100
AcDbLine
 10
63.07753072759737
 20
272.2242907596561
 30
0.0
 11
63.07753072759737
 21
202.7429407596561
 31
0.0
  0
LINE
  5
268
330
18
100
AcDbEntity
  8
1
  6
Continuous
100
AcDbLine
 10
61.07753872759734
 20
272.3763517596561
 30
0.0
 11
61.07753872759734
 21
239.682835759656
 31
0.0
  0
LINE
  5
26C
330
18
100
AcDbEntity
  8
1
  6
Continuous
100
AcDbLine
 10
65.07753472759737
 20
242.0445987596561
 30
0.0
 11
65.07753472759737
 21
202.7429407596561
 31
0.0
  0
LINE
  5
26F
330
18
100
AcDbEntity
  8
1
  6
Continuous
100
AcDbLine
 10
61.07753872759734
 20
234.3876257596561
 30
0.0
 11
61.07753872759734
 21
207.0322737596561
 31
0.0
  0
ARC
  5
270
330
18
100
AcDbEntity
  8
1
  6
Continuous
100
AcDbCircle
 10
145.8121997275971
 20
263.585839759656
 30
0.0
 40
80.0
100
AcDbArc
 50
204.0860800000015
 51
211.5451000000013
  0
LINE
  5
272
330
18
100
AcDbEntity
  8
2
  6
Continuous
100
AcDbLine
 10
75.57753672759722
 20
221.1072707596561
 30
0.0
 11
79.07755172759731
 21
221.1072707596561
 31
0.0
  0
LINE
  5
273
330
18
100
AcDbEntity
  8
1
  6
Continuous
100
AcDbLine
 10
75.57753672759722
 20
221.7322707596561
 30
0.0
 11
78.45255172759731
 21
221.7322707596561
 31
0.0
  0
LINE
  5
274
330
18
100
AcDbEntity
  8
1
  6
Continuous
100
AcDbLine
 10
75.57753672759722
 20
213.732274759656
 30
0.0
 11
78.45255172759731
 21
213.732274759656
 31
0.0
  0
LINE
  5
275
330
18
100
AcDbEntity
  8
2
  6
Continuous
100
AcDbLine
 10
75.57753672759722
 20
214.357274759656
 30
0.0
 11
79.07755172759731
 21
214.357274759656
 31
0.0
  0
ARC
  5
276
330
18
100
AcDbEntity
  8
1
  6
Continuous
100
AcDbCircle
 10
77.90216572759731
 20
213.0568557596561
 30
0.0
 40
12.882981
100
AcDbArc
 50
231.4727900000011
 51
312.4311600000022
  0
ARC
  5
279
330
18
100
AcDbEntity
  8
1
  6
Continuous
100
AcDbCircle
 10
63.20106972759731
 20
213.7918027596561
 30
0.0
 40
5.0
100
AcDbArc
 50
292.0424199999988
 51
328.8007699999983
  0
LINE
  5
27A
330
18
100
AcDbEntity
  8
1
  6
Continuous
100
AcDbLine
 10
69.87753372759731
 20
209.7038048784984
 30
0.0
 11
69.87753372759732
 21
197.6480577596561
 31
0.0
  0
ARC
  5
27B
330
18
100
AcDbEntity
  8
1
  6
Continuous
100
AcDbCircle
 10
67.89383072759733
 20
207.467183759656
 30
0.0
 40
5.5
100
AcDbArc
 50
239.199269999999
 51
291.1415599999997
  0
LINE
  5
27C
330
18
100
AcDbEntity
  8
1
  6
Continuous
100
AcDbLine
 10
65.79601372759737
 20
201.9671837596561
 30
0.0
 11
68.09601372759733
 21
201.9671837596561
 31
0.0
  0
ARC
  5
27E
330
18
100
AcDbEntity
  8
1
  6
Continuous
100
AcDbCircle
 10
65.79601372759737
 20
207.118237759656
 30
0.0
 40
5.1510544
100
AcDbArc
 50
238.1462599999971
 51
281.5521800000008
  0
LINE
  5
27F
330
18
100
AcDbEntity
  8
1
  6
Continuous
100
AcDbLine
 10
63.07753072759737
 20
202.7429407596561
 30
0.0
 11
65.07753472759737
 21
202.7429407596561
 31
0.0
  0
LINE
  5
280
330
18
100
AcDbEntity
  8
1
  6
Continuous
100
AcDbLine
 10
61.07753872759734
 20
207.0322737596561
 30
0.0
 11
63.07753072759737
 21
207.0322737596561
 31
0.0
  0
LINE
  5
281
330
18
100
AcDbEntity
  8
1
  6
Continuous
100
AcDbLine
 10
63.07753072759737
 20
204.266694759656
 30
0.0
 11
65.07753472759737
 21
204.266694759656
 31
0.0
  0
LINE
  5
282
330
18
100
AcDbEntity
  8
1
  6
Continuous
100
AcDbLine
 10
67.87753372759732
 20
197.6480577596561
 30
0.0
 11
69.87753372759732
 21
197.6480577596561
 31
0.0
  0
LINE
  5
283
330
18
100
AcDbEntity
  8
1
  6
Continuous
100
AcDbLine
 10
67.87753372759732
 20
201.9671837596561
 30
0.0
 11
67.87753372759732
 21
197.6480577596561
 31
0.0
  0
LINE
  5
285
330
18
100
AcDbEntity
  8
1
  6
Continuous
100
AcDbLine
 10
65.07753472759737
 20
213.732274759656
 30
0.0
 11
68.17753672759727
 21
213.732274759656
 31
0.0
  0
LINE
  5
286
330
18
100
AcDbEntity
  8
2
  6
Continuous
100
AcDbLine
 10
65.07753472759737
 20
214.357274759656
 30
0.0
 11
68.17753672759727
 21
214.357274759656
 31
0.0
  0
ARC
  5
287
330
18
100
AcDbEntity
  8
1
  6
Continuous
100
AcDbCircle
 10
74.66756772759731
 20
212.2744117596561
 30
0.0
 40
10.0
100
AcDbArc
 50
132.9747899999986
 51
163.5370599999988
  0
ARC
  5
294
330
18
100
AcDbEntity
  8
1
  6
Continuous
100
AcDbCircle
 10
145.5518547275973
 20
261.8782058596559
 30
0.0
 40
80.0
100
AcDbArc
 50
208.9929948320229
 51
210.1207599999985
  0
ARC
  5
295
330
18
100
AcDbEntity
  8
1
  6
Continuous
100
AcDbCircle
 10
84.47753272759733
 20
207.6657307596561
 30
0.0
 40
3.0
100
AcDbArc
 50
0.0
 51
42.35608999999899
  0
ARC
  5
296
330
18
100
AcDbEntity
  8
1
  6
Continuous
100
AcDbCircle
 10
145.8121997275971
 20
263.585839759656
 30
0.0
 40
80.0
100
AcDbArc
 50
213.4691199999989
 51
222.356089999999
  0
ARC
  5
297
330
18
100
AcDbEntity
  8
1
  6
Continuous
100
AcDbCircle
 10
145.5518547275973
 20
261.8782058596559
 30
0.0
 40
80.0
100
AcDbArc
 50
213.8057300000002
 51
222.6221600000016
  0
ARC
  5
298
330
18
100
AcDbEntity
  8
1
  6
Continuous
100
AcDbCircle
 10
84.47753272759733
 20
205.6738757596561
 30
0.0
 40
3.0
100
AcDbArc
 50
308.498310000001
 51
42.62216299999852
  0
LINE
  5
299
330
18
100
AcDbEntity
  8
1
  6
Continuous
100
AcDbLine
 10
87.47753272759736
 20
207.6657307596561
 30
0.0
 11
87.47753272759736
 21
205.6738757596561
 31
0.0
  0
LINE
  5
29A
330
18
100
AcDbEntity
  8
1
  6
Continuous
100
AcDbLine
 10
79.07755172759731
 20
221.1072707596561
 30
0.0
 11
79.07755172759731
 21
214.357274759656
 31
0.0
  0
LINE
  5
29B
330
18
100
AcDbEntity
  8
1
  6
Continuous
100
AcDbLine
 10
78.45255172759731
 20
221.7322707596561
 30
0.0
 11
78.45255172759731
 21
213.732274759656
 31
0.0
  0
LINE
  5
29C
330
18
100
AcDbEntity
  8
1
  6
Continuous
100
AcDbLine
 10
79.07755172759731
 20
214.357274759656
 30
0.0
 11
78.45255172759731
 21
213.732274759656
 31
0.0
  0
LINE
  5
29D
330
18
100
AcDbEntity
  8
1
  6
Continuous
100
AcDbLine
 10
78.45255172759731
 20
221.7322727596561
 30
0.0
 11
79.07755172759731
 21
221.107272759656
 31
0.0
  0
LINE
  5
29E
330
18
100
AcDbEntity
  8
1
  6
Continuous
100
AcDbLine
 10
76.37753372759731
 20
230.9371407596561
 30
0.0
 11
83.79448672759734
 21
242.744029559656
 31
0.0
  0
LINE
  5
29F
330
18
100
AcDbEntity
  8
1
  6
Continuous
100
AcDbLine
 10
60.07753072759737
 20
239.3327217596561
 30
0.0
 11
60.07753072759737
 21
236.232720759656
 31
0.0
  0
LINE
  5
2A0
330
18
100
AcDbEntity
  8
1
  6
Continuous
100
AcDbLine
 10
60.77753572759728
 20
237.3408637596561
 30
0.0
 11
60.77753572759728
 21
234.240861759656
 31
0.0
  0
ARC
  5
2A1
330
18
100
AcDbEntity
  8
1
  6
Continuous
100
AcDbCircle
 10
63.20106972759731
 20
221.6727387596561
 30
0.0
 40
5.0
100
AcDbArc
 50
31.19923200000048
 51
67.95758200000253
  0
LINE
  5
2A2
330
18
100
AcDbEntity
  8
1
  6
Continuous
100
AcDbLine
 10
65.07753472759737
 20
230.9371387596561
 30
0.0
 11
76.37753372759731
 21
230.9371387596561
 31
0.0
  0
ARC
  5
2A4
330
18
100
AcDbEntity
  8
1
  6
Continuous
100
AcDbCircle
 10
62.46383072759726
 20
231.1738757596561
 30
0.0
 40
3.5
100
AcDbArc
 50
90.00000299999769
 51
118.8029299999996
  0
LINE
  5
2A5
330
18
100
AcDbEntity
  8
1
  6
Continuous
100
AcDbLine
 10
60.77753572759728
 20
234.2408657596561
 30
0.0
 11
60.07753072759737
 21
236.232720759656
 31
0.0
  0
LINE
  5
2A6
330
18
100
AcDbEntity
  8
1
  6
Continuous
100
AcDbLine
 10
62.46383072759726
 20
234.6738757596561
 30
0.0
 11
63.07753072759737
 21
234.6738757596561
 31
0.0
  0
ARC
  5
2A7
330
18
100
AcDbEntity
  8
1
  6
Continuous
100
AcDbCircle
 10
145.5518547275973
 20
261.8782058596559
 30
0.0
 40
80.0
100
AcDbArc
 50
202.7532499999993
 51
208.4782200000004
  0
ARC
  5
2AE
330
18
100
AcDbEntity
  8
1
  6
Continuous
100
AcDbCircle
 10
61.07753472759736
 20
242.0445987596561
 30
0.0
 40
4.0
100
AcDbArc
 50
0.0
 51
33.55749500000124
  0
ARC
  5
2AF
330
18
100
AcDbEntity
  8
1
  6
Continuous
100
AcDbCircle
 10
62.46383072759726
 20
234.2738737596561
 30
0.0
 40
3.5
100
AcDbArc
 50
90.00000299999769
 51
118.8029299999996
  0
LINE
  5
2B0
330
18
100
AcDbEntity
  8
1
  6
Continuous
100
AcDbLine
 10
61.88766572759732
 20
239.7657337596561
 30
0.0
 11
63.07753072759737
 21
239.7657337596561
 31
0.0
  0
ARC
  5
2B1
330
18
100
AcDbEntity
  8
1
  6
Continuous
100
AcDbCircle
 10
61.88766572759732
 20
235.7657337596561
 30
0.0
 40
4.0
100
AcDbArc
 50
90.00000299999769
 51
116.9064200000024
  0
LINE
  5
2B2
330
18
100
AcDbEntity
  8
1
  6
Continuous
100
AcDbLine
 10
60.77753572759728
 20
237.3408627596561
 30
0.0
 11
60.07753072759737
 21
239.3327217596561
 31
0.0
  0
LINE
  5
2B3
330
18
100
AcDbEntity
  8
1
  6
Continuous
100
AcDbLine
 10
62.46383072759726
 20
237.773875759656
 30
0.0
 11
63.07753072759737
 21
237.773875759656
 31
0.0
  0
ARC
  5
2B4
330
18
100
AcDbEntity
  8
1
  6
Continuous
100
AcDbCircle
 10
66.07752372759728
 20
245.3612399596561
 30
0.0
 40
2.0
100
AcDbArc
 50
123.4866499999997
 51
213.5574900000011
  0
ARC
  5
2B5
330
18
100
AcDbEntity
  8
1
  6
Continuous
100
AcDbCircle
 10
65.07753072759737
 20
247.0131507596561
 30
0.0
 40
2.0
100
AcDbArc
 50
130.1208099999979
 51
180.0000100000002
  0
ARC
  5
2B6
330
18
100
AcDbEntity
  8
1
  6
Continuous
100
AcDbCircle
 10
81.67752972759728
 20
244.0738768596561
 30
0.0
 40
2.5
100
AcDbArc
 50
327.8634300000013
 51
50.01193900000091
  0
LINE
  5
2B7
330
18
100
AcDbEntity
  8
1
  6
Continuous
100
AcDbLine
 10
84.17752972759728
 20
246.0657344596561
 30
0.0
 11
84.17752972759728
 21
244.0738768596561
 31
0.0
  0
ARC
  5
2B8
330
18
100
AcDbEntity
  8
1
  6
Continuous
100
AcDbCircle
 10
81.67752972759728
 20
246.0657344596561
 30
0.0
 40
2.5
100
AcDbArc
 50
0.0
 51
55.72887600000024
  0
LINE
  5
2B9
330
18
100
AcDbEntity
  8
1
  6
Continuous
100
AcDbLine
 10
70.08116272759728
 20
251.035645759656
 30
0.0
 11
69.57703472759725
 21
278.3875557596561
 31
0.0
  0
ARC
  5
2BA
330
18
100
AcDbEntity
  8
1
  6
Continuous
100
AcDbCircle
 10
60.57753072759736
 20
272.2242907596561
 30
0.0
 40
2.5
100
AcDbArc
 50
0.0
 51
91.79247600000087
  0
ARC
  5
2BB
330
18
100
AcDbEntity
  8
1
  6
Continuous
100
AcDbCircle
 10
60.57753872759734
 20
272.3763517596561
 30
0.0
 40
0.5
100
AcDbArc
 50
0.0
 51
92.69169100000112
  0
LINE
  5
2BC
330
18
100
AcDbEntity
  8
1
  6
Continuous
100
AcDbLine
 10
74.07753872759736
 20
289.7322707596562
 30
0.0
 11
74.07753872759736
 21
287.7322707596562
 31
0.0
  0
LINE
  5
2BD
330
18
100
AcDbEntity
  8
4
  6
CENTER
 48
0.4
100
AcDbLine
 10
65.07753872759735
 20
294.7322707596562
 30
0.0
 11
65.07753872759735
 21
282.7322707596561
 31
0.0
  0
ARC
  5
2BE
330
18
100
AcDbEntity
  8
1
  6
Continuous
100
AcDbCircle
 10
66.57753872759736
 20
278.3322707596561
 30
0.0
 40
3.0
100
AcDbArc
 50
1.055913799999975
 51
90.00000299999769
  0
ARC
  5
2BF
330
18
100
AcDbEntity
  8
1
  6
Continuous
100
AcDbCircle
 10
59.50365572759732
 20
283.2102717596562
 30
0.0
 40
2.778000099999998
100
AcDbArc
 50
317.4661299999983
 51
345.8736799999999
  0
ARC
  5
2C0
330
18
100
AcDbEntity
  8
1
  6
Continuous
100
AcDbCircle
 10
55.53341772759733
 20
283.2102717596562
 30
0.0
 40
2.778000099999998
100
AcDbArc
 50
317.4661299999983
 51
345.8736799999999
  0
ARC
  5
2C1
330
18
100
AcDbEntity
  8
1
  6
Continuous
100
AcDbCircle
 10
62.09945072759729
 20
283.2102717596562
 30
0.0
 40
2.778000099999998
100
AcDbArc
 50
317.4661299999983
 51
345.8736799999999
  0
ARC
  5
2C2
330
18
100
AcDbEntity
  8
1
  6
Continuous
100
AcDbCircle
 10
63.07346472759729
 20
283.2102717596562
 30
0.0
 40
2.778000099999998
100
AcDbArc
 50
317.4661299999983
 51
345.8736799999999
  0
ARC
  5
2C3
330
18
100
AcDbEntity
  8
1
  6
Continuous
100
AcDbCircle
 10
68.32753872759735
 20
285.0322697596561
 30
0.0
 40
2.5
100
AcDbArc
 50
270.0
 51
332.8462900000017
  0
LINE
  5
2C4
330
18
100
AcDbEntity
  8
1
  6
Continuous
100
AcDbLine
 10
70.55199972759737
 20
283.8913247596561
 30
0.0
 11
72.38264572759726
 21
287.4604617596562
 31
0.0
  0
ARC
  5
2C5
330
18
100
AcDbEntity
  8
1
  6
Continuous
100
AcDbCircle
 10
72.82753872759736
 20
287.2322707596562
 30
0.0
 40
0.5
100
AcDbArc
 50
90.00000299999769
 51
152.8462900000016
  0
LINE
  5
2C6
330
18
100
AcDbEntity
  8
1
  6
Continuous
100
AcDbLine
 10
153.4595678493248
 20
251.3059224596561
 30
0.0
 11
152.4595678493248
 21
249.5738733596561
 31
0.0
  0
LINE
  5
2C8
330
18
100
AcDbEntity
  8
1
  6
Continuous
100
AcDbLine
 10
153.4595678493248
 20
251.3059224596561
 30
0.0
 11
181.0287058493246
 21
235.3888757596561
 31
0.0
  0
LINE
  5
2C9
330
18
100
AcDbEntity
  8
1
  6
Continuous
100
AcDbLine
 10
182.3418238493246
 20
234.7001107596561
 30
0.0
 11
185.1554678493247
 21
272.5761257596561
 31
0.0
  0
ARC
  5
2CA
330
18
100
AcDbEntity
  8
5
  6
PHANTOM
 48
0.3
100
AcDbCircle
 10
157.5045208493249
 20
208.7347577596561
 30
0.0
 40
8.0
100
AcDbArc
 50
199.9799599999993
 51
283.4161000000026
  0
LINE
  5
2CB
330
18
100
AcDbEntity
  8
5
  6
PHANTOM
 48
0.3
100
AcDbLine
 10
142.1068768493248
 20
206.4395387596561
 30
0.0
 11
171.1887708493247
 21
219.387631759656
 31
0.0
  0
LINE
  5
2CC
330
18
100
AcDbEntity
  8
5
  6
PHANTOM
 48
0.3
100
AcDbLine
 10
142.9203498493246
 20
204.6124477596561
 30
0.0
 11
172.0022468493246
 21
217.560540759656
 31
0.0
  0
LINE
  5
2CD
330
18
100
AcDbEntity
  8
5
  6
PHANTOM
 48
0.3
100
AcDbLine
 10
142.1068768493248
 20
206.4395387596561
 30
0.0
 11
142.9203458493246
 21
204.6124507596561
 31
0.0
  0
ARC
  5
2CE
330
18
100
AcDbEntity
  8
5
  6
PHANTOM
 48
0.3
100
AcDbCircle
 10
148.5763058493248
 20
205.4886867596561
 30
0.0
 40
1.5
100
AcDbArc
 50
19.97996799999943
 51
113.9999999999979
  0
ARC
  5
2D0
330
18
100
AcDbEntity
  8
5
  6
PHANTOM
 48
0.3
100
AcDbCircle
 10
163.7454878493249
 20
236.1055117596561
 30
0.0
 40
18.29999899999998
100
AcDbArc
 50
293.9999999999979
 51
324.7781700000007
  0
ARC
  5
2D1
330
18
100
AcDbEntity
  8
5
  6
PHANTOM
 48
0.3
100
AcDbCircle
 10
163.7454878493249
 20
236.1055117596561
 30
0.0
 40
20.29999899999999
100
AcDbArc
 50
293.9999999999979
 51
324.7781700000007
  0
ARC
  5
2D2
330
18
100
AcDbEntity
  8
1
  6
Continuous
100
AcDbCircle
 10
184.3864858493249
 20
232.8729107596561
 30
0.0
 40
17.0
100
AcDbArc
 50
197.3221899999995
 51
242.4939399999979
  0
ARC
  5
2D3
330
18
100
AcDbEntity
  8
1
  6
Continuous
100
AcDbCircle
 10
184.1465188493248
 20
222.1572697596561
 30
0.0
 40
4.1500001
100
AcDbArc
 50
60.0000020000009
 51
240.0000099999997
  0
LINE
  5
2D4
330
18
100
AcDbEntity
  8
5
  6
PHANTOM
 48
0.3
100
AcDbLine
 10
170.1440008493247
 20
216.733197759656
 30
0.0
 11
171.3642158493248
 21
213.992562759656
 31
0.0
  0
ARC
  5
2D5
330
18
100
AcDbEntity
  8
5
  6
PHANTOM
 48
0.3
100
AcDbCircle
 10
175.1978798493247
 20
220.6252837596561
 30
0.0
 40
17.0
100
AcDbArc
 50
251.3221799999999
 51
296.4939500000011
  0
LINE
  5
2D6
330
18
100
AcDbEntity
  8
5
  6
PHANTOM
 48
0.3
100
AcDbLine
 10
165.7002298493248
 20
211.4707957596561
 30
0.0
 11
171.3642158493248
 21
213.992562759656
 31
0.0
  0
ARC
  5
2D7
330
18
100
AcDbEntity
  8
5
  6
PHANTOM
 48
0.3
100
AcDbCircle
 10
146.1355558493248
 20
256.3972182596561
 30
0.0
 40
57.0
100
AcDbArc
 50
283.4161100000022
 51
294.4786000000018
  0
LINE
  5
2D8
330
18
100
AcDbEntity
  8
5
  6
PHANTOM
 48
0.3
100
AcDbLine
 10
164.4800228493246
 20
214.211430759656
 30
0.0
 11
165.7002298493248
 21
211.4707957596561
 31
0.0
  0
ARC
  5
2D9
330
18
100
AcDbEntity
  8
5
  6
PHANTOM
 48
0.3
100
AcDbCircle
 10
183.7259638493246
 20
214.1326497596561
 30
0.0
 40
4.1500001
100
AcDbArc
 50
113.9999999999979
 51
293.9999999999979
  0
LINE
  5
2DB
330
18
100
AcDbEntity
  8
5
  6
PHANTOM
 48
0.3
100
AcDbLine
 10
185.4139218493248
 20
210.3414437596561
 30
0.0
 11
186.7220693244001
 21
210.9238638705875
 31
0.0
  0
LINE
  5
2DC
330
18
100
AcDbEntity
  8
5
  6
PHANTOM
 48
0.3
100
AcDbLine
 10
182.0380138493248
 20
217.9238637596561
 30
0.0
 11
183.3461557299255
 21
218.5062900290665
 31
0.0
  0
LINE
  5
2DD
330
18
100
AcDbEntity
  8
1
  6
Continuous
100
AcDbLine
 10
182.0715148493246
 20
218.5632647596561
 30
0.0
 11
183.3116190443177
 21
217.8472868858776
 31
0.0
  0
LINE
  5
2DE
330
18
100
AcDbEntity
  8
1
  6
Continuous
100
AcDbLine
 10
152.4595678493248
 20
249.5738733596561
 30
0.0
 11
180.0287058493246
 21
233.6568257596561
 31
0.0
  0
ARC
  5
2DF
330
18
100
AcDbEntity
  8
1
  6
Continuous
100
AcDbCircle
 10
164.3669478493246
 20
240.1980607596561
 30
0.0
 40
8.0
100
AcDbArc
 50
145.9799700000004
 51
229.4161099999978
  0
ARC
  5
2E0
330
18
100
AcDbEntity
  8
1
  6
Continuous
100
AcDbCircle
 10
196.2441808493249
 20
277.411038759656
 30
0.0
 40
57.0
100
AcDbArc
 50
229.4161099999978
 51
240.4785999999997
  0
ARC
  5
2E1
330
18
100
AcDbEntity
  8
1
  6
Continuous
100
AcDbCircle
 10
156.4929548493248
 20
245.513146959656
 30
0.0
 40
1.5
100
AcDbArc
 50
325.9799700000005
 51
60.0000020000009
  0
LINE
  5
2E2
330
18
100
AcDbEntity
  8
1
  6
Continuous
100
AcDbLine
 10
172.8977698493249
 20
237.7738717596561
 30
0.0
 11
171.3977698493249
 21
235.175795759656
 31
0.0
  0
LINE
  5
2E3
330
18
100
AcDbEntity
  8
1
  6
Continuous
100
AcDbLine
 10
171.3977698493249
 20
235.175795759656
 30
0.0
 11
176.7671248493246
 21
232.075797759656
 31
0.0
  0
LINE
  5
2E4
330
18
100
AcDbEntity
  8
1
  6
Continuous
100
AcDbLine
 10
178.2671248493249
 20
234.6738737596561
 30
0.0
 11
176.7671248493246
 21
232.075797759656
 31
0.0
  0
LINE
  5
2E5
330
18
100
AcDbEntity
  8
1
  6
Continuous
100
AcDbLine
 10
186.2215158493246
 20
225.751279759656
 30
0.0
 11
187.4616191828106
 21
225.0353023832714
 31
0.0
  0
ARC
  5
2E7
330
18
100
AcDbEntity
  8
1
  6
Continuous
100
AcDbCircle
 10
183.1609688493249
 20
272.7242907596561
 30
0.0
 40
2.0
100
AcDbArc
 50
356.49043
 51
99.99999999999859
  0
ARC
  5
2E8
330
18
100
AcDbEntity
  8
1
  6
Continuous
100
AcDbCircle
 10
184.1108438493249
 20
271.8763517596561
 30
0.0
 40
1.0
100
AcDbArc
 50
3.89404410000022
 51
99.99999999999859
  0
LINE
  5
2E9
330
18
100
AcDbEntity
  8
1
  6
Continuous
100
AcDbLine
 10
181.6108438493249
 20
274.4818147596561
 30
0.0
 11
181.9581338493248
 21
272.5121987596561
 31
0.0
  0
LINE
  5
2EA
330
18
100
AcDbEntity
  8
1
  6
Continuous
100
AcDbLine
 10
181.9581338493248
 20
272.5121987596561
 30
0.0
 11
183.9371908493248
 21
272.8611577596562
 31
0.0
  0
LINE
  5
2EB
330
18
100
AcDbEntity
  8
1
  6
Continuous
100
AcDbLine
 10
173.8108408493246
 20
289.7322707596562
 30
0.0
 11
173.8108408493246
 21
287.7322707596562
 31
0.0
  0
LINE
  5
2EC
330
18
100
AcDbEntity
  8
4
  6
CENTER
 48
0.4
100
AcDbLine
 10
182.8108408493248
 20
294.7322707596562
 30
0.0
 11
182.8108408493248
 21
282.7322707596561
 31
0.0
  0
ARC
  5
2ED
330
18
100
AcDbEntity
  8
1
  6
Continuous
100
AcDbCircle
 10
91.34418134932486
 20
389.1948358546756
 30
0.0
 40
85.0
100
AcDbArc
 50
346.5596799999998
 51
13.440320999999
  0
ARC
  5
2F0
330
18
100
AcDbEntity
  8
5
  6
PHANTOM
 48
0.3
100
AcDbCircle
 10
152.5348548493246
 20
360.6448158546756
 30
0.0
 40
10.55
100
AcDbArc
 50
180.0000100000002
 51
270.0
  0
ARC
  5
2F1
330
18
100
AcDbEntity
  8
1
  6
Continuous
100
AcDbCircle
 10
163.0095558493248
 20
360.6448158546756
 30
0.0
 40
10.55
100
AcDbArc
 50
180.0000100000002
 51
270.0
  0
ARC
  5
2F2
330
18
100
AcDbEntity
  8
1
  6
Continuous
100
AcDbCircle
 10
162.1526414811906
 20
361.1482350638863
 30
0.0
 40
9.706148706195346
100
AcDbArc
 50
111.243584980106
 51
182.973049945079
  0
ARC
  5
2F3
330
18
100
AcDbEntity
  8
5
  6
PHANTOM
 48
0.3
100
AcDbCircle
 10
154.0835608493248
 20
360.6448158546756
 30
0.0
 40
12.098705
100
AcDbArc
 50
119.3087999999989
 51
180.0000100000002
  0
ARC
  5
2F5
330
18
100
AcDbEntity
  8
1
  6
Continuous
100
AcDbCircle
 10
170.0477638493248
 20
372.3846858546755
 30
0.0
 40
4.0
100
AcDbArc
 50
0.0000030000001391
 51
26.90641999999887
  0
ARC
  5
2F6
330
18
100
AcDbEntity
  8
1
  6
Continuous
100
AcDbCircle
 10
169.3977698493249
 20
371.8085058546756
 30
0.0
 40
3.5
100
AcDbArc
 50
0.0000029999993249
 51
28.80293200000114
  0
LINE
  5
2F7
330
18
100
AcDbEntity
  8
4
  6
CENTER
 48
0.4
100
AcDbLine
 10
182.8108408493248
 20
359.7948357546755
 30
0.0
 11
182.8108408493248
 21
378.5948359546756
 31
0.0
  0
CIRCLE
  5
2F8
330
18
100
AcDbEntity
  8
1
  6
Continuous
100
AcDbCircle
 10
182.8108408493248
 20
369.1948358546756
 30
0.0
 40
4.400000099999997
  0
LINE
  5
2F9
330
18
100
AcDbEntity
  8
1
  6
Continuous
100
AcDbLine
 10
172.8977698493249
 20
371.1948358546756
 30
0.0
 11
156.3500616750726
 21
371.1948358546756
 31
0.0
  0
LINE
  5
2FA
330
18
100
AcDbEntity
  8
1
  6
Continuous
100
AcDbLine
 10
187.3777246079447
 20
360.1948328546756
 30
0.0
 11
168.7694128493248
 21
351.1552658546755
 31
0.0
  0
ARC
  5
2FB
330
18
100
AcDbEntity
  8
1
  6
Continuous
100
AcDbCircle
 10
164.5884623087725
 20
360.9642657997956
 30
0.0
 40
10.98352801777118
100
AcDbArc
 50
122.8174910606135
 51
261.7349707137031
  0
ARC
  5
2FC
330
18
100
AcDbEntity
  8
1
  6
Continuous
100
AcDbCircle
 10
164.1595798493248
 20
360.6448158546756
 30
0.0
 40
10.55
100
AcDbArc
 50
269.9211119110738
 51
295.9096100000023
  0
LINE
  5
2FD
330
18
100
AcDbEntity
  8
1
  6
Continuous
100
AcDbLine
 10
164.1595798493248
 20
350.0948258546756
 30
0.0
 11
163.0095558493248
 21
350.0948258546756
 31
0.0
  0
LINE
  5
2FE
330
18
100
AcDbEntity
  8
1
  6
Continuous
100
AcDbLine
 10
156.3500616750726
 20
369.1948358546756
 30
0.0
 11
156.3500616750726
 21
371.1948358546756
 31
0.0
  0
LINE
  5
2FF
330
18
100
AcDbEntity
  8
1
  6
Continuous
100
AcDbLine
 10
156.7247930658009
 20
369.1948358546756
 30
0.0
 11
156.3500616750726
 21
369.1948358546756
 31
0.0
  0
ARC
  5
300
330
18
100
AcDbEntity
  8
1
  6
Continuous
100
AcDbCircle
 10
157.886279308124
 20
371.1034439861654
 30
0.0
 40
1.177843495917666
100
AcDbArc
 50
309.5187225836548
 51
4.450198180660295
  0
ARC
  5
302
330
18
100
AcDbEntity
  8
1
  6
Continuous
100
AcDbCircle
 10
181.3108408493246
 20
367.6948358546756
 30
0.0
 40
7.5
100
AcDbArc
 50
166.5596799999998
 51
269.9999500000014
  0
LINE
  5
305
330
18
100
AcDbEntity
  8
1
  6
Continuous
100
AcDbLine
 10
187.8108428493247
 20
358.6948603546756
 30
0.0
 11
187.8108428493247
 21
355.8198454546756
 31
0.0
  0
LINE
  5
306
330
18
100
AcDbEntity
  8
2
  6
Continuous
100
AcDbLine
 10
188.4358428493247
 20
358.6948603546756
 30
0.0
 11
188.4358428493247
 21
355.1948454546756
 31
0.0
  0
LINE
  5
307
330
18
100
AcDbEntity
  8
1
  6
Continuous
100
AcDbLine
 10
188.4358448493248
 20
355.1948459546756
 30
0.0
 11
187.8108428493247
 21
355.8198469546756
 31
0.0
  0
LINE
  5
308
330
18
100
AcDbEntity
  8
1
  6
Continuous
100
AcDbLine
 10
172.8977778493249
 20
371.1948158546756
 30
0.0
 11
173.8722570486683
 21
368.6526829409118
 31
0.0
  0
LINE
  5
309
330
18
100
AcDbEntity
  8
1
  6
Continuous
100
AcDbLine
 10
172.8977698493249
 20
371.8085058546756
 30
0.0
 11
172.8977698493249
 21
371.1948358546756
 31
0.0
  0
LINE
  5
30A
330
18
100
AcDbEntity
  8
1
  6
Continuous
100
AcDbLine
 10
174.0477638493248
 20
372.3846858546755
 30
0.0
 11
174.0477638493249
 21
369.5704265217636
 31
0.0
  0
LINE
  5
30B
330
18
100
AcDbEntity
  8
1
  6
Continuous
100
AcDbLine
 10
172.4647488493246
 20
373.4948158546756
 30
0.0
 11
173.6147648493249
 21
374.1948358546756
 31
0.0
  0
LINE
  5
30C
330
18
100
AcDbEntity
  8
1
  6
Continuous
100
AcDbLine
 10
175.0101840027323
 20
374.1948358546756
 30
0.0
 11
173.6147578493248
 21
374.1948358546756
 31
0.0
  0
LINE
  5
30F
330
18
100
AcDbEntity
  8
4
  6
CENTER
 48
0.4
100
AcDbLine
 10
182.8108408493248
 20
418.5948359546755
 30
0.0
 11
182.8108408493248
 21
399.7948357546756
 31
0.0
  0
ARC
  5
310
330
18
100
AcDbEntity
  8
1
  6
Continuous
100
AcDbCircle
 10
181.3108408493246
 20
410.6948358546755
 30
0.0
 40
7.5
100
AcDbArc
 50
89.99998200000083
 51
193.4402899999994
  0
CIRCLE
  5
311
330
18
100
AcDbEntity
  8
1
  6
Continuous
100
AcDbCircle
 10
182.8108408493248
 20
409.1948358546756
 30
0.0
 40
4.400000099999997
  0
ARC
  5
313
330
18
100
AcDbEntity
  8
1
  6
Continuous
100
AcDbCircle
 10
224.2093108493246
 20
205.648057759656
 30
0.0
 40
8.0
100
AcDbArc
 50
254.6529599999993
 51
329.9999999999993
  0
LINE
  5
314
330
18
100
AcDbEntity
  8
4
  6
CENTER
 48
0.4
100
AcDbLine
 10
191.8108408493248
 20
272.732270759656
 30
0.0
 11
191.8108408493248
 21
162.7322707596561
 31
0.0
  0
LINE
  5
315
330
18
100
AcDbEntity
  8
1
  6
Continuous
100
AcDbLine
 10
206.9027808493249
 20
222.226105759656
 30
0.0
 11
234.5077208493246
 21
268.878487759656
 31
0.0
  0
LINE
  5
316
330
18
100
AcDbEntity
  8
4
  6
CENTER
 48
0.4
100
AcDbLine
 10
223.8108408493248
 20
294.7322707596562
 30
0.0
 11
223.8108408493248
 21
235.4656007596561
 31
0.0
  0
LINE
  5
317
330
18
100
AcDbEntity
  8
1
  6
Continuous
100
AcDbLine
 10
207.1900708493249
 20
276.2171647596561
 30
0.0
 11
207.1900708493249
 21
228.4222697596561
 31
0.0
  0
ARC
  5
318
330
18
100
AcDbEntity
  8
5
  6
PHANTOM
 48
0.3
100
AcDbCircle
 10
220.6305108493246
 20
236.8402607596561
 30
0.0
 40
8.0
100
AcDbArc
 50
308.6529599999993
 51
23.99999900000105
  0
LINE
  5
319
330
18
100
AcDbEntity
  8
5
  6
PHANTOM
 48
0.3
100
AcDbLine
 10
204.3795308493248
 20
234.1651087596561
 30
0.0
 11
232.3651608493248
 21
246.6251144596561
 31
0.0
  0
LINE
  5
31A
330
18
100
AcDbEntity
  8
5
  6
PHANTOM
 48
0.3
100
AcDbLine
 10
205.1930008493246
 20
232.3380177596561
 30
0.0
 11
233.1786408493249
 21
244.798023759656
 31
0.0
  0
LINE
  5
31B
330
18
100
AcDbEntity
  8
1
  6
Continuous
100
AcDbLine
 10
229.449220849325
 20
205.1238757596561
 30
0.0
 11
227.3492208493248
 21
201.4865697596561
 31
0.0
  0
LINE
  5
31C
330
18
100
AcDbEntity
  8
1
  6
Continuous
100
AcDbLine
 10
211.4929708493248
 20
215.4909227596561
 30
0.0
 11
238.0228808493249
 21
200.173871759656
 31
0.0
  0
LINE
  5
31E
330
18
100
AcDbEntity
  8
1
  6
Continuous
100
AcDbLine
 10
212.4929708493247
 20
217.222974759656
 30
0.0
 11
239.022880849325
 21
201.9059237596561
 31
0.0
  0
LINE
  5
31F
330
18
100
AcDbEntity
  8
5
  6
PHANTOM
 48
0.3
100
AcDbLine
 10
206.4356508493248
 20
227.418097759656
 30
0.0
 11
210.1604108493246
 21
219.0521367596561
 31
0.0
  0
ARC
  5
321
330
18
100
AcDbEntity
  8
5
  6
PHANTOM
 48
0.3
100
AcDbCircle
 10
199.8957208493249
 20
221.3318917596561
 30
0.0
 40
4.1500001
100
AcDbArc
 50
293.9999999999979
 51
113.9999999999979
  0
ARC
  5
322
330
18
100
AcDbEntity
  8
1
  6
Continuous
100
AcDbCircle
 10
221.6429608493249
 20
233.071236759656
 30
0.0
 40
18.29999899999998
100
AcDbArc
 50
209.2218299999999
 51
239.9999999999998
  0
ARC
  5
323
330
18
100
AcDbEntity
  8
5
  6
PHANTOM
 48
0.3
100
AcDbCircle
 10
201.8835308493246
 20
230.294492759656
 30
0.0
 40
15.0
100
AcDbArc
 50
289.9817799999967
 51
335.8166700000003
  0
ARC
  5
324
330
18
100
AcDbEntity
  8
1
  6
Continuous
100
AcDbCircle
 10
221.6429608493249
 20
233.071236759656
 30
0.0
 40
20.29999899999999
100
AcDbArc
 50
209.2218299999999
 51
239.9999999999998
  0
LINE
  5
325
330
18
100
AcDbEntity
  8
1
  6
Continuous
100
AcDbLine
 10
208.2430808493247
 20
211.593743759656
 30
0.0
 11
213.8232108493248
 21
211.258805759656
 31
0.0
  0
ARC
  5
326
330
18
100
AcDbEntity
  8
1
  6
Continuous
100
AcDbCircle
 10
207.8944708493246
 20
216.9671837596561
 30
0.0
 40
15.0
100
AcDbArc
 50
235.9817799999976
 51
281.8166700000028
  0
LINE
  5
327
330
18
100
AcDbEntity
  8
1
  6
Continuous
100
AcDbLine
 10
208.2430808493247
 20
211.5937477596561
 30
0.0
 11
203.6337208493248
 21
203.6101017596561
 31
0.0
  0
LINE
  5
328
330
18
100
AcDbEntity
  8
1
  6
Continuous
100
AcDbLine
 10
196.160061186411
 20
210.4292383443183
 30
0.0
 11
197.4001608493247
 21
209.713265759656
 31
0.0
  0
ARC
  5
329
330
18
100
AcDbEntity
  8
1
  6
Continuous
100
AcDbCircle
 10
199.4751608493246
 20
213.3072717596561
 30
0.0
 40
4.1500001
100
AcDbArc
 50
239.9999999999998
 51
60.0000020000009
  0
LINE
  5
32B
330
18
100
AcDbEntity
  8
1
  6
Continuous
100
AcDbLine
 10
208.2430808493247
 20
211.593743759656
 30
0.0
 11
206.4129508493249
 21
218.423871759656
 31
0.0
  0
LINE
  5
32C
330
18
100
AcDbEntity
  8
5
  6
PHANTOM
 48
0.3
100
AcDbLine
 10
200.2755263405604
 20
216.9582555566626
 30
0.0
 11
201.583670849325
 21
217.5406817596561
 31
0.0
  0
LINE
  5
32D
330
18
100
AcDbEntity
  8
1
  6
Continuous
100
AcDbLine
 10
200.310062625642
 20
217.617252513377
 30
0.0
 11
201.5501608493248
 21
216.9012807596561
 31
0.0
  0
LINE
  5
32E
330
18
100
AcDbEntity
  8
1
  6
Continuous
100
AcDbLine
 10
215.6527308493247
 20
212.4276447596561
 30
0.0
 11
210.0601808493247
 21
202.7410637596561
 31
0.0
  0
ARC
  5
32F
330
18
100
AcDbEntity
  8
1
  6
Continuous
100
AcDbCircle
 10
237.1778908493249
 20
252.9007430496561
 30
0.0
 40
57.0
100
AcDbArc
 50
242.6222799999994
 51
254.6529599999993
  0
LINE
  5
330
330
18
100
AcDbEntity
  8
1
  6
Continuous
100
AcDbLine
 10
221.4200608493246
 20
204.216946759656
 30
0.0
 11
227.3492308493248
 21
201.486562759656
 31
0.0
  0
LINE
  5
331
330
18
100
AcDbEntity
  8
1
  6
Continuous
100
AcDbLine
 10
223.8200608493247
 20
208.373875759656
 30
0.0
 11
221.4200508493247
 21
204.2169547596561
 31
0.0
  0
LINE
  5
332
330
18
100
AcDbEntity
  8
5
  6
PHANTOM
 48
0.3
100
AcDbLine
 10
206.4356408493249
 20
227.418097759656
 30
0.0
 11
209.9865308493246
 21
231.7356447596561
 31
0.0
  0
ARC
  5
333
330
18
100
AcDbEntity
  8
5
  6
PHANTOM
 48
0.3
100
AcDbCircle
 10
196.936240849325
 20
250.8829894596561
 30
0.0
 40
18.29999899999998
100
AcDbArc
 50
263.2218299999999
 51
293.9999999999979
  0
ARC
  5
334
330
18
100
AcDbEntity
  8
1
  6
Continuous
100
AcDbCircle
 10
190.6608408493248
 20
215.7404117596561
 30
0.0
 40
17.200001
100
AcDbArc
 50
29.22183100000101
 51
90.77817299999891
  0
ARC
  5
335
330
18
100
AcDbEntity
  8
5
  6
PHANTOM
 48
0.3
100
AcDbCircle
 10
196.936240849325
 20
250.8829894596561
 30
0.0
 40
20.29999899999999
100
AcDbArc
 50
263.2218299999999
 51
293.9999999999979
  0
ARC
  5
336
330
18
100
AcDbEntity
  8
1
  6
Continuous
100
AcDbCircle
 10
190.6608408493248
 20
215.7404117596561
 30
0.0
 40
15.2
100
AcDbArc
 50
29.22183100000101
 51
90.77817299999891
  0
LINE
  5
337
330
18
100
AcDbEntity
  8
5
  6
PHANTOM
 48
0.3
100
AcDbLine
 10
196.8996123796339
 20
224.5406776447001
 30
0.0
 11
198.2077608493246
 21
225.1231037596561
 31
0.0
  0
LINE
  5
338
330
18
100
AcDbEntity
  8
5
  6
PHANTOM
 48
0.3
100
AcDbLine
 10
206.4356408493249
 20
227.4180957596561
 30
0.0
 11
199.8342308493249
 21
229.9521407596561
 31
0.0
  0
LINE
  5
339
330
18
100
AcDbEntity
  8
5
  6
PHANTOM
 48
0.3
100
AcDbLine
 10
218.1964908493247
 20
238.127547759656
 30
0.0
 11
220.1488408493248
 21
233.7425337596561
 31
0.0
  0
LINE
  5
33A
330
18
100
AcDbEntity
  8
5
  6
PHANTOM
 48
0.3
100
AcDbLine
 10
220.1488408493248
 20
233.742526759656
 30
0.0
 11
225.8428408493247
 21
236.9344417596561
 31
0.0
  0
ARC
  5
33B
330
18
100
AcDbEntity
  8
5
  6
PHANTOM
 48
0.3
100
AcDbCircle
 10
190.0250308493248
 20
275.1064887596561
 30
0.0
 40
57.0
100
AcDbArc
 50
296.6222900000013
 51
308.6529599999993
  0
LINE
  5
33C
330
18
100
AcDbEntity
  8
5
  6
PHANTOM
 48
0.3
100
AcDbLine
 10
210.0651008493247
 20
234.0177587596561
 30
0.0
 11
214.6463008493249
 21
223.7282387596561
 31
0.0
  0
ARC
  5
33D
330
18
100
AcDbEntity
  8
5
  6
PHANTOM
 48
0.3
100
AcDbCircle
 10
229.0383008493249
 20
241.3126807596561
 30
0.0
 40
1.5
100
AcDbArc
 50
113.9999999999979
 51
203.99999
  0
LINE
  5
33E
330
18
100
AcDbEntity
  8
5
  6
PHANTOM
 48
0.3
100
AcDbLine
 10
227.6679908493249
 20
240.7025717596561
 30
0.0
 11
227.9388808493249
 21
240.094148759656
 31
0.0
  0
LINE
  5
33F
330
18
100
AcDbEntity
  8
5
  6
PHANTOM
 48
0.3
100
AcDbLine
 10
224.1345408493248
 20
240.7713357596561
 30
0.0
 11
225.8428408493247
 21
236.9344477596561
 31
0.0
  0
LINE
  5
340
330
18
100
AcDbEntity
  8
1
  6
Continuous
100
AcDbLine
 10
239.022880849325
 20
201.9059237596561
 30
0.0
 11
238.0228808493249
 21
200.173871759656
 31
0.0
  0
ARC
  5
341
330
18
100
AcDbEntity
  8
1
  6
Continuous
100
AcDbCircle
 10
232.769550849325
 20
201.474839759656
 30
0.0
 40
1.5
100
AcDbArc
 50
60.0000020000009
 51
149.9999999999993
  0
LINE
  5
342
330
18
100
AcDbEntity
  8
1
  6
Continuous
100
AcDbLine
 10
231.4704908493248
 20
202.2248397596561
 30
0.0
 11
231.1375008493247
 21
201.6480687596561
 31
0.0
  0
LINE
  5
343
330
18
100
AcDbEntity
  8
5
  6
PHANTOM
 48
0.3
100
AcDbLine
 10
232.3651608493248
 20
246.6251144596561
 30
0.0
 11
233.1786408493249
 21
244.798023759656
 31
0.0
  0
LINE
  5
344
330
18
100
AcDbEntity
  8
1
  6
Continuous
100
AcDbLine
 10
247.0608408493248
 20
282.5322697596561
 30
0.0
 11
200.5608408493249
 21
282.5322697596561
 31
0.0
  0
LINE
  5
345
330
18
100
AcDbEntity
  8
1
  6
Continuous
100
AcDbLine
 10
202.3108408493249
 20
281.3322707596561
 30
0.0
 11
245.3108408493249
 21
281.3322707596561
 31
0.0
  0
ARC
  5
347
330
18
100
AcDbEntity
  8
1
  6
Continuous
100
AcDbCircle
 10
200.5608408493249
 20
285.0322697596561
 30
0.0
 40
2.5
100
AcDbArc
 50
207.1537099999983
 51
270.0
  0
ARC
  5
348
330
18
100
AcDbEntity
  8
1
  6
Continuous
100
AcDbCircle
 10
202.3108408493249
 20
278.3322707596561
 30
0.0
 40
3.0
100
AcDbArc
 50
90.00000299999769
 51
162.433539999999
  0
LINE
  5
349
330
18
100
AcDbEntity
  8
1
  6
Continuous
100
AcDbLine
 10
198.9108408493246
 20
277.5322737596561
 30
0.0
 11
199.4507308493248
 21
279.237706759656
 31
0.0
  0
ARC
  5
34A
330
18
100
AcDbEntity
  8
1
  6
Continuous
100
AcDbCircle
 10
196.0608408493247
 20
287.2322707596562
 30
0.0
 40
0.5
100
AcDbArc
 50
27.15370900000067
 51
90.00000299999769
  0
LINE
  5
34B
330
18
100
AcDbEntity
  8
1
  6
Continuous
100
AcDbLine
 10
198.3363808493246
 20
283.8913207596561
 30
0.0
 11
196.5057308493248
 21
287.4604587596561
 31
0.0
  0
ARC
  5
34C
330
18
100
AcDbEntity
  8
1
  6
Continuous
100
AcDbCircle
 10
206.7889308493249
 20
283.2102717596562
 30
0.0
 40
2.778000099999998
100
AcDbArc
 50
194.12632
 51
222.5338599999985
  0
ARC
  5
34D
330
18
100
AcDbEntity
  8
1
  6
Continuous
100
AcDbCircle
 10
205.8149108493247
 20
283.2102717596562
 30
0.0
 40
2.778000099999998
100
AcDbArc
 50
194.12632
 51
222.5338599999985
  0
ARC
  5
34E
330
18
100
AcDbEntity
  8
1
  6
Continuous
100
AcDbCircle
 10
209.3847208493247
 20
283.2102717596562
 30
0.0
 40
2.778000099999998
100
AcDbArc
 50
194.12632
 51
222.5338599999985
  0
ARC
  5
34F
330
18
100
AcDbEntity
  8
1
  6
Continuous
100
AcDbCircle
 10
213.3549708493247
 20
283.2102717596562
 30
0.0
 40
2.778000099999998
100
AcDbArc
 50
194.12632
 51
222.5338599999985
  0
ARC
  5
350
330
18
100
AcDbEntity
  8
1
  6
Continuous
100
AcDbCircle
 10
213.3549708493247
 20
283.2102717596562
 30
0.0
 40
2.778000099999998
100
AcDbArc
 50
317.4661299999983
 51
333.36576
  0
ARC
  5
351
330
18
100
AcDbEntity
  8
1
  6
Continuous
100
AcDbCircle
 10
218.3214008493247
 20
283.2102717596562
 30
0.0
 40
2.778000099999998
100
AcDbArc
 50
194.12632
 51
222.5338599999985
  0
ARC
  5
352
330
18
100
AcDbEntity
  8
1
  6
Continuous
100
AcDbCircle
 10
218.3214008493247
 20
283.2102717596562
 30
0.0
 40
2.778000099999998
100
AcDbArc
 50
317.4661299999983
 51
345.8736799999999
  0
ARC
  5
353
330
18
100
AcDbEntity
  8
1
  6
Continuous
100
AcDbCircle
 10
223.8108408493248
 20
283.2102717596562
 30
0.0
 40
2.778000099999998
100
AcDbArc
 50
194.12632
 51
222.5338599999985
  0
ARC
  5
354
330
18
100
AcDbEntity
  8
1
  6
Continuous
100
AcDbCircle
 10
229.3002808493249
 20
283.2102717596562
 30
0.0
 40
2.778000099999998
100
AcDbArc
 50
194.12632
 51
222.5338599999985
  0
ARC
  5
355
330
18
100
AcDbEntity
  8
1
  6
Continuous
100
AcDbCircle
 10
223.8108408493248
 20
283.2102717596562
 30
0.0
 40
2.778000099999998
100
AcDbArc
 50
317.4661299999983
 51
345.8736799999999
  0
LINE
  5
356
330
18
100
AcDbEntity
  8
1
  6
Continuous
100
AcDbLine
 10
248.3108408493246
 20
278.3322707596561
 30
0.0
 11
248.3108408493246
 21
271.3322707596561
 31
0.0
  0
LINE
  5
357
330
18
100
AcDbEntity
  8
1
  6
Continuous
100
AcDbLine
 10
238.8108408493248
 20
271.3322707596561
 30
0.0
 11
248.3108408493246
 21
271.3322707596561
 31
0.0
  0
ARC
  5
358
330
18
100
AcDbEntity
  8
1
  6
Continuous
100
AcDbCircle
 10
238.8108408493248
 20
266.3322707596561
 30
0.0
 40
5.0
100
AcDbArc
 50
90.00000299999769
 51
149.3865399999983
  0
ARC
  5
359
330
18
100
AcDbEntity
  8
1
  6
Continuous
100
AcDbCircle
 10
245.3108408493249
 20
278.3322707596561
 30
0.0
 40
3.0
100
AcDbArc
 50
0.0
 51
90.00000299999769
  0
ARC
  5
35A
330
18
100
AcDbEntity
  8
1
  6
Continuous
100
AcDbCircle
 10
247.0608408493248
 20
285.0322697596561
 30
0.0
 40
2.5
100
AcDbArc
 50
270.0
 51
332.8462900000017
  0
ARC
  5
35B
330
18
100
AcDbEntity
  8
1
  6
Continuous
100
AcDbCircle
 10
234.2667108493249
 20
283.2102717596562
 30
0.0
 40
2.778000099999998
100
AcDbArc
 50
206.6342500000004
 51
222.5338599999985
  0
ARC
  5
35C
330
18
100
AcDbEntity
  8
1
  6
Continuous
100
AcDbCircle
 10
229.3002808493249
 20
283.2102717596562
 30
0.0
 40
2.778000099999998
100
AcDbArc
 50
317.4661299999983
 51
345.8736799999999
  0
ARC
  5
35D
330
18
100
AcDbEntity
  8
1
  6
Continuous
100
AcDbCircle
 10
234.2667108493249
 20
283.2102717596562
 30
0.0
 40
2.778000099999998
100
AcDbArc
 50
317.4661299999983
 51
345.8736799999999
  0
ARC
  5
35E
330
18
100
AcDbEntity
  8
1
  6
Continuous
100
AcDbCircle
 10
240.8327508493248
 20
283.2102717596562
 30
0.0
 40
2.778000099999998
100
AcDbArc
 50
317.4661299999983
 51
345.8736799999999
  0
ARC
  5
35F
330
18
100
AcDbEntity
  8
1
  6
Continuous
100
AcDbCircle
 10
238.2369608493246
 20
283.2102717596562
 30
0.0
 40
2.778000099999998
100
AcDbArc
 50
317.4661299999983
 51
345.8736799999999
  0
ARC
  5
360
330
18
100
AcDbEntity
  8
1
  6
Continuous
100
AcDbCircle
 10
241.8067708493249
 20
283.2102717596562
 30
0.0
 40
2.778000099999998
100
AcDbArc
 50
317.4661299999983
 51
345.8736799999999
  0
LINE
  5
361
330
18
100
AcDbEntity
  8
4
  6
CENTER
 48
0.4
100
AcDbLine
 10
264.8108408493249
 20
294.7322707596562
 30
0.0
 11
264.8108408493249
 21
282.7938567596561
 31
0.0
  0
ARC
  5
362
330
18
100
AcDbEntity
  8
1
  6
Continuous
100
AcDbCircle
 10
251.5608408493249
 20
287.2322707596562
 30
0.0
 40
0.5
100
AcDbArc
 50
90.00000299999769
 51
152.8462900000016
  0
LINE
  5
363
330
18
100
AcDbEntity
  8
1
  6
Continuous
100
AcDbLine
 10
249.2853008493248
 20
283.8913207596561
 30
0.0
 11
251.1159508493249
 21
287.4604617596562
 31
0.0
  0
LINE
  5
364
330
18
100
AcDbEntity
  8
1
  6
Continuous
100
AcDbLine
 10
273.8108408493248
 20
289.7322707596562
 30
0.0
 11
273.8108408493248
 21
287.7322707596562
 31
0.0
  0
LINE
  5
365
330
18
100
AcDbEntity
  8
4
  6
CENTER
 48
0.4
100
AcDbLine
 10
191.8108408493246
 20
423.1948358546755
 30
0.0
 11
191.8108408493249
 21
349.5921215307879
 31
0.0
  0
ARC
  5
366
330
18
100
AcDbEntity
  8
1
  6
Continuous
100
AcDbCircle
 10
356.2775108493248
 20
389.1948358546756
 30
0.0
 40
85.0
100
AcDbArc
 50
166.5596399999991
 51
193.4402899999994
  0
CIRCLE
  5
367
330
18
100
AcDbEntity
  8
1
  6
Continuous
100
AcDbCircle
 10
223.8108408493248
 20
389.1948358546756
 30
0.0
 40
22.5
  0
CIRCLE
  5
368
330
18
100
AcDbEntity
  8
1
  6
Continuous
100
AcDbCircle
 10
223.8108408493248
 20
389.1948358546756
 30
0.0
 40
12.25
  0
CIRCLE
  5
369
330
18
100
AcDbEntity
  8
1
  6
Continuous
100
AcDbCircle
 10
223.8108408493248
 20
389.1948358546756
 30
0.0
 40
24.0
  0
LINE
  5
36A
330
18
100
AcDbEntity
  8
4
  6
CENTER
 48
0.4
100
AcDbLine
 10
223.8108408493246
 20
423.1948358546755
 30
0.0
 11
223.8108408493248
 21
355.1948328546756
 31
0.0
  0
LINE
  5
36B
330
18
100
AcDbEntity
  8
4
  6
CENTER
 48
0.4
100
AcDbLine
 10
274.2108409493247
 20
369.1948358546756
 30
0.0
 11
255.4108407493249
 21
369.1948358546756
 31
0.0
  0
ARC
  5
36C
330
18
100
AcDbEntity
  8
1
  6
Continuous
100
AcDbCircle
 10
266.3108408493249
 20
367.6948358546756
 30
0.0
 40
7.5
100
AcDbArc
 50
270.0000200000018
 51
13.44028199999929
  0
CIRCLE
  5
36D
330
18
100
AcDbEntity
  8
1
  6
Continuous
100
AcDbCircle
 10
264.8108408493249
 20
369.1948358546756
 30
0.0
 40
4.400000099999997
  0
ARC
  5
36E
330
18
100
AcDbEntity
  8
1
  6
Continuous
100
AcDbCircle
 10
227.6120658493248
 20
358.3556258546756
 30
0.0
 40
11.560816
100
AcDbArc
 50
235.9118399999974
 51
9.154074599825671
  0
CIRCLE
  5
36F
330
18
100
AcDbEntity
  8
1
  6
Continuous
100
AcDbCircle
 10
223.8108408493248
 20
389.1948358546756
 30
0.0
 40
9.5
  0
LINE
  5
371
330
18
100
AcDbEntity
  8
1
  6
Continuous
100
AcDbLine
 10
204.3816158493247
 20
360.1174558546755
 30
0.0
 11
221.1325958493247
 21
348.7812458546756
 31
0.0
  0
LINE
  5
372
330
18
100
AcDbEntity
  8
1
  6
Continuous
100
AcDbLine
 10
203.2316258493248
 20
360.1174558546755
 30
0.0
 11
219.9826058493249
 21
348.7812458546756
 31
0.0
  0
LINE
  5
376
330
18
100
AcDbEntity
  8
1
  6
Continuous
100
AcDbLine
 10
195.8108388493247
 20
358.6948603546755
 30
0.0
 11
195.8108388493247
 21
355.8198454546756
 31
0.0
  0
LINE
  5
377
330
18
100
AcDbEntity
  8
2
  6
Continuous
100
AcDbLine
 10
195.1858388493248
 20
358.6948603546755
 30
0.0
 11
195.1858388493248
 21
355.1948454546756
 31
0.0
  0
LINE
  5
378
330
18
100
AcDbEntity
  8
1
  6
Continuous
100
AcDbLine
 10
195.8108408493246
 20
355.8198445546756
 30
0.0
 11
195.1858408493246
 21
355.1948454546756
 31
0.0
  0
ARC
  5
37A
330
18
100
AcDbEntity
  8
1
  6
Continuous
100
AcDbCircle
 10
194.8246158493249
 20
347.6948058546756
 30
0.0
 40
15.0
100
AcDbArc
 50
55.9118469999986
 51
56.44287681207629
  0
ARC
  5
37B
330
18
100
AcDbEntity
  8
1
  6
Continuous
100
AcDbCircle
 10
195.9746158493248
 20
347.6948058546756
 30
0.0
 40
15.0
100
AcDbArc
 50
55.9118469999986
 51
56.44287681207629
  0
ARC
  5
37C
330
18
100
AcDbEntity
  8
1
  6
Continuous
100
AcDbCircle
 10
226.4620658493249
 20
358.3556258546756
 30
0.0
 40
11.560816
100
AcDbArc
 50
235.9118399999974
 51
270.0
  0
LINE
  5
37D
330
18
100
AcDbEntity
  8
4
  6
CENTER
 48
0.4
100
AcDbLine
 10
264.8108408493249
 20
359.7948357546755
 30
0.0
 11
264.8108408493249
 21
378.5948359546756
 31
0.0
  0
LINE
  5
37F
330
18
100
AcDbEntity
  8
4
  6
CENTER
 48
0.4
100
AcDbLine
 10
274.2108409493247
 20
409.1948358546756
 30
0.0
 11
255.4108407493249
 21
409.1948358546756
 31
0.0
  0
CIRCLE
  5
380
330
18
100
AcDbEntity
  8
1
  6
Continuous
100
AcDbCircle
 10
264.8108408493249
 20
409.1948358546756
 30
0.0
 40
4.400000099999997
  0
ARC
  5
381
330
18
100
AcDbEntity
  8
1
  6
Continuous
100
AcDbCircle
 10
266.3108408493249
 20
410.6948358546755
 30
0.0
 40
7.5
100
AcDbArc
 50
346.5596799999998
 51
89.99998200000083
  0
LINE
  5
383
330
18
100
AcDbEntity
  8
4
  6
CENTER
 48
0.4
100
AcDbLine
 10
264.8108408493249
 20
418.5948359546755
 30
0.0
 11
264.8108408493249
 21
399.7948357546756
 31
0.0
  0
LINE
  5
5AE
330
18
100
AcDbEntity
  8
1
  6
Continuous
100
AcDbLine
 10
384.0108129710524
 20
271.332270759656
 30
0.0
 11
384.0108129710524
 21
207.0322737596562
 31
0.0
  0
LINE
  5
5AF
330
18
100
AcDbEntity
  8
1
  6
Continuous
100
AcDbLine
 10
343.0108104295218
 20
251.2321311882038
 30
0.0
 11
343.5113169710525
 21
278.3875557596561
 31
0.0
  0
LINE
  5
5B1
330
18
100
AcDbEntity
  8
1
  6
Continuous
100
AcDbLine
 10
350.0108209710524
 20
223.8123436356429
 30
0.0
 11
350.0108209710524
 21
202.7429407596561
 31
0.0
  0
LINE
  5
5B3
330
18
100
AcDbEntity
  8
4
  6
CENTER
 48
0.4
100
AcDbLine
 10
368.0108129710524
 20
294.7322707596562
 30
0.0
 11
368.0108129710524
 21
162.7322707596561
 31
0.0
  0
LINE
  5
5B5
330
18
100
AcDbEntity
  8
1
  6
Continuous
100
AcDbLine
 10
386.0108049710524
 20
223.8123436356428
 30
0.0
 11
386.0108049710524
 21
207.0322737596561
 31
0.0
  0
LINE
  5
5B6
330
18
100
AcDbEntity
  8
1
  6
Continuous
100
AcDbLine
 10
393.0108129710524
 20
251.2320890596561
 30
0.0
 11
392.5103089710525
 21
278.3875537596561
 31
0.0
  0
LINE
  5
5BF
330
18
100
AcDbEntity
  8
4
  6
CENTER
 48
0.4
100
AcDbLine
 10
395.0107899710524
 20
217.7322707596561
 30
0.0
 11
329.0107999710526
 21
217.7322707596561
 31
0.0
  0
LINE
  5
5C0
330
18
100
AcDbEntity
  8
1
  6
Continuous
100
AcDbLine
 10
390.0107899710524
 20
223.7322707596561
 30
0.0
 11
390.0107899710524
 21
211.7322707596561
 31
0.0
  0
ARC
  5
5C1
330
18
100
AcDbEntity
  8
1
  6
Continuous
100
AcDbCircle
 10
388.5107899710524
 20
212.7322707596561
 30
0.0
 40
1.5
100
AcDbArc
 50
359.9999899999998
 51
89.99998399999709
  0
ARC
  5
5C2
330
18
100
AcDbEntity
  8
1
  6
Continuous
100
AcDbCircle
 10
387.5107899710524
 20
212.7322707596561
 30
0.0
 40
1.5
100
AcDbArc
 50
89.99998399999709
 51
179.9999640278219
  0
ARC
  5
5C3
330
18
100
AcDbEntity
  8
1
  6
Continuous
100
AcDbCircle
 10
388.5107899710524
 20
211.7322707596561
 30
0.0
 40
1.5
100
AcDbArc
 50
269.9999700000033
 51
0.0000100000001992
  0
LINE
  5
5C4
330
18
100
AcDbEntity
  8
1
  6
Continuous
100
AcDbLine
 10
388.5107899710524
 20
210.232270759656
 30
0.0
 11
387.5107899710524
 21
210.232270759656
 31
0.0
  0
ARC
  5
5C5
330
18
100
AcDbEntity
  8
1
  6
Continuous
100
AcDbCircle
 10
387.5107899710524
 20
211.7322707596561
 30
0.0
 40
1.5
100
AcDbArc
 50
179.9999640278219
 51
269.9999500000014
  0
LINE
  5
5C6
330
18
100
AcDbEntity
  8
1
  6
Continuous
100
AcDbLine
 10
386.0108049710524
 20
207.0322737596561
 30
0.0
 11
384.0108129710524
 21
207.0322737596561
 31
0.0
  0
ARC
  5
5C7
330
18
100
AcDbEntity
  8
1
  6
Continuous
100
AcDbCircle
 10
335.0111719710525
 20
251.4354758596561
 30
0.0
 40
58.0
100
AcDbArc
 50
331.5585210818515
 51
359.7990899999999
  0
ARC
  5
5C8
330
18
100
AcDbEntity
  8
1
  6
Continuous
100
AcDbCircle
 10
388.5107899710524
 20
223.7322707596561
 30
0.0
 40
1.5
100
AcDbArc
 50
359.9999899999998
 51
89.99998399999709
  0
ARC
  5
5C9
330
18
100
AcDbEntity
  8
1
  6
Continuous
100
AcDbCircle
 10
387.5107899710524
 20
223.7322707596561
 30
0.0
 40
1.5
100
AcDbArc
 50
89.99998399999709
 51
127.5871722724355
  0
ARC
  5
5CA
330
18
100
AcDbEntity
  8
1
  6
Continuous
100
AcDbCircle
 10
388.5107899710524
 20
216.232270759656
 30
0.0
 40
1.5
100
AcDbArc
 50
269.9999700000033
 51
0.0000100000001992
  0
LINE
  5
5CB
330
18
100
AcDbEntity
  8
1
  6
Continuous
100
AcDbLine
 10
388.5107899710524
 20
214.7322707596561
 30
0.0
 11
387.5107899710524
 21
214.7322707596561
 31
0.0
  0
LINE
  5
5CC
330
18
100
AcDbEntity
  8
1
  6
Continuous
100
AcDbLine
 10
388.5107899710524
 20
214.232270759656
 30
0.0
 11
387.5107899710524
 21
214.232270759656
 31
0.0
  0
ARC
  5
5CD
330
18
100
AcDbEntity
  8
1
  6
Continuous
100
AcDbCircle
 10
387.5107899710524
 20
216.232270759656
 30
0.0
 40
1.5
100
AcDbArc
 50
179.9999640278219
 51
269.9999500000014
  0
ARC
  5
5CE
330
18
100
AcDbEntity
  8
1
  6
Continuous
100
AcDbCircle
 10
388.5107899710524
 20
219.2322707596561
 30
0.0
 40
1.5
100
AcDbArc
 50
359.9999899999998
 51
89.99998399999709
  0
ARC
  5
5CF
330
18
100
AcDbEntity
  8
1
  6
Continuous
100
AcDbCircle
 10
388.5107899710524
 20
222.732270759656
 30
0.0
 40
1.5
100
AcDbArc
 50
269.9999700000033
 51
0.0000100000001992
  0
LINE
  5
5D0
330
18
100
AcDbEntity
  8
1
  6
Continuous
100
AcDbLine
 10
388.5107899710524
 20
220.732270759656
 30
0.0
 11
387.5107899710524
 21
220.732270759656
 31
0.0
  0
LINE
  5
5D1
330
18
100
AcDbEntity
  8
1
  6
Continuous
100
AcDbLine
 10
388.5107899710524
 20
221.2322707596561
 30
0.0
 11
387.5107899710524
 21
221.2322707596561
 31
0.0
  0
ARC
  5
5D2
330
18
100
AcDbEntity
  8
1
  6
Continuous
100
AcDbCircle
 10
387.5107899710524
 20
222.732270759656
 30
0.0
 40
1.5
100
AcDbArc
 50
179.9999640278219
 51
269.9999500000014
  0
ARC
  5
5D3
330
18
100
AcDbEntity
  8
1
  6
Continuous
100
AcDbCircle
 10
387.5107899710524
 20
219.2322707596561
 30
0.0
 40
1.5
100
AcDbArc
 50
89.99998399999709
 51
179.9999640278219
  0
LINE
  5
5D4
330
18
100
AcDbEntity
  8
1
  6
Continuous
100
AcDbLine
 10
388.5107899710524
 20
225.2322707596561
 30
0.0
 11
387.5107899710524
 21
225.2322707596561
 31
0.0
  0
LINE
  5
5D5
330
18
100
AcDbEntity
  8
1
  6
Continuous
100
AcDbLine
 10
334.6357999710525
 20
221.7322707596561
 30
0.0
 11
334.6357999710525
 21
220.4270883722943
 31
0.0
  0
ARC
  5
5D8
330
18
100
AcDbEntity
  8
1
  6
Continuous
100
AcDbCircle
 10
267.2761519710525
 20
263.585839759656
 30
0.0
 40
80.0
100
AcDbArc
 50
317.6439100000008
 51
328.4548959954051
  0
LINE
  5
5DD
330
18
100
AcDbEntity
  8
1
  6
Continuous
100
AcDbLine
 10
352.0108129710525
 20
271.3280524397605
 30
0.0
 11
352.0108129710525
 21
207.0322737596561
 31
0.0
  0
ARC
  5
5E5
330
18
100
AcDbEntity
  8
1
  6
Continuous
100
AcDbCircle
 10
335.1861859710524
 20
213.0568557596561
 30
0.0
 40
12.882981
100
AcDbArc
 50
227.5688399999976
 51
304.2118071750953
  0
LINE
  5
5E6
330
18
100
AcDbEntity
  8
1
  6
Continuous
100
AcDbLine
 10
343.2108179710525
 20
201.9896025452882
 30
0.0
 11
343.2108179710525
 21
197.6480577596561
 31
0.0
  0
LINE
  5
5E8
330
18
100
AcDbEntity
  8
1
  6
Continuous
100
AcDbLine
 10
347.2923379710524
 20
201.9671837596561
 30
0.0
 11
345.2108179710524
 21
201.9671837596561
 31
0.0
  0
ARC
  5
5E9
330
18
100
AcDbEntity
  8
1
  6
Continuous
100
AcDbCircle
 10
347.2923379710524
 20
207.118237759656
 30
0.0
 40
5.1510544
100
AcDbArc
 50
269.977420227486
 51
301.8537400000028
  0
LINE
  5
5EB
330
18
100
AcDbEntity
  8
1
  6
Continuous
100
AcDbLine
 10
345.2108179710524
 20
197.6480577596561
 30
0.0
 11
343.2108179710525
 21
197.6480577596561
 31
0.0
  0
LINE
  5
5EC
330
18
100
AcDbEntity
  8
1
  6
Continuous
100
AcDbLine
 10
347.456397920337
 20
218.3221272822074
 30
0.0
 11
345.2108179710524
 21
210.5389368362065
 31
0.0
  0
ARC
  5
5F7
330
18
100
AcDbEntity
  8
1
  6
Continuous
100
AcDbCircle
 10
328.6108189710525
 20
205.6738757596561
 30
0.0
 40
3.0
100
AcDbArc
 50
180.0
 51
225.1209943694974
  0
ARC
  5
5F9
330
18
100
AcDbEntity
  8
1
  6
Continuous
100
AcDbCircle
 10
328.6108189710525
 20
207.6657307596561
 30
0.0
 40
3.0
100
AcDbArc
 50
137.643910000001
 51
180.0
  0
LINE
  5
5FA
330
18
100
AcDbEntity
  8
1
  6
Continuous
100
AcDbLine
 10
325.6108189710523
 20
207.6657307596561
 30
0.0
 11
325.6108189710523
 21
205.6738757596561
 31
0.0
  0
ARC
  5
5FB
330
18
100
AcDbEntity
  8
1
  6
Continuous
100
AcDbCircle
 10
351.2006859710524
 20
235.7657337596561
 30
0.0
 40
4.0
100
AcDbArc
 50
63.09357999999749
 51
78.3149519341113
  0
LINE
  5
5FE
330
18
100
AcDbEntity
  8
1
  6
Continuous
100
AcDbLine
 10
352.3108159710524
 20
234.2408657596561
 30
0.0
 11
353.0108209710523
 21
236.232720759656
 31
0.0
  0
LINE
  5
601
330
18
100
AcDbEntity
  8
1
  6
Continuous
100
AcDbLine
 10
353.0108209710523
 20
239.3327217596561
 30
0.0
 11
353.0108209710523
 21
236.232720759656
 31
0.0
  0
LINE
  5
602
330
18
100
AcDbEntity
  8
1
  6
Continuous
100
AcDbLine
 10
336.7108179710525
 20
230.9371407596561
 30
0.0
 11
329.2938649710523
 21
242.744029559656
 31
0.0
  0
ARC
  5
606
330
18
100
AcDbEntity
  8
1
  6
Continuous
100
AcDbCircle
 10
267.2761519710525
 20
263.585839759656
 30
0.0
 40
80.0
100
AcDbArc
 50
328.4548999999987
 51
337.4761584817388
  0
LINE
  5
607
330
18
100
AcDbEntity
  8
1
  6
Continuous
100
AcDbLine
 10
340.3108171856791
 20
230.9371387596561
 30
0.0
 11
336.7108179710525
 21
230.9371387596561
 31
0.0
  0
ARC
  5
614
330
18
100
AcDbEntity
  8
1
  6
Continuous
100
AcDbCircle
 10
350.6245209710524
 20
231.1738757596561
 30
0.0
 40
3.5
100
AcDbArc
 50
61.19707000000024
 51
66.66643812806984
  0
LINE
  5
618
330
18
100
AcDbEntity
  8
2
  6
Continuous
100
AcDbLine
 10
335.0667942140069
 20
221.1072707596561
 30
0.0
 11
334.0107999710525
 21
221.1072707596561
 31
0.0
  0
LINE
  5
619
330
18
100
AcDbEntity
  8
1
  6
Continuous
100
AcDbLine
 10
335.4544385582221
 20
221.7322707596561
 30
0.0
 11
334.6357999710525
 21
221.7322707596561
 31
0.0
  0
LINE
  5
61C
330
18
100
AcDbEntity
  8
1
  6
Continuous
100
AcDbLine
 10
334.0107999710525
 20
221.1072707596561
 30
0.0
 11
334.0107999710525
 21
219.4668330129478
 31
0.0
  0
LINE
  5
61D
330
18
100
AcDbEntity
  8
1
  6
Continuous
100
AcDbLine
 10
334.6357999710525
 20
221.7322727596561
 30
0.0
 11
334.0107999710525
 21
221.107272759656
 31
0.0
  0
ARC
  5
61E
330
18
100
AcDbEntity
  8
1
  6
Continuous
100
AcDbCircle
 10
339.9701099710525
 20
234.1070837596561
 30
0.0
 40
17.198839
100
AcDbArc
 50
79.81328203403058
 51
126.2809820000019
  0
LINE
  5
626
330
18
100
AcDbEntity
  8
1
  6
Continuous
100
AcDbLine
 10
328.9108219710525
 20
246.0657344596561
 30
0.0
 11
328.9108219710525
 21
244.0738768596561
 31
0.0
  0
ARC
  5
627
330
18
100
AcDbEntity
  8
1
  6
Continuous
100
AcDbCircle
 10
331.4108219710524
 20
244.0738768596561
 30
0.0
 40
2.5
100
AcDbArc
 50
180.0
 51
212.1365699999985
  0
ARC
  5
628
330
18
100
AcDbEntity
  8
1
  6
Continuous
100
AcDbCircle
 10
331.4108219710524
 20
246.0657344596561
 30
0.0
 40
2.5
100
AcDbArc
 50
130.3321310936891
 51
180.0
  0
LINE
  5
62A
330
18
100
AcDbEntity
  8
1
  6
Continuous
100
AcDbLine
 10
344.7608129710524
 20
282.5322697596561
 30
0.0
 11
391.2608129710524
 21
282.5322697596561
 31
0.0
  0
LINE
  5
62B
330
18
100
AcDbEntity
  8
1
  6
Continuous
100
AcDbLine
 10
339.0108129710523
 20
289.7322707596562
 30
0.0
 11
397.0108129710524
 21
289.7322707596562
 31
0.0
  0
LINE
  5
62C
330
18
100
AcDbEntity
  8
1
  6
Continuous
100
AcDbLine
 10
339.0108129710523
 20
287.7322707596562
 30
0.0
 11
397.0108129710524
 21
287.7322707596562
 31
0.0
  0
LINE
  5
631
330
18
100
AcDbEntity
  8
1
  6
Continuous
100
AcDbLine
 10
389.5108129710525
 20
281.3322707596561
 30
0.0
 11
346.5108129710524
 21
281.3322707596561
 31
0.0
  0
LINE
  5
633
330
18
100
AcDbEntity
  8
4
  6
CENTER
 48
0.4
100
AcDbLine
 10
388.0108129710524
 20
294.7322707596562
 30
0.0
 11
388.0108129710524
 21
282.7322707596561
 31
0.0
  0
LINE
  5
634
330
18
100
AcDbEntity
  8
1
  6
Continuous
100
AcDbLine
 10
397.0108129710524
 20
289.7322707596562
 30
0.0
 11
397.0108129710524
 21
287.7322707596562
 31
0.0
  0
ARC
  5
635
330
18
100
AcDbEntity
  8
1
  6
Continuous
100
AcDbCircle
 10
391.2608129710524
 20
285.0322697596561
 30
0.0
 40
2.5
100
AcDbArc
 50
270.0
 51
332.8462900000017
  0
ARC
  5
636
330
18
100
AcDbEntity
  8
1
  6
Continuous
100
AcDbCircle
 10
389.5108129710525
 20
278.3322707596561
 30
0.0
 40
3.0
100
AcDbArc
 50
1.055910000000204
 51
89.99999700000229
  0
LINE
  5
637
330
18
100
AcDbEntity
  8
1
  6
Continuous
100
AcDbLine
 10
393.4852769710524
 20
283.8913227596561
 30
0.0
 11
395.3159199710523
 21
287.4604617596562
 31
0.0
  0
ARC
  5
638
330
18
100
AcDbEntity
  8
1
  6
Continuous
100
AcDbCircle
 10
395.7608129710525
 20
287.2322707596562
 30
0.0
 40
0.5
100
AcDbArc
 50
89.99999700000229
 51
152.8462909999993
  0
ARC
  5
639
330
18
100
AcDbEntity
  8
1
  6
Continuous
100
AcDbCircle
 10
386.0067389710524
 20
283.2102717596562
 30
0.0
 40
2.778000099999998
100
AcDbArc
 50
317.4661400000013
 51
345.8736799999999
  0
ARC
  5
63A
330
18
100
AcDbEntity
  8
1
  6
Continuous
100
AcDbCircle
 10
385.0327249710524
 20
283.2102717596562
 30
0.0
 40
2.778000099999998
100
AcDbArc
 50
317.4661400000013
 51
345.8736799999999
  0
ARC
  5
63B
330
18
100
AcDbEntity
  8
1
  6
Continuous
100
AcDbCircle
 10
382.4369299710523
 20
283.2102717596562
 30
0.0
 40
2.778000099999998
100
AcDbArc
 50
317.4661400000013
 51
345.8736799999999
  0
ARC
  5
641
330
18
100
AcDbEntity
  8
1
  6
Continuous
100
AcDbCircle
 10
378.4666919710524
 20
283.2102717596562
 30
0.0
 40
2.778000099999998
100
AcDbArc
 50
206.6342399999999
 51
222.5338700000015
  0
ARC
  5
642
330
18
100
AcDbEntity
  8
1
  6
Continuous
100
AcDbCircle
 10
373.5002539710524
 20
283.2102717596562
 30
0.0
 40
2.778000099999998
100
AcDbArc
 50
317.4661400000013
 51
345.8736799999999
  0
ARC
  5
643
330
18
100
AcDbEntity
  8
1
  6
Continuous
100
AcDbCircle
 10
378.4666919710524
 20
283.2102717596562
 30
0.0
 40
2.778000099999998
100
AcDbArc
 50
317.4661400000013
 51
345.8736799999999
  0
ARC
  5
644
330
18
100
AcDbEntity
  8
1
  6
Continuous
100
AcDbCircle
 10
373.5002539710524
 20
283.2102717596562
 30
0.0
 40
2.778000099999998
100
AcDbArc
 50
194.12632
 51
222.5338700000015
  0
ARC
  5
645
330
18
100
AcDbEntity
  8
1
  6
Continuous
100
AcDbCircle
 10
368.0108129710524
 20
283.2102717596562
 30
0.0
 40
2.778000099999998
100
AcDbArc
 50
317.4661400000013
 51
345.8736799999999
  0
ARC
  5
646
330
18
100
AcDbEntity
  8
1
  6
Continuous
100
AcDbCircle
 10
362.5213719710524
 20
283.2102717596562
 30
0.0
 40
2.778000099999998
100
AcDbArc
 50
317.4661400000013
 51
345.8736799999999
  0
ARC
  5
647
330
18
100
AcDbEntity
  8
1
  6
Continuous
100
AcDbCircle
 10
368.0108129710524
 20
283.2102717596562
 30
0.0
 40
2.778000099999998
100
AcDbArc
 50
194.12632
 51
222.5338700000015
  0
ARC
  5
648
330
18
100
AcDbEntity
  8
1
  6
Continuous
100
AcDbCircle
 10
362.5213719710524
 20
283.2102717596562
 30
0.0
 40
2.778000099999998
100
AcDbArc
 50
194.12632
 51
222.5338700000015
  0
ARC
  5
649
330
18
100
AcDbEntity
  8
1
  6
Continuous
100
AcDbCircle
 10
357.5549339710525
 20
283.2102717596562
 30
0.0
 40
2.778000099999998
100
AcDbArc
 50
317.4661400000013
 51
333.3657499999996
  0
ARC
  5
64A
330
18
100
AcDbEntity
  8
1
  6
Continuous
100
AcDbCircle
 10
357.5549339710525
 20
283.2102717596562
 30
0.0
 40
2.778000099999998
100
AcDbArc
 50
194.12632
 51
222.5338700000015
  0
LINE
  5
64D
330
18
100
AcDbEntity
  8
1
  6
Continuous
100
AcDbLine
 10
339.0108129710523
 20
289.7322707596562
 30
0.0
 11
339.0108129710523
 21
287.7322707596562
 31
0.0
  0
LINE
  5
64E
330
18
100
AcDbEntity
  8
4
  6
CENTER
 48
0.4
100
AcDbLine
 10
348.0108129710524
 20
294.7322707596562
 30
0.0
 11
348.0108129710524
 21
282.7322707596561
 31
0.0
  0
ARC
  5
64F
330
18
100
AcDbEntity
  8
1
  6
Continuous
100
AcDbCircle
 10
346.5108129710524
 20
278.3322707596561
 30
0.0
 40
3.0
100
AcDbArc
 50
89.99999700000229
 51
178.9440862
  0
ARC
  5
650
330
18
100
AcDbEntity
  8
1
  6
Continuous
100
AcDbCircle
 10
353.5846959710525
 20
283.2102717596562
 30
0.0
 40
2.778000099999998
100
AcDbArc
 50
194.12632
 51
222.5338700000015
  0
ARC
  5
651
330
18
100
AcDbEntity
  8
1
  6
Continuous
100
AcDbCircle
 10
350.9889009710525
 20
283.2102717596562
 30
0.0
 40
2.778000099999998
100
AcDbArc
 50
194.12632
 51
222.5338700000015
  0
ARC
  5
652
330
18
100
AcDbEntity
  8
1
  6
Continuous
100
AcDbCircle
 10
350.0148869710524
 20
283.2102717596562
 30
0.0
 40
2.778000099999998
100
AcDbArc
 50
194.12632
 51
222.5338700000015
  0
ARC
  5
653
330
18
100
AcDbEntity
  8
1
  6
Continuous
100
AcDbCircle
 10
344.7608129710524
 20
285.0322697596561
 30
0.0
 40
2.5
100
AcDbArc
 50
207.1537099999983
 51
270.0
  0
LINE
  5
654
330
18
100
AcDbEntity
  8
1
  6
Continuous
100
AcDbLine
 10
342.5363519710523
 20
283.8913247596561
 30
0.0
 11
340.7057059710524
 21
287.4604617596562
 31
0.0
  0
ARC
  5
655
330
18
100
AcDbEntity
  8
1
  6
Continuous
100
AcDbCircle
 10
340.2608129710523
 20
287.2322707596562
 30
0.0
 40
0.5
100
AcDbArc
 50
27.15370999999832
 51
89.99999700000229
  0
LINE
  5
6F5
330
18
100
AcDbEntity
  8
4
  6
CENTER
 48
0.4
100
AcDbLine
 10
512.21078509278
 20
294.7322707596562
 30
0.0
 11
512.21078509278
 21
235.4656007596561
 31
0.0
  0
LINE
  5
6F6
330
18
100
AcDbEntity
  8
1
  6
Continuous
100
AcDbLine
 10
528.83155509278
 20
276.2171647596561
 30
0.0
 11
528.83155509278
 21
228.4222697596561
 31
0.0
  0
LINE
  5
6F7
330
18
100
AcDbEntity
  8
4
  6
CENTER
 48
0.4
100
AcDbLine
 10
544.21078509278
 20
272.732270759656
 30
0.0
 11
544.21078509278
 21
162.7322707596561
 31
0.0
  0
LINE
  5
6F8
330
18
100
AcDbEntity
  8
1
  6
Continuous
100
AcDbLine
 10
554.8813847694766
 20
218.5249430816186
 30
0.0
 11
550.8661580927801
 21
272.5761257596561
 31
0.0
  0
LINE
  5
6FF
330
18
100
AcDbEntity
  8
4
  6
CENTER
 48
0.4
100
AcDbLine
 10
599.21078509278
 20
217.7322707596561
 30
0.0
 11
489.2107850927798
 21
217.7322707596561
 31
0.0
  0
LINE
  5
70B
330
18
100
AcDbEntity
  8
1
  6
Continuous
100
AcDbLine
 10
582.56205809278
 20
251.3059224596561
 30
0.0
 11
583.56205809278
 21
249.5738733596561
 31
0.0
  0
LINE
  5
70C
330
18
100
AcDbEntity
  8
1
  6
Continuous
100
AcDbLine
 10
583.56205809278
 20
249.5738733596561
 30
0.0
 11
583.0181527020917
 21
249.2598494683949
 31
0.0
  0
LINE
  5
735
330
18
100
AcDbEntity
  8
1
  6
Continuous
100
AcDbLine
 10
582.56205809278
 20
251.3059224596561
 30
0.0
 11
581.7047783844502
 21
250.8109718684389
 31
0.0
  0
LINE
  5
75A
330
18
100
AcDbEntity
  8
1
  6
Continuous
100
AcDbLine
 10
488.96078509278
 20
282.5322697596561
 30
0.0
 11
535.46078509278
 21
282.5322697596561
 31
0.0
  0
LINE
  5
75D
330
18
100
AcDbEntity
  8
1
  6
Continuous
100
AcDbLine
 10
562.21078509278
 20
287.7322707596562
 30
0.0
 11
462.2107850927799
 21
287.7322707596562
 31
0.0
  0
LINE
  5
75E
330
18
100
AcDbEntity
  8
1
  6
Continuous
100
AcDbLine
 10
562.21078509278
 20
289.7322707596562
 30
0.0
 11
462.2107850927799
 21
289.7322707596562
 31
0.0
  0
LINE
  5
75F
330
18
100
AcDbEntity
  8
1
  6
Continuous
100
AcDbLine
 10
533.71078509278
 20
281.3322707596561
 30
0.0
 11
490.71078509278
 21
281.3322707596561
 31
0.0
  0
ARC
  5
760
330
18
100
AcDbEntity
  8
1
  6
Continuous
100
AcDbCircle
 10
552.86065709278
 20
272.7242907596561
 30
0.0
 40
2.0
100
AcDbArc
 50
80.00000000000142
 51
183.50957
  0
LINE
  5
761
330
18
100
AcDbEntity
  8
1
  6
Continuous
100
AcDbLine
 10
554.06349209278
 20
272.5121987596561
 30
0.0
 11
552.08443509278
 21
272.8611577596562
 31
0.0
  0
LINE
  5
762
330
18
100
AcDbEntity
  8
1
  6
Continuous
100
AcDbLine
 10
554.4107820927798
 20
274.4818147596561
 30
0.0
 11
529.7381150927801
 21
278.8322707596561
 31
0.0
  0
LINE
  5
763
330
18
100
AcDbEntity
  8
1
  6
Continuous
100
AcDbLine
 10
554.4107820927798
 20
274.4818147596561
 30
0.0
 11
554.06349209278
 21
272.5121987596561
 31
0.0
  0
LINE
  5
764
330
18
100
AcDbEntity
  8
4
  6
CENTER
 48
0.4
100
AcDbLine
 10
553.21078509278
 20
294.7322707596562
 30
0.0
 11
553.21078509278
 21
282.7322707596561
 31
0.0
  0
LINE
  5
765
330
18
100
AcDbEntity
  8
1
  6
Continuous
100
AcDbLine
 10
562.21078509278
 20
289.7322707596562
 30
0.0
 11
562.21078509278
 21
287.7322707596562
 31
0.0
  0
LINE
  5
766
330
18
100
AcDbEntity
  8
1
  6
Continuous
100
AcDbLine
 10
537.1107850927801
 20
277.5322737596561
 30
0.0
 11
536.5708950927801
 21
279.237706759656
 31
0.0
  0
ARC
  5
767
330
18
100
AcDbEntity
  8
1
  6
Continuous
100
AcDbCircle
 10
551.9107820927798
 20
271.8763517596561
 30
0.0
 40
1.0
100
AcDbArc
 50
80.00000000000142
 51
176.1059558999995
  0
ARC
  5
768
330
18
100
AcDbEntity
  8
1
  6
Continuous
100
AcDbCircle
 10
535.46078509278
 20
285.0322697596561
 30
0.0
 40
2.5
100
AcDbArc
 50
270.0
 51
332.8462900000017
  0
ARC
  5
769
330
18
100
AcDbEntity
  8
1
  6
Continuous
100
AcDbCircle
 10
533.71078509278
 20
278.3322707596561
 30
0.0
 40
3.0
100
AcDbArc
 50
17.56646000000078
 51
89.99999700000229
  0
ARC
  5
76A
330
18
100
AcDbEntity
  8
1
  6
Continuous
100
AcDbCircle
 10
539.96078509278
 20
287.2322707596562
 30
0.0
 40
0.5
100
AcDbArc
 50
89.99999700000229
 51
152.8462909999993
  0
LINE
  5
76B
330
18
100
AcDbEntity
  8
1
  6
Continuous
100
AcDbLine
 10
537.6852450927802
 20
283.8913207596561
 30
0.0
 11
539.5158950927798
 21
287.4604587596561
 31
0.0
  0
ARC
  5
76C
330
18
100
AcDbEntity
  8
1
  6
Continuous
100
AcDbCircle
 10
526.6369050927801
 20
283.2102717596562
 30
0.0
 40
2.778000099999998
100
AcDbArc
 50
317.4661400000013
 51
345.8736799999999
  0
ARC
  5
76D
330
18
100
AcDbEntity
  8
1
  6
Continuous
100
AcDbCircle
 10
529.2326950927798
 20
283.2102717596562
 30
0.0
 40
2.778000099999998
100
AcDbArc
 50
317.4661400000013
 51
345.8736799999999
  0
ARC
  5
76E
330
18
100
AcDbEntity
  8
1
  6
Continuous
100
AcDbCircle
 10
530.2067150927801
 20
283.2102717596562
 30
0.0
 40
2.778000099999998
100
AcDbArc
 50
317.4661400000013
 51
345.8736799999999
  0
ARC
  5
76F
330
18
100
AcDbEntity
  8
1
  6
Continuous
100
AcDbCircle
 10
522.66665509278
 20
283.2102717596562
 30
0.0
 40
2.778000099999998
100
AcDbArc
 50
317.4661400000013
 51
345.8736799999999
  0
ARC
  5
771
330
18
100
AcDbEntity
  8
1
  6
Continuous
100
AcDbCircle
 10
490.71078509278
 20
278.3322707596561
 30
0.0
 40
3.0
100
AcDbArc
 50
89.99999700000229
 51
180.0
  0
LINE
  5
772
330
18
100
AcDbEntity
  8
1
  6
Continuous
100
AcDbLine
 10
497.2107925420375
 20
271.3322707596561
 30
0.0
 11
487.7107850927801
 21
271.3322707596561
 31
0.0
  0
ARC
  5
774
330
18
100
AcDbEntity
  8
1
  6
Continuous
100
AcDbCircle
 10
522.66665509278
 20
283.2102717596562
 30
0.0
 40
2.778000099999998
100
AcDbArc
 50
206.6342399999999
 51
222.5338700000015
  0
ARC
  5
775
330
18
100
AcDbEntity
  8
1
  6
Continuous
100
AcDbCircle
 10
517.7002250927801
 20
283.2102717596562
 30
0.0
 40
2.778000099999998
100
AcDbArc
 50
317.4661400000013
 51
345.8736799999999
  0
ARC
  5
776
330
18
100
AcDbEntity
  8
1
  6
Continuous
100
AcDbCircle
 10
517.7002250927801
 20
283.2102717596562
 30
0.0
 40
2.778000099999998
100
AcDbArc
 50
194.12632
 51
222.5338700000015
  0
ARC
  5
777
330
18
100
AcDbEntity
  8
1
  6
Continuous
100
AcDbCircle
 10
512.21078509278
 20
283.2102717596562
 30
0.0
 40
2.778000099999998
100
AcDbArc
 50
317.4661400000013
 51
345.8736799999999
  0
ARC
  5
778
330
18
100
AcDbEntity
  8
1
  6
Continuous
100
AcDbCircle
 10
506.7213450927798
 20
283.2102717596562
 30
0.0
 40
2.778000099999998
100
AcDbArc
 50
317.4661400000013
 51
345.8736799999999
  0
ARC
  5
779
330
18
100
AcDbEntity
  8
1
  6
Continuous
100
AcDbCircle
 10
512.21078509278
 20
283.2102717596562
 30
0.0
 40
2.778000099999998
100
AcDbArc
 50
194.12632
 51
222.5338700000015
  0
ARC
  5
77A
330
18
100
AcDbEntity
  8
1
  6
Continuous
100
AcDbCircle
 10
501.7549150927798
 20
283.2102717596562
 30
0.0
 40
2.778000099999998
100
AcDbArc
 50
317.4661400000013
 51
333.3657499999996
  0
ARC
  5
77B
330
18
100
AcDbEntity
  8
1
  6
Continuous
100
AcDbCircle
 10
506.7213450927798
 20
283.2102717596562
 30
0.0
 40
2.778000099999998
100
AcDbArc
 50
194.12632
 51
222.5338700000015
  0
ARC
  5
77C
330
18
100
AcDbEntity
  8
1
  6
Continuous
100
AcDbCircle
 10
501.7549150927798
 20
283.2102717596562
 30
0.0
 40
2.778000099999998
100
AcDbArc
 50
194.12632
 51
222.5338700000015
  0
ARC
  5
77D
330
18
100
AcDbEntity
  8
1
  6
Continuous
100
AcDbCircle
 10
495.1888750927802
 20
283.2102717596562
 30
0.0
 40
2.778000099999998
100
AcDbArc
 50
194.12632
 51
222.5338700000015
  0
ARC
  5
77E
330
18
100
AcDbEntity
  8
1
  6
Continuous
100
AcDbCircle
 10
497.78466509278
 20
283.2102717596562
 30
0.0
 40
2.778000099999998
100
AcDbArc
 50
194.12632
 51
222.5338700000015
  0
ARC
  5
77F
330
18
100
AcDbEntity
  8
1
  6
Continuous
100
AcDbCircle
 10
494.2148550927798
 20
283.2102717596562
 30
0.0
 40
2.778000099999998
100
AcDbArc
 50
194.12632
 51
222.5338700000015
  0
LINE
  5
780
330
18
100
AcDbEntity
  8
1
  6
Continuous
100
AcDbLine
 10
487.7107850927801
 20
278.3322707596561
 30
0.0
 11
487.7107850927801
 21
271.3322707596561
 31
0.0
  0
ARC
  5
781
330
18
100
AcDbEntity
  8
1
  6
Continuous
100
AcDbCircle
 10
488.96078509278
 20
285.0322697596561
 30
0.0
 40
2.5
100
AcDbArc
 50
207.1537099999983
 51
270.0
  0
ARC
  5
782
330
18
100
AcDbEntity
  8
1
  6
Continuous
100
AcDbCircle
 10
484.46078509278
 20
287.2322707596562
 30
0.0
 40
0.5
100
AcDbArc
 50
27.15370999999832
 51
89.99999700000229
  0
LINE
  5
783
330
18
100
AcDbEntity
  8
1
  6
Continuous
100
AcDbLine
 10
486.7363250927801
 20
283.8913207596561
 30
0.0
 11
484.9056750927799
 21
287.4604617596562
 31
0.0
  0
LINE
  5
784
330
18
100
AcDbEntity
  8
1
  6
Continuous
100
AcDbLine
 10
462.2107850927799
 20
289.7322707596562
 30
0.0
 11
462.2107850927799
 21
287.7322707596562
 31
0.0
  0
LINE
  5
785
330
18
100
AcDbEntity
  8
4
  6
CENTER
 48
0.4
100
AcDbLine
 10
471.2107850927798
 20
294.7322707596562
 30
0.0
 11
471.2107850927798
 21
282.7938567596561
 31
0.0
  0
LINE
  5
809
330
18
100
AcDbEntity
  8
1
  6
Continuous
100
AcDbLine
 10
239.0256444600892
 20
97.26970662764342
 30
0.0
 11
266.310843467319
 21
97.26970566463629
 31
0.0
  0
LINE
  5
80A
330
18
100
AcDbEntity
  8
1
  6
Continuous
100
AcDbLine
 10
181.3108408493246
 20
39.26970566463671
 30
0.0
 11
266.3108408493249
 21
39.26970566463671
 31
0.0
  0
LINE
  5
80F
330
18
100
AcDbEntity
  8
1
  6
Continuous
100
AcDbLine
 10
201.1906656966284
 20
95.96586779603454
 30
0.0
 11
219.9826058493249
 21
108.6832956646367
 31
0.0
  0
LINE
  5
811
330
18
100
AcDbEntity
  8
4
  6
CENTER
 48
0.4
100
AcDbLine
 10
136.8108408493247
 20
68.2697056646367
 30
0.0
 11
276.2775108493249
 21
68.2697056646367
 31
0.0
  0
ARC
  5
816
330
18
100
AcDbEntity
  8
1
  6
Continuous
100
AcDbCircle
 10
162.1526414811906
 20
96.316306455426
 30
0.0
 40
9.706148706195346
100
AcDbArc
 50
177.0269500549209
 51
235.9982986541635
  0
ARC
  5
81A
330
18
100
AcDbEntity
  8
1
  6
Continuous
100
AcDbCircle
 10
163.0095558493248
 20
96.81972566463672
 30
0.0
 40
10.55
100
AcDbArc
 50
90.00000000000005
 51
179.9999899999995
  0
ARC
  5
81D
330
18
100
AcDbEntity
  8
5
  6
PHANTOM
 48
0.3
100
AcDbCircle
 10
154.0835608493248
 20
96.81972566463672
 30
0.0
 40
12.098705
100
AcDbArc
 50
179.9999899999995
 51
240.691200000001
  0
ARC
  5
81E
330
18
100
AcDbEntity
  8
5
  6
PHANTOM
 48
0.3
100
AcDbCircle
 10
152.5348548493246
 20
96.81972566463672
 30
0.0
 40
10.55
100
AcDbArc
 50
90.00000000000005
 51
179.9999899999995
  0
ARC
  5
821
330
18
100
AcDbEntity
  8
1
  6
Continuous
100
AcDbCircle
 10
91.34418134932486
 20
68.2697056646367
 30
0.0
 40
85.0
100
AcDbArc
 50
346.5596790000008
 51
350.4303230431539
  0
LINE
  5
822
330
18
100
AcDbEntity
  8
4
  6
CENTER
 48
0.4
100
AcDbLine
 10
191.8108408493246
 20
34.26970566463671
 30
0.0
 11
191.8108408493249
 21
107.8724199885242
 31
0.0
  0
LINE
  5
824
330
18
100
AcDbEntity
  8
4
  6
CENTER
 48
0.4
100
AcDbLine
 10
173.4108407493249
 20
88.26970566463669
 30
0.0
 11
192.2108409493247
 21
88.26970566463669
 31
0.0
  0
LINE
  5
825
330
18
100
AcDbEntity
  8
1
  6
Continuous
100
AcDbLine
 10
185.2626228165527
 20
98.29718523548963
 30
0.0
 11
168.7694128493248
 21
106.3092756646367
 31
0.0
  0
LINE
  5
826
330
18
100
AcDbEntity
  8
4
  6
CENTER
 48
0.4
100
AcDbLine
 10
182.8108408493248
 20
97.66970576463673
 30
0.0
 11
182.8108408493248
 21
78.86970556463672
 31
0.0
  0
ARC
  5
828
330
18
100
AcDbEntity
  8
1
  6
Continuous
100
AcDbCircle
 10
164.1595798493248
 20
96.81972566463672
 30
0.0
 40
10.55
100
AcDbArc
 50
64.09038999999761
 51
90.07888808892614
  0
LINE
  5
829
330
18
100
AcDbEntity
  8
1
  6
Continuous
100
AcDbLine
 10
164.1595798493248
 20
107.3697156646367
 30
0.0
 11
163.0095558493248
 21
107.3697156646367
 31
0.0
  0
LINE
  5
82C
330
18
100
AcDbEntity
  8
1
  6
Continuous
100
AcDbLine
 10
202.9692531907971
 20
88.26970566463673
 30
0.0
 11
156.3500616750726
 21
88.26970566463669
 31
0.0
  0
LINE
  5
82D
330
18
100
AcDbEntity
  8
1
  6
Continuous
100
AcDbLine
 10
156.3500616750726
 20
88.26970566463669
 30
0.0
 11
156.3500616750726
 21
86.26970566463674
 31
0.0
  0
LINE
  5
82E
330
18
100
AcDbEntity
  8
1
  6
Continuous
100
AcDbLine
 10
177.834112442674
 20
83.96974011739215
 30
0.0
 11
178.834126037783
 21
83.26970494849357
 31
0.0
  0
ARC
  5
82F
330
18
100
AcDbEntity
  8
1
  6
Continuous
100
AcDbCircle
 10
175.2671250377829
 20
85.07985494849359
 30
0.0
 40
4.0
100
AcDbArc
 50
333.0935800000011
 51
359.9999969999998
  0
LINE
  5
830
330
18
100
AcDbEntity
  8
1
  6
Continuous
100
AcDbLine
 10
179.2671250377829
 20
85.07985494849359
 30
0.0
 11
179.267125037783
 21
86.26970223573868
 31
0.0
  0
LINE
  5
831
330
18
100
AcDbEntity
  8
1
  6
Continuous
100
AcDbLine
 10
178.2671253513593
 20
85.65603492605111
 30
0.0
 11
178.2671253513593
 21
86.26970492605112
 31
0.0
  0
ARC
  5
833
330
18
100
AcDbEntity
  8
1
  6
Continuous
100
AcDbCircle
 10
174.7671253513594
 20
85.65603492605111
 30
0.0
 40
3.5
100
AcDbArc
 50
331.1970679999987
 51
359.9999970000006
  0
LINE
  5
834
330
18
100
AcDbEntity
  8
1
  6
Continuous
100
AcDbLine
 10
178.83411164469
 20
83.26971502402782
 30
0.0
 11
173.8977840478467
 21
83.26970497093602
 31
0.0
  0
LINE
  5
837
330
18
100
AcDbEntity
  8
1
  6
Continuous
100
AcDbLine
 10
195.8108388493247
 20
101.6446960646367
 30
0.0
 11
187.8108428493247
 21
101.6446960646367
 31
0.0
  0
LINE
  5
838
330
18
100
AcDbEntity
  8
1
  6
Continuous
100
AcDbLine
 10
195.1858388493248
 20
102.2696960646367
 30
0.0
 11
188.4358428493247
 21
102.2696960646367
 31
0.0
  0
LINE
  5
839
330
18
100
AcDbEntity
  8
1
  6
Continuous
100
AcDbLine
 10
188.4358448493248
 20
102.2696955646366
 30
0.0
 11
187.8108428493247
 21
101.6446945646367
 31
0.0
  0
LINE
  5
83A
330
18
100
AcDbEntity
  8
2
  6
Continuous
100
AcDbLine
 10
188.4358428493247
 20
98.76968116463672
 30
0.0
 11
188.4358428493247
 21
102.2696960646367
 31
0.0
  0
LINE
  5
83B
330
18
100
AcDbEntity
  8
1
  6
Continuous
100
AcDbLine
 10
187.8108428493247
 20
98.76968116463672
 30
0.0
 11
187.8108428493247
 21
101.6446960646367
 31
0.0
  0
LINE
  5
840
330
18
100
AcDbEntity
  8
1
  6
Continuous
100
AcDbLine
 10
195.8108408493246
 20
101.6446969646366
 30
0.0
 11
195.1858408493246
 21
102.2696960646367
 31
0.0
  0
LINE
  5
841
330
18
100
AcDbEntity
  8
2
  6
Continuous
100
AcDbLine
 10
195.1858388493248
 20
98.76968116463677
 30
0.0
 11
195.1858388493248
 21
102.2696960646367
 31
0.0
  0
LINE
  5
842
330
18
100
AcDbEntity
  8
1
  6
Continuous
100
AcDbLine
 10
195.8108388493247
 20
98.76968116463677
 30
0.0
 11
195.8108388493247
 21
101.6446960646367
 31
0.0
  0
ARC
  5
848
330
18
100
AcDbEntity
  8
1
  6
Continuous
100
AcDbCircle
 10
182.8108408493248
 20
48.26970566463671
 30
0.0
 40
4.400000099999997
100
AcDbArc
 50
65.38001982976329
 51
332.9645717300633
  0
LINE
  5
849
330
18
100
AcDbEntity
  8
4
  6
CENTER
 48
0.4
100
AcDbLine
 10
173.4108407493249
 20
48.26970566463671
 30
0.0
 11
192.2108409493247
 21
48.26970566463671
 31
0.0
  0
LINE
  5
84A
330
18
100
AcDbEntity
  8
4
  6
CENTER
 48
0.4
100
AcDbLine
 10
182.8108408493248
 20
38.86970556463671
 30
0.0
 11
182.8108408493248
 21
57.66970576463672
 31
0.0
  0
ARC
  5
84C
330
18
100
AcDbEntity
  8
1
  6
Continuous
100
AcDbCircle
 10
181.3108408493246
 20
46.76970566463672
 30
0.0
 40
7.5
100
AcDbArc
 50
166.5597100000004
 51
270.0000179999992
  0
ARC
  5
84F
330
18
100
AcDbEntity
  8
1
  6
Continuous
100
AcDbCircle
 10
356.2775108493248
 20
68.2697056646367
 30
0.0
 40
85.0
100
AcDbArc
 50
166.5597100000004
 51
193.4403600000006
  0
LINE
  5
850
330
18
100
AcDbEntity
  8
4
  6
CENTER
 48
0.4
100
AcDbLine
 10
223.8108408493246
 20
34.26970566463671
 30
0.0
 11
223.8108408493248
 21
102.2697086646367
 31
0.0
  0
ARC
  5
851
330
18
100
AcDbEntity
  8
1
  6
Continuous
100
AcDbCircle
 10
227.5111670642551
 20
99.06366203143228
 30
0.0
 40
11.65338859259217
100
AcDbArc
 50
337.8254363469189
 51
95.16506954748962
  0
ARC
  5
852
330
18
100
AcDbEntity
  8
1
  6
Continuous
100
AcDbCircle
 10
226.4620658493249
 20
99.10891566463673
 30
0.0
 40
11.560816
100
AcDbArc
 50
90.00000000000005
 51
124.0881600000024
  0
LINE
  5
853
330
18
100
AcDbEntity
  8
4
  6
CENTER
 48
0.4
100
AcDbLine
 10
264.8108408493249
 20
97.66970576463673
 30
0.0
 11
264.8108408493249
 21
78.86970556463672
 31
0.0
  0
ARC
  5
854
330
18
100
AcDbEntity
  8
1
  6
Continuous
100
AcDbCircle
 10
266.3108408493249
 20
89.76970566463673
 30
0.0
 40
7.5
100
AcDbArc
 50
346.5597180000007
 51
89.999979999998
  0
CIRCLE
  5
855
330
18
100
AcDbEntity
  8
1
  6
Continuous
100
AcDbCircle
 10
264.8108408493249
 20
88.26970566463669
 30
0.0
 40
4.400000099999997
  0
LINE
  5
856
330
18
100
AcDbEntity
  8
4
  6
CENTER
 48
0.4
100
AcDbLine
 10
274.2108409493247
 20
88.26970566463669
 30
0.0
 11
255.4108407493249
 21
88.26970566463669
 31
0.0
  0
LINE
  5
857
330
18
100
AcDbEntity
  8
4
  6
CENTER
 48
0.4
100
AcDbLine
 10
264.8108408493249
 20
38.86970556463671
 30
0.0
 11
264.8108408493249
 21
57.66970576463672
 31
0.0
  0
CIRCLE
  5
858
330
18
100
AcDbEntity
  8
1
  6
Continuous
100
AcDbCircle
 10
264.8108408493249
 20
48.26970566463671
 30
0.0
 40
4.400000099999997
  0
LINE
  5
859
330
18
100
AcDbEntity
  8
4
  6
CENTER
 48
0.4
100
AcDbLine
 10
274.2108409493247
 20
48.26970566463671
 30
0.0
 11
255.4108407493249
 21
48.26970566463671
 31
0.0
  0
ARC
  5
85A
330
18
100
AcDbEntity
  8
1
  6
Continuous
100
AcDbCircle
 10
266.3108408493249
 20
46.76970566463672
 30
0.0
 40
7.5
100
AcDbArc
 50
270.0000179999992
 51
13.44032000000008
  0
ARC
  5
B54
330
18
100
AcDbEntity
  8
1
  6
Continuous
100
AcDbCircle
 10
335.0111719710525
 20
251.4354758596561
 30
0.0
 40
56.0
100
AcDbArc
 50
331.5585376754222
 51
359.7990899999999
  0
ARC
  5
B92
330
18
100
AcDbEntity
  8
1
  6
Continuous
100
AcDbCircle
 10
386.0108129710524
 20
223.812358405771
 30
0.0
 40
2.0
100
AcDbArc
 50
151.5585376754219
 51
180.0
  0
LINE
  5
B96
330
18
100
AcDbEntity
  8
1
  6
Continuous
100
AcDbLine
 10
350.2534500075685
 20
271.332270759656
 30
0.0
 11
385.7681738727978
 21
271.332270759656
 31
0.0
  0
ARC
  5
BA8
330
18
100
AcDbEntity
  8
1
  6
Continuous
100
AcDbCircle
 10
385.7681738727978
 20
264.3322707596559
 30
0.0
 40
7.0
100
AcDbArc
 50
1.05590239769414
 51
90.0
  0
ARC
  5
BA9
330
18
100
AcDbEntity
  8
1
  6
Continuous
100
AcDbCircle
 10
383.7678341976688
 20
264.3322707596561
 30
0.0
 40
7.0
100
AcDbArc
 50
1.055902397693937
 51
90.0
  0
LINE
  5
BAC
330
18
100
AcDbEntity
  8
1
  6
Continuous
100
AcDbLine
 10
391.0111525885014
 20
251.1952331991079
 30
0.0
 11
390.7666455365967
 21
264.4612662715752
 31
0.0
  0
ARC
  5
C00
330
18
100
AcDbEntity
  8
1
  6
Continuous
100
AcDbCircle
 10
223.8108408493244
 20
68.26970566463629
 30
0.0
 40
17.50000000000085
100
AcDbArc
 50
45.58469140280621
 51
134.4153085971937
  0
ARC
  5
C01
330
18
100
AcDbEntity
  8
1
  6
Continuous
100
AcDbCircle
 10
223.8108408493244
 20
68.26970566463629
 30
0.0
 40
17.50000000000085
100
AcDbArc
 50
225.5846914028023
 51
314.4153085971976
  0
ARC
  5
C02
330
18
100
AcDbEntity
  8
1
  6
Continuous
100
AcDbCircle
 10
223.8108408493244
 20
68.26970566463629
 30
0.0
 40
27.74999997382086
100
AcDbArc
 50
220.4397714348766
 51
61.67225081107432
  0
ARC
  5
C03
330
18
100
AcDbEntity
  8
1
  6
Continuous
100
AcDbCircle
 10
223.8108408493244
 20
68.26970566463629
 30
0.0
 40
22.50000000000085
100
AcDbArc
 50
231.2295489045501
 51
72.84424094426886
  0
ARC
  5
C04
330
18
100
AcDbEntity
  8
1
  6
Continuous
100
AcDbCircle
 10
223.8108408493244
 20
68.26970566463629
 30
0.0
 40
24.50000000000085
100
AcDbArc
 50
231.2295240917261
 51
68.53042278509693
  0
LINE
  5
C0E
330
18
100
AcDbEntity
  8
1
  6
Continuous
100
AcDbLine
 10
181.1108408493256
 20
50.26971366463623
 30
0.0
 11
205.3378776869084
 21
50.26971366463623
 31
0.0
  0
LINE
  5
C0F
330
18
100
AcDbEntity
  8
1
  6
Continuous
100
AcDbLine
 10
181.1108408493256
 20
52.26970566463672
 30
0.0
 11
206.8108408493246
 21
52.26970566463627
 31
0.0
  0
LINE
  5
C1A
330
18
100
AcDbEntity
  8
1
  6
Continuous
100
AcDbLine
 10
181.1108408493256
 20
52.26970566463632
 30
0.0
 11
181.1108408493256
 21
50.26971366463623
 31
0.0
  0
ARC
  5
C2A
330
18
100
AcDbEntity
  8
1
  6
Continuous
100
AcDbCircle
 10
205.3378876474119
 20
45.26970566463631
 30
0.0
 40
7.0
100
AcDbArc
 50
51.22954890455027
 51
90.0
  0
ARC
  5
C2B
330
18
100
AcDbEntity
  8
1
  6
Continuous
100
AcDbCircle
 10
205.3378776869084
 20
45.26971366463622
 30
0.0
 40
5.0
100
AcDbArc
 50
51.2295240917262
 51
90.0
  0
LINE
  5
C2C
330
18
100
AcDbEntity
  8
1
  6
Continuous
100
AcDbLine
 10
156.3500616750726
 20
86.26970566463674
 30
0.0
 11
207.2328570276222
 21
86.26969805144851
 31
0.0
  0
LINE
  5
C2D
330
18
100
AcDbEntity
  8
1
  6
Continuous
100
AcDbLine
 10
181.1108408493251
 20
84.26970566463618
 30
0.0
 11
205.3378876474119
 21
84.26970566463618
 31
0.0
  0
LINE
  5
C38
330
18
100
AcDbEntity
  8
1
  6
Continuous
100
AcDbLine
 10
181.1108408493251
 20
86.26969766463631
 30
0.0
 11
181.1108408493251
 21
84.26970566463618
 31
0.0
  0
ARC
  5
C4C
330
18
100
AcDbEntity
  8
1
  6
Continuous
100
AcDbCircle
 10
205.3378876474119
 20
91.2697056646362
 30
0.0
 40
7.0
100
AcDbArc
 50
270.0
 51
308.7704510954499
  0
ARC
  5
D55
330
18
100
AcDbEntity
  8
1
  6
Continuous
100
AcDbCircle
 10
544.21078509278
 20
217.7322707596561
 30
0.0
 40
10.70000125562277
100
AcDbArc
 50
210.613465785624
 51
4.248450274009335
  0
LINE
  5
D56
330
18
100
AcDbEntity
  8
1
  6
Continuous
100
AcDbLine
 10
501.5139043777938
 20
268.8784892359409
 30
0.0
 11
535.0021246836445
 21
212.2833625809885
 31
0.0
  0
ARC
  5
D57
330
18
100
AcDbEntity
  8
1
  6
Continuous
100
AcDbCircle
 10
497.2107925420375
 20
266.3322707596561
 30
0.0
 40
5.0
100
AcDbArc
 50
30.61346578562424
 51
90.0
  0
ARC
  5
D5D
330
18
100
AcDbEntity
  8
1
  6
Continuous
100
AcDbCircle
 10
387.5107899710524
 20
223.7322707596561
 30
0.0
 40
1.5
100
AcDbArc
 50
176.7730459092683
 51
179.9999640278219
  0
ARC
  5
D72
330
18
100
AcDbEntity
  8
1
  6
Continuous
100
AcDbCircle
 10
350.253452069307
 20
264.3322707596559
 30
0.0
 40
7.0
100
AcDbArc
 50
90.0
 51
178.9440976023056
  0
ARC
  5
D73
330
18
100
AcDbEntity
  8
1
  6
Continuous
100
AcDbCircle
 10
352.2537917444361
 20
264.3322707596561
 30
0.0
 40
7.0
100
AcDbArc
 50
90.0
 51
178.9440976023059
  0
LINE
  5
D74
330
18
100
AcDbEntity
  8
1
  6
Continuous
100
AcDbLine
 10
345.0104733536033
 20
251.1952331991079
 30
0.0
 11
345.2549804055081
 21
264.4612662715752
 31
0.0
  0
ARC
  5
D75
330
18
100
AcDbEntity
  8
1
  6
Continuous
100
AcDbCircle
 10
401.0104539710523
 20
251.4354758596561
 30
0.0
 40
56.0
100
AcDbArc
 50
180.20091
 51
208.4414623245778
  0
ARC
  5
D76
330
18
100
AcDbEntity
  8
1
  6
Continuous
100
AcDbCircle
 10
401.0104539710523
 20
251.4354758596561
 30
0.0
 40
58.0
100
AcDbArc
 50
180.20091
 51
208.4414789181484
  0
ARC
  5
D7B
330
18
100
AcDbEntity
  8
1
  6
Continuous
100
AcDbCircle
 10
351.2006859710524
 20
232.665732759656
 30
0.0
 40
4.0
100
AcDbArc
 50
63.09357999999749
 51
78.31495193411142
  0
LINE
  5
D7E
330
18
100
AcDbEntity
  8
1
  6
Continuous
100
AcDbLine
 10
341.1737690096801
 20
232.9404127596561
 30
0.0
 11
346.0383461260095
 21
232.940412759656
 31
0.0
  0
LINE
  5
D7F
330
18
100
AcDbEntity
  8
1
  6
Continuous
100
AcDbLine
 10
336.5179762437995
 20
220.2437462653058
 30
0.0
 11
348.0108169710524
 21
220.2437462653056
 31
0.0
  0
ARC
  5
D81
330
18
100
AcDbEntity
  8
1
  6
Continuous
100
AcDbCircle
 10
335.1861859710524
 20
214.7889047596561
 30
0.0
 40
12.882981
100
AcDbArc
 50
227.5688399999976
 51
302.6279555651248
  0
ARC
  5
D82
330
18
100
AcDbEntity
  8
1
  6
Continuous
100
AcDbCircle
 10
328.6108189710525
 20
207.4059247596561
 30
0.0
 40
3.0
100
AcDbArc
 50
180.0
 51
225.1209943694974
  0
ARC
  5
D83
330
18
100
AcDbEntity
  8
1
  6
Continuous
100
AcDbCircle
 10
343.2108179710525
 20
202.2546156010741
 30
0.0
 40
2.0
100
AcDbArc
 50
0.0
 51
122.6279555651245
  0
LINE
  5
D91
330
18
100
AcDbEntity
  8
1
  6
Continuous
100
AcDbLine
 10
348.2108064410218
 20
210.1059248362065
 30
0.0
 11
348.2108064410218
 21
207.0059238362063
 31
0.0
  0
ARC
  5
D92
330
18
100
AcDbEntity
  8
1
  6
Continuous
100
AcDbCircle
 10
345.824506739421
 20
201.9470816860291
 30
0.0
 40
3.5
100
AcDbArc
 50
61.19707000000024
 51
89.99999700000229
  0
LINE
  5
D93
330
18
100
AcDbEntity
  8
1
  6
Continuous
100
AcDbLine
 10
345.8289731418458
 20
205.4470788362063
 30
0.0
 11
345.2108179710524
 21
205.4470788362063
 31
0.0
  0
LINE
  5
D94
330
18
100
AcDbEntity
  8
1
  6
Continuous
100
AcDbLine
 10
347.5108014410217
 20
205.0140688362064
 30
0.0
 11
348.2108064410218
 21
207.0059238362063
 31
0.0
  0
LINE
  5
D96
330
18
100
AcDbEntity
  8
1
  6
Continuous
100
AcDbLine
 10
346.4006714410218
 20
210.5389368362065
 30
0.0
 11
344.2108179710524
 21
210.5389368362065
 31
0.0
  0
ARC
  5
D98
330
18
100
AcDbEntity
  8
1
  6
Continuous
100
AcDbCircle
 10
346.4006714410218
 20
206.5389368362064
 30
0.0
 40
4.0
100
AcDbArc
 50
63.09357999999749
 51
89.99999700000229
  0
ARC
  5
D9A
330
18
100
AcDbEntity
  8
1
  6
Continuous
100
AcDbCircle
 10
346.4006714410218
 20
203.4389358362064
 30
0.0
 40
4.0
100
AcDbArc
 50
63.09357999999749
 51
89.99999700000229
  0
LINE
  5
D9B
330
18
100
AcDbEntity
  8
1
  6
Continuous
100
AcDbLine
 10
346.4006714410218
 20
207.4389358362064
 30
0.0
 11
344.2108179710524
 21
207.4389358362064
 31
0.0
  0
ARC
  5
D9E
330
18
100
AcDbEntity
  8
1
  6
Continuous
100
AcDbCircle
 10
350.0108129710524
 20
223.812358405771
 30
0.0
 40
2.0
100
AcDbArc
 50
0.000000000000007
 51
28.44146232457807
  0
LINE
  5
D9F
330
18
100
AcDbEntity
  8
1
  6
Continuous
100
AcDbLine
 10
350.0108209710524
 20
207.0322737596561
 30
0.0
 11
352.0108129710525
 21
207.0322737596561
 31
0.0
  0
LINE
  5
DA0
330
18
100
AcDbEntity
  8
1
  6
Continuous
100
AcDbLine
 10
345.2108179710524
 20
205.4470788362063
 30
0.0
 11
345.2108179710524
 21
197.6480577596561
 31
0.0
  0
LINE
  5
E86
330
18
100
AcDbEntity
  8
1
  6
Continuous
100
AcDbLine
 10
211.38911616638
 20
93.06970066463668
 30
0.0
 11
233.5157855952114
 21
93.06970066463668
 31
0.0
  0
LINE
  5
E87
330
18
100
AcDbEntity
  8
1
  6
Continuous
100
AcDbLine
 10
211.38911616638
 20
91.06970066463672
 30
0.0
 11
233.5157855952114
 21
91.06970066463672
 31
0.0
  0
LINE
  5
E8F
330
18
100
AcDbEntity
  8
1
  6
Continuous
100
AcDbLine
 10
204.1660832256703
 20
88.66733309010056
 30
0.0
 11
208.9954560966337
 21
92.274445813709
 31
0.0
  0
LINE
  5
E90
330
18
100
AcDbEntity
  8
1
  6
Continuous
100
AcDbLine
 10
205.3629030676475
 20
87.06495290237619
 30
0.0
 11
210.192286131507
 21
90.67207323917285
 31
0.0
  0
LINE
  5
E91
330
18
100
AcDbEntity
  8
1
  6
Continuous
100
AcDbLine
 10
233.5157855952114
 20
93.06970066463668
 30
0.0
 11
233.5157855952114
 21
91.06970066463672
 31
0.0
  0
ARC
  5
E92
330
18
100
AcDbEntity
  8
1
  6
Continuous
100
AcDbCircle
 10
232.9069087676076
 20
96.86449448592981
 30
0.0
 40
5.826694296296091
100
AcDbArc
 50
275.9982343629634
 51
337.8254363469189
  0
ARC
  5
E94
330
18
100
AcDbEntity
  8
1
  6
Continuous
100
AcDbCircle
 10
211.38911616638
 20
89.06970066463671
 30
0.0
 40
2.0
100
AcDbArc
 50
89.99999999999996
 51
126.7564657703061
  0
ARC
  5
E95
330
18
100
AcDbEntity
  8
1
  6
Continuous
100
AcDbCircle
 10
202.9692531907971
 20
90.26970566463672
 30
0.0
 40
2.0
100
AcDbArc
 50
270.0
 51
306.7564657703059
  0
ARC
  5
E96
330
18
100
AcDbEntity
  8
1
  6
Continuous
100
AcDbCircle
 10
211.38911616638
 20
89.06970066463669
 30
0.0
 40
4.0
100
AcDbArc
 50
89.99999999999996
 51
126.7564657703058
  0
ARC
  5
E97
330
18
100
AcDbEntity
  8
1
  6
Continuous
100
AcDbCircle
 10
202.9692429979013
 20
90.26969805144847
 30
0.0
 40
4.0
100
AcDbArc
 50
269.99999064326
 51
306.7564657703062
  0
LINE
  5
E99
330
18
100
AcDbEntity
  8
1
  6
Continuous
100
AcDbLine
 10
209.6265177505923
 20
87.06495290237619
 30
0.0
 11
214.4559008144516
 21
90.67207323917285
 31
0.0
  0
ARC
  5
E9A
330
18
100
AcDbEntity
  8
1
  6
Continuous
100
AcDbCircle
 10
215.6527308493247
 20
89.06970066463671
 30
0.0
 40
2.0
100
AcDbArc
 50
89.99999999999996
 51
126.7564657703061
  0
ARC
  5
E9B
330
18
100
AcDbEntity
  8
1
  6
Continuous
100
AcDbCircle
 10
207.2328576808459
 20
90.26969805144847
 30
0.0
 40
4.0
100
AcDbArc
 50
269.99999064326
 51
306.7564657703062
  0
ARC
  5
E9F
330
18
100
AcDbEntity
  8
1
  6
Continuous
100
AcDbCircle
 10
198.3883278029784
 20
100.106749626009
 30
0.0
 40
5.0
100
AcDbArc
 50
274.0247055038916
 51
304.0881400964648
  0
ARC
  5
EC3
330
18
100
AcDbEntity
  8
1
  6
Continuous
100
AcDbCircle
 10
169.8307833614231
 20
85.65603494849353
 30
0.0
 40
3.5
100
AcDbArc
 50
331.1970679999987
 51
359.9999970000006
  0
LINE
  5
EC4
330
18
100
AcDbEntity
  8
1
  6
Continuous
100
AcDbLine
 10
173.3307833614231
 20
85.65603494849353
 30
0.0
 11
173.3307833614231
 21
86.26970494849356
 31
0.0
  0
LINE
  5
EC5
330
18
100
AcDbEntity
  8
1
  6
Continuous
100
AcDbLine
 10
172.8977704527375
 20
83.96974013983458
 30
0.0
 11
173.8977840478467
 21
83.26970497093602
 31
0.0
  0
LINE
  5
EC6
330
18
100
AcDbEntity
  8
1
  6
Continuous
100
AcDbLine
 10
177.834098049581
 20
83.96975019292641
 30
0.0
 11
172.8977704527375
 21
83.96974013983458
 31
0.0
  0
LINE
  5
ECA
330
18
100
AcDbEntity
  8
1
  6
Continuous
100
AcDbLine
 10
230.4492209741002
 20
89.87985068707915
 30
0.0
 11
230.4492209741002
 21
91.06969797432428
 31
0.0
  0
ARC
  5
ECB
330
18
100
AcDbEntity
  8
1
  6
Continuous
100
AcDbCircle
 10
225.9492212876767
 20
90.45603066463668
 30
0.0
 40
3.5
100
AcDbArc
 50
331.1970679999987
 51
359.9999970000006
  0
LINE
  5
ECC
330
18
100
AcDbEntity
  8
1
  6
Continuous
100
AcDbLine
 10
229.4492212876766
 20
90.45603066463668
 30
0.0
 11
229.4492212876766
 21
91.06970066463672
 31
0.0
  0
ARC
  5
ECD
330
18
100
AcDbEntity
  8
1
  6
Continuous
100
AcDbCircle
 10
220.7438537580103
 20
90.45603152771333
 30
0.0
 40
3.5
100
AcDbArc
 50
331.1970679999987
 51
359.9999970000006
  0
LINE
  5
ECE
330
18
100
AcDbEntity
  8
1
  6
Continuous
100
AcDbLine
 10
224.2438537580103
 20
90.45603152771333
 30
0.0
 11
224.2438537580103
 21
91.06970152771332
 31
0.0
  0
LINE
  5
ECF
330
18
100
AcDbEntity
  8
1
  6
Continuous
100
AcDbLine
 10
229.0162083789911
 20
88.76973585597772
 30
0.0
 11
230.0162219741002
 21
88.06970068707917
 31
0.0
  0
ARC
  5
ED0
330
18
100
AcDbEntity
  8
1
  6
Continuous
100
AcDbCircle
 10
226.4492209741002
 20
89.87985068707915
 30
0.0
 40
4.0
100
AcDbArc
 50
333.0935800000011
 51
359.9999969999998
  0
LINE
  5
ED1
330
18
100
AcDbEntity
  8
1
  6
Continuous
100
AcDbLine
 10
229.0162083789911
 20
88.76973585597772
 30
0.0
 11
223.8108408493248
 21
88.76973671905437
 31
0.0
  0
LINE
  5
ED2
330
18
100
AcDbEntity
  8
1
  6
Continuous
100
AcDbLine
 10
230.0162055974874
 20
88.06971215112827
 30
0.0
 11
224.8108544444338
 21
88.06970155015577
 31
0.0
  0
LINE
  5
ED3
330
18
100
AcDbEntity
  8
1
  6
Continuous
100
AcDbLine
 10
223.8108408493248
 20
88.76973671905437
 30
0.0
 11
224.8108544444338
 21
88.06970155015577
 31
0.0
  0
ARC
  5
ED4
330
18
100
AcDbEntity
  8
1
  6
Continuous
100
AcDbCircle
 10
223.8108408493244
 20
68.26970566463629
 30
0.0
 40
22.50000000000085
100
AcDbArc
 50
88.89727360582069
 51
128.7704510954499
  0
ARC
  5
ED7
330
18
100
AcDbEntity
  8
1
  6
Continuous
100
AcDbCircle
 10
198.9906296818679
 20
86.39324092183816
 30
0.0
 40
5.0
100
AcDbArc
 50
23.24733676732664
 51
76.59413100399222
  0
ARC
  5
ED8
330
18
100
AcDbEntity
  8
1
  6
Continuous
100
AcDbCircle
 10
184.6310520167815
 20
86.39324092183816
 30
0.0
 40
5.0
100
AcDbArc
 50
103.4059041477793
 51
157.957580000001
  0
ARC
  5
ED9
330
18
100
AcDbEntity
  8
1
  6
Continuous
100
AcDbCircle
 10
198.1172077487295
 20
86.4681469069804
 30
0.0
 40
5.417044060523308
100
AcDbArc
 50
127.992361027272
 51
160.5750222989692
  0
ARC
  5
EDA
330
18
100
AcDbEntity
  8
1
  6
Continuous
100
AcDbCircle
 10
185.567034894925
 20
87.70726045340657
 30
0.0
 40
4.295112411456289
100
AcDbArc
 50
7.524495861045197
 51
44.2252073674269
  0
ARC
  5
106A
330
18
100
AcDbEntity
  8
1
  6
Continuous
100
AcDbCircle
 10
226.3694922567328
 20
99.06366203143228
 30
0.0
 40
11.65338859259217
100
AcDbArc
 50
356.8446313711596
 51
87.19226147825708
  0
ARC
  5
106D
330
18
100
AcDbEntity
  8
1
  6
Continuous
100
AcDbCircle
 10
232.1873529594728
 20
98.74293899514901
 30
0.0
 40
5.826694296296088
100
AcDbArc
 50
283.1788099599396
 51
356.8446313711596
  0
LINE
  5
106E
330
18
100
AcDbEntity
  8
1
  6
Continuous
100
AcDbLine
 10
205.5204511423768
 20
97.39604603443888
 30
0.0
 11
205.5204511423768
 21
91.1789256664726
 31
0.0
  0
ARC
  5
108B
330
18
100
AcDbEntity
  8
1
  6
Continuous
100
AcDbCircle
 10
342.7108179710525
 20
201.9896025452882
 30
0.0
 40
0.5
100
AcDbArc
 50
0.0
 51
124.2118071750934
  0
LINE
  5
1090
330
18
100
AcDbEntity
  8
1
  6
Continuous
100
AcDbLine
 10
345.2108179710524
 20
205.4470788362063
 30
0.0
 11
344.2108179710524
 21
207.4389358362064
 31
0.0
  0
LINE
  5
10BE
330
18
100
AcDbEntity
  8
1
  6
Continuous
100
AcDbLine
 10
185.1108408493246
 20
46.26972364463617
 30
0.0
 11
198.5108408493245
 21
46.26972364463617
 31
0.0
  0
ARC
  5
10BF
330
18
100
AcDbEntity
  8
1
  6
Continuous
100
AcDbCircle
 10
187.4789908493246
 20
48.76972364463618
 30
0.0
 40
1.5
100
AcDbArc
 50
90.00000299999769
 51
180.000010000001
  0
ARC
  5
10C0
330
18
100
AcDbEntity
  8
1
  6
Continuous
100
AcDbCircle
 10
187.4789908493246
 20
47.76972364463595
 30
0.0
 40
1.5
100
AcDbArc
 50
179.9999899999988
 51
270.0
  0
LINE
  5
10C1
330
18
100
AcDbEntity
  8
1
  6
Continuous
100
AcDbLine
 10
185.9789908493246
 20
47.76972364463595
 30
0.0
 11
185.9789908493246
 21
48.76972364463618
 31
0.0
  0
LINE
  5
10C2
330
18
100
AcDbEntity
  8
1
  6
Continuous
100
AcDbLine
 10
184.8108408493246
 20
46.5697236446359
 30
0.0
 11
184.8108408493246
 21
49.96971364463603
 31
0.0
  0
ARC
  5
10C3
330
18
100
AcDbEntity
  8
1
  6
Continuous
100
AcDbCircle
 10
185.1108408493246
 20
46.5697236446359
 30
0.0
 40
0.30000001
100
AcDbArc
 50
179.9999899999988
 51
270.0
  0
ARC
  5
10C4
330
18
100
AcDbEntity
  8
1
  6
Continuous
100
AcDbCircle
 10
185.1108408493246
 20
49.96971364463603
 30
0.0
 40
0.30000001
100
AcDbArc
 50
90.00000299999769
 51
180.000010000001
  0
ARC
  5
10C5
330
18
100
AcDbEntity
  8
1
  6
Continuous
100
AcDbCircle
 10
198.5108408493245
 20
49.96971364463603
 30
0.0
 40
0.30000001
100
AcDbArc
 50
0.0
 51
90.00000299999769
  0
ARC
  5
10C6
330
18
100
AcDbEntity
  8
1
  6
Continuous
100
AcDbCircle
 10
196.1426908493246
 20
48.76972364463618
 30
0.0
 40
1.5
100
AcDbArc
 50
0.0
 51
90.00000299999769
  0
ARC
  5
10C7
330
18
100
AcDbEntity
  8
1
  6
Continuous
100
AcDbCircle
 10
198.5108408493245
 20
46.5697236446359
 30
0.0
 40
0.30000001
100
AcDbArc
 50
270.0
 51
0.0
  0
ARC
  5
10C8
330
18
100
AcDbEntity
  8
1
  6
Continuous
100
AcDbCircle
 10
196.1426908493246
 20
47.76972364463595
 30
0.0
 40
1.5
100
AcDbArc
 50
270.0
 51
0.0
  0
LINE
  5
10C9
330
18
100
AcDbEntity
  8
1
  6
Continuous
100
AcDbLine
 10
198.8108408493246
 20
46.5697236446359
 30
0.0
 11
198.8108408493246
 21
49.96971364463603
 31
0.0
  0
LINE
  5
10CA
330
18
100
AcDbEntity
  8
1
  6
Continuous
100
AcDbLine
 10
197.6426908493246
 20
47.76972364463595
 30
0.0
 11
197.6426908493246
 21
48.76972364463618
 31
0.0
  0
ARC
  5
10CB
330
18
100
AcDbEntity
  8
1
  6
Continuous
100
AcDbCircle
 10
194.4789908493246
 20
48.76972364463618
 30
0.0
 40
1.5
100
AcDbArc
 50
90.00000299999769
 51
180.000010000001
  0
ARC
  5
10CC
330
18
100
AcDbEntity
  8
1
  6
Continuous
100
AcDbCircle
 10
189.1426908493246
 20
48.76972364463618
 30
0.0
 40
1.5
100
AcDbArc
 50
0.0
 51
90.00000299999769
  0
ARC
  5
10CD
330
18
100
AcDbEntity
  8
1
  6
Continuous
100
AcDbCircle
 10
194.4789908493246
 20
47.76972364463595
 30
0.0
 40
1.5
100
AcDbArc
 50
179.9999899999988
 51
270.0
  0
ARC
  5
10CE
330
18
100
AcDbEntity
  8
1
  6
Continuous
100
AcDbCircle
 10
189.1426908493246
 20
47.76972364463595
 30
0.0
 40
1.5
100
AcDbArc
 50
270.0
 51
0.0
  0
LINE
  5
10CF
330
18
100
AcDbEntity
  8
1
  6
Continuous
100
AcDbLine
 10
190.6426908493246
 20
47.76972364463595
 30
0.0
 11
190.6426908493246
 21
48.76972364463618
 31
0.0
  0
LINE
  5
10D0
330
18
100
AcDbEntity
  8
1
  6
Continuous
100
AcDbLine
 10
192.9789908493246
 20
47.76972364463595
 30
0.0
 11
192.9789908493246
 21
48.76972364463618
 31
0.0
  0
LINE
  5
10D2
330
18
100
AcDbEntity
  8
1
  6
Continuous
100
AcDbLine
 10
551.2107850927803
 20
220.4248519596563
 30
0.0
 11
551.2107850927803
 21
215.0396897596561
 31
0.0
  0
CIRCLE
  5
10D3
330
18
100
AcDbEntity
  8
1
  6
Continuous
100
AcDbCircle
 10
544.2107850927802
 20
217.7322707596561
 30
0.0
 40
2.299999999999998
  0
CIRCLE
  5
10D4
330
18
100
AcDbEntity
  8
1
  6
Continuous
100
AcDbCircle
 10
544.2107850927802
 20
217.7322707596561
 30
0.0
 40
6.3000002
  0
LINE
  5
10D5
330
18
100
AcDbEntity
  8
1
  6
Continuous
100
AcDbLine
 10
537.2107850927801
 20
220.4248519596563
 30
0.0
 11
537.2107850927801
 21
215.0396897596561
 31
0.0
  0
LINE
  5
10D7
330
18
100
AcDbEntity
  8
1
  6
Continuous
100
AcDbLine
 10
538.3789350927801
 20
213.0163717596563
 30
0.0
 11
543.0426150927801
 21
210.3237907596563
 31
0.0
  0
ARC
  5
10D8
330
18
100
AcDbEntity
  8
1
  6
Continuous
100
AcDbCircle
 10
544.2107850927802
 20
217.7322707596561
 30
0.0
 40
7.5
100
AcDbArc
 50
201.0394399999987
 51
218.9605299999999
  0
ARC
  5
10D9
330
18
100
AcDbEntity
  8
1
  6
Continuous
100
AcDbCircle
 10
544.2107850927802
 20
217.7322707596561
 30
0.0
 40
7.5
100
AcDbArc
 50
321.039440000005
 51
338.9605399999993
  0
ARC
  5
10DA
330
18
100
AcDbEntity
  8
1
  6
Continuous
100
AcDbCircle
 10
544.2107850927802
 20
217.7322707596561
 30
0.0
 40
7.5
100
AcDbArc
 50
261.0394499999967
 51
278.960560000004
  0
LINE
  5
10DB
330
18
100
AcDbEntity
  8
1
  6
Continuous
100
AcDbLine
 10
545.3789550927801
 20
210.3237907596563
 30
0.0
 11
550.0426350927803
 21
213.0163717596563
 31
0.0
  0
LINE
  5
10DC
330
18
100
AcDbEntity
  8
1
  6
Continuous
100
AcDbLine
 10
538.3789350927801
 20
222.4481396596562
 30
0.0
 11
543.0426350927803
 21
225.1407285596563
 31
0.0
  0
ARC
  5
10DD
330
18
100
AcDbEntity
  8
1
  6
Continuous
100
AcDbCircle
 10
544.2107850927802
 20
217.7322707596561
 30
0.0
 40
7.5
100
AcDbArc
 50
141.0395299999985
 51
158.9605600000011
  0
ARC
  5
10DE
330
18
100
AcDbEntity
  8
1
  6
Continuous
100
AcDbCircle
 10
544.2107850927802
 20
217.7322707596561
 30
0.0
 40
7.5
100
AcDbArc
 50
21.03946000000068
 51
38.96051600000428
  0
ARC
  5
10DF
330
18
100
AcDbEntity
  8
1
  6
Continuous
100
AcDbCircle
 10
544.2107850927802
 20
217.7322707596561
 30
0.0
 40
7.5
100
AcDbArc
 50
81.03948400000563
 51
98.96051399999706
  0
LINE
  5
10E0
330
18
100
AcDbEntity
  8
1
  6
Continuous
100
AcDbLine
 10
545.3789350927801
 20
225.140741359656
 30
0.0
 11
550.0426350927803
 21
222.4481602596564
 31
0.0
  0
CIRCLE
  5
113E
330
18
100
AcDbEntity
  8
1
  6
Continuous
100
AcDbCircle
 10
191.8108408493249
 20
217.7322707596561
 30
0.0
 40
8.5
  0
LINE
  5
113F
330
18
100
AcDbEntity
  8
1
  6
Continuous
100
AcDbLine
 10
184.8826334493247
 20
217.7322517596561
 30
0.0
 11
188.3467330493248
 21
211.7322557596561
 31
0.0
  0
LINE
  5
1140
330
18
100
AcDbEntity
  8
1
  6
Continuous
100
AcDbLine
 10
184.8826344493246
 20
217.7322787596561
 30
0.0
 11
188.3467347493248
 21
223.732274759656
 31
0.0
  0
CIRCLE
  5
1141
330
18
100
AcDbEntity
  8
1
  6
Continuous
100
AcDbCircle
 10
191.8108408493249
 20
217.7322707596561
 30
0.0
 40
6.0
  0
LINE
  5
1144
330
18
100
AcDbEntity
  8
1
  6
Continuous
100
AcDbLine
 10
195.2749404493246
 20
211.7322787596561
 30
0.0
 11
198.7390406493248
 21
217.732274759656
 31
0.0
  0
LINE
  5
1145
330
18
100
AcDbEntity
  8
1
  6
Continuous
100
AcDbLine
 10
195.2749369493248
 20
211.7322707596561
 30
0.0
 11
188.3467447493246
 21
211.7322707596561
 31
0.0
  0
LINE
  5
1146
330
18
100
AcDbEntity
  8
1
  6
Continuous
100
AcDbLine
 10
195.2749369493248
 20
223.7322707596561
 30
0.0
 11
188.3467447493246
 21
223.7322707596561
 31
0.0
  0
LINE
  5
1147
330
18
100
AcDbEntity
  8
1
  6
Continuous
100
AcDbLine
 10
195.2749412493248
 20
223.7322667596561
 30
0.0
 11
198.7390406493248
 21
217.7322667596561
 31
0.0
  0
ARC
  5
114F
330
18
100
AcDbEntity
  8
1
  6
Continuous
100
AcDbCircle
 10
186.6146866493249
 20
360.9698599846756
 30
0.0
 40
2.2750001
100
AcDbArc
 50
238.0677599999984
 51
319.5825629999977
  0
LINE
  5
1150
330
18
100
AcDbEntity
  8
1
  6
Continuous
100
AcDbLine
 10
197.8108394294521
 20
358.6948603546756
 30
0.0
 11
185.8108388493246
 21
358.6948603546756
 31
0.0
  0
LINE
  5
1152
330
18
100
AcDbEntity
  8
1
  6
Continuous
100
AcDbLine
 10
185.2626228165527
 20
359.1673562838226
 30
0.0
 11
185.8108388493246
 21
358.6948598546756
 31
0.0
  0
ARC
  5
115D
330
18
100
AcDbEntity
  8
1
  6
Continuous
100
AcDbCircle
 10
191.8108388493249
 20
366.5948604546755
 30
0.0
 40
7.900000099999997
100
AcDbArc
 50
270.0
 51
296.0078240000015
  0
LINE
  5
115E
330
18
100
AcDbEntity
  8
1
  6
Continuous
100
AcDbLine
 10
188.3467372493248
 20
360.1948331030013
 30
0.0
 11
188.3467372493248
 21
359.4948605546755
 31
0.0
  0
ARC
  5
1160
330
18
100
AcDbEntity
  8
1
  6
Continuous
100
AcDbCircle
 10
191.8108388493249
 20
366.5948604546755
 30
0.0
 40
7.900000099999997
100
AcDbArc
 50
243.9921799999992
 51
270.0
  0
LINE
  5
1161
330
18
100
AcDbEntity
  8
1
  6
Continuous
100
AcDbLine
 10
198.7390419493246
 20
360.1948334697886
 30
0.0
 11
198.7390419493246
 21
359.4948605546755
 31
0.0
  0
LINE
  5
1162
330
18
100
AcDbEntity
  8
1
  6
Continuous
100
AcDbLine
 10
195.2749404493248
 20
360.1948333475261
 30
0.0
 11
195.2749404493248
 21
359.4948605546755
 31
0.0
  0
LINE
  5
1164
330
18
100
AcDbEntity
  8
1
  6
Continuous
100
AcDbLine
 10
198.7390424493247
 20
359.4948599646755
 30
0.0
 11
197.8108388493247
 21
358.6948598546756
 31
0.0
  0
ARC
  5
1165
330
18
100
AcDbEntity
  8
1
  6
Continuous
100
AcDbCircle
 10
197.0069910493249
 20
360.9698599846756
 30
0.0
 40
2.2750001
100
AcDbArc
 50
220.4174400000029
 51
301.9322410000004
  0
LINE
  5
116D
330
18
100
AcDbEntity
  8
1
  6
Continuous
100
AcDbLine
 10
75.57753672759722
 20
223.7322230596561
 30
0.0
 11
75.57753672759722
 21
211.7321867596561
 31
0.0
  0
ARC
  5
116E
330
18
100
AcDbEntity
  8
1
  6
Continuous
100
AcDbCircle
 10
72.29181962759728
 20
217.7322707596561
 30
0.0
 40
4.8142858
100
AcDbArc
 50
148.7155100000006
 51
211.2844999999988
  0
LINE
  5
116F
330
18
100
AcDbEntity
  8
1
  6
Continuous
100
AcDbLine
 10
68.17753662759722
 20
226.2322707596561
 30
0.0
 11
68.17753662759727
 21
209.2322707596561
 31
0.0
  0
ARC
  5
1170
330
18
100
AcDbEntity
  8
1
  6
Continuous
100
AcDbCircle
 10
65.3523812318725
 20
214.7322287596562
 30
0.0
 40
6.025157499999997
100
AcDbArc
 50
330.1375650387551
 51
29.86243400000025
  0
ARC
  5
1171
330
18
100
AcDbEntity
  8
1
  6
Continuous
100
AcDbCircle
 10
69.55237982759725
 20
214.7322287596562
 30
0.0
 40
6.025157499999997
100
AcDbArc
 50
330.1375700000016
 51
29.86243400000025
  0
LINE
  5
1174
330
18
100
AcDbEntity
  8
1
  6
Continuous
100
AcDbLine
 10
69.57753672759722
 20
209.2322707596561
 30
0.0
 11
69.57753672759722
 21
226.2322707596561
 31
0.0
  0
LINE
  5
1175
330
18
100
AcDbEntity
  8
1
  6
Continuous
100
AcDbLine
 10
70.57753873170461
 20
211.7321867596561
 30
0.0
 11
75.57753672759722
 21
211.7321867596561
 31
0.0
  0
ARC
  5
1176
330
18
100
AcDbEntity
  8
1
  6
Continuous
100
AcDbCircle
 10
68.67753662759716
 20
211.2322707596562
 30
0.0
 40
1.199999999999999
100
AcDbArc
 50
163.2315600000006
 51
218.4535300000006
  0
LINE
  5
1177
330
18
100
AcDbEntity
  8
1
  6
Continuous
100
AcDbLine
 10
68.17753662759727
 20
209.9322697596561
 30
0.0
 11
67.73780062759723
 21
210.4860147596561
 31
0.0
  0
LINE
  5
1178
330
18
100
AcDbEntity
  8
1
  6
Continuous
100
AcDbLine
 10
68.17753662759727
 20
213.7322717596561
 30
0.0
 11
67.52856062759732
 21
211.5784747596562
 31
0.0
  0
LINE
  5
1179
330
18
100
AcDbEntity
  8
1
  6
Continuous
100
AcDbLine
 10
71.16802036448333
 20
211.7321867596561
 30
0.0
 11
69.57753672759722
 21
209.2322707596561
 31
0.0
  0
LINE
  5
117A
330
18
100
AcDbEntity
  8
1
  6
Continuous
100
AcDbLine
 10
68.17753662759727
 20
209.2322707596561
 30
0.0
 11
69.57753672759722
 21
209.2322707596561
 31
0.0
  0
LINE
  5
117E
330
18
100
AcDbEntity
  8
1
  6
Continuous
100
AcDbLine
 10
70.57753715239553
 20
223.7322230596561
 30
0.0
 11
75.57753672759722
 21
223.7322230596561
 31
0.0
  0
LINE
  5
117F
330
18
100
AcDbEntity
  8
1
  6
Continuous
100
AcDbLine
 10
70.57753878203536
 20
217.7322706719938
 30
0.0
 11
74.77753782759724
 21
217.7322707596561
 31
0.0
  0
ARC
  5
1180
330
18
100
AcDbEntity
  8
1
  6
Continuous
100
AcDbCircle
 10
68.67753662759716
 20
224.2322707596561
 30
0.0
 40
1.199999999999999
100
AcDbArc
 50
141.546459999999
 51
196.7684299999995
  0
LINE
  5
1181
330
18
100
AcDbEntity
  8
1
  6
Continuous
100
AcDbLine
 10
68.17753662759727
 20
225.5322733896561
 30
0.0
 11
67.73780062759723
 21
224.9785284596562
 31
0.0
  0
LINE
  5
1182
330
18
100
AcDbEntity
  8
1
  6
Continuous
100
AcDbLine
 10
68.17753662759727
 20
221.7322717596561
 30
0.0
 11
67.52856262759721
 21
223.8860652596561
 31
0.0
  0
ARC
  5
1183
330
18
100
AcDbEntity
  8
1
  6
Continuous
100
AcDbCircle
 10
65.35262623187245
 20
220.7322478596561
 30
0.0
 40
6.0249104
100
AcDbArc
 50
330.1369399999984
 51
29.86305163530118
  0
LINE
  5
1184
330
18
100
AcDbEntity
  8
1
  6
Continuous
100
AcDbLine
 10
71.16810415397655
 20
223.7322230596561
 30
0.0
 11
69.57753672759722
 21
226.2322707596561
 31
0.0
  0
LINE
  5
1185
330
18
100
AcDbEntity
  8
1
  6
Continuous
100
AcDbLine
 10
68.17753662759727
 20
226.2322707596561
 30
0.0
 11
69.57753672759722
 21
226.2322707596561
 31
0.0
  0
ARC
  5
1186
330
18
100
AcDbEntity
  8
1
  6
Continuous
100
AcDbCircle
 10
69.55262782759721
 20
220.7322478596561
 30
0.0
 40
6.0249104
100
AcDbArc
 50
330.1369399999984
 51
29.86306199999791
  0
LINE
  5
118A
330
18
100
AcDbEntity
  8
1
  6
Continuous
100
AcDbLine
 10
195.2749404493248
 20
93.7696811646367
 30
0.0
 11
195.2749404493248
 21
97.96968096463672
 31
0.0
  0
LINE
  5
118B
330
18
100
AcDbEntity
  8
1
  6
Continuous
100
AcDbLine
 10
198.7390419493246
 20
93.7696811646367
 30
0.0
 11
198.7390419493246
 21
97.96968096463672
 31
0.0
  0
LINE
  5
118C
330
18
100
AcDbEntity
  8
1
  6
Continuous
100
AcDbLine
 10
188.3467372493248
 20
93.7696811646367
 30
0.0
 11
188.3467372493248
 21
97.96968096463672
 31
0.0
  0
LINE
  5
118D
330
18
100
AcDbEntity
  8
1
  6
Continuous
100
AcDbLine
 10
184.8826357493248
 20
93.7696811646367
 30
0.0
 11
184.8826357493248
 21
97.96968096463672
 31
0.0
  0
ARC
  5
118F
330
18
100
AcDbEntity
  8
1
  6
Continuous
100
AcDbCircle
 10
191.8108388493249
 20
90.86968106463681
 30
0.0
 40
7.900000099999997
100
AcDbArc
 50
63.99217599999848
 51
90.00000000000005
  0
LINE
  5
1192
330
18
100
AcDbEntity
  8
1
  6
Continuous
100
AcDbLine
 10
197.8108394294521
 20
98.76968116463677
 30
0.0
 11
185.8108388493246
 21
98.76968116463672
 31
0.0
  0
LINE
  5
1193
330
18
100
AcDbEntity
  8
1
  6
Continuous
100
AcDbLine
 10
184.8826352493249
 20
97.96968155463673
 30
0.0
 11
185.8108388493246
 21
98.76968166463676
 31
0.0
  0
ARC
  5
1194
330
18
100
AcDbEntity
  8
1
  6
Continuous
100
AcDbCircle
 10
186.6146866493249
 20
96.49468153463672
 30
0.0
 40
2.2750001
100
AcDbArc
 50
40.4174370000024
 51
121.9322400000015
  0
ARC
  5
1195
330
18
100
AcDbEntity
  8
1
  6
Continuous
100
AcDbCircle
 10
191.8108388493249
 20
90.86968106463681
 30
0.0
 40
7.900000099999997
100
AcDbArc
 50
90.00000000000005
 51
116.0078200000007
  0
ARC
  5
1199
330
18
100
AcDbEntity
  8
1
  6
Continuous
100
AcDbCircle
 10
197.0069910493249
 20
96.49468153463672
 30
0.0
 40
2.2750001
100
AcDbArc
 50
58.06775899999952
 51
139.582559999997
  0
LINE
  5
119A
330
18
100
AcDbEntity
  8
1
  6
Continuous
100
AcDbLine
 10
198.7390424493247
 20
97.96968155463673
 30
0.0
 11
197.8108388493247
 21
98.76968166463676
 31
0.0
  0
ARC
  5
119E
330
18
100
AcDbEntity
  8
1
  6
Continuous
100
AcDbCircle
 10
195.5608388493249
 20
94.57736936463678
 30
0.0
 40
3.9181328
100
AcDbArc
 50
234.9526599999992
 51
305.0473499999986
  0
ARC
  5
119F
330
18
100
AcDbEntity
  8
1
  6
Continuous
100
AcDbCircle
 10
191.8108388493249
 20
86.66968126463682
 30
0.0
 40
7.900000099999997
100
AcDbArc
 50
63.99217599999848
 51
90.00000000000005
  0
LINE
  5
11A0
330
18
100
AcDbEntity
  8
1
  6
Continuous
100
AcDbLine
 10
183.3108388493247
 20
91.36968106463672
 30
0.0
 11
200.3108388493247
 21
91.36968106463672
 31
0.0
  0
LINE
  5
11A1
330
18
100
AcDbEntity
  8
1
  6
Continuous
100
AcDbLine
 10
183.3108388493247
 20
92.76968116463676
 30
0.0
 11
200.3108388493247
 21
92.76968116463669
 31
0.0
  0
LINE
  5
11A2
330
18
100
AcDbEntity
  8
1
  6
Continuous
100
AcDbLine
 10
184.3108388493248
 20
90.66968076463671
 30
0.0
 11
186.1170169493249
 21
91.17541096463673
 31
0.0
  0
ARC
  5
11A3
330
18
100
AcDbEntity
  8
1
  6
Continuous
100
AcDbCircle
 10
186.6146866493249
 20
92.29468126463681
 30
0.0
 40
2.2750001
100
AcDbArc
 50
40.4174370000024
 51
139.582559999997
  0
LINE
  5
11A4
330
18
100
AcDbEntity
  8
1
  6
Continuous
100
AcDbLine
 10
183.3108388493247
 20
91.36968156463669
 30
0.0
 11
184.3108388493248
 21
90.66968176463669
 31
0.0
  0
LINE
  5
11A5
330
18
100
AcDbEntity
  8
1
  6
Continuous
100
AcDbLine
 10
184.8826357493248
 20
93.76968166463672
 30
0.0
 11
183.3108388493247
 21
92.76968116463669
 31
0.0
  0
LINE
  5
11A6
330
18
100
AcDbEntity
  8
1
  6
Continuous
100
AcDbLine
 10
183.3108388493247
 20
91.36968106463672
 30
0.0
 11
183.3108388493247
 21
92.76968116463669
 31
0.0
  0
ARC
  5
11A7
330
18
100
AcDbEntity
  8
1
  6
Continuous
100
AcDbCircle
 10
188.060838849325
 20
94.57736936463678
 30
0.0
 40
3.9181328
100
AcDbArc
 50
234.9526599999992
 51
305.0473499999986
  0
ARC
  5
11A8
330
18
100
AcDbEntity
  8
1
  6
Continuous
100
AcDbCircle
 10
191.8108388493249
 20
86.66968126463682
 30
0.0
 40
7.900000099999997
100
AcDbArc
 50
90.00000000000005
 51
116.0078200000007
  0
LINE
  5
11A9
330
18
100
AcDbEntity
  8
1
  6
Continuous
100
AcDbLine
 10
200.3108388493247
 20
91.36968106463672
 30
0.0
 11
200.3108388493247
 21
92.76968116463669
 31
0.0
  0
LINE
  5
11AA
330
18
100
AcDbEntity
  8
1
  6
Continuous
100
AcDbLine
 10
199.3108388493246
 20
90.66968076463671
 30
0.0
 11
197.5046607493246
 21
91.17541096463673
 31
0.0
  0
ARC
  5
11AB
330
18
100
AcDbEntity
  8
1
  6
Continuous
100
AcDbCircle
 10
197.0069910493249
 20
92.29468126463681
 30
0.0
 40
2.2750001
100
AcDbArc
 50
40.4174370000024
 51
139.582559999997
  0
LINE
  5
11AC
330
18
100
AcDbEntity
  8
1
  6
Continuous
100
AcDbLine
 10
200.3108388493247
 20
91.36968156463669
 30
0.0
 11
199.3108388493246
 21
90.66968176463669
 31
0.0
  0
LINE
  5
11AD
330
18
100
AcDbEntity
  8
1
  6
Continuous
100
AcDbLine
 10
198.7390419493246
 20
93.76968166463672
 30
0.0
 11
200.3108388493247
 21
92.76968116463669
 31
0.0
  0
ARC
  5
131B
330
18
100
AcDbEntity
  8
1
  6
Continuous
100
AcDbCircle
 10
143.9269828493245
 20
79.26970566463672
 30
0.0
 40
1.5
100
AcDbArc
 50
90.0
 51
173.5881600000009
  0
ARC
  5
131C
330
18
100
AcDbEntity
  8
1
  6
Continuous
100
AcDbCircle
 10
239.6946988493247
 20
79.26970566463672
 30
0.0
 40
1.5
100
AcDbArc
 50
6.411839999998949
 51
90.0
  0
LINE
  5
1325
330
18
100
AcDbEntity
  8
1
  6
Continuous
100
AcDbLine
 10
239.6946988493247
 20
55.76970566463671
 30
0.0
 11
143.9269818021271
 21
55.76970566463671
 31
0.0
  0
ARC
  5
1327
330
18
100
AcDbEntity
  8
1
  6
Continuous
100
AcDbCircle
 10
239.6946988493247
 20
57.26970566463672
 30
0.0
 40
1.5
100
AcDbArc
 50
270.0000399999991
 51
353.5881900000018
  0
ARC
  5
1328
330
18
100
AcDbEntity
  8
1
  6
Continuous
100
AcDbCircle
 10
141.8108408493246
 20
68.2697056646367
 30
0.0
 40
100.0
100
AcDbArc
 50
353.5881500000002
 51
0.0000199999987771
  0
ARC
  5
1329
330
18
100
AcDbEntity
  8
1
  6
Continuous
100
AcDbCircle
 10
141.8108408493246
 20
68.2697056646367
 30
0.0
 40
100.0
100
AcDbArc
 50
0.0000199999987771
 51
6.411890000001008
  0
LINE
  5
132D
330
18
100
AcDbEntity
  8
1
  6
Continuous
100
AcDbLine
 10
176.8108411983905
 20
53.26970566463671
 30
0.0
 11
206.8108408493246
 21
53.26970566463671
 31
0.0
  0
LINE
  5
1330
330
18
100
AcDbEntity
  8
1
  6
Continuous
100
AcDbLine
 10
209.4446378493246
 20
55.76970566463671
 30
0.0
 11
208.5251278493247
 21
54.23954666463669
 31
0.0
  0
ARC
  5
1331
330
18
100
AcDbEntity
  8
1
  6
Continuous
100
AcDbCircle
 10
206.8108408493246
 20
55.26970566463674
 30
0.0
 40
2.0
100
AcDbArc
 50
270.0000499999985
 51
328.9972800000013
  0
LINE
  5
1341
330
18
100
AcDbEntity
  8
1
  6
Continuous
100
AcDbLine
 10
195.8108408493246
 20
53.26970566463671
 30
0.0
 11
195.8108408493246
 21
52.26969766463675
 31
0.0
  0
LINE
  5
1342
330
18
100
AcDbEntity
  8
1
  6
Continuous
100
AcDbLine
 10
187.8108408493248
 20
53.26970566463671
 30
0.0
 11
187.8108408493248
 21
52.26969766463675
 31
0.0
  0
LINE
  5
1346
330
18
100
AcDbEntity
  8
1
  6
Continuous
100
AcDbLine
 10
174.1770438493246
 20
55.76970566463671
 30
0.0
 11
175.0965558493247
 21
54.23954666463669
 31
0.0
  0
ARC
  5
1347
330
18
100
AcDbEntity
  8
1
  6
Continuous
100
AcDbCircle
 10
176.8108408493246
 20
55.26970566463674
 30
0.0
 40
2.0
100
AcDbArc
 50
211.0027700000028
 51
270.0000099999992
  0
ARC
  5
134E
330
18
100
AcDbEntity
  8
1
  6
Continuous
100
AcDbCircle
 10
241.8108408493246
 20
68.2697056646367
 30
0.0
 40
100.0
100
AcDbArc
 50
179.9999799999978
 51
186.4118499999997
  0
ARC
  5
1350
330
18
100
AcDbEntity
  8
1
  6
Continuous
100
AcDbCircle
 10
143.9269828493245
 20
57.26970566463674
 30
0.0
 40
1.5
100
AcDbArc
 50
186.4118099999981
 51
269.9999599999991
  0
ARC
  5
1352
330
18
100
AcDbEntity
  8
1
  6
Continuous
100
AcDbCircle
 10
241.8108408493246
 20
68.2697056646367
 30
0.0
 40
100.0
100
AcDbArc
 50
173.5881099999988
 51
179.9999799999978
  0
LINE
  5
1363
330
18
100
AcDbEntity
  8
1
  6
Continuous
100
AcDbLine
 10
239.6946988493247
 20
80.76970566463669
 30
0.0
 11
143.9269828493246
 21
80.76970566463669
 31
0.0
  0
LINE
  5
1364
330
18
100
AcDbEntity
  8
1
  6
Continuous
100
AcDbLine
 10
547.2107350927804
 20
177.173511759656
 30
0.0
 11
547.2107350927804
 21
200.3555416550322
 31
0.0
  0
LINE
  5
1365
330
18
100
AcDbEntity
  8
1
  6
Continuous
100
AcDbLine
 10
577.8355120927804
 20
194.8547337596561
 30
0.0
 11
557.7592850401304
 21
206.4457496024039
 31
0.0
  0
ARC
  5
1366
330
18
100
AcDbEntity
  8
1
  6
Continuous
100
AcDbCircle
 10
576.3355120927804
 20
192.2566587596561
 30
0.0
 40
3.0
100
AcDbArc
 50
321.5850300000013
 51
60.00000000000024
  0
ARC
  5
1367
330
18
100
AcDbEntity
  8
1
  6
Continuous
100
AcDbCircle
 10
550.2107350927802
 20
177.173511759656
 30
0.0
 40
3.0
100
AcDbArc
 50
180.0
 51
278.4149700000003
  0
LINE
  5
136C
330
18
100
AcDbEntity
  8
1
  6
Continuous
100
AcDbLine
 10
182.8108408493248
 20
83.26970566463669
 30
0.0
 11
191.8108408493248
 21
83.26970566463669
 31
0.0
  0
LINE
  5
137A
330
18
100
AcDbEntity
  8
1
  6
Continuous
100
AcDbLine
 10
200.8108408493248
 20
83.26970566463669
 30
0.0
 11
191.8108408493248
 21
83.26970566463669
 31
0.0
  0
ARC
  5
1384
330
18
100
AcDbEntity
  8
1
  6
Continuous
100
AcDbCircle
 10
200.8108408493248
 20
82.26970566463672
 30
0.0
 40
1.0
100
AcDbArc
 50
4.253270000000322
 51
90.0
  0
LINE
  5
1385
330
18
100
AcDbEntity
  8
1
  6
Continuous
100
AcDbLine
 10
201.8080866695248
 20
82.34387066463671
 30
0.0
 11
201.9251631493248
 21
80.76970566463669
 31
0.0
  0
LINE
  5
138D
330
18
100
AcDbEntity
  8
1
  6
Continuous
100
AcDbLine
 10
195.8108408493246
 20
83.26970566463669
 30
0.0
 11
195.8108408493246
 21
84.26971366463671
 31
0.0
  0
LINE
  5
138E
330
18
100
AcDbEntity
  8
1
  6
Continuous
100
AcDbLine
 10
187.8108408493248
 20
83.26970566463669
 30
0.0
 11
187.8108408493248
 21
84.26971366463671
 31
0.0
  0
ARC
  5
13A8
330
18
100
AcDbEntity
  8
1
  6
Continuous
100
AcDbCircle
 10
182.8108408493246
 20
82.26970566463672
 30
0.0
 40
1.0
100
AcDbArc
 50
90.0
 51
175.7467299999995
  0
LINE
  5
13A9
330
18
100
AcDbEntity
  8
1
  6
Continuous
100
AcDbLine
 10
181.8135950291248
 20
82.34387066463671
 30
0.0
 11
181.6965185493246
 21
80.76970566463669
 31
0.0
  0
ARC
  5
13D1
330
18
100
AcDbEntity
  8
1
  6
Continuous
100
AcDbCircle
 10
582.3355130927803
 20
202.6489632596561
 30
0.0
 40
3.0
100
AcDbArc
 50
240.0000000000003
 51
338.4149699999998
  0
LINE
  5
13DC
330
18
100
AcDbEntity
  8
1
  6
Continuous
100
AcDbLine
 10
580.8355130927804
 20
200.0508878596561
 30
0.0
 11
560.7592854688091
 21
211.6419026926183
 31
0.0
  0
LINE
  5
13FB
330
18
100
AcDbEntity
  8
1
  6
Continuous
100
AcDbLine
 10
541.2107350927803
 20
177.173511759656
 30
0.0
 11
541.2107350927803
 21
200.3555416550322
 31
0.0
  0
ARC
  5
13FF
330
18
100
AcDbEntity
  8
1
  6
Continuous
100
AcDbCircle
 10
538.2107350927801
 20
177.173511759656
 30
0.0
 40
3.0
100
AcDbArc
 50
261.5850399999993
 51
0.0000100000010134
  0
ARC
  5
1405
330
18
100
AcDbEntity
  8
1
  6
Continuous
100
AcDbCircle
 10
506.0859560927804
 20
232.8152577596561
 30
0.0
 40
3.0
100
AcDbArc
 50
60.00000000000024
 51
158.4149680000013
  0
LINE
  5
141F
330
18
100
AcDbEntity
  8
1
  6
Continuous
100
AcDbLine
 10
507.5859560927804
 20
235.413335759656
 30
0.0
 11
527.6621846158696
 21
223.8223185525729
 31
0.0
  0
LINE
  5
1427
330
18
100
AcDbEntity
  8
1
  6
Continuous
100
AcDbLine
 10
510.5859560927804
 20
240.6094877596562
 30
0.0
 11
522.2131233649147
 21
233.8965393351172
 31
0.0
  0
ARC
  5
142C
330
18
100
AcDbEntity
  8
1
  6
Continuous
100
AcDbCircle
 10
512.0859560927804
 20
243.2075627596562
 30
0.0
 40
3.0
100
AcDbArc
 50
141.5850319999983
 51
240.0000000000003
  0
ARC
  5
1459
330
18
100
AcDbEntity
  8
1
  6
Continuous
100
AcDbCircle
 10
191.8108408493249
 20
217.7322707596561
 30
0.0
 40
50.0
100
AcDbArc
 50
140.9091715885537
 51
47.02966550722432
  0
ARC
  5
145A
330
18
100
AcDbEntity
  8
1
  6
Continuous
100
AcDbCircle
 10
191.8108408493249
 20
217.7322707596561
 30
0.0
 40
44.0
100
AcDbArc
 50
343.002880170933
 51
45.31212060379872
  0
ARC
  5
145B
330
18
100
AcDbEntity
  8
1
  6
Continuous
100
AcDbCircle
 10
229.9356198493248
 20
232.8154177596561
 30
0.0
 40
3.0
100
AcDbArc
 50
21.58503199999866
 51
119.9999999999997
  0
LINE
  5
145C
330
18
100
AcDbEntity
  8
1
  6
Continuous
100
AcDbLine
 10
228.4356198493248
 20
235.4134957596561
 30
0.0
 11
207.5816984373199
 21
223.3734773048094
 31
0.0
  0
ARC
  5
145D
330
18
100
AcDbEntity
  8
1
  6
Continuous
100
AcDbCircle
 10
223.9356198493247
 20
243.2077227596561
 30
0.0
 40
3.0
100
AcDbArc
 50
299.9999999999997
 51
38.41496800000161
  0
LINE
  5
145E
330
18
100
AcDbEntity
  8
1
  6
Continuous
100
AcDbLine
 10
225.4356198493248
 20
240.6096477596562
 30
0.0
 11
213.8084525771905
 21
233.8966993351172
 31
0.0
  0
ARC
  5
145F
330
18
100
AcDbEntity
  8
1
  6
Continuous
100
AcDbCircle
 10
191.8108408493249
 20
217.7322707596561
 30
0.0
 40
50.0
100
AcDbArc
 50
98.10841732317543
 51
138.5799725709245
  0
ARC
  5
1460
330
18
100
AcDbEntity
  8
1
  6
Continuous
100
AcDbCircle
 10
191.8108408493249
 20
217.7322707596561
 30
0.0
 40
44.0
100
AcDbArc
 50
99.82596167038662
 51
136.9971228211704
  0
ARC
  5
1461
330
18
100
AcDbEntity
  8
1
  6
Continuous
100
AcDbCircle
 10
191.8108408493249
 20
217.7322707596561
 30
0.0
 40
44.0
100
AcDbArc
 50
140.2998659169305
 51
340.3006695263761
  0
ARC
  5
1462
330
18
100
AcDbEntity
  8
1
  6
Continuous
100
AcDbCircle
 10
159.6860638493249
 20
243.2077227596561
 30
0.0
 40
3.0
100
AcDbArc
 50
141.5850300000011
 51
191.2288902283993
  0
LINE
  5
1463
330
18
100
AcDbEntity
  8
1
  6
Continuous
100
AcDbLine
 10
155.1860628493249
 20
235.4134937596561
 30
0.0
 11
164.8714241773349
 21
229.8216477276191
 31
0.0
  0
ARC
  5
1464
330
18
100
AcDbEntity
  8
1
  6
Continuous
100
AcDbCircle
 10
153.6860628493249
 20
232.8154177596561
 30
0.0
 40
3.0
100
AcDbArc
 50
60.0000020000013
 51
158.4149699999999
  0
LINE
  5
1465
330
18
100
AcDbEntity
  8
1
  6
Continuous
100
AcDbLine
 10
155.1860628493249
 20
200.0510478596561
 30
0.0
 11
178.6869249935224
 21
213.6192762540955
 31
0.0
  0
LINE
  5
1466
330
18
100
AcDbEntity
  8
1
  6
Continuous
100
AcDbLine
 10
158.1860638493249
 20
194.8548937596561
 30
0.0
 11
182.7996106452059
 21
209.0655325469683
 31
0.0
  0
ARC
  5
1467
330
18
100
AcDbEntity
  8
1
  6
Continuous
100
AcDbCircle
 10
153.6860628493249
 20
202.6491232596561
 30
0.0
 40
3.0
100
AcDbArc
 50
201.58503
 51
299.9999999999997
  0
ARC
  5
1468
330
18
100
AcDbEntity
  8
1
  6
Continuous
100
AcDbCircle
 10
159.6860638493249
 20
192.2568187596561
 30
0.0
 40
3.0
100
AcDbArc
 50
119.9999999999997
 51
218.4149699999986
  0
ARC
  5
1469
330
18
100
AcDbEntity
  8
1
  6
Continuous
100
AcDbCircle
 10
191.8108408493249
 20
217.7322707596561
 30
0.0
 40
16.0
100
AcDbArc
 50
202.8192499999998
 51
217.1807599999993
  0
LINE
  5
146A
330
18
100
AcDbEntity
  8
1
  6
Continuous
100
AcDbLine
 10
179.0631148493249
 20
208.0629655196561
 30
0.0
 11
182.0006699792748
 21
209.7589649131307
 31
0.0
  0
LINE
  5
146B
330
18
100
AcDbEntity
  8
1
  6
Continuous
100
AcDbLine
 10
177.0631148493249
 20
211.5270679596561
 30
0.0
 11
179.263537319332
 21
212.7974833503901
 31
0.0
  0
LINE
  5
146C
330
18
100
AcDbEntity
  8
1
  6
Continuous
100
AcDbLine
 10
188.8108408493249
 20
177.1736717596561
 30
0.0
 11
188.8108408493249
 21
205.594947064701
 31
0.0
  0
LINE
  5
146D
330
18
100
AcDbEntity
  8
1
  6
Continuous
100
AcDbLine
 10
194.8108408493249
 20
177.1736717596561
 30
0.0
 11
194.8108408493249
 21
204.3101285415823
 31
0.0
  0
LINE
  5
146E
330
18
100
AcDbEntity
  8
1
  6
Continuous
100
AcDbLine
 10
225.4356198493248
 20
194.8548927596561
 30
0.0
 11
217.6487319827071
 21
199.3506547774375
 31
0.0
  0
ARC
  5
146F
330
18
100
AcDbEntity
  8
1
  6
Continuous
100
AcDbCircle
 10
223.9356198493247
 20
192.2568187596561
 30
0.0
 40
3.0
100
AcDbArc
 50
321.5850300000011
 51
60.0000020000013
  0
ARC
  5
1470
330
18
100
AcDbEntity
  8
1
  6
Continuous
100
AcDbCircle
 10
229.9356198493248
 20
202.6491232596561
 30
0.0
 40
3.0
100
AcDbArc
 50
262.2809742799421
 51
338.4149699999998
  0
ARC
  5
1471
330
18
100
AcDbEntity
  8
1
  6
Continuous
100
AcDbCircle
 10
197.8108408493246
 20
177.1736717596561
 30
0.0
 40
3.0
100
AcDbArc
 50
179.9999899999988
 51
278.4149600000005
  0
ARC
  5
1472
330
18
100
AcDbEntity
  8
1
  6
Continuous
100
AcDbCircle
 10
185.8108408493249
 20
177.1736717596561
 30
0.0
 40
3.0
100
AcDbArc
 50
261.5850299999995
 51
0.0
  0
ARC
  5
1475
330
18
100
AcDbEntity
  8
1
  6
Continuous
100
AcDbCircle
 10
544.2107350927804
 20
217.7321107596561
 30
0.0
 40
17.63363700000003
100
AcDbArc
 50
157.9710702888743
 51
56.89008451609971
  0
ARC
  5
1476
330
18
100
AcDbEntity
  8
1
  6
Continuous
100
AcDbCircle
 10
544.2107850927802
 20
217.7322707596561
 30
0.0
 40
44.0
100
AcDbArc
 50
134.687877730019
 51
80.17403832961539
  0
ARC
  5
1477
330
18
100
AcDbEntity
  8
1
  6
Continuous
100
AcDbCircle
 10
544.2107850927802
 20
217.7322707596561
 30
0.0
 40
50.0
100
AcDbArc
 50
132.9703344927755
 51
81.89158267682556
  0
ARC
  5
1478
330
18
100
AcDbEntity
  8
1
  6
Continuous
100
AcDbCircle
 10
506.0860570927797
 20
202.6489632596561
 30
0.0
 40
3.0
100
AcDbArc
 50
201.58503
 51
299.9999999999996
  0
ARC
  5
1479
330
18
100
AcDbEntity
  8
1
  6
Continuous
100
AcDbCircle
 10
512.0860580927796
 20
192.2566587596561
 30
0.0
 40
3.0
100
AcDbArc
 50
119.9999999999997
 51
218.4149699999986
  0
LINE
  5
147A
330
18
100
AcDbEntity
  8
1
  6
Continuous
100
AcDbLine
 10
507.5860570927797
 20
200.0508878596561
 30
0.0
 11
527.6622847167508
 21
211.6419026926183
 31
0.0
  0
LINE
  5
147B
330
18
100
AcDbEntity
  8
1
  6
Continuous
100
AcDbLine
 10
510.5860580927797
 20
194.8547337596561
 30
0.0
 11
530.6622851454297
 21
206.4457496024039
 31
0.0
  0
LINE
  5
147C
330
18
100
AcDbEntity
  8
1
  6
Continuous
100
AcDbLine
 10
580.8355140927804
 20
235.413335759656
 30
0.0
 11
560.7592855696911
 21
223.8223185525729
 31
0.0
  0
LINE
  5
147D
330
18
100
AcDbEntity
  8
1
  6
Continuous
100
AcDbLine
 10
577.8355140927804
 20
240.6094877596562
 30
0.0
 11
557.7592855302987
 21
229.0184713284928
 31
0.0
  0
ARC
  5
147E
330
18
100
AcDbEntity
  8
1
  6
Continuous
100
AcDbCircle
 10
576.3355140927804
 20
243.2075627596562
 30
0.0
 40
3.0
100
AcDbArc
 50
299.9999999999996
 51
38.41496800000163
  0
ARC
  5
147F
330
18
100
AcDbEntity
  8
1
  6
Continuous
100
AcDbCircle
 10
582.3355140927803
 20
232.8152577596561
 30
0.0
 40
3.0
100
AcDbArc
 50
21.5850319999987
 51
119.9999999999997
  0
LINE
  5
1480
330
18
100
AcDbEntity
  8
1
  6
Continuous
100
AcDbLine
 10
57.57753872759735
 20
169.848412759656
 30
0.0
 11
57.57753872759735
 21
265.6161287596562
 31
0.0
  0
LINE
  5
1481
330
18
100
AcDbEntity
  8
1
  6
Continuous
100
AcDbLine
 10
32.57753872759735
 20
169.848412759656
 30
0.0
 11
32.57753872759735
 21
265.6161298068536
 31
0.0
  0
ARC
  5
1482
330
18
100
AcDbEntity
  8
1
  6
Continuous
100
AcDbCircle
 10
45.07753872759734
 20
267.7322707596561
 30
0.0
 40
100.0
100
AcDbArc
 50
270.0000199999986
 51
276.4118900000009
  0
ARC
  5
1483
330
18
100
AcDbEntity
  8
1
  6
Continuous
100
AcDbCircle
 10
45.07753872759734
 20
267.7322707596561
 30
0.0
 40
100.0
100
AcDbArc
 50
263.5881500000002
 51
270.0000199999986
  0
ARC
  5
1484
330
18
100
AcDbEntity
  8
1
  6
Continuous
100
AcDbCircle
 10
34.07753872759736
 20
169.848412759656
 30
0.0
 40
1.5
100
AcDbArc
 50
180.000039999999
 51
263.5881900000018
  0
ARC
  5
1485
330
18
100
AcDbEntity
  8
1
  6
Continuous
100
AcDbCircle
 10
56.07753872759736
 20
169.848412759656
 30
0.0
 40
1.5
100
AcDbArc
 50
276.4118399999988
 51
0.0
  0
ARC
  5
1486
330
18
100
AcDbEntity
  8
1
  6
Continuous
100
AcDbCircle
 10
45.07753872759734
 20
167.732270759656
 30
0.0
 40
100.0
100
AcDbArc
 50
83.58810999999894
 51
89.99997999999797
  0
LINE
  5
1487
330
18
100
AcDbEntity
  8
1
  6
Continuous
100
AcDbLine
 10
30.07753872759735
 20
232.7322704105901
 30
0.0
 11
30.07753872759735
 21
202.7322707596561
 31
0.0
  0
ARC
  5
1488
330
18
100
AcDbEntity
  8
1
  6
Continuous
100
AcDbCircle
 10
32.07753872759735
 20
202.7322707596561
 30
0.0
 40
2.0
100
AcDbArc
 50
180.0000499999983
 51
238.9972800000013
  0
LINE
  5
1489
330
18
100
AcDbEntity
  8
1
  6
Continuous
100
AcDbLine
 10
32.57753872759735
 20
200.0984737596561
 30
0.0
 11
31.04737972759732
 21
201.0179837596561
 31
0.0
  0
LINE
  5
148A
330
18
100
AcDbEntity
  8
1
  6
Continuous
100
AcDbLine
 10
30.07753872759735
 20
221.7322707596561
 30
0.0
 11
29.07753072759737
 21
221.7322707596561
 31
0.0
  0
LINE
  5
148B
330
18
100
AcDbEntity
  8
1
  6
Continuous
100
AcDbLine
 10
30.07753872759735
 20
213.7322707596561
 30
0.0
 11
29.07753072759737
 21
213.7322707596561
 31
0.0
  0
ARC
  5
148C
330
18
100
AcDbEntity
  8
1
  6
Continuous
100
AcDbCircle
 10
32.07753872759735
 20
232.7322707596561
 30
0.0
 40
2.0
100
AcDbArc
 50
121.0027700000027
 51
180.0000099999993
  0
LINE
  5
148D
330
18
100
AcDbEntity
  8
1
  6
Continuous
100
AcDbLine
 10
32.57753872759735
 20
235.3660677596561
 30
0.0
 11
31.04737972759732
 21
234.446555759656
 31
0.0
  0
ARC
  5
148E
330
18
100
AcDbEntity
  8
1
  6
Continuous
100
AcDbCircle
 10
45.07753872759734
 20
167.732270759656
 30
0.0
 40
100.0
100
AcDbArc
 50
89.99997999999797
 51
96.41184999999978
  0
ARC
  5
148F
330
18
100
AcDbEntity
  8
1
  6
Continuous
100
AcDbCircle
 10
34.07753872759736
 20
265.6161287596562
 30
0.0
 40
1.5
100
AcDbArc
 50
96.41180999999816
 51
179.9999599999992
  0
LINE
  5
1490
330
18
100
AcDbEntity
  8
1
  6
Continuous
100
AcDbLine
 10
60.07753872759735
 20
208.7322707596561
 30
0.0
 11
60.07753872759735
 21
217.7322707596561
 31
0.0
  0
LINE
  5
1491
330
18
100
AcDbEntity
  8
1
  6
Continuous
100
AcDbLine
 10
59.15170372759735
 20
207.7350249394561
 30
0.0
 11
57.57753872759735
 21
207.617948459656
 31
0.0
  0
ARC
  5
1492
330
18
100
AcDbEntity
  8
1
  6
Continuous
100
AcDbCircle
 10
59.07753872759736
 20
208.7322707596561
 30
0.0
 40
1.0
100
AcDbArc
 50
274.2532700000002
 51
0.0
  0
LINE
  5
1493
330
18
100
AcDbEntity
  8
1
  6
Continuous
100
AcDbLine
 10
60.07753872759735
 20
226.732270759656
 30
0.0
 11
60.07753872759735
 21
217.7322707596561
 31
0.0
  0
LINE
  5
1494
330
18
100
AcDbEntity
  8
1
  6
Continuous
100
AcDbLine
 10
60.07753872759735
 20
213.7322707596561
 30
0.0
 11
61.07754672759734
 21
213.7322707596561
 31
0.0
  0
LINE
  5
1495
330
18
100
AcDbEntity
  8
1
  6
Continuous
100
AcDbLine
 10
59.15170372759735
 20
227.7295165798561
 30
0.0
 11
57.57753872759735
 21
227.846593059656
 31
0.0
  0
ARC
  5
1496
330
18
100
AcDbEntity
  8
1
  6
Continuous
100
AcDbCircle
 10
59.07753872759736
 20
226.732270759656
 30
0.0
 40
1.0
100
AcDbArc
 50
0.0
 51
85.74672999999974
  0
LINE
  5
1497
330
18
100
AcDbEntity
  8
1
  6
Continuous
100
AcDbLine
 10
60.07753872759735
 20
221.7322707596561
 30
0.0
 11
61.07754672759734
 21
221.7322707596561
 31
0.0
  0
ARC
  5
1498
330
18
100
AcDbEntity
  8
1
  6
Continuous
100
AcDbCircle
 10
56.07753872759736
 20
265.6161287596562
 30
0.0
 40
1.5
100
AcDbArc
 50
0.0
 51
83.58816000000102
  0
LINE
  5
149A
330
18
100
AcDbEntity
  8
1
  6
Continuous
100
AcDbLine
 10
355.5108129710524
 20
169.848412759656
 30
0.0
 11
355.5108129710524
 21
265.6161287596562
 31
0.0
  0
LINE
  5
149B
330
18
100
AcDbEntity
  8
1
  6
Continuous
100
AcDbLine
 10
380.5108129710524
 20
169.848412759656
 30
0.0
 11
380.5108129710524
 21
265.6161298068536
 31
0.0
  0
ARC
  5
149C
330
18
100
AcDbEntity
  8
1
  6
Continuous
100
AcDbCircle
 10
368.0108129710524
 20
267.7322707596561
 30
0.0
 40
100.0
100
AcDbArc
 50
263.5881099999989
 51
269.9999800000012
  0
ARC
  5
149D
330
18
100
AcDbEntity
  8
1
  6
Continuous
100
AcDbCircle
 10
368.0108129710524
 20
267.7322707596561
 30
0.0
 40
100.0
100
AcDbArc
 50
269.9999800000012
 51
276.4118499999995
  0
ARC
  5
149E
330
18
100
AcDbEntity
  8
1
  6
Continuous
100
AcDbCircle
 10
379.0108129710525
 20
169.848412759656
 30
0.0
 40
1.5
100
AcDbArc
 50
276.411809999998
 51
359.9999600000008
  0
ARC
  5
149F
330
18
100
AcDbEntity
  8
1
  6
Continuous
100
AcDbCircle
 10
357.0108129710524
 20
169.848412759656
 30
0.0
 40
1.5
100
AcDbArc
 50
180.0
 51
263.588160000001
  0
ARC
  5
14A1
330
18
100
AcDbEntity
  8
1
  6
Continuous
100
AcDbCircle
 10
368.0108129710524
 20
167.732270759656
 30
0.0
 40
100.0
100
AcDbArc
 50
90.00002000000202
 51
96.41189000000105
  0
LINE
  5
14A2
330
18
100
AcDbEntity
  8
1
  6
Continuous
100
AcDbLine
 10
383.0108129710524
 20
232.7322704105901
 30
0.0
 11
383.0108129710524
 21
202.7322707596561
 31
0.0
  0
ARC
  5
14A3
330
18
100
AcDbEntity
  8
1
  6
Continuous
100
AcDbCircle
 10
381.0108129710524
 20
202.7322707596561
 30
0.0
 40
2.0
100
AcDbArc
 50
301.0027199999985
 51
359.9999500000016
  0
LINE
  5
14A4
330
18
100
AcDbEntity
  8
1
  6
Continuous
100
AcDbLine
 10
380.5108129710524
 20
200.0984737596561
 30
0.0
 11
382.0409719710525
 21
201.0179837596561
 31
0.0
  0
LINE
  5
14A5
330
18
100
AcDbEntity
  8
1
  6
Continuous
100
AcDbLine
 10
383.0108129710524
 20
221.7322707596561
 30
0.0
 11
384.0108209710523
 21
221.7322707596561
 31
0.0
  0
LINE
  5
14A6
330
18
100
AcDbEntity
  8
1
  6
Continuous
100
AcDbLine
 10
383.0108129710524
 20
213.7322707596561
 30
0.0
 11
384.0108209710523
 21
213.7322707596561
 31
0.0
  0
ARC
  5
14A7
330
18
100
AcDbEntity
  8
1
  6
Continuous
100
AcDbCircle
 10
381.0108129710524
 20
232.7322707596561
 30
0.0
 40
2.0
100
AcDbArc
 50
359.9999900000006
 51
58.99722999999716
  0
LINE
  5
14A8
330
18
100
AcDbEntity
  8
1
  6
Continuous
100
AcDbLine
 10
380.5108129710524
 20
235.3660677596561
 30
0.0
 11
382.0409719710525
 21
234.446555759656
 31
0.0
  0
ARC
  5
14A9
330
18
100
AcDbEntity
  8
1
  6
Continuous
100
AcDbCircle
 10
368.0108129710524
 20
167.732270759656
 30
0.0
 40
100.0
100
AcDbArc
 50
83.58815000000026
 51
90.00002000000202
  0
ARC
  5
14AA
330
18
100
AcDbEntity
  8
1
  6
Continuous
100
AcDbCircle
 10
379.0108129710525
 20
265.6161287596562
 30
0.0
 40
1.5
100
AcDbArc
 50
0.0000400000007758
 51
83.58819000000186
  0
LINE
  5
14AB
330
18
100
AcDbEntity
  8
1
  6
Continuous
100
AcDbLine
 10
353.0108129710524
 20
208.7322707596561
 30
0.0
 11
353.0108129710524
 21
217.7322707596561
 31
0.0
  0
LINE
  5
14AC
330
18
100
AcDbEntity
  8
1
  6
Continuous
100
AcDbLine
 10
353.9366479710524
 20
207.7350249394561
 30
0.0
 11
355.5108129710524
 21
207.617948459656
 31
0.0
  0
ARC
  5
14AD
330
18
100
AcDbEntity
  8
1
  6
Continuous
100
AcDbCircle
 10
354.0108129710525
 20
208.7322707596561
 30
0.0
 40
1.0
100
AcDbArc
 50
180.0
 51
265.7467299999995
  0
LINE
  5
14AE
330
18
100
AcDbEntity
  8
1
  6
Continuous
100
AcDbLine
 10
353.0108129710524
 20
226.732270759656
 30
0.0
 11
353.0108129710524
 21
217.7322707596561
 31
0.0
  0
LINE
  5
14AF
330
18
100
AcDbEntity
  8
1
  6
Continuous
100
AcDbLine
 10
353.0108129710524
 20
213.7322707596561
 30
0.0
 11
352.0108049710525
 21
213.7322707596561
 31
0.0
  0
LINE
  5
14B0
330
18
100
AcDbEntity
  8
1
  6
Continuous
100
AcDbLine
 10
353.9366479710524
 20
227.7295165798561
 30
0.0
 11
355.5108129710524
 21
227.846593059656
 31
0.0
  0
ARC
  5
14B1
330
18
100
AcDbEntity
  8
1
  6
Continuous
100
AcDbCircle
 10
354.0108129710525
 20
226.732270759656
 30
0.0
 40
1.0
100
AcDbArc
 50
94.25327000000029
 51
180.0
  0
LINE
  5
14B2
330
18
100
AcDbEntity
  8
1
  6
Continuous
100
AcDbLine
 10
353.0108129710524
 20
221.7322707596561
 30
0.0
 11
352.0108049710525
 21
221.7322707596561
 31
0.0
  0
ARC
  5
14B3
330
18
100
AcDbEntity
  8
1
  6
Continuous
100
AcDbCircle
 10
357.0108129710524
 20
265.6161287596562
 30
0.0
 40
1.5
100
AcDbArc
 50
96.41183999999901
 51
180.0
  0
ARC
  5
14B4
330
18
100
AcDbEntity
  8
1
  6
Continuous
100
AcDbCircle
 10
91.34418134932486
 20
68.2697056646367
 30
0.0
 40
85.0
100
AcDbArc
 50
8.456519335270511
 51
10.16424969808914
  0
ARC
  5
14C3
330
18
100
AcDbEntity
  8
1
  6
Continuous
100
AcDbCircle
 10
143.9269828493248
 20
400.1948358546756
 30
0.0
 40
1.5
100
AcDbArc
 50
90.0
 51
173.5881600000009
  0
ARC
  5
14C4
330
18
100
AcDbEntity
  8
1
  6
Continuous
100
AcDbCircle
 10
143.9269828493248
 20
378.1948358546756
 30
0.0
 40
1.5
100
AcDbArc
 50
186.4118099999981
 51
269.9999599999991
  0
ARC
  5
14C5
330
18
100
AcDbEntity
  8
1
  6
Continuous
100
AcDbCircle
 10
241.8108408493249
 20
389.1948358546756
 30
0.0
 40
100.0
100
AcDbArc
 50
179.9999799999978
 51
186.4118499999997
  0
ARC
  5
14C6
330
18
100
AcDbEntity
  8
1
  6
Continuous
100
AcDbCircle
 10
241.8108408493249
 20
389.1948358546756
 30
0.0
 40
100.0
100
AcDbArc
 50
173.5881099999988
 51
179.9999799999978
  0
LINE
  5
14C7
330
18
100
AcDbEntity
  8
1
  6
Continuous
100
AcDbLine
 10
175.4200399533259
 20
376.6948358546756
 30
0.0
 11
143.9269818021273
 21
376.6948358546756
 31
0.0
  0
LINE
  5
14C8
330
18
100
AcDbEntity
  8
1
  6
Continuous
100
AcDbLine
 10
175.4200399533259
 20
401.6948358546756
 30
0.0
 11
143.9269828493248
 21
401.6948358546756
 31
0.0
  0
LINE
  5
14C9
330
18
100
AcDbEntity
  8
1
  6
Continuous
100
AcDbLine
 10
174.1770438493247
 20
401.6948358546756
 30
0.0
 11
175.0965558493249
 21
403.2249948546756
 31
0.0
  0
ARC
  5
14CA
330
18
100
AcDbEntity
  8
1
  6
Continuous
100
AcDbCircle
 10
176.8108408493247
 20
402.1948358546755
 30
0.0
 40
2.0
100
AcDbArc
 50
145.56345584356
 51
148.9972299999971
  0
ENDSEC
  0
SECTION
  2
OBJECTS
  0
DICTIONARY
  5
C
330
0
100
AcDbDictionary
281
     1
  3
ACAD_CIP_PREVIOUS_PRODUCT_INFO
350
15D8
  3
ACAD_COLOR
350
15BB
  3
ACAD_DETAILVIEWSTYLE
350
15D4
  3
ACAD_GROUP
350
D
  3
ACAD_LAYOUT
350
5D
  3
ACAD_MATERIAL
350
1589
  3
ACAD_MLEADERSTYLE
350
15D0
  3
ACAD_MLINESTYLE
350
1B
  3
ACAD_PLOTSETTINGS
350
5E
  3
ACAD_PLOTSTYLENAME
350
1587
  3
ACAD_SCALELIST
350
15BE
  3
ACAD_SECTIONVIEWSTYLE
350
15D2
  3
ACAD_TABLESTYLE
350
15BC
  3
ACAD_VISUALSTYLE
350
15A2
  3
ACDB_RECOMPOSE_DATA
350
15F6
  3
AcDbVariableDictionary
350
15E9
  3
CONTENTDICTIONARY
350
3D
  3
DWGPROPS
350
15F7
  0
DICTIONARY
  5
15D9
330
E
100
AcDbDictionary
280
     1
281
     1
  3
ADSK_XREC_LAYER_RECONCILED
360
15DA
  0
DICTIONARY
  5
15DB
330
65
100
AcDbDictionary
280
     1
281
     1
  3
ADSK_XREC_LAYER_RECONCILED
360
15DC
  0
DICTIONARY
  5
15DD
330
66
100
AcDbDictionary
280
     1
281
     1
  3
ADSK_XREC_LAYER_RECONCILED
360
15DE
  0
DICTIONARY
  5
15DF
330
67
100
AcDbDictionary
280
     1
281
     1
  3
ADSK_XREC_LAYER_RECONCILED
360
15E0
  0
DICTIONARY
  5
15E1
330
68
100
AcDbDictionary
280
     1
281
     1
  3
ADSK_XREC_LAYER_RECONCILED
360
15E2
  0
DICTIONARY
  5
15E3
330
69
100
AcDbDictionary
280
     1
281
     1
  3
ADSK_XREC_LAYER_RECONCILED
360
15E4
  0
DICTIONARY
  5
15E5
330
6A
100
AcDbDictionary
280
     1
281
     1
  3
ADSK_XREC_LAYER_RECONCILED
360
15E6
  0
DICTIONARY
  5
15E7
330
6B
100
AcDbDictionary
280
     1
281
     1
  3
ADSK_XREC_LAYER_RECONCILED
360
15E8
  0
DICTIONARY
  5
156B
330
18
100
AcDbDictionary
281
     1
  3
ACAD_LAYOUTSELFREF
350
1583
  0
DICTIONARY
  5
1569
330
15
100
AcDbDictionary
281
     1
  3
ACAD_LAYOUTSELFREF
350
1582
  0
XRECORD
  5
15D8
102
{ACAD_REACTORS
330
C
102
}
330
C
100
AcDbXrecord
280
     1
300
ACDLT
300
2014
300
ACDLT_F_S
  0
DICTIONARY
  5
15BB
102
{ACAD_REACTORS
330
C
102
}
330
C
100
AcDbDictionary
281
     1
  0
DICTIONARY
  5
15D4
102
{ACAD_REACTORS
330
C
102
}
330
C
100
AcDbDictionary
281
     1
  3
Imperial24
350
15D5
  0
DICTIONARY
  5
D
102
{ACAD_REACTORS
330
C
102
}
330
C
100
AcDbDictionary
281
     1
  0
DICTIONARY
  5
5D
102
{ACAD_REACTORS
330
C
102
}
330
C
100
AcDbDictionary
281
     1
  3
Model
350
15D6
  3
レイアウト1
350
15D7
  0
DICTIONARY
  5
1589
102
{ACAD_REACTORS
330
C
102
}
330
C
100
AcDbDictionary
281
     1
  3
ByBlock
350
1592
  3
ByLayer
350
158A
  3
Global
350
159A
  0
DICTIONARY
  5
15D0
102
{ACAD_REACTORS
330
C
102
}
330
C
100
AcDbDictionary
281
     1
  3
Standard
350
15D1
  0
DICTIONARY
  5
1B
102
{ACAD_REACTORS
330
C
102
}
330
C
100
AcDbDictionary
281
     1
  3
STANDARD
350
1C
  0
DICTIONARY
  5
5E
102
{ACAD_REACTORS
330
C
102
}
330
C
100
AcDbDictionary
281
     1
  0
ACDBDICTIONARYWDFLT
  5
1587
102
{ACAD_REACTORS
330
C
102
}
330
C
100
AcDbDictionary
281
     1
  3
Normal
350
1588
100
AcDbDictionaryWithDefault
340
1588
  0
DICTIONARY
  5
15BE
102
{ACAD_REACTORS
330
C
102
}
330
C
100
AcDbDictionary
281
     1
  3
A0
350
15BF
  3
A1
350
15C0
  3
A2
350
15C1
  3
A3
350
15C2
  3
A4
350
15C3
  3
A5
350
15C4
  3
A6
350
15C5
  3
A7
350
15C6
  3
A8
350
15C7
  3
A9
350
15C8
  3
B0
350
15C9
  3
B1
350
15CA
  3
B2
350
15CB
  3
B3
350
15CC
  3
B4
350
15CD
  3
B5
350
15CE
  3
B6
350
15CF
  0
DICTIONARY
  5
15D2
102
{ACAD_REACTORS
330
C
102
}
330
C
100
AcDbDictionary
281
     1
  3
Imperial24
350
15D3
  0
DICTIONARY
  5
15BC
102
{ACAD_REACTORS
330
C
102
}
330
C
100
AcDbDictionary
281
     1
  3
Standard
350
15BD
  0
DICTIONARY
  5
15A2
102
{ACAD_REACTORS
330
C
102
}
330
C
100
AcDbDictionary
281
     1
  3
2dWireframe
350
15A8
  3
Basic
350
15A7
  3
Brighten
350
15AE
  3
ColorChange
350
15B2
  3
Conceptual
350
15AB
  3
Dim
350
15AD
  3
EdgeColorOff
350
15BA
  3
Facepattern
350
15B1
  3
Flat
350
15A3
  3
FlatWithEdges
350
15A4
  3
Gouraud
350
15A5
  3
GouraudWithEdges
350
15A6
  3
Hidden
350
15AA
  3
JitterOff
350
15B8
  3
Linepattern
350
15B0
  3
OverhangOff
350
15B9
  3
Realistic
350
15AC
  3
Shaded
350
15B7
  3
Shaded with edges
350
15B6
  3
Shades of Gray
350
15B3
  3
Sketchy
350
15B4
  3
Thicken
350
15AF
  3
Wireframe
350
15A9
  3
X-Ray
350
15B5
  0
XRECORD
  5
15F6
102
{ACAD_REACTORS
330
C
102
}
330
C
100
AcDbXrecord
280
     1
 90
        1
330
15BD
  0
DICTIONARY
  5
15E9
102
{ACAD_REACTORS
330
C
102
}
330
C
100
AcDbDictionary
281
     1
  3
CANNOSCALE
350
15EE
  3
CMLEADERSTYLE
350
15EB
  3
CTABLESTYLE
350
15EA
  3
CVIEWDETAILSTYLE
350
15EC
  3
CVIEWSECTIONSTYLE
350
15ED
  3
DIMASSOC
350
15F1
  3
INDEXCTL
350
15F0
  3
SORTENTS
350
15EF
  3
XCLIPFRAME
350
15F2
  0
DICTIONARY
  5
3D
102
{ACAD_REACTORS
330
C
102
}
330
C
100
AcDbDictionary
281
     1
  0
XRECORD
  5
15F7
102
{ACAD_REACTORS
330
C
102
}
330
C
100
AcDbXrecord
280
     1
  1
DWGPROPS COOKIE
  2

  3

  4

  6

  7

  8
Yoshitsune
  9

300
=
301
=
302
=
303
=
304
=
305
=
306
=
307
=
308
=
309
=
 40
0.2104805555555556
 41
2453280.473932107
 42
2457192.688820961
  1

 90
        0
  0
XRECORD
  5
15DA
102
{ACAD_REACTORS
330
15D9
102
}
330
15D9
100
AcDbXrecord
280
     1
290
     1
  0
XRECORD
  5
15DC
102
{ACAD_REACTORS
330
15DB
102
}
330
15DB
100
AcDbXrecord
280
     1
290
     1
  0
XRECORD
  5
15DE
102
{ACAD_REACTORS
330
15DD
102
}
330
15DD
100
AcDbXrecord
280
     1
290
     1
  0
XRECORD
  5
15E0
102
{ACAD_REACTORS
330
15DF
102
}
330
15DF
100
AcDbXrecord
280
     1
290
     1
  0
XRECORD
  5
15E2
102
{ACAD_REACTORS
330
15E1
102
}
330
15E1
100
AcDbXrecord
280
     1
290
     1
  0
XRECORD
  5
15E4
102
{ACAD_REACTORS
330
15E3
102
}
330
15E3
100
AcDbXrecord
280
     1
290
     1
  0
XRECORD
  5
15E6
102
{ACAD_REACTORS
330
15E5
102
}
330
15E5
100
AcDbXrecord
280
     1
290
     1
  0
XRECORD
  5
15E8
102
{ACAD_REACTORS
330
15E7
102
}
330
15E7
100
AcDbXrecord
280
     1
290
     1
  0
XRECORD
  5
1583
102
{ACAD_REACTORS
330
156B
102
}
330
156B
100
AcDbXrecord
280
     1
340
18
  0
XRECORD
  5
1582
102
{ACAD_REACTORS
330
1569
102
}
330
1569
100
AcDbXrecord
280
     1
340
15
  0
ACDBDETAILVIEWSTYLE
  5
15D5
102
{ACAD_XDICTIONARY
360
162F
102
}
102
{ACAD_REACTORS
330
15D4
102
}
330
15D4
100
AcDbModelDocViewStyle
 70
     0
  3
Imperial24
290
     0
100
AcDbDetailViewStyle
 70
     0
 71
     0
 90
        3
 71
     1
340
F
 40
0.24
340
0
 40
0.24
300

 40
0.36
280
     3
 71
     2
340
14
 90
       25
 71
     3
340
F
 40
0.24
 90
        1
 40
0.75
 90
        1
300
%<\AcVar ViewType \f "%tc1">% %<\AcVar ViewDetailId>%\PSCALE %<\AcVar ViewScale \f "%sn">%
 71
     4
340
14
 90
       25
340
14
 90
       25
280
     0
  0
LAYOUT
  5
15D6
102
{ACAD_XDICTIONARY
360
1631
102
}
102
{ACAD_REACTORS
330
5D
102
}
330
5D
100
AcDbPlotSettings
  1

  2
Canon LBP9100C
  4

  6

 40
0.0
 41
0.0
 42
0.0
 43
0.0
 44
0.0
 45
0.0
 46
0.0
 47
0.0
 48
0.0
 49
0.0
140
0.0
141
0.0
142
1.0
143
1.0
 70
  1712
 72
     0
 73
     0
 74
     0
  7

 75
     0
147
1.0
148
0.0
149
0.0
100
AcDbLayout
  1
Model
 70
     1
 71
     0
 10
0.0
 20
0.0
 11
12.0
 21
9.0
 12
0.0
 22
0.0
 32
0.0
 14
0.0
 24
0.0
 34
0.0
 15
0.0
 25
0.0
 35
0.0
146
0.0
 13
0.0
 23
0.0
 33
0.0
 16
1.0
 26
0.0
 36
0.0
 17
0.0
 27
1.0
 37
0.0
 76
     0
330
18
331
1581
  0
LAYOUT
  5
15D7
102
{ACAD_XDICTIONARY
360
1633
102
}
102
{ACAD_REACTORS
330
5D
102
}
330
5D
100
AcDbPlotSettings
  1

  2
Canon LBP9100C
  4

  6

 40
0.0
 41
0.0
 42
0.0
 43
0.0
 44
0.0
 45
0.0
 46
0.0
 47
0.0
 48
0.0
 49
0.0
140
0.0
141
0.0
142
1.0
143
1.0
 70
   688
 72
     0
 73
     0
 74
     5
  7

 75
    16
147
1.0
148
0.0
149
0.0
100
AcDbLayout
  1
レイアウト1
 70
     1
 71
     1
 10
0.0
 20
0.0
 11
420.0
 21
297.0
 12
0.0
 22
0.0
 32
0.0
 14
1.000000000000000E+20
 24
1.000000000000000E+20
 34
1.000000000000000E+20
 15
-1.000000000000000E+20
 25
-1.000000000000000E+20
 35
-1.000000000000000E+20
146
0.0
 13
0.0
 23
0.0
 33
0.0
 16
1.0
 26
0.0
 36
0.0
 17
0.0
 27
1.0
 37
0.0
 76
     0
330
15
  0
MATERIAL
  5
1592
102
{ACAD_XDICTIONARY
360
1593
102
}
102
{ACAD_REACTORS
330
1589
102
}
330
1589
100
AcDbMaterial
  1
ByBlock
 72
     0
 43
0.0208333333333333
 43
0.0
 43
0.0
 43
0.0
 43
0.0
 43
0.0208333333333333
 43
0.0
 43
0.0
 43
0.0
 43
0.0
 43
1.0
 43
0.0
 43
0.0
 43
0.0
 43
0.0
 43
1.0
 77
     0
 47
0.0208333333333333
 47
0.0
 47
0.0
 47
0.0
 47
0.0
 47
0.0208333333333333
 47
0.0
 47
0.0
 47
0.0
 47
0.0
 47
1.0
 47
0.0
 47
0.0
 47
0.0
 47
0.0
 47
1.0
171
     0
 49
0.0208333333333333
 49
0.0
 49
0.0
 49
0.0
 49
0.0
 49
0.0208333333333333
 49
0.0
 49
0.0
 49
0.0
 49
0.0
 49
1.0
 49
0.0
 49
0.0
 49
0.0
 49
0.0
 49
1.0
175
     0
142
0.0208333333333333
142
0.0
142
0.0
142
0.0
142
0.0
142
0.0208333333333333
142
0.0
142
0.0
142
0.0
142
0.0
142
1.0
142
0.0
142
0.0
142
0.0
142
0.0
142
1.0
179
     0
144
0.0208333333333333
144
0.0
144
0.0
144
0.0
144
0.0
144
0.0208333333333333
144
0.0
144
0.0
144
0.0
144
0.0
144
1.0
144
0.0
144
0.0
144
0.0
144
0.0
144
1.0
147
0.0208333333333333
147
0.0
147
0.0
147
0.0
147
0.0
147
0.0208333333333333
147
0.0
147
0.0
147
0.0
147
0.0
147
1.0
147
0.0
147
0.0
147
0.0
147
0.0
147
1.0
  0
MATERIAL
  5
158A
102
{ACAD_XDICTIONARY
360
158B
102
}
102
{ACAD_REACTORS
330
1589
102
}
330
1589
100
AcDbMaterial
  1
ByLayer
 72
     0
 43
0.0208333333333333
 43
0.0
 43
0.0
 43
0.0
 43
0.0
 43
0.0208333333333333
 43
0.0
 43
0.0
 43
0.0
 43
0.0
 43
1.0
 43
0.0
 43
0.0
 43
0.0
 43
0.0
 43
1.0
 77
     0
 47
0.0208333333333333
 47
0.0
 47
0.0
 47
0.0
 47
0.0
 47
0.0208333333333333
 47
0.0
 47
0.0
 47
0.0
 47
0.0
 47
1.0
 47
0.0
 47
0.0
 47
0.0
 47
0.0
 47
1.0
171
     0
 49
0.0208333333333333
 49
0.0
 49
0.0
 49
0.0
 49
0.0
 49
0.0208333333333333
 49
0.0
 49
0.0
 49
0.0
 49
0.0
 49
1.0
 49
0.0
 49
0.0
 49
0.0
 49
0.0
 49
1.0
175
     0
142
0.0208333333333333
142
0.0
142
0.0
142
0.0
142
0.0
142
0.0208333333333333
142
0.0
142
0.0
142
0.0
142
0.0
142
1.0
142
0.0
142
0.0
142
0.0
142
0.0
142
1.0
179
     0
144
0.0208333333333333
144
0.0
144
0.0
144
0.0
144
0.0
144
0.0208333333333333
144
0.0
144
0.0
144
0.0
144
0.0
144
1.0
144
0.0
144
0.0
144
0.0
144
0.0
144
1.0
147
0.0208333333333333
147
0.0
147
0.0
147
0.0
147
0.0
147
0.0208333333333333
147
0.0
147
0.0
147
0.0
147
0.0
147
1.0
147
0.0
147
0.0
147
0.0
147
0.0
147
1.0
  0
MATERIAL
  5
159A
102
{ACAD_XDICTIONARY
360
159B
102
}
102
{ACAD_REACTORS
330
1589
102
}
330
1589
100
AcDbMaterial
  1
Global
 72
     0
 43
0.0208333333333333
 43
0.0
 43
0.0
 43
0.0
 43
0.0
 43
0.0208333333333333
 43
0.0
 43
0.0
 43
0.0
 43
0.0
 43
1.0
 43
0.0
 43
0.0
 43
0.0
 43
0.0
 43
1.0
 77
     0
 47
0.0208333333333333
 47
0.0
 47
0.0
 47
0.0
 47
0.0
 47
0.0208333333333333
 47
0.0
 47
0.0
 47
0.0
 47
0.0
 47
1.0
 47
0.0
 47
0.0
 47
0.0
 47
0.0
 47
1.0
171
     0
 49
0.0208333333333333
 49
0.0
 49
0.0
 49
0.0
 49
0.0
 49
0.0208333333333333
 49
0.0
 49
0.0
 49
0.0
 49
0.0
 49
1.0
 49
0.0
 49
0.0
 49
0.0
 49
0.0
 49
1.0
175
     0
142
0.0208333333333333
142
0.0
142
0.0
142
0.0
142
0.0
142
0.0208333333333333
142
0.0
142
0.0
142
0.0
142
0.0
142
1.0
142
0.0
142
0.0
142
0.0
142
0.0
142
1.0
179
     0
144
0.0208333333333333
144
0.0
144
0.0
144
0.0
144
0.0
144
0.0208333333333333
144
0.0
144
0.0
144
0.0
144
0.0
144
1.0
144
0.0
144
0.0
144
0.0
144
0.0
144
1.0
147
0.0208333333333333
147
0.0
147
0.0
147
0.0
147
0.0
147
0.0208333333333333
147
0.0
147
0.0
147
0.0
147
0.0
147
1.0
147
0.0
147
0.0
147
0.0
147
0.0
147
1.0
  0
MLEADERSTYLE
  5
15D1
102
{ACAD_REACTORS
330
15D0
102
}
330
15D0
100
AcDbMLeaderStyle
170
     2
171
     1
172
     0
 90
        2
 40
0.0
 41
0.0
173
     1
 91
-1056964608
340
12
 92
       -2
290
     1
 42
0.09
291
     1
 43
0.36
  3
Standard
 44
0.18
300

342
F
174
     1
178
     6
175
     1
176
     0
 93
-1056964608
 45
0.18
292
     0
297
     0
 46
0.18
 94
-1056964608
 47
1.0
 49
1.0
140
1.0
293
     1
141
0.0
294
     1
177
     0
142
1.0
295
     0
296
     0
143
0.125
1001
ACAD_MLEADERVER
1070
     2
  0
MLINESTYLE
  5
1C
102
{ACAD_REACTORS
330
1B
102
}
330
1B
100
AcDbMlineStyle
  2
STANDARD
 70
     0
  3

 62
   256
 51
90.0
 52
90.0
 71
     2
 49
0.5
 62
   256
  6
BYLAYER
 49
-0.5
 62
   256
  6
BYLAYER
  0
ACDBPLACEHOLDER
  5
1588
102
{ACAD_REACTORS
330
1587
102
}
330
1587
  0
SCALE
  5
15BF
102
{ACAD_REACTORS
330
15BE
102
}
330
15BE
100
AcDbScale
 70
     0
300
1:1
140
1.0
141
1.0
290
     1
  0
SCALE
  5
15C0
102
{ACAD_REACTORS
330
15BE
102
}
330
15BE
100
AcDbScale
 70
     0
300
1/128" = 1'-0"
140
0.0078125
141
12.0
290
     0
  0
SCALE
  5
15C1
102
{ACAD_REACTORS
330
15BE
102
}
330
15BE
100
AcDbScale
 70
     0
300
1/64" = 1'-0"
140
0.015625
141
12.0
290
     0
  0
SCALE
  5
15C2
102
{ACAD_REACTORS
330
15BE
102
}
330
15BE
100
AcDbScale
 70
     0
300
1/32" = 1'-0"
140
0.03125
141
12.0
290
     0
  0
SCALE
  5
15C3
102
{ACAD_REACTORS
330
15BE
102
}
330
15BE
100
AcDbScale
 70
     0
300
1/16" = 1'-0"
140
0.0625
141
12.0
290
     0
  0
SCALE
  5
15C4
102
{ACAD_REACTORS
330
15BE
102
}
330
15BE
100
AcDbScale
 70
     0
300
3/32" = 1'-0"
140
0.09375
141
12.0
290
     0
  0
SCALE
  5
15C5
102
{ACAD_REACTORS
330
15BE
102
}
330
15BE
100
AcDbScale
 70
     0
300
1/8" = 1'-0"
140
0.125
141
12.0
290
     0
  0
SCALE
  5
15C6
102
{ACAD_REACTORS
330
15BE
102
}
330
15BE
100
AcDbScale
 70
     0
300
3/16" = 1'-0"
140
0.1875
141
12.0
290
     0
  0
SCALE
  5
15C7
102
{ACAD_REACTORS
330
15BE
102
}
330
15BE
100
AcDbScale
 70
     0
300
1/4" = 1'-0"
140
0.25
141
12.0
290
     0
  0
SCALE
  5
15C8
102
{ACAD_REACTORS
330
15BE
102
}
330
15BE
100
AcDbScale
 70
     0
300
3/8" = 1'-0"
140
0.375
141
12.0
290
     0
  0
SCALE
  5
15C9
102
{ACAD_REACTORS
330
15BE
102
}
330
15BE
100
AcDbScale
 70
     0
300
1/2" = 1'-0"
140
0.5
141
12.0
290
     0
  0
SCALE
  5
15CA
102
{ACAD_REACTORS
330
15BE
102
}
330
15BE
100
AcDbScale
 70
     0
300
3/4" = 1'-0"
140
0.75
141
12.0
290
     0
  0
SCALE
  5
15CB
102
{ACAD_REACTORS
330
15BE
102
}
330
15BE
100
AcDbScale
 70
     0
300
1" = 1'-0"
140
1.0
141
12.0
290
     0
  0
SCALE
  5
15CC
102
{ACAD_REACTORS
330
15BE
102
}
330
15BE
100
AcDbScale
 70
     0
300
1-1/2" = 1'-0"
140
1.5
141
12.0
290
     0
  0
SCALE
  5
15CD
102
{ACAD_REACTORS
330
15BE
102
}
330
15BE
100
AcDbScale
 70
     0
300
3" = 1'-0"
140
3.0
141
12.0
290
     0
  0
SCALE
  5
15CE
102
{ACAD_REACTORS
330
15BE
102
}
330
15BE
100
AcDbScale
 70
     0
300
6" = 1'-0"
140
6.0
141
12.0
290
     0
  0
SCALE
  5
15CF
102
{ACAD_REACTORS
330
15BE
102
}
330
15BE
100
AcDbScale
 70
     0
300
1'-0" = 1'-0"
140
12.0
141
12.0
290
     0
  0
ACDBSECTIONVIEWSTYLE
  5
15D3
102
{ACAD_XDICTIONARY
360
162D
102
}
102
{ACAD_REACTORS
330
15D2
102
}
330
15D2
100
AcDbModelDocViewStyle
 70
     0
  3
Imperial24
290
     0
100
AcDbSectionViewStyle
 70
     0
 71
     0
 90
       78
 71
     1
340
F
 40
0.24
340
0
340
0
 40
0.24
300
I, O, Q, S, X, Z
 40
0.48
 90
        3
 40
0.18
 90
        1
 71
     2
340
14
 90
       25
340
14
 90
       50
 40
0.24
 40
0.0
 40
0.24
 71
     3
340
F
 40
0.24
 90
        1
 40
0.75
 90
        1
300
%<\AcVar ViewType \f "%tc1">% %<\AcVar ViewSectionStartId>%-%<\AcVar ViewSectionEndId>%\PSCALE %<\AcVar ViewScale \f "%sn">%
 71
     4
300
ANSI31
 40
1.0
 90
        0
290
     0
290
     0
 90
        6
 40
0.0
 40
1.570796326794896
 40
0.2617993877991494
 40
1.308996938995747
 40
-0.2617993877991494
 40
1.832595714594046
  0
TABLESTYLE
  5
15BD
102
{ACAD_XDICTIONARY
360
15F4
102
}
102
{ACAD_REACTORS
330
15BC
102
}
330
15BC
100
AcDbTableStyle
  3
Standard
 70
     0
 71
     0
 40
0.06
 41
0.06
280
     0
281
     0
  7
STANDARD
140
0.18
170
     2
 62
     0
 63
     7
283
     0
274
    -2
284
     1
 64
     0
275
    -2
285
     1
 65
     0
276
    -2
286
     1
 66
     0
277
    -2
287
     1
 67
     0
278
    -2
288
     1
 68
     0
279
    -2
289
     1
 69
     0
  7
STANDARD
140
0.25
170
     5
 62
     0
 63
     7
283
     0
274
    -2
284
     1
 64
     0
275
    -2
285
     1
 65
     0
276
    -2
286
     1
 66
     0
277
    -2
287
     1
 67
     0
278
    -2
288
     1
 68
     0
279
    -2
289
     1
 69
     0
  7
STANDARD
140
0.18
170
     5
 62
     0
 63
     7
283
     0
274
    -2
284
     1
 64
     0
275
    -2
285
     1
 65
     0
276
    -2
286
     1
 66
     0
277
    -2
287
     1
 67
     0
278
    -2
288
     1
 68
     0
279
    -2
289
     1
 69
     0
  0
VISUALSTYLE
  5
15A8
102
{ACAD_XDICTIONARY
360
1605
102
}
102
{ACAD_REACTORS
330
15A2
102
}
330
15A2
100
AcDbVisualStyle
  2
2dWireframe
 70
     4
 71
     0
 72
     2
 73
     0
 90
        0
 40
-0.6
 41
-30.0
 62
     5
 63
     7
 74
     1
 91
        4
 64
     7
 65
   257
 75
     1
175
     1
 42
1.0
 92
        0
 66
   257
 43
1.0
 76
     1
 77
     6
 78
     2
 67
     7
 79
     5
170
     0
171
     0
290
     0
174
     0
 93
        1
 44
0.0
173
     0
291
     0
 45
0.0
1001
ACAD
1000
AcDbSavedByObjectVersion
1070
     0
  0
VISUALSTYLE
  5
15A7
102
{ACAD_XDICTIONARY
360
1603
102
}
102
{ACAD_REACTORS
330
15A2
102
}
330
15A2
100
AcDbVisualStyle
  2
Basic
 70
     7
 71
     1
 72
     0
 73
     1
 90
        0
 40
-0.6
 41
-30.0
 62
     5
 63
     7
 74
     0
 91
        4
 64
     7
 65
   257
 75
     1
175
     1
 42
1.0
 92
        8
 66
     7
 43
1.0
 76
     1
 77
     6
 78
     2
 67
     7
 79
     5
170
     0
171
     0
290
     0
174
     0
 93
        1
 44
0.0
173
     0
291
     1
 45
0.0
1001
ACAD
1000
AcDbSavedByObjectVersion
1070
     0
  0
VISUALSTYLE
  5
15AE
102
{ACAD_XDICTIONARY
360
1611
102
}
102
{ACAD_REACTORS
330
15A2
102
}
330
15A2
100
AcDbVisualStyle
  2
Brighten
 70
    12
 71
     2
 72
     2
 73
     0
 90
        0
 40
-0.6
 41
-30.0
 62
     5
 63
     7
 74
     1
 91
        4
 64
     7
 65
   257
 75
     1
175
     1
 42
1.0
 92
        8
 66
     7
 43
1.0
 76
     1
 77
     6
 78
     2
 67
     7
 79
     5
170
     0
171
     0
290
     0
174
     0
 93
        1
 44
50.0
173
     0
291
     1
 45
0.0
1001
ACAD
1000
AcDbSavedByObjectVersion
1070
     0
  0
VISUALSTYLE
  5
15B2
102
{ACAD_XDICTIONARY
360
1619
102
}
102
{ACAD_REACTORS
330
15A2
102
}
330
15A2
100
AcDbVisualStyle
  2
ColorChange
 70
    16
 71
     2
 72
     2
 73
     3
 90
        0
 40
-0.6
 41
-30.0
 62
     5
 63
     8
 74
     1
 91
        4
 64
     7
 65
   257
 75
     1
175
     1
 42
1.0
 92
        8
 66
     8
 43
1.0
 76
     1
 77
     6
 78
     2
 67
     7
 79
     5
170
     0
171
     0
290
     0
174
     0
 93
        1
 44
0.0
173
     0
291
     1
 45
0.0
1001
ACAD
1000
AcDbSavedByObjectVersion
1070
     0
  0
VISUALSTYLE
  5
15AB
102
{ACAD_XDICTIONARY
360
160B
102
}
102
{ACAD_REACTORS
330
15A2
102
}
330
15A2
100
AcDbVisualStyle
  2
Conceptual
 70
     9
 71
     3
 72
     2
 73
     0
 90
        0
 40
-0.6
 41
-30.0
 62
     5
 63
     7
 74
     2
 91
        2
 64
     7
 65
   257
 75
     1
175
     1
 42
179.0
 92
        8
 66
     7
 43
1.0
 76
     1
 77
     6
 78
     2
 67
     7
 79
     3
170
     0
171
     0
290
     0
174
     0
 93
        1
 44
0.0
173
     0
291
     0
 45
0.0
1001
ACAD
1000
AcDbSavedByObjectVersion
1070
     0
  0
VISUALSTYLE
  5
15AD
102
{ACAD_XDICTIONARY
360
160F
102
}
102
{ACAD_REACTORS
330
15A2
102
}
330
15A2
100
AcDbVisualStyle
  2
Dim
 70
    11
 71
     2
 72
     2
 73
     0
 90
        0
 40
-0.6
 41
-30.0
 62
     5
 63
     7
 74
     1
 91
        4
 64
     7
 65
   257
 75
     1
175
     1
 42
1.0
 92
        8
 66
     7
 43
1.0
 76
     1
 77
     6
 78
     2
 67
     7
 79
     5
170
     0
171
     0
290
     0
174
     0
 93
        1
 44
-50.0
173
     0
291
     1
 45
0.0
1001
ACAD
1000
AcDbSavedByObjectVersion
1070
     0
  0
VISUALSTYLE
  5
15BA
102
{ACAD_XDICTIONARY
360
1629
102
}
102
{ACAD_REACTORS
330
15A2
102
}
330
15A2
100
AcDbVisualStyle
  2
EdgeColorOff
 70
    22
 71
     2
 72
     2
 73
     0
 90
        0
 40
-0.6
 41
-30.0
 62
     5
 63
     7
 74
     1
 91
        4
 64
     7
 65
   257
 75
     1
175
     1
 42
1.0
 92
        8
 66
     7
 43
1.0
 76
     1
 77
     6
 78
     2
 67
     7
 79
     5
170
     0
171
     0
290
     0
174
     0
 93
        1
 44
0.0
173
     0
291
     1
 45
0.0
1001
ACAD
1000
AcDbSavedByObjectVersion
1070
     0
  0
VISUALSTYLE
  5
15B1
102
{ACAD_XDICTIONARY
360
1617
102
}
102
{ACAD_REACTORS
330
15A2
102
}
330
15A2
100
AcDbVisualStyle
  2
Facepattern
 70
    15
 71
     2
 72
     2
 73
     0
 90
        0
 40
-0.6
 41
-30.0
 62
     5
 63
     7
 74
     1
 91
        4
 64
     7
 65
   257
 75
     1
175
     1
 42
1.0
 92
        8
 66
     7
 43
1.0
 76
     1
 77
     6
 78
     2
 67
     7
 79
     5
170
     0
171
     0
290
     0
174
     0
 93
        1
 44
0.0
173
     0
291
     1
 45
0.0
1001
ACAD
1000
AcDbSavedByObjectVersion
1070
     0
  0
VISUALSTYLE
  5
15A3
102
{ACAD_XDICTIONARY
360
15FB
102
}
102
{ACAD_REACTORS
330
15A2
102
}
330
15A2
100
AcDbVisualStyle
  2
Flat
 70
     0
 71
     2
 72
     1
 73
     1
 90
        2
 40
-0.6
 41
30.0
 62
     5
 63
     7
 74
     0
 91
        0
 64
     7
 65
   257
 75
     1
175
     1
 42
1.0
 92
        8
 66
     7
 43
1.0
 76
     1
 77
     6
 78
     2
 67
     7
 79
     5
170
     0
171
     0
290
     0
174
     0
 93
       13
 44
0.0
173
     0
291
     1
 45
0.0
1001
ACAD
1000
AcDbSavedByObjectVersion
1070
     0
  0
VISUALSTYLE
  5
15A4
102
{ACAD_XDICTIONARY
360
15FD
102
}
102
{ACAD_REACTORS
330
15A2
102
}
330
15A2
100
AcDbVisualStyle
  2
FlatWithEdges
 70
     1
 71
     2
 72
     1
 73
     1
 90
        2
 40
-0.6
 41
30.0
 62
     5
 63
     7
 74
     1
 91
        0
 64
     7
 65
   257
 75
     1
175
     1
 42
1.0
 92
        0
 66
   257
 43
1.0
 76
     1
 77
     6
 78
     2
 67
     7
 79
     5
170
     0
171
     0
290
     0
174
     0
 93
       13
 44
0.0
173
     0
291
     1
 45
0.0
1001
ACAD
1000
AcDbSavedByObjectVersion
1070
     0
  0
VISUALSTYLE
  5
15A5
102
{ACAD_XDICTIONARY
360
15FF
102
}
102
{ACAD_REACTORS
330
15A2
102
}
330
15A2
100
AcDbVisualStyle
  2
Gouraud
 70
     2
 71
     2
 72
     2
 73
     1
 90
        2
 40
-0.6
 41
30.0
 62
     5
 63
     7
 74
     0
 91
        0
 64
     7
 65
   257
 75
     1
175
     1
 42
1.0
 92
        0
 66
     7
 43
1.0
 76
     1
 77
     6
 78
     2
 67
     7
 79
     5
170
     0
171
     0
290
     0
174
     0
 93
       13
 44
0.0
173
     0
291
     1
 45
0.0
1001
ACAD
1000
AcDbSavedByObjectVersion
1070
     0
  0
VISUALSTYLE
  5
15A6
102
{ACAD_XDICTIONARY
360
1601
102
}
102
{ACAD_REACTORS
330
15A2
102
}
330
15A2
100
AcDbVisualStyle
  2
GouraudWithEdges
 70
     3
 71
     2
 72
     2
 73
     1
 90
        2
 40
-0.6
 41
30.0
 62
     5
 63
     7
 74
     1
 91
        0
 64
     7
 65
   257
 75
     1
175
     1
 42
1.0
 92
        0
 66
   257
 43
1.0
 76
     1
 77
     6
 78
     2
 67
     7
 79
     5
170
     0
171
     0
290
     0
174
     0
 93
       13
 44
0.0
173
     0
291
     1
 45
0.0
1001
ACAD
1000
AcDbSavedByObjectVersion
1070
     0
  0
VISUALSTYLE
  5
15AA
102
{ACAD_XDICTIONARY
360
1609
102
}
102
{ACAD_REACTORS
330
15A2
102
}
330
15A2
100
AcDbVisualStyle
  2
Hidden
 70
     6
 71
     1
 72
     2
 73
     2
 90
        0
 40
-0.6
 41
-30.0
 62
     5
 63
     7
 74
     2
 91
        2
 64
     7
 65
   257
 75
     2
175
     1
 42
40.0
 92
        0
 66
   257
 43
1.0
 76
     1
 77
     6
 78
     2
 67
     7
 79
     3
170
     0
171
     0
290
     0
174
     0
 93
        1
 44
0.0
173
     0
291
     0
 45
0.0
1001
ACAD
1000
AcDbSavedByObjectVersion
1070
     0
  0
VISUALSTYLE
  5
15B8
102
{ACAD_XDICTIONARY
360
1625
102
}
102
{ACAD_REACTORS
330
15A2
102
}
330
15A2
100
AcDbVisualStyle
  2
JitterOff
 70
    20
 71
     2
 72
     2
 73
     0
 90
        0
 40
-0.6
 41
-30.0
 62
     5
 63
     7
 74
     1
 91
        4
 64
     7
 65
   257
 75
     1
175
     1
 42
1.0
 92
       10
 66
     7
 43
1.0
 76
     1
 77
     6
 78
     2
 67
     7
 79
     5
170
     0
171
     0
290
     0
174
     0
 93
        1
 44
0.0
173
     0
291
     1
 45
0.0
1001
ACAD
1000
AcDbSavedByObjectVersion
1070
     0
  0
VISUALSTYLE
  5
15B0
102
{ACAD_XDICTIONARY
360
1615
102
}
102
{ACAD_REACTORS
330
15A2
102
}
330
15A2
100
AcDbVisualStyle
  2
Linepattern
 70
    14
 71
     2
 72
     2
 73
     0
 90
        0
 40
-0.6
 41
-30.0
 62
     5
 63
     7
 74
     1
 91
        4
 64
     7
 65
   257
 75
     7
175
     7
 42
1.0
 92
        8
 66
     7
 43
1.0
 76
     1
 77
     6
 78
     2
 67
     7
 79
     5
170
     0
171
     0
290
     0
174
     0
 93
        1
 44
0.0
173
     0
291
     1
 45
0.0
1001
ACAD
1000
AcDbSavedByObjectVersion
1070
     0
  0
VISUALSTYLE
  5
15B9
102
{ACAD_XDICTIONARY
360
1627
102
}
102
{ACAD_REACTORS
330
15A2
102
}
330
15A2
100
AcDbVisualStyle
  2
OverhangOff
 70
    21
 71
     2
 72
     2
 73
     0
 90
        0
 40
-0.6
 41
-30.0
 62
     5
 63
     7
 74
     1
 91
        4
 64
     7
 65
   257
 75
     1
175
     1
 42
1.0
 92
        9
 66
     7
 43
1.0
 76
     1
 77
     6
 78
     2
 67
     7
 79
     5
170
     0
171
     0
290
     0
174
     0
 93
        1
 44
0.0
173
     0
291
     1
 45
0.0
1001
ACAD
1000
AcDbSavedByObjectVersion
1070
     0
  0
VISUALSTYLE
  5
15AC
102
{ACAD_XDICTIONARY
360
160D
102
}
102
{ACAD_REACTORS
330
15A2
102
}
330
15A2
100
AcDbVisualStyle
  2
Realistic
 70
     8
 71
     2
 72
     3
 73
     0
 90
        2
 40
-0.6
 41
30.0
 62
     5
 63
     7
 74
     0
 91
        0
 64
     7
 65
   257
 75
     1
175
     1
 42
1.0
 92
        8
 66
   257
 43
1.0
 76
     1
 77
     6
 78
     2
 67
     7
 79
     3
170
     0
171
     0
290
     0
174
     0
 93
       13
 44
0.0
173
     0
291
     0
 45
0.0
1001
ACAD
1000
AcDbSavedByObjectVersion
1070
     0
  0
VISUALSTYLE
  5
15B7
102
{ACAD_XDICTIONARY
360
1623
102
}
102
{ACAD_REACTORS
330
15A2
102
}
330
15A2
100
AcDbVisualStyle
  2
Shaded
 70
    27
 71
     2
 72
     2
 73
     1
 90
        2
 40
-0.6
 41
30.0
 62
     5
 63
     7
 74
     0
 91
        4
 64
     7
 65
   257
 75
     1
175
     1
 42
1.0
 92
        8
 66
   257
 43
1.0
 76
     1
 77
     6
 78
     2
 67
     8
 79
     3
170
     0
171
     0
290
     0
174
     0
 93
        5
 44
0.0
173
     0
291
     0
 45
0.0
1001
ACAD
1000
AcDbSavedByObjectVersion
1070
     0
  0
VISUALSTYLE
  5
15B6
102
{ACAD_XDICTIONARY
360
1621
102
}
102
{ACAD_REACTORS
330
15A2
102
}
330
15A2
100
AcDbVisualStyle
  2
Shaded with edges
 70
    26
 71
     2
 72
     2
 73
     1
 90
        2
 40
-0.6
 41
30.0
 62
     5
 63
     7
 74
     1
 91
       10
 64
     7
 65
   257
 75
     2
175
     1
 42
1.0
 92
        8
 66
   257
 43
1.0
 76
     1
 77
     6
 78
     2
 67
     7
 79
     3
170
     0
171
     0
290
     0
174
     0
 93
        5
 44
0.0
173
     0
291
     0
 45
0.0
1001
ACAD
1000
AcDbSavedByObjectVersion
1070
     0
  0
VISUALSTYLE
  5
15B3
102
{ACAD_XDICTIONARY
360
161B
102
}
102
{ACAD_REACTORS
330
15A2
102
}
330
15A2
100
AcDbVisualStyle
  2
Shades of Gray
 70
    23
 71
     2
 72
     2
 73
     3
 90
        0
 40
-0.6
 41
-30.0
 62
     5
 63
     7
 74
     2
 91
        2
 64
     7
 65
     7
 75
     1
175
     1
 42
40.0
 92
        8
 66
     7
 43
1.0
 76
     1
 77
     6
 78
     2
 67
     7
 79
     3
170
     0
171
     0
290
     0
174
     0
 93
        1
 44
0.0
173
     0
291
     0
 45
0.0
1001
ACAD
1000
AcDbSavedByObjectVersion
1070
     0
  0
VISUALSTYLE
  5
15B4
102
{ACAD_XDICTIONARY
360
161D
102
}
102
{ACAD_REACTORS
330
15A2
102
}
330
15A2
100
AcDbVisualStyle
  2
Sketchy
 70
    24
 71
     1
 72
     2
 73
     2
 90
        0
 40
-0.6
 41
-30.0
 62
     5
 63
     7
 74
     2
 91
        2
 64
     7
 65
     7
 75
     1
175
     1
 42
40.0
 92
       11
 66
     7
 43
1.0
 76
     1
 77
     6
 78
     2
 67
     7
 79
     6
170
     0
171
     0
290
     0
174
     0
 93
        1
 44
0.0
173
     0
291
     0
 45
0.0
1001
ACAD
1000
AcDbSavedByObjectVersion
1070
     0
  0
VISUALSTYLE
  5
15AF
102
{ACAD_XDICTIONARY
360
1613
102
}
102
{ACAD_REACTORS
330
15A2
102
}
330
15A2
100
AcDbVisualStyle
  2
Thicken
 70
    13
 71
     2
 72
     2
 73
     0
 90
        0
 40
-0.6
 41
-30.0
 62
     5
 63
     7
 74
     1
 91
        4
 64
     7
 65
   257
 75
     1
175
     1
 42
1.0
 92
       12
 66
     7
 43
1.0
 76
     1
 77
     6
 78
     2
 67
     7
 79
     5
170
     0
171
     0
290
     0
174
     0
 93
        1
 44
0.0
173
     0
291
     1
 45
0.0
1001
ACAD
1000
AcDbSavedByObjectVersion
1070
     0
  0
VISUALSTYLE
  5
15A9
102
{ACAD_XDICTIONARY
360
1607
102
}
102
{ACAD_REACTORS
330
15A2
102
}
330
15A2
100
AcDbVisualStyle
  2
Wireframe
 70
     5
 71
     0
 72
     2
 73
     0
 90
        0
 40
-0.6
 41
-30.0
 62
     5
 63
     7
 74
     1
 91
        4
 64
     7
 65
   257
 75
     1
175
     1
 42
1.0
 92
        0
 66
   257
 43
1.0
 76
     1
 77
     6
 78
     2
 67
     7
 79
     3
170
     0
171
     0
290
     0
174
     0
 93
        1
 44
0.0
173
     0
291
     0
 45
0.0
1001
ACAD
1000
AcDbSavedByObjectVersion
1070
     0
  0
VISUALSTYLE
  5
15B5
102
{ACAD_XDICTIONARY
360
161F
102
}
102
{ACAD_REACTORS
330
15A2
102
}
330
15A2
100
AcDbVisualStyle
  2
X-Ray
 70
    25
 71
     2
 72
     2
 73
     1
 90
        1
 40
0.5
 41
-30.0
 62
     5
 63
     7
 74
     1
 91
        0
 64
     7
 65
   257
 75
     1
175
     1
 42
1.0
 92
        8
 66
     7
 43
1.0
 76
     1
 77
     6
 78
     2
 67
     7
 79
     3
170
     0
171
     0
290
     0
174
     0
 93
       13
 44
0.0
173
     0
291
     0
 45
0.0
1001
ACAD
1000
AcDbSavedByObjectVersion
1070
     0
  0
DICTIONARYVAR
  5
15EE
102
{ACAD_REACTORS
330
15E9
102
}
330
15E9
100
DictionaryVariables
280
     0
  1
1:1
  0
DICTIONARYVAR
  5
15EB
102
{ACAD_REACTORS
330
15E9
102
}
330
15E9
100
DictionaryVariables
280
     0
  1
STANDARD
  0
DICTIONARYVAR
  5
15EA
102
{ACAD_REACTORS
330
15E9
102
}
330
15E9
100
DictionaryVariables
280
     0
  1
STANDARD
  0
DICTIONARYVAR
  5
15EC
102
{ACAD_REACTORS
330
15E9
102
}
330
15E9
100
DictionaryVariables
280
     0
  1
Imperial24
  0
DICTIONARYVAR
  5
15ED
102
{ACAD_REACTORS
330
15E9
102
}
330
15E9
100
DictionaryVariables
280
     0
  1
Imperial24
  0
DICTIONARYVAR
  5
15F1
102
{ACAD_REACTORS
330
15E9
102
}
330
15E9
100
DictionaryVariables
280
     0
  1
1
  0
DICTIONARYVAR
  5
15F0
102
{ACAD_REACTORS
330
15E9
102
}
330
15E9
100
DictionaryVariables
280
     0
  1
0
  0
DICTIONARYVAR
  5
15EF
102
{ACAD_REACTORS
330
15E9
102
}
330
15E9
100
DictionaryVariables
280
     0
  1
127
  0
DICTIONARYVAR
  5
15F2
102
{ACAD_REACTORS
330
15E9
102
}
330
15E9
100
DictionaryVariables
280
     0
  1
2
  0
DICTIONARY
  5
162F
330
15D5
100
AcDbDictionary
280
     1
281
     1
  3
ACAD_XREC_ROUNDTRIP
360
1630
  0
DICTIONARY
  5
1631
330
15D6
100
AcDbDictionary
280
     1
281
     1
  3
ACAD_XREC_ROUNDTRIP
360
1632
  0
DICTIONARY
  5
1633
330
15D7
100
AcDbDictionary
280
     1
281
     1
  3
ACAD_XREC_ROUNDTRIP
360
1634
  0
DICTIONARY
  5
1593
330
1592
100
AcDbDictionary
280
     1
281
     1
  3
ACAD_XREC_ROUNDTRIP
360
15F9
  3
BUMPTILE
360
1595
  3
DIFFUSETILE
360
1594
  3
OPACITYTILE
360
1598
  3
REFLECTIONTILE
360
1597
  3
REFRACTIONTILE
360
1599
  3
SPECULARTILE
360
1596
  0
DICTIONARY
  5
158B
330
158A
100
AcDbDictionary
280
     1
281
     1
  3
ACAD_XREC_ROUNDTRIP
360
15F8
  3
BUMPTILE
360
158D
  3
DIFFUSETILE
360
158C
  3
OPACITYTILE
360
1590
  3
REFLECTIONTILE
360
158F
  3
REFRACTIONTILE
360
1591
  3
SPECULARTILE
360
158E
  0
DICTIONARY
  5
159B
330
159A
100
AcDbDictionary
280
     1
281
     1
  3
ACAD_XREC_ROUNDTRIP
360
15FA
  3
BUMPTILE
360
159D
  3
DIFFUSETILE
360
159C
  3
OPACITYTILE
360
15A0
  3
REFLECTIONTILE
360
159F
  3
REFRACTIONTILE
360
15A1
  3
SPECULARTILE
360
159E
  0
DICTIONARY
  5
162D
330
15D3
100
AcDbDictionary
280
     1
281
     1
  3
ACAD_XREC_ROUNDTRIP
360
162E
  0
DICTIONARY
  5
15F4
330
15BD
100
AcDbDictionary
280
     1
281
     1
  3
ACAD_ROUNDTRIP_2008_TABLESTYLE_CELLSTYLEMAP
360
15F5
  3
ACAD_XREC_ROUNDTRIP
360
162B
  0
DICTIONARY
  5
1605
330
15A8
100
AcDbDictionary
280
     1
281
     1
  3
ACAD_XREC_ROUNDTRIP
360
1606
  0
DICTIONARY
  5
1603
330
15A7
100
AcDbDictionary
280
     1
281
     1
  3
ACAD_XREC_ROUNDTRIP
360
1604
  0
DICTIONARY
  5
1611
330
15AE
100
AcDbDictionary
280
     1
281
     1
  3
ACAD_XREC_ROUNDTRIP
360
1612
  0
DICTIONARY
  5
1619
330
15B2
100
AcDbDictionary
280
     1
281
     1
  3
ACAD_XREC_ROUNDTRIP
360
161A
  0
DICTIONARY
  5
160B
330
15AB
100
AcDbDictionary
280
     1
281
     1
  3
ACAD_XREC_ROUNDTRIP
360
160C
  0
DICTIONARY
  5
160F
330
15AD
100
AcDbDictionary
280
     1
281
     1
  3
ACAD_XREC_ROUNDTRIP
360
1610
  0
DICTIONARY
  5
1629
330
15BA
100
AcDbDictionary
280
     1
281
     1
  3
ACAD_XREC_ROUNDTRIP
360
162A
  0
DICTIONARY
  5
1617
330
15B1
100
AcDbDictionary
280
     1
281
     1
  3
ACAD_XREC_ROUNDTRIP
360
1618
  0
DICTIONARY
  5
15FB
330
15A3
100
AcDbDictionary
280
     1
281
     1
  3
ACAD_XREC_ROUNDTRIP
360
15FC
  0
DICTIONARY
  5
15FD
330
15A4
100
AcDbDictionary
280
     1
281
     1
  3
ACAD_XREC_ROUNDTRIP
360
15FE
  0
DICTIONARY
  5
15FF
330
15A5
100
AcDbDictionary
280
     1
281
     1
  3
ACAD_XREC_ROUNDTRIP
360
1600
  0
DICTIONARY
  5
1601
330
15A6
100
AcDbDictionary
280
     1
281
     1
  3
ACAD_XREC_ROUNDTRIP
360
1602
  0
DICTIONARY
  5
1609
330
15AA
100
AcDbDictionary
280
     1
281
     1
  3
ACAD_XREC_ROUNDTRIP
360
160A
  0
DICTIONARY
  5
1625
330
15B8
100
AcDbDictionary
280
     1
281
     1
  3
ACAD_XREC_ROUNDTRIP
360
1626
  0
DICTIONARY
  5
1615
330
15B0
100
AcDbDictionary
280
     1
281
     1
  3
ACAD_XREC_ROUNDTRIP
360
1616
  0
DICTIONARY
  5
1627
330
15B9
100
AcDbDictionary
280
     1
281
     1
  3
ACAD_XREC_ROUNDTRIP
360
1628
  0
DICTIONARY
  5
160D
330
15AC
100
AcDbDictionary
280
     1
281
     1
  3
ACAD_XREC_ROUNDTRIP
360
160E
  0
DICTIONARY
  5
1623
330
15B7
100
AcDbDictionary
280
     1
281
     1
  3
ACAD_XREC_ROUNDTRIP
360
1624
  0
DICTIONARY
  5
1621
330
15B6
100
AcDbDictionary
280
     1
281
     1
  3
ACAD_XREC_ROUNDTRIP
360
1622
  0
DICTIONARY
  5
161B
330
15B3
100
AcDbDictionary
280
     1
281
     1
  3
ACAD_XREC_ROUNDTRIP
360
161C
  0
DICTIONARY
  5
161D
330
15B4
100
AcDbDictionary
280
     1
281
     1
  3
ACAD_XREC_ROUNDTRIP
360
161E
  0
DICTIONARY
  5
1613
330
15AF
100
AcDbDictionary
280
     1
281
     1
  3
ACAD_XREC_ROUNDTRIP
360
1614
  0
DICTIONARY
  5
1607
330
15A9
100
AcDbDictionary
280
     1
281
     1
  3
ACAD_XREC_ROUNDTRIP
360
1608
  0
DICTIONARY
  5
161F
330
15B5
100
AcDbDictionary
280
     1
281
     1
  3
ACAD_XREC_ROUNDTRIP
360
1620
  0
XRECORD
  5
1630
102
{ACAD_REACTORS
330
162F
102
}
330
162F
100
AcDbXrecord
280
     1
102
DISPLAYNAME
  1
Imperial24
102
FLAGS
 90
        0
  0
XRECORD
  5
1632
102
{ACAD_REACTORS
330
1631
102
}
330
1631
100
AcDbXrecord
280
     1
102
SHADEPLOT
 70
     0
102
SHADEPLOTRESLEVEL
 70
     2
102
SHADEPLOTCUSTOMDPI
 70
   300
  0
XRECORD
  5
1634
102
{ACAD_REACTORS
330
1633
102
}
330
1633
100
AcDbXrecord
280
     1
102
SHADEPLOT
 70
     0
102
SHADEPLOTRESLEVEL
 70
     2
102
SHADEPLOTCUSTOMDPI
 70
   300
  0
XRECORD
  5
15F9
102
{ACAD_REACTORS
330
1593
102
}
330
1593
100
AcDbXrecord
280
     1
102
MATERIAL
148
0.0
149
0.0
149
0.0
 93
        0
 94
      127
282
     0
 72
     0
 77
     0
171
     0
175
     0
179
     0
273
     0
  0
XRECORD
  5
1595
102
{ACAD_REACTORS
330
1593
102
}
330
1593
100
AcDbXrecord
280
     1
270
     1
271
     1
  0
XRECORD
  5
1594
102
{ACAD_REACTORS
330
1593
102
}
330
1593
100
AcDbXrecord
280
     1
270
     1
271
     1
  0
XRECORD
  5
1598
102
{ACAD_REACTORS
330
1593
102
}
330
1593
100
AcDbXrecord
280
     1
270
     1
271
     1
  0
XRECORD
  5
1597
102
{ACAD_REACTORS
330
1593
102
}
330
1593
100
AcDbXrecord
280
     1
270
     1
271
     1
  0
XRECORD
  5
1599
102
{ACAD_REACTORS
330
1593
102
}
330
1593
100
AcDbXrecord
280
     1
270
     1
271
     1
  0
XRECORD
  5
1596
102
{ACAD_REACTORS
330
1593
102
}
330
1593
100
AcDbXrecord
280
     1
270
     1
271
     1
  0
XRECORD
  5
15F8
102
{ACAD_REACTORS
330
158B
102
}
330
158B
100
AcDbXrecord
280
     1
102
MATERIAL
148
0.0
149
0.0
149
0.0
 93
        0
 94
      127
282
     0
 72
     0
 77
     0
171
     0
175
     0
179
     0
273
     0
  0
XRECORD
  5
158D
102
{ACAD_REACTORS
330
158B
102
}
330
158B
100
AcDbXrecord
280
     1
270
     1
271
     1
  0
XRECORD
  5
158C
102
{ACAD_REACTORS
330
158B
102
}
330
158B
100
AcDbXrecord
280
     1
270
     1
271
     1
  0
XRECORD
  5
1590
102
{ACAD_REACTORS
330
158B
102
}
330
158B
100
AcDbXrecord
280
     1
270
     1
271
     1
  0
XRECORD
  5
158F
102
{ACAD_REACTORS
330
158B
102
}
330
158B
100
AcDbXrecord
280
     1
270
     1
271
     1
  0
XRECORD
  5
1591
102
{ACAD_REACTORS
330
158B
102
}
330
158B
100
AcDbXrecord
280
     1
270
     1
271
     1
  0
XRECORD
  5
158E
102
{ACAD_REACTORS
330
158B
102
}
330
158B
100
AcDbXrecord
280
     1
270
     1
271
     1
  0
XRECORD
  5
15FA
102
{ACAD_REACTORS
330
159B
102
}
330
159B
100
AcDbXrecord
280
     1
102
MATERIAL
148
0.0
149
0.0
149
0.0
 93
        0
 94
      127
282
     0
 72
     0
 77
     0
171
     0
175
     0
179
     0
273
     0
  0
XRECORD
  5
159D
102
{ACAD_REACTORS
330
159B
102
}
330
159B
100
AcDbXrecord
280
     1
270
     1
271
     1
  0
XRECORD
  5
159C
102
{ACAD_REACTORS
330
159B
102
}
330
159B
100
AcDbXrecord
280
     1
270
     1
271
     1
  0
XRECORD
  5
15A0
102
{ACAD_REACTORS
330
159B
102
}
330
159B
100
AcDbXrecord
280
     1
270
     1
271
     1
  0
XRECORD
  5
159F
102
{ACAD_REACTORS
330
159B
102
}
330
159B
100
AcDbXrecord
280
     1
270
     1
271
     1
  0
XRECORD
  5
15A1
102
{ACAD_REACTORS
330
159B
102
}
330
159B
100
AcDbXrecord
280
     1
270
     1
271
     1
  0
XRECORD
  5
159E
102
{ACAD_REACTORS
330
159B
102
}
330
159B
100
AcDbXrecord
280
     1
270
     1
271
     1
  0
XRECORD
  5
162E
102
{ACAD_REACTORS
330
162D
102
}
330
162D
100
AcDbXrecord
280
     1
102
DISPLAYNAME
  1
Imperial24
102
FLAGS
 90
        0
  0
CELLSTYLEMAP
  5
15F5
102
{ACAD_REACTORS
330
15F4
102
}
330
15F4
100
AcDbCellStyleMap
 90
        3
300
CELLSTYLE
  1
TABLEFORMAT_BEGIN
 90
        5
170
     1
 91
        0
 92
    32768
 62
   257
 93
        1
300
CONTENTFORMAT
  1
CONTENTFORMAT_BEGIN
 90
        0
 91
        0
 92
      512
 93
        0
300

 40
0.0
140
1.0
 94
        5
 62
     0
340
F
144
0.25
309
CONTENTFORMAT_END
171
     0
 94
        0
309
TABLEFORMAT_END
  1
CELLSTYLE_BEGIN
 90
        1
 91
        1
300
_TITLE
309
CELLSTYLE_END
300
CELLSTYLE
  1
TABLEFORMAT_BEGIN
 90
        5
170
     1
 91
        0
 92
        0
 62
   257
 93
        1
300
CONTENTFORMAT
  1
CONTENTFORMAT_BEGIN
 90
        0
 91
        0
 92
      512
 93
        0
300

 40
0.0
140
1.0
 94
        5
 62
     0
340
F
144
0.18
309
CONTENTFORMAT_END
171
     0
 94
        0
309
TABLEFORMAT_END
  1
CELLSTYLE_BEGIN
 90
        2
 91
        1
300
_HEADER
309
CELLSTYLE_END
300
CELLSTYLE
  1
TABLEFORMAT_BEGIN
 90
        5
170
     1
 91
        0
 92
        0
 62
   257
 93
        1
300
CONTENTFORMAT
  1
CONTENTFORMAT_BEGIN
 90
        0
 91
        0
 92
      512
 93
        0
300

 40
0.0
140
1.0
 94
        2
 62
     0
340
F
144
0.18
309
CONTENTFORMAT_END
171
     0
 94
        0
309
TABLEFORMAT_END
  1
CELLSTYLE_BEGIN
 90
        3
 91
        2
300
_DATA
309
CELLSTYLE_END
  0
XRECORD
  5
162B
102
{ACAD_REACTORS
330
15F4
102
}
330
15F4
100
AcDbXrecord
280
     1
102
ACAD_ROUNDTRIP_PRE2007_TABLESTYLE
 90
      512
 91
        0
  1

 92
      512
 93
        0
  2

 94
      512
 95
        0
  3

  0
XRECORD
  5
1606
102
{ACAD_REACTORS
330
1605
102
}
330
1605
100
AcDbXrecord
280
     1
102
RTVSPost2010Prop28
280
     1
102
RTVSPost2010PropOp28
 70
     1
102
RTVSPost2010Prop29
280
     1
102
RTVSPost2010PropOp29
 70
     1
102
RTVSPost2010Prop30
280
     0
102
RTVSPost2010PropOp30
 70
     1
102
RTVSPost2010Prop31
280
     0
102
RTVSPost2010PropOp31
 70
     1
102
RTVSPost2010Prop32
280
     0
102
RTVSPost2010PropOp32
 70
     1
102
RTVSPost2010Prop33
280
     0
102
RTVSPost2010PropOp33
 70
     1
102
RTVSPost2010Prop34
280
     0
102
RTVSPost2010PropOp34
 70
     1
102
RTVSPost2010Prop35
280
     0
102
RTVSPost2010PropOp35
 70
     1
102
RTVSPost2010Prop36
280
     0
102
RTVSPost2010PropOp36
 70
     1
102
RTVSPost2010Prop37
 90
       50
102
RTVSPost2010PropOp37
 70
     1
102
RTVSPost2010Prop38
140
0.0
102
RTVSPost2010PropOp38
 70
     1
102
RTVSPost2010Prop39
140
1.0
102
RTVSPost2010PropOp39
 70
     1
102
RTVSPost2010Prop40
 90
        0
102
RTVSPost2010PropOp40
 70
     1
102
RTVSPost2010Prop41ColorIndex
 90
       18
102
RTVSPost2010Prop41ColorRGB
 90
        0
102
RTVSPost2010PropOp41
 70
     1
102
RTVSPost2010Prop42
 90
       50
102
RTVSPost2010PropOp42
 70
     1
102
RTVSPost2010Prop43
 90
        3
102
RTVSPost2010PropOp43
 70
     1
102
RTVSPost2010Prop44ColorIndex
 90
        5
102
RTVSPost2010Prop44ColorRGB
 90
      255
102
RTVSPost2010PropOp44
 70
     1
102
RTVSPost2010Prop45
280
     0
102
RTVSPost2010PropOp45
 70
     1
102
RTVSPost2010Prop46
 90
       50
102
RTVSPost2010PropOp46
 70
     1
102
RTVSPost2010Prop47
 90
       50
102
RTVSPost2010PropOp47
 70
     1
102
RTVSPost2010Prop48
 90
       50
102
RTVSPost2010PropOp48
 70
     1
102
RTVSPost2010Prop49
280
     0
102
RTVSPost2010PropOp49
 70
     1
102
RTVSPost2010Prop50
 90
       50
102
RTVSPost2010PropOp50
 70
     1
102
RTVSPost2010Prop51ColorIndex
 90
      256
102
RTVSPost2010Prop51ColorRGB
 90
-16777216
102
RTVSPost2010PropOp51
 70
     0
102
RTVSPost2010Prop52
140
1.0
102
RTVSPost2010PropOp52
 70
     0
102
RTVSPost2010Prop53
 90
        2
102
RTVSPost2010PropOp53
 70
     1
102
RTVSPost2010Prop54
  1
strokes_ogs.tif
102
RTVSPost2010PropOp54
 70
     1
102
RTVSPost2010Prop55
280
     0
102
RTVSPost2010PropOp55
 70
     1
102
RTVSPost2010Prop56
140
1.0
102
RTVSPost2010PropOp56
 70
     1
102
RTVSPost2010Prop57
140
1.0
102
RTVSPost2010PropOp57
 70
     1
102
RTVSPropertyOp0
 70
     1
102
RTVSPropertyOp1
 70
     1
102
RTVSPropertyOp2
 70
     1
102
RTVSPropertyOp3
 70
     1
102
RTVSPropertyOp4
 70
     1
102
RTVSPropertyOp5
 70
     1
102
RTVSPropertyOp6
 70
     1
102
RTVSPropertyOp7
 70
     1
102
RTVSPropertyOp8
 70
     1
102
RTVSPropertyOp9
 70
     1
102
RTVSPropertyOp10
 70
     1
102
RTVSPropertyOp11
 70
     1
102
RTVSPropertyOp12
 70
     1
102
RTVSPropertyOp13
 70
     1
102
RTVSPropertyOp14
 70
     1
102
RTVSPropertyOp15
 70
     1
102
RTVSPropertyOp16
 70
     1
102
RTVSPropertyOp17
 70
     1
102
RTVSPropertyOp18
 70
     1
102
RTVSPropertyOp19
 70
     1
102
RTVSPropertyOp20
 70
     1
102
RTVSPropertyOp21
 70
     1
102
RTVSPropertyOp22
 70
     1
102
RTVSPropertyOp23
 70
     1
102
RTVSPropertyOp24
 70
     1
102
RTVSPropertyOp25
 70
     1
102
RTVSPropertyOp26
 70
     1
102
RTVSPropertyOp27
 70
     1
102
RTVSPropertyOp28
 70
     1
102
RTVSPropertyOp29
 70
     1
102
RTVSPropertyOp30
 70
     1
102
RTVSPropertyOp31
 70
     1
102
RTVSPropertyOp32
 70
     1
102
RTVSPropertyOp33
 70
     1
102
RTVSPropertyOp34
 70
     1
102
RTVSPropertyOp35
 70
     1
102
RTVSPropertyOp36
 70
     1
102
RTVSPropertyOp37
 70
     1
102
RTVSPropertyOp38
 70
     1
102
RTVSPropertyOp39
 70
     1
102
RTVSPropertyOp40
 70
     1
102
RTVSPropertyOp41
 70
     1
102
RTVSPropertyOp42
 70
     1
102
RTVSPropertyOp43
 70
     1
102
RTVSPropertyOp44
 70
     1
102
RTVSPropertyOp45
 70
     1
102
RTVSPropertyOp46
 70
     1
102
RTVSPropertyOp47
 70
     1
102
RTVSPropertyOp48
 70
     1
102
RTVSPropertyOp49
 70
     1
102
RTVSPropertyOp50
 70
     1
102
RTVSPropertyOp51
 70
     0
102
RTVSPropertyOp52
 70
     0
102
RTVSPropertyOp53
 70
     1
102
RTVSPropertyOp54
 70
     1
102
RTVSPropertyOp55
 70
     1
102
RTVSPropertyOp56
 70
     1
102
RTVSPropertyOp57
 70
     1
102
RTVSPropertyOp58
 70
     1
102
RTVSPropertyOp59
 70
     1
102
RTVSPropertyOp60
 70
     1
102
RTVSPropertyOp61
 70
     1
102
RTVSPropertyOp62
 70
     1
  0
XRECORD
  5
1604
102
{ACAD_REACTORS
330
1603
102
}
330
1603
100
AcDbXrecord
280
     1
102
RTVSPost2010Prop28
280
     0
102
RTVSPost2010PropOp28
 70
     1
102
RTVSPost2010Prop29
280
     1
102
RTVSPost2010PropOp29
 70
     1
102
RTVSPost2010Prop30
280
     1
102
RTVSPost2010PropOp30
 70
     1
102
RTVSPost2010Prop31
280
     0
102
RTVSPost2010PropOp31
 70
     1
102
RTVSPost2010Prop32
280
     0
102
RTVSPost2010PropOp32
 70
     1
102
RTVSPost2010Prop33
280
     0
102
RTVSPost2010PropOp33
 70
     1
102
RTVSPost2010Prop34
280
     0
102
RTVSPost2010PropOp34
 70
     1
102
RTVSPost2010Prop35
280
     0
102
RTVSPost2010PropOp35
 70
     1
102
RTVSPost2010Prop36
280
     0
102
RTVSPost2010PropOp36
 70
     1
102
RTVSPost2010Prop37
 90
       50
102
RTVSPost2010PropOp37
 70
     1
102
RTVSPost2010Prop38
140
0.0
102
RTVSPost2010PropOp38
 70
     1
102
RTVSPost2010Prop39
140
1.0
102
RTVSPost2010PropOp39
 70
     1
102
RTVSPost2010Prop40
 90
        0
102
RTVSPost2010PropOp40
 70
     1
102
RTVSPost2010Prop41ColorIndex
 90
       18
102
RTVSPost2010Prop41ColorRGB
 90
        0
102
RTVSPost2010PropOp41
 70
     1
102
RTVSPost2010Prop42
 90
       50
102
RTVSPost2010PropOp42
 70
     1
102
RTVSPost2010Prop43
 90
        3
102
RTVSPost2010PropOp43
 70
     1
102
RTVSPost2010Prop44ColorIndex
 90
        5
102
RTVSPost2010Prop44ColorRGB
 90
      255
102
RTVSPost2010PropOp44
 70
     1
102
RTVSPost2010Prop45
280
     0
102
RTVSPost2010PropOp45
 70
     1
102
RTVSPost2010Prop46
 90
       50
102
RTVSPost2010PropOp46
 70
     1
102
RTVSPost2010Prop47
 90
       50
102
RTVSPost2010PropOp47
 70
     1
102
RTVSPost2010Prop48
 90
       50
102
RTVSPost2010PropOp48
 70
     1
102
RTVSPost2010Prop49
280
     0
102
RTVSPost2010PropOp49
 70
     1
102
RTVSPost2010Prop50
 90
       50
102
RTVSPost2010PropOp50
 70
     1
102
RTVSPost2010Prop51ColorIndex
 90
      256
102
RTVSPost2010Prop51ColorRGB
 90
-16777216
102
RTVSPost2010PropOp51
 70
     0
102
RTVSPost2010Prop52
140
1.0
102
RTVSPost2010PropOp52
 70
     0
102
RTVSPost2010Prop53
 90
        2
102
RTVSPost2010PropOp53
 70
     1
102
RTVSPost2010Prop54
  1
strokes_ogs.tif
102
RTVSPost2010PropOp54
 70
     1
102
RTVSPost2010Prop55
280
     0
102
RTVSPost2010PropOp55
 70
     1
102
RTVSPost2010Prop56
140
1.0
102
RTVSPost2010PropOp56
 70
     1
102
RTVSPost2010Prop57
140
1.0
102
RTVSPost2010PropOp57
 70
     1
102
RTVSPropertyOp0
 70
     1
102
RTVSPropertyOp1
 70
     1
102
RTVSPropertyOp2
 70
     1
102
RTVSPropertyOp3
 70
     1
102
RTVSPropertyOp4
 70
     1
102
RTVSPropertyOp5
 70
     1
102
RTVSPropertyOp6
 70
     1
102
RTVSPropertyOp7
 70
     1
102
RTVSPropertyOp8
 70
     1
102
RTVSPropertyOp9
 70
     1
102
RTVSPropertyOp10
 70
     1
102
RTVSPropertyOp11
 70
     1
102
RTVSPropertyOp12
 70
     1
102
RTVSPropertyOp13
 70
     1
102
RTVSPropertyOp14
 70
     1
102
RTVSPropertyOp15
 70
     1
102
RTVSPropertyOp16
 70
     1
102
RTVSPropertyOp17
 70
     1
102
RTVSPropertyOp18
 70
     1
102
RTVSPropertyOp19
 70
     1
102
RTVSPropertyOp20
 70
     1
102
RTVSPropertyOp21
 70
     1
102
RTVSPropertyOp22
 70
     1
102
RTVSPropertyOp23
 70
     1
102
RTVSPropertyOp24
 70
     1
102
RTVSPropertyOp25
 70
     1
102
RTVSPropertyOp26
 70
     1
102
RTVSPropertyOp27
 70
     1
102
RTVSPropertyOp28
 70
     1
102
RTVSPropertyOp29
 70
     1
102
RTVSPropertyOp30
 70
     1
102
RTVSPropertyOp31
 70
     1
102
RTVSPropertyOp32
 70
     1
102
RTVSPropertyOp33
 70
     1
102
RTVSPropertyOp34
 70
     1
102
RTVSPropertyOp35
 70
     1
102
RTVSPropertyOp36
 70
     1
102
RTVSPropertyOp37
 70
     1
102
RTVSPropertyOp38
 70
     1
102
RTVSPropertyOp39
 70
     1
102
RTVSPropertyOp40
 70
     1
102
RTVSPropertyOp41
 70
     1
102
RTVSPropertyOp42
 70
     1
102
RTVSPropertyOp43
 70
     1
102
RTVSPropertyOp44
 70
     1
102
RTVSPropertyOp45
 70
     1
102
RTVSPropertyOp46
 70
     1
102
RTVSPropertyOp47
 70
     1
102
RTVSPropertyOp48
 70
     1
102
RTVSPropertyOp49
 70
     1
102
RTVSPropertyOp50
 70
     1
102
RTVSPropertyOp51
 70
     0
102
RTVSPropertyOp52
 70
     0
102
RTVSPropertyOp53
 70
     1
102
RTVSPropertyOp54
 70
     1
102
RTVSPropertyOp55
 70
     1
102
RTVSPropertyOp56
 70
     1
102
RTVSPropertyOp57
 70
     1
102
RTVSPropertyOp58
 70
     1
102
RTVSPropertyOp59
 70
     1
102
RTVSPropertyOp60
 70
     1
102
RTVSPropertyOp61
 70
     1
102
RTVSPropertyOp62
 70
     1
  0
XRECORD
  5
1612
102
{ACAD_REACTORS
330
1611
102
}
330
1611
100
AcDbXrecord
280
     1
102
RTVSPost2010Prop28
280
     0
102
RTVSPost2010PropOp28
 70
     1
102
RTVSPost2010Prop29
280
     1
102
RTVSPost2010PropOp29
 70
     1
102
RTVSPost2010Prop30
280
     1
102
RTVSPost2010PropOp30
 70
     1
102
RTVSPost2010Prop31
280
     0
102
RTVSPost2010PropOp31
 70
     1
102
RTVSPost2010Prop32
280
     0
102
RTVSPost2010PropOp32
 70
     1
102
RTVSPost2010Prop33
280
     0
102
RTVSPost2010PropOp33
 70
     1
102
RTVSPost2010Prop34
280
     0
102
RTVSPost2010PropOp34
 70
     1
102
RTVSPost2010Prop35
280
     0
102
RTVSPost2010PropOp35
 70
     1
102
RTVSPost2010Prop36
280
     0
102
RTVSPost2010PropOp36
 70
     1
102
RTVSPost2010Prop37
 90
       50
102
RTVSPost2010PropOp37
 70
     1
102
RTVSPost2010Prop38
140
0.0
102
RTVSPost2010PropOp38
 70
     1
102
RTVSPost2010Prop39
140
1.0
102
RTVSPost2010PropOp39
 70
     1
102
RTVSPost2010Prop40
 90
        0
102
RTVSPost2010PropOp40
 70
     1
102
RTVSPost2010Prop41ColorIndex
 90
       18
102
RTVSPost2010Prop41ColorRGB
 90
        0
102
RTVSPost2010PropOp41
 70
     1
102
RTVSPost2010Prop42
 90
       50
102
RTVSPost2010PropOp42
 70
     1
102
RTVSPost2010Prop43
 90
        3
102
RTVSPost2010PropOp43
 70
     1
102
RTVSPost2010Prop44ColorIndex
 90
        5
102
RTVSPost2010Prop44ColorRGB
 90
      255
102
RTVSPost2010PropOp44
 70
     1
102
RTVSPost2010Prop45
280
     0
102
RTVSPost2010PropOp45
 70
     1
102
RTVSPost2010Prop46
 90
       50
102
RTVSPost2010PropOp46
 70
     1
102
RTVSPost2010Prop47
 90
       50
102
RTVSPost2010PropOp47
 70
     1
102
RTVSPost2010Prop48
 90
       50
102
RTVSPost2010PropOp48
 70
     1
102
RTVSPost2010Prop49
280
     0
102
RTVSPost2010PropOp49
 70
     1
102
RTVSPost2010Prop50
 90
       50
102
RTVSPost2010PropOp50
 70
     1
102
RTVSPost2010Prop51ColorIndex
 90
      256
102
RTVSPost2010Prop51ColorRGB
 90
-16777216
102
RTVSPost2010PropOp51
 70
     0
102
RTVSPost2010Prop52
140
1.0
102
RTVSPost2010PropOp52
 70
     0
102
RTVSPost2010Prop53
 90
        2
102
RTVSPost2010PropOp53
 70
     1
102
RTVSPost2010Prop54
  1
strokes_ogs.tif
102
RTVSPost2010PropOp54
 70
     1
102
RTVSPost2010Prop55
280
     0
102
RTVSPost2010PropOp55
 70
     1
102
RTVSPost2010Prop56
140
1.0
102
RTVSPost2010PropOp56
 70
     1
102
RTVSPost2010Prop57
140
1.0
102
RTVSPost2010PropOp57
 70
     1
102
RTVSPropertyOp0
 70
     1
102
RTVSPropertyOp1
 70
     1
102
RTVSPropertyOp2
 70
     1
102
RTVSPropertyOp3
 70
     1
102
RTVSPropertyOp4
 70
     1
102
RTVSPropertyOp5
 70
     1
102
RTVSPropertyOp6
 70
     1
102
RTVSPropertyOp7
 70
     1
102
RTVSPropertyOp8
 70
     1
102
RTVSPropertyOp9
 70
     1
102
RTVSPropertyOp10
 70
     1
102
RTVSPropertyOp11
 70
     1
102
RTVSPropertyOp12
 70
     1
102
RTVSPropertyOp13
 70
     1
102
RTVSPropertyOp14
 70
     1
102
RTVSPropertyOp15
 70
     1
102
RTVSPropertyOp16
 70
     1
102
RTVSPropertyOp17
 70
     1
102
RTVSPropertyOp18
 70
     1
102
RTVSPropertyOp19
 70
     1
102
RTVSPropertyOp20
 70
     1
102
RTVSPropertyOp21
 70
     1
102
RTVSPropertyOp22
 70
     1
102
RTVSPropertyOp23
 70
     1
102
RTVSPropertyOp24
 70
     1
102
RTVSPropertyOp25
 70
     1
102
RTVSPropertyOp26
 70
     1
102
RTVSPropertyOp27
 70
     1
102
RTVSPropertyOp28
 70
     1
102
RTVSPropertyOp29
 70
     1
102
RTVSPropertyOp30
 70
     1
102
RTVSPropertyOp31
 70
     1
102
RTVSPropertyOp32
 70
     1
102
RTVSPropertyOp33
 70
     1
102
RTVSPropertyOp34
 70
     1
102
RTVSPropertyOp35
 70
     1
102
RTVSPropertyOp36
 70
     1
102
RTVSPropertyOp37
 70
     1
102
RTVSPropertyOp38
 70
     1
102
RTVSPropertyOp39
 70
     1
102
RTVSPropertyOp40
 70
     1
102
RTVSPropertyOp41
 70
     1
102
RTVSPropertyOp42
 70
     1
102
RTVSPropertyOp43
 70
     1
102
RTVSPropertyOp44
 70
     1
102
RTVSPropertyOp45
 70
     1
102
RTVSPropertyOp46
 70
     1
102
RTVSPropertyOp47
 70
     1
102
RTVSPropertyOp48
 70
     1
102
RTVSPropertyOp49
 70
     1
102
RTVSPropertyOp50
 70
     1
102
RTVSPropertyOp51
 70
     0
102
RTVSPropertyOp52
 70
     0
102
RTVSPropertyOp53
 70
     1
102
RTVSPropertyOp54
 70
     1
102
RTVSPropertyOp55
 70
     1
102
RTVSPropertyOp56
 70
     1
102
RTVSPropertyOp57
 70
     1
102
RTVSPropertyOp58
 70
     1
102
RTVSPropertyOp59
 70
     1
102
RTVSPropertyOp60
 70
     1
102
RTVSPropertyOp61
 70
     1
102
RTVSPropertyOp62
 70
     1
  0
XRECORD
  5
161A
102
{ACAD_REACTORS
330
1619
102
}
330
1619
100
AcDbXrecord
280
     1
102
RTVSPost2010Prop28
280
     0
102
RTVSPost2010PropOp28
 70
     1
102
RTVSPost2010Prop29
280
     1
102
RTVSPost2010PropOp29
 70
     1
102
RTVSPost2010Prop30
280
     1
102
RTVSPost2010PropOp30
 70
     1
102
RTVSPost2010Prop31
280
     0
102
RTVSPost2010PropOp31
 70
     1
102
RTVSPost2010Prop32
280
     0
102
RTVSPost2010PropOp32
 70
     1
102
RTVSPost2010Prop33
280
     0
102
RTVSPost2010PropOp33
 70
     1
102
RTVSPost2010Prop34
280
     0
102
RTVSPost2010PropOp34
 70
     1
102
RTVSPost2010Prop35
280
     0
102
RTVSPost2010PropOp35
 70
     1
102
RTVSPost2010Prop36
280
     0
102
RTVSPost2010PropOp36
 70
     1
102
RTVSPost2010Prop37
 90
       50
102
RTVSPost2010PropOp37
 70
     1
102
RTVSPost2010Prop38
140
0.0
102
RTVSPost2010PropOp38
 70
     1
102
RTVSPost2010Prop39
140
1.0
102
RTVSPost2010PropOp39
 70
     1
102
RTVSPost2010Prop40
 90
        0
102
RTVSPost2010PropOp40
 70
     1
102
RTVSPost2010Prop41ColorIndex
 90
       18
102
RTVSPost2010Prop41ColorRGB
 90
        0
102
RTVSPost2010PropOp41
 70
     1
102
RTVSPost2010Prop42
 90
       50
102
RTVSPost2010PropOp42
 70
     1
102
RTVSPost2010Prop43
 90
        3
102
RTVSPost2010PropOp43
 70
     1
102
RTVSPost2010Prop44ColorIndex
 90
        5
102
RTVSPost2010Prop44ColorRGB
 90
      255
102
RTVSPost2010PropOp44
 70
     1
102
RTVSPost2010Prop45
280
     0
102
RTVSPost2010PropOp45
 70
     1
102
RTVSPost2010Prop46
 90
       50
102
RTVSPost2010PropOp46
 70
     1
102
RTVSPost2010Prop47
 90
       50
102
RTVSPost2010PropOp47
 70
     1
102
RTVSPost2010Prop48
 90
       50
102
RTVSPost2010PropOp48
 70
     1
102
RTVSPost2010Prop49
280
     0
102
RTVSPost2010PropOp49
 70
     1
102
RTVSPost2010Prop50
 90
       50
102
RTVSPost2010PropOp50
 70
     1
102
RTVSPost2010Prop51ColorIndex
 90
      256
102
RTVSPost2010Prop51ColorRGB
 90
-16777216
102
RTVSPost2010PropOp51
 70
     0
102
RTVSPost2010Prop52
140
1.0
102
RTVSPost2010PropOp52
 70
     0
102
RTVSPost2010Prop53
 90
        2
102
RTVSPost2010PropOp53
 70
     1
102
RTVSPost2010Prop54
  1
strokes_ogs.tif
102
RTVSPost2010PropOp54
 70
     1
102
RTVSPost2010Prop55
280
     0
102
RTVSPost2010PropOp55
 70
     1
102
RTVSPost2010Prop56
140
1.0
102
RTVSPost2010PropOp56
 70
     1
102
RTVSPost2010Prop57
140
1.0
102
RTVSPost2010PropOp57
 70
     1
102
RTVSPropertyOp0
 70
     1
102
RTVSPropertyOp1
 70
     1
102
RTVSPropertyOp2
 70
     1
102
RTVSPropertyOp3
 70
     1
102
RTVSPropertyOp4
 70
     1
102
RTVSPropertyOp5
 70
     1
102
RTVSPropertyOp6
 70
     1
102
RTVSPropertyOp7
 70
     1
102
RTVSPropertyOp8
 70
     1
102
RTVSPropertyOp9
 70
     1
102
RTVSPropertyOp10
 70
     1
102
RTVSPropertyOp11
 70
     1
102
RTVSPropertyOp12
 70
     1
102
RTVSPropertyOp13
 70
     1
102
RTVSPropertyOp14
 70
     1
102
RTVSPropertyOp15
 70
     1
102
RTVSPropertyOp16
 70
     1
102
RTVSPropertyOp17
 70
     1
102
RTVSPropertyOp18
 70
     1
102
RTVSPropertyOp19
 70
     1
102
RTVSPropertyOp20
 70
     1
102
RTVSPropertyOp21
 70
     1
102
RTVSPropertyOp22
 70
     1
102
RTVSPropertyOp23
 70
     1
102
RTVSPropertyOp24
 70
     1
102
RTVSPropertyOp25
 70
     1
102
RTVSPropertyOp26
 70
     1
102
RTVSPropertyOp27
 70
     1
102
RTVSPropertyOp28
 70
     1
102
RTVSPropertyOp29
 70
     1
102
RTVSPropertyOp30
 70
     1
102
RTVSPropertyOp31
 70
     1
102
RTVSPropertyOp32
 70
     1
102
RTVSPropertyOp33
 70
     1
102
RTVSPropertyOp34
 70
     1
102
RTVSPropertyOp35
 70
     1
102
RTVSPropertyOp36
 70
     1
102
RTVSPropertyOp37
 70
     1
102
RTVSPropertyOp38
 70
     1
102
RTVSPropertyOp39
 70
     1
102
RTVSPropertyOp40
 70
     1
102
RTVSPropertyOp41
 70
     1
102
RTVSPropertyOp42
 70
     1
102
RTVSPropertyOp43
 70
     1
102
RTVSPropertyOp44
 70
     1
102
RTVSPropertyOp45
 70
     1
102
RTVSPropertyOp46
 70
     1
102
RTVSPropertyOp47
 70
     1
102
RTVSPropertyOp48
 70
     1
102
RTVSPropertyOp49
 70
     1
102
RTVSPropertyOp50
 70
     1
102
RTVSPropertyOp51
 70
     0
102
RTVSPropertyOp52
 70
     0
102
RTVSPropertyOp53
 70
     1
102
RTVSPropertyOp54
 70
     1
102
RTVSPropertyOp55
 70
     1
102
RTVSPropertyOp56
 70
     1
102
RTVSPropertyOp57
 70
     1
102
RTVSPropertyOp58
 70
     1
102
RTVSPropertyOp59
 70
     1
102
RTVSPropertyOp60
 70
     1
102
RTVSPropertyOp61
 70
     1
102
RTVSPropertyOp62
 70
     1
  0
XRECORD
  5
160C
102
{ACAD_REACTORS
330
160B
102
}
330
160B
100
AcDbXrecord
280
     1
102
RTVSPost2010Prop28
280
     0
102
RTVSPost2010PropOp28
 70
     1
102
RTVSPost2010Prop29
280
     1
102
RTVSPost2010PropOp29
 70
     1
102
RTVSPost2010Prop30
280
     1
102
RTVSPost2010PropOp30
 70
     1
102
RTVSPost2010Prop31
280
     0
102
RTVSPost2010PropOp31
 70
     1
102
RTVSPost2010Prop32
280
     0
102
RTVSPost2010PropOp32
 70
     1
102
RTVSPost2010Prop33
280
     0
102
RTVSPost2010PropOp33
 70
     1
102
RTVSPost2010Prop34
280
     0
102
RTVSPost2010PropOp34
 70
     1
102
RTVSPost2010Prop35
280
     0
102
RTVSPost2010PropOp35
 70
     1
102
RTVSPost2010Prop36
280
     0
102
RTVSPost2010PropOp36
 70
     1
102
RTVSPost2010Prop37
 90
       50
102
RTVSPost2010PropOp37
 70
     1
102
RTVSPost2010Prop38
140
0.0
102
RTVSPost2010PropOp38
 70
     1
102
RTVSPost2010Prop39
140
1.0
102
RTVSPost2010PropOp39
 70
     1
102
RTVSPost2010Prop40
 90
        0
102
RTVSPost2010PropOp40
 70
     1
102
RTVSPost2010Prop41ColorIndex
 90
       18
102
RTVSPost2010Prop41ColorRGB
 90
        0
102
RTVSPost2010PropOp41
 70
     1
102
RTVSPost2010Prop42
 90
       50
102
RTVSPost2010PropOp42
 70
     1
102
RTVSPost2010Prop43
 90
        3
102
RTVSPost2010PropOp43
 70
     1
102
RTVSPost2010Prop44ColorIndex
 90
        5
102
RTVSPost2010Prop44ColorRGB
 90
      255
102
RTVSPost2010PropOp44
 70
     1
102
RTVSPost2010Prop45
280
     0
102
RTVSPost2010PropOp45
 70
     1
102
RTVSPost2010Prop46
 90
       50
102
RTVSPost2010PropOp46
 70
     1
102
RTVSPost2010Prop47
 90
       50
102
RTVSPost2010PropOp47
 70
     1
102
RTVSPost2010Prop48
 90
       50
102
RTVSPost2010PropOp48
 70
     1
102
RTVSPost2010Prop49
280
     0
102
RTVSPost2010PropOp49
 70
     1
102
RTVSPost2010Prop50
 90
       50
102
RTVSPost2010PropOp50
 70
     1
102
RTVSPost2010Prop51ColorIndex
 90
      256
102
RTVSPost2010Prop51ColorRGB
 90
-16777216
102
RTVSPost2010PropOp51
 70
     0
102
RTVSPost2010Prop52
140
1.0
102
RTVSPost2010PropOp52
 70
     0
102
RTVSPost2010Prop53
 90
        2
102
RTVSPost2010PropOp53
 70
     1
102
RTVSPost2010Prop54
  1
strokes_ogs.tif
102
RTVSPost2010PropOp54
 70
     1
102
RTVSPost2010Prop55
280
     0
102
RTVSPost2010PropOp55
 70
     1
102
RTVSPost2010Prop56
140
1.0
102
RTVSPost2010PropOp56
 70
     1
102
RTVSPost2010Prop57
140
1.0
102
RTVSPost2010PropOp57
 70
     1
102
RTVSPropertyOp0
 70
     1
102
RTVSPropertyOp1
 70
     1
102
RTVSPropertyOp2
 70
     1
102
RTVSPropertyOp3
 70
     1
102
RTVSPropertyOp4
 70
     1
102
RTVSPropertyOp5
 70
     1
102
RTVSPropertyOp6
 70
     1
102
RTVSPropertyOp7
 70
     1
102
RTVSPropertyOp8
 70
     1
102
RTVSPropertyOp9
 70
     1
102
RTVSPropertyOp10
 70
     1
102
RTVSPropertyOp11
 70
     1
102
RTVSPropertyOp12
 70
     1
102
RTVSPropertyOp13
 70
     1
102
RTVSPropertyOp14
 70
     1
102
RTVSPropertyOp15
 70
     1
102
RTVSPropertyOp16
 70
     1
102
RTVSPropertyOp17
 70
     1
102
RTVSPropertyOp18
 70
     1
102
RTVSPropertyOp19
 70
     1
102
RTVSPropertyOp20
 70
     1
102
RTVSPropertyOp21
 70
     1
102
RTVSPropertyOp22
 70
     1
102
RTVSPropertyOp23
 70
     1
102
RTVSPropertyOp24
 70
     1
102
RTVSPropertyOp25
 70
     1
102
RTVSPropertyOp26
 70
     1
102
RTVSPropertyOp27
 70
     1
102
RTVSPropertyOp28
 70
     1
102
RTVSPropertyOp29
 70
     1
102
RTVSPropertyOp30
 70
     1
102
RTVSPropertyOp31
 70
     1
102
RTVSPropertyOp32
 70
     1
102
RTVSPropertyOp33
 70
     1
102
RTVSPropertyOp34
 70
     1
102
RTVSPropertyOp35
 70
     1
102
RTVSPropertyOp36
 70
     1
102
RTVSPropertyOp37
 70
     1
102
RTVSPropertyOp38
 70
     1
102
RTVSPropertyOp39
 70
     1
102
RTVSPropertyOp40
 70
     1
102
RTVSPropertyOp41
 70
     1
102
RTVSPropertyOp42
 70
     1
102
RTVSPropertyOp43
 70
     1
102
RTVSPropertyOp44
 70
     1
102
RTVSPropertyOp45
 70
     1
102
RTVSPropertyOp46
 70
     1
102
RTVSPropertyOp47
 70
     1
102
RTVSPropertyOp48
 70
     1
102
RTVSPropertyOp49
 70
     1
102
RTVSPropertyOp50
 70
     1
102
RTVSPropertyOp51
 70
     0
102
RTVSPropertyOp52
 70
     0
102
RTVSPropertyOp53
 70
     1
102
RTVSPropertyOp54
 70
     1
102
RTVSPropertyOp55
 70
     1
102
RTVSPropertyOp56
 70
     1
102
RTVSPropertyOp57
 70
     1
102
RTVSPropertyOp58
 70
     1
102
RTVSPropertyOp59
 70
     1
102
RTVSPropertyOp60
 70
     1
102
RTVSPropertyOp61
 70
     1
102
RTVSPropertyOp62
 70
     1
  0
XRECORD
  5
1610
102
{ACAD_REACTORS
330
160F
102
}
330
160F
100
AcDbXrecord
280
     1
102
RTVSPost2010Prop28
280
     0
102
RTVSPost2010PropOp28
 70
     1
102
RTVSPost2010Prop29
280
     1
102
RTVSPost2010PropOp29
 70
     1
102
RTVSPost2010Prop30
280
     1
102
RTVSPost2010PropOp30
 70
     1
102
RTVSPost2010Prop31
280
     0
102
RTVSPost2010PropOp31
 70
     1
102
RTVSPost2010Prop32
280
     0
102
RTVSPost2010PropOp32
 70
     1
102
RTVSPost2010Prop33
280
     0
102
RTVSPost2010PropOp33
 70
     1
102
RTVSPost2010Prop34
280
     0
102
RTVSPost2010PropOp34
 70
     1
102
RTVSPost2010Prop35
280
     0
102
RTVSPost2010PropOp35
 70
     1
102
RTVSPost2010Prop36
280
     0
102
RTVSPost2010PropOp36
 70
     1
102
RTVSPost2010Prop37
 90
       50
102
RTVSPost2010PropOp37
 70
     1
102
RTVSPost2010Prop38
140
0.0
102
RTVSPost2010PropOp38
 70
     1
102
RTVSPost2010Prop39
140
1.0
102
RTVSPost2010PropOp39
 70
     1
102
RTVSPost2010Prop40
 90
        0
102
RTVSPost2010PropOp40
 70
     1
102
RTVSPost2010Prop41ColorIndex
 90
       18
102
RTVSPost2010Prop41ColorRGB
 90
        0
102
RTVSPost2010PropOp41
 70
     1
102
RTVSPost2010Prop42
 90
       50
102
RTVSPost2010PropOp42
 70
     1
102
RTVSPost2010Prop43
 90
        3
102
RTVSPost2010PropOp43
 70
     1
102
RTVSPost2010Prop44ColorIndex
 90
        5
102
RTVSPost2010Prop44ColorRGB
 90
      255
102
RTVSPost2010PropOp44
 70
     1
102
RTVSPost2010Prop45
280
     0
102
RTVSPost2010PropOp45
 70
     1
102
RTVSPost2010Prop46
 90
       50
102
RTVSPost2010PropOp46
 70
     1
102
RTVSPost2010Prop47
 90
       50
102
RTVSPost2010PropOp47
 70
     1
102
RTVSPost2010Prop48
 90
       50
102
RTVSPost2010PropOp48
 70
     1
102
RTVSPost2010Prop49
280
     0
102
RTVSPost2010PropOp49
 70
     1
102
RTVSPost2010Prop50
 90
       50
102
RTVSPost2010PropOp50
 70
     1
102
RTVSPost2010Prop51ColorIndex
 90
      256
102
RTVSPost2010Prop51ColorRGB
 90
-16777216
102
RTVSPost2010PropOp51
 70
     0
102
RTVSPost2010Prop52
140
1.0
102
RTVSPost2010PropOp52
 70
     0
102
RTVSPost2010Prop53
 90
        2
102
RTVSPost2010PropOp53
 70
     1
102
RTVSPost2010Prop54
  1
strokes_ogs.tif
102
RTVSPost2010PropOp54
 70
     1
102
RTVSPost2010Prop55
280
     0
102
RTVSPost2010PropOp55
 70
     1
102
RTVSPost2010Prop56
140
1.0
102
RTVSPost2010PropOp56
 70
     1
102
RTVSPost2010Prop57
140
1.0
102
RTVSPost2010PropOp57
 70
     1
102
RTVSPropertyOp0
 70
     1
102
RTVSPropertyOp1
 70
     1
102
RTVSPropertyOp2
 70
     1
102
RTVSPropertyOp3
 70
     1
102
RTVSPropertyOp4
 70
     1
102
RTVSPropertyOp5
 70
     1
102
RTVSPropertyOp6
 70
     1
102
RTVSPropertyOp7
 70
     1
102
RTVSPropertyOp8
 70
     1
102
RTVSPropertyOp9
 70
     1
102
RTVSPropertyOp10
 70
     1
102
RTVSPropertyOp11
 70
     1
102
RTVSPropertyOp12
 70
     1
102
RTVSPropertyOp13
 70
     1
102
RTVSPropertyOp14
 70
     1
102
RTVSPropertyOp15
 70
     1
102
RTVSPropertyOp16
 70
     1
102
RTVSPropertyOp17
 70
     1
102
RTVSPropertyOp18
 70
     1
102
RTVSPropertyOp19
 70
     1
102
RTVSPropertyOp20
 70
     1
102
RTVSPropertyOp21
 70
     1
102
RTVSPropertyOp22
 70
     1
102
RTVSPropertyOp23
 70
     1
102
RTVSPropertyOp24
 70
     1
102
RTVSPropertyOp25
 70
     1
102
RTVSPropertyOp26
 70
     1
102
RTVSPropertyOp27
 70
     1
102
RTVSPropertyOp28
 70
     1
102
RTVSPropertyOp29
 70
     1
102
RTVSPropertyOp30
 70
     1
102
RTVSPropertyOp31
 70
     1
102
RTVSPropertyOp32
 70
     1
102
RTVSPropertyOp33
 70
     1
102
RTVSPropertyOp34
 70
     1
102
RTVSPropertyOp35
 70
     1
102
RTVSPropertyOp36
 70
     1
102
RTVSPropertyOp37
 70
     1
102
RTVSPropertyOp38
 70
     1
102
RTVSPropertyOp39
 70
     1
102
RTVSPropertyOp40
 70
     1
102
RTVSPropertyOp41
 70
     1
102
RTVSPropertyOp42
 70
     1
102
RTVSPropertyOp43
 70
     1
102
RTVSPropertyOp44
 70
     1
102
RTVSPropertyOp45
 70
     1
102
RTVSPropertyOp46
 70
     1
102
RTVSPropertyOp47
 70
     1
102
RTVSPropertyOp48
 70
     1
102
RTVSPropertyOp49
 70
     1
102
RTVSPropertyOp50
 70
     1
102
RTVSPropertyOp51
 70
     0
102
RTVSPropertyOp52
 70
     0
102
RTVSPropertyOp53
 70
     1
102
RTVSPropertyOp54
 70
     1
102
RTVSPropertyOp55
 70
     1
102
RTVSPropertyOp56
 70
     1
102
RTVSPropertyOp57
 70
     1
102
RTVSPropertyOp58
 70
     1
102
RTVSPropertyOp59
 70
     1
102
RTVSPropertyOp60
 70
     1
102
RTVSPropertyOp61
 70
     1
102
RTVSPropertyOp62
 70
     1
  0
XRECORD
  5
162A
102
{ACAD_REACTORS
330
1629
102
}
330
1629
100
AcDbXrecord
280
     1
102
RTVSPost2010Prop28
280
     0
102
RTVSPost2010PropOp28
 70
     1
102
RTVSPost2010Prop29
280
     1
102
RTVSPost2010PropOp29
 70
     1
102
RTVSPost2010Prop30
280
     1
102
RTVSPost2010PropOp30
 70
     1
102
RTVSPost2010Prop31
280
     0
102
RTVSPost2010PropOp31
 70
     1
102
RTVSPost2010Prop32
280
     0
102
RTVSPost2010PropOp32
 70
     1
102
RTVSPost2010Prop33
280
     0
102
RTVSPost2010PropOp33
 70
     1
102
RTVSPost2010Prop34
280
     0
102
RTVSPost2010PropOp34
 70
     1
102
RTVSPost2010Prop35
280
     0
102
RTVSPost2010PropOp35
 70
     1
102
RTVSPost2010Prop36
280
     0
102
RTVSPost2010PropOp36
 70
     1
102
RTVSPost2010Prop37
 90
       50
102
RTVSPost2010PropOp37
 70
     0
102
RTVSPost2010Prop38
140
0.0
102
RTVSPost2010PropOp38
 70
     0
102
RTVSPost2010Prop39
140
1.0
102
RTVSPost2010PropOp39
 70
     0
102
RTVSPost2010Prop40
 90
        0
102
RTVSPost2010PropOp40
 70
     0
102
RTVSPost2010Prop41ColorIndex
 90
       18
102
RTVSPost2010Prop41ColorRGB
 90
        0
102
RTVSPost2010PropOp41
 70
     0
102
RTVSPost2010Prop42
 90
       50
102
RTVSPost2010PropOp42
 70
     0
102
RTVSPost2010Prop43
 90
        3
102
RTVSPost2010PropOp43
 70
     0
102
RTVSPost2010Prop44ColorIndex
 90
        5
102
RTVSPost2010Prop44ColorRGB
 90
      255
102
RTVSPost2010PropOp44
 70
     0
102
RTVSPost2010Prop45
280
     0
102
RTVSPost2010PropOp45
 70
     1
102
RTVSPost2010Prop46
 90
       50
102
RTVSPost2010PropOp46
 70
     0
102
RTVSPost2010Prop47
 90
       50
102
RTVSPost2010PropOp47
 70
     0
102
RTVSPost2010Prop48
 90
       50
102
RTVSPost2010PropOp48
 70
     0
102
RTVSPost2010Prop49
280
     0
102
RTVSPost2010PropOp49
 70
     1
102
RTVSPost2010Prop50
 90
       50
102
RTVSPost2010PropOp50
 70
     0
102
RTVSPost2010Prop51ColorIndex
 90
      256
102
RTVSPost2010Prop51ColorRGB
 90
-16777216
102
RTVSPost2010PropOp51
 70
     0
102
RTVSPost2010Prop52
140
1.0
102
RTVSPost2010PropOp52
 70
     0
102
RTVSPost2010Prop53
 90
        2
102
RTVSPost2010PropOp53
 70
     0
102
RTVSPost2010Prop54
  1
strokes_ogs.tif
102
RTVSPost2010PropOp54
 70
     0
102
RTVSPost2010Prop55
280
     0
102
RTVSPost2010PropOp55
 70
     1
102
RTVSPost2010Prop56
140
1.0
102
RTVSPost2010PropOp56
 70
     0
102
RTVSPost2010Prop57
140
1.0
102
RTVSPost2010PropOp57
 70
     0
102
RTVSPropertyOp0
 70
     0
102
RTVSPropertyOp1
 70
     0
102
RTVSPropertyOp2
 70
     0
102
RTVSPropertyOp3
 70
     0
102
RTVSPropertyOp4
 70
     0
102
RTVSPropertyOp5
 70
     0
102
RTVSPropertyOp6
 70
     0
102
RTVSPropertyOp7
 70
     0
102
RTVSPropertyOp8
 70
     0
102
RTVSPropertyOp9
 70
     0
102
RTVSPropertyOp10
 70
     0
102
RTVSPropertyOp11
 70
     0
102
RTVSPropertyOp12
 70
     0
102
RTVSPropertyOp13
 70
     0
102
RTVSPropertyOp14
 70
     2
102
RTVSPropertyOp15
 70
     0
102
RTVSPropertyOp16
 70
     0
102
RTVSPropertyOp17
 70
     0
102
RTVSPropertyOp18
 70
     0
102
RTVSPropertyOp19
 70
     0
102
RTVSPropertyOp20
 70
     0
102
RTVSPropertyOp21
 70
     0
102
RTVSPropertyOp22
 70
     0
102
RTVSPropertyOp23
 70
     0
102
RTVSPropertyOp24
 70
     0
102
RTVSPropertyOp25
 70
     0
102
RTVSPropertyOp26
 70
     0
102
RTVSPropertyOp27
 70
     0
102
RTVSPropertyOp28
 70
     1
102
RTVSPropertyOp29
 70
     1
102
RTVSPropertyOp30
 70
     1
102
RTVSPropertyOp31
 70
     1
102
RTVSPropertyOp32
 70
     1
102
RTVSPropertyOp33
 70
     1
102
RTVSPropertyOp34
 70
     1
102
RTVSPropertyOp35
 70
     1
102
RTVSPropertyOp36
 70
     1
102
RTVSPropertyOp37
 70
     0
102
RTVSPropertyOp38
 70
     0
102
RTVSPropertyOp39
 70
     0
102
RTVSPropertyOp40
 70
     0
102
RTVSPropertyOp41
 70
     0
102
RTVSPropertyOp42
 70
     0
102
RTVSPropertyOp43
 70
     0
102
RTVSPropertyOp44
 70
     0
102
RTVSPropertyOp45
 70
     1
102
RTVSPropertyOp46
 70
     0
102
RTVSPropertyOp47
 70
     0
102
RTVSPropertyOp48
 70
     0
102
RTVSPropertyOp49
 70
     1
102
RTVSPropertyOp50
 70
     0
102
RTVSPropertyOp51
 70
     0
102
RTVSPropertyOp52
 70
     0
102
RTVSPropertyOp53
 70
     0
102
RTVSPropertyOp54
 70
     0
102
RTVSPropertyOp55
 70
     1
102
RTVSPropertyOp56
 70
     0
102
RTVSPropertyOp57
 70
     0
102
RTVSPropertyOp58
 70
     0
102
RTVSPropertyOp59
 70
     0
102
RTVSPropertyOp60
 70
     0
102
RTVSPropertyOp61
 70
     0
102
RTVSPropertyOp62
 70
     0
  0
XRECORD
  5
1618
102
{ACAD_REACTORS
330
1617
102
}
330
1617
100
AcDbXrecord
280
     1
102
RTVSPost2010Prop28
280
     0
102
RTVSPost2010PropOp28
 70
     1
102
RTVSPost2010Prop29
280
     1
102
RTVSPost2010PropOp29
 70
     1
102
RTVSPost2010Prop30
280
     1
102
RTVSPost2010PropOp30
 70
     1
102
RTVSPost2010Prop31
280
     0
102
RTVSPost2010PropOp31
 70
     1
102
RTVSPost2010Prop32
280
     0
102
RTVSPost2010PropOp32
 70
     1
102
RTVSPost2010Prop33
280
     0
102
RTVSPost2010PropOp33
 70
     1
102
RTVSPost2010Prop34
280
     0
102
RTVSPost2010PropOp34
 70
     1
102
RTVSPost2010Prop35
280
     0
102
RTVSPost2010PropOp35
 70
     1
102
RTVSPost2010Prop36
280
     0
102
RTVSPost2010PropOp36
 70
     1
102
RTVSPost2010Prop37
 90
       50
102
RTVSPost2010PropOp37
 70
     1
102
RTVSPost2010Prop38
140
0.0
102
RTVSPost2010PropOp38
 70
     1
102
RTVSPost2010Prop39
140
1.0
102
RTVSPost2010PropOp39
 70
     1
102
RTVSPost2010Prop40
 90
        0
102
RTVSPost2010PropOp40
 70
     1
102
RTVSPost2010Prop41ColorIndex
 90
       18
102
RTVSPost2010Prop41ColorRGB
 90
        0
102
RTVSPost2010PropOp41
 70
     1
102
RTVSPost2010Prop42
 90
       50
102
RTVSPost2010PropOp42
 70
     1
102
RTVSPost2010Prop43
 90
        3
102
RTVSPost2010PropOp43
 70
     1
102
RTVSPost2010Prop44ColorIndex
 90
        5
102
RTVSPost2010Prop44ColorRGB
 90
      255
102
RTVSPost2010PropOp44
 70
     1
102
RTVSPost2010Prop45
280
     0
102
RTVSPost2010PropOp45
 70
     1
102
RTVSPost2010Prop46
 90
       50
102
RTVSPost2010PropOp46
 70
     1
102
RTVSPost2010Prop47
 90
       50
102
RTVSPost2010PropOp47
 70
     1
102
RTVSPost2010Prop48
 90
       50
102
RTVSPost2010PropOp48
 70
     1
102
RTVSPost2010Prop49
280
     0
102
RTVSPost2010PropOp49
 70
     1
102
RTVSPost2010Prop50
 90
       50
102
RTVSPost2010PropOp50
 70
     1
102
RTVSPost2010Prop51ColorIndex
 90
      256
102
RTVSPost2010Prop51ColorRGB
 90
-16777216
102
RTVSPost2010PropOp51
 70
     0
102
RTVSPost2010Prop52
140
1.0
102
RTVSPost2010PropOp52
 70
     0
102
RTVSPost2010Prop53
 90
        2
102
RTVSPost2010PropOp53
 70
     1
102
RTVSPost2010Prop54
  1
strokes_ogs.tif
102
RTVSPost2010PropOp54
 70
     1
102
RTVSPost2010Prop55
280
     0
102
RTVSPost2010PropOp55
 70
     1
102
RTVSPost2010Prop56
140
1.0
102
RTVSPost2010PropOp56
 70
     1
102
RTVSPost2010Prop57
140
1.0
102
RTVSPost2010PropOp57
 70
     1
102
RTVSPropertyOp0
 70
     1
102
RTVSPropertyOp1
 70
     1
102
RTVSPropertyOp2
 70
     1
102
RTVSPropertyOp3
 70
     1
102
RTVSPropertyOp4
 70
     1
102
RTVSPropertyOp5
 70
     1
102
RTVSPropertyOp6
 70
     1
102
RTVSPropertyOp7
 70
     1
102
RTVSPropertyOp8
 70
     1
102
RTVSPropertyOp9
 70
     1
102
RTVSPropertyOp10
 70
     1
102
RTVSPropertyOp11
 70
     1
102
RTVSPropertyOp12
 70
     1
102
RTVSPropertyOp13
 70
     1
102
RTVSPropertyOp14
 70
     1
102
RTVSPropertyOp15
 70
     1
102
RTVSPropertyOp16
 70
     1
102
RTVSPropertyOp17
 70
     1
102
RTVSPropertyOp18
 70
     1
102
RTVSPropertyOp19
 70
     1
102
RTVSPropertyOp20
 70
     1
102
RTVSPropertyOp21
 70
     1
102
RTVSPropertyOp22
 70
     1
102
RTVSPropertyOp23
 70
     1
102
RTVSPropertyOp24
 70
     1
102
RTVSPropertyOp25
 70
     1
102
RTVSPropertyOp26
 70
     1
102
RTVSPropertyOp27
 70
     1
102
RTVSPropertyOp28
 70
     1
102
RTVSPropertyOp29
 70
     1
102
RTVSPropertyOp30
 70
     1
102
RTVSPropertyOp31
 70
     1
102
RTVSPropertyOp32
 70
     1
102
RTVSPropertyOp33
 70
     1
102
RTVSPropertyOp34
 70
     1
102
RTVSPropertyOp35
 70
     1
102
RTVSPropertyOp36
 70
     1
102
RTVSPropertyOp37
 70
     1
102
RTVSPropertyOp38
 70
     1
102
RTVSPropertyOp39
 70
     1
102
RTVSPropertyOp40
 70
     1
102
RTVSPropertyOp41
 70
     1
102
RTVSPropertyOp42
 70
     1
102
RTVSPropertyOp43
 70
     1
102
RTVSPropertyOp44
 70
     1
102
RTVSPropertyOp45
 70
     1
102
RTVSPropertyOp46
 70
     1
102
RTVSPropertyOp47
 70
     1
102
RTVSPropertyOp48
 70
     1
102
RTVSPropertyOp49
 70
     1
102
RTVSPropertyOp50
 70
     1
102
RTVSPropertyOp51
 70
     0
102
RTVSPropertyOp52
 70
     0
102
RTVSPropertyOp53
 70
     1
102
RTVSPropertyOp54
 70
     1
102
RTVSPropertyOp55
 70
     1
102
RTVSPropertyOp56
 70
     1
102
RTVSPropertyOp57
 70
     1
102
RTVSPropertyOp58
 70
     1
102
RTVSPropertyOp59
 70
     1
102
RTVSPropertyOp60
 70
     1
102
RTVSPropertyOp61
 70
     1
102
RTVSPropertyOp62
 70
     1
  0
XRECORD
  5
15FC
102
{ACAD_REACTORS
330
15FB
102
}
330
15FB
100
AcDbXrecord
280
     1
102
RTVSPost2010Prop28
280
     0
102
RTVSPost2010PropOp28
 70
     1
102
RTVSPost2010Prop29
280
     1
102
RTVSPost2010PropOp29
 70
     1
102
RTVSPost2010Prop30
280
     1
102
RTVSPost2010PropOp30
 70
     1
102
RTVSPost2010Prop31
280
     0
102
RTVSPost2010PropOp31
 70
     1
102
RTVSPost2010Prop32
280
     0
102
RTVSPost2010PropOp32
 70
     1
102
RTVSPost2010Prop33
280
     0
102
RTVSPost2010PropOp33
 70
     1
102
RTVSPost2010Prop34
280
     0
102
RTVSPost2010PropOp34
 70
     1
102
RTVSPost2010Prop35
280
     0
102
RTVSPost2010PropOp35
 70
     1
102
RTVSPost2010Prop36
280
     0
102
RTVSPost2010PropOp36
 70
     1
102
RTVSPost2010Prop37
 90
       50
102
RTVSPost2010PropOp37
 70
     1
102
RTVSPost2010Prop38
140
0.0
102
RTVSPost2010PropOp38
 70
     1
102
RTVSPost2010Prop39
140
1.0
102
RTVSPost2010PropOp39
 70
     1
102
RTVSPost2010Prop40
 90
        0
102
RTVSPost2010PropOp40
 70
     1
102
RTVSPost2010Prop41ColorIndex
 90
       18
102
RTVSPost2010Prop41ColorRGB
 90
        0
102
RTVSPost2010PropOp41
 70
     1
102
RTVSPost2010Prop42
 90
       50
102
RTVSPost2010PropOp42
 70
     1
102
RTVSPost2010Prop43
 90
        3
102
RTVSPost2010PropOp43
 70
     1
102
RTVSPost2010Prop44ColorIndex
 90
        5
102
RTVSPost2010Prop44ColorRGB
 90
      255
102
RTVSPost2010PropOp44
 70
     1
102
RTVSPost2010Prop45
280
     0
102
RTVSPost2010PropOp45
 70
     1
102
RTVSPost2010Prop46
 90
       50
102
RTVSPost2010PropOp46
 70
     1
102
RTVSPost2010Prop47
 90
       50
102
RTVSPost2010PropOp47
 70
     1
102
RTVSPost2010Prop48
 90
       50
102
RTVSPost2010PropOp48
 70
     1
102
RTVSPost2010Prop49
280
     0
102
RTVSPost2010PropOp49
 70
     1
102
RTVSPost2010Prop50
 90
       50
102
RTVSPost2010PropOp50
 70
     1
102
RTVSPost2010Prop51ColorIndex
 90
      256
102
RTVSPost2010Prop51ColorRGB
 90
-16777216
102
RTVSPost2010PropOp51
 70
     0
102
RTVSPost2010Prop52
140
1.0
102
RTVSPost2010PropOp52
 70
     0
102
RTVSPost2010Prop53
 90
        2
102
RTVSPost2010PropOp53
 70
     1
102
RTVSPost2010Prop54
  1
strokes_ogs.tif
102
RTVSPost2010PropOp54
 70
     1
102
RTVSPost2010Prop55
280
     0
102
RTVSPost2010PropOp55
 70
     1
102
RTVSPost2010Prop56
140
1.0
102
RTVSPost2010PropOp56
 70
     1
102
RTVSPost2010Prop57
140
1.0
102
RTVSPost2010PropOp57
 70
     1
102
RTVSPropertyOp0
 70
     1
102
RTVSPropertyOp1
 70
     1
102
RTVSPropertyOp2
 70
     1
102
RTVSPropertyOp3
 70
     1
102
RTVSPropertyOp4
 70
     1
102
RTVSPropertyOp5
 70
     1
102
RTVSPropertyOp6
 70
     1
102
RTVSPropertyOp7
 70
     1
102
RTVSPropertyOp8
 70
     1
102
RTVSPropertyOp9
 70
     1
102
RTVSPropertyOp10
 70
     1
102
RTVSPropertyOp11
 70
     1
102
RTVSPropertyOp12
 70
     1
102
RTVSPropertyOp13
 70
     1
102
RTVSPropertyOp14
 70
     1
102
RTVSPropertyOp15
 70
     1
102
RTVSPropertyOp16
 70
     1
102
RTVSPropertyOp17
 70
     1
102
RTVSPropertyOp18
 70
     1
102
RTVSPropertyOp19
 70
     1
102
RTVSPropertyOp20
 70
     1
102
RTVSPropertyOp21
 70
     1
102
RTVSPropertyOp22
 70
     1
102
RTVSPropertyOp23
 70
     1
102
RTVSPropertyOp24
 70
     1
102
RTVSPropertyOp25
 70
     1
102
RTVSPropertyOp26
 70
     1
102
RTVSPropertyOp27
 70
     1
102
RTVSPropertyOp28
 70
     1
102
RTVSPropertyOp29
 70
     1
102
RTVSPropertyOp30
 70
     1
102
RTVSPropertyOp31
 70
     1
102
RTVSPropertyOp32
 70
     1
102
RTVSPropertyOp33
 70
     1
102
RTVSPropertyOp34
 70
     1
102
RTVSPropertyOp35
 70
     1
102
RTVSPropertyOp36
 70
     1
102
RTVSPropertyOp37
 70
     1
102
RTVSPropertyOp38
 70
     1
102
RTVSPropertyOp39
 70
     1
102
RTVSPropertyOp40
 70
     1
102
RTVSPropertyOp41
 70
     1
102
RTVSPropertyOp42
 70
     1
102
RTVSPropertyOp43
 70
     1
102
RTVSPropertyOp44
 70
     1
102
RTVSPropertyOp45
 70
     1
102
RTVSPropertyOp46
 70
     1
102
RTVSPropertyOp47
 70
     1
102
RTVSPropertyOp48
 70
     1
102
RTVSPropertyOp49
 70
     1
102
RTVSPropertyOp50
 70
     1
102
RTVSPropertyOp51
 70
     0
102
RTVSPropertyOp52
 70
     0
102
RTVSPropertyOp53
 70
     1
102
RTVSPropertyOp54
 70
     1
102
RTVSPropertyOp55
 70
     1
102
RTVSPropertyOp56
 70
     1
102
RTVSPropertyOp57
 70
     1
102
RTVSPropertyOp58
 70
     1
102
RTVSPropertyOp59
 70
     1
102
RTVSPropertyOp60
 70
     1
102
RTVSPropertyOp61
 70
     1
102
RTVSPropertyOp62
 70
     1
  0
XRECORD
  5
15FE
102
{ACAD_REACTORS
330
15FD
102
}
330
15FD
100
AcDbXrecord
280
     1
102
RTVSPost2010Prop28
280
     0
102
RTVSPost2010PropOp28
 70
     1
102
RTVSPost2010Prop29
280
     1
102
RTVSPost2010PropOp29
 70
     1
102
RTVSPost2010Prop30
280
     1
102
RTVSPost2010PropOp30
 70
     1
102
RTVSPost2010Prop31
280
     0
102
RTVSPost2010PropOp31
 70
     1
102
RTVSPost2010Prop32
280
     0
102
RTVSPost2010PropOp32
 70
     1
102
RTVSPost2010Prop33
280
     0
102
RTVSPost2010PropOp33
 70
     1
102
RTVSPost2010Prop34
280
     0
102
RTVSPost2010PropOp34
 70
     1
102
RTVSPost2010Prop35
280
     0
102
RTVSPost2010PropOp35
 70
     1
102
RTVSPost2010Prop36
280
     0
102
RTVSPost2010PropOp36
 70
     1
102
RTVSPost2010Prop37
 90
       50
102
RTVSPost2010PropOp37
 70
     1
102
RTVSPost2010Prop38
140
0.0
102
RTVSPost2010PropOp38
 70
     1
102
RTVSPost2010Prop39
140
1.0
102
RTVSPost2010PropOp39
 70
     1
102
RTVSPost2010Prop40
 90
        0
102
RTVSPost2010PropOp40
 70
     1
102
RTVSPost2010Prop41ColorIndex
 90
       18
102
RTVSPost2010Prop41ColorRGB
 90
        0
102
RTVSPost2010PropOp41
 70
     1
102
RTVSPost2010Prop42
 90
       50
102
RTVSPost2010PropOp42
 70
     1
102
RTVSPost2010Prop43
 90
        3
102
RTVSPost2010PropOp43
 70
     1
102
RTVSPost2010Prop44ColorIndex
 90
        5
102
RTVSPost2010Prop44ColorRGB
 90
      255
102
RTVSPost2010PropOp44
 70
     1
102
RTVSPost2010Prop45
280
     0
102
RTVSPost2010PropOp45
 70
     1
102
RTVSPost2010Prop46
 90
       50
102
RTVSPost2010PropOp46
 70
     1
102
RTVSPost2010Prop47
 90
       50
102
RTVSPost2010PropOp47
 70
     1
102
RTVSPost2010Prop48
 90
       50
102
RTVSPost2010PropOp48
 70
     1
102
RTVSPost2010Prop49
280
     0
102
RTVSPost2010PropOp49
 70
     1
102
RTVSPost2010Prop50
 90
       50
102
RTVSPost2010PropOp50
 70
     1
102
RTVSPost2010Prop51ColorIndex
 90
      256
102
RTVSPost2010Prop51ColorRGB
 90
-16777216
102
RTVSPost2010PropOp51
 70
     0
102
RTVSPost2010Prop52
140
1.0
102
RTVSPost2010PropOp52
 70
     0
102
RTVSPost2010Prop53
 90
        2
102
RTVSPost2010PropOp53
 70
     1
102
RTVSPost2010Prop54
  1
strokes_ogs.tif
102
RTVSPost2010PropOp54
 70
     1
102
RTVSPost2010Prop55
280
     0
102
RTVSPost2010PropOp55
 70
     1
102
RTVSPost2010Prop56
140
1.0
102
RTVSPost2010PropOp56
 70
     1
102
RTVSPost2010Prop57
140
1.0
102
RTVSPost2010PropOp57
 70
     1
102
RTVSPropertyOp0
 70
     1
102
RTVSPropertyOp1
 70
     1
102
RTVSPropertyOp2
 70
     1
102
RTVSPropertyOp3
 70
     1
102
RTVSPropertyOp4
 70
     1
102
RTVSPropertyOp5
 70
     1
102
RTVSPropertyOp6
 70
     1
102
RTVSPropertyOp7
 70
     1
102
RTVSPropertyOp8
 70
     1
102
RTVSPropertyOp9
 70
     1
102
RTVSPropertyOp10
 70
     1
102
RTVSPropertyOp11
 70
     1
102
RTVSPropertyOp12
 70
     1
102
RTVSPropertyOp13
 70
     1
102
RTVSPropertyOp14
 70
     1
102
RTVSPropertyOp15
 70
     1
102
RTVSPropertyOp16
 70
     1
102
RTVSPropertyOp17
 70
     1
102
RTVSPropertyOp18
 70
     1
102
RTVSPropertyOp19
 70
     1
102
RTVSPropertyOp20
 70
     1
102
RTVSPropertyOp21
 70
     1
102
RTVSPropertyOp22
 70
     1
102
RTVSPropertyOp23
 70
     1
102
RTVSPropertyOp24
 70
     1
102
RTVSPropertyOp25
 70
     1
102
RTVSPropertyOp26
 70
     1
102
RTVSPropertyOp27
 70
     1
102
RTVSPropertyOp28
 70
     1
102
RTVSPropertyOp29
 70
     1
102
RTVSPropertyOp30
 70
     1
102
RTVSPropertyOp31
 70
     1
102
RTVSPropertyOp32
 70
     1
102
RTVSPropertyOp33
 70
     1
102
RTVSPropertyOp34
 70
     1
102
RTVSPropertyOp35
 70
     1
102
RTVSPropertyOp36
 70
     1
102
RTVSPropertyOp37
 70
     1
102
RTVSPropertyOp38
 70
     1
102
RTVSPropertyOp39
 70
     1
102
RTVSPropertyOp40
 70
     1
102
RTVSPropertyOp41
 70
     1
102
RTVSPropertyOp42
 70
     1
102
RTVSPropertyOp43
 70
     1
102
RTVSPropertyOp44
 70
     1
102
RTVSPropertyOp45
 70
     1
102
RTVSPropertyOp46
 70
     1
102
RTVSPropertyOp47
 70
     1
102
RTVSPropertyOp48
 70
     1
102
RTVSPropertyOp49
 70
     1
102
RTVSPropertyOp50
 70
     1
102
RTVSPropertyOp51
 70
     0
102
RTVSPropertyOp52
 70
     0
102
RTVSPropertyOp53
 70
     1
102
RTVSPropertyOp54
 70
     1
102
RTVSPropertyOp55
 70
     1
102
RTVSPropertyOp56
 70
     1
102
RTVSPropertyOp57
 70
     1
102
RTVSPropertyOp58
 70
     1
102
RTVSPropertyOp59
 70
     1
102
RTVSPropertyOp60
 70
     1
102
RTVSPropertyOp61
 70
     1
102
RTVSPropertyOp62
 70
     1
  0
XRECORD
  5
1600
102
{ACAD_REACTORS
330
15FF
102
}
330
15FF
100
AcDbXrecord
280
     1
102
RTVSPost2010Prop28
280
     0
102
RTVSPost2010PropOp28
 70
     1
102
RTVSPost2010Prop29
280
     1
102
RTVSPost2010PropOp29
 70
     1
102
RTVSPost2010Prop30
280
     1
102
RTVSPost2010PropOp30
 70
     1
102
RTVSPost2010Prop31
280
     0
102
RTVSPost2010PropOp31
 70
     1
102
RTVSPost2010Prop32
280
     0
102
RTVSPost2010PropOp32
 70
     1
102
RTVSPost2010Prop33
280
     0
102
RTVSPost2010PropOp33
 70
     1
102
RTVSPost2010Prop34
280
     0
102
RTVSPost2010PropOp34
 70
     1
102
RTVSPost2010Prop35
280
     0
102
RTVSPost2010PropOp35
 70
     1
102
RTVSPost2010Prop36
280
     0
102
RTVSPost2010PropOp36
 70
     1
102
RTVSPost2010Prop37
 90
       50
102
RTVSPost2010PropOp37
 70
     1
102
RTVSPost2010Prop38
140
0.0
102
RTVSPost2010PropOp38
 70
     1
102
RTVSPost2010Prop39
140
1.0
102
RTVSPost2010PropOp39
 70
     1
102
RTVSPost2010Prop40
 90
        0
102
RTVSPost2010PropOp40
 70
     1
102
RTVSPost2010Prop41ColorIndex
 90
       18
102
RTVSPost2010Prop41ColorRGB
 90
        0
102
RTVSPost2010PropOp41
 70
     1
102
RTVSPost2010Prop42
 90
       50
102
RTVSPost2010PropOp42
 70
     1
102
RTVSPost2010Prop43
 90
        3
102
RTVSPost2010PropOp43
 70
     1
102
RTVSPost2010Prop44ColorIndex
 90
        5
102
RTVSPost2010Prop44ColorRGB
 90
      255
102
RTVSPost2010PropOp44
 70
     1
102
RTVSPost2010Prop45
280
     0
102
RTVSPost2010PropOp45
 70
     1
102
RTVSPost2010Prop46
 90
       50
102
RTVSPost2010PropOp46
 70
     1
102
RTVSPost2010Prop47
 90
       50
102
RTVSPost2010PropOp47
 70
     1
102
RTVSPost2010Prop48
 90
       50
102
RTVSPost2010PropOp48
 70
     1
102
RTVSPost2010Prop49
280
     0
102
RTVSPost2010PropOp49
 70
     1
102
RTVSPost2010Prop50
 90
       50
102
RTVSPost2010PropOp50
 70
     1
102
RTVSPost2010Prop51ColorIndex
 90
      256
102
RTVSPost2010Prop51ColorRGB
 90
-16777216
102
RTVSPost2010PropOp51
 70
     0
102
RTVSPost2010Prop52
140
1.0
102
RTVSPost2010PropOp52
 70
     0
102
RTVSPost2010Prop53
 90
        2
102
RTVSPost2010PropOp53
 70
     1
102
RTVSPost2010Prop54
  1
strokes_ogs.tif
102
RTVSPost2010PropOp54
 70
     1
102
RTVSPost2010Prop55
280
     0
102
RTVSPost2010PropOp55
 70
     1
102
RTVSPost2010Prop56
140
1.0
102
RTVSPost2010PropOp56
 70
     1
102
RTVSPost2010Prop57
140
1.0
102
RTVSPost2010PropOp57
 70
     1
102
RTVSPropertyOp0
 70
     1
102
RTVSPropertyOp1
 70
     1
102
RTVSPropertyOp2
 70
     1
102
RTVSPropertyOp3
 70
     1
102
RTVSPropertyOp4
 70
     1
102
RTVSPropertyOp5
 70
     1
102
RTVSPropertyOp6
 70
     1
102
RTVSPropertyOp7
 70
     1
102
RTVSPropertyOp8
 70
     1
102
RTVSPropertyOp9
 70
     1
102
RTVSPropertyOp10
 70
     1
102
RTVSPropertyOp11
 70
     1
102
RTVSPropertyOp12
 70
     1
102
RTVSPropertyOp13
 70
     1
102
RTVSPropertyOp14
 70
     1
102
RTVSPropertyOp15
 70
     1
102
RTVSPropertyOp16
 70
     1
102
RTVSPropertyOp17
 70
     1
102
RTVSPropertyOp18
 70
     1
102
RTVSPropertyOp19
 70
     1
102
RTVSPropertyOp20
 70
     1
102
RTVSPropertyOp21
 70
     1
102
RTVSPropertyOp22
 70
     1
102
RTVSPropertyOp23
 70
     1
102
RTVSPropertyOp24
 70
     1
102
RTVSPropertyOp25
 70
     1
102
RTVSPropertyOp26
 70
     1
102
RTVSPropertyOp27
 70
     1
102
RTVSPropertyOp28
 70
     1
102
RTVSPropertyOp29
 70
     1
102
RTVSPropertyOp30
 70
     1
102
RTVSPropertyOp31
 70
     1
102
RTVSPropertyOp32
 70
     1
102
RTVSPropertyOp33
 70
     1
102
RTVSPropertyOp34
 70
     1
102
RTVSPropertyOp35
 70
     1
102
RTVSPropertyOp36
 70
     1
102
RTVSPropertyOp37
 70
     1
102
RTVSPropertyOp38
 70
     1
102
RTVSPropertyOp39
 70
     1
102
RTVSPropertyOp40
 70
     1
102
RTVSPropertyOp41
 70
     1
102
RTVSPropertyOp42
 70
     1
102
RTVSPropertyOp43
 70
     1
102
RTVSPropertyOp44
 70
     1
102
RTVSPropertyOp45
 70
     1
102
RTVSPropertyOp46
 70
     1
102
RTVSPropertyOp47
 70
     1
102
RTVSPropertyOp48
 70
     1
102
RTVSPropertyOp49
 70
     1
102
RTVSPropertyOp50
 70
     1
102
RTVSPropertyOp51
 70
     0
102
RTVSPropertyOp52
 70
     0
102
RTVSPropertyOp53
 70
     1
102
RTVSPropertyOp54
 70
     1
102
RTVSPropertyOp55
 70
     1
102
RTVSPropertyOp56
 70
     1
102
RTVSPropertyOp57
 70
     1
102
RTVSPropertyOp58
 70
     1
102
RTVSPropertyOp59
 70
     1
102
RTVSPropertyOp60
 70
     1
102
RTVSPropertyOp61
 70
     1
102
RTVSPropertyOp62
 70
     1
  0
XRECORD
  5
1602
102
{ACAD_REACTORS
330
1601
102
}
330
1601
100
AcDbXrecord
280
     1
102
RTVSPost2010Prop28
280
     0
102
RTVSPost2010PropOp28
 70
     1
102
RTVSPost2010Prop29
280
     1
102
RTVSPost2010PropOp29
 70
     1
102
RTVSPost2010Prop30
280
     1
102
RTVSPost2010PropOp30
 70
     1
102
RTVSPost2010Prop31
280
     0
102
RTVSPost2010PropOp31
 70
     1
102
RTVSPost2010Prop32
280
     0
102
RTVSPost2010PropOp32
 70
     1
102
RTVSPost2010Prop33
280
     0
102
RTVSPost2010PropOp33
 70
     1
102
RTVSPost2010Prop34
280
     0
102
RTVSPost2010PropOp34
 70
     1
102
RTVSPost2010Prop35
280
     0
102
RTVSPost2010PropOp35
 70
     1
102
RTVSPost2010Prop36
280
     0
102
RTVSPost2010PropOp36
 70
     1
102
RTVSPost2010Prop37
 90
       50
102
RTVSPost2010PropOp37
 70
     1
102
RTVSPost2010Prop38
140
0.0
102
RTVSPost2010PropOp38
 70
     1
102
RTVSPost2010Prop39
140
1.0
102
RTVSPost2010PropOp39
 70
     1
102
RTVSPost2010Prop40
 90
        0
102
RTVSPost2010PropOp40
 70
     1
102
RTVSPost2010Prop41ColorIndex
 90
       18
102
RTVSPost2010Prop41ColorRGB
 90
        0
102
RTVSPost2010PropOp41
 70
     1
102
RTVSPost2010Prop42
 90
       50
102
RTVSPost2010PropOp42
 70
     1
102
RTVSPost2010Prop43
 90
        3
102
RTVSPost2010PropOp43
 70
     1
102
RTVSPost2010Prop44ColorIndex
 90
        5
102
RTVSPost2010Prop44ColorRGB
 90
      255
102
RTVSPost2010PropOp44
 70
     1
102
RTVSPost2010Prop45
280
     0
102
RTVSPost2010PropOp45
 70
     1
102
RTVSPost2010Prop46
 90
       50
102
RTVSPost2010PropOp46
 70
     1
102
RTVSPost2010Prop47
 90
       50
102
RTVSPost2010PropOp47
 70
     1
102
RTVSPost2010Prop48
 90
       50
102
RTVSPost2010PropOp48
 70
     1
102
RTVSPost2010Prop49
280
     0
102
RTVSPost2010PropOp49
 70
     1
102
RTVSPost2010Prop50
 90
       50
102
RTVSPost2010PropOp50
 70
     1
102
RTVSPost2010Prop51ColorIndex
 90
      256
102
RTVSPost2010Prop51ColorRGB
 90
-16777216
102
RTVSPost2010PropOp51
 70
     0
102
RTVSPost2010Prop52
140
1.0
102
RTVSPost2010PropOp52
 70
     0
102
RTVSPost2010Prop53
 90
        2
102
RTVSPost2010PropOp53
 70
     1
102
RTVSPost2010Prop54
  1
strokes_ogs.tif
102
RTVSPost2010PropOp54
 70
     1
102
RTVSPost2010Prop55
280
     0
102
RTVSPost2010PropOp55
 70
     1
102
RTVSPost2010Prop56
140
1.0
102
RTVSPost2010PropOp56
 70
     1
102
RTVSPost2010Prop57
140
1.0
102
RTVSPost2010PropOp57
 70
     1
102
RTVSPropertyOp0
 70
     1
102
RTVSPropertyOp1
 70
     1
102
RTVSPropertyOp2
 70
     1
102
RTVSPropertyOp3
 70
     1
102
RTVSPropertyOp4
 70
     1
102
RTVSPropertyOp5
 70
     1
102
RTVSPropertyOp6
 70
     1
102
RTVSPropertyOp7
 70
     1
102
RTVSPropertyOp8
 70
     1
102
RTVSPropertyOp9
 70
     1
102
RTVSPropertyOp10
 70
     1
102
RTVSPropertyOp11
 70
     1
102
RTVSPropertyOp12
 70
     1
102
RTVSPropertyOp13
 70
     1
102
RTVSPropertyOp14
 70
     1
102
RTVSPropertyOp15
 70
     1
102
RTVSPropertyOp16
 70
     1
102
RTVSPropertyOp17
 70
     1
102
RTVSPropertyOp18
 70
     1
102
RTVSPropertyOp19
 70
     1
102
RTVSPropertyOp20
 70
     1
102
RTVSPropertyOp21
 70
     1
102
RTVSPropertyOp22
 70
     1
102
RTVSPropertyOp23
 70
     1
102
RTVSPropertyOp24
 70
     1
102
RTVSPropertyOp25
 70
     1
102
RTVSPropertyOp26
 70
     1
102
RTVSPropertyOp27
 70
     1
102
RTVSPropertyOp28
 70
     1
102
RTVSPropertyOp29
 70
     1
102
RTVSPropertyOp30
 70
     1
102
RTVSPropertyOp31
 70
     1
102
RTVSPropertyOp32
 70
     1
102
RTVSPropertyOp33
 70
     1
102
RTVSPropertyOp34
 70
     1
102
RTVSPropertyOp35
 70
     1
102
RTVSPropertyOp36
 70
     1
102
RTVSPropertyOp37
 70
     1
102
RTVSPropertyOp38
 70
     1
102
RTVSPropertyOp39
 70
     1
102
RTVSPropertyOp40
 70
     1
102
RTVSPropertyOp41
 70
     1
102
RTVSPropertyOp42
 70
     1
102
RTVSPropertyOp43
 70
     1
102
RTVSPropertyOp44
 70
     1
102
RTVSPropertyOp45
 70
     1
102
RTVSPropertyOp46
 70
     1
102
RTVSPropertyOp47
 70
     1
102
RTVSPropertyOp48
 70
     1
102
RTVSPropertyOp49
 70
     1
102
RTVSPropertyOp50
 70
     1
102
RTVSPropertyOp51
 70
     0
102
RTVSPropertyOp52
 70
     0
102
RTVSPropertyOp53
 70
     1
102
RTVSPropertyOp54
 70
     1
102
RTVSPropertyOp55
 70
     1
102
RTVSPropertyOp56
 70
     1
102
RTVSPropertyOp57
 70
     1
102
RTVSPropertyOp58
 70
     1
102
RTVSPropertyOp59
 70
     1
102
RTVSPropertyOp60
 70
     1
102
RTVSPropertyOp61
 70
     1
102
RTVSPropertyOp62
 70
     1
  0
XRECORD
  5
160A
102
{ACAD_REACTORS
330
1609
102
}
330
1609
100
AcDbXrecord
280
     1
102
RTVSPost2010Prop28
280
     0
102
RTVSPost2010PropOp28
 70
     1
102
RTVSPost2010Prop29
280
     1
102
RTVSPost2010PropOp29
 70
     1
102
RTVSPost2010Prop30
280
     1
102
RTVSPost2010PropOp30
 70
     1
102
RTVSPost2010Prop31
280
     0
102
RTVSPost2010PropOp31
 70
     1
102
RTVSPost2010Prop32
280
     0
102
RTVSPost2010PropOp32
 70
     1
102
RTVSPost2010Prop33
280
     0
102
RTVSPost2010PropOp33
 70
     1
102
RTVSPost2010Prop34
280
     0
102
RTVSPost2010PropOp34
 70
     1
102
RTVSPost2010Prop35
280
     0
102
RTVSPost2010PropOp35
 70
     1
102
RTVSPost2010Prop36
280
     0
102
RTVSPost2010PropOp36
 70
     1
102
RTVSPost2010Prop37
 90
       50
102
RTVSPost2010PropOp37
 70
     1
102
RTVSPost2010Prop38
140
0.0
102
RTVSPost2010PropOp38
 70
     1
102
RTVSPost2010Prop39
140
1.0
102
RTVSPost2010PropOp39
 70
     1
102
RTVSPost2010Prop40
 90
        0
102
RTVSPost2010PropOp40
 70
     1
102
RTVSPost2010Prop41ColorIndex
 90
       18
102
RTVSPost2010Prop41ColorRGB
 90
        0
102
RTVSPost2010PropOp41
 70
     1
102
RTVSPost2010Prop42
 90
       50
102
RTVSPost2010PropOp42
 70
     1
102
RTVSPost2010Prop43
 90
        3
102
RTVSPost2010PropOp43
 70
     1
102
RTVSPost2010Prop44ColorIndex
 90
        5
102
RTVSPost2010Prop44ColorRGB
 90
      255
102
RTVSPost2010PropOp44
 70
     1
102
RTVSPost2010Prop45
280
     0
102
RTVSPost2010PropOp45
 70
     1
102
RTVSPost2010Prop46
 90
       50
102
RTVSPost2010PropOp46
 70
     1
102
RTVSPost2010Prop47
 90
       50
102
RTVSPost2010PropOp47
 70
     1
102
RTVSPost2010Prop48
 90
       50
102
RTVSPost2010PropOp48
 70
     1
102
RTVSPost2010Prop49
280
     0
102
RTVSPost2010PropOp49
 70
     1
102
RTVSPost2010Prop50
 90
       50
102
RTVSPost2010PropOp50
 70
     1
102
RTVSPost2010Prop51ColorIndex
 90
      256
102
RTVSPost2010Prop51ColorRGB
 90
-16777216
102
RTVSPost2010PropOp51
 70
     0
102
RTVSPost2010Prop52
140
1.0
102
RTVSPost2010PropOp52
 70
     0
102
RTVSPost2010Prop53
 90
        2
102
RTVSPost2010PropOp53
 70
     1
102
RTVSPost2010Prop54
  1
strokes_ogs.tif
102
RTVSPost2010PropOp54
 70
     1
102
RTVSPost2010Prop55
280
     0
102
RTVSPost2010PropOp55
 70
     1
102
RTVSPost2010Prop56
140
1.0
102
RTVSPost2010PropOp56
 70
     1
102
RTVSPost2010Prop57
140
1.0
102
RTVSPost2010PropOp57
 70
     1
102
RTVSPropertyOp0
 70
     1
102
RTVSPropertyOp1
 70
     1
102
RTVSPropertyOp2
 70
     1
102
RTVSPropertyOp3
 70
     1
102
RTVSPropertyOp4
 70
     1
102
RTVSPropertyOp5
 70
     1
102
RTVSPropertyOp6
 70
     1
102
RTVSPropertyOp7
 70
     1
102
RTVSPropertyOp8
 70
     1
102
RTVSPropertyOp9
 70
     1
102
RTVSPropertyOp10
 70
     1
102
RTVSPropertyOp11
 70
     1
102
RTVSPropertyOp12
 70
     1
102
RTVSPropertyOp13
 70
     1
102
RTVSPropertyOp14
 70
     1
102
RTVSPropertyOp15
 70
     1
102
RTVSPropertyOp16
 70
     1
102
RTVSPropertyOp17
 70
     1
102
RTVSPropertyOp18
 70
     1
102
RTVSPropertyOp19
 70
     1
102
RTVSPropertyOp20
 70
     1
102
RTVSPropertyOp21
 70
     1
102
RTVSPropertyOp22
 70
     1
102
RTVSPropertyOp23
 70
     1
102
RTVSPropertyOp24
 70
     1
102
RTVSPropertyOp25
 70
     1
102
RTVSPropertyOp26
 70
     1
102
RTVSPropertyOp27
 70
     1
102
RTVSPropertyOp28
 70
     1
102
RTVSPropertyOp29
 70
     1
102
RTVSPropertyOp30
 70
     1
102
RTVSPropertyOp31
 70
     1
102
RTVSPropertyOp32
 70
     1
102
RTVSPropertyOp33
 70
     1
102
RTVSPropertyOp34
 70
     1
102
RTVSPropertyOp35
 70
     1
102
RTVSPropertyOp36
 70
     1
102
RTVSPropertyOp37
 70
     1
102
RTVSPropertyOp38
 70
     1
102
RTVSPropertyOp39
 70
     1
102
RTVSPropertyOp40
 70
     1
102
RTVSPropertyOp41
 70
     1
102
RTVSPropertyOp42
 70
     1
102
RTVSPropertyOp43
 70
     1
102
RTVSPropertyOp44
 70
     1
102
RTVSPropertyOp45
 70
     1
102
RTVSPropertyOp46
 70
     1
102
RTVSPropertyOp47
 70
     1
102
RTVSPropertyOp48
 70
     1
102
RTVSPropertyOp49
 70
     1
102
RTVSPropertyOp50
 70
     1
102
RTVSPropertyOp51
 70
     0
102
RTVSPropertyOp52
 70
     0
102
RTVSPropertyOp53
 70
     1
102
RTVSPropertyOp54
 70
     1
102
RTVSPropertyOp55
 70
     1
102
RTVSPropertyOp56
 70
     1
102
RTVSPropertyOp57
 70
     1
102
RTVSPropertyOp58
 70
     1
102
RTVSPropertyOp59
 70
     1
102
RTVSPropertyOp60
 70
     1
102
RTVSPropertyOp61
 70
     1
102
RTVSPropertyOp62
 70
     1
  0
XRECORD
  5
1626
102
{ACAD_REACTORS
330
1625
102
}
330
1625
100
AcDbXrecord
280
     1
102
RTVSPost2010Prop28
280
     0
102
RTVSPost2010PropOp28
 70
     1
102
RTVSPost2010Prop29
280
     1
102
RTVSPost2010PropOp29
 70
     1
102
RTVSPost2010Prop30
280
     1
102
RTVSPost2010PropOp30
 70
     1
102
RTVSPost2010Prop31
280
     0
102
RTVSPost2010PropOp31
 70
     1
102
RTVSPost2010Prop32
280
     0
102
RTVSPost2010PropOp32
 70
     1
102
RTVSPost2010Prop33
280
     0
102
RTVSPost2010PropOp33
 70
     1
102
RTVSPost2010Prop34
280
     0
102
RTVSPost2010PropOp34
 70
     1
102
RTVSPost2010Prop35
280
     0
102
RTVSPost2010PropOp35
 70
     1
102
RTVSPost2010Prop36
280
     0
102
RTVSPost2010PropOp36
 70
     1
102
RTVSPost2010Prop37
 90
       50
102
RTVSPost2010PropOp37
 70
     0
102
RTVSPost2010Prop38
140
0.0
102
RTVSPost2010PropOp38
 70
     0
102
RTVSPost2010Prop39
140
1.0
102
RTVSPost2010PropOp39
 70
     0
102
RTVSPost2010Prop40
 90
        0
102
RTVSPost2010PropOp40
 70
     0
102
RTVSPost2010Prop41ColorIndex
 90
       18
102
RTVSPost2010Prop41ColorRGB
 90
        0
102
RTVSPost2010PropOp41
 70
     0
102
RTVSPost2010Prop42
 90
       50
102
RTVSPost2010PropOp42
 70
     0
102
RTVSPost2010Prop43
 90
        3
102
RTVSPost2010PropOp43
 70
     0
102
RTVSPost2010Prop44ColorIndex
 90
        5
102
RTVSPost2010Prop44ColorRGB
 90
      255
102
RTVSPost2010PropOp44
 70
     0
102
RTVSPost2010Prop45
280
     0
102
RTVSPost2010PropOp45
 70
     1
102
RTVSPost2010Prop46
 90
       50
102
RTVSPost2010PropOp46
 70
     0
102
RTVSPost2010Prop47
 90
       50
102
RTVSPost2010PropOp47
 70
     0
102
RTVSPost2010Prop48
 90
       50
102
RTVSPost2010PropOp48
 70
     0
102
RTVSPost2010Prop49
280
     0
102
RTVSPost2010PropOp49
 70
     1
102
RTVSPost2010Prop50
 90
       50
102
RTVSPost2010PropOp50
 70
     0
102
RTVSPost2010Prop51ColorIndex
 90
      256
102
RTVSPost2010Prop51ColorRGB
 90
-16777216
102
RTVSPost2010PropOp51
 70
     0
102
RTVSPost2010Prop52
140
1.0
102
RTVSPost2010PropOp52
 70
     0
102
RTVSPost2010Prop53
 90
        2
102
RTVSPost2010PropOp53
 70
     0
102
RTVSPost2010Prop54
  1
strokes_ogs.tif
102
RTVSPost2010PropOp54
 70
     0
102
RTVSPost2010Prop55
280
     0
102
RTVSPost2010PropOp55
 70
     1
102
RTVSPost2010Prop56
140
1.0
102
RTVSPost2010PropOp56
 70
     0
102
RTVSPost2010Prop57
140
1.0
102
RTVSPost2010PropOp57
 70
     0
102
RTVSPropertyOp0
 70
     0
102
RTVSPropertyOp1
 70
     0
102
RTVSPropertyOp2
 70
     0
102
RTVSPropertyOp3
 70
     0
102
RTVSPropertyOp4
 70
     0
102
RTVSPropertyOp5
 70
     0
102
RTVSPropertyOp6
 70
     0
102
RTVSPropertyOp7
 70
     0
102
RTVSPropertyOp8
 70
     0
102
RTVSPropertyOp9
 70
     0
102
RTVSPropertyOp10
 70
     0
102
RTVSPropertyOp11
 70
     0
102
RTVSPropertyOp12
 70
     0
102
RTVSPropertyOp13
 70
     0
102
RTVSPropertyOp14
 70
     2
102
RTVSPropertyOp15
 70
     0
102
RTVSPropertyOp16
 70
     0
102
RTVSPropertyOp17
 70
     0
102
RTVSPropertyOp18
 70
     0
102
RTVSPropertyOp19
 70
     0
102
RTVSPropertyOp20
 70
     0
102
RTVSPropertyOp21
 70
     0
102
RTVSPropertyOp22
 70
     0
102
RTVSPropertyOp23
 70
     0
102
RTVSPropertyOp24
 70
     0
102
RTVSPropertyOp25
 70
     0
102
RTVSPropertyOp26
 70
     0
102
RTVSPropertyOp27
 70
     0
102
RTVSPropertyOp28
 70
     1
102
RTVSPropertyOp29
 70
     1
102
RTVSPropertyOp30
 70
     1
102
RTVSPropertyOp31
 70
     1
102
RTVSPropertyOp32
 70
     1
102
RTVSPropertyOp33
 70
     1
102
RTVSPropertyOp34
 70
     1
102
RTVSPropertyOp35
 70
     1
102
RTVSPropertyOp36
 70
     1
102
RTVSPropertyOp37
 70
     0
102
RTVSPropertyOp38
 70
     0
102
RTVSPropertyOp39
 70
     0
102
RTVSPropertyOp40
 70
     0
102
RTVSPropertyOp41
 70
     0
102
RTVSPropertyOp42
 70
     0
102
RTVSPropertyOp43
 70
     0
102
RTVSPropertyOp44
 70
     0
102
RTVSPropertyOp45
 70
     1
102
RTVSPropertyOp46
 70
     0
102
RTVSPropertyOp47
 70
     0
102
RTVSPropertyOp48
 70
     0
102
RTVSPropertyOp49
 70
     1
102
RTVSPropertyOp50
 70
     0
102
RTVSPropertyOp51
 70
     0
102
RTVSPropertyOp52
 70
     0
102
RTVSPropertyOp53
 70
     0
102
RTVSPropertyOp54
 70
     0
102
RTVSPropertyOp55
 70
     1
102
RTVSPropertyOp56
 70
     0
102
RTVSPropertyOp57
 70
     0
102
RTVSPropertyOp58
 70
     0
102
RTVSPropertyOp59
 70
     0
102
RTVSPropertyOp60
 70
     0
102
RTVSPropertyOp61
 70
     0
102
RTVSPropertyOp62
 70
     0
  0
XRECORD
  5
1616
102
{ACAD_REACTORS
330
1615
102
}
330
1615
100
AcDbXrecord
280
     1
102
RTVSPost2010Prop28
280
     0
102
RTVSPost2010PropOp28
 70
     1
102
RTVSPost2010Prop29
280
     1
102
RTVSPost2010PropOp29
 70
     1
102
RTVSPost2010Prop30
280
     1
102
RTVSPost2010PropOp30
 70
     1
102
RTVSPost2010Prop31
280
     0
102
RTVSPost2010PropOp31
 70
     1
102
RTVSPost2010Prop32
280
     0
102
RTVSPost2010PropOp32
 70
     1
102
RTVSPost2010Prop33
280
     0
102
RTVSPost2010PropOp33
 70
     1
102
RTVSPost2010Prop34
280
     0
102
RTVSPost2010PropOp34
 70
     1
102
RTVSPost2010Prop35
280
     0
102
RTVSPost2010PropOp35
 70
     1
102
RTVSPost2010Prop36
280
     0
102
RTVSPost2010PropOp36
 70
     1
102
RTVSPost2010Prop37
 90
       50
102
RTVSPost2010PropOp37
 70
     1
102
RTVSPost2010Prop38
140
0.0
102
RTVSPost2010PropOp38
 70
     1
102
RTVSPost2010Prop39
140
1.0
102
RTVSPost2010PropOp39
 70
     1
102
RTVSPost2010Prop40
 90
        0
102
RTVSPost2010PropOp40
 70
     1
102
RTVSPost2010Prop41ColorIndex
 90
       18
102
RTVSPost2010Prop41ColorRGB
 90
        0
102
RTVSPost2010PropOp41
 70
     1
102
RTVSPost2010Prop42
 90
       50
102
RTVSPost2010PropOp42
 70
     1
102
RTVSPost2010Prop43
 90
        3
102
RTVSPost2010PropOp43
 70
     1
102
RTVSPost2010Prop44ColorIndex
 90
        5
102
RTVSPost2010Prop44ColorRGB
 90
      255
102
RTVSPost2010PropOp44
 70
     1
102
RTVSPost2010Prop45
280
     0
102
RTVSPost2010PropOp45
 70
     1
102
RTVSPost2010Prop46
 90
       50
102
RTVSPost2010PropOp46
 70
     1
102
RTVSPost2010Prop47
 90
       50
102
RTVSPost2010PropOp47
 70
     1
102
RTVSPost2010Prop48
 90
       50
102
RTVSPost2010PropOp48
 70
     1
102
RTVSPost2010Prop49
280
     0
102
RTVSPost2010PropOp49
 70
     1
102
RTVSPost2010Prop50
 90
       50
102
RTVSPost2010PropOp50
 70
     1
102
RTVSPost2010Prop51ColorIndex
 90
      256
102
RTVSPost2010Prop51ColorRGB
 90
-16777216
102
RTVSPost2010PropOp51
 70
     0
102
RTVSPost2010Prop52
140
1.0
102
RTVSPost2010PropOp52
 70
     0
102
RTVSPost2010Prop53
 90
        2
102
RTVSPost2010PropOp53
 70
     1
102
RTVSPost2010Prop54
  1
strokes_ogs.tif
102
RTVSPost2010PropOp54
 70
     1
102
RTVSPost2010Prop55
280
     0
102
RTVSPost2010PropOp55
 70
     1
102
RTVSPost2010Prop56
140
1.0
102
RTVSPost2010PropOp56
 70
     1
102
RTVSPost2010Prop57
140
1.0
102
RTVSPost2010PropOp57
 70
     1
102
RTVSPropertyOp0
 70
     1
102
RTVSPropertyOp1
 70
     1
102
RTVSPropertyOp2
 70
     1
102
RTVSPropertyOp3
 70
     1
102
RTVSPropertyOp4
 70
     1
102
RTVSPropertyOp5
 70
     1
102
RTVSPropertyOp6
 70
     1
102
RTVSPropertyOp7
 70
     1
102
RTVSPropertyOp8
 70
     1
102
RTVSPropertyOp9
 70
     1
102
RTVSPropertyOp10
 70
     1
102
RTVSPropertyOp11
 70
     1
102
RTVSPropertyOp12
 70
     1
102
RTVSPropertyOp13
 70
     1
102
RTVSPropertyOp14
 70
     1
102
RTVSPropertyOp15
 70
     1
102
RTVSPropertyOp16
 70
     1
102
RTVSPropertyOp17
 70
     1
102
RTVSPropertyOp18
 70
     1
102
RTVSPropertyOp19
 70
     1
102
RTVSPropertyOp20
 70
     1
102
RTVSPropertyOp21
 70
     1
102
RTVSPropertyOp22
 70
     1
102
RTVSPropertyOp23
 70
     1
102
RTVSPropertyOp24
 70
     1
102
RTVSPropertyOp25
 70
     1
102
RTVSPropertyOp26
 70
     1
102
RTVSPropertyOp27
 70
     1
102
RTVSPropertyOp28
 70
     1
102
RTVSPropertyOp29
 70
     1
102
RTVSPropertyOp30
 70
     1
102
RTVSPropertyOp31
 70
     1
102
RTVSPropertyOp32
 70
     1
102
RTVSPropertyOp33
 70
     1
102
RTVSPropertyOp34
 70
     1
102
RTVSPropertyOp35
 70
     1
102
RTVSPropertyOp36
 70
     1
102
RTVSPropertyOp37
 70
     1
102
RTVSPropertyOp38
 70
     1
102
RTVSPropertyOp39
 70
     1
102
RTVSPropertyOp40
 70
     1
102
RTVSPropertyOp41
 70
     1
102
RTVSPropertyOp42
 70
     1
102
RTVSPropertyOp43
 70
     1
102
RTVSPropertyOp44
 70
     1
102
RTVSPropertyOp45
 70
     1
102
RTVSPropertyOp46
 70
     1
102
RTVSPropertyOp47
 70
     1
102
RTVSPropertyOp48
 70
     1
102
RTVSPropertyOp49
 70
     1
102
RTVSPropertyOp50
 70
     1
102
RTVSPropertyOp51
 70
     0
102
RTVSPropertyOp52
 70
     0
102
RTVSPropertyOp53
 70
     1
102
RTVSPropertyOp54
 70
     1
102
RTVSPropertyOp55
 70
     1
102
RTVSPropertyOp56
 70
     1
102
RTVSPropertyOp57
 70
     1
102
RTVSPropertyOp58
 70
     1
102
RTVSPropertyOp59
 70
     1
102
RTVSPropertyOp60
 70
     1
102
RTVSPropertyOp61
 70
     1
102
RTVSPropertyOp62
 70
     1
  0
XRECORD
  5
1628
102
{ACAD_REACTORS
330
1627
102
}
330
1627
100
AcDbXrecord
280
     1
102
RTVSPost2010Prop28
280
     0
102
RTVSPost2010PropOp28
 70
     1
102
RTVSPost2010Prop29
280
     1
102
RTVSPost2010PropOp29
 70
     1
102
RTVSPost2010Prop30
280
     1
102
RTVSPost2010PropOp30
 70
     1
102
RTVSPost2010Prop31
280
     0
102
RTVSPost2010PropOp31
 70
     1
102
RTVSPost2010Prop32
280
     0
102
RTVSPost2010PropOp32
 70
     1
102
RTVSPost2010Prop33
280
     0
102
RTVSPost2010PropOp33
 70
     1
102
RTVSPost2010Prop34
280
     0
102
RTVSPost2010PropOp34
 70
     1
102
RTVSPost2010Prop35
280
     0
102
RTVSPost2010PropOp35
 70
     1
102
RTVSPost2010Prop36
280
     0
102
RTVSPost2010PropOp36
 70
     1
102
RTVSPost2010Prop37
 90
       50
102
RTVSPost2010PropOp37
 70
     0
102
RTVSPost2010Prop38
140
0.0
102
RTVSPost2010PropOp38
 70
     0
102
RTVSPost2010Prop39
140
1.0
102
RTVSPost2010PropOp39
 70
     0
102
RTVSPost2010Prop40
 90
        0
102
RTVSPost2010PropOp40
 70
     0
102
RTVSPost2010Prop41ColorIndex
 90
       18
102
RTVSPost2010Prop41ColorRGB
 90
        0
102
RTVSPost2010PropOp41
 70
     0
102
RTVSPost2010Prop42
 90
       50
102
RTVSPost2010PropOp42
 70
     0
102
RTVSPost2010Prop43
 90
        3
102
RTVSPost2010PropOp43
 70
     0
102
RTVSPost2010Prop44ColorIndex
 90
        5
102
RTVSPost2010Prop44ColorRGB
 90
      255
102
RTVSPost2010PropOp44
 70
     0
102
RTVSPost2010Prop45
280
     0
102
RTVSPost2010PropOp45
 70
     1
102
RTVSPost2010Prop46
 90
       50
102
RTVSPost2010PropOp46
 70
     0
102
RTVSPost2010Prop47
 90
       50
102
RTVSPost2010PropOp47
 70
     0
102
RTVSPost2010Prop48
 90
       50
102
RTVSPost2010PropOp48
 70
     0
102
RTVSPost2010Prop49
280
     0
102
RTVSPost2010PropOp49
 70
     1
102
RTVSPost2010Prop50
 90
       50
102
RTVSPost2010PropOp50
 70
     0
102
RTVSPost2010Prop51ColorIndex
 90
      256
102
RTVSPost2010Prop51ColorRGB
 90
-16777216
102
RTVSPost2010PropOp51
 70
     0
102
RTVSPost2010Prop52
140
1.0
102
RTVSPost2010PropOp52
 70
     0
102
RTVSPost2010Prop53
 90
        2
102
RTVSPost2010PropOp53
 70
     0
102
RTVSPost2010Prop54
  1
strokes_ogs.tif
102
RTVSPost2010PropOp54
 70
     0
102
RTVSPost2010Prop55
280
     0
102
RTVSPost2010PropOp55
 70
     1
102
RTVSPost2010Prop56
140
1.0
102
RTVSPost2010PropOp56
 70
     0
102
RTVSPost2010Prop57
140
1.0
102
RTVSPost2010PropOp57
 70
     0
102
RTVSPropertyOp0
 70
     0
102
RTVSPropertyOp1
 70
     0
102
RTVSPropertyOp2
 70
     0
102
RTVSPropertyOp3
 70
     0
102
RTVSPropertyOp4
 70
     0
102
RTVSPropertyOp5
 70
     0
102
RTVSPropertyOp6
 70
     0
102
RTVSPropertyOp7
 70
     0
102
RTVSPropertyOp8
 70
     0
102
RTVSPropertyOp9
 70
     0
102
RTVSPropertyOp10
 70
     0
102
RTVSPropertyOp11
 70
     0
102
RTVSPropertyOp12
 70
     0
102
RTVSPropertyOp13
 70
     0
102
RTVSPropertyOp14
 70
     2
102
RTVSPropertyOp15
 70
     0
102
RTVSPropertyOp16
 70
     0
102
RTVSPropertyOp17
 70
     0
102
RTVSPropertyOp18
 70
     0
102
RTVSPropertyOp19
 70
     0
102
RTVSPropertyOp20
 70
     0
102
RTVSPropertyOp21
 70
     0
102
RTVSPropertyOp22
 70
     0
102
RTVSPropertyOp23
 70
     0
102
RTVSPropertyOp24
 70
     0
102
RTVSPropertyOp25
 70
     0
102
RTVSPropertyOp26
 70
     0
102
RTVSPropertyOp27
 70
     0
102
RTVSPropertyOp28
 70
     1
102
RTVSPropertyOp29
 70
     1
102
RTVSPropertyOp30
 70
     1
102
RTVSPropertyOp31
 70
     1
102
RTVSPropertyOp32
 70
     1
102
RTVSPropertyOp33
 70
     1
102
RTVSPropertyOp34
 70
     1
102
RTVSPropertyOp35
 70
     1
102
RTVSPropertyOp36
 70
     1
102
RTVSPropertyOp37
 70
     0
102
RTVSPropertyOp38
 70
     0
102
RTVSPropertyOp39
 70
     0
102
RTVSPropertyOp40
 70
     0
102
RTVSPropertyOp41
 70
     0
102
RTVSPropertyOp42
 70
     0
102
RTVSPropertyOp43
 70
     0
102
RTVSPropertyOp44
 70
     0
102
RTVSPropertyOp45
 70
     1
102
RTVSPropertyOp46
 70
     0
102
RTVSPropertyOp47
 70
     0
102
RTVSPropertyOp48
 70
     0
102
RTVSPropertyOp49
 70
     1
102
RTVSPropertyOp50
 70
     0
102
RTVSPropertyOp51
 70
     0
102
RTVSPropertyOp52
 70
     0
102
RTVSPropertyOp53
 70
     0
102
RTVSPropertyOp54
 70
     0
102
RTVSPropertyOp55
 70
     1
102
RTVSPropertyOp56
 70
     0
102
RTVSPropertyOp57
 70
     0
102
RTVSPropertyOp58
 70
     0
102
RTVSPropertyOp59
 70
     0
102
RTVSPropertyOp60
 70
     0
102
RTVSPropertyOp61
 70
     0
102
RTVSPropertyOp62
 70
     0
  0
XRECORD
  5
160E
102
{ACAD_REACTORS
330
160D
102
}
330
160D
100
AcDbXrecord
280
     1
102
RTVSPost2010Prop28
280
     0
102
RTVSPost2010PropOp28
 70
     1
102
RTVSPost2010Prop29
280
     1
102
RTVSPost2010PropOp29
 70
     1
102
RTVSPost2010Prop30
280
     1
102
RTVSPost2010PropOp30
 70
     1
102
RTVSPost2010Prop31
280
     0
102
RTVSPost2010PropOp31
 70
     1
102
RTVSPost2010Prop32
280
     0
102
RTVSPost2010PropOp32
 70
     1
102
RTVSPost2010Prop33
280
     0
102
RTVSPost2010PropOp33
 70
     1
102
RTVSPost2010Prop34
280
     0
102
RTVSPost2010PropOp34
 70
     1
102
RTVSPost2010Prop35
280
     0
102
RTVSPost2010PropOp35
 70
     1
102
RTVSPost2010Prop36
280
     0
102
RTVSPost2010PropOp36
 70
     1
102
RTVSPost2010Prop37
 90
       50
102
RTVSPost2010PropOp37
 70
     1
102
RTVSPost2010Prop38
140
0.0
102
RTVSPost2010PropOp38
 70
     1
102
RTVSPost2010Prop39
140
1.0
102
RTVSPost2010PropOp39
 70
     1
102
RTVSPost2010Prop40
 90
        0
102
RTVSPost2010PropOp40
 70
     1
102
RTVSPost2010Prop41ColorIndex
 90
       18
102
RTVSPost2010Prop41ColorRGB
 90
        0
102
RTVSPost2010PropOp41
 70
     1
102
RTVSPost2010Prop42
 90
       50
102
RTVSPost2010PropOp42
 70
     1
102
RTVSPost2010Prop43
 90
        3
102
RTVSPost2010PropOp43
 70
     1
102
RTVSPost2010Prop44ColorIndex
 90
        5
102
RTVSPost2010Prop44ColorRGB
 90
      255
102
RTVSPost2010PropOp44
 70
     1
102
RTVSPost2010Prop45
280
     0
102
RTVSPost2010PropOp45
 70
     1
102
RTVSPost2010Prop46
 90
       50
102
RTVSPost2010PropOp46
 70
     1
102
RTVSPost2010Prop47
 90
       50
102
RTVSPost2010PropOp47
 70
     1
102
RTVSPost2010Prop48
 90
       50
102
RTVSPost2010PropOp48
 70
     1
102
RTVSPost2010Prop49
280
     0
102
RTVSPost2010PropOp49
 70
     1
102
RTVSPost2010Prop50
 90
       50
102
RTVSPost2010PropOp50
 70
     1
102
RTVSPost2010Prop51ColorIndex
 90
      256
102
RTVSPost2010Prop51ColorRGB
 90
-16777216
102
RTVSPost2010PropOp51
 70
     0
102
RTVSPost2010Prop52
140
1.0
102
RTVSPost2010PropOp52
 70
     0
102
RTVSPost2010Prop53
 90
        2
102
RTVSPost2010PropOp53
 70
     1
102
RTVSPost2010Prop54
  1
strokes_ogs.tif
102
RTVSPost2010PropOp54
 70
     1
102
RTVSPost2010Prop55
280
     0
102
RTVSPost2010PropOp55
 70
     1
102
RTVSPost2010Prop56
140
1.0
102
RTVSPost2010PropOp56
 70
     1
102
RTVSPost2010Prop57
140
1.0
102
RTVSPost2010PropOp57
 70
     1
102
RTVSPropertyOp0
 70
     1
102
RTVSPropertyOp1
 70
     1
102
RTVSPropertyOp2
 70
     1
102
RTVSPropertyOp3
 70
     1
102
RTVSPropertyOp4
 70
     1
102
RTVSPropertyOp5
 70
     1
102
RTVSPropertyOp6
 70
     1
102
RTVSPropertyOp7
 70
     1
102
RTVSPropertyOp8
 70
     1
102
RTVSPropertyOp9
 70
     1
102
RTVSPropertyOp10
 70
     1
102
RTVSPropertyOp11
 70
     1
102
RTVSPropertyOp12
 70
     1
102
RTVSPropertyOp13
 70
     1
102
RTVSPropertyOp14
 70
     1
102
RTVSPropertyOp15
 70
     1
102
RTVSPropertyOp16
 70
     1
102
RTVSPropertyOp17
 70
     1
102
RTVSPropertyOp18
 70
     1
102
RTVSPropertyOp19
 70
     1
102
RTVSPropertyOp20
 70
     1
102
RTVSPropertyOp21
 70
     1
102
RTVSPropertyOp22
 70
     1
102
RTVSPropertyOp23
 70
     1
102
RTVSPropertyOp24
 70
     1
102
RTVSPropertyOp25
 70
     1
102
RTVSPropertyOp26
 70
     1
102
RTVSPropertyOp27
 70
     1
102
RTVSPropertyOp28
 70
     1
102
RTVSPropertyOp29
 70
     1
102
RTVSPropertyOp30
 70
     1
102
RTVSPropertyOp31
 70
     1
102
RTVSPropertyOp32
 70
     1
102
RTVSPropertyOp33
 70
     1
102
RTVSPropertyOp34
 70
     1
102
RTVSPropertyOp35
 70
     1
102
RTVSPropertyOp36
 70
     1
102
RTVSPropertyOp37
 70
     1
102
RTVSPropertyOp38
 70
     1
102
RTVSPropertyOp39
 70
     1
102
RTVSPropertyOp40
 70
     1
102
RTVSPropertyOp41
 70
     1
102
RTVSPropertyOp42
 70
     1
102
RTVSPropertyOp43
 70
     1
102
RTVSPropertyOp44
 70
     1
102
RTVSPropertyOp45
 70
     1
102
RTVSPropertyOp46
 70
     1
102
RTVSPropertyOp47
 70
     1
102
RTVSPropertyOp48
 70
     1
102
RTVSPropertyOp49
 70
     1
102
RTVSPropertyOp50
 70
     1
102
RTVSPropertyOp51
 70
     0
102
RTVSPropertyOp52
 70
     0
102
RTVSPropertyOp53
 70
     1
102
RTVSPropertyOp54
 70
     1
102
RTVSPropertyOp55
 70
     1
102
RTVSPropertyOp56
 70
     1
102
RTVSPropertyOp57
 70
     1
102
RTVSPropertyOp58
 70
     1
102
RTVSPropertyOp59
 70
     1
102
RTVSPropertyOp60
 70
     1
102
RTVSPropertyOp61
 70
     1
102
RTVSPropertyOp62
 70
     1
  0
XRECORD
  5
1624
102
{ACAD_REACTORS
330
1623
102
}
330
1623
100
AcDbXrecord
280
     1
102
RTVSPost2010Prop28
280
     0
102
RTVSPost2010PropOp28
 70
     1
102
RTVSPost2010Prop29
280
     1
102
RTVSPost2010PropOp29
 70
     1
102
RTVSPost2010Prop30
280
     1
102
RTVSPost2010PropOp30
 70
     1
102
RTVSPost2010Prop31
280
     0
102
RTVSPost2010PropOp31
 70
     1
102
RTVSPost2010Prop32
280
     0
102
RTVSPost2010PropOp32
 70
     1
102
RTVSPost2010Prop33
280
     0
102
RTVSPost2010PropOp33
 70
     1
102
RTVSPost2010Prop34
280
     0
102
RTVSPost2010PropOp34
 70
     1
102
RTVSPost2010Prop35
280
     0
102
RTVSPost2010PropOp35
 70
     1
102
RTVSPost2010Prop36
280
     0
102
RTVSPost2010PropOp36
 70
     1
102
RTVSPost2010Prop37
 90
       50
102
RTVSPost2010PropOp37
 70
     1
102
RTVSPost2010Prop38
140
0.0
102
RTVSPost2010PropOp38
 70
     1
102
RTVSPost2010Prop39
140
1.0
102
RTVSPost2010PropOp39
 70
     1
102
RTVSPost2010Prop40
 90
        0
102
RTVSPost2010PropOp40
 70
     1
102
RTVSPost2010Prop41ColorIndex
 90
       18
102
RTVSPost2010Prop41ColorRGB
 90
        0
102
RTVSPost2010PropOp41
 70
     1
102
RTVSPost2010Prop42
 90
       50
102
RTVSPost2010PropOp42
 70
     1
102
RTVSPost2010Prop43
 90
        3
102
RTVSPost2010PropOp43
 70
     1
102
RTVSPost2010Prop44ColorIndex
 90
        5
102
RTVSPost2010Prop44ColorRGB
 90
      255
102
RTVSPost2010PropOp44
 70
     1
102
RTVSPost2010Prop45
280
     0
102
RTVSPost2010PropOp45
 70
     1
102
RTVSPost2010Prop46
 90
       50
102
RTVSPost2010PropOp46
 70
     1
102
RTVSPost2010Prop47
 90
       50
102
RTVSPost2010PropOp47
 70
     1
102
RTVSPost2010Prop48
 90
       50
102
RTVSPost2010PropOp48
 70
     1
102
RTVSPost2010Prop49
280
     0
102
RTVSPost2010PropOp49
 70
     1
102
RTVSPost2010Prop50
 90
       50
102
RTVSPost2010PropOp50
 70
     1
102
RTVSPost2010Prop51ColorIndex
 90
      256
102
RTVSPost2010Prop51ColorRGB
 90
-16777216
102
RTVSPost2010PropOp51
 70
     0
102
RTVSPost2010Prop52
140
1.0
102
RTVSPost2010PropOp52
 70
     0
102
RTVSPost2010Prop53
 90
        2
102
RTVSPost2010PropOp53
 70
     1
102
RTVSPost2010Prop54
  1
strokes_ogs.tif
102
RTVSPost2010PropOp54
 70
     1
102
RTVSPost2010Prop55
280
     0
102
RTVSPost2010PropOp55
 70
     1
102
RTVSPost2010Prop56
140
1.0
102
RTVSPost2010PropOp56
 70
     1
102
RTVSPost2010Prop57
140
1.0
102
RTVSPost2010PropOp57
 70
     1
102
RTVSPropertyOp0
 70
     1
102
RTVSPropertyOp1
 70
     1
102
RTVSPropertyOp2
 70
     1
102
RTVSPropertyOp3
 70
     1
102
RTVSPropertyOp4
 70
     1
102
RTVSPropertyOp5
 70
     1
102
RTVSPropertyOp6
 70
     1
102
RTVSPropertyOp7
 70
     1
102
RTVSPropertyOp8
 70
     1
102
RTVSPropertyOp9
 70
     1
102
RTVSPropertyOp10
 70
     1
102
RTVSPropertyOp11
 70
     1
102
RTVSPropertyOp12
 70
     1
102
RTVSPropertyOp13
 70
     1
102
RTVSPropertyOp14
 70
     1
102
RTVSPropertyOp15
 70
     1
102
RTVSPropertyOp16
 70
     1
102
RTVSPropertyOp17
 70
     1
102
RTVSPropertyOp18
 70
     1
102
RTVSPropertyOp19
 70
     1
102
RTVSPropertyOp20
 70
     1
102
RTVSPropertyOp21
 70
     1
102
RTVSPropertyOp22
 70
     1
102
RTVSPropertyOp23
 70
     1
102
RTVSPropertyOp24
 70
     1
102
RTVSPropertyOp25
 70
     1
102
RTVSPropertyOp26
 70
     1
102
RTVSPropertyOp27
 70
     1
102
RTVSPropertyOp28
 70
     1
102
RTVSPropertyOp29
 70
     1
102
RTVSPropertyOp30
 70
     1
102
RTVSPropertyOp31
 70
     1
102
RTVSPropertyOp32
 70
     1
102
RTVSPropertyOp33
 70
     1
102
RTVSPropertyOp34
 70
     1
102
RTVSPropertyOp35
 70
     1
102
RTVSPropertyOp36
 70
     1
102
RTVSPropertyOp37
 70
     1
102
RTVSPropertyOp38
 70
     1
102
RTVSPropertyOp39
 70
     1
102
RTVSPropertyOp40
 70
     1
102
RTVSPropertyOp41
 70
     1
102
RTVSPropertyOp42
 70
     1
102
RTVSPropertyOp43
 70
     1
102
RTVSPropertyOp44
 70
     1
102
RTVSPropertyOp45
 70
     1
102
RTVSPropertyOp46
 70
     1
102
RTVSPropertyOp47
 70
     1
102
RTVSPropertyOp48
 70
     1
102
RTVSPropertyOp49
 70
     1
102
RTVSPropertyOp50
 70
     1
102
RTVSPropertyOp51
 70
     0
102
RTVSPropertyOp52
 70
     0
102
RTVSPropertyOp53
 70
     1
102
RTVSPropertyOp54
 70
     1
102
RTVSPropertyOp55
 70
     1
102
RTVSPropertyOp56
 70
     1
102
RTVSPropertyOp57
 70
     1
102
RTVSPropertyOp58
 70
     1
102
RTVSPropertyOp59
 70
     1
102
RTVSPropertyOp60
 70
     1
102
RTVSPropertyOp61
 70
     1
102
RTVSPropertyOp62
 70
     1
  0
XRECORD
  5
1622
102
{ACAD_REACTORS
330
1621
102
}
330
1621
100
AcDbXrecord
280
     1
102
RTVSPost2010Prop28
280
     0
102
RTVSPost2010PropOp28
 70
     1
102
RTVSPost2010Prop29
280
     1
102
RTVSPost2010PropOp29
 70
     1
102
RTVSPost2010Prop30
280
     1
102
RTVSPost2010PropOp30
 70
     1
102
RTVSPost2010Prop31
280
     0
102
RTVSPost2010PropOp31
 70
     1
102
RTVSPost2010Prop32
280
     0
102
RTVSPost2010PropOp32
 70
     1
102
RTVSPost2010Prop33
280
     0
102
RTVSPost2010PropOp33
 70
     1
102
RTVSPost2010Prop34
280
     0
102
RTVSPost2010PropOp34
 70
     1
102
RTVSPost2010Prop35
280
     0
102
RTVSPost2010PropOp35
 70
     1
102
RTVSPost2010Prop36
280
     0
102
RTVSPost2010PropOp36
 70
     1
102
RTVSPost2010Prop37
 90
       50
102
RTVSPost2010PropOp37
 70
     1
102
RTVSPost2010Prop38
140
0.0
102
RTVSPost2010PropOp38
 70
     1
102
RTVSPost2010Prop39
140
1.0
102
RTVSPost2010PropOp39
 70
     1
102
RTVSPost2010Prop40
 90
        0
102
RTVSPost2010PropOp40
 70
     1
102
RTVSPost2010Prop41ColorIndex
 90
       18
102
RTVSPost2010Prop41ColorRGB
 90
        0
102
RTVSPost2010PropOp41
 70
     1
102
RTVSPost2010Prop42
 90
       50
102
RTVSPost2010PropOp42
 70
     1
102
RTVSPost2010Prop43
 90
        3
102
RTVSPost2010PropOp43
 70
     1
102
RTVSPost2010Prop44ColorIndex
 90
        5
102
RTVSPost2010Prop44ColorRGB
 90
      255
102
RTVSPost2010PropOp44
 70
     1
102
RTVSPost2010Prop45
280
     0
102
RTVSPost2010PropOp45
 70
     1
102
RTVSPost2010Prop46
 90
       50
102
RTVSPost2010PropOp46
 70
     1
102
RTVSPost2010Prop47
 90
       50
102
RTVSPost2010PropOp47
 70
     1
102
RTVSPost2010Prop48
 90
       50
102
RTVSPost2010PropOp48
 70
     1
102
RTVSPost2010Prop49
280
     0
102
RTVSPost2010PropOp49
 70
     1
102
RTVSPost2010Prop50
 90
       50
102
RTVSPost2010PropOp50
 70
     1
102
RTVSPost2010Prop51ColorIndex
 90
      256
102
RTVSPost2010Prop51ColorRGB
 90
-16777216
102
RTVSPost2010PropOp51
 70
     0
102
RTVSPost2010Prop52
140
1.0
102
RTVSPost2010PropOp52
 70
     0
102
RTVSPost2010Prop53
 90
        2
102
RTVSPost2010PropOp53
 70
     1
102
RTVSPost2010Prop54
  1
strokes_ogs.tif
102
RTVSPost2010PropOp54
 70
     1
102
RTVSPost2010Prop55
280
     0
102
RTVSPost2010PropOp55
 70
     1
102
RTVSPost2010Prop56
140
1.0
102
RTVSPost2010PropOp56
 70
     1
102
RTVSPost2010Prop57
140
1.0
102
RTVSPost2010PropOp57
 70
     1
102
RTVSPropertyOp0
 70
     1
102
RTVSPropertyOp1
 70
     1
102
RTVSPropertyOp2
 70
     1
102
RTVSPropertyOp3
 70
     1
102
RTVSPropertyOp4
 70
     1
102
RTVSPropertyOp5
 70
     1
102
RTVSPropertyOp6
 70
     1
102
RTVSPropertyOp7
 70
     1
102
RTVSPropertyOp8
 70
     1
102
RTVSPropertyOp9
 70
     1
102
RTVSPropertyOp10
 70
     1
102
RTVSPropertyOp11
 70
     1
102
RTVSPropertyOp12
 70
     1
102
RTVSPropertyOp13
 70
     1
102
RTVSPropertyOp14
 70
     1
102
RTVSPropertyOp15
 70
     1
102
RTVSPropertyOp16
 70
     1
102
RTVSPropertyOp17
 70
     1
102
RTVSPropertyOp18
 70
     1
102
RTVSPropertyOp19
 70
     1
102
RTVSPropertyOp20
 70
     1
102
RTVSPropertyOp21
 70
     1
102
RTVSPropertyOp22
 70
     1
102
RTVSPropertyOp23
 70
     1
102
RTVSPropertyOp24
 70
     1
102
RTVSPropertyOp25
 70
     1
102
RTVSPropertyOp26
 70
     1
102
RTVSPropertyOp27
 70
     1
102
RTVSPropertyOp28
 70
     1
102
RTVSPropertyOp29
 70
     1
102
RTVSPropertyOp30
 70
     1
102
RTVSPropertyOp31
 70
     1
102
RTVSPropertyOp32
 70
     1
102
RTVSPropertyOp33
 70
     1
102
RTVSPropertyOp34
 70
     1
102
RTVSPropertyOp35
 70
     1
102
RTVSPropertyOp36
 70
     1
102
RTVSPropertyOp37
 70
     1
102
RTVSPropertyOp38
 70
     1
102
RTVSPropertyOp39
 70
     1
102
RTVSPropertyOp40
 70
     1
102
RTVSPropertyOp41
 70
     1
102
RTVSPropertyOp42
 70
     1
102
RTVSPropertyOp43
 70
     1
102
RTVSPropertyOp44
 70
     1
102
RTVSPropertyOp45
 70
     1
102
RTVSPropertyOp46
 70
     1
102
RTVSPropertyOp47
 70
     1
102
RTVSPropertyOp48
 70
     1
102
RTVSPropertyOp49
 70
     1
102
RTVSPropertyOp50
 70
     1
102
RTVSPropertyOp51
 70
     0
102
RTVSPropertyOp52
 70
     0
102
RTVSPropertyOp53
 70
     1
102
RTVSPropertyOp54
 70
     1
102
RTVSPropertyOp55
 70
     1
102
RTVSPropertyOp56
 70
     1
102
RTVSPropertyOp57
 70
     1
102
RTVSPropertyOp58
 70
     1
102
RTVSPropertyOp59
 70
     1
102
RTVSPropertyOp60
 70
     1
102
RTVSPropertyOp61
 70
     1
102
RTVSPropertyOp62
 70
     1
  0
XRECORD
  5
161C
102
{ACAD_REACTORS
330
161B
102
}
330
161B
100
AcDbXrecord
280
     1
102
RTVSPost2010Prop28
280
     0
102
RTVSPost2010PropOp28
 70
     1
102
RTVSPost2010Prop29
280
     1
102
RTVSPost2010PropOp29
 70
     1
102
RTVSPost2010Prop30
280
     1
102
RTVSPost2010PropOp30
 70
     1
102
RTVSPost2010Prop31
280
     0
102
RTVSPost2010PropOp31
 70
     1
102
RTVSPost2010Prop32
280
     0
102
RTVSPost2010PropOp32
 70
     1
102
RTVSPost2010Prop33
280
     0
102
RTVSPost2010PropOp33
 70
     1
102
RTVSPost2010Prop34
280
     0
102
RTVSPost2010PropOp34
 70
     1
102
RTVSPost2010Prop35
280
     0
102
RTVSPost2010PropOp35
 70
     1
102
RTVSPost2010Prop36
280
     0
102
RTVSPost2010PropOp36
 70
     1
102
RTVSPost2010Prop37
 90
       50
102
RTVSPost2010PropOp37
 70
     1
102
RTVSPost2010Prop38
140
0.0
102
RTVSPost2010PropOp38
 70
     1
102
RTVSPost2010Prop39
140
1.0
102
RTVSPost2010PropOp39
 70
     1
102
RTVSPost2010Prop40
 90
        0
102
RTVSPost2010PropOp40
 70
     1
102
RTVSPost2010Prop41ColorIndex
 90
       18
102
RTVSPost2010Prop41ColorRGB
 90
        0
102
RTVSPost2010PropOp41
 70
     1
102
RTVSPost2010Prop42
 90
       50
102
RTVSPost2010PropOp42
 70
     1
102
RTVSPost2010Prop43
 90
        3
102
RTVSPost2010PropOp43
 70
     1
102
RTVSPost2010Prop44ColorIndex
 90
        5
102
RTVSPost2010Prop44ColorRGB
 90
      255
102
RTVSPost2010PropOp44
 70
     1
102
RTVSPost2010Prop45
280
     0
102
RTVSPost2010PropOp45
 70
     1
102
RTVSPost2010Prop46
 90
       50
102
RTVSPost2010PropOp46
 70
     1
102
RTVSPost2010Prop47
 90
       50
102
RTVSPost2010PropOp47
 70
     1
102
RTVSPost2010Prop48
 90
       50
102
RTVSPost2010PropOp48
 70
     1
102
RTVSPost2010Prop49
280
     0
102
RTVSPost2010PropOp49
 70
     1
102
RTVSPost2010Prop50
 90
       50
102
RTVSPost2010PropOp50
 70
     1
102
RTVSPost2010Prop51ColorIndex
 90
      256
102
RTVSPost2010Prop51ColorRGB
 90
-16777216
102
RTVSPost2010PropOp51
 70
     0
102
RTVSPost2010Prop52
140
1.0
102
RTVSPost2010PropOp52
 70
     0
102
RTVSPost2010Prop53
 90
        2
102
RTVSPost2010PropOp53
 70
     1
102
RTVSPost2010Prop54
  1
strokes_ogs.tif
102
RTVSPost2010PropOp54
 70
     1
102
RTVSPost2010Prop55
280
     0
102
RTVSPost2010PropOp55
 70
     1
102
RTVSPost2010Prop56
140
1.0
102
RTVSPost2010PropOp56
 70
     1
102
RTVSPost2010Prop57
140
1.0
102
RTVSPost2010PropOp57
 70
     1
102
RTVSPropertyOp0
 70
     1
102
RTVSPropertyOp1
 70
     1
102
RTVSPropertyOp2
 70
     1
102
RTVSPropertyOp3
 70
     1
102
RTVSPropertyOp4
 70
     1
102
RTVSPropertyOp5
 70
     1
102
RTVSPropertyOp6
 70
     1
102
RTVSPropertyOp7
 70
     1
102
RTVSPropertyOp8
 70
     1
102
RTVSPropertyOp9
 70
     1
102
RTVSPropertyOp10
 70
     1
102
RTVSPropertyOp11
 70
     1
102
RTVSPropertyOp12
 70
     1
102
RTVSPropertyOp13
 70
     1
102
RTVSPropertyOp14
 70
     1
102
RTVSPropertyOp15
 70
     1
102
RTVSPropertyOp16
 70
     1
102
RTVSPropertyOp17
 70
     1
102
RTVSPropertyOp18
 70
     1
102
RTVSPropertyOp19
 70
     1
102
RTVSPropertyOp20
 70
     1
102
RTVSPropertyOp21
 70
     1
102
RTVSPropertyOp22
 70
     1
102
RTVSPropertyOp23
 70
     1
102
RTVSPropertyOp24
 70
     1
102
RTVSPropertyOp25
 70
     1
102
RTVSPropertyOp26
 70
     1
102
RTVSPropertyOp27
 70
     1
102
RTVSPropertyOp28
 70
     1
102
RTVSPropertyOp29
 70
     1
102
RTVSPropertyOp30
 70
     1
102
RTVSPropertyOp31
 70
     1
102
RTVSPropertyOp32
 70
     1
102
RTVSPropertyOp33
 70
     1
102
RTVSPropertyOp34
 70
     1
102
RTVSPropertyOp35
 70
     1
102
RTVSPropertyOp36
 70
     1
102
RTVSPropertyOp37
 70
     1
102
RTVSPropertyOp38
 70
     1
102
RTVSPropertyOp39
 70
     1
102
RTVSPropertyOp40
 70
     1
102
RTVSPropertyOp41
 70
     1
102
RTVSPropertyOp42
 70
     1
102
RTVSPropertyOp43
 70
     1
102
RTVSPropertyOp44
 70
     1
102
RTVSPropertyOp45
 70
     1
102
RTVSPropertyOp46
 70
     1
102
RTVSPropertyOp47
 70
     1
102
RTVSPropertyOp48
 70
     1
102
RTVSPropertyOp49
 70
     1
102
RTVSPropertyOp50
 70
     1
102
RTVSPropertyOp51
 70
     0
102
RTVSPropertyOp52
 70
     0
102
RTVSPropertyOp53
 70
     1
102
RTVSPropertyOp54
 70
     1
102
RTVSPropertyOp55
 70
     1
102
RTVSPropertyOp56
 70
     1
102
RTVSPropertyOp57
 70
     1
102
RTVSPropertyOp58
 70
     1
102
RTVSPropertyOp59
 70
     1
102
RTVSPropertyOp60
 70
     1
102
RTVSPropertyOp61
 70
     1
102
RTVSPropertyOp62
 70
     1
  0
XRECORD
  5
161E
102
{ACAD_REACTORS
330
161D
102
}
330
161D
100
AcDbXrecord
280
     1
102
RTVSPost2010Prop28
280
     0
102
RTVSPost2010PropOp28
 70
     1
102
RTVSPost2010Prop29
280
     1
102
RTVSPost2010PropOp29
 70
     1
102
RTVSPost2010Prop30
280
     1
102
RTVSPost2010PropOp30
 70
     1
102
RTVSPost2010Prop31
280
     0
102
RTVSPost2010PropOp31
 70
     1
102
RTVSPost2010Prop32
280
     0
102
RTVSPost2010PropOp32
 70
     1
102
RTVSPost2010Prop33
280
     0
102
RTVSPost2010PropOp33
 70
     1
102
RTVSPost2010Prop34
280
     0
102
RTVSPost2010PropOp34
 70
     1
102
RTVSPost2010Prop35
280
     0
102
RTVSPost2010PropOp35
 70
     1
102
RTVSPost2010Prop36
280
     0
102
RTVSPost2010PropOp36
 70
     1
102
RTVSPost2010Prop37
 90
       50
102
RTVSPost2010PropOp37
 70
     1
102
RTVSPost2010Prop38
140
0.0
102
RTVSPost2010PropOp38
 70
     1
102
RTVSPost2010Prop39
140
1.0
102
RTVSPost2010PropOp39
 70
     1
102
RTVSPost2010Prop40
 90
        0
102
RTVSPost2010PropOp40
 70
     1
102
RTVSPost2010Prop41ColorIndex
 90
       18
102
RTVSPost2010Prop41ColorRGB
 90
        0
102
RTVSPost2010PropOp41
 70
     1
102
RTVSPost2010Prop42
 90
       50
102
RTVSPost2010PropOp42
 70
     1
102
RTVSPost2010Prop43
 90
        3
102
RTVSPost2010PropOp43
 70
     1
102
RTVSPost2010Prop44ColorIndex
 90
        5
102
RTVSPost2010Prop44ColorRGB
 90
      255
102
RTVSPost2010PropOp44
 70
     1
102
RTVSPost2010Prop45
280
     0
102
RTVSPost2010PropOp45
 70
     1
102
RTVSPost2010Prop46
 90
       50
102
RTVSPost2010PropOp46
 70
     1
102
RTVSPost2010Prop47
 90
       50
102
RTVSPost2010PropOp47
 70
     1
102
RTVSPost2010Prop48
 90
       50
102
RTVSPost2010PropOp48
 70
     1
102
RTVSPost2010Prop49
280
     0
102
RTVSPost2010PropOp49
 70
     1
102
RTVSPost2010Prop50
 90
       50
102
RTVSPost2010PropOp50
 70
     1
102
RTVSPost2010Prop51ColorIndex
 90
      256
102
RTVSPost2010Prop51ColorRGB
 90
-16777216
102
RTVSPost2010PropOp51
 70
     0
102
RTVSPost2010Prop52
140
1.0
102
RTVSPost2010PropOp52
 70
     0
102
RTVSPost2010Prop53
 90
        2
102
RTVSPost2010PropOp53
 70
     1
102
RTVSPost2010Prop54
  1
strokes_ogs.tif
102
RTVSPost2010PropOp54
 70
     1
102
RTVSPost2010Prop55
280
     0
102
RTVSPost2010PropOp55
 70
     1
102
RTVSPost2010Prop56
140
1.0
102
RTVSPost2010PropOp56
 70
     1
102
RTVSPost2010Prop57
140
1.0
102
RTVSPost2010PropOp57
 70
     1
102
RTVSPropertyOp0
 70
     1
102
RTVSPropertyOp1
 70
     1
102
RTVSPropertyOp2
 70
     1
102
RTVSPropertyOp3
 70
     1
102
RTVSPropertyOp4
 70
     1
102
RTVSPropertyOp5
 70
     1
102
RTVSPropertyOp6
 70
     1
102
RTVSPropertyOp7
 70
     1
102
RTVSPropertyOp8
 70
     1
102
RTVSPropertyOp9
 70
     1
102
RTVSPropertyOp10
 70
     1
102
RTVSPropertyOp11
 70
     1
102
RTVSPropertyOp12
 70
     1
102
RTVSPropertyOp13
 70
     1
102
RTVSPropertyOp14
 70
     1
102
RTVSPropertyOp15
 70
     1
102
RTVSPropertyOp16
 70
     1
102
RTVSPropertyOp17
 70
     1
102
RTVSPropertyOp18
 70
     1
102
RTVSPropertyOp19
 70
     1
102
RTVSPropertyOp20
 70
     1
102
RTVSPropertyOp21
 70
     1
102
RTVSPropertyOp22
 70
     1
102
RTVSPropertyOp23
 70
     1
102
RTVSPropertyOp24
 70
     1
102
RTVSPropertyOp25
 70
     1
102
RTVSPropertyOp26
 70
     1
102
RTVSPropertyOp27
 70
     1
102
RTVSPropertyOp28
 70
     1
102
RTVSPropertyOp29
 70
     1
102
RTVSPropertyOp30
 70
     1
102
RTVSPropertyOp31
 70
     1
102
RTVSPropertyOp32
 70
     1
102
RTVSPropertyOp33
 70
     1
102
RTVSPropertyOp34
 70
     1
102
RTVSPropertyOp35
 70
     1
102
RTVSPropertyOp36
 70
     1
102
RTVSPropertyOp37
 70
     1
102
RTVSPropertyOp38
 70
     1
102
RTVSPropertyOp39
 70
     1
102
RTVSPropertyOp40
 70
     1
102
RTVSPropertyOp41
 70
     1
102
RTVSPropertyOp42
 70
     1
102
RTVSPropertyOp43
 70
     1
102
RTVSPropertyOp44
 70
     1
102
RTVSPropertyOp45
 70
     1
102
RTVSPropertyOp46
 70
     1
102
RTVSPropertyOp47
 70
     1
102
RTVSPropertyOp48
 70
     1
102
RTVSPropertyOp49
 70
     1
102
RTVSPropertyOp50
 70
     1
102
RTVSPropertyOp51
 70
     0
102
RTVSPropertyOp52
 70
     0
102
RTVSPropertyOp53
 70
     1
102
RTVSPropertyOp54
 70
     1
102
RTVSPropertyOp55
 70
     1
102
RTVSPropertyOp56
 70
     1
102
RTVSPropertyOp57
 70
     1
102
RTVSPropertyOp58
 70
     1
102
RTVSPropertyOp59
 70
     1
102
RTVSPropertyOp60
 70
     1
102
RTVSPropertyOp61
 70
     1
102
RTVSPropertyOp62
 70
     1
  0
XRECORD
  5
1614
102
{ACAD_REACTORS
330
1613
102
}
330
1613
100
AcDbXrecord
280
     1
102
RTVSPost2010Prop28
280
     0
102
RTVSPost2010PropOp28
 70
     1
102
RTVSPost2010Prop29
280
     1
102
RTVSPost2010PropOp29
 70
     1
102
RTVSPost2010Prop30
280
     1
102
RTVSPost2010PropOp30
 70
     1
102
RTVSPost2010Prop31
280
     0
102
RTVSPost2010PropOp31
 70
     1
102
RTVSPost2010Prop32
280
     0
102
RTVSPost2010PropOp32
 70
     1
102
RTVSPost2010Prop33
280
     0
102
RTVSPost2010PropOp33
 70
     1
102
RTVSPost2010Prop34
280
     0
102
RTVSPost2010PropOp34
 70
     1
102
RTVSPost2010Prop35
280
     0
102
RTVSPost2010PropOp35
 70
     1
102
RTVSPost2010Prop36
280
     0
102
RTVSPost2010PropOp36
 70
     1
102
RTVSPost2010Prop37
 90
       50
102
RTVSPost2010PropOp37
 70
     1
102
RTVSPost2010Prop38
140
0.0
102
RTVSPost2010PropOp38
 70
     1
102
RTVSPost2010Prop39
140
1.0
102
RTVSPost2010PropOp39
 70
     1
102
RTVSPost2010Prop40
 90
        0
102
RTVSPost2010PropOp40
 70
     1
102
RTVSPost2010Prop41ColorIndex
 90
       18
102
RTVSPost2010Prop41ColorRGB
 90
        0
102
RTVSPost2010PropOp41
 70
     1
102
RTVSPost2010Prop42
 90
       50
102
RTVSPost2010PropOp42
 70
     1
102
RTVSPost2010Prop43
 90
        3
102
RTVSPost2010PropOp43
 70
     1
102
RTVSPost2010Prop44ColorIndex
 90
        5
102
RTVSPost2010Prop44ColorRGB
 90
      255
102
RTVSPost2010PropOp44
 70
     1
102
RTVSPost2010Prop45
280
     0
102
RTVSPost2010PropOp45
 70
     1
102
RTVSPost2010Prop46
 90
       50
102
RTVSPost2010PropOp46
 70
     1
102
RTVSPost2010Prop47
 90
       50
102
RTVSPost2010PropOp47
 70
     1
102
RTVSPost2010Prop48
 90
       50
102
RTVSPost2010PropOp48
 70
     1
102
RTVSPost2010Prop49
280
     0
102
RTVSPost2010PropOp49
 70
     1
102
RTVSPost2010Prop50
 90
       50
102
RTVSPost2010PropOp50
 70
     1
102
RTVSPost2010Prop51ColorIndex
 90
      256
102
RTVSPost2010Prop51ColorRGB
 90
-16777216
102
RTVSPost2010PropOp51
 70
     0
102
RTVSPost2010Prop52
140
1.0
102
RTVSPost2010PropOp52
 70
     0
102
RTVSPost2010Prop53
 90
        2
102
RTVSPost2010PropOp53
 70
     1
102
RTVSPost2010Prop54
  1
strokes_ogs.tif
102
RTVSPost2010PropOp54
 70
     1
102
RTVSPost2010Prop55
280
     0
102
RTVSPost2010PropOp55
 70
     1
102
RTVSPost2010Prop56
140
1.0
102
RTVSPost2010PropOp56
 70
     1
102
RTVSPost2010Prop57
140
1.0
102
RTVSPost2010PropOp57
 70
     1
102
RTVSPropertyOp0
 70
     1
102
RTVSPropertyOp1
 70
     1
102
RTVSPropertyOp2
 70
     1
102
RTVSPropertyOp3
 70
     1
102
RTVSPropertyOp4
 70
     1
102
RTVSPropertyOp5
 70
     1
102
RTVSPropertyOp6
 70
     1
102
RTVSPropertyOp7
 70
     1
102
RTVSPropertyOp8
 70
     1
102
RTVSPropertyOp9
 70
     1
102
RTVSPropertyOp10
 70
     1
102
RTVSPropertyOp11
 70
     1
102
RTVSPropertyOp12
 70
     1
102
RTVSPropertyOp13
 70
     1
102
RTVSPropertyOp14
 70
     1
102
RTVSPropertyOp15
 70
     1
102
RTVSPropertyOp16
 70
     1
102
RTVSPropertyOp17
 70
     1
102
RTVSPropertyOp18
 70
     1
102
RTVSPropertyOp19
 70
     1
102
RTVSPropertyOp20
 70
     1
102
RTVSPropertyOp21
 70
     1
102
RTVSPropertyOp22
 70
     1
102
RTVSPropertyOp23
 70
     1
102
RTVSPropertyOp24
 70
     1
102
RTVSPropertyOp25
 70
     1
102
RTVSPropertyOp26
 70
     1
102
RTVSPropertyOp27
 70
     1
102
RTVSPropertyOp28
 70
     1
102
RTVSPropertyOp29
 70
     1
102
RTVSPropertyOp30
 70
     1
102
RTVSPropertyOp31
 70
     1
102
RTVSPropertyOp32
 70
     1
102
RTVSPropertyOp33
 70
     1
102
RTVSPropertyOp34
 70
     1
102
RTVSPropertyOp35
 70
     1
102
RTVSPropertyOp36
 70
     1
102
RTVSPropertyOp37
 70
     1
102
RTVSPropertyOp38
 70
     1
102
RTVSPropertyOp39
 70
     1
102
RTVSPropertyOp40
 70
     1
102
RTVSPropertyOp41
 70
     1
102
RTVSPropertyOp42
 70
     1
102
RTVSPropertyOp43
 70
     1
102
RTVSPropertyOp44
 70
     1
102
RTVSPropertyOp45
 70
     1
102
RTVSPropertyOp46
 70
     1
102
RTVSPropertyOp47
 70
     1
102
RTVSPropertyOp48
 70
     1
102
RTVSPropertyOp49
 70
     1
102
RTVSPropertyOp50
 70
     1
102
RTVSPropertyOp51
 70
     0
102
RTVSPropertyOp52
 70
     0
102
RTVSPropertyOp53
 70
     1
102
RTVSPropertyOp54
 70
     1
102
RTVSPropertyOp55
 70
     1
102
RTVSPropertyOp56
 70
     1
102
RTVSPropertyOp57
 70
     1
102
RTVSPropertyOp58
 70
     1
102
RTVSPropertyOp59
 70
     1
102
RTVSPropertyOp60
 70
     1
102
RTVSPropertyOp61
 70
     1
102
RTVSPropertyOp62
 70
     1
  0
XRECORD
  5
1608
102
{ACAD_REACTORS
330
1607
102
}
330
1607
100
AcDbXrecord
280
     1
102
RTVSPost2010Prop28
280
     0
102
RTVSPost2010PropOp28
 70
     1
102
RTVSPost2010Prop29
280
     1
102
RTVSPost2010PropOp29
 70
     1
102
RTVSPost2010Prop30
280
     1
102
RTVSPost2010PropOp30
 70
     1
102
RTVSPost2010Prop31
280
     0
102
RTVSPost2010PropOp31
 70
     1
102
RTVSPost2010Prop32
280
     0
102
RTVSPost2010PropOp32
 70
     1
102
RTVSPost2010Prop33
280
     0
102
RTVSPost2010PropOp33
 70
     1
102
RTVSPost2010Prop34
280
     0
102
RTVSPost2010PropOp34
 70
     1
102
RTVSPost2010Prop35
280
     0
102
RTVSPost2010PropOp35
 70
     1
102
RTVSPost2010Prop36
280
     0
102
RTVSPost2010PropOp36
 70
     1
102
RTVSPost2010Prop37
 90
       50
102
RTVSPost2010PropOp37
 70
     1
102
RTVSPost2010Prop38
140
0.0
102
RTVSPost2010PropOp38
 70
     1
102
RTVSPost2010Prop39
140
1.0
102
RTVSPost2010PropOp39
 70
     1
102
RTVSPost2010Prop40
 90
        0
102
RTVSPost2010PropOp40
 70
     1
102
RTVSPost2010Prop41ColorIndex
 90
       18
102
RTVSPost2010Prop41ColorRGB
 90
        0
102
RTVSPost2010PropOp41
 70
     1
102
RTVSPost2010Prop42
 90
       50
102
RTVSPost2010PropOp42
 70
     1
102
RTVSPost2010Prop43
 90
        3
102
RTVSPost2010PropOp43
 70
     1
102
RTVSPost2010Prop44ColorIndex
 90
        5
102
RTVSPost2010Prop44ColorRGB
 90
      255
102
RTVSPost2010PropOp44
 70
     1
102
RTVSPost2010Prop45
280
     0
102
RTVSPost2010PropOp45
 70
     1
102
RTVSPost2010Prop46
 90
       50
102
RTVSPost2010PropOp46
 70
     1
102
RTVSPost2010Prop47
 90
       50
102
RTVSPost2010PropOp47
 70
     1
102
RTVSPost2010Prop48
 90
       50
102
RTVSPost2010PropOp48
 70
     1
102
RTVSPost2010Prop49
280
     0
102
RTVSPost2010PropOp49
 70
     1
102
RTVSPost2010Prop50
 90
       50
102
RTVSPost2010PropOp50
 70
     1
102
RTVSPost2010Prop51ColorIndex
 90
      256
102
RTVSPost2010Prop51ColorRGB
 90
-16777216
102
RTVSPost2010PropOp51
 70
     0
102
RTVSPost2010Prop52
140
1.0
102
RTVSPost2010PropOp52
 70
     0
102
RTVSPost2010Prop53
 90
        2
102
RTVSPost2010PropOp53
 70
     1
102
RTVSPost2010Prop54
  1
strokes_ogs.tif
102
RTVSPost2010PropOp54
 70
     1
102
RTVSPost2010Prop55
280
     0
102
RTVSPost2010PropOp55
 70
     1
102
RTVSPost2010Prop56
140
1.0
102
RTVSPost2010PropOp56
 70
     1
102
RTVSPost2010Prop57
140
1.0
102
RTVSPost2010PropOp57
 70
     1
102
RTVSPropertyOp0
 70
     1
102
RTVSPropertyOp1
 70
     1
102
RTVSPropertyOp2
 70
     1
102
RTVSPropertyOp3
 70
     1
102
RTVSPropertyOp4
 70
     1
102
RTVSPropertyOp5
 70
     1
102
RTVSPropertyOp6
 70
     1
102
RTVSPropertyOp7
 70
     1
102
RTVSPropertyOp8
 70
     1
102
RTVSPropertyOp9
 70
     1
102
RTVSPropertyOp10
 70
     1
102
RTVSPropertyOp11
 70
     1
102
RTVSPropertyOp12
 70
     1
102
RTVSPropertyOp13
 70
     1
102
RTVSPropertyOp14
 70
     1
102
RTVSPropertyOp15
 70
     1
102
RTVSPropertyOp16
 70
     1
102
RTVSPropertyOp17
 70
     1
102
RTVSPropertyOp18
 70
     1
102
RTVSPropertyOp19
 70
     1
102
RTVSPropertyOp20
 70
     1
102
RTVSPropertyOp21
 70
     1
102
RTVSPropertyOp22
 70
     1
102
RTVSPropertyOp23
 70
     1
102
RTVSPropertyOp24
 70
     1
102
RTVSPropertyOp25
 70
     1
102
RTVSPropertyOp26
 70
     1
102
RTVSPropertyOp27
 70
     1
102
RTVSPropertyOp28
 70
     1
102
RTVSPropertyOp29
 70
     1
102
RTVSPropertyOp30
 70
     1
102
RTVSPropertyOp31
 70
     1
102
RTVSPropertyOp32
 70
     1
102
RTVSPropertyOp33
 70
     1
102
RTVSPropertyOp34
 70
     1
102
RTVSPropertyOp35
 70
     1
102
RTVSPropertyOp36
 70
     1
102
RTVSPropertyOp37
 70
     1
102
RTVSPropertyOp38
 70
     1
102
RTVSPropertyOp39
 70
     1
102
RTVSPropertyOp40
 70
     1
102
RTVSPropertyOp41
 70
     1
102
RTVSPropertyOp42
 70
     1
102
RTVSPropertyOp43
 70
     1
102
RTVSPropertyOp44
 70
     1
102
RTVSPropertyOp45
 70
     1
102
RTVSPropertyOp46
 70
     1
102
RTVSPropertyOp47
 70
     1
102
RTVSPropertyOp48
 70
     1
102
RTVSPropertyOp49
 70
     1
102
RTVSPropertyOp50
 70
     1
102
RTVSPropertyOp51
 70
     0
102
RTVSPropertyOp52
 70
     0
102
RTVSPropertyOp53
 70
     1
102
RTVSPropertyOp54
 70
     1
102
RTVSPropertyOp55
 70
     1
102
RTVSPropertyOp56
 70
     1
102
RTVSPropertyOp57
 70
     1
102
RTVSPropertyOp58
 70
     1
102
RTVSPropertyOp59
 70
     1
102
RTVSPropertyOp60
 70
     1
102
RTVSPropertyOp61
 70
     1
102
RTVSPropertyOp62
 70
     1
  0
XRECORD
  5
1620
102
{ACAD_REACTORS
330
161F
102
}
330
161F
100
AcDbXrecord
280
     1
102
RTVSPost2010Prop28
280
     0
102
RTVSPost2010PropOp28
 70
     1
102
RTVSPost2010Prop29
280
     1
102
RTVSPost2010PropOp29
 70
     1
102
RTVSPost2010Prop30
280
     1
102
RTVSPost2010PropOp30
 70
     1
102
RTVSPost2010Prop31
280
     0
102
RTVSPost2010PropOp31
 70
     1
102
RTVSPost2010Prop32
280
     0
102
RTVSPost2010PropOp32
 70
     1
102
RTVSPost2010Prop33
280
     0
102
RTVSPost2010PropOp33
 70
     1
102
RTVSPost2010Prop34
280
     0
102
RTVSPost2010PropOp34
 70
     1
102
RTVSPost2010Prop35
280
     0
102
RTVSPost2010PropOp35
 70
     1
102
RTVSPost2010Prop36
280
     0
102
RTVSPost2010PropOp36
 70
     1
102
RTVSPost2010Prop37
 90
       50
102
RTVSPost2010PropOp37
 70
     1
102
RTVSPost2010Prop38
140
0.0
102
RTVSPost2010PropOp38
 70
     1
102
RTVSPost2010Prop39
140
1.0
102
RTVSPost2010PropOp39
 70
     1
102
RTVSPost2010Prop40
 90
        0
102
RTVSPost2010PropOp40
 70
     1
102
RTVSPost2010Prop41ColorIndex
 90
       18
102
RTVSPost2010Prop41ColorRGB
 90
        0
102
RTVSPost2010PropOp41
 70
     1
102
RTVSPost2010Prop42
 90
       50
102
RTVSPost2010PropOp42
 70
     1
102
RTVSPost2010Prop43
 90
        3
102
RTVSPost2010PropOp43
 70
     1
102
RTVSPost2010Prop44ColorIndex
 90
        5
102
RTVSPost2010Prop44ColorRGB
 90
      255
102
RTVSPost2010PropOp44
 70
     1
102
RTVSPost2010Prop45
280
     0
102
RTVSPost2010PropOp45
 70
     1
102
RTVSPost2010Prop46
 90
       50
102
RTVSPost2010PropOp46
 70
     1
102
RTVSPost2010Prop47
 90
       50
102
RTVSPost2010PropOp47
 70
     1
102
RTVSPost2010Prop48
 90
       50
102
RTVSPost2010PropOp48
 70
     1
102
RTVSPost2010Prop49
280
     0
102
RTVSPost2010PropOp49
 70
     1
102
RTVSPost2010Prop50
 90
       50
102
RTVSPost2010PropOp50
 70
     1
102
RTVSPost2010Prop51ColorIndex
 90
      256
102
RTVSPost2010Prop51ColorRGB
 90
-16777216
102
RTVSPost2010PropOp51
 70
     0
102
RTVSPost2010Prop52
140
1.0
102
RTVSPost2010PropOp52
 70
     0
102
RTVSPost2010Prop53
 90
        2
102
RTVSPost2010PropOp53
 70
     1
102
RTVSPost2010Prop54
  1
strokes_ogs.tif
102
RTVSPost2010PropOp54
 70
     1
102
RTVSPost2010Prop55
280
     0
102
RTVSPost2010PropOp55
 70
     1
102
RTVSPost2010Prop56
140
1.0
102
RTVSPost2010PropOp56
 70
     1
102
RTVSPost2010Prop57
140
1.0
102
RTVSPost2010PropOp57
 70
     1
102
RTVSPropertyOp0
 70
     1
102
RTVSPropertyOp1
 70
     1
102
RTVSPropertyOp2
 70
     1
102
RTVSPropertyOp3
 70
     1
102
RTVSPropertyOp4
 70
     1
102
RTVSPropertyOp5
 70
     1
102
RTVSPropertyOp6
 70
     1
102
RTVSPropertyOp7
 70
     1
102
RTVSPropertyOp8
 70
     1
102
RTVSPropertyOp9
 70
     1
102
RTVSPropertyOp10
 70
     1
102
RTVSPropertyOp11
 70
     1
102
RTVSPropertyOp12
 70
     1
102
RTVSPropertyOp13
 70
     1
102
RTVSPropertyOp14
 70
     1
102
RTVSPropertyOp15
 70
     1
102
RTVSPropertyOp16
 70
     1
102
RTVSPropertyOp17
 70
     1
102
RTVSPropertyOp18
 70
     1
102
RTVSPropertyOp19
 70
     1
102
RTVSPropertyOp20
 70
     1
102
RTVSPropertyOp21
 70
     1
102
RTVSPropertyOp22
 70
     1
102
RTVSPropertyOp23
 70
     1
102
RTVSPropertyOp24
 70
     1
102
RTVSPropertyOp25
 70
     1
102
RTVSPropertyOp26
 70
     1
102
RTVSPropertyOp27
 70
     1
102
RTVSPropertyOp28
 70
     1
102
RTVSPropertyOp29
 70
     1
102
RTVSPropertyOp30
 70
     1
102
RTVSPropertyOp31
 70
     1
102
RTVSPropertyOp32
 70
     1
102
RTVSPropertyOp33
 70
     1
102
RTVSPropertyOp34
 70
     1
102
RTVSPropertyOp35
 70
     1
102
RTVSPropertyOp36
 70
     1
102
RTVSPropertyOp37
 70
     1
102
RTVSPropertyOp38
 70
     1
102
RTVSPropertyOp39
 70
     1
102
RTVSPropertyOp40
 70
     1
102
RTVSPropertyOp41
 70
     1
102
RTVSPropertyOp42
 70
     1
102
RTVSPropertyOp43
 70
     1
102
RTVSPropertyOp44
 70
     1
102
RTVSPropertyOp45
 70
     1
102
RTVSPropertyOp46
 70
     1
102
RTVSPropertyOp47
 70
     1
102
RTVSPropertyOp48
 70
     1
102
RTVSPropertyOp49
 70
     1
102
RTVSPropertyOp50
 70
     1
102
RTVSPropertyOp51
 70
     0
102
RTVSPropertyOp52
 70
     0
102
RTVSPropertyOp53
 70
     1
102
RTVSPropertyOp54
 70
     1
102
RTVSPropertyOp55
 70
     1
102
RTVSPropertyOp56
 70
     1
102
RTVSPropertyOp57
 70
     1
102
RTVSPropertyOp58
 70
     1
102
RTVSPropertyOp59
 70
     1
102
RTVSPropertyOp60
 70
     1
102
RTVSPropertyOp61
 70
     1
102
RTVSPropertyOp62
 70
     1
  0
ENDSEC
  0
EOF
