  0
SECTION
  2
HEADER
  9
$ACADVER
  1
AC1015
  9
$ACADMAINTVER
 70
    20
  9
$DWGCODEPAGE
  3
ANSI_932
  9
$INSBASE
 10
0.0
 20
0.0
 30
0.0
  9
$EXTMIN
 10
9.999999064246818
 20
9.999999806846743
 30
0.0
  9
$EXTMAX
 10
948.3905069408477
 20
598.5327808315944
 30
0.0
  9
$LIMMIN
 10
0.0000015376081137
 20
-0.0000001931532552
  9
$LIMMAX
 10
962.0000015376083
 20
663.1969695038165
  9
$ORTHOMODE
 70
     1
  9
$REGENMODE
 70
     1
  9
$FILLMODE
 70
     1
  9
$QTEXTMODE
 70
     0
  9
$MIRRTEXT
 70
     1
  9
$LTSCALE
 40
1.0
  9
$ATTMODE
 70
     1
  9
$TEXTSIZE
 40
2.5
  9
$TRACEWID
 40
1.0
  9
$TEXTSTYLE
  7
STANDARD
  9
$CLAYER
  8
0
  9
$CELTYPE
  6
BYLAYER
  9
$CECOLOR
 62
   256
  9
$CELTSCALE
 40
1.0
  9
$DISPSILH
 70
     0
  9
$DIMSCALE
 40
1.0
  9
$DIMASZ
 40
3.0
  9
$DIMEXO
 40
1.0
  9
$DIMDLI
 40
10.0
  9
$DIMRND
 40
0.0
  9
$DIMDLE
 40
0.0
  9
$DIMEXE
 40
1.0
  9
$DIMTP
 40
0.0
  9
$DIMTM
 40
0.0
  9
$DIMTXT
 40
3.2
  9
$DIMCEN
 40
0.0
  9
$DIMTSZ
 40
0.0
  9
$DIMTOL
 70
     0
  9
$DIMLIM
 70
     0
  9
$DIMTIH
 70
     0
  9
$DIMTOH
 70
     0
  9
$DIMSE1
 70
     0
  9
$DIMSE2
 70
     0
  9
$DIMTAD
 70
     3
  9
$DIMZIN
 70
     8
  9
$DIMBLK
  1

  9
$DIMASO
 70
     1
  9
$DIMSHO
 70
     1
  9
$DIMPOST
  1

  9
$DIMAPOST
  1

  9
$DIMALT
 70
     0
  9
$DIMALTD
 70
     2
  9
$DIMALTF
 40
25.4
  9
$DIMLFAC
 40
1.0
  9
$DIMTOFL
 70
     1
  9
$DIMTVP
 40
0.0
  9
$DIMTIX
 70
     0
  9
$DIMSOXD
 70
     0
  9
$DIMSAH
 70
     1
  9
$DIMBLK1
  1
OPEN
  9
$DIMBLK2
  1
OPEN
  9
$DIMSTYLE
  2
STANDARD
  9
$DIMCLRD
 70
     0
  9
$DIMCLRE
 70
     0
  9
$DIMCLRT
 70
     0
  9
$DIMTFAC
 40
1.0
  9
$DIMGAP
 40
1.0
  9
$DIMJUST
 70
     0
  9
$DIMSD1
 70
     0
  9
$DIMSD2
 70
     0
  9
$DIMTOLJ
 70
     1
  9
$DIMTZIN
 70
     0
  9
$DIMALTZ
 70
     0
  9
$DIMALTTZ
 70
     0
  9
$DIMUPT
 70
     0
  9
$DIMDEC
 70
     4
  9
$DIMTDEC
 70
     4
  9
$DIMALTU
 70
     2
  9
$DIMALTTD
 70
     2
  9
$DIMTXSTY
  7
STANDARD
  9
$DIMAUNIT
 70
     0
  9
$DIMADEC
 70
     0
  9
$DIMALTRND
 40
0.0
  9
$DIMAZIN
 70
     0
  9
$DIMDSEP
 70
    46
  9
$DIMATFIT
 70
     3
  9
$DIMFRAC
 70
     0
  9
$DIMLDRBLK
  1
OPEN
  9
$DIMLUNIT
 70
     2
  9
$DIMLWD
 70
    -2
  9
$DIMLWE
 70
    -2
  9
$DIMTMOVE
 70
     0
  9
$LUNITS
 70
     2
  9
$LUPREC
 70
     4
  9
$SKETCHINC
 40
1.0
  9
$FILLETRAD
 40
0.0
  9
$AUNITS
 70
     0
  9
$AUPREC
 70
     0
  9
$MENU
  1
.
  9
$ELEVATION
 40
0.0
  9
$PELEVATION
 40
0.0
  9
$THICKNESS
 40
0.0
  9
$LIMCHECK
 70
     0
  9
$CHAMFERA
 40
10.0
  9
$CHAMFERB
 40
10.0
  9
$CHAMFERC
 40
20.0
  9
$CHAMFERD
 40
0.0
  9
$SKPOLY
 70
     0
  9
$TDCREATE
 40
2453235.388074896
  9
$TDUCREATE
 40
2453235.013074896
  9
$TDUPDATE
 40
2457192.689659317
  9
$TDUUPDATE
 40
2457192.314659317
  9
$TDINDWG
 40
0.2333190162
  9
$TDUSRTIMER
 40
0.2333186343
  9
$USRTIMER
 70
     1
  9
$ANGBASE
 50
0.0
  9
$ANGDIR
 70
     0
  9
$PDMODE
 70
     0
  9
$PDSIZE
 40
0.0
  9
$PLINEWID
 40
0.0
  9
$SPLFRAME
 70
     0
  9
$SPLINETYPE
 70
     6
  9
$SPLINESEGS
 70
     8
  9
$HANDSEED
  5
E63
  9
$SURFTAB1
 70
     6
  9
$SURFTAB2
 70
     6
  9
$SURFTYPE
 70
     6
  9
$SURFU
 70
     6
  9
$SURFV
 70
     6
  9
$UCSBASE
  2

  9
$UCSNAME
  2

  9
$UCSORG
 10
0.0
 20
0.0
 30
0.0
  9
$UCSXDIR
 10
1.0
 20
0.0
 30
0.0
  9
$UCSYDIR
 10
0.0
 20
1.0
 30
0.0
  9
$UCSORTHOREF
  2

  9
$UCSORTHOVIEW
 70
     0
  9
$UCSORGTOP
 10
0.0
 20
0.0
 30
0.0
  9
$UCSORGBOTTOM
 10
0.0
 20
0.0
 30
0.0
  9
$UCSORGLEFT
 10
0.0
 20
0.0
 30
0.0
  9
$UCSORGRIGHT
 10
0.0
 20
0.0
 30
0.0
  9
$UCSORGFRONT
 10
0.0
 20
0.0
 30
0.0
  9
$UCSORGBACK
 10
0.0
 20
0.0
 30
0.0
  9
$PUCSBASE
  2

  9
$PUCSNAME
  2

  9
$PUCSORG
 10
0.0
 20
0.0
 30
0.0
  9
$PUCSXDIR
 10
1.0
 20
0.0
 30
0.0
  9
$PUCSYDIR
 10
0.0
 20
1.0
 30
0.0
  9
$PUCSORTHOREF
  2

  9
$PUCSORTHOVIEW
 70
     0
  9
$PUCSORGTOP
 10
0.0
 20
0.0
 30
0.0
  9
$PUCSORGBOTTOM
 10
0.0
 20
0.0
 30
0.0
  9
$PUCSORGLEFT
 10
0.0
 20
0.0
 30
0.0
  9
$PUCSORGRIGHT
 10
0.0
 20
0.0
 30
0.0
  9
$PUCSORGFRONT
 10
0.0
 20
0.0
 30
0.0
  9
$PUCSORGBACK
 10
0.0
 20
0.0
 30
0.0
  9
$USERI1
 70
     0
  9
$USERI2
 70
     0
  9
$USERI3
 70
     0
  9
$USERI4
 70
     0
  9
$USERI5
 70
     0
  9
$USERR1
 40
0.0
  9
$USERR2
 40
0.0
  9
$USERR3
 40
0.0
  9
$USERR4
 40
0.0
  9
$USERR5
 40
0.0
  9
$WORLDVIEW
 70
     1
  9
$SHADEDGE
 70
     3
  9
$SHADEDIF
 70
    70
  9
$TILEMODE
 70
     1
  9
$MAXACTVP
 70
    48
  9
$PINSBASE
 10
0.0
 20
0.0
 30
0.0
  9
$PLIMCHECK
 70
     0
  9
$PEXTMIN
 10
1.000000000000000E+20
 20
1.000000000000000E+20
 30
1.000000000000000E+20
  9
$PEXTMAX
 10
-1.000000000000000E+20
 20
-1.000000000000000E+20
 30
-1.000000000000000E+20
  9
$PLIMMIN
 10
0.0
 20
0.0
  9
$PLIMMAX
 10
420.0
 20
297.0
  9
$UNITMODE
 70
     0
  9
$VISRETAIN
 70
     1
  9
$PLINEGEN
 70
     0
  9
$PSLTSCALE
 70
     1
  9
$TREEDEPTH
 70
  3020
  9
$CMLSTYLE
  2
STANDARD
  9
$CMLJUST
 70
     0
  9
$CMLSCALE
 40
20.0
  9
$PROXYGRAPHICS
 70
     1
  9
$MEASUREMENT
 70
     0
  9
$CELWEIGHT
370
    -1
  9
$ENDCAPS
280
     0
  9
$JOINSTYLE
280
     0
  9
$LWDISPLAY
290
     0
  9
$INSUNITS
 70
     0
  9
$HYPERLINKBASE
  1

  9
$STYLESHEET
  1

  9
$XEDIT
290
     1
  9
$CEPSNTYPE
380
     0
  9
$PSTYLEMODE
290
     1
  9
$FINGERPRINTGUID
  2
{9D32E24E-9F0D-42D6-B7F7-528941C0D9AE}
  9
$VERSIONGUID
  2
{B0EBAB68-BC6D-4A01-8FB7-66CCF31C32A1}
  9
$EXTNAMES
290
     1
  9
$PSVPSCALE
 40
0.0
  9
$OLESTARTUP
290
     0
  0
ENDSEC
  0
SECTION
  2
CLASSES
  0
CLASS
  1
ACDBDICTIONARYWDFLT
  2
AcDbDictionaryWithDefault
  3
ObjectDBX Classes
 90
        0
280
     0
281
     0
  0
CLASS
  1
ACDBPLACEHOLDER
  2
AcDbPlaceHolder
  3
ObjectDBX Classes
 90
        0
280
     0
281
     0
  0
CLASS
  1
LAYOUT
  2
AcDbLayout
  3
ObjectDBX Classes
 90
        0
280
     0
281
     0
  0
CLASS
  1
DICTIONARYVAR
  2
AcDbDictionaryVar
  3
ObjectDBX Classes
 90
        0
280
     0
281
     0
  0
CLASS
  1
MATERIAL
  2
AcDbMaterial
  3
ObjectDBX Classes
 90
     1153
280
     0
281
     0
  0
CLASS
  1
VISUALSTYLE
  2
AcDbVisualStyle
  3
ObjectDBX Classes
 90
     4095
280
     0
281
     0
  0
CLASS
  1
TABLESTYLE
  2
AcDbTableStyle
  3
ObjectDBX Classes
 90
     4095
280
     0
281
     0
  0
CLASS
  1
SCALE
  2
AcDbScale
  3
ObjectDBX Classes
 90
     1153
280
     0
281
     0
  0
CLASS
  1
MLEADERSTYLE
  2
AcDbMLeaderStyle
  3
ACDB_MLEADERSTYLE_CLASS
 90
     4095
280
     0
281
     0
  0
CLASS
  1
ACDBSECTIONVIEWSTYLE
  2
AcDbSectionViewStyle
  3
ObjectDBX Classes
 90
     1025
280
     0
281
     0
  0
CLASS
  1
ACDBDETAILVIEWSTYLE
  2
AcDbDetailViewStyle
  3
ObjectDBX Classes
 90
     1025
280
     0
281
     0
  0
CLASS
  1
CELLSTYLEMAP
  2
AcDbCellStyleMap
  3
ObjectDBX Classes
 90
     1152
280
     0
281
     0
  0
ENDSEC
  0
SECTION
  2
TABLES
  0
TABLE
  2
VPORT
  5
8
330
0
100
AcDbSymbolTable
 70
     1
  0
VPORT
  5
DAF
330
8
100
AcDbSymbolTableRecord
100
AcDbViewportTableRecord
  2
*ACTIVE
 70
     0
 10
0.0
 20
0.0
 11
1.0
 21
1.0
 12
706.2598157453871
 22
304.2756129654124
 13
0.0
 23
0.0
 14
10.0
 24
10.0
 15
10.0
 25
10.0
 16
0.0
 26
0.0
 36
1.0
 17
0.0
 27
0.0
 37
0.0
 40
594.5729534565336
 41
2.35006605019815
 42
50.0
 43
0.0
 44
0.0
 50
0.0
 51
0.0
 71
     0
 72
   100
 73
     1
 74
     0
 75
     0
 76
     0
 77
     0
 78
     0
281
     0
 65
     1
110
0.0
120
0.0
130
0.0
111
1.0
121
0.0
131
0.0
112
0.0
122
1.0
132
0.0
 79
     0
146
0.0
1001
ACAD_NAV_VCDISPLAY
1070
     3
  0
ENDTAB
  0
TABLE
  2
LTYPE
  5
5
330
0
100
AcDbSymbolTable
 70
     4
  0
LTYPE
  5
12
330
5
100
AcDbSymbolTableRecord
100
AcDbLinetypeTableRecord
  2
BYBLOCK
 70
     0
  3

 72
    65
 73
     0
 40
0.0
  0
LTYPE
  5
13
330
5
100
AcDbSymbolTableRecord
100
AcDbLinetypeTableRecord
  2
BYLAYER
 70
     0
  3

 72
    65
 73
     0
 40
0.0
  0
LTYPE
  5
14
330
5
100
AcDbSymbolTableRecord
100
AcDbLinetypeTableRecord
  2
CONTINUOUS
 70
     0
  3
Solid line
 72
    65
 73
     0
 40
0.0
  0
LTYPE
  5
62
330
5
100
AcDbSymbolTableRecord
100
AcDbLinetypeTableRecord
  2
DASHED
 70
     0
  3
Dashed __ __ __ __ __ __ __ __ __ __ __ __ __ _
 72
    65
 73
     2
 40
19.04999999999998
 49
12.7
 74
     0
 49
-6.349999999999997
 74
     0
  0
LTYPE
  5
63
330
5
100
AcDbSymbolTableRecord
100
AcDbLinetypeTableRecord
  2
CENTER
 70
     0
  3
Center ____ _ ____ _ ____ _ ____ _ ____ _ ____
 72
    65
 73
     4
 40
50.8
 49
31.75
 74
     0
 49
-6.349999999999997
 74
     0
 49
6.349999999999997
 74
     0
 49
-6.349999999999997
 74
     0
  0
LTYPE
  5
64
330
5
100
AcDbSymbolTableRecord
100
AcDbLinetypeTableRecord
  2
PHANTOM
 70
     0
  3
Phantom ______  __  __  ______  __  __  ______
 72
    65
 73
     6
 40
63.5
 49
31.75
 74
     0
 49
-6.349999999999997
 74
     0
 49
6.349999999999997
 74
     0
 49
-6.349999999999997
 74
     0
 49
6.349999999999997
 74
     0
 49
-6.349999999999997
 74
     0
  0
ENDTAB
  0
TABLE
  2
LAYER
  5
2
330
0
100
AcDbSymbolTable
 70
     8
  0
LAYER
  5
E
102
{ACAD_XDICTIONARY
360
E07
102
}
330
2
100
AcDbSymbolTableRecord
100
AcDbLayerTableRecord
  2
0
 70
     0
 62
     7
  6
CONTINUOUS
370
    -3
390
DB6
  0
LAYER
  5
65
102
{ACAD_XDICTIONARY
360
E09
102
}
330
2
100
AcDbSymbolTableRecord
100
AcDbLayerTableRecord
  2
4
 70
     0
 62
     1
  6
CENTER
370
    -3
390
DB6
  0
LAYER
  5
66
102
{ACAD_XDICTIONARY
360
E0B
102
}
330
2
100
AcDbSymbolTableRecord
100
AcDbLayerTableRecord
  2
5
 70
     0
 62
     6
  6
PHANTOM
370
    -3
390
DB6
  0
LAYER
  5
67
102
{ACAD_XDICTIONARY
360
E0D
102
}
330
2
100
AcDbSymbolTableRecord
100
AcDbLayerTableRecord
  2
1
 70
     0
 62
     7
  6
CONTINUOUS
370
    -3
390
DB6
  0
LAYER
  5
68
102
{ACAD_XDICTIONARY
360
E0F
102
}
330
2
100
AcDbSymbolTableRecord
100
AcDbLayerTableRecord
  2
2
 70
     0
 62
     4
  6
CONTINUOUS
370
    -3
390
DB6
  0
LAYER
  5
69
102
{ACAD_XDICTIONARY
360
E11
102
}
330
2
100
AcDbSymbolTableRecord
100
AcDbLayerTableRecord
  2
3
 70
     0
 62
     2
  6
DASHED
370
    -3
390
DB6
  0
LAYER
  5
6A
102
{ACAD_XDICTIONARY
360
E13
102
}
330
2
100
AcDbSymbolTableRecord
100
AcDbLayerTableRecord
  2
6
 70
     0
 62
     5
  6
CONTINUOUS
370
    -3
390
DB6
  0
LAYER
  5
6B
102
{ACAD_XDICTIONARY
360
E15
102
}
330
2
100
AcDbSymbolTableRecord
100
AcDbLayerTableRecord
  2
7
 70
     0
 62
     3
  6
CONTINUOUS
370
    -3
390
DB6
  0
ENDTAB
  0
TABLE
  2
STYLE
  5
3
330
0
100
AcDbSymbolTable
 70
     1
  0
STYLE
  5
F
330
3
100
AcDbSymbolTableRecord
100
AcDbTextStyleTableRecord
  2
STANDARD
 70
     0
 40
0.0
 41
1.0
 50
0.0
 71
     0
 42
2.5
  3
simplex.shx
  4

  0
ENDTAB
  0
TABLE
  2
VIEW
  5
6
330
0
100
AcDbSymbolTable
 70
     0
  0
ENDTAB
  0
TABLE
  2
UCS
  5
7
330
0
100
AcDbSymbolTable
 70
     0
  0
ENDTAB
  0
TABLE
  2
APPID
  5
9
330
0
100
AcDbSymbolTable
 70
     5
  0
APPID
  5
10
330
9
100
AcDbSymbolTableRecord
100
AcDbRegAppTableRecord
  2
ACAD
 70
     0
  0
APPID
  5
3E
330
9
100
AcDbSymbolTableRecord
100
AcDbRegAppTableRecord
  2
CONTENTTABDATA
 70
     0
  0
APPID
  5
3F
330
9
100
AcDbSymbolTableRecord
100
AcDbRegAppTableRecord
  2
CONTENTCURRENTTAB
 70
     0
  0
APPID
  5
E21
330
9
100
AcDbSymbolTableRecord
100
AcDbRegAppTableRecord
  2
ACAD_NAV_VCDISPLAY
 70
     0
  0
APPID
  5
E5A
330
9
100
AcDbSymbolTableRecord
100
AcDbRegAppTableRecord
  2
ACAD_MLEADERVER
 70
     0
  0
ENDTAB
  0
TABLE
  2
DIMSTYLE
  5
A
330
0
100
AcDbSymbolTable
 70
     1
100
AcDbDimStyleTable
 71
     0
  0
DIMSTYLE
105
1D
330
A
100
AcDbSymbolTableRecord
100
AcDbDimStyleTableRecord
  2
STANDARD
 70
     0
 41
3.0
 42
1.0
 43
10.0
 44
1.0
 73
     0
 74
     0
 77
     3
 78
     8
140
3.2
141
0.0
147
1.0
172
     1
173
     1
340
F
341
2E
343
2E
344
2E
  0
ENDTAB
  0
TABLE
  2
BLOCK_RECORD
  5
1
330
0
100
AcDbSymbolTable
 70
     1
  0
BLOCK_RECORD
  5
18
102
{ACAD_XDICTIONARY
360
D98
102
}
330
1
100
AcDbSymbolTableRecord
100
AcDbBlockTableRecord
  2
*MODEL_SPACE
340
E04
  0
BLOCK_RECORD
  5
15
102
{ACAD_XDICTIONARY
360
D96
102
}
330
1
100
AcDbSymbolTableRecord
100
AcDbBlockTableRecord
  2
*PAPER_SPACE
340
E05
  0
BLOCK_RECORD
  5
2E
330
1
100
AcDbSymbolTableRecord
100
AcDbBlockTableRecord
  2
_OPEN
340
0
  0
ENDTAB
  0
ENDSEC
  0
SECTION
  2
BLOCKS
  0
BLOCK
  5
19
330
18
100
AcDbEntity
  8
0
100
AcDbBlockBegin
  2
*MODEL_SPACE
 70
     0
 10
0.0
 20
0.0
 30
0.0
  3
*MODEL_SPACE
  1

  0
ENDBLK
  5
1A
330
18
100
AcDbEntity
  8
0
100
AcDbBlockEnd
  0
BLOCK
  5
16
330
15
100
AcDbEntity
 67
     1
  8
0
100
AcDbBlockBegin
  2
*PAPER_SPACE
 70
     0
 10
0.0
 20
0.0
 30
0.0
  3
*PAPER_SPACE
  1

  0
ENDBLK
  5
17
330
15
100
AcDbEntity
 67
     1
  8
0
100
AcDbBlockEnd
  0
BLOCK
  5
2F
330
2E
100
AcDbEntity
  8
0
100
AcDbBlockBegin
  2
_OPEN
 70
     0
 10
0.0
 20
0.0
 30
0.0
  3
_OPEN
  1

  0
LINE
  5
30
330
2E
100
AcDbEntity
  8
0
  6
ByBlock
 62
     0
100
AcDbLine
 10
-1.0
 20
0.1666666666666666
 30
0.0
 11
0.0
 21
0.0
 31
0.0
  0
LINE
  5
31
330
2E
100
AcDbEntity
  8
0
  6
ByBlock
 62
     0
100
AcDbLine
 10
0.0
 20
0.0
 30
0.0
 11
-1.0
 21
-0.1666666666666666
 31
0.0
  0
LINE
  5
32
330
2E
100
AcDbEntity
  8
0
  6
ByBlock
 62
     0
100
AcDbLine
 10
0.0
 20
0.0
 30
0.0
 11
-1.0
 21
0.0
 31
0.0
  0
ENDBLK
  5
33
330
2E
100
AcDbEntity
  8
0
100
AcDbBlockEnd
  0
ENDSEC
  0
SECTION
  2
ENTITIES
  0
ARC
  5
183
330
18
100
AcDbEntity
  8
1
  6
Continuous
100
AcDbCircle
 10
295.4996649408473
 20
576.0327808315946
 30
0.0
 40
5.5
100
AcDbArc
 50
224.9999309999999
 51
45.00000499999997
  0
LINE
  5
184
330
18
100
AcDbEntity
  8
4
  6
CENTER
100
AcDbLine
 10
303.4996649408473
 20
576.0327808315944
 30
0.0
 11
287.4996649408473
 21
576.0327808315944
 31
0.0
  0
LINE
  5
185
330
18
100
AcDbEntity
  8
4
  6
CENTER
100
AcDbLine
 10
300.9996649408473
 20
578.5327808315944
 30
0.0
 11
284.9996649408471
 21
578.5327808315944
 31
0.0
  0
ARC
  5
186
330
18
100
AcDbEntity
  8
1
  6
Continuous
100
AcDbCircle
 10
292.9996649408473
 20
578.5327808315944
 30
0.0
 40
5.5
100
AcDbArc
 50
45.00000499999997
 51
224.9999279999997
  0
ARC
  5
187
330
18
100
AcDbEntity
  8
1
  6
Continuous
100
AcDbCircle
 10
295.4996649408473
 20
501.0327808315945
 30
0.0
 40
5.5
100
AcDbArc
 50
314.999995
 51
135.0000549999998
  0
LINE
  5
188
330
18
100
AcDbEntity
  8
4
  6
CENTER
100
AcDbLine
 10
300.9996649408473
 20
498.5327808315942
 30
0.0
 11
284.9996649408471
 21
498.5327808315942
 31
0.0
  0
LINE
  5
189
330
18
100
AcDbEntity
  8
4
  6
CENTER
100
AcDbLine
 10
303.4996649408473
 20
501.0327808315945
 30
0.0
 11
287.4996649408473
 21
501.0327808315945
 31
0.0
  0
ARC
  5
18A
330
18
100
AcDbEntity
  8
1
  6
Continuous
100
AcDbCircle
 10
292.9996649408473
 20
498.5327808315942
 30
0.0
 40
5.5
100
AcDbArc
 50
135.0000549999998
 51
314.9999640000003
  0
LINE
  5
18B
330
18
100
AcDbEntity
  8
1
  6
Continuous
100
AcDbLine
 10
372.999649940847
 20
487.5327808315945
 30
0.0
 11
292.9996839408472
 21
487.5327808315945
 31
0.0
  0
LINE
  5
18C
330
18
100
AcDbEntity
  8
1
  6
Continuous
100
AcDbLine
 10
372.999649940847
 20
589.5327808315946
 30
0.0
 11
292.9996839408472
 21
589.5327808315946
 31
0.0
  0
CIRCLE
  5
18D
330
18
100
AcDbEntity
  8
1
  6
Continuous
100
AcDbCircle
 10
332.9996649408473
 20
538.5327808315944
 30
0.0
 40
39.5
  0
LINE
  5
18E
330
18
100
AcDbEntity
  8
4
  6
CENTER
100
AcDbLine
 10
392.9996649408473
 20
538.5327808315944
 30
0.0
 11
210.5142957568864
 21
538.5327808315944
 31
0.0
  0
LINE
  5
18F
330
18
100
AcDbEntity
  8
1
  6
Continuous
100
AcDbLine
 10
295.4996429408471
 20
393.6852035824498
 30
0.0
 11
297.4996429408473
 21
392.1852035824499
 31
0.0
  0
LINE
  5
190
330
18
100
AcDbEntity
  8
1
  6
Continuous
100
AcDbLine
 10
295.4996599408472
 20
393.68522658245
 30
0.0
 11
297.4996599408473
 21
392.1852265824499
 31
0.0
  0
ARC
  5
191
330
18
100
AcDbEntity
  8
1
  6
Continuous
100
AcDbCircle
 10
296.9996609408473
 20
390.18522958245
 30
0.0
 40
1.0
100
AcDbArc
 50
179.999978
 51
270.0000280000002
  0
LINE
  5
192
330
18
100
AcDbEntity
  8
1
  6
Continuous
100
AcDbLine
 10
298.0867699408472
 20
397.68522858245
 30
0.0
 11
295.4996519408471
 21
393.68523558245
 31
0.0
  0
LINE
  5
193
330
18
100
AcDbEntity
  8
1
  6
Continuous
100
AcDbLine
 10
281.999664940847
 20
404.18522858245
 30
0.0
 11
383.9996649408471
 21
404.18522858245
 31
0.0
  0
LINE
  5
194
330
18
100
AcDbEntity
  8
1
  6
Continuous
100
AcDbLine
 10
281.999664940847
 20
400.18522858245
 30
0.0
 11
383.9996649408471
 21
400.18522858245
 31
0.0
  0
LINE
  5
195
330
18
100
AcDbEntity
  8
1
  6
Continuous
100
AcDbLine
 10
295.2458199408471
 20
397.68522858245
 30
0.0
 11
370.6266489408473
 21
397.68522858245
 31
0.0
  0
LINE
  5
196
330
18
100
AcDbEntity
  8
1
  6
Continuous
100
AcDbLine
 10
295.4996609408471
 20
393.6852215824498
 30
0.0
 11
332.9996609408473
 21
393.6852215824498
 31
0.0
  0
LINE
  5
197
330
18
100
AcDbEntity
  8
1
  6
Continuous
100
AcDbLine
 10
295.4996609408471
 20
393.6852215824498
 30
0.0
 11
370.499687940847
 21
393.6852215824498
 31
0.0
  0
LINE
  5
198
330
18
100
AcDbEntity
  8
1
  6
Continuous
100
AcDbLine
 10
295.9996609408473
 20
390.1852215824498
 30
0.0
 11
369.9996569408473
 21
390.1852215824498
 31
0.0
  0
ARC
  5
199
330
18
100
AcDbEntity
  8
1
  6
Continuous
100
AcDbCircle
 10
293.8496599408472
 20
382.8352285824498
 30
0.0
 40
3.0
100
AcDbArc
 50
270.0000249999999
 51
359.9999969999998
  0
LINE
  5
19A
330
18
100
AcDbEntity
  8
1
  6
Continuous
100
AcDbLine
 10
281.8496629408471
 20
379.83521958245
 30
0.0
 11
304.9996649408473
 21
379.83521958245
 31
0.0
  0
ARC
  5
19C
330
18
100
AcDbEntity
  8
1
  6
Continuous
100
AcDbCircle
 10
291.5996629408471
 20
289.1852285824501
 30
0.0
 40
17.0
100
AcDbArc
 50
171.935013
 51
325.3649399999998
  0
CIRCLE
  5
19D
330
18
100
AcDbEntity
  8
1
  6
Continuous
100
AcDbCircle
 10
291.9996649408473
 20
289.1852285824501
 30
0.0
 40
11.5
  0
LINE
  5
1A2
330
18
100
AcDbEntity
  8
4
  6
CENTER
100
AcDbLine
 10
211.999664940847
 20
289.1852285824501
 30
0.0
 11
371.9996649408473
 21
289.1852285824501
 31
0.0
  0
ARC
  5
1A3
330
18
100
AcDbEntity
  8
1
  6
Continuous
100
AcDbCircle
 10
302.8496599408471
 20
385.8352265824501
 30
0.0
 40
6.0
100
AcDbArc
 50
146.0593739999997
 51
179.9999639999999
  0
LINE
  5
1A4
330
18
100
AcDbEntity
  8
4
  6
CENTER
100
AcDbLine
 10
292.9996649408473
 20
407.1852285824498
 30
0.0
 11
292.9996649408473
 21
397.18522858245
 31
0.0
  0
LINE
  5
1A5
330
18
100
AcDbEntity
  8
4
  6
CENTER
100
AcDbLine
 10
295.4996649408473
 20
407.1852285824498
 30
0.0
 11
295.4996649408473
 21
397.18522858245
 31
0.0
  0
LINE
  5
1A6
330
18
100
AcDbEntity
  8
4
  6
CENTER
100
AcDbLine
 10
103.304243940847
 20
407.1852285824498
 30
0.0
 11
103.304243940847
 21
397.18522858245
 31
0.0
  0
LINE
  5
1A7
330
18
100
AcDbEntity
  8
4
  6
CENTER
100
AcDbLine
 10
105.8042439408473
 20
407.1852285824498
 30
0.0
 11
105.8042439408473
 21
397.18522858245
 31
0.0
  0
LINE
  5
1A8
330
18
100
AcDbEntity
  8
4
  6
CENTER
100
AcDbLine
 10
25.80424394084707
 20
407.1852285824498
 30
0.0
 11
25.80424394084707
 21
397.18522858245
 31
0.0
  0
LINE
  5
1A9
330
18
100
AcDbEntity
  8
4
  6
CENTER
100
AcDbLine
 10
28.3042439408473
 20
407.1852285824498
 30
0.0
 11
28.3042439408473
 21
397.18522858245
 31
0.0
  0
LINE
  5
1AA
330
18
100
AcDbEntity
  8
4
  6
CENTER
100
AcDbLine
 10
65.8042439408473
 20
414.3292105824499
 30
0.0
 11
65.8042439408473
 21
205.6002755824501
 31
0.0
  0
ARC
  5
1AB
330
18
100
AcDbEntity
  8
1
  6
Continuous
100
AcDbCircle
 10
103.4312279408472
 20
402.6836075824498
 30
0.0
 40
5.0
100
AcDbArc
 50
268.546021
 51
330.0213029999998
  0
LINE
  5
1AC
330
18
100
AcDbEntity
  8
1
  6
Continuous
100
AcDbLine
 10
14.80424394084717
 20
400.18522858245
 30
0.0
 11
116.8042439408472
 21
400.18522858245
 31
0.0
  0
LINE
  5
1AD
330
18
100
AcDbEntity
  8
1
  6
Continuous
100
AcDbLine
 10
14.80424394084717
 20
404.18522858245
 30
0.0
 11
116.8042439408472
 21
404.18522858245
 31
0.0
  0
TEXT
  5
1B8
330
18
100
AcDbEntity
  8
2
  6
Continuous
 48
0.25
100
AcDbText
 10
19.97951006424682
 20
9.999999806846743
 30
0.0
 40
1.399999999999999
  1
2
100
AcDbText
  0
TEXT
  5
1B9
330
18
100
AcDbEntity
  8
7
  6
Continuous
 48
0.25
100
AcDbText
 10
9.99999906424682
 20
18.00000056761564
 30
0.0
 40
3.0
  1
TYPE No.TCA-320S-N150
100
AcDbText
  0
TEXT
  5
1BA
330
18
100
AcDbEntity
  8
7
  6
Continuous
 48
0.25
100
AcDbText
 10
9.99999906424682
 20
26.00000056761564
 30
0.0
 40
3.0
  1
CODE No.19150
100
AcDbText
  0
TEXT
  5
1BB
330
18
100
AcDbEntity
  8
1
  6
Continuous
 48
0.25
100
AcDbText
 10
9.99999906424682
 20
10.00000056761564
 30
0.0
 40
1.399999999999999
  1
LAYER
100
AcDbText
  0
TEXT
  5
1BC
330
18
100
AcDbEntity
  8
1
  6
Continuous
 48
0.25
100
AcDbText
 10
17.97951006424682
 20
9.999999806846743
 30
0.0
 40
1.399999999999999
  1
1
100
AcDbText
  0
TEXT
  5
1BD
330
18
100
AcDbEntity
  8
5
  6
PHANTOM
 48
0.25
100
AcDbText
 10
25.97951006424682
 20
9.999999806846743
 30
0.0
 40
1.399999999999999
  1
5
100
AcDbText
  0
TEXT
  5
1BE
330
18
100
AcDbEntity
  8
3
  6
DASHED
 48
0.25
100
AcDbText
 10
21.97951006424682
 20
9.999999806846743
 30
0.0
 40
1.399999999999999
  1
3
100
AcDbText
  0
TEXT
  5
1BF
330
18
100
AcDbEntity
  8
4
  6
CENTER
 48
0.25
100
AcDbText
 10
23.97951006424682
 20
9.999999806846743
 30
0.0
 40
1.399999999999999
  1
4
100
AcDbText
  0
TEXT
  5
1C0
330
18
100
AcDbEntity
  8
7
  6
Continuous
 48
0.25
100
AcDbText
 10
29.97951006424682
 20
9.999999806846743
 30
0.0
 40
1.399999999999999
  1
7
100
AcDbText
  0
TEXT
  5
1C1
330
18
100
AcDbEntity
  8
6
  6
Continuous
 48
0.25
100
AcDbText
 10
27.97951006424682
 20
9.999999806846743
 30
0.0
 40
1.399999999999999
  1
6
100
AcDbText
  0
ARC
  5
1CD
330
18
100
AcDbEntity
  8
1
  6
Continuous
100
AcDbCircle
 10
-80.07447905915274
 20
334.1852445824498
 30
0.0
 40
182.028732
100
AcDbArc
 50
348.9225039999997
 51
0.0
  0
LINE
  5
1CE
330
18
100
AcDbEntity
  8
1
  6
Continuous
100
AcDbLine
 10
93.8042439408473
 20
375.8352475824498
 30
0.0
 11
93.8042439408473
 21
272.1852365824501
 31
0.0
  0
LINE
  5
1CF
330
18
100
AcDbEntity
  8
1
  6
Continuous
100
AcDbLine
 10
96.80424394084731
 20
375.83524558245
 30
0.0
 11
96.80424394084731
 21
272.1852365824501
 31
0.0
  0
LINE
  5
1D0
330
18
100
AcDbEntity
  8
1
  6
Continuous
100
AcDbLine
 10
37.80425094084705
 20
331.2351595824498
 30
0.0
 11
43.52484094084718
 21
353.5474055824498
 31
0.0
  0
ARC
  5
1D1
330
18
100
AcDbEntity
  8
1
  6
Continuous
100
AcDbCircle
 10
211.682966940847
 20
334.1852445824498
 30
0.0
 40
182.028732
100
AcDbArc
 50
179.9999639999999
 51
190.9253839999998
  0
LINE
  5
1D2
330
18
100
AcDbEntity
  8
1
  6
Continuous
100
AcDbLine
 10
34.80424394084717
 20
375.83524558245
 30
0.0
 11
34.80424394084717
 21
272.1852365824501
 31
0.0
  0
LINE
  5
1D3
330
18
100
AcDbEntity
  8
1
  6
Continuous
100
AcDbLine
 10
37.80424394084718
 20
375.8352475824498
 30
0.0
 11
37.80424394084718
 21
272.1852365824501
 31
0.0
  0
LINE
  5
1D4
330
18
100
AcDbEntity
  8
1
  6
Continuous
100
AcDbLine
 10
93.80424794084722
 20
331.23506458245
 30
0.0
 11
88.08363494084728
 21
353.54740358245
 31
0.0
  0
LINE
  5
1D5
330
18
100
AcDbEntity
  8
4
  6
CENTER
100
AcDbLine
 10
16.30424394084718
 20
289.1852445824499
 30
0.0
 11
105.8589619408472
 21
289.1852445824499
 31
0.0
  0
ARC
  5
1D6
330
18
100
AcDbEntity
  8
1
  6
Continuous
100
AcDbCircle
 10
28.17091294084707
 20
297.4124855824498
 30
0.0
 40
3.633333
100
AcDbArc
 50
310.9927339999998
 51
49.00726600000011
  0
LINE
  5
1D7
330
18
100
AcDbEntity
  8
1
  6
Continuous
100
AcDbLine
 10
31.80424394084717
 20
299.6852445824498
 30
0.0
 11
31.80424394084717
 21
278.6852445824499
 31
0.0
  0
ARC
  5
1D8
330
18
100
AcDbEntity
  8
1
  6
Continuous
100
AcDbCircle
 10
28.43757494084718
 20
297.4124855824498
 30
0.0
 40
3.633333
100
AcDbArc
 50
130.9927280000003
 51
229.007268
  0
LINE
  5
1DB
330
18
100
AcDbEntity
  8
1
  6
Continuous
100
AcDbLine
 10
26.0542439408473
 20
294.6700695824501
 30
0.0
 11
30.55424394084717
 21
294.6700695824501
 31
0.0
  0
LINE
  5
1DC
330
18
100
AcDbEntity
  8
1
  6
Continuous
100
AcDbLine
 10
26.0542439408473
 20
278.21558658245
 30
0.0
 11
30.55424394084717
 21
278.21558658245
 31
0.0
  0
LINE
  5
1DD
330
18
100
AcDbEntity
  8
1
  6
Continuous
100
AcDbLine
 10
26.0542439408473
 20
283.7004195824499
 30
0.0
 11
30.55424394084717
 21
283.7004195824499
 31
0.0
  0
ARC
  5
1DE
330
18
100
AcDbEntity
  8
1
  6
Continuous
100
AcDbCircle
 10
28.43757494084718
 20
280.9580025824501
 30
0.0
 40
3.633333
100
AcDbArc
 50
130.9927280000003
 51
229.007268
  0
LINE
  5
1DF
330
18
100
AcDbEntity
  8
1
  6
Continuous
100
AcDbLine
 10
21.55424394084717
 20
295.1852445824498
 30
0.0
 11
21.55424394084717
 21
283.1852445824499
 31
0.0
  0
LINE
  5
1E0
330
18
100
AcDbEntity
  8
1
  6
Continuous
100
AcDbLine
 10
20.80424394084718
 20
294.4352445824499
 30
0.0
 11
20.80424394084718
 21
283.9352445824498
 31
0.0
  0
LINE
  5
1E1
330
18
100
AcDbEntity
  8
1
  6
Continuous
100
AcDbLine
 10
24.80424394084707
 20
297.4124855824498
 30
0.0
 11
24.80424394084707
 21
280.9580025824501
 31
0.0
  0
ARC
  5
1E2
330
18
100
AcDbEntity
  8
1
  6
Continuous
100
AcDbCircle
 10
37.46258394084703
 20
289.1852445824499
 30
0.0
 40
12.65833399999999
100
AcDbArc
 50
154.3229739999998
 51
205.6770219999996
  0
LINE
  5
1E3
330
18
100
AcDbEntity
  8
1
  6
Continuous
100
AcDbLine
 10
21.55424394084717
 20
283.1852445824499
 30
0.0
 11
24.80424394084707
 21
283.1852445824499
 31
0.0
  0
LINE
  5
1E4
330
18
100
AcDbEntity
  8
2
  6
Continuous
100
AcDbLine
 10
20.80424394084718
 20
283.9352445824498
 30
0.0
 11
24.80424394084707
 21
283.9352445824498
 31
0.0
  0
LINE
  5
1E5
330
18
100
AcDbEntity
  8
1
  6
Continuous
100
AcDbLine
 10
20.80424394084718
 20
283.9352445824498
 30
0.0
 11
21.55424394084717
 21
283.1852445824499
 31
0.0
  0
LINE
  5
1E6
330
18
100
AcDbEntity
  8
1
  6
Continuous
100
AcDbLine
 10
21.55424394084717
 20
295.1852445824498
 30
0.0
 11
24.80424394084707
 21
295.1852445824498
 31
0.0
  0
LINE
  5
1E7
330
18
100
AcDbEntity
  8
2
  6
Continuous
100
AcDbLine
 10
20.80424394084718
 20
294.4352445824499
 30
0.0
 11
24.80424394084707
 21
294.4352445824499
 31
0.0
  0
LINE
  5
1E8
330
18
100
AcDbEntity
  8
1
  6
Continuous
100
AcDbLine
 10
20.80424394084718
 20
294.4352445824499
 30
0.0
 11
21.55424394084717
 21
295.1852445824498
 31
0.0
  0
ARC
  5
1E9
330
18
100
AcDbEntity
  8
1
  6
Continuous
100
AcDbCircle
 10
28.17091294084707
 20
280.9580025824501
 30
0.0
 40
3.633333
100
AcDbArc
 50
310.9927339999998
 51
49.00726600000011
  0
LINE
  5
1EC
330
18
100
AcDbEntity
  8
1
  6
Continuous
100
AcDbLine
 10
37.80424394084718
 20
272.1852365824501
 30
0.0
 11
34.80424394084717
 21
272.1852365824501
 31
0.0
  0
LINE
  5
1ED
330
18
100
AcDbEntity
  8
1
  6
Continuous
100
AcDbLine
 10
34.80424394084717
 20
278.6852445824499
 30
0.0
 11
31.80424394084717
 21
278.6852445824499
 31
0.0
  0
ARC
  5
1EF
330
18
100
AcDbEntity
  8
1
  6
Continuous
100
AcDbCircle
 10
19.14591894084731
 20
289.1852445824499
 30
0.0
 40
12.65833399999999
100
AcDbArc
 50
334.3229729999997
 51
25.67702700000014
  0
LINE
  5
1F2
330
18
100
AcDbEntity
  8
1
  6
Continuous
100
AcDbLine
 10
26.0542439408473
 20
300.1549025824498
 30
0.0
 11
30.55424394084717
 21
300.1549025824498
 31
0.0
  0
LINE
  5
1F4
330
18
100
AcDbEntity
  8
1
  6
Continuous
100
AcDbLine
 10
34.80424394084717
 20
299.6852445824498
 30
0.0
 11
31.80424394084717
 21
299.6852445824498
 31
0.0
  0
ARC
  5
1F7
330
18
100
AcDbEntity
  8
1
  6
Continuous
100
AcDbCircle
 10
77.26257194084723
 20
289.1852445824499
 30
0.0
 40
23.541666
100
AcDbArc
 50
330.7582049999997
 51
29.24174699999992
  0
LINE
  5
1F8
330
18
100
AcDbEntity
  8
1
  6
Continuous
100
AcDbLine
 10
97.80424394084718
 20
300.6852445824498
 30
0.0
 11
97.80424394084718
 21
277.6852445824499
 31
0.0
  0
LINE
  5
1FB
330
18
100
AcDbEntity
  8
1
  6
Continuous
100
AcDbLine
 10
93.8042439408473
 20
272.1852365824501
 30
0.0
 11
96.80424394084731
 21
272.1852365824501
 31
0.0
  0
LINE
  5
1FF
330
18
100
AcDbEntity
  8
1
  6
Continuous
100
AcDbLine
 10
96.80424394084731
 20
277.6852445824499
 30
0.0
 11
97.80424394084718
 21
277.6852445824499
 31
0.0
  0
LINE
  5
205
330
18
100
AcDbEntity
  8
1
  6
Continuous
100
AcDbLine
 10
96.80424394084731
 20
300.6852445824498
 30
0.0
 11
97.80424394084718
 21
300.6852445824498
 31
0.0
  0
LINE
  5
20A
330
18
100
AcDbEntity
  8
1
  6
Continuous
100
AcDbLine
 10
28.0503989408471
 20
397.68522858245
 30
0.0
 11
103.4312279408472
 21
397.68522858245
 31
0.0
  0
ARC
  5
20C
330
18
100
AcDbEntity
  8
1
  6
Continuous
100
AcDbCircle
 10
65.8042439408473
 20
347.8352385824497
 30
0.0
 40
23.0
100
AcDbArc
 50
14.38019299999989
 51
165.61982
  0
LINE
  5
20D
330
18
100
AcDbEntity
  8
1
  6
Continuous
100
AcDbLine
 10
38.80424394084718
 20
379.8352455824498
 30
0.0
 11
92.80424394084718
 21
379.8352455824498
 31
0.0
  0
LINE
  5
20E
330
18
100
AcDbEntity
  8
1
  6
Continuous
100
AcDbLine
 10
38.80424394084718
 20
376.8352475824501
 30
0.0
 11
92.80424394084718
 21
376.8352475824501
 31
0.0
  0
LINE
  5
20F
330
18
100
AcDbEntity
  8
1
  6
Continuous
100
AcDbLine
 10
29.65424994084708
 20
385.8352385824498
 30
0.0
 11
29.65424994084708
 21
334.1852445824498
 31
0.0
  0
ARC
  5
212
330
18
100
AcDbEntity
  8
1
  6
Continuous
100
AcDbCircle
 10
29.80424394084717
 20
390.18526358245
 30
0.0
 40
1.0
100
AcDbArc
 50
179.9999909999999
 51
270.0000280000002
  0
LINE
  5
213
330
18
100
AcDbEntity
  8
1
  6
Continuous
100
AcDbLine
 10
28.30421194084715
 20
393.6852705824499
 30
0.0
 11
30.30423594083111
 21
392.1852515824499
 31
0.0
  0
LINE
  5
214
330
18
100
AcDbEntity
  8
1
  6
Continuous
100
AcDbLine
 10
30.89130294084725
 20
397.6852345824501
 30
0.0
 11
28.3041999408473
 21
393.6852655824498
 31
0.0
  0
LINE
  5
215
330
18
100
AcDbEntity
  8
1
  6
Continuous
100
AcDbLine
 10
14.80424394084717
 20
404.1852445824497
 30
0.0
 11
14.80424394084717
 21
400.1852445824497
 31
0.0
  0
ARC
  5
216
330
18
100
AcDbEntity
  8
1
  6
Continuous
100
AcDbCircle
 10
28.1772599408473
 20
402.6836305824499
 30
0.0
 40
5.0
100
AcDbArc
 50
209.9787059999998
 51
271.4539880000003
  0
ARC
  5
217
330
18
100
AcDbEntity
  8
1
  6
Continuous
100
AcDbCircle
 10
35.65424994084708
 20
385.8352395824498
 30
0.0
 40
6.0
100
AcDbArc
 50
146.0593610000001
 51
179.9999499999998
  0
ARC
  5
218
330
18
100
AcDbEntity
  8
1
  6
Continuous
100
AcDbCircle
 10
38.80424394084718
 20
375.83524558245
 30
0.0
 40
4.0
100
AcDbArc
 50
89.99998199999998
 51
179.9999639999999
  0
ARC
  5
219
330
18
100
AcDbEntity
  8
1
  6
Continuous
100
AcDbCircle
 10
38.80424394084718
 20
375.8352475824498
 30
0.0
 40
1.0
100
AcDbArc
 50
89.99998199999998
 51
179.9999639999999
  0
LINE
  5
21A
330
18
100
AcDbEntity
  8
1
  6
Continuous
100
AcDbLine
 10
29.80421894084725
 20
390.18527558245
 30
0.0
 11
31.80422094084724
 21
392.18527758245
 31
0.0
  0
LINE
  5
21B
330
18
100
AcDbEntity
  8
1
  6
Continuous
100
AcDbLine
 10
101.9542379408473
 20
385.8352385824498
 30
0.0
 11
101.9542379408473
 21
334.1852445824498
 31
0.0
  0
LINE
  5
224
330
18
100
AcDbEntity
  8
1
  6
Continuous
100
AcDbLine
 10
102.804243940847
 20
390.1852515824499
 30
0.0
 11
28.80424394091917
 21
390.1852515824499
 31
0.0
  0
LINE
  5
225
330
18
100
AcDbEntity
  8
1
  6
Continuous
100
AcDbLine
 10
101.8042439408473
 20
389.1852515824499
 30
0.0
 11
29.80424442953938
 21
389.1852635824501
 31
0.0
  0
LINE
  5
226
330
18
100
AcDbEntity
  8
1
  6
Continuous
100
AcDbLine
 10
101.304243940847
 20
392.1852515824499
 30
0.0
 11
30.30423594083111
 21
392.1852515824499
 31
0.0
  0
LINE
  5
227
330
18
100
AcDbEntity
  8
1
  6
Continuous
100
AcDbLine
 10
103.304243940847
 20
393.6852515824499
 30
0.0
 11
28.30423727416357
 21
393.6852515824499
 31
0.0
  0
ARC
  5
228
330
18
100
AcDbEntity
  8
1
  6
Continuous
100
AcDbCircle
 10
95.95423794084721
 20
385.8352395824498
 30
0.0
 40
6.0
100
AcDbArc
 50
0.0000140000001062
 51
33.94060299999984
  0
ARC
  5
229
330
18
100
AcDbEntity
  8
1
  6
Continuous
100
AcDbCircle
 10
92.80424394084718
 20
375.83524558245
 30
0.0
 40
4.0
100
AcDbArc
 50
0.0
 51
89.99998199999998
  0
ARC
  5
22A
330
18
100
AcDbEntity
  8
1
  6
Continuous
100
AcDbCircle
 10
92.80424394084718
 20
375.8352475824498
 30
0.0
 40
1.0
100
AcDbArc
 50
0.0
 51
89.99998199999998
  0
LINE
  5
22B
330
18
100
AcDbEntity
  8
1
  6
Continuous
100
AcDbLine
 10
100.7171779408472
 20
397.68523858245
 30
0.0
 11
103.3042729408472
 21
393.6852815824498
 31
0.0
  0
LINE
  5
22C
330
18
100
AcDbEntity
  8
1
  6
Continuous
100
AcDbLine
 10
101.8042449408472
 20
390.1852615824498
 30
0.0
 11
99.80425394084729
 21
392.18525258245
 31
0.0
  0
ARC
  5
22D
330
18
100
AcDbEntity
  8
1
  6
Continuous
100
AcDbCircle
 10
101.8042439408473
 20
390.1852405824498
 30
0.0
 40
1.0
100
AcDbArc
 50
269.9999770000001
 51
0.0000140000001062
  0
LINE
  5
22E
330
18
100
AcDbEntity
  8
1
  6
Continuous
100
AcDbLine
 10
103.3042139408472
 20
393.6852495824499
 30
0.0
 11
101.3042139408472
 21
392.1852495824499
 31
0.0
  0
LINE
  5
22F
330
18
100
AcDbEntity
  8
4
  6
CENTER
100
AcDbLine
 10
291.9996649408473
 20
209.1852215824501
 30
0.0
 11
291.9996649408473
 21
369.1852285824499
 31
0.0
  0
LINE
  5
230
330
18
100
AcDbEntity
  8
1
  6
Continuous
100
AcDbLine
 10
116.8042439408472
 20
404.1852135824497
 30
0.0
 11
116.8042439408472
 21
400.1852135824497
 31
0.0
  0
LINE
  5
231
330
18
100
AcDbEntity
  8
1
  6
Continuous
100
AcDbLine
 10
286.790023940847
 20
376.4143295824498
 30
0.0
 11
274.7678019408471
 21
291.5702675824501
 31
0.0
  0
LINE
  5
239
330
18
100
AcDbEntity
  8
1
  6
Continuous
100
AcDbLine
 10
281.8496629408471
 20
376.83521958245
 30
0.0
 11
285.1221319408472
 21
376.83521958245
 31
0.0
  0
LINE
  5
23A
330
18
100
AcDbEntity
  8
1
  6
Continuous
100
AcDbLine
 10
281.8496629408471
 20
379.83521958245
 30
0.0
 11
281.8496629408471
 21
376.83521958245
 31
0.0
  0
ARC
  5
23B
330
18
100
AcDbEntity
  8
1
  6
Continuous
100
AcDbCircle
 10
283.8196949408471
 20
376.83521958245
 30
0.0
 40
3.0
100
AcDbArc
 50
351.9350059999999
 51
89.99998199999998
  0
ARC
  5
23C
330
18
100
AcDbEntity
  8
1
  6
Continuous
100
AcDbCircle
 10
285.1221319408472
 20
375.33521958245
 30
0.0
 40
1.5
100
AcDbArc
 50
351.9349719999998
 51
89.99998199999998
  0
LINE
  5
23D
330
18
100
AcDbEntity
  8
1
  6
Continuous
100
AcDbLine
 10
281.999664940847
 20
404.1852445824497
 30
0.0
 11
281.999664940847
 21
400.1852445824497
 31
0.0
  0
ARC
  5
23E
330
18
100
AcDbEntity
  8
1
  6
Continuous
100
AcDbCircle
 10
295.3726809408473
 20
402.6836305824499
 30
0.0
 40
5.0
100
AcDbArc
 50
209.9787059999998
 51
271.4539880000003
  0
LINE
  5
23F
330
18
100
AcDbEntity
  8
4
  6
CENTER
100
AcDbLine
 10
291.9996649408473
 20
482.5783314159624
 30
0.0
 11
291.9996649408473
 21
594.4872302472264
 31
0.0
  0
LINE
  5
241
330
18
100
AcDbEntity
  8
1
  6
Continuous
100
AcDbLine
 10
281.9996839408471
 20
578.5327808315944
 30
0.0
 11
281.9996839408471
 21
498.5327808315942
 31
0.0
  0
LINE
  5
248
330
18
100
AcDbEntity
  8
4
  6
CENTER
100
AcDbLine
 10
292.9996649408473
 20
506.5327808315942
 30
0.0
 11
292.9996649408473
 21
490.5327808315943
 31
0.0
  0
LINE
  5
249
330
18
100
AcDbEntity
  8
4
  6
CENTER
100
AcDbLine
 10
295.4996649408473
 20
509.0327808315945
 30
0.0
 11
295.4996649408473
 21
493.0327808315944
 31
0.0
  0
ARC
  5
24A
330
18
100
AcDbEntity
  8
1
  6
Continuous
100
AcDbCircle
 10
292.9996839408472
 20
498.5327808315942
 30
0.0
 40
11.0
100
AcDbArc
 50
180.000036
 51
270.0000179999999
  0
LINE
  5
24B
330
18
100
AcDbEntity
  8
1
  6
Continuous
100
AcDbLine
 10
281.9996839408471
 20
510.5327808315947
 30
0.0
 11
274.5996629408472
 21
510.5327808315947
 31
0.0
  0
LINE
  5
24C
330
18
100
AcDbEntity
  8
1
  6
Continuous
100
AcDbLine
 10
281.9996839408471
 20
507.5327808315945
 30
0.0
 11
274.5996629408472
 21
507.5327808315945
 31
0.0
  0
LINE
  5
24D
330
18
100
AcDbEntity
  8
1
  6
Continuous
100
AcDbLine
 10
274.5996629408472
 20
507.5327808315945
 30
0.0
 11
274.5996629408472
 21
510.5327808315947
 31
0.0
  0
LINE
  5
24E
330
18
100
AcDbEntity
  8
1
  6
Continuous
100
AcDbLine
 10
289.1105819408471
 20
502.4218918315947
 30
0.0
 11
291.6105839408471
 21
504.9218948315943
 31
0.0
  0
ARC
  5
25D
330
18
100
AcDbEntity
  8
1
  6
Continuous
100
AcDbCircle
 10
292.9996839408472
 20
578.5327808315944
 30
0.0
 40
11.0
100
AcDbArc
 50
89.99998199999998
 51
179.9999639999999
  0
LINE
  5
25E
330
18
100
AcDbEntity
  8
4
  6
CENTER
100
AcDbLine
 10
292.9996649408473
 20
570.5327808315944
 30
0.0
 11
292.9996649408473
 21
586.5327808315944
 31
0.0
  0
LINE
  5
25F
330
18
100
AcDbEntity
  8
1
  6
Continuous
100
AcDbLine
 10
281.9996839408471
 20
566.5327808315942
 30
0.0
 11
274.5996629408472
 21
566.5327808315942
 31
0.0
  0
LINE
  5
260
330
18
100
AcDbEntity
  8
1
  6
Continuous
100
AcDbLine
 10
281.9996839408471
 20
569.5327808315944
 30
0.0
 11
274.5996629408472
 21
569.5327808315944
 31
0.0
  0
LINE
  5
261
330
18
100
AcDbEntity
  8
1
  6
Continuous
100
AcDbLine
 10
274.5996629408472
 20
569.5327808315944
 30
0.0
 11
274.5996629408472
 21
566.5327808315942
 31
0.0
  0
LINE
  5
262
330
18
100
AcDbEntity
  8
4
  6
CENTER
100
AcDbLine
 10
295.4996649408473
 20
568.0327808315944
 30
0.0
 11
295.4996649408473
 21
584.0327808315944
 31
0.0
  0
LINE
  5
263
330
18
100
AcDbEntity
  8
1
  6
Continuous
100
AcDbLine
 10
289.1105679408473
 20
574.6436968315947
 30
0.0
 11
291.6105709408473
 21
572.1436948315944
 31
0.0
  0
LINE
  5
264
330
18
100
AcDbEntity
  8
4
  6
CENTER
100
AcDbLine
 10
370.4996649408473
 20
407.1852285824498
 30
0.0
 11
370.4996649408473
 21
397.18522858245
 31
0.0
  0
LINE
  5
265
330
18
100
AcDbEntity
  8
4
  6
CENTER
100
AcDbLine
 10
372.999664940847
 20
407.1852285824498
 30
0.0
 11
372.999664940847
 21
397.18522858245
 31
0.0
  0
LINE
  5
266
330
18
100
AcDbEntity
  8
4
  6
CENTER
100
AcDbLine
 10
332.9996649408473
 20
414.3292105824499
 30
0.0
 11
332.9996649408473
 21
333.1852215824498
 31
0.0
  0
LINE
  5
267
330
18
100
AcDbEntity
  8
1
  6
Continuous
100
AcDbLine
 10
307.9996649408473
 20
377.9702385824498
 30
0.0
 11
307.9996649408473
 21
290.26855758245
 31
0.0
  0
LINE
  5
268
330
18
100
AcDbEntity
  8
1
  6
Continuous
100
AcDbLine
 10
366.8723839408473
 20
368.2452915824498
 30
0.0
 11
305.5870829408473
 21
279.5233215824501
 31
0.0
  0
LINE
  5
26A
330
18
100
AcDbEntity
  8
1
  6
Continuous
100
AcDbLine
 10
296.9996609408473
 20
389.1852215824498
 30
0.0
 11
368.9996569408471
 21
389.1852215824498
 31
0.0
  0
LINE
  5
26B
330
18
100
AcDbEntity
  8
1
  6
Continuous
100
AcDbLine
 10
368.4996419408473
 20
392.1852055824499
 30
0.0
 11
297.4996499408471
 21
392.1852055824499
 31
0.0
  0
LINE
  5
26C
330
18
100
AcDbEntity
  8
1
  6
Continuous
100
AcDbLine
 10
297.4996609408473
 20
392.1852215824498
 30
0.0
 11
332.9996609408473
 21
392.1852215824498
 31
0.0
  0
LINE
  5
26D
330
18
100
AcDbEntity
  8
1
  6
Continuous
100
AcDbLine
 10
296.8496629408472
 20
385.83522858245
 30
0.0
 11
296.8496629408472
 21
382.8352285824498
 31
0.0
  0
ARC
  5
26E
330
18
100
AcDbEntity
  8
1
  6
Continuous
100
AcDbCircle
 10
304.9996649408473
 20
382.83521958245
 30
0.0
 40
3.0
100
AcDbArc
 50
269.9999969999999
 51
344.8584709999999
  0
LINE
  5
26F
330
18
100
AcDbEntity
  8
1
  6
Continuous
100
AcDbLine
 10
296.9996699408471
 20
390.18523058245
 30
0.0
 11
298.9996689408473
 21
392.18522958245
 31
0.0
  0
ARC
  5
270
330
18
100
AcDbEntity
  8
1
  6
Continuous
100
AcDbCircle
 10
371.8091049408473
 20
364.83521158245
 30
0.0
 40
6.0
100
AcDbArc
 50
91.52284100000036
 51
145.3649759999998
  0
ARC
  5
271
330
18
100
AcDbEntity
  8
1
  6
Continuous
100
AcDbCircle
 10
370.6266489408473
 20
402.6836075824498
 30
0.0
 40
5.0
100
AcDbArc
 50
268.546021
 51
330.0213029999998
  0
ARC
  5
272
330
18
100
AcDbEntity
  8
1
  6
Continuous
100
AcDbCircle
 10
363.1496659408471
 20
385.83521158245
 30
0.0
 40
6.0
100
AcDbArc
 50
359.9999969999998
 51
33.94058999999973
  0
ARC
  5
273
330
18
100
AcDbEntity
  8
1
  6
Continuous
100
AcDbCircle
 10
367.2163929408473
 20
377.2749655824498
 30
0.0
 40
4.433265
100
AcDbArc
 50
359.9999969999998
 51
48.41932000000018
  0
LINE
  5
274
330
18
100
AcDbEntity
  8
1
  6
Continuous
100
AcDbLine
 10
371.6496659408471
 20
377.2749635824498
 30
0.0
 11
371.6496659408471
 21
370.83520758245
 31
0.0
  0
LINE
  5
275
330
18
100
AcDbEntity
  8
1
  6
Continuous
100
AcDbLine
 10
369.1496659408471
 20
385.8352095824498
 30
0.0
 11
369.1496659408471
 21
382.8352095824498
 31
0.0
  0
ARC
  5
276
330
18
100
AcDbEntity
  8
1
  6
Continuous
100
AcDbCircle
 10
372.1496659408471
 20
382.8352095824498
 30
0.0
 40
3.0
100
AcDbArc
 50
179.999978
 51
228.4192709999998
  0
LINE
  5
277
330
18
100
AcDbEntity
  8
1
  6
Continuous
100
AcDbLine
 10
367.9125619408472
 20
397.68523058245
 30
0.0
 11
370.4996819408471
 21
393.68523558245
 31
0.0
  0
LINE
  5
278
330
18
100
AcDbEntity
  8
1
  6
Continuous
100
AcDbLine
 10
370.499686940847
 20
393.6852085824499
 30
0.0
 11
368.499686940847
 21
392.18520858245
 31
0.0
  0
LINE
  5
279
330
18
100
AcDbEntity
  8
1
  6
Continuous
100
AcDbLine
 10
370.4996669408473
 20
393.6852225824498
 30
0.0
 11
368.499666940847
 21
392.1852225824498
 31
0.0
  0
LINE
  5
27A
330
18
100
AcDbEntity
  8
1
  6
Continuous
100
AcDbLine
 10
368.9996789408471
 20
390.1852345824498
 30
0.0
 11
366.9996819408473
 21
392.18523058245
 31
0.0
  0
ARC
  5
27B
330
18
100
AcDbEntity
  8
1
  6
Continuous
100
AcDbCircle
 10
368.9996569408471
 20
390.1852125824498
 30
0.0
 40
1.0
100
AcDbArc
 50
269.9999630000001
 51
0.0000010000001821
  0
LINE
  5
27C
330
18
100
AcDbEntity
  8
1
  6
Continuous
100
AcDbLine
 10
383.9996649408471
 20
404.1852135824497
 30
0.0
 11
383.9996649408471
 21
400.1852135824497
 31
0.0
  0
LINE
  5
27D
330
18
100
AcDbEntity
  8
1
  6
Continuous
100
AcDbLine
 10
383.999649940847
 20
498.5327808315942
 30
0.0
 11
383.999649940847
 21
578.5327808315944
 31
0.0
  0
LINE
  5
27E
330
18
100
AcDbEntity
  8
4
  6
CENTER
100
AcDbLine
 10
332.9996649408473
 20
478.5327808315945
 30
0.0
 11
332.9996649408473
 21
598.5327808315944
 31
0.0
  0
CIRCLE
  5
27F
330
18
100
AcDbEntity
  8
1
  6
Continuous
100
AcDbCircle
 10
332.9996649408473
 20
538.5327808315944
 30
0.0
 40
16.0
  0
CIRCLE
  5
280
330
18
100
AcDbEntity
  8
1
  6
Continuous
100
AcDbCircle
 10
332.9996649408473
 20
538.5327808315944
 30
0.0
 40
18.0
  0
CIRCLE
  5
281
330
18
100
AcDbEntity
  8
1
  6
Continuous
100
AcDbCircle
 10
332.9996649408473
 20
538.5327808315944
 30
0.0
 40
35.5
  0
LINE
  5
282
330
18
100
AcDbEntity
  8
1
  6
Continuous
100
AcDbLine
 10
296.8887509408471
 20
494.6437228315947
 30
0.0
 11
299.3887529408472
 21
497.1437248315947
 31
0.0
  0
ARC
  5
283
330
18
100
AcDbEntity
  8
1
  6
Continuous
100
AcDbCircle
 10
372.999649940847
 20
498.5327808315942
 30
0.0
 40
11.0
100
AcDbArc
 50
270.0000179999999
 51
0.0
  0
ARC
  5
284
330
18
100
AcDbEntity
  8
1
  6
Continuous
100
AcDbCircle
 10
372.999664940847
 20
498.5327808315942
 30
0.0
 40
5.5
100
AcDbArc
 50
225.0000539999998
 51
44.99994999999985
  0
LINE
  5
285
330
18
100
AcDbEntity
  8
4
  6
CENTER
100
AcDbLine
 10
372.999664940847
 20
506.5327808315942
 30
0.0
 11
372.999664940847
 21
490.5327808315943
 31
0.0
  0
LINE
  5
286
330
18
100
AcDbEntity
  8
4
  6
CENTER
100
AcDbLine
 10
370.4996649408473
 20
509.0327808315945
 30
0.0
 11
370.4996649408473
 21
493.0327808315944
 31
0.0
  0
LINE
  5
287
330
18
100
AcDbEntity
  8
1
  6
Continuous
100
AcDbLine
 10
376.8887379408474
 20
502.4218548315944
 30
0.0
 11
374.3887349408473
 21
504.9218568315946
 31
0.0
  0
ARC
  5
288
330
18
100
AcDbEntity
  8
1
  6
Continuous
100
AcDbCircle
 10
370.4996649408473
 20
501.0327808315945
 30
0.0
 40
5.5
100
AcDbArc
 50
44.99996400000005
 51
225.000037
  0
LINE
  5
289
330
18
100
AcDbEntity
  8
4
  6
CENTER
100
AcDbLine
 10
364.999664940847
 20
498.5327808315942
 30
0.0
 11
380.999664940847
 21
498.5327808315942
 31
0.0
  0
LINE
  5
28A
330
18
100
AcDbEntity
  8
4
  6
CENTER
100
AcDbLine
 10
362.4996649408473
 20
501.0327808315945
 30
0.0
 11
378.4996649408473
 21
501.0327808315945
 31
0.0
  0
LINE
  5
28B
330
18
100
AcDbEntity
  8
1
  6
Continuous
100
AcDbLine
 10
369.1105659408471
 20
494.6436988315944
 30
0.0
 11
366.6105639408473
 21
497.1437018315945
 31
0.0
  0
LINE
  5
28C
330
18
100
AcDbEntity
  8
1
  6
Continuous
100
AcDbLine
 10
296.8887319408472
 20
582.4218388315946
 30
0.0
 11
299.3887339408473
 21
579.9218368315946
 31
0.0
  0
LINE
  5
28D
330
18
100
AcDbEntity
  8
1
  6
Continuous
100
AcDbLine
 10
376.8887519408473
 20
574.6436858315944
 30
0.0
 11
374.388738940847
 21
572.1436728315945
 31
0.0
  0
ARC
  5
28E
330
18
100
AcDbEntity
  8
1
  6
Continuous
100
AcDbCircle
 10
370.4996649408473
 20
576.0327808315946
 30
0.0
 40
5.5
100
AcDbArc
 50
135.0000000000002
 51
315.000074
  0
LINE
  5
28F
330
18
100
AcDbEntity
  8
4
  6
CENTER
100
AcDbLine
 10
364.999664940847
 20
578.5327808315944
 30
0.0
 11
380.999664940847
 21
578.5327808315944
 31
0.0
  0
LINE
  5
290
330
18
100
AcDbEntity
  8
4
  6
CENTER
100
AcDbLine
 10
362.4996649408473
 20
576.0327808315944
 30
0.0
 11
378.4996649408473
 21
576.0327808315944
 31
0.0
  0
ARC
  5
291
330
18
100
AcDbEntity
  8
1
  6
Continuous
100
AcDbCircle
 10
372.999649940847
 20
578.5327808315944
 30
0.0
 40
11.0
100
AcDbArc
 50
0.0000549999998358
 51
90.00003699999981
  0
ARC
  5
292
330
18
100
AcDbEntity
  8
1
  6
Continuous
100
AcDbCircle
 10
372.999664940847
 20
578.5327808315944
 30
0.0
 40
5.5
100
AcDbArc
 50
315.0001050000001
 51
135.0000000000002
  0
LINE
  5
293
330
18
100
AcDbEntity
  8
4
  6
CENTER
100
AcDbLine
 10
372.999664940847
 20
570.5327808315944
 30
0.0
 11
372.999664940847
 21
586.5327808315944
 31
0.0
  0
LINE
  5
294
330
18
100
AcDbEntity
  8
4
  6
CENTER
100
AcDbLine
 10
370.4996649408473
 20
568.0327808315944
 30
0.0
 11
370.4996649408473
 21
584.0327808315944
 31
0.0
  0
LINE
  5
295
330
18
100
AcDbEntity
  8
1
  6
Continuous
100
AcDbLine
 10
369.1105909408471
 20
582.4218468315947
 30
0.0
 11
366.6105779408471
 21
579.9218338315944
 31
0.0
  0
LINE
  5
299
330
18
100
AcDbEntity
  8
4
  6
CENTER
100
AcDbLine
 10
392.9996649408473
 20
89.8376763333057
 30
0.0
 11
210.5142957568864
 21
89.8376763333057
 31
0.0
  0
ARC
  5
29A
330
18
100
AcDbEntity
  8
1
  6
Continuous
100
AcDbCircle
 10
372.999664940847
 20
129.8376763333055
 30
0.0
 40
5.5
100
AcDbArc
 50
315.00005
 51
134.9999460000002
  0
ARC
  5
29B
330
18
100
AcDbEntity
  8
1
  6
Continuous
100
AcDbCircle
 10
372.999649940847
 20
129.8376763333055
 30
0.0
 40
11.0
100
AcDbArc
 50
0.0
 51
89.99998199999998
  0
LINE
  5
29C
330
18
100
AcDbEntity
  8
4
  6
CENTER
100
AcDbLine
 10
362.4996649408473
 20
127.3376763333055
 30
0.0
 11
378.4996649408473
 21
127.3376763333055
 31
0.0
  0
LINE
  5
29D
330
18
100
AcDbEntity
  8
4
  6
CENTER
100
AcDbLine
 10
364.999664940847
 20
129.8376763333055
 30
0.0
 11
380.999664940847
 21
129.8376763333055
 31
0.0
  0
ARC
  5
29E
330
18
100
AcDbEntity
  8
1
  6
Continuous
100
AcDbCircle
 10
372.999664940847
 20
49.83767633330575
 30
0.0
 40
5.5
100
AcDbArc
 50
224.9999999999996
 51
44.9998949999999
  0
LINE
  5
29F
330
18
100
AcDbEntity
  8
4
  6
CENTER
100
AcDbLine
 10
362.4996649408473
 20
52.33767633330575
 30
0.0
 11
378.4996649408473
 21
52.33767633330575
 31
0.0
  0
ARC
  5
2A0
330
18
100
AcDbEntity
  8
1
  6
Continuous
100
AcDbCircle
 10
372.999649940847
 20
49.83767633330575
 30
0.0
 40
11.0
100
AcDbArc
 50
269.9999630000001
 51
359.9999450000002
  0
LINE
  5
2A1
330
18
100
AcDbEntity
  8
4
  6
CENTER
100
AcDbLine
 10
364.999664940847
 20
49.83767633330575
 30
0.0
 11
380.999664940847
 21
49.83767633330575
 31
0.0
  0
LINE
  5
2A2
330
18
100
AcDbEntity
  8
4
  6
CENTER
100
AcDbLine
 10
332.9996649408473
 20
149.8376763333055
 30
0.0
 11
332.9996649408473
 21
29.83767633330563
 31
0.0
  0
LINE
  5
2A3
330
18
100
AcDbEntity
  8
4
  6
CENTER
100
AcDbLine
 10
291.9996649408473
 20
145.7921257489374
 30
0.0
 11
291.9996649408473
 21
33.88322691767379
 31
0.0
  0
LINE
  5
2B9
330
18
100
AcDbEntity
  8
4
  6
CENTER
100
AcDbLine
 10
370.4996649408473
 20
60.33767633330575
 30
0.0
 11
370.4996649408473
 21
44.33767633330575
 31
0.0
  0
LINE
  5
2BA
330
18
100
AcDbEntity
  8
4
  6
CENTER
100
AcDbLine
 10
295.4996649408473
 20
60.33767633330575
 30
0.0
 11
295.4996649408473
 21
44.33767633330575
 31
0.0
  0
LINE
  5
2BB
330
18
100
AcDbEntity
  8
1
  6
Continuous
100
AcDbLine
 10
274.5996629408472
 20
58.83767633330563
 30
0.0
 11
274.5996629408472
 21
61.83767633330585
 31
0.0
  0
LINE
  5
2BE
330
18
100
AcDbEntity
  8
1
  6
Continuous
100
AcDbLine
 10
281.9996839408472
 20
49.83767633330575
 30
0.0
 11
281.9996839408472
 21
55.83767633330558
 31
0.0
  0
LINE
  5
2C0
330
18
100
AcDbEntity
  8
1
  6
Continuous
100
AcDbLine
 10
372.999649940847
 20
140.8376763333057
 30
0.0
 11
292.9996839408472
 21
140.8376763333057
 31
0.0
  0
ARC
  5
2C1
330
18
100
AcDbEntity
  8
1
  6
Continuous
100
AcDbCircle
 10
292.9996649408473
 20
129.8376763333055
 30
0.0
 40
5.5
100
AcDbArc
 50
45.00003599999954
 51
224.999945
  0
LINE
  5
2C2
330
18
100
AcDbEntity
  8
4
  6
CENTER
100
AcDbLine
 10
300.9996649408473
 20
129.8376763333055
 30
0.0
 11
284.9996649408471
 21
129.8376763333055
 31
0.0
  0
ARC
  5
2C3
330
18
100
AcDbEntity
  8
1
  6
Continuous
100
AcDbCircle
 10
292.9996839408472
 20
129.8376763333055
 30
0.0
 40
11.0
100
AcDbArc
 50
89.99998199999998
 51
179.9999639999999
  0
LINE
  5
2C4
330
18
100
AcDbEntity
  8
1
  6
Continuous
100
AcDbLine
 10
308.9430113227731
 20
120.8376763333055
 30
0.0
 11
274.5996629408472
 21
120.8376763333055
 31
0.0
  0
LINE
  5
2C5
330
18
100
AcDbEntity
  8
1
  6
Continuous
100
AcDbLine
 10
308.9430113227728
 20
117.8376763333053
 30
0.0
 11
274.5996629408472
 21
117.8376763333053
 31
0.0
  0
LINE
  5
2C6
330
18
100
AcDbEntity
  8
1
  6
Continuous
100
AcDbLine
 10
274.5996629408472
 20
120.8376763333055
 30
0.0
 11
274.5996629408472
 21
117.8376763333053
 31
0.0
  0
LINE
  5
2C7
330
18
100
AcDbEntity
  8
1
  6
Continuous
100
AcDbLine
 10
289.1105819408471
 20
125.9485653333054
 30
0.0
 11
290.2840714301674
 21
124.7750753745898
 31
0.0
  0
LINE
  5
2C8
330
18
100
AcDbEntity
  8
4
  6
CENTER
100
AcDbLine
 10
295.4996649408473
 20
119.3376763333055
 30
0.0
 11
295.4996649408473
 21
135.3376763333055
 31
0.0
  0
ARC
  5
2C9
330
18
100
AcDbEntity
  8
1
  6
Continuous
100
AcDbCircle
 10
295.4996649408473
 20
127.3376763333055
 30
0.0
 40
5.5
100
AcDbArc
 50
317.1816755288064
 51
45.00000500000001
  0
LINE
  5
2CA
330
18
100
AcDbEntity
  8
4
  6
CENTER
100
AcDbLine
 10
292.9996649408473
 20
121.8376763333056
 30
0.0
 11
292.9996649408473
 21
137.8376763333055
 31
0.0
  0
LINE
  5
2CB
330
18
100
AcDbEntity
  8
4
  6
CENTER
100
AcDbLine
 10
303.4996649408473
 20
127.3376763333055
 30
0.0
 11
287.4996649408473
 21
127.3376763333055
 31
0.0
  0
LINE
  5
2CC
330
18
100
AcDbEntity
  8
1
  6
Continuous
100
AcDbLine
 10
296.8887509408471
 20
133.7267343333053
 30
0.0
 11
299.3887529408472
 21
131.2267323333053
 31
0.0
  0
LINE
  5
2CD
330
18
100
AcDbEntity
  8
1
  6
Continuous
100
AcDbLine
 10
308.9430113227728
 20
61.83767633330585
 30
0.0
 11
274.5996629408472
 21
61.83767633330585
 31
0.0
  0
ARC
  5
2CF
330
18
100
AcDbEntity
  8
1
  6
Continuous
100
AcDbCircle
 10
370.4996649408473
 20
127.3376763333055
 30
0.0
 40
5.5
100
AcDbArc
 50
134.9999629999999
 51
315.0000359999999
  0
LINE
  5
2D0
330
18
100
AcDbEntity
  8
4
  6
CENTER
100
AcDbLine
 10
370.4996649408473
 20
119.3376763333055
 30
0.0
 11
370.4996649408473
 21
135.3376763333055
 31
0.0
  0
LINE
  5
2D1
330
18
100
AcDbEntity
  8
1
  6
Continuous
100
AcDbLine
 10
376.8887379408474
 20
125.9486023333055
 30
0.0
 11
374.3887349408473
 21
123.4486003333054
 31
0.0
  0
LINE
  5
2D2
330
18
100
AcDbEntity
  8
4
  6
CENTER
100
AcDbLine
 10
372.999664940847
 20
121.8376763333056
 30
0.0
 11
372.999664940847
 21
137.8376763333055
 31
0.0
  0
LINE
  5
2D3
330
18
100
AcDbEntity
  8
1
  6
Continuous
100
AcDbLine
 10
369.1105659408471
 20
133.7267583333056
 30
0.0
 11
366.6105639408473
 21
131.2267553333055
 31
0.0
  0
LINE
  5
2D4
330
18
100
AcDbEntity
  8
1
  6
Continuous
100
AcDbLine
 10
372.999649940847
 20
38.83767633330553
 30
0.0
 11
292.9996839408472
 21
38.83767633330553
 31
0.0
  0
LINE
  5
2D6
330
18
100
AcDbEntity
  8
4
  6
CENTER
100
AcDbLine
 10
300.9996649408473
 20
49.83767633330575
 30
0.0
 11
284.9996649408471
 21
49.83767633330575
 31
0.0
  0
ARC
  5
2D7
330
18
100
AcDbEntity
  8
1
  6
Continuous
100
AcDbCircle
 10
292.9996839408472
 20
49.83767633330575
 30
0.0
 40
11.0
100
AcDbArc
 50
180.0
 51
270.0000179999999
  0
LINE
  5
2D8
330
18
100
AcDbEntity
  8
1
  6
Continuous
100
AcDbLine
 10
308.9430113227733
 20
58.83767633330563
 30
0.0
 11
274.5996629408472
 21
58.83767633330563
 31
0.0
  0
LINE
  5
2D9
330
18
100
AcDbEntity
  8
4
  6
CENTER
100
AcDbLine
 10
303.4996649408473
 20
52.33767633330575
 30
0.0
 11
287.4996649408473
 21
52.33767633330575
 31
0.0
  0
ARC
  5
2DA
330
18
100
AcDbEntity
  8
1
  6
Continuous
100
AcDbCircle
 10
295.4996649408473
 20
52.33767633330552
 30
0.0
 40
5.5
100
AcDbArc
 50
314.999995
 51
320.4788036413575
  0
LINE
  5
2DB
330
18
100
AcDbEntity
  8
4
  6
CENTER
100
AcDbLine
 10
292.9996649408473
 20
57.83767633330575
 30
0.0
 11
292.9996649408473
 21
41.83767633330575
 31
0.0
  0
LINE
  5
2DD
330
18
100
AcDbEntity
  8
1
  6
Continuous
100
AcDbLine
 10
297.9996649408473
 20
47.05955133330561
 30
0.0
 11
299.3887339408473
 21
48.44862033330554
 31
0.0
  0
LINE
  5
2DE
330
18
100
AcDbEntity
  8
4
  6
CENTER
100
AcDbLine
 10
372.999664940847
 20
57.83767633330575
 30
0.0
 11
372.999664940847
 21
41.83767633330575
 31
0.0
  0
ARC
  5
2DF
330
18
100
AcDbEntity
  8
1
  6
Continuous
100
AcDbCircle
 10
370.4996649408473
 20
52.33767633330552
 30
0.0
 40
5.5
100
AcDbArc
 50
44.99992599999997
 51
224.9999999999996
  0
LINE
  5
2E0
330
18
100
AcDbEntity
  8
1
  6
Continuous
100
AcDbLine
 10
376.8887519408473
 20
53.72677133330563
 30
0.0
 11
374.388738940847
 21
56.22678433330559
 31
0.0
  0
LINE
  5
2E1
330
18
100
AcDbEntity
  8
1
  6
Continuous
100
AcDbLine
 10
369.1105909408471
 20
45.94861033330545
 30
0.0
 11
366.6105779408471
 21
48.44862333330564
 31
0.0
  0
LINE
  5
2E2
330
18
100
AcDbEntity
  8
1
  6
Continuous
100
AcDbLine
 10
383.999649940847
 20
129.8376763333055
 30
0.0
 11
383.999649940847
 21
49.83767633330575
 31
0.0
  0
ARC
  5
2E3
330
18
100
AcDbEntity
  8
1
  6
Continuous
100
AcDbCircle
 10
726.0738089408473
 20
334.1852445824498
 30
0.0
 40
182.028732
100
AcDbArc
 50
180.0
 51
193.5498518943368
  0
ARC
  5
2E4
330
18
100
AcDbEntity
  8
1
  6
Continuous
100
AcDbCircle
 10
434.3163629408474
 20
334.1852445824498
 30
0.0
 40
182.028732
100
AcDbArc
 50
346.4501481056629
 51
0.0000360000000476
  0
LINE
  5
2E5
330
18
100
AcDbEntity
  8
1
  6
Continuous
100
AcDbLine
 10
608.1950859408474
 20
331.2351322800707
 30
0.0
 11
608.1950859408474
 21
272.1852365824501
 31
0.0
  0
LINE
  5
2E6
330
18
100
AcDbEntity
  8
1
  6
Continuous
100
AcDbLine
 10
611.1950859408474
 20
290.8346197032498
 30
0.0
 11
611.1950859408474
 21
272.1852365824501
 31
0.0
  0
LINE
  5
2E7
330
18
100
AcDbEntity
  8
1
  6
Continuous
100
AcDbLine
 10
549.1950859408473
 20
290.8346197032506
 30
0.0
 11
549.1950859408473
 21
272.1852365824501
 31
0.0
  0
LINE
  5
2E8
330
18
100
AcDbEntity
  8
1
  6
Continuous
100
AcDbLine
 10
552.1950859408473
 20
331.2350801838122
 30
0.0
 11
552.1950859408473
 21
272.1852365824501
 31
0.0
  0
LINE
  5
2F3
330
18
100
AcDbEntity
  8
4
  6
CENTER
100
AcDbLine
 10
580.1950859408472
 20
414.3292105824499
 30
0.0
 11
580.1950859408472
 21
205.6002755824501
 31
0.0
  0
LINE
  5
2FF
330
18
100
AcDbEntity
  8
4
  6
CENTER
100
AcDbLine
 10
629.6950859408474
 20
289.1852445824499
 30
0.0
 11
540.1403679408473
 21
289.1852445824499
 31
0.0
  0
ARC
  5
302
330
18
100
AcDbEntity
  8
1
  6
Continuous
100
AcDbCircle
 10
626.8534109408472
 20
289.1852445824499
 30
0.0
 40
12.65833399999999
100
AcDbArc
 50
154.3229729999998
 51
205.6770270000003
  0
ARC
  5
303
330
18
100
AcDbEntity
  8
1
  6
Continuous
100
AcDbCircle
 10
608.5367459408476
 20
289.1852445824499
 30
0.0
 40
12.65833399999999
100
AcDbArc
 50
334.3229780000001
 51
25.67702600000014
  0
LINE
  5
304
330
18
100
AcDbEntity
  8
1
  6
Continuous
100
AcDbLine
 10
621.1950859408474
 20
297.4124855824498
 30
0.0
 11
621.1950859408474
 21
280.9580025824501
 31
0.0
  0
LINE
  5
305
330
18
100
AcDbEntity
  8
1
  6
Continuous
100
AcDbLine
 10
625.1950859408474
 20
294.4352445824499
 30
0.0
 11
625.1950859408474
 21
283.9352445824498
 31
0.0
  0
LINE
  5
306
330
18
100
AcDbEntity
  8
1
  6
Continuous
100
AcDbLine
 10
624.4450859408474
 20
295.1852445824498
 30
0.0
 11
624.4450859408474
 21
283.1852445824499
 31
0.0
  0
LINE
  5
307
330
18
100
AcDbEntity
  8
1
  6
Continuous
100
AcDbLine
 10
614.1950859408474
 20
299.6852445824498
 30
0.0
 11
614.1950859408474
 21
278.6852445824499
 31
0.0
  0
LINE
  5
308
330
18
100
AcDbEntity
  8
2
  6
Continuous
100
AcDbLine
 10
625.1950859408474
 20
283.9352445824498
 30
0.0
 11
621.1950859408474
 21
283.9352445824498
 31
0.0
  0
LINE
  5
309
330
18
100
AcDbEntity
  8
1
  6
Continuous
100
AcDbLine
 10
624.4450859408474
 20
283.1852445824499
 30
0.0
 11
621.1950859408474
 21
283.1852445824499
 31
0.0
  0
LINE
  5
30A
330
18
100
AcDbEntity
  8
1
  6
Continuous
100
AcDbLine
 10
625.1950859408474
 20
283.9352445824498
 30
0.0
 11
624.4450859408474
 21
283.1852445824499
 31
0.0
  0
ARC
  5
30B
330
18
100
AcDbEntity
  8
1
  6
Continuous
100
AcDbCircle
 10
617.5617549408474
 20
280.9580025824501
 30
0.0
 40
3.633333
100
AcDbArc
 50
310.9927319999999
 51
49.00727199999966
  0
ARC
  5
30C
330
18
100
AcDbEntity
  8
1
  6
Continuous
100
AcDbCircle
 10
617.8284169408474
 20
280.9580025824501
 30
0.0
 40
3.633333
100
AcDbArc
 50
130.9927339999999
 51
229.007266
  0
LINE
  5
30D
330
18
100
AcDbEntity
  8
1
  6
Continuous
100
AcDbLine
 10
619.9450859408472
 20
278.21558658245
 30
0.0
 11
615.4450859408474
 21
278.21558658245
 31
0.0
  0
LINE
  5
30E
330
18
100
AcDbEntity
  8
1
  6
Continuous
100
AcDbLine
 10
608.1950859408474
 20
272.1852365824501
 30
0.0
 11
611.1950859408474
 21
272.1852365824501
 31
0.0
  0
LINE
  5
30F
330
18
100
AcDbEntity
  8
1
  6
Continuous
100
AcDbLine
 10
611.1950859408474
 20
278.6852445824499
 30
0.0
 11
614.1950859408474
 21
278.6852445824499
 31
0.0
  0
LINE
  5
310
330
18
100
AcDbEntity
  8
1
  6
Continuous
100
AcDbLine
 10
619.9450859408472
 20
283.7004195824499
 30
0.0
 11
615.4450859408474
 21
283.7004195824499
 31
0.0
  0
LINE
  5
311
330
18
100
AcDbEntity
  8
2
  6
Continuous
100
AcDbLine
 10
625.1950859408474
 20
294.4352445824499
 30
0.0
 11
621.1950859408474
 21
294.4352445824499
 31
0.0
  0
LINE
  5
312
330
18
100
AcDbEntity
  8
1
  6
Continuous
100
AcDbLine
 10
624.4450859408474
 20
295.1852445824498
 30
0.0
 11
621.1950859408474
 21
295.1852445824498
 31
0.0
  0
LINE
  5
313
330
18
100
AcDbEntity
  8
1
  6
Continuous
100
AcDbLine
 10
625.1950859408474
 20
294.4352445824499
 30
0.0
 11
624.4450859408474
 21
295.1852445824498
 31
0.0
  0
LINE
  5
314
330
18
100
AcDbEntity
  8
1
  6
Continuous
100
AcDbLine
 10
619.9450859408472
 20
294.6700695824501
 30
0.0
 11
615.4450859408474
 21
294.6700695824501
 31
0.0
  0
LINE
  5
315
330
18
100
AcDbEntity
  8
1
  6
Continuous
100
AcDbLine
 10
619.9450859408472
 20
300.1549025824498
 30
0.0
 11
615.4450859408474
 21
300.1549025824498
 31
0.0
  0
ARC
  5
316
330
18
100
AcDbEntity
  8
1
  6
Continuous
100
AcDbCircle
 10
617.5617549408474
 20
297.4124855824498
 30
0.0
 40
3.633333
100
AcDbArc
 50
310.9927319999999
 51
49.00727199999966
  0
ARC
  5
317
330
18
100
AcDbEntity
  8
1
  6
Continuous
100
AcDbCircle
 10
617.8284169408474
 20
297.4124855824498
 30
0.0
 40
3.633333
100
AcDbArc
 50
130.9927339999999
 51
229.007266
  0
LINE
  5
318
330
18
100
AcDbEntity
  8
1
  6
Continuous
100
AcDbLine
 10
613.0457932916653
 20
299.6852445824498
 30
0.0
 11
614.1950859408474
 21
299.6852445824498
 31
0.0
  0
ARC
  5
321
330
18
100
AcDbEntity
  8
1
  6
Continuous
100
AcDbCircle
 10
568.7367579408474
 20
289.1852445824499
 30
0.0
 40
23.541666
100
AcDbArc
 50
154.7944138678658
 51
209.2417950000001
  0
LINE
  5
324
330
18
100
AcDbEntity
  8
1
  6
Continuous
100
AcDbLine
 10
548.1950859408473
 20
295.5378749770408
 30
0.0
 11
548.1950859408474
 21
277.6852445824499
 31
0.0
  0
LINE
  5
327
330
18
100
AcDbEntity
  8
1
  6
Continuous
100
AcDbLine
 10
549.1950859408473
 20
277.6852445824499
 30
0.0
 11
548.1950859408474
 21
277.6852445824499
 31
0.0
  0
LINE
  5
329
330
18
100
AcDbEntity
  8
1
  6
Continuous
100
AcDbLine
 10
552.1950859408473
 20
272.1852365824501
 30
0.0
 11
549.1950859408473
 21
272.1852365824501
 31
0.0
  0
ARC
  5
330
330
18
100
AcDbEntity
  8
1
  6
Continuous
100
AcDbCircle
 10
542.5681019408473
 20
402.6836075824498
 30
0.0
 40
5.0
100
AcDbArc
 50
209.9786970000002
 51
271.4539789999999
  0
LINE
  5
331
330
18
100
AcDbEntity
  8
1
  6
Continuous
100
AcDbLine
 10
545.2821519408473
 20
397.68523858245
 30
0.0
 11
542.6950569408472
 21
393.6852815824498
 31
0.0
  0
LINE
  5
332
330
18
100
AcDbEntity
  8
4
  6
CENTER
100
AcDbLine
 10
540.1950859408473
 20
407.1852285824498
 30
0.0
 11
540.1950859408473
 21
397.18522858245
 31
0.0
  0
LINE
  5
333
330
18
100
AcDbEntity
  8
4
  6
CENTER
100
AcDbLine
 10
542.6950859408474
 20
407.1852285824498
 30
0.0
 11
542.6950859408474
 21
397.18522858245
 31
0.0
  0
ARC
  5
334
330
18
100
AcDbEntity
  8
1
  6
Continuous
100
AcDbCircle
 10
617.8220699408472
 20
402.6836305824499
 30
0.0
 40
5.0
100
AcDbArc
 50
268.5460119999995
 51
330.0212940000001
  0
LINE
  5
335
330
18
100
AcDbEntity
  8
1
  6
Continuous
100
AcDbLine
 10
615.1080269408472
 20
397.6852345824501
 30
0.0
 11
617.6951299408472
 21
393.6852655824498
 31
0.0
  0
LINE
  5
336
330
18
100
AcDbEntity
  8
4
  6
CENTER
100
AcDbLine
 10
617.6950859408472
 20
407.1852285824498
 30
0.0
 11
617.6950859408472
 21
397.18522858245
 31
0.0
  0
LINE
  5
337
330
18
100
AcDbEntity
  8
4
  6
CENTER
100
AcDbLine
 10
620.1950859408476
 20
407.1852285824498
 30
0.0
 11
620.1950859408476
 21
397.18522858245
 31
0.0
  0
ARC
  5
338
330
18
100
AcDbEntity
  8
1
  6
Continuous
100
AcDbCircle
 10
580.1950859408472
 20
347.8352385824497
 30
0.0
 40
23.0
100
AcDbArc
 50
14.38017999999987
 51
165.6198070000001
  0
LINE
  5
339
330
18
100
AcDbEntity
  8
1
  6
Continuous
100
AcDbLine
 10
542.6950859408474
 20
393.6852515824499
 30
0.0
 11
617.695092607531
 21
393.6852515824499
 31
0.0
  0
LINE
  5
33A
330
18
100
AcDbEntity
  8
1
  6
Continuous
100
AcDbLine
 10
544.6950859408474
 20
392.1852515824499
 30
0.0
 11
615.6950939408633
 21
392.18525158245
 31
0.0
  0
LINE
  5
33B
330
18
100
AcDbEntity
  8
1
  6
Continuous
100
AcDbLine
 10
544.1950859408473
 20
389.1852515824499
 30
0.0
 11
616.1950854521552
 21
389.1852635824501
 31
0.0
  0
LINE
  5
33C
330
18
100
AcDbEntity
  8
1
  6
Continuous
100
AcDbLine
 10
543.1950859408474
 20
390.1852515824499
 30
0.0
 11
617.1950859407752
 21
390.1852515824499
 31
0.0
  0
LINE
  5
340
330
18
100
AcDbEntity
  8
1
  6
Continuous
100
AcDbLine
 10
616.3450799408474
 20
385.8352385824498
 30
0.0
 11
616.3450799408474
 21
334.1852445824498
 31
0.0
  0
LINE
  5
341
330
18
100
AcDbEntity
  8
1
  6
Continuous
100
AcDbLine
 10
611.4015586463373
 20
318.7287985282772
 30
0.0
 11
602.4744889408474
 21
353.5474055824498
 31
0.0
  0
ARC
  5
348
330
18
100
AcDbEntity
  8
1
  6
Continuous
100
AcDbCircle
 10
610.3450799408474
 20
385.8352395824498
 30
0.0
 40
6.0
100
AcDbArc
 50
0.0000500000001538
 51
33.94075295200229
  0
LINE
  5
349
330
18
100
AcDbEntity
  8
1
  6
Continuous
100
AcDbLine
 10
616.1951109408472
 20
390.18527558245
 30
0.0
 11
614.1951349408476
 21
392.1852515824499
 31
0.0
  0
LINE
  5
34A
330
18
100
AcDbEntity
  8
1
  6
Continuous
100
AcDbLine
 10
617.6951179408472
 20
393.6852705824499
 30
0.0
 11
615.6950939408633
 21
392.18525158245
 31
0.0
  0
ARC
  5
34B
330
18
100
AcDbEntity
  8
1
  6
Continuous
100
AcDbCircle
 10
616.1950859408474
 20
390.18526358245
 30
0.0
 40
1.0
100
AcDbArc
 50
269.9999719999996
 51
0.0000090000000172
  0
LINE
  5
351
330
18
100
AcDbEntity
  8
1
  6
Continuous
100
AcDbLine
 10
544.0450919408473
 20
385.8352385824498
 30
0.0
 11
544.0450919408473
 21
334.1852445824498
 31
0.0
  0
LINE
  5
352
330
18
100
AcDbEntity
  8
1
  6
Continuous
100
AcDbLine
 10
548.9886177002182
 20
318.7287620011886
 30
0.0
 11
557.9156949408472
 21
353.54740358245
 31
0.0
  0
ARC
  5
35A
330
18
100
AcDbEntity
  8
1
  6
Continuous
100
AcDbCircle
 10
550.0450919408474
 20
385.8352395824498
 30
0.0
 40
6.0
100
AcDbArc
 50
146.0593970000001
 51
179.9999859999998
  0
LINE
  5
35B
330
18
100
AcDbEntity
  8
1
  6
Continuous
100
AcDbLine
 10
542.6951159408473
 20
393.6852495824499
 30
0.0
 11
544.6951159408475
 21
392.1852495824499
 31
0.0
  0
ARC
  5
35C
330
18
100
AcDbEntity
  8
1
  6
Continuous
100
AcDbCircle
 10
544.1950859408473
 20
390.1852405824498
 30
0.0
 40
1.0
100
AcDbArc
 50
179.9999859999998
 51
270.0000229999997
  0
LINE
  5
35D
330
18
100
AcDbEntity
  8
1
  6
Continuous
100
AcDbLine
 10
544.1950849408473
 20
390.1852615824498
 30
0.0
 11
546.1950759408473
 21
392.18525258245
 31
0.0
  0
LINE
  5
35E
330
18
100
AcDbEntity
  8
1
  6
Continuous
100
AcDbLine
 10
617.9489309408475
 20
397.68522858245
 30
0.0
 11
542.5681019408473
 21
397.68522858245
 31
0.0
  0
LINE
  5
35F
330
18
100
AcDbEntity
  8
1
  6
Continuous
100
AcDbLine
 10
631.1950859408474
 20
404.18522858245
 30
0.0
 11
529.1950859408473
 21
404.18522858245
 31
0.0
  0
LINE
  5
360
330
18
100
AcDbEntity
  8
1
  6
Continuous
100
AcDbLine
 10
631.1950859408474
 20
400.18522858245
 30
0.0
 11
529.1950859408473
 21
400.18522858245
 31
0.0
  0
LINE
  5
361
330
18
100
AcDbEntity
  8
1
  6
Continuous
100
AcDbLine
 10
631.1950859408474
 20
404.1852445824497
 30
0.0
 11
631.1950859408474
 21
400.1852445824497
 31
0.0
  0
LINE
  5
362
330
18
100
AcDbEntity
  8
1
  6
Continuous
100
AcDbLine
 10
529.1950859408473
 20
404.1852135824497
 30
0.0
 11
529.1950859408473
 21
400.1852135824497
 31
0.0
  0
LINE
  5
363
330
18
100
AcDbEntity
  8
1
  6
Continuous
100
AcDbLine
 10
878.3905069408476
 20
404.18522858245
 30
0.0
 11
776.3905069408473
 21
404.18522858245
 31
0.0
  0
LINE
  5
364
330
18
100
AcDbEntity
  8
1
  6
Continuous
100
AcDbLine
 10
878.3905069408476
 20
400.18522858245
 30
0.0
 11
776.3905069408473
 21
400.18522858245
 31
0.0
  0
LINE
  5
365
330
18
100
AcDbEntity
  8
1
  6
Continuous
100
AcDbLine
 10
793.5177879408473
 20
368.2452915824498
 30
0.0
 11
854.8030889408474
 21
279.5233215824501
 31
0.0
  0
LINE
  5
366
330
18
100
AcDbEntity
  8
1
  6
Continuous
100
AcDbLine
 10
873.6001479408475
 20
376.4143295824498
 30
0.0
 11
885.6223699408472
 21
291.5702675824501
 31
0.0
  0
LINE
  5
367
330
18
100
AcDbEntity
  8
1
  6
Continuous
100
AcDbLine
 10
852.3905069408472
 20
377.9702385824498
 30
0.0
 11
852.3905069408472
 21
290.26855758245
 31
0.0
  0
LINE
  5
36B
330
18
100
AcDbEntity
  8
4
  6
CENTER
100
AcDbLine
 10
868.3905069408472
 20
209.1852215824501
 30
0.0
 11
868.3905069408472
 21
369.1852285824499
 31
0.0
  0
LINE
  5
36C
330
18
100
AcDbEntity
  8
4
  6
CENTER
100
AcDbLine
 10
948.3905069408477
 20
289.1852285824501
 30
0.0
 11
788.3905069408473
 21
289.1852285824501
 31
0.0
  0
ARC
  5
36F
330
18
100
AcDbEntity
  8
1
  6
Continuous
100
AcDbCircle
 10
868.7905089408472
 20
289.1852285824501
 30
0.0
 40
17.0
100
AcDbArc
 50
214.63506
 51
8.064986999999936
  0
ARC
  5
379
330
18
100
AcDbEntity
  8
1
  6
Continuous
100
AcDbCircle
 10
789.7635229408473
 20
402.6836075824498
 30
0.0
 40
5.0
100
AcDbArc
 50
209.9786970000002
 51
271.4539789999999
  0
LINE
  5
37A
330
18
100
AcDbEntity
  8
1
  6
Continuous
100
AcDbLine
 10
792.4776099408473
 20
397.68523058245
 30
0.0
 11
789.8904899408473
 21
393.68523558245
 31
0.0
  0
LINE
  5
37B
330
18
100
AcDbEntity
  8
4
  6
CENTER
100
AcDbLine
 10
789.8905069408473
 20
407.1852285824498
 30
0.0
 11
789.8905069408473
 21
397.18522858245
 31
0.0
  0
LINE
  5
37C
330
18
100
AcDbEntity
  8
4
  6
CENTER
100
AcDbLine
 10
787.3905069408473
 20
407.1852285824498
 30
0.0
 11
787.3905069408473
 21
397.18522858245
 31
0.0
  0
ARC
  5
37D
330
18
100
AcDbEntity
  8
1
  6
Continuous
100
AcDbCircle
 10
865.0174909408473
 20
402.6836305824499
 30
0.0
 40
5.0
100
AcDbArc
 50
268.5460119999995
 51
330.0212940000001
  0
LINE
  5
37E
330
18
100
AcDbEntity
  8
1
  6
Continuous
100
AcDbLine
 10
862.3034019408475
 20
397.68522858245
 30
0.0
 11
864.8905199408472
 21
393.68523558245
 31
0.0
  0
LINE
  5
37F
330
18
100
AcDbEntity
  8
4
  6
CENTER
100
AcDbLine
 10
867.3905069408473
 20
407.1852285824498
 30
0.0
 11
867.3905069408473
 21
397.18522858245
 31
0.0
  0
LINE
  5
380
330
18
100
AcDbEntity
  8
4
  6
CENTER
100
AcDbLine
 10
864.8905069408472
 20
407.1852285824498
 30
0.0
 11
864.8905069408472
 21
397.18522858245
 31
0.0
  0
LINE
  5
381
330
18
100
AcDbEntity
  8
4
  6
CENTER
100
AcDbLine
 10
827.3905069408472
 20
414.3292105824499
 30
0.0
 11
827.3905069408472
 21
333.1852215824498
 31
0.0
  0
LINE
  5
382
330
18
100
AcDbEntity
  8
1
  6
Continuous
100
AcDbLine
 10
864.8905109408472
 20
393.6852215824498
 30
0.0
 11
789.8904839408475
 21
393.6852215824498
 31
0.0
  0
LINE
  5
383
330
18
100
AcDbEntity
  8
1
  6
Continuous
100
AcDbLine
 10
864.3905109408473
 20
390.1852215824498
 30
0.0
 11
790.3905149408473
 21
390.1852215824498
 31
0.0
  0
LINE
  5
384
330
18
100
AcDbEntity
  8
1
  6
Continuous
100
AcDbLine
 10
863.3905109408473
 20
389.1852215824498
 30
0.0
 11
791.3905149408472
 21
389.1852215824498
 31
0.0
  0
LINE
  5
385
330
18
100
AcDbEntity
  8
1
  6
Continuous
100
AcDbLine
 10
791.8905299408472
 20
392.1852055824499
 30
0.0
 11
862.8905219408473
 21
392.1852055824499
 31
0.0
  0
LINE
  5
386
330
18
100
AcDbEntity
  8
1
  6
Continuous
100
AcDbLine
 10
864.8905109408472
 20
393.6852215824498
 30
0.0
 11
827.3905109408472
 21
393.6852215824498
 31
0.0
  0
LINE
  5
387
330
18
100
AcDbEntity
  8
1
  6
Continuous
100
AcDbLine
 10
862.8905109408472
 20
392.1852215824498
 30
0.0
 11
827.3905109408472
 21
392.1852215824498
 31
0.0
  0
LINE
  5
388
330
18
100
AcDbEntity
  8
1
  6
Continuous
100
AcDbLine
 10
878.5405089408476
 20
379.83521958245
 30
0.0
 11
855.3905069408473
 21
379.83521958245
 31
0.0
  0
ARC
  5
389
330
18
100
AcDbEntity
  8
1
  6
Continuous
100
AcDbCircle
 10
876.5704769408474
 20
376.83521958245
 30
0.0
 40
3.0
100
AcDbArc
 50
90.00001800000005
 51
188.0649940000001
  0
ARC
  5
38A
330
18
100
AcDbEntity
  8
1
  6
Continuous
100
AcDbCircle
 10
875.2680399408474
 20
375.33521958245
 30
0.0
 40
1.5
100
AcDbArc
 50
90.00001800000005
 51
188.065028
  0
LINE
  5
38B
330
18
100
AcDbEntity
  8
1
  6
Continuous
100
AcDbLine
 10
878.5405089408476
 20
376.83521958245
 30
0.0
 11
875.2680399408474
 21
376.83521958245
 31
0.0
  0
LINE
  5
38C
330
18
100
AcDbEntity
  8
1
  6
Continuous
100
AcDbLine
 10
878.5405089408476
 20
379.83521958245
 30
0.0
 11
878.5405089408476
 21
376.83521958245
 31
0.0
  0
ARC
  5
38D
330
18
100
AcDbEntity
  8
1
  6
Continuous
100
AcDbCircle
 10
857.5405119408472
 20
385.8352265824501
 30
0.0
 40
6.0
100
AcDbArc
 50
0.0000360000000476
 51
33.94062600000021
  0
ARC
  5
38E
330
18
100
AcDbEntity
  8
1
  6
Continuous
100
AcDbCircle
 10
866.5405119408474
 20
382.8352285824498
 30
0.0
 40
3.0
100
AcDbArc
 50
180.0000029999999
 51
269.9999749999999
  0
LINE
  5
38F
330
18
100
AcDbEntity
  8
1
  6
Continuous
100
AcDbLine
 10
863.5405089408473
 20
385.83522858245
 30
0.0
 11
863.5405089408473
 21
382.8352285824498
 31
0.0
  0
LINE
  5
390
330
18
100
AcDbEntity
  8
1
  6
Continuous
100
AcDbLine
 10
864.8905289408475
 20
393.6852035824498
 30
0.0
 11
862.8905289408473
 21
392.1852035824499
 31
0.0
  0
LINE
  5
391
330
18
100
AcDbEntity
  8
1
  6
Continuous
100
AcDbLine
 10
864.8905119408475
 20
393.68522658245
 30
0.0
 11
862.8905119408473
 21
392.1852265824499
 31
0.0
  0
ARC
  5
392
330
18
100
AcDbEntity
  8
1
  6
Continuous
100
AcDbCircle
 10
863.3905109408473
 20
390.18522958245
 30
0.0
 40
1.0
100
AcDbArc
 50
269.9999719999996
 51
0.0000219999999413
  0
LINE
  5
393
330
18
100
AcDbEntity
  8
1
  6
Continuous
100
AcDbLine
 10
863.3905019408475
 20
390.18523058245
 30
0.0
 11
861.3905029408472
 21
392.18522958245
 31
0.0
  0
ARC
  5
394
330
18
100
AcDbEntity
  8
1
  6
Continuous
100
AcDbCircle
 10
855.3905069408473
 20
382.83521958245
 30
0.0
 40
3.0
100
AcDbArc
 50
195.1415289999999
 51
270.000003
  0
LINE
  5
395
330
18
100
AcDbEntity
  8
1
  6
Continuous
100
AcDbLine
 10
788.7405059408473
 20
377.2749635824498
 30
0.0
 11
788.7405059408473
 21
370.83520758245
 31
0.0
  0
ARC
  5
396
330
18
100
AcDbEntity
  8
1
  6
Continuous
100
AcDbCircle
 10
788.5810669408473
 20
364.83521158245
 30
0.0
 40
6.0
100
AcDbArc
 50
34.63502400000015
 51
88.47715899999966
  0
ARC
  5
397
330
18
100
AcDbEntity
  8
1
  6
Continuous
100
AcDbCircle
 10
797.2405059408473
 20
385.83521158245
 30
0.0
 40
6.0
100
AcDbArc
 50
146.0594100000001
 51
180.0000029999999
  0
ARC
  5
398
330
18
100
AcDbEntity
  8
1
  6
Continuous
100
AcDbCircle
 10
793.1737789408473
 20
377.2749655824498
 30
0.0
 40
4.433265
100
AcDbArc
 50
131.5806799999998
 51
180.0000029999999
  0
ARC
  5
399
330
18
100
AcDbEntity
  8
1
  6
Continuous
100
AcDbCircle
 10
788.2405059408474
 20
382.8352095824498
 30
0.0
 40
3.0
100
AcDbArc
 50
311.5807290000002
 51
0.0000219999999413
  0
LINE
  5
39A
330
18
100
AcDbEntity
  8
1
  6
Continuous
100
AcDbLine
 10
791.2405059408475
 20
385.8352095824498
 30
0.0
 11
791.2405059408475
 21
382.8352095824498
 31
0.0
  0
LINE
  5
39B
330
18
100
AcDbEntity
  8
1
  6
Continuous
100
AcDbLine
 10
789.8904849408475
 20
393.6852085824499
 30
0.0
 11
791.8904849408475
 21
392.18520858245
 31
0.0
  0
LINE
  5
39C
330
18
100
AcDbEntity
  8
1
  6
Continuous
100
AcDbLine
 10
789.8905049408473
 20
393.6852225824498
 30
0.0
 11
791.8905049408473
 21
392.1852225824498
 31
0.0
  0
LINE
  5
39D
330
18
100
AcDbEntity
  8
1
  6
Continuous
100
AcDbLine
 10
791.3904929408475
 20
390.1852345824498
 30
0.0
 11
793.3904899408473
 21
392.18523058245
 31
0.0
  0
ARC
  5
39E
330
18
100
AcDbEntity
  8
1
  6
Continuous
100
AcDbCircle
 10
791.3905149408472
 20
390.1852125824498
 30
0.0
 40
1.0
100
AcDbArc
 50
179.9999989999998
 51
270.0000369999997
  0
LINE
  5
39F
330
18
100
AcDbEntity
  8
1
  6
Continuous
100
AcDbLine
 10
865.1443519408472
 20
397.68522858245
 30
0.0
 11
789.7635229408473
 21
397.68522858245
 31
0.0
  0
LINE
  5
3A0
330
18
100
AcDbEntity
  8
1
  6
Continuous
100
AcDbLine
 10
878.3905069408476
 20
404.1852445824497
 30
0.0
 11
878.3905069408476
 21
400.1852445824497
 31
0.0
  0
LINE
  5
3A1
330
18
100
AcDbEntity
  8
1
  6
Continuous
100
AcDbLine
 10
776.3905069408473
 20
404.1852135824497
 30
0.0
 11
776.3905069408473
 21
400.1852135824497
 31
0.0
  0
LINE
  5
3B6
330
18
100
AcDbEntity
  8
1
  6
Continuous
100
AcDbLine
 10
877.8904380160064
 20
294.6700535824501
 30
0.0
 11
877.8904380160064
 21
283.70040358245
 31
0.0
  0
LINE
  5
3B7
330
18
100
AcDbEntity
  8
1
  6
Continuous
100
AcDbLine
 10
858.8904468747587
 20
294.6700535824501
 30
0.0
 11
858.8904468747587
 21
283.70040358245
 31
0.0
  0
CIRCLE
  5
3B8
330
18
100
AcDbEntity
  8
1
  6
Continuous
100
AcDbCircle
 10
868.3904424453826
 20
289.1852285824501
 30
0.0
 40
9.499995570623923
  0
CIRCLE
  5
3B9
330
18
100
AcDbEntity
  8
1
  6
Continuous
100
AcDbCircle
 10
868.3904424453826
 20
289.1852285824501
 30
0.0
 40
5.999999999999772
  0
CIRCLE
  5
3BA
330
18
100
AcDbEntity
  8
2
  6
Continuous
100
AcDbCircle
 10
868.3904424453826
 20
289.1852285824501
 30
0.0
 40
5.25
  0
LINE
  5
3BB
330
18
100
AcDbEntity
  8
1
  6
Continuous
100
AcDbLine
 10
858.8904468747587
 20
283.7004035824503
 30
0.0
 11
868.3904424453826
 21
278.2155785824501
 31
0.0
  0
ARC
  5
3BC
330
18
100
AcDbEntity
  8
1
  6
Continuous
100
AcDbCircle
 10
868.3904424453826
 20
289.1852285824501
 30
0.0
 40
10.49999999999976
100
AcDbArc
 50
214.7911779553519
 51
265.2088220446474
  0
ARC
  5
3BD
330
18
100
AcDbEntity
  8
1
  6
Continuous
100
AcDbCircle
 10
868.3904424453826
 20
289.1852285824501
 30
0.0
 40
10.49999999999976
100
AcDbArc
 50
274.7911779553525
 51
325.208822044648
  0
LINE
  5
3BE
330
18
100
AcDbEntity
  8
1
  6
Continuous
100
AcDbLine
 10
877.8904380160064
 20
283.7004035824503
 30
0.0
 11
868.3904424453825
 21
278.2155785824501
 31
0.0
  0
LINE
  5
3BF
330
18
100
AcDbEntity
  8
1
  6
Continuous
100
AcDbLine
 10
858.8904468747587
 20
294.6700535824496
 30
0.0
 11
868.3904424453826
 21
300.15487858245
 31
0.0
  0
ARC
  5
3C0
330
18
100
AcDbEntity
  8
1
  6
Continuous
100
AcDbCircle
 10
868.3904424453826
 20
289.1852285824501
 30
0.0
 40
10.49999999999976
100
AcDbArc
 50
94.7911779553525
 51
145.208822044648
  0
ARC
  5
3C1
330
18
100
AcDbEntity
  8
1
  6
Continuous
100
AcDbCircle
 10
868.3904424453826
 20
289.1852285824501
 30
0.0
 40
10.49999999999976
100
AcDbArc
 50
154.79117795535
 51
205.2088220446499
  0
ARC
  5
3C2
330
18
100
AcDbEntity
  8
1
  6
Continuous
100
AcDbCircle
 10
868.3904424453826
 20
289.1852285824501
 30
0.0
 40
10.49999999999976
100
AcDbArc
 50
34.79117795535196
 51
85.20882204464752
  0
LINE
  5
3C3
330
18
100
AcDbEntity
  8
1
  6
Continuous
100
AcDbLine
 10
877.8904380160064
 20
294.6700535824496
 30
0.0
 11
868.3904424453825
 21
300.15487858245
 31
0.0
  0
ARC
  5
3C4
330
18
100
AcDbEntity
  8
1
  6
Continuous
100
AcDbCircle
 10
868.3904424453826
 20
289.1852285824501
 30
0.0
 40
10.49999999999976
100
AcDbArc
 50
334.7911779553501
 51
25.20882204464991
  0
LINE
  5
3D0
330
18
100
AcDbEntity
  8
1
  6
Continuous
100
AcDbLine
 10
281.9996839408471
 20
116.8376763333055
 30
0.0
 11
281.9996839408471
 21
117.8376763333053
 31
0.0
  0
LINE
  5
3D4
330
18
100
AcDbEntity
  8
1
  6
Continuous
100
AcDbLine
 10
286.7496649408473
 20
44.83767633330558
 30
0.0
 11
297.2496649408473
 21
44.83767633330558
 31
0.0
  0
LINE
  5
3D5
330
18
100
AcDbEntity
  8
1
  6
Continuous
100
AcDbLine
 10
285.9996649408473
 20
45.58767633330558
 30
0.0
 11
297.9996649408473
 21
45.58767633330558
 31
0.0
  0
LINE
  5
3D6
330
18
100
AcDbEntity
  8
1
  6
Continuous
100
AcDbLine
 10
281.4996649408474
 20
55.83767633330558
 30
0.0
 11
302.4996649408473
 21
55.83767633330558
 31
0.0
  0
LINE
  5
3D7
330
18
100
AcDbEntity
  8
2
  6
Continuous
100
AcDbLine
 10
297.2496649408473
 20
44.83767633330558
 30
0.0
 11
297.2496649408473
 21
48.83767633330549
 31
0.0
  0
LINE
  5
3D8
330
18
100
AcDbEntity
  8
1
  6
Continuous
100
AcDbLine
 10
297.9996649408473
 20
45.58767633330558
 30
0.0
 11
297.9996649408473
 21
48.83767633330549
 31
0.0
  0
LINE
  5
3D9
330
18
100
AcDbEntity
  8
1
  6
Continuous
100
AcDbLine
 10
297.2496649408473
 20
44.83767633330558
 30
0.0
 11
297.9996649408473
 21
45.58767633330558
 31
0.0
  0
LINE
  5
3DD
330
18
100
AcDbEntity
  8
1
  6
Continuous
100
AcDbLine
 10
302.4996649408473
 20
58.83767633330558
 30
0.0
 11
302.4996649408473
 21
55.83767633330558
 31
0.0
  0
LINE
  5
3DF
330
18
100
AcDbEntity
  8
2
  6
Continuous
100
AcDbLine
 10
286.7496649408473
 20
44.83767633330558
 30
0.0
 11
286.7496649408473
 21
48.83767633330549
 31
0.0
  0
LINE
  5
3E0
330
18
100
AcDbEntity
  8
1
  6
Continuous
100
AcDbLine
 10
285.9996649408473
 20
45.58767633330558
 30
0.0
 11
285.9996649408473
 21
48.83767633330549
 31
0.0
  0
LINE
  5
3E1
330
18
100
AcDbEntity
  8
1
  6
Continuous
100
AcDbLine
 10
286.7496649408473
 20
44.83767633330558
 30
0.0
 11
285.9996649408473
 21
45.58767633330558
 31
0.0
  0
LINE
  5
3E6
330
18
100
AcDbEntity
  8
1
  6
Continuous
100
AcDbLine
 10
281.4996649408474
 20
58.83767633330558
 30
0.0
 11
281.4996649408474
 21
55.83767633330558
 31
0.0
  0
ARC
  5
3FB
330
18
100
AcDbEntity
  8
1
  6
Continuous
100
AcDbCircle
 10
291.9996649408473
 20
101.2960043333055
 30
0.0
 40
23.541666
100
AcDbArc
 50
60.75820499999981
 51
119.2417469999998
  0
LINE
  5
3FC
330
18
100
AcDbEntity
  8
1
  6
Continuous
100
AcDbLine
 10
280.4996649408474
 20
121.8376763333054
 30
0.0
 11
303.4996649408473
 21
121.8376763333054
 31
0.0
  0
LINE
  5
3FD
330
18
100
AcDbEntity
  8
1
  6
Continuous
100
AcDbLine
 10
303.4996649408473
 20
120.8376763333055
 30
0.0
 11
303.4996649408473
 21
121.8376763333054
 31
0.0
  0
LINE
  5
3FE
330
18
100
AcDbEntity
  8
1
  6
Continuous
100
AcDbLine
 10
280.4996649408474
 20
120.8376763333055
 30
0.0
 11
280.4996649408474
 21
121.8376763333054
 31
0.0
  0
LINE
  5
401
330
18
100
AcDbEntity
  8
1
  6
Continuous
100
AcDbLine
 10
281.9996839408471
 20
122.6082172182969
 30
0.0
 11
281.9996839408471
 21
129.8376763333055
 31
0.0
  0
ARC
  5
402
330
18
100
AcDbEntity
  8
1
  6
Continuous
100
AcDbCircle
 10
292.9996649408473
 20
49.83767633330575
 30
0.0
 40
5.5
100
AcDbArc
 50
245.3800226713467
 51
294.6199773286529
  0
ARC
  5
40F
330
18
100
AcDbEntity
  8
1
  6
Continuous
100
AcDbCircle
 10
287.2496671555353
 20
46.1877238776633
 30
0.0
 40
9.649952699611626
100
AcDbArc
 50
60.5127306237568
 51
119.487269376243
  0
ARC
  5
410
330
18
100
AcDbEntity
  8
1
  6
Continuous
100
AcDbCircle
 10
296.7496627261592
 20
46.18772387765964
 30
0.0
 40
9.649952699615059
100
AcDbArc
 50
60.51273062376439
 51
119.4872693762356
  0
LINE
  5
411
330
18
100
AcDbEntity
  8
1
  6
Continuous
100
AcDbLine
 10
291.9996649408472
 20
54.58767633330558
 30
0.0
 11
291.9996649408472
 21
50.08767633330558
 31
0.0
  0
LINE
  5
412
330
18
100
AcDbEntity
  8
1
  6
Continuous
100
AcDbLine
 10
301.4996605114711
 20
48.83767633330581
 30
0.0
 11
282.4996693702235
 21
48.83767633330581
 31
0.0
  0
ARC
  5
413
330
18
100
AcDbEntity
  8
1
  6
Continuous
100
AcDbCircle
 10
296.7496627261592
 20
58.48761619542983
 30
0.0
 40
9.649952699615059
100
AcDbArc
 50
240.5127306237643
 51
299.4872693762355
  0
ARC
  5
414
330
18
100
AcDbEntity
  8
1
  6
Continuous
100
AcDbCircle
 10
287.2496671555353
 20
58.48761619542575
 30
0.0
 40
9.649952699611626
100
AcDbArc
 50
240.5127306237569
 51
299.4872693762431
  0
LINE
  5
415
330
18
100
AcDbEntity
  8
1
  6
Continuous
100
AcDbLine
 10
282.4996693702235
 20
55.83767633330558
 30
0.0
 11
282.4996693702235
 21
48.83767633330581
 31
0.0
  0
LINE
  5
416
330
18
100
AcDbEntity
  8
1
  6
Continuous
100
AcDbLine
 10
301.4996605114711
 20
55.83767633330558
 30
0.0
 11
301.4996605114711
 21
48.83767633330581
 31
0.0
  0
LINE
  5
418
330
18
100
AcDbEntity
  8
1
  6
Continuous
100
AcDbLine
 10
281.9996839408472
 20
61.83767633330585
 30
0.0
 11
281.9996839408472
 21
62.83767633330559
 31
0.0
  0
ARC
  5
41A
330
18
100
AcDbEntity
  8
1
  6
Continuous
100
AcDbCircle
 10
332.9996649408473
 20
89.8376763333057
 30
0.0
 40
38.65000099999996
100
AcDbArc
 50
234.7187362284875
 51
125.2812637715124
  0
ARC
  5
41B
330
18
100
AcDbEntity
  8
1
  6
Continuous
100
AcDbCircle
 10
332.9996649408473
 20
89.8376763333057
 30
0.0
 40
35.65000099999997
100
AcDbArc
 50
234.718736228487
 51
330.8246255411643
  0
ARC
  5
41C
330
18
100
AcDbEntity
  8
1
  6
Continuous
100
AcDbCircle
 10
308.9430113227731
 20
123.8376763333056
 30
0.0
 40
3.0
100
AcDbArc
 50
270.0
 51
305.281263771513
  0
ARC
  5
41D
330
18
100
AcDbEntity
  8
1
  6
Continuous
100
AcDbCircle
 10
308.9430113227733
 20
55.83767633330563
 30
0.0
 40
3.0
100
AcDbArc
 50
54.71873622848792
 51
89.99999999999891
  0
ARC
  5
41E
330
18
100
AcDbEntity
  8
1
  6
Continuous
100
AcDbCircle
 10
308.9430113227728
 20
55.83767633330587
 30
0.0
 40
6.0
100
AcDbArc
 50
54.71873622848728
 51
90.0
  0
ARC
  5
41F
330
18
100
AcDbEntity
  8
1
  6
Continuous
100
AcDbCircle
 10
308.9430113227728
 20
123.8376763333054
 30
0.0
 40
6.0
100
AcDbArc
 50
270.0
 51
305.2812637715128
  0
ARC
  5
421
330
18
100
AcDbEntity
  8
1
  6
Continuous
100
AcDbCircle
 10
726.0738089408473
 20
334.1852445824498
 30
0.0
 40
179.028732
100
AcDbArc
 50
187.3787039721599
 51
193.5498518943368
  0
ARC
  5
422
330
18
100
AcDbEntity
  8
1
  6
Continuous
100
AcDbCircle
 10
434.3163629408474
 20
334.1852445824498
 30
0.0
 40
179.028732
100
AcDbArc
 50
346.4501481056629
 51
352.6213090480841
  0
ARC
  5
424
330
18
100
AcDbEntity
  8
1
  6
Continuous
100
AcDbCircle
 10
614.1950859408474
 20
290.8346197032498
 30
0.0
 40
3.0
100
AcDbArc
 50
166.4501481056626
 51
180.0
  0
ARC
  5
425
330
18
100
AcDbEntity
  8
1
  6
Continuous
100
AcDbCircle
 10
546.1950859408473
 20
290.8346197032506
 30
0.0
 40
3.0
100
AcDbArc
 50
359.9999999999993
 51
13.54985189433683
  0
ARC
  5
426
330
18
100
AcDbEntity
  8
1
  6
Continuous
100
AcDbCircle
 10
546.1950859408473
 20
290.8346197032502
 30
0.0
 40
6.0
100
AcDbArc
 50
359.9999999999997
 51
13.54985189433685
  0
ARC
  5
427
330
18
100
AcDbEntity
  8
1
  6
Continuous
100
AcDbCircle
 10
614.1950859408474
 20
290.83461970325
 30
0.0
 40
6.0
100
AcDbArc
 50
166.4501481056635
 51
180.0
  0
ARC
  5
42B
330
18
100
AcDbEntity
  8
1
  6
Continuous
100
AcDbCircle
 10
592.028177146268
 20
313.7616978394678
 30
0.0
 40
20.0
100
AcDbArc
 50
352.621309048084
 51
14.38019292757366
  0
ARC
  5
42C
330
18
100
AcDbEntity
  8
1
  6
Continuous
100
AcDbCircle
 10
568.3619993766027
 20
313.7616620000688
 30
0.0
 40
20.0
100
AcDbArc
 50
165.6198091062329
 51
187.3787039721599
  0
ARC
  5
42D
330
18
100
AcDbEntity
  8
1
  6
Continuous
100
AcDbCircle
 10
568.3619993766027
 20
313.7616620000688
 30
0.0
 40
23.0
100
AcDbArc
 50
165.6198091062329
 51
187.3787039721599
  0
ARC
  5
42F
330
18
100
AcDbEntity
  8
1
  6
Continuous
100
AcDbCircle
 10
592.028177146268
 20
313.7616978394678
 30
0.0
 40
23.0
100
AcDbArc
 50
352.621309048084
 51
14.38019292757366
  0
ARC
  5
A87
330
18
100
AcDbEntity
  8
1
  6
Continuous
100
AcDbCircle
 10
580.1950859408472
 20
344.8352385824497
 30
0.0
 40
26.0
100
AcDbArc
 50
15.66080484320106
 51
164.3391951567988
  0
LINE
  5
A88
330
18
100
AcDbEntity
  8
1
  6
Continuous
100
AcDbLine
 10
546.0826104487605
 20
319.4738270013567
 30
0.0
 11
555.1602934376951
 21
351.8537259069467
 31
0.0
  0
LINE
  5
A89
330
18
100
AcDbEntity
  8
1
  6
Continuous
100
AcDbLine
 10
614.3075614329339
 20
319.4738270013567
 30
0.0
 11
605.2298784439994
 21
351.8537259069467
 31
0.0
  0
ARC
  5
AD3
330
18
100
AcDbEntity
  8
1
  6
Continuous
100
AcDbCircle
 10
332.9996649408473
 20
89.8376763333057
 30
0.0
 40
41.95804023832699
100
AcDbArc
 50
227.6321306528006
 51
132.3678693471992
  0
ARC
  5
AD4
330
18
100
AcDbEntity
  8
1
  6
Continuous
100
AcDbCircle
 10
332.9996649408473
 20
89.8376763333057
 30
0.0
 40
30.65000100000009
100
AcDbArc
 50
225.8191585376962
 51
325.1826316120838
  0
ARC
  5
AD5
330
18
100
AcDbEntity
  8
1
  6
Continuous
100
AcDbCircle
 10
332.9996649408473
 20
89.8376763333057
 30
0.0
 40
30.65000100000009
100
AcDbArc
 50
34.81736838791599
 51
134.180846608356
  0
ARC
  5
BCF
330
18
100
AcDbEntity
  8
1
  6
Continuous
100
AcDbCircle
 10
295.9996649408473
 20
260.4624155824501
 30
0.0
 40
1.0
100
AcDbArc
 50
277.9282
 51
0.0
  0
ARC
  5
BD0
330
18
100
AcDbEntity
  8
1
  6
Continuous
100
AcDbCircle
 10
291.9996649408473
 20
289.1852285824501
 30
0.0
 40
18.5
100
AcDbArc
 50
152.0415007365629
 51
351.0580420287134
  0
ARC
  5
BD1
330
18
100
AcDbEntity
  8
1
  6
Continuous
100
AcDbCircle
 10
291.9996649408473
 20
289.1852285824501
 30
0.0
 40
62.0
100
AcDbArc
 50
98.22990708776742
 51
39.7670093123644
  0
ARC
  5
BD2
330
18
100
AcDbEntity
  8
1
  6
Continuous
100
AcDbCircle
 10
291.9996649408473
 20
289.1852285824501
 30
0.0
 40
75.0
100
AcDbArc
 50
95.34674400777172
 51
42.52206019270706
  0
LINE
  5
BF9
330
18
100
AcDbEntity
  8
1
  6
Continuous
100
AcDbLine
 10
220.7165529408473
 20
107.3376763333057
 30
0.0
 11
363.2827769408473
 21
107.3376763333055
 31
0.0
  0
LINE
  5
BFA
330
18
100
AcDbEntity
  8
1
  6
Continuous
100
AcDbLine
 10
220.7165539880449
 20
72.33767633330568
 30
0.0
 11
363.2827769408473
 21
72.33767633330568
 31
0.0
  0
ARC
  5
BFB
330
18
100
AcDbEntity
  8
1
  6
Continuous
100
AcDbCircle
 10
216.9996649408473
 20
89.83767633330572
 30
0.0
 40
150.0
100
AcDbArc
 50
354.3391500000016
 51
5.660830000001357
  0
ARC
  5
BFC
330
18
100
AcDbEntity
  8
1
  6
Continuous
100
AcDbCircle
 10
363.2827769408473
 20
75.33767633330568
 30
0.0
 40
3.0
100
AcDbArc
 50
269.999979999998
 51
354.3390899999997
  0
ARC
  5
BFD
330
18
100
AcDbEntity
  8
1
  6
Continuous
100
AcDbCircle
 10
363.2827769408473
 20
104.3376763333057
 30
0.0
 40
3.0
100
AcDbArc
 50
5.660890000001206
 51
90.0
  0
LINE
  5
C07
330
18
100
AcDbEntity
  8
1
  6
Continuous
100
AcDbLine
 10
274.338765189913
 20
63.3376763333057
 30
0.0
 11
309.6605650408473
 21
63.3376763333057
 31
0.0
  0
LINE
  5
C08
330
18
100
AcDbEntity
  8
1
  6
Continuous
100
AcDbLine
 10
278.9996652899132
 20
62.83767633330568
 30
0.0
 11
304.9996649408473
 21
62.83767633330568
 31
0.0
  0
LINE
  5
C1B
330
18
100
AcDbEntity
  8
1
  6
Continuous
100
AcDbLine
 10
310.6264931408472
 20
64.07885633330568
 30
0.0
 11
312.8394359408471
 21
72.33767633330568
 31
0.0
  0
ARC
  5
C1C
330
18
100
AcDbEntity
  8
1
  6
Continuous
100
AcDbCircle
 10
309.6605650408473
 20
64.33767633330568
 30
0.0
 40
1.0
100
AcDbArc
 50
269.999979999998
 51
349.9999500000005
  0
ARC
  5
C1F
330
18
100
AcDbEntity
  8
1
  6
Continuous
100
AcDbCircle
 10
304.9996649408473
 20
63.83767633330568
 30
0.0
 40
1.0
100
AcDbArc
 50
269.999979999998
 51
329.9999800000017
  0
LINE
  5
C22
330
18
100
AcDbEntity
  8
1
  6
Continuous
100
AcDbLine
 10
300.4996649408472
 20
61.83767633330568
 30
0.0
 11
300.4996649408472
 21
62.83767633330568
 31
0.0
  0
LINE
  5
C23
330
18
100
AcDbEntity
  8
1
  6
Continuous
100
AcDbLine
 10
283.4996649408473
 20
61.83767633330568
 30
0.0
 11
283.4996649408473
 21
62.83767633330568
 31
0.0
  0
LINE
  5
C25
330
18
100
AcDbEntity
  8
1
  6
Continuous
100
AcDbLine
 10
273.3728367408474
 20
64.07885633330568
 30
0.0
 11
271.1598939408473
 21
72.33767633330568
 31
0.0
  0
ARC
  5
C26
330
18
100
AcDbEntity
  8
1
  6
Continuous
100
AcDbCircle
 10
274.3387648408473
 20
64.33767633330568
 30
0.0
 40
1.0
100
AcDbArc
 50
190.0000499999993
 51
270.0000199999986
  0
ARC
  5
C28
330
18
100
AcDbEntity
  8
1
  6
Continuous
100
AcDbCircle
 10
278.9996649408473
 20
63.83767633330568
 30
0.0
 40
1.0
100
AcDbArc
 50
210.0000199999981
 51
270.0000199999986
  0
LINE
  5
C29
330
18
100
AcDbEntity
  8
1
  6
Continuous
100
AcDbLine
 10
278.9996649408473
 20
116.8376763333057
 30
0.0
 11
304.9996649408473
 21
116.8376763333057
 31
0.0
  0
LINE
  5
C2A
330
18
100
AcDbEntity
  8
1
  6
Continuous
100
AcDbLine
 10
274.3387648408473
 20
116.3376763333056
 30
0.0
 11
309.6605650408473
 21
116.3376763333056
 31
0.0
  0
ARC
  5
C2E
330
18
100
AcDbEntity
  8
1
  6
Continuous
100
AcDbCircle
 10
309.6605650408473
 20
115.3376763333056
 30
0.0
 40
1.0
100
AcDbArc
 50
10.00004000000191
 51
90.0
  0
LINE
  5
C2F
330
18
100
AcDbEntity
  8
1
  6
Continuous
100
AcDbLine
 10
310.6264902408473
 20
115.5964963333057
 30
0.0
 11
312.8394339408473
 21
107.3376763333055
 31
0.0
  0
ARC
  5
C30
330
18
100
AcDbEntity
  8
1
  6
Continuous
100
AcDbCircle
 10
304.9996649408473
 20
115.8376763333057
 30
0.0
 40
1.0
100
AcDbArc
 50
30.0000100000008
 51
90.0
  0
LINE
  5
C33
330
18
100
AcDbEntity
  8
1
  6
Continuous
100
AcDbLine
 10
300.4996649408472
 20
116.8376763333057
 30
0.0
 11
300.4996649408472
 21
117.8376763333057
 31
0.0
  0
LINE
  5
C34
330
18
100
AcDbEntity
  8
1
  6
Continuous
100
AcDbLine
 10
283.4996649408473
 20
116.8376763333057
 30
0.0
 11
283.4996649408473
 21
117.8376763333057
 31
0.0
  0
ARC
  5
C35
330
18
100
AcDbEntity
  8
1
  6
Continuous
100
AcDbCircle
 10
274.3387648408473
 20
115.3376763333056
 30
0.0
 40
1.0
100
AcDbArc
 50
90.0
 51
169.999959999998
  0
ARC
  5
C36
330
18
100
AcDbEntity
  8
1
  6
Continuous
100
AcDbCircle
 10
278.9996649408473
 20
115.8376763333057
 30
0.0
 40
1.0
100
AcDbArc
 50
90.0
 51
149.999989999999
  0
LINE
  5
C37
330
18
100
AcDbEntity
  8
1
  6
Continuous
100
AcDbLine
 10
273.3728396408471
 20
115.5964963333057
 30
0.0
 11
271.1598959408473
 21
107.3376763333055
 31
0.0
  0
ARC
  5
C39
330
18
100
AcDbEntity
  8
1
  6
Continuous
100
AcDbCircle
 10
366.9996649408473
 20
89.8376763333057
 30
0.0
 40
150.0
100
AcDbArc
 50
174.3391699999985
 51
185.6608499999983
  0
ARC
  5
C43
330
18
100
AcDbEntity
  8
1
  6
Continuous
100
AcDbCircle
 10
220.7165529408473
 20
75.33767633330568
 30
0.0
 40
3.0
100
AcDbArc
 50
185.6609100000001
 51
270.0000199999986
  0
ARC
  5
C4E
330
18
100
AcDbEntity
  8
1
  6
Continuous
100
AcDbCircle
 10
220.7165529408473
 20
104.3376763333057
 30
0.0
 40
3.0
100
AcDbArc
 50
90.0
 51
174.3391099999987
  0
LINE
  5
C5A
330
18
100
AcDbEntity
  8
1
  6
Continuous
100
AcDbLine
 10
286.9996649408473
 20
271.3737146824501
 30
0.0
 11
286.9996649408473
 21
260.4624155824501
 31
0.0
  0
ARC
  5
C5C
330
18
100
AcDbEntity
  8
1
  6
Continuous
100
AcDbCircle
 10
291.9996649408473
 20
289.1852285824501
 30
0.0
 40
30.0
100
AcDbArc
 50
262.0718300000016
 51
277.9281499999985
  0
ARC
  5
C5D
330
18
100
AcDbEntity
  8
1
  6
Continuous
100
AcDbCircle
 10
287.9996649408472
 20
260.4624155824501
 30
0.0
 40
1.0
100
AcDbArc
 50
179.9999799999978
 51
262.0717899999988
  0
LINE
  5
C88
330
18
100
AcDbEntity
  8
1
  6
Continuous
100
AcDbLine
 10
296.9996649408473
 20
271.3737146824501
 30
0.0
 11
296.9996649408473
 21
260.4624155824501
 31
0.0
  0
ARC
  5
CB7
330
18
100
AcDbEntity
  8
1
  6
Continuous
100
AcDbCircle
 10
868.3905714363119
 20
289.1852285824501
 30
0.0
 40
18.5
100
AcDbArc
 50
188.9419579712865
 51
27.95849926343692
  0
ARC
  5
CB8
330
18
100
AcDbEntity
  8
1
  6
Continuous
100
AcDbCircle
 10
868.3905714363119
 20
289.1852285824501
 30
0.0
 40
62.0
100
AcDbArc
 50
140.2329906876355
 51
81.77009291223255
  0
ARC
  5
CB9
330
18
100
AcDbEntity
  8
1
  6
Continuous
100
AcDbCircle
 10
868.3905714363119
 20
289.1852285824501
 30
0.0
 40
75.0
100
AcDbArc
 50
137.4779398072929
 51
84.65325599222833
  0
LINE
  5
CD2
330
18
100
AcDbEntity
  8
1
  6
Continuous
100
AcDbLine
 10
83.3042439408473
 20
360.4683565824501
 30
0.0
 11
83.3042439408473
 21
217.9021325824499
 31
0.0
  0
LINE
  5
CD3
330
18
100
AcDbEntity
  8
1
  6
Continuous
100
AcDbLine
 10
48.3042439408473
 20
360.4683555352524
 30
0.0
 11
48.3042439408473
 21
217.9021325824499
 31
0.0
  0
ARC
  5
CD4
330
18
100
AcDbEntity
  8
1
  6
Continuous
100
AcDbCircle
 10
65.8042439408473
 20
364.18524458245
 30
0.0
 40
150.0
100
AcDbArc
 50
264.3391500000016
 51
275.6608300000012
  0
ARC
  5
CD5
330
18
100
AcDbEntity
  8
1
  6
Continuous
100
AcDbCircle
 10
51.3042439408473
 20
217.9021325824499
 30
0.0
 40
3.0
100
AcDbArc
 50
179.9999799999978
 51
264.3390899999997
  0
ARC
  5
CD6
330
18
100
AcDbEntity
  8
1
  6
Continuous
100
AcDbCircle
 10
80.30424394084731
 20
217.9021325824499
 30
0.0
 40
3.0
100
AcDbArc
 50
275.6608900000011
 51
0.0
  0
LINE
  5
CD7
330
18
100
AcDbEntity
  8
1
  6
Continuous
100
AcDbLine
 10
39.3042439408473
 20
306.8461443333841
 30
0.0
 11
39.3042439408473
 21
271.5243444824499
 31
0.0
  0
LINE
  5
CD8
330
18
100
AcDbEntity
  8
1
  6
Continuous
100
AcDbLine
 10
92.3042439408473
 20
306.84614468245
 30
0.0
 11
92.3042439408473
 21
271.5243444824499
 31
0.0
  0
LINE
  5
CD9
330
18
100
AcDbEntity
  8
1
  6
Continuous
100
AcDbLine
 10
38.8042439408473
 20
302.1852442333841
 30
0.0
 11
38.8042439408473
 21
276.1852445824501
 31
0.0
  0
LINE
  5
CDA
330
18
100
AcDbEntity
  8
1
  6
Continuous
100
AcDbLine
 10
40.04542394084729
 20
270.5584163824501
 30
0.0
 11
48.3042439408473
 21
268.3454735824501
 31
0.0
  0
ARC
  5
CDB
330
18
100
AcDbEntity
  8
1
  6
Continuous
100
AcDbCircle
 10
39.8042439408473
 20
276.1852445824501
 30
0.0
 40
1.0
100
AcDbArc
 50
179.9999799999978
 51
239.9999800000017
  0
ARC
  5
CDC
330
18
100
AcDbEntity
  8
1
  6
Continuous
100
AcDbCircle
 10
40.3042439408473
 20
271.5243444824499
 30
0.0
 40
1.0
100
AcDbArc
 50
179.9999799999978
 51
259.9999500000005
  0
LINE
  5
CDD
330
18
100
AcDbEntity
  8
1
  6
Continuous
100
AcDbLine
 10
37.8042439408473
 20
280.6852445824499
 30
0.0
 11
38.8042439408473
 21
280.6852445824499
 31
0.0
  0
LINE
  5
CDE
330
18
100
AcDbEntity
  8
1
  6
Continuous
100
AcDbLine
 10
37.8042439408473
 20
297.6852445824499
 30
0.0
 11
38.8042439408473
 21
297.6852445824499
 31
0.0
  0
ARC
  5
CDF
330
18
100
AcDbEntity
  8
1
  6
Continuous
100
AcDbCircle
 10
39.8042439408473
 20
302.1852445824499
 30
0.0
 40
1.0
100
AcDbArc
 50
120.0000199999982
 51
180.0000199999987
  0
LINE
  5
CE0
330
18
100
AcDbEntity
  8
1
  6
Continuous
100
AcDbLine
 10
92.80424394084731
 20
302.1852445824499
 30
0.0
 11
92.80424394084731
 21
276.1852445824501
 31
0.0
  0
LINE
  5
CE1
330
18
100
AcDbEntity
  8
1
  6
Continuous
100
AcDbLine
 10
91.56306394084731
 20
270.5584192824499
 30
0.0
 11
83.3042439408473
 21
268.3454755824499
 31
0.0
  0
ARC
  5
CE2
330
18
100
AcDbEntity
  8
1
  6
Continuous
100
AcDbCircle
 10
91.3042439408473
 20
271.5243444824499
 30
0.0
 40
1.0
100
AcDbArc
 50
280.0000400000019
 51
0.0
  0
ARC
  5
CE3
330
18
100
AcDbEntity
  8
1
  6
Continuous
100
AcDbCircle
 10
91.80424394084729
 20
276.1852445824501
 30
0.0
 40
1.0
100
AcDbArc
 50
300.0000100000008
 51
0.0
  0
LINE
  5
CE4
330
18
100
AcDbEntity
  8
1
  6
Continuous
100
AcDbLine
 10
92.80424394084731
 20
280.6852445824499
 30
0.0
 11
93.8042439408473
 21
280.6852445824499
 31
0.0
  0
LINE
  5
CE5
330
18
100
AcDbEntity
  8
1
  6
Continuous
100
AcDbLine
 10
92.80424394084731
 20
297.6852445824499
 30
0.0
 11
93.8042439408473
 21
297.6852445824499
 31
0.0
  0
ARC
  5
CE6
330
18
100
AcDbEntity
  8
1
  6
Continuous
100
AcDbCircle
 10
91.80424394084729
 20
302.1852445824499
 30
0.0
 40
1.0
100
AcDbArc
 50
0.0
 51
59.99998999999918
  0
LINE
  5
CE7
330
18
100
AcDbEntity
  8
1
  6
Continuous
100
AcDbLine
 10
40.04542394084729
 20
307.8120727824499
 30
0.0
 11
48.3042439408473
 21
310.02501558245
 31
0.0
  0
ARC
  5
CE8
330
18
100
AcDbEntity
  8
1
  6
Continuous
100
AcDbCircle
 10
40.3042439408473
 20
306.84614468245
 30
0.0
 40
1.0
100
AcDbArc
 50
100.0000499999994
 51
180.0000199999987
  0
LINE
  5
CE9
330
18
100
AcDbEntity
  8
1
  6
Continuous
100
AcDbLine
 10
91.56306394084731
 20
307.8120698824502
 30
0.0
 11
83.3042439408473
 21
310.02501358245
 31
0.0
  0
ARC
  5
CEA
330
18
100
AcDbEntity
  8
1
  6
Continuous
100
AcDbCircle
 10
91.3042439408473
 20
306.84614468245
 30
0.0
 40
1.0
100
AcDbArc
 50
0.0
 51
79.99995999999812
  0
ARC
  5
CEB
330
18
100
AcDbEntity
  8
1
  6
Continuous
100
AcDbCircle
 10
65.8042439408473
 20
214.18524458245
 30
0.0
 40
150.0
100
AcDbArc
 50
84.33916999999864
 51
95.66084999999835
  0
ARC
  5
CEC
330
18
100
AcDbEntity
  8
1
  6
Continuous
100
AcDbCircle
 10
51.3042439408473
 20
360.4683565824501
 30
0.0
 40
3.0
100
AcDbArc
 50
95.66091000000026
 51
180.0000199999987
  0
ARC
  5
CED
330
18
100
AcDbEntity
  8
1
  6
Continuous
100
AcDbCircle
 10
80.30424394084731
 20
360.4683565824501
 30
0.0
 40
3.0
100
AcDbArc
 50
0.0
 51
84.33910999999881
  0
LINE
  5
CEE
330
18
100
AcDbEntity
  8
1
  6
Continuous
100
AcDbLine
 10
597.6950859408471
 20
360.4683565824501
 30
0.0
 11
597.6950859408471
 21
217.9021325824499
 31
0.0
  0
LINE
  5
CEF
330
18
100
AcDbEntity
  8
1
  6
Continuous
100
AcDbLine
 10
562.6950859408473
 20
360.4683555352524
 30
0.0
 11
562.6950859408473
 21
217.9021325824499
 31
0.0
  0
ARC
  5
CF0
330
18
100
AcDbEntity
  8
1
  6
Continuous
100
AcDbCircle
 10
580.1950859408472
 20
364.18524458245
 30
0.0
 40
150.0
100
AcDbArc
 50
264.3391500000016
 51
275.6608300000012
  0
ARC
  5
CF1
330
18
100
AcDbEntity
  8
1
  6
Continuous
100
AcDbCircle
 10
565.6950859408472
 20
217.9021325824499
 30
0.0
 40
3.0
100
AcDbArc
 50
179.9999799999978
 51
264.3390899999997
  0
ARC
  5
CF2
330
18
100
AcDbEntity
  8
1
  6
Continuous
100
AcDbCircle
 10
594.6950859408472
 20
217.9021325824499
 30
0.0
 40
3.0
100
AcDbArc
 50
275.6608900000011
 51
0.0
  0
LINE
  5
CF3
330
18
100
AcDbEntity
  8
1
  6
Continuous
100
AcDbLine
 10
553.6950859408473
 20
306.8461443333841
 30
0.0
 11
553.6950859408473
 21
271.5243444824499
 31
0.0
  0
LINE
  5
CF4
330
18
100
AcDbEntity
  8
1
  6
Continuous
100
AcDbLine
 10
606.695085940847
 20
306.84614468245
 30
0.0
 11
606.695085940847
 21
271.5243444824499
 31
0.0
  0
LINE
  5
CF5
330
18
100
AcDbEntity
  8
1
  6
Continuous
100
AcDbLine
 10
553.1950859408473
 20
302.1852442333841
 30
0.0
 11
553.1950859408473
 21
276.1852445824501
 31
0.0
  0
LINE
  5
CF6
330
18
100
AcDbEntity
  8
1
  6
Continuous
100
AcDbLine
 10
554.4362659408473
 20
270.5584163824501
 30
0.0
 11
562.6950859408473
 21
268.3454735824501
 31
0.0
  0
ARC
  5
CF7
330
18
100
AcDbEntity
  8
1
  6
Continuous
100
AcDbCircle
 10
554.1950859408473
 20
276.1852445824501
 30
0.0
 40
1.0
100
AcDbArc
 50
179.9999799999978
 51
239.9999800000017
  0
ARC
  5
CF8
330
18
100
AcDbEntity
  8
1
  6
Continuous
100
AcDbCircle
 10
554.6950859408473
 20
271.5243444824499
 30
0.0
 40
1.0
100
AcDbArc
 50
179.9999799999978
 51
259.9999500000005
  0
LINE
  5
CF9
330
18
100
AcDbEntity
  8
1
  6
Continuous
100
AcDbLine
 10
552.1950859408473
 20
280.6852445824499
 30
0.0
 11
553.1950859408473
 21
280.6852445824499
 31
0.0
  0
LINE
  5
CFA
330
18
100
AcDbEntity
  8
1
  6
Continuous
100
AcDbLine
 10
552.1950859408473
 20
297.6852445824499
 30
0.0
 11
553.1950859408473
 21
297.6852445824499
 31
0.0
  0
ARC
  5
CFB
330
18
100
AcDbEntity
  8
1
  6
Continuous
100
AcDbCircle
 10
554.1950859408473
 20
302.1852445824499
 30
0.0
 40
1.0
100
AcDbArc
 50
120.0000199999982
 51
180.0000199999987
  0
LINE
  5
CFC
330
18
100
AcDbEntity
  8
1
  6
Continuous
100
AcDbLine
 10
607.1950859408472
 20
302.1852445824499
 30
0.0
 11
607.1950859408472
 21
276.1852445824501
 31
0.0
  0
LINE
  5
CFD
330
18
100
AcDbEntity
  8
1
  6
Continuous
100
AcDbLine
 10
605.9539059408471
 20
270.5584192824499
 30
0.0
 11
597.6950859408471
 21
268.3454755824499
 31
0.0
  0
ARC
  5
CFE
330
18
100
AcDbEntity
  8
1
  6
Continuous
100
AcDbCircle
 10
605.6950859408471
 20
271.5243444824499
 30
0.0
 40
1.0
100
AcDbArc
 50
280.0000400000019
 51
0.0
  0
ARC
  5
CFF
330
18
100
AcDbEntity
  8
1
  6
Continuous
100
AcDbCircle
 10
606.1950859408471
 20
276.1852445824501
 30
0.0
 40
1.0
100
AcDbArc
 50
300.0000100000008
 51
0.0
  0
LINE
  5
D00
330
18
100
AcDbEntity
  8
1
  6
Continuous
100
AcDbLine
 10
607.1950859408472
 20
280.6852445824499
 30
0.0
 11
608.1950859408472
 21
280.6852445824499
 31
0.0
  0
LINE
  5
D01
330
18
100
AcDbEntity
  8
1
  6
Continuous
100
AcDbLine
 10
607.1950859408472
 20
297.6852445824499
 30
0.0
 11
608.1950859408472
 21
297.6852445824499
 31
0.0
  0
ARC
  5
D02
330
18
100
AcDbEntity
  8
1
  6
Continuous
100
AcDbCircle
 10
606.1950859408471
 20
302.1852445824499
 30
0.0
 40
1.0
100
AcDbArc
 50
0.0
 51
59.99998999999918
  0
LINE
  5
D03
330
18
100
AcDbEntity
  8
1
  6
Continuous
100
AcDbLine
 10
554.4362659408473
 20
307.8120727824499
 30
0.0
 11
562.6950859408473
 21
310.02501558245
 31
0.0
  0
ARC
  5
D04
330
18
100
AcDbEntity
  8
1
  6
Continuous
100
AcDbCircle
 10
554.6950859408473
 20
306.84614468245
 30
0.0
 40
1.0
100
AcDbArc
 50
100.0000499999994
 51
180.0000199999987
  0
LINE
  5
D05
330
18
100
AcDbEntity
  8
1
  6
Continuous
100
AcDbLine
 10
605.9539059408471
 20
307.8120698824502
 30
0.0
 11
597.6950859408471
 21
310.02501358245
 31
0.0
  0
ARC
  5
D06
330
18
100
AcDbEntity
  8
1
  6
Continuous
100
AcDbCircle
 10
605.6950859408471
 20
306.84614468245
 30
0.0
 40
1.0
100
AcDbArc
 50
0.0
 51
79.99995999999812
  0
ARC
  5
D07
330
18
100
AcDbEntity
  8
1
  6
Continuous
100
AcDbCircle
 10
580.1950859408472
 20
214.18524458245
 30
0.0
 40
150.0
100
AcDbArc
 50
84.33916999999864
 51
95.66084999999835
  0
ARC
  5
D08
330
18
100
AcDbEntity
  8
1
  6
Continuous
100
AcDbCircle
 10
565.6950859408472
 20
360.4683565824501
 30
0.0
 40
3.0
100
AcDbArc
 50
95.66091000000026
 51
180.0000199999987
  0
ARC
  5
D09
330
18
100
AcDbEntity
  8
1
  6
Continuous
100
AcDbCircle
 10
594.6950859408472
 20
360.4683565824501
 30
0.0
 40
3.0
100
AcDbArc
 50
0.0
 51
84.33910999999881
  0
ARC
  5
D0A
330
18
100
AcDbEntity
  8
1
  6
Continuous
100
AcDbCircle
 10
332.9996649408473
 20
89.8376763333057
 30
0.0
 40
35.65000099999997
100
AcDbArc
 50
340.0216326430493
 51
19.97836735695053
  0
ARC
  5
D0B
330
18
100
AcDbEntity
  8
1
  6
Continuous
100
AcDbCircle
 10
332.9996649408473
 20
89.8376763333057
 30
0.0
 40
35.65000099999997
100
AcDbArc
 50
29.17537445883564
 51
125.281263771513
  0
ARC
  5
D4D
330
18
100
AcDbEntity
  8
1
  6
Continuous
100
AcDbCircle
 10
220.7165529408473
 20
524.0327808315944
 30
0.0
 40
3.0
100
AcDbArc
 50
185.6609100000001
 51
270.0000199999986
  0
ARC
  5
D4E
330
18
100
AcDbEntity
  8
1
  6
Continuous
100
AcDbCircle
 10
366.9996649408473
 20
538.5327808315944
 30
0.0
 40
150.0
100
AcDbArc
 50
174.3391699999985
 51
185.6608499999983
  0
ARC
  5
D4F
330
18
100
AcDbEntity
  8
1
  6
Continuous
100
AcDbCircle
 10
220.7165529408473
 20
553.0327808315944
 30
0.0
 40
3.0
100
AcDbArc
 50
90.0
 51
174.3391099999987
  0
LINE
  5
D50
330
18
100
AcDbEntity
  8
1
  6
Continuous
100
AcDbLine
 10
220.7165539880449
 20
521.0327808315944
 30
0.0
 11
281.9996839408471
 21
521.0327808315944
 31
0.0
  0
LINE
  5
D51
330
18
100
AcDbEntity
  8
1
  6
Continuous
100
AcDbLine
 10
220.7165529408473
 20
556.0327808315944
 30
0.0
 11
281.9996839408471
 21
556.0327808315944
 31
0.0
  0
LINE
  5
D52
330
18
100
AcDbEntity
  8
1
  6
Continuous
100
AcDbLine
 10
274.3387648408473
 20
565.0327808315944
 30
0.0
 11
281.9996839408471
 21
565.0327808315942
 31
0.0
  0
LINE
  5
D53
330
18
100
AcDbEntity
  8
1
  6
Continuous
100
AcDbLine
 10
273.3728396408471
 20
564.2916008315942
 30
0.0
 11
271.1598959408473
 21
556.0327808315944
 31
0.0
  0
ARC
  5
D54
330
18
100
AcDbEntity
  8
1
  6
Continuous
100
AcDbCircle
 10
274.3387648408473
 20
564.0327808315944
 30
0.0
 40
1.0
100
AcDbArc
 50
90.0
 51
169.999959999998
  0
ARC
  5
D55
330
18
100
AcDbEntity
  8
1
  6
Continuous
100
AcDbCircle
 10
278.9996649408473
 20
564.5327808315944
 30
0.0
 40
1.0
100
AcDbArc
 50
90.0
 51
149.999989999999
  0
LINE
  5
D56
330
18
100
AcDbEntity
  8
1
  6
Continuous
100
AcDbLine
 10
274.338765189913
 20
512.0327808315944
 30
0.0
 11
281.999683940847
 21
512.0327808315944
 31
0.0
  0
LINE
  5
D57
330
18
100
AcDbEntity
  8
1
  6
Continuous
100
AcDbLine
 10
278.9996652899132
 20
511.5327808315943
 30
0.0
 11
281.999683940847
 21
511.5327808315943
 31
0.0
  0
ARC
  5
D58
330
18
100
AcDbEntity
  8
1
  6
Continuous
100
AcDbCircle
 10
278.9996649408473
 20
512.5327808315944
 30
0.0
 40
1.0
100
AcDbArc
 50
210.0000199999981
 51
270.0000199999986
  0
LINE
  5
D59
330
18
100
AcDbEntity
  8
1
  6
Continuous
100
AcDbLine
 10
273.3728367408474
 20
512.7739608315944
 30
0.0
 11
271.1598939408473
 21
521.0327808315944
 31
0.0
  0
ARC
  5
D5A
330
18
100
AcDbEntity
  8
1
  6
Continuous
100
AcDbCircle
 10
274.3387648408473
 20
513.0327808315944
 30
0.0
 40
1.0
100
AcDbArc
 50
190.0000499999993
 51
270.0000199999986
  0
LINE
  5
D5B
330
18
100
AcDbEntity
  8
1
  6
Continuous
100
AcDbLine
 10
278.9996649408473
 20
565.5327808315944
 30
0.0
 11
281.9996839408471
 21
565.5327808315944
 31
0.0
  0
ENDSEC
  0
SECTION
  2
OBJECTS
  0
DICTIONARY
  5
C
330
0
100
AcDbDictionary
281
     1
  3
ACAD_CIP_PREVIOUS_PRODUCT_INFO
350
E06
  3
ACAD_COLOR
350
DE9
  3
ACAD_DETAILVIEWSTYLE
350
E02
  3
ACAD_GROUP
350
D
  3
ACAD_LAYOUT
350
5D
  3
ACAD_MATERIAL
350
DB7
  3
ACAD_MLEADERSTYLE
350
DFE
  3
ACAD_MLINESTYLE
350
1B
  3
ACAD_PLOTSETTINGS
350
5E
  3
ACAD_PLOTSTYLENAME
350
DB5
  3
ACAD_SCALELIST
350
DEC
  3
ACAD_SECTIONVIEWSTYLE
350
E00
  3
ACAD_TABLESTYLE
350
DEA
  3
ACAD_VISUALSTYLE
350
DD0
  3
ACDB_RECOMPOSE_DATA
350
E24
  3
AcDbVariableDictionary
350
E17
  3
CONTENTDICTIONARY
350
3D
  3
DWGPROPS
350
E25
  0
DICTIONARY
  5
E07
330
E
100
AcDbDictionary
280
     1
281
     1
  3
ADSK_XREC_LAYER_RECONCILED
360
E08
  0
DICTIONARY
  5
E09
330
65
100
AcDbDictionary
280
     1
281
     1
  3
ADSK_XREC_LAYER_RECONCILED
360
E0A
  0
DICTIONARY
  5
E0B
330
66
100
AcDbDictionary
280
     1
281
     1
  3
ADSK_XREC_LAYER_RECONCILED
360
E0C
  0
DICTIONARY
  5
E0D
330
67
100
AcDbDictionary
280
     1
281
     1
  3
ADSK_XREC_LAYER_RECONCILED
360
E0E
  0
DICTIONARY
  5
E0F
330
68
100
AcDbDictionary
280
     1
281
     1
  3
ADSK_XREC_LAYER_RECONCILED
360
E10
  0
DICTIONARY
  5
E11
330
69
100
AcDbDictionary
280
     1
281
     1
  3
ADSK_XREC_LAYER_RECONCILED
360
E12
  0
DICTIONARY
  5
E13
330
6A
100
AcDbDictionary
280
     1
281
     1
  3
ADSK_XREC_LAYER_RECONCILED
360
E14
  0
DICTIONARY
  5
E15
330
6B
100
AcDbDictionary
280
     1
281
     1
  3
ADSK_XREC_LAYER_RECONCILED
360
E16
  0
DICTIONARY
  5
D98
330
18
100
AcDbDictionary
281
     1
  3
ACAD_LAYOUTSELFREF
350
DB1
  0
DICTIONARY
  5
D96
330
15
100
AcDbDictionary
281
     1
  3
ACAD_LAYOUTSELFREF
350
DB0
  0
XRECORD
  5
E06
102
{ACAD_REACTORS
330
C
102
}
330
C
100
AcDbXrecord
280
     1
300
ACDLT
300
2014
300
ACDLT_F_S
  0
DICTIONARY
  5
DE9
102
{ACAD_REACTORS
330
C
102
}
330
C
100
AcDbDictionary
281
     1
  0
DICTIONARY
  5
E02
102
{ACAD_REACTORS
330
C
102
}
330
C
100
AcDbDictionary
281
     1
  3
Imperial24
350
E03
  0
DICTIONARY
  5
D
102
{ACAD_REACTORS
330
C
102
}
330
C
100
AcDbDictionary
281
     1
  0
DICTIONARY
  5
5D
102
{ACAD_REACTORS
330
C
102
}
330
C
100
AcDbDictionary
281
     1
  3
Model
350
E04
  3
レイアウト1
350
E05
  0
DICTIONARY
  5
DB7
102
{ACAD_REACTORS
330
C
102
}
330
C
100
AcDbDictionary
281
     1
  3
ByBlock
350
DC0
  3
ByLayer
350
DB8
  3
Global
350
DC8
  0
DICTIONARY
  5
DFE
102
{ACAD_REACTORS
330
C
102
}
330
C
100
AcDbDictionary
281
     1
  3
Standard
350
DFF
  0
DICTIONARY
  5
1B
102
{ACAD_REACTORS
330
C
102
}
330
C
100
AcDbDictionary
281
     1
  3
STANDARD
350
1C
  0
DICTIONARY
  5
5E
102
{ACAD_REACTORS
330
C
102
}
330
C
100
AcDbDictionary
281
     1
  0
ACDBDICTIONARYWDFLT
  5
DB5
102
{ACAD_REACTORS
330
C
102
}
330
C
100
AcDbDictionary
281
     1
  3
Normal
350
DB6
100
AcDbDictionaryWithDefault
340
DB6
  0
DICTIONARY
  5
DEC
102
{ACAD_REACTORS
330
C
102
}
330
C
100
AcDbDictionary
281
     1
  3
A0
350
DED
  3
A1
350
DEE
  3
A2
350
DEF
  3
A3
350
DF0
  3
A4
350
DF1
  3
A5
350
DF2
  3
A6
350
DF3
  3
A7
350
DF4
  3
A8
350
DF5
  3
A9
350
DF6
  3
B0
350
DF7
  3
B1
350
DF8
  3
B2
350
DF9
  3
B3
350
DFA
  3
B4
350
DFB
  3
B5
350
DFC
  3
B6
350
DFD
  0
DICTIONARY
  5
E00
102
{ACAD_REACTORS
330
C
102
}
330
C
100
AcDbDictionary
281
     1
  3
Imperial24
350
E01
  0
DICTIONARY
  5
DEA
102
{ACAD_REACTORS
330
C
102
}
330
C
100
AcDbDictionary
281
     1
  3
Standard
350
DEB
  0
DICTIONARY
  5
DD0
102
{ACAD_REACTORS
330
C
102
}
330
C
100
AcDbDictionary
281
     1
  3
2dWireframe
350
DD6
  3
Basic
350
DD5
  3
Brighten
350
DDC
  3
ColorChange
350
DE0
  3
Conceptual
350
DD9
  3
Dim
350
DDB
  3
EdgeColorOff
350
DE8
  3
Facepattern
350
DDF
  3
Flat
350
DD1
  3
FlatWithEdges
350
DD2
  3
Gouraud
350
DD3
  3
GouraudWithEdges
350
DD4
  3
Hidden
350
DD8
  3
JitterOff
350
DE6
  3
Linepattern
350
DDE
  3
OverhangOff
350
DE7
  3
Realistic
350
DDA
  3
Shaded
350
DE5
  3
Shaded with edges
350
DE4
  3
Shades of Gray
350
DE1
  3
Sketchy
350
DE2
  3
Thicken
350
DDD
  3
Wireframe
350
DD7
  3
X-Ray
350
DE3
  0
XRECORD
  5
E24
102
{ACAD_REACTORS
330
C
102
}
330
C
100
AcDbXrecord
280
     1
 90
        1
330
DEB
  0
DICTIONARY
  5
E17
102
{ACAD_REACTORS
330
C
102
}
330
C
100
AcDbDictionary
281
     1
  3
CANNOSCALE
350
E1C
  3
CMLEADERSTYLE
350
E19
  3
CTABLESTYLE
350
E18
  3
CVIEWDETAILSTYLE
350
E1A
  3
CVIEWSECTIONSTYLE
350
E1B
  3
DIMASSOC
350
E1F
  3
INDEXCTL
350
E1E
  3
SORTENTS
350
E1D
  3
XCLIPFRAME
350
E20
  0
DICTIONARY
  5
3D
102
{ACAD_REACTORS
330
C
102
}
330
C
100
AcDbDictionary
281
     1
  0
XRECORD
  5
E25
102
{ACAD_REACTORS
330
C
102
}
330
C
100
AcDbXrecord
280
     1
  1
DWGPROPS COOKIE
  2

  3

  4

  6

  7

  8
Yoshitsune
  9

300
=
301
=
302
=
303
=
304
=
305
=
306
=
307
=
308
=
309
=
 40
0.2333183449074074
 41
2453235.388074896
 42
2457192.689659317
  1

 90
        0
  0
XRECORD
  5
E08
102
{ACAD_REACTORS
330
E07
102
}
330
E07
100
AcDbXrecord
280
     1
290
     1
  0
XRECORD
  5
E0A
102
{ACAD_REACTORS
330
E09
102
}
330
E09
100
AcDbXrecord
280
     1
290
     1
  0
XRECORD
  5
E0C
102
{ACAD_REACTORS
330
E0B
102
}
330
E0B
100
AcDbXrecord
280
     1
290
     1
  0
XRECORD
  5
E0E
102
{ACAD_REACTORS
330
E0D
102
}
330
E0D
100
AcDbXrecord
280
     1
290
     1
  0
XRECORD
  5
E10
102
{ACAD_REACTORS
330
E0F
102
}
330
E0F
100
AcDbXrecord
280
     1
290
     1
  0
XRECORD
  5
E12
102
{ACAD_REACTORS
330
E11
102
}
330
E11
100
AcDbXrecord
280
     1
290
     1
  0
XRECORD
  5
E14
102
{ACAD_REACTORS
330
E13
102
}
330
E13
100
AcDbXrecord
280
     1
290
     1
  0
XRECORD
  5
E16
102
{ACAD_REACTORS
330
E15
102
}
330
E15
100
AcDbXrecord
280
     1
290
     1
  0
XRECORD
  5
DB1
102
{ACAD_REACTORS
330
D98
102
}
330
D98
100
AcDbXrecord
280
     1
340
18
  0
XRECORD
  5
DB0
102
{ACAD_REACTORS
330
D96
102
}
330
D96
100
AcDbXrecord
280
     1
340
15
  0
ACDBDETAILVIEWSTYLE
  5
E03
102
{ACAD_XDICTIONARY
360
E5D
102
}
102
{ACAD_REACTORS
330
E02
102
}
330
E02
100
AcDbModelDocViewStyle
 70
     0
  3
Imperial24
290
     0
100
AcDbDetailViewStyle
 70
     0
 71
     0
 90
        3
 71
     1
340
F
 40
0.24
340
0
 40
0.24
300

 40
0.36
280
     3
 71
     2
340
14
 90
       25
 71
     3
340
F
 40
0.24
 90
        1
 40
0.75
 90
        1
300
%<\AcVar ViewType \f "%tc1">% %<\AcVar ViewDetailId>%\PSCALE %<\AcVar ViewScale \f "%sn">%
 71
     4
340
14
 90
       25
340
14
 90
       25
280
     0
  0
LAYOUT
  5
E04
102
{ACAD_XDICTIONARY
360
E5F
102
}
102
{ACAD_REACTORS
330
5D
102
}
330
5D
100
AcDbPlotSettings
  1

  2
Canon LBP9100C
  4

  6

 40
0.0
 41
0.0
 42
0.0
 43
0.0
 44
0.0
 45
0.0
 46
0.0
 47
0.0
 48
0.0
 49
0.0
140
0.0
141
0.0
142
1.0
143
1.0
 70
  1712
 72
     0
 73
     0
 74
     0
  7

 75
     0
147
1.0
148
0.0
149
0.0
100
AcDbLayout
  1
Model
 70
     1
 71
     0
 10
0.0
 20
0.0
 11
12.0
 21
9.0
 12
0.0
 22
0.0
 32
0.0
 14
0.0
 24
0.0
 34
0.0
 15
0.0
 25
0.0
 35
0.0
146
0.0
 13
0.0
 23
0.0
 33
0.0
 16
1.0
 26
0.0
 36
0.0
 17
0.0
 27
1.0
 37
0.0
 76
     0
330
18
331
DAF
  0
LAYOUT
  5
E05
102
{ACAD_XDICTIONARY
360
E61
102
}
102
{ACAD_REACTORS
330
5D
102
}
330
5D
100
AcDbPlotSettings
  1

  2
Canon LBP9100C
  4

  6

 40
0.0
 41
0.0
 42
0.0
 43
0.0
 44
0.0
 45
0.0
 46
0.0
 47
0.0
 48
0.0
 49
0.0
140
0.0
141
0.0
142
1.0
143
1.0
 70
   688
 72
     0
 73
     0
 74
     5
  7

 75
    16
147
1.0
148
0.0
149
0.0
100
AcDbLayout
  1
レイアウト1
 70
     1
 71
     1
 10
0.0
 20
0.0
 11
420.0
 21
297.0
 12
0.0
 22
0.0
 32
0.0
 14
1.000000000000000E+20
 24
1.000000000000000E+20
 34
1.000000000000000E+20
 15
-1.000000000000000E+20
 25
-1.000000000000000E+20
 35
-1.000000000000000E+20
146
0.0
 13
0.0
 23
0.0
 33
0.0
 16
1.0
 26
0.0
 36
0.0
 17
0.0
 27
1.0
 37
0.0
 76
     0
330
15
  0
MATERIAL
  5
DC0
102
{ACAD_XDICTIONARY
360
DC1
102
}
102
{ACAD_REACTORS
330
DB7
102
}
330
DB7
100
AcDbMaterial
  1
ByBlock
 72
     0
 43
0.0208333333333333
 43
0.0
 43
0.0
 43
0.0
 43
0.0
 43
0.0208333333333333
 43
0.0
 43
0.0
 43
0.0
 43
0.0
 43
1.0
 43
0.0
 43
0.0
 43
0.0
 43
0.0
 43
1.0
 77
     0
 47
0.0208333333333333
 47
0.0
 47
0.0
 47
0.0
 47
0.0
 47
0.0208333333333333
 47
0.0
 47
0.0
 47
0.0
 47
0.0
 47
1.0
 47
0.0
 47
0.0
 47
0.0
 47
0.0
 47
1.0
171
     0
 49
0.0208333333333333
 49
0.0
 49
0.0
 49
0.0
 49
0.0
 49
0.0208333333333333
 49
0.0
 49
0.0
 49
0.0
 49
0.0
 49
1.0
 49
0.0
 49
0.0
 49
0.0
 49
0.0
 49
1.0
175
     0
142
0.0208333333333333
142
0.0
142
0.0
142
0.0
142
0.0
142
0.0208333333333333
142
0.0
142
0.0
142
0.0
142
0.0
142
1.0
142
0.0
142
0.0
142
0.0
142
0.0
142
1.0
179
     0
144
0.0208333333333333
144
0.0
144
0.0
144
0.0
144
0.0
144
0.0208333333333333
144
0.0
144
0.0
144
0.0
144
0.0
144
1.0
144
0.0
144
0.0
144
0.0
144
0.0
144
1.0
147
0.0208333333333333
147
0.0
147
0.0
147
0.0
147
0.0
147
0.0208333333333333
147
0.0
147
0.0
147
0.0
147
0.0
147
1.0
147
0.0
147
0.0
147
0.0
147
0.0
147
1.0
  0
MATERIAL
  5
DB8
102
{ACAD_XDICTIONARY
360
DB9
102
}
102
{ACAD_REACTORS
330
DB7
102
}
330
DB7
100
AcDbMaterial
  1
ByLayer
 72
     0
 43
0.0208333333333333
 43
0.0
 43
0.0
 43
0.0
 43
0.0
 43
0.0208333333333333
 43
0.0
 43
0.0
 43
0.0
 43
0.0
 43
1.0
 43
0.0
 43
0.0
 43
0.0
 43
0.0
 43
1.0
 77
     0
 47
0.0208333333333333
 47
0.0
 47
0.0
 47
0.0
 47
0.0
 47
0.0208333333333333
 47
0.0
 47
0.0
 47
0.0
 47
0.0
 47
1.0
 47
0.0
 47
0.0
 47
0.0
 47
0.0
 47
1.0
171
     0
 49
0.0208333333333333
 49
0.0
 49
0.0
 49
0.0
 49
0.0
 49
0.0208333333333333
 49
0.0
 49
0.0
 49
0.0
 49
0.0
 49
1.0
 49
0.0
 49
0.0
 49
0.0
 49
0.0
 49
1.0
175
     0
142
0.0208333333333333
142
0.0
142
0.0
142
0.0
142
0.0
142
0.0208333333333333
142
0.0
142
0.0
142
0.0
142
0.0
142
1.0
142
0.0
142
0.0
142
0.0
142
0.0
142
1.0
179
     0
144
0.0208333333333333
144
0.0
144
0.0
144
0.0
144
0.0
144
0.0208333333333333
144
0.0
144
0.0
144
0.0
144
0.0
144
1.0
144
0.0
144
0.0
144
0.0
144
0.0
144
1.0
147
0.0208333333333333
147
0.0
147
0.0
147
0.0
147
0.0
147
0.0208333333333333
147
0.0
147
0.0
147
0.0
147
0.0
147
1.0
147
0.0
147
0.0
147
0.0
147
0.0
147
1.0
  0
MATERIAL
  5
DC8
102
{ACAD_XDICTIONARY
360
DC9
102
}
102
{ACAD_REACTORS
330
DB7
102
}
330
DB7
100
AcDbMaterial
  1
Global
 72
     0
 43
0.0208333333333333
 43
0.0
 43
0.0
 43
0.0
 43
0.0
 43
0.0208333333333333
 43
0.0
 43
0.0
 43
0.0
 43
0.0
 43
1.0
 43
0.0
 43
0.0
 43
0.0
 43
0.0
 43
1.0
 77
     0
 47
0.0208333333333333
 47
0.0
 47
0.0
 47
0.0
 47
0.0
 47
0.0208333333333333
 47
0.0
 47
0.0
 47
0.0
 47
0.0
 47
1.0
 47
0.0
 47
0.0
 47
0.0
 47
0.0
 47
1.0
171
     0
 49
0.0208333333333333
 49
0.0
 49
0.0
 49
0.0
 49
0.0
 49
0.0208333333333333
 49
0.0
 49
0.0
 49
0.0
 49
0.0
 49
1.0
 49
0.0
 49
0.0
 49
0.0
 49
0.0
 49
1.0
175
     0
142
0.0208333333333333
142
0.0
142
0.0
142
0.0
142
0.0
142
0.0208333333333333
142
0.0
142
0.0
142
0.0
142
0.0
142
1.0
142
0.0
142
0.0
142
0.0
142
0.0
142
1.0
179
     0
144
0.0208333333333333
144
0.0
144
0.0
144
0.0
144
0.0
144
0.0208333333333333
144
0.0
144
0.0
144
0.0
144
0.0
144
1.0
144
0.0
144
0.0
144
0.0
144
0.0
144
1.0
147
0.0208333333333333
147
0.0
147
0.0
147
0.0
147
0.0
147
0.0208333333333333
147
0.0
147
0.0
147
0.0
147
0.0
147
1.0
147
0.0
147
0.0
147
0.0
147
0.0
147
1.0
  0
MLEADERSTYLE
  5
DFF
102
{ACAD_REACTORS
330
DFE
102
}
330
DFE
100
AcDbMLeaderStyle
170
     2
171
     1
172
     0
 90
        2
 40
0.0
 41
0.0
173
     1
 91
-1056964608
340
12
 92
       -2
290
     1
 42
0.09
291
     1
 43
0.36
  3
Standard
 44
0.18
300

342
F
174
     1
178
     6
175
     1
176
     0
 93
-1056964608
 45
0.18
292
     0
297
     0
 46
0.18
 94
-1056964608
 47
1.0
 49
1.0
140
1.0
293
     1
141
0.0
294
     1
177
     0
142
1.0
295
     0
296
     0
143
0.125
1001
ACAD_MLEADERVER
1070
     2
  0
MLINESTYLE
  5
1C
102
{ACAD_REACTORS
330
1B
102
}
330
1B
100
AcDbMlineStyle
  2
STANDARD
 70
     0
  3

 62
   256
 51
90.0
 52
90.0
 71
     2
 49
0.5
 62
   256
  6
BYLAYER
 49
-0.5
 62
   256
  6
BYLAYER
  0
ACDBPLACEHOLDER
  5
DB6
102
{ACAD_REACTORS
330
DB5
102
}
330
DB5
  0
SCALE
  5
DED
102
{ACAD_REACTORS
330
DEC
102
}
330
DEC
100
AcDbScale
 70
     0
300
1:1
140
1.0
141
1.0
290
     1
  0
SCALE
  5
DEE
102
{ACAD_REACTORS
330
DEC
102
}
330
DEC
100
AcDbScale
 70
     0
300
1/128" = 1'-0"
140
0.0078125
141
12.0
290
     0
  0
SCALE
  5
DEF
102
{ACAD_REACTORS
330
DEC
102
}
330
DEC
100
AcDbScale
 70
     0
300
1/64" = 1'-0"
140
0.015625
141
12.0
290
     0
  0
SCALE
  5
DF0
102
{ACAD_REACTORS
330
DEC
102
}
330
DEC
100
AcDbScale
 70
     0
300
1/32" = 1'-0"
140
0.03125
141
12.0
290
     0
  0
SCALE
  5
DF1
102
{ACAD_REACTORS
330
DEC
102
}
330
DEC
100
AcDbScale
 70
     0
300
1/16" = 1'-0"
140
0.0625
141
12.0
290
     0
  0
SCALE
  5
DF2
102
{ACAD_REACTORS
330
DEC
102
}
330
DEC
100
AcDbScale
 70
     0
300
3/32" = 1'-0"
140
0.09375
141
12.0
290
     0
  0
SCALE
  5
DF3
102
{ACAD_REACTORS
330
DEC
102
}
330
DEC
100
AcDbScale
 70
     0
300
1/8" = 1'-0"
140
0.125
141
12.0
290
     0
  0
SCALE
  5
DF4
102
{ACAD_REACTORS
330
DEC
102
}
330
DEC
100
AcDbScale
 70
     0
300
3/16" = 1'-0"
140
0.1875
141
12.0
290
     0
  0
SCALE
  5
DF5
102
{ACAD_REACTORS
330
DEC
102
}
330
DEC
100
AcDbScale
 70
     0
300
1/4" = 1'-0"
140
0.25
141
12.0
290
     0
  0
SCALE
  5
DF6
102
{ACAD_REACTORS
330
DEC
102
}
330
DEC
100
AcDbScale
 70
     0
300
3/8" = 1'-0"
140
0.375
141
12.0
290
     0
  0
SCALE
  5
DF7
102
{ACAD_REACTORS
330
DEC
102
}
330
DEC
100
AcDbScale
 70
     0
300
1/2" = 1'-0"
140
0.5
141
12.0
290
     0
  0
SCALE
  5
DF8
102
{ACAD_REACTORS
330
DEC
102
}
330
DEC
100
AcDbScale
 70
     0
300
3/4" = 1'-0"
140
0.75
141
12.0
290
     0
  0
SCALE
  5
DF9
102
{ACAD_REACTORS
330
DEC
102
}
330
DEC
100
AcDbScale
 70
     0
300
1" = 1'-0"
140
1.0
141
12.0
290
     0
  0
SCALE
  5
DFA
102
{ACAD_REACTORS
330
DEC
102
}
330
DEC
100
AcDbScale
 70
     0
300
1-1/2" = 1'-0"
140
1.5
141
12.0
290
     0
  0
SCALE
  5
DFB
102
{ACAD_REACTORS
330
DEC
102
}
330
DEC
100
AcDbScale
 70
     0
300
3" = 1'-0"
140
3.0
141
12.0
290
     0
  0
SCALE
  5
DFC
102
{ACAD_REACTORS
330
DEC
102
}
330
DEC
100
AcDbScale
 70
     0
300
6" = 1'-0"
140
6.0
141
12.0
290
     0
  0
SCALE
  5
DFD
102
{ACAD_REACTORS
330
DEC
102
}
330
DEC
100
AcDbScale
 70
     0
300
1'-0" = 1'-0"
140
12.0
141
12.0
290
     0
  0
ACDBSECTIONVIEWSTYLE
  5
E01
102
{ACAD_XDICTIONARY
360
E5B
102
}
102
{ACAD_REACTORS
330
E00
102
}
330
E00
100
AcDbModelDocViewStyle
 70
     0
  3
Imperial24
290
     0
100
AcDbSectionViewStyle
 70
     0
 71
     0
 90
       78
 71
     1
340
F
 40
0.24
340
0
340
0
 40
0.24
300
I, O, Q, S, X, Z
 40
0.48
 90
        3
 40
0.18
 90
        1
 71
     2
340
14
 90
       25
340
14
 90
       50
 40
0.24
 40
0.0
 40
0.24
 71
     3
340
F
 40
0.24
 90
        1
 40
0.75
 90
        1
300
%<\AcVar ViewType \f "%tc1">% %<\AcVar ViewSectionStartId>%-%<\AcVar ViewSectionEndId>%\PSCALE %<\AcVar ViewScale \f "%sn">%
 71
     4
300
ANSI31
 40
1.0
 90
        0
290
     0
290
     0
 90
        6
 40
0.0
 40
1.570796326794896
 40
0.2617993877991494
 40
1.308996938995747
 40
-0.2617993877991494
 40
1.832595714594046
  0
TABLESTYLE
  5
DEB
102
{ACAD_XDICTIONARY
360
E22
102
}
102
{ACAD_REACTORS
330
DEA
102
}
330
DEA
100
AcDbTableStyle
  3
Standard
 70
     0
 71
     0
 40
0.06
 41
0.06
280
     0
281
     0
  7
STANDARD
140
0.18
170
     2
 62
     0
 63
     7
283
     0
274
    -2
284
     1
 64
     0
275
    -2
285
     1
 65
     0
276
    -2
286
     1
 66
     0
277
    -2
287
     1
 67
     0
278
    -2
288
     1
 68
     0
279
    -2
289
     1
 69
     0
  7
STANDARD
140
0.25
170
     5
 62
     0
 63
     7
283
     0
274
    -2
284
     1
 64
     0
275
    -2
285
     1
 65
     0
276
    -2
286
     1
 66
     0
277
    -2
287
     1
 67
     0
278
    -2
288
     1
 68
     0
279
    -2
289
     1
 69
     0
  7
STANDARD
140
0.18
170
     5
 62
     0
 63
     7
283
     0
274
    -2
284
     1
 64
     0
275
    -2
285
     1
 65
     0
276
    -2
286
     1
 66
     0
277
    -2
287
     1
 67
     0
278
    -2
288
     1
 68
     0
279
    -2
289
     1
 69
     0
  0
VISUALSTYLE
  5
DD6
102
{ACAD_XDICTIONARY
360
E33
102
}
102
{ACAD_REACTORS
330
DD0
102
}
330
DD0
100
AcDbVisualStyle
  2
2dWireframe
 70
     4
 71
     0
 72
     2
 73
     0
 90
        0
 40
-0.6
 41
-30.0
 62
     5
 63
     7
 74
     1
 91
        4
 64
     7
 65
   257
 75
     1
175
     1
 42
1.0
 92
        0
 66
   257
 43
1.0
 76
     1
 77
     6
 78
     2
 67
     7
 79
     5
170
     0
171
     0
290
     0
174
     0
 93
        1
 44
0.0
173
     0
291
     0
 45
0.0
1001
ACAD
1000
AcDbSavedByObjectVersion
1070
     0
  0
VISUALSTYLE
  5
DD5
102
{ACAD_XDICTIONARY
360
E31
102
}
102
{ACAD_REACTORS
330
DD0
102
}
330
DD0
100
AcDbVisualStyle
  2
Basic
 70
     7
 71
     1
 72
     0
 73
     1
 90
        0
 40
-0.6
 41
-30.0
 62
     5
 63
     7
 74
     0
 91
        4
 64
     7
 65
   257
 75
     1
175
     1
 42
1.0
 92
        8
 66
     7
 43
1.0
 76
     1
 77
     6
 78
     2
 67
     7
 79
     5
170
     0
171
     0
290
     0
174
     0
 93
        1
 44
0.0
173
     0
291
     1
 45
0.0
1001
ACAD
1000
AcDbSavedByObjectVersion
1070
     0
  0
VISUALSTYLE
  5
DDC
102
{ACAD_XDICTIONARY
360
E3F
102
}
102
{ACAD_REACTORS
330
DD0
102
}
330
DD0
100
AcDbVisualStyle
  2
Brighten
 70
    12
 71
     2
 72
     2
 73
     0
 90
        0
 40
-0.6
 41
-30.0
 62
     5
 63
     7
 74
     1
 91
        4
 64
     7
 65
   257
 75
     1
175
     1
 42
1.0
 92
        8
 66
     7
 43
1.0
 76
     1
 77
     6
 78
     2
 67
     7
 79
     5
170
     0
171
     0
290
     0
174
     0
 93
        1
 44
50.0
173
     0
291
     1
 45
0.0
1001
ACAD
1000
AcDbSavedByObjectVersion
1070
     0
  0
VISUALSTYLE
  5
DE0
102
{ACAD_XDICTIONARY
360
E47
102
}
102
{ACAD_REACTORS
330
DD0
102
}
330
DD0
100
AcDbVisualStyle
  2
ColorChange
 70
    16
 71
     2
 72
     2
 73
     3
 90
        0
 40
-0.6
 41
-30.0
 62
     5
 63
     8
 74
     1
 91
        4
 64
     7
 65
   257
 75
     1
175
     1
 42
1.0
 92
        8
 66
     8
 43
1.0
 76
     1
 77
     6
 78
     2
 67
     7
 79
     5
170
     0
171
     0
290
     0
174
     0
 93
        1
 44
0.0
173
     0
291
     1
 45
0.0
1001
ACAD
1000
AcDbSavedByObjectVersion
1070
     0
  0
VISUALSTYLE
  5
DD9
102
{ACAD_XDICTIONARY
360
E39
102
}
102
{ACAD_REACTORS
330
DD0
102
}
330
DD0
100
AcDbVisualStyle
  2
Conceptual
 70
     9
 71
     3
 72
     2
 73
     0
 90
        0
 40
-0.6
 41
-30.0
 62
     5
 63
     7
 74
     2
 91
        2
 64
     7
 65
   257
 75
     1
175
     1
 42
179.0
 92
        8
 66
     7
 43
1.0
 76
     1
 77
     6
 78
     2
 67
     7
 79
     3
170
     0
171
     0
290
     0
174
     0
 93
        1
 44
0.0
173
     0
291
     0
 45
0.0
1001
ACAD
1000
AcDbSavedByObjectVersion
1070
     0
  0
VISUALSTYLE
  5
DDB
102
{ACAD_XDICTIONARY
360
E3D
102
}
102
{ACAD_REACTORS
330
DD0
102
}
330
DD0
100
AcDbVisualStyle
  2
Dim
 70
    11
 71
     2
 72
     2
 73
     0
 90
        0
 40
-0.6
 41
-30.0
 62
     5
 63
     7
 74
     1
 91
        4
 64
     7
 65
   257
 75
     1
175
     1
 42
1.0
 92
        8
 66
     7
 43
1.0
 76
     1
 77
     6
 78
     2
 67
     7
 79
     5
170
     0
171
     0
290
     0
174
     0
 93
        1
 44
-50.0
173
     0
291
     1
 45
0.0
1001
ACAD
1000
AcDbSavedByObjectVersion
1070
     0
  0
VISUALSTYLE
  5
DE8
102
{ACAD_XDICTIONARY
360
E57
102
}
102
{ACAD_REACTORS
330
DD0
102
}
330
DD0
100
AcDbVisualStyle
  2
EdgeColorOff
 70
    22
 71
     2
 72
     2
 73
     0
 90
        0
 40
-0.6
 41
-30.0
 62
     5
 63
     7
 74
     1
 91
        4
 64
     7
 65
   257
 75
     1
175
     1
 42
1.0
 92
        8
 66
     7
 43
1.0
 76
     1
 77
     6
 78
     2
 67
     7
 79
     5
170
     0
171
     0
290
     0
174
     0
 93
        1
 44
0.0
173
     0
291
     1
 45
0.0
1001
ACAD
1000
AcDbSavedByObjectVersion
1070
     0
  0
VISUALSTYLE
  5
DDF
102
{ACAD_XDICTIONARY
360
E45
102
}
102
{ACAD_REACTORS
330
DD0
102
}
330
DD0
100
AcDbVisualStyle
  2
Facepattern
 70
    15
 71
     2
 72
     2
 73
     0
 90
        0
 40
-0.6
 41
-30.0
 62
     5
 63
     7
 74
     1
 91
        4
 64
     7
 65
   257
 75
     1
175
     1
 42
1.0
 92
        8
 66
     7
 43
1.0
 76
     1
 77
     6
 78
     2
 67
     7
 79
     5
170
     0
171
     0
290
     0
174
     0
 93
        1
 44
0.0
173
     0
291
     1
 45
0.0
1001
ACAD
1000
AcDbSavedByObjectVersion
1070
     0
  0
VISUALSTYLE
  5
DD1
102
{ACAD_XDICTIONARY
360
E29
102
}
102
{ACAD_REACTORS
330
DD0
102
}
330
DD0
100
AcDbVisualStyle
  2
Flat
 70
     0
 71
     2
 72
     1
 73
     1
 90
        2
 40
-0.6
 41
30.0
 62
     5
 63
     7
 74
     0
 91
        0
 64
     7
 65
   257
 75
     1
175
     1
 42
1.0
 92
        8
 66
     7
 43
1.0
 76
     1
 77
     6
 78
     2
 67
     7
 79
     5
170
     0
171
     0
290
     0
174
     0
 93
       13
 44
0.0
173
     0
291
     1
 45
0.0
1001
ACAD
1000
AcDbSavedByObjectVersion
1070
     0
  0
VISUALSTYLE
  5
DD2
102
{ACAD_XDICTIONARY
360
E2B
102
}
102
{ACAD_REACTORS
330
DD0
102
}
330
DD0
100
AcDbVisualStyle
  2
FlatWithEdges
 70
     1
 71
     2
 72
     1
 73
     1
 90
        2
 40
-0.6
 41
30.0
 62
     5
 63
     7
 74
     1
 91
        0
 64
     7
 65
   257
 75
     1
175
     1
 42
1.0
 92
        0
 66
   257
 43
1.0
 76
     1
 77
     6
 78
     2
 67
     7
 79
     5
170
     0
171
     0
290
     0
174
     0
 93
       13
 44
0.0
173
     0
291
     1
 45
0.0
1001
ACAD
1000
AcDbSavedByObjectVersion
1070
     0
  0
VISUALSTYLE
  5
DD3
102
{ACAD_XDICTIONARY
360
E2D
102
}
102
{ACAD_REACTORS
330
DD0
102
}
330
DD0
100
AcDbVisualStyle
  2
Gouraud
 70
     2
 71
     2
 72
     2
 73
     1
 90
        2
 40
-0.6
 41
30.0
 62
     5
 63
     7
 74
     0
 91
        0
 64
     7
 65
   257
 75
     1
175
     1
 42
1.0
 92
        0
 66
     7
 43
1.0
 76
     1
 77
     6
 78
     2
 67
     7
 79
     5
170
     0
171
     0
290
     0
174
     0
 93
       13
 44
0.0
173
     0
291
     1
 45
0.0
1001
ACAD
1000
AcDbSavedByObjectVersion
1070
     0
  0
VISUALSTYLE
  5
DD4
102
{ACAD_XDICTIONARY
360
E2F
102
}
102
{ACAD_REACTORS
330
DD0
102
}
330
DD0
100
AcDbVisualStyle
  2
GouraudWithEdges
 70
     3
 71
     2
 72
     2
 73
     1
 90
        2
 40
-0.6
 41
30.0
 62
     5
 63
     7
 74
     1
 91
        0
 64
     7
 65
   257
 75
     1
175
     1
 42
1.0
 92
        0
 66
   257
 43
1.0
 76
     1
 77
     6
 78
     2
 67
     7
 79
     5
170
     0
171
     0
290
     0
174
     0
 93
       13
 44
0.0
173
     0
291
     1
 45
0.0
1001
ACAD
1000
AcDbSavedByObjectVersion
1070
     0
  0
VISUALSTYLE
  5
DD8
102
{ACAD_XDICTIONARY
360
E37
102
}
102
{ACAD_REACTORS
330
DD0
102
}
330
DD0
100
AcDbVisualStyle
  2
Hidden
 70
     6
 71
     1
 72
     2
 73
     2
 90
        0
 40
-0.6
 41
-30.0
 62
     5
 63
     7
 74
     2
 91
        2
 64
     7
 65
   257
 75
     2
175
     1
 42
40.0
 92
        0
 66
   257
 43
1.0
 76
     1
 77
     6
 78
     2
 67
     7
 79
     3
170
     0
171
     0
290
     0
174
     0
 93
        1
 44
0.0
173
     0
291
     0
 45
0.0
1001
ACAD
1000
AcDbSavedByObjectVersion
1070
     0
  0
VISUALSTYLE
  5
DE6
102
{ACAD_XDICTIONARY
360
E53
102
}
102
{ACAD_REACTORS
330
DD0
102
}
330
DD0
100
AcDbVisualStyle
  2
JitterOff
 70
    20
 71
     2
 72
     2
 73
     0
 90
        0
 40
-0.6
 41
-30.0
 62
     5
 63
     7
 74
     1
 91
        4
 64
     7
 65
   257
 75
     1
175
     1
 42
1.0
 92
       10
 66
     7
 43
1.0
 76
     1
 77
     6
 78
     2
 67
     7
 79
     5
170
     0
171
     0
290
     0
174
     0
 93
        1
 44
0.0
173
     0
291
     1
 45
0.0
1001
ACAD
1000
AcDbSavedByObjectVersion
1070
     0
  0
VISUALSTYLE
  5
DDE
102
{ACAD_XDICTIONARY
360
E43
102
}
102
{ACAD_REACTORS
330
DD0
102
}
330
DD0
100
AcDbVisualStyle
  2
Linepattern
 70
    14
 71
     2
 72
     2
 73
     0
 90
        0
 40
-0.6
 41
-30.0
 62
     5
 63
     7
 74
     1
 91
        4
 64
     7
 65
   257
 75
     7
175
     7
 42
1.0
 92
        8
 66
     7
 43
1.0
 76
     1
 77
     6
 78
     2
 67
     7
 79
     5
170
     0
171
     0
290
     0
174
     0
 93
        1
 44
0.0
173
     0
291
     1
 45
0.0
1001
ACAD
1000
AcDbSavedByObjectVersion
1070
     0
  0
VISUALSTYLE
  5
DE7
102
{ACAD_XDICTIONARY
360
E55
102
}
102
{ACAD_REACTORS
330
DD0
102
}
330
DD0
100
AcDbVisualStyle
  2
OverhangOff
 70
    21
 71
     2
 72
     2
 73
     0
 90
        0
 40
-0.6
 41
-30.0
 62
     5
 63
     7
 74
     1
 91
        4
 64
     7
 65
   257
 75
     1
175
     1
 42
1.0
 92
        9
 66
     7
 43
1.0
 76
     1
 77
     6
 78
     2
 67
     7
 79
     5
170
     0
171
     0
290
     0
174
     0
 93
        1
 44
0.0
173
     0
291
     1
 45
0.0
1001
ACAD
1000
AcDbSavedByObjectVersion
1070
     0
  0
VISUALSTYLE
  5
DDA
102
{ACAD_XDICTIONARY
360
E3B
102
}
102
{ACAD_REACTORS
330
DD0
102
}
330
DD0
100
AcDbVisualStyle
  2
Realistic
 70
     8
 71
     2
 72
     3
 73
     0
 90
        2
 40
-0.6
 41
30.0
 62
     5
 63
     7
 74
     0
 91
        0
 64
     7
 65
   257
 75
     1
175
     1
 42
1.0
 92
        8
 66
   257
 43
1.0
 76
     1
 77
     6
 78
     2
 67
     7
 79
     3
170
     0
171
     0
290
     0
174
     0
 93
       13
 44
0.0
173
     0
291
     0
 45
0.0
1001
ACAD
1000
AcDbSavedByObjectVersion
1070
     0
  0
VISUALSTYLE
  5
DE5
102
{ACAD_XDICTIONARY
360
E51
102
}
102
{ACAD_REACTORS
330
DD0
102
}
330
DD0
100
AcDbVisualStyle
  2
Shaded
 70
    27
 71
     2
 72
     2
 73
     1
 90
        2
 40
-0.6
 41
30.0
 62
     5
 63
     7
 74
     0
 91
        4
 64
     7
 65
   257
 75
     1
175
     1
 42
1.0
 92
        8
 66
   257
 43
1.0
 76
     1
 77
     6
 78
     2
 67
     8
 79
     3
170
     0
171
     0
290
     0
174
     0
 93
        5
 44
0.0
173
     0
291
     0
 45
0.0
1001
ACAD
1000
AcDbSavedByObjectVersion
1070
     0
  0
VISUALSTYLE
  5
DE4
102
{ACAD_XDICTIONARY
360
E4F
102
}
102
{ACAD_REACTORS
330
DD0
102
}
330
DD0
100
AcDbVisualStyle
  2
Shaded with edges
 70
    26
 71
     2
 72
     2
 73
     1
 90
        2
 40
-0.6
 41
30.0
 62
     5
 63
     7
 74
     1
 91
       10
 64
     7
 65
   257
 75
     2
175
     1
 42
1.0
 92
        8
 66
   257
 43
1.0
 76
     1
 77
     6
 78
     2
 67
     7
 79
     3
170
     0
171
     0
290
     0
174
     0
 93
        5
 44
0.0
173
     0
291
     0
 45
0.0
1001
ACAD
1000
AcDbSavedByObjectVersion
1070
     0
  0
VISUALSTYLE
  5
DE1
102
{ACAD_XDICTIONARY
360
E49
102
}
102
{ACAD_REACTORS
330
DD0
102
}
330
DD0
100
AcDbVisualStyle
  2
Shades of Gray
 70
    23
 71
     2
 72
     2
 73
     3
 90
        0
 40
-0.6
 41
-30.0
 62
     5
 63
     7
 74
     2
 91
        2
 64
     7
 65
     7
 75
     1
175
     1
 42
40.0
 92
        8
 66
     7
 43
1.0
 76
     1
 77
     6
 78
     2
 67
     7
 79
     3
170
     0
171
     0
290
     0
174
     0
 93
        1
 44
0.0
173
     0
291
     0
 45
0.0
1001
ACAD
1000
AcDbSavedByObjectVersion
1070
     0
  0
VISUALSTYLE
  5
DE2
102
{ACAD_XDICTIONARY
360
E4B
102
}
102
{ACAD_REACTORS
330
DD0
102
}
330
DD0
100
AcDbVisualStyle
  2
Sketchy
 70
    24
 71
     1
 72
     2
 73
     2
 90
        0
 40
-0.6
 41
-30.0
 62
     5
 63
     7
 74
     2
 91
        2
 64
     7
 65
     7
 75
     1
175
     1
 42
40.0
 92
       11
 66
     7
 43
1.0
 76
     1
 77
     6
 78
     2
 67
     7
 79
     6
170
     0
171
     0
290
     0
174
     0
 93
        1
 44
0.0
173
     0
291
     0
 45
0.0
1001
ACAD
1000
AcDbSavedByObjectVersion
1070
     0
  0
VISUALSTYLE
  5
DDD
102
{ACAD_XDICTIONARY
360
E41
102
}
102
{ACAD_REACTORS
330
DD0
102
}
330
DD0
100
AcDbVisualStyle
  2
Thicken
 70
    13
 71
     2
 72
     2
 73
     0
 90
        0
 40
-0.6
 41
-30.0
 62
     5
 63
     7
 74
     1
 91
        4
 64
     7
 65
   257
 75
     1
175
     1
 42
1.0
 92
       12
 66
     7
 43
1.0
 76
     1
 77
     6
 78
     2
 67
     7
 79
     5
170
     0
171
     0
290
     0
174
     0
 93
        1
 44
0.0
173
     0
291
     1
 45
0.0
1001
ACAD
1000
AcDbSavedByObjectVersion
1070
     0
  0
VISUALSTYLE
  5
DD7
102
{ACAD_XDICTIONARY
360
E35
102
}
102
{ACAD_REACTORS
330
DD0
102
}
330
DD0
100
AcDbVisualStyle
  2
Wireframe
 70
     5
 71
     0
 72
     2
 73
     0
 90
        0
 40
-0.6
 41
-30.0
 62
     5
 63
     7
 74
     1
 91
        4
 64
     7
 65
   257
 75
     1
175
     1
 42
1.0
 92
        0
 66
   257
 43
1.0
 76
     1
 77
     6
 78
     2
 67
     7
 79
     3
170
     0
171
     0
290
     0
174
     0
 93
        1
 44
0.0
173
     0
291
     0
 45
0.0
1001
ACAD
1000
AcDbSavedByObjectVersion
1070
     0
  0
VISUALSTYLE
  5
DE3
102
{ACAD_XDICTIONARY
360
E4D
102
}
102
{ACAD_REACTORS
330
DD0
102
}
330
DD0
100
AcDbVisualStyle
  2
X-Ray
 70
    25
 71
     2
 72
     2
 73
     1
 90
        1
 40
0.5
 41
-30.0
 62
     5
 63
     7
 74
     1
 91
        0
 64
     7
 65
   257
 75
     1
175
     1
 42
1.0
 92
        8
 66
     7
 43
1.0
 76
     1
 77
     6
 78
     2
 67
     7
 79
     3
170
     0
171
     0
290
     0
174
     0
 93
       13
 44
0.0
173
     0
291
     0
 45
0.0
1001
ACAD
1000
AcDbSavedByObjectVersion
1070
     0
  0
DICTIONARYVAR
  5
E1C
102
{ACAD_REACTORS
330
E17
102
}
330
E17
100
DictionaryVariables
280
     0
  1
1:1
  0
DICTIONARYVAR
  5
E19
102
{ACAD_REACTORS
330
E17
102
}
330
E17
100
DictionaryVariables
280
     0
  1
STANDARD
  0
DICTIONARYVAR
  5
E18
102
{ACAD_REACTORS
330
E17
102
}
330
E17
100
DictionaryVariables
280
     0
  1
STANDARD
  0
DICTIONARYVAR
  5
E1A
102
{ACAD_REACTORS
330
E17
102
}
330
E17
100
DictionaryVariables
280
     0
  1
Imperial24
  0
DICTIONARYVAR
  5
E1B
102
{ACAD_REACTORS
330
E17
102
}
330
E17
100
DictionaryVariables
280
     0
  1
Imperial24
  0
DICTIONARYVAR
  5
E1F
102
{ACAD_REACTORS
330
E17
102
}
330
E17
100
DictionaryVariables
280
     0
  1
1
  0
DICTIONARYVAR
  5
E1E
102
{ACAD_REACTORS
330
E17
102
}
330
E17
100
DictionaryVariables
280
     0
  1
0
  0
DICTIONARYVAR
  5
E1D
102
{ACAD_REACTORS
330
E17
102
}
330
E17
100
DictionaryVariables
280
     0
  1
127
  0
DICTIONARYVAR
  5
E20
102
{ACAD_REACTORS
330
E17
102
}
330
E17
100
DictionaryVariables
280
     0
  1
2
  0
DICTIONARY
  5
E5D
330
E03
100
AcDbDictionary
280
     1
281
     1
  3
ACAD_XREC_ROUNDTRIP
360
E5E
  0
DICTIONARY
  5
E5F
330
E04
100
AcDbDictionary
280
     1
281
     1
  3
ACAD_XREC_ROUNDTRIP
360
E60
  0
DICTIONARY
  5
E61
330
E05
100
AcDbDictionary
280
     1
281
     1
  3
ACAD_XREC_ROUNDTRIP
360
E62
  0
DICTIONARY
  5
DC1
330
DC0
100
AcDbDictionary
280
     1
281
     1
  3
ACAD_XREC_ROUNDTRIP
360
E27
  3
BUMPTILE
360
DC3
  3
DIFFUSETILE
360
DC2
  3
OPACITYTILE
360
DC6
  3
REFLECTIONTILE
360
DC5
  3
REFRACTIONTILE
360
DC7
  3
SPECULARTILE
360
DC4
  0
DICTIONARY
  5
DB9
330
DB8
100
AcDbDictionary
280
     1
281
     1
  3
ACAD_XREC_ROUNDTRIP
360
E26
  3
BUMPTILE
360
DBB
  3
DIFFUSETILE
360
DBA
  3
OPACITYTILE
360
DBE
  3
REFLECTIONTILE
360
DBD
  3
REFRACTIONTILE
360
DBF
  3
SPECULARTILE
360
DBC
  0
DICTIONARY
  5
DC9
330
DC8
100
AcDbDictionary
280
     1
281
     1
  3
ACAD_XREC_ROUNDTRIP
360
E28
  3
BUMPTILE
360
DCB
  3
DIFFUSETILE
360
DCA
  3
OPACITYTILE
360
DCE
  3
REFLECTIONTILE
360
DCD
  3
REFRACTIONTILE
360
DCF
  3
SPECULARTILE
360
DCC
  0
DICTIONARY
  5
E5B
330
E01
100
AcDbDictionary
280
     1
281
     1
  3
ACAD_XREC_ROUNDTRIP
360
E5C
  0
DICTIONARY
  5
E22
330
DEB
100
AcDbDictionary
280
     1
281
     1
  3
ACAD_ROUNDTRIP_2008_TABLESTYLE_CELLSTYLEMAP
360
E23
  3
ACAD_XREC_ROUNDTRIP
360
E59
  0
DICTIONARY
  5
E33
330
DD6
100
AcDbDictionary
280
     1
281
     1
  3
ACAD_XREC_ROUNDTRIP
360
E34
  0
DICTIONARY
  5
E31
330
DD5
100
AcDbDictionary
280
     1
281
     1
  3
ACAD_XREC_ROUNDTRIP
360
E32
  0
DICTIONARY
  5
E3F
330
DDC
100
AcDbDictionary
280
     1
281
     1
  3
ACAD_XREC_ROUNDTRIP
360
E40
  0
DICTIONARY
  5
E47
330
DE0
100
AcDbDictionary
280
     1
281
     1
  3
ACAD_XREC_ROUNDTRIP
360
E48
  0
DICTIONARY
  5
E39
330
DD9
100
AcDbDictionary
280
     1
281
     1
  3
ACAD_XREC_ROUNDTRIP
360
E3A
  0
DICTIONARY
  5
E3D
330
DDB
100
AcDbDictionary
280
     1
281
     1
  3
ACAD_XREC_ROUNDTRIP
360
E3E
  0
DICTIONARY
  5
E57
330
DE8
100
AcDbDictionary
280
     1
281
     1
  3
ACAD_XREC_ROUNDTRIP
360
E58
  0
DICTIONARY
  5
E45
330
DDF
100
AcDbDictionary
280
     1
281
     1
  3
ACAD_XREC_ROUNDTRIP
360
E46
  0
DICTIONARY
  5
E29
330
DD1
100
AcDbDictionary
280
     1
281
     1
  3
ACAD_XREC_ROUNDTRIP
360
E2A
  0
DICTIONARY
  5
E2B
330
DD2
100
AcDbDictionary
280
     1
281
     1
  3
ACAD_XREC_ROUNDTRIP
360
E2C
  0
DICTIONARY
  5
E2D
330
DD3
100
AcDbDictionary
280
     1
281
     1
  3
ACAD_XREC_ROUNDTRIP
360
E2E
  0
DICTIONARY
  5
E2F
330
DD4
100
AcDbDictionary
280
     1
281
     1
  3
ACAD_XREC_ROUNDTRIP
360
E30
  0
DICTIONARY
  5
E37
330
DD8
100
AcDbDictionary
280
     1
281
     1
  3
ACAD_XREC_ROUNDTRIP
360
E38
  0
DICTIONARY
  5
E53
330
DE6
100
AcDbDictionary
280
     1
281
     1
  3
ACAD_XREC_ROUNDTRIP
360
E54
  0
DICTIONARY
  5
E43
330
DDE
100
AcDbDictionary
280
     1
281
     1
  3
ACAD_XREC_ROUNDTRIP
360
E44
  0
DICTIONARY
  5
E55
330
DE7
100
AcDbDictionary
280
     1
281
     1
  3
ACAD_XREC_ROUNDTRIP
360
E56
  0
DICTIONARY
  5
E3B
330
DDA
100
AcDbDictionary
280
     1
281
     1
  3
ACAD_XREC_ROUNDTRIP
360
E3C
  0
DICTIONARY
  5
E51
330
DE5
100
AcDbDictionary
280
     1
281
     1
  3
ACAD_XREC_ROUNDTRIP
360
E52
  0
DICTIONARY
  5
E4F
330
DE4
100
AcDbDictionary
280
     1
281
     1
  3
ACAD_XREC_ROUNDTRIP
360
E50
  0
DICTIONARY
  5
E49
330
DE1
100
AcDbDictionary
280
     1
281
     1
  3
ACAD_XREC_ROUNDTRIP
360
E4A
  0
DICTIONARY
  5
E4B
330
DE2
100
AcDbDictionary
280
     1
281
     1
  3
ACAD_XREC_ROUNDTRIP
360
E4C
  0
DICTIONARY
  5
E41
330
DDD
100
AcDbDictionary
280
     1
281
     1
  3
ACAD_XREC_ROUNDTRIP
360
E42
  0
DICTIONARY
  5
E35
330
DD7
100
AcDbDictionary
280
     1
281
     1
  3
ACAD_XREC_ROUNDTRIP
360
E36
  0
DICTIONARY
  5
E4D
330
DE3
100
AcDbDictionary
280
     1
281
     1
  3
ACAD_XREC_ROUNDTRIP
360
E4E
  0
XRECORD
  5
E5E
102
{ACAD_REACTORS
330
E5D
102
}
330
E5D
100
AcDbXrecord
280
     1
102
DISPLAYNAME
  1
Imperial24
102
FLAGS
 90
        0
  0
XRECORD
  5
E60
102
{ACAD_REACTORS
330
E5F
102
}
330
E5F
100
AcDbXrecord
280
     1
102
SHADEPLOT
 70
     0
102
SHADEPLOTRESLEVEL
 70
     2
102
SHADEPLOTCUSTOMDPI
 70
   300
  0
XRECORD
  5
E62
102
{ACAD_REACTORS
330
E61
102
}
330
E61
100
AcDbXrecord
280
     1
102
SHADEPLOT
 70
     0
102
SHADEPLOTRESLEVEL
 70
     2
102
SHADEPLOTCUSTOMDPI
 70
   300
  0
XRECORD
  5
E27
102
{ACAD_REACTORS
330
DC1
102
}
330
DC1
100
AcDbXrecord
280
     1
102
MATERIAL
148
0.0
149
0.0
149
0.0
 93
        0
 94
      127
282
     0
 72
     0
 77
     0
171
     0
175
     0
179
     0
273
     0
  0
XRECORD
  5
DC3
102
{ACAD_REACTORS
330
DC1
102
}
330
DC1
100
AcDbXrecord
280
     1
270
     1
271
     1
  0
XRECORD
  5
DC2
102
{ACAD_REACTORS
330
DC1
102
}
330
DC1
100
AcDbXrecord
280
     1
270
     1
271
     1
  0
XRECORD
  5
DC6
102
{ACAD_REACTORS
330
DC1
102
}
330
DC1
100
AcDbXrecord
280
     1
270
     1
271
     1
  0
XRECORD
  5
DC5
102
{ACAD_REACTORS
330
DC1
102
}
330
DC1
100
AcDbXrecord
280
     1
270
     1
271
     1
  0
XRECORD
  5
DC7
102
{ACAD_REACTORS
330
DC1
102
}
330
DC1
100
AcDbXrecord
280
     1
270
     1
271
     1
  0
XRECORD
  5
DC4
102
{ACAD_REACTORS
330
DC1
102
}
330
DC1
100
AcDbXrecord
280
     1
270
     1
271
     1
  0
XRECORD
  5
E26
102
{ACAD_REACTORS
330
DB9
102
}
330
DB9
100
AcDbXrecord
280
     1
102
MATERIAL
148
0.0
149
0.0
149
0.0
 93
        0
 94
      127
282
     0
 72
     0
 77
     0
171
     0
175
     0
179
     0
273
     0
  0
XRECORD
  5
DBB
102
{ACAD_REACTORS
330
DB9
102
}
330
DB9
100
AcDbXrecord
280
     1
270
     1
271
     1
  0
XRECORD
  5
DBA
102
{ACAD_REACTORS
330
DB9
102
}
330
DB9
100
AcDbXrecord
280
     1
270
     1
271
     1
  0
XRECORD
  5
DBE
102
{ACAD_REACTORS
330
DB9
102
}
330
DB9
100
AcDbXrecord
280
     1
270
     1
271
     1
  0
XRECORD
  5
DBD
102
{ACAD_REACTORS
330
DB9
102
}
330
DB9
100
AcDbXrecord
280
     1
270
     1
271
     1
  0
XRECORD
  5
DBF
102
{ACAD_REACTORS
330
DB9
102
}
330
DB9
100
AcDbXrecord
280
     1
270
     1
271
     1
  0
XRECORD
  5
DBC
102
{ACAD_REACTORS
330
DB9
102
}
330
DB9
100
AcDbXrecord
280
     1
270
     1
271
     1
  0
XRECORD
  5
E28
102
{ACAD_REACTORS
330
DC9
102
}
330
DC9
100
AcDbXrecord
280
     1
102
MATERIAL
148
0.0
149
0.0
149
0.0
 93
        0
 94
      127
282
     0
 72
     0
 77
     0
171
     0
175
     0
179
     0
273
     0
  0
XRECORD
  5
DCB
102
{ACAD_REACTORS
330
DC9
102
}
330
DC9
100
AcDbXrecord
280
     1
270
     1
271
     1
  0
XRECORD
  5
DCA
102
{ACAD_REACTORS
330
DC9
102
}
330
DC9
100
AcDbXrecord
280
     1
270
     1
271
     1
  0
XRECORD
  5
DCE
102
{ACAD_REACTORS
330
DC9
102
}
330
DC9
100
AcDbXrecord
280
     1
270
     1
271
     1
  0
XRECORD
  5
DCD
102
{ACAD_REACTORS
330
DC9
102
}
330
DC9
100
AcDbXrecord
280
     1
270
     1
271
     1
  0
XRECORD
  5
DCF
102
{ACAD_REACTORS
330
DC9
102
}
330
DC9
100
AcDbXrecord
280
     1
270
     1
271
     1
  0
XRECORD
  5
DCC
102
{ACAD_REACTORS
330
DC9
102
}
330
DC9
100
AcDbXrecord
280
     1
270
     1
271
     1
  0
XRECORD
  5
E5C
102
{ACAD_REACTORS
330
E5B
102
}
330
E5B
100
AcDbXrecord
280
     1
102
DISPLAYNAME
  1
Imperial24
102
FLAGS
 90
        0
  0
CELLSTYLEMAP
  5
E23
102
{ACAD_REACTORS
330
E22
102
}
330
E22
100
AcDbCellStyleMap
 90
        3
300
CELLSTYLE
  1
TABLEFORMAT_BEGIN
 90
        5
170
     1
 91
        0
 92
    32768
 62
   257
 93
        1
300
CONTENTFORMAT
  1
CONTENTFORMAT_BEGIN
 90
        0
 91
        0
 92
      512
 93
        0
300

 40
0.0
140
1.0
 94
        5
 62
     0
340
F
144
0.25
309
CONTENTFORMAT_END
171
     0
 94
        0
309
TABLEFORMAT_END
  1
CELLSTYLE_BEGIN
 90
        1
 91
        1
300
_TITLE
309
CELLSTYLE_END
300
CELLSTYLE
  1
TABLEFORMAT_BEGIN
 90
        5
170
     1
 91
        0
 92
        0
 62
   257
 93
        1
300
CONTENTFORMAT
  1
CONTENTFORMAT_BEGIN
 90
        0
 91
        0
 92
      512
 93
        0
300

 40
0.0
140
1.0
 94
        5
 62
     0
340
F
144
0.18
309
CONTENTFORMAT_END
171
     0
 94
        0
309
TABLEFORMAT_END
  1
CELLSTYLE_BEGIN
 90
        2
 91
        1
300
_HEADER
309
CELLSTYLE_END
300
CELLSTYLE
  1
TABLEFORMAT_BEGIN
 90
        5
170
     1
 91
        0
 92
        0
 62
   257
 93
        1
300
CONTENTFORMAT
  1
CONTENTFORMAT_BEGIN
 90
        0
 91
        0
 92
      512
 93
        0
300

 40
0.0
140
1.0
 94
        2
 62
     0
340
F
144
0.18
309
CONTENTFORMAT_END
171
     0
 94
        0
309
TABLEFORMAT_END
  1
CELLSTYLE_BEGIN
 90
        3
 91
        2
300
_DATA
309
CELLSTYLE_END
  0
XRECORD
  5
E59
102
{ACAD_REACTORS
330
E22
102
}
330
E22
100
AcDbXrecord
280
     1
102
ACAD_ROUNDTRIP_PRE2007_TABLESTYLE
 90
      512
 91
        0
  1

 92
      512
 93
        0
  2

 94
      512
 95
        0
  3

  0
XRECORD
  5
E34
102
{ACAD_REACTORS
330
E33
102
}
330
E33
100
AcDbXrecord
280
     1
102
RTVSPost2010Prop28
280
     1
102
RTVSPost2010PropOp28
 70
     1
102
RTVSPost2010Prop29
280
     1
102
RTVSPost2010PropOp29
 70
     1
102
RTVSPost2010Prop30
280
     0
102
RTVSPost2010PropOp30
 70
     1
102
RTVSPost2010Prop31
280
     0
102
RTVSPost2010PropOp31
 70
     1
102
RTVSPost2010Prop32
280
     0
102
RTVSPost2010PropOp32
 70
     1
102
RTVSPost2010Prop33
280
     0
102
RTVSPost2010PropOp33
 70
     1
102
RTVSPost2010Prop34
280
     0
102
RTVSPost2010PropOp34
 70
     1
102
RTVSPost2010Prop35
280
     0
102
RTVSPost2010PropOp35
 70
     1
102
RTVSPost2010Prop36
280
     0
102
RTVSPost2010PropOp36
 70
     1
102
RTVSPost2010Prop37
 90
       50
102
RTVSPost2010PropOp37
 70
     1
102
RTVSPost2010Prop38
140
0.0
102
RTVSPost2010PropOp38
 70
     1
102
RTVSPost2010Prop39
140
1.0
102
RTVSPost2010PropOp39
 70
     1
102
RTVSPost2010Prop40
 90
        0
102
RTVSPost2010PropOp40
 70
     1
102
RTVSPost2010Prop41ColorIndex
 90
       18
102
RTVSPost2010Prop41ColorRGB
 90
        0
102
RTVSPost2010PropOp41
 70
     1
102
RTVSPost2010Prop42
 90
       50
102
RTVSPost2010PropOp42
 70
     1
102
RTVSPost2010Prop43
 90
        3
102
RTVSPost2010PropOp43
 70
     1
102
RTVSPost2010Prop44ColorIndex
 90
        5
102
RTVSPost2010Prop44ColorRGB
 90
      255
102
RTVSPost2010PropOp44
 70
     1
102
RTVSPost2010Prop45
280
     0
102
RTVSPost2010PropOp45
 70
     1
102
RTVSPost2010Prop46
 90
       50
102
RTVSPost2010PropOp46
 70
     1
102
RTVSPost2010Prop47
 90
       50
102
RTVSPost2010PropOp47
 70
     1
102
RTVSPost2010Prop48
 90
       50
102
RTVSPost2010PropOp48
 70
     1
102
RTVSPost2010Prop49
280
     0
102
RTVSPost2010PropOp49
 70
     1
102
RTVSPost2010Prop50
 90
       50
102
RTVSPost2010PropOp50
 70
     1
102
RTVSPost2010Prop51ColorIndex
 90
      256
102
RTVSPost2010Prop51ColorRGB
 90
-16777216
102
RTVSPost2010PropOp51
 70
     0
102
RTVSPost2010Prop52
140
1.0
102
RTVSPost2010PropOp52
 70
     0
102
RTVSPost2010Prop53
 90
        2
102
RTVSPost2010PropOp53
 70
     1
102
RTVSPost2010Prop54
  1
strokes_ogs.tif
102
RTVSPost2010PropOp54
 70
     1
102
RTVSPost2010Prop55
280
     0
102
RTVSPost2010PropOp55
 70
     1
102
RTVSPost2010Prop56
140
1.0
102
RTVSPost2010PropOp56
 70
     1
102
RTVSPost2010Prop57
140
1.0
102
RTVSPost2010PropOp57
 70
     1
102
RTVSPropertyOp0
 70
     1
102
RTVSPropertyOp1
 70
     1
102
RTVSPropertyOp2
 70
     1
102
RTVSPropertyOp3
 70
     1
102
RTVSPropertyOp4
 70
     1
102
RTVSPropertyOp5
 70
     1
102
RTVSPropertyOp6
 70
     1
102
RTVSPropertyOp7
 70
     1
102
RTVSPropertyOp8
 70
     1
102
RTVSPropertyOp9
 70
     1
102
RTVSPropertyOp10
 70
     1
102
RTVSPropertyOp11
 70
     1
102
RTVSPropertyOp12
 70
     1
102
RTVSPropertyOp13
 70
     1
102
RTVSPropertyOp14
 70
     1
102
RTVSPropertyOp15
 70
     1
102
RTVSPropertyOp16
 70
     1
102
RTVSPropertyOp17
 70
     1
102
RTVSPropertyOp18
 70
     1
102
RTVSPropertyOp19
 70
     1
102
RTVSPropertyOp20
 70
     1
102
RTVSPropertyOp21
 70
     1
102
RTVSPropertyOp22
 70
     1
102
RTVSPropertyOp23
 70
     1
102
RTVSPropertyOp24
 70
     1
102
RTVSPropertyOp25
 70
     1
102
RTVSPropertyOp26
 70
     1
102
RTVSPropertyOp27
 70
     1
102
RTVSPropertyOp28
 70
     1
102
RTVSPropertyOp29
 70
     1
102
RTVSPropertyOp30
 70
     1
102
RTVSPropertyOp31
 70
     1
102
RTVSPropertyOp32
 70
     1
102
RTVSPropertyOp33
 70
     1
102
RTVSPropertyOp34
 70
     1
102
RTVSPropertyOp35
 70
     1
102
RTVSPropertyOp36
 70
     1
102
RTVSPropertyOp37
 70
     1
102
RTVSPropertyOp38
 70
     1
102
RTVSPropertyOp39
 70
     1
102
RTVSPropertyOp40
 70
     1
102
RTVSPropertyOp41
 70
     1
102
RTVSPropertyOp42
 70
     1
102
RTVSPropertyOp43
 70
     1
102
RTVSPropertyOp44
 70
     1
102
RTVSPropertyOp45
 70
     1
102
RTVSPropertyOp46
 70
     1
102
RTVSPropertyOp47
 70
     1
102
RTVSPropertyOp48
 70
     1
102
RTVSPropertyOp49
 70
     1
102
RTVSPropertyOp50
 70
     1
102
RTVSPropertyOp51
 70
     0
102
RTVSPropertyOp52
 70
     0
102
RTVSPropertyOp53
 70
     1
102
RTVSPropertyOp54
 70
     1
102
RTVSPropertyOp55
 70
     1
102
RTVSPropertyOp56
 70
     1
102
RTVSPropertyOp57
 70
     1
102
RTVSPropertyOp58
 70
     1
102
RTVSPropertyOp59
 70
     1
102
RTVSPropertyOp60
 70
     1
102
RTVSPropertyOp61
 70
     1
102
RTVSPropertyOp62
 70
     1
  0
XRECORD
  5
E32
102
{ACAD_REACTORS
330
E31
102
}
330
E31
100
AcDbXrecord
280
     1
102
RTVSPost2010Prop28
280
     0
102
RTVSPost2010PropOp28
 70
     1
102
RTVSPost2010Prop29
280
     1
102
RTVSPost2010PropOp29
 70
     1
102
RTVSPost2010Prop30
280
     1
102
RTVSPost2010PropOp30
 70
     1
102
RTVSPost2010Prop31
280
     0
102
RTVSPost2010PropOp31
 70
     1
102
RTVSPost2010Prop32
280
     0
102
RTVSPost2010PropOp32
 70
     1
102
RTVSPost2010Prop33
280
     0
102
RTVSPost2010PropOp33
 70
     1
102
RTVSPost2010Prop34
280
     0
102
RTVSPost2010PropOp34
 70
     1
102
RTVSPost2010Prop35
280
     0
102
RTVSPost2010PropOp35
 70
     1
102
RTVSPost2010Prop36
280
     0
102
RTVSPost2010PropOp36
 70
     1
102
RTVSPost2010Prop37
 90
       50
102
RTVSPost2010PropOp37
 70
     1
102
RTVSPost2010Prop38
140
0.0
102
RTVSPost2010PropOp38
 70
     1
102
RTVSPost2010Prop39
140
1.0
102
RTVSPost2010PropOp39
 70
     1
102
RTVSPost2010Prop40
 90
        0
102
RTVSPost2010PropOp40
 70
     1
102
RTVSPost2010Prop41ColorIndex
 90
       18
102
RTVSPost2010Prop41ColorRGB
 90
        0
102
RTVSPost2010PropOp41
 70
     1
102
RTVSPost2010Prop42
 90
       50
102
RTVSPost2010PropOp42
 70
     1
102
RTVSPost2010Prop43
 90
        3
102
RTVSPost2010PropOp43
 70
     1
102
RTVSPost2010Prop44ColorIndex
 90
        5
102
RTVSPost2010Prop44ColorRGB
 90
      255
102
RTVSPost2010PropOp44
 70
     1
102
RTVSPost2010Prop45
280
     0
102
RTVSPost2010PropOp45
 70
     1
102
RTVSPost2010Prop46
 90
       50
102
RTVSPost2010PropOp46
 70
     1
102
RTVSPost2010Prop47
 90
       50
102
RTVSPost2010PropOp47
 70
     1
102
RTVSPost2010Prop48
 90
       50
102
RTVSPost2010PropOp48
 70
     1
102
RTVSPost2010Prop49
280
     0
102
RTVSPost2010PropOp49
 70
     1
102
RTVSPost2010Prop50
 90
       50
102
RTVSPost2010PropOp50
 70
     1
102
RTVSPost2010Prop51ColorIndex
 90
      256
102
RTVSPost2010Prop51ColorRGB
 90
-16777216
102
RTVSPost2010PropOp51
 70
     0
102
RTVSPost2010Prop52
140
1.0
102
RTVSPost2010PropOp52
 70
     0
102
RTVSPost2010Prop53
 90
        2
102
RTVSPost2010PropOp53
 70
     1
102
RTVSPost2010Prop54
  1
strokes_ogs.tif
102
RTVSPost2010PropOp54
 70
     1
102
RTVSPost2010Prop55
280
     0
102
RTVSPost2010PropOp55
 70
     1
102
RTVSPost2010Prop56
140
1.0
102
RTVSPost2010PropOp56
 70
     1
102
RTVSPost2010Prop57
140
1.0
102
RTVSPost2010PropOp57
 70
     1
102
RTVSPropertyOp0
 70
     1
102
RTVSPropertyOp1
 70
     1
102
RTVSPropertyOp2
 70
     1
102
RTVSPropertyOp3
 70
     1
102
RTVSPropertyOp4
 70
     1
102
RTVSPropertyOp5
 70
     1
102
RTVSPropertyOp6
 70
     1
102
RTVSPropertyOp7
 70
     1
102
RTVSPropertyOp8
 70
     1
102
RTVSPropertyOp9
 70
     1
102
RTVSPropertyOp10
 70
     1
102
RTVSPropertyOp11
 70
     1
102
RTVSPropertyOp12
 70
     1
102
RTVSPropertyOp13
 70
     1
102
RTVSPropertyOp14
 70
     1
102
RTVSPropertyOp15
 70
     1
102
RTVSPropertyOp16
 70
     1
102
RTVSPropertyOp17
 70
     1
102
RTVSPropertyOp18
 70
     1
102
RTVSPropertyOp19
 70
     1
102
RTVSPropertyOp20
 70
     1
102
RTVSPropertyOp21
 70
     1
102
RTVSPropertyOp22
 70
     1
102
RTVSPropertyOp23
 70
     1
102
RTVSPropertyOp24
 70
     1
102
RTVSPropertyOp25
 70
     1
102
RTVSPropertyOp26
 70
     1
102
RTVSPropertyOp27
 70
     1
102
RTVSPropertyOp28
 70
     1
102
RTVSPropertyOp29
 70
     1
102
RTVSPropertyOp30
 70
     1
102
RTVSPropertyOp31
 70
     1
102
RTVSPropertyOp32
 70
     1
102
RTVSPropertyOp33
 70
     1
102
RTVSPropertyOp34
 70
     1
102
RTVSPropertyOp35
 70
     1
102
RTVSPropertyOp36
 70
     1
102
RTVSPropertyOp37
 70
     1
102
RTVSPropertyOp38
 70
     1
102
RTVSPropertyOp39
 70
     1
102
RTVSPropertyOp40
 70
     1
102
RTVSPropertyOp41
 70
     1
102
RTVSPropertyOp42
 70
     1
102
RTVSPropertyOp43
 70
     1
102
RTVSPropertyOp44
 70
     1
102
RTVSPropertyOp45
 70
     1
102
RTVSPropertyOp46
 70
     1
102
RTVSPropertyOp47
 70
     1
102
RTVSPropertyOp48
 70
     1
102
RTVSPropertyOp49
 70
     1
102
RTVSPropertyOp50
 70
     1
102
RTVSPropertyOp51
 70
     0
102
RTVSPropertyOp52
 70
     0
102
RTVSPropertyOp53
 70
     1
102
RTVSPropertyOp54
 70
     1
102
RTVSPropertyOp55
 70
     1
102
RTVSPropertyOp56
 70
     1
102
RTVSPropertyOp57
 70
     1
102
RTVSPropertyOp58
 70
     1
102
RTVSPropertyOp59
 70
     1
102
RTVSPropertyOp60
 70
     1
102
RTVSPropertyOp61
 70
     1
102
RTVSPropertyOp62
 70
     1
  0
XRECORD
  5
E40
102
{ACAD_REACTORS
330
E3F
102
}
330
E3F
100
AcDbXrecord
280
     1
102
RTVSPost2010Prop28
280
     0
102
RTVSPost2010PropOp28
 70
     1
102
RTVSPost2010Prop29
280
     1
102
RTVSPost2010PropOp29
 70
     1
102
RTVSPost2010Prop30
280
     1
102
RTVSPost2010PropOp30
 70
     1
102
RTVSPost2010Prop31
280
     0
102
RTVSPost2010PropOp31
 70
     1
102
RTVSPost2010Prop32
280
     0
102
RTVSPost2010PropOp32
 70
     1
102
RTVSPost2010Prop33
280
     0
102
RTVSPost2010PropOp33
 70
     1
102
RTVSPost2010Prop34
280
     0
102
RTVSPost2010PropOp34
 70
     1
102
RTVSPost2010Prop35
280
     0
102
RTVSPost2010PropOp35
 70
     1
102
RTVSPost2010Prop36
280
     0
102
RTVSPost2010PropOp36
 70
     1
102
RTVSPost2010Prop37
 90
       50
102
RTVSPost2010PropOp37
 70
     1
102
RTVSPost2010Prop38
140
0.0
102
RTVSPost2010PropOp38
 70
     1
102
RTVSPost2010Prop39
140
1.0
102
RTVSPost2010PropOp39
 70
     1
102
RTVSPost2010Prop40
 90
        0
102
RTVSPost2010PropOp40
 70
     1
102
RTVSPost2010Prop41ColorIndex
 90
       18
102
RTVSPost2010Prop41ColorRGB
 90
        0
102
RTVSPost2010PropOp41
 70
     1
102
RTVSPost2010Prop42
 90
       50
102
RTVSPost2010PropOp42
 70
     1
102
RTVSPost2010Prop43
 90
        3
102
RTVSPost2010PropOp43
 70
     1
102
RTVSPost2010Prop44ColorIndex
 90
        5
102
RTVSPost2010Prop44ColorRGB
 90
      255
102
RTVSPost2010PropOp44
 70
     1
102
RTVSPost2010Prop45
280
     0
102
RTVSPost2010PropOp45
 70
     1
102
RTVSPost2010Prop46
 90
       50
102
RTVSPost2010PropOp46
 70
     1
102
RTVSPost2010Prop47
 90
       50
102
RTVSPost2010PropOp47
 70
     1
102
RTVSPost2010Prop48
 90
       50
102
RTVSPost2010PropOp48
 70
     1
102
RTVSPost2010Prop49
280
     0
102
RTVSPost2010PropOp49
 70
     1
102
RTVSPost2010Prop50
 90
       50
102
RTVSPost2010PropOp50
 70
     1
102
RTVSPost2010Prop51ColorIndex
 90
      256
102
RTVSPost2010Prop51ColorRGB
 90
-16777216
102
RTVSPost2010PropOp51
 70
     0
102
RTVSPost2010Prop52
140
1.0
102
RTVSPost2010PropOp52
 70
     0
102
RTVSPost2010Prop53
 90
        2
102
RTVSPost2010PropOp53
 70
     1
102
RTVSPost2010Prop54
  1
strokes_ogs.tif
102
RTVSPost2010PropOp54
 70
     1
102
RTVSPost2010Prop55
280
     0
102
RTVSPost2010PropOp55
 70
     1
102
RTVSPost2010Prop56
140
1.0
102
RTVSPost2010PropOp56
 70
     1
102
RTVSPost2010Prop57
140
1.0
102
RTVSPost2010PropOp57
 70
     1
102
RTVSPropertyOp0
 70
     1
102
RTVSPropertyOp1
 70
     1
102
RTVSPropertyOp2
 70
     1
102
RTVSPropertyOp3
 70
     1
102
RTVSPropertyOp4
 70
     1
102
RTVSPropertyOp5
 70
     1
102
RTVSPropertyOp6
 70
     1
102
RTVSPropertyOp7
 70
     1
102
RTVSPropertyOp8
 70
     1
102
RTVSPropertyOp9
 70
     1
102
RTVSPropertyOp10
 70
     1
102
RTVSPropertyOp11
 70
     1
102
RTVSPropertyOp12
 70
     1
102
RTVSPropertyOp13
 70
     1
102
RTVSPropertyOp14
 70
     1
102
RTVSPropertyOp15
 70
     1
102
RTVSPropertyOp16
 70
     1
102
RTVSPropertyOp17
 70
     1
102
RTVSPropertyOp18
 70
     1
102
RTVSPropertyOp19
 70
     1
102
RTVSPropertyOp20
 70
     1
102
RTVSPropertyOp21
 70
     1
102
RTVSPropertyOp22
 70
     1
102
RTVSPropertyOp23
 70
     1
102
RTVSPropertyOp24
 70
     1
102
RTVSPropertyOp25
 70
     1
102
RTVSPropertyOp26
 70
     1
102
RTVSPropertyOp27
 70
     1
102
RTVSPropertyOp28
 70
     1
102
RTVSPropertyOp29
 70
     1
102
RTVSPropertyOp30
 70
     1
102
RTVSPropertyOp31
 70
     1
102
RTVSPropertyOp32
 70
     1
102
RTVSPropertyOp33
 70
     1
102
RTVSPropertyOp34
 70
     1
102
RTVSPropertyOp35
 70
     1
102
RTVSPropertyOp36
 70
     1
102
RTVSPropertyOp37
 70
     1
102
RTVSPropertyOp38
 70
     1
102
RTVSPropertyOp39
 70
     1
102
RTVSPropertyOp40
 70
     1
102
RTVSPropertyOp41
 70
     1
102
RTVSPropertyOp42
 70
     1
102
RTVSPropertyOp43
 70
     1
102
RTVSPropertyOp44
 70
     1
102
RTVSPropertyOp45
 70
     1
102
RTVSPropertyOp46
 70
     1
102
RTVSPropertyOp47
 70
     1
102
RTVSPropertyOp48
 70
     1
102
RTVSPropertyOp49
 70
     1
102
RTVSPropertyOp50
 70
     1
102
RTVSPropertyOp51
 70
     0
102
RTVSPropertyOp52
 70
     0
102
RTVSPropertyOp53
 70
     1
102
RTVSPropertyOp54
 70
     1
102
RTVSPropertyOp55
 70
     1
102
RTVSPropertyOp56
 70
     1
102
RTVSPropertyOp57
 70
     1
102
RTVSPropertyOp58
 70
     1
102
RTVSPropertyOp59
 70
     1
102
RTVSPropertyOp60
 70
     1
102
RTVSPropertyOp61
 70
     1
102
RTVSPropertyOp62
 70
     1
  0
XRECORD
  5
E48
102
{ACAD_REACTORS
330
E47
102
}
330
E47
100
AcDbXrecord
280
     1
102
RTVSPost2010Prop28
280
     0
102
RTVSPost2010PropOp28
 70
     1
102
RTVSPost2010Prop29
280
     1
102
RTVSPost2010PropOp29
 70
     1
102
RTVSPost2010Prop30
280
     1
102
RTVSPost2010PropOp30
 70
     1
102
RTVSPost2010Prop31
280
     0
102
RTVSPost2010PropOp31
 70
     1
102
RTVSPost2010Prop32
280
     0
102
RTVSPost2010PropOp32
 70
     1
102
RTVSPost2010Prop33
280
     0
102
RTVSPost2010PropOp33
 70
     1
102
RTVSPost2010Prop34
280
     0
102
RTVSPost2010PropOp34
 70
     1
102
RTVSPost2010Prop35
280
     0
102
RTVSPost2010PropOp35
 70
     1
102
RTVSPost2010Prop36
280
     0
102
RTVSPost2010PropOp36
 70
     1
102
RTVSPost2010Prop37
 90
       50
102
RTVSPost2010PropOp37
 70
     1
102
RTVSPost2010Prop38
140
0.0
102
RTVSPost2010PropOp38
 70
     1
102
RTVSPost2010Prop39
140
1.0
102
RTVSPost2010PropOp39
 70
     1
102
RTVSPost2010Prop40
 90
        0
102
RTVSPost2010PropOp40
 70
     1
102
RTVSPost2010Prop41ColorIndex
 90
       18
102
RTVSPost2010Prop41ColorRGB
 90
        0
102
RTVSPost2010PropOp41
 70
     1
102
RTVSPost2010Prop42
 90
       50
102
RTVSPost2010PropOp42
 70
     1
102
RTVSPost2010Prop43
 90
        3
102
RTVSPost2010PropOp43
 70
     1
102
RTVSPost2010Prop44ColorIndex
 90
        5
102
RTVSPost2010Prop44ColorRGB
 90
      255
102
RTVSPost2010PropOp44
 70
     1
102
RTVSPost2010Prop45
280
     0
102
RTVSPost2010PropOp45
 70
     1
102
RTVSPost2010Prop46
 90
       50
102
RTVSPost2010PropOp46
 70
     1
102
RTVSPost2010Prop47
 90
       50
102
RTVSPost2010PropOp47
 70
     1
102
RTVSPost2010Prop48
 90
       50
102
RTVSPost2010PropOp48
 70
     1
102
RTVSPost2010Prop49
280
     0
102
RTVSPost2010PropOp49
 70
     1
102
RTVSPost2010Prop50
 90
       50
102
RTVSPost2010PropOp50
 70
     1
102
RTVSPost2010Prop51ColorIndex
 90
      256
102
RTVSPost2010Prop51ColorRGB
 90
-16777216
102
RTVSPost2010PropOp51
 70
     0
102
RTVSPost2010Prop52
140
1.0
102
RTVSPost2010PropOp52
 70
     0
102
RTVSPost2010Prop53
 90
        2
102
RTVSPost2010PropOp53
 70
     1
102
RTVSPost2010Prop54
  1
strokes_ogs.tif
102
RTVSPost2010PropOp54
 70
     1
102
RTVSPost2010Prop55
280
     0
102
RTVSPost2010PropOp55
 70
     1
102
RTVSPost2010Prop56
140
1.0
102
RTVSPost2010PropOp56
 70
     1
102
RTVSPost2010Prop57
140
1.0
102
RTVSPost2010PropOp57
 70
     1
102
RTVSPropertyOp0
 70
     1
102
RTVSPropertyOp1
 70
     1
102
RTVSPropertyOp2
 70
     1
102
RTVSPropertyOp3
 70
     1
102
RTVSPropertyOp4
 70
     1
102
RTVSPropertyOp5
 70
     1
102
RTVSPropertyOp6
 70
     1
102
RTVSPropertyOp7
 70
     1
102
RTVSPropertyOp8
 70
     1
102
RTVSPropertyOp9
 70
     1
102
RTVSPropertyOp10
 70
     1
102
RTVSPropertyOp11
 70
     1
102
RTVSPropertyOp12
 70
     1
102
RTVSPropertyOp13
 70
     1
102
RTVSPropertyOp14
 70
     1
102
RTVSPropertyOp15
 70
     1
102
RTVSPropertyOp16
 70
     1
102
RTVSPropertyOp17
 70
     1
102
RTVSPropertyOp18
 70
     1
102
RTVSPropertyOp19
 70
     1
102
RTVSPropertyOp20
 70
     1
102
RTVSPropertyOp21
 70
     1
102
RTVSPropertyOp22
 70
     1
102
RTVSPropertyOp23
 70
     1
102
RTVSPropertyOp24
 70
     1
102
RTVSPropertyOp25
 70
     1
102
RTVSPropertyOp26
 70
     1
102
RTVSPropertyOp27
 70
     1
102
RTVSPropertyOp28
 70
     1
102
RTVSPropertyOp29
 70
     1
102
RTVSPropertyOp30
 70
     1
102
RTVSPropertyOp31
 70
     1
102
RTVSPropertyOp32
 70
     1
102
RTVSPropertyOp33
 70
     1
102
RTVSPropertyOp34
 70
     1
102
RTVSPropertyOp35
 70
     1
102
RTVSPropertyOp36
 70
     1
102
RTVSPropertyOp37
 70
     1
102
RTVSPropertyOp38
 70
     1
102
RTVSPropertyOp39
 70
     1
102
RTVSPropertyOp40
 70
     1
102
RTVSPropertyOp41
 70
     1
102
RTVSPropertyOp42
 70
     1
102
RTVSPropertyOp43
 70
     1
102
RTVSPropertyOp44
 70
     1
102
RTVSPropertyOp45
 70
     1
102
RTVSPropertyOp46
 70
     1
102
RTVSPropertyOp47
 70
     1
102
RTVSPropertyOp48
 70
     1
102
RTVSPropertyOp49
 70
     1
102
RTVSPropertyOp50
 70
     1
102
RTVSPropertyOp51
 70
     0
102
RTVSPropertyOp52
 70
     0
102
RTVSPropertyOp53
 70
     1
102
RTVSPropertyOp54
 70
     1
102
RTVSPropertyOp55
 70
     1
102
RTVSPropertyOp56
 70
     1
102
RTVSPropertyOp57
 70
     1
102
RTVSPropertyOp58
 70
     1
102
RTVSPropertyOp59
 70
     1
102
RTVSPropertyOp60
 70
     1
102
RTVSPropertyOp61
 70
     1
102
RTVSPropertyOp62
 70
     1
  0
XRECORD
  5
E3A
102
{ACAD_REACTORS
330
E39
102
}
330
E39
100
AcDbXrecord
280
     1
102
RTVSPost2010Prop28
280
     0
102
RTVSPost2010PropOp28
 70
     1
102
RTVSPost2010Prop29
280
     1
102
RTVSPost2010PropOp29
 70
     1
102
RTVSPost2010Prop30
280
     1
102
RTVSPost2010PropOp30
 70
     1
102
RTVSPost2010Prop31
280
     0
102
RTVSPost2010PropOp31
 70
     1
102
RTVSPost2010Prop32
280
     0
102
RTVSPost2010PropOp32
 70
     1
102
RTVSPost2010Prop33
280
     0
102
RTVSPost2010PropOp33
 70
     1
102
RTVSPost2010Prop34
280
     0
102
RTVSPost2010PropOp34
 70
     1
102
RTVSPost2010Prop35
280
     0
102
RTVSPost2010PropOp35
 70
     1
102
RTVSPost2010Prop36
280
     0
102
RTVSPost2010PropOp36
 70
     1
102
RTVSPost2010Prop37
 90
       50
102
RTVSPost2010PropOp37
 70
     1
102
RTVSPost2010Prop38
140
0.0
102
RTVSPost2010PropOp38
 70
     1
102
RTVSPost2010Prop39
140
1.0
102
RTVSPost2010PropOp39
 70
     1
102
RTVSPost2010Prop40
 90
        0
102
RTVSPost2010PropOp40
 70
     1
102
RTVSPost2010Prop41ColorIndex
 90
       18
102
RTVSPost2010Prop41ColorRGB
 90
        0
102
RTVSPost2010PropOp41
 70
     1
102
RTVSPost2010Prop42
 90
       50
102
RTVSPost2010PropOp42
 70
     1
102
RTVSPost2010Prop43
 90
        3
102
RTVSPost2010PropOp43
 70
     1
102
RTVSPost2010Prop44ColorIndex
 90
        5
102
RTVSPost2010Prop44ColorRGB
 90
      255
102
RTVSPost2010PropOp44
 70
     1
102
RTVSPost2010Prop45
280
     0
102
RTVSPost2010PropOp45
 70
     1
102
RTVSPost2010Prop46
 90
       50
102
RTVSPost2010PropOp46
 70
     1
102
RTVSPost2010Prop47
 90
       50
102
RTVSPost2010PropOp47
 70
     1
102
RTVSPost2010Prop48
 90
       50
102
RTVSPost2010PropOp48
 70
     1
102
RTVSPost2010Prop49
280
     0
102
RTVSPost2010PropOp49
 70
     1
102
RTVSPost2010Prop50
 90
       50
102
RTVSPost2010PropOp50
 70
     1
102
RTVSPost2010Prop51ColorIndex
 90
      256
102
RTVSPost2010Prop51ColorRGB
 90
-16777216
102
RTVSPost2010PropOp51
 70
     0
102
RTVSPost2010Prop52
140
1.0
102
RTVSPost2010PropOp52
 70
     0
102
RTVSPost2010Prop53
 90
        2
102
RTVSPost2010PropOp53
 70
     1
102
RTVSPost2010Prop54
  1
strokes_ogs.tif
102
RTVSPost2010PropOp54
 70
     1
102
RTVSPost2010Prop55
280
     0
102
RTVSPost2010PropOp55
 70
     1
102
RTVSPost2010Prop56
140
1.0
102
RTVSPost2010PropOp56
 70
     1
102
RTVSPost2010Prop57
140
1.0
102
RTVSPost2010PropOp57
 70
     1
102
RTVSPropertyOp0
 70
     1
102
RTVSPropertyOp1
 70
     1
102
RTVSPropertyOp2
 70
     1
102
RTVSPropertyOp3
 70
     1
102
RTVSPropertyOp4
 70
     1
102
RTVSPropertyOp5
 70
     1
102
RTVSPropertyOp6
 70
     1
102
RTVSPropertyOp7
 70
     1
102
RTVSPropertyOp8
 70
     1
102
RTVSPropertyOp9
 70
     1
102
RTVSPropertyOp10
 70
     1
102
RTVSPropertyOp11
 70
     1
102
RTVSPropertyOp12
 70
     1
102
RTVSPropertyOp13
 70
     1
102
RTVSPropertyOp14
 70
     1
102
RTVSPropertyOp15
 70
     1
102
RTVSPropertyOp16
 70
     1
102
RTVSPropertyOp17
 70
     1
102
RTVSPropertyOp18
 70
     1
102
RTVSPropertyOp19
 70
     1
102
RTVSPropertyOp20
 70
     1
102
RTVSPropertyOp21
 70
     1
102
RTVSPropertyOp22
 70
     1
102
RTVSPropertyOp23
 70
     1
102
RTVSPropertyOp24
 70
     1
102
RTVSPropertyOp25
 70
     1
102
RTVSPropertyOp26
 70
     1
102
RTVSPropertyOp27
 70
     1
102
RTVSPropertyOp28
 70
     1
102
RTVSPropertyOp29
 70
     1
102
RTVSPropertyOp30
 70
     1
102
RTVSPropertyOp31
 70
     1
102
RTVSPropertyOp32
 70
     1
102
RTVSPropertyOp33
 70
     1
102
RTVSPropertyOp34
 70
     1
102
RTVSPropertyOp35
 70
     1
102
RTVSPropertyOp36
 70
     1
102
RTVSPropertyOp37
 70
     1
102
RTVSPropertyOp38
 70
     1
102
RTVSPropertyOp39
 70
     1
102
RTVSPropertyOp40
 70
     1
102
RTVSPropertyOp41
 70
     1
102
RTVSPropertyOp42
 70
     1
102
RTVSPropertyOp43
 70
     1
102
RTVSPropertyOp44
 70
     1
102
RTVSPropertyOp45
 70
     1
102
RTVSPropertyOp46
 70
     1
102
RTVSPropertyOp47
 70
     1
102
RTVSPropertyOp48
 70
     1
102
RTVSPropertyOp49
 70
     1
102
RTVSPropertyOp50
 70
     1
102
RTVSPropertyOp51
 70
     0
102
RTVSPropertyOp52
 70
     0
102
RTVSPropertyOp53
 70
     1
102
RTVSPropertyOp54
 70
     1
102
RTVSPropertyOp55
 70
     1
102
RTVSPropertyOp56
 70
     1
102
RTVSPropertyOp57
 70
     1
102
RTVSPropertyOp58
 70
     1
102
RTVSPropertyOp59
 70
     1
102
RTVSPropertyOp60
 70
     1
102
RTVSPropertyOp61
 70
     1
102
RTVSPropertyOp62
 70
     1
  0
XRECORD
  5
E3E
102
{ACAD_REACTORS
330
E3D
102
}
330
E3D
100
AcDbXrecord
280
     1
102
RTVSPost2010Prop28
280
     0
102
RTVSPost2010PropOp28
 70
     1
102
RTVSPost2010Prop29
280
     1
102
RTVSPost2010PropOp29
 70
     1
102
RTVSPost2010Prop30
280
     1
102
RTVSPost2010PropOp30
 70
     1
102
RTVSPost2010Prop31
280
     0
102
RTVSPost2010PropOp31
 70
     1
102
RTVSPost2010Prop32
280
     0
102
RTVSPost2010PropOp32
 70
     1
102
RTVSPost2010Prop33
280
     0
102
RTVSPost2010PropOp33
 70
     1
102
RTVSPost2010Prop34
280
     0
102
RTVSPost2010PropOp34
 70
     1
102
RTVSPost2010Prop35
280
     0
102
RTVSPost2010PropOp35
 70
     1
102
RTVSPost2010Prop36
280
     0
102
RTVSPost2010PropOp36
 70
     1
102
RTVSPost2010Prop37
 90
       50
102
RTVSPost2010PropOp37
 70
     1
102
RTVSPost2010Prop38
140
0.0
102
RTVSPost2010PropOp38
 70
     1
102
RTVSPost2010Prop39
140
1.0
102
RTVSPost2010PropOp39
 70
     1
102
RTVSPost2010Prop40
 90
        0
102
RTVSPost2010PropOp40
 70
     1
102
RTVSPost2010Prop41ColorIndex
 90
       18
102
RTVSPost2010Prop41ColorRGB
 90
        0
102
RTVSPost2010PropOp41
 70
     1
102
RTVSPost2010Prop42
 90
       50
102
RTVSPost2010PropOp42
 70
     1
102
RTVSPost2010Prop43
 90
        3
102
RTVSPost2010PropOp43
 70
     1
102
RTVSPost2010Prop44ColorIndex
 90
        5
102
RTVSPost2010Prop44ColorRGB
 90
      255
102
RTVSPost2010PropOp44
 70
     1
102
RTVSPost2010Prop45
280
     0
102
RTVSPost2010PropOp45
 70
     1
102
RTVSPost2010Prop46
 90
       50
102
RTVSPost2010PropOp46
 70
     1
102
RTVSPost2010Prop47
 90
       50
102
RTVSPost2010PropOp47
 70
     1
102
RTVSPost2010Prop48
 90
       50
102
RTVSPost2010PropOp48
 70
     1
102
RTVSPost2010Prop49
280
     0
102
RTVSPost2010PropOp49
 70
     1
102
RTVSPost2010Prop50
 90
       50
102
RTVSPost2010PropOp50
 70
     1
102
RTVSPost2010Prop51ColorIndex
 90
      256
102
RTVSPost2010Prop51ColorRGB
 90
-16777216
102
RTVSPost2010PropOp51
 70
     0
102
RTVSPost2010Prop52
140
1.0
102
RTVSPost2010PropOp52
 70
     0
102
RTVSPost2010Prop53
 90
        2
102
RTVSPost2010PropOp53
 70
     1
102
RTVSPost2010Prop54
  1
strokes_ogs.tif
102
RTVSPost2010PropOp54
 70
     1
102
RTVSPost2010Prop55
280
     0
102
RTVSPost2010PropOp55
 70
     1
102
RTVSPost2010Prop56
140
1.0
102
RTVSPost2010PropOp56
 70
     1
102
RTVSPost2010Prop57
140
1.0
102
RTVSPost2010PropOp57
 70
     1
102
RTVSPropertyOp0
 70
     1
102
RTVSPropertyOp1
 70
     1
102
RTVSPropertyOp2
 70
     1
102
RTVSPropertyOp3
 70
     1
102
RTVSPropertyOp4
 70
     1
102
RTVSPropertyOp5
 70
     1
102
RTVSPropertyOp6
 70
     1
102
RTVSPropertyOp7
 70
     1
102
RTVSPropertyOp8
 70
     1
102
RTVSPropertyOp9
 70
     1
102
RTVSPropertyOp10
 70
     1
102
RTVSPropertyOp11
 70
     1
102
RTVSPropertyOp12
 70
     1
102
RTVSPropertyOp13
 70
     1
102
RTVSPropertyOp14
 70
     1
102
RTVSPropertyOp15
 70
     1
102
RTVSPropertyOp16
 70
     1
102
RTVSPropertyOp17
 70
     1
102
RTVSPropertyOp18
 70
     1
102
RTVSPropertyOp19
 70
     1
102
RTVSPropertyOp20
 70
     1
102
RTVSPropertyOp21
 70
     1
102
RTVSPropertyOp22
 70
     1
102
RTVSPropertyOp23
 70
     1
102
RTVSPropertyOp24
 70
     1
102
RTVSPropertyOp25
 70
     1
102
RTVSPropertyOp26
 70
     1
102
RTVSPropertyOp27
 70
     1
102
RTVSPropertyOp28
 70
     1
102
RTVSPropertyOp29
 70
     1
102
RTVSPropertyOp30
 70
     1
102
RTVSPropertyOp31
 70
     1
102
RTVSPropertyOp32
 70
     1
102
RTVSPropertyOp33
 70
     1
102
RTVSPropertyOp34
 70
     1
102
RTVSPropertyOp35
 70
     1
102
RTVSPropertyOp36
 70
     1
102
RTVSPropertyOp37
 70
     1
102
RTVSPropertyOp38
 70
     1
102
RTVSPropertyOp39
 70
     1
102
RTVSPropertyOp40
 70
     1
102
RTVSPropertyOp41
 70
     1
102
RTVSPropertyOp42
 70
     1
102
RTVSPropertyOp43
 70
     1
102
RTVSPropertyOp44
 70
     1
102
RTVSPropertyOp45
 70
     1
102
RTVSPropertyOp46
 70
     1
102
RTVSPropertyOp47
 70
     1
102
RTVSPropertyOp48
 70
     1
102
RTVSPropertyOp49
 70
     1
102
RTVSPropertyOp50
 70
     1
102
RTVSPropertyOp51
 70
     0
102
RTVSPropertyOp52
 70
     0
102
RTVSPropertyOp53
 70
     1
102
RTVSPropertyOp54
 70
     1
102
RTVSPropertyOp55
 70
     1
102
RTVSPropertyOp56
 70
     1
102
RTVSPropertyOp57
 70
     1
102
RTVSPropertyOp58
 70
     1
102
RTVSPropertyOp59
 70
     1
102
RTVSPropertyOp60
 70
     1
102
RTVSPropertyOp61
 70
     1
102
RTVSPropertyOp62
 70
     1
  0
XRECORD
  5
E58
102
{ACAD_REACTORS
330
E57
102
}
330
E57
100
AcDbXrecord
280
     1
102
RTVSPost2010Prop28
280
     0
102
RTVSPost2010PropOp28
 70
     1
102
RTVSPost2010Prop29
280
     1
102
RTVSPost2010PropOp29
 70
     1
102
RTVSPost2010Prop30
280
     1
102
RTVSPost2010PropOp30
 70
     1
102
RTVSPost2010Prop31
280
     0
102
RTVSPost2010PropOp31
 70
     1
102
RTVSPost2010Prop32
280
     0
102
RTVSPost2010PropOp32
 70
     1
102
RTVSPost2010Prop33
280
     0
102
RTVSPost2010PropOp33
 70
     1
102
RTVSPost2010Prop34
280
     0
102
RTVSPost2010PropOp34
 70
     1
102
RTVSPost2010Prop35
280
     0
102
RTVSPost2010PropOp35
 70
     1
102
RTVSPost2010Prop36
280
     0
102
RTVSPost2010PropOp36
 70
     1
102
RTVSPost2010Prop37
 90
       50
102
RTVSPost2010PropOp37
 70
     0
102
RTVSPost2010Prop38
140
0.0
102
RTVSPost2010PropOp38
 70
     0
102
RTVSPost2010Prop39
140
1.0
102
RTVSPost2010PropOp39
 70
     0
102
RTVSPost2010Prop40
 90
        0
102
RTVSPost2010PropOp40
 70
     0
102
RTVSPost2010Prop41ColorIndex
 90
       18
102
RTVSPost2010Prop41ColorRGB
 90
        0
102
RTVSPost2010PropOp41
 70
     0
102
RTVSPost2010Prop42
 90
       50
102
RTVSPost2010PropOp42
 70
     0
102
RTVSPost2010Prop43
 90
        3
102
RTVSPost2010PropOp43
 70
     0
102
RTVSPost2010Prop44ColorIndex
 90
        5
102
RTVSPost2010Prop44ColorRGB
 90
      255
102
RTVSPost2010PropOp44
 70
     0
102
RTVSPost2010Prop45
280
     0
102
RTVSPost2010PropOp45
 70
     1
102
RTVSPost2010Prop46
 90
       50
102
RTVSPost2010PropOp46
 70
     0
102
RTVSPost2010Prop47
 90
       50
102
RTVSPost2010PropOp47
 70
     0
102
RTVSPost2010Prop48
 90
       50
102
RTVSPost2010PropOp48
 70
     0
102
RTVSPost2010Prop49
280
     0
102
RTVSPost2010PropOp49
 70
     1
102
RTVSPost2010Prop50
 90
       50
102
RTVSPost2010PropOp50
 70
     0
102
RTVSPost2010Prop51ColorIndex
 90
      256
102
RTVSPost2010Prop51ColorRGB
 90
-16777216
102
RTVSPost2010PropOp51
 70
     0
102
RTVSPost2010Prop52
140
1.0
102
RTVSPost2010PropOp52
 70
     0
102
RTVSPost2010Prop53
 90
        2
102
RTVSPost2010PropOp53
 70
     0
102
RTVSPost2010Prop54
  1
strokes_ogs.tif
102
RTVSPost2010PropOp54
 70
     0
102
RTVSPost2010Prop55
280
     0
102
RTVSPost2010PropOp55
 70
     1
102
RTVSPost2010Prop56
140
1.0
102
RTVSPost2010PropOp56
 70
     0
102
RTVSPost2010Prop57
140
1.0
102
RTVSPost2010PropOp57
 70
     0
102
RTVSPropertyOp0
 70
     0
102
RTVSPropertyOp1
 70
     0
102
RTVSPropertyOp2
 70
     0
102
RTVSPropertyOp3
 70
     0
102
RTVSPropertyOp4
 70
     0
102
RTVSPropertyOp5
 70
     0
102
RTVSPropertyOp6
 70
     0
102
RTVSPropertyOp7
 70
     0
102
RTVSPropertyOp8
 70
     0
102
RTVSPropertyOp9
 70
     0
102
RTVSPropertyOp10
 70
     0
102
RTVSPropertyOp11
 70
     0
102
RTVSPropertyOp12
 70
     0
102
RTVSPropertyOp13
 70
     0
102
RTVSPropertyOp14
 70
     2
102
RTVSPropertyOp15
 70
     0
102
RTVSPropertyOp16
 70
     0
102
RTVSPropertyOp17
 70
     0
102
RTVSPropertyOp18
 70
     0
102
RTVSPropertyOp19
 70
     0
102
RTVSPropertyOp20
 70
     0
102
RTVSPropertyOp21
 70
     0
102
RTVSPropertyOp22
 70
     0
102
RTVSPropertyOp23
 70
     0
102
RTVSPropertyOp24
 70
     0
102
RTVSPropertyOp25
 70
     0
102
RTVSPropertyOp26
 70
     0
102
RTVSPropertyOp27
 70
     0
102
RTVSPropertyOp28
 70
     1
102
RTVSPropertyOp29
 70
     1
102
RTVSPropertyOp30
 70
     1
102
RTVSPropertyOp31
 70
     1
102
RTVSPropertyOp32
 70
     1
102
RTVSPropertyOp33
 70
     1
102
RTVSPropertyOp34
 70
     1
102
RTVSPropertyOp35
 70
     1
102
RTVSPropertyOp36
 70
     1
102
RTVSPropertyOp37
 70
     0
102
RTVSPropertyOp38
 70
     0
102
RTVSPropertyOp39
 70
     0
102
RTVSPropertyOp40
 70
     0
102
RTVSPropertyOp41
 70
     0
102
RTVSPropertyOp42
 70
     0
102
RTVSPropertyOp43
 70
     0
102
RTVSPropertyOp44
 70
     0
102
RTVSPropertyOp45
 70
     1
102
RTVSPropertyOp46
 70
     0
102
RTVSPropertyOp47
 70
     0
102
RTVSPropertyOp48
 70
     0
102
RTVSPropertyOp49
 70
     1
102
RTVSPropertyOp50
 70
     0
102
RTVSPropertyOp51
 70
     0
102
RTVSPropertyOp52
 70
     0
102
RTVSPropertyOp53
 70
     0
102
RTVSPropertyOp54
 70
     0
102
RTVSPropertyOp55
 70
     1
102
RTVSPropertyOp56
 70
     0
102
RTVSPropertyOp57
 70
     0
102
RTVSPropertyOp58
 70
     0
102
RTVSPropertyOp59
 70
     0
102
RTVSPropertyOp60
 70
     0
102
RTVSPropertyOp61
 70
     0
102
RTVSPropertyOp62
 70
     0
  0
XRECORD
  5
E46
102
{ACAD_REACTORS
330
E45
102
}
330
E45
100
AcDbXrecord
280
     1
102
RTVSPost2010Prop28
280
     0
102
RTVSPost2010PropOp28
 70
     1
102
RTVSPost2010Prop29
280
     1
102
RTVSPost2010PropOp29
 70
     1
102
RTVSPost2010Prop30
280
     1
102
RTVSPost2010PropOp30
 70
     1
102
RTVSPost2010Prop31
280
     0
102
RTVSPost2010PropOp31
 70
     1
102
RTVSPost2010Prop32
280
     0
102
RTVSPost2010PropOp32
 70
     1
102
RTVSPost2010Prop33
280
     0
102
RTVSPost2010PropOp33
 70
     1
102
RTVSPost2010Prop34
280
     0
102
RTVSPost2010PropOp34
 70
     1
102
RTVSPost2010Prop35
280
     0
102
RTVSPost2010PropOp35
 70
     1
102
RTVSPost2010Prop36
280
     0
102
RTVSPost2010PropOp36
 70
     1
102
RTVSPost2010Prop37
 90
       50
102
RTVSPost2010PropOp37
 70
     1
102
RTVSPost2010Prop38
140
0.0
102
RTVSPost2010PropOp38
 70
     1
102
RTVSPost2010Prop39
140
1.0
102
RTVSPost2010PropOp39
 70
     1
102
RTVSPost2010Prop40
 90
        0
102
RTVSPost2010PropOp40
 70
     1
102
RTVSPost2010Prop41ColorIndex
 90
       18
102
RTVSPost2010Prop41ColorRGB
 90
        0
102
RTVSPost2010PropOp41
 70
     1
102
RTVSPost2010Prop42
 90
       50
102
RTVSPost2010PropOp42
 70
     1
102
RTVSPost2010Prop43
 90
        3
102
RTVSPost2010PropOp43
 70
     1
102
RTVSPost2010Prop44ColorIndex
 90
        5
102
RTVSPost2010Prop44ColorRGB
 90
      255
102
RTVSPost2010PropOp44
 70
     1
102
RTVSPost2010Prop45
280
     0
102
RTVSPost2010PropOp45
 70
     1
102
RTVSPost2010Prop46
 90
       50
102
RTVSPost2010PropOp46
 70
     1
102
RTVSPost2010Prop47
 90
       50
102
RTVSPost2010PropOp47
 70
     1
102
RTVSPost2010Prop48
 90
       50
102
RTVSPost2010PropOp48
 70
     1
102
RTVSPost2010Prop49
280
     0
102
RTVSPost2010PropOp49
 70
     1
102
RTVSPost2010Prop50
 90
       50
102
RTVSPost2010PropOp50
 70
     1
102
RTVSPost2010Prop51ColorIndex
 90
      256
102
RTVSPost2010Prop51ColorRGB
 90
-16777216
102
RTVSPost2010PropOp51
 70
     0
102
RTVSPost2010Prop52
140
1.0
102
RTVSPost2010PropOp52
 70
     0
102
RTVSPost2010Prop53
 90
        2
102
RTVSPost2010PropOp53
 70
     1
102
RTVSPost2010Prop54
  1
strokes_ogs.tif
102
RTVSPost2010PropOp54
 70
     1
102
RTVSPost2010Prop55
280
     0
102
RTVSPost2010PropOp55
 70
     1
102
RTVSPost2010Prop56
140
1.0
102
RTVSPost2010PropOp56
 70
     1
102
RTVSPost2010Prop57
140
1.0
102
RTVSPost2010PropOp57
 70
     1
102
RTVSPropertyOp0
 70
     1
102
RTVSPropertyOp1
 70
     1
102
RTVSPropertyOp2
 70
     1
102
RTVSPropertyOp3
 70
     1
102
RTVSPropertyOp4
 70
     1
102
RTVSPropertyOp5
 70
     1
102
RTVSPropertyOp6
 70
     1
102
RTVSPropertyOp7
 70
     1
102
RTVSPropertyOp8
 70
     1
102
RTVSPropertyOp9
 70
     1
102
RTVSPropertyOp10
 70
     1
102
RTVSPropertyOp11
 70
     1
102
RTVSPropertyOp12
 70
     1
102
RTVSPropertyOp13
 70
     1
102
RTVSPropertyOp14
 70
     1
102
RTVSPropertyOp15
 70
     1
102
RTVSPropertyOp16
 70
     1
102
RTVSPropertyOp17
 70
     1
102
RTVSPropertyOp18
 70
     1
102
RTVSPropertyOp19
 70
     1
102
RTVSPropertyOp20
 70
     1
102
RTVSPropertyOp21
 70
     1
102
RTVSPropertyOp22
 70
     1
102
RTVSPropertyOp23
 70
     1
102
RTVSPropertyOp24
 70
     1
102
RTVSPropertyOp25
 70
     1
102
RTVSPropertyOp26
 70
     1
102
RTVSPropertyOp27
 70
     1
102
RTVSPropertyOp28
 70
     1
102
RTVSPropertyOp29
 70
     1
102
RTVSPropertyOp30
 70
     1
102
RTVSPropertyOp31
 70
     1
102
RTVSPropertyOp32
 70
     1
102
RTVSPropertyOp33
 70
     1
102
RTVSPropertyOp34
 70
     1
102
RTVSPropertyOp35
 70
     1
102
RTVSPropertyOp36
 70
     1
102
RTVSPropertyOp37
 70
     1
102
RTVSPropertyOp38
 70
     1
102
RTVSPropertyOp39
 70
     1
102
RTVSPropertyOp40
 70
     1
102
RTVSPropertyOp41
 70
     1
102
RTVSPropertyOp42
 70
     1
102
RTVSPropertyOp43
 70
     1
102
RTVSPropertyOp44
 70
     1
102
RTVSPropertyOp45
 70
     1
102
RTVSPropertyOp46
 70
     1
102
RTVSPropertyOp47
 70
     1
102
RTVSPropertyOp48
 70
     1
102
RTVSPropertyOp49
 70
     1
102
RTVSPropertyOp50
 70
     1
102
RTVSPropertyOp51
 70
     0
102
RTVSPropertyOp52
 70
     0
102
RTVSPropertyOp53
 70
     1
102
RTVSPropertyOp54
 70
     1
102
RTVSPropertyOp55
 70
     1
102
RTVSPropertyOp56
 70
     1
102
RTVSPropertyOp57
 70
     1
102
RTVSPropertyOp58
 70
     1
102
RTVSPropertyOp59
 70
     1
102
RTVSPropertyOp60
 70
     1
102
RTVSPropertyOp61
 70
     1
102
RTVSPropertyOp62
 70
     1
  0
XRECORD
  5
E2A
102
{ACAD_REACTORS
330
E29
102
}
330
E29
100
AcDbXrecord
280
     1
102
RTVSPost2010Prop28
280
     0
102
RTVSPost2010PropOp28
 70
     1
102
RTVSPost2010Prop29
280
     1
102
RTVSPost2010PropOp29
 70
     1
102
RTVSPost2010Prop30
280
     1
102
RTVSPost2010PropOp30
 70
     1
102
RTVSPost2010Prop31
280
     0
102
RTVSPost2010PropOp31
 70
     1
102
RTVSPost2010Prop32
280
     0
102
RTVSPost2010PropOp32
 70
     1
102
RTVSPost2010Prop33
280
     0
102
RTVSPost2010PropOp33
 70
     1
102
RTVSPost2010Prop34
280
     0
102
RTVSPost2010PropOp34
 70
     1
102
RTVSPost2010Prop35
280
     0
102
RTVSPost2010PropOp35
 70
     1
102
RTVSPost2010Prop36
280
     0
102
RTVSPost2010PropOp36
 70
     1
102
RTVSPost2010Prop37
 90
       50
102
RTVSPost2010PropOp37
 70
     1
102
RTVSPost2010Prop38
140
0.0
102
RTVSPost2010PropOp38
 70
     1
102
RTVSPost2010Prop39
140
1.0
102
RTVSPost2010PropOp39
 70
     1
102
RTVSPost2010Prop40
 90
        0
102
RTVSPost2010PropOp40
 70
     1
102
RTVSPost2010Prop41ColorIndex
 90
       18
102
RTVSPost2010Prop41ColorRGB
 90
        0
102
RTVSPost2010PropOp41
 70
     1
102
RTVSPost2010Prop42
 90
       50
102
RTVSPost2010PropOp42
 70
     1
102
RTVSPost2010Prop43
 90
        3
102
RTVSPost2010PropOp43
 70
     1
102
RTVSPost2010Prop44ColorIndex
 90
        5
102
RTVSPost2010Prop44ColorRGB
 90
      255
102
RTVSPost2010PropOp44
 70
     1
102
RTVSPost2010Prop45
280
     0
102
RTVSPost2010PropOp45
 70
     1
102
RTVSPost2010Prop46
 90
       50
102
RTVSPost2010PropOp46
 70
     1
102
RTVSPost2010Prop47
 90
       50
102
RTVSPost2010PropOp47
 70
     1
102
RTVSPost2010Prop48
 90
       50
102
RTVSPost2010PropOp48
 70
     1
102
RTVSPost2010Prop49
280
     0
102
RTVSPost2010PropOp49
 70
     1
102
RTVSPost2010Prop50
 90
       50
102
RTVSPost2010PropOp50
 70
     1
102
RTVSPost2010Prop51ColorIndex
 90
      256
102
RTVSPost2010Prop51ColorRGB
 90
-16777216
102
RTVSPost2010PropOp51
 70
     0
102
RTVSPost2010Prop52
140
1.0
102
RTVSPost2010PropOp52
 70
     0
102
RTVSPost2010Prop53
 90
        2
102
RTVSPost2010PropOp53
 70
     1
102
RTVSPost2010Prop54
  1
strokes_ogs.tif
102
RTVSPost2010PropOp54
 70
     1
102
RTVSPost2010Prop55
280
     0
102
RTVSPost2010PropOp55
 70
     1
102
RTVSPost2010Prop56
140
1.0
102
RTVSPost2010PropOp56
 70
     1
102
RTVSPost2010Prop57
140
1.0
102
RTVSPost2010PropOp57
 70
     1
102
RTVSPropertyOp0
 70
     1
102
RTVSPropertyOp1
 70
     1
102
RTVSPropertyOp2
 70
     1
102
RTVSPropertyOp3
 70
     1
102
RTVSPropertyOp4
 70
     1
102
RTVSPropertyOp5
 70
     1
102
RTVSPropertyOp6
 70
     1
102
RTVSPropertyOp7
 70
     1
102
RTVSPropertyOp8
 70
     1
102
RTVSPropertyOp9
 70
     1
102
RTVSPropertyOp10
 70
     1
102
RTVSPropertyOp11
 70
     1
102
RTVSPropertyOp12
 70
     1
102
RTVSPropertyOp13
 70
     1
102
RTVSPropertyOp14
 70
     1
102
RTVSPropertyOp15
 70
     1
102
RTVSPropertyOp16
 70
     1
102
RTVSPropertyOp17
 70
     1
102
RTVSPropertyOp18
 70
     1
102
RTVSPropertyOp19
 70
     1
102
RTVSPropertyOp20
 70
     1
102
RTVSPropertyOp21
 70
     1
102
RTVSPropertyOp22
 70
     1
102
RTVSPropertyOp23
 70
     1
102
RTVSPropertyOp24
 70
     1
102
RTVSPropertyOp25
 70
     1
102
RTVSPropertyOp26
 70
     1
102
RTVSPropertyOp27
 70
     1
102
RTVSPropertyOp28
 70
     1
102
RTVSPropertyOp29
 70
     1
102
RTVSPropertyOp30
 70
     1
102
RTVSPropertyOp31
 70
     1
102
RTVSPropertyOp32
 70
     1
102
RTVSPropertyOp33
 70
     1
102
RTVSPropertyOp34
 70
     1
102
RTVSPropertyOp35
 70
     1
102
RTVSPropertyOp36
 70
     1
102
RTVSPropertyOp37
 70
     1
102
RTVSPropertyOp38
 70
     1
102
RTVSPropertyOp39
 70
     1
102
RTVSPropertyOp40
 70
     1
102
RTVSPropertyOp41
 70
     1
102
RTVSPropertyOp42
 70
     1
102
RTVSPropertyOp43
 70
     1
102
RTVSPropertyOp44
 70
     1
102
RTVSPropertyOp45
 70
     1
102
RTVSPropertyOp46
 70
     1
102
RTVSPropertyOp47
 70
     1
102
RTVSPropertyOp48
 70
     1
102
RTVSPropertyOp49
 70
     1
102
RTVSPropertyOp50
 70
     1
102
RTVSPropertyOp51
 70
     0
102
RTVSPropertyOp52
 70
     0
102
RTVSPropertyOp53
 70
     1
102
RTVSPropertyOp54
 70
     1
102
RTVSPropertyOp55
 70
     1
102
RTVSPropertyOp56
 70
     1
102
RTVSPropertyOp57
 70
     1
102
RTVSPropertyOp58
 70
     1
102
RTVSPropertyOp59
 70
     1
102
RTVSPropertyOp60
 70
     1
102
RTVSPropertyOp61
 70
     1
102
RTVSPropertyOp62
 70
     1
  0
XRECORD
  5
E2C
102
{ACAD_REACTORS
330
E2B
102
}
330
E2B
100
AcDbXrecord
280
     1
102
RTVSPost2010Prop28
280
     0
102
RTVSPost2010PropOp28
 70
     1
102
RTVSPost2010Prop29
280
     1
102
RTVSPost2010PropOp29
 70
     1
102
RTVSPost2010Prop30
280
     1
102
RTVSPost2010PropOp30
 70
     1
102
RTVSPost2010Prop31
280
     0
102
RTVSPost2010PropOp31
 70
     1
102
RTVSPost2010Prop32
280
     0
102
RTVSPost2010PropOp32
 70
     1
102
RTVSPost2010Prop33
280
     0
102
RTVSPost2010PropOp33
 70
     1
102
RTVSPost2010Prop34
280
     0
102
RTVSPost2010PropOp34
 70
     1
102
RTVSPost2010Prop35
280
     0
102
RTVSPost2010PropOp35
 70
     1
102
RTVSPost2010Prop36
280
     0
102
RTVSPost2010PropOp36
 70
     1
102
RTVSPost2010Prop37
 90
       50
102
RTVSPost2010PropOp37
 70
     1
102
RTVSPost2010Prop38
140
0.0
102
RTVSPost2010PropOp38
 70
     1
102
RTVSPost2010Prop39
140
1.0
102
RTVSPost2010PropOp39
 70
     1
102
RTVSPost2010Prop40
 90
        0
102
RTVSPost2010PropOp40
 70
     1
102
RTVSPost2010Prop41ColorIndex
 90
       18
102
RTVSPost2010Prop41ColorRGB
 90
        0
102
RTVSPost2010PropOp41
 70
     1
102
RTVSPost2010Prop42
 90
       50
102
RTVSPost2010PropOp42
 70
     1
102
RTVSPost2010Prop43
 90
        3
102
RTVSPost2010PropOp43
 70
     1
102
RTVSPost2010Prop44ColorIndex
 90
        5
102
RTVSPost2010Prop44ColorRGB
 90
      255
102
RTVSPost2010PropOp44
 70
     1
102
RTVSPost2010Prop45
280
     0
102
RTVSPost2010PropOp45
 70
     1
102
RTVSPost2010Prop46
 90
       50
102
RTVSPost2010PropOp46
 70
     1
102
RTVSPost2010Prop47
 90
       50
102
RTVSPost2010PropOp47
 70
     1
102
RTVSPost2010Prop48
 90
       50
102
RTVSPost2010PropOp48
 70
     1
102
RTVSPost2010Prop49
280
     0
102
RTVSPost2010PropOp49
 70
     1
102
RTVSPost2010Prop50
 90
       50
102
RTVSPost2010PropOp50
 70
     1
102
RTVSPost2010Prop51ColorIndex
 90
      256
102
RTVSPost2010Prop51ColorRGB
 90
-16777216
102
RTVSPost2010PropOp51
 70
     0
102
RTVSPost2010Prop52
140
1.0
102
RTVSPost2010PropOp52
 70
     0
102
RTVSPost2010Prop53
 90
        2
102
RTVSPost2010PropOp53
 70
     1
102
RTVSPost2010Prop54
  1
strokes_ogs.tif
102
RTVSPost2010PropOp54
 70
     1
102
RTVSPost2010Prop55
280
     0
102
RTVSPost2010PropOp55
 70
     1
102
RTVSPost2010Prop56
140
1.0
102
RTVSPost2010PropOp56
 70
     1
102
RTVSPost2010Prop57
140
1.0
102
RTVSPost2010PropOp57
 70
     1
102
RTVSPropertyOp0
 70
     1
102
RTVSPropertyOp1
 70
     1
102
RTVSPropertyOp2
 70
     1
102
RTVSPropertyOp3
 70
     1
102
RTVSPropertyOp4
 70
     1
102
RTVSPropertyOp5
 70
     1
102
RTVSPropertyOp6
 70
     1
102
RTVSPropertyOp7
 70
     1
102
RTVSPropertyOp8
 70
     1
102
RTVSPropertyOp9
 70
     1
102
RTVSPropertyOp10
 70
     1
102
RTVSPropertyOp11
 70
     1
102
RTVSPropertyOp12
 70
     1
102
RTVSPropertyOp13
 70
     1
102
RTVSPropertyOp14
 70
     1
102
RTVSPropertyOp15
 70
     1
102
RTVSPropertyOp16
 70
     1
102
RTVSPropertyOp17
 70
     1
102
RTVSPropertyOp18
 70
     1
102
RTVSPropertyOp19
 70
     1
102
RTVSPropertyOp20
 70
     1
102
RTVSPropertyOp21
 70
     1
102
RTVSPropertyOp22
 70
     1
102
RTVSPropertyOp23
 70
     1
102
RTVSPropertyOp24
 70
     1
102
RTVSPropertyOp25
 70
     1
102
RTVSPropertyOp26
 70
     1
102
RTVSPropertyOp27
 70
     1
102
RTVSPropertyOp28
 70
     1
102
RTVSPropertyOp29
 70
     1
102
RTVSPropertyOp30
 70
     1
102
RTVSPropertyOp31
 70
     1
102
RTVSPropertyOp32
 70
     1
102
RTVSPropertyOp33
 70
     1
102
RTVSPropertyOp34
 70
     1
102
RTVSPropertyOp35
 70
     1
102
RTVSPropertyOp36
 70
     1
102
RTVSPropertyOp37
 70
     1
102
RTVSPropertyOp38
 70
     1
102
RTVSPropertyOp39
 70
     1
102
RTVSPropertyOp40
 70
     1
102
RTVSPropertyOp41
 70
     1
102
RTVSPropertyOp42
 70
     1
102
RTVSPropertyOp43
 70
     1
102
RTVSPropertyOp44
 70
     1
102
RTVSPropertyOp45
 70
     1
102
RTVSPropertyOp46
 70
     1
102
RTVSPropertyOp47
 70
     1
102
RTVSPropertyOp48
 70
     1
102
RTVSPropertyOp49
 70
     1
102
RTVSPropertyOp50
 70
     1
102
RTVSPropertyOp51
 70
     0
102
RTVSPropertyOp52
 70
     0
102
RTVSPropertyOp53
 70
     1
102
RTVSPropertyOp54
 70
     1
102
RTVSPropertyOp55
 70
     1
102
RTVSPropertyOp56
 70
     1
102
RTVSPropertyOp57
 70
     1
102
RTVSPropertyOp58
 70
     1
102
RTVSPropertyOp59
 70
     1
102
RTVSPropertyOp60
 70
     1
102
RTVSPropertyOp61
 70
     1
102
RTVSPropertyOp62
 70
     1
  0
XRECORD
  5
E2E
102
{ACAD_REACTORS
330
E2D
102
}
330
E2D
100
AcDbXrecord
280
     1
102
RTVSPost2010Prop28
280
     0
102
RTVSPost2010PropOp28
 70
     1
102
RTVSPost2010Prop29
280
     1
102
RTVSPost2010PropOp29
 70
     1
102
RTVSPost2010Prop30
280
     1
102
RTVSPost2010PropOp30
 70
     1
102
RTVSPost2010Prop31
280
     0
102
RTVSPost2010PropOp31
 70
     1
102
RTVSPost2010Prop32
280
     0
102
RTVSPost2010PropOp32
 70
     1
102
RTVSPost2010Prop33
280
     0
102
RTVSPost2010PropOp33
 70
     1
102
RTVSPost2010Prop34
280
     0
102
RTVSPost2010PropOp34
 70
     1
102
RTVSPost2010Prop35
280
     0
102
RTVSPost2010PropOp35
 70
     1
102
RTVSPost2010Prop36
280
     0
102
RTVSPost2010PropOp36
 70
     1
102
RTVSPost2010Prop37
 90
       50
102
RTVSPost2010PropOp37
 70
     1
102
RTVSPost2010Prop38
140
0.0
102
RTVSPost2010PropOp38
 70
     1
102
RTVSPost2010Prop39
140
1.0
102
RTVSPost2010PropOp39
 70
     1
102
RTVSPost2010Prop40
 90
        0
102
RTVSPost2010PropOp40
 70
     1
102
RTVSPost2010Prop41ColorIndex
 90
       18
102
RTVSPost2010Prop41ColorRGB
 90
        0
102
RTVSPost2010PropOp41
 70
     1
102
RTVSPost2010Prop42
 90
       50
102
RTVSPost2010PropOp42
 70
     1
102
RTVSPost2010Prop43
 90
        3
102
RTVSPost2010PropOp43
 70
     1
102
RTVSPost2010Prop44ColorIndex
 90
        5
102
RTVSPost2010Prop44ColorRGB
 90
      255
102
RTVSPost2010PropOp44
 70
     1
102
RTVSPost2010Prop45
280
     0
102
RTVSPost2010PropOp45
 70
     1
102
RTVSPost2010Prop46
 90
       50
102
RTVSPost2010PropOp46
 70
     1
102
RTVSPost2010Prop47
 90
       50
102
RTVSPost2010PropOp47
 70
     1
102
RTVSPost2010Prop48
 90
       50
102
RTVSPost2010PropOp48
 70
     1
102
RTVSPost2010Prop49
280
     0
102
RTVSPost2010PropOp49
 70
     1
102
RTVSPost2010Prop50
 90
       50
102
RTVSPost2010PropOp50
 70
     1
102
RTVSPost2010Prop51ColorIndex
 90
      256
102
RTVSPost2010Prop51ColorRGB
 90
-16777216
102
RTVSPost2010PropOp51
 70
     0
102
RTVSPost2010Prop52
140
1.0
102
RTVSPost2010PropOp52
 70
     0
102
RTVSPost2010Prop53
 90
        2
102
RTVSPost2010PropOp53
 70
     1
102
RTVSPost2010Prop54
  1
strokes_ogs.tif
102
RTVSPost2010PropOp54
 70
     1
102
RTVSPost2010Prop55
280
     0
102
RTVSPost2010PropOp55
 70
     1
102
RTVSPost2010Prop56
140
1.0
102
RTVSPost2010PropOp56
 70
     1
102
RTVSPost2010Prop57
140
1.0
102
RTVSPost2010PropOp57
 70
     1
102
RTVSPropertyOp0
 70
     1
102
RTVSPropertyOp1
 70
     1
102
RTVSPropertyOp2
 70
     1
102
RTVSPropertyOp3
 70
     1
102
RTVSPropertyOp4
 70
     1
102
RTVSPropertyOp5
 70
     1
102
RTVSPropertyOp6
 70
     1
102
RTVSPropertyOp7
 70
     1
102
RTVSPropertyOp8
 70
     1
102
RTVSPropertyOp9
 70
     1
102
RTVSPropertyOp10
 70
     1
102
RTVSPropertyOp11
 70
     1
102
RTVSPropertyOp12
 70
     1
102
RTVSPropertyOp13
 70
     1
102
RTVSPropertyOp14
 70
     1
102
RTVSPropertyOp15
 70
     1
102
RTVSPropertyOp16
 70
     1
102
RTVSPropertyOp17
 70
     1
102
RTVSPropertyOp18
 70
     1
102
RTVSPropertyOp19
 70
     1
102
RTVSPropertyOp20
 70
     1
102
RTVSPropertyOp21
 70
     1
102
RTVSPropertyOp22
 70
     1
102
RTVSPropertyOp23
 70
     1
102
RTVSPropertyOp24
 70
     1
102
RTVSPropertyOp25
 70
     1
102
RTVSPropertyOp26
 70
     1
102
RTVSPropertyOp27
 70
     1
102
RTVSPropertyOp28
 70
     1
102
RTVSPropertyOp29
 70
     1
102
RTVSPropertyOp30
 70
     1
102
RTVSPropertyOp31
 70
     1
102
RTVSPropertyOp32
 70
     1
102
RTVSPropertyOp33
 70
     1
102
RTVSPropertyOp34
 70
     1
102
RTVSPropertyOp35
 70
     1
102
RTVSPropertyOp36
 70
     1
102
RTVSPropertyOp37
 70
     1
102
RTVSPropertyOp38
 70
     1
102
RTVSPropertyOp39
 70
     1
102
RTVSPropertyOp40
 70
     1
102
RTVSPropertyOp41
 70
     1
102
RTVSPropertyOp42
 70
     1
102
RTVSPropertyOp43
 70
     1
102
RTVSPropertyOp44
 70
     1
102
RTVSPropertyOp45
 70
     1
102
RTVSPropertyOp46
 70
     1
102
RTVSPropertyOp47
 70
     1
102
RTVSPropertyOp48
 70
     1
102
RTVSPropertyOp49
 70
     1
102
RTVSPropertyOp50
 70
     1
102
RTVSPropertyOp51
 70
     0
102
RTVSPropertyOp52
 70
     0
102
RTVSPropertyOp53
 70
     1
102
RTVSPropertyOp54
 70
     1
102
RTVSPropertyOp55
 70
     1
102
RTVSPropertyOp56
 70
     1
102
RTVSPropertyOp57
 70
     1
102
RTVSPropertyOp58
 70
     1
102
RTVSPropertyOp59
 70
     1
102
RTVSPropertyOp60
 70
     1
102
RTVSPropertyOp61
 70
     1
102
RTVSPropertyOp62
 70
     1
  0
XRECORD
  5
E30
102
{ACAD_REACTORS
330
E2F
102
}
330
E2F
100
AcDbXrecord
280
     1
102
RTVSPost2010Prop28
280
     0
102
RTVSPost2010PropOp28
 70
     1
102
RTVSPost2010Prop29
280
     1
102
RTVSPost2010PropOp29
 70
     1
102
RTVSPost2010Prop30
280
     1
102
RTVSPost2010PropOp30
 70
     1
102
RTVSPost2010Prop31
280
     0
102
RTVSPost2010PropOp31
 70
     1
102
RTVSPost2010Prop32
280
     0
102
RTVSPost2010PropOp32
 70
     1
102
RTVSPost2010Prop33
280
     0
102
RTVSPost2010PropOp33
 70
     1
102
RTVSPost2010Prop34
280
     0
102
RTVSPost2010PropOp34
 70
     1
102
RTVSPost2010Prop35
280
     0
102
RTVSPost2010PropOp35
 70
     1
102
RTVSPost2010Prop36
280
     0
102
RTVSPost2010PropOp36
 70
     1
102
RTVSPost2010Prop37
 90
       50
102
RTVSPost2010PropOp37
 70
     1
102
RTVSPost2010Prop38
140
0.0
102
RTVSPost2010PropOp38
 70
     1
102
RTVSPost2010Prop39
140
1.0
102
RTVSPost2010PropOp39
 70
     1
102
RTVSPost2010Prop40
 90
        0
102
RTVSPost2010PropOp40
 70
     1
102
RTVSPost2010Prop41ColorIndex
 90
       18
102
RTVSPost2010Prop41ColorRGB
 90
        0
102
RTVSPost2010PropOp41
 70
     1
102
RTVSPost2010Prop42
 90
       50
102
RTVSPost2010PropOp42
 70
     1
102
RTVSPost2010Prop43
 90
        3
102
RTVSPost2010PropOp43
 70
     1
102
RTVSPost2010Prop44ColorIndex
 90
        5
102
RTVSPost2010Prop44ColorRGB
 90
      255
102
RTVSPost2010PropOp44
 70
     1
102
RTVSPost2010Prop45
280
     0
102
RTVSPost2010PropOp45
 70
     1
102
RTVSPost2010Prop46
 90
       50
102
RTVSPost2010PropOp46
 70
     1
102
RTVSPost2010Prop47
 90
       50
102
RTVSPost2010PropOp47
 70
     1
102
RTVSPost2010Prop48
 90
       50
102
RTVSPost2010PropOp48
 70
     1
102
RTVSPost2010Prop49
280
     0
102
RTVSPost2010PropOp49
 70
     1
102
RTVSPost2010Prop50
 90
       50
102
RTVSPost2010PropOp50
 70
     1
102
RTVSPost2010Prop51ColorIndex
 90
      256
102
RTVSPost2010Prop51ColorRGB
 90
-16777216
102
RTVSPost2010PropOp51
 70
     0
102
RTVSPost2010Prop52
140
1.0
102
RTVSPost2010PropOp52
 70
     0
102
RTVSPost2010Prop53
 90
        2
102
RTVSPost2010PropOp53
 70
     1
102
RTVSPost2010Prop54
  1
strokes_ogs.tif
102
RTVSPost2010PropOp54
 70
     1
102
RTVSPost2010Prop55
280
     0
102
RTVSPost2010PropOp55
 70
     1
102
RTVSPost2010Prop56
140
1.0
102
RTVSPost2010PropOp56
 70
     1
102
RTVSPost2010Prop57
140
1.0
102
RTVSPost2010PropOp57
 70
     1
102
RTVSPropertyOp0
 70
     1
102
RTVSPropertyOp1
 70
     1
102
RTVSPropertyOp2
 70
     1
102
RTVSPropertyOp3
 70
     1
102
RTVSPropertyOp4
 70
     1
102
RTVSPropertyOp5
 70
     1
102
RTVSPropertyOp6
 70
     1
102
RTVSPropertyOp7
 70
     1
102
RTVSPropertyOp8
 70
     1
102
RTVSPropertyOp9
 70
     1
102
RTVSPropertyOp10
 70
     1
102
RTVSPropertyOp11
 70
     1
102
RTVSPropertyOp12
 70
     1
102
RTVSPropertyOp13
 70
     1
102
RTVSPropertyOp14
 70
     1
102
RTVSPropertyOp15
 70
     1
102
RTVSPropertyOp16
 70
     1
102
RTVSPropertyOp17
 70
     1
102
RTVSPropertyOp18
 70
     1
102
RTVSPropertyOp19
 70
     1
102
RTVSPropertyOp20
 70
     1
102
RTVSPropertyOp21
 70
     1
102
RTVSPropertyOp22
 70
     1
102
RTVSPropertyOp23
 70
     1
102
RTVSPropertyOp24
 70
     1
102
RTVSPropertyOp25
 70
     1
102
RTVSPropertyOp26
 70
     1
102
RTVSPropertyOp27
 70
     1
102
RTVSPropertyOp28
 70
     1
102
RTVSPropertyOp29
 70
     1
102
RTVSPropertyOp30
 70
     1
102
RTVSPropertyOp31
 70
     1
102
RTVSPropertyOp32
 70
     1
102
RTVSPropertyOp33
 70
     1
102
RTVSPropertyOp34
 70
     1
102
RTVSPropertyOp35
 70
     1
102
RTVSPropertyOp36
 70
     1
102
RTVSPropertyOp37
 70
     1
102
RTVSPropertyOp38
 70
     1
102
RTVSPropertyOp39
 70
     1
102
RTVSPropertyOp40
 70
     1
102
RTVSPropertyOp41
 70
     1
102
RTVSPropertyOp42
 70
     1
102
RTVSPropertyOp43
 70
     1
102
RTVSPropertyOp44
 70
     1
102
RTVSPropertyOp45
 70
     1
102
RTVSPropertyOp46
 70
     1
102
RTVSPropertyOp47
 70
     1
102
RTVSPropertyOp48
 70
     1
102
RTVSPropertyOp49
 70
     1
102
RTVSPropertyOp50
 70
     1
102
RTVSPropertyOp51
 70
     0
102
RTVSPropertyOp52
 70
     0
102
RTVSPropertyOp53
 70
     1
102
RTVSPropertyOp54
 70
     1
102
RTVSPropertyOp55
 70
     1
102
RTVSPropertyOp56
 70
     1
102
RTVSPropertyOp57
 70
     1
102
RTVSPropertyOp58
 70
     1
102
RTVSPropertyOp59
 70
     1
102
RTVSPropertyOp60
 70
     1
102
RTVSPropertyOp61
 70
     1
102
RTVSPropertyOp62
 70
     1
  0
XRECORD
  5
E38
102
{ACAD_REACTORS
330
E37
102
}
330
E37
100
AcDbXrecord
280
     1
102
RTVSPost2010Prop28
280
     0
102
RTVSPost2010PropOp28
 70
     1
102
RTVSPost2010Prop29
280
     1
102
RTVSPost2010PropOp29
 70
     1
102
RTVSPost2010Prop30
280
     1
102
RTVSPost2010PropOp30
 70
     1
102
RTVSPost2010Prop31
280
     0
102
RTVSPost2010PropOp31
 70
     1
102
RTVSPost2010Prop32
280
     0
102
RTVSPost2010PropOp32
 70
     1
102
RTVSPost2010Prop33
280
     0
102
RTVSPost2010PropOp33
 70
     1
102
RTVSPost2010Prop34
280
     0
102
RTVSPost2010PropOp34
 70
     1
102
RTVSPost2010Prop35
280
     0
102
RTVSPost2010PropOp35
 70
     1
102
RTVSPost2010Prop36
280
     0
102
RTVSPost2010PropOp36
 70
     1
102
RTVSPost2010Prop37
 90
       50
102
RTVSPost2010PropOp37
 70
     1
102
RTVSPost2010Prop38
140
0.0
102
RTVSPost2010PropOp38
 70
     1
102
RTVSPost2010Prop39
140
1.0
102
RTVSPost2010PropOp39
 70
     1
102
RTVSPost2010Prop40
 90
        0
102
RTVSPost2010PropOp40
 70
     1
102
RTVSPost2010Prop41ColorIndex
 90
       18
102
RTVSPost2010Prop41ColorRGB
 90
        0
102
RTVSPost2010PropOp41
 70
     1
102
RTVSPost2010Prop42
 90
       50
102
RTVSPost2010PropOp42
 70
     1
102
RTVSPost2010Prop43
 90
        3
102
RTVSPost2010PropOp43
 70
     1
102
RTVSPost2010Prop44ColorIndex
 90
        5
102
RTVSPost2010Prop44ColorRGB
 90
      255
102
RTVSPost2010PropOp44
 70
     1
102
RTVSPost2010Prop45
280
     0
102
RTVSPost2010PropOp45
 70
     1
102
RTVSPost2010Prop46
 90
       50
102
RTVSPost2010PropOp46
 70
     1
102
RTVSPost2010Prop47
 90
       50
102
RTVSPost2010PropOp47
 70
     1
102
RTVSPost2010Prop48
 90
       50
102
RTVSPost2010PropOp48
 70
     1
102
RTVSPost2010Prop49
280
     0
102
RTVSPost2010PropOp49
 70
     1
102
RTVSPost2010Prop50
 90
       50
102
RTVSPost2010PropOp50
 70
     1
102
RTVSPost2010Prop51ColorIndex
 90
      256
102
RTVSPost2010Prop51ColorRGB
 90
-16777216
102
RTVSPost2010PropOp51
 70
     0
102
RTVSPost2010Prop52
140
1.0
102
RTVSPost2010PropOp52
 70
     0
102
RTVSPost2010Prop53
 90
        2
102
RTVSPost2010PropOp53
 70
     1
102
RTVSPost2010Prop54
  1
strokes_ogs.tif
102
RTVSPost2010PropOp54
 70
     1
102
RTVSPost2010Prop55
280
     0
102
RTVSPost2010PropOp55
 70
     1
102
RTVSPost2010Prop56
140
1.0
102
RTVSPost2010PropOp56
 70
     1
102
RTVSPost2010Prop57
140
1.0
102
RTVSPost2010PropOp57
 70
     1
102
RTVSPropertyOp0
 70
     1
102
RTVSPropertyOp1
 70
     1
102
RTVSPropertyOp2
 70
     1
102
RTVSPropertyOp3
 70
     1
102
RTVSPropertyOp4
 70
     1
102
RTVSPropertyOp5
 70
     1
102
RTVSPropertyOp6
 70
     1
102
RTVSPropertyOp7
 70
     1
102
RTVSPropertyOp8
 70
     1
102
RTVSPropertyOp9
 70
     1
102
RTVSPropertyOp10
 70
     1
102
RTVSPropertyOp11
 70
     1
102
RTVSPropertyOp12
 70
     1
102
RTVSPropertyOp13
 70
     1
102
RTVSPropertyOp14
 70
     1
102
RTVSPropertyOp15
 70
     1
102
RTVSPropertyOp16
 70
     1
102
RTVSPropertyOp17
 70
     1
102
RTVSPropertyOp18
 70
     1
102
RTVSPropertyOp19
 70
     1
102
RTVSPropertyOp20
 70
     1
102
RTVSPropertyOp21
 70
     1
102
RTVSPropertyOp22
 70
     1
102
RTVSPropertyOp23
 70
     1
102
RTVSPropertyOp24
 70
     1
102
RTVSPropertyOp25
 70
     1
102
RTVSPropertyOp26
 70
     1
102
RTVSPropertyOp27
 70
     1
102
RTVSPropertyOp28
 70
     1
102
RTVSPropertyOp29
 70
     1
102
RTVSPropertyOp30
 70
     1
102
RTVSPropertyOp31
 70
     1
102
RTVSPropertyOp32
 70
     1
102
RTVSPropertyOp33
 70
     1
102
RTVSPropertyOp34
 70
     1
102
RTVSPropertyOp35
 70
     1
102
RTVSPropertyOp36
 70
     1
102
RTVSPropertyOp37
 70
     1
102
RTVSPropertyOp38
 70
     1
102
RTVSPropertyOp39
 70
     1
102
RTVSPropertyOp40
 70
     1
102
RTVSPropertyOp41
 70
     1
102
RTVSPropertyOp42
 70
     1
102
RTVSPropertyOp43
 70
     1
102
RTVSPropertyOp44
 70
     1
102
RTVSPropertyOp45
 70
     1
102
RTVSPropertyOp46
 70
     1
102
RTVSPropertyOp47
 70
     1
102
RTVSPropertyOp48
 70
     1
102
RTVSPropertyOp49
 70
     1
102
RTVSPropertyOp50
 70
     1
102
RTVSPropertyOp51
 70
     0
102
RTVSPropertyOp52
 70
     0
102
RTVSPropertyOp53
 70
     1
102
RTVSPropertyOp54
 70
     1
102
RTVSPropertyOp55
 70
     1
102
RTVSPropertyOp56
 70
     1
102
RTVSPropertyOp57
 70
     1
102
RTVSPropertyOp58
 70
     1
102
RTVSPropertyOp59
 70
     1
102
RTVSPropertyOp60
 70
     1
102
RTVSPropertyOp61
 70
     1
102
RTVSPropertyOp62
 70
     1
  0
XRECORD
  5
E54
102
{ACAD_REACTORS
330
E53
102
}
330
E53
100
AcDbXrecord
280
     1
102
RTVSPost2010Prop28
280
     0
102
RTVSPost2010PropOp28
 70
     1
102
RTVSPost2010Prop29
280
     1
102
RTVSPost2010PropOp29
 70
     1
102
RTVSPost2010Prop30
280
     1
102
RTVSPost2010PropOp30
 70
     1
102
RTVSPost2010Prop31
280
     0
102
RTVSPost2010PropOp31
 70
     1
102
RTVSPost2010Prop32
280
     0
102
RTVSPost2010PropOp32
 70
     1
102
RTVSPost2010Prop33
280
     0
102
RTVSPost2010PropOp33
 70
     1
102
RTVSPost2010Prop34
280
     0
102
RTVSPost2010PropOp34
 70
     1
102
RTVSPost2010Prop35
280
     0
102
RTVSPost2010PropOp35
 70
     1
102
RTVSPost2010Prop36
280
     0
102
RTVSPost2010PropOp36
 70
     1
102
RTVSPost2010Prop37
 90
       50
102
RTVSPost2010PropOp37
 70
     0
102
RTVSPost2010Prop38
140
0.0
102
RTVSPost2010PropOp38
 70
     0
102
RTVSPost2010Prop39
140
1.0
102
RTVSPost2010PropOp39
 70
     0
102
RTVSPost2010Prop40
 90
        0
102
RTVSPost2010PropOp40
 70
     0
102
RTVSPost2010Prop41ColorIndex
 90
       18
102
RTVSPost2010Prop41ColorRGB
 90
        0
102
RTVSPost2010PropOp41
 70
     0
102
RTVSPost2010Prop42
 90
       50
102
RTVSPost2010PropOp42
 70
     0
102
RTVSPost2010Prop43
 90
        3
102
RTVSPost2010PropOp43
 70
     0
102
RTVSPost2010Prop44ColorIndex
 90
        5
102
RTVSPost2010Prop44ColorRGB
 90
      255
102
RTVSPost2010PropOp44
 70
     0
102
RTVSPost2010Prop45
280
     0
102
RTVSPost2010PropOp45
 70
     1
102
RTVSPost2010Prop46
 90
       50
102
RTVSPost2010PropOp46
 70
     0
102
RTVSPost2010Prop47
 90
       50
102
RTVSPost2010PropOp47
 70
     0
102
RTVSPost2010Prop48
 90
       50
102
RTVSPost2010PropOp48
 70
     0
102
RTVSPost2010Prop49
280
     0
102
RTVSPost2010PropOp49
 70
     1
102
RTVSPost2010Prop50
 90
       50
102
RTVSPost2010PropOp50
 70
     0
102
RTVSPost2010Prop51ColorIndex
 90
      256
102
RTVSPost2010Prop51ColorRGB
 90
-16777216
102
RTVSPost2010PropOp51
 70
     0
102
RTVSPost2010Prop52
140
1.0
102
RTVSPost2010PropOp52
 70
     0
102
RTVSPost2010Prop53
 90
        2
102
RTVSPost2010PropOp53
 70
     0
102
RTVSPost2010Prop54
  1
strokes_ogs.tif
102
RTVSPost2010PropOp54
 70
     0
102
RTVSPost2010Prop55
280
     0
102
RTVSPost2010PropOp55
 70
     1
102
RTVSPost2010Prop56
140
1.0
102
RTVSPost2010PropOp56
 70
     0
102
RTVSPost2010Prop57
140
1.0
102
RTVSPost2010PropOp57
 70
     0
102
RTVSPropertyOp0
 70
     0
102
RTVSPropertyOp1
 70
     0
102
RTVSPropertyOp2
 70
     0
102
RTVSPropertyOp3
 70
     0
102
RTVSPropertyOp4
 70
     0
102
RTVSPropertyOp5
 70
     0
102
RTVSPropertyOp6
 70
     0
102
RTVSPropertyOp7
 70
     0
102
RTVSPropertyOp8
 70
     0
102
RTVSPropertyOp9
 70
     0
102
RTVSPropertyOp10
 70
     0
102
RTVSPropertyOp11
 70
     0
102
RTVSPropertyOp12
 70
     0
102
RTVSPropertyOp13
 70
     0
102
RTVSPropertyOp14
 70
     2
102
RTVSPropertyOp15
 70
     0
102
RTVSPropertyOp16
 70
     0
102
RTVSPropertyOp17
 70
     0
102
RTVSPropertyOp18
 70
     0
102
RTVSPropertyOp19
 70
     0
102
RTVSPropertyOp20
 70
     0
102
RTVSPropertyOp21
 70
     0
102
RTVSPropertyOp22
 70
     0
102
RTVSPropertyOp23
 70
     0
102
RTVSPropertyOp24
 70
     0
102
RTVSPropertyOp25
 70
     0
102
RTVSPropertyOp26
 70
     0
102
RTVSPropertyOp27
 70
     0
102
RTVSPropertyOp28
 70
     1
102
RTVSPropertyOp29
 70
     1
102
RTVSPropertyOp30
 70
     1
102
RTVSPropertyOp31
 70
     1
102
RTVSPropertyOp32
 70
     1
102
RTVSPropertyOp33
 70
     1
102
RTVSPropertyOp34
 70
     1
102
RTVSPropertyOp35
 70
     1
102
RTVSPropertyOp36
 70
     1
102
RTVSPropertyOp37
 70
     0
102
RTVSPropertyOp38
 70
     0
102
RTVSPropertyOp39
 70
     0
102
RTVSPropertyOp40
 70
     0
102
RTVSPropertyOp41
 70
     0
102
RTVSPropertyOp42
 70
     0
102
RTVSPropertyOp43
 70
     0
102
RTVSPropertyOp44
 70
     0
102
RTVSPropertyOp45
 70
     1
102
RTVSPropertyOp46
 70
     0
102
RTVSPropertyOp47
 70
     0
102
RTVSPropertyOp48
 70
     0
102
RTVSPropertyOp49
 70
     1
102
RTVSPropertyOp50
 70
     0
102
RTVSPropertyOp51
 70
     0
102
RTVSPropertyOp52
 70
     0
102
RTVSPropertyOp53
 70
     0
102
RTVSPropertyOp54
 70
     0
102
RTVSPropertyOp55
 70
     1
102
RTVSPropertyOp56
 70
     0
102
RTVSPropertyOp57
 70
     0
102
RTVSPropertyOp58
 70
     0
102
RTVSPropertyOp59
 70
     0
102
RTVSPropertyOp60
 70
     0
102
RTVSPropertyOp61
 70
     0
102
RTVSPropertyOp62
 70
     0
  0
XRECORD
  5
E44
102
{ACAD_REACTORS
330
E43
102
}
330
E43
100
AcDbXrecord
280
     1
102
RTVSPost2010Prop28
280
     0
102
RTVSPost2010PropOp28
 70
     1
102
RTVSPost2010Prop29
280
     1
102
RTVSPost2010PropOp29
 70
     1
102
RTVSPost2010Prop30
280
     1
102
RTVSPost2010PropOp30
 70
     1
102
RTVSPost2010Prop31
280
     0
102
RTVSPost2010PropOp31
 70
     1
102
RTVSPost2010Prop32
280
     0
102
RTVSPost2010PropOp32
 70
     1
102
RTVSPost2010Prop33
280
     0
102
RTVSPost2010PropOp33
 70
     1
102
RTVSPost2010Prop34
280
     0
102
RTVSPost2010PropOp34
 70
     1
102
RTVSPost2010Prop35
280
     0
102
RTVSPost2010PropOp35
 70
     1
102
RTVSPost2010Prop36
280
     0
102
RTVSPost2010PropOp36
 70
     1
102
RTVSPost2010Prop37
 90
       50
102
RTVSPost2010PropOp37
 70
     1
102
RTVSPost2010Prop38
140
0.0
102
RTVSPost2010PropOp38
 70
     1
102
RTVSPost2010Prop39
140
1.0
102
RTVSPost2010PropOp39
 70
     1
102
RTVSPost2010Prop40
 90
        0
102
RTVSPost2010PropOp40
 70
     1
102
RTVSPost2010Prop41ColorIndex
 90
       18
102
RTVSPost2010Prop41ColorRGB
 90
        0
102
RTVSPost2010PropOp41
 70
     1
102
RTVSPost2010Prop42
 90
       50
102
RTVSPost2010PropOp42
 70
     1
102
RTVSPost2010Prop43
 90
        3
102
RTVSPost2010PropOp43
 70
     1
102
RTVSPost2010Prop44ColorIndex
 90
        5
102
RTVSPost2010Prop44ColorRGB
 90
      255
102
RTVSPost2010PropOp44
 70
     1
102
RTVSPost2010Prop45
280
     0
102
RTVSPost2010PropOp45
 70
     1
102
RTVSPost2010Prop46
 90
       50
102
RTVSPost2010PropOp46
 70
     1
102
RTVSPost2010Prop47
 90
       50
102
RTVSPost2010PropOp47
 70
     1
102
RTVSPost2010Prop48
 90
       50
102
RTVSPost2010PropOp48
 70
     1
102
RTVSPost2010Prop49
280
     0
102
RTVSPost2010PropOp49
 70
     1
102
RTVSPost2010Prop50
 90
       50
102
RTVSPost2010PropOp50
 70
     1
102
RTVSPost2010Prop51ColorIndex
 90
      256
102
RTVSPost2010Prop51ColorRGB
 90
-16777216
102
RTVSPost2010PropOp51
 70
     0
102
RTVSPost2010Prop52
140
1.0
102
RTVSPost2010PropOp52
 70
     0
102
RTVSPost2010Prop53
 90
        2
102
RTVSPost2010PropOp53
 70
     1
102
RTVSPost2010Prop54
  1
strokes_ogs.tif
102
RTVSPost2010PropOp54
 70
     1
102
RTVSPost2010Prop55
280
     0
102
RTVSPost2010PropOp55
 70
     1
102
RTVSPost2010Prop56
140
1.0
102
RTVSPost2010PropOp56
 70
     1
102
RTVSPost2010Prop57
140
1.0
102
RTVSPost2010PropOp57
 70
     1
102
RTVSPropertyOp0
 70
     1
102
RTVSPropertyOp1
 70
     1
102
RTVSPropertyOp2
 70
     1
102
RTVSPropertyOp3
 70
     1
102
RTVSPropertyOp4
 70
     1
102
RTVSPropertyOp5
 70
     1
102
RTVSPropertyOp6
 70
     1
102
RTVSPropertyOp7
 70
     1
102
RTVSPropertyOp8
 70
     1
102
RTVSPropertyOp9
 70
     1
102
RTVSPropertyOp10
 70
     1
102
RTVSPropertyOp11
 70
     1
102
RTVSPropertyOp12
 70
     1
102
RTVSPropertyOp13
 70
     1
102
RTVSPropertyOp14
 70
     1
102
RTVSPropertyOp15
 70
     1
102
RTVSPropertyOp16
 70
     1
102
RTVSPropertyOp17
 70
     1
102
RTVSPropertyOp18
 70
     1
102
RTVSPropertyOp19
 70
     1
102
RTVSPropertyOp20
 70
     1
102
RTVSPropertyOp21
 70
     1
102
RTVSPropertyOp22
 70
     1
102
RTVSPropertyOp23
 70
     1
102
RTVSPropertyOp24
 70
     1
102
RTVSPropertyOp25
 70
     1
102
RTVSPropertyOp26
 70
     1
102
RTVSPropertyOp27
 70
     1
102
RTVSPropertyOp28
 70
     1
102
RTVSPropertyOp29
 70
     1
102
RTVSPropertyOp30
 70
     1
102
RTVSPropertyOp31
 70
     1
102
RTVSPropertyOp32
 70
     1
102
RTVSPropertyOp33
 70
     1
102
RTVSPropertyOp34
 70
     1
102
RTVSPropertyOp35
 70
     1
102
RTVSPropertyOp36
 70
     1
102
RTVSPropertyOp37
 70
     1
102
RTVSPropertyOp38
 70
     1
102
RTVSPropertyOp39
 70
     1
102
RTVSPropertyOp40
 70
     1
102
RTVSPropertyOp41
 70
     1
102
RTVSPropertyOp42
 70
     1
102
RTVSPropertyOp43
 70
     1
102
RTVSPropertyOp44
 70
     1
102
RTVSPropertyOp45
 70
     1
102
RTVSPropertyOp46
 70
     1
102
RTVSPropertyOp47
 70
     1
102
RTVSPropertyOp48
 70
     1
102
RTVSPropertyOp49
 70
     1
102
RTVSPropertyOp50
 70
     1
102
RTVSPropertyOp51
 70
     0
102
RTVSPropertyOp52
 70
     0
102
RTVSPropertyOp53
 70
     1
102
RTVSPropertyOp54
 70
     1
102
RTVSPropertyOp55
 70
     1
102
RTVSPropertyOp56
 70
     1
102
RTVSPropertyOp57
 70
     1
102
RTVSPropertyOp58
 70
     1
102
RTVSPropertyOp59
 70
     1
102
RTVSPropertyOp60
 70
     1
102
RTVSPropertyOp61
 70
     1
102
RTVSPropertyOp62
 70
     1
  0
XRECORD
  5
E56
102
{ACAD_REACTORS
330
E55
102
}
330
E55
100
AcDbXrecord
280
     1
102
RTVSPost2010Prop28
280
     0
102
RTVSPost2010PropOp28
 70
     1
102
RTVSPost2010Prop29
280
     1
102
RTVSPost2010PropOp29
 70
     1
102
RTVSPost2010Prop30
280
     1
102
RTVSPost2010PropOp30
 70
     1
102
RTVSPost2010Prop31
280
     0
102
RTVSPost2010PropOp31
 70
     1
102
RTVSPost2010Prop32
280
     0
102
RTVSPost2010PropOp32
 70
     1
102
RTVSPost2010Prop33
280
     0
102
RTVSPost2010PropOp33
 70
     1
102
RTVSPost2010Prop34
280
     0
102
RTVSPost2010PropOp34
 70
     1
102
RTVSPost2010Prop35
280
     0
102
RTVSPost2010PropOp35
 70
     1
102
RTVSPost2010Prop36
280
     0
102
RTVSPost2010PropOp36
 70
     1
102
RTVSPost2010Prop37
 90
       50
102
RTVSPost2010PropOp37
 70
     0
102
RTVSPost2010Prop38
140
0.0
102
RTVSPost2010PropOp38
 70
     0
102
RTVSPost2010Prop39
140
1.0
102
RTVSPost2010PropOp39
 70
     0
102
RTVSPost2010Prop40
 90
        0
102
RTVSPost2010PropOp40
 70
     0
102
RTVSPost2010Prop41ColorIndex
 90
       18
102
RTVSPost2010Prop41ColorRGB
 90
        0
102
RTVSPost2010PropOp41
 70
     0
102
RTVSPost2010Prop42
 90
       50
102
RTVSPost2010PropOp42
 70
     0
102
RTVSPost2010Prop43
 90
        3
102
RTVSPost2010PropOp43
 70
     0
102
RTVSPost2010Prop44ColorIndex
 90
        5
102
RTVSPost2010Prop44ColorRGB
 90
      255
102
RTVSPost2010PropOp44
 70
     0
102
RTVSPost2010Prop45
280
     0
102
RTVSPost2010PropOp45
 70
     1
102
RTVSPost2010Prop46
 90
       50
102
RTVSPost2010PropOp46
 70
     0
102
RTVSPost2010Prop47
 90
       50
102
RTVSPost2010PropOp47
 70
     0
102
RTVSPost2010Prop48
 90
       50
102
RTVSPost2010PropOp48
 70
     0
102
RTVSPost2010Prop49
280
     0
102
RTVSPost2010PropOp49
 70
     1
102
RTVSPost2010Prop50
 90
       50
102
RTVSPost2010PropOp50
 70
     0
102
RTVSPost2010Prop51ColorIndex
 90
      256
102
RTVSPost2010Prop51ColorRGB
 90
-16777216
102
RTVSPost2010PropOp51
 70
     0
102
RTVSPost2010Prop52
140
1.0
102
RTVSPost2010PropOp52
 70
     0
102
RTVSPost2010Prop53
 90
        2
102
RTVSPost2010PropOp53
 70
     0
102
RTVSPost2010Prop54
  1
strokes_ogs.tif
102
RTVSPost2010PropOp54
 70
     0
102
RTVSPost2010Prop55
280
     0
102
RTVSPost2010PropOp55
 70
     1
102
RTVSPost2010Prop56
140
1.0
102
RTVSPost2010PropOp56
 70
     0
102
RTVSPost2010Prop57
140
1.0
102
RTVSPost2010PropOp57
 70
     0
102
RTVSPropertyOp0
 70
     0
102
RTVSPropertyOp1
 70
     0
102
RTVSPropertyOp2
 70
     0
102
RTVSPropertyOp3
 70
     0
102
RTVSPropertyOp4
 70
     0
102
RTVSPropertyOp5
 70
     0
102
RTVSPropertyOp6
 70
     0
102
RTVSPropertyOp7
 70
     0
102
RTVSPropertyOp8
 70
     0
102
RTVSPropertyOp9
 70
     0
102
RTVSPropertyOp10
 70
     0
102
RTVSPropertyOp11
 70
     0
102
RTVSPropertyOp12
 70
     0
102
RTVSPropertyOp13
 70
     0
102
RTVSPropertyOp14
 70
     2
102
RTVSPropertyOp15
 70
     0
102
RTVSPropertyOp16
 70
     0
102
RTVSPropertyOp17
 70
     0
102
RTVSPropertyOp18
 70
     0
102
RTVSPropertyOp19
 70
     0
102
RTVSPropertyOp20
 70
     0
102
RTVSPropertyOp21
 70
     0
102
RTVSPropertyOp22
 70
     0
102
RTVSPropertyOp23
 70
     0
102
RTVSPropertyOp24
 70
     0
102
RTVSPropertyOp25
 70
     0
102
RTVSPropertyOp26
 70
     0
102
RTVSPropertyOp27
 70
     0
102
RTVSPropertyOp28
 70
     1
102
RTVSPropertyOp29
 70
     1
102
RTVSPropertyOp30
 70
     1
102
RTVSPropertyOp31
 70
     1
102
RTVSPropertyOp32
 70
     1
102
RTVSPropertyOp33
 70
     1
102
RTVSPropertyOp34
 70
     1
102
RTVSPropertyOp35
 70
     1
102
RTVSPropertyOp36
 70
     1
102
RTVSPropertyOp37
 70
     0
102
RTVSPropertyOp38
 70
     0
102
RTVSPropertyOp39
 70
     0
102
RTVSPropertyOp40
 70
     0
102
RTVSPropertyOp41
 70
     0
102
RTVSPropertyOp42
 70
     0
102
RTVSPropertyOp43
 70
     0
102
RTVSPropertyOp44
 70
     0
102
RTVSPropertyOp45
 70
     1
102
RTVSPropertyOp46
 70
     0
102
RTVSPropertyOp47
 70
     0
102
RTVSPropertyOp48
 70
     0
102
RTVSPropertyOp49
 70
     1
102
RTVSPropertyOp50
 70
     0
102
RTVSPropertyOp51
 70
     0
102
RTVSPropertyOp52
 70
     0
102
RTVSPropertyOp53
 70
     0
102
RTVSPropertyOp54
 70
     0
102
RTVSPropertyOp55
 70
     1
102
RTVSPropertyOp56
 70
     0
102
RTVSPropertyOp57
 70
     0
102
RTVSPropertyOp58
 70
     0
102
RTVSPropertyOp59
 70
     0
102
RTVSPropertyOp60
 70
     0
102
RTVSPropertyOp61
 70
     0
102
RTVSPropertyOp62
 70
     0
  0
XRECORD
  5
E3C
102
{ACAD_REACTORS
330
E3B
102
}
330
E3B
100
AcDbXrecord
280
     1
102
RTVSPost2010Prop28
280
     0
102
RTVSPost2010PropOp28
 70
     1
102
RTVSPost2010Prop29
280
     1
102
RTVSPost2010PropOp29
 70
     1
102
RTVSPost2010Prop30
280
     1
102
RTVSPost2010PropOp30
 70
     1
102
RTVSPost2010Prop31
280
     0
102
RTVSPost2010PropOp31
 70
     1
102
RTVSPost2010Prop32
280
     0
102
RTVSPost2010PropOp32
 70
     1
102
RTVSPost2010Prop33
280
     0
102
RTVSPost2010PropOp33
 70
     1
102
RTVSPost2010Prop34
280
     0
102
RTVSPost2010PropOp34
 70
     1
102
RTVSPost2010Prop35
280
     0
102
RTVSPost2010PropOp35
 70
     1
102
RTVSPost2010Prop36
280
     0
102
RTVSPost2010PropOp36
 70
     1
102
RTVSPost2010Prop37
 90
       50
102
RTVSPost2010PropOp37
 70
     1
102
RTVSPost2010Prop38
140
0.0
102
RTVSPost2010PropOp38
 70
     1
102
RTVSPost2010Prop39
140
1.0
102
RTVSPost2010PropOp39
 70
     1
102
RTVSPost2010Prop40
 90
        0
102
RTVSPost2010PropOp40
 70
     1
102
RTVSPost2010Prop41ColorIndex
 90
       18
102
RTVSPost2010Prop41ColorRGB
 90
        0
102
RTVSPost2010PropOp41
 70
     1
102
RTVSPost2010Prop42
 90
       50
102
RTVSPost2010PropOp42
 70
     1
102
RTVSPost2010Prop43
 90
        3
102
RTVSPost2010PropOp43
 70
     1
102
RTVSPost2010Prop44ColorIndex
 90
        5
102
RTVSPost2010Prop44ColorRGB
 90
      255
102
RTVSPost2010PropOp44
 70
     1
102
RTVSPost2010Prop45
280
     0
102
RTVSPost2010PropOp45
 70
     1
102
RTVSPost2010Prop46
 90
       50
102
RTVSPost2010PropOp46
 70
     1
102
RTVSPost2010Prop47
 90
       50
102
RTVSPost2010PropOp47
 70
     1
102
RTVSPost2010Prop48
 90
       50
102
RTVSPost2010PropOp48
 70
     1
102
RTVSPost2010Prop49
280
     0
102
RTVSPost2010PropOp49
 70
     1
102
RTVSPost2010Prop50
 90
       50
102
RTVSPost2010PropOp50
 70
     1
102
RTVSPost2010Prop51ColorIndex
 90
      256
102
RTVSPost2010Prop51ColorRGB
 90
-16777216
102
RTVSPost2010PropOp51
 70
     0
102
RTVSPost2010Prop52
140
1.0
102
RTVSPost2010PropOp52
 70
     0
102
RTVSPost2010Prop53
 90
        2
102
RTVSPost2010PropOp53
 70
     1
102
RTVSPost2010Prop54
  1
strokes_ogs.tif
102
RTVSPost2010PropOp54
 70
     1
102
RTVSPost2010Prop55
280
     0
102
RTVSPost2010PropOp55
 70
     1
102
RTVSPost2010Prop56
140
1.0
102
RTVSPost2010PropOp56
 70
     1
102
RTVSPost2010Prop57
140
1.0
102
RTVSPost2010PropOp57
 70
     1
102
RTVSPropertyOp0
 70
     1
102
RTVSPropertyOp1
 70
     1
102
RTVSPropertyOp2
 70
     1
102
RTVSPropertyOp3
 70
     1
102
RTVSPropertyOp4
 70
     1
102
RTVSPropertyOp5
 70
     1
102
RTVSPropertyOp6
 70
     1
102
RTVSPropertyOp7
 70
     1
102
RTVSPropertyOp8
 70
     1
102
RTVSPropertyOp9
 70
     1
102
RTVSPropertyOp10
 70
     1
102
RTVSPropertyOp11
 70
     1
102
RTVSPropertyOp12
 70
     1
102
RTVSPropertyOp13
 70
     1
102
RTVSPropertyOp14
 70
     1
102
RTVSPropertyOp15
 70
     1
102
RTVSPropertyOp16
 70
     1
102
RTVSPropertyOp17
 70
     1
102
RTVSPropertyOp18
 70
     1
102
RTVSPropertyOp19
 70
     1
102
RTVSPropertyOp20
 70
     1
102
RTVSPropertyOp21
 70
     1
102
RTVSPropertyOp22
 70
     1
102
RTVSPropertyOp23
 70
     1
102
RTVSPropertyOp24
 70
     1
102
RTVSPropertyOp25
 70
     1
102
RTVSPropertyOp26
 70
     1
102
RTVSPropertyOp27
 70
     1
102
RTVSPropertyOp28
 70
     1
102
RTVSPropertyOp29
 70
     1
102
RTVSPropertyOp30
 70
     1
102
RTVSPropertyOp31
 70
     1
102
RTVSPropertyOp32
 70
     1
102
RTVSPropertyOp33
 70
     1
102
RTVSPropertyOp34
 70
     1
102
RTVSPropertyOp35
 70
     1
102
RTVSPropertyOp36
 70
     1
102
RTVSPropertyOp37
 70
     1
102
RTVSPropertyOp38
 70
     1
102
RTVSPropertyOp39
 70
     1
102
RTVSPropertyOp40
 70
     1
102
RTVSPropertyOp41
 70
     1
102
RTVSPropertyOp42
 70
     1
102
RTVSPropertyOp43
 70
     1
102
RTVSPropertyOp44
 70
     1
102
RTVSPropertyOp45
 70
     1
102
RTVSPropertyOp46
 70
     1
102
RTVSPropertyOp47
 70
     1
102
RTVSPropertyOp48
 70
     1
102
RTVSPropertyOp49
 70
     1
102
RTVSPropertyOp50
 70
     1
102
RTVSPropertyOp51
 70
     0
102
RTVSPropertyOp52
 70
     0
102
RTVSPropertyOp53
 70
     1
102
RTVSPropertyOp54
 70
     1
102
RTVSPropertyOp55
 70
     1
102
RTVSPropertyOp56
 70
     1
102
RTVSPropertyOp57
 70
     1
102
RTVSPropertyOp58
 70
     1
102
RTVSPropertyOp59
 70
     1
102
RTVSPropertyOp60
 70
     1
102
RTVSPropertyOp61
 70
     1
102
RTVSPropertyOp62
 70
     1
  0
XRECORD
  5
E52
102
{ACAD_REACTORS
330
E51
102
}
330
E51
100
AcDbXrecord
280
     1
102
RTVSPost2010Prop28
280
     0
102
RTVSPost2010PropOp28
 70
     1
102
RTVSPost2010Prop29
280
     1
102
RTVSPost2010PropOp29
 70
     1
102
RTVSPost2010Prop30
280
     1
102
RTVSPost2010PropOp30
 70
     1
102
RTVSPost2010Prop31
280
     0
102
RTVSPost2010PropOp31
 70
     1
102
RTVSPost2010Prop32
280
     0
102
RTVSPost2010PropOp32
 70
     1
102
RTVSPost2010Prop33
280
     0
102
RTVSPost2010PropOp33
 70
     1
102
RTVSPost2010Prop34
280
     0
102
RTVSPost2010PropOp34
 70
     1
102
RTVSPost2010Prop35
280
     0
102
RTVSPost2010PropOp35
 70
     1
102
RTVSPost2010Prop36
280
     0
102
RTVSPost2010PropOp36
 70
     1
102
RTVSPost2010Prop37
 90
       50
102
RTVSPost2010PropOp37
 70
     1
102
RTVSPost2010Prop38
140
0.0
102
RTVSPost2010PropOp38
 70
     1
102
RTVSPost2010Prop39
140
1.0
102
RTVSPost2010PropOp39
 70
     1
102
RTVSPost2010Prop40
 90
        0
102
RTVSPost2010PropOp40
 70
     1
102
RTVSPost2010Prop41ColorIndex
 90
       18
102
RTVSPost2010Prop41ColorRGB
 90
        0
102
RTVSPost2010PropOp41
 70
     1
102
RTVSPost2010Prop42
 90
       50
102
RTVSPost2010PropOp42
 70
     1
102
RTVSPost2010Prop43
 90
        3
102
RTVSPost2010PropOp43
 70
     1
102
RTVSPost2010Prop44ColorIndex
 90
        5
102
RTVSPost2010Prop44ColorRGB
 90
      255
102
RTVSPost2010PropOp44
 70
     1
102
RTVSPost2010Prop45
280
     0
102
RTVSPost2010PropOp45
 70
     1
102
RTVSPost2010Prop46
 90
       50
102
RTVSPost2010PropOp46
 70
     1
102
RTVSPost2010Prop47
 90
       50
102
RTVSPost2010PropOp47
 70
     1
102
RTVSPost2010Prop48
 90
       50
102
RTVSPost2010PropOp48
 70
     1
102
RTVSPost2010Prop49
280
     0
102
RTVSPost2010PropOp49
 70
     1
102
RTVSPost2010Prop50
 90
       50
102
RTVSPost2010PropOp50
 70
     1
102
RTVSPost2010Prop51ColorIndex
 90
      256
102
RTVSPost2010Prop51ColorRGB
 90
-16777216
102
RTVSPost2010PropOp51
 70
     0
102
RTVSPost2010Prop52
140
1.0
102
RTVSPost2010PropOp52
 70
     0
102
RTVSPost2010Prop53
 90
        2
102
RTVSPost2010PropOp53
 70
     1
102
RTVSPost2010Prop54
  1
strokes_ogs.tif
102
RTVSPost2010PropOp54
 70
     1
102
RTVSPost2010Prop55
280
     0
102
RTVSPost2010PropOp55
 70
     1
102
RTVSPost2010Prop56
140
1.0
102
RTVSPost2010PropOp56
 70
     1
102
RTVSPost2010Prop57
140
1.0
102
RTVSPost2010PropOp57
 70
     1
102
RTVSPropertyOp0
 70
     1
102
RTVSPropertyOp1
 70
     1
102
RTVSPropertyOp2
 70
     1
102
RTVSPropertyOp3
 70
     1
102
RTVSPropertyOp4
 70
     1
102
RTVSPropertyOp5
 70
     1
102
RTVSPropertyOp6
 70
     1
102
RTVSPropertyOp7
 70
     1
102
RTVSPropertyOp8
 70
     1
102
RTVSPropertyOp9
 70
     1
102
RTVSPropertyOp10
 70
     1
102
RTVSPropertyOp11
 70
     1
102
RTVSPropertyOp12
 70
     1
102
RTVSPropertyOp13
 70
     1
102
RTVSPropertyOp14
 70
     1
102
RTVSPropertyOp15
 70
     1
102
RTVSPropertyOp16
 70
     1
102
RTVSPropertyOp17
 70
     1
102
RTVSPropertyOp18
 70
     1
102
RTVSPropertyOp19
 70
     1
102
RTVSPropertyOp20
 70
     1
102
RTVSPropertyOp21
 70
     1
102
RTVSPropertyOp22
 70
     1
102
RTVSPropertyOp23
 70
     1
102
RTVSPropertyOp24
 70
     1
102
RTVSPropertyOp25
 70
     1
102
RTVSPropertyOp26
 70
     1
102
RTVSPropertyOp27
 70
     1
102
RTVSPropertyOp28
 70
     1
102
RTVSPropertyOp29
 70
     1
102
RTVSPropertyOp30
 70
     1
102
RTVSPropertyOp31
 70
     1
102
RTVSPropertyOp32
 70
     1
102
RTVSPropertyOp33
 70
     1
102
RTVSPropertyOp34
 70
     1
102
RTVSPropertyOp35
 70
     1
102
RTVSPropertyOp36
 70
     1
102
RTVSPropertyOp37
 70
     1
102
RTVSPropertyOp38
 70
     1
102
RTVSPropertyOp39
 70
     1
102
RTVSPropertyOp40
 70
     1
102
RTVSPropertyOp41
 70
     1
102
RTVSPropertyOp42
 70
     1
102
RTVSPropertyOp43
 70
     1
102
RTVSPropertyOp44
 70
     1
102
RTVSPropertyOp45
 70
     1
102
RTVSPropertyOp46
 70
     1
102
RTVSPropertyOp47
 70
     1
102
RTVSPropertyOp48
 70
     1
102
RTVSPropertyOp49
 70
     1
102
RTVSPropertyOp50
 70
     1
102
RTVSPropertyOp51
 70
     0
102
RTVSPropertyOp52
 70
     0
102
RTVSPropertyOp53
 70
     1
102
RTVSPropertyOp54
 70
     1
102
RTVSPropertyOp55
 70
     1
102
RTVSPropertyOp56
 70
     1
102
RTVSPropertyOp57
 70
     1
102
RTVSPropertyOp58
 70
     1
102
RTVSPropertyOp59
 70
     1
102
RTVSPropertyOp60
 70
     1
102
RTVSPropertyOp61
 70
     1
102
RTVSPropertyOp62
 70
     1
  0
XRECORD
  5
E50
102
{ACAD_REACTORS
330
E4F
102
}
330
E4F
100
AcDbXrecord
280
     1
102
RTVSPost2010Prop28
280
     0
102
RTVSPost2010PropOp28
 70
     1
102
RTVSPost2010Prop29
280
     1
102
RTVSPost2010PropOp29
 70
     1
102
RTVSPost2010Prop30
280
     1
102
RTVSPost2010PropOp30
 70
     1
102
RTVSPost2010Prop31
280
     0
102
RTVSPost2010PropOp31
 70
     1
102
RTVSPost2010Prop32
280
     0
102
RTVSPost2010PropOp32
 70
     1
102
RTVSPost2010Prop33
280
     0
102
RTVSPost2010PropOp33
 70
     1
102
RTVSPost2010Prop34
280
     0
102
RTVSPost2010PropOp34
 70
     1
102
RTVSPost2010Prop35
280
     0
102
RTVSPost2010PropOp35
 70
     1
102
RTVSPost2010Prop36
280
     0
102
RTVSPost2010PropOp36
 70
     1
102
RTVSPost2010Prop37
 90
       50
102
RTVSPost2010PropOp37
 70
     1
102
RTVSPost2010Prop38
140
0.0
102
RTVSPost2010PropOp38
 70
     1
102
RTVSPost2010Prop39
140
1.0
102
RTVSPost2010PropOp39
 70
     1
102
RTVSPost2010Prop40
 90
        0
102
RTVSPost2010PropOp40
 70
     1
102
RTVSPost2010Prop41ColorIndex
 90
       18
102
RTVSPost2010Prop41ColorRGB
 90
        0
102
RTVSPost2010PropOp41
 70
     1
102
RTVSPost2010Prop42
 90
       50
102
RTVSPost2010PropOp42
 70
     1
102
RTVSPost2010Prop43
 90
        3
102
RTVSPost2010PropOp43
 70
     1
102
RTVSPost2010Prop44ColorIndex
 90
        5
102
RTVSPost2010Prop44ColorRGB
 90
      255
102
RTVSPost2010PropOp44
 70
     1
102
RTVSPost2010Prop45
280
     0
102
RTVSPost2010PropOp45
 70
     1
102
RTVSPost2010Prop46
 90
       50
102
RTVSPost2010PropOp46
 70
     1
102
RTVSPost2010Prop47
 90
       50
102
RTVSPost2010PropOp47
 70
     1
102
RTVSPost2010Prop48
 90
       50
102
RTVSPost2010PropOp48
 70
     1
102
RTVSPost2010Prop49
280
     0
102
RTVSPost2010PropOp49
 70
     1
102
RTVSPost2010Prop50
 90
       50
102
RTVSPost2010PropOp50
 70
     1
102
RTVSPost2010Prop51ColorIndex
 90
      256
102
RTVSPost2010Prop51ColorRGB
 90
-16777216
102
RTVSPost2010PropOp51
 70
     0
102
RTVSPost2010Prop52
140
1.0
102
RTVSPost2010PropOp52
 70
     0
102
RTVSPost2010Prop53
 90
        2
102
RTVSPost2010PropOp53
 70
     1
102
RTVSPost2010Prop54
  1
strokes_ogs.tif
102
RTVSPost2010PropOp54
 70
     1
102
RTVSPost2010Prop55
280
     0
102
RTVSPost2010PropOp55
 70
     1
102
RTVSPost2010Prop56
140
1.0
102
RTVSPost2010PropOp56
 70
     1
102
RTVSPost2010Prop57
140
1.0
102
RTVSPost2010PropOp57
 70
     1
102
RTVSPropertyOp0
 70
     1
102
RTVSPropertyOp1
 70
     1
102
RTVSPropertyOp2
 70
     1
102
RTVSPropertyOp3
 70
     1
102
RTVSPropertyOp4
 70
     1
102
RTVSPropertyOp5
 70
     1
102
RTVSPropertyOp6
 70
     1
102
RTVSPropertyOp7
 70
     1
102
RTVSPropertyOp8
 70
     1
102
RTVSPropertyOp9
 70
     1
102
RTVSPropertyOp10
 70
     1
102
RTVSPropertyOp11
 70
     1
102
RTVSPropertyOp12
 70
     1
102
RTVSPropertyOp13
 70
     1
102
RTVSPropertyOp14
 70
     1
102
RTVSPropertyOp15
 70
     1
102
RTVSPropertyOp16
 70
     1
102
RTVSPropertyOp17
 70
     1
102
RTVSPropertyOp18
 70
     1
102
RTVSPropertyOp19
 70
     1
102
RTVSPropertyOp20
 70
     1
102
RTVSPropertyOp21
 70
     1
102
RTVSPropertyOp22
 70
     1
102
RTVSPropertyOp23
 70
     1
102
RTVSPropertyOp24
 70
     1
102
RTVSPropertyOp25
 70
     1
102
RTVSPropertyOp26
 70
     1
102
RTVSPropertyOp27
 70
     1
102
RTVSPropertyOp28
 70
     1
102
RTVSPropertyOp29
 70
     1
102
RTVSPropertyOp30
 70
     1
102
RTVSPropertyOp31
 70
     1
102
RTVSPropertyOp32
 70
     1
102
RTVSPropertyOp33
 70
     1
102
RTVSPropertyOp34
 70
     1
102
RTVSPropertyOp35
 70
     1
102
RTVSPropertyOp36
 70
     1
102
RTVSPropertyOp37
 70
     1
102
RTVSPropertyOp38
 70
     1
102
RTVSPropertyOp39
 70
     1
102
RTVSPropertyOp40
 70
     1
102
RTVSPropertyOp41
 70
     1
102
RTVSPropertyOp42
 70
     1
102
RTVSPropertyOp43
 70
     1
102
RTVSPropertyOp44
 70
     1
102
RTVSPropertyOp45
 70
     1
102
RTVSPropertyOp46
 70
     1
102
RTVSPropertyOp47
 70
     1
102
RTVSPropertyOp48
 70
     1
102
RTVSPropertyOp49
 70
     1
102
RTVSPropertyOp50
 70
     1
102
RTVSPropertyOp51
 70
     0
102
RTVSPropertyOp52
 70
     0
102
RTVSPropertyOp53
 70
     1
102
RTVSPropertyOp54
 70
     1
102
RTVSPropertyOp55
 70
     1
102
RTVSPropertyOp56
 70
     1
102
RTVSPropertyOp57
 70
     1
102
RTVSPropertyOp58
 70
     1
102
RTVSPropertyOp59
 70
     1
102
RTVSPropertyOp60
 70
     1
102
RTVSPropertyOp61
 70
     1
102
RTVSPropertyOp62
 70
     1
  0
XRECORD
  5
E4A
102
{ACAD_REACTORS
330
E49
102
}
330
E49
100
AcDbXrecord
280
     1
102
RTVSPost2010Prop28
280
     0
102
RTVSPost2010PropOp28
 70
     1
102
RTVSPost2010Prop29
280
     1
102
RTVSPost2010PropOp29
 70
     1
102
RTVSPost2010Prop30
280
     1
102
RTVSPost2010PropOp30
 70
     1
102
RTVSPost2010Prop31
280
     0
102
RTVSPost2010PropOp31
 70
     1
102
RTVSPost2010Prop32
280
     0
102
RTVSPost2010PropOp32
 70
     1
102
RTVSPost2010Prop33
280
     0
102
RTVSPost2010PropOp33
 70
     1
102
RTVSPost2010Prop34
280
     0
102
RTVSPost2010PropOp34
 70
     1
102
RTVSPost2010Prop35
280
     0
102
RTVSPost2010PropOp35
 70
     1
102
RTVSPost2010Prop36
280
     0
102
RTVSPost2010PropOp36
 70
     1
102
RTVSPost2010Prop37
 90
       50
102
RTVSPost2010PropOp37
 70
     1
102
RTVSPost2010Prop38
140
0.0
102
RTVSPost2010PropOp38
 70
     1
102
RTVSPost2010Prop39
140
1.0
102
RTVSPost2010PropOp39
 70
     1
102
RTVSPost2010Prop40
 90
        0
102
RTVSPost2010PropOp40
 70
     1
102
RTVSPost2010Prop41ColorIndex
 90
       18
102
RTVSPost2010Prop41ColorRGB
 90
        0
102
RTVSPost2010PropOp41
 70
     1
102
RTVSPost2010Prop42
 90
       50
102
RTVSPost2010PropOp42
 70
     1
102
RTVSPost2010Prop43
 90
        3
102
RTVSPost2010PropOp43
 70
     1
102
RTVSPost2010Prop44ColorIndex
 90
        5
102
RTVSPost2010Prop44ColorRGB
 90
      255
102
RTVSPost2010PropOp44
 70
     1
102
RTVSPost2010Prop45
280
     0
102
RTVSPost2010PropOp45
 70
     1
102
RTVSPost2010Prop46
 90
       50
102
RTVSPost2010PropOp46
 70
     1
102
RTVSPost2010Prop47
 90
       50
102
RTVSPost2010PropOp47
 70
     1
102
RTVSPost2010Prop48
 90
       50
102
RTVSPost2010PropOp48
 70
     1
102
RTVSPost2010Prop49
280
     0
102
RTVSPost2010PropOp49
 70
     1
102
RTVSPost2010Prop50
 90
       50
102
RTVSPost2010PropOp50
 70
     1
102
RTVSPost2010Prop51ColorIndex
 90
      256
102
RTVSPost2010Prop51ColorRGB
 90
-16777216
102
RTVSPost2010PropOp51
 70
     0
102
RTVSPost2010Prop52
140
1.0
102
RTVSPost2010PropOp52
 70
     0
102
RTVSPost2010Prop53
 90
        2
102
RTVSPost2010PropOp53
 70
     1
102
RTVSPost2010Prop54
  1
strokes_ogs.tif
102
RTVSPost2010PropOp54
 70
     1
102
RTVSPost2010Prop55
280
     0
102
RTVSPost2010PropOp55
 70
     1
102
RTVSPost2010Prop56
140
1.0
102
RTVSPost2010PropOp56
 70
     1
102
RTVSPost2010Prop57
140
1.0
102
RTVSPost2010PropOp57
 70
     1
102
RTVSPropertyOp0
 70
     1
102
RTVSPropertyOp1
 70
     1
102
RTVSPropertyOp2
 70
     1
102
RTVSPropertyOp3
 70
     1
102
RTVSPropertyOp4
 70
     1
102
RTVSPropertyOp5
 70
     1
102
RTVSPropertyOp6
 70
     1
102
RTVSPropertyOp7
 70
     1
102
RTVSPropertyOp8
 70
     1
102
RTVSPropertyOp9
 70
     1
102
RTVSPropertyOp10
 70
     1
102
RTVSPropertyOp11
 70
     1
102
RTVSPropertyOp12
 70
     1
102
RTVSPropertyOp13
 70
     1
102
RTVSPropertyOp14
 70
     1
102
RTVSPropertyOp15
 70
     1
102
RTVSPropertyOp16
 70
     1
102
RTVSPropertyOp17
 70
     1
102
RTVSPropertyOp18
 70
     1
102
RTVSPropertyOp19
 70
     1
102
RTVSPropertyOp20
 70
     1
102
RTVSPropertyOp21
 70
     1
102
RTVSPropertyOp22
 70
     1
102
RTVSPropertyOp23
 70
     1
102
RTVSPropertyOp24
 70
     1
102
RTVSPropertyOp25
 70
     1
102
RTVSPropertyOp26
 70
     1
102
RTVSPropertyOp27
 70
     1
102
RTVSPropertyOp28
 70
     1
102
RTVSPropertyOp29
 70
     1
102
RTVSPropertyOp30
 70
     1
102
RTVSPropertyOp31
 70
     1
102
RTVSPropertyOp32
 70
     1
102
RTVSPropertyOp33
 70
     1
102
RTVSPropertyOp34
 70
     1
102
RTVSPropertyOp35
 70
     1
102
RTVSPropertyOp36
 70
     1
102
RTVSPropertyOp37
 70
     1
102
RTVSPropertyOp38
 70
     1
102
RTVSPropertyOp39
 70
     1
102
RTVSPropertyOp40
 70
     1
102
RTVSPropertyOp41
 70
     1
102
RTVSPropertyOp42
 70
     1
102
RTVSPropertyOp43
 70
     1
102
RTVSPropertyOp44
 70
     1
102
RTVSPropertyOp45
 70
     1
102
RTVSPropertyOp46
 70
     1
102
RTVSPropertyOp47
 70
     1
102
RTVSPropertyOp48
 70
     1
102
RTVSPropertyOp49
 70
     1
102
RTVSPropertyOp50
 70
     1
102
RTVSPropertyOp51
 70
     0
102
RTVSPropertyOp52
 70
     0
102
RTVSPropertyOp53
 70
     1
102
RTVSPropertyOp54
 70
     1
102
RTVSPropertyOp55
 70
     1
102
RTVSPropertyOp56
 70
     1
102
RTVSPropertyOp57
 70
     1
102
RTVSPropertyOp58
 70
     1
102
RTVSPropertyOp59
 70
     1
102
RTVSPropertyOp60
 70
     1
102
RTVSPropertyOp61
 70
     1
102
RTVSPropertyOp62
 70
     1
  0
XRECORD
  5
E4C
102
{ACAD_REACTORS
330
E4B
102
}
330
E4B
100
AcDbXrecord
280
     1
102
RTVSPost2010Prop28
280
     0
102
RTVSPost2010PropOp28
 70
     1
102
RTVSPost2010Prop29
280
     1
102
RTVSPost2010PropOp29
 70
     1
102
RTVSPost2010Prop30
280
     1
102
RTVSPost2010PropOp30
 70
     1
102
RTVSPost2010Prop31
280
     0
102
RTVSPost2010PropOp31
 70
     1
102
RTVSPost2010Prop32
280
     0
102
RTVSPost2010PropOp32
 70
     1
102
RTVSPost2010Prop33
280
     0
102
RTVSPost2010PropOp33
 70
     1
102
RTVSPost2010Prop34
280
     0
102
RTVSPost2010PropOp34
 70
     1
102
RTVSPost2010Prop35
280
     0
102
RTVSPost2010PropOp35
 70
     1
102
RTVSPost2010Prop36
280
     0
102
RTVSPost2010PropOp36
 70
     1
102
RTVSPost2010Prop37
 90
       50
102
RTVSPost2010PropOp37
 70
     1
102
RTVSPost2010Prop38
140
0.0
102
RTVSPost2010PropOp38
 70
     1
102
RTVSPost2010Prop39
140
1.0
102
RTVSPost2010PropOp39
 70
     1
102
RTVSPost2010Prop40
 90
        0
102
RTVSPost2010PropOp40
 70
     1
102
RTVSPost2010Prop41ColorIndex
 90
       18
102
RTVSPost2010Prop41ColorRGB
 90
        0
102
RTVSPost2010PropOp41
 70
     1
102
RTVSPost2010Prop42
 90
       50
102
RTVSPost2010PropOp42
 70
     1
102
RTVSPost2010Prop43
 90
        3
102
RTVSPost2010PropOp43
 70
     1
102
RTVSPost2010Prop44ColorIndex
 90
        5
102
RTVSPost2010Prop44ColorRGB
 90
      255
102
RTVSPost2010PropOp44
 70
     1
102
RTVSPost2010Prop45
280
     0
102
RTVSPost2010PropOp45
 70
     1
102
RTVSPost2010Prop46
 90
       50
102
RTVSPost2010PropOp46
 70
     1
102
RTVSPost2010Prop47
 90
       50
102
RTVSPost2010PropOp47
 70
     1
102
RTVSPost2010Prop48
 90
       50
102
RTVSPost2010PropOp48
 70
     1
102
RTVSPost2010Prop49
280
     0
102
RTVSPost2010PropOp49
 70
     1
102
RTVSPost2010Prop50
 90
       50
102
RTVSPost2010PropOp50
 70
     1
102
RTVSPost2010Prop51ColorIndex
 90
      256
102
RTVSPost2010Prop51ColorRGB
 90
-16777216
102
RTVSPost2010PropOp51
 70
     0
102
RTVSPost2010Prop52
140
1.0
102
RTVSPost2010PropOp52
 70
     0
102
RTVSPost2010Prop53
 90
        2
102
RTVSPost2010PropOp53
 70
     1
102
RTVSPost2010Prop54
  1
strokes_ogs.tif
102
RTVSPost2010PropOp54
 70
     1
102
RTVSPost2010Prop55
280
     0
102
RTVSPost2010PropOp55
 70
     1
102
RTVSPost2010Prop56
140
1.0
102
RTVSPost2010PropOp56
 70
     1
102
RTVSPost2010Prop57
140
1.0
102
RTVSPost2010PropOp57
 70
     1
102
RTVSPropertyOp0
 70
     1
102
RTVSPropertyOp1
 70
     1
102
RTVSPropertyOp2
 70
     1
102
RTVSPropertyOp3
 70
     1
102
RTVSPropertyOp4
 70
     1
102
RTVSPropertyOp5
 70
     1
102
RTVSPropertyOp6
 70
     1
102
RTVSPropertyOp7
 70
     1
102
RTVSPropertyOp8
 70
     1
102
RTVSPropertyOp9
 70
     1
102
RTVSPropertyOp10
 70
     1
102
RTVSPropertyOp11
 70
     1
102
RTVSPropertyOp12
 70
     1
102
RTVSPropertyOp13
 70
     1
102
RTVSPropertyOp14
 70
     1
102
RTVSPropertyOp15
 70
     1
102
RTVSPropertyOp16
 70
     1
102
RTVSPropertyOp17
 70
     1
102
RTVSPropertyOp18
 70
     1
102
RTVSPropertyOp19
 70
     1
102
RTVSPropertyOp20
 70
     1
102
RTVSPropertyOp21
 70
     1
102
RTVSPropertyOp22
 70
     1
102
RTVSPropertyOp23
 70
     1
102
RTVSPropertyOp24
 70
     1
102
RTVSPropertyOp25
 70
     1
102
RTVSPropertyOp26
 70
     1
102
RTVSPropertyOp27
 70
     1
102
RTVSPropertyOp28
 70
     1
102
RTVSPropertyOp29
 70
     1
102
RTVSPropertyOp30
 70
     1
102
RTVSPropertyOp31
 70
     1
102
RTVSPropertyOp32
 70
     1
102
RTVSPropertyOp33
 70
     1
102
RTVSPropertyOp34
 70
     1
102
RTVSPropertyOp35
 70
     1
102
RTVSPropertyOp36
 70
     1
102
RTVSPropertyOp37
 70
     1
102
RTVSPropertyOp38
 70
     1
102
RTVSPropertyOp39
 70
     1
102
RTVSPropertyOp40
 70
     1
102
RTVSPropertyOp41
 70
     1
102
RTVSPropertyOp42
 70
     1
102
RTVSPropertyOp43
 70
     1
102
RTVSPropertyOp44
 70
     1
102
RTVSPropertyOp45
 70
     1
102
RTVSPropertyOp46
 70
     1
102
RTVSPropertyOp47
 70
     1
102
RTVSPropertyOp48
 70
     1
102
RTVSPropertyOp49
 70
     1
102
RTVSPropertyOp50
 70
     1
102
RTVSPropertyOp51
 70
     0
102
RTVSPropertyOp52
 70
     0
102
RTVSPropertyOp53
 70
     1
102
RTVSPropertyOp54
 70
     1
102
RTVSPropertyOp55
 70
     1
102
RTVSPropertyOp56
 70
     1
102
RTVSPropertyOp57
 70
     1
102
RTVSPropertyOp58
 70
     1
102
RTVSPropertyOp59
 70
     1
102
RTVSPropertyOp60
 70
     1
102
RTVSPropertyOp61
 70
     1
102
RTVSPropertyOp62
 70
     1
  0
XRECORD
  5
E42
102
{ACAD_REACTORS
330
E41
102
}
330
E41
100
AcDbXrecord
280
     1
102
RTVSPost2010Prop28
280
     0
102
RTVSPost2010PropOp28
 70
     1
102
RTVSPost2010Prop29
280
     1
102
RTVSPost2010PropOp29
 70
     1
102
RTVSPost2010Prop30
280
     1
102
RTVSPost2010PropOp30
 70
     1
102
RTVSPost2010Prop31
280
     0
102
RTVSPost2010PropOp31
 70
     1
102
RTVSPost2010Prop32
280
     0
102
RTVSPost2010PropOp32
 70
     1
102
RTVSPost2010Prop33
280
     0
102
RTVSPost2010PropOp33
 70
     1
102
RTVSPost2010Prop34
280
     0
102
RTVSPost2010PropOp34
 70
     1
102
RTVSPost2010Prop35
280
     0
102
RTVSPost2010PropOp35
 70
     1
102
RTVSPost2010Prop36
280
     0
102
RTVSPost2010PropOp36
 70
     1
102
RTVSPost2010Prop37
 90
       50
102
RTVSPost2010PropOp37
 70
     1
102
RTVSPost2010Prop38
140
0.0
102
RTVSPost2010PropOp38
 70
     1
102
RTVSPost2010Prop39
140
1.0
102
RTVSPost2010PropOp39
 70
     1
102
RTVSPost2010Prop40
 90
        0
102
RTVSPost2010PropOp40
 70
     1
102
RTVSPost2010Prop41ColorIndex
 90
       18
102
RTVSPost2010Prop41ColorRGB
 90
        0
102
RTVSPost2010PropOp41
 70
     1
102
RTVSPost2010Prop42
 90
       50
102
RTVSPost2010PropOp42
 70
     1
102
RTVSPost2010Prop43
 90
        3
102
RTVSPost2010PropOp43
 70
     1
102
RTVSPost2010Prop44ColorIndex
 90
        5
102
RTVSPost2010Prop44ColorRGB
 90
      255
102
RTVSPost2010PropOp44
 70
     1
102
RTVSPost2010Prop45
280
     0
102
RTVSPost2010PropOp45
 70
     1
102
RTVSPost2010Prop46
 90
       50
102
RTVSPost2010PropOp46
 70
     1
102
RTVSPost2010Prop47
 90
       50
102
RTVSPost2010PropOp47
 70
     1
102
RTVSPost2010Prop48
 90
       50
102
RTVSPost2010PropOp48
 70
     1
102
RTVSPost2010Prop49
280
     0
102
RTVSPost2010PropOp49
 70
     1
102
RTVSPost2010Prop50
 90
       50
102
RTVSPost2010PropOp50
 70
     1
102
RTVSPost2010Prop51ColorIndex
 90
      256
102
RTVSPost2010Prop51ColorRGB
 90
-16777216
102
RTVSPost2010PropOp51
 70
     0
102
RTVSPost2010Prop52
140
1.0
102
RTVSPost2010PropOp52
 70
     0
102
RTVSPost2010Prop53
 90
        2
102
RTVSPost2010PropOp53
 70
     1
102
RTVSPost2010Prop54
  1
strokes_ogs.tif
102
RTVSPost2010PropOp54
 70
     1
102
RTVSPost2010Prop55
280
     0
102
RTVSPost2010PropOp55
 70
     1
102
RTVSPost2010Prop56
140
1.0
102
RTVSPost2010PropOp56
 70
     1
102
RTVSPost2010Prop57
140
1.0
102
RTVSPost2010PropOp57
 70
     1
102
RTVSPropertyOp0
 70
     1
102
RTVSPropertyOp1
 70
     1
102
RTVSPropertyOp2
 70
     1
102
RTVSPropertyOp3
 70
     1
102
RTVSPropertyOp4
 70
     1
102
RTVSPropertyOp5
 70
     1
102
RTVSPropertyOp6
 70
     1
102
RTVSPropertyOp7
 70
     1
102
RTVSPropertyOp8
 70
     1
102
RTVSPropertyOp9
 70
     1
102
RTVSPropertyOp10
 70
     1
102
RTVSPropertyOp11
 70
     1
102
RTVSPropertyOp12
 70
     1
102
RTVSPropertyOp13
 70
     1
102
RTVSPropertyOp14
 70
     1
102
RTVSPropertyOp15
 70
     1
102
RTVSPropertyOp16
 70
     1
102
RTVSPropertyOp17
 70
     1
102
RTVSPropertyOp18
 70
     1
102
RTVSPropertyOp19
 70
     1
102
RTVSPropertyOp20
 70
     1
102
RTVSPropertyOp21
 70
     1
102
RTVSPropertyOp22
 70
     1
102
RTVSPropertyOp23
 70
     1
102
RTVSPropertyOp24
 70
     1
102
RTVSPropertyOp25
 70
     1
102
RTVSPropertyOp26
 70
     1
102
RTVSPropertyOp27
 70
     1
102
RTVSPropertyOp28
 70
     1
102
RTVSPropertyOp29
 70
     1
102
RTVSPropertyOp30
 70
     1
102
RTVSPropertyOp31
 70
     1
102
RTVSPropertyOp32
 70
     1
102
RTVSPropertyOp33
 70
     1
102
RTVSPropertyOp34
 70
     1
102
RTVSPropertyOp35
 70
     1
102
RTVSPropertyOp36
 70
     1
102
RTVSPropertyOp37
 70
     1
102
RTVSPropertyOp38
 70
     1
102
RTVSPropertyOp39
 70
     1
102
RTVSPropertyOp40
 70
     1
102
RTVSPropertyOp41
 70
     1
102
RTVSPropertyOp42
 70
     1
102
RTVSPropertyOp43
 70
     1
102
RTVSPropertyOp44
 70
     1
102
RTVSPropertyOp45
 70
     1
102
RTVSPropertyOp46
 70
     1
102
RTVSPropertyOp47
 70
     1
102
RTVSPropertyOp48
 70
     1
102
RTVSPropertyOp49
 70
     1
102
RTVSPropertyOp50
 70
     1
102
RTVSPropertyOp51
 70
     0
102
RTVSPropertyOp52
 70
     0
102
RTVSPropertyOp53
 70
     1
102
RTVSPropertyOp54
 70
     1
102
RTVSPropertyOp55
 70
     1
102
RTVSPropertyOp56
 70
     1
102
RTVSPropertyOp57
 70
     1
102
RTVSPropertyOp58
 70
     1
102
RTVSPropertyOp59
 70
     1
102
RTVSPropertyOp60
 70
     1
102
RTVSPropertyOp61
 70
     1
102
RTVSPropertyOp62
 70
     1
  0
XRECORD
  5
E36
102
{ACAD_REACTORS
330
E35
102
}
330
E35
100
AcDbXrecord
280
     1
102
RTVSPost2010Prop28
280
     0
102
RTVSPost2010PropOp28
 70
     1
102
RTVSPost2010Prop29
280
     1
102
RTVSPost2010PropOp29
 70
     1
102
RTVSPost2010Prop30
280
     1
102
RTVSPost2010PropOp30
 70
     1
102
RTVSPost2010Prop31
280
     0
102
RTVSPost2010PropOp31
 70
     1
102
RTVSPost2010Prop32
280
     0
102
RTVSPost2010PropOp32
 70
     1
102
RTVSPost2010Prop33
280
     0
102
RTVSPost2010PropOp33
 70
     1
102
RTVSPost2010Prop34
280
     0
102
RTVSPost2010PropOp34
 70
     1
102
RTVSPost2010Prop35
280
     0
102
RTVSPost2010PropOp35
 70
     1
102
RTVSPost2010Prop36
280
     0
102
RTVSPost2010PropOp36
 70
     1
102
RTVSPost2010Prop37
 90
       50
102
RTVSPost2010PropOp37
 70
     1
102
RTVSPost2010Prop38
140
0.0
102
RTVSPost2010PropOp38
 70
     1
102
RTVSPost2010Prop39
140
1.0
102
RTVSPost2010PropOp39
 70
     1
102
RTVSPost2010Prop40
 90
        0
102
RTVSPost2010PropOp40
 70
     1
102
RTVSPost2010Prop41ColorIndex
 90
       18
102
RTVSPost2010Prop41ColorRGB
 90
        0
102
RTVSPost2010PropOp41
 70
     1
102
RTVSPost2010Prop42
 90
       50
102
RTVSPost2010PropOp42
 70
     1
102
RTVSPost2010Prop43
 90
        3
102
RTVSPost2010PropOp43
 70
     1
102
RTVSPost2010Prop44ColorIndex
 90
        5
102
RTVSPost2010Prop44ColorRGB
 90
      255
102
RTVSPost2010PropOp44
 70
     1
102
RTVSPost2010Prop45
280
     0
102
RTVSPost2010PropOp45
 70
     1
102
RTVSPost2010Prop46
 90
       50
102
RTVSPost2010PropOp46
 70
     1
102
RTVSPost2010Prop47
 90
       50
102
RTVSPost2010PropOp47
 70
     1
102
RTVSPost2010Prop48
 90
       50
102
RTVSPost2010PropOp48
 70
     1
102
RTVSPost2010Prop49
280
     0
102
RTVSPost2010PropOp49
 70
     1
102
RTVSPost2010Prop50
 90
       50
102
RTVSPost2010PropOp50
 70
     1
102
RTVSPost2010Prop51ColorIndex
 90
      256
102
RTVSPost2010Prop51ColorRGB
 90
-16777216
102
RTVSPost2010PropOp51
 70
     0
102
RTVSPost2010Prop52
140
1.0
102
RTVSPost2010PropOp52
 70
     0
102
RTVSPost2010Prop53
 90
        2
102
RTVSPost2010PropOp53
 70
     1
102
RTVSPost2010Prop54
  1
strokes_ogs.tif
102
RTVSPost2010PropOp54
 70
     1
102
RTVSPost2010Prop55
280
     0
102
RTVSPost2010PropOp55
 70
     1
102
RTVSPost2010Prop56
140
1.0
102
RTVSPost2010PropOp56
 70
     1
102
RTVSPost2010Prop57
140
1.0
102
RTVSPost2010PropOp57
 70
     1
102
RTVSPropertyOp0
 70
     1
102
RTVSPropertyOp1
 70
     1
102
RTVSPropertyOp2
 70
     1
102
RTVSPropertyOp3
 70
     1
102
RTVSPropertyOp4
 70
     1
102
RTVSPropertyOp5
 70
     1
102
RTVSPropertyOp6
 70
     1
102
RTVSPropertyOp7
 70
     1
102
RTVSPropertyOp8
 70
     1
102
RTVSPropertyOp9
 70
     1
102
RTVSPropertyOp10
 70
     1
102
RTVSPropertyOp11
 70
     1
102
RTVSPropertyOp12
 70
     1
102
RTVSPropertyOp13
 70
     1
102
RTVSPropertyOp14
 70
     1
102
RTVSPropertyOp15
 70
     1
102
RTVSPropertyOp16
 70
     1
102
RTVSPropertyOp17
 70
     1
102
RTVSPropertyOp18
 70
     1
102
RTVSPropertyOp19
 70
     1
102
RTVSPropertyOp20
 70
     1
102
RTVSPropertyOp21
 70
     1
102
RTVSPropertyOp22
 70
     1
102
RTVSPropertyOp23
 70
     1
102
RTVSPropertyOp24
 70
     1
102
RTVSPropertyOp25
 70
     1
102
RTVSPropertyOp26
 70
     1
102
RTVSPropertyOp27
 70
     1
102
RTVSPropertyOp28
 70
     1
102
RTVSPropertyOp29
 70
     1
102
RTVSPropertyOp30
 70
     1
102
RTVSPropertyOp31
 70
     1
102
RTVSPropertyOp32
 70
     1
102
RTVSPropertyOp33
 70
     1
102
RTVSPropertyOp34
 70
     1
102
RTVSPropertyOp35
 70
     1
102
RTVSPropertyOp36
 70
     1
102
RTVSPropertyOp37
 70
     1
102
RTVSPropertyOp38
 70
     1
102
RTVSPropertyOp39
 70
     1
102
RTVSPropertyOp40
 70
     1
102
RTVSPropertyOp41
 70
     1
102
RTVSPropertyOp42
 70
     1
102
RTVSPropertyOp43
 70
     1
102
RTVSPropertyOp44
 70
     1
102
RTVSPropertyOp45
 70
     1
102
RTVSPropertyOp46
 70
     1
102
RTVSPropertyOp47
 70
     1
102
RTVSPropertyOp48
 70
     1
102
RTVSPropertyOp49
 70
     1
102
RTVSPropertyOp50
 70
     1
102
RTVSPropertyOp51
 70
     0
102
RTVSPropertyOp52
 70
     0
102
RTVSPropertyOp53
 70
     1
102
RTVSPropertyOp54
 70
     1
102
RTVSPropertyOp55
 70
     1
102
RTVSPropertyOp56
 70
     1
102
RTVSPropertyOp57
 70
     1
102
RTVSPropertyOp58
 70
     1
102
RTVSPropertyOp59
 70
     1
102
RTVSPropertyOp60
 70
     1
102
RTVSPropertyOp61
 70
     1
102
RTVSPropertyOp62
 70
     1
  0
XRECORD
  5
E4E
102
{ACAD_REACTORS
330
E4D
102
}
330
E4D
100
AcDbXrecord
280
     1
102
RTVSPost2010Prop28
280
     0
102
RTVSPost2010PropOp28
 70
     1
102
RTVSPost2010Prop29
280
     1
102
RTVSPost2010PropOp29
 70
     1
102
RTVSPost2010Prop30
280
     1
102
RTVSPost2010PropOp30
 70
     1
102
RTVSPost2010Prop31
280
     0
102
RTVSPost2010PropOp31
 70
     1
102
RTVSPost2010Prop32
280
     0
102
RTVSPost2010PropOp32
 70
     1
102
RTVSPost2010Prop33
280
     0
102
RTVSPost2010PropOp33
 70
     1
102
RTVSPost2010Prop34
280
     0
102
RTVSPost2010PropOp34
 70
     1
102
RTVSPost2010Prop35
280
     0
102
RTVSPost2010PropOp35
 70
     1
102
RTVSPost2010Prop36
280
     0
102
RTVSPost2010PropOp36
 70
     1
102
RTVSPost2010Prop37
 90
       50
102
RTVSPost2010PropOp37
 70
     1
102
RTVSPost2010Prop38
140
0.0
102
RTVSPost2010PropOp38
 70
     1
102
RTVSPost2010Prop39
140
1.0
102
RTVSPost2010PropOp39
 70
     1
102
RTVSPost2010Prop40
 90
        0
102
RTVSPost2010PropOp40
 70
     1
102
RTVSPost2010Prop41ColorIndex
 90
       18
102
RTVSPost2010Prop41ColorRGB
 90
        0
102
RTVSPost2010PropOp41
 70
     1
102
RTVSPost2010Prop42
 90
       50
102
RTVSPost2010PropOp42
 70
     1
102
RTVSPost2010Prop43
 90
        3
102
RTVSPost2010PropOp43
 70
     1
102
RTVSPost2010Prop44ColorIndex
 90
        5
102
RTVSPost2010Prop44ColorRGB
 90
      255
102
RTVSPost2010PropOp44
 70
     1
102
RTVSPost2010Prop45
280
     0
102
RTVSPost2010PropOp45
 70
     1
102
RTVSPost2010Prop46
 90
       50
102
RTVSPost2010PropOp46
 70
     1
102
RTVSPost2010Prop47
 90
       50
102
RTVSPost2010PropOp47
 70
     1
102
RTVSPost2010Prop48
 90
       50
102
RTVSPost2010PropOp48
 70
     1
102
RTVSPost2010Prop49
280
     0
102
RTVSPost2010PropOp49
 70
     1
102
RTVSPost2010Prop50
 90
       50
102
RTVSPost2010PropOp50
 70
     1
102
RTVSPost2010Prop51ColorIndex
 90
      256
102
RTVSPost2010Prop51ColorRGB
 90
-16777216
102
RTVSPost2010PropOp51
 70
     0
102
RTVSPost2010Prop52
140
1.0
102
RTVSPost2010PropOp52
 70
     0
102
RTVSPost2010Prop53
 90
        2
102
RTVSPost2010PropOp53
 70
     1
102
RTVSPost2010Prop54
  1
strokes_ogs.tif
102
RTVSPost2010PropOp54
 70
     1
102
RTVSPost2010Prop55
280
     0
102
RTVSPost2010PropOp55
 70
     1
102
RTVSPost2010Prop56
140
1.0
102
RTVSPost2010PropOp56
 70
     1
102
RTVSPost2010Prop57
140
1.0
102
RTVSPost2010PropOp57
 70
     1
102
RTVSPropertyOp0
 70
     1
102
RTVSPropertyOp1
 70
     1
102
RTVSPropertyOp2
 70
     1
102
RTVSPropertyOp3
 70
     1
102
RTVSPropertyOp4
 70
     1
102
RTVSPropertyOp5
 70
     1
102
RTVSPropertyOp6
 70
     1
102
RTVSPropertyOp7
 70
     1
102
RTVSPropertyOp8
 70
     1
102
RTVSPropertyOp9
 70
     1
102
RTVSPropertyOp10
 70
     1
102
RTVSPropertyOp11
 70
     1
102
RTVSPropertyOp12
 70
     1
102
RTVSPropertyOp13
 70
     1
102
RTVSPropertyOp14
 70
     1
102
RTVSPropertyOp15
 70
     1
102
RTVSPropertyOp16
 70
     1
102
RTVSPropertyOp17
 70
     1
102
RTVSPropertyOp18
 70
     1
102
RTVSPropertyOp19
 70
     1
102
RTVSPropertyOp20
 70
     1
102
RTVSPropertyOp21
 70
     1
102
RTVSPropertyOp22
 70
     1
102
RTVSPropertyOp23
 70
     1
102
RTVSPropertyOp24
 70
     1
102
RTVSPropertyOp25
 70
     1
102
RTVSPropertyOp26
 70
     1
102
RTVSPropertyOp27
 70
     1
102
RTVSPropertyOp28
 70
     1
102
RTVSPropertyOp29
 70
     1
102
RTVSPropertyOp30
 70
     1
102
RTVSPropertyOp31
 70
     1
102
RTVSPropertyOp32
 70
     1
102
RTVSPropertyOp33
 70
     1
102
RTVSPropertyOp34
 70
     1
102
RTVSPropertyOp35
 70
     1
102
RTVSPropertyOp36
 70
     1
102
RTVSPropertyOp37
 70
     1
102
RTVSPropertyOp38
 70
     1
102
RTVSPropertyOp39
 70
     1
102
RTVSPropertyOp40
 70
     1
102
RTVSPropertyOp41
 70
     1
102
RTVSPropertyOp42
 70
     1
102
RTVSPropertyOp43
 70
     1
102
RTVSPropertyOp44
 70
     1
102
RTVSPropertyOp45
 70
     1
102
RTVSPropertyOp46
 70
     1
102
RTVSPropertyOp47
 70
     1
102
RTVSPropertyOp48
 70
     1
102
RTVSPropertyOp49
 70
     1
102
RTVSPropertyOp50
 70
     1
102
RTVSPropertyOp51
 70
     0
102
RTVSPropertyOp52
 70
     0
102
RTVSPropertyOp53
 70
     1
102
RTVSPropertyOp54
 70
     1
102
RTVSPropertyOp55
 70
     1
102
RTVSPropertyOp56
 70
     1
102
RTVSPropertyOp57
 70
     1
102
RTVSPropertyOp58
 70
     1
102
RTVSPropertyOp59
 70
     1
102
RTVSPropertyOp60
 70
     1
102
RTVSPropertyOp61
 70
     1
102
RTVSPropertyOp62
 70
     1
  0
ENDSEC
  0
EOF
