  0
SECTION
  2
HEADER
  9
$ACADVER
  1
AC1015
  9
$ACADMAINTVER
 70
    20
  9
$DWGCODEPAGE
  3
ANSI_932
  9
$INSBASE
 10
0.0
 20
0.0
 30
0.0
  9
$EXTMIN
 10
10.0
 20
9.999999999999998
 30
0.0
  9
$EXTMAX
 10
674.220223
 20
460.5716089999998
 30
0.0
  9
$LIMMIN
 10
0.0
 20
0.0
  9
$LIMMAX
 10
792.0
 20
546.0
  9
$ORTHOMODE
 70
     1
  9
$REGENMODE
 70
     1
  9
$FILLMODE
 70
     1
  9
$QTEXTMODE
 70
     0
  9
$MIRRTEXT
 70
     1
  9
$LTSCALE
 40
20.0
  9
$ATTMODE
 70
     1
  9
$TEXTSIZE
 40
5.0
  9
$TRACEWID
 40
1.0
  9
$TEXTSTYLE
  7
STANDARD
  9
$CLAYER
  8
0
  9
$CELTYPE
  6
BYLAYER
  9
$CECOLOR
 62
   256
  9
$CELTSCALE
 40
1.0
  9
$DISPSILH
 70
     0
  9
$DIMSCALE
 40
1.0
  9
$DIMASZ
 40
2.5
  9
$DIMEXO
 40
1.0
  9
$DIMDLI
 40
10.0
  9
$DIMRND
 40
0.0
  9
$DIMDLE
 40
0.0
  9
$DIMEXE
 40
1.0
  9
$DIMTP
 40
0.0
  9
$DIMTM
 40
0.0
  9
$DIMTXT
 40
3.2
  9
$DIMCEN
 40
0.0
  9
$DIMTSZ
 40
0.0
  9
$DIMTOL
 70
     0
  9
$DIMLIM
 70
     0
  9
$DIMTIH
 70
     0
  9
$DIMTOH
 70
     0
  9
$DIMSE1
 70
     0
  9
$DIMSE2
 70
     0
  9
$DIMTAD
 70
     3
  9
$DIMZIN
 70
     8
  9
$DIMBLK
  1

  9
$DIMASO
 70
     1
  9
$DIMSHO
 70
     1
  9
$DIMPOST
  1

  9
$DIMAPOST
  1

  9
$DIMALT
 70
     0
  9
$DIMALTD
 70
     2
  9
$DIMALTF
 40
25.4
  9
$DIMLFAC
 40
1.0
  9
$DIMTOFL
 70
     1
  9
$DIMTVP
 40
0.0
  9
$DIMTIX
 70
     0
  9
$DIMSOXD
 70
     0
  9
$DIMSAH
 70
     1
  9
$DIMBLK1
  1

  9
$DIMBLK2
  1

  9
$DIMSTYLE
  2
STANDARD
  9
$DIMCLRD
 70
     0
  9
$DIMCLRE
 70
     0
  9
$DIMCLRT
 70
     0
  9
$DIMTFAC
 40
1.0
  9
$DIMGAP
 40
1.0
  9
$DIMJUST
 70
     0
  9
$DIMSD1
 70
     0
  9
$DIMSD2
 70
     0
  9
$DIMTOLJ
 70
     1
  9
$DIMTZIN
 70
     0
  9
$DIMALTZ
 70
     0
  9
$DIMALTTZ
 70
     0
  9
$DIMUPT
 70
     0
  9
$DIMDEC
 70
     4
  9
$DIMTDEC
 70
     4
  9
$DIMALTU
 70
     2
  9
$DIMALTTD
 70
     2
  9
$DIMTXSTY
  7
STANDARD
  9
$DIMAUNIT
 70
     0
  9
$DIMADEC
 70
     0
  9
$DIMALTRND
 40
0.0
  9
$DIMAZIN
 70
     0
  9
$DIMDSEP
 70
    46
  9
$DIMATFIT
 70
     3
  9
$DIMFRAC
 70
     0
  9
$DIMLDRBLK
  1

  9
$DIMLUNIT
 70
     2
  9
$DIMLWD
 70
    -2
  9
$DIMLWE
 70
    -2
  9
$DIMTMOVE
 70
     0
  9
$LUNITS
 70
     2
  9
$LUPREC
 70
     4
  9
$SKETCHINC
 40
1.0
  9
$FILLETRAD
 40
3.299999999999998
  9
$AUNITS
 70
     0
  9
$AUPREC
 70
     2
  9
$MENU
  1
.
  9
$ELEVATION
 40
0.0
  9
$PELEVATION
 40
0.0
  9
$THICKNESS
 40
0.0
  9
$LIMCHECK
 70
     0
  9
$CHAMFERA
 40
10.0
  9
$CHAMFERB
 40
10.0
  9
$CHAMFERC
 40
0.0
  9
$CHAMFERD
 40
0.0
  9
$SKPOLY
 70
     0
  9
$TDCREATE
 40
2451301.429808218
  9
$TDUCREATE
 40
2451301.054808217
  9
$TDUPDATE
 40
2457192.689932998
  9
$TDUUPDATE
 40
2457192.314932998
  9
$TDINDWG
 40
0.0634320602
  9
$TDUSRTIMER
 40
0.0634321065
  9
$USRTIMER
 70
     1
  9
$ANGBASE
 50
0.0
  9
$ANGDIR
 70
     0
  9
$PDMODE
 70
     0
  9
$PDSIZE
 40
0.0
  9
$PLINEWID
 40
0.0
  9
$SPLFRAME
 70
     0
  9
$SPLINETYPE
 70
     6
  9
$SPLINESEGS
 70
     8
  9
$HANDSEED
  5
A8FB
  9
$SURFTAB1
 70
     6
  9
$SURFTAB2
 70
     6
  9
$SURFTYPE
 70
     6
  9
$SURFU
 70
     6
  9
$SURFV
 70
     6
  9
$UCSBASE
  2

  9
$UCSNAME
  2

  9
$UCSORG
 10
0.0
 20
0.0
 30
0.0
  9
$UCSXDIR
 10
1.0
 20
0.0
 30
0.0
  9
$UCSYDIR
 10
0.0
 20
1.0
 30
0.0
  9
$UCSORTHOREF
  2

  9
$UCSORTHOVIEW
 70
     0
  9
$UCSORGTOP
 10
0.0
 20
0.0
 30
0.0
  9
$UCSORGBOTTOM
 10
0.0
 20
0.0
 30
0.0
  9
$UCSORGLEFT
 10
0.0
 20
0.0
 30
0.0
  9
$UCSORGRIGHT
 10
0.0
 20
0.0
 30
0.0
  9
$UCSORGFRONT
 10
0.0
 20
0.0
 30
0.0
  9
$UCSORGBACK
 10
0.0
 20
0.0
 30
0.0
  9
$PUCSBASE
  2

  9
$PUCSNAME
  2

  9
$PUCSORG
 10
0.0
 20
0.0
 30
0.0
  9
$PUCSXDIR
 10
1.0
 20
0.0
 30
0.0
  9
$PUCSYDIR
 10
0.0
 20
1.0
 30
0.0
  9
$PUCSORTHOREF
  2

  9
$PUCSORTHOVIEW
 70
     0
  9
$PUCSORGTOP
 10
0.0
 20
0.0
 30
0.0
  9
$PUCSORGBOTTOM
 10
0.0
 20
0.0
 30
0.0
  9
$PUCSORGLEFT
 10
0.0
 20
0.0
 30
0.0
  9
$PUCSORGRIGHT
 10
0.0
 20
0.0
 30
0.0
  9
$PUCSORGFRONT
 10
0.0
 20
0.0
 30
0.0
  9
$PUCSORGBACK
 10
0.0
 20
0.0
 30
0.0
  9
$USERI1
 70
     0
  9
$USERI2
 70
     0
  9
$USERI3
 70
     0
  9
$USERI4
 70
     0
  9
$USERI5
 70
     0
  9
$USERR1
 40
0.0
  9
$USERR2
 40
0.0
  9
$USERR3
 40
0.0
  9
$USERR4
 40
0.0
  9
$USERR5
 40
0.0
  9
$WORLDVIEW
 70
     1
  9
$SHADEDGE
 70
     3
  9
$SHADEDIF
 70
    70
  9
$TILEMODE
 70
     1
  9
$MAXACTVP
 70
    16
  9
$PINSBASE
 10
0.0
 20
0.0
 30
0.0
  9
$PLIMCHECK
 70
     0
  9
$PEXTMIN
 10
1.000000000000000E+20
 20
1.000000000000000E+20
 30
1.000000000000000E+20
  9
$PEXTMAX
 10
-1.000000000000000E+20
 20
-1.000000000000000E+20
 30
-1.000000000000000E+20
  9
$PLIMMIN
 10
0.0
 20
0.0
  9
$PLIMMAX
 10
420.0
 20
297.0
  9
$UNITMODE
 70
     0
  9
$VISRETAIN
 70
     0
  9
$PLINEGEN
 70
     0
  9
$PSLTSCALE
 70
     0
  9
$TREEDEPTH
 70
  3020
  9
$CMLSTYLE
  2
STANDARD
  9
$CMLJUST
 70
     0
  9
$CMLSCALE
 40
1.0
  9
$PROXYGRAPHICS
 70
     1
  9
$MEASUREMENT
 70
     0
  9
$CELWEIGHT
370
    -1
  9
$ENDCAPS
280
     0
  9
$JOINSTYLE
280
     0
  9
$LWDISPLAY
290
     0
  9
$INSUNITS
 70
     0
  9
$HYPERLINKBASE
  1

  9
$STYLESHEET
  1

  9
$XEDIT
290
     1
  9
$CEPSNTYPE
380
     0
  9
$PSTYLEMODE
290
     1
  9
$FINGERPRINTGUID
  2
{DF5D4BEA-7827-4361-BF6F-1195F273481A}
  9
$VERSIONGUID
  2
{DDA70D21-DFD1-498A-8762-25AC22B77B40}
  9
$EXTNAMES
290
     1
  9
$PSVPSCALE
 40
0.0
  9
$OLESTARTUP
290
     0
  0
ENDSEC
  0
SECTION
  2
CLASSES
  0
CLASS
  1
ACDBDICTIONARYWDFLT
  2
AcDbDictionaryWithDefault
  3
ObjectDBX Classes
 90
        0
280
     0
281
     0
  0
CLASS
  1
ACDBPLACEHOLDER
  2
AcDbPlaceHolder
  3
ObjectDBX Classes
 90
        0
280
     0
281
     0
  0
CLASS
  1
LAYOUT
  2
AcDbLayout
  3
ObjectDBX Classes
 90
        0
280
     0
281
     0
  0
CLASS
  1
DICTIONARYVAR
  2
AcDbDictionaryVar
  3
ObjectDBX Classes
 90
        0
280
     0
281
     0
  0
CLASS
  1
MATERIAL
  2
AcDbMaterial
  3
ObjectDBX Classes
 90
     1153
280
     0
281
     0
  0
CLASS
  1
VISUALSTYLE
  2
AcDbVisualStyle
  3
ObjectDBX Classes
 90
     4095
280
     0
281
     0
  0
CLASS
  1
TABLESTYLE
  2
AcDbTableStyle
  3
ObjectDBX Classes
 90
     4095
280
     0
281
     0
  0
CLASS
  1
SCALE
  2
AcDbScale
  3
ObjectDBX Classes
 90
     1153
280
     0
281
     0
  0
CLASS
  1
MLEADERSTYLE
  2
AcDbMLeaderStyle
  3
ACDB_MLEADERSTYLE_CLASS
 90
     4095
280
     0
281
     0
  0
CLASS
  1
ACDBSECTIONVIEWSTYLE
  2
AcDbSectionViewStyle
  3
ObjectDBX Classes
 90
     1025
280
     0
281
     0
  0
CLASS
  1
ACDBDETAILVIEWSTYLE
  2
AcDbDetailViewStyle
  3
ObjectDBX Classes
 90
     1025
280
     0
281
     0
  0
CLASS
  1
CELLSTYLEMAP
  2
AcDbCellStyleMap
  3
ObjectDBX Classes
 90
     1152
280
     0
281
     0
  0
ENDSEC
  0
SECTION
  2
TABLES
  0
TABLE
  2
VPORT
  5
A41D
330
0
100
AcDbSymbolTable
 70
     1
  0
VPORT
  5
A846
330
A41D
100
AcDbSymbolTableRecord
100
AcDbViewportTableRecord
  2
*ACTIVE
 70
     0
 10
0.0
 20
0.0
 11
1.0
 21
1.0
 12
515.5359188521513
 22
235.2800457830074
 13
0.0
 23
0.0
 14
10.0
 24
10.0
 15
10.0
 25
10.0
 16
0.0
 26
0.0
 36
1.0
 17
0.0
 27
0.0
 37
0.0
 40
454.1556519844577
 41
2.35006605019815
 42
50.0
 43
0.0
 44
0.0
 50
0.0
 51
0.0
 71
     0
 72
   100
 73
     1
 74
     0
 75
     0
 76
     0
 77
     0
 78
     0
281
     0
 65
     1
110
0.0
120
0.0
130
0.0
111
1.0
121
0.0
131
0.0
112
0.0
122
1.0
132
0.0
 79
     0
146
0.0
1001
ACAD_NAV_VCDISPLAY
1070
     3
  0
ENDTAB
  0
TABLE
  2
LTYPE
  5
A41A
330
0
100
AcDbSymbolTable
 70
     4
  0
LTYPE
  5
A428
330
A41A
100
AcDbSymbolTableRecord
100
AcDbLinetypeTableRecord
  2
BYBLOCK
 70
     0
  3

 72
    65
 73
     0
 40
0.0
  0
LTYPE
  5
A429
330
A41A
100
AcDbSymbolTableRecord
100
AcDbLinetypeTableRecord
  2
BYLAYER
 70
     0
  3

 72
    65
 73
     0
 40
0.0
  0
LTYPE
  5
A42A
330
A41A
100
AcDbSymbolTableRecord
100
AcDbLinetypeTableRecord
  2
CONTINUOUS
 70
     0
  3
Solid line
 72
    65
 73
     0
 40
0.0
  0
LTYPE
  5
A438
330
A41A
100
AcDbSymbolTableRecord
100
AcDbLinetypeTableRecord
  2
DASHED
 70
     0
  3
__ __ __ __ __ __ __ __ __ __ __ __ __ __ __ __
 72
    65
 73
     2
 40
0.75
 49
0.5
 74
     0
 49
-0.25
 74
     0
  0
LTYPE
  5
A439
330
A41A
100
AcDbSymbolTableRecord
100
AcDbLinetypeTableRecord
  2
CENTER
 70
     0
  3
____ _ ____ _ ____ _ ____ _ ____ _ ____ _ ____ 
 72
    65
 73
     4
 40
2.0
 49
1.25
 74
     0
 49
-0.25
 74
     0
 49
0.25
 74
     0
 49
-0.25
 74
     0
  0
LTYPE
  5
A43A
330
A41A
100
AcDbSymbolTableRecord
100
AcDbLinetypeTableRecord
  2
PHANTOM
 70
     0
  3
______  __  __  ______  __  __  ______  __  __ 
 72
    65
 73
     6
 40
2.5
 49
1.25
 74
     0
 49
-0.25
 74
     0
 49
0.25
 74
     0
 49
-0.25
 74
     0
 49
0.25
 74
     0
 49
-0.25
 74
     0
  0
ENDTAB
  0
TABLE
  2
LAYER
  5
A417
330
0
100
AcDbSymbolTable
 70
     8
  0
LAYER
  5
A425
102
{ACAD_XDICTIONARY
360
A89F
102
}
330
A417
100
AcDbSymbolTableRecord
100
AcDbLayerTableRecord
  2
0
 70
     0
 62
     7
  6
CONTINUOUS
370
    -3
390
A84D
  0
LAYER
  5
A43B
102
{ACAD_XDICTIONARY
360
A8A1
102
}
330
A417
100
AcDbSymbolTableRecord
100
AcDbLayerTableRecord
  2
4
 70
     0
 62
     1
  6
CENTER
370
    -3
390
A84D
  0
LAYER
  5
A43C
102
{ACAD_XDICTIONARY
360
A8A3
102
}
330
A417
100
AcDbSymbolTableRecord
100
AcDbLayerTableRecord
  2
5
 70
     0
 62
     6
  6
PHANTOM
370
    -3
390
A84D
  0
LAYER
  5
A43D
102
{ACAD_XDICTIONARY
360
A8A5
102
}
330
A417
100
AcDbSymbolTableRecord
100
AcDbLayerTableRecord
  2
1
 70
     0
 62
     7
  6
CONTINUOUS
370
    -3
390
A84D
  0
LAYER
  5
A43E
102
{ACAD_XDICTIONARY
360
A8A7
102
}
330
A417
100
AcDbSymbolTableRecord
100
AcDbLayerTableRecord
  2
2
 70
     0
 62
     4
  6
CONTINUOUS
370
    -3
390
A84D
  0
LAYER
  5
A43F
102
{ACAD_XDICTIONARY
360
A8A9
102
}
330
A417
100
AcDbSymbolTableRecord
100
AcDbLayerTableRecord
  2
3
 70
     0
 62
     2
  6
DASHED
370
    -3
390
A84D
  0
LAYER
  5
A440
102
{ACAD_XDICTIONARY
360
A8AB
102
}
330
A417
100
AcDbSymbolTableRecord
100
AcDbLayerTableRecord
  2
6
 70
     0
 62
     5
  6
CONTINUOUS
370
    -3
390
A84D
  0
LAYER
  5
A441
102
{ACAD_XDICTIONARY
360
A8AD
102
}
330
A417
100
AcDbSymbolTableRecord
100
AcDbLayerTableRecord
  2
7
 70
     0
 62
     3
  6
CONTINUOUS
370
    -3
390
A84D
  0
ENDTAB
  0
TABLE
  2
STYLE
  5
A418
330
0
100
AcDbSymbolTable
 70
     1
  0
STYLE
  5
A426
330
A418
100
AcDbSymbolTableRecord
100
AcDbTextStyleTableRecord
  2
STANDARD
 70
     0
 40
0.0
 41
1.0
 50
0.0
 71
     0
 42
5.0
  3
txt
  4

  0
ENDTAB
  0
TABLE
  2
VIEW
  5
A41B
330
0
100
AcDbSymbolTable
 70
     0
  0
ENDTAB
  0
TABLE
  2
UCS
  5
A41C
330
0
100
AcDbSymbolTable
 70
     0
  0
ENDTAB
  0
TABLE
  2
APPID
  5
A41E
330
0
100
AcDbSymbolTable
 70
     3
  0
APPID
  5
A427
330
A41E
100
AcDbSymbolTableRecord
100
AcDbRegAppTableRecord
  2
ACAD
 70
     0
  0
APPID
  5
A8B9
330
A41E
100
AcDbSymbolTableRecord
100
AcDbRegAppTableRecord
  2
ACAD_NAV_VCDISPLAY
 70
     0
  0
APPID
  5
A8F2
330
A41E
100
AcDbSymbolTableRecord
100
AcDbRegAppTableRecord
  2
ACAD_MLEADERVER
 70
     0
  0
ENDTAB
  0
TABLE
  2
DIMSTYLE
  5
A41F
330
0
100
AcDbSymbolTable
 70
     1
100
AcDbDimStyleTable
 71
     0
  0
DIMSTYLE
105
A443
330
A41F
100
AcDbSymbolTableRecord
100
AcDbDimStyleTableRecord
  2
STANDARD
 70
     0
 41
2.5
 42
1.0
 43
10.0
 44
1.0
 73
     0
 74
     0
 77
     3
 78
     8
140
3.2
141
0.0
147
1.0
172
     1
173
     1
284
     8
285
     8
286
     8
340
A426
  0
ENDTAB
  0
TABLE
  2
BLOCK_RECORD
  5
A416
330
0
100
AcDbSymbolTable
 70
     0
  0
BLOCK_RECORD
  5
A433
102
{ACAD_XDICTIONARY
360
A7AA
102
}
330
A416
100
AcDbSymbolTableRecord
100
AcDbBlockTableRecord
  2
*MODEL_SPACE
340
A89B
  0
BLOCK_RECORD
  5
A42F
102
{ACAD_XDICTIONARY
360
A7A8
102
}
330
A416
100
AcDbSymbolTableRecord
100
AcDbBlockTableRecord
  2
*PAPER_SPACE
340
A89C
  0
ENDTAB
  0
ENDSEC
  0
SECTION
  2
BLOCKS
  0
BLOCK
  5
A434
330
A433
100
AcDbEntity
  8
0
100
AcDbBlockBegin
  2
*MODEL_SPACE
 70
     0
 10
0.0
 20
0.0
 30
0.0
  3
*MODEL_SPACE
  1

  0
ENDBLK
  5
A435
330
A433
100
AcDbEntity
  8
0
100
AcDbBlockEnd
  0
BLOCK
  5
A430
330
A42F
100
AcDbEntity
 67
     1
  8
0
100
AcDbBlockBegin
  2
*PAPER_SPACE
 70
     0
 10
0.0
 20
0.0
 30
0.0
  3
*PAPER_SPACE
  1

  0
ENDBLK
  5
A431
330
A42F
100
AcDbEntity
 67
     1
  8
0
100
AcDbBlockEnd
  0
ENDSEC
  0
SECTION
  2
ENTITIES
  0
TEXT
  5
A44B
330
A433
100
AcDbEntity
  8
7
  6
Continuous
100
AcDbText
 10
10.0
 20
18.0
 30
0.0
 40
3.0
  1
TYPE No.TCA-415E-N125
100
AcDbText
  0
TEXT
  5
A44C
330
A433
100
AcDbEntity
  8
7
  6
Continuous
100
AcDbText
 10
10.0
 20
26.0
 30
0.0
 40
3.0
  1
CODE No.9763
100
AcDbText
  0
TEXT
  5
A44D
330
A433
100
AcDbEntity
  8
1
  6
Continuous
100
AcDbText
 10
10.0
 20
10.0
 30
0.0
 40
1.399999999999999
  1
LAYER
100
AcDbText
  0
TEXT
  5
A44E
330
A433
100
AcDbEntity
  8
1
  6
Continuous
100
AcDbText
 10
17.97951099999998
 20
10.04873699999998
 30
0.0
 40
1.399999999999999
  1
1
100
AcDbText
  0
TEXT
  5
A44F
330
A433
100
AcDbEntity
  8
7
  6
Continuous
100
AcDbText
 10
29.97951099999999
 20
10.04873699999998
 30
0.0
 40
1.399999999999999
  1
7
100
AcDbText
  0
TEXT
  5
A450
330
A433
100
AcDbEntity
  8
4
  6
CENTER
100
AcDbText
 10
23.97951099999999
 20
10.04873699999998
 30
0.0
 40
1.399999999999999
  1
4
100
AcDbText
  0
TEXT
  5
A451
330
A433
100
AcDbEntity
  8
3
  6
DASHED
100
AcDbText
 10
21.979511
 20
10.04873699999998
 30
0.0
 40
1.399999999999999
  1
3
100
AcDbText
  0
TEXT
  5
A452
330
A433
100
AcDbEntity
  8
2
  6
Continuous
100
AcDbText
 10
19.97951099999998
 20
10.04873699999998
 30
0.0
 40
1.399999999999999
  1
2
100
AcDbText
  0
TEXT
  5
A453
330
A433
100
AcDbEntity
  8
6
  6
Continuous
100
AcDbText
 10
27.979511
 20
10.04873699999998
 30
0.0
 40
1.399999999999999
  1
6
100
AcDbText
  0
TEXT
  5
A454
330
A433
100
AcDbEntity
  8
5
  6
PHANTOM
100
AcDbText
 10
25.97951099999999
 20
10.04873699999998
 30
0.0
 40
1.399999999999999
  1
5
100
AcDbText
  0
LINE
  5
A455
330
A433
100
AcDbEntity
  8
4
  6
CENTER
100
AcDbLine
 10
57.22022299999999
 20
328.8716089999998
 30
0.0
 11
57.22022299999999
 21
170.871609
 31
0.0
  0
LINE
  5
A456
330
A433
100
AcDbEntity
  8
4
  6
CENTER
100
AcDbLine
 10
154.220223
 20
426.5716089999998
 30
0.0
 11
313.186883
 21
426.5716089999998
 31
0.0
  0
LINE
  5
A457
330
A433
100
AcDbEntity
  8
4
  6
CENTER
100
AcDbLine
 10
260.7202229999999
 20
460.5716089999998
 30
0.0
 11
260.7202229999999
 21
386.3696089999999
 31
0.0
  0
LINE
  5
A458
330
A433
100
AcDbEntity
  8
1
  6
Continuous
100
AcDbLine
 10
210.7202229999999
 20
323.871609
 30
0.0
 11
310.720208
 21
323.871609
 31
0.0
  0
LINE
  5
A459
330
A433
100
AcDbEntity
  8
1
  6
Continuous
100
AcDbLine
 10
28.220223
 20
323.871609
 30
0.0
 11
86.22022300000002
 21
323.871609
 31
0.0
  0
LINE
  5
A45A
330
A433
100
AcDbEntity
  8
4
  6
CENTER
100
AcDbLine
 10
260.7202229999999
 20
39.871609
 30
0.0
 11
260.7202229999999
 21
114.073609
 31
0.0
  0
LINE
  5
A45B
330
A433
100
AcDbEntity
  8
4
  6
CENTER
100
AcDbLine
 10
301.7202229999998
 20
99.87160900000001
 30
0.0
 11
301.7202229999998
 21
87.87160899999998
 31
0.0
  0
LINE
  5
A45C
330
A433
100
AcDbEntity
  8
4
  6
CENTER
100
AcDbLine
 10
219.720223
 20
99.87160900000001
 30
0.0
 11
219.720223
 21
87.87160899999998
 31
0.0
  0
CIRCLE
  5
A45D
330
A433
100
AcDbEntity
  8
1
  6
Continuous
100
AcDbCircle
 10
301.7202229999998
 20
93.87160900000001
 30
0.0
 40
4.4
  0
ARC
  5
A45E
330
A433
100
AcDbEntity
  8
1
  6
Continuous
100
AcDbCircle
 10
393.186883
 20
73.87160899999997
 30
0.0
 40
85.0
100
AcDbArc
 50
166.55971
 51
193.4403599999999
  0
ARC
  5
A45F
330
A433
100
AcDbEntity
  8
1
  6
Continuous
100
AcDbCircle
 10
303.2202229999998
 20
95.37160900000001
 30
0.0
 40
7.5
100
AcDbArc
 50
346.5597179999999
 51
89.99997999999996
  0
LINE
  5
A460
330
A433
100
AcDbEntity
  8
4
  6
CENTER
100
AcDbLine
 10
307.7202229999998
 20
93.87160900000001
 30
0.0
 11
295.7202229999998
 21
93.87160900000001
 31
0.0
  0
LINE
  5
A461
330
A433
100
AcDbEntity
  8
1
  6
Continuous
100
AcDbLine
 10
274.972735
 20
102.8716089999999
 30
0.0
 11
303.2202229999998
 21
102.8716089999999
 31
0.0
  0
LINE
  5
A462
330
A433
100
AcDbEntity
  8
4
  6
CENTER
100
AcDbLine
 10
213.720223
 20
93.87160900000001
 30
0.0
 11
225.720223
 21
93.87160900000001
 31
0.0
  0
LINE
  5
A463
330
A433
100
AcDbEntity
  8
4
  6
CENTER
100
AcDbLine
 10
154.220223
 20
73.87160899999997
 30
0.0
 11
313.186883
 21
73.87160899999997
 31
0.0
  0
CIRCLE
  5
A464
330
A433
100
AcDbEntity
  8
1
  6
Continuous
100
AcDbCircle
 10
301.7202229999998
 20
53.871609
 30
0.0
 40
4.4
  0
ARC
  5
A465
330
A433
100
AcDbEntity
  8
1
  6
Continuous
100
AcDbCircle
 10
303.2202229999998
 20
52.371609
 30
0.0
 40
7.5
100
AcDbArc
 50
270.0000179999999
 51
13.44032
  0
LINE
  5
A466
330
A433
100
AcDbEntity
  8
4
  6
CENTER
100
AcDbLine
 10
307.7202229999998
 20
53.871609
 30
0.0
 11
295.7202229999998
 21
53.871609
 31
0.0
  0
LINE
  5
A467
330
A433
100
AcDbEntity
  8
1
  6
Continuous
100
AcDbLine
 10
218.220223
 20
44.871609
 30
0.0
 11
303.2202229999998
 21
44.871609
 31
0.0
  0
ARC
  5
A468
330
A433
100
AcDbEntity
  8
1
  6
Continuous
100
AcDbCircle
 10
218.220223
 20
52.371609
 30
0.0
 40
7.5
100
AcDbArc
 50
166.55971
 51
270.0000179999999
  0
LINE
  5
A469
330
A433
100
AcDbEntity
  8
4
  6
CENTER
100
AcDbLine
 10
213.720223
 20
53.871609
 30
0.0
 11
225.720223
 21
53.871609
 31
0.0
  0
LINE
  5
A46A
330
A433
100
AcDbEntity
  8
4
  6
CENTER
100
AcDbLine
 10
301.7202229999998
 20
47.87160899999999
 30
0.0
 11
301.7202229999998
 21
59.871609
 31
0.0
  0
LINE
  5
A46B
330
A433
100
AcDbEntity
  8
4
  6
CENTER
100
AcDbLine
 10
221.720223
 20
304.453911
 30
0.0
 11
221.720223
 21
167.8716089999998
 31
0.0
  0
LINE
  5
A46C
330
A433
100
AcDbEntity
  8
4
  6
CENTER
100
AcDbLine
 10
260.7202229999999
 20
328.8716089999998
 30
0.0
 11
260.7202229999999
 21
269.604939
 31
0.0
  0
LINE
  5
A46D
330
A433
100
AcDbEntity
  8
1
  6
Continuous
100
AcDbLine
 10
239.7202229999999
 20
306.771612
 30
0.0
 11
239.7202229999999
 21
254.3716089999997
 31
0.0
  0
LINE
  5
A46E
330
A433
100
AcDbEntity
  8
1
  6
Continuous
100
AcDbLine
 10
237.2995779999999
 20
243.6487559999999
 30
0.0
 11
268.6364299999999
 21
299.450985
 31
0.0
  0
LINE
  5
A46F
330
A433
100
AcDbEntity
  8
1
  6
Continuous
100
AcDbLine
 10
211.893497
 20
255.5343339999998
 30
0.0
 11
215.3037669999999
 21
304.3034329999998
 31
0.0
  0
CIRCLE
  5
A470
330
A433
100
AcDbEntity
  8
1
  6
Continuous
100
AcDbCircle
 10
603.720223
 20
238.3716089999999
 30
0.0
 40
6.25
  0
CIRCLE
  5
A471
330
A433
100
AcDbEntity
  8
1
  6
Continuous
100
AcDbCircle
 10
603.720223
 20
238.3716089999999
 30
0.0
 40
1.5
  0
LINE
  5
A472
330
A433
100
AcDbEntity
  8
1
  6
Continuous
100
AcDbLine
 10
237.720221
 20
316.971607
 30
0.0
 11
283.7202229999998
 21
316.971607
 31
0.0
  0
LINE
  5
A473
330
A433
100
AcDbEntity
  8
1
  6
Continuous
100
AcDbLine
 10
210.7202229999999
 20
321.5716059999998
 30
0.0
 11
310.720208
 21
321.5716059999998
 31
0.0
  0
LINE
  5
A474
330
A433
100
AcDbEntity
  8
1
  6
Continuous
100
AcDbLine
 10
240.720223
 20
315.971604
 30
0.0
 11
280.7202229999999
 21
315.971604
 31
0.0
  0
LINE
  5
A475
330
A433
100
AcDbEntity
  8
1
  6
Continuous
100
AcDbLine
 10
209.720223
 20
306.471606
 30
0.0
 11
238.5617429999999
 21
311.557144
 31
0.0
  0
LINE
  5
A476
330
A433
100
AcDbEntity
  8
1
  6
Continuous
100
AcDbLine
 10
210.119614
 20
304.206547
 30
0.0
 11
214.1011289999999
 21
304.9085959999998
 31
0.0
  0
LINE
  5
A477
330
A433
100
AcDbEntity
  8
1
  6
Continuous
100
AcDbLine
 10
209.720223
 20
306.471606
 30
0.0
 11
210.119614
 21
304.206547
 31
0.0
  0
ARC
  5
A478
330
A433
100
AcDbEntity
  8
1
  6
Continuous
100
AcDbCircle
 10
214.274777
 20
303.9237879999999
 30
0.0
 40
1.0
100
AcDbArc
 50
356.0
 51
100.00001
  0
ARC
  5
A479
330
A433
100
AcDbEntity
  8
1
  6
Continuous
100
AcDbCircle
 10
212.809857
 20
304.4778239999998
 30
0.0
 40
2.5
100
AcDbArc
 50
356.0
 51
100.0000199999999
  0
LINE
  5
A47A
330
A433
100
AcDbEntity
  8
1
  6
Continuous
100
AcDbLine
 10
210.7202079999999
 20
321.571614
 30
0.0
 11
210.7202079999999
 21
323.871617
 31
0.0
  0
ARC
  5
A47B
330
A433
100
AcDbEntity
  8
1
  6
Continuous
100
AcDbCircle
 10
237.7202229999999
 20
319.971607
 30
0.0
 40
3.0
100
AcDbArc
 50
211.5135899999999
 51
270.00002
  0
LINE
  5
A47C
330
A433
100
AcDbEntity
  8
4
  6
CENTER
100
AcDbLine
 10
219.720223
 20
328.8716089999998
 30
0.0
 11
219.720223
 21
316.5716059999998
 31
0.0
  0
LINE
  5
A47D
330
A433
100
AcDbEntity
  8
1
  6
Continuous
100
AcDbLine
 10
233.220229
 20
321.5716289999998
 30
0.0
 11
235.1626819999999
 21
318.403519
 31
0.0
  0
ARC
  5
A47E
330
A433
100
AcDbEntity
  8
1
  6
Continuous
100
AcDbCircle
 10
242.920197
 20
317.449612
 30
0.0
 40
2.778
100
AcDbArc
 50
189.9080999999999
 51
212.1433699999999
  0
ARC
  5
A47F
330
A433
100
AcDbEntity
  8
1
  6
Continuous
100
AcDbCircle
 10
250.2790529999999
 20
317.449612
 30
0.0
 40
2.778
100
AcDbArc
 50
189.9080999999999
 51
212.1434
  0
ARC
  5
A480
330
A433
100
AcDbEntity
  8
1
  6
Continuous
100
AcDbCircle
 10
246.3430789999999
 20
317.449612
 30
0.0
 40
2.778
100
AcDbArc
 50
189.9080999999999
 51
212.1434
  0
ARC
  5
A481
330
A433
100
AcDbEntity
  8
1
  6
Continuous
100
AcDbCircle
 10
243.807839
 20
317.449612
 30
0.0
 40
2.778
100
AcDbArc
 50
189.9080999999999
 51
212.1433699999999
  0
LINE
  5
A482
330
A433
100
AcDbEntity
  8
1
  6
Continuous
100
AcDbLine
 10
281.69571
 20
307.071608
 30
0.0
 11
285.720223
 21
307.071608
 31
0.0
  0
ARC
  5
A483
330
A433
100
AcDbEntity
  8
1
  6
Continuous
100
AcDbCircle
 10
281.69571
 20
292.071608
 30
0.0
 40
15.0
100
AcDbArc
 50
89.99998199999996
 51
150.68277
  0
ARC
  5
A484
330
A433
100
AcDbEntity
  8
1
  6
Continuous
100
AcDbCircle
 10
260.7202079999999
 20
317.449612
 30
0.0
 40
2.778
100
AcDbArc
 50
327.8565799999999
 51
350.09193
  0
ARC
  5
A485
330
A433
100
AcDbEntity
  8
1
  6
Continuous
100
AcDbCircle
 10
266.208123
 20
317.449612
 30
0.0
 40
2.778
100
AcDbArc
 50
189.90804
 51
212.1434
  0
ARC
  5
A486
330
A433
100
AcDbEntity
  8
1
  6
Continuous
100
AcDbCircle
 10
260.7202079999999
 20
317.449612
 30
0.0
 40
2.778
100
AcDbArc
 50
189.9080999999999
 51
212.1434
  0
ARC
  5
A487
330
A433
100
AcDbEntity
  8
1
  6
Continuous
100
AcDbCircle
 10
255.232293
 20
317.449612
 30
0.0
 40
2.778
100
AcDbArc
 50
189.9080999999999
 51
212.1434
  0
ARC
  5
A488
330
A433
100
AcDbEntity
  8
1
  6
Continuous
100
AcDbCircle
 10
255.232293
 20
317.449612
 30
0.0
 40
2.778
100
AcDbArc
 50
327.8565799999999
 51
350.0919899999999
  0
ARC
  5
A489
330
A433
100
AcDbEntity
  8
1
  6
Continuous
100
AcDbCircle
 10
278.520218
 20
317.449612
 30
0.0
 40
2.778
100
AcDbArc
 50
327.85663
 51
350.09193
  0
ARC
  5
A48A
330
A433
100
AcDbEntity
  8
1
  6
Continuous
100
AcDbCircle
 10
275.0973359999999
 20
317.449612
 30
0.0
 40
2.778
100
AcDbArc
 50
327.85663
 51
350.09193
  0
ARC
  5
A48B
330
A433
100
AcDbEntity
  8
1
  6
Continuous
100
AcDbCircle
 10
277.632577
 20
317.449612
 30
0.0
 40
2.778
100
AcDbArc
 50
327.85663
 51
350.09193
  0
ARC
  5
A48C
330
A433
100
AcDbEntity
  8
1
  6
Continuous
100
AcDbCircle
 10
266.208123
 20
317.449612
 30
0.0
 40
2.778
100
AcDbArc
 50
327.8565799999999
 51
350.09193
  0
ARC
  5
A48D
330
A433
100
AcDbEntity
  8
1
  6
Continuous
100
AcDbCircle
 10
271.161362
 20
317.449612
 30
0.0
 40
2.778
100
AcDbArc
 50
327.8565799999999
 51
350.09193
  0
LINE
  5
A48E
330
A433
100
AcDbEntity
  8
1
  6
Continuous
100
AcDbLine
 10
288.2202459999998
 20
321.571589
 30
0.0
 11
286.2777939999998
 21
318.403487
 31
0.0
  0
ARC
  5
A48F
330
A433
100
AcDbEntity
  8
1
  6
Continuous
100
AcDbCircle
 10
283.7202229999998
 20
319.971607
 30
0.0
 40
3.0
100
AcDbArc
 50
270.00002
 51
328.48644
  0
LINE
  5
A490
330
A433
100
AcDbEntity
  8
4
  6
CENTER
100
AcDbLine
 10
301.7202229999998
 20
328.8716089999998
 30
0.0
 11
301.7202229999998
 21
316.5716059999998
 31
0.0
  0
LINE
  5
A491
330
A433
100
AcDbEntity
  8
1
  6
Continuous
100
AcDbLine
 10
310.720208
 20
321.571598
 30
0.0
 11
310.720208
 21
323.871609
 31
0.0
  0
LINE
  5
A492
330
A433
100
AcDbEntity
  8
1
  6
Continuous
100
AcDbLine
 10
82.220223
 20
310.9716
 30
0.0
 11
82.220223
 21
285.354425
 31
0.0
  0
LINE
  5
A493
330
A433
100
AcDbEntity
  8
1
  6
Continuous
100
AcDbLine
 10
32.22022299999999
 20
310.9716
 30
0.0
 11
32.22022299999999
 21
285.354425
 31
0.0
  0
LINE
  5
A494
330
A433
100
AcDbEntity
  8
1
  6
Continuous
100
AcDbLine
 10
73.220223
 20
304.078213
 30
0.0
 11
73.220223
 21
260.4885449999999
 31
0.0
  0
LINE
  5
A495
330
A433
100
AcDbEntity
  8
1
  6
Continuous
100
AcDbLine
 10
41.220223
 20
304.078213
 30
0.0
 11
41.220223
 21
244.804796
 31
0.0
  0
LINE
  5
A496
330
A433
100
AcDbEntity
  8
1
  6
Continuous
100
AcDbLine
 10
38.920233
 20
304.0279509999998
 30
0.0
 11
38.920233
 21
243.724775
 31
0.0
  0
LINE
  5
A497
330
A433
100
AcDbEntity
  8
1
  6
Continuous
100
AcDbLine
 10
75.520223
 20
304.0279509999998
 30
0.0
 11
75.520223
 21
218.501973
 31
0.0
  0
LINE
  5
A498
330
A433
100
AcDbEntity
  8
4
  6
CENTER
100
AcDbLine
 10
26.92023300000001
 20
238.3716089999999
 30
0.0
 11
97.422236
 21
238.3716089999999
 31
0.0
  0
ARC
  5
A499
330
A433
100
AcDbEntity
  8
1
  6
Continuous
100
AcDbCircle
 10
83.172236
 20
243.313237
 30
0.0
 40
3.25
100
AcDbArc
 50
328.6342499999999
 51
28.65275
  0
ARC
  5
A49A
330
A433
100
AcDbEntity
  8
1
  6
Continuous
100
AcDbCircle
 10
79.968216
 20
243.313237
 30
0.0
 40
3.25
100
AcDbArc
 50
328.6342
 51
61.475041
  0
LINE
  5
A49B
330
A433
100
AcDbEntity
  8
1
  6
Continuous
100
AcDbLine
 10
87.422236
 20
243.473622
 30
0.0
 11
87.422236
 21
233.269596
 31
0.0
  0
LINE
  5
A49C
330
A433
100
AcDbEntity
  8
1
  6
Continuous
100
AcDbLine
 10
85.94728600000001
 20
235.1216089999998
 30
0.0
 11
82.89717600000001
 21
235.1216089999998
 31
0.0
  0
LINE
  5
A49D
330
A433
100
AcDbEntity
  8
1
  6
Continuous
100
AcDbLine
 10
85.973746
 20
241.6216089999998
 30
0.0
 11
82.870716
 21
241.6216089999998
 31
0.0
  0
ARC
  5
A49E
330
A433
100
AcDbEntity
  8
1
  6
Continuous
100
AcDbCircle
 10
74.422236
 20
238.3716089999999
 30
0.0
 40
12.0
100
AcDbArc
 50
344.28617
 51
15.71384
  0
ARC
  5
A49F
330
A433
100
AcDbEntity
  8
1
  6
Continuous
100
AcDbCircle
 10
71.218216
 20
238.3716089999999
 30
0.0
 40
12.0
100
AcDbArc
 50
344.2861399999999
 51
15.71386099999998
  0
LINE
  5
A4A0
330
A433
100
AcDbEntity
  8
1
  6
Continuous
100
AcDbLine
 10
38.920233
 20
227.3716089999997
 30
0.0
 11
41.220223
 21
227.3716089999997
 31
0.0
  0
LINE
  5
A4A1
330
A433
100
AcDbEntity
  8
1
  6
Continuous
100
AcDbLine
 10
86.02423599999999
 20
231.8716089999998
 30
0.0
 11
82.82022600000003
 21
231.8716089999998
 31
0.0
  0
LINE
  5
A4A2
330
A433
100
AcDbEntity
  8
1
  6
Continuous
100
AcDbLine
 10
86.024206
 20
231.8716279999999
 30
0.0
 11
87.42218599999999
 21
233.269619
 31
0.0
  0
ARC
  5
A4A3
330
A433
100
AcDbEntity
  8
1
  6
Continuous
100
AcDbCircle
 10
79.968216
 20
233.429981
 30
0.0
 40
3.25
100
AcDbArc
 50
298.524959
 51
31.365793
  0
ARC
  5
A4A4
330
A433
100
AcDbEntity
  8
1
  6
Continuous
100
AcDbCircle
 10
83.172236
 20
233.429981
 30
0.0
 40
3.25
100
AcDbArc
 50
331.3472699999998
 51
31.36577
  0
ARC
  5
A4A5
330
A433
100
AcDbEntity
  8
1
  6
Continuous
100
AcDbCircle
 10
142.220223
 20
285.354425
 30
0.0
 40
110.0
100
AcDbArc
 50
179.9999799999999
 51
200.10056
  0
LINE
  5
A4A6
330
A433
100
AcDbEntity
  8
1
  6
Continuous
100
AcDbLine
 10
86.02423599999999
 20
244.871609
 30
0.0
 11
82.82022600000003
 21
244.871609
 31
0.0
  0
LINE
  5
A4A7
330
A433
100
AcDbEntity
  8
1
  6
Continuous
100
AcDbLine
 10
87.42220600000001
 20
243.473614
 30
0.0
 11
86.024226
 21
244.871598
 31
0.0
  0
LINE
  5
A4A8
330
A433
100
AcDbEntity
  8
1
  6
Continuous
100
AcDbLine
 10
35.72024299999997
 20
242.621609
 30
0.0
 11
35.72024299999997
 21
234.1216089999999
 31
0.0
  0
ARC
  5
A4A9
330
A433
100
AcDbEntity
  8
1
  6
Continuous
100
AcDbCircle
 10
37.72024299999999
 20
234.1216089999999
 30
0.0
 40
2.0
100
AcDbArc
 50
180.0
 51
269.99998
  0
LINE
  5
A4AA
330
A433
100
AcDbEntity
  8
1
  6
Continuous
100
AcDbLine
 10
38.920223
 20
232.1216089999999
 30
0.0
 11
37.72024299999999
 21
232.1216089999999
 31
0.0
  0
LINE
  5
A4AB
330
A433
100
AcDbEntity
  8
1
  6
Continuous
100
AcDbLine
 10
72.220223
 20
234.371609
 30
0.0
 11
73.220223
 21
234.371609
 31
0.0
  0
ARC
  5
A4AC
330
A433
100
AcDbEntity
  8
1
  6
Continuous
100
AcDbCircle
 10
-27.779777
 20
285.354425
 30
0.0
 40
110.0
100
AcDbArc
 50
354.211787
 51
359.9999899999998
  0
ARC
  5
A4AD
330
A433
100
AcDbEntity
  8
1
  6
Continuous
100
AcDbCircle
 10
37.72024299999999
 20
242.621609
 30
0.0
 40
2.0
100
AcDbArc
 50
90.00001800000005
 51
180.0
  0
LINE
  5
A4AE
330
A433
100
AcDbEntity
  8
1
  6
Continuous
100
AcDbLine
 10
38.920223
 20
244.6216089999999
 30
0.0
 11
37.72024299999999
 21
244.6216089999999
 31
0.0
  0
LINE
  5
A4AF
330
A433
100
AcDbEntity
  8
1
  6
Continuous
100
AcDbLine
 10
72.220223
 20
242.3716089999998
 30
0.0
 11
73.220223
 21
242.3716089999998
 31
0.0
  0
LINE
  5
A4B0
330
A433
100
AcDbEntity
  8
1
  6
Continuous
100
AcDbLine
 10
34.220223
 20
316.971607
 30
0.0
 11
80.22022300000001
 21
316.971607
 31
0.0
  0
LINE
  5
A4B1
330
A433
100
AcDbEntity
  8
1
  6
Continuous
100
AcDbLine
 10
28.220223
 20
321.5716059999998
 30
0.0
 11
86.22022300000002
 21
321.5716059999998
 31
0.0
  0
LINE
  5
A4B2
330
A433
100
AcDbEntity
  8
1
  6
Continuous
100
AcDbLine
 10
37.22022299999999
 20
315.9716
 30
0.0
 11
77.220223
 21
315.9716
 31
0.0
  0
ARC
  5
A4B3
330
A433
100
AcDbEntity
  8
1
  6
Continuous
100
AcDbCircle
 10
57.22022299999999
 20
439.573819
 30
0.0
 40
128.4999999999998
100
AcDbArc
 50
262.8473099999999
 51
277.1526699999999
  0
ARC
  5
A4B4
330
A433
100
AcDbEntity
  8
1
  6
Continuous
100
AcDbCircle
 10
57.22022299999999
 20
434.9715989999999
 30
0.0
 40
128.4999999999998
100
AcDbArc
 50
263.46506
 51
276.53492
  0
ARC
  5
A4B5
330
A433
100
AcDbEntity
  8
1
  6
Continuous
100
AcDbCircle
 10
57.22022299999999
 20
432.706559
 30
0.0
 40
128.4999999999998
100
AcDbArc
 50
263.34847
 51
276.6515099999999
  0
LINE
  5
A4B6
330
A433
100
AcDbEntity
  8
1
  6
Continuous
100
AcDbLine
 10
28.220223
 20
323.871609
 30
0.0
 11
28.220223
 21
321.57161
 31
0.0
  0
ARC
  5
A4B7
330
A433
100
AcDbEntity
  8
1
  6
Continuous
100
AcDbCircle
 10
42.220243
 20
304.0279509999998
 30
0.0
 40
3.299999999999998
100
AcDbArc
 50
83.465158
 51
179.9999599999999
  0
ARC
  5
A4B8
330
A433
100
AcDbEntity
  8
1
  6
Continuous
100
AcDbCircle
 10
42.22022299999999
 20
304.078213
 30
0.0
 40
1.0
100
AcDbArc
 50
83.348539
 51
179.9999599999999
  0
LINE
  5
A4B9
330
A433
100
AcDbEntity
  8
4
  6
CENTER
100
AcDbLine
 10
37.22022299999999
 20
328.8716089999998
 30
0.0
 11
37.22022299999999
 21
316.5716059999998
 31
0.0
  0
LINE
  5
A4BA
330
A433
100
AcDbEntity
  8
1
  6
Continuous
100
AcDbLine
 10
29.720173
 20
321.571596
 30
0.0
 11
31.66262299999999
 21
318.403487
 31
0.0
  0
ARC
  5
A4BB
330
A433
100
AcDbEntity
  8
1
  6
Continuous
100
AcDbCircle
 10
37.22022299999999
 20
310.9716
 30
0.0
 40
5.0
100
AcDbArc
 50
89.99998199999996
 51
179.9999599999999
  0
ARC
  5
A4BC
330
A433
100
AcDbEntity
  8
1
  6
Continuous
100
AcDbCircle
 10
34.220223
 20
319.971607
 30
0.0
 40
3.0
100
AcDbArc
 50
211.5135899999999
 51
270.00002
  0
ARC
  5
A4BD
330
A433
100
AcDbEntity
  8
1
  6
Continuous
100
AcDbCircle
 10
46.779063
 20
317.449612
 30
0.0
 40
2.778
100
AcDbArc
 50
189.9080999999999
 51
212.14351
  0
ARC
  5
A4BE
330
A433
100
AcDbEntity
  8
1
  6
Continuous
100
AcDbCircle
 10
39.420203
 20
317.449612
 30
0.0
 40
2.778
100
AcDbArc
 50
189.9080999999999
 51
212.14351
  0
ARC
  5
A4BF
330
A433
100
AcDbEntity
  8
1
  6
Continuous
100
AcDbCircle
 10
42.843083
 20
317.449612
 30
0.0
 40
2.778
100
AcDbArc
 50
189.9080999999999
 51
212.14351
  0
ARC
  5
A4C0
330
A433
100
AcDbEntity
  8
1
  6
Continuous
100
AcDbCircle
 10
40.30784299999999
 20
317.449612
 30
0.0
 40
2.778
100
AcDbArc
 50
189.9080999999999
 51
212.14351
  0
ARC
  5
A4C1
330
A433
100
AcDbEntity
  8
1
  6
Continuous
100
AcDbCircle
 10
62.708123
 20
317.449612
 30
0.0
 40
2.778
100
AcDbArc
 50
189.90804
 51
212.14351
  0
ARC
  5
A4C2
330
A433
100
AcDbEntity
  8
1
  6
Continuous
100
AcDbCircle
 10
57.220203
 20
317.449612
 30
0.0
 40
2.778
100
AcDbArc
 50
327.8564799999998
 51
350.09193
  0
ARC
  5
A4C3
330
A433
100
AcDbEntity
  8
1
  6
Continuous
100
AcDbCircle
 10
51.732293
 20
317.449612
 30
0.0
 40
2.778
100
AcDbArc
 50
189.9080999999999
 51
212.14351
  0
ARC
  5
A4C4
330
A433
100
AcDbEntity
  8
1
  6
Continuous
100
AcDbCircle
 10
57.220203
 20
317.449612
 30
0.0
 40
2.778
100
AcDbArc
 50
189.9080999999999
 51
212.14351
  0
ARC
  5
A4C5
330
A433
100
AcDbEntity
  8
1
  6
Continuous
100
AcDbCircle
 10
51.732293
 20
317.449612
 30
0.0
 40
2.778
100
AcDbArc
 50
327.8564799999998
 51
350.0919899999999
  0
ARC
  5
A4C6
330
A433
100
AcDbEntity
  8
1
  6
Continuous
100
AcDbCircle
 10
46.779063
 20
317.449612
 30
0.0
 40
2.778
100
AcDbArc
 50
327.8564799999998
 51
333.0638399999999
  0
ARC
  5
A4C7
330
A433
100
AcDbEntity
  8
1
  6
Continuous
100
AcDbCircle
 10
72.220223
 20
304.0279509999998
 30
0.0
 40
3.299999999999998
100
AcDbArc
 50
0.0
 51
96.53486100000002
  0
ARC
  5
A4C8
330
A433
100
AcDbEntity
  8
1
  6
Continuous
100
AcDbCircle
 10
72.220223
 20
304.078213
 30
0.0
 40
1.0
100
AcDbArc
 50
0.0
 51
96.65148000000002
  0
ARC
  5
A4C9
330
A433
100
AcDbEntity
  8
1
  6
Continuous
100
AcDbCircle
 10
77.220223
 20
310.9716
 30
0.0
 40
5.0
100
AcDbArc
 50
0.0
 51
89.99998199999996
  0
ARC
  5
A4CA
330
A433
100
AcDbEntity
  8
1
  6
Continuous
100
AcDbCircle
 10
75.020213
 20
317.449612
 30
0.0
 40
2.778
100
AcDbArc
 50
327.80113
 51
350.09193
  0
LINE
  5
A4CB
330
A433
100
AcDbEntity
  8
4
  6
CENTER
100
AcDbLine
 10
77.220223
 20
328.8716089999998
 30
0.0
 11
77.220223
 21
316.5716059999998
 31
0.0
  0
ARC
  5
A4CC
330
A433
100
AcDbEntity
  8
1
  6
Continuous
100
AcDbCircle
 10
74.13257299999997
 20
317.449612
 30
0.0
 40
2.778
100
AcDbArc
 50
327.8564799999998
 51
350.09193
  0
ARC
  5
A4CD
330
A433
100
AcDbEntity
  8
1
  6
Continuous
100
AcDbCircle
 10
71.59733299999998
 20
317.449612
 30
0.0
 40
2.778
100
AcDbArc
 50
327.8564799999998
 51
350.09193
  0
ARC
  5
A4CE
330
A433
100
AcDbEntity
  8
1
  6
Continuous
100
AcDbCircle
 10
62.708123
 20
317.449612
 30
0.0
 40
2.778
100
AcDbArc
 50
327.8564799999998
 51
350.09193
  0
ARC
  5
A4CF
330
A433
100
AcDbEntity
  8
1
  6
Continuous
100
AcDbCircle
 10
67.66135300000001
 20
317.449612
 30
0.0
 40
2.778
100
AcDbArc
 50
327.8564799999998
 51
350.09193
  0
ARC
  5
A4D0
330
A433
100
AcDbEntity
  8
1
  6
Continuous
100
AcDbCircle
 10
67.66135300000001
 20
317.449612
 30
0.0
 40
2.778
100
AcDbArc
 50
206.9362
 51
212.14351
  0
LINE
  5
A4D1
330
A433
100
AcDbEntity
  8
1
  6
Continuous
100
AcDbLine
 10
86.22022300000002
 20
323.871609
 30
0.0
 11
86.22022300000002
 21
321.5716059999998
 31
0.0
  0
LINE
  5
A4D2
330
A433
100
AcDbEntity
  8
1
  6
Continuous
100
AcDbLine
 10
84.72010299999999
 20
321.5716689999998
 30
0.0
 11
82.777653
 21
318.4035740000001
 31
0.0
  0
ARC
  5
A4D3
330
A433
100
AcDbEntity
  8
1
  6
Continuous
100
AcDbCircle
 10
80.22022300000001
 20
319.971607
 30
0.0
 40
3.0
100
AcDbArc
 50
270.00002
 51
328.48644
  0
CIRCLE
  5
A4D4
330
A433
100
AcDbEntity
  8
1
  6
Continuous
100
AcDbCircle
 10
260.7202229999999
 20
426.5716089999998
 30
0.0
 40
24.25
  0
CIRCLE
  5
A4D5
330
A433
100
AcDbEntity
  8
1
  6
Continuous
100
AcDbCircle
 10
260.7202229999999
 20
426.5716089999998
 30
0.0
 40
9.5
  0
CIRCLE
  5
A4D6
330
A433
100
AcDbEntity
  8
1
  6
Continuous
100
AcDbCircle
 10
260.7202229999999
 20
426.5716089999998
 30
0.0
 40
21.75
  0
CIRCLE
  5
A4D7
330
A433
100
AcDbEntity
  8
1
  6
Continuous
100
AcDbCircle
 10
260.7202229999999
 20
426.5716089999998
 30
0.0
 40
12.5
  0
LINE
  5
A4D8
330
A433
100
AcDbEntity
  8
1
  6
Continuous
100
AcDbLine
 10
218.220223
 20
455.5716089999998
 30
0.0
 11
303.2202149999998
 21
455.5716089999998
 31
0.0
  0
LINE
  5
A4D9
330
A433
100
AcDbEntity
  8
1
  6
Continuous
100
AcDbLine
 10
218.220223
 20
397.5716089999999
 30
0.0
 11
303.2202149999998
 21
397.5716089999999
 31
0.0
  0
ARC
  5
A4DA
330
A433
100
AcDbEntity
  8
1
  6
Continuous
100
AcDbCircle
 10
128.2535629999999
 20
426.5716089999998
 30
0.0
 40
85.0
100
AcDbArc
 50
346.5596799999998
 51
13.440323
  0
CIRCLE
  5
A4DB
330
A433
100
AcDbEntity
  8
1
  6
Continuous
100
AcDbCircle
 10
219.720223
 20
406.5716089999998
 30
0.0
 40
4.4
  0
LINE
  5
A4DC
330
A433
100
AcDbEntity
  8
4
  6
CENTER
100
AcDbLine
 10
225.720223
 20
406.5716089999998
 30
0.0
 11
213.720223
 21
406.5716089999998
 31
0.0
  0
ARC
  5
A4DD
330
A433
100
AcDbEntity
  8
1
  6
Continuous
100
AcDbCircle
 10
218.220223
 20
405.0716089999998
 30
0.0
 40
7.5
100
AcDbArc
 50
166.55972
 51
270.0
  0
LINE
  5
A4DE
330
A433
100
AcDbEntity
  8
4
  6
CENTER
100
AcDbLine
 10
219.720223
 20
412.571609
 30
0.0
 11
219.720223
 21
400.5716089999998
 31
0.0
  0
CIRCLE
  5
A4DF
330
A433
100
AcDbEntity
  8
1
  6
Continuous
100
AcDbCircle
 10
219.720223
 20
446.5716089999999
 30
0.0
 40
4.4
  0
LINE
  5
A4E0
330
A433
100
AcDbEntity
  8
4
  6
CENTER
100
AcDbLine
 10
225.720223
 20
446.5716089999999
 30
0.0
 11
213.720223
 21
446.5716089999999
 31
0.0
  0
ARC
  5
A4E1
330
A433
100
AcDbEntity
  8
1
  6
Continuous
100
AcDbCircle
 10
218.220223
 20
448.0716089999998
 30
0.0
 40
7.5
100
AcDbArc
 50
89.99992699999998
 51
193.44026
  0
LINE
  5
A4E2
330
A433
100
AcDbEntity
  8
4
  6
CENTER
100
AcDbLine
 10
219.720223
 20
452.5716089999998
 30
0.0
 11
219.720223
 21
440.5716089999998
 31
0.0
  0
ARC
  5
A4E3
330
A433
100
AcDbEntity
  8
1
  6
Continuous
100
AcDbCircle
 10
393.186893
 20
426.5716089999998
 30
0.0
 40
85.0
100
AcDbArc
 50
166.55964
 51
193.44029
  0
LINE
  5
A4E4
330
A433
100
AcDbEntity
  8
4
  6
CENTER
100
AcDbLine
 10
295.720215
 20
406.5716089999998
 30
0.0
 11
307.720215
 21
406.5716089999998
 31
0.0
  0
CIRCLE
  5
A4E5
330
A433
100
AcDbEntity
  8
1
  6
Continuous
100
AcDbCircle
 10
301.720215
 20
406.5716089999998
 30
0.0
 40
4.4
  0
ARC
  5
A4E6
330
A433
100
AcDbEntity
  8
1
  6
Continuous
100
AcDbCircle
 10
303.2202149999998
 20
405.0716089999998
 30
0.0
 40
7.5
100
AcDbArc
 50
269.9999599999998
 51
13.44024099999999
  0
LINE
  5
A4E7
330
A433
100
AcDbEntity
  8
4
  6
CENTER
100
AcDbLine
 10
301.720215
 20
412.571609
 30
0.0
 11
301.720215
 21
400.5716089999998
 31
0.0
  0
CIRCLE
  5
A4E8
330
A433
100
AcDbEntity
  8
1
  6
Continuous
100
AcDbCircle
 10
301.720215
 20
446.5716089999999
 30
0.0
 40
4.4
  0
LINE
  5
A4E9
330
A433
100
AcDbEntity
  8
4
  6
CENTER
100
AcDbLine
 10
295.720215
 20
446.5716089999999
 30
0.0
 11
307.720215
 21
446.5716089999999
 31
0.0
  0
LINE
  5
A4EA
330
A433
100
AcDbEntity
  8
4
  6
CENTER
100
AcDbLine
 10
301.720215
 20
452.5716089999998
 30
0.0
 11
301.720215
 21
440.5716089999998
 31
0.0
  0
ARC
  5
A4EB
330
A433
100
AcDbEntity
  8
1
  6
Continuous
100
AcDbCircle
 10
303.2202149999998
 20
448.0716089999998
 30
0.0
 40
7.5
100
AcDbArc
 50
346.5597
 51
90.000037
  0
LINE
  5
A4EC
330
A433
100
AcDbEntity
  8
1
  6
Continuous
100
AcDbLine
 10
387.7202229999999
 20
310.9716
 30
0.0
 11
387.7202229999999
 21
285.354425
 31
0.0
  0
LINE
  5
A4ED
330
A433
100
AcDbEntity
  8
1
  6
Continuous
100
AcDbLine
 10
437.7202229999999
 20
310.9716
 30
0.0
 11
437.7202229999999
 21
285.354425
 31
0.0
  0
LINE
  5
A4EE
330
A433
100
AcDbEntity
  8
1
  6
Continuous
100
AcDbLine
 10
394.420223
 20
254.7893939999999
 30
0.0
 11
394.420223
 21
229.988545
 31
0.0
  0
LINE
  5
A4EF
330
A433
100
AcDbEntity
  8
1
  6
Continuous
100
AcDbLine
 10
431.020213
 20
254.7893719999999
 30
0.0
 11
431.020213
 21
239.475565
 31
0.0
  0
LINE
  5
A4F0
330
A433
100
AcDbEntity
  8
1
  6
Continuous
100
AcDbLine
 10
428.720223
 20
304.078213
 30
0.0
 11
428.720223
 21
239.6982959999998
 31
0.0
  0
LINE
  5
A4F1
330
A433
100
AcDbEntity
  8
1
  6
Continuous
100
AcDbLine
 10
396.7202229999998
 20
304.078213
 30
0.0
 11
396.7202229999998
 21
229.988545
 31
0.0
  0
LINE
  5
A4F2
330
A433
100
AcDbEntity
  8
4
  6
CENTER
100
AcDbLine
 10
412.7202229999999
 20
328.8716089999998
 30
0.0
 11
412.7202229999999
 21
170.871609
 31
0.0
  0
LINE
  5
A4F3
330
A433
100
AcDbEntity
  8
4
  6
CENTER
100
AcDbLine
 10
443.020213
 20
238.3716089999999
 30
0.0
 11
372.5182229999999
 21
238.3716089999999
 31
0.0
  0
LINE
  5
A4F4
330
A433
100
AcDbEntity
  8
1
  6
Continuous
100
AcDbLine
 10
431.020213
 20
227.3716089999997
 30
0.0
 11
428.720223
 21
227.3716089999997
 31
0.0
  0
LINE
  5
A4F5
330
A433
100
AcDbEntity
  8
1
  6
Continuous
100
AcDbLine
 10
382.5182529999998
 20
243.473614
 30
0.0
 11
383.9162329999999
 21
244.871598
 31
0.0
  0
LINE
  5
A4F6
330
A433
100
AcDbEntity
  8
1
  6
Continuous
100
AcDbLine
 10
383.9162229999999
 20
244.871609
 30
0.0
 11
384.538495
 21
244.871609
 31
0.0
  0
LINE
  5
A4F7
330
A433
100
AcDbEntity
  8
1
  6
Continuous
100
AcDbLine
 10
382.5182229999999
 20
243.473622
 30
0.0
 11
382.5182229999999
 21
240.4200659999999
 31
0.0
  0
ARC
  5
A4F8
330
A433
100
AcDbEntity
  8
1
  6
Continuous
100
AcDbCircle
 10
386.7682229999999
 20
243.313237
 30
0.0
 40
3.25
100
AcDbArc
 50
151.34725
 51
194.462184
  0
LINE
  5
A4F9
330
A433
100
AcDbEntity
  8
1
  6
Continuous
100
AcDbLine
 10
431.0202229999998
 20
244.6216089999999
 30
0.0
 11
432.220203
 21
244.6216089999999
 31
0.0
  0
LINE
  5
A4FA
330
A433
100
AcDbEntity
  8
1
  6
Continuous
100
AcDbLine
 10
434.220203
 20
242.621609
 30
0.0
 11
434.220203
 21
234.1216089999999
 31
0.0
  0
LINE
  5
A4FB
330
A433
100
AcDbEntity
  8
1
  6
Continuous
100
AcDbLine
 10
397.7202229999999
 20
234.371609
 30
0.0
 11
396.7202229999998
 21
234.371609
 31
0.0
  0
LINE
  5
A4FC
330
A433
100
AcDbEntity
  8
1
  6
Continuous
100
AcDbLine
 10
431.0202229999998
 20
232.1216089999999
 30
0.0
 11
432.220203
 21
232.1216089999999
 31
0.0
  0
ARC
  5
A4FD
330
A433
100
AcDbEntity
  8
1
  6
Continuous
100
AcDbCircle
 10
432.220203
 20
234.1216089999999
 30
0.0
 40
2.0
100
AcDbArc
 50
270.00002
 51
0.0
  0
LINE
  5
A4FE
330
A433
100
AcDbEntity
  8
1
  6
Continuous
100
AcDbLine
 10
397.7202229999999
 20
242.3716089999998
 30
0.0
 11
396.7202229999998
 21
242.3716089999998
 31
0.0
  0
ARC
  5
A4FF
330
A433
100
AcDbEntity
  8
1
  6
Continuous
100
AcDbCircle
 10
432.220203
 20
242.621609
 30
0.0
 40
2.0
100
AcDbArc
 50
0.0
 51
89.99998199999996
  0
ARC
  5
A500
330
A433
100
AcDbEntity
  8
1
  6
Continuous
100
AcDbCircle
 10
412.7202229999999
 20
432.706559
 30
0.0
 40
128.4999999999998
100
AcDbArc
 50
263.3484899999999
 51
276.65153
  0
ARC
  5
A501
330
A433
100
AcDbEntity
  8
1
  6
Continuous
100
AcDbCircle
 10
412.7202229999999
 20
434.9715989999999
 30
0.0
 40
128.4999999999998
100
AcDbArc
 50
264.460965
 51
275.539035
  0
LINE
  5
A502
330
A433
100
AcDbEntity
  8
1
  6
Continuous
100
AcDbLine
 10
432.720223
 20
315.9716
 30
0.0
 11
392.7202229999999
 21
315.9716
 31
0.0
  0
LINE
  5
A503
330
A433
100
AcDbEntity
  8
1
  6
Continuous
100
AcDbLine
 10
441.720223
 20
321.5716059999998
 30
0.0
 11
383.7202229999999
 21
321.5716059999998
 31
0.0
  0
LINE
  5
A504
330
A433
100
AcDbEntity
  8
1
  6
Continuous
100
AcDbLine
 10
435.7202229999998
 20
316.971607
 30
0.0
 11
389.7202229999999
 21
316.971607
 31
0.0
  0
LINE
  5
A505
330
A433
100
AcDbEntity
  8
1
  6
Continuous
100
AcDbLine
 10
441.720223
 20
323.871609
 30
0.0
 11
383.7202229999999
 21
323.871609
 31
0.0
  0
ARC
  5
A506
330
A433
100
AcDbEntity
  8
1
  6
Continuous
100
AcDbCircle
 10
435.7202229999998
 20
319.971607
 30
0.0
 40
3.0
100
AcDbArc
 50
269.99998
 51
328.48641
  0
ARC
  5
A507
330
A433
100
AcDbEntity
  8
1
  6
Continuous
100
AcDbCircle
 10
432.720223
 20
310.9716
 30
0.0
 40
5.0
100
AcDbArc
 50
0.00004
 51
90.00001800000005
  0
LINE
  5
A508
330
A433
100
AcDbEntity
  8
1
  6
Continuous
100
AcDbLine
 10
441.720223
 20
323.871609
 30
0.0
 11
441.720223
 21
321.57161
 31
0.0
  0
LINE
  5
A509
330
A433
100
AcDbEntity
  8
1
  6
Continuous
100
AcDbLine
 10
440.2202729999998
 20
321.571596
 30
0.0
 11
438.277823
 21
318.403487
 31
0.0
  0
ARC
  5
A50A
330
A433
100
AcDbEntity
  8
1
  6
Continuous
100
AcDbCircle
 10
423.1613829999998
 20
317.449612
 30
0.0
 40
2.778
100
AcDbArc
 50
206.93616
 51
212.14352
  0
ARC
  5
A50B
330
A433
100
AcDbEntity
  8
1
  6
Continuous
100
AcDbCircle
 10
418.2081529999998
 20
317.449612
 30
0.0
 40
2.778
100
AcDbArc
 50
189.9080099999999
 51
212.14352
  0
ARC
  5
A50C
330
A433
100
AcDbEntity
  8
1
  6
Continuous
100
AcDbCircle
 10
412.7202429999998
 20
317.449612
 30
0.0
 40
2.778
100
AcDbArc
 50
327.85649
 51
350.0919
  0
ARC
  5
A50D
330
A433
100
AcDbEntity
  8
1
  6
Continuous
100
AcDbCircle
 10
418.2081529999998
 20
317.449612
 30
0.0
 40
2.778
100
AcDbArc
 50
327.85649
 51
350.0919
  0
ARC
  5
A50E
330
A433
100
AcDbEntity
  8
1
  6
Continuous
100
AcDbCircle
 10
412.7202429999998
 20
317.449612
 30
0.0
 40
2.778
100
AcDbArc
 50
189.90807
 51
212.14352
  0
ARC
  5
A50F
330
A433
100
AcDbEntity
  8
1
  6
Continuous
100
AcDbCircle
 10
407.232323
 20
317.449612
 30
0.0
 40
2.778
100
AcDbArc
 50
327.85649
 51
350.0919599999999
  0
ARC
  5
A510
330
A433
100
AcDbEntity
  8
1
  6
Continuous
100
AcDbCircle
 10
429.632603
 20
317.449612
 30
0.0
 40
2.778
100
AcDbArc
 50
327.85649
 51
350.0919
  0
ARC
  5
A511
330
A433
100
AcDbEntity
  8
1
  6
Continuous
100
AcDbCircle
 10
427.0973629999998
 20
317.449612
 30
0.0
 40
2.778
100
AcDbArc
 50
327.85649
 51
350.0919
  0
ARC
  5
A512
330
A433
100
AcDbEntity
  8
1
  6
Continuous
100
AcDbCircle
 10
430.520243
 20
317.449612
 30
0.0
 40
2.778
100
AcDbArc
 50
327.85649
 51
350.0919
  0
ARC
  5
A513
330
A433
100
AcDbEntity
  8
1
  6
Continuous
100
AcDbCircle
 10
423.1613829999998
 20
317.449612
 30
0.0
 40
2.778
100
AcDbArc
 50
327.85649
 51
350.0919
  0
ARC
  5
A514
330
A433
100
AcDbEntity
  8
1
  6
Continuous
100
AcDbCircle
 10
427.7202229999998
 20
304.078213
 30
0.0
 40
1.0
100
AcDbArc
 50
0.00004
 51
96.65146100000001
  0
LINE
  5
A515
330
A433
100
AcDbEntity
  8
4
  6
CENTER
100
AcDbLine
 10
432.720223
 20
328.8716089999998
 30
0.0
 11
432.720223
 21
316.5716059999998
 31
0.0
  0
ARC
  5
A516
330
A433
100
AcDbEntity
  8
1
  6
Continuous
100
AcDbCircle
 10
402.279093
 20
317.449612
 30
0.0
 40
2.778
100
AcDbArc
 50
327.85649
 51
333.0638
  0
ARC
  5
A517
330
A433
100
AcDbEntity
  8
1
  6
Continuous
100
AcDbCircle
 10
402.279093
 20
317.449612
 30
0.0
 40
2.778
100
AcDbArc
 50
189.90807
 51
212.14352
  0
ARC
  5
A518
330
A433
100
AcDbEntity
  8
1
  6
Continuous
100
AcDbCircle
 10
407.232323
 20
317.449612
 30
0.0
 40
2.778
100
AcDbArc
 50
189.90807
 51
212.14352
  0
ARC
  5
A519
330
A433
100
AcDbEntity
  8
1
  6
Continuous
100
AcDbCircle
 10
398.3431129999999
 20
317.449612
 30
0.0
 40
2.778
100
AcDbArc
 50
189.90807
 51
212.14352
  0
ARC
  5
A51A
330
A433
100
AcDbEntity
  8
1
  6
Continuous
100
AcDbCircle
 10
395.807873
 20
317.449612
 30
0.0
 40
2.778
100
AcDbArc
 50
189.90807
 51
212.14352
  0
ARC
  5
A51B
330
A433
100
AcDbEntity
  8
1
  6
Continuous
100
AcDbCircle
 10
394.9202329999998
 20
317.449612
 30
0.0
 40
2.778
100
AcDbArc
 50
189.90807
 51
212.19887
  0
ARC
  5
A51C
330
A433
100
AcDbEntity
  8
1
  6
Continuous
100
AcDbCircle
 10
392.7202229999999
 20
310.9716
 30
0.0
 40
5.0
100
AcDbArc
 50
90.00001800000005
 51
180.0
  0
ARC
  5
A51D
330
A433
100
AcDbEntity
  8
1
  6
Continuous
100
AcDbCircle
 10
397.7202229999999
 20
304.078213
 30
0.0
 40
1.0
100
AcDbArc
 50
83.34851999999996
 51
180.0
  0
LINE
  5
A51E
330
A433
100
AcDbEntity
  8
4
  6
CENTER
100
AcDbLine
 10
392.7202229999999
 20
328.8716089999998
 30
0.0
 11
392.7202229999999
 21
316.5716059999998
 31
0.0
  0
LINE
  5
A51F
330
A433
100
AcDbEntity
  8
1
  6
Continuous
100
AcDbLine
 10
383.7202229999999
 20
323.871609
 30
0.0
 11
383.7202229999999
 21
321.5716059999998
 31
0.0
  0
ARC
  5
A520
330
A433
100
AcDbEntity
  8
1
  6
Continuous
100
AcDbCircle
 10
389.7202229999999
 20
319.971607
 30
0.0
 40
3.0
100
AcDbArc
 50
211.5135599999999
 51
269.99998
  0
LINE
  5
A521
330
A433
100
AcDbEntity
  8
1
  6
Continuous
100
AcDbLine
 10
385.220343
 20
321.5716689999998
 30
0.0
 11
387.162793
 21
318.4035740000001
 31
0.0
  0
LINE
  5
A522
330
A433
100
AcDbEntity
  8
4
  6
CENTER
100
AcDbLine
 10
221.720223
 20
460.5716089999998
 30
0.0
 11
221.720223
 21
386.3696089999999
 31
0.0
  0
LINE
  5
A523
330
A433
100
AcDbEntity
  8
4
  6
CENTER
100
AcDbLine
 10
221.720223
 20
39.871609
 30
0.0
 11
221.720223
 21
114.073609
 31
0.0
  0
LINE
  5
A524
330
A433
100
AcDbEntity
  8
1
  6
Continuous
100
AcDbLine
 10
210.7202229999999
 20
89.87160899999997
 30
0.0
 11
242.180805
 21
89.87160899999997
 31
0.0
  0
LINE
  5
A525
330
A433
100
AcDbEntity
  8
1
  6
Continuous
100
AcDbLine
 10
210.7202229999999
 20
57.87160899999999
 30
0.0
 11
237.2202389999999
 21
57.87160899999999
 31
0.0
  0
LINE
  5
A526
330
A433
100
AcDbEntity
  8
1
  6
Continuous
100
AcDbLine
 10
210.7202229999999
 20
55.57161899999999
 30
0.0
 11
234.440902
 21
55.57161899999999
 31
0.0
  0
LINE
  5
A527
330
A433
100
AcDbEntity
  8
1
  6
Continuous
100
AcDbLine
 10
217.470223
 20
52.371629
 30
0.0
 11
225.970223
 21
52.371629
 31
0.0
  0
LINE
  5
A528
330
A433
100
AcDbEntity
  8
1
  6
Continuous
100
AcDbLine
 10
217.720223
 20
88.87160899999996
 30
0.0
 11
217.720223
 21
89.87160899999997
 31
0.0
  0
ARC
  5
A529
330
A433
100
AcDbEntity
  8
1
  6
Continuous
100
AcDbCircle
 10
217.470223
 20
54.371629
 30
0.0
 40
2.0
100
AcDbArc
 50
180.0000179999999
 51
270.0
  0
LINE
  5
A52A
330
A433
100
AcDbEntity
  8
1
  6
Continuous
100
AcDbLine
 10
215.470223
 20
55.57160899999999
 30
0.0
 11
215.470223
 21
54.371629
 31
0.0
  0
LINE
  5
A52B
330
A433
100
AcDbEntity
  8
1
  6
Continuous
100
AcDbLine
 10
225.720223
 20
88.87160899999996
 30
0.0
 11
225.720223
 21
89.87160899999997
 31
0.0
  0
ARC
  5
A52C
330
A433
100
AcDbEntity
  8
1
  6
Continuous
100
AcDbCircle
 10
225.970223
 20
54.371629
 30
0.0
 40
2.0
100
AcDbArc
 50
270.0
 51
359.9999799999998
  0
LINE
  5
A52D
330
A433
100
AcDbEntity
  8
1
  6
Continuous
100
AcDbLine
 10
227.970223
 20
55.57160899999999
 30
0.0
 11
227.970223
 21
54.371629
 31
0.0
  0
LINE
  5
A52E
330
A433
100
AcDbEntity
  8
1
  6
Continuous
100
AcDbLine
 10
210.7202229999999
 20
92.17160900000001
 30
0.0
 11
210.7202229999999
 21
89.87160899999997
 31
0.0
  0
LINE
  5
A52F
330
A433
100
AcDbEntity
  8
1
  6
Continuous
100
AcDbLine
 10
285.720223
 20
310.971604
 30
0.0
 11
285.720223
 21
307.071608
 31
0.0
  0
ARC
  5
A530
330
A433
100
AcDbEntity
  8
1
  6
Continuous
100
AcDbCircle
 10
280.7202229999999
 20
310.971604
 30
0.0
 40
5.0
100
AcDbArc
 50
0.0
 51
90.0
  0
ARC
  5
A531
330
A433
100
AcDbEntity
  8
1
  6
Continuous
100
AcDbCircle
 10
240.720223
 20
310.971604
 30
0.0
 40
5.0
100
AcDbArc
 50
90.0
 51
179.030169
  0
ARC
  5
A532
330
A433
100
AcDbEntity
  8
1
  6
Continuous
100
AcDbCircle
 10
260.7202229999999
 20
73.87160899999997
 30
0.0
 40
25.0
100
AcDbArc
 50
230.2610529999999
 51
330.070868
  0
LINE
  5
A533
330
A433
100
AcDbEntity
  8
1
  6
Continuous
100
AcDbLine
 10
210.7202229999999
 20
57.87160899999999
 30
0.0
 11
210.7202229999999
 21
55.57161899999999
 31
0.0
  0
ARC
  5
A534
330
A433
100
AcDbEntity
  8
1
  6
Continuous
100
AcDbCircle
 10
128.2535629999999
 20
73.87160899999997
 30
0.0
 40
85.0
100
AcDbArc
 50
346.5596399999999
 51
347.567224
  0
ARC
  5
A535
330
A433
100
AcDbEntity
  8
1
  6
Continuous
100
AcDbCircle
 10
128.2535629999999
 20
73.87160899999997
 30
0.0
 40
85.0
100
AcDbArc
 50
10.84078599999999
 51
10.849816
  0
ARC
  5
A536
330
A433
100
AcDbEntity
  8
1
  6
Continuous
100
AcDbCircle
 10
128.2535629999999
 20
73.87160899999997
 30
0.0
 40
85.0
100
AcDbArc
 50
349.1501839999998
 51
349.159218
  0
ARC
  5
A537
330
A433
100
AcDbEntity
  8
1
  6
Continuous
100
AcDbCircle
 10
260.7202229999999
 20
73.87160899999997
 30
0.0
 40
22.7
100
AcDbArc
 50
230.2610839999999
 51
326.587642
  0
ARC
  5
A538
330
A433
100
AcDbEntity
  8
1
  6
Continuous
100
AcDbCircle
 10
260.7202229999999
 20
73.87160899999997
 30
0.0
 40
25.0
100
AcDbArc
 50
29.929132
 51
61.8944209614491
  0
ARC
  5
A539
330
A433
100
AcDbEntity
  8
1
  6
Continuous
100
AcDbCircle
 10
260.7202229999999
 20
73.87160899999997
 30
0.0
 40
25.0
100
AcDbArc
 50
337.0698319999998
 51
22.93016799999999
  0
ARC
  5
A53A
330
A433
100
AcDbEntity
  8
1
  6
Continuous
100
AcDbCircle
 10
260.7202229999999
 20
73.87160899999997
 30
0.0
 40
22.7
100
AcDbArc
 50
33.41235799999999
 51
63.83552242223258
  0
ARC
  5
A53B
330
A433
100
AcDbEntity
  8
1
  6
Continuous
100
AcDbCircle
 10
260.7202229999999
 20
73.87160899999997
 30
0.0
 40
27.500023
100
AcDbArc
 50
221.717136
 51
61.436501
  0
ARC
  5
A53C
330
A433
100
AcDbEntity
  8
1
  6
Continuous
100
AcDbCircle
 10
260.7202229999999
 20
73.87160899999997
 30
0.0
 40
17.7
100
AcDbArc
 50
44.92776099999999
 51
85.19665899999997
  0
ARC
  5
A53D
330
A433
100
AcDbEntity
  8
1
  6
Continuous
100
AcDbCircle
 10
260.7202229999999
 20
73.87160899999997
 30
0.0
 40
17.7
100
AcDbArc
 50
224.9277609999999
 51
315.072239
  0
LINE
  5
A53E
330
A433
100
AcDbEntity
  8
1
  6
Continuous
100
AcDbLine
 10
392.551649
 20
307.071608
 30
0.0
 11
432.8887969999998
 21
307.071608
 31
0.0
  0
LINE
  5
A53F
330
A433
100
AcDbEntity
  8
1
  6
Continuous
100
AcDbLine
 10
221.720223
 20
99.073609
 30
0.0
 11
221.720223
 21
103.3807879999999
 31
0.0
  0
LINE
  5
A540
330
A433
100
AcDbEntity
  8
1
  6
Continuous
100
AcDbLine
 10
227.7202229999998
 20
99.76642900000001
 30
0.0
 11
227.7202229999998
 21
103.3807879999999
 31
0.0
  0
LINE
  5
A541
330
A433
100
AcDbEntity
  8
1
  6
Continuous
100
AcDbLine
 10
215.720223
 20
99.76642900000001
 30
0.0
 11
215.720223
 21
103.3807879999999
 31
0.0
  0
ARC
  5
A542
330
A433
100
AcDbEntity
  8
1
  6
Continuous
100
AcDbCircle
 10
218.720223
 20
97.232008
 30
0.0
 40
6.841600999999998
100
AcDbArc
 50
63.992176
 51
116.007824
  0
LINE
  5
A543
330
A433
100
AcDbEntity
  8
1
  6
Continuous
100
AcDbLine
 10
218.9702229999999
 20
104.073609
 30
0.0
 11
224.470223
 21
104.073609
 31
0.0
  0
ARC
  5
A544
330
A433
100
AcDbEntity
  8
1
  6
Continuous
100
AcDbCircle
 10
224.720223
 20
97.232008
 30
0.0
 40
6.841600999999998
100
AcDbArc
 50
63.992176
 51
116.007824
  0
ARC
  5
A545
330
A433
100
AcDbEntity
  8
1
  6
Continuous
100
AcDbCircle
 10
218.772037
 20
93.542486
 30
0.0
 40
6.841600999999998
100
AcDbArc
 50
64.472054
 51
137.4203559999999
  0
ARC
  5
A546
330
A433
100
AcDbEntity
  8
1
  6
Continuous
100
AcDbCircle
 10
224.7718259999998
 20
93.592738
 30
0.0
 40
6.841600999999998
100
AcDbArc
 50
42.010696
 51
116.487702
  0
ARC
  5
A547
330
A433
100
AcDbEntity
  8
1
  6
Continuous
100
AcDbCircle
 10
543.744736
 20
292.071608
 30
0.0
 40
15.0
100
AcDbArc
 50
29.31722999999999
 51
90.00001800000005
  0
LINE
  5
A548
330
A433
100
AcDbEntity
  8
1
  6
Continuous
100
AcDbLine
 10
584.720223
 20
315.971604
 30
0.0
 11
544.720223
 21
315.971604
 31
0.0
  0
LINE
  5
A549
330
A433
100
AcDbEntity
  8
1
  6
Continuous
100
AcDbLine
 10
614.720223
 20
321.5716059999998
 30
0.0
 11
514.720238
 21
321.5716059999998
 31
0.0
  0
LINE
  5
A54A
330
A433
100
AcDbEntity
  8
1
  6
Continuous
100
AcDbLine
 10
587.720225
 20
316.971607
 30
0.0
 11
541.720223
 21
316.971607
 31
0.0
  0
LINE
  5
A54B
330
A433
100
AcDbEntity
  8
4
  6
CENTER
100
AcDbLine
 10
674.220223
 20
238.3716089999999
 30
0.0
 11
533.220223
 21
238.3716089999999
 31
0.0
  0
LINE
  5
A54C
330
A433
100
AcDbEntity
  8
1
  6
Continuous
100
AcDbLine
 10
614.720223
 20
323.871609
 30
0.0
 11
514.720238
 21
323.871609
 31
0.0
  0
LINE
  5
A54D
330
A433
100
AcDbEntity
  8
4
  6
CENTER
100
AcDbLine
 10
603.720223
 20
304.453911
 30
0.0
 11
603.720223
 21
167.8716089999998
 31
0.0
  0
LINE
  5
A54E
330
A433
100
AcDbEntity
  8
1
  6
Continuous
100
AcDbLine
 10
614.3988799999997
 20
243.3511479999999
 30
0.0
 11
610.136679
 21
304.3034329999998
 31
0.0
  0
LINE
  5
A54F
330
A433
100
AcDbEntity
  8
1
  6
Continuous
100
AcDbLine
 10
590.4524979999997
 20
239.5323839999999
 30
0.0
 11
556.804016
 21
299.450985
 31
0.0
  0
LINE
  5
A550
330
A433
100
AcDbEntity
  8
1
  6
Continuous
100
AcDbLine
 10
585.720223
 20
306.771612
 30
0.0
 11
585.720223
 21
254.3716089999997
 31
0.0
  0
LINE
  5
A551
330
A433
100
AcDbEntity
  8
4
  6
CENTER
100
AcDbLine
 10
564.720223
 20
328.8716089999998
 30
0.0
 11
564.720223
 21
269.604939
 31
0.0
  0
ARC
  5
A552
330
A433
100
AcDbEntity
  8
1
  6
Continuous
100
AcDbCircle
 10
603.720223
 20
238.3716089999999
 30
0.0
 40
11.0
100
AcDbArc
 50
209.31727
 51
3.999969999999999
  0
ARC
  5
A553
330
A433
100
AcDbEntity
  8
1
  6
Continuous
100
AcDbCircle
 10
612.630589
 20
304.4778239999998
 30
0.0
 40
2.5
100
AcDbArc
 50
79.99997999999997
 51
183.9999999999998
  0
ARC
  5
A554
330
A433
100
AcDbEntity
  8
1
  6
Continuous
100
AcDbCircle
 10
611.165668
 20
303.9237879999999
 30
0.0
 40
1.0
100
AcDbArc
 50
79.99998999999998
 51
183.9999999999998
  0
LINE
  5
A555
330
A433
100
AcDbEntity
  8
1
  6
Continuous
100
AcDbLine
 10
615.720223
 20
306.471606
 30
0.0
 11
586.878703
 21
311.557144
 31
0.0
  0
LINE
  5
A556
330
A433
100
AcDbEntity
  8
1
  6
Continuous
100
AcDbLine
 10
615.720223
 20
306.471606
 30
0.0
 11
615.320832
 21
304.206547
 31
0.0
  0
LINE
  5
A557
330
A433
100
AcDbEntity
  8
1
  6
Continuous
100
AcDbLine
 10
615.320832
 20
304.206547
 30
0.0
 11
611.3393160000001
 21
304.9085959999998
 31
0.0
  0
LINE
  5
A558
330
A433
100
AcDbEntity
  8
1
  6
Continuous
100
AcDbLine
 10
614.720238
 20
321.571614
 30
0.0
 11
614.720238
 21
323.871617
 31
0.0
  0
ARC
  5
A559
330
A433
100
AcDbEntity
  8
1
  6
Continuous
100
AcDbCircle
 10
584.720223
 20
310.971604
 30
0.0
 40
5.0
100
AcDbArc
 50
0.9698309999999999
 51
90.0
  0
ARC
  5
A55A
330
A433
100
AcDbEntity
  8
1
  6
Continuous
100
AcDbCircle
 10
581.632607
 20
317.449612
 30
0.0
 40
2.778
100
AcDbArc
 50
327.85663
 51
350.0919
  0
ARC
  5
A55B
330
A433
100
AcDbEntity
  8
1
  6
Continuous
100
AcDbCircle
 10
579.0973669999997
 20
317.449612
 30
0.0
 40
2.778
100
AcDbArc
 50
327.8566
 51
350.0919
  0
ARC
  5
A55C
330
A433
100
AcDbEntity
  8
1
  6
Continuous
100
AcDbCircle
 10
582.520249
 20
317.449612
 30
0.0
 40
2.778
100
AcDbArc
 50
327.85663
 51
350.0919
  0
LINE
  5
A55D
330
A433
100
AcDbEntity
  8
4
  6
CENTER
100
AcDbLine
 10
605.720223
 20
328.8716089999998
 30
0.0
 11
605.720223
 21
316.5716059999998
 31
0.0
  0
LINE
  5
A55E
330
A433
100
AcDbEntity
  8
1
  6
Continuous
100
AcDbLine
 10
592.2202170000002
 20
321.5716289999998
 30
0.0
 11
590.2777639999998
 21
318.403519
 31
0.0
  0
ARC
  5
A55F
330
A433
100
AcDbEntity
  8
1
  6
Continuous
100
AcDbCircle
 10
587.720223
 20
319.971607
 30
0.0
 40
3.0
100
AcDbArc
 50
269.99998
 51
328.48641
  0
ARC
  5
A560
330
A433
100
AcDbEntity
  8
1
  6
Continuous
100
AcDbCircle
 10
554.279084
 20
317.449612
 30
0.0
 40
2.778
100
AcDbArc
 50
189.90807
 51
212.1434199999999
  0
ARC
  5
A561
330
A433
100
AcDbEntity
  8
1
  6
Continuous
100
AcDbCircle
 10
559.2323229999998
 20
317.449612
 30
0.0
 40
2.778
100
AcDbArc
 50
189.90807
 51
212.1434199999999
  0
ARC
  5
A562
330
A433
100
AcDbEntity
  8
1
  6
Continuous
100
AcDbCircle
 10
550.3431099999998
 20
317.449612
 30
0.0
 40
2.778
100
AcDbArc
 50
189.90807
 51
212.1433699999999
  0
ARC
  5
A563
330
A433
100
AcDbEntity
  8
1
  6
Continuous
100
AcDbCircle
 10
570.208153
 20
317.449612
 30
0.0
 40
2.778
100
AcDbArc
 50
189.9080099999999
 51
212.1434199999999
  0
ARC
  5
A564
330
A433
100
AcDbEntity
  8
1
  6
Continuous
100
AcDbCircle
 10
570.208153
 20
317.449612
 30
0.0
 40
2.778
100
AcDbArc
 50
327.8566
 51
350.0919
  0
ARC
  5
A565
330
A433
100
AcDbEntity
  8
1
  6
Continuous
100
AcDbCircle
 10
564.720238
 20
317.449612
 30
0.0
 40
2.778
100
AcDbArc
 50
327.8566
 51
350.0919
  0
ARC
  5
A566
330
A433
100
AcDbEntity
  8
1
  6
Continuous
100
AcDbCircle
 10
559.2323229999998
 20
317.449612
 30
0.0
 40
2.778
100
AcDbArc
 50
327.8566
 51
350.0919599999999
  0
ARC
  5
A567
330
A433
100
AcDbEntity
  8
1
  6
Continuous
100
AcDbCircle
 10
564.720238
 20
317.449612
 30
0.0
 40
2.778
100
AcDbArc
 50
189.90807
 51
212.1434199999999
  0
ARC
  5
A568
330
A433
100
AcDbEntity
  8
1
  6
Continuous
100
AcDbCircle
 10
575.1613929999997
 20
317.449612
 30
0.0
 40
2.778
100
AcDbArc
 50
327.8566
 51
350.0919
  0
ARC
  5
A569
330
A433
100
AcDbEntity
  8
1
  6
Continuous
100
AcDbCircle
 10
544.720223
 20
310.971604
 30
0.0
 40
5.0
100
AcDbArc
 50
90.0
 51
180.0
  0
ARC
  5
A56A
330
A433
100
AcDbEntity
  8
1
  6
Continuous
100
AcDbCircle
 10
547.8078690000001
 20
317.449612
 30
0.0
 40
2.778
100
AcDbArc
 50
189.90807
 51
212.1433699999999
  0
ARC
  5
A56B
330
A433
100
AcDbEntity
  8
1
  6
Continuous
100
AcDbCircle
 10
546.9202280000001
 20
317.449612
 30
0.0
 40
2.778
100
AcDbArc
 50
189.90807
 51
212.1433699999999
  0
LINE
  5
A56C
330
A433
100
AcDbEntity
  8
1
  6
Continuous
100
AcDbLine
 10
539.720223
 20
310.971604
 30
0.0
 11
539.720223
 21
307.071608
 31
0.0
  0
LINE
  5
A56D
330
A433
100
AcDbEntity
  8
1
  6
Continuous
100
AcDbLine
 10
543.744736
 20
307.071608
 30
0.0
 11
539.720223
 21
307.071608
 31
0.0
  0
ARC
  5
A56E
330
A433
100
AcDbEntity
  8
1
  6
Continuous
100
AcDbCircle
 10
541.720223
 20
319.971607
 30
0.0
 40
3.0
100
AcDbArc
 50
211.5135599999999
 51
269.99998
  0
LINE
  5
A56F
330
A433
100
AcDbEntity
  8
1
  6
Continuous
100
AcDbLine
 10
537.2201999999998
 20
321.571589
 30
0.0
 11
539.1626519999999
 21
318.403487
 31
0.0
  0
LINE
  5
A570
330
A433
100
AcDbEntity
  8
1
  6
Continuous
100
AcDbLine
 10
514.720238
 20
321.571598
 30
0.0
 11
514.720238
 21
323.871609
 31
0.0
  0
LINE
  5
A571
330
A433
100
AcDbEntity
  8
4
  6
CENTER
100
AcDbLine
 10
523.720223
 20
328.8716089999998
 30
0.0
 11
523.720223
 21
316.5716059999998
 31
0.0
  0
LINE
  5
A572
330
A433
100
AcDbEntity
  8
2
  6
Continuous
100
AcDbLine
 10
381.041723
 20
241.6951089999999
 30
0.0
 11
382.5182229999999
 21
241.6951089999999
 31
0.0
  0
LINE
  5
A573
330
A433
100
AcDbEntity
  8
1
  6
Continuous
100
AcDbLine
 10
381.718223
 20
242.3716089999998
 30
0.0
 11
382.5182229999999
 21
242.3716089999998
 31
0.0
  0
LINE
  5
A574
330
A433
100
AcDbEntity
  8
1
  6
Continuous
100
AcDbLine
 10
381.718223
 20
242.3716089999998
 30
0.0
 11
381.718223
 21
239.197562
 31
0.0
  0
LINE
  5
A575
330
A433
100
AcDbEntity
  8
1
  6
Continuous
100
AcDbLine
 10
380.5182229999999
 20
241.171609
 30
0.0
 11
380.5182229999999
 21
237.4689049999997
 31
0.0
  0
LINE
  5
A576
330
A433
100
AcDbEntity
  8
1
  6
Continuous
100
AcDbLine
 10
380.5182229999999
 20
241.171609
 30
0.0
 11
381.718223
 21
242.3716089999998
 31
0.0
  0
LINE
  5
A577
330
A433
100
AcDbEntity
  8
1
  6
Continuous
100
AcDbLine
 10
88.22223599999999
 20
234.371609
 30
0.0
 11
88.22223599999999
 21
242.3716089999998
 31
0.0
  0
LINE
  5
A578
330
A433
100
AcDbEntity
  8
1
  6
Continuous
100
AcDbLine
 10
89.422236
 20
235.571609
 30
0.0
 11
89.422236
 21
241.171609
 31
0.0
  0
LINE
  5
A579
330
A433
100
AcDbEntity
  8
1
  6
Continuous
100
AcDbLine
 10
88.22223599999999
 20
234.371609
 30
0.0
 11
87.422236
 21
234.371609
 31
0.0
  0
LINE
  5
A57A
330
A433
100
AcDbEntity
  8
2
  6
Continuous
100
AcDbLine
 10
88.89873599999999
 20
235.0481089999999
 30
0.0
 11
87.422236
 21
235.0481089999999
 31
0.0
  0
LINE
  5
A57B
330
A433
100
AcDbEntity
  8
1
  6
Continuous
100
AcDbLine
 10
89.422236
 20
235.571609
 30
0.0
 11
88.22223599999999
 21
234.371609
 31
0.0
  0
LINE
  5
A57C
330
A433
100
AcDbEntity
  8
1
  6
Continuous
100
AcDbLine
 10
88.22223599999999
 20
242.3716089999998
 30
0.0
 11
87.422236
 21
242.3716089999998
 31
0.0
  0
LINE
  5
A57D
330
A433
100
AcDbEntity
  8
2
  6
Continuous
100
AcDbLine
 10
88.89873599999999
 20
241.6951089999999
 30
0.0
 11
87.422236
 21
241.6951089999999
 31
0.0
  0
LINE
  5
A57E
330
A433
100
AcDbEntity
  8
1
  6
Continuous
100
AcDbLine
 10
89.422236
 20
241.171609
 30
0.0
 11
88.22223599999999
 21
242.3716089999998
 31
0.0
  0
LINE
  5
A57F
330
A433
100
AcDbEntity
  8
1
  6
Continuous
100
AcDbLine
 10
224.5202229999999
 20
106.073609
 30
0.0
 11
218.9202229999999
 21
106.073609
 31
0.0
  0
LINE
  5
A580
330
A433
100
AcDbEntity
  8
1
  6
Continuous
100
AcDbLine
 10
225.720223
 20
104.873609
 30
0.0
 11
217.720223
 21
104.873609
 31
0.0
  0
LINE
  5
A581
330
A433
100
AcDbEntity
  8
1
  6
Continuous
100
AcDbLine
 10
218.9202229999999
 20
106.073609
 30
0.0
 11
217.720223
 21
104.873609
 31
0.0
  0
LINE
  5
A582
330
A433
100
AcDbEntity
  8
2
  6
Continuous
100
AcDbLine
 10
218.3967229999999
 20
105.550109
 30
0.0
 11
218.3967229999999
 21
104.073609
 31
0.0
  0
LINE
  5
A583
330
A433
100
AcDbEntity
  8
1
  6
Continuous
100
AcDbLine
 10
217.720223
 20
104.873609
 30
0.0
 11
217.720223
 21
104.073609
 31
0.0
  0
LINE
  5
A584
330
A433
100
AcDbEntity
  8
4
  6
CENTER
100
AcDbLine
 10
221.720223
 20
48.571619
 30
0.0
 11
221.720223
 21
50.571619
 31
0.0
  0
LINE
  5
A585
330
A433
100
AcDbEntity
  8
2
  6
Continuous
100
AcDbLine
 10
225.043723
 20
105.550109
 30
0.0
 11
225.043723
 21
104.073609
 31
0.0
  0
LINE
  5
A586
330
A433
100
AcDbEntity
  8
1
  6
Continuous
100
AcDbLine
 10
225.720223
 20
104.873609
 30
0.0
 11
225.720223
 21
104.073609
 31
0.0
  0
LINE
  5
A587
330
A433
100
AcDbEntity
  8
1
  6
Continuous
100
AcDbLine
 10
224.5202229999999
 20
106.073609
 30
0.0
 11
225.720223
 21
104.873609
 31
0.0
  0
LINE
  5
A588
330
A433
100
AcDbEntity
  8
4
  6
CENTER
100
AcDbLine
 10
213.720223
 20
446.5716089999999
 30
0.0
 11
225.720223
 21
446.5716089999999
 31
0.0
  0
LINE
  5
A589
330
A433
100
AcDbEntity
  8
4
  6
CENTER
100
AcDbLine
 10
221.720223
 20
451.871599
 30
0.0
 11
221.720223
 21
449.8715989999998
 31
0.0
  0
ARC
  5
A58A
330
A433
100
AcDbEntity
  8
1
  6
Continuous
100
AcDbCircle
 10
128.2535629999999
 20
426.5716089999998
 30
0.0
 40
85.0
100
AcDbArc
 50
10.840782
 51
10.849816
  0
LINE
  5
A58B
330
A433
100
AcDbEntity
  8
1
  6
Continuous
100
AcDbLine
 10
210.7202229999999
 20
442.5716089999998
 30
0.0
 11
210.7202229999999
 21
444.871599
 31
0.0
  0
LINE
  5
A58C
330
A433
100
AcDbEntity
  8
4
  6
CENTER
100
AcDbLine
 10
213.720223
 20
406.5716089999998
 30
0.0
 11
225.720223
 21
406.5716089999998
 31
0.0
  0
ARC
  5
A58D
330
A433
100
AcDbEntity
  8
1
  6
Continuous
100
AcDbCircle
 10
128.2535629999999
 20
426.5716089999998
 30
0.0
 40
85.0
100
AcDbArc
 50
349.1501839999998
 51
349.159214
  0
LINE
  5
A58E
330
A433
100
AcDbEntity
  8
1
  6
Continuous
100
AcDbLine
 10
210.7202229999999
 20
408.2716089999998
 30
0.0
 11
210.7202229999999
 21
410.5716089999998
 31
0.0
  0
LINE
  5
A58F
330
A433
100
AcDbEntity
  8
1
  6
Continuous
100
AcDbLine
 10
210.7202229999999
 20
444.871599
 30
0.0
 11
211.260252
 21
444.871599
 31
0.0
  0
LINE
  5
A590
330
A433
100
AcDbEntity
  8
1
  6
Continuous
100
AcDbLine
 10
210.7202229999999
 20
442.5716089999998
 30
0.0
 11
211.7340989999999
 21
442.5716089999998
 31
0.0
  0
LINE
  5
A591
330
A433
100
AcDbEntity
  8
1
  6
Continuous
100
AcDbLine
 10
210.7202229999999
 20
408.2716089999998
 30
0.0
 11
211.2602489999999
 21
408.2716089999998
 31
0.0
  0
LINE
  5
A592
330
A433
100
AcDbEntity
  8
1
  6
Continuous
100
AcDbLine
 10
210.7202229999999
 20
410.5716089999998
 30
0.0
 11
211.7340989999999
 21
410.5716089999998
 31
0.0
  0
ARC
  5
A595
330
A433
100
AcDbEntity
  8
1
  6
Continuous
100
AcDbCircle
 10
242.500997
 20
426.571604
 30
0.0
 40
32.780774
100
AcDbArc
 50
157.142433
 51
202.857562
  0
ARC
  5
A596
330
A433
100
AcDbEntity
  8
1
  6
Continuous
100
AcDbCircle
 10
459.788189
 20
285.354419
 30
0.0
 40
72.067966
100
AcDbArc
 50
163.6561669999998
 51
204.7279049999999
  0
ARC
  5
A597
330
A433
100
AcDbEntity
  8
1
  6
Continuous
100
AcDbCircle
 10
365.6522569999999
 20
285.354419
 30
0.0
 40
72.067966
100
AcDbArc
 50
335.2720759999999
 51
16.343833
  0
ARC
  5
A598
330
A433
100
AcDbEntity
  8
1
  6
Continuous
100
AcDbCircle
 10
365.6522569999999
 20
285.354419
 30
0.0
 40
69.767966
100
AcDbArc
 50
335.2720949999998
 51
18.13622699999998
  0
ARC
  5
A599
330
A433
100
AcDbEntity
  8
1
  6
Continuous
100
AcDbCircle
 10
459.788189
 20
285.354419
 30
0.0
 40
69.767966
100
AcDbArc
 50
161.863773
 51
204.7279049999999
  0
ARC
  5
A59A
330
A433
100
AcDbEntity
  8
1
  6
Continuous
100
AcDbCircle
 10
432.8887969999998
 20
305.071608
 30
0.0
 40
2.0
100
AcDbArc
 50
16.343833
 51
90.0
  0
ARC
  5
A59B
330
A433
100
AcDbEntity
  8
1
  6
Continuous
100
AcDbCircle
 10
392.551649
 20
305.071608
 30
0.0
 40
2.0
100
AcDbArc
 50
90.0
 51
163.6561669999998
  0
ARC
  5
A59C
330
A433
100
AcDbEntity
  8
1
  6
Continuous
100
AcDbCircle
 10
242.180805
 20
96.17160900000001
 30
0.0
 40
6.299999999999998
100
AcDbArc
 50
270.0
 51
309.738916
  0
ARC
  5
A59D
330
A433
100
AcDbEntity
  8
1
  6
Continuous
100
AcDbCircle
 10
242.180805
 20
51.571609
 30
0.0
 40
6.299999999999998
100
AcDbArc
 50
50.261084
 51
90.0
  0
ARC
  5
A59E
330
A433
100
AcDbEntity
  8
1
  6
Continuous
100
AcDbCircle
 10
242.1807929999999
 20
51.571619
 30
0.0
 40
4.0
100
AcDbArc
 50
50.26105300000001
 51
90.0
  0
ARC
  5
A59F
330
A433
100
AcDbEntity
  8
1
  6
Continuous
100
AcDbCircle
 10
393.420223
 20
254.7893939999999
 30
0.0
 40
1.0
100
AcDbArc
 50
0.0
 51
24.727905
  0
ARC
  5
A5A0
330
A433
100
AcDbEntity
  8
1
  6
Continuous
100
AcDbCircle
 10
393.420223
 20
254.7893939999999
 30
0.0
 40
3.299999999999998
100
AcDbArc
 50
0.0
 51
24.727905
  0
ARC
  5
A5A1
330
A433
100
AcDbEntity
  8
1
  6
Continuous
100
AcDbCircle
 10
432.020213
 20
254.7893719999999
 30
0.0
 40
1.0
100
AcDbArc
 50
155.2720759999999
 51
180.0
  0
ARC
  5
A5A2
330
A433
100
AcDbEntity
  8
1
  6
Continuous
100
AcDbCircle
 10
432.0202229999998
 20
254.7893939999999
 30
0.0
 40
3.299999999999998
100
AcDbArc
 50
155.272095
 51
180.0
  0
ARC
  5
A5A3
330
A433
100
AcDbEntity
  8
1
  6
Continuous
100
AcDbCircle
 10
191.8039
 20
397.271609
 30
0.0
 40
12.239545
100
AcDbArc
 50
139.1065419999998
 51
220.893454
  0
ARC
  5
A5A4
330
A433
100
AcDbEntity
  8
1
  6
Continuous
100
AcDbCircle
 10
190.653906
 20
397.271609
 30
0.0
 40
12.239545
100
AcDbArc
 50
139.1065419999998
 51
220.893454
  0
ARC
  5
A5A5
330
A433
100
AcDbEntity
  8
1
  6
Continuous
100
AcDbCircle
 10
263.8867399999999
 20
397.271609
 30
0.0
 40
12.239545
100
AcDbArc
 50
319.106544
 51
1.404500999999998
  0
ARC
  5
A5A6
330
A433
100
AcDbEntity
  8
1
  6
Continuous
100
AcDbCircle
 10
248.2880919999999
 20
316.633471
 30
0.0
 40
85.728165
100
AcDbArc
 50
109.243677
 51
111.159635
  0
ARC
  5
A5A7
330
A433
100
AcDbEntity
  8
1
  6
Continuous
100
AcDbCircle
 10
229.2473049999999
 20
385.190722
 30
0.0
 40
14.874959
100
AcDbArc
 50
45.39152799999999
 51
56.33892000000001
  0
ARC
  5
A5A8
330
A433
100
AcDbEntity
  8
1
  6
Continuous
100
AcDbCircle
 10
230.397299
 20
385.190722
 30
0.0
 40
14.874959
100
AcDbArc
 50
45.39152799999999
 51
56.33892000000001
  0
LINE
  5
A5A9
330
A433
100
AcDbEntity
  8
1
  6
Continuous
100
AcDbLine
 10
184.8500239999999
 20
92.17160900000001
 30
0.0
 11
265.449969
 21
92.17160900000001
 31
0.0
  0
LINE
  5
A5AA
330
A433
100
AcDbEntity
  8
1
  6
Continuous
100
AcDbLine
 10
187.150027
 20
94.471612
 30
0.0
 11
263.463427
 21
94.471612
 31
0.0
  0
LINE
  5
A5D1
330
A433
100
AcDbEntity
  8
5
  6
PHANTOM
100
AcDbLine
 10
169.468302
 20
217.4833379999999
 30
0.0
 11
203.0786589999999
 21
236.5789319999999
 31
0.0
  0
LINE
  5
A5D2
330
A433
100
AcDbEntity
  8
5
  6
PHANTOM
100
AcDbLine
 10
168.332129
 20
219.4830969999999
 30
0.0
 11
201.9424859999999
 21
238.5786909999999
 31
0.0
  0
LINE
  5
A5D3
330
A433
100
AcDbEntity
  8
5
  6
PHANTOM
100
AcDbLine
 10
194.4655919999999
 20
231.685464
 30
0.0
 11
196.441532
 21
228.2075879999999
 31
0.0
  0
LINE
  5
A5D4
330
A433
100
AcDbEntity
  8
5
  6
PHANTOM
100
AcDbLine
 10
196.4415129999999
 20
228.2076159999999
 30
0.0
 11
203.1131729999999
 21
230.635184
 31
0.0
  0
ARC
  5
A5D5
330
A433
100
AcDbEntity
  8
5
  6
PHANTOM
100
AcDbCircle
 10
204.7528649999999
 20
235.9690049999999
 30
0.0
 40
14.509467
100
AcDbArc
 50
252.3185339999999
 51
308.2997349999998
  0
LINE
  5
A5D6
330
A433
100
AcDbEntity
  8
1
  6
Continuous
100
AcDbLine
 10
184.8500239999999
 20
92.17160900000001
 30
0.0
 11
184.8500239999999
 21
92.17160900000001
 31
0.0
  0
ARC
  5
A5D7
330
A433
100
AcDbEntity
  8
1
  6
Continuous
100
AcDbCircle
 10
187.150027
 20
92.17160900000001
 30
0.0
 40
2.299999999999998
100
AcDbArc
 50
90.00000300000001
 51
180.000005
  0
LINE
  5
A5D8
330
A433
100
AcDbEntity
  8
1
  6
Continuous
100
AcDbLine
 10
87.55932699999998
 20
251.8327529999999
 30
0.0
 11
78.76634699999998
 21
251.8327529999999
 31
0.0
  0
ARC
  5
A5D9
330
A433
100
AcDbEntity
  8
1
  6
Continuous
100
AcDbCircle
 10
86.52021899999999
 20
252.9725229999999
 30
0.0
 40
19.899187
100
AcDbArc
 50
63.434952
 51
116.5650469999998
  0
ARC
  5
A5DA
330
A433
100
AcDbEntity
  8
1
  6
Continuous
100
AcDbCircle
 10
86.52021899999999
 20
254.9643749999999
 30
0.0
 40
19.899187
100
AcDbArc
 50
63.434952
 51
116.5650469999998
  0
ARC
  5
A5DB
330
A433
100
AcDbEntity
  8
1
  6
Continuous
100
AcDbCircle
 10
86.52021899999999
 20
237.020863
 30
0.0
 40
19.899187
100
AcDbArc
 50
244.0744089999999
 51
296.565062
  0
LINE
  5
A5DC
330
A433
100
AcDbEntity
  8
1
  6
Continuous
100
AcDbLine
 10
77.82022600000002
 20
265.641163
 30
0.0
 11
77.82022600000002
 21
218.501973
 31
0.0
  0
LINE
  5
A5DD
330
A433
100
AcDbEntity
  8
1
  6
Continuous
100
AcDbLine
 10
75.520223
 20
221.342
 30
0.0
 11
77.82022600000002
 21
221.342
 31
0.0
  0
LINE
  5
A5DE
330
A433
100
AcDbEntity
  8
1
  6
Continuous
100
AcDbLine
 10
75.520223
 20
218.501973
 30
0.0
 11
77.82022600000002
 21
218.501973
 31
0.0
  0
LINE
  5
A5DF
330
A433
100
AcDbEntity
  8
1
  6
Continuous
100
AcDbLine
 10
75.520223
 20
229.988545
 30
0.0
 11
71.520223
 21
229.988545
 31
0.0
  0
LINE
  5
A5E0
330
A433
100
AcDbEntity
  8
1
  6
Continuous
100
AcDbLine
 10
75.520223
 20
227.996693
 30
0.0
 11
71.520223
 21
227.996693
 31
0.0
  0
LINE
  5
A5E1
330
A433
100
AcDbEntity
  8
1
  6
Continuous
100
AcDbLine
 10
75.520223
 20
224.4966929999999
 30
0.0
 11
72.520223
 21
224.4966929999999
 31
0.0
  0
LINE
  5
A5E2
330
A433
100
AcDbEntity
  8
1
  6
Continuous
100
AcDbLine
 10
71.52022700000002
 20
227.996685
 30
0.0
 11
72.52022700000002
 21
224.4966929999999
 31
0.0
  0
LINE
  5
A5E3
330
A433
100
AcDbEntity
  8
1
  6
Continuous
100
AcDbLine
 10
75.520223
 20
238.2728769999999
 30
0.0
 11
77.82022600000002
 21
238.2728769999999
 31
0.0
  0
LINE
  5
A5E4
330
A433
100
AcDbEntity
  8
1
  6
Continuous
100
AcDbLine
 10
75.520223
 20
224.5273329999999
 30
0.0
 11
77.82022600000002
 21
224.5273329999999
 31
0.0
  0
LINE
  5
A5E5
330
A433
100
AcDbEntity
  8
1
  6
Continuous
100
AcDbLine
 10
71.520223
 20
229.988545
 30
0.0
 11
71.520223
 21
227.996693
 31
0.0
  0
ARC
  5
A5E6
330
A433
100
AcDbEntity
  8
1
  6
Continuous
100
AcDbCircle
 10
75.520223
 20
265.641163
 30
0.0
 40
2.299999999999998
100
AcDbArc
 50
359.999997
 51
90.00000300000001
  0
LINE
  5
A5E7
330
A433
100
AcDbEntity
  8
1
  6
Continuous
100
AcDbLine
 10
71.520223
 20
256.98856
 30
0.0
 11
72.52021899999999
 21
260.48856
 31
0.0
  0
LINE
  5
A5E8
330
A433
100
AcDbEntity
  8
1
  6
Continuous
100
AcDbLine
 10
75.520223
 20
260.4885449999999
 30
0.0
 11
72.520223
 21
260.4885449999999
 31
0.0
  0
LINE
  5
A5E9
330
A433
100
AcDbEntity
  8
1
  6
Continuous
100
AcDbLine
 10
71.520219
 20
254.996708
 30
0.0
 11
72.52021899999999
 21
258.4966929999998
 31
0.0
  0
LINE
  5
A5EA
330
A433
100
AcDbEntity
  8
1
  6
Continuous
100
AcDbLine
 10
75.520223
 20
258.4966929999998
 30
0.0
 11
72.520223
 21
258.4966929999998
 31
0.0
  0
LINE
  5
A5EB
330
A433
100
AcDbEntity
  8
1
  6
Continuous
100
AcDbLine
 10
75.520223
 20
254.996693
 30
0.0
 11
71.520223
 21
254.996693
 31
0.0
  0
LINE
  5
A5EC
330
A433
100
AcDbEntity
  8
1
  6
Continuous
100
AcDbLine
 10
75.520223
 20
248.597218
 30
0.0
 11
77.82022600000002
 21
248.597218
 31
0.0
  0
LINE
  5
A5ED
330
A433
100
AcDbEntity
  8
1
  6
Continuous
100
AcDbLine
 10
71.520223
 20
256.9885450000001
 30
0.0
 11
71.520223
 21
254.996693
 31
0.0
  0
LINE
  5
A5EE
330
A433
100
AcDbEntity
  8
1
  6
Continuous
100
AcDbLine
 10
72.520223
 20
258.4966929999998
 30
0.0
 11
72.520223
 21
260.4885449999999
 31
0.0
  0
LINE
  5
A5EF
330
A433
100
AcDbEntity
  8
1
  6
Continuous
100
AcDbLine
 10
75.520223
 20
267.9411509999998
 30
0.0
 11
75.520223
 21
267.9411509999998
 31
0.0
  0
ARC
  5
A5F0
330
A433
100
AcDbEntity
  8
1
  6
Continuous
100
AcDbCircle
 10
79.32062999999998
 20
267.3716929999998
 30
0.0
 40
3.800405999999998
100
AcDbArc
 50
116.5650469999998
 51
171.3823689999999
  0
ARC
  5
A5F1
330
A433
100
AcDbEntity
  8
1
  6
Continuous
100
AcDbCircle
 10
79.32062999999998
 20
269.3635449999999
 30
0.0
 40
3.800405999999998
100
AcDbArc
 50
116.5650469999998
 51
180.000005
  0
ARC
  5
A5F2
330
A433
100
AcDbEntity
  8
1
  6
Continuous
100
AcDbCircle
 10
105.347734
 20
248.939259
 30
0.0
 40
20.76305799999997
100
AcDbArc
 50
176.283576
 51
191.2977749999997
  0
ARC
  5
A5F3
330
A433
100
AcDbEntity
  8
1
  6
Continuous
100
AcDbCircle
 10
105.3480769999999
 20
250.93105
 30
0.0
 40
20.76305799999997
100
AcDbArc
 50
182.739379
 51
196.968003
  0
ARC
  5
A5F4
330
A433
100
AcDbEntity
  8
5
  6
PHANTOM
100
AcDbCircle
 10
188.430136
 20
241.244727
 30
0.0
 40
22.51196699999999
100
AcDbArc
 50
241.1256709999999
 51
301.9589419999998
  0
LINE
  5
A5F5
330
A433
100
AcDbEntity
  8
1
  6
Continuous
100
AcDbLine
 10
97.520219
 20
222.6216629999999
 30
0.0
 11
97.520219
 21
224.613514
 31
0.0
  0
ARC
  5
A5F6
330
A433
100
AcDbEntity
  8
1
  6
Continuous
100
AcDbCircle
 10
93.719812
 20
222.6216629999999
 30
0.0
 40
3.800405999999998
100
AcDbArc
 50
296.5650479999998
 51
34.78245799999999
  0
LINE
  5
A5F7
330
A433
100
AcDbEntity
  8
1
  6
Continuous
100
AcDbLine
 10
96.841188
 20
224.789654
 30
0.0
 11
89.38104499999999
 21
235.530418
 31
0.0
  0
LINE
  5
A5F8
330
A433
100
AcDbEntity
  8
1
  6
Continuous
100
AcDbLine
 10
89.422236
 20
237.4633519999999
 30
0.0
 11
96.84121799999999
 21
226.78146
 31
0.0
  0
ARC
  5
A5F9
330
A433
100
AcDbEntity
  8
1
  6
Continuous
100
AcDbCircle
 10
93.719812
 20
224.613514
 30
0.0
 40
3.800405999999998
100
AcDbArc
 50
359.999997
 51
34.78147100000001
  0
LINE
  5
A5FA
330
A433
100
AcDbEntity
  8
1
  6
Continuous
100
AcDbLine
 10
97.520219
 20
267.3716929999998
 30
0.0
 11
97.520219
 21
269.3635449999999
 31
0.0
  0
ARC
  5
A5FB
330
A433
100
AcDbEntity
  8
1
  6
Continuous
100
AcDbCircle
 10
93.719812
 20
267.3716929999998
 30
0.0
 40
3.800405999999998
100
AcDbArc
 50
325.232387
 51
63.434952
  0
LINE
  5
A5FC
330
A433
100
AcDbEntity
  8
1
  6
Continuous
100
AcDbLine
 10
87.55933500000002
 20
251.832768
 30
0.0
 11
96.84176
 21
265.204533
 31
0.0
  0
ARC
  5
A5FD
330
A433
100
AcDbEntity
  8
1
  6
Continuous
100
AcDbCircle
 10
87.15219999999998
 20
250.121144
 30
0.0
 40
2.529177999999999
100
AcDbArc
 50
137.409623
 51
176.283576
  0
ARC
  5
A5FE
330
A433
100
AcDbEntity
  8
1
  6
Continuous
100
AcDbCircle
 10
93.719812
 20
269.3635449999999
 30
0.0
 40
3.800405999999998
100
AcDbArc
 50
359.999997
 51
63.434952
  0
ARC
  5
A5FF
330
A433
100
AcDbEntity
  8
5
  6
PHANTOM
100
AcDbCircle
 10
177.076447
 20
220.6557689999999
 30
0.0
 40
1.0
100
AcDbArc
 50
61.12566000000001
 51
119.602908
  0
LINE
  5
A600
330
A433
100
AcDbEntity
  8
5
  6
PHANTOM
100
AcDbLine
 10
169.4683209999998
 20
217.483371
 30
0.0
 11
168.3321459999999
 21
219.483158
 31
0.0
  0
ARC
  5
A601
330
A433
100
AcDbEntity
  8
1
  6
Continuous
100
AcDbCircle
 10
383.420223
 20
237.0208709999999
 30
0.0
 40
19.899187
100
AcDbArc
 50
243.4349529999999
 51
296.5650479999998
  0
LINE
  5
A602
330
A433
100
AcDbEntity
  8
1
  6
Continuous
100
AcDbLine
 10
238.5357079999999
 20
104.6715969999999
 30
0.0
 11
261.232394
 21
113.585687
 31
0.0
  0
LINE
  5
A603
330
A433
100
AcDbEntity
  8
1
  6
Continuous
100
AcDbLine
 10
208.22481
 20
92.17160900000001
 30
0.0
 11
208.22481
 21
88.17160900000002
 31
0.0
  0
LINE
  5
A604
330
A433
100
AcDbEntity
  8
1
  6
Continuous
100
AcDbLine
 10
202.16263
 20
92.17160900000001
 30
0.0
 11
202.16263
 21
89.171609
 31
0.0
  0
LINE
  5
A605
330
A433
100
AcDbEntity
  8
1
  6
Continuous
100
AcDbLine
 10
209.374804
 20
92.17160900000001
 30
0.0
 11
209.374804
 21
88.17160900000002
 31
0.0
  0
LINE
  5
A606
330
A433
100
AcDbEntity
  8
1
  6
Continuous
100
AcDbLine
 10
208.224795
 20
88.17160499999998
 30
0.0
 11
202.1626149999999
 21
89.17160499999999
 31
0.0
  0
LINE
  5
A607
330
A433
100
AcDbEntity
  8
1
  6
Continuous
100
AcDbLine
 10
208.22481
 20
88.17160900000002
 30
0.0
 11
209.374804
 21
88.17160900000002
 31
0.0
  0
ARC
  5
A608
330
A433
100
AcDbEntity
  8
1
  6
Continuous
100
AcDbCircle
 10
245.988085
 20
183.8097389999999
 30
0.0
 40
85.728165
100
AcDbArc
 50
248.8876919999999
 51
249.514114
  0
ARC
  5
A609
330
A433
100
AcDbEntity
  8
1
  6
Continuous
100
AcDbCircle
 10
247.1380789999999
 20
183.8097389999999
 30
0.0
 40
85.728165
100
AcDbArc
 50
248.8876919999999
 51
249.099962
  0
LINE
  5
A60A
330
A433
100
AcDbEntity
  8
1
  6
Continuous
100
AcDbLine
 10
189.8582479999998
 20
113.5856939999999
 30
0.0
 11
215.109042
 21
103.835988
 31
0.0
  0
LINE
  5
A60B
330
A433
100
AcDbEntity
  8
1
  6
Continuous
100
AcDbLine
 10
191.0082419999999
 20
113.5856939999999
 30
0.0
 11
216.259035
 21
103.8359959999997
 31
0.0
  0
LINE
  5
A60C
330
A433
100
AcDbEntity
  8
1
  6
Continuous
100
AcDbLine
 10
196.9090449999999
 20
92.17160900000001
 30
0.0
 11
196.9090449999999
 21
94.471612
 31
0.0
  0
LINE
  5
A60D
330
A433
100
AcDbEntity
  8
1
  6
Continuous
100
AcDbLine
 10
205.791323
 20
92.17160900000001
 30
0.0
 11
205.791323
 21
94.471612
 31
0.0
  0
LINE
  5
A60E
330
A433
100
AcDbEntity
  8
1
  6
Continuous
100
AcDbLine
 10
212.5549339999998
 20
103.133797
 30
0.0
 11
212.5549339999998
 21
99.471612
 31
0.0
  0
ARC
  5
A60F
330
A433
100
AcDbEntity
  8
1
  6
Continuous
100
AcDbCircle
 10
228.0972919999999
 20
115.252496
 30
0.0
 40
14.874959
100
AcDbArc
 50
268.547438
 51
314.60477
  0
LINE
  5
A610
330
A433
100
AcDbEntity
  8
1
  6
Continuous
100
AcDbLine
 10
229.599306
 20
92.17160900000001
 30
0.0
 11
229.599306
 21
94.471612
 31
0.0
  0
ARC
  5
A611
330
A433
100
AcDbEntity
  8
1
  6
Continuous
100
AcDbCircle
 10
229.2472859999997
 20
115.252496
 30
0.0
 40
14.874959
100
AcDbArc
 50
264.1076339999999
 51
267.7846599999999
  0
LINE
  5
A612
330
A433
100
AcDbEntity
  8
1
  6
Continuous
100
AcDbLine
 10
242.981585
 20
92.17160900000001
 30
0.0
 11
242.981585
 21
94.471612
 31
0.0
  0
LINE
  5
A613
330
A433
100
AcDbEntity
  8
1
  6
Continuous
100
AcDbLine
 10
238.5357079999999
 20
103.133797
 30
0.0
 11
238.5357079999999
 21
96.382027
 31
0.0
  0
LINE
  5
A614
330
A433
100
AcDbEntity
  8
1
  6
Continuous
100
AcDbLine
 10
261.0523549999999
 20
92.17160900000001
 30
0.0
 11
261.0523549999999
 21
89.171609
 31
0.0
  0
LINE
  5
A615
330
A433
100
AcDbEntity
  8
1
  6
Continuous
100
AcDbLine
 10
254.9901909999999
 20
92.17160900000001
 30
0.0
 11
254.9901909999999
 21
88.17160900000002
 31
0.0
  0
LINE
  5
A616
330
A433
100
AcDbEntity
  8
1
  6
Continuous
100
AcDbLine
 10
262.202349
 20
92.17160900000001
 30
0.0
 11
262.202349
 21
89.171609
 31
0.0
  0
LINE
  5
A617
330
A433
100
AcDbEntity
  8
1
  6
Continuous
100
AcDbLine
 10
254.9901909999999
 20
88.17160900000002
 30
0.0
 11
256.1401539999998
 21
88.17160900000002
 31
0.0
  0
LINE
  5
A618
330
A433
100
AcDbEntity
  8
1
  6
Continuous
100
AcDbLine
 10
254.990176
 20
88.17160499999998
 30
0.0
 11
261.0523699999999
 21
89.17160499999999
 31
0.0
  0
LINE
  5
A619
330
A433
100
AcDbEntity
  8
1
  6
Continuous
100
AcDbLine
 10
256.140169
 20
88.17160900000002
 30
0.0
 11
262.202364
 21
89.17161299999998
 31
0.0
  0
LINE
  5
A61A
330
A433
100
AcDbEntity
  8
1
  6
Continuous
100
AcDbLine
 10
256.140169
 20
88.17160900000002
 30
0.0
 11
262.202364
 21
89.17161299999998
 31
0.0
  0
LINE
  5
A61B
330
A433
100
AcDbEntity
  8
1
  6
Continuous
100
AcDbLine
 10
261.0523549999999
 20
89.171609
 30
0.0
 11
262.202349
 21
89.171609
 31
0.0
  0
ARC
  5
A643
330
A433
100
AcDbEntity
  8
1
  6
Continuous
100
AcDbCircle
 10
263.463427
 20
92.17160900000001
 30
0.0
 40
2.299999999999998
100
AcDbArc
 50
0.9328563458479949
 51
90.00000300000001
  0
LINE
  5
A644
330
A433
100
AcDbEntity
  8
5
  6
PHANTOM
100
AcDbLine
 10
231.6676619999999
 20
255.4669599999999
 30
0.0
 11
265.2780409999999
 21
274.5625759999999
 31
0.0
  0
LINE
  5
A645
330
A433
100
AcDbEntity
  8
5
  6
PHANTOM
100
AcDbLine
 10
232.8038129999999
 20
253.4671789999999
 30
0.0
 11
266.414192
 21
272.5627949999998
 31
0.0
  0
ARC
  5
A646
330
A433
100
AcDbEntity
  8
5
  6
PHANTOM
100
AcDbCircle
 10
236.2952259999999
 20
268.4391059999999
 30
0.0
 40
22.51196699999999
100
AcDbArc
 50
297.2468899999999
 51
358.0801619999999
  0
ARC
  5
A647
330
A433
100
AcDbEntity
  8
5
  6
PHANTOM
100
AcDbCircle
 10
227.197276
 20
228.731395
 30
0.0
 40
25.837463
100
AcDbArc
 50
88.233112
 51
150.972723
  0
ARC
  5
A648
330
A433
100
AcDbEntity
  8
5
  6
PHANTOM
100
AcDbCircle
 10
227.197276
 20
228.731395
 30
0.0
 40
23.53746399999999
100
AcDbArc
 50
88.23314000000001
 51
150.9726959999998
  0
ARC
  5
A649
330
A433
100
AcDbEntity
  8
5
  6
PHANTOM
100
AcDbCircle
 10
232.470625
 20
251.7167479999999
 30
0.0
 40
14.509467
100
AcDbArc
 50
290.9060979999998
 51
346.8872979999999
  0
ARC
  5
A64A
330
A433
100
AcDbEntity
  8
5
  6
PHANTOM
100
AcDbCircle
 10
216.9285429999999
 20
246.805501
 30
0.0
 40
22.450027
100
AcDbArc
 50
261.848889
 51
337.356944
  0
LINE
  5
A64B
330
A433
100
AcDbEntity
  8
5
  6
PHANTOM
100
AcDbLine
 10
247.5032129999999
 20
261.818596
 30
0.0
 11
250.0822719999999
 21
257.27915
 31
0.0
  0
LINE
  5
A64C
330
A433
100
AcDbEntity
  8
5
  6
PHANTOM
100
AcDbLine
 10
250.0822369999999
 20
257.279135
 30
0.0
 11
255.565393
 21
261.798599
 31
0.0
  0
LINE
  5
A64D
330
A433
100
AcDbEntity
  8
5
  6
PHANTOM
100
AcDbLine
 10
253.5894419999999
 20
265.2765009999999
 30
0.0
 11
255.565393
 21
261.798599
 31
0.0
  0
ARC
  5
A64E
330
A433
100
AcDbEntity
  8
5
  6
PHANTOM
100
AcDbCircle
 10
228.209745
 20
261.553258
 30
0.0
 40
9.3
100
AcDbArc
 50
268.2331479999999
 51
299.60291
  0
ARC
  5
A64F
330
A433
100
AcDbEntity
  8
5
  6
PHANTOM
100
AcDbCircle
 10
228.2097579999999
 20
261.55325
 30
0.0
 40
7.0
100
AcDbArc
 50
268.233121
 51
299.6029229999998
  0
LINE
  5
A650
330
A433
100
AcDbEntity
  8
1
  6
Continuous
100
AcDbLine
 10
192.213126
 20
386.85483
 30
0.0
 11
217.343009
 21
396.5817129999999
 31
0.0
  0
LINE
  5
A651
330
A433
100
AcDbEntity
  8
5
  6
PHANTOM
100
AcDbLine
 10
200.5518319999999
 20
235.143344
 30
0.0
 11
203.1131629999999
 21
230.6351369999999
 31
0.0
  0
ARC
  5
A652
330
A433
100
AcDbEntity
  8
5
  6
PHANTOM
100
AcDbCircle
 10
198.4845629999998
 20
244.6650089999999
 30
0.0
 40
9.3
100
AcDbArc
 50
299.6029229999998
 51
330.972691
  0
ARC
  5
A653
330
A433
100
AcDbEntity
  8
5
  6
PHANTOM
100
AcDbCircle
 10
198.484569
 20
244.6649879999999
 30
0.0
 40
7.0
100
AcDbArc
 50
299.6029229999998
 51
330.9727179999998
  0
ARC
  5
A654
330
A433
100
AcDbEntity
  8
1
  6
Continuous
100
AcDbCircle
 10
189.0906589999999
 20
394.9218769999998
 30
0.0
 40
8.650256
100
AcDbArc
 50
220.893458
 51
291.1596369999998
  0
LINE
  5
A655
330
A433
100
AcDbEntity
  8
1
  6
Continuous
100
AcDbLine
 10
187.9406649999999
 20
386.271609
 30
0.0
 11
189.0906589999999
 21
386.271609
 31
0.0
  0
ARC
  5
A656
330
A433
100
AcDbEntity
  8
1
  6
Continuous
100
AcDbCircle
 10
187.9406649999999
 20
394.9218769999998
 30
0.0
 40
8.650256
100
AcDbArc
 50
220.893458
 51
269.9999969999999
  0
LINE
  5
A657
330
A433
100
AcDbEntity
  8
1
  6
Continuous
100
AcDbLine
 10
381.6203879999998
 20
255.259266
 30
0.0
 11
373.127575
 21
267.155392
 31
0.0
  0
LINE
  5
A658
330
A433
100
AcDbEntity
  8
1
  6
Continuous
100
AcDbLine
 10
381.4036209999999
 20
253.240918
 30
0.0
 11
373.0987049999998
 21
265.2045409999999
 31
0.0
  0
LINE
  5
A659
330
A433
100
AcDbEntity
  8
5
  6
PHANTOM
100
AcDbLine
 10
266.4141009999998
 20
272.56276
 30
0.0
 11
265.2779419999998
 21
274.562528
 31
0.0
  0
ARC
  5
A65A
330
A433
100
AcDbEntity
  8
5
  6
PHANTOM
100
AcDbCircle
 10
259.7939929999999
 20
267.6514319999999
 30
0.0
 40
1.0
100
AcDbArc
 50
119.6029149999999
 51
178.0801669999999
  0
ARC
  5
A65B
330
A433
100
AcDbEntity
  8
1
  6
Continuous
100
AcDbCircle
 10
364.752788
 20
251.1668740000001
 30
0.0
 40
20.76305799999997
100
AcDbArc
 50
325.7741129999998
 51
3.716425
  0
LINE
  5
A65C
330
A433
100
AcDbEntity
  8
1
  6
Continuous
100
AcDbLine
 10
383.2993119999999
 20
239.4885449999999
 30
0.0
 11
392.6568259999998
 21
239.4885449999999
 31
0.0
  0
ARC
  5
A65D
330
A433
100
AcDbEntity
  8
1
  6
Continuous
100
AcDbCircle
 10
383.420223
 20
239.012715
 30
0.0
 40
19.899187
100
AcDbArc
 50
243.4349529999999
 51
296.5650479999998
  0
LINE
  5
A65E
330
A433
100
AcDbEntity
  8
1
  6
Continuous
100
AcDbLine
 10
381.920223
 20
239.4885529999999
 30
0.0
 11
373.0986899999999
 21
226.780713
 31
0.0
  0
LINE
  5
A65F
330
A433
100
AcDbEntity
  8
1
  6
Continuous
100
AcDbLine
 10
372.420223
 20
224.6135299999999
 30
0.0
 11
372.420223
 21
222.621685
 31
0.0
  0
ARC
  5
A660
330
A433
100
AcDbEntity
  8
1
  6
Continuous
100
AcDbCircle
 10
376.220638
 20
222.621685
 30
0.0
 40
3.800405999999998
100
AcDbArc
 50
179.9999909999999
 51
243.4349629999999
  0
ARC
  5
A661
330
A433
100
AcDbEntity
  8
1
  6
Continuous
100
AcDbCircle
 10
376.220638
 20
224.6135299999999
 30
0.0
 40
3.800405999999998
100
AcDbArc
 50
145.2323889999999
 51
243.4349629999999
  0
LINE
  5
A662
330
A433
100
AcDbEntity
  8
1
  6
Continuous
100
AcDbLine
 10
398.420223
 20
227.9967009999999
 30
0.0
 11
398.420223
 21
229.988545
 31
0.0
  0
LINE
  5
A663
330
A433
100
AcDbEntity
  8
1
  6
Continuous
100
AcDbLine
 10
392.920223
 20
226.4885449999999
 30
0.0
 11
397.420223
 21
226.4885449999999
 31
0.0
  0
LINE
  5
A664
330
A433
100
AcDbEntity
  8
1
  6
Continuous
100
AcDbLine
 10
398.420223
 20
229.9885529999999
 30
0.0
 11
397.4202079999998
 21
226.4885449999999
 31
0.0
  0
LINE
  5
A665
330
A433
100
AcDbEntity
  8
1
  6
Continuous
100
AcDbLine
 10
392.920223
 20
229.988545
 30
0.0
 11
398.420223
 21
229.988545
 31
0.0
  0
LINE
  5
A666
330
A433
100
AcDbEntity
  8
1
  6
Continuous
100
AcDbLine
 10
394.420223
 20
224.4967009999998
 30
0.0
 11
397.420223
 21
224.4967009999998
 31
0.0
  0
LINE
  5
A667
330
A433
100
AcDbEntity
  8
1
  6
Continuous
100
AcDbLine
 10
398.420223
 20
227.9967009999999
 30
0.0
 11
397.420223
 21
224.4967009999998
 31
0.0
  0
LINE
  5
A668
330
A433
100
AcDbEntity
  8
1
  6
Continuous
100
AcDbLine
 10
397.420223
 20
224.4967009999998
 30
0.0
 11
397.420223
 21
226.4885449999999
 31
0.0
  0
LINE
  5
A669
330
A433
100
AcDbEntity
  8
1
  6
Continuous
100
AcDbLine
 10
394.420223
 20
224.9885449999999
 30
0.0
 11
394.420223
 21
218.501973
 31
0.0
  0
LINE
  5
A66A
330
A433
100
AcDbEntity
  8
1
  6
Continuous
100
AcDbLine
 10
394.420223
 20
218.501973
 30
0.0
 11
392.12022
 21
218.501973
 31
0.0
  0
LINE
  5
A66B
330
A433
100
AcDbEntity
  8
1
  6
Continuous
100
AcDbLine
 10
392.12022
 20
219.1242869999999
 30
0.0
 11
392.12022
 21
218.501973
 31
0.0
  0
ARC
  5
A66C
330
A433
100
AcDbEntity
  8
1
  6
Continuous
100
AcDbCircle
 10
392.920223
 20
224.9885449999999
 30
0.0
 40
1.5
100
AcDbArc
 50
0.000003
 51
90.00000300000001
  0
ARC
  5
A66D
330
A433
100
AcDbEntity
  8
1
  6
Continuous
100
AcDbCircle
 10
390.619823
 20
222.621685
 30
0.0
 40
3.800405999999998
100
AcDbArc
 50
296.5650479999998
 51
0.000003
  0
ARC
  5
A66E
330
A433
100
AcDbEntity
  8
1
  6
Continuous
100
AcDbCircle
 10
390.619823
 20
224.6135299999999
 30
0.0
 40
3.800405999999998
100
AcDbArc
 50
296.5650479999998
 51
15.04255799999999
  0
LINE
  5
A66F
330
A433
100
AcDbEntity
  8
1
  6
Continuous
100
AcDbLine
 10
382.9483139999999
 20
254.8779419999999
 30
0.0
 11
392.4933889999999
 21
254.8779419999999
 31
0.0
  0
ARC
  5
A670
330
A433
100
AcDbEntity
  8
1
  6
Continuous
100
AcDbCircle
 10
382.9483139999999
 20
252.3487589999998
 30
0.0
 40
2.529177999999999
100
AcDbArc
 50
3.716425
 51
98.37553599999999
  0
ARC
  5
A671
330
A433
100
AcDbEntity
  8
1
  6
Continuous
100
AcDbCircle
 10
382.948665
 20
250.3569529999999
 30
0.0
 40
2.529177999999999
100
AcDbArc
 50
3.716425
 51
101.831079
  0
ARC
  5
A672
330
A433
100
AcDbEntity
  8
1
  6
Continuous
100
AcDbCircle
 10
364.753124
 20
249.1750679999999
 30
0.0
 40
20.76305799999997
100
AcDbArc
 50
2.759138999999998
 51
3.716425
  0
ARC
  5
A673
330
A433
100
AcDbEntity
  8
1
  6
Continuous
100
AcDbCircle
 10
382.225093
 20
253.811161
 30
0.0
 40
1.0
100
AcDbArc
 50
214.7676109999999
 51
281.8310799999998
  0
ARC
  5
A674
330
A433
100
AcDbEntity
  8
1
  6
Continuous
100
AcDbCircle
 10
382.434261
 20
255.8402979999999
 30
0.0
 40
1.0
100
AcDbArc
 50
215.52359
 51
278.3755439999998
  0
LINE
  5
A675
330
A433
100
AcDbEntity
  8
1
  6
Continuous
100
AcDbLine
 10
392.920223
 20
256.9885450000001
 30
0.0
 11
393.5373859999998
 21
256.9885450000001
 31
0.0
  0
ARC
  5
A676
330
A433
100
AcDbEntity
  8
1
  6
Continuous
100
AcDbCircle
 10
392.920223
 20
255.488545
 30
0.0
 40
1.5
100
AcDbArc
 50
62.646207
 51
90.00000300000001
  0
ARC
  5
A677
330
A433
100
AcDbEntity
  8
1
  6
Continuous
100
AcDbCircle
 10
266.599982
 20
394.9218769999998
 30
0.0
 40
8.650256
100
AcDbArc
 50
244.407436
 51
319.106544
  0
LINE
  5
A678
330
A433
100
AcDbEntity
  8
1
  6
Continuous
100
AcDbLine
 10
240.8357
 20
395.771609
 30
0.0
 11
262.8634299999998
 21
387.120268
 31
0.0
  0
LINE
  5
A679
330
A433
100
AcDbEntity
  8
1
  6
Continuous
100
AcDbLine
 10
239.685706
 20
395.7716239999998
 30
0.0
 11
262.280249
 21
386.8732779999999
 31
0.0
  0
LINE
  5
A67A
330
A433
100
AcDbEntity
  8
1
  6
Continuous
100
AcDbLine
 10
265.4499879999999
 20
386.271609
 30
0.0
 11
266.599982
 21
386.271609
 31
0.0
  0
ARC
  5
A67B
330
A433
100
AcDbEntity
  8
1
  6
Continuous
100
AcDbCircle
 10
265.4499879999999
 20
394.9218769999998
 30
0.0
 40
8.650256
100
AcDbArc
 50
248.5041559999999
 51
269.9999969999999
  0
ARC
  5
A67C
330
A433
100
AcDbEntity
  8
1
  6
Continuous
100
AcDbCircle
 10
383.420223
 20
254.9643749999999
 30
0.0
 40
19.899187
100
AcDbArc
 50
74.936396
 51
116.5650599999999
  0
LINE
  5
A67D
330
A433
100
AcDbEntity
  8
1
  6
Continuous
100
AcDbLine
 10
372.420223
 20
269.3635679999999
 30
0.0
 11
372.420223
 21
267.3717159999998
 31
0.0
  0
ARC
  5
A67E
330
A433
100
AcDbEntity
  8
1
  6
Continuous
100
AcDbCircle
 10
376.220638
 20
267.3717159999998
 30
0.0
 40
3.800405999999998
100
AcDbArc
 50
179.9999909999999
 51
214.767608
  0
ARC
  5
A67F
330
A433
100
AcDbEntity
  8
1
  6
Continuous
100
AcDbCircle
 10
376.220638
 20
269.3635679999999
 30
0.0
 40
3.800405999999998
100
AcDbArc
 50
116.565033
 51
215.5235869999999
  0
LINE
  5
A680
330
A433
100
AcDbEntity
  8
1
  6
Continuous
100
AcDbLine
 10
210.5248169999999
 20
408.2716089999998
 30
0.0
 11
211.2602489999999
 21
408.2716089999998
 31
0.0
  0
LINE
  5
A681
330
A433
100
AcDbEntity
  8
1
  6
Continuous
100
AcDbLine
 10
210.5248019999999
 20
412.2716089999998
 30
0.0
 11
204.462637
 21
411.271609
 31
0.0
  0
LINE
  5
A682
330
A433
100
AcDbEntity
  8
1
  6
Continuous
100
AcDbLine
 10
209.374808
 20
412.2716089999998
 30
0.0
 11
203.312644
 21
411.271609
 31
0.0
  0
LINE
  5
A683
330
A433
100
AcDbEntity
  8
1
  6
Continuous
100
AcDbLine
 10
187.9406649999999
 20
408.2716089999998
 30
0.0
 11
202.9626369999999
 21
408.2716089999998
 31
0.0
  0
ARC
  5
A684
330
A433
100
AcDbEntity
  8
1
  6
Continuous
100
AcDbCircle
 10
189.0906589999999
 20
399.621355
 30
0.0
 40
8.650256
100
AcDbArc
 50
90.00000300000001
 51
139.1065419999998
  0
ARC
  5
A685
330
A433
100
AcDbEntity
  8
1
  6
Continuous
100
AcDbCircle
 10
187.9406649999999
 20
399.621355
 30
0.0
 40
8.650256
100
AcDbArc
 50
90.00000300000001
 51
139.1065419999998
  0
LINE
  5
A686
330
A433
100
AcDbEntity
  8
1
  6
Continuous
100
AcDbLine
 10
204.462637
 20
406.771609
 30
0.0
 11
204.462637
 21
411.271609
 31
0.0
  0
LINE
  5
A687
330
A433
100
AcDbEntity
  8
1
  6
Continuous
100
AcDbLine
 10
203.312644
 20
408.2716089999998
 30
0.0
 11
203.312644
 21
411.271609
 31
0.0
  0
LINE
  5
A688
330
A433
100
AcDbEntity
  8
1
  6
Continuous
100
AcDbLine
 10
203.312644
 20
411.271609
 30
0.0
 11
204.462637
 21
411.271609
 31
0.0
  0
ARC
  5
A689
330
A433
100
AcDbEntity
  8
1
  6
Continuous
100
AcDbCircle
 10
202.9626369999999
 20
406.771609
 30
0.0
 40
1.5
100
AcDbArc
 50
0.0
 51
90.00000300000001
  0
LINE
  5
A68A
330
A433
100
AcDbEntity
  8
1
  6
Continuous
100
AcDbLine
 10
210.5248169999999
 20
407.1060509999998
 30
0.0
 11
210.5248169999999
 21
412.2716089999998
 31
0.0
  0
LINE
  5
A68B
330
A433
100
AcDbEntity
  8
1
  6
Continuous
100
AcDbLine
 10
209.374808
 20
412.2716089999998
 30
0.0
 11
210.5248169999999
 21
412.2716089999998
 31
0.0
  0
LINE
  5
A68C
330
A433
100
AcDbEntity
  8
5
  6
PHANTOM
100
AcDbLine
 10
233.166464
 20
239.986713
 30
0.0
 11
230.220019
 21
238.3127009999999
 31
0.0
  0
LINE
  5
A68D
330
A433
100
AcDbEntity
  8
5
  6
PHANTOM
100
AcDbLine
 10
228.9675819999999
 20
247.3772059999999
 30
0.0
 11
226.0211369999999
 21
245.7031939999999
 31
0.0
  0
ARC
  5
A68E
330
A433
100
AcDbEntity
  8
5
  6
PHANTOM
100
AcDbCircle
 10
231.0670229999999
 20
243.68196
 30
0.0
 40
4.25
100
AcDbArc
 50
299.6029169999999
 51
119.602917
  0
ARC
  5
A68F
330
A433
100
AcDbEntity
  8
5
  6
PHANTOM
100
AcDbCircle
 10
212.373423
 20
233.0612579999999
 30
0.0
 40
4.25
100
AcDbArc
 50
119.602917
 51
299.6029169999999
  0
LINE
  5
A690
330
A433
100
AcDbEntity
  8
1
  6
Continuous
100
AcDbLine
 10
73.220223
 20
254.996693
 30
0.0
 11
73.220223
 21
229.988545
 31
0.0
  0
LINE
  5
A691
330
A433
100
AcDbEntity
  8
1
  6
Continuous
100
AcDbLine
 10
80.32022600000003
 20
246.871609
 30
0.0
 11
80.32022600000003
 21
229.8716089999998
 31
0.0
  0
LINE
  5
A692
330
A433
100
AcDbEntity
  8
1
  6
Continuous
100
AcDbLine
 10
80.32022600000003
 20
240.546609
 30
0.0
 11
77.82022600000002
 21
235.1546819999998
 31
0.0
  0
LINE
  5
A693
330
A433
100
AcDbEntity
  8
1
  6
Continuous
100
AcDbLine
 10
77.82022600000002
 20
234.22732
 30
0.0
 11
80.32022600000003
 21
234.0216089999999
 31
0.0
  0
ARC
  5
A694
330
A433
100
AcDbEntity
  8
1
  6
Continuous
100
AcDbCircle
 10
76.070226
 20
244.123625
 30
0.0
 40
4.25
100
AcDbArc
 50
294.315739
 51
65.68426099999999
  0
ARC
  5
A695
330
A433
100
AcDbEntity
  8
1
  6
Continuous
100
AcDbCircle
 10
76.070226
 20
232.619593
 30
0.0
 40
4.25
100
AcDbArc
 50
294.315739
 51
0.0
  0
LINE
  5
A696
330
A433
100
AcDbEntity
  8
1
  6
Continuous
100
AcDbLine
 10
80.32022600000003
 20
246.871609
 30
0.0
 11
81.52022599999998
 21
246.871609
 31
0.0
  0
LINE
  5
A697
330
A433
100
AcDbEntity
  8
1
  6
Continuous
100
AcDbLine
 10
80.32022600000003
 20
229.8716089999998
 30
0.0
 11
81.52022599999998
 21
229.8716089999998
 31
0.0
  0
LINE
  5
A698
330
A433
100
AcDbEntity
  8
1
  6
Continuous
100
AcDbLine
 10
81.52022599999998
 20
246.871609
 30
0.0
 11
81.52022599999998
 21
229.8716089999998
 31
0.0
  0
LINE
  5
A699
330
A433
100
AcDbEntity
  8
1
  6
Continuous
100
AcDbLine
 10
80.32022600000003
 20
234.371609
 30
0.0
 11
77.82022600000002
 21
234.371609
 31
0.0
  0
LINE
  5
A69A
330
A433
100
AcDbEntity
  8
2
  6
Continuous
100
AcDbLine
 10
80.32022600000003
 20
235.0481089999999
 30
0.0
 11
77.82022600000002
 21
235.0481089999999
 31
0.0
  0
ARC
  5
A69B
330
A433
100
AcDbEntity
  8
1
  6
Continuous
100
AcDbCircle
 10
260.7202229999999
 20
73.87160899999997
 30
0.0
 40
22.7
100
AcDbArc
 50
126.2768509999997
 51
129.7389159999999
  0
ARC
  5
A69C
330
A433
100
AcDbEntity
  8
1
  6
Continuous
100
AcDbCircle
 10
260.7202229999999
 20
73.87160899999997
 30
0.0
 40
17.7
100
AcDbArc
 50
108.888688
 51
135.072239
  0
LINE
  5
A69D
330
A433
100
AcDbEntity
  8
1
  6
Continuous
100
AcDbLine
 10
225.720223
 20
395.5696089999999
 30
0.0
 11
217.720223
 21
395.5696089999999
 31
0.0
  0
LINE
  5
A69E
330
A433
100
AcDbEntity
  8
1
  6
Continuous
100
AcDbLine
 10
224.5202229999999
 20
394.3696089999999
 30
0.0
 11
218.9202229999999
 21
394.3696089999999
 31
0.0
  0
ARC
  5
A69F
330
A433
100
AcDbEntity
  8
1
  6
Continuous
100
AcDbCircle
 10
224.720223
 20
403.211209
 30
0.0
 40
6.841600999999998
100
AcDbArc
 50
243.992176
 51
296.0078240000001
  0
LINE
  5
A6A0
330
A433
100
AcDbEntity
  8
1
  6
Continuous
100
AcDbLine
 10
218.9702229999999
 20
396.3696089999999
 30
0.0
 11
224.470223
 21
396.3696089999999
 31
0.0
  0
LINE
  5
A6A1
330
A433
100
AcDbEntity
  8
1
  6
Continuous
100
AcDbLine
 10
221.720223
 20
397.5716089999999
 30
0.0
 11
221.720223
 21
397.062429
 31
0.0
  0
LINE
  5
A6A2
330
A433
100
AcDbEntity
  8
1
  6
Continuous
100
AcDbLine
 10
217.720223
 20
395.5696089999999
 30
0.0
 11
217.720223
 21
396.3696089999999
 31
0.0
  0
LINE
  5
A6A3
330
A433
100
AcDbEntity
  8
2
  6
Continuous
100
AcDbLine
 10
218.3967229999999
 20
394.8931089999999
 30
0.0
 11
218.3967229999999
 21
396.3696089999999
 31
0.0
  0
LINE
  5
A6A4
330
A433
100
AcDbEntity
  8
1
  6
Continuous
100
AcDbLine
 10
218.9202229999999
 20
394.3696089999999
 30
0.0
 11
217.720223
 21
395.5696089999999
 31
0.0
  0
ARC
  5
A6A5
330
A433
100
AcDbEntity
  8
1
  6
Continuous
100
AcDbCircle
 10
218.720223
 20
403.211209
 30
0.0
 40
6.841600999999998
100
AcDbArc
 50
257.3616059999998
 51
296.0078240000001
  0
LINE
  5
A6A6
330
A433
100
AcDbEntity
  8
1
  6
Continuous
100
AcDbLine
 10
227.7202229999998
 20
397.5716089999999
 30
0.0
 11
227.7202229999998
 21
397.062429
 31
0.0
  0
LINE
  5
A6A7
330
A433
100
AcDbEntity
  8
1
  6
Continuous
100
AcDbLine
 10
224.5202229999999
 20
394.3696089999999
 30
0.0
 11
225.720223
 21
395.5696089999999
 31
0.0
  0
LINE
  5
A6A8
330
A433
100
AcDbEntity
  8
1
  6
Continuous
100
AcDbLine
 10
225.720223
 20
395.5696089999999
 30
0.0
 11
225.720223
 21
396.3696089999999
 31
0.0
  0
LINE
  5
A6A9
330
A433
100
AcDbEntity
  8
2
  6
Continuous
100
AcDbLine
 10
225.043723
 20
394.8931089999999
 30
0.0
 11
225.043723
 21
396.3696089999999
 31
0.0
  0
LINE
  5
A6AA
330
A433
100
AcDbEntity
  8
1
  6
Continuous
100
AcDbLine
 10
208.7298409999999
 20
96.971612
 30
0.0
 11
208.7298409999999
 21
94.471612
 31
0.0
  0
LINE
  5
A6AB
330
A433
100
AcDbEntity
  8
1
  6
Continuous
100
AcDbLine
 10
234.7106039999999
 20
96.971612
 30
0.0
 11
234.7106039999999
 21
94.471612
 31
0.0
  0
LINE
  5
A6AC
330
A433
100
AcDbEntity
  8
1
  6
Continuous
100
AcDbLine
 10
208.7298409999999
 20
96.971612
 30
0.0
 11
234.7106039999999
 21
96.971612
 31
0.0
  0
LINE
  5
A6AD
330
A433
100
AcDbEntity
  8
4
  6
CENTER
100
AcDbLine
 10
151.2202229999997
 20
238.3716089999999
 30
0.0
 11
292.988903
 21
238.3716089999999
 31
0.0
  0
LINE
  5
A6AE
330
A433
100
AcDbEntity
  8
1
  6
Continuous
100
AcDbLine
 10
226.070223
 20
96.971612
 30
0.0
 11
220.3983419999999
 21
94.471612
 31
0.0
  0
LINE
  5
A6AF
330
A433
100
AcDbEntity
  8
1
  6
Continuous
100
AcDbLine
 10
217.3702229999999
 20
96.971612
 30
0.0
 11
218.7921039999999
 21
94.471612
 31
0.0
  0
LINE
  5
A6B0
330
A433
100
AcDbEntity
  8
2
  6
Continuous
100
AcDbLine
 10
225.043723
 20
96.971612
 30
0.0
 11
225.043723
 21
96.51915999999999
 31
0.0
  0
LINE
  5
A6B1
330
A433
100
AcDbEntity
  8
1
  6
Continuous
100
AcDbLine
 10
225.720223
 20
96.971612
 30
0.0
 11
225.720223
 21
96.81734200000001
 31
0.0
  0
LINE
  5
A6B2
330
A433
100
AcDbEntity
  8
2
  6
Continuous
100
AcDbLine
 10
218.3967229999999
 20
96.971612
 30
0.0
 11
218.3967229999999
 21
95.16678500000001
 31
0.0
  0
LINE
  5
A6B3
330
A433
100
AcDbEntity
  8
1
  6
Continuous
100
AcDbLine
 10
217.720223
 20
96.971612
 30
0.0
 11
217.720223
 21
96.35623000000002
 31
0.0
  0
LINE
  5
A6B4
330
A433
100
AcDbEntity
  8
1
  6
Continuous
100
AcDbLine
 10
213.2202229999998
 20
98.17161200000001
 30
0.0
 11
230.220223
 21
98.17161200000001
 31
0.0
  0
LINE
  5
A6B5
330
A433
100
AcDbEntity
  8
1
  6
Continuous
100
AcDbLine
 10
213.2202229999998
 20
96.971612
 30
0.0
 11
213.2202229999998
 21
98.17161200000001
 31
0.0
  0
LINE
  5
A6B6
330
A433
100
AcDbEntity
  8
1
  6
Continuous
100
AcDbLine
 10
230.220223
 20
96.971612
 30
0.0
 11
230.220223
 21
98.17161200000001
 31
0.0
  0
LINE
  5
A6B7
330
A433
100
AcDbEntity
  8
5
  6
PHANTOM
100
AcDbLine
 10
213.2204269999999
 20
238.4305169999999
 30
0.0
 11
210.273982
 21
236.756504
 31
0.0
  0
LINE
  5
A6B8
330
A433
100
AcDbEntity
  8
5
  6
PHANTOM
100
AcDbLine
 10
217.419309
 20
231.0400239999999
 30
0.0
 11
214.4728639999999
 21
229.3660109999999
 31
0.0
  0
ARC
  5
A6B9
330
A433
100
AcDbEntity
  8
1
  6
Continuous
100
AcDbCircle
 10
255.0294279999999
 20
241.0139449999999
 30
0.0
 40
22.51196699999999
100
AcDbArc
 50
237.6439779999998
 51
298.4772489999998
  0
LINE
  5
A6BA
330
A433
100
AcDbEntity
  8
1
  6
Continuous
100
AcDbLine
 10
240.3489319999999
 20
236.4497819999999
 30
0.0
 11
273.826166
 21
217.1216949999999
 31
0.0
  0
LINE
  5
A6BB
330
A433
100
AcDbEntity
  8
1
  6
Continuous
100
AcDbLine
 10
241.498941
 20
238.441626
 30
0.0
 11
274.976175
 21
219.1135389999999
 31
0.0
  0
LINE
  5
A6BC
330
A433
100
AcDbEntity
  8
1
  6
Continuous
100
AcDbLine
 10
252.379602
 20
223.4752719999999
 30
0.0
 11
259.0522399999999
 21
221.032637
 31
0.0
  0
LINE
  5
A6BD
330
A433
100
AcDbEntity
  8
1
  6
Continuous
100
AcDbLine
 10
178.4143
 20
274.8635469999999
 30
0.0
 11
211.891504
 21
255.535468
 31
0.0
  0
LINE
  5
A6BE
330
A433
100
AcDbEntity
  8
1
  6
Continuous
100
AcDbLine
 10
177.2643219999999
 20
272.8716949999999
 30
0.0
 11
210.7415249999998
 21
253.5436159999999
 31
0.0
  0
ARC
  5
A6BF
330
A433
100
AcDbEntity
  8
1
  6
Continuous
100
AcDbCircle
 10
207.3539519999999
 20
268.539389
 30
0.0
 40
22.51196699999999
100
AcDbArc
 50
181.522758
 51
242.3560289999998
  0
LINE
  5
A6C0
330
A433
100
AcDbEntity
  8
1
  6
Continuous
100
AcDbLine
 10
228.904997
 20
229.3160009999998
 30
0.0
 11
225.970223
 21
231.0103929999999
 31
0.0
  0
CIRCLE
  5
A6C1
330
A433
100
AcDbEntity
  8
1
  6
Continuous
100
AcDbCircle
 10
221.720223
 20
238.3716089999999
 30
0.0
 40
2.799999999999998
  0
CIRCLE
  5
A6C2
330
A433
100
AcDbEntity
  8
2
  6
Continuous
100
AcDbCircle
 10
221.720223
 20
238.3716089999999
 30
0.0
 40
3.3235
  0
CIRCLE
  5
A6C3
330
A433
100
AcDbEntity
  8
1
  6
Continuous
100
AcDbCircle
 10
221.720223
 20
238.3716089999999
 30
0.0
 40
4.0
  0
CIRCLE
  5
A6C4
330
A433
100
AcDbEntity
  8
1
  6
Continuous
100
AcDbCircle
 10
221.720223
 20
238.3716089999999
 30
0.0
 40
5.102005
  0
LINE
  5
A6C5
330
A433
100
AcDbEntity
  8
1
  6
Continuous
100
AcDbLine
 10
227.349383
 20
241.6216059999999
 30
0.0
 11
221.720223
 21
244.8716029999999
 31
0.0
  0
LINE
  5
A6C6
330
A433
100
AcDbEntity
  8
1
  6
Continuous
100
AcDbLine
 10
221.720223
 20
231.8716139999999
 30
0.0
 11
227.349383
 21
235.1216109999997
 31
0.0
  0
ARC
  5
A6C7
330
A433
100
AcDbEntity
  8
1
  6
Continuous
100
AcDbCircle
 10
226.570245
 20
246.7720859999999
 30
0.0
 40
22.450027
100
AcDbArc
 50
202.245976
 51
277.754031
  0
ARC
  5
A6C8
330
A433
100
AcDbEntity
  8
1
  6
Continuous
100
AcDbCircle
 10
216.1764919999999
 20
228.769583
 30
0.0
 40
23.53746399999999
100
AcDbArc
 50
28.630227
 51
91.369783
  0
ARC
  5
A6C9
330
A433
100
AcDbEntity
  8
1
  6
Continuous
100
AcDbCircle
 10
216.1764919999999
 20
228.769583
 30
0.0
 40
25.837463
100
AcDbArc
 50
28.63019999999999
 51
91.36981099999998
  0
LINE
  5
A6CA
330
A433
100
AcDbEntity
  8
1
  6
Continuous
100
AcDbLine
 10
221.720223
 20
244.8716029999999
 30
0.0
 11
216.091062
 21
241.6216059999999
 31
0.0
  0
ARC
  5
A6CB
330
A433
100
AcDbEntity
  8
1
  6
Continuous
100
AcDbCircle
 10
212.410449
 20
243.746608
 30
0.0
 40
4.25
100
AcDbArc
 50
60.00000400000001
 51
240.000004
  0
ARC
  5
A6CC
330
A433
100
AcDbEntity
  8
1
  6
Continuous
100
AcDbCircle
 10
211.0625699999999
 20
251.7909299999999
 30
0.0
 40
14.509467
100
AcDbArc
 50
192.715622
 51
248.696822
  0
LINE
  5
A6CD
330
A433
100
AcDbEntity
  8
1
  6
Continuous
100
AcDbLine
 10
213.2202229999998
 20
238.371608
 30
0.0
 11
210.2854499999998
 21
240.0659999999998
 31
0.0
  0
LINE
  5
A6CE
330
A433
100
AcDbEntity
  8
1
  6
Continuous
100
AcDbLine
 10
216.091062
 20
235.1216109999997
 30
0.0
 11
221.720223
 21
231.8716139999999
 31
0.0
  0
LINE
  5
A6CF
330
A433
100
AcDbEntity
  8
1
  6
Continuous
100
AcDbLine
 10
216.091062
 20
241.6216059999999
 30
0.0
 11
216.091062
 21
235.1216109999997
 31
0.0
  0
LINE
  5
A6D0
330
A433
100
AcDbEntity
  8
1
  6
Continuous
100
AcDbLine
 10
208.2247249999999
 20
254.9967099999999
 30
0.0
 11
205.6322259999999
 21
250.506354
 31
0.0
  0
LINE
  5
A6D1
330
A433
100
AcDbEntity
  8
1
  6
Continuous
100
AcDbLine
 10
200.1626069999999
 20
255.032614
 30
0.0
 11
205.6322719999998
 21
250.506369
 31
0.0
  0
LINE
  5
A6D2
330
A433
100
AcDbEntity
  8
1
  6
Continuous
100
AcDbLine
 10
202.162591
 20
258.4966799999999
 30
0.0
 11
200.162591
 21
255.0325839999999
 31
0.0
  0
LINE
  5
A6D3
330
A433
100
AcDbEntity
  8
1
  6
Continuous
100
AcDbLine
 10
217.4702219999999
 20
245.7328239999999
 30
0.0
 11
214.535449
 21
247.4272159999999
 31
0.0
  0
ARC
  5
A6D4
330
A433
100
AcDbEntity
  8
1
  6
Continuous
100
AcDbCircle
 10
215.391504
 20
261.597662
 30
0.0
 40
7.0
100
AcDbArc
 50
240.00001
 51
271.369806
  0
ARC
  5
A6D5
330
A433
100
AcDbEntity
  8
1
  6
Continuous
100
AcDbCircle
 10
215.3915189999999
 20
261.597678
 30
0.0
 40
9.3
100
AcDbArc
 50
240.00001
 51
271.3697779999999
  0
ARC
  5
A6D6
330
A433
100
AcDbEntity
  8
1
  6
Continuous
100
AcDbCircle
 10
244.998941
 20
244.5038059999999
 30
0.0
 40
7.0
100
AcDbArc
 50
208.630208
 51
240.00001
  0
ARC
  5
A6D7
330
A433
100
AcDbEntity
  8
1
  6
Continuous
100
AcDbCircle
 10
244.998941
 20
244.5038209999999
 30
0.0
 40
9.3
100
AcDbArc
 50
208.6302359999999
 51
239.999997
  0
ARC
  5
A6D8
330
A433
100
AcDbEntity
  8
1
  6
Continuous
100
AcDbCircle
 10
238.6705259999998
 20
235.8514689999999
 30
0.0
 40
14.509467
100
AcDbArc
 50
231.303185
 51
287.2843849999999
  0
LINE
  5
A6D9
330
A433
100
AcDbEntity
  8
1
  6
Continuous
100
AcDbLine
 10
233.1549959999999
 20
236.677218
 30
0.0
 11
230.220223
 21
238.3716089999999
 31
0.0
  0
ARC
  5
A6DA
330
A433
100
AcDbEntity
  8
1
  6
Continuous
100
AcDbCircle
 10
231.029996
 20
232.9966089999998
 30
0.0
 40
4.25
100
AcDbArc
 50
240.000004
 51
60.00000400000001
  0
LINE
  5
A6DB
330
A433
100
AcDbEntity
  8
1
  6
Continuous
100
AcDbLine
 10
227.349383
 20
235.1216109999997
 30
0.0
 11
227.349383
 21
241.6216059999999
 31
0.0
  0
LINE
  5
A6DC
330
A433
100
AcDbEntity
  8
1
  6
Continuous
100
AcDbLine
 10
254.9901059999999
 20
227.9967029999999
 30
0.0
 11
252.3796319999999
 21
223.4752489999999
 31
0.0
  0
ARC
  5
A6DD
330
A433
100
AcDbEntity
  8
1
  6
Continuous
100
AcDbCircle
 10
183.850313
 20
267.9145869999999
 30
0.0
 40
1.0
100
AcDbArc
 50
1.522746999999999
 51
59.999995
  0
LINE
  5
A6DE
330
A433
100
AcDbEntity
  8
1
  6
Continuous
100
AcDbLine
 10
177.26436
 20
272.8716949999999
 30
0.0
 11
178.414361
 21
274.8635619999999
 31
0.0
  0
LINE
  5
A6DF
330
A433
100
AcDbEntity
  8
1
  6
Continuous
100
AcDbLine
 10
273.826089
 20
217.121756
 30
0.0
 11
274.976083
 21
219.1135999999999
 31
0.0
  0
ARC
  5
A6E0
330
A433
100
AcDbEntity
  8
1
  6
Continuous
100
AcDbCircle
 10
266.2401669999998
 20
220.346777
 30
0.0
 40
1.0
100
AcDbArc
 50
60.000002
 51
118.477254
  0
LINE
  5
A6E1
330
A433
100
AcDbEntity
  8
1
  6
Continuous
100
AcDbLine
 10
261.052255
 20
224.496756
 30
0.0
 11
259.0522399999999
 21
221.032637
 31
0.0
  0
ARC
  5
A6E2
330
A433
100
AcDbEntity
  8
1
  6
Continuous
100
AcDbCircle
 10
603.720223
 20
238.3716089999999
 30
0.0
 40
16.5
100
AcDbArc
 50
205.0
 51
355.0
  0
ARC
  5
A6E3
330
A433
100
AcDbEntity
  8
1
  6
Continuous
100
AcDbCircle
 10
603.720223
 20
238.3716089999999
 30
0.0
 40
18.0
100
AcDbArc
 50
156.987348
 51
56.330116
  0
ARC
  5
A6E4
330
A433
100
AcDbEntity
  8
1
  6
Continuous
100
AcDbCircle
 10
603.720223
 20
238.3716089999999
 30
0.0
 40
21.4
100
AcDbArc
 50
150.2493
 51
63.068117
  0
ARC
  5
A6E5
330
A433
100
AcDbEntity
  8
1
  6
Continuous
100
AcDbCircle
 10
603.720223
 20
238.3716089999999
 30
0.0
 40
16.5
100
AcDbArc
 50
161.1278079999999
 51
175.0
  0
LINE
  5
A6E6
330
A433
100
AcDbEntity
  8
1
  6
Continuous
100
AcDbLine
 10
594.1795120000001
 20
232.8966819999999
 30
0.0
 11
593.7158649999997
 21
233.7064999999999
 31
0.0
  0
ARC
  5
A6E7
330
A433
100
AcDbEntity
  8
1
  6
Continuous
100
AcDbCircle
 10
603.720223
 20
238.3716089999999
 30
0.0
 40
11.0
100
AcDbArc
 50
175.0
 51
205.0
  0
LINE
  5
A6E8
330
A433
100
AcDbEntity
  8
1
  6
Continuous
100
AcDbLine
 10
592.7620809999997
 20
239.330322
 30
0.0
 11
585.788718
 21
239.940412
 31
0.0
  0
LINE
  5
A6E9
330
A433
100
AcDbEntity
  8
1
  6
Continuous
100
AcDbLine
 10
593.7508370000001
 20
233.722808
 30
0.0
 11
587.406683
 21
230.7644799999999
 31
0.0
  0
ARC
  5
A6EA
330
A433
100
AcDbEntity
  8
1
  6
Continuous
100
AcDbCircle
 10
603.720223
 20
238.3716089999999
 30
0.0
 40
13.5
100
AcDbArc
 50
175.0
 51
205.0
  0
LINE
  5
A6EB
330
A433
100
AcDbEntity
  8
1
  6
Continuous
100
AcDbLine
 10
428.720223
 20
231.9319339999999
 30
0.0
 11
428.720223
 21
222.8715919999999
 31
0.0
  0
ARC
  5
A6EC
330
A433
100
AcDbEntity
  8
1
  6
Continuous
100
AcDbCircle
 10
426.2202229999998
 20
222.8715919999999
 30
0.0
 40
2.5
100
AcDbArc
 50
270.0
 51
0.0
  0
ARC
  5
A6ED
330
A433
100
AcDbEntity
  8
1
  6
Continuous
100
AcDbCircle
 10
603.720223
 20
238.3716089999999
 30
0.0
 40
11.0
100
AcDbArc
 50
355.0
 51
25.0
  0
ARC
  5
A6EE
330
A433
100
AcDbEntity
  8
1
  6
Continuous
100
AcDbCircle
 10
603.720223
 20
238.3716089999999
 30
0.0
 40
13.5
100
AcDbArc
 50
355.0
 51
25.0
  0
LINE
  5
A6EF
330
A433
100
AcDbEntity
  8
1
  6
Continuous
100
AcDbLine
 10
621.6517269999997
 20
236.8028049999999
 30
0.0
 11
614.6783649999997
 21
237.4128959999999
 31
0.0
  0
LINE
  5
A6F0
330
A433
100
AcDbEntity
  8
1
  6
Continuous
100
AcDbLine
 10
620.0337629999998
 20
245.978737
 30
0.0
 11
613.689608
 21
243.02041
 31
0.0
  0
ARC
  5
A6F1
330
A433
100
AcDbEntity
  8
1
  6
Continuous
100
AcDbCircle
 10
603.720223
 20
238.3716089999999
 30
0.0
 40
16.5
100
AcDbArc
 50
25.0
 51
52.189689
  0
LINE
  5
A6F2
330
A433
100
AcDbEntity
  8
1
  6
Continuous
100
AcDbLine
 10
432.520213
 20
239.3303049999999
 30
0.0
 11
432.520213
 21
233.706484
 31
0.0
  0
LINE
  5
A6F3
330
A433
100
AcDbEntity
  8
1
  6
Continuous
100
AcDbLine
 10
426.2202229999998
 20
230.7644629999999
 30
0.0
 11
432.520213
 21
233.706484
 31
0.0
  0
LINE
  5
A6F4
330
A433
100
AcDbEntity
  8
1
  6
Continuous
100
AcDbLine
 10
426.2202229999998
 20
239.940395
 30
0.0
 11
432.520213
 21
239.3303049999999
 31
0.0
  0
ARC
  5
A6F5
330
A433
100
AcDbEntity
  8
1
  6
Continuous
100
AcDbCircle
 10
426.2202229999998
 20
253.8716249999999
 30
0.0
 40
2.5
100
AcDbArc
 50
0.0
 51
90.0
  0
ARC
  5
A6F6
330
A433
100
AcDbEntity
  8
1
  6
Continuous
100
AcDbCircle
 10
43.720223
 20
222.8715919999999
 30
0.0
 40
2.5
100
AcDbArc
 50
180.0
 51
270.0
  0
LINE
  5
A6F7
330
A433
100
AcDbEntity
  8
1
  6
Continuous
100
AcDbLine
 10
43.720223
 20
245.978737
 30
0.0
 11
37.420233
 21
243.02041
 31
0.0
  0
LINE
  5
A6F8
330
A433
100
AcDbEntity
  8
1
  6
Continuous
100
AcDbLine
 10
41.220223
 20
237.0449049999999
 30
0.0
 11
41.220223
 21
222.8715919999999
 31
0.0
  0
LINE
  5
A6F9
330
A433
100
AcDbEntity
  8
1
  6
Continuous
100
AcDbLine
 10
43.720223
 20
236.8028049999999
 30
0.0
 11
37.420233
 21
237.4128959999999
 31
0.0
  0
LINE
  5
A6FA
330
A433
100
AcDbEntity
  8
1
  6
Continuous
100
AcDbLine
 10
37.420233
 20
243.02041
 30
0.0
 11
37.420233
 21
237.4128959999999
 31
0.0
  0
ARC
  5
A6FB
330
A433
100
AcDbEntity
  8
1
  6
Continuous
100
AcDbCircle
 10
43.720223
 20
253.8716249999999
 30
0.0
 40
2.5
100
AcDbArc
 50
90.0
 51
180.0
  0
LINE
  5
A6FC
330
A433
100
AcDbEntity
  8
1
  6
Continuous
100
AcDbLine
 10
231.6896079999999
 20
54.07161899999999
 30
0.0
 11
234.488739
 21
54.07161899999999
 31
0.0
  0
ARC
  5
A6FD
330
A433
100
AcDbEntity
  8
1
  6
Continuous
100
AcDbCircle
 10
233.561707
 20
55.07161899999999
 30
0.0
 40
1.0
100
AcDbArc
 50
270.0
 51
312.976204
  0
ARC
  5
A6FE
330
A433
100
AcDbEntity
  8
1
  6
Continuous
100
AcDbCircle
 10
233.532534
 20
56.07161899999999
 30
0.0
 40
1.0
100
AcDbArc
 50
270.0
 51
315.8415499999998
  0
LINE
  5
A6FF
330
A433
100
AcDbEntity
  8
1
  6
Continuous
100
AcDbLine
 10
206.2202059999999
 20
57.87160899999999
 30
0.0
 11
237.2202389999999
 21
57.87160899999999
 31
0.0
  0
ARC
  5
A700
330
A433
100
AcDbEntity
  8
1
  6
Continuous
100
AcDbCircle
 10
207.5336619999999
 20
56.07161899999999
 30
0.0
 40
1.0
100
AcDbArc
 50
194.986275
 51
270.0
  0
LINE
  5
A701
330
A433
100
AcDbEntity
  8
1
  6
Continuous
100
AcDbLine
 10
207.519785
 20
57.88009999999999
 30
0.0
 11
208.2715939999999
 21
55.07161899999999
 31
0.0
  0
LINE
  5
A702
330
A433
100
AcDbEntity
  8
1
  6
Continuous
100
AcDbLine
 10
206.0143349999999
 20
57.88009999999999
 30
0.0
 11
206.567674
 21
55.813031
 31
0.0
  0
LINE
  5
A703
330
A433
100
AcDbEntity
  8
1
  6
Continuous
100
AcDbLine
 10
210.7620809999999
 20
54.07161899999999
 30
0.0
 11
210.7620809999999
 21
55.07161899999999
 31
0.0
  0
LINE
  5
A704
330
A433
100
AcDbEntity
  8
1
  6
Continuous
100
AcDbLine
 10
208.2715939999999
 20
54.07161899999999
 30
0.0
 11
208.2715939999999
 21
55.07161899999999
 31
0.0
  0
LINE
  5
A705
330
A433
100
AcDbEntity
  8
1
  6
Continuous
100
AcDbLine
 10
210.7620809999999
 20
54.07161899999999
 30
0.0
 11
210.7620809999999
 21
55.07161899999999
 31
0.0
  0
LINE
  5
A706
330
A433
100
AcDbEntity
  8
1
  6
Continuous
100
AcDbLine
 10
207.5336619999999
 20
55.07161899999999
 30
0.0
 11
210.7620809999999
 21
55.07161899999999
 31
0.0
  0
LINE
  5
A707
330
A433
100
AcDbEntity
  8
1
  6
Continuous
100
AcDbLine
 10
206.9417169999999
 20
54.07161899999999
 30
0.0
 11
210.7620809999999
 21
54.07161899999999
 31
0.0
  0
ARC
  5
A708
330
A433
100
AcDbEntity
  8
1
  6
Continuous
100
AcDbCircle
 10
206.9417169999999
 20
56.07161899999999
 30
0.0
 40
2.0
100
AcDbArc
 50
194.986275
 51
270.0
  0
LINE
  5
A709
330
A433
100
AcDbEntity
  8
1
  6
Continuous
100
AcDbLine
 10
204.054575
 20
59.12259200000001
 30
0.0
 11
205.0097419999999
 21
55.55444300000001
 31
0.0
  0
ARC
  5
A70A
330
A433
100
AcDbEntity
  8
1
  6
Continuous
100
AcDbCircle
 10
206.2202059999999
 20
60.37160899999999
 30
0.0
 40
2.5
100
AcDbArc
 50
180.0
 51
270.0
  0
LINE
  5
A70B
330
A433
100
AcDbEntity
  8
1
  6
Continuous
100
AcDbLine
 10
231.6896079999999
 20
55.07161899999999
 30
0.0
 11
233.532534
 21
55.07161899999999
 31
0.0
  0
LINE
  5
A70C
330
A433
100
AcDbEntity
  8
1
  6
Continuous
100
AcDbLine
 10
231.6896079999999
 20
54.07161899999999
 30
0.0
 11
231.6896079999999
 21
55.07161899999999
 31
0.0
  0
ARC
  5
A70D
330
A433
100
AcDbEntity
  8
1
  6
Continuous
100
AcDbCircle
 10
237.7202229999999
 20
58.80041999999999
 30
0.0
 40
2.0
100
AcDbArc
 50
310.17916
 51
0.0
  0
LINE
  5
A70E
330
A433
100
AcDbEntity
  8
1
  6
Continuous
100
AcDbLine
 10
239.7202229999999
 20
58.80041999999999
 30
0.0
 11
239.7202229999999
 21
60.37160899999999
 31
0.0
  0
LINE
  5
A70F
330
A433
100
AcDbEntity
  8
1
  6
Continuous
100
AcDbLine
 10
238.033763
 20
57.87160899999999
 30
0.0
 11
238.033763
 21
58.007676
 31
0.0
  0
ARC
  5
A710
330
A433
100
AcDbEntity
  8
1
  6
Continuous
100
AcDbCircle
 10
237.2202389999999
 20
60.37160899999999
 30
0.0
 40
2.5
100
AcDbArc
 50
270.0
 51
0.0
  0
ARC
  5
A711
330
A433
100
AcDbEntity
  8
1
  6
Continuous
100
AcDbCircle
 10
234.488739
 20
56.07161899999999
 30
0.0
 40
2.0
100
AcDbArc
 50
270.0
 51
310.17916
  0
LINE
  5
A712
330
A433
100
AcDbEntity
  8
1
  6
Continuous
100
AcDbLine
 10
234.24995
 20
55.374974
 30
0.0
 11
236.6743009999999
 21
57.87160899999999
 31
0.0
  0
LINE
  5
A713
330
A433
100
AcDbEntity
  8
1
  6
Continuous
100
AcDbLine
 10
234.243402
 20
54.33998199999999
 30
0.0
 11
238.033763
 21
57.87160899999999
 31
0.0
  0
LINE
  5
A714
330
A433
100
AcDbEntity
  8
1
  6
Continuous
100
AcDbLine
 10
235.779099
 20
54.54355699999999
 30
0.0
 11
239.0105819999999
 21
57.272359
 31
0.0
  0
LINE
  5
A715
330
A433
100
AcDbEntity
  8
1
  6
Continuous
100
AcDbLine
 10
236.996543
 20
55.57161899999999
 30
0.0
 11
242.1807929999999
 21
55.57161899999999
 31
0.0
  0
LINE
  5
A716
330
A433
100
AcDbEntity
  8
1
  6
Continuous
100
AcDbLine
 10
239.491468
 20
57.87160899999999
 30
0.0
 11
242.180805
 21
57.87160899999999
 31
0.0
  0
LINE
  5
A71A
330
A433
100
AcDbEntity
  8
1
  6
Continuous
100
AcDbLine
 10
428.720223
 20
231.9319339999999
 30
0.0
 11
428.720223
 21
227.3716089999997
 31
0.0
  0
LINE
  5
A71B
330
A433
100
AcDbEntity
  8
1
  6
Continuous
100
AcDbLine
 10
431.020213
 20
233.0060019999999
 30
0.0
 11
431.020213
 21
227.3716089999997
 31
0.0
  0
LINE
  5
A71C
330
A433
100
AcDbEntity
  8
1
  6
Continuous
100
AcDbLine
 10
38.920233
 20
237.2676359999999
 30
0.0
 11
38.920233
 21
227.3716089999997
 31
0.0
  0
LINE
  5
A71D
330
A433
100
AcDbEntity
  8
1
  6
Continuous
100
AcDbLine
 10
41.220223
 20
237.0449049999999
 30
0.0
 11
41.220223
 21
227.3716089999997
 31
0.0
  0
ARC
  5
A71E
330
A433
100
AcDbEntity
  8
1
  6
Continuous
100
AcDbCircle
 10
219.720223
 20
53.871609
 30
0.0
 40
4.4
100
AcDbArc
 50
164.9962909999999
 51
340.0680069999999
  0
LINE
  5
A71F
330
A433
100
AcDbEntity
  8
4
  6
CENTER
100
AcDbLine
 10
219.720223
 20
47.87160899999999
 30
0.0
 11
219.720223
 21
59.871609
 31
0.0
  0
ARC
  5
A720
330
A433
100
AcDbEntity
  8
1
  6
Continuous
100
AcDbCircle
 10
207.5336619999999
 20
444.371599
 30
0.0
 40
1.0
100
AcDbArc
 50
90.0
 51
165.013725
  0
LINE
  5
A721
330
A433
100
AcDbEntity
  8
1
  6
Continuous
100
AcDbLine
 10
206.9417169999999
 20
446.3715989999998
 30
0.0
 11
210.7620809999999
 21
446.3715989999998
 31
0.0
  0
LINE
  5
A722
330
A433
100
AcDbEntity
  8
1
  6
Continuous
100
AcDbLine
 10
206.0143349999999
 20
442.5631179999998
 30
0.0
 11
206.567674
 21
444.630186
 31
0.0
  0
ARC
  5
A723
330
A433
100
AcDbEntity
  8
1
  6
Continuous
100
AcDbCircle
 10
206.9417169999999
 20
444.371599
 30
0.0
 40
2.0
100
AcDbArc
 50
90.0
 51
165.013725
  0
LINE
  5
A724
330
A433
100
AcDbEntity
  8
1
  6
Continuous
100
AcDbLine
 10
204.054575
 20
441.3206249999998
 30
0.0
 11
205.0097419999999
 21
444.8887739999998
 31
0.0
  0
ARC
  5
A725
330
A433
100
AcDbEntity
  8
1
  6
Continuous
100
AcDbCircle
 10
206.2202059999999
 20
440.0716089999998
 30
0.0
 40
2.5
100
AcDbArc
 50
90.0
 51
180.0
  0
LINE
  5
A726
330
A433
100
AcDbEntity
  8
1
  6
Continuous
100
AcDbLine
 10
207.519785
 20
442.5631179999998
 30
0.0
 11
208.2715939999999
 21
445.371599
 31
0.0
  0
LINE
  5
A727
330
A433
100
AcDbEntity
  8
1
  6
Continuous
100
AcDbLine
 10
210.7620809999999
 20
446.3715989999998
 30
0.0
 11
210.7620809999999
 21
445.371599
 31
0.0
  0
LINE
  5
A728
330
A433
100
AcDbEntity
  8
1
  6
Continuous
100
AcDbLine
 10
208.2715939999999
 20
446.3715989999998
 30
0.0
 11
208.2715939999999
 21
445.371599
 31
0.0
  0
LINE
  5
A729
330
A433
100
AcDbEntity
  8
1
  6
Continuous
100
AcDbLine
 10
210.7620809999999
 20
446.3715989999998
 30
0.0
 11
210.7620809999999
 21
445.371599
 31
0.0
  0
LINE
  5
A72A
330
A433
100
AcDbEntity
  8
1
  6
Continuous
100
AcDbLine
 10
207.5336619999999
 20
445.371599
 30
0.0
 11
210.7620809999999
 21
445.371599
 31
0.0
  0
ARC
  5
A72B
330
A433
100
AcDbEntity
  8
1
  6
Continuous
100
AcDbCircle
 10
128.2535629999999
 20
426.5716089999998
 30
0.0
 40
85.0
100
AcDbArc
 50
10.840782
 51
10.849816
  0
LINE
  5
A72C
330
A433
100
AcDbEntity
  8
1
  6
Continuous
100
AcDbLine
 10
210.7202229999999
 20
442.5716089999998
 30
0.0
 11
210.7202229999999
 21
444.871599
 31
0.0
  0
LINE
  5
A72D
330
A433
100
AcDbEntity
  8
1
  6
Continuous
100
AcDbLine
 10
206.2202059999999
 20
442.5716089999998
 30
0.0
 11
210.7202229999999
 21
442.5716089999998
 31
0.0
  0
ARC
  5
A72E
330
A433
100
AcDbEntity
  8
5
  6
PHANTOM
100
AcDbCircle
 10
177.8961679999999
 20
394.9779019999999
 30
0.0
 40
8.706292999999996
100
AcDbArc
 50
221.0054759999999
 51
270.0
  0
ARC
  5
A72F
330
A433
100
AcDbEntity
  8
5
  6
PHANTOM
100
AcDbCircle
 10
180.5342669999998
 20
397.271609
 30
0.0
 40
12.202099
100
AcDbArc
 50
138.994524
 51
221.0054759999999
  0
ARC
  5
A730
330
A433
100
AcDbEntity
  8
5
  6
PHANTOM
100
AcDbCircle
 10
177.8961679999999
 20
399.565316
 30
0.0
 40
8.706292999999996
100
AcDbArc
 50
90.0
 51
138.994524
  0
ARC
  5
A731
330
A433
100
AcDbEntity
  8
5
  6
PHANTOM
100
AcDbCircle
 10
180.5342669999998
 20
103.170746
 30
0.0
 40
12.202099
100
AcDbArc
 50
138.994524
 51
221.0054759999999
  0
ARC
  5
A732
330
A433
100
AcDbEntity
  8
5
  6
PHANTOM
100
AcDbCircle
 10
177.8961679999999
 20
105.464453
 30
0.0
 40
8.706292999999996
100
AcDbArc
 50
90.0
 51
138.994524
  0
ARC
  5
A733
330
A433
100
AcDbEntity
  8
5
  6
PHANTOM
100
AcDbCircle
 10
177.8961679999999
 20
100.8770399999999
 30
0.0
 40
8.706292999999996
100
AcDbArc
 50
221.0054759999999
 51
270.0
  0
CIRCLE
  5
A734
330
A433
100
AcDbEntity
  8
1
  6
Continuous
100
AcDbCircle
 10
221.720223
 20
238.3716089999999
 30
0.0
 40
8.5
  0
ARC
  5
A735
330
A433
100
AcDbEntity
  8
1
  6
Continuous
100
AcDbCircle
 10
221.720223
 20
238.3716089999999
 30
0.0
 40
56.24260699999999
100
AcDbArc
 50
97.27867899999999
 51
139.8100639999997
  0
ARC
  5
A736
330
A433
100
AcDbEntity
  8
1
  6
Continuous
100
AcDbCircle
 10
221.720223
 20
238.3716089999999
 30
0.0
 40
62.5
100
AcDbArc
 50
96.13685500000002
 51
50.54584000000001
  0
LINE
  5
A737
330
A433
100
AcDbEntity
  8
1
  6
Continuous
100
AcDbLine
 10
161.336365
 20
414.0716089999998
 30
0.0
 11
212.1970489999999
 21
414.0716089999998
 31
0.0
  0
LINE
  5
A738
330
A433
100
AcDbEntity
  8
1
  6
Continuous
100
AcDbLine
 10
161.336365
 20
439.0716089999998
 30
0.0
 11
212.197053
 21
439.0716089999998
 31
0.0
  0
LINE
  5
A739
330
A433
100
AcDbEntity
  8
1
  6
Continuous
100
AcDbLine
 10
218.720223
 20
225.739233
 30
0.0
 11
218.720223
 21
185.468159
 31
0.0
  0
ARC
  5
A73A
330
A433
100
AcDbEntity
  8
1
  6
Continuous
100
AcDbCircle
 10
215.720223
 20
185.468159
 30
0.0
 40
3.0
100
AcDbArc
 50
263.52951
 51
0.0
  0
LINE
  5
A73B
330
A433
100
AcDbEntity
  8
1
  6
Continuous
100
AcDbLine
 10
174.404494
 20
214.5179619999999
 30
0.0
 11
208.1190869999999
 21
233.983087
 31
0.0
  0
LINE
  5
A73C
330
A433
100
AcDbEntity
  8
1
  6
Continuous
100
AcDbLine
 10
177.4044879999999
 20
209.3217999999999
 30
0.0
 11
212.280271
 21
229.4573419999999
 31
0.0
  0
ARC
  5
A73D
330
A433
100
AcDbEntity
  8
1
  6
Continuous
100
AcDbCircle
 10
172.904488
 20
217.1160379999999
 30
0.0
 40
3.0
100
AcDbArc
 50
203.5294599999998
 51
300.00001
  0
ARC
  5
A73E
330
A433
100
AcDbEntity
  8
1
  6
Continuous
100
AcDbCircle
 10
178.9044879999999
 20
206.7237299999999
 30
0.0
 40
3.0
100
AcDbArc
 50
120.0000199999999
 51
216.4704399999999
  0
LINE
  5
A73F
330
A433
100
AcDbEntity
  8
1
  6
Continuous
100
AcDbLine
 10
206.9725
 20
232.1664029999999
 30
0.0
 11
208.7102649999999
 21
233.169702
 31
0.0
  0
ARC
  5
A740
330
A433
100
AcDbEntity
  8
1
  6
Continuous
100
AcDbCircle
 10
221.720223
 20
238.3716089999999
 30
0.0
 40
16.0
100
AcDbArc
 50
202.8192199999999
 51
217.1807299999999
  0
LINE
  5
A741
330
A433
100
AcDbEntity
  8
1
  6
Continuous
100
AcDbLine
 10
208.9725
 20
228.7023
 30
0.0
 11
211.4801079999999
 21
230.1500669999998
 31
0.0
  0
LINE
  5
A742
330
A433
100
AcDbEntity
  8
1
  6
Continuous
100
AcDbLine
 10
224.720223
 20
224.398415
 30
0.0
 11
224.720223
 21
185.468159
 31
0.0
  0
ARC
  5
A743
330
A433
100
AcDbEntity
  8
1
  6
Continuous
100
AcDbCircle
 10
227.7202229999998
 20
185.468159
 30
0.0
 40
3.0
100
AcDbArc
 50
179.9999799999999
 51
276.4704599999999
  0
LINE
  5
A744
330
A433
100
AcDbEntity
  8
1
  6
Continuous
100
AcDbLine
 10
260.8223729999999
 20
219.260085
 30
0.0
 11
269.035973
 21
214.5179619999999
 31
0.0
  0
LINE
  5
A745
330
A433
100
AcDbEntity
  8
1
  6
Continuous
100
AcDbLine
 10
248.413707
 20
219.496025
 30
0.0
 11
266.035973
 21
209.321808
 31
0.0
  0
ARC
  5
A746
330
A433
100
AcDbEntity
  8
1
  6
Continuous
100
AcDbCircle
 10
264.535958
 20
206.723732
 30
0.0
 40
3.0
100
AcDbArc
 50
323.5295299999999
 51
59.999995
  0
ARC
  5
A747
330
A433
100
AcDbEntity
  8
1
  6
Continuous
100
AcDbCircle
 10
270.535958
 20
217.11604
 30
0.0
 40
3.0
100
AcDbArc
 50
239.99997
 51
336.47053
  0
ARC
  5
A748
330
A433
100
AcDbEntity
  8
1
  6
Continuous
100
AcDbCircle
 10
259.2202229999999
 20
426.5716089999998
 30
0.0
 40
100.0
100
AcDbArc
 50
173.5881149999999
 51
186.411904
  0
ARC
  5
A749
330
A433
100
AcDbEntity
  8
1
  6
Continuous
100
AcDbCircle
 10
212.7202229999999
 20
412.571609
 30
0.0
 40
1.0
100
AcDbArc
 50
184.4115399999997
 51
222.081122
  0
LINE
  5
A74A
330
A433
100
AcDbEntity
  8
1
  6
Continuous
100
AcDbLine
 10
211.7231819999997
 20
412.4946969999998
 30
0.0
 11
211.601527
 21
414.071617
 31
0.0
  0
ARC
  5
A74B
330
A433
100
AcDbEntity
  8
1
  6
Continuous
100
AcDbCircle
 10
161.336365
 20
415.5716089999998
 30
0.0
 40
1.5
100
AcDbArc
 50
186.4118629999999
 51
270.00002
  0
ARC
  5
A74C
330
A433
100
AcDbEntity
  8
1
  6
Continuous
100
AcDbCircle
 10
161.336365
 20
437.571609
 30
0.0
 40
1.5
100
AcDbArc
 50
90.0
 51
173.5881559999999
  0
LINE
  5
A74D
330
A433
100
AcDbEntity
  8
1
  6
Continuous
100
AcDbLine
 10
177.4044879999999
 20
267.421414
 30
0.0
 11
185.618085
 21
262.6792909999999
 31
0.0
  0
LINE
  5
A74E
330
A433
100
AcDbEntity
  8
1
  6
Continuous
100
AcDbLine
 10
174.4044949999999
 20
262.225258
 30
0.0
 11
192.0267459999998
 21
252.051047
 31
0.0
  0
ARC
  5
A74F
330
A433
100
AcDbEntity
  8
1
  6
Continuous
100
AcDbCircle
 10
172.904488
 20
259.6271799999998
 30
0.0
 40
3.0
100
AcDbArc
 50
59.999995
 51
156.47054
  0
ARC
  5
A750
330
A433
100
AcDbEntity
  8
1
  6
Continuous
100
AcDbCircle
 10
178.9044879999999
 20
270.01949
 30
0.0
 40
3.0
100
AcDbArc
 50
143.52954
 51
239.99995
  0
LINE
  5
A751
330
A433
100
AcDbEntity
  8
1
  6
Continuous
100
AcDbLine
 10
237.5102259999999
 20
244.0238609999999
 30
0.0
 11
269.035973
 21
262.225256
 31
0.0
  0
LINE
  5
A752
330
A433
100
AcDbEntity
  8
1
  6
Continuous
100
AcDbLine
 10
243.267553
 20
254.276062
 30
0.0
 11
266.035973
 21
267.421414
 31
0.0
  0
ARC
  5
A753
330
A433
100
AcDbEntity
  8
1
  6
Continuous
100
AcDbCircle
 10
264.535958
 20
270.0194859999999
 30
0.0
 40
3.0
100
AcDbArc
 50
300.00001
 51
36.47047500000001
  0
ARC
  5
A754
330
A433
100
AcDbEntity
  8
1
  6
Continuous
100
AcDbCircle
 10
270.535958
 20
259.6271779999999
 30
0.0
 40
3.0
100
AcDbArc
 50
23.529474
 51
120.00003
  0
ARC
  5
A755
330
A433
100
AcDbEntity
  8
1
  6
Continuous
100
AcDbCircle
 10
221.720223
 20
238.3716089999999
 30
0.0
 40
56.24260699999999
100
AcDbArc
 50
340.1899509999998
 51
49.40401000000001
  0
ARC
  5
A756
330
A433
100
AcDbEntity
  8
1
  6
Continuous
100
AcDbCircle
 10
221.720223
 20
238.3716089999999
 30
0.0
 40
56.24260699999999
100
AcDbArc
 50
142.182516
 51
337.817489
  0
ARC
  5
A757
330
A433
100
AcDbEntity
  8
1
  6
Continuous
100
AcDbCircle
 10
603.720223
 20
238.3716089999999
 30
0.0
 40
56.24260699999999
100
AcDbArc
 50
130.59599
 51
82.721321
  0
ARC
  5
A758
330
A433
100
AcDbEntity
  8
1
  6
Continuous
100
AcDbCircle
 10
603.720223
 20
238.3716089999999
 30
0.0
 40
62.5
100
AcDbArc
 50
129.45416
 51
83.86314500000002
  0
LINE
  5
A759
330
A433
100
AcDbEntity
  8
1
  6
Continuous
100
AcDbLine
 10
600.720223
 20
217.182933
 30
0.0
 11
600.720223
 21
185.468159
 31
0.0
  0
LINE
  5
A75A
330
A433
100
AcDbEntity
  8
1
  6
Continuous
100
AcDbLine
 10
606.720223
 20
217.182933
 30
0.0
 11
606.720223
 21
185.468159
 31
0.0
  0
ARC
  5
A75B
330
A433
100
AcDbEntity
  8
1
  6
Continuous
100
AcDbCircle
 10
597.720223
 20
185.468159
 30
0.0
 40
3.0
100
AcDbArc
 50
263.52951
 51
0.0
  0
ARC
  5
A75C
330
A433
100
AcDbEntity
  8
1
  6
Continuous
100
AcDbCircle
 10
609.720223
 20
185.468159
 30
0.0
 40
3.0
100
AcDbArc
 50
179.9999799999999
 51
276.4704599999999
  0
LINE
  5
A75D
330
A433
100
AcDbEntity
  8
1
  6
Continuous
100
AcDbLine
 10
623.5701549999999
 20
230.375347
 30
0.0
 11
651.0359539999996
 21
214.51796
 31
0.0
  0
LINE
  5
A75E
330
A433
100
AcDbEntity
  8
1
  6
Continuous
100
AcDbLine
 10
620.570155
 20
225.1791939999999
 30
0.0
 11
648.0359539999997
 21
209.321808
 31
0.0
  0
ARC
  5
A75F
330
A433
100
AcDbEntity
  8
1
  6
Continuous
100
AcDbCircle
 10
646.5359539999997
 20
206.7237309999999
 30
0.0
 40
3.0
100
AcDbArc
 50
323.52951
 51
60.0
  0
ARC
  5
A760
330
A433
100
AcDbEntity
  8
1
  6
Continuous
100
AcDbCircle
 10
652.5359539999997
 20
217.116036
 30
0.0
 40
3.0
100
AcDbArc
 50
239.99998
 51
336.47046
  0
LINE
  5
A761
330
A433
100
AcDbEntity
  8
1
  6
Continuous
100
AcDbLine
 10
620.570155
 20
251.5640229999999
 30
0.0
 11
648.0359539999997
 21
267.4214099999999
 31
0.0
  0
LINE
  5
A762
330
A433
100
AcDbEntity
  8
1
  6
Continuous
100
AcDbLine
 10
623.5701549999999
 20
246.3678709999999
 30
0.0
 11
651.0359539999996
 21
262.225258
 31
0.0
  0
ARC
  5
A763
330
A433
100
AcDbEntity
  8
1
  6
Continuous
100
AcDbCircle
 10
652.5359539999997
 20
259.627181
 30
0.0
 40
3.0
100
AcDbArc
 50
23.52951
 51
119.9999999999999
  0
ARC
  5
A764
330
A433
100
AcDbEntity
  8
1
  6
Continuous
100
AcDbCircle
 10
646.5359539999997
 20
270.0194859999999
 30
0.0
 40
3.0
100
AcDbArc
 50
299.9999799999999
 51
36.47045999999999
  0
LINE
  5
A765
330
A433
100
AcDbEntity
  8
1
  6
Continuous
100
AcDbLine
 10
583.8702910000002
 20
246.3678709999999
 30
0.0
 11
556.4044909999998
 21
262.225258
 31
0.0
  0
LINE
  5
A766
330
A433
100
AcDbEntity
  8
1
  6
Continuous
100
AcDbLine
 10
582.1728879999997
 20
254.27607
 30
0.0
 11
559.404491
 21
267.4214099999999
 31
0.0
  0
ARC
  5
A767
330
A433
100
AcDbEntity
  8
1
  6
Continuous
100
AcDbCircle
 10
560.904491
 20
270.0194859999999
 30
0.0
 40
3.0
100
AcDbArc
 50
143.5295099999999
 51
239.9999999999999
  0
ARC
  5
A768
330
A433
100
AcDbEntity
  8
1
  6
Continuous
100
AcDbCircle
 10
554.904491
 20
259.627181
 30
0.0
 40
3.0
100
AcDbArc
 50
59.99998000000001
 51
156.4704599999998
  0
LINE
  5
A769
330
A433
100
AcDbEntity
  8
1
  6
Continuous
100
AcDbLine
 10
586.8702909999996
 20
225.1791939999999
 30
0.0
 11
559.404491
 21
209.321808
 31
0.0
  0
LINE
  5
A76A
330
A433
100
AcDbEntity
  8
1
  6
Continuous
100
AcDbLine
 10
583.8702910000002
 20
230.375347
 30
0.0
 11
556.4044909999998
 21
214.51796
 31
0.0
  0
ARC
  5
A76B
330
A433
100
AcDbEntity
  8
1
  6
Continuous
100
AcDbCircle
 10
554.904491
 20
217.116036
 30
0.0
 40
3.0
100
AcDbArc
 50
203.5295099999999
 51
300.0
  0
ARC
  5
A76C
330
A433
100
AcDbEntity
  8
1
  6
Continuous
100
AcDbCircle
 10
560.904491
 20
206.7237309999999
 30
0.0
 40
3.0
100
AcDbArc
 50
119.99998
 51
216.4704599999998
  0
LINE
  5
A76D
330
A433
100
AcDbEntity
  8
1
  6
Continuous
100
AcDbLine
 10
69.72023799999999
 20
248.4903
 30
0.0
 11
71.29715
 21
248.3686449999999
 31
0.0
  0
LINE
  5
A76E
330
A433
100
AcDbEntity
  8
1
  6
Continuous
100
AcDbLine
 10
69.72023799999999
 20
228.252918
 30
0.0
 11
71.29715
 21
228.374573
 31
0.0
  0
LINE
  5
A76F
330
A433
100
AcDbEntity
  8
1
  6
Continuous
100
AcDbLine
 10
69.720223
 20
298.755467
 30
0.0
 11
69.720223
 21
177.987751
 31
0.0
  0
LINE
  5
A770
330
A433
100
AcDbEntity
  8
1
  6
Continuous
100
AcDbLine
 10
44.72022299999999
 20
298.755467
 30
0.0
 11
44.72022299999999
 21
177.987751
 31
0.0
  0
ARC
  5
A771
330
A433
100
AcDbEntity
  8
1
  6
Continuous
100
AcDbCircle
 10
57.22022299999999
 20
275.8716089999999
 30
0.0
 40
100.0
100
AcDbArc
 50
263.5880999999999
 51
276.4118899999999
  0
ARC
  5
A772
330
A433
100
AcDbEntity
  8
1
  6
Continuous
100
AcDbCircle
 10
46.220223
 20
177.987751
 30
0.0
 40
1.5
100
AcDbArc
 50
179.9999799999999
 51
263.5881499999999
  0
ARC
  5
A773
330
A433
100
AcDbEntity
  8
1
  6
Continuous
100
AcDbCircle
 10
68.220223
 20
177.987751
 30
0.0
 40
1.5
100
AcDbArc
 50
276.41184
 51
0.0
  0
ARC
  5
A774
330
A433
100
AcDbEntity
  8
1
  6
Continuous
100
AcDbCircle
 10
57.22022299999999
 20
200.871609
 30
0.0
 40
100.0
100
AcDbArc
 50
83.58811499999999
 51
96.41190400000001
  0
ARC
  5
A775
330
A433
100
AcDbEntity
  8
1
  6
Continuous
100
AcDbCircle
 10
46.220223
 20
298.755467
 30
0.0
 40
1.5
100
AcDbArc
 50
96.41186300000001
 51
180.00002
  0
ARC
  5
A776
330
A433
100
AcDbEntity
  8
1
  6
Continuous
100
AcDbCircle
 10
68.220223
 20
298.755467
 30
0.0
 40
1.5
100
AcDbArc
 50
0.0
 51
83.58815600000001
  0
ARC
  5
A777
330
A433
100
AcDbEntity
  8
1
  6
Continuous
100
AcDbCircle
 10
71.22022300000002
 20
247.3716089999999
 30
0.0
 40
1.0
100
AcDbArc
 50
0.0
 51
85.58847900000001
  0
ARC
  5
A778
330
A433
100
AcDbEntity
  8
1
  6
Continuous
100
AcDbCircle
 10
71.22022300000002
 20
229.3716089999997
 30
0.0
 40
1.0
100
AcDbArc
 50
274.4115199999999
 51
287.457603
  0
LINE
  5
A779
330
A433
100
AcDbEntity
  8
1
  6
Continuous
100
AcDbLine
 10
72.220223
 20
247.3716089999999
 30
0.0
 11
72.220223
 21
229.988545
 31
0.0
  0
LINE
  5
A77A
330
A433
100
AcDbEntity
  8
1
  6
Continuous
100
AcDbLine
 10
43.720223
 20
259.771609
 30
0.0
 11
44.72022299999999
 21
259.771609
 31
0.0
  0
LINE
  5
A77B
330
A433
100
AcDbEntity
  8
1
  6
Continuous
100
AcDbLine
 10
43.720223
 20
216.9716089999997
 30
0.0
 11
44.72022299999999
 21
216.9716089999997
 31
0.0
  0
LINE
  5
A77C
330
A433
100
AcDbEntity
  8
1
  6
Continuous
100
AcDbLine
 10
43.720223
 20
259.771609
 30
0.0
 11
43.720223
 21
216.9716089999997
 31
0.0
  0
LINE
  5
A77D
330
A433
100
AcDbEntity
  8
1
  6
Continuous
100
AcDbLine
 10
400.2202229999999
 20
298.755467
 30
0.0
 11
400.2202229999999
 21
177.987751
 31
0.0
  0
LINE
  5
A77E
330
A433
100
AcDbEntity
  8
1
  6
Continuous
100
AcDbLine
 10
425.2202229999999
 20
298.755467
 30
0.0
 11
425.2202229999999
 21
177.987751
 31
0.0
  0
ARC
  5
A77F
330
A433
100
AcDbEntity
  8
1
  6
Continuous
100
AcDbCircle
 10
401.7202229999998
 20
177.987751
 30
0.0
 40
1.5
100
AcDbArc
 50
179.9999799999999
 51
263.5881499999999
  0
ARC
  5
A780
330
A433
100
AcDbEntity
  8
1
  6
Continuous
100
AcDbCircle
 10
412.7202229999999
 20
275.8716089999999
 30
0.0
 40
100.0
100
AcDbArc
 50
263.5880999999999
 51
276.4118899999999
  0
ARC
  5
A781
330
A433
100
AcDbEntity
  8
1
  6
Continuous
100
AcDbCircle
 10
423.7202229999998
 20
177.987751
 30
0.0
 40
1.5
100
AcDbArc
 50
276.41184
 51
0.0
  0
ARC
  5
A782
330
A433
100
AcDbEntity
  8
1
  6
Continuous
100
AcDbCircle
 10
398.7202229999999
 20
247.3716089999999
 30
0.0
 40
1.0
100
AcDbArc
 50
94.41154
 51
180.00002
  0
LINE
  5
A783
330
A433
100
AcDbEntity
  8
1
  6
Continuous
100
AcDbLine
 10
397.7202229999999
 20
247.3716089999999
 30
0.0
 11
397.7202229999999
 21
229.988545
 31
0.0
  0
LINE
  5
A784
330
A433
100
AcDbEntity
  8
1
  6
Continuous
100
AcDbLine
 10
398.643311
 20
228.374568
 30
0.0
 11
400.220231
 21
228.2529129999999
 31
0.0
  0
ARC
  5
A785
330
A433
100
AcDbEntity
  8
1
  6
Continuous
100
AcDbCircle
 10
398.7202229999999
 20
229.3716089999997
 30
0.0
 40
1.0
100
AcDbArc
 50
252.542397
 51
265.5884599999998
  0
LINE
  5
A786
330
A433
100
AcDbEntity
  8
1
  6
Continuous
100
AcDbLine
 10
398.643311
 20
248.36865
 30
0.0
 11
400.220231
 21
248.4903049999998
 31
0.0
  0
ARC
  5
A787
330
A433
100
AcDbEntity
  8
1
  6
Continuous
100
AcDbCircle
 10
401.7202229999998
 20
298.755467
 30
0.0
 40
1.5
100
AcDbArc
 50
96.41186300000001
 51
180.00002
  0
ARC
  5
A788
330
A433
100
AcDbEntity
  8
1
  6
Continuous
100
AcDbCircle
 10
412.7202229999999
 20
200.871609
 30
0.0
 40
100.0
100
AcDbArc
 50
83.58811499999999
 51
96.41190400000001
  0
ARC
  5
A789
330
A433
100
AcDbEntity
  8
1
  6
Continuous
100
AcDbCircle
 10
423.7202229999998
 20
298.755467
 30
0.0
 40
1.5
100
AcDbArc
 50
0.0
 51
83.58815600000001
  0
LINE
  5
A78A
330
A433
100
AcDbEntity
  8
1
  6
Continuous
100
AcDbLine
 10
426.2202229999998
 20
259.771609
 30
0.0
 11
425.2202229999999
 21
259.771609
 31
0.0
  0
LINE
  5
A78B
330
A433
100
AcDbEntity
  8
1
  6
Continuous
100
AcDbLine
 10
426.2202229999998
 20
216.9716089999997
 30
0.0
 11
425.2202229999999
 21
216.9716089999997
 31
0.0
  0
LINE
  5
A78C
330
A433
100
AcDbEntity
  8
1
  6
Continuous
100
AcDbLine
 10
426.2202229999998
 20
259.771609
 30
0.0
 11
426.2202229999998
 21
216.9716089999997
 31
0.0
  0
LINE
  5
A78D
330
A433
100
AcDbEntity
  8
1
  6
Continuous
100
AcDbLine
 10
161.336365
 20
61.371609
 30
0.0
 11
282.1040809999999
 21
61.371609
 31
0.0
  0
LINE
  5
A78E
330
A433
100
AcDbEntity
  8
1
  6
Continuous
100
AcDbLine
 10
161.336365
 20
86.37160899999996
 30
0.0
 11
282.1040809999999
 21
86.37160899999996
 31
0.0
  0
ARC
  5
A78F
330
A433
100
AcDbEntity
  8
1
  6
Continuous
100
AcDbCircle
 10
259.2202229999999
 20
73.87160899999997
 30
0.0
 40
100.0
100
AcDbArc
 50
173.5881149999999
 51
186.411904
  0
ARC
  5
A790
330
A433
100
AcDbEntity
  8
1
  6
Continuous
100
AcDbCircle
 10
161.336365
 20
62.87160899999999
 30
0.0
 40
1.5
100
AcDbArc
 50
186.4118629999999
 51
270.00002
  0
ARC
  5
A791
330
A433
100
AcDbEntity
  8
1
  6
Continuous
100
AcDbCircle
 10
161.336365
 20
84.87160899999997
 30
0.0
 40
1.5
100
AcDbArc
 50
90.0
 51
173.5881559999999
  0
LINE
  5
A792
330
A433
100
AcDbEntity
  8
1
  6
Continuous
100
AcDbLine
 10
212.7202229999999
 20
88.87160899999996
 30
0.0
 11
230.720223
 21
88.87160899999996
 31
0.0
  0
ARC
  5
A793
330
A433
100
AcDbEntity
  8
1
  6
Continuous
100
AcDbCircle
 10
212.7202229999999
 20
87.87160899999998
 30
0.0
 40
1.0
100
AcDbArc
 50
90.0
 51
175.588479
  0
LINE
  5
A794
330
A433
100
AcDbEntity
  8
1
  6
Continuous
100
AcDbLine
 10
211.6015319999999
 20
86.37162399999999
 30
0.0
 11
211.723187
 21
87.94853600000001
 31
0.0
  0
ARC
  5
A795
330
A433
100
AcDbEntity
  8
1
  6
Continuous
100
AcDbCircle
 10
230.720223
 20
87.87160899999998
 30
0.0
 40
1.0
100
AcDbArc
 50
4.411519999999998
 51
90.0
  0
LINE
  5
A796
330
A433
100
AcDbEntity
  8
1
  6
Continuous
100
AcDbLine
 10
231.8389139999999
 20
86.37162399999999
 30
0.0
 11
231.7172589999999
 21
87.94853600000001
 31
0.0
  0
ARC
  5
A797
330
A433
100
AcDbEntity
  8
1
  6
Continuous
100
AcDbCircle
 10
184.220223
 20
73.87160899999997
 30
0.0
 40
100.0
100
AcDbArc
 50
353.5880999999998
 51
6.411889999999998
  0
ARC
  5
A798
330
A433
100
AcDbEntity
  8
1
  6
Continuous
100
AcDbCircle
 10
282.1040809999999
 20
62.87160899999999
 30
0.0
 40
1.5
100
AcDbArc
 50
269.99998
 51
353.5881499999999
  0
ARC
  5
A799
330
A433
100
AcDbEntity
  8
1
  6
Continuous
100
AcDbCircle
 10
282.1040809999999
 20
84.87160899999997
 30
0.0
 40
1.5
100
AcDbArc
 50
6.411839999999997
 51
90.0
  0
ARC
  5
A79A
330
A433
100
AcDbEntity
  8
1
  6
Continuous
100
AcDbCircle
 10
128.2535629999999
 20
73.87160899999997
 30
0.0
 40
85.0
100
AcDbArc
 50
9.938463
 51
10.849816
  0
LINE
  5
A79B
330
A433
100
AcDbEntity
  8
1
  6
Continuous
100
AcDbLine
 10
200.3202229999998
 20
60.37160899999999
 30
0.0
 11
243.120223
 21
60.37160899999999
 31
0.0
  0
LINE
  5
A79C
330
A433
100
AcDbEntity
  8
1
  6
Continuous
100
AcDbLine
 10
200.3202229999998
 20
60.37160899999999
 30
0.0
 11
200.3202229999998
 21
61.371609
 31
0.0
  0
LINE
  5
A79D
330
A433
100
AcDbEntity
  8
1
  6
Continuous
100
AcDbLine
 10
243.120223
 20
60.37160899999999
 30
0.0
 11
243.120223
 21
61.371609
 31
0.0
  0
LINE
  5
A79E
330
A433
100
AcDbEntity
  8
1
  6
Continuous
100
AcDbLine
 10
200.3202229999998
 20
440.0716089999998
 30
0.0
 11
212.1746569999999
 21
440.0716089999998
 31
0.0
  0
LINE
  5
A79F
330
A433
100
AcDbEntity
  8
1
  6
Continuous
100
AcDbLine
 10
200.3202229999998
 20
440.0716089999998
 30
0.0
 11
200.3202229999998
 21
439.0716089999998
 31
0.0
  0
ARC
  5
A7DF
330
A433
100
AcDbEntity
  8
1
  6
Continuous
100
AcDbCircle
 10
189.5039055631047
 20
103.1715132718556
 30
0.0
 40
12.239545
100
AcDbArc
 50
139.106546
 51
220.8934580000001
  0
ARC
  5
A7E2
330
A433
100
AcDbEntity
  8
1
  6
Continuous
100
AcDbCircle
 10
186.7906645631046
 20
105.5212452718558
 30
0.0
 40
8.650256
100
AcDbArc
 50
90.00000300000003
 51
139.1065419999999
  0
ARC
  5
A7E3
330
A433
100
AcDbEntity
  8
1
  6
Continuous
100
AcDbCircle
 10
187.8857790839495
 20
105.5186527701916
 30
0.0
 40
8.650256
100
AcDbArc
 50
68.84036300000014
 51
91.29776391275456
  0
ARC
  5
A7EA
330
A433
100
AcDbEntity
  8
1
  6
Continuous
100
AcDbCircle
 10
186.7906645631046
 20
100.8217672718556
 30
0.0
 40
8.650256
100
AcDbArc
 50
220.8934580000001
 51
257.1060453520309
  0
LINE
  5
A82B
330
A433
100
AcDbEntity
  8
1
  6
Continuous
100
AcDbLine
 10
186.7906641101782
 20
114.1715012718558
 30
0.0
 11
187.6898653481177
 21
114.1666899274689
 31
0.0
  0
ARC
  5
A82C
330
A433
100
AcDbEntity
  8
1
  6
Continuous
100
AcDbCircle
 10
186.7836250586854
 20
105.8127422135483
 30
0.0
 40
8.358949320740899
100
AcDbArc
 50
68.42385081101098
 51
89.23099876990013
  0
ARC
  5
A82F
330
A433
100
AcDbEntity
  8
1
  6
Continuous
100
AcDbCircle
 10
262.7368678726247
 20
103.1716089612412
 30
0.0
 40
12.239545
100
AcDbArc
 50
358.595499
 51
40.89345600000004
  0
ARC
  5
A830
330
A433
100
AcDbEntity
  8
1
  6
Continuous
100
AcDbCircle
 10
265.4501098726248
 20
105.5213409612414
 30
0.0
 40
8.650256
100
AcDbArc
 50
40.89345600000004
 51
93.85538154218549
  0
ARC
  5
A832
330
A433
100
AcDbEntity
  8
1
  6
Continuous
100
AcDbCircle
 10
264.3447264347269
 20
102.7427774549264
 30
0.0
 40
10.62878937746548
100
AcDbArc
 50
275.9687340564233
 51
0.6944990908543148
  0
ARC
  5
A833
330
A433
100
AcDbEntity
  8
1
  6
Continuous
100
AcDbCircle
 10
263.1953049782818
 20
102.7676715292126
 30
0.0
 40
10.62878937746548
100
AcDbArc
 50
283.8884776963305
 51
0.6944990908543148
  0
ARC
  5
A834
330
A433
100
AcDbEntity
  8
1
  6
Continuous
100
AcDbCircle
 10
261.5874464161795
 20
103.1965030355274
 30
0.0
 40
12.239545
100
AcDbArc
 50
358.595499
 51
40.89345600000004
  0
ARC
  5
A835
330
A433
100
AcDbEntity
  8
1
  6
Continuous
100
AcDbCircle
 10
264.2235561666784
 20
105.2634164452069
 30
0.0
 40
8.895220182114456
100
AcDbArc
 50
41.94537922597212
 51
96.06141180054866
  0
ARC
  5
A836
330
A433
100
AcDbEntity
  8
1
  6
Continuous
100
AcDbCircle
 10
264.3296486431173
 20
105.7243385153107
 30
0.0
 40
8.449484382022237
100
AcDbArc
 50
97.10689421820898
 51
111.5037042396812
  0
LINE
  5
A837
330
A433
100
AcDbEntity
  8
1
  6
Continuous
100
AcDbLine
 10
264.2235561666784
 20
114.1586366273214
 30
0.0
 11
264.8684810664741
 21
114.1520209343021
 31
0.0
  0
ENDSEC
  0
SECTION
  2
OBJECTS
  0
DICTIONARY
  5
A421
330
0
100
AcDbDictionary
281
     1
  3
ACAD_CIP_PREVIOUS_PRODUCT_INFO
350
A89E
  3
ACAD_COLOR
350
A880
  3
ACAD_DETAILVIEWSTYLE
350
A899
  3
ACAD_GROUP
350
A422
  3
ACAD_LAYOUT
350
A42E
  3
ACAD_MATERIAL
350
A84E
  3
ACAD_MLEADERSTYLE
350
A895
  3
ACAD_MLINESTYLE
350
A42B
  3
ACAD_PLOTSETTINGS
350
A42D
  3
ACAD_PLOTSTYLENAME
350
A84C
  3
ACAD_SCALELIST
350
A883
  3
ACAD_SECTIONVIEWSTYLE
350
A897
  3
ACAD_TABLESTYLE
350
A881
  3
ACAD_VISUALSTYLE
350
A867
  3
ACDB_RECOMPOSE_DATA
350
A8BC
  3
AcDbVariableDictionary
350
A8AF
  3
DWGPROPS
350
A8BD
  0
DICTIONARY
  5
A89F
330
A425
100
AcDbDictionary
280
     1
281
     1
  3
ADSK_XREC_LAYER_RECONCILED
360
A8A0
  0
DICTIONARY
  5
A8A1
330
A43B
100
AcDbDictionary
280
     1
281
     1
  3
ADSK_XREC_LAYER_RECONCILED
360
A8A2
  0
DICTIONARY
  5
A8A3
330
A43C
100
AcDbDictionary
280
     1
281
     1
  3
ADSK_XREC_LAYER_RECONCILED
360
A8A4
  0
DICTIONARY
  5
A8A5
330
A43D
100
AcDbDictionary
280
     1
281
     1
  3
ADSK_XREC_LAYER_RECONCILED
360
A8A6
  0
DICTIONARY
  5
A8A7
330
A43E
100
AcDbDictionary
280
     1
281
     1
  3
ADSK_XREC_LAYER_RECONCILED
360
A8A8
  0
DICTIONARY
  5
A8A9
330
A43F
100
AcDbDictionary
280
     1
281
     1
  3
ADSK_XREC_LAYER_RECONCILED
360
A8AA
  0
DICTIONARY
  5
A8AB
330
A440
100
AcDbDictionary
280
     1
281
     1
  3
ADSK_XREC_LAYER_RECONCILED
360
A8AC
  0
DICTIONARY
  5
A8AD
330
A441
100
AcDbDictionary
280
     1
281
     1
  3
ADSK_XREC_LAYER_RECONCILED
360
A8AE
  0
DICTIONARY
  5
A7AA
330
A433
100
AcDbDictionary
281
     1
  3
ACAD_LAYOUTSELFREF
350
A848
  0
DICTIONARY
  5
A7A8
330
A42F
100
AcDbDictionary
281
     1
  3
ACAD_LAYOUTSELFREF
350
A847
  0
XRECORD
  5
A89E
102
{ACAD_REACTORS
330
A421
102
}
330
A421
100
AcDbXrecord
280
     1
300
ACDLT
300
2014
300
ACDLT_F_S
  0
DICTIONARY
  5
A880
102
{ACAD_REACTORS
330
A421
102
}
330
A421
100
AcDbDictionary
281
     1
  0
DICTIONARY
  5
A899
102
{ACAD_REACTORS
330
A421
102
}
330
A421
100
AcDbDictionary
281
     1
  3
Imperial24
350
A89A
  0
DICTIONARY
  5
A422
102
{ACAD_REACTORS
330
A421
102
}
330
A421
100
AcDbDictionary
281
     1
  0
DICTIONARY
  5
A42E
102
{ACAD_REACTORS
330
A421
102
}
330
A421
100
AcDbDictionary
281
     1
  3
Model
350
A89B
  3
レイアウト1
350
A89C
  0
DICTIONARY
  5
A84E
102
{ACAD_REACTORS
330
A421
102
}
330
A421
100
AcDbDictionary
281
     1
  3
ByBlock
350
A857
  3
ByLayer
350
A84F
  3
Global
350
A85F
  0
DICTIONARY
  5
A895
102
{ACAD_REACTORS
330
A421
102
}
330
A421
100
AcDbDictionary
281
     1
  3
Standard
350
A896
  0
DICTIONARY
  5
A42B
102
{ACAD_REACTORS
330
A421
102
}
330
A421
100
AcDbDictionary
281
     1
  3
STANDARD
350
A42C
  0
DICTIONARY
  5
A42D
102
{ACAD_REACTORS
330
A421
102
}
330
A421
100
AcDbDictionary
281
     1
  0
ACDBDICTIONARYWDFLT
  5
A84C
102
{ACAD_REACTORS
330
A421
102
}
330
A421
100
AcDbDictionary
281
     1
  3
Normal
350
A84D
100
AcDbDictionaryWithDefault
340
A84D
  0
DICTIONARY
  5
A883
102
{ACAD_REACTORS
330
A421
102
}
330
A421
100
AcDbDictionary
281
     1
  3
A0
350
A884
  3
A1
350
A885
  3
A2
350
A886
  3
A3
350
A887
  3
A4
350
A888
  3
A5
350
A889
  3
A6
350
A88A
  3
A7
350
A88B
  3
A8
350
A88C
  3
A9
350
A88D
  3
B0
350
A88E
  3
B1
350
A88F
  3
B2
350
A890
  3
B3
350
A891
  3
B4
350
A892
  3
B5
350
A893
  3
B6
350
A894
  0
DICTIONARY
  5
A897
102
{ACAD_REACTORS
330
A421
102
}
330
A421
100
AcDbDictionary
281
     1
  3
Imperial24
350
A898
  0
DICTIONARY
  5
A881
102
{ACAD_REACTORS
330
A421
102
}
330
A421
100
AcDbDictionary
281
     1
  3
Standard
350
A882
  0
DICTIONARY
  5
A867
102
{ACAD_REACTORS
330
A421
102
}
330
A421
100
AcDbDictionary
281
     1
  3
2dWireframe
350
A86D
  3
Basic
350
A86C
  3
Brighten
350
A873
  3
ColorChange
350
A877
  3
Conceptual
350
A870
  3
Dim
350
A872
  3
EdgeColorOff
350
A87F
  3
Facepattern
350
A876
  3
Flat
350
A868
  3
FlatWithEdges
350
A869
  3
Gouraud
350
A86A
  3
GouraudWithEdges
350
A86B
  3
Hidden
350
A86F
  3
JitterOff
350
A87D
  3
Linepattern
350
A875
  3
OverhangOff
350
A87E
  3
Realistic
350
A871
  3
Shaded
350
A87C
  3
Shaded with edges
350
A87B
  3
Shades of Gray
350
A878
  3
Sketchy
350
A879
  3
Thicken
350
A874
  3
Wireframe
350
A86E
  3
X-Ray
350
A87A
  0
XRECORD
  5
A8BC
102
{ACAD_REACTORS
330
A421
102
}
330
A421
100
AcDbXrecord
280
     1
 90
        1
330
A882
  0
DICTIONARY
  5
A8AF
102
{ACAD_REACTORS
330
A421
102
}
330
A421
100
AcDbDictionary
281
     1
  3
CANNOSCALE
350
A8B4
  3
CMLEADERSTYLE
350
A8B1
  3
CTABLESTYLE
350
A8B0
  3
CVIEWDETAILSTYLE
350
A8B2
  3
CVIEWSECTIONSTYLE
350
A8B3
  3
DIMASSOC
350
A8B7
  3
INDEXCTL
350
A8B6
  3
SORTENTS
350
A8B5
  3
XCLIPFRAME
350
A8B8
  0
XRECORD
  5
A8BD
102
{ACAD_REACTORS
330
A421
102
}
330
A421
100
AcDbXrecord
280
     1
  1
DWGPROPS COOKIE
  2

  3

  4

  6

  7

  8
Yoshitsune
  9

300
=
301
=
302
=
303
=
304
=
305
=
306
=
307
=
308
=
309
=
 40
0.0634313888888889
 41
2451301.429808218
 42
2457192.689932998
  1

 90
        0
  0
XRECORD
  5
A8A0
102
{ACAD_REACTORS
330
A89F
102
}
330
A89F
100
AcDbXrecord
280
     1
290
     1
  0
XRECORD
  5
A8A2
102
{ACAD_REACTORS
330
A8A1
102
}
330
A8A1
100
AcDbXrecord
280
     1
290
     1
  0
XRECORD
  5
A8A4
102
{ACAD_REACTORS
330
A8A3
102
}
330
A8A3
100
AcDbXrecord
280
     1
290
     1
  0
XRECORD
  5
A8A6
102
{ACAD_REACTORS
330
A8A5
102
}
330
A8A5
100
AcDbXrecord
280
     1
290
     1
  0
XRECORD
  5
A8A8
102
{ACAD_REACTORS
330
A8A7
102
}
330
A8A7
100
AcDbXrecord
280
     1
290
     1
  0
XRECORD
  5
A8AA
102
{ACAD_REACTORS
330
A8A9
102
}
330
A8A9
100
AcDbXrecord
280
     1
290
     1
  0
XRECORD
  5
A8AC
102
{ACAD_REACTORS
330
A8AB
102
}
330
A8AB
100
AcDbXrecord
280
     1
290
     1
  0
XRECORD
  5
A8AE
102
{ACAD_REACTORS
330
A8AD
102
}
330
A8AD
100
AcDbXrecord
280
     1
290
     1
  0
XRECORD
  5
A848
102
{ACAD_REACTORS
330
A7AA
102
}
330
A7AA
100
AcDbXrecord
280
     1
340
A433
  0
XRECORD
  5
A847
102
{ACAD_REACTORS
330
A7A8
102
}
330
A7A8
100
AcDbXrecord
280
     1
340
A42F
  0
ACDBDETAILVIEWSTYLE
  5
A89A
102
{ACAD_XDICTIONARY
360
A8F5
102
}
102
{ACAD_REACTORS
330
A899
102
}
330
A899
100
AcDbModelDocViewStyle
 70
     0
  3
Imperial24
290
     0
100
AcDbDetailViewStyle
 70
     0
 71
     0
 90
        3
 71
     1
340
A426
 40
0.24
340
0
 40
0.24
300

 40
0.36
280
     3
 71
     2
340
A42A
 90
       25
 71
     3
340
A426
 40
0.24
 90
        1
 40
0.75
 90
        1
300
%<\AcVar ViewType \f "%tc1">% %<\AcVar ViewDetailId>%\PSCALE %<\AcVar ViewScale \f "%sn">%
 71
     4
340
A42A
 90
       25
340
A42A
 90
       25
280
     0
  0
LAYOUT
  5
A89B
102
{ACAD_XDICTIONARY
360
A8F7
102
}
102
{ACAD_REACTORS
330
A42E
102
}
330
A42E
100
AcDbPlotSettings
  1

  2
Canon LBP9100C
  4

  6

 40
0.0
 41
0.0
 42
0.0
 43
0.0
 44
0.0
 45
0.0
 46
0.0
 47
0.0
 48
0.0
 49
0.0
140
0.0
141
0.0
142
1.0
143
1.0
 70
  1712
 72
     0
 73
     0
 74
     0
  7

 75
     0
147
1.0
148
0.0
149
0.0
100
AcDbLayout
  1
Model
 70
     1
 71
     0
 10
0.0
 20
0.0
 11
12.0
 21
9.0
 12
0.0
 22
0.0
 32
0.0
 14
0.0
 24
0.0
 34
0.0
 15
0.0
 25
0.0
 35
0.0
146
0.0
 13
0.0
 23
0.0
 33
0.0
 16
1.0
 26
0.0
 36
0.0
 17
0.0
 27
1.0
 37
0.0
 76
     0
330
A433
331
A846
  0
LAYOUT
  5
A89C
102
{ACAD_XDICTIONARY
360
A8F9
102
}
102
{ACAD_REACTORS
330
A42E
102
}
330
A42E
100
AcDbPlotSettings
  1

  2
Canon LBP9100C
  4

  6

 40
0.0
 41
0.0
 42
0.0
 43
0.0
 44
0.0
 45
0.0
 46
0.0
 47
0.0
 48
0.0
 49
0.0
140
0.0
141
0.0
142
1.0
143
1.0
 70
   688
 72
     0
 73
     0
 74
     5
  7

 75
    16
147
1.0
148
0.0
149
0.0
100
AcDbLayout
  1
レイアウト1
 70
     0
 71
     1
 10
0.0
 20
0.0
 11
420.0
 21
297.0
 12
0.0
 22
0.0
 32
0.0
 14
1.000000000000000E+20
 24
1.000000000000000E+20
 34
1.000000000000000E+20
 15
-1.000000000000000E+20
 25
-1.000000000000000E+20
 35
-1.000000000000000E+20
146
0.0
 13
0.0
 23
0.0
 33
0.0
 16
1.0
 26
0.0
 36
0.0
 17
0.0
 27
1.0
 37
0.0
 76
     0
330
A42F
  0
MATERIAL
  5
A857
102
{ACAD_XDICTIONARY
360
A858
102
}
102
{ACAD_REACTORS
330
A84E
102
}
330
A84E
100
AcDbMaterial
  1
ByBlock
 72
     0
 43
0.0208333333333333
 43
0.0
 43
0.0
 43
0.0
 43
0.0
 43
0.0208333333333333
 43
0.0
 43
0.0
 43
0.0
 43
0.0
 43
1.0
 43
0.0
 43
0.0
 43
0.0
 43
0.0
 43
1.0
 77
     0
 47
0.0208333333333333
 47
0.0
 47
0.0
 47
0.0
 47
0.0
 47
0.0208333333333333
 47
0.0
 47
0.0
 47
0.0
 47
0.0
 47
1.0
 47
0.0
 47
0.0
 47
0.0
 47
0.0
 47
1.0
171
     0
 49
0.0208333333333333
 49
0.0
 49
0.0
 49
0.0
 49
0.0
 49
0.0208333333333333
 49
0.0
 49
0.0
 49
0.0
 49
0.0
 49
1.0
 49
0.0
 49
0.0
 49
0.0
 49
0.0
 49
1.0
175
     0
142
0.0208333333333333
142
0.0
142
0.0
142
0.0
142
0.0
142
0.0208333333333333
142
0.0
142
0.0
142
0.0
142
0.0
142
1.0
142
0.0
142
0.0
142
0.0
142
0.0
142
1.0
179
     0
144
0.0208333333333333
144
0.0
144
0.0
144
0.0
144
0.0
144
0.0208333333333333
144
0.0
144
0.0
144
0.0
144
0.0
144
1.0
144
0.0
144
0.0
144
0.0
144
0.0
144
1.0
147
0.0208333333333333
147
0.0
147
0.0
147
0.0
147
0.0
147
0.0208333333333333
147
0.0
147
0.0
147
0.0
147
0.0
147
1.0
147
0.0
147
0.0
147
0.0
147
0.0
147
1.0
  0
MATERIAL
  5
A84F
102
{ACAD_XDICTIONARY
360
A850
102
}
102
{ACAD_REACTORS
330
A84E
102
}
330
A84E
100
AcDbMaterial
  1
ByLayer
 72
     0
 43
0.0208333333333333
 43
0.0
 43
0.0
 43
0.0
 43
0.0
 43
0.0208333333333333
 43
0.0
 43
0.0
 43
0.0
 43
0.0
 43
1.0
 43
0.0
 43
0.0
 43
0.0
 43
0.0
 43
1.0
 77
     0
 47
0.0208333333333333
 47
0.0
 47
0.0
 47
0.0
 47
0.0
 47
0.0208333333333333
 47
0.0
 47
0.0
 47
0.0
 47
0.0
 47
1.0
 47
0.0
 47
0.0
 47
0.0
 47
0.0
 47
1.0
171
     0
 49
0.0208333333333333
 49
0.0
 49
0.0
 49
0.0
 49
0.0
 49
0.0208333333333333
 49
0.0
 49
0.0
 49
0.0
 49
0.0
 49
1.0
 49
0.0
 49
0.0
 49
0.0
 49
0.0
 49
1.0
175
     0
142
0.0208333333333333
142
0.0
142
0.0
142
0.0
142
0.0
142
0.0208333333333333
142
0.0
142
0.0
142
0.0
142
0.0
142
1.0
142
0.0
142
0.0
142
0.0
142
0.0
142
1.0
179
     0
144
0.0208333333333333
144
0.0
144
0.0
144
0.0
144
0.0
144
0.0208333333333333
144
0.0
144
0.0
144
0.0
144
0.0
144
1.0
144
0.0
144
0.0
144
0.0
144
0.0
144
1.0
147
0.0208333333333333
147
0.0
147
0.0
147
0.0
147
0.0
147
0.0208333333333333
147
0.0
147
0.0
147
0.0
147
0.0
147
1.0
147
0.0
147
0.0
147
0.0
147
0.0
147
1.0
  0
MATERIAL
  5
A85F
102
{ACAD_XDICTIONARY
360
A860
102
}
102
{ACAD_REACTORS
330
A84E
102
}
330
A84E
100
AcDbMaterial
  1
Global
 72
     0
 43
0.0208333333333333
 43
0.0
 43
0.0
 43
0.0
 43
0.0
 43
0.0208333333333333
 43
0.0
 43
0.0
 43
0.0
 43
0.0
 43
1.0
 43
0.0
 43
0.0
 43
0.0
 43
0.0
 43
1.0
 77
     0
 47
0.0208333333333333
 47
0.0
 47
0.0
 47
0.0
 47
0.0
 47
0.0208333333333333
 47
0.0
 47
0.0
 47
0.0
 47
0.0
 47
1.0
 47
0.0
 47
0.0
 47
0.0
 47
0.0
 47
1.0
171
     0
 49
0.0208333333333333
 49
0.0
 49
0.0
 49
0.0
 49
0.0
 49
0.0208333333333333
 49
0.0
 49
0.0
 49
0.0
 49
0.0
 49
1.0
 49
0.0
 49
0.0
 49
0.0
 49
0.0
 49
1.0
175
     0
142
0.0208333333333333
142
0.0
142
0.0
142
0.0
142
0.0
142
0.0208333333333333
142
0.0
142
0.0
142
0.0
142
0.0
142
1.0
142
0.0
142
0.0
142
0.0
142
0.0
142
1.0
179
     0
144
0.0208333333333333
144
0.0
144
0.0
144
0.0
144
0.0
144
0.0208333333333333
144
0.0
144
0.0
144
0.0
144
0.0
144
1.0
144
0.0
144
0.0
144
0.0
144
0.0
144
1.0
147
0.0208333333333333
147
0.0
147
0.0
147
0.0
147
0.0
147
0.0208333333333333
147
0.0
147
0.0
147
0.0
147
0.0
147
1.0
147
0.0
147
0.0
147
0.0
147
0.0
147
1.0
  0
MLEADERSTYLE
  5
A896
102
{ACAD_REACTORS
330
A895
102
}
330
A895
100
AcDbMLeaderStyle
170
     2
171
     1
172
     0
 90
        2
 40
0.0
 41
0.0
173
     1
 91
-1056964608
340
A428
 92
       -2
290
     1
 42
0.09
291
     1
 43
0.36
  3
Standard
 44
0.18
300

342
A426
174
     1
178
     6
175
     1
176
     0
 93
-1056964608
 45
0.18
292
     0
297
     0
 46
0.18
 94
-1056964608
 47
1.0
 49
1.0
140
1.0
293
     1
141
0.0
294
     1
177
     0
142
1.0
295
     0
296
     0
143
0.125
1001
ACAD_MLEADERVER
1070
     2
  0
MLINESTYLE
  5
A42C
102
{ACAD_REACTORS
330
A42B
102
}
330
A42B
100
AcDbMlineStyle
  2
STANDARD
 70
     0
  3

 62
   256
 51
90.0
 52
90.0
 71
     2
 49
0.5
 62
   256
  6
BYLAYER
 49
-0.5
 62
   256
  6
BYLAYER
  0
ACDBPLACEHOLDER
  5
A84D
102
{ACAD_REACTORS
330
A84C
102
}
330
A84C
  0
SCALE
  5
A884
102
{ACAD_REACTORS
330
A883
102
}
330
A883
100
AcDbScale
 70
     0
300
1:1
140
1.0
141
1.0
290
     1
  0
SCALE
  5
A885
102
{ACAD_REACTORS
330
A883
102
}
330
A883
100
AcDbScale
 70
     0
300
1/128" = 1'-0"
140
0.0078125
141
12.0
290
     0
  0
SCALE
  5
A886
102
{ACAD_REACTORS
330
A883
102
}
330
A883
100
AcDbScale
 70
     0
300
1/64" = 1'-0"
140
0.015625
141
12.0
290
     0
  0
SCALE
  5
A887
102
{ACAD_REACTORS
330
A883
102
}
330
A883
100
AcDbScale
 70
     0
300
1/32" = 1'-0"
140
0.03125
141
12.0
290
     0
  0
SCALE
  5
A888
102
{ACAD_REACTORS
330
A883
102
}
330
A883
100
AcDbScale
 70
     0
300
1/16" = 1'-0"
140
0.0625
141
12.0
290
     0
  0
SCALE
  5
A889
102
{ACAD_REACTORS
330
A883
102
}
330
A883
100
AcDbScale
 70
     0
300
3/32" = 1'-0"
140
0.09375
141
12.0
290
     0
  0
SCALE
  5
A88A
102
{ACAD_REACTORS
330
A883
102
}
330
A883
100
AcDbScale
 70
     0
300
1/8" = 1'-0"
140
0.125
141
12.0
290
     0
  0
SCALE
  5
A88B
102
{ACAD_REACTORS
330
A883
102
}
330
A883
100
AcDbScale
 70
     0
300
3/16" = 1'-0"
140
0.1875
141
12.0
290
     0
  0
SCALE
  5
A88C
102
{ACAD_REACTORS
330
A883
102
}
330
A883
100
AcDbScale
 70
     0
300
1/4" = 1'-0"
140
0.25
141
12.0
290
     0
  0
SCALE
  5
A88D
102
{ACAD_REACTORS
330
A883
102
}
330
A883
100
AcDbScale
 70
     0
300
3/8" = 1'-0"
140
0.375
141
12.0
290
     0
  0
SCALE
  5
A88E
102
{ACAD_REACTORS
330
A883
102
}
330
A883
100
AcDbScale
 70
     0
300
1/2" = 1'-0"
140
0.5
141
12.0
290
     0
  0
SCALE
  5
A88F
102
{ACAD_REACTORS
330
A883
102
}
330
A883
100
AcDbScale
 70
     0
300
3/4" = 1'-0"
140
0.75
141
12.0
290
     0
  0
SCALE
  5
A890
102
{ACAD_REACTORS
330
A883
102
}
330
A883
100
AcDbScale
 70
     0
300
1" = 1'-0"
140
1.0
141
12.0
290
     0
  0
SCALE
  5
A891
102
{ACAD_REACTORS
330
A883
102
}
330
A883
100
AcDbScale
 70
     0
300
1-1/2" = 1'-0"
140
1.5
141
12.0
290
     0
  0
SCALE
  5
A892
102
{ACAD_REACTORS
330
A883
102
}
330
A883
100
AcDbScale
 70
     0
300
3" = 1'-0"
140
3.0
141
12.0
290
     0
  0
SCALE
  5
A893
102
{ACAD_REACTORS
330
A883
102
}
330
A883
100
AcDbScale
 70
     0
300
6" = 1'-0"
140
6.0
141
12.0
290
     0
  0
SCALE
  5
A894
102
{ACAD_REACTORS
330
A883
102
}
330
A883
100
AcDbScale
 70
     0
300
1'-0" = 1'-0"
140
12.0
141
12.0
290
     0
  0
ACDBSECTIONVIEWSTYLE
  5
A898
102
{ACAD_XDICTIONARY
360
A8F3
102
}
102
{ACAD_REACTORS
330
A897
102
}
330
A897
100
AcDbModelDocViewStyle
 70
     0
  3
Imperial24
290
     0
100
AcDbSectionViewStyle
 70
     0
 71
     0
 90
       78
 71
     1
340
A426
 40
0.24
340
0
340
0
 40
0.24
300
I, O, Q, S, X, Z
 40
0.48
 90
        3
 40
0.18
 90
        1
 71
     2
340
A42A
 90
       25
340
A42A
 90
       50
 40
0.24
 40
0.0
 40
0.24
 71
     3
340
A426
 40
0.24
 90
        1
 40
0.75
 90
        1
300
%<\AcVar ViewType \f "%tc1">% %<\AcVar ViewSectionStartId>%-%<\AcVar ViewSectionEndId>%\PSCALE %<\AcVar ViewScale \f "%sn">%
 71
     4
300
ANSI31
 40
1.0
 90
        0
290
     0
290
     0
 90
        6
 40
0.0
 40
1.570796326794896
 40
0.2617993877991494
 40
1.308996938995747
 40
-0.2617993877991494
 40
1.832595714594046
  0
TABLESTYLE
  5
A882
102
{ACAD_XDICTIONARY
360
A8BA
102
}
102
{ACAD_REACTORS
330
A881
102
}
330
A881
100
AcDbTableStyle
  3
Standard
 70
     0
 71
     0
 40
0.06
 41
0.06
280
     0
281
     0
  7
STANDARD
140
0.18
170
     2
 62
     0
 63
     7
283
     0
274
    -2
284
     1
 64
     0
275
    -2
285
     1
 65
     0
276
    -2
286
     1
 66
     0
277
    -2
287
     1
 67
     0
278
    -2
288
     1
 68
     0
279
    -2
289
     1
 69
     0
  7
STANDARD
140
0.25
170
     5
 62
     0
 63
     7
283
     0
274
    -2
284
     1
 64
     0
275
    -2
285
     1
 65
     0
276
    -2
286
     1
 66
     0
277
    -2
287
     1
 67
     0
278
    -2
288
     1
 68
     0
279
    -2
289
     1
 69
     0
  7
STANDARD
140
0.18
170
     5
 62
     0
 63
     7
283
     0
274
    -2
284
     1
 64
     0
275
    -2
285
     1
 65
     0
276
    -2
286
     1
 66
     0
277
    -2
287
     1
 67
     0
278
    -2
288
     1
 68
     0
279
    -2
289
     1
 69
     0
  0
VISUALSTYLE
  5
A86D
102
{ACAD_XDICTIONARY
360
A8CB
102
}
102
{ACAD_REACTORS
330
A867
102
}
330
A867
100
AcDbVisualStyle
  2
2dWireframe
 70
     4
 71
     0
 72
     2
 73
     0
 90
        0
 40
-0.6
 41
-30.0
 62
     5
 63
     7
 74
     1
 91
        4
 64
     7
 65
   257
 75
     1
175
     1
 42
1.0
 92
        0
 66
   257
 43
1.0
 76
     1
 77
     6
 78
     2
 67
     7
 79
     5
170
     0
171
     0
290
     0
174
     0
 93
        1
 44
0.0
173
     0
291
     0
 45
0.0
1001
ACAD
1000
AcDbSavedByObjectVersion
1070
     0
  0
VISUALSTYLE
  5
A86C
102
{ACAD_XDICTIONARY
360
A8C9
102
}
102
{ACAD_REACTORS
330
A867
102
}
330
A867
100
AcDbVisualStyle
  2
Basic
 70
     7
 71
     1
 72
     0
 73
     1
 90
        0
 40
-0.6
 41
-30.0
 62
     5
 63
     7
 74
     0
 91
        4
 64
     7
 65
   257
 75
     1
175
     1
 42
1.0
 92
        8
 66
     7
 43
1.0
 76
     1
 77
     6
 78
     2
 67
     7
 79
     5
170
     0
171
     0
290
     0
174
     0
 93
        1
 44
0.0
173
     0
291
     1
 45
0.0
1001
ACAD
1000
AcDbSavedByObjectVersion
1070
     0
  0
VISUALSTYLE
  5
A873
102
{ACAD_XDICTIONARY
360
A8D7
102
}
102
{ACAD_REACTORS
330
A867
102
}
330
A867
100
AcDbVisualStyle
  2
Brighten
 70
    12
 71
     2
 72
     2
 73
     0
 90
        0
 40
-0.6
 41
-30.0
 62
     5
 63
     7
 74
     1
 91
        4
 64
     7
 65
   257
 75
     1
175
     1
 42
1.0
 92
        8
 66
     7
 43
1.0
 76
     1
 77
     6
 78
     2
 67
     7
 79
     5
170
     0
171
     0
290
     0
174
     0
 93
        1
 44
50.0
173
     0
291
     1
 45
0.0
1001
ACAD
1000
AcDbSavedByObjectVersion
1070
     0
  0
VISUALSTYLE
  5
A877
102
{ACAD_XDICTIONARY
360
A8DF
102
}
102
{ACAD_REACTORS
330
A867
102
}
330
A867
100
AcDbVisualStyle
  2
ColorChange
 70
    16
 71
     2
 72
     2
 73
     3
 90
        0
 40
-0.6
 41
-30.0
 62
     5
 63
     8
 74
     1
 91
        4
 64
     7
 65
   257
 75
     1
175
     1
 42
1.0
 92
        8
 66
     8
 43
1.0
 76
     1
 77
     6
 78
     2
 67
     7
 79
     5
170
     0
171
     0
290
     0
174
     0
 93
        1
 44
0.0
173
     0
291
     1
 45
0.0
1001
ACAD
1000
AcDbSavedByObjectVersion
1070
     0
  0
VISUALSTYLE
  5
A870
102
{ACAD_XDICTIONARY
360
A8D1
102
}
102
{ACAD_REACTORS
330
A867
102
}
330
A867
100
AcDbVisualStyle
  2
Conceptual
 70
     9
 71
     3
 72
     2
 73
     0
 90
        0
 40
-0.6
 41
-30.0
 62
     5
 63
     7
 74
     2
 91
        2
 64
     7
 65
   257
 75
     1
175
     1
 42
179.0
 92
        8
 66
     7
 43
1.0
 76
     1
 77
     6
 78
     2
 67
     7
 79
     3
170
     0
171
     0
290
     0
174
     0
 93
        1
 44
0.0
173
     0
291
     0
 45
0.0
1001
ACAD
1000
AcDbSavedByObjectVersion
1070
     0
  0
VISUALSTYLE
  5
A872
102
{ACAD_XDICTIONARY
360
A8D5
102
}
102
{ACAD_REACTORS
330
A867
102
}
330
A867
100
AcDbVisualStyle
  2
Dim
 70
    11
 71
     2
 72
     2
 73
     0
 90
        0
 40
-0.6
 41
-30.0
 62
     5
 63
     7
 74
     1
 91
        4
 64
     7
 65
   257
 75
     1
175
     1
 42
1.0
 92
        8
 66
     7
 43
1.0
 76
     1
 77
     6
 78
     2
 67
     7
 79
     5
170
     0
171
     0
290
     0
174
     0
 93
        1
 44
-50.0
173
     0
291
     1
 45
0.0
1001
ACAD
1000
AcDbSavedByObjectVersion
1070
     0
  0
VISUALSTYLE
  5
A87F
102
{ACAD_XDICTIONARY
360
A8EF
102
}
102
{ACAD_REACTORS
330
A867
102
}
330
A867
100
AcDbVisualStyle
  2
EdgeColorOff
 70
    22
 71
     2
 72
     2
 73
     0
 90
        0
 40
-0.6
 41
-30.0
 62
     5
 63
     7
 74
     1
 91
        4
 64
     7
 65
   257
 75
     1
175
     1
 42
1.0
 92
        8
 66
     7
 43
1.0
 76
     1
 77
     6
 78
     2
 67
     7
 79
     5
170
     0
171
     0
290
     0
174
     0
 93
        1
 44
0.0
173
     0
291
     1
 45
0.0
1001
ACAD
1000
AcDbSavedByObjectVersion
1070
     0
  0
VISUALSTYLE
  5
A876
102
{ACAD_XDICTIONARY
360
A8DD
102
}
102
{ACAD_REACTORS
330
A867
102
}
330
A867
100
AcDbVisualStyle
  2
Facepattern
 70
    15
 71
     2
 72
     2
 73
     0
 90
        0
 40
-0.6
 41
-30.0
 62
     5
 63
     7
 74
     1
 91
        4
 64
     7
 65
   257
 75
     1
175
     1
 42
1.0
 92
        8
 66
     7
 43
1.0
 76
     1
 77
     6
 78
     2
 67
     7
 79
     5
170
     0
171
     0
290
     0
174
     0
 93
        1
 44
0.0
173
     0
291
     1
 45
0.0
1001
ACAD
1000
AcDbSavedByObjectVersion
1070
     0
  0
VISUALSTYLE
  5
A868
102
{ACAD_XDICTIONARY
360
A8C1
102
}
102
{ACAD_REACTORS
330
A867
102
}
330
A867
100
AcDbVisualStyle
  2
Flat
 70
     0
 71
     2
 72
     1
 73
     1
 90
        2
 40
-0.6
 41
30.0
 62
     5
 63
     7
 74
     0
 91
        0
 64
     7
 65
   257
 75
     1
175
     1
 42
1.0
 92
        8
 66
     7
 43
1.0
 76
     1
 77
     6
 78
     2
 67
     7
 79
     5
170
     0
171
     0
290
     0
174
     0
 93
       13
 44
0.0
173
     0
291
     1
 45
0.0
1001
ACAD
1000
AcDbSavedByObjectVersion
1070
     0
  0
VISUALSTYLE
  5
A869
102
{ACAD_XDICTIONARY
360
A8C3
102
}
102
{ACAD_REACTORS
330
A867
102
}
330
A867
100
AcDbVisualStyle
  2
FlatWithEdges
 70
     1
 71
     2
 72
     1
 73
     1
 90
        2
 40
-0.6
 41
30.0
 62
     5
 63
     7
 74
     1
 91
        0
 64
     7
 65
   257
 75
     1
175
     1
 42
1.0
 92
        0
 66
   257
 43
1.0
 76
     1
 77
     6
 78
     2
 67
     7
 79
     5
170
     0
171
     0
290
     0
174
     0
 93
       13
 44
0.0
173
     0
291
     1
 45
0.0
1001
ACAD
1000
AcDbSavedByObjectVersion
1070
     0
  0
VISUALSTYLE
  5
A86A
102
{ACAD_XDICTIONARY
360
A8C5
102
}
102
{ACAD_REACTORS
330
A867
102
}
330
A867
100
AcDbVisualStyle
  2
Gouraud
 70
     2
 71
     2
 72
     2
 73
     1
 90
        2
 40
-0.6
 41
30.0
 62
     5
 63
     7
 74
     0
 91
        0
 64
     7
 65
   257
 75
     1
175
     1
 42
1.0
 92
        0
 66
     7
 43
1.0
 76
     1
 77
     6
 78
     2
 67
     7
 79
     5
170
     0
171
     0
290
     0
174
     0
 93
       13
 44
0.0
173
     0
291
     1
 45
0.0
1001
ACAD
1000
AcDbSavedByObjectVersion
1070
     0
  0
VISUALSTYLE
  5
A86B
102
{ACAD_XDICTIONARY
360
A8C7
102
}
102
{ACAD_REACTORS
330
A867
102
}
330
A867
100
AcDbVisualStyle
  2
GouraudWithEdges
 70
     3
 71
     2
 72
     2
 73
     1
 90
        2
 40
-0.6
 41
30.0
 62
     5
 63
     7
 74
     1
 91
        0
 64
     7
 65
   257
 75
     1
175
     1
 42
1.0
 92
        0
 66
   257
 43
1.0
 76
     1
 77
     6
 78
     2
 67
     7
 79
     5
170
     0
171
     0
290
     0
174
     0
 93
       13
 44
0.0
173
     0
291
     1
 45
0.0
1001
ACAD
1000
AcDbSavedByObjectVersion
1070
     0
  0
VISUALSTYLE
  5
A86F
102
{ACAD_XDICTIONARY
360
A8CF
102
}
102
{ACAD_REACTORS
330
A867
102
}
330
A867
100
AcDbVisualStyle
  2
Hidden
 70
     6
 71
     1
 72
     2
 73
     2
 90
        0
 40
-0.6
 41
-30.0
 62
     5
 63
     7
 74
     2
 91
        2
 64
     7
 65
   257
 75
     2
175
     1
 42
40.0
 92
        0
 66
   257
 43
1.0
 76
     1
 77
     6
 78
     2
 67
     7
 79
     3
170
     0
171
     0
290
     0
174
     0
 93
        1
 44
0.0
173
     0
291
     0
 45
0.0
1001
ACAD
1000
AcDbSavedByObjectVersion
1070
     0
  0
VISUALSTYLE
  5
A87D
102
{ACAD_XDICTIONARY
360
A8EB
102
}
102
{ACAD_REACTORS
330
A867
102
}
330
A867
100
AcDbVisualStyle
  2
JitterOff
 70
    20
 71
     2
 72
     2
 73
     0
 90
        0
 40
-0.6
 41
-30.0
 62
     5
 63
     7
 74
     1
 91
        4
 64
     7
 65
   257
 75
     1
175
     1
 42
1.0
 92
       10
 66
     7
 43
1.0
 76
     1
 77
     6
 78
     2
 67
     7
 79
     5
170
     0
171
     0
290
     0
174
     0
 93
        1
 44
0.0
173
     0
291
     1
 45
0.0
1001
ACAD
1000
AcDbSavedByObjectVersion
1070
     0
  0
VISUALSTYLE
  5
A875
102
{ACAD_XDICTIONARY
360
A8DB
102
}
102
{ACAD_REACTORS
330
A867
102
}
330
A867
100
AcDbVisualStyle
  2
Linepattern
 70
    14
 71
     2
 72
     2
 73
     0
 90
        0
 40
-0.6
 41
-30.0
 62
     5
 63
     7
 74
     1
 91
        4
 64
     7
 65
   257
 75
     7
175
     7
 42
1.0
 92
        8
 66
     7
 43
1.0
 76
     1
 77
     6
 78
     2
 67
     7
 79
     5
170
     0
171
     0
290
     0
174
     0
 93
        1
 44
0.0
173
     0
291
     1
 45
0.0
1001
ACAD
1000
AcDbSavedByObjectVersion
1070
     0
  0
VISUALSTYLE
  5
A87E
102
{ACAD_XDICTIONARY
360
A8ED
102
}
102
{ACAD_REACTORS
330
A867
102
}
330
A867
100
AcDbVisualStyle
  2
OverhangOff
 70
    21
 71
     2
 72
     2
 73
     0
 90
        0
 40
-0.6
 41
-30.0
 62
     5
 63
     7
 74
     1
 91
        4
 64
     7
 65
   257
 75
     1
175
     1
 42
1.0
 92
        9
 66
     7
 43
1.0
 76
     1
 77
     6
 78
     2
 67
     7
 79
     5
170
     0
171
     0
290
     0
174
     0
 93
        1
 44
0.0
173
     0
291
     1
 45
0.0
1001
ACAD
1000
AcDbSavedByObjectVersion
1070
     0
  0
VISUALSTYLE
  5
A871
102
{ACAD_XDICTIONARY
360
A8D3
102
}
102
{ACAD_REACTORS
330
A867
102
}
330
A867
100
AcDbVisualStyle
  2
Realistic
 70
     8
 71
     2
 72
     3
 73
     0
 90
        2
 40
-0.6
 41
30.0
 62
     5
 63
     7
 74
     0
 91
        0
 64
     7
 65
   257
 75
     1
175
     1
 42
1.0
 92
        8
 66
   257
 43
1.0
 76
     1
 77
     6
 78
     2
 67
     7
 79
     3
170
     0
171
     0
290
     0
174
     0
 93
       13
 44
0.0
173
     0
291
     0
 45
0.0
1001
ACAD
1000
AcDbSavedByObjectVersion
1070
     0
  0
VISUALSTYLE
  5
A87C
102
{ACAD_XDICTIONARY
360
A8E9
102
}
102
{ACAD_REACTORS
330
A867
102
}
330
A867
100
AcDbVisualStyle
  2
Shaded
 70
    27
 71
     2
 72
     2
 73
     1
 90
        2
 40
-0.6
 41
30.0
 62
     5
 63
     7
 74
     0
 91
        4
 64
     7
 65
   257
 75
     1
175
     1
 42
1.0
 92
        8
 66
   257
 43
1.0
 76
     1
 77
     6
 78
     2
 67
     8
 79
     3
170
     0
171
     0
290
     0
174
     0
 93
        5
 44
0.0
173
     0
291
     0
 45
0.0
1001
ACAD
1000
AcDbSavedByObjectVersion
1070
     0
  0
VISUALSTYLE
  5
A87B
102
{ACAD_XDICTIONARY
360
A8E7
102
}
102
{ACAD_REACTORS
330
A867
102
}
330
A867
100
AcDbVisualStyle
  2
Shaded with edges
 70
    26
 71
     2
 72
     2
 73
     1
 90
        2
 40
-0.6
 41
30.0
 62
     5
 63
     7
 74
     1
 91
       10
 64
     7
 65
   257
 75
     2
175
     1
 42
1.0
 92
        8
 66
   257
 43
1.0
 76
     1
 77
     6
 78
     2
 67
     7
 79
     3
170
     0
171
     0
290
     0
174
     0
 93
        5
 44
0.0
173
     0
291
     0
 45
0.0
1001
ACAD
1000
AcDbSavedByObjectVersion
1070
     0
  0
VISUALSTYLE
  5
A878
102
{ACAD_XDICTIONARY
360
A8E1
102
}
102
{ACAD_REACTORS
330
A867
102
}
330
A867
100
AcDbVisualStyle
  2
Shades of Gray
 70
    23
 71
     2
 72
     2
 73
     3
 90
        0
 40
-0.6
 41
-30.0
 62
     5
 63
     7
 74
     2
 91
        2
 64
     7
 65
     7
 75
     1
175
     1
 42
40.0
 92
        8
 66
     7
 43
1.0
 76
     1
 77
     6
 78
     2
 67
     7
 79
     3
170
     0
171
     0
290
     0
174
     0
 93
        1
 44
0.0
173
     0
291
     0
 45
0.0
1001
ACAD
1000
AcDbSavedByObjectVersion
1070
     0
  0
VISUALSTYLE
  5
A879
102
{ACAD_XDICTIONARY
360
A8E3
102
}
102
{ACAD_REACTORS
330
A867
102
}
330
A867
100
AcDbVisualStyle
  2
Sketchy
 70
    24
 71
     1
 72
     2
 73
     2
 90
        0
 40
-0.6
 41
-30.0
 62
     5
 63
     7
 74
     2
 91
        2
 64
     7
 65
     7
 75
     1
175
     1
 42
40.0
 92
       11
 66
     7
 43
1.0
 76
     1
 77
     6
 78
     2
 67
     7
 79
     6
170
     0
171
     0
290
     0
174
     0
 93
        1
 44
0.0
173
     0
291
     0
 45
0.0
1001
ACAD
1000
AcDbSavedByObjectVersion
1070
     0
  0
VISUALSTYLE
  5
A874
102
{ACAD_XDICTIONARY
360
A8D9
102
}
102
{ACAD_REACTORS
330
A867
102
}
330
A867
100
AcDbVisualStyle
  2
Thicken
 70
    13
 71
     2
 72
     2
 73
     0
 90
        0
 40
-0.6
 41
-30.0
 62
     5
 63
     7
 74
     1
 91
        4
 64
     7
 65
   257
 75
     1
175
     1
 42
1.0
 92
       12
 66
     7
 43
1.0
 76
     1
 77
     6
 78
     2
 67
     7
 79
     5
170
     0
171
     0
290
     0
174
     0
 93
        1
 44
0.0
173
     0
291
     1
 45
0.0
1001
ACAD
1000
AcDbSavedByObjectVersion
1070
     0
  0
VISUALSTYLE
  5
A86E
102
{ACAD_XDICTIONARY
360
A8CD
102
}
102
{ACAD_REACTORS
330
A867
102
}
330
A867
100
AcDbVisualStyle
  2
Wireframe
 70
     5
 71
     0
 72
     2
 73
     0
 90
        0
 40
-0.6
 41
-30.0
 62
     5
 63
     7
 74
     1
 91
        4
 64
     7
 65
   257
 75
     1
175
     1
 42
1.0
 92
        0
 66
   257
 43
1.0
 76
     1
 77
     6
 78
     2
 67
     7
 79
     3
170
     0
171
     0
290
     0
174
     0
 93
        1
 44
0.0
173
     0
291
     0
 45
0.0
1001
ACAD
1000
AcDbSavedByObjectVersion
1070
     0
  0
VISUALSTYLE
  5
A87A
102
{ACAD_XDICTIONARY
360
A8E5
102
}
102
{ACAD_REACTORS
330
A867
102
}
330
A867
100
AcDbVisualStyle
  2
X-Ray
 70
    25
 71
     2
 72
     2
 73
     1
 90
        1
 40
0.5
 41
-30.0
 62
     5
 63
     7
 74
     1
 91
        0
 64
     7
 65
   257
 75
     1
175
     1
 42
1.0
 92
        8
 66
     7
 43
1.0
 76
     1
 77
     6
 78
     2
 67
     7
 79
     3
170
     0
171
     0
290
     0
174
     0
 93
       13
 44
0.0
173
     0
291
     0
 45
0.0
1001
ACAD
1000
AcDbSavedByObjectVersion
1070
     0
  0
DICTIONARYVAR
  5
A8B4
102
{ACAD_REACTORS
330
A8AF
102
}
330
A8AF
100
DictionaryVariables
280
     0
  1
1:1
  0
DICTIONARYVAR
  5
A8B1
102
{ACAD_REACTORS
330
A8AF
102
}
330
A8AF
100
DictionaryVariables
280
     0
  1
STANDARD
  0
DICTIONARYVAR
  5
A8B0
102
{ACAD_REACTORS
330
A8AF
102
}
330
A8AF
100
DictionaryVariables
280
     0
  1
STANDARD
  0
DICTIONARYVAR
  5
A8B2
102
{ACAD_REACTORS
330
A8AF
102
}
330
A8AF
100
DictionaryVariables
280
     0
  1
Imperial24
  0
DICTIONARYVAR
  5
A8B3
102
{ACAD_REACTORS
330
A8AF
102
}
330
A8AF
100
DictionaryVariables
280
     0
  1
Imperial24
  0
DICTIONARYVAR
  5
A8B7
102
{ACAD_REACTORS
330
A8AF
102
}
330
A8AF
100
DictionaryVariables
280
     0
  1
1
  0
DICTIONARYVAR
  5
A8B6
102
{ACAD_REACTORS
330
A8AF
102
}
330
A8AF
100
DictionaryVariables
280
     0
  1
0
  0
DICTIONARYVAR
  5
A8B5
102
{ACAD_REACTORS
330
A8AF
102
}
330
A8AF
100
DictionaryVariables
280
     0
  1
127
  0
DICTIONARYVAR
  5
A8B8
102
{ACAD_REACTORS
330
A8AF
102
}
330
A8AF
100
DictionaryVariables
280
     0
  1
2
  0
DICTIONARY
  5
A8F5
330
A89A
100
AcDbDictionary
280
     1
281
     1
  3
ACAD_XREC_ROUNDTRIP
360
A8F6
  0
DICTIONARY
  5
A8F7
330
A89B
100
AcDbDictionary
280
     1
281
     1
  3
ACAD_XREC_ROUNDTRIP
360
A8F8
  0
DICTIONARY
  5
A8F9
330
A89C
100
AcDbDictionary
280
     1
281
     1
  3
ACAD_XREC_ROUNDTRIP
360
A8FA
  0
DICTIONARY
  5
A858
330
A857
100
AcDbDictionary
280
     1
281
     1
  3
ACAD_XREC_ROUNDTRIP
360
A8BF
  3
BUMPTILE
360
A85A
  3
DIFFUSETILE
360
A859
  3
OPACITYTILE
360
A85D
  3
REFLECTIONTILE
360
A85C
  3
REFRACTIONTILE
360
A85E
  3
SPECULARTILE
360
A85B
  0
DICTIONARY
  5
A850
330
A84F
100
AcDbDictionary
280
     1
281
     1
  3
ACAD_XREC_ROUNDTRIP
360
A8BE
  3
BUMPTILE
360
A852
  3
DIFFUSETILE
360
A851
  3
OPACITYTILE
360
A855
  3
REFLECTIONTILE
360
A854
  3
REFRACTIONTILE
360
A856
  3
SPECULARTILE
360
A853
  0
DICTIONARY
  5
A860
330
A85F
100
AcDbDictionary
280
     1
281
     1
  3
ACAD_XREC_ROUNDTRIP
360
A8C0
  3
BUMPTILE
360
A862
  3
DIFFUSETILE
360
A861
  3
OPACITYTILE
360
A865
  3
REFLECTIONTILE
360
A864
  3
REFRACTIONTILE
360
A866
  3
SPECULARTILE
360
A863
  0
DICTIONARY
  5
A8F3
330
A898
100
AcDbDictionary
280
     1
281
     1
  3
ACAD_XREC_ROUNDTRIP
360
A8F4
  0
DICTIONARY
  5
A8BA
330
A882
100
AcDbDictionary
280
     1
281
     1
  3
ACAD_ROUNDTRIP_2008_TABLESTYLE_CELLSTYLEMAP
360
A8BB
  3
ACAD_XREC_ROUNDTRIP
360
A8F1
  0
DICTIONARY
  5
A8CB
330
A86D
100
AcDbDictionary
280
     1
281
     1
  3
ACAD_XREC_ROUNDTRIP
360
A8CC
  0
DICTIONARY
  5
A8C9
330
A86C
100
AcDbDictionary
280
     1
281
     1
  3
ACAD_XREC_ROUNDTRIP
360
A8CA
  0
DICTIONARY
  5
A8D7
330
A873
100
AcDbDictionary
280
     1
281
     1
  3
ACAD_XREC_ROUNDTRIP
360
A8D8
  0
DICTIONARY
  5
A8DF
330
A877
100
AcDbDictionary
280
     1
281
     1
  3
ACAD_XREC_ROUNDTRIP
360
A8E0
  0
DICTIONARY
  5
A8D1
330
A870
100
AcDbDictionary
280
     1
281
     1
  3
ACAD_XREC_ROUNDTRIP
360
A8D2
  0
DICTIONARY
  5
A8D5
330
A872
100
AcDbDictionary
280
     1
281
     1
  3
ACAD_XREC_ROUNDTRIP
360
A8D6
  0
DICTIONARY
  5
A8EF
330
A87F
100
AcDbDictionary
280
     1
281
     1
  3
ACAD_XREC_ROUNDTRIP
360
A8F0
  0
DICTIONARY
  5
A8DD
330
A876
100
AcDbDictionary
280
     1
281
     1
  3
ACAD_XREC_ROUNDTRIP
360
A8DE
  0
DICTIONARY
  5
A8C1
330
A868
100
AcDbDictionary
280
     1
281
     1
  3
ACAD_XREC_ROUNDTRIP
360
A8C2
  0
DICTIONARY
  5
A8C3
330
A869
100
AcDbDictionary
280
     1
281
     1
  3
ACAD_XREC_ROUNDTRIP
360
A8C4
  0
DICTIONARY
  5
A8C5
330
A86A
100
AcDbDictionary
280
     1
281
     1
  3
ACAD_XREC_ROUNDTRIP
360
A8C6
  0
DICTIONARY
  5
A8C7
330
A86B
100
AcDbDictionary
280
     1
281
     1
  3
ACAD_XREC_ROUNDTRIP
360
A8C8
  0
DICTIONARY
  5
A8CF
330
A86F
100
AcDbDictionary
280
     1
281
     1
  3
ACAD_XREC_ROUNDTRIP
360
A8D0
  0
DICTIONARY
  5
A8EB
330
A87D
100
AcDbDictionary
280
     1
281
     1
  3
ACAD_XREC_ROUNDTRIP
360
A8EC
  0
DICTIONARY
  5
A8DB
330
A875
100
AcDbDictionary
280
     1
281
     1
  3
ACAD_XREC_ROUNDTRIP
360
A8DC
  0
DICTIONARY
  5
A8ED
330
A87E
100
AcDbDictionary
280
     1
281
     1
  3
ACAD_XREC_ROUNDTRIP
360
A8EE
  0
DICTIONARY
  5
A8D3
330
A871
100
AcDbDictionary
280
     1
281
     1
  3
ACAD_XREC_ROUNDTRIP
360
A8D4
  0
DICTIONARY
  5
A8E9
330
A87C
100
AcDbDictionary
280
     1
281
     1
  3
ACAD_XREC_ROUNDTRIP
360
A8EA
  0
DICTIONARY
  5
A8E7
330
A87B
100
AcDbDictionary
280
     1
281
     1
  3
ACAD_XREC_ROUNDTRIP
360
A8E8
  0
DICTIONARY
  5
A8E1
330
A878
100
AcDbDictionary
280
     1
281
     1
  3
ACAD_XREC_ROUNDTRIP
360
A8E2
  0
DICTIONARY
  5
A8E3
330
A879
100
AcDbDictionary
280
     1
281
     1
  3
ACAD_XREC_ROUNDTRIP
360
A8E4
  0
DICTIONARY
  5
A8D9
330
A874
100
AcDbDictionary
280
     1
281
     1
  3
ACAD_XREC_ROUNDTRIP
360
A8DA
  0
DICTIONARY
  5
A8CD
330
A86E
100
AcDbDictionary
280
     1
281
     1
  3
ACAD_XREC_ROUNDTRIP
360
A8CE
  0
DICTIONARY
  5
A8E5
330
A87A
100
AcDbDictionary
280
     1
281
     1
  3
ACAD_XREC_ROUNDTRIP
360
A8E6
  0
XRECORD
  5
A8F6
102
{ACAD_REACTORS
330
A8F5
102
}
330
A8F5
100
AcDbXrecord
280
     1
102
DISPLAYNAME
  1
Imperial24
102
FLAGS
 90
        0
  0
XRECORD
  5
A8F8
102
{ACAD_REACTORS
330
A8F7
102
}
330
A8F7
100
AcDbXrecord
280
     1
102
SHADEPLOT
 70
     0
102
SHADEPLOTRESLEVEL
 70
     2
102
SHADEPLOTCUSTOMDPI
 70
   300
  0
XRECORD
  5
A8FA
102
{ACAD_REACTORS
330
A8F9
102
}
330
A8F9
100
AcDbXrecord
280
     1
102
SHADEPLOT
 70
     0
102
SHADEPLOTRESLEVEL
 70
     2
102
SHADEPLOTCUSTOMDPI
 70
   300
  0
XRECORD
  5
A8BF
102
{ACAD_REACTORS
330
A858
102
}
330
A858
100
AcDbXrecord
280
     1
102
MATERIAL
148
0.0
149
0.0
149
0.0
 93
        0
 94
      127
282
     0
 72
     0
 77
     0
171
     0
175
     0
179
     0
273
     0
  0
XRECORD
  5
A85A
102
{ACAD_REACTORS
330
A858
102
}
330
A858
100
AcDbXrecord
280
     1
270
     1
271
     1
  0
XRECORD
  5
A859
102
{ACAD_REACTORS
330
A858
102
}
330
A858
100
AcDbXrecord
280
     1
270
     1
271
     1
  0
XRECORD
  5
A85D
102
{ACAD_REACTORS
330
A858
102
}
330
A858
100
AcDbXrecord
280
     1
270
     1
271
     1
  0
XRECORD
  5
A85C
102
{ACAD_REACTORS
330
A858
102
}
330
A858
100
AcDbXrecord
280
     1
270
     1
271
     1
  0
XRECORD
  5
A85E
102
{ACAD_REACTORS
330
A858
102
}
330
A858
100
AcDbXrecord
280
     1
270
     1
271
     1
  0
XRECORD
  5
A85B
102
{ACAD_REACTORS
330
A858
102
}
330
A858
100
AcDbXrecord
280
     1
270
     1
271
     1
  0
XRECORD
  5
A8BE
102
{ACAD_REACTORS
330
A850
102
}
330
A850
100
AcDbXrecord
280
     1
102
MATERIAL
148
0.0
149
0.0
149
0.0
 93
        0
 94
      127
282
     0
 72
     0
 77
     0
171
     0
175
     0
179
     0
273
     0
  0
XRECORD
  5
A852
102
{ACAD_REACTORS
330
A850
102
}
330
A850
100
AcDbXrecord
280
     1
270
     1
271
     1
  0
XRECORD
  5
A851
102
{ACAD_REACTORS
330
A850
102
}
330
A850
100
AcDbXrecord
280
     1
270
     1
271
     1
  0
XRECORD
  5
A855
102
{ACAD_REACTORS
330
A850
102
}
330
A850
100
AcDbXrecord
280
     1
270
     1
271
     1
  0
XRECORD
  5
A854
102
{ACAD_REACTORS
330
A850
102
}
330
A850
100
AcDbXrecord
280
     1
270
     1
271
     1
  0
XRECORD
  5
A856
102
{ACAD_REACTORS
330
A850
102
}
330
A850
100
AcDbXrecord
280
     1
270
     1
271
     1
  0
XRECORD
  5
A853
102
{ACAD_REACTORS
330
A850
102
}
330
A850
100
AcDbXrecord
280
     1
270
     1
271
     1
  0
XRECORD
  5
A8C0
102
{ACAD_REACTORS
330
A860
102
}
330
A860
100
AcDbXrecord
280
     1
102
MATERIAL
148
0.0
149
0.0
149
0.0
 93
        0
 94
      127
282
     0
 72
     0
 77
     0
171
     0
175
     0
179
     0
273
     0
  0
XRECORD
  5
A862
102
{ACAD_REACTORS
330
A860
102
}
330
A860
100
AcDbXrecord
280
     1
270
     1
271
     1
  0
XRECORD
  5
A861
102
{ACAD_REACTORS
330
A860
102
}
330
A860
100
AcDbXrecord
280
     1
270
     1
271
     1
  0
XRECORD
  5
A865
102
{ACAD_REACTORS
330
A860
102
}
330
A860
100
AcDbXrecord
280
     1
270
     1
271
     1
  0
XRECORD
  5
A864
102
{ACAD_REACTORS
330
A860
102
}
330
A860
100
AcDbXrecord
280
     1
270
     1
271
     1
  0
XRECORD
  5
A866
102
{ACAD_REACTORS
330
A860
102
}
330
A860
100
AcDbXrecord
280
     1
270
     1
271
     1
  0
XRECORD
  5
A863
102
{ACAD_REACTORS
330
A860
102
}
330
A860
100
AcDbXrecord
280
     1
270
     1
271
     1
  0
XRECORD
  5
A8F4
102
{ACAD_REACTORS
330
A8F3
102
}
330
A8F3
100
AcDbXrecord
280
     1
102
DISPLAYNAME
  1
Imperial24
102
FLAGS
 90
        0
  0
CELLSTYLEMAP
  5
A8BB
102
{ACAD_REACTORS
330
A8BA
102
}
330
A8BA
100
AcDbCellStyleMap
 90
        3
300
CELLSTYLE
  1
TABLEFORMAT_BEGIN
 90
        5
170
     1
 91
        0
 92
    32768
 62
   257
 93
        1
300
CONTENTFORMAT
  1
CONTENTFORMAT_BEGIN
 90
        0
 91
        0
 92
      512
 93
        0
300

 40
0.0
140
1.0
 94
        5
 62
     0
340
A426
144
0.25
309
CONTENTFORMAT_END
171
     0
 94
        0
309
TABLEFORMAT_END
  1
CELLSTYLE_BEGIN
 90
        1
 91
        1
300
_TITLE
309
CELLSTYLE_END
300
CELLSTYLE
  1
TABLEFORMAT_BEGIN
 90
        5
170
     1
 91
        0
 92
        0
 62
   257
 93
        1
300
CONTENTFORMAT
  1
CONTENTFORMAT_BEGIN
 90
        0
 91
        0
 92
      512
 93
        0
300

 40
0.0
140
1.0
 94
        5
 62
     0
340
A426
144
0.18
309
CONTENTFORMAT_END
171
     0
 94
        0
309
TABLEFORMAT_END
  1
CELLSTYLE_BEGIN
 90
        2
 91
        1
300
_HEADER
309
CELLSTYLE_END
300
CELLSTYLE
  1
TABLEFORMAT_BEGIN
 90
        5
170
     1
 91
        0
 92
        0
 62
   257
 93
        1
300
CONTENTFORMAT
  1
CONTENTFORMAT_BEGIN
 90
        0
 91
        0
 92
      512
 93
        0
300

 40
0.0
140
1.0
 94
        2
 62
     0
340
A426
144
0.18
309
CONTENTFORMAT_END
171
     0
 94
        0
309
TABLEFORMAT_END
  1
CELLSTYLE_BEGIN
 90
        3
 91
        2
300
_DATA
309
CELLSTYLE_END
  0
XRECORD
  5
A8F1
102
{ACAD_REACTORS
330
A8BA
102
}
330
A8BA
100
AcDbXrecord
280
     1
102
ACAD_ROUNDTRIP_PRE2007_TABLESTYLE
 90
      512
 91
        0
  1

 92
      512
 93
        0
  2

 94
      512
 95
        0
  3

  0
XRECORD
  5
A8CC
102
{ACAD_REACTORS
330
A8CB
102
}
330
A8CB
100
AcDbXrecord
280
     1
102
RTVSPost2010Prop28
280
     1
102
RTVSPost2010PropOp28
 70
     1
102
RTVSPost2010Prop29
280
     1
102
RTVSPost2010PropOp29
 70
     1
102
RTVSPost2010Prop30
280
     0
102
RTVSPost2010PropOp30
 70
     1
102
RTVSPost2010Prop31
280
     0
102
RTVSPost2010PropOp31
 70
     1
102
RTVSPost2010Prop32
280
     0
102
RTVSPost2010PropOp32
 70
     1
102
RTVSPost2010Prop33
280
     0
102
RTVSPost2010PropOp33
 70
     1
102
RTVSPost2010Prop34
280
     0
102
RTVSPost2010PropOp34
 70
     1
102
RTVSPost2010Prop35
280
     0
102
RTVSPost2010PropOp35
 70
     1
102
RTVSPost2010Prop36
280
     0
102
RTVSPost2010PropOp36
 70
     1
102
RTVSPost2010Prop37
 90
       50
102
RTVSPost2010PropOp37
 70
     1
102
RTVSPost2010Prop38
140
0.0
102
RTVSPost2010PropOp38
 70
     1
102
RTVSPost2010Prop39
140
1.0
102
RTVSPost2010PropOp39
 70
     1
102
RTVSPost2010Prop40
 90
        0
102
RTVSPost2010PropOp40
 70
     1
102
RTVSPost2010Prop41ColorIndex
 90
       18
102
RTVSPost2010Prop41ColorRGB
 90
        0
102
RTVSPost2010PropOp41
 70
     1
102
RTVSPost2010Prop42
 90
       50
102
RTVSPost2010PropOp42
 70
     1
102
RTVSPost2010Prop43
 90
        3
102
RTVSPost2010PropOp43
 70
     1
102
RTVSPost2010Prop44ColorIndex
 90
        5
102
RTVSPost2010Prop44ColorRGB
 90
      255
102
RTVSPost2010PropOp44
 70
     1
102
RTVSPost2010Prop45
280
     0
102
RTVSPost2010PropOp45
 70
     1
102
RTVSPost2010Prop46
 90
       50
102
RTVSPost2010PropOp46
 70
     1
102
RTVSPost2010Prop47
 90
       50
102
RTVSPost2010PropOp47
 70
     1
102
RTVSPost2010Prop48
 90
       50
102
RTVSPost2010PropOp48
 70
     1
102
RTVSPost2010Prop49
280
     0
102
RTVSPost2010PropOp49
 70
     1
102
RTVSPost2010Prop50
 90
       50
102
RTVSPost2010PropOp50
 70
     1
102
RTVSPost2010Prop51ColorIndex
 90
      256
102
RTVSPost2010Prop51ColorRGB
 90
-16777216
102
RTVSPost2010PropOp51
 70
     0
102
RTVSPost2010Prop52
140
1.0
102
RTVSPost2010PropOp52
 70
     0
102
RTVSPost2010Prop53
 90
        2
102
RTVSPost2010PropOp53
 70
     1
102
RTVSPost2010Prop54
  1
strokes_ogs.tif
102
RTVSPost2010PropOp54
 70
     1
102
RTVSPost2010Prop55
280
     0
102
RTVSPost2010PropOp55
 70
     1
102
RTVSPost2010Prop56
140
1.0
102
RTVSPost2010PropOp56
 70
     1
102
RTVSPost2010Prop57
140
1.0
102
RTVSPost2010PropOp57
 70
     1
102
RTVSPropertyOp0
 70
     1
102
RTVSPropertyOp1
 70
     1
102
RTVSPropertyOp2
 70
     1
102
RTVSPropertyOp3
 70
     1
102
RTVSPropertyOp4
 70
     1
102
RTVSPropertyOp5
 70
     1
102
RTVSPropertyOp6
 70
     1
102
RTVSPropertyOp7
 70
     1
102
RTVSPropertyOp8
 70
     1
102
RTVSPropertyOp9
 70
     1
102
RTVSPropertyOp10
 70
     1
102
RTVSPropertyOp11
 70
     1
102
RTVSPropertyOp12
 70
     1
102
RTVSPropertyOp13
 70
     1
102
RTVSPropertyOp14
 70
     1
102
RTVSPropertyOp15
 70
     1
102
RTVSPropertyOp16
 70
     1
102
RTVSPropertyOp17
 70
     1
102
RTVSPropertyOp18
 70
     1
102
RTVSPropertyOp19
 70
     1
102
RTVSPropertyOp20
 70
     1
102
RTVSPropertyOp21
 70
     1
102
RTVSPropertyOp22
 70
     1
102
RTVSPropertyOp23
 70
     1
102
RTVSPropertyOp24
 70
     1
102
RTVSPropertyOp25
 70
     1
102
RTVSPropertyOp26
 70
     1
102
RTVSPropertyOp27
 70
     1
102
RTVSPropertyOp28
 70
     1
102
RTVSPropertyOp29
 70
     1
102
RTVSPropertyOp30
 70
     1
102
RTVSPropertyOp31
 70
     1
102
RTVSPropertyOp32
 70
     1
102
RTVSPropertyOp33
 70
     1
102
RTVSPropertyOp34
 70
     1
102
RTVSPropertyOp35
 70
     1
102
RTVSPropertyOp36
 70
     1
102
RTVSPropertyOp37
 70
     1
102
RTVSPropertyOp38
 70
     1
102
RTVSPropertyOp39
 70
     1
102
RTVSPropertyOp40
 70
     1
102
RTVSPropertyOp41
 70
     1
102
RTVSPropertyOp42
 70
     1
102
RTVSPropertyOp43
 70
     1
102
RTVSPropertyOp44
 70
     1
102
RTVSPropertyOp45
 70
     1
102
RTVSPropertyOp46
 70
     1
102
RTVSPropertyOp47
 70
     1
102
RTVSPropertyOp48
 70
     1
102
RTVSPropertyOp49
 70
     1
102
RTVSPropertyOp50
 70
     1
102
RTVSPropertyOp51
 70
     0
102
RTVSPropertyOp52
 70
     0
102
RTVSPropertyOp53
 70
     1
102
RTVSPropertyOp54
 70
     1
102
RTVSPropertyOp55
 70
     1
102
RTVSPropertyOp56
 70
     1
102
RTVSPropertyOp57
 70
     1
102
RTVSPropertyOp58
 70
     1
102
RTVSPropertyOp59
 70
     1
102
RTVSPropertyOp60
 70
     1
102
RTVSPropertyOp61
 70
     1
102
RTVSPropertyOp62
 70
     1
  0
XRECORD
  5
A8CA
102
{ACAD_REACTORS
330
A8C9
102
}
330
A8C9
100
AcDbXrecord
280
     1
102
RTVSPost2010Prop28
280
     0
102
RTVSPost2010PropOp28
 70
     1
102
RTVSPost2010Prop29
280
     1
102
RTVSPost2010PropOp29
 70
     1
102
RTVSPost2010Prop30
280
     1
102
RTVSPost2010PropOp30
 70
     1
102
RTVSPost2010Prop31
280
     0
102
RTVSPost2010PropOp31
 70
     1
102
RTVSPost2010Prop32
280
     0
102
RTVSPost2010PropOp32
 70
     1
102
RTVSPost2010Prop33
280
     0
102
RTVSPost2010PropOp33
 70
     1
102
RTVSPost2010Prop34
280
     0
102
RTVSPost2010PropOp34
 70
     1
102
RTVSPost2010Prop35
280
     0
102
RTVSPost2010PropOp35
 70
     1
102
RTVSPost2010Prop36
280
     0
102
RTVSPost2010PropOp36
 70
     1
102
RTVSPost2010Prop37
 90
       50
102
RTVSPost2010PropOp37
 70
     1
102
RTVSPost2010Prop38
140
0.0
102
RTVSPost2010PropOp38
 70
     1
102
RTVSPost2010Prop39
140
1.0
102
RTVSPost2010PropOp39
 70
     1
102
RTVSPost2010Prop40
 90
        0
102
RTVSPost2010PropOp40
 70
     1
102
RTVSPost2010Prop41ColorIndex
 90
       18
102
RTVSPost2010Prop41ColorRGB
 90
        0
102
RTVSPost2010PropOp41
 70
     1
102
RTVSPost2010Prop42
 90
       50
102
RTVSPost2010PropOp42
 70
     1
102
RTVSPost2010Prop43
 90
        3
102
RTVSPost2010PropOp43
 70
     1
102
RTVSPost2010Prop44ColorIndex
 90
        5
102
RTVSPost2010Prop44ColorRGB
 90
      255
102
RTVSPost2010PropOp44
 70
     1
102
RTVSPost2010Prop45
280
     0
102
RTVSPost2010PropOp45
 70
     1
102
RTVSPost2010Prop46
 90
       50
102
RTVSPost2010PropOp46
 70
     1
102
RTVSPost2010Prop47
 90
       50
102
RTVSPost2010PropOp47
 70
     1
102
RTVSPost2010Prop48
 90
       50
102
RTVSPost2010PropOp48
 70
     1
102
RTVSPost2010Prop49
280
     0
102
RTVSPost2010PropOp49
 70
     1
102
RTVSPost2010Prop50
 90
       50
102
RTVSPost2010PropOp50
 70
     1
102
RTVSPost2010Prop51ColorIndex
 90
      256
102
RTVSPost2010Prop51ColorRGB
 90
-16777216
102
RTVSPost2010PropOp51
 70
     0
102
RTVSPost2010Prop52
140
1.0
102
RTVSPost2010PropOp52
 70
     0
102
RTVSPost2010Prop53
 90
        2
102
RTVSPost2010PropOp53
 70
     1
102
RTVSPost2010Prop54
  1
strokes_ogs.tif
102
RTVSPost2010PropOp54
 70
     1
102
RTVSPost2010Prop55
280
     0
102
RTVSPost2010PropOp55
 70
     1
102
RTVSPost2010Prop56
140
1.0
102
RTVSPost2010PropOp56
 70
     1
102
RTVSPost2010Prop57
140
1.0
102
RTVSPost2010PropOp57
 70
     1
102
RTVSPropertyOp0
 70
     1
102
RTVSPropertyOp1
 70
     1
102
RTVSPropertyOp2
 70
     1
102
RTVSPropertyOp3
 70
     1
102
RTVSPropertyOp4
 70
     1
102
RTVSPropertyOp5
 70
     1
102
RTVSPropertyOp6
 70
     1
102
RTVSPropertyOp7
 70
     1
102
RTVSPropertyOp8
 70
     1
102
RTVSPropertyOp9
 70
     1
102
RTVSPropertyOp10
 70
     1
102
RTVSPropertyOp11
 70
     1
102
RTVSPropertyOp12
 70
     1
102
RTVSPropertyOp13
 70
     1
102
RTVSPropertyOp14
 70
     1
102
RTVSPropertyOp15
 70
     1
102
RTVSPropertyOp16
 70
     1
102
RTVSPropertyOp17
 70
     1
102
RTVSPropertyOp18
 70
     1
102
RTVSPropertyOp19
 70
     1
102
RTVSPropertyOp20
 70
     1
102
RTVSPropertyOp21
 70
     1
102
RTVSPropertyOp22
 70
     1
102
RTVSPropertyOp23
 70
     1
102
RTVSPropertyOp24
 70
     1
102
RTVSPropertyOp25
 70
     1
102
RTVSPropertyOp26
 70
     1
102
RTVSPropertyOp27
 70
     1
102
RTVSPropertyOp28
 70
     1
102
RTVSPropertyOp29
 70
     1
102
RTVSPropertyOp30
 70
     1
102
RTVSPropertyOp31
 70
     1
102
RTVSPropertyOp32
 70
     1
102
RTVSPropertyOp33
 70
     1
102
RTVSPropertyOp34
 70
     1
102
RTVSPropertyOp35
 70
     1
102
RTVSPropertyOp36
 70
     1
102
RTVSPropertyOp37
 70
     1
102
RTVSPropertyOp38
 70
     1
102
RTVSPropertyOp39
 70
     1
102
RTVSPropertyOp40
 70
     1
102
RTVSPropertyOp41
 70
     1
102
RTVSPropertyOp42
 70
     1
102
RTVSPropertyOp43
 70
     1
102
RTVSPropertyOp44
 70
     1
102
RTVSPropertyOp45
 70
     1
102
RTVSPropertyOp46
 70
     1
102
RTVSPropertyOp47
 70
     1
102
RTVSPropertyOp48
 70
     1
102
RTVSPropertyOp49
 70
     1
102
RTVSPropertyOp50
 70
     1
102
RTVSPropertyOp51
 70
     0
102
RTVSPropertyOp52
 70
     0
102
RTVSPropertyOp53
 70
     1
102
RTVSPropertyOp54
 70
     1
102
RTVSPropertyOp55
 70
     1
102
RTVSPropertyOp56
 70
     1
102
RTVSPropertyOp57
 70
     1
102
RTVSPropertyOp58
 70
     1
102
RTVSPropertyOp59
 70
     1
102
RTVSPropertyOp60
 70
     1
102
RTVSPropertyOp61
 70
     1
102
RTVSPropertyOp62
 70
     1
  0
XRECORD
  5
A8D8
102
{ACAD_REACTORS
330
A8D7
102
}
330
A8D7
100
AcDbXrecord
280
     1
102
RTVSPost2010Prop28
280
     0
102
RTVSPost2010PropOp28
 70
     1
102
RTVSPost2010Prop29
280
     1
102
RTVSPost2010PropOp29
 70
     1
102
RTVSPost2010Prop30
280
     1
102
RTVSPost2010PropOp30
 70
     1
102
RTVSPost2010Prop31
280
     0
102
RTVSPost2010PropOp31
 70
     1
102
RTVSPost2010Prop32
280
     0
102
RTVSPost2010PropOp32
 70
     1
102
RTVSPost2010Prop33
280
     0
102
RTVSPost2010PropOp33
 70
     1
102
RTVSPost2010Prop34
280
     0
102
RTVSPost2010PropOp34
 70
     1
102
RTVSPost2010Prop35
280
     0
102
RTVSPost2010PropOp35
 70
     1
102
RTVSPost2010Prop36
280
     0
102
RTVSPost2010PropOp36
 70
     1
102
RTVSPost2010Prop37
 90
       50
102
RTVSPost2010PropOp37
 70
     1
102
RTVSPost2010Prop38
140
0.0
102
RTVSPost2010PropOp38
 70
     1
102
RTVSPost2010Prop39
140
1.0
102
RTVSPost2010PropOp39
 70
     1
102
RTVSPost2010Prop40
 90
        0
102
RTVSPost2010PropOp40
 70
     1
102
RTVSPost2010Prop41ColorIndex
 90
       18
102
RTVSPost2010Prop41ColorRGB
 90
        0
102
RTVSPost2010PropOp41
 70
     1
102
RTVSPost2010Prop42
 90
       50
102
RTVSPost2010PropOp42
 70
     1
102
RTVSPost2010Prop43
 90
        3
102
RTVSPost2010PropOp43
 70
     1
102
RTVSPost2010Prop44ColorIndex
 90
        5
102
RTVSPost2010Prop44ColorRGB
 90
      255
102
RTVSPost2010PropOp44
 70
     1
102
RTVSPost2010Prop45
280
     0
102
RTVSPost2010PropOp45
 70
     1
102
RTVSPost2010Prop46
 90
       50
102
RTVSPost2010PropOp46
 70
     1
102
RTVSPost2010Prop47
 90
       50
102
RTVSPost2010PropOp47
 70
     1
102
RTVSPost2010Prop48
 90
       50
102
RTVSPost2010PropOp48
 70
     1
102
RTVSPost2010Prop49
280
     0
102
RTVSPost2010PropOp49
 70
     1
102
RTVSPost2010Prop50
 90
       50
102
RTVSPost2010PropOp50
 70
     1
102
RTVSPost2010Prop51ColorIndex
 90
      256
102
RTVSPost2010Prop51ColorRGB
 90
-16777216
102
RTVSPost2010PropOp51
 70
     0
102
RTVSPost2010Prop52
140
1.0
102
RTVSPost2010PropOp52
 70
     0
102
RTVSPost2010Prop53
 90
        2
102
RTVSPost2010PropOp53
 70
     1
102
RTVSPost2010Prop54
  1
strokes_ogs.tif
102
RTVSPost2010PropOp54
 70
     1
102
RTVSPost2010Prop55
280
     0
102
RTVSPost2010PropOp55
 70
     1
102
RTVSPost2010Prop56
140
1.0
102
RTVSPost2010PropOp56
 70
     1
102
RTVSPost2010Prop57
140
1.0
102
RTVSPost2010PropOp57
 70
     1
102
RTVSPropertyOp0
 70
     1
102
RTVSPropertyOp1
 70
     1
102
RTVSPropertyOp2
 70
     1
102
RTVSPropertyOp3
 70
     1
102
RTVSPropertyOp4
 70
     1
102
RTVSPropertyOp5
 70
     1
102
RTVSPropertyOp6
 70
     1
102
RTVSPropertyOp7
 70
     1
102
RTVSPropertyOp8
 70
     1
102
RTVSPropertyOp9
 70
     1
102
RTVSPropertyOp10
 70
     1
102
RTVSPropertyOp11
 70
     1
102
RTVSPropertyOp12
 70
     1
102
RTVSPropertyOp13
 70
     1
102
RTVSPropertyOp14
 70
     1
102
RTVSPropertyOp15
 70
     1
102
RTVSPropertyOp16
 70
     1
102
RTVSPropertyOp17
 70
     1
102
RTVSPropertyOp18
 70
     1
102
RTVSPropertyOp19
 70
     1
102
RTVSPropertyOp20
 70
     1
102
RTVSPropertyOp21
 70
     1
102
RTVSPropertyOp22
 70
     1
102
RTVSPropertyOp23
 70
     1
102
RTVSPropertyOp24
 70
     1
102
RTVSPropertyOp25
 70
     1
102
RTVSPropertyOp26
 70
     1
102
RTVSPropertyOp27
 70
     1
102
RTVSPropertyOp28
 70
     1
102
RTVSPropertyOp29
 70
     1
102
RTVSPropertyOp30
 70
     1
102
RTVSPropertyOp31
 70
     1
102
RTVSPropertyOp32
 70
     1
102
RTVSPropertyOp33
 70
     1
102
RTVSPropertyOp34
 70
     1
102
RTVSPropertyOp35
 70
     1
102
RTVSPropertyOp36
 70
     1
102
RTVSPropertyOp37
 70
     1
102
RTVSPropertyOp38
 70
     1
102
RTVSPropertyOp39
 70
     1
102
RTVSPropertyOp40
 70
     1
102
RTVSPropertyOp41
 70
     1
102
RTVSPropertyOp42
 70
     1
102
RTVSPropertyOp43
 70
     1
102
RTVSPropertyOp44
 70
     1
102
RTVSPropertyOp45
 70
     1
102
RTVSPropertyOp46
 70
     1
102
RTVSPropertyOp47
 70
     1
102
RTVSPropertyOp48
 70
     1
102
RTVSPropertyOp49
 70
     1
102
RTVSPropertyOp50
 70
     1
102
RTVSPropertyOp51
 70
     0
102
RTVSPropertyOp52
 70
     0
102
RTVSPropertyOp53
 70
     1
102
RTVSPropertyOp54
 70
     1
102
RTVSPropertyOp55
 70
     1
102
RTVSPropertyOp56
 70
     1
102
RTVSPropertyOp57
 70
     1
102
RTVSPropertyOp58
 70
     1
102
RTVSPropertyOp59
 70
     1
102
RTVSPropertyOp60
 70
     1
102
RTVSPropertyOp61
 70
     1
102
RTVSPropertyOp62
 70
     1
  0
XRECORD
  5
A8E0
102
{ACAD_REACTORS
330
A8DF
102
}
330
A8DF
100
AcDbXrecord
280
     1
102
RTVSPost2010Prop28
280
     0
102
RTVSPost2010PropOp28
 70
     1
102
RTVSPost2010Prop29
280
     1
102
RTVSPost2010PropOp29
 70
     1
102
RTVSPost2010Prop30
280
     1
102
RTVSPost2010PropOp30
 70
     1
102
RTVSPost2010Prop31
280
     0
102
RTVSPost2010PropOp31
 70
     1
102
RTVSPost2010Prop32
280
     0
102
RTVSPost2010PropOp32
 70
     1
102
RTVSPost2010Prop33
280
     0
102
RTVSPost2010PropOp33
 70
     1
102
RTVSPost2010Prop34
280
     0
102
RTVSPost2010PropOp34
 70
     1
102
RTVSPost2010Prop35
280
     0
102
RTVSPost2010PropOp35
 70
     1
102
RTVSPost2010Prop36
280
     0
102
RTVSPost2010PropOp36
 70
     1
102
RTVSPost2010Prop37
 90
       50
102
RTVSPost2010PropOp37
 70
     1
102
RTVSPost2010Prop38
140
0.0
102
RTVSPost2010PropOp38
 70
     1
102
RTVSPost2010Prop39
140
1.0
102
RTVSPost2010PropOp39
 70
     1
102
RTVSPost2010Prop40
 90
        0
102
RTVSPost2010PropOp40
 70
     1
102
RTVSPost2010Prop41ColorIndex
 90
       18
102
RTVSPost2010Prop41ColorRGB
 90
        0
102
RTVSPost2010PropOp41
 70
     1
102
RTVSPost2010Prop42
 90
       50
102
RTVSPost2010PropOp42
 70
     1
102
RTVSPost2010Prop43
 90
        3
102
RTVSPost2010PropOp43
 70
     1
102
RTVSPost2010Prop44ColorIndex
 90
        5
102
RTVSPost2010Prop44ColorRGB
 90
      255
102
RTVSPost2010PropOp44
 70
     1
102
RTVSPost2010Prop45
280
     0
102
RTVSPost2010PropOp45
 70
     1
102
RTVSPost2010Prop46
 90
       50
102
RTVSPost2010PropOp46
 70
     1
102
RTVSPost2010Prop47
 90
       50
102
RTVSPost2010PropOp47
 70
     1
102
RTVSPost2010Prop48
 90
       50
102
RTVSPost2010PropOp48
 70
     1
102
RTVSPost2010Prop49
280
     0
102
RTVSPost2010PropOp49
 70
     1
102
RTVSPost2010Prop50
 90
       50
102
RTVSPost2010PropOp50
 70
     1
102
RTVSPost2010Prop51ColorIndex
 90
      256
102
RTVSPost2010Prop51ColorRGB
 90
-16777216
102
RTVSPost2010PropOp51
 70
     0
102
RTVSPost2010Prop52
140
1.0
102
RTVSPost2010PropOp52
 70
     0
102
RTVSPost2010Prop53
 90
        2
102
RTVSPost2010PropOp53
 70
     1
102
RTVSPost2010Prop54
  1
strokes_ogs.tif
102
RTVSPost2010PropOp54
 70
     1
102
RTVSPost2010Prop55
280
     0
102
RTVSPost2010PropOp55
 70
     1
102
RTVSPost2010Prop56
140
1.0
102
RTVSPost2010PropOp56
 70
     1
102
RTVSPost2010Prop57
140
1.0
102
RTVSPost2010PropOp57
 70
     1
102
RTVSPropertyOp0
 70
     1
102
RTVSPropertyOp1
 70
     1
102
RTVSPropertyOp2
 70
     1
102
RTVSPropertyOp3
 70
     1
102
RTVSPropertyOp4
 70
     1
102
RTVSPropertyOp5
 70
     1
102
RTVSPropertyOp6
 70
     1
102
RTVSPropertyOp7
 70
     1
102
RTVSPropertyOp8
 70
     1
102
RTVSPropertyOp9
 70
     1
102
RTVSPropertyOp10
 70
     1
102
RTVSPropertyOp11
 70
     1
102
RTVSPropertyOp12
 70
     1
102
RTVSPropertyOp13
 70
     1
102
RTVSPropertyOp14
 70
     1
102
RTVSPropertyOp15
 70
     1
102
RTVSPropertyOp16
 70
     1
102
RTVSPropertyOp17
 70
     1
102
RTVSPropertyOp18
 70
     1
102
RTVSPropertyOp19
 70
     1
102
RTVSPropertyOp20
 70
     1
102
RTVSPropertyOp21
 70
     1
102
RTVSPropertyOp22
 70
     1
102
RTVSPropertyOp23
 70
     1
102
RTVSPropertyOp24
 70
     1
102
RTVSPropertyOp25
 70
     1
102
RTVSPropertyOp26
 70
     1
102
RTVSPropertyOp27
 70
     1
102
RTVSPropertyOp28
 70
     1
102
RTVSPropertyOp29
 70
     1
102
RTVSPropertyOp30
 70
     1
102
RTVSPropertyOp31
 70
     1
102
RTVSPropertyOp32
 70
     1
102
RTVSPropertyOp33
 70
     1
102
RTVSPropertyOp34
 70
     1
102
RTVSPropertyOp35
 70
     1
102
RTVSPropertyOp36
 70
     1
102
RTVSPropertyOp37
 70
     1
102
RTVSPropertyOp38
 70
     1
102
RTVSPropertyOp39
 70
     1
102
RTVSPropertyOp40
 70
     1
102
RTVSPropertyOp41
 70
     1
102
RTVSPropertyOp42
 70
     1
102
RTVSPropertyOp43
 70
     1
102
RTVSPropertyOp44
 70
     1
102
RTVSPropertyOp45
 70
     1
102
RTVSPropertyOp46
 70
     1
102
RTVSPropertyOp47
 70
     1
102
RTVSPropertyOp48
 70
     1
102
RTVSPropertyOp49
 70
     1
102
RTVSPropertyOp50
 70
     1
102
RTVSPropertyOp51
 70
     0
102
RTVSPropertyOp52
 70
     0
102
RTVSPropertyOp53
 70
     1
102
RTVSPropertyOp54
 70
     1
102
RTVSPropertyOp55
 70
     1
102
RTVSPropertyOp56
 70
     1
102
RTVSPropertyOp57
 70
     1
102
RTVSPropertyOp58
 70
     1
102
RTVSPropertyOp59
 70
     1
102
RTVSPropertyOp60
 70
     1
102
RTVSPropertyOp61
 70
     1
102
RTVSPropertyOp62
 70
     1
  0
XRECORD
  5
A8D2
102
{ACAD_REACTORS
330
A8D1
102
}
330
A8D1
100
AcDbXrecord
280
     1
102
RTVSPost2010Prop28
280
     0
102
RTVSPost2010PropOp28
 70
     1
102
RTVSPost2010Prop29
280
     1
102
RTVSPost2010PropOp29
 70
     1
102
RTVSPost2010Prop30
280
     1
102
RTVSPost2010PropOp30
 70
     1
102
RTVSPost2010Prop31
280
     0
102
RTVSPost2010PropOp31
 70
     1
102
RTVSPost2010Prop32
280
     0
102
RTVSPost2010PropOp32
 70
     1
102
RTVSPost2010Prop33
280
     0
102
RTVSPost2010PropOp33
 70
     1
102
RTVSPost2010Prop34
280
     0
102
RTVSPost2010PropOp34
 70
     1
102
RTVSPost2010Prop35
280
     0
102
RTVSPost2010PropOp35
 70
     1
102
RTVSPost2010Prop36
280
     0
102
RTVSPost2010PropOp36
 70
     1
102
RTVSPost2010Prop37
 90
       50
102
RTVSPost2010PropOp37
 70
     1
102
RTVSPost2010Prop38
140
0.0
102
RTVSPost2010PropOp38
 70
     1
102
RTVSPost2010Prop39
140
1.0
102
RTVSPost2010PropOp39
 70
     1
102
RTVSPost2010Prop40
 90
        0
102
RTVSPost2010PropOp40
 70
     1
102
RTVSPost2010Prop41ColorIndex
 90
       18
102
RTVSPost2010Prop41ColorRGB
 90
        0
102
RTVSPost2010PropOp41
 70
     1
102
RTVSPost2010Prop42
 90
       50
102
RTVSPost2010PropOp42
 70
     1
102
RTVSPost2010Prop43
 90
        3
102
RTVSPost2010PropOp43
 70
     1
102
RTVSPost2010Prop44ColorIndex
 90
        5
102
RTVSPost2010Prop44ColorRGB
 90
      255
102
RTVSPost2010PropOp44
 70
     1
102
RTVSPost2010Prop45
280
     0
102
RTVSPost2010PropOp45
 70
     1
102
RTVSPost2010Prop46
 90
       50
102
RTVSPost2010PropOp46
 70
     1
102
RTVSPost2010Prop47
 90
       50
102
RTVSPost2010PropOp47
 70
     1
102
RTVSPost2010Prop48
 90
       50
102
RTVSPost2010PropOp48
 70
     1
102
RTVSPost2010Prop49
280
     0
102
RTVSPost2010PropOp49
 70
     1
102
RTVSPost2010Prop50
 90
       50
102
RTVSPost2010PropOp50
 70
     1
102
RTVSPost2010Prop51ColorIndex
 90
      256
102
RTVSPost2010Prop51ColorRGB
 90
-16777216
102
RTVSPost2010PropOp51
 70
     0
102
RTVSPost2010Prop52
140
1.0
102
RTVSPost2010PropOp52
 70
     0
102
RTVSPost2010Prop53
 90
        2
102
RTVSPost2010PropOp53
 70
     1
102
RTVSPost2010Prop54
  1
strokes_ogs.tif
102
RTVSPost2010PropOp54
 70
     1
102
RTVSPost2010Prop55
280
     0
102
RTVSPost2010PropOp55
 70
     1
102
RTVSPost2010Prop56
140
1.0
102
RTVSPost2010PropOp56
 70
     1
102
RTVSPost2010Prop57
140
1.0
102
RTVSPost2010PropOp57
 70
     1
102
RTVSPropertyOp0
 70
     1
102
RTVSPropertyOp1
 70
     1
102
RTVSPropertyOp2
 70
     1
102
RTVSPropertyOp3
 70
     1
102
RTVSPropertyOp4
 70
     1
102
RTVSPropertyOp5
 70
     1
102
RTVSPropertyOp6
 70
     1
102
RTVSPropertyOp7
 70
     1
102
RTVSPropertyOp8
 70
     1
102
RTVSPropertyOp9
 70
     1
102
RTVSPropertyOp10
 70
     1
102
RTVSPropertyOp11
 70
     1
102
RTVSPropertyOp12
 70
     1
102
RTVSPropertyOp13
 70
     1
102
RTVSPropertyOp14
 70
     1
102
RTVSPropertyOp15
 70
     1
102
RTVSPropertyOp16
 70
     1
102
RTVSPropertyOp17
 70
     1
102
RTVSPropertyOp18
 70
     1
102
RTVSPropertyOp19
 70
     1
102
RTVSPropertyOp20
 70
     1
102
RTVSPropertyOp21
 70
     1
102
RTVSPropertyOp22
 70
     1
102
RTVSPropertyOp23
 70
     1
102
RTVSPropertyOp24
 70
     1
102
RTVSPropertyOp25
 70
     1
102
RTVSPropertyOp26
 70
     1
102
RTVSPropertyOp27
 70
     1
102
RTVSPropertyOp28
 70
     1
102
RTVSPropertyOp29
 70
     1
102
RTVSPropertyOp30
 70
     1
102
RTVSPropertyOp31
 70
     1
102
RTVSPropertyOp32
 70
     1
102
RTVSPropertyOp33
 70
     1
102
RTVSPropertyOp34
 70
     1
102
RTVSPropertyOp35
 70
     1
102
RTVSPropertyOp36
 70
     1
102
RTVSPropertyOp37
 70
     1
102
RTVSPropertyOp38
 70
     1
102
RTVSPropertyOp39
 70
     1
102
RTVSPropertyOp40
 70
     1
102
RTVSPropertyOp41
 70
     1
102
RTVSPropertyOp42
 70
     1
102
RTVSPropertyOp43
 70
     1
102
RTVSPropertyOp44
 70
     1
102
RTVSPropertyOp45
 70
     1
102
RTVSPropertyOp46
 70
     1
102
RTVSPropertyOp47
 70
     1
102
RTVSPropertyOp48
 70
     1
102
RTVSPropertyOp49
 70
     1
102
RTVSPropertyOp50
 70
     1
102
RTVSPropertyOp51
 70
     0
102
RTVSPropertyOp52
 70
     0
102
RTVSPropertyOp53
 70
     1
102
RTVSPropertyOp54
 70
     1
102
RTVSPropertyOp55
 70
     1
102
RTVSPropertyOp56
 70
     1
102
RTVSPropertyOp57
 70
     1
102
RTVSPropertyOp58
 70
     1
102
RTVSPropertyOp59
 70
     1
102
RTVSPropertyOp60
 70
     1
102
RTVSPropertyOp61
 70
     1
102
RTVSPropertyOp62
 70
     1
  0
XRECORD
  5
A8D6
102
{ACAD_REACTORS
330
A8D5
102
}
330
A8D5
100
AcDbXrecord
280
     1
102
RTVSPost2010Prop28
280
     0
102
RTVSPost2010PropOp28
 70
     1
102
RTVSPost2010Prop29
280
     1
102
RTVSPost2010PropOp29
 70
     1
102
RTVSPost2010Prop30
280
     1
102
RTVSPost2010PropOp30
 70
     1
102
RTVSPost2010Prop31
280
     0
102
RTVSPost2010PropOp31
 70
     1
102
RTVSPost2010Prop32
280
     0
102
RTVSPost2010PropOp32
 70
     1
102
RTVSPost2010Prop33
280
     0
102
RTVSPost2010PropOp33
 70
     1
102
RTVSPost2010Prop34
280
     0
102
RTVSPost2010PropOp34
 70
     1
102
RTVSPost2010Prop35
280
     0
102
RTVSPost2010PropOp35
 70
     1
102
RTVSPost2010Prop36
280
     0
102
RTVSPost2010PropOp36
 70
     1
102
RTVSPost2010Prop37
 90
       50
102
RTVSPost2010PropOp37
 70
     1
102
RTVSPost2010Prop38
140
0.0
102
RTVSPost2010PropOp38
 70
     1
102
RTVSPost2010Prop39
140
1.0
102
RTVSPost2010PropOp39
 70
     1
102
RTVSPost2010Prop40
 90
        0
102
RTVSPost2010PropOp40
 70
     1
102
RTVSPost2010Prop41ColorIndex
 90
       18
102
RTVSPost2010Prop41ColorRGB
 90
        0
102
RTVSPost2010PropOp41
 70
     1
102
RTVSPost2010Prop42
 90
       50
102
RTVSPost2010PropOp42
 70
     1
102
RTVSPost2010Prop43
 90
        3
102
RTVSPost2010PropOp43
 70
     1
102
RTVSPost2010Prop44ColorIndex
 90
        5
102
RTVSPost2010Prop44ColorRGB
 90
      255
102
RTVSPost2010PropOp44
 70
     1
102
RTVSPost2010Prop45
280
     0
102
RTVSPost2010PropOp45
 70
     1
102
RTVSPost2010Prop46
 90
       50
102
RTVSPost2010PropOp46
 70
     1
102
RTVSPost2010Prop47
 90
       50
102
RTVSPost2010PropOp47
 70
     1
102
RTVSPost2010Prop48
 90
       50
102
RTVSPost2010PropOp48
 70
     1
102
RTVSPost2010Prop49
280
     0
102
RTVSPost2010PropOp49
 70
     1
102
RTVSPost2010Prop50
 90
       50
102
RTVSPost2010PropOp50
 70
     1
102
RTVSPost2010Prop51ColorIndex
 90
      256
102
RTVSPost2010Prop51ColorRGB
 90
-16777216
102
RTVSPost2010PropOp51
 70
     0
102
RTVSPost2010Prop52
140
1.0
102
RTVSPost2010PropOp52
 70
     0
102
RTVSPost2010Prop53
 90
        2
102
RTVSPost2010PropOp53
 70
     1
102
RTVSPost2010Prop54
  1
strokes_ogs.tif
102
RTVSPost2010PropOp54
 70
     1
102
RTVSPost2010Prop55
280
     0
102
RTVSPost2010PropOp55
 70
     1
102
RTVSPost2010Prop56
140
1.0
102
RTVSPost2010PropOp56
 70
     1
102
RTVSPost2010Prop57
140
1.0
102
RTVSPost2010PropOp57
 70
     1
102
RTVSPropertyOp0
 70
     1
102
RTVSPropertyOp1
 70
     1
102
RTVSPropertyOp2
 70
     1
102
RTVSPropertyOp3
 70
     1
102
RTVSPropertyOp4
 70
     1
102
RTVSPropertyOp5
 70
     1
102
RTVSPropertyOp6
 70
     1
102
RTVSPropertyOp7
 70
     1
102
RTVSPropertyOp8
 70
     1
102
RTVSPropertyOp9
 70
     1
102
RTVSPropertyOp10
 70
     1
102
RTVSPropertyOp11
 70
     1
102
RTVSPropertyOp12
 70
     1
102
RTVSPropertyOp13
 70
     1
102
RTVSPropertyOp14
 70
     1
102
RTVSPropertyOp15
 70
     1
102
RTVSPropertyOp16
 70
     1
102
RTVSPropertyOp17
 70
     1
102
RTVSPropertyOp18
 70
     1
102
RTVSPropertyOp19
 70
     1
102
RTVSPropertyOp20
 70
     1
102
RTVSPropertyOp21
 70
     1
102
RTVSPropertyOp22
 70
     1
102
RTVSPropertyOp23
 70
     1
102
RTVSPropertyOp24
 70
     1
102
RTVSPropertyOp25
 70
     1
102
RTVSPropertyOp26
 70
     1
102
RTVSPropertyOp27
 70
     1
102
RTVSPropertyOp28
 70
     1
102
RTVSPropertyOp29
 70
     1
102
RTVSPropertyOp30
 70
     1
102
RTVSPropertyOp31
 70
     1
102
RTVSPropertyOp32
 70
     1
102
RTVSPropertyOp33
 70
     1
102
RTVSPropertyOp34
 70
     1
102
RTVSPropertyOp35
 70
     1
102
RTVSPropertyOp36
 70
     1
102
RTVSPropertyOp37
 70
     1
102
RTVSPropertyOp38
 70
     1
102
RTVSPropertyOp39
 70
     1
102
RTVSPropertyOp40
 70
     1
102
RTVSPropertyOp41
 70
     1
102
RTVSPropertyOp42
 70
     1
102
RTVSPropertyOp43
 70
     1
102
RTVSPropertyOp44
 70
     1
102
RTVSPropertyOp45
 70
     1
102
RTVSPropertyOp46
 70
     1
102
RTVSPropertyOp47
 70
     1
102
RTVSPropertyOp48
 70
     1
102
RTVSPropertyOp49
 70
     1
102
RTVSPropertyOp50
 70
     1
102
RTVSPropertyOp51
 70
     0
102
RTVSPropertyOp52
 70
     0
102
RTVSPropertyOp53
 70
     1
102
RTVSPropertyOp54
 70
     1
102
RTVSPropertyOp55
 70
     1
102
RTVSPropertyOp56
 70
     1
102
RTVSPropertyOp57
 70
     1
102
RTVSPropertyOp58
 70
     1
102
RTVSPropertyOp59
 70
     1
102
RTVSPropertyOp60
 70
     1
102
RTVSPropertyOp61
 70
     1
102
RTVSPropertyOp62
 70
     1
  0
XRECORD
  5
A8F0
102
{ACAD_REACTORS
330
A8EF
102
}
330
A8EF
100
AcDbXrecord
280
     1
102
RTVSPost2010Prop28
280
     0
102
RTVSPost2010PropOp28
 70
     1
102
RTVSPost2010Prop29
280
     1
102
RTVSPost2010PropOp29
 70
     1
102
RTVSPost2010Prop30
280
     1
102
RTVSPost2010PropOp30
 70
     1
102
RTVSPost2010Prop31
280
     0
102
RTVSPost2010PropOp31
 70
     1
102
RTVSPost2010Prop32
280
     0
102
RTVSPost2010PropOp32
 70
     1
102
RTVSPost2010Prop33
280
     0
102
RTVSPost2010PropOp33
 70
     1
102
RTVSPost2010Prop34
280
     0
102
RTVSPost2010PropOp34
 70
     1
102
RTVSPost2010Prop35
280
     0
102
RTVSPost2010PropOp35
 70
     1
102
RTVSPost2010Prop36
280
     0
102
RTVSPost2010PropOp36
 70
     1
102
RTVSPost2010Prop37
 90
       50
102
RTVSPost2010PropOp37
 70
     0
102
RTVSPost2010Prop38
140
0.0
102
RTVSPost2010PropOp38
 70
     0
102
RTVSPost2010Prop39
140
1.0
102
RTVSPost2010PropOp39
 70
     0
102
RTVSPost2010Prop40
 90
        0
102
RTVSPost2010PropOp40
 70
     0
102
RTVSPost2010Prop41ColorIndex
 90
       18
102
RTVSPost2010Prop41ColorRGB
 90
        0
102
RTVSPost2010PropOp41
 70
     0
102
RTVSPost2010Prop42
 90
       50
102
RTVSPost2010PropOp42
 70
     0
102
RTVSPost2010Prop43
 90
        3
102
RTVSPost2010PropOp43
 70
     0
102
RTVSPost2010Prop44ColorIndex
 90
        5
102
RTVSPost2010Prop44ColorRGB
 90
      255
102
RTVSPost2010PropOp44
 70
     0
102
RTVSPost2010Prop45
280
     0
102
RTVSPost2010PropOp45
 70
     1
102
RTVSPost2010Prop46
 90
       50
102
RTVSPost2010PropOp46
 70
     0
102
RTVSPost2010Prop47
 90
       50
102
RTVSPost2010PropOp47
 70
     0
102
RTVSPost2010Prop48
 90
       50
102
RTVSPost2010PropOp48
 70
     0
102
RTVSPost2010Prop49
280
     0
102
RTVSPost2010PropOp49
 70
     1
102
RTVSPost2010Prop50
 90
       50
102
RTVSPost2010PropOp50
 70
     0
102
RTVSPost2010Prop51ColorIndex
 90
      256
102
RTVSPost2010Prop51ColorRGB
 90
-16777216
102
RTVSPost2010PropOp51
 70
     0
102
RTVSPost2010Prop52
140
1.0
102
RTVSPost2010PropOp52
 70
     0
102
RTVSPost2010Prop53
 90
        2
102
RTVSPost2010PropOp53
 70
     0
102
RTVSPost2010Prop54
  1
strokes_ogs.tif
102
RTVSPost2010PropOp54
 70
     0
102
RTVSPost2010Prop55
280
     0
102
RTVSPost2010PropOp55
 70
     1
102
RTVSPost2010Prop56
140
1.0
102
RTVSPost2010PropOp56
 70
     0
102
RTVSPost2010Prop57
140
1.0
102
RTVSPost2010PropOp57
 70
     0
102
RTVSPropertyOp0
 70
     0
102
RTVSPropertyOp1
 70
     0
102
RTVSPropertyOp2
 70
     0
102
RTVSPropertyOp3
 70
     0
102
RTVSPropertyOp4
 70
     0
102
RTVSPropertyOp5
 70
     0
102
RTVSPropertyOp6
 70
     0
102
RTVSPropertyOp7
 70
     0
102
RTVSPropertyOp8
 70
     0
102
RTVSPropertyOp9
 70
     0
102
RTVSPropertyOp10
 70
     0
102
RTVSPropertyOp11
 70
     0
102
RTVSPropertyOp12
 70
     0
102
RTVSPropertyOp13
 70
     0
102
RTVSPropertyOp14
 70
     2
102
RTVSPropertyOp15
 70
     0
102
RTVSPropertyOp16
 70
     0
102
RTVSPropertyOp17
 70
     0
102
RTVSPropertyOp18
 70
     0
102
RTVSPropertyOp19
 70
     0
102
RTVSPropertyOp20
 70
     0
102
RTVSPropertyOp21
 70
     0
102
RTVSPropertyOp22
 70
     0
102
RTVSPropertyOp23
 70
     0
102
RTVSPropertyOp24
 70
     0
102
RTVSPropertyOp25
 70
     0
102
RTVSPropertyOp26
 70
     0
102
RTVSPropertyOp27
 70
     0
102
RTVSPropertyOp28
 70
     1
102
RTVSPropertyOp29
 70
     1
102
RTVSPropertyOp30
 70
     1
102
RTVSPropertyOp31
 70
     1
102
RTVSPropertyOp32
 70
     1
102
RTVSPropertyOp33
 70
     1
102
RTVSPropertyOp34
 70
     1
102
RTVSPropertyOp35
 70
     1
102
RTVSPropertyOp36
 70
     1
102
RTVSPropertyOp37
 70
     0
102
RTVSPropertyOp38
 70
     0
102
RTVSPropertyOp39
 70
     0
102
RTVSPropertyOp40
 70
     0
102
RTVSPropertyOp41
 70
     0
102
RTVSPropertyOp42
 70
     0
102
RTVSPropertyOp43
 70
     0
102
RTVSPropertyOp44
 70
     0
102
RTVSPropertyOp45
 70
     1
102
RTVSPropertyOp46
 70
     0
102
RTVSPropertyOp47
 70
     0
102
RTVSPropertyOp48
 70
     0
102
RTVSPropertyOp49
 70
     1
102
RTVSPropertyOp50
 70
     0
102
RTVSPropertyOp51
 70
     0
102
RTVSPropertyOp52
 70
     0
102
RTVSPropertyOp53
 70
     0
102
RTVSPropertyOp54
 70
     0
102
RTVSPropertyOp55
 70
     1
102
RTVSPropertyOp56
 70
     0
102
RTVSPropertyOp57
 70
     0
102
RTVSPropertyOp58
 70
     0
102
RTVSPropertyOp59
 70
     0
102
RTVSPropertyOp60
 70
     0
102
RTVSPropertyOp61
 70
     0
102
RTVSPropertyOp62
 70
     0
  0
XRECORD
  5
A8DE
102
{ACAD_REACTORS
330
A8DD
102
}
330
A8DD
100
AcDbXrecord
280
     1
102
RTVSPost2010Prop28
280
     0
102
RTVSPost2010PropOp28
 70
     1
102
RTVSPost2010Prop29
280
     1
102
RTVSPost2010PropOp29
 70
     1
102
RTVSPost2010Prop30
280
     1
102
RTVSPost2010PropOp30
 70
     1
102
RTVSPost2010Prop31
280
     0
102
RTVSPost2010PropOp31
 70
     1
102
RTVSPost2010Prop32
280
     0
102
RTVSPost2010PropOp32
 70
     1
102
RTVSPost2010Prop33
280
     0
102
RTVSPost2010PropOp33
 70
     1
102
RTVSPost2010Prop34
280
     0
102
RTVSPost2010PropOp34
 70
     1
102
RTVSPost2010Prop35
280
     0
102
RTVSPost2010PropOp35
 70
     1
102
RTVSPost2010Prop36
280
     0
102
RTVSPost2010PropOp36
 70
     1
102
RTVSPost2010Prop37
 90
       50
102
RTVSPost2010PropOp37
 70
     1
102
RTVSPost2010Prop38
140
0.0
102
RTVSPost2010PropOp38
 70
     1
102
RTVSPost2010Prop39
140
1.0
102
RTVSPost2010PropOp39
 70
     1
102
RTVSPost2010Prop40
 90
        0
102
RTVSPost2010PropOp40
 70
     1
102
RTVSPost2010Prop41ColorIndex
 90
       18
102
RTVSPost2010Prop41ColorRGB
 90
        0
102
RTVSPost2010PropOp41
 70
     1
102
RTVSPost2010Prop42
 90
       50
102
RTVSPost2010PropOp42
 70
     1
102
RTVSPost2010Prop43
 90
        3
102
RTVSPost2010PropOp43
 70
     1
102
RTVSPost2010Prop44ColorIndex
 90
        5
102
RTVSPost2010Prop44ColorRGB
 90
      255
102
RTVSPost2010PropOp44
 70
     1
102
RTVSPost2010Prop45
280
     0
102
RTVSPost2010PropOp45
 70
     1
102
RTVSPost2010Prop46
 90
       50
102
RTVSPost2010PropOp46
 70
     1
102
RTVSPost2010Prop47
 90
       50
102
RTVSPost2010PropOp47
 70
     1
102
RTVSPost2010Prop48
 90
       50
102
RTVSPost2010PropOp48
 70
     1
102
RTVSPost2010Prop49
280
     0
102
RTVSPost2010PropOp49
 70
     1
102
RTVSPost2010Prop50
 90
       50
102
RTVSPost2010PropOp50
 70
     1
102
RTVSPost2010Prop51ColorIndex
 90
      256
102
RTVSPost2010Prop51ColorRGB
 90
-16777216
102
RTVSPost2010PropOp51
 70
     0
102
RTVSPost2010Prop52
140
1.0
102
RTVSPost2010PropOp52
 70
     0
102
RTVSPost2010Prop53
 90
        2
102
RTVSPost2010PropOp53
 70
     1
102
RTVSPost2010Prop54
  1
strokes_ogs.tif
102
RTVSPost2010PropOp54
 70
     1
102
RTVSPost2010Prop55
280
     0
102
RTVSPost2010PropOp55
 70
     1
102
RTVSPost2010Prop56
140
1.0
102
RTVSPost2010PropOp56
 70
     1
102
RTVSPost2010Prop57
140
1.0
102
RTVSPost2010PropOp57
 70
     1
102
RTVSPropertyOp0
 70
     1
102
RTVSPropertyOp1
 70
     1
102
RTVSPropertyOp2
 70
     1
102
RTVSPropertyOp3
 70
     1
102
RTVSPropertyOp4
 70
     1
102
RTVSPropertyOp5
 70
     1
102
RTVSPropertyOp6
 70
     1
102
RTVSPropertyOp7
 70
     1
102
RTVSPropertyOp8
 70
     1
102
RTVSPropertyOp9
 70
     1
102
RTVSPropertyOp10
 70
     1
102
RTVSPropertyOp11
 70
     1
102
RTVSPropertyOp12
 70
     1
102
RTVSPropertyOp13
 70
     1
102
RTVSPropertyOp14
 70
     1
102
RTVSPropertyOp15
 70
     1
102
RTVSPropertyOp16
 70
     1
102
RTVSPropertyOp17
 70
     1
102
RTVSPropertyOp18
 70
     1
102
RTVSPropertyOp19
 70
     1
102
RTVSPropertyOp20
 70
     1
102
RTVSPropertyOp21
 70
     1
102
RTVSPropertyOp22
 70
     1
102
RTVSPropertyOp23
 70
     1
102
RTVSPropertyOp24
 70
     1
102
RTVSPropertyOp25
 70
     1
102
RTVSPropertyOp26
 70
     1
102
RTVSPropertyOp27
 70
     1
102
RTVSPropertyOp28
 70
     1
102
RTVSPropertyOp29
 70
     1
102
RTVSPropertyOp30
 70
     1
102
RTVSPropertyOp31
 70
     1
102
RTVSPropertyOp32
 70
     1
102
RTVSPropertyOp33
 70
     1
102
RTVSPropertyOp34
 70
     1
102
RTVSPropertyOp35
 70
     1
102
RTVSPropertyOp36
 70
     1
102
RTVSPropertyOp37
 70
     1
102
RTVSPropertyOp38
 70
     1
102
RTVSPropertyOp39
 70
     1
102
RTVSPropertyOp40
 70
     1
102
RTVSPropertyOp41
 70
     1
102
RTVSPropertyOp42
 70
     1
102
RTVSPropertyOp43
 70
     1
102
RTVSPropertyOp44
 70
     1
102
RTVSPropertyOp45
 70
     1
102
RTVSPropertyOp46
 70
     1
102
RTVSPropertyOp47
 70
     1
102
RTVSPropertyOp48
 70
     1
102
RTVSPropertyOp49
 70
     1
102
RTVSPropertyOp50
 70
     1
102
RTVSPropertyOp51
 70
     0
102
RTVSPropertyOp52
 70
     0
102
RTVSPropertyOp53
 70
     1
102
RTVSPropertyOp54
 70
     1
102
RTVSPropertyOp55
 70
     1
102
RTVSPropertyOp56
 70
     1
102
RTVSPropertyOp57
 70
     1
102
RTVSPropertyOp58
 70
     1
102
RTVSPropertyOp59
 70
     1
102
RTVSPropertyOp60
 70
     1
102
RTVSPropertyOp61
 70
     1
102
RTVSPropertyOp62
 70
     1
  0
XRECORD
  5
A8C2
102
{ACAD_REACTORS
330
A8C1
102
}
330
A8C1
100
AcDbXrecord
280
     1
102
RTVSPost2010Prop28
280
     0
102
RTVSPost2010PropOp28
 70
     1
102
RTVSPost2010Prop29
280
     1
102
RTVSPost2010PropOp29
 70
     1
102
RTVSPost2010Prop30
280
     1
102
RTVSPost2010PropOp30
 70
     1
102
RTVSPost2010Prop31
280
     0
102
RTVSPost2010PropOp31
 70
     1
102
RTVSPost2010Prop32
280
     0
102
RTVSPost2010PropOp32
 70
     1
102
RTVSPost2010Prop33
280
     0
102
RTVSPost2010PropOp33
 70
     1
102
RTVSPost2010Prop34
280
     0
102
RTVSPost2010PropOp34
 70
     1
102
RTVSPost2010Prop35
280
     0
102
RTVSPost2010PropOp35
 70
     1
102
RTVSPost2010Prop36
280
     0
102
RTVSPost2010PropOp36
 70
     1
102
RTVSPost2010Prop37
 90
       50
102
RTVSPost2010PropOp37
 70
     1
102
RTVSPost2010Prop38
140
0.0
102
RTVSPost2010PropOp38
 70
     1
102
RTVSPost2010Prop39
140
1.0
102
RTVSPost2010PropOp39
 70
     1
102
RTVSPost2010Prop40
 90
        0
102
RTVSPost2010PropOp40
 70
     1
102
RTVSPost2010Prop41ColorIndex
 90
       18
102
RTVSPost2010Prop41ColorRGB
 90
        0
102
RTVSPost2010PropOp41
 70
     1
102
RTVSPost2010Prop42
 90
       50
102
RTVSPost2010PropOp42
 70
     1
102
RTVSPost2010Prop43
 90
        3
102
RTVSPost2010PropOp43
 70
     1
102
RTVSPost2010Prop44ColorIndex
 90
        5
102
RTVSPost2010Prop44ColorRGB
 90
      255
102
RTVSPost2010PropOp44
 70
     1
102
RTVSPost2010Prop45
280
     0
102
RTVSPost2010PropOp45
 70
     1
102
RTVSPost2010Prop46
 90
       50
102
RTVSPost2010PropOp46
 70
     1
102
RTVSPost2010Prop47
 90
       50
102
RTVSPost2010PropOp47
 70
     1
102
RTVSPost2010Prop48
 90
       50
102
RTVSPost2010PropOp48
 70
     1
102
RTVSPost2010Prop49
280
     0
102
RTVSPost2010PropOp49
 70
     1
102
RTVSPost2010Prop50
 90
       50
102
RTVSPost2010PropOp50
 70
     1
102
RTVSPost2010Prop51ColorIndex
 90
      256
102
RTVSPost2010Prop51ColorRGB
 90
-16777216
102
RTVSPost2010PropOp51
 70
     0
102
RTVSPost2010Prop52
140
1.0
102
RTVSPost2010PropOp52
 70
     0
102
RTVSPost2010Prop53
 90
        2
102
RTVSPost2010PropOp53
 70
     1
102
RTVSPost2010Prop54
  1
strokes_ogs.tif
102
RTVSPost2010PropOp54
 70
     1
102
RTVSPost2010Prop55
280
     0
102
RTVSPost2010PropOp55
 70
     1
102
RTVSPost2010Prop56
140
1.0
102
RTVSPost2010PropOp56
 70
     1
102
RTVSPost2010Prop57
140
1.0
102
RTVSPost2010PropOp57
 70
     1
102
RTVSPropertyOp0
 70
     1
102
RTVSPropertyOp1
 70
     1
102
RTVSPropertyOp2
 70
     1
102
RTVSPropertyOp3
 70
     1
102
RTVSPropertyOp4
 70
     1
102
RTVSPropertyOp5
 70
     1
102
RTVSPropertyOp6
 70
     1
102
RTVSPropertyOp7
 70
     1
102
RTVSPropertyOp8
 70
     1
102
RTVSPropertyOp9
 70
     1
102
RTVSPropertyOp10
 70
     1
102
RTVSPropertyOp11
 70
     1
102
RTVSPropertyOp12
 70
     1
102
RTVSPropertyOp13
 70
     1
102
RTVSPropertyOp14
 70
     1
102
RTVSPropertyOp15
 70
     1
102
RTVSPropertyOp16
 70
     1
102
RTVSPropertyOp17
 70
     1
102
RTVSPropertyOp18
 70
     1
102
RTVSPropertyOp19
 70
     1
102
RTVSPropertyOp20
 70
     1
102
RTVSPropertyOp21
 70
     1
102
RTVSPropertyOp22
 70
     1
102
RTVSPropertyOp23
 70
     1
102
RTVSPropertyOp24
 70
     1
102
RTVSPropertyOp25
 70
     1
102
RTVSPropertyOp26
 70
     1
102
RTVSPropertyOp27
 70
     1
102
RTVSPropertyOp28
 70
     1
102
RTVSPropertyOp29
 70
     1
102
RTVSPropertyOp30
 70
     1
102
RTVSPropertyOp31
 70
     1
102
RTVSPropertyOp32
 70
     1
102
RTVSPropertyOp33
 70
     1
102
RTVSPropertyOp34
 70
     1
102
RTVSPropertyOp35
 70
     1
102
RTVSPropertyOp36
 70
     1
102
RTVSPropertyOp37
 70
     1
102
RTVSPropertyOp38
 70
     1
102
RTVSPropertyOp39
 70
     1
102
RTVSPropertyOp40
 70
     1
102
RTVSPropertyOp41
 70
     1
102
RTVSPropertyOp42
 70
     1
102
RTVSPropertyOp43
 70
     1
102
RTVSPropertyOp44
 70
     1
102
RTVSPropertyOp45
 70
     1
102
RTVSPropertyOp46
 70
     1
102
RTVSPropertyOp47
 70
     1
102
RTVSPropertyOp48
 70
     1
102
RTVSPropertyOp49
 70
     1
102
RTVSPropertyOp50
 70
     1
102
RTVSPropertyOp51
 70
     0
102
RTVSPropertyOp52
 70
     0
102
RTVSPropertyOp53
 70
     1
102
RTVSPropertyOp54
 70
     1
102
RTVSPropertyOp55
 70
     1
102
RTVSPropertyOp56
 70
     1
102
RTVSPropertyOp57
 70
     1
102
RTVSPropertyOp58
 70
     1
102
RTVSPropertyOp59
 70
     1
102
RTVSPropertyOp60
 70
     1
102
RTVSPropertyOp61
 70
     1
102
RTVSPropertyOp62
 70
     1
  0
XRECORD
  5
A8C4
102
{ACAD_REACTORS
330
A8C3
102
}
330
A8C3
100
AcDbXrecord
280
     1
102
RTVSPost2010Prop28
280
     0
102
RTVSPost2010PropOp28
 70
     1
102
RTVSPost2010Prop29
280
     1
102
RTVSPost2010PropOp29
 70
     1
102
RTVSPost2010Prop30
280
     1
102
RTVSPost2010PropOp30
 70
     1
102
RTVSPost2010Prop31
280
     0
102
RTVSPost2010PropOp31
 70
     1
102
RTVSPost2010Prop32
280
     0
102
RTVSPost2010PropOp32
 70
     1
102
RTVSPost2010Prop33
280
     0
102
RTVSPost2010PropOp33
 70
     1
102
RTVSPost2010Prop34
280
     0
102
RTVSPost2010PropOp34
 70
     1
102
RTVSPost2010Prop35
280
     0
102
RTVSPost2010PropOp35
 70
     1
102
RTVSPost2010Prop36
280
     0
102
RTVSPost2010PropOp36
 70
     1
102
RTVSPost2010Prop37
 90
       50
102
RTVSPost2010PropOp37
 70
     1
102
RTVSPost2010Prop38
140
0.0
102
RTVSPost2010PropOp38
 70
     1
102
RTVSPost2010Prop39
140
1.0
102
RTVSPost2010PropOp39
 70
     1
102
RTVSPost2010Prop40
 90
        0
102
RTVSPost2010PropOp40
 70
     1
102
RTVSPost2010Prop41ColorIndex
 90
       18
102
RTVSPost2010Prop41ColorRGB
 90
        0
102
RTVSPost2010PropOp41
 70
     1
102
RTVSPost2010Prop42
 90
       50
102
RTVSPost2010PropOp42
 70
     1
102
RTVSPost2010Prop43
 90
        3
102
RTVSPost2010PropOp43
 70
     1
102
RTVSPost2010Prop44ColorIndex
 90
        5
102
RTVSPost2010Prop44ColorRGB
 90
      255
102
RTVSPost2010PropOp44
 70
     1
102
RTVSPost2010Prop45
280
     0
102
RTVSPost2010PropOp45
 70
     1
102
RTVSPost2010Prop46
 90
       50
102
RTVSPost2010PropOp46
 70
     1
102
RTVSPost2010Prop47
 90
       50
102
RTVSPost2010PropOp47
 70
     1
102
RTVSPost2010Prop48
 90
       50
102
RTVSPost2010PropOp48
 70
     1
102
RTVSPost2010Prop49
280
     0
102
RTVSPost2010PropOp49
 70
     1
102
RTVSPost2010Prop50
 90
       50
102
RTVSPost2010PropOp50
 70
     1
102
RTVSPost2010Prop51ColorIndex
 90
      256
102
RTVSPost2010Prop51ColorRGB
 90
-16777216
102
RTVSPost2010PropOp51
 70
     0
102
RTVSPost2010Prop52
140
1.0
102
RTVSPost2010PropOp52
 70
     0
102
RTVSPost2010Prop53
 90
        2
102
RTVSPost2010PropOp53
 70
     1
102
RTVSPost2010Prop54
  1
strokes_ogs.tif
102
RTVSPost2010PropOp54
 70
     1
102
RTVSPost2010Prop55
280
     0
102
RTVSPost2010PropOp55
 70
     1
102
RTVSPost2010Prop56
140
1.0
102
RTVSPost2010PropOp56
 70
     1
102
RTVSPost2010Prop57
140
1.0
102
RTVSPost2010PropOp57
 70
     1
102
RTVSPropertyOp0
 70
     1
102
RTVSPropertyOp1
 70
     1
102
RTVSPropertyOp2
 70
     1
102
RTVSPropertyOp3
 70
     1
102
RTVSPropertyOp4
 70
     1
102
RTVSPropertyOp5
 70
     1
102
RTVSPropertyOp6
 70
     1
102
RTVSPropertyOp7
 70
     1
102
RTVSPropertyOp8
 70
     1
102
RTVSPropertyOp9
 70
     1
102
RTVSPropertyOp10
 70
     1
102
RTVSPropertyOp11
 70
     1
102
RTVSPropertyOp12
 70
     1
102
RTVSPropertyOp13
 70
     1
102
RTVSPropertyOp14
 70
     1
102
RTVSPropertyOp15
 70
     1
102
RTVSPropertyOp16
 70
     1
102
RTVSPropertyOp17
 70
     1
102
RTVSPropertyOp18
 70
     1
102
RTVSPropertyOp19
 70
     1
102
RTVSPropertyOp20
 70
     1
102
RTVSPropertyOp21
 70
     1
102
RTVSPropertyOp22
 70
     1
102
RTVSPropertyOp23
 70
     1
102
RTVSPropertyOp24
 70
     1
102
RTVSPropertyOp25
 70
     1
102
RTVSPropertyOp26
 70
     1
102
RTVSPropertyOp27
 70
     1
102
RTVSPropertyOp28
 70
     1
102
RTVSPropertyOp29
 70
     1
102
RTVSPropertyOp30
 70
     1
102
RTVSPropertyOp31
 70
     1
102
RTVSPropertyOp32
 70
     1
102
RTVSPropertyOp33
 70
     1
102
RTVSPropertyOp34
 70
     1
102
RTVSPropertyOp35
 70
     1
102
RTVSPropertyOp36
 70
     1
102
RTVSPropertyOp37
 70
     1
102
RTVSPropertyOp38
 70
     1
102
RTVSPropertyOp39
 70
     1
102
RTVSPropertyOp40
 70
     1
102
RTVSPropertyOp41
 70
     1
102
RTVSPropertyOp42
 70
     1
102
RTVSPropertyOp43
 70
     1
102
RTVSPropertyOp44
 70
     1
102
RTVSPropertyOp45
 70
     1
102
RTVSPropertyOp46
 70
     1
102
RTVSPropertyOp47
 70
     1
102
RTVSPropertyOp48
 70
     1
102
RTVSPropertyOp49
 70
     1
102
RTVSPropertyOp50
 70
     1
102
RTVSPropertyOp51
 70
     0
102
RTVSPropertyOp52
 70
     0
102
RTVSPropertyOp53
 70
     1
102
RTVSPropertyOp54
 70
     1
102
RTVSPropertyOp55
 70
     1
102
RTVSPropertyOp56
 70
     1
102
RTVSPropertyOp57
 70
     1
102
RTVSPropertyOp58
 70
     1
102
RTVSPropertyOp59
 70
     1
102
RTVSPropertyOp60
 70
     1
102
RTVSPropertyOp61
 70
     1
102
RTVSPropertyOp62
 70
     1
  0
XRECORD
  5
A8C6
102
{ACAD_REACTORS
330
A8C5
102
}
330
A8C5
100
AcDbXrecord
280
     1
102
RTVSPost2010Prop28
280
     0
102
RTVSPost2010PropOp28
 70
     1
102
RTVSPost2010Prop29
280
     1
102
RTVSPost2010PropOp29
 70
     1
102
RTVSPost2010Prop30
280
     1
102
RTVSPost2010PropOp30
 70
     1
102
RTVSPost2010Prop31
280
     0
102
RTVSPost2010PropOp31
 70
     1
102
RTVSPost2010Prop32
280
     0
102
RTVSPost2010PropOp32
 70
     1
102
RTVSPost2010Prop33
280
     0
102
RTVSPost2010PropOp33
 70
     1
102
RTVSPost2010Prop34
280
     0
102
RTVSPost2010PropOp34
 70
     1
102
RTVSPost2010Prop35
280
     0
102
RTVSPost2010PropOp35
 70
     1
102
RTVSPost2010Prop36
280
     0
102
RTVSPost2010PropOp36
 70
     1
102
RTVSPost2010Prop37
 90
       50
102
RTVSPost2010PropOp37
 70
     1
102
RTVSPost2010Prop38
140
0.0
102
RTVSPost2010PropOp38
 70
     1
102
RTVSPost2010Prop39
140
1.0
102
RTVSPost2010PropOp39
 70
     1
102
RTVSPost2010Prop40
 90
        0
102
RTVSPost2010PropOp40
 70
     1
102
RTVSPost2010Prop41ColorIndex
 90
       18
102
RTVSPost2010Prop41ColorRGB
 90
        0
102
RTVSPost2010PropOp41
 70
     1
102
RTVSPost2010Prop42
 90
       50
102
RTVSPost2010PropOp42
 70
     1
102
RTVSPost2010Prop43
 90
        3
102
RTVSPost2010PropOp43
 70
     1
102
RTVSPost2010Prop44ColorIndex
 90
        5
102
RTVSPost2010Prop44ColorRGB
 90
      255
102
RTVSPost2010PropOp44
 70
     1
102
RTVSPost2010Prop45
280
     0
102
RTVSPost2010PropOp45
 70
     1
102
RTVSPost2010Prop46
 90
       50
102
RTVSPost2010PropOp46
 70
     1
102
RTVSPost2010Prop47
 90
       50
102
RTVSPost2010PropOp47
 70
     1
102
RTVSPost2010Prop48
 90
       50
102
RTVSPost2010PropOp48
 70
     1
102
RTVSPost2010Prop49
280
     0
102
RTVSPost2010PropOp49
 70
     1
102
RTVSPost2010Prop50
 90
       50
102
RTVSPost2010PropOp50
 70
     1
102
RTVSPost2010Prop51ColorIndex
 90
      256
102
RTVSPost2010Prop51ColorRGB
 90
-16777216
102
RTVSPost2010PropOp51
 70
     0
102
RTVSPost2010Prop52
140
1.0
102
RTVSPost2010PropOp52
 70
     0
102
RTVSPost2010Prop53
 90
        2
102
RTVSPost2010PropOp53
 70
     1
102
RTVSPost2010Prop54
  1
strokes_ogs.tif
102
RTVSPost2010PropOp54
 70
     1
102
RTVSPost2010Prop55
280
     0
102
RTVSPost2010PropOp55
 70
     1
102
RTVSPost2010Prop56
140
1.0
102
RTVSPost2010PropOp56
 70
     1
102
RTVSPost2010Prop57
140
1.0
102
RTVSPost2010PropOp57
 70
     1
102
RTVSPropertyOp0
 70
     1
102
RTVSPropertyOp1
 70
     1
102
RTVSPropertyOp2
 70
     1
102
RTVSPropertyOp3
 70
     1
102
RTVSPropertyOp4
 70
     1
102
RTVSPropertyOp5
 70
     1
102
RTVSPropertyOp6
 70
     1
102
RTVSPropertyOp7
 70
     1
102
RTVSPropertyOp8
 70
     1
102
RTVSPropertyOp9
 70
     1
102
RTVSPropertyOp10
 70
     1
102
RTVSPropertyOp11
 70
     1
102
RTVSPropertyOp12
 70
     1
102
RTVSPropertyOp13
 70
     1
102
RTVSPropertyOp14
 70
     1
102
RTVSPropertyOp15
 70
     1
102
RTVSPropertyOp16
 70
     1
102
RTVSPropertyOp17
 70
     1
102
RTVSPropertyOp18
 70
     1
102
RTVSPropertyOp19
 70
     1
102
RTVSPropertyOp20
 70
     1
102
RTVSPropertyOp21
 70
     1
102
RTVSPropertyOp22
 70
     1
102
RTVSPropertyOp23
 70
     1
102
RTVSPropertyOp24
 70
     1
102
RTVSPropertyOp25
 70
     1
102
RTVSPropertyOp26
 70
     1
102
RTVSPropertyOp27
 70
     1
102
RTVSPropertyOp28
 70
     1
102
RTVSPropertyOp29
 70
     1
102
RTVSPropertyOp30
 70
     1
102
RTVSPropertyOp31
 70
     1
102
RTVSPropertyOp32
 70
     1
102
RTVSPropertyOp33
 70
     1
102
RTVSPropertyOp34
 70
     1
102
RTVSPropertyOp35
 70
     1
102
RTVSPropertyOp36
 70
     1
102
RTVSPropertyOp37
 70
     1
102
RTVSPropertyOp38
 70
     1
102
RTVSPropertyOp39
 70
     1
102
RTVSPropertyOp40
 70
     1
102
RTVSPropertyOp41
 70
     1
102
RTVSPropertyOp42
 70
     1
102
RTVSPropertyOp43
 70
     1
102
RTVSPropertyOp44
 70
     1
102
RTVSPropertyOp45
 70
     1
102
RTVSPropertyOp46
 70
     1
102
RTVSPropertyOp47
 70
     1
102
RTVSPropertyOp48
 70
     1
102
RTVSPropertyOp49
 70
     1
102
RTVSPropertyOp50
 70
     1
102
RTVSPropertyOp51
 70
     0
102
RTVSPropertyOp52
 70
     0
102
RTVSPropertyOp53
 70
     1
102
RTVSPropertyOp54
 70
     1
102
RTVSPropertyOp55
 70
     1
102
RTVSPropertyOp56
 70
     1
102
RTVSPropertyOp57
 70
     1
102
RTVSPropertyOp58
 70
     1
102
RTVSPropertyOp59
 70
     1
102
RTVSPropertyOp60
 70
     1
102
RTVSPropertyOp61
 70
     1
102
RTVSPropertyOp62
 70
     1
  0
XRECORD
  5
A8C8
102
{ACAD_REACTORS
330
A8C7
102
}
330
A8C7
100
AcDbXrecord
280
     1
102
RTVSPost2010Prop28
280
     0
102
RTVSPost2010PropOp28
 70
     1
102
RTVSPost2010Prop29
280
     1
102
RTVSPost2010PropOp29
 70
     1
102
RTVSPost2010Prop30
280
     1
102
RTVSPost2010PropOp30
 70
     1
102
RTVSPost2010Prop31
280
     0
102
RTVSPost2010PropOp31
 70
     1
102
RTVSPost2010Prop32
280
     0
102
RTVSPost2010PropOp32
 70
     1
102
RTVSPost2010Prop33
280
     0
102
RTVSPost2010PropOp33
 70
     1
102
RTVSPost2010Prop34
280
     0
102
RTVSPost2010PropOp34
 70
     1
102
RTVSPost2010Prop35
280
     0
102
RTVSPost2010PropOp35
 70
     1
102
RTVSPost2010Prop36
280
     0
102
RTVSPost2010PropOp36
 70
     1
102
RTVSPost2010Prop37
 90
       50
102
RTVSPost2010PropOp37
 70
     1
102
RTVSPost2010Prop38
140
0.0
102
RTVSPost2010PropOp38
 70
     1
102
RTVSPost2010Prop39
140
1.0
102
RTVSPost2010PropOp39
 70
     1
102
RTVSPost2010Prop40
 90
        0
102
RTVSPost2010PropOp40
 70
     1
102
RTVSPost2010Prop41ColorIndex
 90
       18
102
RTVSPost2010Prop41ColorRGB
 90
        0
102
RTVSPost2010PropOp41
 70
     1
102
RTVSPost2010Prop42
 90
       50
102
RTVSPost2010PropOp42
 70
     1
102
RTVSPost2010Prop43
 90
        3
102
RTVSPost2010PropOp43
 70
     1
102
RTVSPost2010Prop44ColorIndex
 90
        5
102
RTVSPost2010Prop44ColorRGB
 90
      255
102
RTVSPost2010PropOp44
 70
     1
102
RTVSPost2010Prop45
280
     0
102
RTVSPost2010PropOp45
 70
     1
102
RTVSPost2010Prop46
 90
       50
102
RTVSPost2010PropOp46
 70
     1
102
RTVSPost2010Prop47
 90
       50
102
RTVSPost2010PropOp47
 70
     1
102
RTVSPost2010Prop48
 90
       50
102
RTVSPost2010PropOp48
 70
     1
102
RTVSPost2010Prop49
280
     0
102
RTVSPost2010PropOp49
 70
     1
102
RTVSPost2010Prop50
 90
       50
102
RTVSPost2010PropOp50
 70
     1
102
RTVSPost2010Prop51ColorIndex
 90
      256
102
RTVSPost2010Prop51ColorRGB
 90
-16777216
102
RTVSPost2010PropOp51
 70
     0
102
RTVSPost2010Prop52
140
1.0
102
RTVSPost2010PropOp52
 70
     0
102
RTVSPost2010Prop53
 90
        2
102
RTVSPost2010PropOp53
 70
     1
102
RTVSPost2010Prop54
  1
strokes_ogs.tif
102
RTVSPost2010PropOp54
 70
     1
102
RTVSPost2010Prop55
280
     0
102
RTVSPost2010PropOp55
 70
     1
102
RTVSPost2010Prop56
140
1.0
102
RTVSPost2010PropOp56
 70
     1
102
RTVSPost2010Prop57
140
1.0
102
RTVSPost2010PropOp57
 70
     1
102
RTVSPropertyOp0
 70
     1
102
RTVSPropertyOp1
 70
     1
102
RTVSPropertyOp2
 70
     1
102
RTVSPropertyOp3
 70
     1
102
RTVSPropertyOp4
 70
     1
102
RTVSPropertyOp5
 70
     1
102
RTVSPropertyOp6
 70
     1
102
RTVSPropertyOp7
 70
     1
102
RTVSPropertyOp8
 70
     1
102
RTVSPropertyOp9
 70
     1
102
RTVSPropertyOp10
 70
     1
102
RTVSPropertyOp11
 70
     1
102
RTVSPropertyOp12
 70
     1
102
RTVSPropertyOp13
 70
     1
102
RTVSPropertyOp14
 70
     1
102
RTVSPropertyOp15
 70
     1
102
RTVSPropertyOp16
 70
     1
102
RTVSPropertyOp17
 70
     1
102
RTVSPropertyOp18
 70
     1
102
RTVSPropertyOp19
 70
     1
102
RTVSPropertyOp20
 70
     1
102
RTVSPropertyOp21
 70
     1
102
RTVSPropertyOp22
 70
     1
102
RTVSPropertyOp23
 70
     1
102
RTVSPropertyOp24
 70
     1
102
RTVSPropertyOp25
 70
     1
102
RTVSPropertyOp26
 70
     1
102
RTVSPropertyOp27
 70
     1
102
RTVSPropertyOp28
 70
     1
102
RTVSPropertyOp29
 70
     1
102
RTVSPropertyOp30
 70
     1
102
RTVSPropertyOp31
 70
     1
102
RTVSPropertyOp32
 70
     1
102
RTVSPropertyOp33
 70
     1
102
RTVSPropertyOp34
 70
     1
102
RTVSPropertyOp35
 70
     1
102
RTVSPropertyOp36
 70
     1
102
RTVSPropertyOp37
 70
     1
102
RTVSPropertyOp38
 70
     1
102
RTVSPropertyOp39
 70
     1
102
RTVSPropertyOp40
 70
     1
102
RTVSPropertyOp41
 70
     1
102
RTVSPropertyOp42
 70
     1
102
RTVSPropertyOp43
 70
     1
102
RTVSPropertyOp44
 70
     1
102
RTVSPropertyOp45
 70
     1
102
RTVSPropertyOp46
 70
     1
102
RTVSPropertyOp47
 70
     1
102
RTVSPropertyOp48
 70
     1
102
RTVSPropertyOp49
 70
     1
102
RTVSPropertyOp50
 70
     1
102
RTVSPropertyOp51
 70
     0
102
RTVSPropertyOp52
 70
     0
102
RTVSPropertyOp53
 70
     1
102
RTVSPropertyOp54
 70
     1
102
RTVSPropertyOp55
 70
     1
102
RTVSPropertyOp56
 70
     1
102
RTVSPropertyOp57
 70
     1
102
RTVSPropertyOp58
 70
     1
102
RTVSPropertyOp59
 70
     1
102
RTVSPropertyOp60
 70
     1
102
RTVSPropertyOp61
 70
     1
102
RTVSPropertyOp62
 70
     1
  0
XRECORD
  5
A8D0
102
{ACAD_REACTORS
330
A8CF
102
}
330
A8CF
100
AcDbXrecord
280
     1
102
RTVSPost2010Prop28
280
     0
102
RTVSPost2010PropOp28
 70
     1
102
RTVSPost2010Prop29
280
     1
102
RTVSPost2010PropOp29
 70
     1
102
RTVSPost2010Prop30
280
     1
102
RTVSPost2010PropOp30
 70
     1
102
RTVSPost2010Prop31
280
     0
102
RTVSPost2010PropOp31
 70
     1
102
RTVSPost2010Prop32
280
     0
102
RTVSPost2010PropOp32
 70
     1
102
RTVSPost2010Prop33
280
     0
102
RTVSPost2010PropOp33
 70
     1
102
RTVSPost2010Prop34
280
     0
102
RTVSPost2010PropOp34
 70
     1
102
RTVSPost2010Prop35
280
     0
102
RTVSPost2010PropOp35
 70
     1
102
RTVSPost2010Prop36
280
     0
102
RTVSPost2010PropOp36
 70
     1
102
RTVSPost2010Prop37
 90
       50
102
RTVSPost2010PropOp37
 70
     1
102
RTVSPost2010Prop38
140
0.0
102
RTVSPost2010PropOp38
 70
     1
102
RTVSPost2010Prop39
140
1.0
102
RTVSPost2010PropOp39
 70
     1
102
RTVSPost2010Prop40
 90
        0
102
RTVSPost2010PropOp40
 70
     1
102
RTVSPost2010Prop41ColorIndex
 90
       18
102
RTVSPost2010Prop41ColorRGB
 90
        0
102
RTVSPost2010PropOp41
 70
     1
102
RTVSPost2010Prop42
 90
       50
102
RTVSPost2010PropOp42
 70
     1
102
RTVSPost2010Prop43
 90
        3
102
RTVSPost2010PropOp43
 70
     1
102
RTVSPost2010Prop44ColorIndex
 90
        5
102
RTVSPost2010Prop44ColorRGB
 90
      255
102
RTVSPost2010PropOp44
 70
     1
102
RTVSPost2010Prop45
280
     0
102
RTVSPost2010PropOp45
 70
     1
102
RTVSPost2010Prop46
 90
       50
102
RTVSPost2010PropOp46
 70
     1
102
RTVSPost2010Prop47
 90
       50
102
RTVSPost2010PropOp47
 70
     1
102
RTVSPost2010Prop48
 90
       50
102
RTVSPost2010PropOp48
 70
     1
102
RTVSPost2010Prop49
280
     0
102
RTVSPost2010PropOp49
 70
     1
102
RTVSPost2010Prop50
 90
       50
102
RTVSPost2010PropOp50
 70
     1
102
RTVSPost2010Prop51ColorIndex
 90
      256
102
RTVSPost2010Prop51ColorRGB
 90
-16777216
102
RTVSPost2010PropOp51
 70
     0
102
RTVSPost2010Prop52
140
1.0
102
RTVSPost2010PropOp52
 70
     0
102
RTVSPost2010Prop53
 90
        2
102
RTVSPost2010PropOp53
 70
     1
102
RTVSPost2010Prop54
  1
strokes_ogs.tif
102
RTVSPost2010PropOp54
 70
     1
102
RTVSPost2010Prop55
280
     0
102
RTVSPost2010PropOp55
 70
     1
102
RTVSPost2010Prop56
140
1.0
102
RTVSPost2010PropOp56
 70
     1
102
RTVSPost2010Prop57
140
1.0
102
RTVSPost2010PropOp57
 70
     1
102
RTVSPropertyOp0
 70
     1
102
RTVSPropertyOp1
 70
     1
102
RTVSPropertyOp2
 70
     1
102
RTVSPropertyOp3
 70
     1
102
RTVSPropertyOp4
 70
     1
102
RTVSPropertyOp5
 70
     1
102
RTVSPropertyOp6
 70
     1
102
RTVSPropertyOp7
 70
     1
102
RTVSPropertyOp8
 70
     1
102
RTVSPropertyOp9
 70
     1
102
RTVSPropertyOp10
 70
     1
102
RTVSPropertyOp11
 70
     1
102
RTVSPropertyOp12
 70
     1
102
RTVSPropertyOp13
 70
     1
102
RTVSPropertyOp14
 70
     1
102
RTVSPropertyOp15
 70
     1
102
RTVSPropertyOp16
 70
     1
102
RTVSPropertyOp17
 70
     1
102
RTVSPropertyOp18
 70
     1
102
RTVSPropertyOp19
 70
     1
102
RTVSPropertyOp20
 70
     1
102
RTVSPropertyOp21
 70
     1
102
RTVSPropertyOp22
 70
     1
102
RTVSPropertyOp23
 70
     1
102
RTVSPropertyOp24
 70
     1
102
RTVSPropertyOp25
 70
     1
102
RTVSPropertyOp26
 70
     1
102
RTVSPropertyOp27
 70
     1
102
RTVSPropertyOp28
 70
     1
102
RTVSPropertyOp29
 70
     1
102
RTVSPropertyOp30
 70
     1
102
RTVSPropertyOp31
 70
     1
102
RTVSPropertyOp32
 70
     1
102
RTVSPropertyOp33
 70
     1
102
RTVSPropertyOp34
 70
     1
102
RTVSPropertyOp35
 70
     1
102
RTVSPropertyOp36
 70
     1
102
RTVSPropertyOp37
 70
     1
102
RTVSPropertyOp38
 70
     1
102
RTVSPropertyOp39
 70
     1
102
RTVSPropertyOp40
 70
     1
102
RTVSPropertyOp41
 70
     1
102
RTVSPropertyOp42
 70
     1
102
RTVSPropertyOp43
 70
     1
102
RTVSPropertyOp44
 70
     1
102
RTVSPropertyOp45
 70
     1
102
RTVSPropertyOp46
 70
     1
102
RTVSPropertyOp47
 70
     1
102
RTVSPropertyOp48
 70
     1
102
RTVSPropertyOp49
 70
     1
102
RTVSPropertyOp50
 70
     1
102
RTVSPropertyOp51
 70
     0
102
RTVSPropertyOp52
 70
     0
102
RTVSPropertyOp53
 70
     1
102
RTVSPropertyOp54
 70
     1
102
RTVSPropertyOp55
 70
     1
102
RTVSPropertyOp56
 70
     1
102
RTVSPropertyOp57
 70
     1
102
RTVSPropertyOp58
 70
     1
102
RTVSPropertyOp59
 70
     1
102
RTVSPropertyOp60
 70
     1
102
RTVSPropertyOp61
 70
     1
102
RTVSPropertyOp62
 70
     1
  0
XRECORD
  5
A8EC
102
{ACAD_REACTORS
330
A8EB
102
}
330
A8EB
100
AcDbXrecord
280
     1
102
RTVSPost2010Prop28
280
     0
102
RTVSPost2010PropOp28
 70
     1
102
RTVSPost2010Prop29
280
     1
102
RTVSPost2010PropOp29
 70
     1
102
RTVSPost2010Prop30
280
     1
102
RTVSPost2010PropOp30
 70
     1
102
RTVSPost2010Prop31
280
     0
102
RTVSPost2010PropOp31
 70
     1
102
RTVSPost2010Prop32
280
     0
102
RTVSPost2010PropOp32
 70
     1
102
RTVSPost2010Prop33
280
     0
102
RTVSPost2010PropOp33
 70
     1
102
RTVSPost2010Prop34
280
     0
102
RTVSPost2010PropOp34
 70
     1
102
RTVSPost2010Prop35
280
     0
102
RTVSPost2010PropOp35
 70
     1
102
RTVSPost2010Prop36
280
     0
102
RTVSPost2010PropOp36
 70
     1
102
RTVSPost2010Prop37
 90
       50
102
RTVSPost2010PropOp37
 70
     0
102
RTVSPost2010Prop38
140
0.0
102
RTVSPost2010PropOp38
 70
     0
102
RTVSPost2010Prop39
140
1.0
102
RTVSPost2010PropOp39
 70
     0
102
RTVSPost2010Prop40
 90
        0
102
RTVSPost2010PropOp40
 70
     0
102
RTVSPost2010Prop41ColorIndex
 90
       18
102
RTVSPost2010Prop41ColorRGB
 90
        0
102
RTVSPost2010PropOp41
 70
     0
102
RTVSPost2010Prop42
 90
       50
102
RTVSPost2010PropOp42
 70
     0
102
RTVSPost2010Prop43
 90
        3
102
RTVSPost2010PropOp43
 70
     0
102
RTVSPost2010Prop44ColorIndex
 90
        5
102
RTVSPost2010Prop44ColorRGB
 90
      255
102
RTVSPost2010PropOp44
 70
     0
102
RTVSPost2010Prop45
280
     0
102
RTVSPost2010PropOp45
 70
     1
102
RTVSPost2010Prop46
 90
       50
102
RTVSPost2010PropOp46
 70
     0
102
RTVSPost2010Prop47
 90
       50
102
RTVSPost2010PropOp47
 70
     0
102
RTVSPost2010Prop48
 90
       50
102
RTVSPost2010PropOp48
 70
     0
102
RTVSPost2010Prop49
280
     0
102
RTVSPost2010PropOp49
 70
     1
102
RTVSPost2010Prop50
 90
       50
102
RTVSPost2010PropOp50
 70
     0
102
RTVSPost2010Prop51ColorIndex
 90
      256
102
RTVSPost2010Prop51ColorRGB
 90
-16777216
102
RTVSPost2010PropOp51
 70
     0
102
RTVSPost2010Prop52
140
1.0
102
RTVSPost2010PropOp52
 70
     0
102
RTVSPost2010Prop53
 90
        2
102
RTVSPost2010PropOp53
 70
     0
102
RTVSPost2010Prop54
  1
strokes_ogs.tif
102
RTVSPost2010PropOp54
 70
     0
102
RTVSPost2010Prop55
280
     0
102
RTVSPost2010PropOp55
 70
     1
102
RTVSPost2010Prop56
140
1.0
102
RTVSPost2010PropOp56
 70
     0
102
RTVSPost2010Prop57
140
1.0
102
RTVSPost2010PropOp57
 70
     0
102
RTVSPropertyOp0
 70
     0
102
RTVSPropertyOp1
 70
     0
102
RTVSPropertyOp2
 70
     0
102
RTVSPropertyOp3
 70
     0
102
RTVSPropertyOp4
 70
     0
102
RTVSPropertyOp5
 70
     0
102
RTVSPropertyOp6
 70
     0
102
RTVSPropertyOp7
 70
     0
102
RTVSPropertyOp8
 70
     0
102
RTVSPropertyOp9
 70
     0
102
RTVSPropertyOp10
 70
     0
102
RTVSPropertyOp11
 70
     0
102
RTVSPropertyOp12
 70
     0
102
RTVSPropertyOp13
 70
     0
102
RTVSPropertyOp14
 70
     2
102
RTVSPropertyOp15
 70
     0
102
RTVSPropertyOp16
 70
     0
102
RTVSPropertyOp17
 70
     0
102
RTVSPropertyOp18
 70
     0
102
RTVSPropertyOp19
 70
     0
102
RTVSPropertyOp20
 70
     0
102
RTVSPropertyOp21
 70
     0
102
RTVSPropertyOp22
 70
     0
102
RTVSPropertyOp23
 70
     0
102
RTVSPropertyOp24
 70
     0
102
RTVSPropertyOp25
 70
     0
102
RTVSPropertyOp26
 70
     0
102
RTVSPropertyOp27
 70
     0
102
RTVSPropertyOp28
 70
     1
102
RTVSPropertyOp29
 70
     1
102
RTVSPropertyOp30
 70
     1
102
RTVSPropertyOp31
 70
     1
102
RTVSPropertyOp32
 70
     1
102
RTVSPropertyOp33
 70
     1
102
RTVSPropertyOp34
 70
     1
102
RTVSPropertyOp35
 70
     1
102
RTVSPropertyOp36
 70
     1
102
RTVSPropertyOp37
 70
     0
102
RTVSPropertyOp38
 70
     0
102
RTVSPropertyOp39
 70
     0
102
RTVSPropertyOp40
 70
     0
102
RTVSPropertyOp41
 70
     0
102
RTVSPropertyOp42
 70
     0
102
RTVSPropertyOp43
 70
     0
102
RTVSPropertyOp44
 70
     0
102
RTVSPropertyOp45
 70
     1
102
RTVSPropertyOp46
 70
     0
102
RTVSPropertyOp47
 70
     0
102
RTVSPropertyOp48
 70
     0
102
RTVSPropertyOp49
 70
     1
102
RTVSPropertyOp50
 70
     0
102
RTVSPropertyOp51
 70
     0
102
RTVSPropertyOp52
 70
     0
102
RTVSPropertyOp53
 70
     0
102
RTVSPropertyOp54
 70
     0
102
RTVSPropertyOp55
 70
     1
102
RTVSPropertyOp56
 70
     0
102
RTVSPropertyOp57
 70
     0
102
RTVSPropertyOp58
 70
     0
102
RTVSPropertyOp59
 70
     0
102
RTVSPropertyOp60
 70
     0
102
RTVSPropertyOp61
 70
     0
102
RTVSPropertyOp62
 70
     0
  0
XRECORD
  5
A8DC
102
{ACAD_REACTORS
330
A8DB
102
}
330
A8DB
100
AcDbXrecord
280
     1
102
RTVSPost2010Prop28
280
     0
102
RTVSPost2010PropOp28
 70
     1
102
RTVSPost2010Prop29
280
     1
102
RTVSPost2010PropOp29
 70
     1
102
RTVSPost2010Prop30
280
     1
102
RTVSPost2010PropOp30
 70
     1
102
RTVSPost2010Prop31
280
     0
102
RTVSPost2010PropOp31
 70
     1
102
RTVSPost2010Prop32
280
     0
102
RTVSPost2010PropOp32
 70
     1
102
RTVSPost2010Prop33
280
     0
102
RTVSPost2010PropOp33
 70
     1
102
RTVSPost2010Prop34
280
     0
102
RTVSPost2010PropOp34
 70
     1
102
RTVSPost2010Prop35
280
     0
102
RTVSPost2010PropOp35
 70
     1
102
RTVSPost2010Prop36
280
     0
102
RTVSPost2010PropOp36
 70
     1
102
RTVSPost2010Prop37
 90
       50
102
RTVSPost2010PropOp37
 70
     1
102
RTVSPost2010Prop38
140
0.0
102
RTVSPost2010PropOp38
 70
     1
102
RTVSPost2010Prop39
140
1.0
102
RTVSPost2010PropOp39
 70
     1
102
RTVSPost2010Prop40
 90
        0
102
RTVSPost2010PropOp40
 70
     1
102
RTVSPost2010Prop41ColorIndex
 90
       18
102
RTVSPost2010Prop41ColorRGB
 90
        0
102
RTVSPost2010PropOp41
 70
     1
102
RTVSPost2010Prop42
 90
       50
102
RTVSPost2010PropOp42
 70
     1
102
RTVSPost2010Prop43
 90
        3
102
RTVSPost2010PropOp43
 70
     1
102
RTVSPost2010Prop44ColorIndex
 90
        5
102
RTVSPost2010Prop44ColorRGB
 90
      255
102
RTVSPost2010PropOp44
 70
     1
102
RTVSPost2010Prop45
280
     0
102
RTVSPost2010PropOp45
 70
     1
102
RTVSPost2010Prop46
 90
       50
102
RTVSPost2010PropOp46
 70
     1
102
RTVSPost2010Prop47
 90
       50
102
RTVSPost2010PropOp47
 70
     1
102
RTVSPost2010Prop48
 90
       50
102
RTVSPost2010PropOp48
 70
     1
102
RTVSPost2010Prop49
280
     0
102
RTVSPost2010PropOp49
 70
     1
102
RTVSPost2010Prop50
 90
       50
102
RTVSPost2010PropOp50
 70
     1
102
RTVSPost2010Prop51ColorIndex
 90
      256
102
RTVSPost2010Prop51ColorRGB
 90
-16777216
102
RTVSPost2010PropOp51
 70
     0
102
RTVSPost2010Prop52
140
1.0
102
RTVSPost2010PropOp52
 70
     0
102
RTVSPost2010Prop53
 90
        2
102
RTVSPost2010PropOp53
 70
     1
102
RTVSPost2010Prop54
  1
strokes_ogs.tif
102
RTVSPost2010PropOp54
 70
     1
102
RTVSPost2010Prop55
280
     0
102
RTVSPost2010PropOp55
 70
     1
102
RTVSPost2010Prop56
140
1.0
102
RTVSPost2010PropOp56
 70
     1
102
RTVSPost2010Prop57
140
1.0
102
RTVSPost2010PropOp57
 70
     1
102
RTVSPropertyOp0
 70
     1
102
RTVSPropertyOp1
 70
     1
102
RTVSPropertyOp2
 70
     1
102
RTVSPropertyOp3
 70
     1
102
RTVSPropertyOp4
 70
     1
102
RTVSPropertyOp5
 70
     1
102
RTVSPropertyOp6
 70
     1
102
RTVSPropertyOp7
 70
     1
102
RTVSPropertyOp8
 70
     1
102
RTVSPropertyOp9
 70
     1
102
RTVSPropertyOp10
 70
     1
102
RTVSPropertyOp11
 70
     1
102
RTVSPropertyOp12
 70
     1
102
RTVSPropertyOp13
 70
     1
102
RTVSPropertyOp14
 70
     1
102
RTVSPropertyOp15
 70
     1
102
RTVSPropertyOp16
 70
     1
102
RTVSPropertyOp17
 70
     1
102
RTVSPropertyOp18
 70
     1
102
RTVSPropertyOp19
 70
     1
102
RTVSPropertyOp20
 70
     1
102
RTVSPropertyOp21
 70
     1
102
RTVSPropertyOp22
 70
     1
102
RTVSPropertyOp23
 70
     1
102
RTVSPropertyOp24
 70
     1
102
RTVSPropertyOp25
 70
     1
102
RTVSPropertyOp26
 70
     1
102
RTVSPropertyOp27
 70
     1
102
RTVSPropertyOp28
 70
     1
102
RTVSPropertyOp29
 70
     1
102
RTVSPropertyOp30
 70
     1
102
RTVSPropertyOp31
 70
     1
102
RTVSPropertyOp32
 70
     1
102
RTVSPropertyOp33
 70
     1
102
RTVSPropertyOp34
 70
     1
102
RTVSPropertyOp35
 70
     1
102
RTVSPropertyOp36
 70
     1
102
RTVSPropertyOp37
 70
     1
102
RTVSPropertyOp38
 70
     1
102
RTVSPropertyOp39
 70
     1
102
RTVSPropertyOp40
 70
     1
102
RTVSPropertyOp41
 70
     1
102
RTVSPropertyOp42
 70
     1
102
RTVSPropertyOp43
 70
     1
102
RTVSPropertyOp44
 70
     1
102
RTVSPropertyOp45
 70
     1
102
RTVSPropertyOp46
 70
     1
102
RTVSPropertyOp47
 70
     1
102
RTVSPropertyOp48
 70
     1
102
RTVSPropertyOp49
 70
     1
102
RTVSPropertyOp50
 70
     1
102
RTVSPropertyOp51
 70
     0
102
RTVSPropertyOp52
 70
     0
102
RTVSPropertyOp53
 70
     1
102
RTVSPropertyOp54
 70
     1
102
RTVSPropertyOp55
 70
     1
102
RTVSPropertyOp56
 70
     1
102
RTVSPropertyOp57
 70
     1
102
RTVSPropertyOp58
 70
     1
102
RTVSPropertyOp59
 70
     1
102
RTVSPropertyOp60
 70
     1
102
RTVSPropertyOp61
 70
     1
102
RTVSPropertyOp62
 70
     1
  0
XRECORD
  5
A8EE
102
{ACAD_REACTORS
330
A8ED
102
}
330
A8ED
100
AcDbXrecord
280
     1
102
RTVSPost2010Prop28
280
     0
102
RTVSPost2010PropOp28
 70
     1
102
RTVSPost2010Prop29
280
     1
102
RTVSPost2010PropOp29
 70
     1
102
RTVSPost2010Prop30
280
     1
102
RTVSPost2010PropOp30
 70
     1
102
RTVSPost2010Prop31
280
     0
102
RTVSPost2010PropOp31
 70
     1
102
RTVSPost2010Prop32
280
     0
102
RTVSPost2010PropOp32
 70
     1
102
RTVSPost2010Prop33
280
     0
102
RTVSPost2010PropOp33
 70
     1
102
RTVSPost2010Prop34
280
     0
102
RTVSPost2010PropOp34
 70
     1
102
RTVSPost2010Prop35
280
     0
102
RTVSPost2010PropOp35
 70
     1
102
RTVSPost2010Prop36
280
     0
102
RTVSPost2010PropOp36
 70
     1
102
RTVSPost2010Prop37
 90
       50
102
RTVSPost2010PropOp37
 70
     0
102
RTVSPost2010Prop38
140
0.0
102
RTVSPost2010PropOp38
 70
     0
102
RTVSPost2010Prop39
140
1.0
102
RTVSPost2010PropOp39
 70
     0
102
RTVSPost2010Prop40
 90
        0
102
RTVSPost2010PropOp40
 70
     0
102
RTVSPost2010Prop41ColorIndex
 90
       18
102
RTVSPost2010Prop41ColorRGB
 90
        0
102
RTVSPost2010PropOp41
 70
     0
102
RTVSPost2010Prop42
 90
       50
102
RTVSPost2010PropOp42
 70
     0
102
RTVSPost2010Prop43
 90
        3
102
RTVSPost2010PropOp43
 70
     0
102
RTVSPost2010Prop44ColorIndex
 90
        5
102
RTVSPost2010Prop44ColorRGB
 90
      255
102
RTVSPost2010PropOp44
 70
     0
102
RTVSPost2010Prop45
280
     0
102
RTVSPost2010PropOp45
 70
     1
102
RTVSPost2010Prop46
 90
       50
102
RTVSPost2010PropOp46
 70
     0
102
RTVSPost2010Prop47
 90
       50
102
RTVSPost2010PropOp47
 70
     0
102
RTVSPost2010Prop48
 90
       50
102
RTVSPost2010PropOp48
 70
     0
102
RTVSPost2010Prop49
280
     0
102
RTVSPost2010PropOp49
 70
     1
102
RTVSPost2010Prop50
 90
       50
102
RTVSPost2010PropOp50
 70
     0
102
RTVSPost2010Prop51ColorIndex
 90
      256
102
RTVSPost2010Prop51ColorRGB
 90
-16777216
102
RTVSPost2010PropOp51
 70
     0
102
RTVSPost2010Prop52
140
1.0
102
RTVSPost2010PropOp52
 70
     0
102
RTVSPost2010Prop53
 90
        2
102
RTVSPost2010PropOp53
 70
     0
102
RTVSPost2010Prop54
  1
strokes_ogs.tif
102
RTVSPost2010PropOp54
 70
     0
102
RTVSPost2010Prop55
280
     0
102
RTVSPost2010PropOp55
 70
     1
102
RTVSPost2010Prop56
140
1.0
102
RTVSPost2010PropOp56
 70
     0
102
RTVSPost2010Prop57
140
1.0
102
RTVSPost2010PropOp57
 70
     0
102
RTVSPropertyOp0
 70
     0
102
RTVSPropertyOp1
 70
     0
102
RTVSPropertyOp2
 70
     0
102
RTVSPropertyOp3
 70
     0
102
RTVSPropertyOp4
 70
     0
102
RTVSPropertyOp5
 70
     0
102
RTVSPropertyOp6
 70
     0
102
RTVSPropertyOp7
 70
     0
102
RTVSPropertyOp8
 70
     0
102
RTVSPropertyOp9
 70
     0
102
RTVSPropertyOp10
 70
     0
102
RTVSPropertyOp11
 70
     0
102
RTVSPropertyOp12
 70
     0
102
RTVSPropertyOp13
 70
     0
102
RTVSPropertyOp14
 70
     2
102
RTVSPropertyOp15
 70
     0
102
RTVSPropertyOp16
 70
     0
102
RTVSPropertyOp17
 70
     0
102
RTVSPropertyOp18
 70
     0
102
RTVSPropertyOp19
 70
     0
102
RTVSPropertyOp20
 70
     0
102
RTVSPropertyOp21
 70
     0
102
RTVSPropertyOp22
 70
     0
102
RTVSPropertyOp23
 70
     0
102
RTVSPropertyOp24
 70
     0
102
RTVSPropertyOp25
 70
     0
102
RTVSPropertyOp26
 70
     0
102
RTVSPropertyOp27
 70
     0
102
RTVSPropertyOp28
 70
     1
102
RTVSPropertyOp29
 70
     1
102
RTVSPropertyOp30
 70
     1
102
RTVSPropertyOp31
 70
     1
102
RTVSPropertyOp32
 70
     1
102
RTVSPropertyOp33
 70
     1
102
RTVSPropertyOp34
 70
     1
102
RTVSPropertyOp35
 70
     1
102
RTVSPropertyOp36
 70
     1
102
RTVSPropertyOp37
 70
     0
102
RTVSPropertyOp38
 70
     0
102
RTVSPropertyOp39
 70
     0
102
RTVSPropertyOp40
 70
     0
102
RTVSPropertyOp41
 70
     0
102
RTVSPropertyOp42
 70
     0
102
RTVSPropertyOp43
 70
     0
102
RTVSPropertyOp44
 70
     0
102
RTVSPropertyOp45
 70
     1
102
RTVSPropertyOp46
 70
     0
102
RTVSPropertyOp47
 70
     0
102
RTVSPropertyOp48
 70
     0
102
RTVSPropertyOp49
 70
     1
102
RTVSPropertyOp50
 70
     0
102
RTVSPropertyOp51
 70
     0
102
RTVSPropertyOp52
 70
     0
102
RTVSPropertyOp53
 70
     0
102
RTVSPropertyOp54
 70
     0
102
RTVSPropertyOp55
 70
     1
102
RTVSPropertyOp56
 70
     0
102
RTVSPropertyOp57
 70
     0
102
RTVSPropertyOp58
 70
     0
102
RTVSPropertyOp59
 70
     0
102
RTVSPropertyOp60
 70
     0
102
RTVSPropertyOp61
 70
     0
102
RTVSPropertyOp62
 70
     0
  0
XRECORD
  5
A8D4
102
{ACAD_REACTORS
330
A8D3
102
}
330
A8D3
100
AcDbXrecord
280
     1
102
RTVSPost2010Prop28
280
     0
102
RTVSPost2010PropOp28
 70
     1
102
RTVSPost2010Prop29
280
     1
102
RTVSPost2010PropOp29
 70
     1
102
RTVSPost2010Prop30
280
     1
102
RTVSPost2010PropOp30
 70
     1
102
RTVSPost2010Prop31
280
     0
102
RTVSPost2010PropOp31
 70
     1
102
RTVSPost2010Prop32
280
     0
102
RTVSPost2010PropOp32
 70
     1
102
RTVSPost2010Prop33
280
     0
102
RTVSPost2010PropOp33
 70
     1
102
RTVSPost2010Prop34
280
     0
102
RTVSPost2010PropOp34
 70
     1
102
RTVSPost2010Prop35
280
     0
102
RTVSPost2010PropOp35
 70
     1
102
RTVSPost2010Prop36
280
     0
102
RTVSPost2010PropOp36
 70
     1
102
RTVSPost2010Prop37
 90
       50
102
RTVSPost2010PropOp37
 70
     1
102
RTVSPost2010Prop38
140
0.0
102
RTVSPost2010PropOp38
 70
     1
102
RTVSPost2010Prop39
140
1.0
102
RTVSPost2010PropOp39
 70
     1
102
RTVSPost2010Prop40
 90
        0
102
RTVSPost2010PropOp40
 70
     1
102
RTVSPost2010Prop41ColorIndex
 90
       18
102
RTVSPost2010Prop41ColorRGB
 90
        0
102
RTVSPost2010PropOp41
 70
     1
102
RTVSPost2010Prop42
 90
       50
102
RTVSPost2010PropOp42
 70
     1
102
RTVSPost2010Prop43
 90
        3
102
RTVSPost2010PropOp43
 70
     1
102
RTVSPost2010Prop44ColorIndex
 90
        5
102
RTVSPost2010Prop44ColorRGB
 90
      255
102
RTVSPost2010PropOp44
 70
     1
102
RTVSPost2010Prop45
280
     0
102
RTVSPost2010PropOp45
 70
     1
102
RTVSPost2010Prop46
 90
       50
102
RTVSPost2010PropOp46
 70
     1
102
RTVSPost2010Prop47
 90
       50
102
RTVSPost2010PropOp47
 70
     1
102
RTVSPost2010Prop48
 90
       50
102
RTVSPost2010PropOp48
 70
     1
102
RTVSPost2010Prop49
280
     0
102
RTVSPost2010PropOp49
 70
     1
102
RTVSPost2010Prop50
 90
       50
102
RTVSPost2010PropOp50
 70
     1
102
RTVSPost2010Prop51ColorIndex
 90
      256
102
RTVSPost2010Prop51ColorRGB
 90
-16777216
102
RTVSPost2010PropOp51
 70
     0
102
RTVSPost2010Prop52
140
1.0
102
RTVSPost2010PropOp52
 70
     0
102
RTVSPost2010Prop53
 90
        2
102
RTVSPost2010PropOp53
 70
     1
102
RTVSPost2010Prop54
  1
strokes_ogs.tif
102
RTVSPost2010PropOp54
 70
     1
102
RTVSPost2010Prop55
280
     0
102
RTVSPost2010PropOp55
 70
     1
102
RTVSPost2010Prop56
140
1.0
102
RTVSPost2010PropOp56
 70
     1
102
RTVSPost2010Prop57
140
1.0
102
RTVSPost2010PropOp57
 70
     1
102
RTVSPropertyOp0
 70
     1
102
RTVSPropertyOp1
 70
     1
102
RTVSPropertyOp2
 70
     1
102
RTVSPropertyOp3
 70
     1
102
RTVSPropertyOp4
 70
     1
102
RTVSPropertyOp5
 70
     1
102
RTVSPropertyOp6
 70
     1
102
RTVSPropertyOp7
 70
     1
102
RTVSPropertyOp8
 70
     1
102
RTVSPropertyOp9
 70
     1
102
RTVSPropertyOp10
 70
     1
102
RTVSPropertyOp11
 70
     1
102
RTVSPropertyOp12
 70
     1
102
RTVSPropertyOp13
 70
     1
102
RTVSPropertyOp14
 70
     1
102
RTVSPropertyOp15
 70
     1
102
RTVSPropertyOp16
 70
     1
102
RTVSPropertyOp17
 70
     1
102
RTVSPropertyOp18
 70
     1
102
RTVSPropertyOp19
 70
     1
102
RTVSPropertyOp20
 70
     1
102
RTVSPropertyOp21
 70
     1
102
RTVSPropertyOp22
 70
     1
102
RTVSPropertyOp23
 70
     1
102
RTVSPropertyOp24
 70
     1
102
RTVSPropertyOp25
 70
     1
102
RTVSPropertyOp26
 70
     1
102
RTVSPropertyOp27
 70
     1
102
RTVSPropertyOp28
 70
     1
102
RTVSPropertyOp29
 70
     1
102
RTVSPropertyOp30
 70
     1
102
RTVSPropertyOp31
 70
     1
102
RTVSPropertyOp32
 70
     1
102
RTVSPropertyOp33
 70
     1
102
RTVSPropertyOp34
 70
     1
102
RTVSPropertyOp35
 70
     1
102
RTVSPropertyOp36
 70
     1
102
RTVSPropertyOp37
 70
     1
102
RTVSPropertyOp38
 70
     1
102
RTVSPropertyOp39
 70
     1
102
RTVSPropertyOp40
 70
     1
102
RTVSPropertyOp41
 70
     1
102
RTVSPropertyOp42
 70
     1
102
RTVSPropertyOp43
 70
     1
102
RTVSPropertyOp44
 70
     1
102
RTVSPropertyOp45
 70
     1
102
RTVSPropertyOp46
 70
     1
102
RTVSPropertyOp47
 70
     1
102
RTVSPropertyOp48
 70
     1
102
RTVSPropertyOp49
 70
     1
102
RTVSPropertyOp50
 70
     1
102
RTVSPropertyOp51
 70
     0
102
RTVSPropertyOp52
 70
     0
102
RTVSPropertyOp53
 70
     1
102
RTVSPropertyOp54
 70
     1
102
RTVSPropertyOp55
 70
     1
102
RTVSPropertyOp56
 70
     1
102
RTVSPropertyOp57
 70
     1
102
RTVSPropertyOp58
 70
     1
102
RTVSPropertyOp59
 70
     1
102
RTVSPropertyOp60
 70
     1
102
RTVSPropertyOp61
 70
     1
102
RTVSPropertyOp62
 70
     1
  0
XRECORD
  5
A8EA
102
{ACAD_REACTORS
330
A8E9
102
}
330
A8E9
100
AcDbXrecord
280
     1
102
RTVSPost2010Prop28
280
     0
102
RTVSPost2010PropOp28
 70
     1
102
RTVSPost2010Prop29
280
     1
102
RTVSPost2010PropOp29
 70
     1
102
RTVSPost2010Prop30
280
     1
102
RTVSPost2010PropOp30
 70
     1
102
RTVSPost2010Prop31
280
     0
102
RTVSPost2010PropOp31
 70
     1
102
RTVSPost2010Prop32
280
     0
102
RTVSPost2010PropOp32
 70
     1
102
RTVSPost2010Prop33
280
     0
102
RTVSPost2010PropOp33
 70
     1
102
RTVSPost2010Prop34
280
     0
102
RTVSPost2010PropOp34
 70
     1
102
RTVSPost2010Prop35
280
     0
102
RTVSPost2010PropOp35
 70
     1
102
RTVSPost2010Prop36
280
     0
102
RTVSPost2010PropOp36
 70
     1
102
RTVSPost2010Prop37
 90
       50
102
RTVSPost2010PropOp37
 70
     1
102
RTVSPost2010Prop38
140
0.0
102
RTVSPost2010PropOp38
 70
     1
102
RTVSPost2010Prop39
140
1.0
102
RTVSPost2010PropOp39
 70
     1
102
RTVSPost2010Prop40
 90
        0
102
RTVSPost2010PropOp40
 70
     1
102
RTVSPost2010Prop41ColorIndex
 90
       18
102
RTVSPost2010Prop41ColorRGB
 90
        0
102
RTVSPost2010PropOp41
 70
     1
102
RTVSPost2010Prop42
 90
       50
102
RTVSPost2010PropOp42
 70
     1
102
RTVSPost2010Prop43
 90
        3
102
RTVSPost2010PropOp43
 70
     1
102
RTVSPost2010Prop44ColorIndex
 90
        5
102
RTVSPost2010Prop44ColorRGB
 90
      255
102
RTVSPost2010PropOp44
 70
     1
102
RTVSPost2010Prop45
280
     0
102
RTVSPost2010PropOp45
 70
     1
102
RTVSPost2010Prop46
 90
       50
102
RTVSPost2010PropOp46
 70
     1
102
RTVSPost2010Prop47
 90
       50
102
RTVSPost2010PropOp47
 70
     1
102
RTVSPost2010Prop48
 90
       50
102
RTVSPost2010PropOp48
 70
     1
102
RTVSPost2010Prop49
280
     0
102
RTVSPost2010PropOp49
 70
     1
102
RTVSPost2010Prop50
 90
       50
102
RTVSPost2010PropOp50
 70
     1
102
RTVSPost2010Prop51ColorIndex
 90
      256
102
RTVSPost2010Prop51ColorRGB
 90
-16777216
102
RTVSPost2010PropOp51
 70
     0
102
RTVSPost2010Prop52
140
1.0
102
RTVSPost2010PropOp52
 70
     0
102
RTVSPost2010Prop53
 90
        2
102
RTVSPost2010PropOp53
 70
     1
102
RTVSPost2010Prop54
  1
strokes_ogs.tif
102
RTVSPost2010PropOp54
 70
     1
102
RTVSPost2010Prop55
280
     0
102
RTVSPost2010PropOp55
 70
     1
102
RTVSPost2010Prop56
140
1.0
102
RTVSPost2010PropOp56
 70
     1
102
RTVSPost2010Prop57
140
1.0
102
RTVSPost2010PropOp57
 70
     1
102
RTVSPropertyOp0
 70
     1
102
RTVSPropertyOp1
 70
     1
102
RTVSPropertyOp2
 70
     1
102
RTVSPropertyOp3
 70
     1
102
RTVSPropertyOp4
 70
     1
102
RTVSPropertyOp5
 70
     1
102
RTVSPropertyOp6
 70
     1
102
RTVSPropertyOp7
 70
     1
102
RTVSPropertyOp8
 70
     1
102
RTVSPropertyOp9
 70
     1
102
RTVSPropertyOp10
 70
     1
102
RTVSPropertyOp11
 70
     1
102
RTVSPropertyOp12
 70
     1
102
RTVSPropertyOp13
 70
     1
102
RTVSPropertyOp14
 70
     1
102
RTVSPropertyOp15
 70
     1
102
RTVSPropertyOp16
 70
     1
102
RTVSPropertyOp17
 70
     1
102
RTVSPropertyOp18
 70
     1
102
RTVSPropertyOp19
 70
     1
102
RTVSPropertyOp20
 70
     1
102
RTVSPropertyOp21
 70
     1
102
RTVSPropertyOp22
 70
     1
102
RTVSPropertyOp23
 70
     1
102
RTVSPropertyOp24
 70
     1
102
RTVSPropertyOp25
 70
     1
102
RTVSPropertyOp26
 70
     1
102
RTVSPropertyOp27
 70
     1
102
RTVSPropertyOp28
 70
     1
102
RTVSPropertyOp29
 70
     1
102
RTVSPropertyOp30
 70
     1
102
RTVSPropertyOp31
 70
     1
102
RTVSPropertyOp32
 70
     1
102
RTVSPropertyOp33
 70
     1
102
RTVSPropertyOp34
 70
     1
102
RTVSPropertyOp35
 70
     1
102
RTVSPropertyOp36
 70
     1
102
RTVSPropertyOp37
 70
     1
102
RTVSPropertyOp38
 70
     1
102
RTVSPropertyOp39
 70
     1
102
RTVSPropertyOp40
 70
     1
102
RTVSPropertyOp41
 70
     1
102
RTVSPropertyOp42
 70
     1
102
RTVSPropertyOp43
 70
     1
102
RTVSPropertyOp44
 70
     1
102
RTVSPropertyOp45
 70
     1
102
RTVSPropertyOp46
 70
     1
102
RTVSPropertyOp47
 70
     1
102
RTVSPropertyOp48
 70
     1
102
RTVSPropertyOp49
 70
     1
102
RTVSPropertyOp50
 70
     1
102
RTVSPropertyOp51
 70
     0
102
RTVSPropertyOp52
 70
     0
102
RTVSPropertyOp53
 70
     1
102
RTVSPropertyOp54
 70
     1
102
RTVSPropertyOp55
 70
     1
102
RTVSPropertyOp56
 70
     1
102
RTVSPropertyOp57
 70
     1
102
RTVSPropertyOp58
 70
     1
102
RTVSPropertyOp59
 70
     1
102
RTVSPropertyOp60
 70
     1
102
RTVSPropertyOp61
 70
     1
102
RTVSPropertyOp62
 70
     1
  0
XRECORD
  5
A8E8
102
{ACAD_REACTORS
330
A8E7
102
}
330
A8E7
100
AcDbXrecord
280
     1
102
RTVSPost2010Prop28
280
     0
102
RTVSPost2010PropOp28
 70
     1
102
RTVSPost2010Prop29
280
     1
102
RTVSPost2010PropOp29
 70
     1
102
RTVSPost2010Prop30
280
     1
102
RTVSPost2010PropOp30
 70
     1
102
RTVSPost2010Prop31
280
     0
102
RTVSPost2010PropOp31
 70
     1
102
RTVSPost2010Prop32
280
     0
102
RTVSPost2010PropOp32
 70
     1
102
RTVSPost2010Prop33
280
     0
102
RTVSPost2010PropOp33
 70
     1
102
RTVSPost2010Prop34
280
     0
102
RTVSPost2010PropOp34
 70
     1
102
RTVSPost2010Prop35
280
     0
102
RTVSPost2010PropOp35
 70
     1
102
RTVSPost2010Prop36
280
     0
102
RTVSPost2010PropOp36
 70
     1
102
RTVSPost2010Prop37
 90
       50
102
RTVSPost2010PropOp37
 70
     1
102
RTVSPost2010Prop38
140
0.0
102
RTVSPost2010PropOp38
 70
     1
102
RTVSPost2010Prop39
140
1.0
102
RTVSPost2010PropOp39
 70
     1
102
RTVSPost2010Prop40
 90
        0
102
RTVSPost2010PropOp40
 70
     1
102
RTVSPost2010Prop41ColorIndex
 90
       18
102
RTVSPost2010Prop41ColorRGB
 90
        0
102
RTVSPost2010PropOp41
 70
     1
102
RTVSPost2010Prop42
 90
       50
102
RTVSPost2010PropOp42
 70
     1
102
RTVSPost2010Prop43
 90
        3
102
RTVSPost2010PropOp43
 70
     1
102
RTVSPost2010Prop44ColorIndex
 90
        5
102
RTVSPost2010Prop44ColorRGB
 90
      255
102
RTVSPost2010PropOp44
 70
     1
102
RTVSPost2010Prop45
280
     0
102
RTVSPost2010PropOp45
 70
     1
102
RTVSPost2010Prop46
 90
       50
102
RTVSPost2010PropOp46
 70
     1
102
RTVSPost2010Prop47
 90
       50
102
RTVSPost2010PropOp47
 70
     1
102
RTVSPost2010Prop48
 90
       50
102
RTVSPost2010PropOp48
 70
     1
102
RTVSPost2010Prop49
280
     0
102
RTVSPost2010PropOp49
 70
     1
102
RTVSPost2010Prop50
 90
       50
102
RTVSPost2010PropOp50
 70
     1
102
RTVSPost2010Prop51ColorIndex
 90
      256
102
RTVSPost2010Prop51ColorRGB
 90
-16777216
102
RTVSPost2010PropOp51
 70
     0
102
RTVSPost2010Prop52
140
1.0
102
RTVSPost2010PropOp52
 70
     0
102
RTVSPost2010Prop53
 90
        2
102
RTVSPost2010PropOp53
 70
     1
102
RTVSPost2010Prop54
  1
strokes_ogs.tif
102
RTVSPost2010PropOp54
 70
     1
102
RTVSPost2010Prop55
280
     0
102
RTVSPost2010PropOp55
 70
     1
102
RTVSPost2010Prop56
140
1.0
102
RTVSPost2010PropOp56
 70
     1
102
RTVSPost2010Prop57
140
1.0
102
RTVSPost2010PropOp57
 70
     1
102
RTVSPropertyOp0
 70
     1
102
RTVSPropertyOp1
 70
     1
102
RTVSPropertyOp2
 70
     1
102
RTVSPropertyOp3
 70
     1
102
RTVSPropertyOp4
 70
     1
102
RTVSPropertyOp5
 70
     1
102
RTVSPropertyOp6
 70
     1
102
RTVSPropertyOp7
 70
     1
102
RTVSPropertyOp8
 70
     1
102
RTVSPropertyOp9
 70
     1
102
RTVSPropertyOp10
 70
     1
102
RTVSPropertyOp11
 70
     1
102
RTVSPropertyOp12
 70
     1
102
RTVSPropertyOp13
 70
     1
102
RTVSPropertyOp14
 70
     1
102
RTVSPropertyOp15
 70
     1
102
RTVSPropertyOp16
 70
     1
102
RTVSPropertyOp17
 70
     1
102
RTVSPropertyOp18
 70
     1
102
RTVSPropertyOp19
 70
     1
102
RTVSPropertyOp20
 70
     1
102
RTVSPropertyOp21
 70
     1
102
RTVSPropertyOp22
 70
     1
102
RTVSPropertyOp23
 70
     1
102
RTVSPropertyOp24
 70
     1
102
RTVSPropertyOp25
 70
     1
102
RTVSPropertyOp26
 70
     1
102
RTVSPropertyOp27
 70
     1
102
RTVSPropertyOp28
 70
     1
102
RTVSPropertyOp29
 70
     1
102
RTVSPropertyOp30
 70
     1
102
RTVSPropertyOp31
 70
     1
102
RTVSPropertyOp32
 70
     1
102
RTVSPropertyOp33
 70
     1
102
RTVSPropertyOp34
 70
     1
102
RTVSPropertyOp35
 70
     1
102
RTVSPropertyOp36
 70
     1
102
RTVSPropertyOp37
 70
     1
102
RTVSPropertyOp38
 70
     1
102
RTVSPropertyOp39
 70
     1
102
RTVSPropertyOp40
 70
     1
102
RTVSPropertyOp41
 70
     1
102
RTVSPropertyOp42
 70
     1
102
RTVSPropertyOp43
 70
     1
102
RTVSPropertyOp44
 70
     1
102
RTVSPropertyOp45
 70
     1
102
RTVSPropertyOp46
 70
     1
102
RTVSPropertyOp47
 70
     1
102
RTVSPropertyOp48
 70
     1
102
RTVSPropertyOp49
 70
     1
102
RTVSPropertyOp50
 70
     1
102
RTVSPropertyOp51
 70
     0
102
RTVSPropertyOp52
 70
     0
102
RTVSPropertyOp53
 70
     1
102
RTVSPropertyOp54
 70
     1
102
RTVSPropertyOp55
 70
     1
102
RTVSPropertyOp56
 70
     1
102
RTVSPropertyOp57
 70
     1
102
RTVSPropertyOp58
 70
     1
102
RTVSPropertyOp59
 70
     1
102
RTVSPropertyOp60
 70
     1
102
RTVSPropertyOp61
 70
     1
102
RTVSPropertyOp62
 70
     1
  0
XRECORD
  5
A8E2
102
{ACAD_REACTORS
330
A8E1
102
}
330
A8E1
100
AcDbXrecord
280
     1
102
RTVSPost2010Prop28
280
     0
102
RTVSPost2010PropOp28
 70
     1
102
RTVSPost2010Prop29
280
     1
102
RTVSPost2010PropOp29
 70
     1
102
RTVSPost2010Prop30
280
     1
102
RTVSPost2010PropOp30
 70
     1
102
RTVSPost2010Prop31
280
     0
102
RTVSPost2010PropOp31
 70
     1
102
RTVSPost2010Prop32
280
     0
102
RTVSPost2010PropOp32
 70
     1
102
RTVSPost2010Prop33
280
     0
102
RTVSPost2010PropOp33
 70
     1
102
RTVSPost2010Prop34
280
     0
102
RTVSPost2010PropOp34
 70
     1
102
RTVSPost2010Prop35
280
     0
102
RTVSPost2010PropOp35
 70
     1
102
RTVSPost2010Prop36
280
     0
102
RTVSPost2010PropOp36
 70
     1
102
RTVSPost2010Prop37
 90
       50
102
RTVSPost2010PropOp37
 70
     1
102
RTVSPost2010Prop38
140
0.0
102
RTVSPost2010PropOp38
 70
     1
102
RTVSPost2010Prop39
140
1.0
102
RTVSPost2010PropOp39
 70
     1
102
RTVSPost2010Prop40
 90
        0
102
RTVSPost2010PropOp40
 70
     1
102
RTVSPost2010Prop41ColorIndex
 90
       18
102
RTVSPost2010Prop41ColorRGB
 90
        0
102
RTVSPost2010PropOp41
 70
     1
102
RTVSPost2010Prop42
 90
       50
102
RTVSPost2010PropOp42
 70
     1
102
RTVSPost2010Prop43
 90
        3
102
RTVSPost2010PropOp43
 70
     1
102
RTVSPost2010Prop44ColorIndex
 90
        5
102
RTVSPost2010Prop44ColorRGB
 90
      255
102
RTVSPost2010PropOp44
 70
     1
102
RTVSPost2010Prop45
280
     0
102
RTVSPost2010PropOp45
 70
     1
102
RTVSPost2010Prop46
 90
       50
102
RTVSPost2010PropOp46
 70
     1
102
RTVSPost2010Prop47
 90
       50
102
RTVSPost2010PropOp47
 70
     1
102
RTVSPost2010Prop48
 90
       50
102
RTVSPost2010PropOp48
 70
     1
102
RTVSPost2010Prop49
280
     0
102
RTVSPost2010PropOp49
 70
     1
102
RTVSPost2010Prop50
 90
       50
102
RTVSPost2010PropOp50
 70
     1
102
RTVSPost2010Prop51ColorIndex
 90
      256
102
RTVSPost2010Prop51ColorRGB
 90
-16777216
102
RTVSPost2010PropOp51
 70
     0
102
RTVSPost2010Prop52
140
1.0
102
RTVSPost2010PropOp52
 70
     0
102
RTVSPost2010Prop53
 90
        2
102
RTVSPost2010PropOp53
 70
     1
102
RTVSPost2010Prop54
  1
strokes_ogs.tif
102
RTVSPost2010PropOp54
 70
     1
102
RTVSPost2010Prop55
280
     0
102
RTVSPost2010PropOp55
 70
     1
102
RTVSPost2010Prop56
140
1.0
102
RTVSPost2010PropOp56
 70
     1
102
RTVSPost2010Prop57
140
1.0
102
RTVSPost2010PropOp57
 70
     1
102
RTVSPropertyOp0
 70
     1
102
RTVSPropertyOp1
 70
     1
102
RTVSPropertyOp2
 70
     1
102
RTVSPropertyOp3
 70
     1
102
RTVSPropertyOp4
 70
     1
102
RTVSPropertyOp5
 70
     1
102
RTVSPropertyOp6
 70
     1
102
RTVSPropertyOp7
 70
     1
102
RTVSPropertyOp8
 70
     1
102
RTVSPropertyOp9
 70
     1
102
RTVSPropertyOp10
 70
     1
102
RTVSPropertyOp11
 70
     1
102
RTVSPropertyOp12
 70
     1
102
RTVSPropertyOp13
 70
     1
102
RTVSPropertyOp14
 70
     1
102
RTVSPropertyOp15
 70
     1
102
RTVSPropertyOp16
 70
     1
102
RTVSPropertyOp17
 70
     1
102
RTVSPropertyOp18
 70
     1
102
RTVSPropertyOp19
 70
     1
102
RTVSPropertyOp20
 70
     1
102
RTVSPropertyOp21
 70
     1
102
RTVSPropertyOp22
 70
     1
102
RTVSPropertyOp23
 70
     1
102
RTVSPropertyOp24
 70
     1
102
RTVSPropertyOp25
 70
     1
102
RTVSPropertyOp26
 70
     1
102
RTVSPropertyOp27
 70
     1
102
RTVSPropertyOp28
 70
     1
102
RTVSPropertyOp29
 70
     1
102
RTVSPropertyOp30
 70
     1
102
RTVSPropertyOp31
 70
     1
102
RTVSPropertyOp32
 70
     1
102
RTVSPropertyOp33
 70
     1
102
RTVSPropertyOp34
 70
     1
102
RTVSPropertyOp35
 70
     1
102
RTVSPropertyOp36
 70
     1
102
RTVSPropertyOp37
 70
     1
102
RTVSPropertyOp38
 70
     1
102
RTVSPropertyOp39
 70
     1
102
RTVSPropertyOp40
 70
     1
102
RTVSPropertyOp41
 70
     1
102
RTVSPropertyOp42
 70
     1
102
RTVSPropertyOp43
 70
     1
102
RTVSPropertyOp44
 70
     1
102
RTVSPropertyOp45
 70
     1
102
RTVSPropertyOp46
 70
     1
102
RTVSPropertyOp47
 70
     1
102
RTVSPropertyOp48
 70
     1
102
RTVSPropertyOp49
 70
     1
102
RTVSPropertyOp50
 70
     1
102
RTVSPropertyOp51
 70
     0
102
RTVSPropertyOp52
 70
     0
102
RTVSPropertyOp53
 70
     1
102
RTVSPropertyOp54
 70
     1
102
RTVSPropertyOp55
 70
     1
102
RTVSPropertyOp56
 70
     1
102
RTVSPropertyOp57
 70
     1
102
RTVSPropertyOp58
 70
     1
102
RTVSPropertyOp59
 70
     1
102
RTVSPropertyOp60
 70
     1
102
RTVSPropertyOp61
 70
     1
102
RTVSPropertyOp62
 70
     1
  0
XRECORD
  5
A8E4
102
{ACAD_REACTORS
330
A8E3
102
}
330
A8E3
100
AcDbXrecord
280
     1
102
RTVSPost2010Prop28
280
     0
102
RTVSPost2010PropOp28
 70
     1
102
RTVSPost2010Prop29
280
     1
102
RTVSPost2010PropOp29
 70
     1
102
RTVSPost2010Prop30
280
     1
102
RTVSPost2010PropOp30
 70
     1
102
RTVSPost2010Prop31
280
     0
102
RTVSPost2010PropOp31
 70
     1
102
RTVSPost2010Prop32
280
     0
102
RTVSPost2010PropOp32
 70
     1
102
RTVSPost2010Prop33
280
     0
102
RTVSPost2010PropOp33
 70
     1
102
RTVSPost2010Prop34
280
     0
102
RTVSPost2010PropOp34
 70
     1
102
RTVSPost2010Prop35
280
     0
102
RTVSPost2010PropOp35
 70
     1
102
RTVSPost2010Prop36
280
     0
102
RTVSPost2010PropOp36
 70
     1
102
RTVSPost2010Prop37
 90
       50
102
RTVSPost2010PropOp37
 70
     1
102
RTVSPost2010Prop38
140
0.0
102
RTVSPost2010PropOp38
 70
     1
102
RTVSPost2010Prop39
140
1.0
102
RTVSPost2010PropOp39
 70
     1
102
RTVSPost2010Prop40
 90
        0
102
RTVSPost2010PropOp40
 70
     1
102
RTVSPost2010Prop41ColorIndex
 90
       18
102
RTVSPost2010Prop41ColorRGB
 90
        0
102
RTVSPost2010PropOp41
 70
     1
102
RTVSPost2010Prop42
 90
       50
102
RTVSPost2010PropOp42
 70
     1
102
RTVSPost2010Prop43
 90
        3
102
RTVSPost2010PropOp43
 70
     1
102
RTVSPost2010Prop44ColorIndex
 90
        5
102
RTVSPost2010Prop44ColorRGB
 90
      255
102
RTVSPost2010PropOp44
 70
     1
102
RTVSPost2010Prop45
280
     0
102
RTVSPost2010PropOp45
 70
     1
102
RTVSPost2010Prop46
 90
       50
102
RTVSPost2010PropOp46
 70
     1
102
RTVSPost2010Prop47
 90
       50
102
RTVSPost2010PropOp47
 70
     1
102
RTVSPost2010Prop48
 90
       50
102
RTVSPost2010PropOp48
 70
     1
102
RTVSPost2010Prop49
280
     0
102
RTVSPost2010PropOp49
 70
     1
102
RTVSPost2010Prop50
 90
       50
102
RTVSPost2010PropOp50
 70
     1
102
RTVSPost2010Prop51ColorIndex
 90
      256
102
RTVSPost2010Prop51ColorRGB
 90
-16777216
102
RTVSPost2010PropOp51
 70
     0
102
RTVSPost2010Prop52
140
1.0
102
RTVSPost2010PropOp52
 70
     0
102
RTVSPost2010Prop53
 90
        2
102
RTVSPost2010PropOp53
 70
     1
102
RTVSPost2010Prop54
  1
strokes_ogs.tif
102
RTVSPost2010PropOp54
 70
     1
102
RTVSPost2010Prop55
280
     0
102
RTVSPost2010PropOp55
 70
     1
102
RTVSPost2010Prop56
140
1.0
102
RTVSPost2010PropOp56
 70
     1
102
RTVSPost2010Prop57
140
1.0
102
RTVSPost2010PropOp57
 70
     1
102
RTVSPropertyOp0
 70
     1
102
RTVSPropertyOp1
 70
     1
102
RTVSPropertyOp2
 70
     1
102
RTVSPropertyOp3
 70
     1
102
RTVSPropertyOp4
 70
     1
102
RTVSPropertyOp5
 70
     1
102
RTVSPropertyOp6
 70
     1
102
RTVSPropertyOp7
 70
     1
102
RTVSPropertyOp8
 70
     1
102
RTVSPropertyOp9
 70
     1
102
RTVSPropertyOp10
 70
     1
102
RTVSPropertyOp11
 70
     1
102
RTVSPropertyOp12
 70
     1
102
RTVSPropertyOp13
 70
     1
102
RTVSPropertyOp14
 70
     1
102
RTVSPropertyOp15
 70
     1
102
RTVSPropertyOp16
 70
     1
102
RTVSPropertyOp17
 70
     1
102
RTVSPropertyOp18
 70
     1
102
RTVSPropertyOp19
 70
     1
102
RTVSPropertyOp20
 70
     1
102
RTVSPropertyOp21
 70
     1
102
RTVSPropertyOp22
 70
     1
102
RTVSPropertyOp23
 70
     1
102
RTVSPropertyOp24
 70
     1
102
RTVSPropertyOp25
 70
     1
102
RTVSPropertyOp26
 70
     1
102
RTVSPropertyOp27
 70
     1
102
RTVSPropertyOp28
 70
     1
102
RTVSPropertyOp29
 70
     1
102
RTVSPropertyOp30
 70
     1
102
RTVSPropertyOp31
 70
     1
102
RTVSPropertyOp32
 70
     1
102
RTVSPropertyOp33
 70
     1
102
RTVSPropertyOp34
 70
     1
102
RTVSPropertyOp35
 70
     1
102
RTVSPropertyOp36
 70
     1
102
RTVSPropertyOp37
 70
     1
102
RTVSPropertyOp38
 70
     1
102
RTVSPropertyOp39
 70
     1
102
RTVSPropertyOp40
 70
     1
102
RTVSPropertyOp41
 70
     1
102
RTVSPropertyOp42
 70
     1
102
RTVSPropertyOp43
 70
     1
102
RTVSPropertyOp44
 70
     1
102
RTVSPropertyOp45
 70
     1
102
RTVSPropertyOp46
 70
     1
102
RTVSPropertyOp47
 70
     1
102
RTVSPropertyOp48
 70
     1
102
RTVSPropertyOp49
 70
     1
102
RTVSPropertyOp50
 70
     1
102
RTVSPropertyOp51
 70
     0
102
RTVSPropertyOp52
 70
     0
102
RTVSPropertyOp53
 70
     1
102
RTVSPropertyOp54
 70
     1
102
RTVSPropertyOp55
 70
     1
102
RTVSPropertyOp56
 70
     1
102
RTVSPropertyOp57
 70
     1
102
RTVSPropertyOp58
 70
     1
102
RTVSPropertyOp59
 70
     1
102
RTVSPropertyOp60
 70
     1
102
RTVSPropertyOp61
 70
     1
102
RTVSPropertyOp62
 70
     1
  0
XRECORD
  5
A8DA
102
{ACAD_REACTORS
330
A8D9
102
}
330
A8D9
100
AcDbXrecord
280
     1
102
RTVSPost2010Prop28
280
     0
102
RTVSPost2010PropOp28
 70
     1
102
RTVSPost2010Prop29
280
     1
102
RTVSPost2010PropOp29
 70
     1
102
RTVSPost2010Prop30
280
     1
102
RTVSPost2010PropOp30
 70
     1
102
RTVSPost2010Prop31
280
     0
102
RTVSPost2010PropOp31
 70
     1
102
RTVSPost2010Prop32
280
     0
102
RTVSPost2010PropOp32
 70
     1
102
RTVSPost2010Prop33
280
     0
102
RTVSPost2010PropOp33
 70
     1
102
RTVSPost2010Prop34
280
     0
102
RTVSPost2010PropOp34
 70
     1
102
RTVSPost2010Prop35
280
     0
102
RTVSPost2010PropOp35
 70
     1
102
RTVSPost2010Prop36
280
     0
102
RTVSPost2010PropOp36
 70
     1
102
RTVSPost2010Prop37
 90
       50
102
RTVSPost2010PropOp37
 70
     1
102
RTVSPost2010Prop38
140
0.0
102
RTVSPost2010PropOp38
 70
     1
102
RTVSPost2010Prop39
140
1.0
102
RTVSPost2010PropOp39
 70
     1
102
RTVSPost2010Prop40
 90
        0
102
RTVSPost2010PropOp40
 70
     1
102
RTVSPost2010Prop41ColorIndex
 90
       18
102
RTVSPost2010Prop41ColorRGB
 90
        0
102
RTVSPost2010PropOp41
 70
     1
102
RTVSPost2010Prop42
 90
       50
102
RTVSPost2010PropOp42
 70
     1
102
RTVSPost2010Prop43
 90
        3
102
RTVSPost2010PropOp43
 70
     1
102
RTVSPost2010Prop44ColorIndex
 90
        5
102
RTVSPost2010Prop44ColorRGB
 90
      255
102
RTVSPost2010PropOp44
 70
     1
102
RTVSPost2010Prop45
280
     0
102
RTVSPost2010PropOp45
 70
     1
102
RTVSPost2010Prop46
 90
       50
102
RTVSPost2010PropOp46
 70
     1
102
RTVSPost2010Prop47
 90
       50
102
RTVSPost2010PropOp47
 70
     1
102
RTVSPost2010Prop48
 90
       50
102
RTVSPost2010PropOp48
 70
     1
102
RTVSPost2010Prop49
280
     0
102
RTVSPost2010PropOp49
 70
     1
102
RTVSPost2010Prop50
 90
       50
102
RTVSPost2010PropOp50
 70
     1
102
RTVSPost2010Prop51ColorIndex
 90
      256
102
RTVSPost2010Prop51ColorRGB
 90
-16777216
102
RTVSPost2010PropOp51
 70
     0
102
RTVSPost2010Prop52
140
1.0
102
RTVSPost2010PropOp52
 70
     0
102
RTVSPost2010Prop53
 90
        2
102
RTVSPost2010PropOp53
 70
     1
102
RTVSPost2010Prop54
  1
strokes_ogs.tif
102
RTVSPost2010PropOp54
 70
     1
102
RTVSPost2010Prop55
280
     0
102
RTVSPost2010PropOp55
 70
     1
102
RTVSPost2010Prop56
140
1.0
102
RTVSPost2010PropOp56
 70
     1
102
RTVSPost2010Prop57
140
1.0
102
RTVSPost2010PropOp57
 70
     1
102
RTVSPropertyOp0
 70
     1
102
RTVSPropertyOp1
 70
     1
102
RTVSPropertyOp2
 70
     1
102
RTVSPropertyOp3
 70
     1
102
RTVSPropertyOp4
 70
     1
102
RTVSPropertyOp5
 70
     1
102
RTVSPropertyOp6
 70
     1
102
RTVSPropertyOp7
 70
     1
102
RTVSPropertyOp8
 70
     1
102
RTVSPropertyOp9
 70
     1
102
RTVSPropertyOp10
 70
     1
102
RTVSPropertyOp11
 70
     1
102
RTVSPropertyOp12
 70
     1
102
RTVSPropertyOp13
 70
     1
102
RTVSPropertyOp14
 70
     1
102
RTVSPropertyOp15
 70
     1
102
RTVSPropertyOp16
 70
     1
102
RTVSPropertyOp17
 70
     1
102
RTVSPropertyOp18
 70
     1
102
RTVSPropertyOp19
 70
     1
102
RTVSPropertyOp20
 70
     1
102
RTVSPropertyOp21
 70
     1
102
RTVSPropertyOp22
 70
     1
102
RTVSPropertyOp23
 70
     1
102
RTVSPropertyOp24
 70
     1
102
RTVSPropertyOp25
 70
     1
102
RTVSPropertyOp26
 70
     1
102
RTVSPropertyOp27
 70
     1
102
RTVSPropertyOp28
 70
     1
102
RTVSPropertyOp29
 70
     1
102
RTVSPropertyOp30
 70
     1
102
RTVSPropertyOp31
 70
     1
102
RTVSPropertyOp32
 70
     1
102
RTVSPropertyOp33
 70
     1
102
RTVSPropertyOp34
 70
     1
102
RTVSPropertyOp35
 70
     1
102
RTVSPropertyOp36
 70
     1
102
RTVSPropertyOp37
 70
     1
102
RTVSPropertyOp38
 70
     1
102
RTVSPropertyOp39
 70
     1
102
RTVSPropertyOp40
 70
     1
102
RTVSPropertyOp41
 70
     1
102
RTVSPropertyOp42
 70
     1
102
RTVSPropertyOp43
 70
     1
102
RTVSPropertyOp44
 70
     1
102
RTVSPropertyOp45
 70
     1
102
RTVSPropertyOp46
 70
     1
102
RTVSPropertyOp47
 70
     1
102
RTVSPropertyOp48
 70
     1
102
RTVSPropertyOp49
 70
     1
102
RTVSPropertyOp50
 70
     1
102
RTVSPropertyOp51
 70
     0
102
RTVSPropertyOp52
 70
     0
102
RTVSPropertyOp53
 70
     1
102
RTVSPropertyOp54
 70
     1
102
RTVSPropertyOp55
 70
     1
102
RTVSPropertyOp56
 70
     1
102
RTVSPropertyOp57
 70
     1
102
RTVSPropertyOp58
 70
     1
102
RTVSPropertyOp59
 70
     1
102
RTVSPropertyOp60
 70
     1
102
RTVSPropertyOp61
 70
     1
102
RTVSPropertyOp62
 70
     1
  0
XRECORD
  5
A8CE
102
{ACAD_REACTORS
330
A8CD
102
}
330
A8CD
100
AcDbXrecord
280
     1
102
RTVSPost2010Prop28
280
     0
102
RTVSPost2010PropOp28
 70
     1
102
RTVSPost2010Prop29
280
     1
102
RTVSPost2010PropOp29
 70
     1
102
RTVSPost2010Prop30
280
     1
102
RTVSPost2010PropOp30
 70
     1
102
RTVSPost2010Prop31
280
     0
102
RTVSPost2010PropOp31
 70
     1
102
RTVSPost2010Prop32
280
     0
102
RTVSPost2010PropOp32
 70
     1
102
RTVSPost2010Prop33
280
     0
102
RTVSPost2010PropOp33
 70
     1
102
RTVSPost2010Prop34
280
     0
102
RTVSPost2010PropOp34
 70
     1
102
RTVSPost2010Prop35
280
     0
102
RTVSPost2010PropOp35
 70
     1
102
RTVSPost2010Prop36
280
     0
102
RTVSPost2010PropOp36
 70
     1
102
RTVSPost2010Prop37
 90
       50
102
RTVSPost2010PropOp37
 70
     1
102
RTVSPost2010Prop38
140
0.0
102
RTVSPost2010PropOp38
 70
     1
102
RTVSPost2010Prop39
140
1.0
102
RTVSPost2010PropOp39
 70
     1
102
RTVSPost2010Prop40
 90
        0
102
RTVSPost2010PropOp40
 70
     1
102
RTVSPost2010Prop41ColorIndex
 90
       18
102
RTVSPost2010Prop41ColorRGB
 90
        0
102
RTVSPost2010PropOp41
 70
     1
102
RTVSPost2010Prop42
 90
       50
102
RTVSPost2010PropOp42
 70
     1
102
RTVSPost2010Prop43
 90
        3
102
RTVSPost2010PropOp43
 70
     1
102
RTVSPost2010Prop44ColorIndex
 90
        5
102
RTVSPost2010Prop44ColorRGB
 90
      255
102
RTVSPost2010PropOp44
 70
     1
102
RTVSPost2010Prop45
280
     0
102
RTVSPost2010PropOp45
 70
     1
102
RTVSPost2010Prop46
 90
       50
102
RTVSPost2010PropOp46
 70
     1
102
RTVSPost2010Prop47
 90
       50
102
RTVSPost2010PropOp47
 70
     1
102
RTVSPost2010Prop48
 90
       50
102
RTVSPost2010PropOp48
 70
     1
102
RTVSPost2010Prop49
280
     0
102
RTVSPost2010PropOp49
 70
     1
102
RTVSPost2010Prop50
 90
       50
102
RTVSPost2010PropOp50
 70
     1
102
RTVSPost2010Prop51ColorIndex
 90
      256
102
RTVSPost2010Prop51ColorRGB
 90
-16777216
102
RTVSPost2010PropOp51
 70
     0
102
RTVSPost2010Prop52
140
1.0
102
RTVSPost2010PropOp52
 70
     0
102
RTVSPost2010Prop53
 90
        2
102
RTVSPost2010PropOp53
 70
     1
102
RTVSPost2010Prop54
  1
strokes_ogs.tif
102
RTVSPost2010PropOp54
 70
     1
102
RTVSPost2010Prop55
280
     0
102
RTVSPost2010PropOp55
 70
     1
102
RTVSPost2010Prop56
140
1.0
102
RTVSPost2010PropOp56
 70
     1
102
RTVSPost2010Prop57
140
1.0
102
RTVSPost2010PropOp57
 70
     1
102
RTVSPropertyOp0
 70
     1
102
RTVSPropertyOp1
 70
     1
102
RTVSPropertyOp2
 70
     1
102
RTVSPropertyOp3
 70
     1
102
RTVSPropertyOp4
 70
     1
102
RTVSPropertyOp5
 70
     1
102
RTVSPropertyOp6
 70
     1
102
RTVSPropertyOp7
 70
     1
102
RTVSPropertyOp8
 70
     1
102
RTVSPropertyOp9
 70
     1
102
RTVSPropertyOp10
 70
     1
102
RTVSPropertyOp11
 70
     1
102
RTVSPropertyOp12
 70
     1
102
RTVSPropertyOp13
 70
     1
102
RTVSPropertyOp14
 70
     1
102
RTVSPropertyOp15
 70
     1
102
RTVSPropertyOp16
 70
     1
102
RTVSPropertyOp17
 70
     1
102
RTVSPropertyOp18
 70
     1
102
RTVSPropertyOp19
 70
     1
102
RTVSPropertyOp20
 70
     1
102
RTVSPropertyOp21
 70
     1
102
RTVSPropertyOp22
 70
     1
102
RTVSPropertyOp23
 70
     1
102
RTVSPropertyOp24
 70
     1
102
RTVSPropertyOp25
 70
     1
102
RTVSPropertyOp26
 70
     1
102
RTVSPropertyOp27
 70
     1
102
RTVSPropertyOp28
 70
     1
102
RTVSPropertyOp29
 70
     1
102
RTVSPropertyOp30
 70
     1
102
RTVSPropertyOp31
 70
     1
102
RTVSPropertyOp32
 70
     1
102
RTVSPropertyOp33
 70
     1
102
RTVSPropertyOp34
 70
     1
102
RTVSPropertyOp35
 70
     1
102
RTVSPropertyOp36
 70
     1
102
RTVSPropertyOp37
 70
     1
102
RTVSPropertyOp38
 70
     1
102
RTVSPropertyOp39
 70
     1
102
RTVSPropertyOp40
 70
     1
102
RTVSPropertyOp41
 70
     1
102
RTVSPropertyOp42
 70
     1
102
RTVSPropertyOp43
 70
     1
102
RTVSPropertyOp44
 70
     1
102
RTVSPropertyOp45
 70
     1
102
RTVSPropertyOp46
 70
     1
102
RTVSPropertyOp47
 70
     1
102
RTVSPropertyOp48
 70
     1
102
RTVSPropertyOp49
 70
     1
102
RTVSPropertyOp50
 70
     1
102
RTVSPropertyOp51
 70
     0
102
RTVSPropertyOp52
 70
     0
102
RTVSPropertyOp53
 70
     1
102
RTVSPropertyOp54
 70
     1
102
RTVSPropertyOp55
 70
     1
102
RTVSPropertyOp56
 70
     1
102
RTVSPropertyOp57
 70
     1
102
RTVSPropertyOp58
 70
     1
102
RTVSPropertyOp59
 70
     1
102
RTVSPropertyOp60
 70
     1
102
RTVSPropertyOp61
 70
     1
102
RTVSPropertyOp62
 70
     1
  0
XRECORD
  5
A8E6
102
{ACAD_REACTORS
330
A8E5
102
}
330
A8E5
100
AcDbXrecord
280
     1
102
RTVSPost2010Prop28
280
     0
102
RTVSPost2010PropOp28
 70
     1
102
RTVSPost2010Prop29
280
     1
102
RTVSPost2010PropOp29
 70
     1
102
RTVSPost2010Prop30
280
     1
102
RTVSPost2010PropOp30
 70
     1
102
RTVSPost2010Prop31
280
     0
102
RTVSPost2010PropOp31
 70
     1
102
RTVSPost2010Prop32
280
     0
102
RTVSPost2010PropOp32
 70
     1
102
RTVSPost2010Prop33
280
     0
102
RTVSPost2010PropOp33
 70
     1
102
RTVSPost2010Prop34
280
     0
102
RTVSPost2010PropOp34
 70
     1
102
RTVSPost2010Prop35
280
     0
102
RTVSPost2010PropOp35
 70
     1
102
RTVSPost2010Prop36
280
     0
102
RTVSPost2010PropOp36
 70
     1
102
RTVSPost2010Prop37
 90
       50
102
RTVSPost2010PropOp37
 70
     1
102
RTVSPost2010Prop38
140
0.0
102
RTVSPost2010PropOp38
 70
     1
102
RTVSPost2010Prop39
140
1.0
102
RTVSPost2010PropOp39
 70
     1
102
RTVSPost2010Prop40
 90
        0
102
RTVSPost2010PropOp40
 70
     1
102
RTVSPost2010Prop41ColorIndex
 90
       18
102
RTVSPost2010Prop41ColorRGB
 90
        0
102
RTVSPost2010PropOp41
 70
     1
102
RTVSPost2010Prop42
 90
       50
102
RTVSPost2010PropOp42
 70
     1
102
RTVSPost2010Prop43
 90
        3
102
RTVSPost2010PropOp43
 70
     1
102
RTVSPost2010Prop44ColorIndex
 90
        5
102
RTVSPost2010Prop44ColorRGB
 90
      255
102
RTVSPost2010PropOp44
 70
     1
102
RTVSPost2010Prop45
280
     0
102
RTVSPost2010PropOp45
 70
     1
102
RTVSPost2010Prop46
 90
       50
102
RTVSPost2010PropOp46
 70
     1
102
RTVSPost2010Prop47
 90
       50
102
RTVSPost2010PropOp47
 70
     1
102
RTVSPost2010Prop48
 90
       50
102
RTVSPost2010PropOp48
 70
     1
102
RTVSPost2010Prop49
280
     0
102
RTVSPost2010PropOp49
 70
     1
102
RTVSPost2010Prop50
 90
       50
102
RTVSPost2010PropOp50
 70
     1
102
RTVSPost2010Prop51ColorIndex
 90
      256
102
RTVSPost2010Prop51ColorRGB
 90
-16777216
102
RTVSPost2010PropOp51
 70
     0
102
RTVSPost2010Prop52
140
1.0
102
RTVSPost2010PropOp52
 70
     0
102
RTVSPost2010Prop53
 90
        2
102
RTVSPost2010PropOp53
 70
     1
102
RTVSPost2010Prop54
  1
strokes_ogs.tif
102
RTVSPost2010PropOp54
 70
     1
102
RTVSPost2010Prop55
280
     0
102
RTVSPost2010PropOp55
 70
     1
102
RTVSPost2010Prop56
140
1.0
102
RTVSPost2010PropOp56
 70
     1
102
RTVSPost2010Prop57
140
1.0
102
RTVSPost2010PropOp57
 70
     1
102
RTVSPropertyOp0
 70
     1
102
RTVSPropertyOp1
 70
     1
102
RTVSPropertyOp2
 70
     1
102
RTVSPropertyOp3
 70
     1
102
RTVSPropertyOp4
 70
     1
102
RTVSPropertyOp5
 70
     1
102
RTVSPropertyOp6
 70
     1
102
RTVSPropertyOp7
 70
     1
102
RTVSPropertyOp8
 70
     1
102
RTVSPropertyOp9
 70
     1
102
RTVSPropertyOp10
 70
     1
102
RTVSPropertyOp11
 70
     1
102
RTVSPropertyOp12
 70
     1
102
RTVSPropertyOp13
 70
     1
102
RTVSPropertyOp14
 70
     1
102
RTVSPropertyOp15
 70
     1
102
RTVSPropertyOp16
 70
     1
102
RTVSPropertyOp17
 70
     1
102
RTVSPropertyOp18
 70
     1
102
RTVSPropertyOp19
 70
     1
102
RTVSPropertyOp20
 70
     1
102
RTVSPropertyOp21
 70
     1
102
RTVSPropertyOp22
 70
     1
102
RTVSPropertyOp23
 70
     1
102
RTVSPropertyOp24
 70
     1
102
RTVSPropertyOp25
 70
     1
102
RTVSPropertyOp26
 70
     1
102
RTVSPropertyOp27
 70
     1
102
RTVSPropertyOp28
 70
     1
102
RTVSPropertyOp29
 70
     1
102
RTVSPropertyOp30
 70
     1
102
RTVSPropertyOp31
 70
     1
102
RTVSPropertyOp32
 70
     1
102
RTVSPropertyOp33
 70
     1
102
RTVSPropertyOp34
 70
     1
102
RTVSPropertyOp35
 70
     1
102
RTVSPropertyOp36
 70
     1
102
RTVSPropertyOp37
 70
     1
102
RTVSPropertyOp38
 70
     1
102
RTVSPropertyOp39
 70
     1
102
RTVSPropertyOp40
 70
     1
102
RTVSPropertyOp41
 70
     1
102
RTVSPropertyOp42
 70
     1
102
RTVSPropertyOp43
 70
     1
102
RTVSPropertyOp44
 70
     1
102
RTVSPropertyOp45
 70
     1
102
RTVSPropertyOp46
 70
     1
102
RTVSPropertyOp47
 70
     1
102
RTVSPropertyOp48
 70
     1
102
RTVSPropertyOp49
 70
     1
102
RTVSPropertyOp50
 70
     1
102
RTVSPropertyOp51
 70
     0
102
RTVSPropertyOp52
 70
     0
102
RTVSPropertyOp53
 70
     1
102
RTVSPropertyOp54
 70
     1
102
RTVSPropertyOp55
 70
     1
102
RTVSPropertyOp56
 70
     1
102
RTVSPropertyOp57
 70
     1
102
RTVSPropertyOp58
 70
     1
102
RTVSPropertyOp59
 70
     1
102
RTVSPropertyOp60
 70
     1
102
RTVSPropertyOp61
 70
     1
102
RTVSPropertyOp62
 70
     1
  0
ENDSEC
  0
EOF
