  0
SECTION
  2
HEADER
  9
$ACADVER
  1
AC1015
  9
$ACADMAINTVER
 70
    20
  9
$DWGCODEPAGE
  3
ANSI_932
  9
$INSBASE
 10
0.0
 20
0.0
 30
0.0
  9
$EXTMIN
 10
10.0
 20
9.999999999999998
 30
0.0
  9
$EXTMAX
 10
365.19987
 20
258.8449409999999
 30
0.0
  9
$LIMMIN
 10
0.0
 20
0.0
  9
$LIMMAX
 10
396.0
 20
273.0
  9
$ORTHOMODE
 70
     0
  9
$REGENMODE
 70
     1
  9
$FILLMODE
 70
     1
  9
$QTEXTMODE
 70
     0
  9
$MIRRTEXT
 70
     1
  9
$LTSCALE
 40
20.0
  9
$ATTMODE
 70
     1
  9
$TEXTSIZE
 40
5.0
  9
$TRACEWID
 40
1.0
  9
$TEXTSTYLE
  7
STANDARD
  9
$CLAYER
  8
0
  9
$CELTYPE
  6
BYLAYER
  9
$CECOLOR
 62
   256
  9
$CELTSCALE
 40
1.0
  9
$DISPSILH
 70
     0
  9
$DIMSCALE
 40
1.0
  9
$DIMASZ
 40
2.5
  9
$DIMEXO
 40
1.0
  9
$DIMDLI
 40
10.0
  9
$DIMRND
 40
0.0
  9
$DIMDLE
 40
0.0
  9
$DIMEXE
 40
1.0
  9
$DIMTP
 40
0.0
  9
$DIMTM
 40
0.0
  9
$DIMTXT
 40
3.2
  9
$DIMCEN
 40
0.0
  9
$DIMTSZ
 40
0.0
  9
$DIMTOL
 70
     0
  9
$DIMLIM
 70
     0
  9
$DIMTIH
 70
     0
  9
$DIMTOH
 70
     0
  9
$DIMSE1
 70
     0
  9
$DIMSE2
 70
     0
  9
$DIMTAD
 70
     3
  9
$DIMZIN
 70
     8
  9
$DIMBLK
  1

  9
$DIMASO
 70
     1
  9
$DIMSHO
 70
     1
  9
$DIMPOST
  1

  9
$DIMAPOST
  1

  9
$DIMALT
 70
     0
  9
$DIMALTD
 70
     2
  9
$DIMALTF
 40
25.4
  9
$DIMLFAC
 40
1.0
  9
$DIMTOFL
 70
     1
  9
$DIMTVP
 40
0.0
  9
$DIMTIX
 70
     0
  9
$DIMSOXD
 70
     0
  9
$DIMSAH
 70
     1
  9
$DIMBLK1
  1

  9
$DIMBLK2
  1

  9
$DIMSTYLE
  2
STANDARD
  9
$DIMCLRD
 70
     0
  9
$DIMCLRE
 70
     0
  9
$DIMCLRT
 70
     0
  9
$DIMTFAC
 40
1.0
  9
$DIMGAP
 40
1.0
  9
$DIMJUST
 70
     0
  9
$DIMSD1
 70
     0
  9
$DIMSD2
 70
     0
  9
$DIMTOLJ
 70
     1
  9
$DIMTZIN
 70
     0
  9
$DIMALTZ
 70
     0
  9
$DIMALTTZ
 70
     0
  9
$DIMUPT
 70
     0
  9
$DIMDEC
 70
     4
  9
$DIMTDEC
 70
     4
  9
$DIMALTU
 70
     2
  9
$DIMALTTD
 70
     2
  9
$DIMTXSTY
  7
STANDARD
  9
$DIMAUNIT
 70
     0
  9
$DIMADEC
 70
     0
  9
$DIMALTRND
 40
0.0
  9
$DIMAZIN
 70
     0
  9
$DIMDSEP
 70
    46
  9
$DIMATFIT
 70
     3
  9
$DIMFRAC
 70
     0
  9
$DIMLDRBLK
  1

  9
$DIMLUNIT
 70
     2
  9
$DIMLWD
 70
    -2
  9
$DIMLWE
 70
    -2
  9
$DIMTMOVE
 70
     0
  9
$LUNITS
 70
     2
  9
$LUPREC
 70
     4
  9
$SKETCHINC
 40
1.0
  9
$FILLETRAD
 40
0.0
  9
$AUNITS
 70
     0
  9
$AUPREC
 70
     2
  9
$MENU
  1
.
  9
$ELEVATION
 40
0.0
  9
$PELEVATION
 40
0.0
  9
$THICKNESS
 40
0.0
  9
$LIMCHECK
 70
     0
  9
$CHAMFERA
 40
10.0
  9
$CHAMFERB
 40
10.0
  9
$CHAMFERC
 40
0.0
  9
$CHAMFERD
 40
0.0
  9
$SKPOLY
 70
     0
  9
$TDCREATE
 40
2451301.430316088
  9
$TDUCREATE
 40
2451301.055316088
  9
$TDUPDATE
 40
2457192.689941702
  9
$TDUUPDATE
 40
2457192.314941702
  9
$TDINDWG
 40
0.0467069792
  9
$TDUSRTIMER
 40
0.0467064815
  9
$USRTIMER
 70
     1
  9
$ANGBASE
 50
0.0
  9
$ANGDIR
 70
     0
  9
$PDMODE
 70
     0
  9
$PDSIZE
 40
0.0
  9
$PLINEWID
 40
0.0
  9
$SPLFRAME
 70
     0
  9
$SPLINETYPE
 70
     6
  9
$SPLINESEGS
 70
     8
  9
$HANDSEED
  5
A602
  9
$SURFTAB1
 70
     6
  9
$SURFTAB2
 70
     6
  9
$SURFTYPE
 70
     6
  9
$SURFU
 70
     6
  9
$SURFV
 70
     6
  9
$UCSBASE
  2

  9
$UCSNAME
  2

  9
$UCSORG
 10
0.0
 20
0.0
 30
0.0
  9
$UCSXDIR
 10
1.0
 20
0.0
 30
0.0
  9
$UCSYDIR
 10
0.0
 20
1.0
 30
0.0
  9
$UCSORTHOREF
  2

  9
$UCSORTHOVIEW
 70
     0
  9
$UCSORGTOP
 10
0.0
 20
0.0
 30
0.0
  9
$UCSORGBOTTOM
 10
0.0
 20
0.0
 30
0.0
  9
$UCSORGLEFT
 10
0.0
 20
0.0
 30
0.0
  9
$UCSORGRIGHT
 10
0.0
 20
0.0
 30
0.0
  9
$UCSORGFRONT
 10
0.0
 20
0.0
 30
0.0
  9
$UCSORGBACK
 10
0.0
 20
0.0
 30
0.0
  9
$PUCSBASE
  2

  9
$PUCSNAME
  2

  9
$PUCSORG
 10
0.0
 20
0.0
 30
0.0
  9
$PUCSXDIR
 10
1.0
 20
0.0
 30
0.0
  9
$PUCSYDIR
 10
0.0
 20
1.0
 30
0.0
  9
$PUCSORTHOREF
  2

  9
$PUCSORTHOVIEW
 70
     0
  9
$PUCSORGTOP
 10
0.0
 20
0.0
 30
0.0
  9
$PUCSORGBOTTOM
 10
0.0
 20
0.0
 30
0.0
  9
$PUCSORGLEFT
 10
0.0
 20
0.0
 30
0.0
  9
$PUCSORGRIGHT
 10
0.0
 20
0.0
 30
0.0
  9
$PUCSORGFRONT
 10
0.0
 20
0.0
 30
0.0
  9
$PUCSORGBACK
 10
0.0
 20
0.0
 30
0.0
  9
$USERI1
 70
     0
  9
$USERI2
 70
     0
  9
$USERI3
 70
     0
  9
$USERI4
 70
     0
  9
$USERI5
 70
     0
  9
$USERR1
 40
0.0
  9
$USERR2
 40
0.0
  9
$USERR3
 40
0.0
  9
$USERR4
 40
0.0
  9
$USERR5
 40
0.0
  9
$WORLDVIEW
 70
     1
  9
$SHADEDGE
 70
     3
  9
$SHADEDIF
 70
    70
  9
$TILEMODE
 70
     1
  9
$MAXACTVP
 70
    16
  9
$PINSBASE
 10
0.0
 20
0.0
 30
0.0
  9
$PLIMCHECK
 70
     0
  9
$PEXTMIN
 10
1.000000000000000E+20
 20
1.000000000000000E+20
 30
1.000000000000000E+20
  9
$PEXTMAX
 10
-1.000000000000000E+20
 20
-1.000000000000000E+20
 30
-1.000000000000000E+20
  9
$PLIMMIN
 10
0.0
 20
0.0
  9
$PLIMMAX
 10
420.0
 20
297.0
  9
$UNITMODE
 70
     0
  9
$VISRETAIN
 70
     0
  9
$PLINEGEN
 70
     0
  9
$PSLTSCALE
 70
     0
  9
$TREEDEPTH
 70
  3020
  9
$CMLSTYLE
  2
STANDARD
  9
$CMLJUST
 70
     0
  9
$CMLSCALE
 40
1.0
  9
$PROXYGRAPHICS
 70
     1
  9
$MEASUREMENT
 70
     0
  9
$CELWEIGHT
370
    -1
  9
$ENDCAPS
280
     0
  9
$JOINSTYLE
280
     0
  9
$LWDISPLAY
290
     0
  9
$INSUNITS
 70
     0
  9
$HYPERLINKBASE
  1

  9
$STYLESHEET
  1

  9
$XEDIT
290
     1
  9
$CEPSNTYPE
380
     0
  9
$PSTYLEMODE
290
     1
  9
$FINGERPRINTGUID
  2
{E063CA04-FEB9-4A2A-8006-2FE8BF9D8992}
  9
$VERSIONGUID
  2
{066638F2-2E32-485B-89B6-C21BAB37CDA0}
  9
$EXTNAMES
290
     1
  9
$PSVPSCALE
 40
0.0
  9
$OLESTARTUP
290
     0
  0
ENDSEC
  0
SECTION
  2
CLASSES
  0
CLASS
  1
ACDBDICTIONARYWDFLT
  2
AcDbDictionaryWithDefault
  3
ObjectDBX Classes
 90
        0
280
     0
281
     0
  0
CLASS
  1
ACDBPLACEHOLDER
  2
AcDbPlaceHolder
  3
ObjectDBX Classes
 90
        0
280
     0
281
     0
  0
CLASS
  1
LAYOUT
  2
AcDbLayout
  3
ObjectDBX Classes
 90
        0
280
     0
281
     0
  0
CLASS
  1
DICTIONARYVAR
  2
AcDbDictionaryVar
  3
ObjectDBX Classes
 90
        0
280
     0
281
     0
  0
CLASS
  1
MATERIAL
  2
AcDbMaterial
  3
ObjectDBX Classes
 90
     1153
280
     0
281
     0
  0
CLASS
  1
VISUALSTYLE
  2
AcDbVisualStyle
  3
ObjectDBX Classes
 90
     4095
280
     0
281
     0
  0
CLASS
  1
TABLESTYLE
  2
AcDbTableStyle
  3
ObjectDBX Classes
 90
     4095
280
     0
281
     0
  0
CLASS
  1
SCALE
  2
AcDbScale
  3
ObjectDBX Classes
 90
     1153
280
     0
281
     0
  0
CLASS
  1
MLEADERSTYLE
  2
AcDbMLeaderStyle
  3
ACDB_MLEADERSTYLE_CLASS
 90
     4095
280
     0
281
     0
  0
CLASS
  1
ACDBSECTIONVIEWSTYLE
  2
AcDbSectionViewStyle
  3
ObjectDBX Classes
 90
     1025
280
     0
281
     0
  0
CLASS
  1
ACDBDETAILVIEWSTYLE
  2
AcDbDetailViewStyle
  3
ObjectDBX Classes
 90
     1025
280
     0
281
     0
  0
CLASS
  1
CELLSTYLEMAP
  2
AcDbCellStyleMap
  3
ObjectDBX Classes
 90
     1152
280
     0
281
     0
  0
ENDSEC
  0
SECTION
  2
TABLES
  0
TABLE
  2
VPORT
  5
A21E
330
0
100
AcDbSymbolTable
 70
     1
  0
VPORT
  5
A54D
330
A21E
100
AcDbSymbolTableRecord
100
AcDbViewportTableRecord
  2
*ACTIVE
 70
     0
 10
0.0
 20
0.0
 11
1.0
 21
1.0
 12
283.3913249388059
 22
134.4171759261715
 13
0.0
 23
0.0
 14
10.0
 24
10.0
 15
10.0
 25
10.0
 16
0.0
 26
0.0
 36
1.0
 17
0.0
 27
0.0
 37
0.0
 40
250.8205477782599
 41
2.35006605019815
 42
50.0
 43
0.0
 44
0.0
 50
0.0
 51
0.0
 71
     0
 72
   100
 73
     1
 74
     0
 75
     0
 76
     0
 77
     0
 78
     0
281
     0
 65
     1
110
0.0
120
0.0
130
0.0
111
1.0
121
0.0
131
0.0
112
0.0
122
1.0
132
0.0
 79
     0
146
0.0
1001
ACAD_NAV_VCDISPLAY
1070
     3
  0
ENDTAB
  0
TABLE
  2
LTYPE
  5
A21B
330
0
100
AcDbSymbolTable
 70
     4
  0
LTYPE
  5
A229
330
A21B
100
AcDbSymbolTableRecord
100
AcDbLinetypeTableRecord
  2
BYBLOCK
 70
     0
  3

 72
    65
 73
     0
 40
0.0
  0
LTYPE
  5
A22A
330
A21B
100
AcDbSymbolTableRecord
100
AcDbLinetypeTableRecord
  2
BYLAYER
 70
     0
  3

 72
    65
 73
     0
 40
0.0
  0
LTYPE
  5
A22B
330
A21B
100
AcDbSymbolTableRecord
100
AcDbLinetypeTableRecord
  2
CONTINUOUS
 70
     0
  3
Solid line
 72
    65
 73
     0
 40
0.0
  0
LTYPE
  5
A239
330
A21B
100
AcDbSymbolTableRecord
100
AcDbLinetypeTableRecord
  2
DASHED
 70
     0
  3
__ __ __ __ __ __ __ __ __ __ __ __ __ __ __ __
 72
    65
 73
     2
 40
0.75
 49
0.5
 74
     0
 49
-0.25
 74
     0
  0
LTYPE
  5
A23A
330
A21B
100
AcDbSymbolTableRecord
100
AcDbLinetypeTableRecord
  2
CENTER
 70
     0
  3
____ _ ____ _ ____ _ ____ _ ____ _ ____ _ ____ 
 72
    65
 73
     4
 40
2.0
 49
1.25
 74
     0
 49
-0.25
 74
     0
 49
0.25
 74
     0
 49
-0.25
 74
     0
  0
LTYPE
  5
A23B
330
A21B
100
AcDbSymbolTableRecord
100
AcDbLinetypeTableRecord
  2
PHANTOM
 70
     0
  3
______  __  __  ______  __  __  ______  __  __ 
 72
    65
 73
     6
 40
2.5
 49
1.25
 74
     0
 49
-0.25
 74
     0
 49
0.25
 74
     0
 49
-0.25
 74
     0
 49
0.25
 74
     0
 49
-0.25
 74
     0
  0
ENDTAB
  0
TABLE
  2
LAYER
  5
A218
330
0
100
AcDbSymbolTable
 70
     8
  0
LAYER
  5
A226
102
{ACAD_XDICTIONARY
360
A5A6
102
}
330
A218
100
AcDbSymbolTableRecord
100
AcDbLayerTableRecord
  2
0
 70
     0
 62
     7
  6
CONTINUOUS
370
    -3
390
A554
  0
LAYER
  5
A23C
102
{ACAD_XDICTIONARY
360
A5A8
102
}
330
A218
100
AcDbSymbolTableRecord
100
AcDbLayerTableRecord
  2
4
 70
     0
 62
     1
  6
CENTER
370
    -3
390
A554
  0
LAYER
  5
A23D
102
{ACAD_XDICTIONARY
360
A5AA
102
}
330
A218
100
AcDbSymbolTableRecord
100
AcDbLayerTableRecord
  2
5
 70
     0
 62
     6
  6
PHANTOM
370
    -3
390
A554
  0
LAYER
  5
A23E
102
{ACAD_XDICTIONARY
360
A5AC
102
}
330
A218
100
AcDbSymbolTableRecord
100
AcDbLayerTableRecord
  2
1
 70
     0
 62
     7
  6
CONTINUOUS
370
    -3
390
A554
  0
LAYER
  5
A23F
102
{ACAD_XDICTIONARY
360
A5AE
102
}
330
A218
100
AcDbSymbolTableRecord
100
AcDbLayerTableRecord
  2
2
 70
     0
 62
     4
  6
CONTINUOUS
370
    -3
390
A554
  0
LAYER
  5
A240
102
{ACAD_XDICTIONARY
360
A5B0
102
}
330
A218
100
AcDbSymbolTableRecord
100
AcDbLayerTableRecord
  2
3
 70
     0
 62
     2
  6
DASHED
370
    -3
390
A554
  0
LAYER
  5
A241
102
{ACAD_XDICTIONARY
360
A5B2
102
}
330
A218
100
AcDbSymbolTableRecord
100
AcDbLayerTableRecord
  2
6
 70
     0
 62
     5
  6
CONTINUOUS
370
    -3
390
A554
  0
LAYER
  5
A242
102
{ACAD_XDICTIONARY
360
A5B4
102
}
330
A218
100
AcDbSymbolTableRecord
100
AcDbLayerTableRecord
  2
7
 70
     0
 62
     3
  6
CONTINUOUS
370
    -3
390
A554
  0
ENDTAB
  0
TABLE
  2
STYLE
  5
A219
330
0
100
AcDbSymbolTable
 70
     1
  0
STYLE
  5
A227
330
A219
100
AcDbSymbolTableRecord
100
AcDbTextStyleTableRecord
  2
STANDARD
 70
     0
 40
0.0
 41
1.0
 50
0.0
 71
     0
 42
5.0
  3
txt
  4

  0
ENDTAB
  0
TABLE
  2
VIEW
  5
A21C
330
0
100
AcDbSymbolTable
 70
     0
  0
ENDTAB
  0
TABLE
  2
UCS
  5
A21D
330
0
100
AcDbSymbolTable
 70
     0
  0
ENDTAB
  0
TABLE
  2
APPID
  5
A21F
330
0
100
AcDbSymbolTable
 70
     3
  0
APPID
  5
A228
330
A21F
100
AcDbSymbolTableRecord
100
AcDbRegAppTableRecord
  2
ACAD
 70
     0
  0
APPID
  5
A5C0
330
A21F
100
AcDbSymbolTableRecord
100
AcDbRegAppTableRecord
  2
ACAD_NAV_VCDISPLAY
 70
     0
  0
APPID
  5
A5F9
330
A21F
100
AcDbSymbolTableRecord
100
AcDbRegAppTableRecord
  2
ACAD_MLEADERVER
 70
     0
  0
ENDTAB
  0
TABLE
  2
DIMSTYLE
  5
A220
330
0
100
AcDbSymbolTable
 70
     1
100
AcDbDimStyleTable
 71
     0
  0
DIMSTYLE
105
A244
330
A220
100
AcDbSymbolTableRecord
100
AcDbDimStyleTableRecord
  2
STANDARD
 70
     0
 41
2.5
 42
1.0
 43
10.0
 44
1.0
 73
     0
 74
     0
 77
     3
 78
     8
140
3.2
141
0.0
147
1.0
172
     1
173
     1
284
     8
285
     8
286
     8
340
A227
  0
ENDTAB
  0
TABLE
  2
BLOCK_RECORD
  5
A217
330
0
100
AcDbSymbolTable
 70
     0
  0
BLOCK_RECORD
  5
A234
102
{ACAD_XDICTIONARY
360
A51E
102
}
330
A217
100
AcDbSymbolTableRecord
100
AcDbBlockTableRecord
  2
*MODEL_SPACE
340
A5A2
  0
BLOCK_RECORD
  5
A230
102
{ACAD_XDICTIONARY
360
A51C
102
}
330
A217
100
AcDbSymbolTableRecord
100
AcDbBlockTableRecord
  2
*PAPER_SPACE
340
A5A3
  0
ENDTAB
  0
ENDSEC
  0
SECTION
  2
BLOCKS
  0
BLOCK
  5
A235
330
A234
100
AcDbEntity
  8
0
100
AcDbBlockBegin
  2
*MODEL_SPACE
 70
     0
 10
0.0
 20
0.0
 30
0.0
  3
*MODEL_SPACE
  1

  0
ENDBLK
  5
A236
330
A234
100
AcDbEntity
  8
0
100
AcDbBlockEnd
  0
BLOCK
  5
A231
330
A230
100
AcDbEntity
 67
     1
  8
0
100
AcDbBlockBegin
  2
*PAPER_SPACE
 70
     0
 10
0.0
 20
0.0
 30
0.0
  3
*PAPER_SPACE
  1

  0
ENDBLK
  5
A232
330
A230
100
AcDbEntity
 67
     1
  8
0
100
AcDbBlockEnd
  0
ENDSEC
  0
SECTION
  2
ENTITIES
  0
TEXT
  5
A24C
330
A234
100
AcDbEntity
  8
7
  6
Continuous
100
AcDbText
 10
10.0
 20
18.0
 30
0.0
 40
3.0
  1
TYPE No.TCA-415E-N40
100
AcDbText
  0
TEXT
  5
A24D
330
A234
100
AcDbEntity
  8
7
  6
Continuous
100
AcDbText
 10
10.0
 20
26.0
 30
0.0
 40
3.0
  1
CODE No.9758
100
AcDbText
  0
TEXT
  5
A24E
330
A234
100
AcDbEntity
  8
1
  6
Continuous
100
AcDbText
 10
10.0
 20
10.0
 30
0.0
 40
1.399999999999999
  1
LAYER
100
AcDbText
  0
TEXT
  5
A24F
330
A234
100
AcDbEntity
  8
1
  6
Continuous
100
AcDbText
 10
17.97951099999998
 20
10.04873699999998
 30
0.0
 40
1.399999999999999
  1
1
100
AcDbText
  0
TEXT
  5
A250
330
A234
100
AcDbEntity
  8
7
  6
Continuous
100
AcDbText
 10
29.97951099999999
 20
10.04873699999998
 30
0.0
 40
1.399999999999999
  1
7
100
AcDbText
  0
TEXT
  5
A251
330
A234
100
AcDbEntity
  8
4
  6
CENTER
100
AcDbText
 10
23.97951099999999
 20
10.04873699999998
 30
0.0
 40
1.399999999999999
  1
4
100
AcDbText
  0
TEXT
  5
A252
330
A234
100
AcDbEntity
  8
3
  6
DASHED
100
AcDbText
 10
21.979511
 20
10.04873699999998
 30
0.0
 40
1.399999999999999
  1
3
100
AcDbText
  0
TEXT
  5
A253
330
A234
100
AcDbEntity
  8
2
  6
Continuous
100
AcDbText
 10
19.97951099999998
 20
10.04873699999998
 30
0.0
 40
1.399999999999999
  1
2
100
AcDbText
  0
TEXT
  5
A254
330
A234
100
AcDbEntity
  8
6
  6
Continuous
100
AcDbText
 10
27.979511
 20
10.04873699999998
 30
0.0
 40
1.399999999999999
  1
6
100
AcDbText
  0
TEXT
  5
A255
330
A234
100
AcDbEntity
  8
5
  6
PHANTOM
100
AcDbText
 10
25.97951099999999
 20
10.04873699999998
 30
0.0
 40
1.399999999999999
  1
5
100
AcDbText
  0
LINE
  5
A256
330
A234
100
AcDbEntity
  8
4
  6
CENTER
 48
0.5
100
AcDbLine
 10
98.55378600000001
 20
236.344941
 30
0.0
 11
174.053786
 21
236.344941
 31
0.0
  0
LINE
  5
A257
330
A234
100
AcDbEntity
  8
4
  6
CENTER
 48
0.5
100
AcDbLine
 10
143.5537859999998
 20
258.8449409999999
 30
0.0
 11
143.5537859999998
 21
213.844941
 31
0.0
  0
LINE
  5
A258
330
A234
100
AcDbEntity
  8
1
  6
Continuous
100
AcDbLine
 10
118.053786
 20
245.844941
 30
0.0
 11
118.053786
 21
226.844941
 31
0.0
  0
LINE
  5
A259
330
A234
100
AcDbEntity
  8
1
  6
Continuous
100
AcDbLine
 10
169.053786
 20
245.844941
 30
0.0
 11
169.053786
 21
226.844941
 31
0.0
  0
LINE
  5
A25A
330
A234
100
AcDbEntity
  8
1
  6
Continuous
100
AcDbLine
 10
124.053786
 20
220.844941
 30
0.0
 11
163.053786
 21
220.844941
 31
0.0
  0
LINE
  5
A25B
330
A234
100
AcDbEntity
  8
1
  6
Continuous
100
AcDbLine
 10
124.053786
 20
251.844941
 30
0.0
 11
163.053786
 21
251.844941
 31
0.0
  0
LINE
  5
A25C
330
A234
100
AcDbEntity
  8
4
  6
CENTER
100
AcDbLine
 10
167.553786
 20
246.3449409999999
 30
0.0
 11
159.553786
 21
246.3449409999999
 31
0.0
  0
LINE
  5
A25D
330
A234
100
AcDbEntity
  8
4
  6
CENTER
100
AcDbLine
 10
163.553786
 20
250.3449409999999
 30
0.0
 11
163.553786
 21
242.3449409999999
 31
0.0
  0
LINE
  5
A25E
330
A234
100
AcDbEntity
  8
4
  6
CENTER
100
AcDbLine
 10
167.553786
 20
226.344941
 30
0.0
 11
159.553786
 21
226.344941
 31
0.0
  0
LINE
  5
A25F
330
A234
100
AcDbEntity
  8
4
  6
CENTER
100
AcDbLine
 10
163.553786
 20
230.344941
 30
0.0
 11
163.553786
 21
222.344941
 31
0.0
  0
LINE
  5
A260
330
A234
100
AcDbEntity
  8
4
  6
CENTER
100
AcDbLine
 10
127.553786
 20
226.344941
 30
0.0
 11
119.553786
 21
226.344941
 31
0.0
  0
LINE
  5
A262
330
A234
100
AcDbEntity
  8
4
  6
CENTER
100
AcDbLine
 10
127.553786
 20
246.3449409999999
 30
0.0
 11
119.553786
 21
246.3449409999999
 31
0.0
  0
LINE
  5
A264
330
A234
100
AcDbEntity
  8
1
  6
Continuous
100
AcDbLine
 10
118.053786
 20
176.3449409999997
 30
0.0
 11
169.053786
 21
176.3449409999997
 31
0.0
  0
LINE
  5
A265
330
A234
100
AcDbEntity
  8
1
  6
Continuous
100
AcDbLine
 10
118.053786
 20
174.044942
 30
0.0
 11
169.053786
 21
174.044942
 31
0.0
  0
LINE
  5
A266
330
A234
100
AcDbEntity
  8
4
  6
CENTER
 48
0.5
100
AcDbLine
 10
143.5537859999998
 20
181.344941
 30
0.0
 11
143.5537859999998
 21
147.2927409999998
 31
0.0
  0
LINE
  5
A267
330
A234
100
AcDbEntity
  8
1
  6
Continuous
100
AcDbLine
 10
118.053786
 20
176.3449409999997
 30
0.0
 11
118.053786
 21
174.044942
 31
0.0
  0
LINE
  5
A268
330
A234
100
AcDbEntity
  8
1
  6
Continuous
100
AcDbLine
 10
169.053786
 20
176.3449409999997
 30
0.0
 11
169.053786
 21
174.044942
 31
0.0
  0
LINE
  5
A269
330
A234
100
AcDbEntity
  8
4
  6
CENTER
100
AcDbLine
 10
123.553786
 20
179.344941
 30
0.0
 11
123.553786
 21
171.0449419999999
 31
0.0
  0
LINE
  5
A26A
330
A234
100
AcDbEntity
  8
4
  6
CENTER
100
AcDbLine
 10
163.553786
 20
179.344941
 30
0.0
 11
163.553786
 21
171.0449419999999
 31
0.0
  0
LINE
  5
A26B
330
A234
100
AcDbEntity
  8
1
  6
Continuous
100
AcDbLine
 10
127.5474039999999
 20
168.4449419999999
 30
0.0
 11
158.0537859999997
 21
168.4449419999999
 31
0.0
  0
LINE
  5
A26C
330
A234
100
AcDbEntity
  8
1
  6
Continuous
100
AcDbLine
 10
156.553786
 20
161.9449389999997
 30
0.0
 11
161.0537859999998
 21
161.9449389999997
 31
0.0
  0
LINE
  5
A26D
330
A234
100
AcDbEntity
  8
4
  6
CENTER
 48
0.5
100
AcDbLine
 10
148.5537859999998
 20
138.344941
 30
0.0
 11
98.55378600000001
 21
138.344941
 31
0.0
  0
LINE
  5
A26E
330
A234
100
AcDbEntity
  8
4
  6
CENTER
 48
0.5
100
AcDbLine
 10
123.553786
 20
163.344941
 30
0.0
 11
123.553786
 21
113.3449409999998
 31
0.0
  0
LINE
  5
A26F
330
A234
100
AcDbEntity
  8
1
  6
Continuous
100
AcDbLine
 10
28.053786
 20
176.3449409999997
 30
0.0
 11
59.05378599999998
 21
176.3449409999997
 31
0.0
  0
LINE
  5
A270
330
A234
100
AcDbEntity
  8
1
  6
Continuous
100
AcDbLine
 10
28.053786
 20
174.044942
 30
0.0
 11
59.05378599999998
 21
174.044942
 31
0.0
  0
LINE
  5
A271
330
A234
100
AcDbEntity
  8
4
  6
CENTER
 48
0.5
100
AcDbLine
 10
43.55378599999998
 20
181.344941
 30
0.0
 11
43.55378599999998
 21
113.462823
 31
0.0
  0
LINE
  5
A272
330
A234
100
AcDbEntity
  8
1
  6
Continuous
100
AcDbLine
 10
29.053786
 20
168.4449419999999
 30
0.0
 11
58.053786
 21
168.4449419999999
 31
0.0
  0
LINE
  5
A273
330
A234
100
AcDbEntity
  8
1
  6
Continuous
100
AcDbLine
 10
59.05378599999998
 20
176.3449409999997
 30
0.0
 11
59.05378599999998
 21
174.044942
 31
0.0
  0
LINE
  5
A274
330
A234
100
AcDbEntity
  8
1
  6
Continuous
100
AcDbLine
 10
28.053786
 20
176.3449409999997
 30
0.0
 11
28.053786
 21
174.044942
 31
0.0
  0
LINE
  5
A275
330
A234
100
AcDbEntity
  8
4
  6
CENTER
100
AcDbLine
 10
53.55378599999998
 20
179.344941
 30
0.0
 11
53.55378599999998
 21
171.0449419999999
 31
0.0
  0
LINE
  5
A276
330
A234
100
AcDbEntity
  8
4
  6
CENTER
100
AcDbLine
 10
33.55378599999998
 20
179.344941
 30
0.0
 11
33.55378599999998
 21
171.0449419999999
 31
0.0
  0
LINE
  5
A277
330
A234
100
AcDbEntity
  8
1
  6
Continuous
100
AcDbLine
 10
54.05378599999998
 20
164.5674139999998
 30
0.0
 11
54.05378599999998
 21
132.344941
 31
0.0
  0
LINE
  5
A278
330
A234
100
AcDbEntity
  8
1
  6
Continuous
100
AcDbLine
 10
33.05378599999999
 20
164.5674139999998
 30
0.0
 11
33.05378599999999
 21
132.344941
 31
0.0
  0
LINE
  5
A279
330
A234
100
AcDbEntity
  8
1
  6
Continuous
100
AcDbLine
 10
31.453788
 20
132.344941
 30
0.0
 11
33.05378599999999
 21
132.344941
 31
0.0
  0
LINE
  5
A27A
330
A234
100
AcDbEntity
  8
1
  6
Continuous
100
AcDbLine
 10
54.05378599999998
 20
132.344941
 30
0.0
 11
55.653784
 21
132.344941
 31
0.0
  0
LINE
  5
A27B
330
A234
100
AcDbEntity
  8
1
  6
Continuous
100
AcDbLine
 10
55.653784
 20
164.5674139999998
 30
0.0
 11
55.653784
 21
130.0610189999999
 31
0.0
  0
LINE
  5
A27C
330
A234
100
AcDbEntity
  8
1
  6
Continuous
100
AcDbLine
 10
54.05378599999998
 20
141.344941
 30
0.0
 11
53.55378599999998
 21
141.344941
 31
0.0
  0
LINE
  5
A27D
330
A234
100
AcDbEntity
  8
1
  6
Continuous
100
AcDbLine
 10
54.05378599999998
 20
135.344941
 30
0.0
 11
53.55378599999998
 21
135.344941
 31
0.0
  0
LINE
  5
A27E
330
A234
100
AcDbEntity
  8
4
  6
CENTER
 48
0.5
100
AcDbLine
 10
24.253791
 20
138.344941
 30
0.0
 11
70.85378399999997
 21
138.344941
 31
0.0
  0
LINE
  5
A27F
330
A234
100
AcDbEntity
  8
1
  6
Continuous
100
AcDbLine
 10
31.453788
 20
164.5674139999998
 30
0.0
 11
31.453788
 21
132.344941
 31
0.0
  0
LINE
  5
A280
330
A234
100
AcDbEntity
  8
1
  6
Continuous
100
AcDbLine
 10
33.05378599999999
 20
160.744943
 30
0.0
 11
54.05378599999998
 21
160.744943
 31
0.0
  0
LINE
  5
A281
330
A234
100
AcDbEntity
  8
1
  6
Continuous
100
AcDbLine
 10
33.065093
 20
164.7449429999998
 30
0.0
 11
54.04247900000001
 21
164.7449429999998
 31
0.0
  0
LINE
  5
A282
330
A234
100
AcDbEntity
  8
1
  6
Continuous
100
AcDbLine
 10
33.05378599999999
 20
162.244943
 30
0.0
 11
54.05378599999998
 21
162.244943
 31
0.0
  0
LINE
  5
A283
330
A234
100
AcDbEntity
  8
1
  6
Continuous
100
AcDbLine
 10
128.053786
 20
172.5449419999999
 30
0.0
 11
128.053786
 21
169.7449419999998
 31
0.0
  0
LINE
  5
A284
330
A234
100
AcDbEntity
  8
1
  6
Continuous
100
AcDbLine
 10
128.053786
 20
169.7449419999998
 30
0.0
 11
159.0537859999997
 21
169.7449419999998
 31
0.0
  0
LINE
  5
A285
330
A234
100
AcDbEntity
  8
1
  6
Continuous
100
AcDbLine
 10
128.053786
 20
172.5449419999999
 30
0.0
 11
159.0537859999997
 21
172.5449419999999
 31
0.0
  0
LINE
  5
A286
330
A234
100
AcDbEntity
  8
1
  6
Continuous
100
AcDbLine
 10
159.0537859999997
 20
172.5449419999999
 30
0.0
 11
159.0537859999997
 21
169.7449419999998
 31
0.0
  0
LINE
  5
A287
330
A234
100
AcDbEntity
  8
1
  6
Continuous
100
AcDbLine
 10
28.053786
 20
172.5449419999999
 30
0.0
 11
28.053786
 21
169.7449419999998
 31
0.0
  0
LINE
  5
A288
330
A234
100
AcDbEntity
  8
1
  6
Continuous
100
AcDbLine
 10
28.053786
 20
169.7449419999998
 30
0.0
 11
59.05378599999998
 21
169.7449419999998
 31
0.0
  0
LINE
  5
A289
330
A234
100
AcDbEntity
  8
1
  6
Continuous
100
AcDbLine
 10
28.053786
 20
172.5449419999999
 30
0.0
 11
59.05378599999998
 21
172.5449419999999
 31
0.0
  0
LINE
  5
A28A
330
A234
100
AcDbEntity
  8
1
  6
Continuous
100
AcDbLine
 10
59.05378599999998
 20
172.5449419999999
 30
0.0
 11
59.05378599999998
 21
169.7449419999998
 31
0.0
  0
LINE
  5
A28B
330
A234
100
AcDbEntity
  8
1
  6
Continuous
100
AcDbLine
 10
161.0537859999998
 20
165.4449409999998
 30
0.0
 11
161.0537859999998
 21
161.9449389999997
 31
0.0
  0
LINE
  5
A28C
330
A234
100
AcDbEntity
  8
1
  6
Continuous
100
AcDbLine
 10
152.887728
 20
160.344941
 30
0.0
 11
154.104296
 21
160.344941
 31
0.0
  0
LINE
  5
A28D
330
A234
100
AcDbEntity
  8
1
  6
Continuous
100
AcDbLine
 10
135.9267
 20
142.078831
 30
0.0
 11
152.892519
 21
160.3501
 31
0.0
  0
LINE
  5
A28E
330
A234
100
AcDbEntity
  8
1
  6
Continuous
100
AcDbLine
 10
120.753787
 20
166.730253
 30
0.0
 11
124.406079
 21
167.9387309999999
 31
0.0
  0
LINE
  5
A28F
330
A234
100
AcDbEntity
  8
1
  6
Continuous
100
AcDbLine
 10
120.753787
 20
166.730253
 30
0.0
 11
121.256398
 21
165.2112459999998
 31
0.0
  0
LINE
  5
A290
330
A234
100
AcDbEntity
  8
1
  6
Continuous
100
AcDbLine
 10
121.256398
 20
165.2112459999998
 30
0.0
 11
122.053786
 21
165.4750869999998
 31
0.0
  0
LINE
  5
A291
330
A234
100
AcDbEntity
  8
1
  6
Continuous
100
AcDbLine
 10
122.3622729999999
 20
167.2624719999998
 30
0.0
 11
119.628302
 21
151.4216319999999
 31
0.0
  0
LINE
  5
A292
330
A234
100
AcDbEntity
  8
1
  6
Continuous
100
AcDbLine
 10
128.553786
 20
164.6097189999998
 30
0.0
 11
128.553786
 21
149.324028
 31
0.0
  0
LINE
  5
A293
330
A234
100
AcDbEntity
  8
1
  6
Continuous
100
AcDbLine
 10
34.05378599999998
 20
141.344941
 30
0.0
 11
33.05378599999999
 21
141.344941
 31
0.0
  0
LINE
  5
A294
330
A234
100
AcDbEntity
  8
1
  6
Continuous
100
AcDbLine
 10
34.05378599999998
 20
135.344941
 30
0.0
 11
33.05378599999999
 21
135.344941
 31
0.0
  0
CIRCLE
  5
A295
330
A234
100
AcDbEntity
  8
1
  6
Continuous
100
AcDbCircle
 10
123.553786
 20
246.3449409999999
 30
0.0
 40
2.75
  0
CIRCLE
  5
A296
330
A234
100
AcDbEntity
  8
1
  6
Continuous
100
AcDbCircle
 10
123.553786
 20
226.344941
 30
0.0
 40
2.75
  0
CIRCLE
  5
A297
330
A234
100
AcDbEntity
  8
1
  6
Continuous
100
AcDbCircle
 10
163.553786
 20
226.344941
 30
0.0
 40
2.75
  0
CIRCLE
  5
A298
330
A234
100
AcDbEntity
  8
1
  6
Continuous
100
AcDbCircle
 10
163.553786
 20
246.3449409999999
 30
0.0
 40
2.75
  0
CIRCLE
  5
A299
330
A234
100
AcDbEntity
  8
1
  6
Continuous
100
AcDbCircle
 10
143.5537859999998
 20
236.344941
 30
0.0
 40
7.5
  0
CIRCLE
  5
A29A
330
A234
100
AcDbEntity
  8
1
  6
Continuous
100
AcDbCircle
 10
143.5537859999998
 20
236.344941
 30
0.0
 40
5.75
  0
ARC
  5
A29B
330
A234
100
AcDbEntity
  8
1
  6
Continuous
100
AcDbCircle
 10
154.104296
 20
162.8449409999998
 30
0.0
 40
2.5
100
AcDbArc
 50
270.00002
 51
338.8997499999998
  0
ARC
  5
A29C
330
A234
100
AcDbEntity
  8
1
  6
Continuous
100
AcDbCircle
 10
127.5474039999999
 20
158.4449389999998
 30
0.0
 40
10.0
100
AcDbArc
 50
89.99998199999996
 51
108.30847
  0
ARC
  5
A29D
330
A234
100
AcDbEntity
  8
1
  6
Continuous
100
AcDbCircle
 10
34.453788
 20
164.5674139999998
 30
0.0
 40
3.0
100
AcDbArc
 50
79.48769899999998
 51
179.9999599999999
  0
ARC
  5
A29E
330
A234
100
AcDbEntity
  8
1
  6
Continuous
100
AcDbCircle
 10
52.65378399999999
 20
164.5674139999998
 30
0.0
 40
3.0
100
AcDbArc
 50
0.0
 51
100.5123199999997
  0
ARC
  5
A29F
330
A234
100
AcDbEntity
  8
1
  6
Continuous
100
AcDbCircle
 10
52.65378399999999
 20
164.5674139999998
 30
0.0
 40
1.399999999999999
100
AcDbArc
 50
0.0
 51
99.50020800000002
  0
ARC
  5
A2A0
330
A234
100
AcDbEntity
  8
1
  6
Continuous
100
AcDbCircle
 10
34.453788
 20
164.5674139999998
 30
0.0
 40
1.399999999999999
100
AcDbArc
 50
80.49980999999998
 51
179.9999599999999
  0
ARC
  5
A2A1
330
A234
100
AcDbEntity
  8
1
  6
Continuous
100
AcDbCircle
 10
43.55378599999998
 20
164.7449429999998
 30
0.0
 40
2.0
100
AcDbArc
 50
0.0
 51
14.512996
  0
ARC
  5
A2A2
330
A234
100
AcDbEntity
  8
1
  6
Continuous
100
AcDbCircle
 10
47.55378599999999
 20
164.7449429999998
 30
0.0
 40
2.0
100
AcDbArc
 50
165.3448399999998
 51
179.9999599999999
  0
ARC
  5
A2A3
330
A234
100
AcDbEntity
  8
1
  6
Continuous
100
AcDbCircle
 10
49.55378599999999
 20
164.7449429999998
 30
0.0
 40
2.0
100
AcDbArc
 50
0.0
 51
30.780818
  0
ARC
  5
A2A4
330
A234
100
AcDbEntity
  8
1
  6
Continuous
100
AcDbCircle
 10
51.05378599999998
 20
164.7449429999998
 30
0.0
 40
2.0
100
AcDbArc
 50
0.0
 51
38.225372
  0
ARC
  5
A2A5
330
A234
100
AcDbEntity
  8
1
  6
Continuous
100
AcDbCircle
 10
47.55378599999999
 20
164.7449429999998
 30
0.0
 40
2.0
100
AcDbArc
 50
0.0
 51
23.09665499999999
  0
ARC
  5
A2A6
330
A234
100
AcDbEntity
  8
1
  6
Continuous
100
AcDbCircle
 10
43.55378599999998
 20
164.7449429999998
 30
0.0
 40
2.0
100
AcDbArc
 50
165.4870299999998
 51
179.9999599999999
  0
ARC
  5
A2A7
330
A234
100
AcDbEntity
  8
1
  6
Continuous
100
AcDbCircle
 10
39.55378599999999
 20
164.7449429999998
 30
0.0
 40
2.0
100
AcDbArc
 50
0.0
 51
14.65517499999998
  0
ARC
  5
A2A8
330
A234
100
AcDbEntity
  8
1
  6
Continuous
100
AcDbCircle
 10
37.55378599999997
 20
164.7449429999998
 30
0.0
 40
2.0
100
AcDbArc
 50
149.2192
 51
179.9999599999999
  0
ARC
  5
A2A9
330
A234
100
AcDbEntity
  8
1
  6
Continuous
100
AcDbCircle
 10
36.05378599999997
 20
164.7449429999998
 30
0.0
 40
2.0
100
AcDbArc
 50
141.7746499999998
 51
179.9999599999999
  0
ARC
  5
A2AA
330
A234
100
AcDbEntity
  8
1
  6
Continuous
100
AcDbCircle
 10
39.55378599999999
 20
164.7449429999998
 30
0.0
 40
2.0
100
AcDbArc
 50
156.90337
 51
179.9999599999999
  0
ARC
  5
A2AB
330
A234
100
AcDbEntity
  8
1
  6
Continuous
100
AcDbCircle
 10
124.053786
 20
245.844941
 30
0.0
 40
6.0
100
AcDbArc
 50
89.99998199999996
 51
179.9999599999999
  0
ARC
  5
A2AC
330
A234
100
AcDbEntity
  8
1
  6
Continuous
100
AcDbCircle
 10
163.053786
 20
245.844941
 30
0.0
 40
6.0
100
AcDbArc
 50
0.0
 51
89.99998199999996
  0
ARC
  5
A2AD
330
A234
100
AcDbEntity
  8
1
  6
Continuous
100
AcDbCircle
 10
163.053786
 20
226.844941
 30
0.0
 40
6.0
100
AcDbArc
 50
270.00002
 51
0.0
  0
ARC
  5
A2AE
330
A234
100
AcDbEntity
  8
1
  6
Continuous
100
AcDbCircle
 10
124.053786
 20
226.844941
 30
0.0
 40
6.0
100
AcDbArc
 50
179.9999799999999
 51
270.0000299999999
  0
ARC
  5
A2AF
330
A234
100
AcDbEntity
  8
1
  6
Continuous
100
AcDbCircle
 10
143.5537859999998
 20
170.3294419999997
 30
0.0
 40
1.984499999999996
100
AcDbArc
 50
197.12951
 51
251.73359
  0
ARC
  5
A2B0
330
A234
100
AcDbEntity
  8
1
  6
Continuous
100
AcDbCircle
 10
131.0537859999998
 20
170.3294419999997
 30
0.0
 40
1.984499999999996
100
AcDbArc
 50
197.12951
 51
251.7336299999999
  0
ARC
  5
A2B1
330
A234
100
AcDbEntity
  8
1
  6
Continuous
100
AcDbCircle
 10
130.5977179999999
 20
171.375152
 30
0.0
 40
2.799999999999998
100
AcDbArc
 50
107.5419899999999
 51
155.30536
  0
ARC
  5
A2B2
330
A234
100
AcDbEntity
  8
1
  6
Continuous
100
AcDbCircle
 10
139.4950429999999
 20
170.3294419999997
 30
0.0
 40
1.984499999999996
100
AcDbArc
 50
197.12951
 51
251.73359
  0
ARC
  5
A2B3
330
A234
100
AcDbEntity
  8
1
  6
Continuous
100
AcDbCircle
 10
135.8761279999999
 20
170.3294419999997
 30
0.0
 40
1.984499999999996
100
AcDbArc
 50
197.12951
 51
251.7336299999999
  0
ARC
  5
A2B4
330
A234
100
AcDbEntity
  8
1
  6
Continuous
100
AcDbCircle
 10
133.0892049999998
 20
170.3294419999997
 30
0.0
 40
1.984499999999996
100
AcDbArc
 50
197.12951
 51
251.7336299999999
  0
ARC
  5
A2B5
330
A234
100
AcDbEntity
  8
1
  6
Continuous
100
AcDbCircle
 10
131.436282
 20
170.3294419999997
 30
0.0
 40
1.984499999999996
100
AcDbArc
 50
197.12951
 51
251.7336299999999
  0
ARC
  5
A2B6
330
A234
100
AcDbEntity
  8
1
  6
Continuous
100
AcDbCircle
 10
143.5537859999998
 20
170.3294419999997
 30
0.0
 40
1.984499999999996
100
AcDbArc
 50
288.2663999999998
 51
342.87047
  0
ARC
  5
A2B7
330
A234
100
AcDbEntity
  8
1
  6
Continuous
100
AcDbCircle
 10
156.053786
 20
170.3294419999997
 30
0.0
 40
1.984499999999996
100
AcDbArc
 50
288.2663999999998
 51
342.87047
  0
ARC
  5
A2B8
330
A234
100
AcDbEntity
  8
1
  6
Continuous
100
AcDbCircle
 10
156.509856
 20
171.375152
 30
0.0
 40
2.799999999999998
100
AcDbArc
 50
24.69460399999999
 51
72.45797299999998
  0
ARC
  5
A2B9
330
A234
100
AcDbEntity
  8
1
  6
Continuous
100
AcDbCircle
 10
147.6125289999997
 20
170.3294419999997
 30
0.0
 40
1.984499999999996
100
AcDbArc
 50
197.12951
 51
251.73359
  0
ARC
  5
A2BA
330
A234
100
AcDbEntity
  8
1
  6
Continuous
100
AcDbCircle
 10
151.2314439999999
 20
170.3294419999997
 30
0.0
 40
1.984499999999996
100
AcDbArc
 50
204.2453499999997
 51
251.73359
  0
ARC
  5
A2BB
330
A234
100
AcDbEntity
  8
1
  6
Continuous
100
AcDbCircle
 10
154.0183669999999
 20
170.3294419999997
 30
0.0
 40
1.984499999999996
100
AcDbArc
 50
225.39842
 51
251.73359
  0
ARC
  5
A2BC
330
A234
100
AcDbEntity
  8
1
  6
Continuous
100
AcDbCircle
 10
155.6712899999999
 20
170.3294419999997
 30
0.0
 40
1.984499999999996
100
AcDbArc
 50
288.2663999999998
 51
342.8704799999998
  0
ARC
  5
A2BD
330
A234
100
AcDbEntity
  8
1
  6
Continuous
100
AcDbCircle
 10
133.0892049999998
 20
170.3294419999997
 30
0.0
 40
1.984499999999996
100
AcDbArc
 50
288.2663499999998
 51
314.60156
  0
ARC
  5
A2BE
330
A234
100
AcDbEntity
  8
1
  6
Continuous
100
AcDbCircle
 10
135.8761279999999
 20
170.3294419999997
 30
0.0
 40
1.984499999999996
100
AcDbArc
 50
288.2663999999998
 51
335.7546399999999
  0
ARC
  5
A2BF
330
A234
100
AcDbEntity
  8
1
  6
Continuous
100
AcDbCircle
 10
139.4950429999999
 20
170.3294419999997
 30
0.0
 40
1.984499999999996
100
AcDbArc
 50
288.2663999999998
 51
342.8704799999998
  0
ARC
  5
A2C0
330
A234
100
AcDbEntity
  8
1
  6
Continuous
100
AcDbCircle
 10
147.6125289999997
 20
170.3294419999997
 30
0.0
 40
1.984499999999996
100
AcDbArc
 50
288.2663999999998
 51
342.87047
  0
ARC
  5
A2C1
330
A234
100
AcDbEntity
  8
1
  6
Continuous
100
AcDbCircle
 10
151.2314439999999
 20
170.3294419999997
 30
0.0
 40
1.984499999999996
100
AcDbArc
 50
288.2663999999998
 51
342.87047
  0
ARC
  5
A2C2
330
A234
100
AcDbEntity
  8
1
  6
Continuous
100
AcDbCircle
 10
154.0183669999999
 20
170.3294419999997
 30
0.0
 40
1.984499999999996
100
AcDbArc
 50
288.2663999999998
 51
342.87047
  0
ARC
  5
A2C3
330
A234
100
AcDbEntity
  8
1
  6
Continuous
100
AcDbCircle
 10
43.55378599999998
 20
170.3294419999997
 30
0.0
 40
1.984499999999996
100
AcDbArc
 50
197.12951
 51
251.73369
  0
ARC
  5
A2C4
330
A234
100
AcDbEntity
  8
1
  6
Continuous
100
AcDbCircle
 10
31.05378599999999
 20
170.3294419999997
 30
0.0
 40
1.984499999999996
100
AcDbArc
 50
197.12951
 51
251.73369
  0
ARC
  5
A2C5
330
A234
100
AcDbEntity
  8
1
  6
Continuous
100
AcDbCircle
 10
30.59771599999999
 20
171.375152
 30
0.0
 40
2.799999999999998
100
AcDbArc
 50
107.5419899999999
 51
155.30536
  0
ARC
  5
A2C6
330
A234
100
AcDbEntity
  8
1
  6
Continuous
100
AcDbCircle
 10
39.49504000000001
 20
170.3294419999997
 30
0.0
 40
1.984499999999996
100
AcDbArc
 50
197.12951
 51
251.73369
  0
ARC
  5
A2C7
330
A234
100
AcDbEntity
  8
1
  6
Continuous
100
AcDbCircle
 10
35.876128
 20
170.3294419999997
 30
0.0
 40
1.984499999999996
100
AcDbArc
 50
197.12951
 51
251.73369
  0
ARC
  5
A2C8
330
A234
100
AcDbEntity
  8
1
  6
Continuous
100
AcDbCircle
 10
33.089202
 20
170.3294419999997
 30
0.0
 40
1.984499999999996
100
AcDbArc
 50
197.12951
 51
251.73369
  0
ARC
  5
A2C9
330
A234
100
AcDbEntity
  8
1
  6
Continuous
100
AcDbCircle
 10
31.436278
 20
170.3294419999997
 30
0.0
 40
1.984499999999996
100
AcDbArc
 50
197.12951
 51
251.73369
  0
ARC
  5
A2CA
330
A234
100
AcDbEntity
  8
1
  6
Continuous
100
AcDbCircle
 10
43.55378599999998
 20
170.3294419999997
 30
0.0
 40
1.984499999999996
100
AcDbArc
 50
288.2662899999999
 51
342.87047
  0
ARC
  5
A2CB
330
A234
100
AcDbEntity
  8
1
  6
Continuous
100
AcDbCircle
 10
56.05378599999998
 20
170.3294419999997
 30
0.0
 40
1.984499999999996
100
AcDbArc
 50
288.2662899999999
 51
342.87047
  0
ARC
  5
A2CC
330
A234
100
AcDbEntity
  8
1
  6
Continuous
100
AcDbCircle
 10
56.50985600000001
 20
171.375152
 30
0.0
 40
2.799999999999998
100
AcDbArc
 50
24.69460399999999
 51
72.45797299999998
  0
ARC
  5
A2CD
330
A234
100
AcDbEntity
  8
1
  6
Continuous
100
AcDbCircle
 10
47.612532
 20
170.3294419999997
 30
0.0
 40
1.984499999999996
100
AcDbArc
 50
197.12951
 51
251.73369
  0
ARC
  5
A2CE
330
A234
100
AcDbEntity
  8
1
  6
Continuous
100
AcDbCircle
 10
51.23144400000001
 20
170.3294419999997
 30
0.0
 40
1.984499999999996
100
AcDbArc
 50
204.2453499999997
 51
251.73369
  0
ARC
  5
A2CF
330
A234
100
AcDbEntity
  8
1
  6
Continuous
100
AcDbCircle
 10
54.01837
 20
170.3294419999997
 30
0.0
 40
1.984499999999996
100
AcDbArc
 50
225.39842
 51
251.73369
  0
ARC
  5
A2D0
330
A234
100
AcDbEntity
  8
1
  6
Continuous
100
AcDbCircle
 10
55.67129399999998
 20
170.3294419999997
 30
0.0
 40
1.984499999999996
100
AcDbArc
 50
288.2662899999999
 51
342.8704799999998
  0
ARC
  5
A2D1
330
A234
100
AcDbEntity
  8
1
  6
Continuous
100
AcDbCircle
 10
33.089202
 20
170.3294419999997
 30
0.0
 40
1.984499999999996
100
AcDbArc
 50
288.2662899999999
 51
314.60156
  0
ARC
  5
A2D2
330
A234
100
AcDbEntity
  8
1
  6
Continuous
100
AcDbCircle
 10
35.876128
 20
170.3294419999997
 30
0.0
 40
1.984499999999996
100
AcDbArc
 50
288.2662899999999
 51
335.7546399999999
  0
ARC
  5
A2D3
330
A234
100
AcDbEntity
  8
1
  6
Continuous
100
AcDbCircle
 10
39.49504000000001
 20
170.3294419999997
 30
0.0
 40
1.984499999999996
100
AcDbArc
 50
288.2662899999999
 51
342.8704799999998
  0
ARC
  5
A2D4
330
A234
100
AcDbEntity
  8
1
  6
Continuous
100
AcDbCircle
 10
47.612532
 20
170.3294419999997
 30
0.0
 40
1.984499999999996
100
AcDbArc
 50
288.2662899999999
 51
342.87047
  0
ARC
  5
A2D5
330
A234
100
AcDbEntity
  8
1
  6
Continuous
100
AcDbCircle
 10
51.23144400000001
 20
170.3294419999997
 30
0.0
 40
1.984499999999996
100
AcDbArc
 50
288.2662899999999
 51
342.87047
  0
ARC
  5
A2D6
330
A234
100
AcDbEntity
  8
1
  6
Continuous
100
AcDbCircle
 10
54.01837
 20
170.3294419999997
 30
0.0
 40
1.984499999999996
100
AcDbArc
 50
288.2662899999999
 51
342.87047
  0
ARC
  5
A2D7
330
A234
100
AcDbEntity
  8
1
  6
Continuous
100
AcDbCircle
 10
158.0537859999997
 20
165.4449409999998
 30
0.0
 40
3.0
100
AcDbArc
 50
0.0
 51
89.99998199999996
  0
ARC
  5
A2D8
330
A234
100
AcDbEntity
  8
1
  6
Continuous
100
AcDbCircle
 10
156.553786
 20
156.9449389999998
 30
0.0
 40
5.0
100
AcDbArc
 50
89.99998199999996
 51
137.12173
  0
ARC
  5
A2D9
330
A234
100
AcDbEntity
  8
1
  6
Continuous
100
AcDbCircle
 10
46.275081
 20
152.3658369999999
 30
0.0
 40
20.327223
100
AcDbArc
 50
185.8518499999999
 51
216.589396
  0
ARC
  5
A2DA
330
A234
100
AcDbEntity
  8
1
  6
Continuous
100
AcDbCircle
 10
43.55378599999998
 20
218.9456799999999
 30
0.0
 40
53.734432
100
AcDbArc
 50
260.49978
 51
279.50021
  0
ARC
  5
A2DB
330
A234
100
AcDbEntity
  8
1
  6
Continuous
100
AcDbCircle
 10
43.55378599999998
 20
213.6076399999998
 30
0.0
 40
46.87738399999999
100
AcDbArc
 50
259.4876299999999
 51
280.5123299999999
  0
ARC
  5
A2DC
330
A234
100
AcDbEntity
  8
1
  6
Continuous
100
AcDbCircle
 10
143.5537859999998
 20
236.344941
 30
0.0
 40
17.5
100
AcDbArc
 50
62.33955
 51
117.66045
  0
ARC
  5
A2DD
330
A234
100
AcDbEntity
  8
1
  6
Continuous
100
AcDbCircle
 10
143.5537859999998
 20
236.344941
 30
0.0
 40
17.5
100
AcDbArc
 50
242.33955
 51
297.66045
  0
LINE
  5
A2DE
330
A234
100
AcDbEntity
  8
1
  6
Continuous
100
AcDbLine
 10
126.553786
 20
48.844941
 30
0.0
 11
126.553786
 21
47.84494099999998
 31
0.0
  0
LINE
  5
A2DF
330
A234
100
AcDbEntity
  8
1
  6
Continuous
100
AcDbLine
 10
120.553786
 20
48.844941
 30
0.0
 11
120.553786
 21
47.84494099999998
 31
0.0
  0
LINE
  5
A2E0
330
A234
100
AcDbEntity
  8
1
  6
Continuous
100
AcDbLine
 10
126.553786
 20
68.84494100000001
 30
0.0
 11
126.553786
 21
68.344941
 31
0.0
  0
LINE
  5
A2E1
330
A234
100
AcDbEntity
  8
1
  6
Continuous
100
AcDbLine
 10
120.553786
 20
68.84494100000001
 30
0.0
 11
120.553786
 21
68.344941
 31
0.0
  0
LINE
  5
A2E2
330
A234
100
AcDbEntity
  8
4
  6
CENTER
 48
0.5
100
AcDbLine
 10
123.553786
 20
258.8449409999999
 30
0.0
 11
123.553786
 21
213.844941
 31
0.0
  0
LINE
  5
A2E3
330
A234
100
AcDbEntity
  8
4
  6
CENTER
 48
0.5
100
AcDbLine
 10
98.55378600000001
 20
58.344941
 30
0.0
 11
174.053786
 21
58.344941
 31
0.0
  0
LINE
  5
A2E4
330
A234
100
AcDbEntity
  8
4
  6
CENTER
 48
0.5
100
AcDbLine
 10
143.5537859999998
 20
35.844941
 30
0.0
 11
143.5537859999998
 21
80.844941
 31
0.0
  0
LINE
  5
A2E5
330
A234
100
AcDbEntity
  8
4
  6
CENTER
 48
0.5
100
AcDbLine
 10
123.553786
 20
36.298352
 30
0.0
 11
123.553786
 21
80.844941
 31
0.0
  0
LINE
  5
A2E6
330
A234
100
AcDbEntity
  8
1
  6
Continuous
100
AcDbLine
 10
169.053786
 20
48.844941
 30
0.0
 11
169.053786
 21
67.844941
 31
0.0
  0
ARC
  5
A2E7
330
A234
100
AcDbEntity
  8
1
  6
Continuous
100
AcDbCircle
 10
143.5537859999998
 20
58.344941
 30
0.0
 40
17.5
100
AcDbArc
 50
229.464198
 51
72.293362
  0
LINE
  5
A2E8
330
A234
100
AcDbEntity
  8
4
  6
CENTER
100
AcDbLine
 10
127.553786
 20
68.344941
 30
0.0
 11
119.553786
 21
68.344941
 31
0.0
  0
CIRCLE
  5
A2EA
330
A234
100
AcDbEntity
  8
1
  6
Continuous
100
AcDbCircle
 10
163.553786
 20
68.344941
 30
0.0
 40
2.75
  0
ARC
  5
A2EB
330
A234
100
AcDbEntity
  8
1
  6
Continuous
100
AcDbCircle
 10
163.053786
 20
67.844941
 30
0.0
 40
6.0
100
AcDbArc
 50
0.0
 51
89.99997999999996
  0
LINE
  5
A2EC
330
A234
100
AcDbEntity
  8
4
  6
CENTER
100
AcDbLine
 10
167.553786
 20
68.344941
 30
0.0
 11
159.553786
 21
68.344941
 31
0.0
  0
LINE
  5
A2ED
330
A234
100
AcDbEntity
  8
4
  6
CENTER
100
AcDbLine
 10
163.553786
 20
64.34494100000001
 30
0.0
 11
163.553786
 21
72.344941
 31
0.0
  0
LINE
  5
A2EE
330
A234
100
AcDbEntity
  8
1
  6
Continuous
100
AcDbLine
 10
124.053786
 20
42.84494099999998
 30
0.0
 11
135.4297479999999
 21
42.84494099999998
 31
0.0
  0
ARC
  5
A2EF
330
A234
100
AcDbEntity
  8
1
  6
Continuous
100
AcDbCircle
 10
124.053786
 20
48.844941
 30
0.0
 40
6.0
100
AcDbArc
 50
180.0
 51
189.5940679999999
  0
LINE
  5
A2F0
330
A234
100
AcDbEntity
  8
4
  6
CENTER
100
AcDbLine
 10
127.553786
 20
48.344941
 30
0.0
 11
119.553786
 21
48.344941
 31
0.0
  0
CIRCLE
  5
A2F2
330
A234
100
AcDbEntity
  8
1
  6
Continuous
100
AcDbCircle
 10
163.553786
 20
48.344941
 30
0.0
 40
2.75
  0
ARC
  5
A2F3
330
A234
100
AcDbEntity
  8
1
  6
Continuous
100
AcDbCircle
 10
163.053786
 20
48.844941
 30
0.0
 40
6.0
100
AcDbArc
 50
270.0000179999999
 51
0.0
  0
LINE
  5
A2F4
330
A234
100
AcDbEntity
  8
4
  6
CENTER
100
AcDbLine
 10
167.553786
 20
48.344941
 30
0.0
 11
159.553786
 21
48.344941
 31
0.0
  0
LINE
  5
A2F5
330
A234
100
AcDbEntity
  8
4
  6
CENTER
100
AcDbLine
 10
163.553786
 20
44.344941
 30
0.0
 11
163.553786
 21
52.344941
 31
0.0
  0
LINE
  5
A2F6
330
A234
100
AcDbEntity
  8
1
  6
Continuous
100
AcDbLine
 10
151.677825
 20
73.84494100000002
 30
0.0
 11
163.053786
 21
73.84494100000002
 31
0.0
  0
LINE
  5
A2F7
330
A234
100
AcDbEntity
  8
1
  6
Continuous
100
AcDbLine
 10
151.677825
 20
42.84494099999998
 30
0.0
 11
163.053786
 21
42.84494099999998
 31
0.0
  0
LINE
  5
A2F8
330
A234
100
AcDbEntity
  8
1
  6
Continuous
100
AcDbLine
 10
129.533801
 20
68.84494100000001
 30
0.0
 11
117.573046
 21
68.84494100000001
 31
0.0
  0
ARC
  5
A2F9
330
A234
100
AcDbEntity
  8
1
  6
Continuous
100
AcDbCircle
 10
143.5537859999998
 20
58.344941
 30
0.0
 40
15.9
100
AcDbArc
 50
227.870178
 51
75.350414
  0
LINE
  5
A2FA
330
A234
100
AcDbEntity
  8
1
  6
Continuous
100
AcDbLine
 10
128.9305169999997
 20
46.24494099999998
 30
0.0
 11
117.573046
 21
46.24494099999998
 31
0.0
  0
LINE
  5
A2FB
330
A234
100
AcDbEntity
  8
1
  6
Continuous
100
AcDbLine
 10
129.533801
 20
47.84494099999998
 30
0.0
 11
117.573046
 21
47.84494099999998
 31
0.0
  0
LINE
  5
A2FC
330
A234
100
AcDbEntity
  8
1
  6
Continuous
100
AcDbLine
 10
117.573046
 20
46.24494099999998
 30
0.0
 11
117.573046
 21
47.84494099999998
 31
0.0
  0
ARC
  5
A2FD
330
A234
100
AcDbEntity
  8
1
  6
Continuous
100
AcDbCircle
 10
143.5537859999998
 20
58.344941
 30
0.0
 40
13.000002
100
AcDbArc
 50
219.190282
 51
142.0201329999999
  0
ARC
  5
A2FE
330
A234
100
AcDbEntity
  8
1
  6
Continuous
100
AcDbCircle
 10
143.5537859999998
 20
58.344941
 30
0.0
 40
10.25
100
AcDbArc
 50
231.30526
 51
128.69474
  0
ARC
  5
A2FF
330
A234
100
AcDbEntity
  8
1
  6
Continuous
100
AcDbCircle
 10
144.7861669999998
 20
57.112613
 30
0.0
 40
3.623304
100
AcDbArc
 50
271.752545
 51
358.2470069999998
  0
LINE
  5
A300
330
A234
100
AcDbEntity
  8
1
  6
Continuous
100
AcDbLine
 10
143.3157879999999
 20
53.987965
 30
0.0
 11
143.5538159999999
 21
54.094986
 31
0.0
  0
LINE
  5
A301
330
A234
100
AcDbEntity
  8
1
  6
Continuous
100
AcDbLine
 10
143.5537929999999
 20
54.094914
 30
0.0
 11
144.803785
 21
53.53289799999998
 31
0.0
  0
LINE
  5
A302
330
A234
100
AcDbEntity
  8
1
  6
Continuous
100
AcDbLine
 10
143.5538159999999
 20
58.344971
 30
0.0
 11
147.803854
 21
58.344971
 31
0.0
  0
ARC
  5
A303
330
A234
100
AcDbEntity
  8
1
  6
Continuous
100
AcDbCircle
 10
144.786211
 20
59.577365
 30
0.0
 40
3.623247999999998
100
AcDbArc
 50
1.753413
 51
88.24653899999999
  0
LINE
  5
A304
330
A234
100
AcDbEntity
  8
1
  6
Continuous
100
AcDbLine
 10
144.8038119999999
 20
63.156983
 30
0.0
 11
143.337628
 21
62.497765
 31
0.0
  0
LINE
  5
A305
330
A234
100
AcDbEntity
  8
1
  6
Continuous
100
AcDbLine
 10
147.8038119999999
 20
58.344971
 30
0.0
 11
148.365832
 21
59.594975
 31
0.0
  0
LINE
  5
A306
330
A234
100
AcDbEntity
  8
1
  6
Continuous
100
AcDbLine
 10
148.36587
 20
57.09499
 30
0.0
 11
147.80385
 21
58.34498599999999
 31
0.0
  0
LINE
  5
A307
330
A234
100
AcDbEntity
  8
1
  6
Continuous
100
AcDbLine
 10
144.8734359999999
 20
57.259335
 30
0.0
 11
145.861486
 21
55.547982
 31
0.0
  0
LINE
  5
A308
330
A234
100
AcDbEntity
  8
1
  6
Continuous
100
AcDbLine
 10
144.822255
 20
54.947981
 30
0.0
 11
143.8342059999999
 21
56.65933100000001
 31
0.0
  0
ARC
  5
A309
330
A234
100
AcDbEntity
  8
1
  6
Continuous
100
AcDbCircle
 10
143.5232139999999
 20
54.19798
 30
0.0
 40
1.5
100
AcDbArc
 50
334.5182299999998
 51
29.99995999999999
  0
ARC
  5
A30A
330
A234
100
AcDbEntity
  8
1
  6
Continuous
100
AcDbCircle
 10
147.1605169999999
 20
56.297978
 30
0.0
 40
1.5
100
AcDbArc
 50
210.0000089999999
 51
265.48158
  0
LINE
  5
A30B
330
A234
100
AcDbEntity
  8
1
  6
Continuous
100
AcDbLine
 10
145.1538139999998
 20
58.944977
 30
0.0
 11
147.1299149999999
 21
58.944977
 31
0.0
  0
LINE
  5
A30C
330
A234
100
AcDbEntity
  8
1
  6
Continuous
100
AcDbLine
 10
147.1299149999999
 20
57.744976
 30
0.0
 11
145.153818
 21
57.744976
 31
0.0
  0
ARC
  5
A30D
330
A234
100
AcDbEntity
  8
1
  6
Continuous
100
AcDbCircle
 10
147.1299149999999
 20
56.244973
 30
0.0
 40
1.5
100
AcDbArc
 50
34.51822999999999
 51
89.99996000000001
  0
ARC
  5
A30E
330
A234
100
AcDbEntity
  8
1
  6
Continuous
100
AcDbCircle
 10
147.1299149999999
 20
60.44496899999999
 30
0.0
 40
1.5
100
AcDbArc
 50
270.0000089999999
 51
325.48158
  0
ARC
  5
A30F
330
A234
100
AcDbEntity
  8
1
  6
Continuous
100
AcDbCircle
 10
142.9681699999999
 20
60.530613
 30
0.0
 40
1.0
100
AcDbArc
 50
305.8481929999998
 51
329.999982
  0
LINE
  5
A310
330
A234
100
AcDbEntity
  8
1
  6
Continuous
100
AcDbLine
 10
143.8341949999999
 20
60.030613
 30
0.0
 11
144.822245
 21
61.741967
 31
0.0
  0
LINE
  5
A311
330
A234
100
AcDbEntity
  8
1
  6
Continuous
100
AcDbLine
 10
145.861477
 20
61.14196599999999
 30
0.0
 11
144.8734279999999
 21
59.430616
 31
0.0
  0
ARC
  5
A312
330
A234
100
AcDbEntity
  8
1
  6
Continuous
100
AcDbCircle
 10
147.1605169999999
 20
60.391965
 30
0.0
 40
1.5
100
AcDbArc
 50
94.51823
 51
149.99996
  0
ARC
  5
A313
330
A234
100
AcDbEntity
  8
1
  6
Continuous
100
AcDbCircle
 10
143.5232139999999
 20
62.491963
 30
0.0
 40
1.5
100
AcDbArc
 50
330.0000089999998
 51
25.48157999999999
  0
LINE
  5
A314
330
A234
100
AcDbEntity
  8
1
  6
Continuous
100
AcDbLine
 10
143.553796
 20
58.344977
 30
0.0
 11
145.6788149999999
 21
62.02561800000001
 31
0.0
  0
LINE
  5
A315
330
A234
100
AcDbEntity
  8
1
  6
Continuous
100
AcDbLine
 10
143.5538219999999
 20
58.344951
 30
0.0
 11
145.678841
 21
54.66431
 31
0.0
  0
LINE
  5
A316
330
A234
100
AcDbEntity
  8
1
  6
Continuous
100
AcDbLine
 10
329.553786
 20
164.6097189999998
 30
0.0
 11
329.553786
 21
141.2712219999999
 31
0.0
  0
LINE
  5
A317
330
A234
100
AcDbEntity
  8
1
  6
Continuous
100
AcDbLine
 10
335.745299
 20
167.2624719999998
 30
0.0
 11
340.459086
 21
139.950429
 31
0.0
  0
LINE
  5
A318
330
A234
100
AcDbEntity
  8
1
  6
Continuous
100
AcDbLine
 10
297.0537859999998
 20
165.4449409999998
 30
0.0
 11
297.0537859999998
 21
161.9449389999997
 31
0.0
  0
LINE
  5
A319
330
A234
100
AcDbEntity
  8
4
  6
CENTER
 48
0.5
100
AcDbLine
 10
314.553786
 20
181.344941
 30
0.0
 11
314.553786
 21
147.2927409999998
 31
0.0
  0
LINE
  5
A31A
330
A234
100
AcDbEntity
  8
4
  6
CENTER
 48
0.5
100
AcDbLine
 10
309.553786
 20
138.344941
 30
0.0
 11
359.553786
 21
138.344941
 31
0.0
  0
LINE
  5
A31B
330
A234
100
AcDbEntity
  8
4
  6
CENTER
 48
0.5
100
AcDbLine
 10
334.553786
 20
163.344941
 30
0.0
 11
334.553786
 21
113.3449409999998
 31
0.0
  0
LINE
  5
A31C
330
A234
100
AcDbEntity
  8
1
  6
Continuous
100
AcDbLine
 10
329.2905809999998
 20
134.4220589999999
 30
0.0
 11
305.2150539999999
 21
160.3501
 31
0.0
  0
ARC
  5
A31D
330
A234
100
AcDbEntity
  8
1
  6
Continuous
100
AcDbCircle
 10
334.0537859999999
 20
138.8449409999997
 30
0.0
 40
6.5
100
AcDbArc
 50
222.87831
 51
9.792199999999999
  0
ARC
  5
A31E
330
A234
100
AcDbEntity
  8
1
  6
Continuous
100
AcDbCircle
 10
301.553786
 20
156.9449389999998
 30
0.0
 40
5.0
100
AcDbArc
 50
42.87827
 51
90.00001800000005
  0
ARC
  5
A31F
330
A234
100
AcDbEntity
  8
1
  6
Continuous
100
AcDbCircle
 10
304.0032759999998
 20
162.8449409999998
 30
0.0
 40
2.5
100
AcDbArc
 50
201.1002499999999
 51
269.99998
  0
LINE
  5
A320
330
A234
100
AcDbEntity
  8
1
  6
Continuous
100
AcDbLine
 10
305.2198439999999
 20
160.344941
 30
0.0
 11
304.0032759999998
 21
160.344941
 31
0.0
  0
LINE
  5
A321
330
A234
100
AcDbEntity
  8
1
  6
Continuous
100
AcDbLine
 10
301.553786
 20
161.9449389999997
 30
0.0
 11
297.0537859999998
 21
161.9449389999997
 31
0.0
  0
LINE
  5
A322
330
A234
100
AcDbEntity
  8
1
  6
Continuous
100
AcDbLine
 10
330.0537859999999
 20
172.5449419999999
 30
0.0
 11
299.0537859999998
 21
172.5449419999999
 31
0.0
  0
LINE
  5
A323
330
A234
100
AcDbEntity
  8
1
  6
Continuous
100
AcDbLine
 10
330.0537859999999
 20
169.7449419999998
 30
0.0
 11
299.0537859999998
 21
169.7449419999998
 31
0.0
  0
LINE
  5
A324
330
A234
100
AcDbEntity
  8
1
  6
Continuous
100
AcDbLine
 10
330.5601679999998
 20
168.4449419999999
 30
0.0
 11
300.053786
 21
168.4449419999999
 31
0.0
  0
LINE
  5
A325
330
A234
100
AcDbEntity
  8
1
  6
Continuous
100
AcDbLine
 10
340.053786
 20
174.044942
 30
0.0
 11
289.053786
 21
174.044942
 31
0.0
  0
LINE
  5
A326
330
A234
100
AcDbEntity
  8
1
  6
Continuous
100
AcDbLine
 10
340.053786
 20
176.3449409999997
 30
0.0
 11
289.053786
 21
176.3449409999997
 31
0.0
  0
LINE
  5
A327
330
A234
100
AcDbEntity
  8
1
  6
Continuous
100
AcDbLine
 10
337.353785
 20
166.730253
 30
0.0
 11
333.701493
 21
167.9387309999999
 31
0.0
  0
LINE
  5
A328
330
A234
100
AcDbEntity
  8
1
  6
Continuous
100
AcDbLine
 10
336.851174
 20
165.2112459999998
 30
0.0
 11
336.0537859999999
 21
165.4750869999998
 31
0.0
  0
LINE
  5
A329
330
A234
100
AcDbEntity
  8
1
  6
Continuous
100
AcDbLine
 10
337.353785
 20
166.730253
 30
0.0
 11
336.851174
 21
165.2112459999998
 31
0.0
  0
LINE
  5
A32A
330
A234
100
AcDbEntity
  8
4
  6
CENTER
100
AcDbLine
 10
334.553786
 20
179.344941
 30
0.0
 11
334.553786
 21
171.0449419999999
 31
0.0
  0
LINE
  5
A32B
330
A234
100
AcDbEntity
  8
1
  6
Continuous
100
AcDbLine
 10
340.053786
 20
176.3449409999997
 30
0.0
 11
340.053786
 21
174.044942
 31
0.0
  0
ARC
  5
A32C
330
A234
100
AcDbEntity
  8
1
  6
Continuous
100
AcDbCircle
 10
322.231444
 20
170.3294419999997
 30
0.0
 40
1.984499999999996
100
AcDbArc
 50
204.2453599999999
 51
251.7335999999999
  0
ARC
  5
A32D
330
A234
100
AcDbEntity
  8
1
  6
Continuous
100
AcDbCircle
 10
325.018367
 20
170.3294419999997
 30
0.0
 40
1.984499999999996
100
AcDbArc
 50
225.3984399999999
 51
251.7336499999999
  0
ARC
  5
A32E
330
A234
100
AcDbEntity
  8
1
  6
Continuous
100
AcDbCircle
 10
326.6712899999999
 20
170.3294419999997
 30
0.0
 40
1.984499999999996
100
AcDbArc
 50
288.26637
 51
342.87049
  0
ARC
  5
A32F
330
A234
100
AcDbEntity
  8
1
  6
Continuous
100
AcDbCircle
 10
325.018367
 20
170.3294419999997
 30
0.0
 40
1.984499999999996
100
AcDbArc
 50
288.26637
 51
342.87049
  0
ARC
  5
A330
330
A234
100
AcDbEntity
  8
1
  6
Continuous
100
AcDbCircle
 10
322.231444
 20
170.3294419999997
 30
0.0
 40
1.984499999999996
100
AcDbArc
 50
288.26637
 51
342.87049
  0
ARC
  5
A331
330
A234
100
AcDbEntity
  8
1
  6
Continuous
100
AcDbCircle
 10
318.612529
 20
170.3294419999997
 30
0.0
 40
1.984499999999996
100
AcDbArc
 50
288.2664099999999
 51
342.87049
  0
ARC
  5
A332
330
A234
100
AcDbEntity
  8
1
  6
Continuous
100
AcDbCircle
 10
327.509854
 20
171.375152
 30
0.0
 40
2.799999999999998
100
AcDbArc
 50
24.69464
 51
72.45801
  0
ARC
  5
A333
330
A234
100
AcDbEntity
  8
1
  6
Continuous
100
AcDbCircle
 10
327.053786
 20
170.3294419999997
 30
0.0
 40
1.984499999999996
100
AcDbArc
 50
288.26637
 51
342.87049
  0
ARC
  5
A334
330
A234
100
AcDbEntity
  8
1
  6
Continuous
100
AcDbCircle
 10
330.5601679999998
 20
158.4449389999998
 30
0.0
 40
10.0
100
AcDbArc
 50
71.69153
 51
90.00001800000005
  0
LINE
  5
A335
330
A234
100
AcDbEntity
  8
1
  6
Continuous
100
AcDbLine
 10
330.0537859999999
 20
172.5449419999999
 30
0.0
 11
330.0537859999999
 21
169.7449419999998
 31
0.0
  0
ARC
  5
A336
330
A234
100
AcDbEntity
  8
1
  6
Continuous
100
AcDbCircle
 10
304.089205
 20
170.3294419999997
 30
0.0
 40
1.984499999999996
100
AcDbArc
 50
197.1295299999999
 51
251.7335999999999
  0
ARC
  5
A337
330
A234
100
AcDbEntity
  8
1
  6
Continuous
100
AcDbCircle
 10
306.8761279999999
 20
170.3294419999997
 30
0.0
 40
1.984499999999996
100
AcDbArc
 50
197.1295299999999
 51
251.7335999999999
  0
ARC
  5
A338
330
A234
100
AcDbEntity
  8
1
  6
Continuous
100
AcDbCircle
 10
310.495043
 20
170.3294419999997
 30
0.0
 40
1.984499999999996
100
AcDbArc
 50
197.1295299999999
 51
251.7335999999999
  0
ARC
  5
A339
330
A234
100
AcDbEntity
  8
1
  6
Continuous
100
AcDbCircle
 10
318.612529
 20
170.3294419999997
 30
0.0
 40
1.984499999999996
100
AcDbArc
 50
197.1295199999999
 51
251.7335999999999
  0
ARC
  5
A33A
330
A234
100
AcDbEntity
  8
1
  6
Continuous
100
AcDbCircle
 10
304.089205
 20
170.3294419999997
 30
0.0
 40
1.984499999999996
100
AcDbArc
 50
288.2664099999999
 51
314.6015799999998
  0
ARC
  5
A33B
330
A234
100
AcDbEntity
  8
1
  6
Continuous
100
AcDbCircle
 10
306.8761279999999
 20
170.3294419999997
 30
0.0
 40
1.984499999999996
100
AcDbArc
 50
288.2664099999999
 51
335.7546500000001
  0
ARC
  5
A33C
330
A234
100
AcDbEntity
  8
1
  6
Continuous
100
AcDbCircle
 10
310.495043
 20
170.3294419999997
 30
0.0
 40
1.984499999999996
100
AcDbArc
 50
288.2664099999999
 51
342.87049
  0
ARC
  5
A33D
330
A234
100
AcDbEntity
  8
1
  6
Continuous
100
AcDbCircle
 10
314.553786
 20
170.3294419999997
 30
0.0
 40
1.984499999999996
100
AcDbArc
 50
197.1295299999999
 51
251.7335999999999
  0
ARC
  5
A33E
330
A234
100
AcDbEntity
  8
1
  6
Continuous
100
AcDbCircle
 10
314.553786
 20
170.3294419999997
 30
0.0
 40
1.984499999999996
100
AcDbArc
 50
288.2664099999999
 51
342.87049
  0
ARC
  5
A33F
330
A234
100
AcDbEntity
  8
1
  6
Continuous
100
AcDbCircle
 10
300.053786
 20
165.4449409999998
 30
0.0
 40
3.0
100
AcDbArc
 50
90.00001800000005
 51
180.0
  0
ARC
  5
A340
330
A234
100
AcDbEntity
  8
1
  6
Continuous
100
AcDbCircle
 10
302.436282
 20
170.3294419999997
 30
0.0
 40
1.984499999999996
100
AcDbArc
 50
197.1295199999999
 51
251.7335999999999
  0
ARC
  5
A341
330
A234
100
AcDbEntity
  8
1
  6
Continuous
100
AcDbCircle
 10
301.5977159999998
 20
171.375152
 30
0.0
 40
2.799999999999998
100
AcDbArc
 50
107.542027
 51
155.3053959999997
  0
ARC
  5
A342
330
A234
100
AcDbEntity
  8
1
  6
Continuous
100
AcDbCircle
 10
302.053786
 20
170.3294419999997
 30
0.0
 40
1.984499999999996
100
AcDbArc
 50
197.1295299999999
 51
251.7335999999999
  0
LINE
  5
A343
330
A234
100
AcDbEntity
  8
1
  6
Continuous
100
AcDbLine
 10
299.0537859999998
 20
172.5449419999999
 30
0.0
 11
299.0537859999998
 21
169.7449419999998
 31
0.0
  0
LINE
  5
A344
330
A234
100
AcDbEntity
  8
4
  6
CENTER
100
AcDbLine
 10
294.5537859999999
 20
179.344941
 30
0.0
 11
294.5537859999999
 21
171.0449419999999
 31
0.0
  0
LINE
  5
A345
330
A234
100
AcDbEntity
  8
1
  6
Continuous
100
AcDbLine
 10
289.053786
 20
176.3449409999997
 30
0.0
 11
289.053786
 21
174.044942
 31
0.0
  0
LINE
  5
A346
330
A234
100
AcDbEntity
  8
1
  6
Continuous
100
AcDbLine
 10
117.573046
 20
224.244941
 30
0.0
 11
117.573046
 21
225.844941
 31
0.0
  0
LINE
  5
A349
330
A234
100
AcDbEntity
  8
1
  6
Continuous
100
AcDbLine
 10
117.573046
 20
248.444941
 30
0.0
 11
117.573046
 21
246.844941
 31
0.0
  0
ARC
  5
A34E
330
A234
100
AcDbEntity
  8
1
  6
Continuous
100
AcDbCircle
 10
120.733584
 20
249.6449359999997
 30
0.0
 40
1.0
100
AcDbArc
 50
112.0375909999999
 51
150.252336
  0
LINE
  5
A34F
330
A234
100
AcDbEntity
  8
1
  6
Continuous
100
AcDbLine
 10
118.646384
 20
248.444941
 30
0.0
 11
117.573046
 21
248.444941
 31
0.0
  0
LINE
  5
A350
330
A234
100
AcDbEntity
  8
1
  6
Continuous
100
AcDbLine
 10
118.137707
 20
246.844941
 30
0.0
 11
117.573046
 21
246.844941
 31
0.0
  0
LINE
  5
A351
330
A234
100
AcDbEntity
  8
1
  6
Continuous
100
AcDbLine
 10
118.137707
 20
225.844941
 30
0.0
 11
117.573046
 21
225.844941
 31
0.0
  0
LINE
  5
A352
330
A234
100
AcDbEntity
  8
1
  6
Continuous
100
AcDbLine
 10
118.646384
 20
224.244941
 30
0.0
 11
117.573046
 21
224.244941
 31
0.0
  0
LINE
  5
A353
330
A234
100
AcDbEntity
  8
1
  6
Continuous
100
AcDbLine
 10
61.05378599999998
 20
165.4449419999999
 30
0.0
 11
61.05378599999998
 21
159.3396139999998
 31
0.0
  0
LINE
  5
A354
330
A234
100
AcDbEntity
  8
1
  6
Continuous
100
AcDbLine
 10
26.05378599999999
 20
165.4449419999999
 30
0.0
 11
26.05378599999999
 21
150.2933429999998
 31
0.0
  0
ARC
  5
A355
330
A234
100
AcDbEntity
  8
1
  6
Continuous
100
AcDbCircle
 10
29.053786
 20
165.4449419999999
 30
0.0
 40
3.0
100
AcDbArc
 50
90.0
 51
180.0
  0
ARC
  5
A356
330
A234
100
AcDbEntity
  8
1
  6
Continuous
100
AcDbCircle
 10
58.053786
 20
165.4449419999999
 30
0.0
 40
3.0
100
AcDbArc
 50
0.0
 51
90.0
  0
LINE
  5
A357
330
A234
100
AcDbEntity
  8
1
  6
Continuous
100
AcDbLine
 10
246.5537859999999
 20
165.4449419999999
 30
0.0
 11
246.5537859999999
 21
150.2933429999998
 31
0.0
  0
LINE
  5
A358
330
A234
100
AcDbEntity
  8
1
  6
Continuous
100
AcDbLine
 10
211.5537859999998
 20
165.4449419999999
 30
0.0
 11
211.5537859999998
 21
150.293351
 31
0.0
  0
LINE
  5
A359
330
A234
100
AcDbEntity
  8
1
  6
Continuous
100
AcDbLine
 10
241.1537839999998
 20
136.2774919999999
 30
0.0
 11
241.1537839999998
 21
132.344941
 31
0.0
  0
LINE
  5
A35A
330
A234
100
AcDbEntity
  8
1
  6
Continuous
100
AcDbLine
 10
216.953788
 20
136.2774919999999
 30
0.0
 11
216.953788
 21
132.344941
 31
0.0
  0
LINE
  5
A35B
330
A234
100
AcDbEntity
  8
1
  6
Continuous
100
AcDbLine
 10
239.5537859999997
 20
160.344941
 30
0.0
 11
239.5537859999997
 21
132.344941
 31
0.0
  0
LINE
  5
A35C
330
A234
100
AcDbEntity
  8
1
  6
Continuous
100
AcDbLine
 10
218.5537859999997
 20
160.344941
 30
0.0
 11
218.5537859999997
 21
132.344941
 31
0.0
  0
LINE
  5
A35D
330
A234
100
AcDbEntity
  8
4
  6
CENTER
 48
0.5
100
AcDbLine
 10
229.0537859999997
 20
181.344941
 30
0.0
 11
229.0537859999997
 21
113.462823
 31
0.0
  0
LINE
  5
A35E
330
A234
100
AcDbEntity
  8
4
  6
CENTER
 48
0.5
100
AcDbLine
 10
248.353781
 20
138.344941
 30
0.0
 11
201.7537869999999
 21
138.344941
 31
0.0
  0
LINE
  5
A35F
330
A234
100
AcDbEntity
  8
1
  6
Continuous
100
AcDbLine
 10
241.1537839999998
 20
132.344941
 30
0.0
 11
239.5537859999997
 21
132.344941
 31
0.0
  0
LINE
  5
A360
330
A234
100
AcDbEntity
  8
1
  6
Continuous
100
AcDbLine
 10
238.5537859999999
 20
130.344941
 30
0.0
 11
238.5537859999999
 21
146.344941
 31
0.0
  0
LINE
  5
A361
330
A234
100
AcDbEntity
  8
1
  6
Continuous
100
AcDbLine
 10
238.5537859999999
 20
135.344941
 30
0.0
 11
239.5537859999997
 21
135.344941
 31
0.0
  0
LINE
  5
A362
330
A234
100
AcDbEntity
  8
1
  6
Continuous
100
AcDbLine
 10
218.5537859999997
 20
135.344941
 30
0.0
 11
219.0537859999998
 21
135.344941
 31
0.0
  0
LINE
  5
A363
330
A234
100
AcDbEntity
  8
1
  6
Continuous
100
AcDbLine
 10
218.5537859999997
 20
132.344941
 30
0.0
 11
216.953788
 21
132.344941
 31
0.0
  0
LINE
  5
A364
330
A234
100
AcDbEntity
  8
1
  6
Continuous
100
AcDbLine
 10
238.5537859999999
 20
141.344941
 30
0.0
 11
239.5537859999997
 21
141.344941
 31
0.0
  0
LINE
  5
A365
330
A234
100
AcDbEntity
  8
1
  6
Continuous
100
AcDbLine
 10
218.5537859999997
 20
141.344941
 30
0.0
 11
219.0537859999998
 21
141.344941
 31
0.0
  0
LINE
  5
A366
330
A234
100
AcDbEntity
  8
1
  6
Continuous
100
AcDbLine
 10
243.5537859999997
 20
168.4449419999999
 30
0.0
 11
214.5537859999997
 21
168.4449419999999
 31
0.0
  0
ARC
  5
A367
330
A234
100
AcDbEntity
  8
1
  6
Continuous
100
AcDbCircle
 10
239.51837
 20
170.3294419999997
 30
0.0
 40
1.984499999999996
100
AcDbArc
 50
288.2663099999998
 51
342.87049
  0
LINE
  5
A368
330
A234
100
AcDbEntity
  8
1
  6
Continuous
100
AcDbLine
 10
244.5537859999999
 20
172.5449419999999
 30
0.0
 11
213.5537859999999
 21
172.5449419999999
 31
0.0
  0
LINE
  5
A369
330
A234
100
AcDbEntity
  8
1
  6
Continuous
100
AcDbLine
 10
244.5537859999999
 20
169.7449419999998
 30
0.0
 11
213.5537859999999
 21
169.7449419999998
 31
0.0
  0
LINE
  5
A36A
330
A234
100
AcDbEntity
  8
1
  6
Continuous
100
AcDbLine
 10
244.5537859999999
 20
174.044942
 30
0.0
 11
213.5537859999999
 21
174.044942
 31
0.0
  0
LINE
  5
A36B
330
A234
100
AcDbEntity
  8
1
  6
Continuous
100
AcDbLine
 10
244.5537859999999
 20
176.3449409999997
 30
0.0
 11
213.5537859999999
 21
176.3449409999997
 31
0.0
  0
ARC
  5
A36C
330
A234
100
AcDbEntity
  8
1
  6
Continuous
100
AcDbCircle
 10
243.5537859999997
 20
165.4449419999999
 30
0.0
 40
3.0
100
AcDbArc
 50
0.0
 51
90.0
  0
ARC
  5
A36D
330
A234
100
AcDbEntity
  8
1
  6
Continuous
100
AcDbCircle
 10
241.171294
 20
170.3294419999997
 30
0.0
 40
1.984499999999996
100
AcDbArc
 50
288.2663099999998
 51
342.87049
  0
ARC
  5
A36E
330
A234
100
AcDbEntity
  8
1
  6
Continuous
100
AcDbCircle
 10
242.009856
 20
171.375152
 30
0.0
 40
2.799999999999998
100
AcDbArc
 50
24.69464
 51
72.45801
  0
ARC
  5
A36F
330
A234
100
AcDbEntity
  8
1
  6
Continuous
100
AcDbCircle
 10
241.5537859999997
 20
170.3294419999997
 30
0.0
 40
1.984499999999996
100
AcDbArc
 50
288.2663099999998
 51
342.87049
  0
LINE
  5
A370
330
A234
100
AcDbEntity
  8
1
  6
Continuous
100
AcDbLine
 10
244.5537859999999
 20
172.5449419999999
 30
0.0
 11
244.5537859999999
 21
169.7449419999998
 31
0.0
  0
LINE
  5
A371
330
A234
100
AcDbEntity
  8
1
  6
Continuous
100
AcDbLine
 10
244.5537859999999
 20
176.3449409999997
 30
0.0
 11
244.5537859999999
 21
174.044942
 31
0.0
  0
LINE
  5
A372
330
A234
100
AcDbEntity
  8
4
  6
CENTER
100
AcDbLine
 10
239.0537859999998
 20
179.344941
 30
0.0
 11
239.0537859999998
 21
171.0449419999999
 31
0.0
  0
LINE
  5
A373
330
A234
100
AcDbEntity
  8
4
  6
CENTER
100
AcDbLine
 10
219.0537859999998
 20
179.344941
 30
0.0
 11
219.0537859999998
 21
171.0449419999999
 31
0.0
  0
ARC
  5
A374
330
A234
100
AcDbEntity
  8
1
  6
Continuous
100
AcDbCircle
 10
233.1125319999999
 20
170.3294419999997
 30
0.0
 40
1.984499999999996
100
AcDbArc
 50
197.1295199999999
 51
251.73371
  0
ARC
  5
A375
330
A234
100
AcDbEntity
  8
1
  6
Continuous
100
AcDbCircle
 10
236.7314439999999
 20
170.3294419999997
 30
0.0
 40
1.984499999999996
100
AcDbArc
 50
204.2453599999999
 51
251.73371
  0
ARC
  5
A376
330
A234
100
AcDbEntity
  8
1
  6
Continuous
100
AcDbCircle
 10
239.51837
 20
170.3294419999997
 30
0.0
 40
1.984499999999996
100
AcDbArc
 50
225.3984399999999
 51
251.73371
  0
ARC
  5
A377
330
A234
100
AcDbEntity
  8
1
  6
Continuous
100
AcDbCircle
 10
224.9950399999999
 20
170.3294419999997
 30
0.0
 40
1.984499999999996
100
AcDbArc
 50
288.2663099999998
 51
342.87049
  0
ARC
  5
A378
330
A234
100
AcDbEntity
  8
1
  6
Continuous
100
AcDbCircle
 10
229.0537859999997
 20
170.3294419999997
 30
0.0
 40
1.984499999999996
100
AcDbArc
 50
197.1295299999999
 51
251.73371
  0
ARC
  5
A379
330
A234
100
AcDbEntity
  8
1
  6
Continuous
100
AcDbCircle
 10
236.7314439999999
 20
170.3294419999997
 30
0.0
 40
1.984499999999996
100
AcDbArc
 50
288.2663099999998
 51
342.87049
  0
ARC
  5
A37A
330
A234
100
AcDbEntity
  8
1
  6
Continuous
100
AcDbCircle
 10
233.1125319999999
 20
170.3294419999997
 30
0.0
 40
1.984499999999996
100
AcDbArc
 50
288.2663099999998
 51
342.87049
  0
ARC
  5
A37B
330
A234
100
AcDbEntity
  8
1
  6
Continuous
100
AcDbCircle
 10
229.0537859999997
 20
170.3294419999997
 30
0.0
 40
1.984499999999996
100
AcDbArc
 50
288.2663099999998
 51
342.87049
  0
ARC
  5
A37C
330
A234
100
AcDbEntity
  8
1
  6
Continuous
100
AcDbCircle
 10
214.5537859999997
 20
165.4449419999999
 30
0.0
 40
3.0
100
AcDbArc
 50
90.0
 51
180.0
  0
ARC
  5
A37D
330
A234
100
AcDbEntity
  8
1
  6
Continuous
100
AcDbCircle
 10
218.589202
 20
170.3294419999997
 30
0.0
 40
1.984499999999996
100
AcDbArc
 50
197.1295299999999
 51
251.73371
  0
ARC
  5
A37E
330
A234
100
AcDbEntity
  8
1
  6
Continuous
100
AcDbCircle
 10
221.3761279999999
 20
170.3294419999997
 30
0.0
 40
1.984499999999996
100
AcDbArc
 50
197.1295299999999
 51
251.73371
  0
ARC
  5
A37F
330
A234
100
AcDbEntity
  8
1
  6
Continuous
100
AcDbCircle
 10
224.9950399999999
 20
170.3294419999997
 30
0.0
 40
1.984499999999996
100
AcDbArc
 50
197.1295299999999
 51
251.73371
  0
ARC
  5
A380
330
A234
100
AcDbEntity
  8
1
  6
Continuous
100
AcDbCircle
 10
216.9362779999999
 20
170.3294419999997
 30
0.0
 40
1.984499999999996
100
AcDbArc
 50
197.1295199999999
 51
251.73371
  0
ARC
  5
A381
330
A234
100
AcDbEntity
  8
1
  6
Continuous
100
AcDbCircle
 10
218.589202
 20
170.3294419999997
 30
0.0
 40
1.984499999999996
100
AcDbArc
 50
288.2663099999998
 51
314.6015799999998
  0
ARC
  5
A382
330
A234
100
AcDbEntity
  8
1
  6
Continuous
100
AcDbCircle
 10
221.3761279999999
 20
170.3294419999997
 30
0.0
 40
1.984499999999996
100
AcDbArc
 50
288.2663099999998
 51
335.7546500000001
  0
ARC
  5
A383
330
A234
100
AcDbEntity
  8
1
  6
Continuous
100
AcDbCircle
 10
216.0977159999999
 20
171.375152
 30
0.0
 40
2.799999999999998
100
AcDbArc
 50
107.542027
 51
155.3053959999997
  0
ARC
  5
A384
330
A234
100
AcDbEntity
  8
1
  6
Continuous
100
AcDbCircle
 10
216.5537859999997
 20
170.3294419999997
 30
0.0
 40
1.984499999999996
100
AcDbArc
 50
197.1295299999999
 51
251.73371
  0
LINE
  5
A385
330
A234
100
AcDbEntity
  8
1
  6
Continuous
100
AcDbLine
 10
213.5537859999999
 20
172.5449419999999
 30
0.0
 11
213.5537859999999
 21
169.7449419999998
 31
0.0
  0
LINE
  5
A386
330
A234
100
AcDbEntity
  8
1
  6
Continuous
100
AcDbLine
 10
213.5537859999999
 20
176.3449409999997
 30
0.0
 11
213.5537859999999
 21
174.044942
 31
0.0
  0
ARC
  5
A387
330
A234
100
AcDbEntity
  8
1
  6
Continuous
100
AcDbCircle
 10
231.441613
 20
150.2927899999999
 30
0.0
 40
19.88782699999998
100
AcDbArc
 50
145.669272
 51
222.142689
  0
ARC
  5
A388
330
A234
100
AcDbEntity
  8
1
  6
Continuous
100
AcDbCircle
 10
226.6659589999999
 20
150.2927899999999
 30
0.0
 40
19.88782699999998
100
AcDbArc
 50
317.8573109999998
 51
34.330728
  0
LINE
  5
A389
330
A234
100
AcDbEntity
  8
1
  6
Continuous
100
AcDbLine
 10
215.844122
 20
161.9449389999997
 30
0.0
 11
242.2634509999999
 21
161.9449389999997
 31
0.0
  0
ARC
  5
A38A
330
A234
100
AcDbEntity
  8
1
  6
Continuous
100
AcDbCircle
 10
226.6659589999999
 20
150.2927899999999
 30
0.0
 40
18.287827
100
AcDbArc
 50
317.857319
 51
39.579873
  0
ARC
  5
A38B
330
A234
100
AcDbEntity
  8
1
  6
Continuous
100
AcDbCircle
 10
231.441613
 20
150.2927899999999
 30
0.0
 40
18.287827
100
AcDbArc
 50
140.420127
 51
222.142681
  0
ARC
  5
A38C
330
A234
100
AcDbEntity
  8
1
  6
Continuous
100
AcDbCircle
 10
242.2634509999999
 20
160.9449389999998
 30
0.0
 40
1.0
100
AcDbArc
 50
34.330728
 51
90.0
  0
ARC
  5
A38D
330
A234
100
AcDbEntity
  8
1
  6
Continuous
100
AcDbCircle
 10
215.844122
 20
160.9449389999998
 30
0.0
 40
1.0
100
AcDbArc
 50
90.0
 51
145.669272
  0
ARC
  5
A38E
330
A234
100
AcDbEntity
  8
1
  6
Continuous
100
AcDbCircle
 10
215.953788
 20
136.2774919999999
 30
0.0
 40
1.0
100
AcDbArc
 50
0.0
 51
42.14268899999999
  0
ARC
  5
A38F
330
A234
100
AcDbEntity
  8
1
  6
Continuous
100
AcDbCircle
 10
215.9537859999999
 20
136.2774939999999
 30
0.0
 40
2.6
100
AcDbArc
 50
0.0
 51
42.142681
  0
ARC
  5
A390
330
A234
100
AcDbEntity
  8
1
  6
Continuous
100
AcDbCircle
 10
242.1537839999998
 20
136.2774919999999
 30
0.0
 40
1.0
100
AcDbArc
 50
137.857311
 51
180.0
  0
ARC
  5
A391
330
A234
100
AcDbEntity
  8
1
  6
Continuous
100
AcDbCircle
 10
242.1537859999999
 20
136.2774939999999
 30
0.0
 40
2.6
100
AcDbArc
 50
137.857319
 51
180.0
  0
ARC
  5
A392
330
A234
100
AcDbEntity
  8
1
  6
Continuous
100
AcDbCircle
 10
129.533801
 20
73.84494100000002
 30
0.0
 40
5.0
100
AcDbArc
 50
270.0
 51
312.1298219999999
  0
ARC
  5
A393
330
A234
100
AcDbEntity
  8
1
  6
Continuous
100
AcDbCircle
 10
128.9305169999997
 20
41.24494099999997
 30
0.0
 40
5.0
100
AcDbArc
 50
49.46419800000001
 51
90.0
  0
ARC
  5
A394
330
A234
100
AcDbEntity
  8
1
  6
Continuous
100
AcDbCircle
 10
129.533801
 20
42.84494099999998
 30
0.0
 40
5.0
100
AcDbArc
 50
47.870178
 51
90.0
  0
ARC
  5
A395
330
A234
100
AcDbEntity
  8
1
  6
Continuous
100
AcDbCircle
 10
239.6042959999999
 20
162.8449409999998
 30
0.0
 40
2.5
100
AcDbArc
 50
270.00002
 51
316.1905229999998
  0
LINE
  5
A396
330
A234
100
AcDbEntity
  8
1
  6
Continuous
100
AcDbLine
 10
238.3877279999999
 20
160.344941
 30
0.0
 11
239.6042959999999
 21
160.344941
 31
0.0
  0
LINE
  5
A397
330
A234
100
AcDbEntity
  8
1
  6
Continuous
100
AcDbLine
 10
239.5537859999997
 20
160.344941
 30
0.0
 11
217.9747819999998
 21
160.344941
 31
0.0
  0
ARC
  5
A398
330
A234
100
AcDbEntity
  8
1
  6
Continuous
100
AcDbCircle
 10
218.5032759999999
 20
162.8449409999998
 30
0.0
 40
2.5
100
AcDbArc
 50
223.809477
 51
269.99998
  0
ARC
  5
A399
330
A234
100
AcDbEntity
  8
1
  6
Continuous
100
AcDbCircle
 10
139.5148289999999
 20
217.7876509999999
 30
0.0
 40
5.0
100
AcDbArc
 50
184.488099
 51
220.8943589999999
  0
ARC
  5
A39A
330
A234
100
AcDbEntity
  8
1
  6
Continuous
100
AcDbCircle
 10
110.8860289999999
 20
212.244941
 30
0.0
 40
8.113127999999997
100
AcDbArc
 50
154.9535649999999
 51
219.432654
  0
ARC
  5
A39B
330
A234
100
AcDbEntity
  8
1
  6
Continuous
100
AcDbCircle
 10
142.3568389999998
 20
214.851707
 30
0.0
 40
8.113127999999997
100
AcDbArc
 50
320.567341
 51
36.479734
  0
ARC
  5
A39C
330
A234
100
AcDbEntity
  8
1
  6
Continuous
100
AcDbCircle
 10
109.9756899999997
 20
212.244941
 30
0.0
 40
8.113127999999997
100
AcDbArc
 50
154.9535649999999
 51
219.432654
  0
ARC
  5
A39D
330
A234
100
AcDbEntity
  8
1
  6
Continuous
100
AcDbCircle
 10
140.4251679999999
 20
217.7876509999999
 30
0.0
 40
5.0
100
AcDbArc
 50
184.488099
 51
220.8943589999999
  0
LINE
  5
A39E
330
A234
100
AcDbEntity
  8
1
  6
Continuous
100
AcDbLine
 10
137.8878449999999
 20
219.7875529999997
 30
0.0
 11
137.8878449999999
 21
213.918342
 31
0.0
  0
LINE
  5
A39F
330
A234
100
AcDbEntity
  8
1
  6
Continuous
100
AcDbLine
 10
113.541379
 20
208.8015969999999
 30
0.0
 11
116.5321629999999
 21
215.2385629999999
 31
0.0
  0
ARC
  5
A3A0
330
A234
100
AcDbEntity
  8
1
  6
Continuous
100
AcDbCircle
 10
107.614125
 20
84.38289899999999
 30
0.0
 40
5.062034999999998
100
AcDbArc
 50
39.347665
 51
140.567342
  0
ARC
  5
A3A1
330
A234
100
AcDbEntity
  8
5
  6
PHANTOM
100
AcDbCircle
 10
125.3258479999997
 20
181.0416889999999
 30
0.0
 40
50.0
100
AcDbArc
 50
239.3834359999999
 51
256.223827
  0
ARC
  5
A3A2
330
A234
100
AcDbEntity
  8
5
  6
PHANTOM
100
AcDbCircle
 10
122.978406
 20
141.290531
 30
0.0
 40
13.0
100
AcDbArc
 50
222.6665849999999
 51
318.1000509999999
  0
LINE
  5
A3A3
330
A234
100
AcDbEntity
  8
1
  6
Continuous
100
AcDbLine
 10
102.620526
 20
79.010104
 30
0.0
 11
106.062428
 21
71.60220600000002
 31
0.0
  0
LINE
  5
A3A4
330
A234
100
AcDbEntity
  8
5
  6
PHANTOM
100
AcDbLine
 10
93.26396499999999
 20
136.657824
 30
0.0
 11
108.4220229999999
 21
140.11992
 31
0.0
  0
LINE
  5
A3A5
330
A234
100
AcDbEntity
  8
5
  6
PHANTOM
100
AcDbLine
 10
92.907708
 20
138.2176429999999
 30
0.0
 11
108.0657769999999
 21
141.679751
 31
0.0
  0
ARC
  5
A3A6
330
A234
100
AcDbEntity
  8
1
  6
Continuous
100
AcDbCircle
 10
109.9707079999999
 20
82.444941
 30
0.0
 40
8.113127999999997
100
AcDbArc
 50
140.567342
 51
205.046432
  0
LINE
  5
A3A7
330
A234
100
AcDbEntity
  8
1
  6
Continuous
100
AcDbLine
 10
61.253783
 20
138.59348
 30
0.0
 11
71.04991
 21
132.7237
 31
0.0
  0
LINE
  5
A3A8
330
A234
100
AcDbEntity
  8
1
  6
Continuous
100
AcDbLine
 10
61.253783
 20
139.909276
 30
0.0
 11
71.06622900000002
 21
134.0297309999999
 31
0.0
  0
LINE
  5
A3A9
330
A234
100
AcDbEntity
  8
1
  6
Continuous
100
AcDbLine
 10
57.253783
 20
156.8022829999998
 30
0.0
 11
57.253783
 21
129.2176049999999
 31
0.0
  0
ARC
  5
A3AA
330
A234
100
AcDbEntity
  8
1
  6
Continuous
100
AcDbCircle
 10
69.149771
 20
131.85237
 30
0.0
 40
2.89725
100
AcDbArc
 50
357.1713149999998
 51
49.36405799999999
  0
ARC
  5
A3AB
330
A234
100
AcDbEntity
  8
1
  6
Continuous
100
AcDbCircle
 10
69.149771
 20
130.536574
 30
0.0
 40
2.89725
100
AcDbArc
 50
299.6380189999998
 51
49.175969
  0
ARC
  5
A3AC
330
A234
100
AcDbEntity
  8
1
  6
Continuous
100
AcDbCircle
 10
58.65378399999999
 20
130.0610189999999
 30
0.0
 40
3.0
100
AcDbArc
 50
180.000005
 51
263.6268059999998
  0
ARC
  5
A3AD
330
A234
100
AcDbEntity
  8
1
  6
Continuous
100
AcDbCircle
 10
59.253783
 20
129.2176049999999
 30
0.0
 40
2.0
100
AcDbArc
 50
180.000005
 51
257.165911
  0
ARC
  5
A3AE
330
A234
100
AcDbEntity
  8
1
  6
Continuous
100
AcDbCircle
 10
61.030814
 20
137.017737
 30
0.0
 40
10.0
100
AcDbArc
 50
257.1659079999998
 51
265.543627
  0
ARC
  5
A3AF
330
A234
100
AcDbEntity
  8
1
  6
Continuous
100
AcDbCircle
 10
59.430815
 20
137.017737
 30
0.0
 40
10.0
100
AcDbArc
 50
263.626803
 51
265.543627
  0
ARC
  5
A3B0
330
A234
100
AcDbEntity
  8
1
  6
Continuous
100
AcDbCircle
 10
65.04701899999999
 20
137.7475649999997
 30
0.0
 40
11.19369999999999
100
AcDbArc
 50
244.6462869999999
 51
299.6380189999998
  0
LINE
  5
A3B1
330
A234
100
AcDbEntity
  8
1
  6
Continuous
100
AcDbLine
 10
61.253783
 20
135.258948
 30
0.0
 11
66.818816
 21
135.258948
 31
0.0
  0
LINE
  5
A3B2
330
A234
100
AcDbEntity
  8
1
  6
Continuous
100
AcDbLine
 10
58.653815
 20
127.0479879999999
 30
0.0
 11
60.253813
 21
127.0479879999999
 31
0.0
  0
LINE
  5
A3B3
330
A234
100
AcDbEntity
  8
1
  6
Continuous
100
AcDbLine
 10
61.253783
 20
135.258948
 30
0.0
 11
63.65380699999999
 21
135.258948
 31
0.0
  0
LINE
  5
A3B4
330
A234
100
AcDbEntity
  8
1
  6
Continuous
100
AcDbLine
 10
72.04619499999998
 20
130.5600039999999
 30
0.0
 11
72.04347099999998
 21
131.7089219999997
 31
0.0
  0
ARC
  5
A3B6
330
A234
100
AcDbEntity
  8
1
  6
Continuous
100
AcDbCircle
 10
67.653784
 20
148.359992
 30
0.0
 40
11.19369999999999
100
AcDbArc
 50
60.361981
 51
107.8721419999999
  0
ARC
  5
A3B7
330
A234
100
AcDbEntity
  8
1
  6
Continuous
100
AcDbCircle
 10
67.653784
 20
162.7819889999998
 30
0.0
 40
11.19369999999999
100
AcDbArc
 50
288.012969
 51
299.6380189999998
  0
ARC
  5
A3B8
330
A234
100
AcDbEntity
  8
1
  6
Continuous
100
AcDbCircle
 10
67.653784
 20
149.6757569999997
 30
0.0
 40
11.19369999999999
100
AcDbArc
 50
60.361981
 51
107.8721419999999
  0
ARC
  5
A3B9
330
A234
100
AcDbEntity
  8
1
  6
Continuous
100
AcDbCircle
 10
67.653784
 20
148.359992
 30
0.0
 40
11.19369999999999
100
AcDbArc
 50
60.361981
 51
107.8721419999999
  0
LINE
  5
A3BA
330
A234
100
AcDbEntity
  8
1
  6
Continuous
100
AcDbLine
 10
64.210433
 20
159.03855
 30
0.0
 11
57.253775
 21
156.8022829999998
 31
0.0
  0
LINE
  5
A3BB
330
A234
100
AcDbEntity
  8
1
  6
Continuous
100
AcDbLine
 10
64.21044000000001
 20
160.354346
 30
0.0
 11
56.764128
 21
157.960669
 31
0.0
  0
ARC
  5
A3BC
330
A234
100
AcDbEntity
  8
1
  6
Continuous
100
AcDbCircle
 10
57.253783
 20
156.4374149999999
 30
0.0
 40
1.6
100
AcDbArc
 50
107.820451
 51
180.000005
  0
ARC
  5
A3BD
330
A234
100
AcDbEntity
  8
1
  6
Continuous
100
AcDbCircle
 10
80.021613
 20
139.6220459999997
 30
0.0
 40
20.0
100
AcDbArc
 50
149.7063129999999
 51
168.6805999999999
  0
LINE
  5
A3BE
330
A234
100
AcDbEntity
  8
1
  6
Continuous
100
AcDbLine
 10
55.653784
 20
141.8631049999999
 30
0.0
 11
57.253783
 21
141.8631049999999
 31
0.0
  0
LINE
  5
A3BF
330
A234
100
AcDbEntity
  8
1
  6
Continuous
100
AcDbLine
 10
55.653784
 20
155.242041
 30
0.0
 11
57.253783
 21
155.242041
 31
0.0
  0
LINE
  5
A3C0
330
A234
100
AcDbEntity
  8
1
  6
Continuous
100
AcDbLine
 10
63.653792
 20
149.710685
 30
0.0
 11
71.115241
 21
152.136924
 31
0.0
  0
LINE
  5
A3C1
330
A234
100
AcDbEntity
  8
1
  6
Continuous
100
AcDbLine
 10
57.253783
 20
149.7106999999997
 30
0.0
 11
63.65378399999999
 21
149.7106999999997
 31
0.0
  0
ARC
  5
A3C2
330
A234
100
AcDbEntity
  8
1
  6
Continuous
100
AcDbCircle
 10
71.75653699999998
 20
156.8867559999999
 30
0.0
 40
2.89725
100
AcDbArc
 50
359.999997
 51
60.361981
  0
ARC
  5
A3C3
330
A234
100
AcDbEntity
  8
1
  6
Continuous
100
AcDbCircle
 10
71.75653699999998
 20
155.57099
 30
0.0
 40
2.89725
100
AcDbArc
 50
299.6380189999998
 51
60.361981
  0
LINE
  5
A3C4
330
A234
100
AcDbEntity
  8
1
  6
Continuous
100
AcDbLine
 10
74.653784
 20
155.560508
 30
0.0
 11
74.653784
 21
156.8867559999999
 31
0.0
  0
LINE
  5
A3C5
330
A234
100
AcDbEntity
  8
5
  6
PHANTOM
100
AcDbLine
 10
92.907702
 20
138.217659
 30
0.0
 11
93.26591500000001
 21
136.6492859999999
 31
0.0
  0
ARC
  5
A3C6
330
A234
100
AcDbEntity
  8
1
  6
Continuous
100
AcDbCircle
 10
142.351842
 20
79.838175
 30
0.0
 40
8.113127999999997
100
AcDbArc
 50
320.567341
 51
39.432659
  0
ARC
  5
A3C7
330
A234
100
AcDbEntity
  8
1
  6
Continuous
100
AcDbCircle
 10
139.5098309999999
 20
76.902232
 30
0.0
 40
5.0
100
AcDbArc
 50
139.105641
 51
175.511901
  0
ARC
  5
A3C8
330
A234
100
AcDbEntity
  8
1
  6
Continuous
100
AcDbCircle
 10
141.441502
 20
79.838175
 30
0.0
 40
8.113127999999997
100
AcDbArc
 50
320.567341
 51
39.432659
  0
LINE
  5
A3C9
330
A234
100
AcDbEntity
  8
1
  6
Continuous
100
AcDbLine
 10
112.6260419999999
 20
85.88828499999998
 30
0.0
 11
115.616826
 21
79.45132700000002
 31
0.0
  0
LINE
  5
A3CA
330
A234
100
AcDbEntity
  8
1
  6
Continuous
100
AcDbLine
 10
113.536382
 20
85.888278
 30
0.0
 11
116.61321
 21
79.26613899999998
 31
0.0
  0
ARC
  5
A3CB
330
A234
100
AcDbEntity
  8
1
  6
Continuous
100
AcDbCircle
 10
139.1918379999999
 20
68.44497199999999
 30
0.0
 40
6.599999999999997
100
AcDbArc
 50
90.00000300000001
 51
119.341204
  0
ARC
  5
A3CC
330
A234
100
AcDbEntity
  8
1
  6
Continuous
100
AcDbCircle
 10
139.1918379999999
 20
68.44497199999999
 30
0.0
 40
5.0
100
AcDbArc
 50
90.00000300000001
 51
119.341204
  0
LINE
  5
A3CD
330
A234
100
AcDbEntity
  8
1
  6
Continuous
100
AcDbLine
 10
133.703206
 20
75.04496299999998
 30
0.0
 11
143.9813739999999
 21
75.04496299999998
 31
0.0
  0
LINE
  5
A3CE
330
A234
100
AcDbEntity
  8
1
  6
Continuous
100
AcDbLine
 10
136.6693009999997
 20
72.762805
 30
0.0
 11
138.1968579999998
 21
71.90858
 31
0.0
  0
LINE
  5
A3CF
330
A234
100
AcDbEntity
  8
1
  6
Continuous
100
AcDbLine
 10
117.0464979999999
 20
78.33357499999998
 30
0.0
 11
132.2914319999999
 21
75.464427
 31
0.0
  0
LINE
  5
A3D0
330
A234
100
AcDbEntity
  8
1
  6
Continuous
100
AcDbLine
 10
109.7527659999997
 20
72.04493199999998
 30
0.0
 11
131.236882
 21
72.04493199999998
 31
0.0
  0
LINE
  5
A3D1
330
A234
100
AcDbEntity
  8
1
  6
Continuous
100
AcDbLine
 10
107.87621
 20
70.444941
 30
0.0
 11
131.236882
 21
70.444941
 31
0.0
  0
ARC
  5
A3D2
330
A234
100
AcDbEntity
  8
1
  6
Continuous
100
AcDbCircle
 10
109.7527659999997
 20
67.04493199999999
 30
0.0
 40
5.0
100
AcDbArc
 50
90.00000300000001
 51
127.276026
  0
ARC
  5
A3D3
330
A234
100
AcDbEntity
  8
1
  6
Continuous
100
AcDbCircle
 10
107.87621
 20
72.444941
 30
0.0
 40
2.0
100
AcDbArc
 50
204.920828
 51
269.9999969999999
  0
ARC
  5
A3D4
330
A234
100
AcDbEntity
  8
1
  6
Continuous
100
AcDbCircle
 10
118.4269909999999
 20
80.10888199999998
 30
0.0
 40
2.0
100
AcDbArc
 50
204.920828
 51
259.3414259999998
  0
ARC
  5
A3D5
330
A234
100
AcDbEntity
  8
1
  6
Continuous
100
AcDbCircle
 10
117.430684
 20
80.29409300000002
 30
0.0
 40
2.0
100
AcDbArc
 50
204.920828
 51
262.0579419999998
  0
LINE
  5
A3D6
330
A234
100
AcDbEntity
  8
1
  6
Continuous
100
AcDbLine
 10
117.0844159999999
 20
72.04493199999998
 30
0.0
 11
117.0844159999999
 21
77.086528
 31
0.0
  0
LINE
  5
A3D7
330
A234
100
AcDbEntity
  8
1
  6
Continuous
100
AcDbLine
 10
117.6948439999997
 20
68.84495
 30
0.0
 11
116.490056
 21
70.444941
 31
0.0
  0
LINE
  5
A3D8
330
A234
100
AcDbEntity
  8
1
  6
Continuous
100
AcDbLine
 10
117.694829
 20
68.84495799999999
 30
0.0
 11
118.899617
 21
70.444949
 31
0.0
  0
LINE
  5
A3D9
330
A234
100
AcDbEntity
  8
1
  6
Continuous
100
AcDbLine
 10
115.86321
 20
68.84495
 30
0.0
 11
114.6584209999997
 21
70.444941
 31
0.0
  0
LINE
  5
A3DA
330
A234
100
AcDbEntity
  8
1
  6
Continuous
100
AcDbLine
 10
117.694829
 20
68.84495
 30
0.0
 11
115.863194
 21
68.84495
 31
0.0
  0
ARC
  5
A3DB
330
A234
100
AcDbEntity
  8
1
  6
Continuous
100
AcDbCircle
 10
131.236882
 20
75.444941
 30
0.0
 40
3.399999999999999
100
AcDbArc
 50
269.9999969999999
 51
299.341206
  0
ARC
  5
A3DC
330
A234
100
AcDbEntity
  8
1
  6
Continuous
100
AcDbCircle
 10
132.5312999999999
 20
77.44999200000002
 30
0.0
 40
2.0
100
AcDbArc
 50
263.1117179999999
 51
355.5119059999999
  0
ARC
  5
A3DD
330
A234
100
AcDbEntity
  8
1
  6
Continuous
100
AcDbCircle
 10
131.236882
 20
75.444941
 30
0.0
 40
5.0
100
AcDbArc
 50
269.9999969999999
 51
299.341206
  0
LINE
  5
A3DE
330
A234
100
AcDbEntity
  8
1
  6
Continuous
100
AcDbLine
 10
134.5312999999999
 20
75.04496299999998
 30
0.0
 11
134.5312999999999
 21
77.293498
 31
0.0
  0
LINE
  5
A3DF
330
A234
100
AcDbEntity
  8
1
  6
Continuous
100
AcDbLine
 10
132.9029129999999
 20
72.48109699999997
 30
0.0
 11
135.957784
 21
74.19829799999998
 31
0.0
  0
LINE
  5
A3E0
330
A234
100
AcDbEntity
  8
1
  6
Continuous
100
AcDbLine
 10
133.686925
 20
71.08636
 30
0.0
 11
136.74178
 21
72.803561
 31
0.0
  0
ARC
  5
A3E1
330
A234
100
AcDbEntity
  8
1
  6
Continuous
100
AcDbCircle
 10
144.708424
 20
77.90020199999998
 30
0.0
 40
5.062034999999998
100
AcDbArc
 50
298.3421949999998
 51
320.567341
  0
ARC
  5
A3E2
330
A234
100
AcDbEntity
  8
1
  6
Continuous
100
AcDbCircle
 10
138.440892
 20
72.344981
 30
0.0
 40
0.5
100
AcDbArc
 50
240.785632
 51
299.2143689999998
  0
ARC
  5
A3E3
330
A234
100
AcDbEntity
  8
1
  6
Continuous
100
AcDbCircle
 10
143.7980849999999
 20
77.90020199999998
 30
0.0
 40
5.062034999999998
100
AcDbArc
 50
298.3421949999998
 51
320.567341
  0
ARC
  5
A3E4
330
A234
100
AcDbEntity
  8
1
  6
Continuous
100
AcDbCircle
 10
143.9813739999999
 20
70.04496299999999
 30
0.0
 40
5.0
100
AcDbArc
 50
52.49036199999999
 51
90.00000300000001
  0
LINE
  5
A3E5
330
A234
100
AcDbEntity
  8
1
  6
Continuous
100
AcDbLine
 10
137.859715
 20
73.24285399999998
 30
0.0
 11
138.440892
 21
72.917849
 31
0.0
  0
LINE
  5
A3E6
330
A234
100
AcDbEntity
  8
1
  6
Continuous
100
AcDbLine
 10
139.3835039999999
 20
73.444964
 30
0.0
 11
138.440892
 21
72.917849
 31
0.0
  0
LINE
  5
A3E7
330
A234
100
AcDbEntity
  8
1
  6
Continuous
100
AcDbLine
 10
141.432347
 20
73.444964
 30
0.0
 11
138.6849259999999
 21
71.90858
 31
0.0
  0
LINE
  5
A3E8
330
A234
100
AcDbEntity
  8
1
  6
Continuous
100
AcDbLine
 10
139.1918379999999
 20
73.44497199999998
 30
0.0
 11
147.116658
 21
73.44497199999998
 31
0.0
  0
LINE
  5
A3E9
330
A234
100
AcDbEntity
  8
5
  6
PHANTOM
100
AcDbLine
 10
136.41449
 20
146.5134009999998
 30
0.0
 11
149.8078749999999
 21
149.572447
 31
0.0
  0
LINE
  5
A3EA
330
A234
100
AcDbEntity
  8
5
  6
PHANTOM
100
AcDbLine
 10
138.6854319999999
 20
144.6852129999998
 30
0.0
 11
140.258562
 21
143.4502029999999
 31
0.0
  0
LINE
  5
A3EB
330
A234
100
AcDbEntity
  8
5
  6
PHANTOM
100
AcDbLine
 10
136.0582219999997
 20
148.073231
 30
0.0
 11
149.4516179999999
 21
151.132267
 31
0.0
  0
LINE
  5
A3EC
330
A234
100
AcDbEntity
  8
5
  6
PHANTOM
100
AcDbLine
 10
136.832913
 20
142.325513
 30
0.0
 11
138.406032
 21
141.0904919999999
 31
0.0
  0
LINE
  5
A3ED
330
A234
100
AcDbEntity
  8
5
  6
PHANTOM
100
AcDbLine
 10
140.5379629999998
 20
147.044902
 30
0.0
 11
142.111082
 21
145.8098809999999
 31
0.0
  0
LINE
  5
A3EE
330
A234
100
AcDbEntity
  8
5
  6
PHANTOM
100
AcDbLine
 10
133.7540289999997
 20
133.511795
 30
0.0
 11
122.271456
 21
148.280045
 31
0.0
  0
LINE
  5
A3EF
330
A234
100
AcDbEntity
  8
5
  6
PHANTOM
100
AcDbLine
 10
136.7347419999999
 20
136.194816
 30
0.0
 11
127.3085299999999
 21
148.31832
 31
0.0
  0
ARC
  5
A3F0
330
A234
100
AcDbEntity
  8
5
  6
PHANTOM
100
AcDbCircle
 10
95.12564500000001
 20
179.423099
 30
0.0
 40
60.0
100
AcDbArc
 50
308.717465
 51
329.393219
  0
LINE
  5
A3F1
330
A234
100
AcDbEntity
  8
1
  6
Continuous
100
AcDbLine
 10
135.7302449999999
 20
80.17556999999998
 30
0.0
 11
139.8342479999998
 21
84.91430900000002
 31
0.0
  0
ARC
  5
A3F2
330
A234
100
AcDbEntity
  8
1
  6
Continuous
100
AcDbCircle
 10
108.5244639999999
 20
84.38289899999999
 30
0.0
 40
5.062034999999998
100
AcDbArc
 50
39.496983
 51
89.917849
  0
ARC
  5
A3F3
330
A234
100
AcDbEntity
  8
1
  6
Continuous
100
AcDbCircle
 10
105.2575499999999
 20
82.444941
 30
0.0
 40
8.113127999999997
100
AcDbArc
 50
25.053342
 51
39.432659
  0
ARC
  5
A3F4
330
A234
100
AcDbEntity
  8
1
  6
Continuous
100
AcDbCircle
 10
106.1678969999999
 20
82.444941
 30
0.0
 40
8.113127999999997
100
AcDbArc
 50
25.046437
 51
39.432659
  0
LINE
  5
A3F5
330
A234
100
AcDbEntity
  8
1
  6
Continuous
100
AcDbLine
 10
107.614125
 20
89.444941
 30
0.0
 11
108.5244639999999
 21
89.444941
 31
0.0
  0
LINE
  5
A3F6
330
A234
100
AcDbEntity
  8
5
  6
PHANTOM
100
AcDbLine
 10
142.111071
 20
145.8098919999999
 30
0.0
 11
138.406032
 21
141.0904919999999
 31
0.0
  0
ARC
  5
A3F7
330
A234
100
AcDbEntity
  8
1
  6
Continuous
100
AcDbCircle
 10
144.708424
 20
81.776133
 30
0.0
 40
5.062034999999998
100
AcDbArc
 50
39.432659
 51
89.989942
  0
ARC
  5
A3F8
330
A234
100
AcDbEntity
  8
1
  6
Continuous
100
AcDbCircle
 10
143.7980849999999
 20
81.776133
 30
0.0
 40
5.062034999999998
100
AcDbArc
 50
39.432659
 51
89.906907
  0
ARC
  5
A3F9
330
A234
100
AcDbEntity
  8
1
  6
Continuous
100
AcDbCircle
 10
143.7980849999999
 20
81.776133
 30
0.0
 40
5.062034999999998
100
AcDbArc
 50
90.00000300000001
 51
141.498802
  0
LINE
  5
A3FA
330
A234
100
AcDbEntity
  8
1
  6
Continuous
100
AcDbLine
 10
143.7978559999999
 20
86.83817500000001
 30
0.0
 11
144.708424
 21
86.83817500000001
 31
0.0
  0
LINE
  5
A3FB
330
A234
100
AcDbEntity
  8
5
  6
PHANTOM
100
AcDbLine
 10
149.451628
 20
151.132299
 30
0.0
 11
149.809345
 21
149.5660969999998
 31
0.0
  0
ARC
  5
A3FC
330
A234
100
AcDbEntity
  8
5
  6
PHANTOM
100
AcDbCircle
 10
107.1751019999999
 20
145.5793309999999
 30
0.0
 40
4.0
100
AcDbArc
 50
282.8656629999998
 51
323.392338
  0
ARC
  5
A3FD
330
A234
100
AcDbEntity
  8
5
  6
PHANTOM
100
AcDbCircle
 10
124.9107049999998
 20
132.404034
 30
0.0
 40
16.493898
100
AcDbArc
 50
62.33897699999999
 51
143.3923429999999
  0
ARC
  5
A3FE
330
A234
100
AcDbEntity
  8
5
  6
PHANTOM
100
AcDbCircle
 10
124.9107049999998
 20
132.404034
 30
0.0
 40
18.093899
100
AcDbArc
 50
62.33900400000001
 51
143.3923429999999
  0
ARC
  5
A3FF
330
A234
100
AcDbEntity
  8
5
  6
PHANTOM
100
AcDbCircle
 10
107.1751019999999
 20
145.5793309999999
 30
0.0
 40
5.599999999999997
100
AcDbArc
 50
282.8656629999998
 51
323.3923449999998
  0
LINE
  5
A400
330
A234
100
AcDbEntity
  8
5
  6
PHANTOM
100
AcDbLine
 10
113.21061
 20
137.391185
 30
0.0
 11
115.0396039999999
 21
138.2003729999997
 31
0.0
  0
LINE
  5
A401
330
A234
100
AcDbEntity
  8
5
  6
PHANTOM
100
AcDbLine
 10
113.8258219999999
 20
140.9438629999999
 30
0.0
 11
116.253386
 21
135.456882
 31
0.0
  0
LINE
  5
A402
330
A234
100
AcDbEntity
  8
5
  6
PHANTOM
100
AcDbLine
 10
111.996851
 20
140.134654
 30
0.0
 11
114.424403
 21
134.647684
 31
0.0
  0
LINE
  5
A403
330
A234
100
AcDbEntity
  8
5
  6
PHANTOM
100
AcDbLine
 10
113.8258329999999
 20
140.9438529999999
 30
0.0
 11
111.9968399999999
 21
140.1346649999997
 31
0.0
  0
LINE
  5
A404
330
A234
100
AcDbEntity
  8
5
  6
PHANTOM
100
AcDbLine
 10
116.253386
 20
135.456882
 30
0.0
 11
114.424392
 21
134.647694
 31
0.0
  0
ARC
  5
A405
330
A234
100
AcDbEntity
  8
5
  6
PHANTOM
100
AcDbCircle
 10
135.1675689999999
 20
151.972812
 30
0.0
 40
5.599999999999997
100
AcDbArc
 50
242.338982
 51
282.8656629999998
  0
ARC
  5
A406
330
A234
100
AcDbEntity
  8
5
  6
PHANTOM
100
AcDbCircle
 10
135.167558
 20
151.972822
 30
0.0
 40
4.0
100
AcDbArc
 50
242.338995
 51
282.8656629999998
  0
LINE
  5
A407
330
A234
100
AcDbEntity
  8
5
  6
PHANTOM
100
AcDbLine
 10
140.5379419999997
 20
147.044901
 30
0.0
 11
136.832902
 21
142.325502
 31
0.0
  0
ARC
  5
A408
330
A234
100
AcDbEntity
  8
1
  6
Continuous
100
AcDbCircle
 10
108.529462
 20
210.3069829999999
 30
0.0
 40
5.062034999999998
100
AcDbArc
 50
219.432658
 51
320.567341
  0
ARC
  5
A409
330
A234
100
AcDbEntity
  8
1
  6
Continuous
100
AcDbCircle
 10
106.1728789999999
 20
212.244941
 30
0.0
 40
8.113127999999997
100
AcDbArc
 50
320.567341
 51
334.9535629999998
  0
ARC
  5
A40A
330
A234
100
AcDbEntity
  8
1
  6
Continuous
100
AcDbCircle
 10
107.6191219999999
 20
210.3069829999999
 30
0.0
 40
5.062034999999998
100
AcDbArc
 50
219.432658
 51
269.9999969999999
  0
LINE
  5
A40B
330
A234
100
AcDbEntity
  8
1
  6
Continuous
100
AcDbLine
 10
107.619153
 20
205.2449409999999
 30
0.0
 11
108.529462
 21
205.2449409999999
 31
0.0
  0
ARC
  5
A40C
330
A234
100
AcDbEntity
  8
1
  6
Continuous
100
AcDbCircle
 10
144.7134059999999
 20
212.913749
 30
0.0
 40
5.062034999999998
100
AcDbArc
 50
217.0732239999999
 51
270.1004419999998
  0
ARC
  5
A40D
330
A234
100
AcDbEntity
  8
1
  6
Continuous
100
AcDbCircle
 10
144.7134059999999
 20
212.913749
 30
0.0
 40
5.062034999999998
100
AcDbArc
 50
269.9204459999999
 51
320.567341
  0
ARC
  5
A40E
330
A234
100
AcDbEntity
  8
1
  6
Continuous
100
AcDbCircle
 10
143.803067
 20
212.913749
 30
0.0
 40
5.062034999999998
100
AcDbArc
 50
218.501198
 51
269.9999969999999
  0
LINE
  5
A40F
330
A234
100
AcDbEntity
  8
1
  6
Continuous
100
AcDbLine
 10
135.735242
 20
214.51432
 30
0.0
 11
139.8392459999998
 21
209.7755809999999
 31
0.0
  0
LINE
  5
A410
330
A234
100
AcDbEntity
  8
1
  6
Continuous
100
AcDbLine
 10
136.6455809999999
 20
214.51432
 30
0.0
 11
140.6546749999999
 21
209.8851699999999
 31
0.0
  0
LINE
  5
A411
330
A234
100
AcDbEntity
  8
1
  6
Continuous
100
AcDbLine
 10
143.7995119999999
 20
207.851707
 30
0.0
 11
144.7134059999999
 21
207.851707
 31
0.0
  0
ARC
  5
A412
330
A234
100
AcDbEntity
  8
1
  6
Continuous
100
AcDbCircle
 10
212.121193
 20
139.9026859999999
 30
0.0
 40
1.0
100
AcDbArc
 50
285.464871
 51
9.386041999999999
  0
ARC
  5
A413
330
A234
100
AcDbEntity
  8
1
  6
Continuous
100
AcDbCircle
 10
163.7641669999998
 20
131.658408
 30
0.0
 40
49.850643
100
AcDbArc
 50
8.97371
 51
19.768926
  0
LINE
  5
A414
330
A234
100
AcDbEntity
  8
1
  6
Continuous
100
AcDbLine
 10
216.953788
 20
136.2774919999999
 30
0.0
 11
216.953788
 21
131.9263679999999
 31
0.0
  0
ARC
  5
A415
330
A234
100
AcDbEntity
  8
1
  6
Continuous
100
AcDbCircle
 10
207.560554
 20
139.0633459999999
 30
0.0
 40
11.19369999999999
100
AcDbArc
 50
240.3619829999999
 51
299.6380189999998
  0
ARC
  5
A416
330
A234
100
AcDbEntity
  8
1
  6
Continuous
100
AcDbCircle
 10
207.560554
 20
137.7475649999997
 30
0.0
 40
11.19369999999999
100
AcDbArc
 50
240.3619829999999
 51
299.6380189999998
  0
LINE
  5
A417
330
A234
100
AcDbEntity
  8
1
  6
Continuous
100
AcDbLine
 10
207.457664
 20
137.574714
 30
0.0
 11
212.387886
 21
138.938727
 31
0.0
  0
LINE
  5
A418
330
A234
100
AcDbEntity
  8
1
  6
Continuous
100
AcDbLine
 10
210.3249889999999
 20
136.574714
 30
0.0
 11
205.788749
 21
136.574714
 31
0.0
  0
ARC
  5
A419
330
A234
100
AcDbEntity
  8
1
  6
Continuous
100
AcDbCircle
 10
203.4578009999999
 20
131.8523399999999
 30
0.0
 40
2.89725
100
AcDbArc
 50
120.5125679999999
 51
240.361979
  0
ARC
  5
A41A
330
A234
100
AcDbEntity
  8
1
  6
Continuous
100
AcDbCircle
 10
203.4578009999999
 20
130.536567
 30
0.0
 40
2.89725
100
AcDbArc
 50
166.875127
 51
240.361979
  0
LINE
  5
A41B
330
A234
100
AcDbEntity
  8
1
  6
Continuous
100
AcDbLine
 10
207.457664
 20
137.574714
 30
0.0
 11
201.9863809999999
 21
134.3492799999999
 31
0.0
  0
ARC
  5
A41C
330
A234
100
AcDbEntity
  8
1
  6
Continuous
100
AcDbCircle
 10
214.050865
 20
131.3513629999998
 30
0.0
 40
2.590845999999999
100
AcDbArc
 50
268.947336
 51
312.359929
  0
ARC
  5
A41D
330
A234
100
AcDbEntity
  8
1
  6
Continuous
100
AcDbCircle
 10
212.3537519999999
 20
134.974715
 30
0.0
 40
1.6
100
AcDbArc
 50
0.000003
 51
90.00000300000001
  0
ARC
  5
A41E
330
A234
100
AcDbEntity
  8
1
  6
Continuous
100
AcDbCircle
 10
213.953788
 20
131.9263679999999
 30
0.0
 40
3.0
100
AcDbArc
 50
320.9071559999998
 51
0.000003
  0
ARC
  5
A41F
330
A234
100
AcDbEntity
  8
1
  6
Continuous
100
AcDbCircle
 10
211.6632919999999
 20
131.8523399999999
 30
0.0
 40
2.89725
100
AcDbArc
 50
299.6380189999998
 51
322.238001
  0
ARC
  5
A420
330
A234
100
AcDbEntity
  8
1
  6
Continuous
100
AcDbCircle
 10
211.6632919999999
 20
130.536567
 30
0.0
 40
2.89725
100
AcDbArc
 50
299.6380189999998
 51
322.238001
  0
LINE
  5
A421
330
A234
100
AcDbEntity
  8
1
  6
Continuous
100
AcDbLine
 10
213.9537579999999
 20
131.6869269999999
 30
0.0
 11
215.5537489999999
 21
131.6869269999999
 31
0.0
  0
LINE
  5
A422
330
A234
100
AcDbEntity
  8
1
  6
Continuous
100
AcDbLine
 10
213.9537579999999
 20
129.692611
 30
0.0
 11
215.5537489999999
 21
129.692611
 31
0.0
  0
LINE
  5
A423
330
A234
100
AcDbEntity
  8
1
  6
Continuous
100
AcDbLine
 10
215.5537489999999
 20
131.6869269999999
 30
0.0
 11
215.5537489999999
 21
129.692611
 31
0.0
  0
LINE
  5
A424
330
A234
100
AcDbEntity
  8
1
  6
Continuous
100
AcDbLine
 10
213.9537579999999
 20
130.0781159999999
 30
0.0
 11
213.9537579999999
 21
128.7605199999999
 31
0.0
  0
LINE
  5
A425
330
A234
100
AcDbEntity
  8
1
  6
Continuous
100
AcDbLine
 10
216.2821569999999
 20
130.0346209999997
 30
0.0
 11
215.7965309999999
 21
129.436911
 31
0.0
  0
LINE
  5
A426
330
A234
100
AcDbEntity
  8
1
  6
Continuous
100
AcDbLine
 10
215.470547
 20
138.4415999999999
 30
0.0
 11
214.337791
 21
137.0473849999999
 31
0.0
  0
LINE
  5
A427
330
A234
100
AcDbEntity
  8
1
  6
Continuous
100
AcDbLine
 10
213.9537579999999
 20
133.68537
 30
0.0
 11
213.9537579999999
 21
131.2313979999997
 31
0.0
  0
ARC
  5
A429
330
A234
100
AcDbEntity
  8
1
  6
Continuous
100
AcDbCircle
 10
204.9537879999999
 20
149.6757419999999
 30
0.0
 40
11.19369999999999
100
AcDbArc
 50
72.12603900000002
 51
119.638031
  0
LINE
  5
A42A
330
A234
100
AcDbEntity
  8
1
  6
Continuous
100
AcDbLine
 10
208.2886879999997
 20
151.2402559999999
 30
0.0
 11
201.4888379999999
 21
153.453833
 31
0.0
  0
LINE
  5
A42B
330
A234
100
AcDbEntity
  8
1
  6
Continuous
100
AcDbLine
 10
208.2886729999999
 20
149.92446
 30
0.0
 11
201.4888229999999
 21
152.138038
 31
0.0
  0
ARC
  5
A42C
330
A234
100
AcDbEntity
  8
1
  6
Continuous
100
AcDbCircle
 10
204.9537879999999
 20
164.0977389999999
 30
0.0
 40
11.19369999999999
100
AcDbArc
 50
240.3619829999999
 51
252.126041
  0
ARC
  5
A42D
330
A234
100
AcDbEntity
  8
1
  6
Continuous
100
AcDbCircle
 10
200.8510359999999
 20
156.886741
 30
0.0
 40
2.89725
100
AcDbArc
 50
119.638031
 51
240.361979
  0
ARC
  5
A42E
330
A234
100
AcDbEntity
  8
1
  6
Continuous
100
AcDbCircle
 10
200.8510359999999
 20
155.57096
 30
0.0
 40
2.89725
100
AcDbArc
 50
166.875127
 51
240.361979
  0
ARC
  5
A42F
330
A234
100
AcDbEntity
  8
1
  6
Continuous
100
AcDbCircle
 10
204.9537879999999
 20
162.7819739999999
 30
0.0
 40
11.19369999999999
100
AcDbArc
 50
240.3619829999999
 51
252.126041
  0
ARC
  5
A430
330
A234
100
AcDbEntity
  8
1
  6
Continuous
100
AcDbCircle
 10
163.7641669999998
 20
132.9741889999999
 30
0.0
 40
49.850643
100
AcDbArc
 50
8.17716
 51
19.768926
  0
ARC
  5
A431
330
A234
100
AcDbEntity
  8
1
  6
Continuous
100
AcDbCircle
 10
209.394813
 20
150.949103
 30
0.0
 40
0.47839
100
AcDbArc
 50
46.43778300000001
 51
122.616458
  0
ARC
  5
A432
330
A234
100
AcDbEntity
  8
1
  6
Continuous
100
AcDbCircle
 10
208.594719
 20
152.1922669999999
 30
0.0
 40
1.0
100
AcDbArc
 50
252.179549
 51
302.854693
  0
ARC
  5
A433
330
A234
100
AcDbEntity
  8
1
  6
Continuous
100
AcDbCircle
 10
207.1193309999999
 20
148.5564489999999
 30
0.0
 40
3.780291999999998
100
AcDbArc
 50
19.768926
 51
46.43778300000001
  0
ARC
  5
A434
330
A234
100
AcDbEntity
  8
1
  6
Continuous
100
AcDbCircle
 10
207.1193309999999
 20
147.2406679999999
 30
0.0
 40
3.780291999999998
100
AcDbArc
 50
19.768926
 51
46.43778300000001
  0
ARC
  5
A435
330
A234
100
AcDbEntity
  8
1
  6
Continuous
100
AcDbCircle
 10
209.394813
 20
149.6333229999999
 30
0.0
 40
0.47839
100
AcDbArc
 50
46.43778300000001
 51
122.616458
  0
ARC
  5
A436
330
A234
100
AcDbEntity
  8
1
  6
Continuous
100
AcDbCircle
 10
208.594719
 20
150.876487
 30
0.0
 40
1.0
100
AcDbArc
 50
252.179549
 51
302.854693
  0
LINE
  5
A437
330
A234
100
AcDbEntity
  8
1
  6
Continuous
100
AcDbLine
 10
211.5537859999998
 20
151.4274819999999
 30
0.0
 11
209.3787
 21
151.4274819999999
 31
0.0
  0
LINE
  5
A438
330
A234
100
AcDbEntity
  8
1
  6
Continuous
100
AcDbLine
 10
211.5537859999998
 20
159.3237419999999
 30
0.0
 11
208.343711
 21
160.343787
 31
0.0
  0
LINE
  5
A439
330
A234
100
AcDbEntity
  8
1
  6
Continuous
100
AcDbLine
 10
102.625523
 20
215.6797859999997
 30
0.0
 11
106.6011779999999
 21
224.2364419999999
 31
0.0
  0
ARC
  5
A43A
330
A234
100
AcDbEntity
  8
1
  6
Continuous
100
AcDbCircle
 10
133.4466219999999
 20
217.239891
 30
0.0
 40
2.0
100
AcDbArc
 50
4.488094
 51
104.4135999999999
  0
LINE
  5
A44E
330
A234
100
AcDbEntity
  8
1
  6
Continuous
100
AcDbLine
 10
106.6051149999997
 20
224.244941
 30
0.0
 11
117.573046
 21
224.244941
 31
0.0
  0
ARC
  5
A44F
330
A234
100
AcDbEntity
  8
1
  6
Continuous
100
AcDbCircle
 10
118.346021
 20
214.3957899999997
 30
0.0
 40
2.0
100
AcDbArc
 50
97.942058
 51
155.079172
  0
LINE
  5
A450
330
A234
100
AcDbEntity
  8
1
  6
Continuous
100
AcDbLine
 10
103.535863
 20
215.6797859999997
 30
0.0
 11
107.5115019999999
 21
224.2364269999999
 31
0.0
  0
LINE
  5
A451
330
A234
100
AcDbEntity
  8
1
  6
Continuous
100
AcDbLine
 10
115.868192
 20
225.8449319999999
 30
0.0
 11
117.0729799999999
 21
224.244941
 31
0.0
  0
LINE
  5
A452
330
A234
100
AcDbEntity
  8
1
  6
Continuous
100
AcDbLine
 10
115.868176
 20
225.8449319999999
 30
0.0
 11
114.6633879999999
 21
224.244941
 31
0.0
  0
LINE
  5
A453
330
A234
100
AcDbEntity
  8
1
  6
Continuous
100
AcDbLine
 10
115.868192
 20
225.8449319999999
 30
0.0
 11
117.6998259999999
 21
225.8449319999999
 31
0.0
  0
LINE
  5
A454
330
A234
100
AcDbEntity
  8
1
  6
Continuous
100
AcDbLine
 10
116.999753
 20
224.244941
 30
0.0
 11
116.999753
 21
215.914024
 31
0.0
  0
ARC
  5
A455
330
A234
100
AcDbEntity
  8
1
  6
Continuous
100
AcDbCircle
 10
132.536282
 20
217.239891
 30
0.0
 40
2.0
100
AcDbArc
 50
4.488094
 51
76.845038
  0
LINE
  5
A456
330
A234
100
AcDbEntity
  8
5
  6
PHANTOM
100
AcDbLine
 10
117.649018
 20
139.816745
 30
0.0
 11
117.7208649999997
 21
139.75101
 31
0.0
  0
LINE
  5
A457
330
A234
100
AcDbEntity
  8
5
  6
PHANTOM
100
AcDbLine
 10
121.564181
 20
144.0959389999999
 30
0.0
 11
121.6360279999999
 21
144.0302029999998
 31
0.0
  0
ARC
  5
A458
330
A234
100
AcDbEntity
  8
5
  6
PHANTOM
100
AcDbCircle
 10
119.606599
 20
141.956342
 30
0.0
 40
2.9
100
AcDbArc
 50
47.543663
 51
227.5436629999999
  0
ARC
  5
A459
330
A234
100
AcDbEntity
  8
5
  6
PHANTOM
100
AcDbCircle
 10
127.500973
 20
134.733541
 30
0.0
 40
2.9
100
AcDbArc
 50
227.5436629999999
 51
47.543663
  0
LINE
  5
A45A
330
A234
100
AcDbEntity
  8
5
  6
PHANTOM
100
AcDbLine
 10
125.471544
 20
132.659679
 30
0.0
 11
125.5433919999999
 21
132.5939439999999
 31
0.0
  0
LINE
  5
A45B
330
A234
100
AcDbEntity
  8
1
  6
Continuous
100
AcDbLine
 10
58.453783
 20
143.6949409999997
 30
0.0
 11
58.453783
 21
132.9949409999999
 31
0.0
  0
LINE
  5
A45C
330
A234
100
AcDbEntity
  8
1
  6
Continuous
100
AcDbLine
 10
58.453783
 20
141.7320489999999
 30
0.0
 11
57.253783
 21
140.094941
 31
0.0
  0
LINE
  5
A45D
330
A234
100
AcDbEntity
  8
1
  6
Continuous
100
AcDbLine
 10
57.253783
 20
136.594941
 30
0.0
 11
58.453783
 21
134.9578329999999
 31
0.0
  0
ARC
  5
A45E
330
A234
100
AcDbEntity
  8
1
  6
Continuous
100
AcDbCircle
 10
54.34961600000001
 20
143.6949409999997
 30
0.0
 40
4.104166999999998
100
AcDbArc
 50
315.0411309999999
 51
44.958869
  0
ARC
  5
A45F
330
A234
100
AcDbEntity
  8
1
  6
Continuous
100
AcDbCircle
 10
54.34961600000001
 20
132.9949409999999
 30
0.0
 40
4.104166999999998
100
AcDbArc
 50
315.0411309999999
 51
0.0
  0
LINE
  5
A460
330
A234
100
AcDbEntity
  8
1
  6
Continuous
100
AcDbLine
 10
58.453783
 20
141.344941
 30
0.0
 11
58.17003299999999
 21
141.344941
 31
0.0
  0
LINE
  5
A461
330
A234
100
AcDbEntity
  8
1
  6
Continuous
100
AcDbLine
 10
58.453783
 20
135.344941
 30
0.0
 11
58.17003299999999
 21
135.344941
 31
0.0
  0
LINE
  5
A462
330
A234
100
AcDbEntity
  8
1
  6
Continuous
100
AcDbLine
 10
60.253813
 20
133.0002059999999
 30
0.0
 11
60.253813
 21
127.0479879999999
 31
0.0
  0
LINE
  5
A463
330
A234
100
AcDbEntity
  8
1
  6
Continuous
100
AcDbLine
 10
211.7537879999999
 20
141.547742
 30
0.0
 11
211.753787
 21
138.7632949999999
 31
0.0
  0
ARC
  5
A464
330
A234
100
AcDbEntity
  8
1
  6
Continuous
100
AcDbCircle
 10
143.5537859999998
 20
58.344941
 30
0.0
 40
15.9
100
AcDbArc
 50
115.327403
 51
132.1298219999997
  0
ARC
  5
A465
330
A234
100
AcDbEntity
  8
1
  6
Continuous
100
AcDbCircle
 10
123.553786
 20
69.140765
 30
0.0
 40
4.104166999999998
100
AcDbArc
 50
45.041131
 51
134.958869
  0
LINE
  5
A466
330
A234
100
AcDbEntity
  8
1
  6
Continuous
100
AcDbLine
 10
117.553786
 20
73.24493199999998
 30
0.0
 11
129.553786
 21
73.24493199999998
 31
0.0
  0
LINE
  5
A467
330
A234
100
AcDbEntity
  8
1
  6
Continuous
100
AcDbLine
 10
120.553786
 20
72.04493199999998
 30
0.0
 11
120.553786
 21
73.24493199999998
 31
0.0
  0
LINE
  5
A468
330
A234
100
AcDbEntity
  8
1
  6
Continuous
100
AcDbLine
 10
126.553786
 20
72.04493199999998
 30
0.0
 11
126.553786
 21
73.24493199999998
 31
0.0
  0
LINE
  5
A469
330
A234
100
AcDbEntity
  8
5
  6
PHANTOM
100
AcDbLine
 10
311.338821
 20
148.878462
 30
0.0
 11
308.2997639999998
 21
149.572601
 31
0.0
  0
LINE
  5
A46A
330
A234
100
AcDbEntity
  8
5
  6
PHANTOM
100
AcDbLine
 10
315.151811
 20
149.64875
 30
0.0
 11
308.6560289999998
 21
151.132419
 31
0.0
  0
ARC
  5
A46B
330
A234
100
AcDbEntity
  8
5
  6
PHANTOM
100
AcDbCircle
 10
362.9821689999998
 20
179.422932
 30
0.0
 40
60.0
100
AcDbArc
 50
208.531981
 51
217.1386609999998
  0
LINE
  5
A46C
330
A234
100
AcDbEntity
  8
5
  6
PHANTOM
100
AcDbLine
 10
308.65602
 20
151.132452
 30
0.0
 11
308.2982939999999
 21
149.566251
 31
0.0
  0
LINE
  5
A46D
330
A234
100
AcDbEntity
  8
5
  6
PHANTOM
100
AcDbLine
 10
365.1998639999998
 20
138.2174629999999
 30
0.0
 11
354.416965
 21
140.6803469999997
 31
0.0
  0
LINE
  5
A46E
330
A234
100
AcDbEntity
  8
5
  6
PHANTOM
100
AcDbLine
 10
364.8435979999999
 20
136.657646
 30
0.0
 11
358.4317689999999
 21
138.1221449999999
 31
0.0
  0
ARC
  5
A46F
330
A234
100
AcDbEntity
  8
5
  6
PHANTOM
100
AcDbCircle
 10
332.781976
 20
181.041699
 30
0.0
 40
50.0
100
AcDbArc
 50
295.6318549999998
 51
303.455548
  0
LINE
  5
A470
330
A234
100
AcDbEntity
  8
5
  6
PHANTOM
100
AcDbLine
 10
365.19987
 20
138.217479
 30
0.0
 11
364.841647
 21
136.649108
 31
0.0
  0
ARC
  5
A471
330
A234
100
AcDbEntity
  8
1
  6
Continuous
100
AcDbCircle
 10
334.553786
 20
138.344941
 30
0.0
 40
10.0
100
AcDbArc
 50
173.617572
 51
62.258221
  0
ARC
  5
A472
330
A234
100
AcDbEntity
  8
1
  6
Continuous
100
AcDbCircle
 10
334.553786
 20
138.344941
 30
0.0
 40
8.0
100
AcDbArc
 50
187.5421049999999
 51
50.192063
  0
LINE
  5
A473
330
A234
100
AcDbEntity
  8
1
  6
Continuous
100
AcDbLine
 10
54.05378599999998
 20
145.3322369999999
 30
0.0
 11
55.653784
 21
142.584774
 31
0.0
  0
LINE
  5
A474
330
A234
100
AcDbEntity
  8
1
  6
Continuous
100
AcDbLine
 10
54.05378599999998
 20
144.5290489999998
 30
0.0
 11
55.653784
 21
141.781597
 31
0.0
  0
LINE
  5
A475
330
A234
100
AcDbEntity
  8
1
  6
Continuous
100
AcDbLine
 10
54.05378599999998
 20
145.3322369999999
 30
0.0
 11
55.653784
 21
148.079662
 31
0.0
  0
LINE
  5
A476
330
A234
100
AcDbEntity
  8
1
  6
Continuous
100
AcDbLine
 10
141.437345
 20
131.68687
 30
0.0
 11
141.5880559999999
 21
129.692562
 31
0.0
  0
LINE
  5
A477
330
A234
100
AcDbEntity
  8
1
  6
Continuous
100
AcDbLine
 10
135.454405
 20
131.2347069999999
 30
0.0
 11
135.6051159999997
 21
129.240398
 31
0.0
  0
LINE
  5
A478
330
A234
100
AcDbEntity
  8
1
  6
Continuous
100
AcDbLine
 10
138.445875
 20
131.4607959999999
 30
0.0
 11
138.5966009999999
 21
129.466488
 31
0.0
  0
LINE
  5
A479
330
A234
100
AcDbEntity
  8
1
  6
Continuous
100
AcDbLine
 10
130.8649579999997
 20
127.1687429999999
 30
0.0
 11
133.4466229999997
 21
142.3070329999999
 31
0.0
  0
LINE
  5
A47A
330
A234
100
AcDbEntity
  8
1
  6
Continuous
100
AcDbLine
 10
138.2617469999999
 20
134.370357
 30
0.0
 11
149.5595989999999
 21
126.5537679999999
 31
0.0
  0
ARC
  5
A47B
330
A234
100
AcDbEntity
  8
1
  6
Continuous
100
AcDbCircle
 10
125.3386209999999
 20
140.757809
 30
0.0
 40
13.0
100
AcDbArc
 50
175.1229219999999
 51
270.5563879999999
  0
LINE
  5
A47C
330
A234
100
AcDbEntity
  8
1
  6
Continuous
100
AcDbLine
 10
139.172087
 20
135.686138
 30
0.0
 11
150.4699379999999
 21
127.869533
 31
0.0
  0
LINE
  5
A47D
330
A234
100
AcDbEntity
  8
1
  6
Continuous
100
AcDbLine
 10
126.873381
 20
127.556774
 30
0.0
 11
128.03222
 21
134.3519939999999
 31
0.0
  0
ARC
  5
A47E
330
A234
100
AcDbEntity
  8
1
  6
Continuous
100
AcDbCircle
 10
123.553786
 20
132.9949409999999
 30
0.0
 40
2.9
100
AcDbArc
 50
180.0
 51
0.0
  0
LINE
  5
A47F
330
A234
100
AcDbEntity
  8
1
  6
Continuous
100
AcDbLine
 10
141.5880559999999
 20
129.692577
 30
0.0
 11
135.6051159999997
 21
129.240398
 31
0.0
  0
ARC
  5
A480
330
A234
100
AcDbEntity
  8
1
  6
Continuous
100
AcDbCircle
 10
134.671125
 20
187.047909
 30
0.0
 40
60.0
100
AcDbArc
 50
261.173802
 51
281.849556
  0
LINE
  5
A481
330
A234
100
AcDbEntity
  8
1
  6
Continuous
100
AcDbLine
 10
150.4699689999999
 20
127.869549
 30
0.0
 11
149.5559059999999
 21
126.548397
 31
0.0
  0
LINE
  5
A482
330
A234
100
AcDbEntity
  8
1
  6
Continuous
100
AcDbLine
 10
141.43733
 20
131.6868859999999
 30
0.0
 11
135.4543889999999
 21
131.2347069999999
 31
0.0
  0
ARC
  5
A483
330
A234
100
AcDbEntity
  8
1
  6
Continuous
100
AcDbCircle
 10
120.086592
 20
133.3335379999997
 30
0.0
 40
18.093899
100
AcDbArc
 50
14.795341
 51
95.84868
  0
LINE
  5
A484
330
A234
100
AcDbEntity
  8
1
  6
Continuous
100
AcDbLine
 10
102.772901
 20
160.8694419999999
 30
0.0
 11
115.5593389999997
 21
152.022961
 31
0.0
  0
LINE
  5
A485
330
A234
100
AcDbEntity
  8
1
  6
Continuous
100
AcDbLine
 10
101.8625619999999
 20
159.553677
 30
0.0
 11
114.648985
 21
150.7071949999998
 31
0.0
  0
ARC
  5
A486
330
A234
100
AcDbEntity
  8
1
  6
Continuous
100
AcDbCircle
 10
120.086592
 20
133.3335379999997
 30
0.0
 40
16.493898
100
AcDbArc
 50
14.795313
 51
95.84868
  0
LINE
  5
A487
330
A234
100
AcDbEntity
  8
1
  6
Continuous
100
AcDbLine
 10
116.495024
 20
141.781597
 30
0.0
 11
114.6633889999999
 21
142.584789
 31
0.0
  0
LINE
  5
A488
330
A234
100
AcDbEntity
  8
1
  6
Continuous
100
AcDbLine
 10
118.9046
 20
147.276485
 30
0.0
 11
117.0729659999997
 21
148.0796769999997
 31
0.0
  0
LINE
  5
A489
330
A234
100
AcDbEntity
  8
1
  6
Continuous
100
AcDbLine
 10
117.0729659999997
 20
148.079662
 30
0.0
 11
114.6633889999999
 21
142.584774
 31
0.0
  0
LINE
  5
A48A
330
A234
100
AcDbEntity
  8
1
  6
Continuous
100
AcDbLine
 10
118.9046
 20
147.2765009999999
 30
0.0
 11
116.495024
 21
141.781597
 31
0.0
  0
LINE
  5
A48B
330
A234
100
AcDbEntity
  8
1
  6
Continuous
100
AcDbLine
 10
115.868177
 20
145.3322409999999
 30
0.0
 11
117.6998119999999
 21
144.5290489999998
 31
0.0
  0
ARC
  5
A48C
330
A234
100
AcDbEntity
  8
1
  6
Continuous
100
AcDbCircle
 10
117.8351879999999
 20
155.31242
 30
0.0
 40
5.599999999999997
100
AcDbArc
 50
235.3219999999997
 51
275.8486819999999
  0
ARC
  5
A48D
330
A234
100
AcDbEntity
  8
1
  6
Continuous
100
AcDbCircle
 10
117.8351879999999
 20
155.31242
 30
0.0
 40
4.0
100
AcDbArc
 50
235.3219999999997
 51
275.848675
  0
ARC
  5
A48E
330
A234
100
AcDbEntity
  8
1
  6
Continuous
100
AcDbCircle
 10
156.251295
 20
165.859035
 30
0.0
 40
50.0
100
AcDbArc
 50
191.839773
 51
208.680164
  0
LINE
  5
A48F
330
A234
100
AcDbEntity
  8
1
  6
Continuous
100
AcDbLine
 10
120.653786
 20
133.092323
 30
0.0
 11
120.653786
 21
132.9949409999999
 31
0.0
  0
LINE
  5
A490
330
A234
100
AcDbEntity
  8
1
  6
Continuous
100
AcDbLine
 10
126.4537859999999
 20
133.092323
 30
0.0
 11
126.4537859999999
 21
132.9949409999999
 31
0.0
  0
LINE
  5
A491
330
A234
100
AcDbEntity
  8
1
  6
Continuous
100
AcDbLine
 10
126.4537859999999
 20
143.6949409999997
 30
0.0
 11
126.4537859999999
 21
143.5975599999999
 31
0.0
  0
LINE
  5
A492
330
A234
100
AcDbEntity
  8
1
  6
Continuous
100
AcDbLine
 10
120.653786
 20
143.6949409999997
 30
0.0
 11
120.653786
 21
143.5975599999999
 31
0.0
  0
ARC
  5
A493
330
A234
100
AcDbEntity
  8
1
  6
Continuous
100
AcDbCircle
 10
141.4479499999998
 20
138.9755969999999
 30
0.0
 40
4.0
100
AcDbArc
 50
194.795332
 51
235.3219999999997
  0
ARC
  5
A494
330
A234
100
AcDbEntity
  8
1
  6
Continuous
100
AcDbCircle
 10
141.4479499999998
 20
138.9755819999997
 30
0.0
 40
5.599999999999997
100
AcDbArc
 50
194.7953189999999
 51
235.3219999999997
  0
ARC
  5
A495
330
A234
100
AcDbEntity
  8
1
  6
Continuous
100
AcDbCircle
 10
123.553786
 20
143.6949409999997
 30
0.0
 40
2.9
100
AcDbArc
 50
0.0
 51
180.0
  0
LINE
  5
A496
330
A234
100
AcDbEntity
  8
1
  6
Continuous
100
AcDbLine
 10
102.772909
 20
160.869457
 30
0.0
 11
101.85758
 21
159.5464739999999
 31
0.0
  0
LINE
  5
A497
330
A234
100
AcDbEntity
  8
5
  6
PHANTOM
100
AcDbLine
 10
129.386708
 20
136.938873
 30
0.0
 11
129.4585549999998
 21
136.873137
 31
0.0
  0
LINE
  5
A498
330
A234
100
AcDbEntity
  8
5
  6
PHANTOM
100
AcDbLine
 10
97.75316
 20
224.244941
 30
0.0
 11
108.618192
 21
224.244941
 31
0.0
  0
LINE
  5
A499
330
A234
100
AcDbEntity
  8
1
  6
Continuous
100
AcDbLine
 10
356.2450109999999
 20
159.553677
 30
0.0
 11
350.8363719999999
 21
155.811627
 31
0.0
  0
LINE
  5
A49A
330
A234
100
AcDbEntity
  8
1
  6
Continuous
100
AcDbLine
 10
355.334671
 20
160.8694419999999
 30
0.0
 11
346.238852
 21
154.576369
 31
0.0
  0
ARC
  5
A49B
330
A234
100
AcDbEntity
  8
1
  6
Continuous
100
AcDbCircle
 10
301.8562779999998
 20
165.859035
 30
0.0
 40
50.0
100
AcDbArc
 50
343.1758549999999
 51
350.999548
  0
LINE
  5
A49C
330
A234
100
AcDbEntity
  8
1
  6
Continuous
100
AcDbLine
 10
355.334664
 20
160.869457
 30
0.0
 11
356.249993
 21
159.5464739999999
 31
0.0
  0
ARC
  5
A49D
330
A234
100
AcDbEntity
  8
1
  6
Continuous
100
AcDbCircle
 10
323.436447
 20
187.047909
 30
0.0
 40
60.0
100
AcDbArc
 50
256.0759809999999
 51
264.682661
  0
LINE
  5
A49E
330
A234
100
AcDbEntity
  8
1
  6
Continuous
100
AcDbLine
 10
315.244902
 20
133.132746
 30
0.0
 11
307.6376349999998
 21
127.869533
 31
0.0
  0
LINE
  5
A49F
330
A234
100
AcDbEntity
  8
1
  6
Continuous
100
AcDbLine
 10
311.1115429999998
 20
128.327412
 30
0.0
 11
308.547974
 21
126.5537679999999
 31
0.0
  0
LINE
  5
A4A0
330
A234
100
AcDbEntity
  8
1
  6
Continuous
100
AcDbLine
 10
307.6376039999999
 20
127.869549
 30
0.0
 11
308.551667
 21
126.548397
 31
0.0
  0
ARC
  5
A4A1
330
A234
100
AcDbEntity
  8
1
  6
Continuous
100
AcDbCircle
 10
236.469093
 20
146.3439219999998
 30
0.0
 40
2.084693
100
AcDbArc
 50
0.028025
 51
73.71177
  0
ARC
  5
A4A2
330
A234
100
AcDbEntity
  8
1
  6
Continuous
100
AcDbCircle
 10
236.469093
 20
130.3459609999999
 30
0.0
 40
2.084693
100
AcDbArc
 50
286.28823
 51
359.9719749999999
  0
LINE
  5
A4A3
330
A234
100
AcDbEntity
  8
1
  6
Continuous
100
AcDbLine
 10
34.05378599999998
 20
130.344941
 30
0.0
 11
34.05378599999998
 21
146.344941
 31
0.0
  0
ARC
  5
A4A4
330
A234
100
AcDbEntity
  8
1
  6
Continuous
100
AcDbCircle
 10
36.13847899999999
 20
130.3459609999999
 30
0.0
 40
2.084693
100
AcDbArc
 50
180.028025
 51
253.71177
  0
ARC
  5
A4A5
330
A234
100
AcDbEntity
  8
1
  6
Continuous
100
AcDbCircle
 10
36.13847899999999
 20
146.3439219999998
 30
0.0
 40
2.084693
100
AcDbArc
 50
106.28823
 51
179.9719749999999
  0
LINE
  5
A4A6
330
A234
100
AcDbEntity
  8
1
  6
Continuous
100
AcDbLine
 10
112.385687
 20
72.04493199999998
 30
0.0
 11
112.385687
 21
70.444941
 31
0.0
  0
LINE
  5
A4A7
330
A234
100
AcDbEntity
  8
1
  6
Continuous
100
AcDbLine
 10
125.464859
 20
72.04493199999998
 30
0.0
 11
125.464859
 21
70.444941
 31
0.0
  0
ARC
  5
A4A8
330
A234
100
AcDbEntity
  8
5
  6
PHANTOM
100
AcDbCircle
 10
99.73195200000001
 20
211.948674
 30
0.0
 40
6.703731999999997
100
AcDbArc
 50
224.2716279999999
 51
270.0
  0
ARC
  5
A4A9
330
A234
100
AcDbEntity
  8
5
  6
PHANTOM
100
AcDbCircle
 10
100.0358499999999
 20
212.244941
 30
0.0
 40
7.128147999999997
100
AcDbArc
 50
153.8632062104119
 51
224.2716279999999
  0
LINE
  5
A4AA
330
A234
100
AcDbEntity
  8
5
  6
PHANTOM
100
AcDbLine
 10
93.63659167433405
 20
215.3850025903678
 30
0.0
 11
97.75316
 21
224.244941
 31
0.0
  0
ARC
  5
A4AB
330
A234
100
AcDbEntity
  8
5
  6
PHANTOM
100
AcDbCircle
 10
100.0358419999999
 20
82.44492499999998
 30
0.0
 40
7.128147999999997
100
AcDbArc
 50
135.7283079999999
 51
206.136687
  0
ARC
  5
A4AC
330
A234
100
AcDbEntity
  8
5
  6
PHANTOM
100
AcDbCircle
 10
99.73194499999999
 20
82.74119299999998
 30
0.0
 40
6.703731999999997
100
AcDbArc
 50
89.999937
 51
135.7283079999999
  0
LINE
  5
A4AD
330
A234
100
AcDbEntity
  8
5
  6
PHANTOM
100
AcDbLine
 10
93.509109
 20
79.57922299999999
 30
0.0
 11
97.753139
 21
70.44492700000002
 31
0.0
  0
LINE
  5
A4AE
330
A234
100
AcDbEntity
  8
5
  6
PHANTOM
100
AcDbLine
 10
107.87621
 20
70.444941
 30
0.0
 11
97.753139
 21
70.44492700000002
 31
0.0
  0
LINE
  5
A4AF
330
A234
100
AcDbEntity
  8
1
  6
Continuous
100
AcDbLine
 10
131.553786
 20
48.844941
 30
0.0
 11
115.553786
 21
48.844941
 31
0.0
  0
ARC
  5
A4B0
330
A234
100
AcDbEntity
  8
1
  6
Continuous
100
AcDbCircle
 10
131.5527669999999
 20
50.929634
 30
0.0
 40
2.084693
100
AcDbArc
 50
270.028025
 51
343.7117699999998
  0
ARC
  5
A4B1
330
A234
100
AcDbEntity
  8
1
  6
Continuous
100
AcDbCircle
 10
115.554806
 20
50.929634
 30
0.0
 40
2.084693
100
AcDbArc
 50
196.28823
 51
269.9719749999998
  0
ARC
  5
A4B2
330
A234
100
AcDbEntity
  8
1
  6
Continuous
100
AcDbCircle
 10
115.554806
 20
243.7602479999999
 30
0.0
 40
2.084693
100
AcDbArc
 50
90.02802499999999
 51
163.71177
  0
LINE
  5
A4B4
330
A234
100
AcDbEntity
  8
1
  6
Continuous
100
AcDbLine
 10
118.074656
 20
245.844941
 30
0.0
 11
115.553786
 21
245.844941
 31
0.0
  0
LINE
  5
A4B5
330
A234
100
AcDbEntity
  8
1
  6
Continuous
100
AcDbLine
 10
120.353786
 20
76.04493199999997
 30
0.0
 11
126.753786
 21
76.04493199999997
 31
0.0
  0
LINE
  5
A4B6
330
A234
100
AcDbEntity
  8
1
  6
Continuous
100
AcDbLine
 10
117.553786
 20
73.24493199999998
 30
0.0
 11
117.553786
 21
73.24493199999998
 31
0.0
  0
LINE
  5
A4B7
330
A234
100
AcDbEntity
  8
1
  6
Continuous
100
AcDbLine
 10
129.553786
 20
73.24493199999998
 30
0.0
 11
129.553786
 21
73.24493199999998
 31
0.0
  0
ARC
  5
A4B8
330
A234
100
AcDbEntity
  8
1
  6
Continuous
100
AcDbCircle
 10
120.353786
 20
73.24493199999998
 30
0.0
 40
2.799999999999998
100
AcDbArc
 50
89.999999
 51
180.0
  0
ARC
  5
A4B9
330
A234
100
AcDbEntity
  8
1
  6
Continuous
100
AcDbCircle
 10
126.753786
 20
73.24493199999998
 30
0.0
 40
2.799999999999998
100
AcDbArc
 50
0.0
 51
90.0
  0
ARC
  5
A4BA
330
A234
100
AcDbEntity
  8
1
  6
Continuous
100
AcDbCircle
 10
58.453783
 20
135.1449409999997
 30
0.0
 40
2.799999999999998
100
AcDbArc
 50
270.0
 51
0.0
  0
LINE
  5
A4BB
330
A234
100
AcDbEntity
  8
1
  6
Continuous
100
AcDbLine
 10
58.453783
 20
132.344941
 30
0.0
 11
58.453783
 21
132.344941
 31
0.0
  0
LINE
  5
A4BC
330
A234
100
AcDbEntity
  8
1
  6
Continuous
100
AcDbLine
 10
61.253783
 20
141.5449409999999
 30
0.0
 11
61.253783
 21
135.1449409999997
 31
0.0
  0
ARC
  5
A4BD
330
A234
100
AcDbEntity
  8
1
  6
Continuous
100
AcDbCircle
 10
58.453783
 20
141.5449409999999
 30
0.0
 40
2.799999999999998
100
AcDbArc
 50
0.0
 51
90.0
  0
LINE
  5
A4BE
330
A234
100
AcDbEntity
  8
1
  6
Continuous
100
AcDbLine
 10
58.453783
 20
144.344941
 30
0.0
 11
58.453783
 21
144.344941
 31
0.0
  0
LINE
  5
A4BF
330
A234
100
AcDbEntity
  8
1
  6
Continuous
100
AcDbLine
 10
58.453783
 20
144.344941
 30
0.0
 11
58.453783
 21
132.344941
 31
0.0
  0
LINE
  5
A4C0
330
A234
100
AcDbEntity
  8
1
  6
Continuous
100
AcDbLine
 10
126.553786
 20
44.744941
 30
0.0
 11
120.553786
 21
44.744941
 31
0.0
  0
LINE
  5
A4C1
330
A234
100
AcDbEntity
  8
1
  6
Continuous
100
AcDbLine
 10
119.053786
 20
46.24494099999998
 30
0.0
 11
119.053786
 21
46.24494099999998
 31
0.0
  0
LINE
  5
A4C2
330
A234
100
AcDbEntity
  8
1
  6
Continuous
100
AcDbLine
 10
128.053786
 20
46.24494099999998
 30
0.0
 11
128.053786
 21
46.24494099999998
 31
0.0
  0
ARC
  5
A4C3
330
A234
100
AcDbEntity
  8
1
  6
Continuous
100
AcDbCircle
 10
120.553786
 20
46.24494099999998
 30
0.0
 40
1.5
100
AcDbArc
 50
180.0
 51
270.0
  0
ARC
  5
A4C4
330
A234
100
AcDbEntity
  8
1
  6
Continuous
100
AcDbCircle
 10
126.553786
 20
46.24494099999998
 30
0.0
 40
1.5
100
AcDbArc
 50
270.0
 51
0.0
  0
ARC
  5
A4C5
330
A234
100
AcDbEntity
  8
1
  6
Continuous
100
AcDbCircle
 10
124.053786
 20
48.844941
 30
0.0
 40
6.0
100
AcDbArc
 50
205.6792889999999
 51
269.9999819999998
  0
ARC
  5
A4C6
330
A234
100
AcDbEntity
  8
1
  6
Continuous
100
AcDbCircle
 10
31.453788
 20
135.344941
 30
0.0
 40
1.5
100
AcDbArc
 50
180.0
 51
270.0
  0
LINE
  5
A4C7
330
A234
100
AcDbEntity
  8
1
  6
Continuous
100
AcDbLine
 10
31.453788
 20
133.844941
 30
0.0
 11
31.453788
 21
133.844941
 31
0.0
  0
LINE
  5
A4C8
330
A234
100
AcDbEntity
  8
1
  6
Continuous
100
AcDbLine
 10
29.953788
 20
135.344941
 30
0.0
 11
29.953788
 21
141.344941
 31
0.0
  0
ARC
  5
A4C9
330
A234
100
AcDbEntity
  8
1
  6
Continuous
100
AcDbCircle
 10
31.453788
 20
141.344941
 30
0.0
 40
1.5
100
AcDbArc
 50
90.0
 51
180.0
  0
LINE
  5
A4CA
330
A234
100
AcDbEntity
  8
1
  6
Continuous
100
AcDbLine
 10
31.453788
 20
142.8449409999998
 30
0.0
 11
31.453788
 21
142.8449409999998
 31
0.0
  0
CIRCLE
  5
A4CB
330
A234
100
AcDbEntity
  8
1
  6
Continuous
100
AcDbCircle
 10
123.553786
 20
138.344941
 30
0.0
 40
6.0
  0
LINE
  5
A4CC
330
A234
100
AcDbEntity
  8
1
  6
Continuous
100
AcDbLine
 10
129.102495
 20
140.6278849999999
 30
0.0
 11
130.018217
 21
145.997509
 31
0.0
  0
ARC
  5
A4CD
330
A234
100
AcDbEntity
  8
1
  6
Continuous
100
AcDbCircle
 10
214.553787
 20
141.5449409999999
 30
0.0
 40
2.799999999999998
100
AcDbArc
 50
144.6857349999999
 51
180.0
  0
ARC
  5
A4CE
330
A234
100
AcDbEntity
  8
1
  6
Continuous
100
AcDbCircle
 10
241.1537839999998
 20
135.344941
 30
0.0
 40
1.5
100
AcDbArc
 50
270.0
 51
0.0
  0
LINE
  5
A4CF
330
A234
100
AcDbEntity
  8
1
  6
Continuous
100
AcDbLine
 10
241.1537839999998
 20
133.844941
 30
0.0
 11
241.1537839999998
 21
133.844941
 31
0.0
  0
LINE
  5
A4D0
330
A234
100
AcDbEntity
  8
1
  6
Continuous
100
AcDbLine
 10
242.6537839999999
 20
135.344941
 30
0.0
 11
242.6537839999999
 21
138.4642179999999
 31
0.0
  0
CIRCLE
  5
A4D1
330
A234
100
AcDbEntity
  8
1
  6
Continuous
100
AcDbCircle
 10
334.553786
 20
138.344941
 30
0.0
 40
2.0
  0
CIRCLE
  5
A4D2
330
A234
100
AcDbEntity
  8
1
  6
Continuous
100
AcDbCircle
 10
334.553786
 20
138.344941
 30
0.0
 40
4.5
  0
LINE
  5
A4D4
330
A234
100
AcDbEntity
  8
1
  6
Continuous
100
AcDbLine
 10
118.053786
 20
228.344941
 30
0.0
 11
104.970511
 21
228.344941
 31
0.0
  0
LINE
  5
A4D5
330
A234
100
AcDbEntity
  8
1
  6
Continuous
100
AcDbLine
 10
118.053786
 20
244.3449409999999
 30
0.0
 11
104.970511
 21
244.3449409999999
 31
0.0
  0
LINE
  5
A4D6
330
A234
100
AcDbEntity
  8
1
  6
Continuous
100
AcDbLine
 10
111.0020969999998
 20
129.250705
 30
0.0
 11
115.742586
 21
131.987626
 31
0.0
  0
LINE
  5
A4D7
330
A234
100
AcDbEntity
  8
1
  6
Continuous
100
AcDbLine
 10
109.402098
 20
132.021984
 30
0.0
 11
113.8842899999997
 21
134.609777
 31
0.0
  0
LINE
  5
A4D8
330
A234
100
AcDbEntity
  8
1
  6
Continuous
100
AcDbLine
 10
117.556109
 20
226.7967999999999
 30
0.0
 11
117.4063529999999
 21
228.344941
 31
0.0
  0
ARC
  5
A4D9
330
A234
100
AcDbEntity
  8
1
  6
Continuous
100
AcDbCircle
 10
123.553786
 20
138.344941
 30
0.0
 40
20.0
100
AcDbArc
 50
97.942849
 51
125.750257
  0
ARC
  5
A4DA
330
A234
100
AcDbEntity
  8
1
  6
Continuous
100
AcDbCircle
 10
123.553786
 20
138.344941
 30
0.0
 40
15.5
100
AcDbArc
 50
103.35238
 51
119.634566
  0
ARC
  5
A4DB
330
A234
100
AcDbEntity
  8
1
  6
Continuous
100
AcDbCircle
 10
123.553786
 20
138.344941
 30
0.0
 40
12.5
100
AcDbArc
 50
202.6459899999999
 51
217.3540699999997
  0
ARC
  5
A4DC
330
A234
100
AcDbEntity
  8
1
  6
Continuous
100
AcDbCircle
 10
104.970511
 20
243.344941
 30
0.0
 40
1.0
100
AcDbArc
 50
90.00005499999994
 51
173.186124
  0
ARC
  5
A4DD
330
A234
100
AcDbEntity
  8
1
  6
Continuous
100
AcDbCircle
 10
163.553786
 20
236.344941
 30
0.0
 40
60.0
100
AcDbArc
 50
173.184833
 51
186.813929
  0
ARC
  5
A4DE
330
A234
100
AcDbEntity
  8
1
  6
Continuous
100
AcDbCircle
 10
104.970511
 20
229.344941
 30
0.0
 40
1.0
100
AcDbArc
 50
186.813949
 51
270.00002
  0
ARC
  5
A4DF
330
A234
100
AcDbEntity
  8
1
  6
Continuous
100
AcDbCircle
 10
118.053786
 20
226.844941
 30
0.0
 40
0.5
100
AcDbArc
 50
185.5252429999999
 51
270.00002
  0
LINE
  5
A4E0
330
A234
100
AcDbEntity
  8
1
  6
Continuous
100
AcDbLine
 10
51.55378599999998
 20
119.7616659999999
 30
0.0
 11
51.55378599999998
 21
156.928216
 31
0.0
  0
LINE
  5
A4E1
330
A234
100
AcDbEntity
  8
1
  6
Continuous
100
AcDbLine
 10
35.55378599999999
 20
119.7616659999999
 30
0.0
 11
35.55378599999999
 21
156.928216
 31
0.0
  0
ARC
  5
A4E2
330
A234
100
AcDbEntity
  8
1
  6
Continuous
100
AcDbCircle
 10
36.55378599999997
 20
119.7616659999999
 30
0.0
 40
1.0
100
AcDbArc
 50
179.9999799999999
 51
263.1860399999998
  0
ARC
  5
A4E3
330
A234
100
AcDbEntity
  8
1
  6
Continuous
100
AcDbCircle
 10
43.55378599999998
 20
178.344941
 30
0.0
 40
60.0
100
AcDbArc
 50
263.1860699999999
 51
276.8151669999999
  0
ARC
  5
A4E4
330
A234
100
AcDbEntity
  8
1
  6
Continuous
100
AcDbCircle
 10
50.553786
 20
119.7616659999999
 30
0.0
 40
1.0
100
AcDbArc
 50
276.81388
 51
359.99995
  0
ARC
  5
A4E5
330
A234
100
AcDbEntity
  8
1
  6
Continuous
100
AcDbCircle
 10
53.053786
 20
143.844941
 30
0.0
 40
0.5
100
AcDbArc
 50
0.000055
 51
84.47483000000003
  0
ARC
  5
A4E6
330
A234
100
AcDbEntity
  8
1
  6
Continuous
100
AcDbCircle
 10
53.053786
 20
132.844941
 30
0.0
 40
0.5
100
AcDbArc
 50
275.52517
 51
359.99995
  0
LINE
  5
A4E7
330
A234
100
AcDbEntity
  8
1
  6
Continuous
100
AcDbLine
 10
53.101927
 20
144.3426189999998
 30
0.0
 11
51.55378599999998
 21
144.492375
 31
0.0
  0
LINE
  5
A4E8
330
A234
100
AcDbEntity
  8
1
  6
Continuous
100
AcDbLine
 10
53.101927
 20
132.3472629999999
 30
0.0
 11
51.55378599999998
 21
132.197508
 31
0.0
  0
LINE
  5
A4E9
330
A234
100
AcDbEntity
  8
1
  6
Continuous
100
AcDbLine
 10
53.55378599999998
 20
132.844941
 30
0.0
 11
53.55378599999998
 21
143.844941
 31
0.0
  0
ARC
  5
A4EA
330
A234
100
AcDbEntity
  8
1
  6
Continuous
100
AcDbCircle
 10
36.55378599999997
 20
156.928216
 30
0.0
 40
1.0
100
AcDbArc
 50
96.813949
 51
180.00002
  0
ARC
  5
A4EB
330
A234
100
AcDbEntity
  8
1
  6
Continuous
100
AcDbCircle
 10
43.55378599999998
 20
98.344941
 30
0.0
 40
60.0
100
AcDbArc
 50
83.18483300000002
 51
96.813929
  0
ARC
  5
A4EC
330
A234
100
AcDbEntity
  8
1
  6
Continuous
100
AcDbCircle
 10
50.553786
 20
156.928216
 30
0.0
 40
1.0
100
AcDbArc
 50
0.000055
 51
83.18612399999997
  0
LINE
  5
A4ED
330
A234
100
AcDbEntity
  8
1
  6
Continuous
100
AcDbLine
 10
221.0537859999998
 20
119.7616659999999
 30
0.0
 11
221.0537859999998
 21
156.928216
 31
0.0
  0
LINE
  5
A4EE
330
A234
100
AcDbEntity
  8
1
  6
Continuous
100
AcDbLine
 10
237.0537859999997
 20
119.7616659999999
 30
0.0
 11
237.0537859999997
 21
156.928216
 31
0.0
  0
ARC
  5
A4EF
330
A234
100
AcDbEntity
  8
1
  6
Continuous
100
AcDbCircle
 10
229.0537859999997
 20
178.344941
 30
0.0
 40
60.0
100
AcDbArc
 50
263.1860699999999
 51
276.8151669999999
  0
ARC
  5
A4F0
330
A234
100
AcDbEntity
  8
1
  6
Continuous
100
AcDbCircle
 10
222.0537859999998
 20
119.7616659999999
 30
0.0
 40
1.0
100
AcDbArc
 50
179.9999799999999
 51
263.1860399999998
  0
ARC
  5
A4F1
330
A234
100
AcDbEntity
  8
1
  6
Continuous
100
AcDbCircle
 10
236.0537859999999
 20
119.7616659999999
 30
0.0
 40
1.0
100
AcDbArc
 50
276.81388
 51
359.99995
  0
LINE
  5
A4F2
330
A234
100
AcDbEntity
  8
1
  6
Continuous
100
AcDbLine
 10
219.505645
 20
132.347264
 30
0.0
 11
221.0537859999998
 21
132.197508
 31
0.0
  0
LINE
  5
A4F3
330
A234
100
AcDbEntity
  8
1
  6
Continuous
100
AcDbLine
 10
219.505645
 20
144.3426189999998
 30
0.0
 11
221.0537859999998
 21
144.492375
 31
0.0
  0
LINE
  5
A4F4
330
A234
100
AcDbEntity
  8
1
  6
Continuous
100
AcDbLine
 10
219.0537859999998
 20
132.844941
 30
0.0
 11
219.0537859999998
 21
143.844941
 31
0.0
  0
ARC
  5
A4F5
330
A234
100
AcDbEntity
  8
1
  6
Continuous
100
AcDbCircle
 10
219.5537859999999
 20
132.844941
 30
0.0
 40
0.5
100
AcDbArc
 50
179.9999799999999
 51
264.47476
  0
ARC
  5
A4F6
330
A234
100
AcDbEntity
  8
1
  6
Continuous
100
AcDbCircle
 10
219.5537859999999
 20
143.844941
 30
0.0
 40
0.5
100
AcDbArc
 50
95.52524299999999
 51
180.00002
  0
ARC
  5
A4F7
330
A234
100
AcDbEntity
  8
1
  6
Continuous
100
AcDbCircle
 10
229.0537859999997
 20
98.344941
 30
0.0
 40
60.0
100
AcDbArc
 50
83.18483300000002
 51
96.813929
  0
ARC
  5
A4F8
330
A234
100
AcDbEntity
  8
1
  6
Continuous
100
AcDbCircle
 10
222.0537859999998
 20
156.928216
 30
0.0
 40
1.0
100
AcDbArc
 50
96.813949
 51
180.00002
  0
ARC
  5
A4F9
330
A234
100
AcDbEntity
  8
1
  6
Continuous
100
AcDbCircle
 10
236.0537859999999
 20
156.928216
 30
0.0
 40
1.0
100
AcDbArc
 50
0.000055
 51
83.18612399999997
  0
LINE
  5
A4FA
330
A234
100
AcDbEntity
  8
1
  6
Continuous
100
AcDbLine
 10
129.053786
 20
68.344941
 30
0.0
 11
118.053786
 21
68.344941
 31
0.0
  0
LINE
  5
A4FB
330
A234
100
AcDbEntity
  8
1
  6
Continuous
100
AcDbLine
 10
142.1370609999998
 20
50.34494099999999
 30
0.0
 11
104.970511
 21
50.34494099999999
 31
0.0
  0
LINE
  5
A4FC
330
A234
100
AcDbEntity
  8
1
  6
Continuous
100
AcDbLine
 10
142.1370609999998
 20
66.34494100000001
 30
0.0
 11
104.970511
 21
66.34494100000001
 31
0.0
  0
ARC
  5
A4FD
330
A234
100
AcDbEntity
  8
1
  6
Continuous
100
AcDbCircle
 10
118.053786
 20
67.844941
 30
0.0
 40
0.5
100
AcDbArc
 50
90.00005499999994
 51
174.4748299999999
  0
LINE
  5
A4FE
330
A234
100
AcDbEntity
  8
1
  6
Continuous
100
AcDbLine
 10
117.556109
 20
67.89308199999999
 30
0.0
 11
117.4063529999999
 21
66.34494100000001
 31
0.0
  0
ARC
  5
A4FF
330
A234
100
AcDbEntity
  8
1
  6
Continuous
100
AcDbCircle
 10
104.970511
 20
65.344941
 30
0.0
 40
1.0
100
AcDbArc
 50
90.00005499999994
 51
173.186124
  0
ARC
  5
A500
330
A234
100
AcDbEntity
  8
1
  6
Continuous
100
AcDbCircle
 10
104.970511
 20
51.344941
 30
0.0
 40
1.0
100
AcDbArc
 50
186.813949
 51
270.00002
  0
ARC
  5
A501
330
A234
100
AcDbEntity
  8
1
  6
Continuous
100
AcDbCircle
 10
163.553786
 20
58.344941
 30
0.0
 40
60.0
100
AcDbArc
 50
173.184833
 51
186.813929
  0
LINE
  5
A502
330
A234
100
AcDbEntity
  8
1
  6
Continuous
100
AcDbLine
 10
129.5514639999999
 20
67.89308199999999
 30
0.0
 11
129.70122
 21
66.34494100000001
 31
0.0
  0
ARC
  5
A503
330
A234
100
AcDbEntity
  8
1
  6
Continuous
100
AcDbCircle
 10
142.1370609999998
 20
65.344941
 30
0.0
 40
1.0
100
AcDbArc
 50
6.81388
 51
89.99995000000001
  0
ARC
  5
A504
330
A234
100
AcDbEntity
  8
1
  6
Continuous
100
AcDbCircle
 10
142.1370609999998
 20
51.344941
 30
0.0
 40
1.0
100
AcDbArc
 50
269.99998
 51
353.1860399999998
  0
ARC
  5
A505
330
A234
100
AcDbEntity
  8
1
  6
Continuous
100
AcDbCircle
 10
83.55378599999998
 20
58.344941
 30
0.0
 40
60.0
100
AcDbArc
 50
353.1860699999999
 51
6.815166999999999
  0
ARC
  5
A506
330
A234
100
AcDbEntity
  8
1
  6
Continuous
100
AcDbCircle
 10
129.053786
 20
67.844941
 30
0.0
 40
0.5
100
AcDbArc
 50
5.52517
 51
89.99995000000001
  0
LINE
  5
A507
330
A234
100
AcDbEntity
  8
1
  6
Continuous
100
AcDbLine
 10
118.074656
 20
226.344941
 30
0.0
 11
118.053786
 21
226.344941
 31
0.0
  0
ARC
  5
A508
330
A234
100
AcDbEntity
  8
1
  6
Continuous
100
AcDbCircle
 10
123.553786
 20
138.344941
 30
0.0
 40
20.0
100
AcDbArc
 50
344.893755
 51
28.076805
  0
ARC
  5
A509
330
A234
100
AcDbEntity
  8
1
  6
Continuous
100
AcDbCircle
 10
123.553786
 20
138.344941
 30
0.0
 40
20.0
100
AcDbArc
 50
139.2986169999997
 51
326.499674
  0
ARC
  5
A50A
330
A234
100
AcDbEntity
  8
1
  6
Continuous
100
AcDbCircle
 10
123.553786
 20
138.344941
 30
0.0
 40
15.5
100
AcDbArc
 50
149.1851929999999
 51
313.222057
  0
ARC
  5
A50B
330
A234
100
AcDbEntity
  8
1
  6
Continuous
100
AcDbCircle
 10
123.553786
 20
138.344941
 30
0.0
 40
15.5
100
AcDbArc
 50
351.0095129999998
 51
22.221196
  0
ARC
  5
A50C
330
A234
100
AcDbEntity
  8
1
  6
Continuous
100
AcDbCircle
 10
334.553786
 20
138.344941
 30
0.0
 40
15.5
100
AcDbArc
 50
157.778804
 51
76.64761999999997
  0
ARC
  5
A50D
330
A234
100
AcDbEntity
  8
1
  6
Continuous
100
AcDbCircle
 10
334.553786
 20
138.344941
 30
0.0
 40
20.0
100
AcDbArc
 50
151.9231949999999
 51
82.057151
  0
LINE
  5
A50E
330
A234
100
AcDbEntity
  8
1
  6
Continuous
100
AcDbLine
 10
322.0020970000001
 20
129.250705
 30
0.0
 11
326.7425859999999
 21
131.987626
 31
0.0
  0
LINE
  5
A50F
330
A234
100
AcDbEntity
  8
1
  6
Continuous
100
AcDbLine
 10
320.402098
 20
132.021984
 30
0.0
 11
325.205102
 21
134.7949979999998
 31
0.0
  0
ARC
  5
A510
330
A234
100
AcDbEntity
  8
1
  6
Continuous
100
AcDbCircle
 10
334.553786
 20
138.344941
 30
0.0
 40
12.5
100
AcDbArc
 50
202.6459899999999
 51
217.3540699999997
  0
LINE
  5
A511
330
A234
100
AcDbEntity
  8
1
  6
Continuous
100
AcDbLine
 10
347.105472
 20
129.2506989999999
 30
0.0
 11
342.30247
 21
132.0237149999997
 31
0.0
  0
ARC
  5
A512
330
A234
100
AcDbEntity
  8
1
  6
Continuous
100
AcDbCircle
 10
334.553786
 20
138.344941
 30
0.0
 40
12.5
100
AcDbArc
 50
322.64599
 51
337.3540699999998
  0
LINE
  5
A513
330
A234
100
AcDbEntity
  8
1
  6
Continuous
100
AcDbLine
 10
348.7054709999999
 20
132.0219779999999
 30
0.0
 11
343.964983
 21
134.758901
 31
0.0
  0
ARC
  5
A539
330
A234
100
AcDbEntity
  8
1
  6
Continuous
100
AcDbCircle
 10
99.54483122723203
 20
355.7343168396613
 30
0.0
 40
140.5835742234497
100
AcDbArc
 50
277.5719470992476
 51
283.7454765034706
  0
ENDSEC
  0
SECTION
  2
OBJECTS
  0
DICTIONARY
  5
A222
330
0
100
AcDbDictionary
281
     1
  3
ACAD_CIP_PREVIOUS_PRODUCT_INFO
350
A5A5
  3
ACAD_COLOR
350
A587
  3
ACAD_DETAILVIEWSTYLE
350
A5A0
  3
ACAD_GROUP
350
A223
  3
ACAD_LAYOUT
350
A22F
  3
ACAD_MATERIAL
350
A555
  3
ACAD_MLEADERSTYLE
350
A59C
  3
ACAD_MLINESTYLE
350
A22C
  3
ACAD_PLOTSETTINGS
350
A22E
  3
ACAD_PLOTSTYLENAME
350
A553
  3
ACAD_SCALELIST
350
A58A
  3
ACAD_SECTIONVIEWSTYLE
350
A59E
  3
ACAD_TABLESTYLE
350
A588
  3
ACAD_VISUALSTYLE
350
A56E
  3
ACDB_RECOMPOSE_DATA
350
A5C3
  3
AcDbVariableDictionary
350
A5B6
  3
DWGPROPS
350
A5C4
  0
DICTIONARY
  5
A5A6
330
A226
100
AcDbDictionary
280
     1
281
     1
  3
ADSK_XREC_LAYER_RECONCILED
360
A5A7
  0
DICTIONARY
  5
A5A8
330
A23C
100
AcDbDictionary
280
     1
281
     1
  3
ADSK_XREC_LAYER_RECONCILED
360
A5A9
  0
DICTIONARY
  5
A5AA
330
A23D
100
AcDbDictionary
280
     1
281
     1
  3
ADSK_XREC_LAYER_RECONCILED
360
A5AB
  0
DICTIONARY
  5
A5AC
330
A23E
100
AcDbDictionary
280
     1
281
     1
  3
ADSK_XREC_LAYER_RECONCILED
360
A5AD
  0
DICTIONARY
  5
A5AE
330
A23F
100
AcDbDictionary
280
     1
281
     1
  3
ADSK_XREC_LAYER_RECONCILED
360
A5AF
  0
DICTIONARY
  5
A5B0
330
A240
100
AcDbDictionary
280
     1
281
     1
  3
ADSK_XREC_LAYER_RECONCILED
360
A5B1
  0
DICTIONARY
  5
A5B2
330
A241
100
AcDbDictionary
280
     1
281
     1
  3
ADSK_XREC_LAYER_RECONCILED
360
A5B3
  0
DICTIONARY
  5
A5B4
330
A242
100
AcDbDictionary
280
     1
281
     1
  3
ADSK_XREC_LAYER_RECONCILED
360
A5B5
  0
DICTIONARY
  5
A51E
330
A234
100
AcDbDictionary
281
     1
  3
ACAD_LAYOUTSELFREF
350
A54F
  0
DICTIONARY
  5
A51C
330
A230
100
AcDbDictionary
281
     1
  3
ACAD_LAYOUTSELFREF
350
A54E
  0
XRECORD
  5
A5A5
102
{ACAD_REACTORS
330
A222
102
}
330
A222
100
AcDbXrecord
280
     1
300
ACDLT
300
2014
300
ACDLT_F_S
  0
DICTIONARY
  5
A587
102
{ACAD_REACTORS
330
A222
102
}
330
A222
100
AcDbDictionary
281
     1
  0
DICTIONARY
  5
A5A0
102
{ACAD_REACTORS
330
A222
102
}
330
A222
100
AcDbDictionary
281
     1
  3
Imperial24
350
A5A1
  0
DICTIONARY
  5
A223
102
{ACAD_REACTORS
330
A222
102
}
330
A222
100
AcDbDictionary
281
     1
  0
DICTIONARY
  5
A22F
102
{ACAD_REACTORS
330
A222
102
}
330
A222
100
AcDbDictionary
281
     1
  3
Model
350
A5A2
  3
レイアウト1
350
A5A3
  0
DICTIONARY
  5
A555
102
{ACAD_REACTORS
330
A222
102
}
330
A222
100
AcDbDictionary
281
     1
  3
ByBlock
350
A55E
  3
ByLayer
350
A556
  3
Global
350
A566
  0
DICTIONARY
  5
A59C
102
{ACAD_REACTORS
330
A222
102
}
330
A222
100
AcDbDictionary
281
     1
  3
Standard
350
A59D
  0
DICTIONARY
  5
A22C
102
{ACAD_REACTORS
330
A222
102
}
330
A222
100
AcDbDictionary
281
     1
  3
STANDARD
350
A22D
  0
DICTIONARY
  5
A22E
102
{ACAD_REACTORS
330
A222
102
}
330
A222
100
AcDbDictionary
281
     1
  0
ACDBDICTIONARYWDFLT
  5
A553
102
{ACAD_REACTORS
330
A222
102
}
330
A222
100
AcDbDictionary
281
     1
  3
Normal
350
A554
100
AcDbDictionaryWithDefault
340
A554
  0
DICTIONARY
  5
A58A
102
{ACAD_REACTORS
330
A222
102
}
330
A222
100
AcDbDictionary
281
     1
  3
A0
350
A58B
  3
A1
350
A58C
  3
A2
350
A58D
  3
A3
350
A58E
  3
A4
350
A58F
  3
A5
350
A590
  3
A6
350
A591
  3
A7
350
A592
  3
A8
350
A593
  3
A9
350
A594
  3
B0
350
A595
  3
B1
350
A596
  3
B2
350
A597
  3
B3
350
A598
  3
B4
350
A599
  3
B5
350
A59A
  3
B6
350
A59B
  0
DICTIONARY
  5
A59E
102
{ACAD_REACTORS
330
A222
102
}
330
A222
100
AcDbDictionary
281
     1
  3
Imperial24
350
A59F
  0
DICTIONARY
  5
A588
102
{ACAD_REACTORS
330
A222
102
}
330
A222
100
AcDbDictionary
281
     1
  3
Standard
350
A589
  0
DICTIONARY
  5
A56E
102
{ACAD_REACTORS
330
A222
102
}
330
A222
100
AcDbDictionary
281
     1
  3
2dWireframe
350
A574
  3
Basic
350
A573
  3
Brighten
350
A57A
  3
ColorChange
350
A57E
  3
Conceptual
350
A577
  3
Dim
350
A579
  3
EdgeColorOff
350
A586
  3
Facepattern
350
A57D
  3
Flat
350
A56F
  3
FlatWithEdges
350
A570
  3
Gouraud
350
A571
  3
GouraudWithEdges
350
A572
  3
Hidden
350
A576
  3
JitterOff
350
A584
  3
Linepattern
350
A57C
  3
OverhangOff
350
A585
  3
Realistic
350
A578
  3
Shaded
350
A583
  3
Shaded with edges
350
A582
  3
Shades of Gray
350
A57F
  3
Sketchy
350
A580
  3
Thicken
350
A57B
  3
Wireframe
350
A575
  3
X-Ray
350
A581
  0
XRECORD
  5
A5C3
102
{ACAD_REACTORS
330
A222
102
}
330
A222
100
AcDbXrecord
280
     1
 90
        1
330
A589
  0
DICTIONARY
  5
A5B6
102
{ACAD_REACTORS
330
A222
102
}
330
A222
100
AcDbDictionary
281
     1
  3
CANNOSCALE
350
A5BB
  3
CMLEADERSTYLE
350
A5B8
  3
CTABLESTYLE
350
A5B7
  3
CVIEWDETAILSTYLE
350
A5B9
  3
CVIEWSECTIONSTYLE
350
A5BA
  3
DIMASSOC
350
A5BE
  3
INDEXCTL
350
A5BD
  3
SORTENTS
350
A5BC
  3
XCLIPFRAME
350
A5BF
  0
XRECORD
  5
A5C4
102
{ACAD_REACTORS
330
A222
102
}
330
A222
100
AcDbXrecord
280
     1
  1
DWGPROPS COOKIE
  2

  3

  4

  6

  7

  8
Yoshitsune
  9

300
=
301
=
302
=
303
=
304
=
305
=
306
=
307
=
308
=
309
=
 40
0.0467063078703704
 41
2451301.430316088
 42
2457192.689941702
  1

 90
        0
  0
XRECORD
  5
A5A7
102
{ACAD_REACTORS
330
A5A6
102
}
330
A5A6
100
AcDbXrecord
280
     1
290
     1
  0
XRECORD
  5
A5A9
102
{ACAD_REACTORS
330
A5A8
102
}
330
A5A8
100
AcDbXrecord
280
     1
290
     1
  0
XRECORD
  5
A5AB
102
{ACAD_REACTORS
330
A5AA
102
}
330
A5AA
100
AcDbXrecord
280
     1
290
     1
  0
XRECORD
  5
A5AD
102
{ACAD_REACTORS
330
A5AC
102
}
330
A5AC
100
AcDbXrecord
280
     1
290
     1
  0
XRECORD
  5
A5AF
102
{ACAD_REACTORS
330
A5AE
102
}
330
A5AE
100
AcDbXrecord
280
     1
290
     1
  0
XRECORD
  5
A5B1
102
{ACAD_REACTORS
330
A5B0
102
}
330
A5B0
100
AcDbXrecord
280
     1
290
     1
  0
XRECORD
  5
A5B3
102
{ACAD_REACTORS
330
A5B2
102
}
330
A5B2
100
AcDbXrecord
280
     1
290
     1
  0
XRECORD
  5
A5B5
102
{ACAD_REACTORS
330
A5B4
102
}
330
A5B4
100
AcDbXrecord
280
     1
290
     1
  0
XRECORD
  5
A54F
102
{ACAD_REACTORS
330
A51E
102
}
330
A51E
100
AcDbXrecord
280
     1
340
A234
  0
XRECORD
  5
A54E
102
{ACAD_REACTORS
330
A51C
102
}
330
A51C
100
AcDbXrecord
280
     1
340
A230
  0
ACDBDETAILVIEWSTYLE
  5
A5A1
102
{ACAD_XDICTIONARY
360
A5FC
102
}
102
{ACAD_REACTORS
330
A5A0
102
}
330
A5A0
100
AcDbModelDocViewStyle
 70
     0
  3
Imperial24
290
     0
100
AcDbDetailViewStyle
 70
     0
 71
     0
 90
        3
 71
     1
340
A227
 40
0.24
340
0
 40
0.24
300

 40
0.36
280
     3
 71
     2
340
A22B
 90
       25
 71
     3
340
A227
 40
0.24
 90
        1
 40
0.75
 90
        1
300
%<\AcVar ViewType \f "%tc1">% %<\AcVar ViewDetailId>%\PSCALE %<\AcVar ViewScale \f "%sn">%
 71
     4
340
A22B
 90
       25
340
A22B
 90
       25
280
     0
  0
LAYOUT
  5
A5A2
102
{ACAD_XDICTIONARY
360
A5FE
102
}
102
{ACAD_REACTORS
330
A22F
102
}
330
A22F
100
AcDbPlotSettings
  1

  2
Canon LBP9100C
  4

  6

 40
0.0
 41
0.0
 42
0.0
 43
0.0
 44
0.0
 45
0.0
 46
0.0
 47
0.0
 48
0.0
 49
0.0
140
0.0
141
0.0
142
1.0
143
1.0
 70
  1712
 72
     0
 73
     0
 74
     0
  7

 75
     0
147
1.0
148
0.0
149
0.0
100
AcDbLayout
  1
Model
 70
     1
 71
     0
 10
0.0
 20
0.0
 11
12.0
 21
9.0
 12
0.0
 22
0.0
 32
0.0
 14
0.0
 24
0.0
 34
0.0
 15
0.0
 25
0.0
 35
0.0
146
0.0
 13
0.0
 23
0.0
 33
0.0
 16
1.0
 26
0.0
 36
0.0
 17
0.0
 27
1.0
 37
0.0
 76
     0
330
A234
331
A54D
  0
LAYOUT
  5
A5A3
102
{ACAD_XDICTIONARY
360
A600
102
}
102
{ACAD_REACTORS
330
A22F
102
}
330
A22F
100
AcDbPlotSettings
  1

  2
Canon LBP9100C
  4

  6

 40
0.0
 41
0.0
 42
0.0
 43
0.0
 44
0.0
 45
0.0
 46
0.0
 47
0.0
 48
0.0
 49
0.0
140
0.0
141
0.0
142
1.0
143
1.0
 70
   688
 72
     0
 73
     0
 74
     5
  7

 75
    16
147
1.0
148
0.0
149
0.0
100
AcDbLayout
  1
レイアウト1
 70
     0
 71
     1
 10
0.0
 20
0.0
 11
420.0
 21
297.0
 12
0.0
 22
0.0
 32
0.0
 14
1.000000000000000E+20
 24
1.000000000000000E+20
 34
1.000000000000000E+20
 15
-1.000000000000000E+20
 25
-1.000000000000000E+20
 35
-1.000000000000000E+20
146
0.0
 13
0.0
 23
0.0
 33
0.0
 16
1.0
 26
0.0
 36
0.0
 17
0.0
 27
1.0
 37
0.0
 76
     0
330
A230
  0
MATERIAL
  5
A55E
102
{ACAD_XDICTIONARY
360
A55F
102
}
102
{ACAD_REACTORS
330
A555
102
}
330
A555
100
AcDbMaterial
  1
ByBlock
 72
     0
 43
0.0208333333333333
 43
0.0
 43
0.0
 43
0.0
 43
0.0
 43
0.0208333333333333
 43
0.0
 43
0.0
 43
0.0
 43
0.0
 43
1.0
 43
0.0
 43
0.0
 43
0.0
 43
0.0
 43
1.0
 77
     0
 47
0.0208333333333333
 47
0.0
 47
0.0
 47
0.0
 47
0.0
 47
0.0208333333333333
 47
0.0
 47
0.0
 47
0.0
 47
0.0
 47
1.0
 47
0.0
 47
0.0
 47
0.0
 47
0.0
 47
1.0
171
     0
 49
0.0208333333333333
 49
0.0
 49
0.0
 49
0.0
 49
0.0
 49
0.0208333333333333
 49
0.0
 49
0.0
 49
0.0
 49
0.0
 49
1.0
 49
0.0
 49
0.0
 49
0.0
 49
0.0
 49
1.0
175
     0
142
0.0208333333333333
142
0.0
142
0.0
142
0.0
142
0.0
142
0.0208333333333333
142
0.0
142
0.0
142
0.0
142
0.0
142
1.0
142
0.0
142
0.0
142
0.0
142
0.0
142
1.0
179
     0
144
0.0208333333333333
144
0.0
144
0.0
144
0.0
144
0.0
144
0.0208333333333333
144
0.0
144
0.0
144
0.0
144
0.0
144
1.0
144
0.0
144
0.0
144
0.0
144
0.0
144
1.0
147
0.0208333333333333
147
0.0
147
0.0
147
0.0
147
0.0
147
0.0208333333333333
147
0.0
147
0.0
147
0.0
147
0.0
147
1.0
147
0.0
147
0.0
147
0.0
147
0.0
147
1.0
  0
MATERIAL
  5
A556
102
{ACAD_XDICTIONARY
360
A557
102
}
102
{ACAD_REACTORS
330
A555
102
}
330
A555
100
AcDbMaterial
  1
ByLayer
 72
     0
 43
0.0208333333333333
 43
0.0
 43
0.0
 43
0.0
 43
0.0
 43
0.0208333333333333
 43
0.0
 43
0.0
 43
0.0
 43
0.0
 43
1.0
 43
0.0
 43
0.0
 43
0.0
 43
0.0
 43
1.0
 77
     0
 47
0.0208333333333333
 47
0.0
 47
0.0
 47
0.0
 47
0.0
 47
0.0208333333333333
 47
0.0
 47
0.0
 47
0.0
 47
0.0
 47
1.0
 47
0.0
 47
0.0
 47
0.0
 47
0.0
 47
1.0
171
     0
 49
0.0208333333333333
 49
0.0
 49
0.0
 49
0.0
 49
0.0
 49
0.0208333333333333
 49
0.0
 49
0.0
 49
0.0
 49
0.0
 49
1.0
 49
0.0
 49
0.0
 49
0.0
 49
0.0
 49
1.0
175
     0
142
0.0208333333333333
142
0.0
142
0.0
142
0.0
142
0.0
142
0.0208333333333333
142
0.0
142
0.0
142
0.0
142
0.0
142
1.0
142
0.0
142
0.0
142
0.0
142
0.0
142
1.0
179
     0
144
0.0208333333333333
144
0.0
144
0.0
144
0.0
144
0.0
144
0.0208333333333333
144
0.0
144
0.0
144
0.0
144
0.0
144
1.0
144
0.0
144
0.0
144
0.0
144
0.0
144
1.0
147
0.0208333333333333
147
0.0
147
0.0
147
0.0
147
0.0
147
0.0208333333333333
147
0.0
147
0.0
147
0.0
147
0.0
147
1.0
147
0.0
147
0.0
147
0.0
147
0.0
147
1.0
  0
MATERIAL
  5
A566
102
{ACAD_XDICTIONARY
360
A567
102
}
102
{ACAD_REACTORS
330
A555
102
}
330
A555
100
AcDbMaterial
  1
Global
 72
     0
 43
0.0208333333333333
 43
0.0
 43
0.0
 43
0.0
 43
0.0
 43
0.0208333333333333
 43
0.0
 43
0.0
 43
0.0
 43
0.0
 43
1.0
 43
0.0
 43
0.0
 43
0.0
 43
0.0
 43
1.0
 77
     0
 47
0.0208333333333333
 47
0.0
 47
0.0
 47
0.0
 47
0.0
 47
0.0208333333333333
 47
0.0
 47
0.0
 47
0.0
 47
0.0
 47
1.0
 47
0.0
 47
0.0
 47
0.0
 47
0.0
 47
1.0
171
     0
 49
0.0208333333333333
 49
0.0
 49
0.0
 49
0.0
 49
0.0
 49
0.0208333333333333
 49
0.0
 49
0.0
 49
0.0
 49
0.0
 49
1.0
 49
0.0
 49
0.0
 49
0.0
 49
0.0
 49
1.0
175
     0
142
0.0208333333333333
142
0.0
142
0.0
142
0.0
142
0.0
142
0.0208333333333333
142
0.0
142
0.0
142
0.0
142
0.0
142
1.0
142
0.0
142
0.0
142
0.0
142
0.0
142
1.0
179
     0
144
0.0208333333333333
144
0.0
144
0.0
144
0.0
144
0.0
144
0.0208333333333333
144
0.0
144
0.0
144
0.0
144
0.0
144
1.0
144
0.0
144
0.0
144
0.0
144
0.0
144
1.0
147
0.0208333333333333
147
0.0
147
0.0
147
0.0
147
0.0
147
0.0208333333333333
147
0.0
147
0.0
147
0.0
147
0.0
147
1.0
147
0.0
147
0.0
147
0.0
147
0.0
147
1.0
  0
MLEADERSTYLE
  5
A59D
102
{ACAD_REACTORS
330
A59C
102
}
330
A59C
100
AcDbMLeaderStyle
170
     2
171
     1
172
     0
 90
        2
 40
0.0
 41
0.0
173
     1
 91
-1056964608
340
A229
 92
       -2
290
     1
 42
0.09
291
     1
 43
0.36
  3
Standard
 44
0.18
300

342
A227
174
     1
178
     6
175
     1
176
     0
 93
-1056964608
 45
0.18
292
     0
297
     0
 46
0.18
 94
-1056964608
 47
1.0
 49
1.0
140
1.0
293
     1
141
0.0
294
     1
177
     0
142
1.0
295
     0
296
     0
143
0.125
1001
ACAD_MLEADERVER
1070
     2
  0
MLINESTYLE
  5
A22D
102
{ACAD_REACTORS
330
A22C
102
}
330
A22C
100
AcDbMlineStyle
  2
STANDARD
 70
     0
  3

 62
   256
 51
90.0
 52
90.0
 71
     2
 49
0.5
 62
   256
  6
BYLAYER
 49
-0.5
 62
   256
  6
BYLAYER
  0
ACDBPLACEHOLDER
  5
A554
102
{ACAD_REACTORS
330
A553
102
}
330
A553
  0
SCALE
  5
A58B
102
{ACAD_REACTORS
330
A58A
102
}
330
A58A
100
AcDbScale
 70
     0
300
1:1
140
1.0
141
1.0
290
     1
  0
SCALE
  5
A58C
102
{ACAD_REACTORS
330
A58A
102
}
330
A58A
100
AcDbScale
 70
     0
300
1/128" = 1'-0"
140
0.0078125
141
12.0
290
     0
  0
SCALE
  5
A58D
102
{ACAD_REACTORS
330
A58A
102
}
330
A58A
100
AcDbScale
 70
     0
300
1/64" = 1'-0"
140
0.015625
141
12.0
290
     0
  0
SCALE
  5
A58E
102
{ACAD_REACTORS
330
A58A
102
}
330
A58A
100
AcDbScale
 70
     0
300
1/32" = 1'-0"
140
0.03125
141
12.0
290
     0
  0
SCALE
  5
A58F
102
{ACAD_REACTORS
330
A58A
102
}
330
A58A
100
AcDbScale
 70
     0
300
1/16" = 1'-0"
140
0.0625
141
12.0
290
     0
  0
SCALE
  5
A590
102
{ACAD_REACTORS
330
A58A
102
}
330
A58A
100
AcDbScale
 70
     0
300
3/32" = 1'-0"
140
0.09375
141
12.0
290
     0
  0
SCALE
  5
A591
102
{ACAD_REACTORS
330
A58A
102
}
330
A58A
100
AcDbScale
 70
     0
300
1/8" = 1'-0"
140
0.125
141
12.0
290
     0
  0
SCALE
  5
A592
102
{ACAD_REACTORS
330
A58A
102
}
330
A58A
100
AcDbScale
 70
     0
300
3/16" = 1'-0"
140
0.1875
141
12.0
290
     0
  0
SCALE
  5
A593
102
{ACAD_REACTORS
330
A58A
102
}
330
A58A
100
AcDbScale
 70
     0
300
1/4" = 1'-0"
140
0.25
141
12.0
290
     0
  0
SCALE
  5
A594
102
{ACAD_REACTORS
330
A58A
102
}
330
A58A
100
AcDbScale
 70
     0
300
3/8" = 1'-0"
140
0.375
141
12.0
290
     0
  0
SCALE
  5
A595
102
{ACAD_REACTORS
330
A58A
102
}
330
A58A
100
AcDbScale
 70
     0
300
1/2" = 1'-0"
140
0.5
141
12.0
290
     0
  0
SCALE
  5
A596
102
{ACAD_REACTORS
330
A58A
102
}
330
A58A
100
AcDbScale
 70
     0
300
3/4" = 1'-0"
140
0.75
141
12.0
290
     0
  0
SCALE
  5
A597
102
{ACAD_REACTORS
330
A58A
102
}
330
A58A
100
AcDbScale
 70
     0
300
1" = 1'-0"
140
1.0
141
12.0
290
     0
  0
SCALE
  5
A598
102
{ACAD_REACTORS
330
A58A
102
}
330
A58A
100
AcDbScale
 70
     0
300
1-1/2" = 1'-0"
140
1.5
141
12.0
290
     0
  0
SCALE
  5
A599
102
{ACAD_REACTORS
330
A58A
102
}
330
A58A
100
AcDbScale
 70
     0
300
3" = 1'-0"
140
3.0
141
12.0
290
     0
  0
SCALE
  5
A59A
102
{ACAD_REACTORS
330
A58A
102
}
330
A58A
100
AcDbScale
 70
     0
300
6" = 1'-0"
140
6.0
141
12.0
290
     0
  0
SCALE
  5
A59B
102
{ACAD_REACTORS
330
A58A
102
}
330
A58A
100
AcDbScale
 70
     0
300
1'-0" = 1'-0"
140
12.0
141
12.0
290
     0
  0
ACDBSECTIONVIEWSTYLE
  5
A59F
102
{ACAD_XDICTIONARY
360
A5FA
102
}
102
{ACAD_REACTORS
330
A59E
102
}
330
A59E
100
AcDbModelDocViewStyle
 70
     0
  3
Imperial24
290
     0
100
AcDbSectionViewStyle
 70
     0
 71
     0
 90
       78
 71
     1
340
A227
 40
0.24
340
0
340
0
 40
0.24
300
I, O, Q, S, X, Z
 40
0.48
 90
        3
 40
0.18
 90
        1
 71
     2
340
A22B
 90
       25
340
A22B
 90
       50
 40
0.24
 40
0.0
 40
0.24
 71
     3
340
A227
 40
0.24
 90
        1
 40
0.75
 90
        1
300
%<\AcVar ViewType \f "%tc1">% %<\AcVar ViewSectionStartId>%-%<\AcVar ViewSectionEndId>%\PSCALE %<\AcVar ViewScale \f "%sn">%
 71
     4
300
ANSI31
 40
1.0
 90
        0
290
     0
290
     0
 90
        6
 40
0.0
 40
1.570796326794896
 40
0.2617993877991494
 40
1.308996938995747
 40
-0.2617993877991494
 40
1.832595714594046
  0
TABLESTYLE
  5
A589
102
{ACAD_XDICTIONARY
360
A5C1
102
}
102
{ACAD_REACTORS
330
A588
102
}
330
A588
100
AcDbTableStyle
  3
Standard
 70
     0
 71
     0
 40
0.06
 41
0.06
280
     0
281
     0
  7
STANDARD
140
0.18
170
     2
 62
     0
 63
     7
283
     0
274
    -2
284
     1
 64
     0
275
    -2
285
     1
 65
     0
276
    -2
286
     1
 66
     0
277
    -2
287
     1
 67
     0
278
    -2
288
     1
 68
     0
279
    -2
289
     1
 69
     0
  7
STANDARD
140
0.25
170
     5
 62
     0
 63
     7
283
     0
274
    -2
284
     1
 64
     0
275
    -2
285
     1
 65
     0
276
    -2
286
     1
 66
     0
277
    -2
287
     1
 67
     0
278
    -2
288
     1
 68
     0
279
    -2
289
     1
 69
     0
  7
STANDARD
140
0.18
170
     5
 62
     0
 63
     7
283
     0
274
    -2
284
     1
 64
     0
275
    -2
285
     1
 65
     0
276
    -2
286
     1
 66
     0
277
    -2
287
     1
 67
     0
278
    -2
288
     1
 68
     0
279
    -2
289
     1
 69
     0
  0
VISUALSTYLE
  5
A574
102
{ACAD_XDICTIONARY
360
A5D2
102
}
102
{ACAD_REACTORS
330
A56E
102
}
330
A56E
100
AcDbVisualStyle
  2
2dWireframe
 70
     4
 71
     0
 72
     2
 73
     0
 90
        0
 40
-0.6
 41
-30.0
 62
     5
 63
     7
 74
     1
 91
        4
 64
     7
 65
   257
 75
     1
175
     1
 42
1.0
 92
        0
 66
   257
 43
1.0
 76
     1
 77
     6
 78
     2
 67
     7
 79
     5
170
     0
171
     0
290
     0
174
     0
 93
        1
 44
0.0
173
     0
291
     0
 45
0.0
1001
ACAD
1000
AcDbSavedByObjectVersion
1070
     0
  0
VISUALSTYLE
  5
A573
102
{ACAD_XDICTIONARY
360
A5D0
102
}
102
{ACAD_REACTORS
330
A56E
102
}
330
A56E
100
AcDbVisualStyle
  2
Basic
 70
     7
 71
     1
 72
     0
 73
     1
 90
        0
 40
-0.6
 41
-30.0
 62
     5
 63
     7
 74
     0
 91
        4
 64
     7
 65
   257
 75
     1
175
     1
 42
1.0
 92
        8
 66
     7
 43
1.0
 76
     1
 77
     6
 78
     2
 67
     7
 79
     5
170
     0
171
     0
290
     0
174
     0
 93
        1
 44
0.0
173
     0
291
     1
 45
0.0
1001
ACAD
1000
AcDbSavedByObjectVersion
1070
     0
  0
VISUALSTYLE
  5
A57A
102
{ACAD_XDICTIONARY
360
A5DE
102
}
102
{ACAD_REACTORS
330
A56E
102
}
330
A56E
100
AcDbVisualStyle
  2
Brighten
 70
    12
 71
     2
 72
     2
 73
     0
 90
        0
 40
-0.6
 41
-30.0
 62
     5
 63
     7
 74
     1
 91
        4
 64
     7
 65
   257
 75
     1
175
     1
 42
1.0
 92
        8
 66
     7
 43
1.0
 76
     1
 77
     6
 78
     2
 67
     7
 79
     5
170
     0
171
     0
290
     0
174
     0
 93
        1
 44
50.0
173
     0
291
     1
 45
0.0
1001
ACAD
1000
AcDbSavedByObjectVersion
1070
     0
  0
VISUALSTYLE
  5
A57E
102
{ACAD_XDICTIONARY
360
A5E6
102
}
102
{ACAD_REACTORS
330
A56E
102
}
330
A56E
100
AcDbVisualStyle
  2
ColorChange
 70
    16
 71
     2
 72
     2
 73
     3
 90
        0
 40
-0.6
 41
-30.0
 62
     5
 63
     8
 74
     1
 91
        4
 64
     7
 65
   257
 75
     1
175
     1
 42
1.0
 92
        8
 66
     8
 43
1.0
 76
     1
 77
     6
 78
     2
 67
     7
 79
     5
170
     0
171
     0
290
     0
174
     0
 93
        1
 44
0.0
173
     0
291
     1
 45
0.0
1001
ACAD
1000
AcDbSavedByObjectVersion
1070
     0
  0
VISUALSTYLE
  5
A577
102
{ACAD_XDICTIONARY
360
A5D8
102
}
102
{ACAD_REACTORS
330
A56E
102
}
330
A56E
100
AcDbVisualStyle
  2
Conceptual
 70
     9
 71
     3
 72
     2
 73
     0
 90
        0
 40
-0.6
 41
-30.0
 62
     5
 63
     7
 74
     2
 91
        2
 64
     7
 65
   257
 75
     1
175
     1
 42
179.0
 92
        8
 66
     7
 43
1.0
 76
     1
 77
     6
 78
     2
 67
     7
 79
     3
170
     0
171
     0
290
     0
174
     0
 93
        1
 44
0.0
173
     0
291
     0
 45
0.0
1001
ACAD
1000
AcDbSavedByObjectVersion
1070
     0
  0
VISUALSTYLE
  5
A579
102
{ACAD_XDICTIONARY
360
A5DC
102
}
102
{ACAD_REACTORS
330
A56E
102
}
330
A56E
100
AcDbVisualStyle
  2
Dim
 70
    11
 71
     2
 72
     2
 73
     0
 90
        0
 40
-0.6
 41
-30.0
 62
     5
 63
     7
 74
     1
 91
        4
 64
     7
 65
   257
 75
     1
175
     1
 42
1.0
 92
        8
 66
     7
 43
1.0
 76
     1
 77
     6
 78
     2
 67
     7
 79
     5
170
     0
171
     0
290
     0
174
     0
 93
        1
 44
-50.0
173
     0
291
     1
 45
0.0
1001
ACAD
1000
AcDbSavedByObjectVersion
1070
     0
  0
VISUALSTYLE
  5
A586
102
{ACAD_XDICTIONARY
360
A5F6
102
}
102
{ACAD_REACTORS
330
A56E
102
}
330
A56E
100
AcDbVisualStyle
  2
EdgeColorOff
 70
    22
 71
     2
 72
     2
 73
     0
 90
        0
 40
-0.6
 41
-30.0
 62
     5
 63
     7
 74
     1
 91
        4
 64
     7
 65
   257
 75
     1
175
     1
 42
1.0
 92
        8
 66
     7
 43
1.0
 76
     1
 77
     6
 78
     2
 67
     7
 79
     5
170
     0
171
     0
290
     0
174
     0
 93
        1
 44
0.0
173
     0
291
     1
 45
0.0
1001
ACAD
1000
AcDbSavedByObjectVersion
1070
     0
  0
VISUALSTYLE
  5
A57D
102
{ACAD_XDICTIONARY
360
A5E4
102
}
102
{ACAD_REACTORS
330
A56E
102
}
330
A56E
100
AcDbVisualStyle
  2
Facepattern
 70
    15
 71
     2
 72
     2
 73
     0
 90
        0
 40
-0.6
 41
-30.0
 62
     5
 63
     7
 74
     1
 91
        4
 64
     7
 65
   257
 75
     1
175
     1
 42
1.0
 92
        8
 66
     7
 43
1.0
 76
     1
 77
     6
 78
     2
 67
     7
 79
     5
170
     0
171
     0
290
     0
174
     0
 93
        1
 44
0.0
173
     0
291
     1
 45
0.0
1001
ACAD
1000
AcDbSavedByObjectVersion
1070
     0
  0
VISUALSTYLE
  5
A56F
102
{ACAD_XDICTIONARY
360
A5C8
102
}
102
{ACAD_REACTORS
330
A56E
102
}
330
A56E
100
AcDbVisualStyle
  2
Flat
 70
     0
 71
     2
 72
     1
 73
     1
 90
        2
 40
-0.6
 41
30.0
 62
     5
 63
     7
 74
     0
 91
        0
 64
     7
 65
   257
 75
     1
175
     1
 42
1.0
 92
        8
 66
     7
 43
1.0
 76
     1
 77
     6
 78
     2
 67
     7
 79
     5
170
     0
171
     0
290
     0
174
     0
 93
       13
 44
0.0
173
     0
291
     1
 45
0.0
1001
ACAD
1000
AcDbSavedByObjectVersion
1070
     0
  0
VISUALSTYLE
  5
A570
102
{ACAD_XDICTIONARY
360
A5CA
102
}
102
{ACAD_REACTORS
330
A56E
102
}
330
A56E
100
AcDbVisualStyle
  2
FlatWithEdges
 70
     1
 71
     2
 72
     1
 73
     1
 90
        2
 40
-0.6
 41
30.0
 62
     5
 63
     7
 74
     1
 91
        0
 64
     7
 65
   257
 75
     1
175
     1
 42
1.0
 92
        0
 66
   257
 43
1.0
 76
     1
 77
     6
 78
     2
 67
     7
 79
     5
170
     0
171
     0
290
     0
174
     0
 93
       13
 44
0.0
173
     0
291
     1
 45
0.0
1001
ACAD
1000
AcDbSavedByObjectVersion
1070
     0
  0
VISUALSTYLE
  5
A571
102
{ACAD_XDICTIONARY
360
A5CC
102
}
102
{ACAD_REACTORS
330
A56E
102
}
330
A56E
100
AcDbVisualStyle
  2
Gouraud
 70
     2
 71
     2
 72
     2
 73
     1
 90
        2
 40
-0.6
 41
30.0
 62
     5
 63
     7
 74
     0
 91
        0
 64
     7
 65
   257
 75
     1
175
     1
 42
1.0
 92
        0
 66
     7
 43
1.0
 76
     1
 77
     6
 78
     2
 67
     7
 79
     5
170
     0
171
     0
290
     0
174
     0
 93
       13
 44
0.0
173
     0
291
     1
 45
0.0
1001
ACAD
1000
AcDbSavedByObjectVersion
1070
     0
  0
VISUALSTYLE
  5
A572
102
{ACAD_XDICTIONARY
360
A5CE
102
}
102
{ACAD_REACTORS
330
A56E
102
}
330
A56E
100
AcDbVisualStyle
  2
GouraudWithEdges
 70
     3
 71
     2
 72
     2
 73
     1
 90
        2
 40
-0.6
 41
30.0
 62
     5
 63
     7
 74
     1
 91
        0
 64
     7
 65
   257
 75
     1
175
     1
 42
1.0
 92
        0
 66
   257
 43
1.0
 76
     1
 77
     6
 78
     2
 67
     7
 79
     5
170
     0
171
     0
290
     0
174
     0
 93
       13
 44
0.0
173
     0
291
     1
 45
0.0
1001
ACAD
1000
AcDbSavedByObjectVersion
1070
     0
  0
VISUALSTYLE
  5
A576
102
{ACAD_XDICTIONARY
360
A5D6
102
}
102
{ACAD_REACTORS
330
A56E
102
}
330
A56E
100
AcDbVisualStyle
  2
Hidden
 70
     6
 71
     1
 72
     2
 73
     2
 90
        0
 40
-0.6
 41
-30.0
 62
     5
 63
     7
 74
     2
 91
        2
 64
     7
 65
   257
 75
     2
175
     1
 42
40.0
 92
        0
 66
   257
 43
1.0
 76
     1
 77
     6
 78
     2
 67
     7
 79
     3
170
     0
171
     0
290
     0
174
     0
 93
        1
 44
0.0
173
     0
291
     0
 45
0.0
1001
ACAD
1000
AcDbSavedByObjectVersion
1070
     0
  0
VISUALSTYLE
  5
A584
102
{ACAD_XDICTIONARY
360
A5F2
102
}
102
{ACAD_REACTORS
330
A56E
102
}
330
A56E
100
AcDbVisualStyle
  2
JitterOff
 70
    20
 71
     2
 72
     2
 73
     0
 90
        0
 40
-0.6
 41
-30.0
 62
     5
 63
     7
 74
     1
 91
        4
 64
     7
 65
   257
 75
     1
175
     1
 42
1.0
 92
       10
 66
     7
 43
1.0
 76
     1
 77
     6
 78
     2
 67
     7
 79
     5
170
     0
171
     0
290
     0
174
     0
 93
        1
 44
0.0
173
     0
291
     1
 45
0.0
1001
ACAD
1000
AcDbSavedByObjectVersion
1070
     0
  0
VISUALSTYLE
  5
A57C
102
{ACAD_XDICTIONARY
360
A5E2
102
}
102
{ACAD_REACTORS
330
A56E
102
}
330
A56E
100
AcDbVisualStyle
  2
Linepattern
 70
    14
 71
     2
 72
     2
 73
     0
 90
        0
 40
-0.6
 41
-30.0
 62
     5
 63
     7
 74
     1
 91
        4
 64
     7
 65
   257
 75
     7
175
     7
 42
1.0
 92
        8
 66
     7
 43
1.0
 76
     1
 77
     6
 78
     2
 67
     7
 79
     5
170
     0
171
     0
290
     0
174
     0
 93
        1
 44
0.0
173
     0
291
     1
 45
0.0
1001
ACAD
1000
AcDbSavedByObjectVersion
1070
     0
  0
VISUALSTYLE
  5
A585
102
{ACAD_XDICTIONARY
360
A5F4
102
}
102
{ACAD_REACTORS
330
A56E
102
}
330
A56E
100
AcDbVisualStyle
  2
OverhangOff
 70
    21
 71
     2
 72
     2
 73
     0
 90
        0
 40
-0.6
 41
-30.0
 62
     5
 63
     7
 74
     1
 91
        4
 64
     7
 65
   257
 75
     1
175
     1
 42
1.0
 92
        9
 66
     7
 43
1.0
 76
     1
 77
     6
 78
     2
 67
     7
 79
     5
170
     0
171
     0
290
     0
174
     0
 93
        1
 44
0.0
173
     0
291
     1
 45
0.0
1001
ACAD
1000
AcDbSavedByObjectVersion
1070
     0
  0
VISUALSTYLE
  5
A578
102
{ACAD_XDICTIONARY
360
A5DA
102
}
102
{ACAD_REACTORS
330
A56E
102
}
330
A56E
100
AcDbVisualStyle
  2
Realistic
 70
     8
 71
     2
 72
     3
 73
     0
 90
        2
 40
-0.6
 41
30.0
 62
     5
 63
     7
 74
     0
 91
        0
 64
     7
 65
   257
 75
     1
175
     1
 42
1.0
 92
        8
 66
   257
 43
1.0
 76
     1
 77
     6
 78
     2
 67
     7
 79
     3
170
     0
171
     0
290
     0
174
     0
 93
       13
 44
0.0
173
     0
291
     0
 45
0.0
1001
ACAD
1000
AcDbSavedByObjectVersion
1070
     0
  0
VISUALSTYLE
  5
A583
102
{ACAD_XDICTIONARY
360
A5F0
102
}
102
{ACAD_REACTORS
330
A56E
102
}
330
A56E
100
AcDbVisualStyle
  2
Shaded
 70
    27
 71
     2
 72
     2
 73
     1
 90
        2
 40
-0.6
 41
30.0
 62
     5
 63
     7
 74
     0
 91
        4
 64
     7
 65
   257
 75
     1
175
     1
 42
1.0
 92
        8
 66
   257
 43
1.0
 76
     1
 77
     6
 78
     2
 67
     8
 79
     3
170
     0
171
     0
290
     0
174
     0
 93
        5
 44
0.0
173
     0
291
     0
 45
0.0
1001
ACAD
1000
AcDbSavedByObjectVersion
1070
     0
  0
VISUALSTYLE
  5
A582
102
{ACAD_XDICTIONARY
360
A5EE
102
}
102
{ACAD_REACTORS
330
A56E
102
}
330
A56E
100
AcDbVisualStyle
  2
Shaded with edges
 70
    26
 71
     2
 72
     2
 73
     1
 90
        2
 40
-0.6
 41
30.0
 62
     5
 63
     7
 74
     1
 91
       10
 64
     7
 65
   257
 75
     2
175
     1
 42
1.0
 92
        8
 66
   257
 43
1.0
 76
     1
 77
     6
 78
     2
 67
     7
 79
     3
170
     0
171
     0
290
     0
174
     0
 93
        5
 44
0.0
173
     0
291
     0
 45
0.0
1001
ACAD
1000
AcDbSavedByObjectVersion
1070
     0
  0
VISUALSTYLE
  5
A57F
102
{ACAD_XDICTIONARY
360
A5E8
102
}
102
{ACAD_REACTORS
330
A56E
102
}
330
A56E
100
AcDbVisualStyle
  2
Shades of Gray
 70
    23
 71
     2
 72
     2
 73
     3
 90
        0
 40
-0.6
 41
-30.0
 62
     5
 63
     7
 74
     2
 91
        2
 64
     7
 65
     7
 75
     1
175
     1
 42
40.0
 92
        8
 66
     7
 43
1.0
 76
     1
 77
     6
 78
     2
 67
     7
 79
     3
170
     0
171
     0
290
     0
174
     0
 93
        1
 44
0.0
173
     0
291
     0
 45
0.0
1001
ACAD
1000
AcDbSavedByObjectVersion
1070
     0
  0
VISUALSTYLE
  5
A580
102
{ACAD_XDICTIONARY
360
A5EA
102
}
102
{ACAD_REACTORS
330
A56E
102
}
330
A56E
100
AcDbVisualStyle
  2
Sketchy
 70
    24
 71
     1
 72
     2
 73
     2
 90
        0
 40
-0.6
 41
-30.0
 62
     5
 63
     7
 74
     2
 91
        2
 64
     7
 65
     7
 75
     1
175
     1
 42
40.0
 92
       11
 66
     7
 43
1.0
 76
     1
 77
     6
 78
     2
 67
     7
 79
     6
170
     0
171
     0
290
     0
174
     0
 93
        1
 44
0.0
173
     0
291
     0
 45
0.0
1001
ACAD
1000
AcDbSavedByObjectVersion
1070
     0
  0
VISUALSTYLE
  5
A57B
102
{ACAD_XDICTIONARY
360
A5E0
102
}
102
{ACAD_REACTORS
330
A56E
102
}
330
A56E
100
AcDbVisualStyle
  2
Thicken
 70
    13
 71
     2
 72
     2
 73
     0
 90
        0
 40
-0.6
 41
-30.0
 62
     5
 63
     7
 74
     1
 91
        4
 64
     7
 65
   257
 75
     1
175
     1
 42
1.0
 92
       12
 66
     7
 43
1.0
 76
     1
 77
     6
 78
     2
 67
     7
 79
     5
170
     0
171
     0
290
     0
174
     0
 93
        1
 44
0.0
173
     0
291
     1
 45
0.0
1001
ACAD
1000
AcDbSavedByObjectVersion
1070
     0
  0
VISUALSTYLE
  5
A575
102
{ACAD_XDICTIONARY
360
A5D4
102
}
102
{ACAD_REACTORS
330
A56E
102
}
330
A56E
100
AcDbVisualStyle
  2
Wireframe
 70
     5
 71
     0
 72
     2
 73
     0
 90
        0
 40
-0.6
 41
-30.0
 62
     5
 63
     7
 74
     1
 91
        4
 64
     7
 65
   257
 75
     1
175
     1
 42
1.0
 92
        0
 66
   257
 43
1.0
 76
     1
 77
     6
 78
     2
 67
     7
 79
     3
170
     0
171
     0
290
     0
174
     0
 93
        1
 44
0.0
173
     0
291
     0
 45
0.0
1001
ACAD
1000
AcDbSavedByObjectVersion
1070
     0
  0
VISUALSTYLE
  5
A581
102
{ACAD_XDICTIONARY
360
A5EC
102
}
102
{ACAD_REACTORS
330
A56E
102
}
330
A56E
100
AcDbVisualStyle
  2
X-Ray
 70
    25
 71
     2
 72
     2
 73
     1
 90
        1
 40
0.5
 41
-30.0
 62
     5
 63
     7
 74
     1
 91
        0
 64
     7
 65
   257
 75
     1
175
     1
 42
1.0
 92
        8
 66
     7
 43
1.0
 76
     1
 77
     6
 78
     2
 67
     7
 79
     3
170
     0
171
     0
290
     0
174
     0
 93
       13
 44
0.0
173
     0
291
     0
 45
0.0
1001
ACAD
1000
AcDbSavedByObjectVersion
1070
     0
  0
DICTIONARYVAR
  5
A5BB
102
{ACAD_REACTORS
330
A5B6
102
}
330
A5B6
100
DictionaryVariables
280
     0
  1
1:1
  0
DICTIONARYVAR
  5
A5B8
102
{ACAD_REACTORS
330
A5B6
102
}
330
A5B6
100
DictionaryVariables
280
     0
  1
STANDARD
  0
DICTIONARYVAR
  5
A5B7
102
{ACAD_REACTORS
330
A5B6
102
}
330
A5B6
100
DictionaryVariables
280
     0
  1
STANDARD
  0
DICTIONARYVAR
  5
A5B9
102
{ACAD_REACTORS
330
A5B6
102
}
330
A5B6
100
DictionaryVariables
280
     0
  1
Imperial24
  0
DICTIONARYVAR
  5
A5BA
102
{ACAD_REACTORS
330
A5B6
102
}
330
A5B6
100
DictionaryVariables
280
     0
  1
Imperial24
  0
DICTIONARYVAR
  5
A5BE
102
{ACAD_REACTORS
330
A5B6
102
}
330
A5B6
100
DictionaryVariables
280
     0
  1
1
  0
DICTIONARYVAR
  5
A5BD
102
{ACAD_REACTORS
330
A5B6
102
}
330
A5B6
100
DictionaryVariables
280
     0
  1
0
  0
DICTIONARYVAR
  5
A5BC
102
{ACAD_REACTORS
330
A5B6
102
}
330
A5B6
100
DictionaryVariables
280
     0
  1
127
  0
DICTIONARYVAR
  5
A5BF
102
{ACAD_REACTORS
330
A5B6
102
}
330
A5B6
100
DictionaryVariables
280
     0
  1
2
  0
DICTIONARY
  5
A5FC
330
A5A1
100
AcDbDictionary
280
     1
281
     1
  3
ACAD_XREC_ROUNDTRIP
360
A5FD
  0
DICTIONARY
  5
A5FE
330
A5A2
100
AcDbDictionary
280
     1
281
     1
  3
ACAD_XREC_ROUNDTRIP
360
A5FF
  0
DICTIONARY
  5
A600
330
A5A3
100
AcDbDictionary
280
     1
281
     1
  3
ACAD_XREC_ROUNDTRIP
360
A601
  0
DICTIONARY
  5
A55F
330
A55E
100
AcDbDictionary
280
     1
281
     1
  3
ACAD_XREC_ROUNDTRIP
360
A5C6
  3
BUMPTILE
360
A561
  3
DIFFUSETILE
360
A560
  3
OPACITYTILE
360
A564
  3
REFLECTIONTILE
360
A563
  3
REFRACTIONTILE
360
A565
  3
SPECULARTILE
360
A562
  0
DICTIONARY
  5
A557
330
A556
100
AcDbDictionary
280
     1
281
     1
  3
ACAD_XREC_ROUNDTRIP
360
A5C5
  3
BUMPTILE
360
A559
  3
DIFFUSETILE
360
A558
  3
OPACITYTILE
360
A55C
  3
REFLECTIONTILE
360
A55B
  3
REFRACTIONTILE
360
A55D
  3
SPECULARTILE
360
A55A
  0
DICTIONARY
  5
A567
330
A566
100
AcDbDictionary
280
     1
281
     1
  3
ACAD_XREC_ROUNDTRIP
360
A5C7
  3
BUMPTILE
360
A569
  3
DIFFUSETILE
360
A568
  3
OPACITYTILE
360
A56C
  3
REFLECTIONTILE
360
A56B
  3
REFRACTIONTILE
360
A56D
  3
SPECULARTILE
360
A56A
  0
DICTIONARY
  5
A5FA
330
A59F
100
AcDbDictionary
280
     1
281
     1
  3
ACAD_XREC_ROUNDTRIP
360
A5FB
  0
DICTIONARY
  5
A5C1
330
A589
100
AcDbDictionary
280
     1
281
     1
  3
ACAD_ROUNDTRIP_2008_TABLESTYLE_CELLSTYLEMAP
360
A5C2
  3
ACAD_XREC_ROUNDTRIP
360
A5F8
  0
DICTIONARY
  5
A5D2
330
A574
100
AcDbDictionary
280
     1
281
     1
  3
ACAD_XREC_ROUNDTRIP
360
A5D3
  0
DICTIONARY
  5
A5D0
330
A573
100
AcDbDictionary
280
     1
281
     1
  3
ACAD_XREC_ROUNDTRIP
360
A5D1
  0
DICTIONARY
  5
A5DE
330
A57A
100
AcDbDictionary
280
     1
281
     1
  3
ACAD_XREC_ROUNDTRIP
360
A5DF
  0
DICTIONARY
  5
A5E6
330
A57E
100
AcDbDictionary
280
     1
281
     1
  3
ACAD_XREC_ROUNDTRIP
360
A5E7
  0
DICTIONARY
  5
A5D8
330
A577
100
AcDbDictionary
280
     1
281
     1
  3
ACAD_XREC_ROUNDTRIP
360
A5D9
  0
DICTIONARY
  5
A5DC
330
A579
100
AcDbDictionary
280
     1
281
     1
  3
ACAD_XREC_ROUNDTRIP
360
A5DD
  0
DICTIONARY
  5
A5F6
330
A586
100
AcDbDictionary
280
     1
281
     1
  3
ACAD_XREC_ROUNDTRIP
360
A5F7
  0
DICTIONARY
  5
A5E4
330
A57D
100
AcDbDictionary
280
     1
281
     1
  3
ACAD_XREC_ROUNDTRIP
360
A5E5
  0
DICTIONARY
  5
A5C8
330
A56F
100
AcDbDictionary
280
     1
281
     1
  3
ACAD_XREC_ROUNDTRIP
360
A5C9
  0
DICTIONARY
  5
A5CA
330
A570
100
AcDbDictionary
280
     1
281
     1
  3
ACAD_XREC_ROUNDTRIP
360
A5CB
  0
DICTIONARY
  5
A5CC
330
A571
100
AcDbDictionary
280
     1
281
     1
  3
ACAD_XREC_ROUNDTRIP
360
A5CD
  0
DICTIONARY
  5
A5CE
330
A572
100
AcDbDictionary
280
     1
281
     1
  3
ACAD_XREC_ROUNDTRIP
360
A5CF
  0
DICTIONARY
  5
A5D6
330
A576
100
AcDbDictionary
280
     1
281
     1
  3
ACAD_XREC_ROUNDTRIP
360
A5D7
  0
DICTIONARY
  5
A5F2
330
A584
100
AcDbDictionary
280
     1
281
     1
  3
ACAD_XREC_ROUNDTRIP
360
A5F3
  0
DICTIONARY
  5
A5E2
330
A57C
100
AcDbDictionary
280
     1
281
     1
  3
ACAD_XREC_ROUNDTRIP
360
A5E3
  0
DICTIONARY
  5
A5F4
330
A585
100
AcDbDictionary
280
     1
281
     1
  3
ACAD_XREC_ROUNDTRIP
360
A5F5
  0
DICTIONARY
  5
A5DA
330
A578
100
AcDbDictionary
280
     1
281
     1
  3
ACAD_XREC_ROUNDTRIP
360
A5DB
  0
DICTIONARY
  5
A5F0
330
A583
100
AcDbDictionary
280
     1
281
     1
  3
ACAD_XREC_ROUNDTRIP
360
A5F1
  0
DICTIONARY
  5
A5EE
330
A582
100
AcDbDictionary
280
     1
281
     1
  3
ACAD_XREC_ROUNDTRIP
360
A5EF
  0
DICTIONARY
  5
A5E8
330
A57F
100
AcDbDictionary
280
     1
281
     1
  3
ACAD_XREC_ROUNDTRIP
360
A5E9
  0
DICTIONARY
  5
A5EA
330
A580
100
AcDbDictionary
280
     1
281
     1
  3
ACAD_XREC_ROUNDTRIP
360
A5EB
  0
DICTIONARY
  5
A5E0
330
A57B
100
AcDbDictionary
280
     1
281
     1
  3
ACAD_XREC_ROUNDTRIP
360
A5E1
  0
DICTIONARY
  5
A5D4
330
A575
100
AcDbDictionary
280
     1
281
     1
  3
ACAD_XREC_ROUNDTRIP
360
A5D5
  0
DICTIONARY
  5
A5EC
330
A581
100
AcDbDictionary
280
     1
281
     1
  3
ACAD_XREC_ROUNDTRIP
360
A5ED
  0
XRECORD
  5
A5FD
102
{ACAD_REACTORS
330
A5FC
102
}
330
A5FC
100
AcDbXrecord
280
     1
102
DISPLAYNAME
  1
Imperial24
102
FLAGS
 90
        0
  0
XRECORD
  5
A5FF
102
{ACAD_REACTORS
330
A5FE
102
}
330
A5FE
100
AcDbXrecord
280
     1
102
SHADEPLOT
 70
     0
102
SHADEPLOTRESLEVEL
 70
     2
102
SHADEPLOTCUSTOMDPI
 70
   300
  0
XRECORD
  5
A601
102
{ACAD_REACTORS
330
A600
102
}
330
A600
100
AcDbXrecord
280
     1
102
SHADEPLOT
 70
     0
102
SHADEPLOTRESLEVEL
 70
     2
102
SHADEPLOTCUSTOMDPI
 70
   300
  0
XRECORD
  5
A5C6
102
{ACAD_REACTORS
330
A55F
102
}
330
A55F
100
AcDbXrecord
280
     1
102
MATERIAL
148
0.0
149
0.0
149
0.0
 93
        0
 94
      127
282
     0
 72
     0
 77
     0
171
     0
175
     0
179
     0
273
     0
  0
XRECORD
  5
A561
102
{ACAD_REACTORS
330
A55F
102
}
330
A55F
100
AcDbXrecord
280
     1
270
     1
271
     1
  0
XRECORD
  5
A560
102
{ACAD_REACTORS
330
A55F
102
}
330
A55F
100
AcDbXrecord
280
     1
270
     1
271
     1
  0
XRECORD
  5
A564
102
{ACAD_REACTORS
330
A55F
102
}
330
A55F
100
AcDbXrecord
280
     1
270
     1
271
     1
  0
XRECORD
  5
A563
102
{ACAD_REACTORS
330
A55F
102
}
330
A55F
100
AcDbXrecord
280
     1
270
     1
271
     1
  0
XRECORD
  5
A565
102
{ACAD_REACTORS
330
A55F
102
}
330
A55F
100
AcDbXrecord
280
     1
270
     1
271
     1
  0
XRECORD
  5
A562
102
{ACAD_REACTORS
330
A55F
102
}
330
A55F
100
AcDbXrecord
280
     1
270
     1
271
     1
  0
XRECORD
  5
A5C5
102
{ACAD_REACTORS
330
A557
102
}
330
A557
100
AcDbXrecord
280
     1
102
MATERIAL
148
0.0
149
0.0
149
0.0
 93
        0
 94
      127
282
     0
 72
     0
 77
     0
171
     0
175
     0
179
     0
273
     0
  0
XRECORD
  5
A559
102
{ACAD_REACTORS
330
A557
102
}
330
A557
100
AcDbXrecord
280
     1
270
     1
271
     1
  0
XRECORD
  5
A558
102
{ACAD_REACTORS
330
A557
102
}
330
A557
100
AcDbXrecord
280
     1
270
     1
271
     1
  0
XRECORD
  5
A55C
102
{ACAD_REACTORS
330
A557
102
}
330
A557
100
AcDbXrecord
280
     1
270
     1
271
     1
  0
XRECORD
  5
A55B
102
{ACAD_REACTORS
330
A557
102
}
330
A557
100
AcDbXrecord
280
     1
270
     1
271
     1
  0
XRECORD
  5
A55D
102
{ACAD_REACTORS
330
A557
102
}
330
A557
100
AcDbXrecord
280
     1
270
     1
271
     1
  0
XRECORD
  5
A55A
102
{ACAD_REACTORS
330
A557
102
}
330
A557
100
AcDbXrecord
280
     1
270
     1
271
     1
  0
XRECORD
  5
A5C7
102
{ACAD_REACTORS
330
A567
102
}
330
A567
100
AcDbXrecord
280
     1
102
MATERIAL
148
0.0
149
0.0
149
0.0
 93
        0
 94
      127
282
     0
 72
     0
 77
     0
171
     0
175
     0
179
     0
273
     0
  0
XRECORD
  5
A569
102
{ACAD_REACTORS
330
A567
102
}
330
A567
100
AcDbXrecord
280
     1
270
     1
271
     1
  0
XRECORD
  5
A568
102
{ACAD_REACTORS
330
A567
102
}
330
A567
100
AcDbXrecord
280
     1
270
     1
271
     1
  0
XRECORD
  5
A56C
102
{ACAD_REACTORS
330
A567
102
}
330
A567
100
AcDbXrecord
280
     1
270
     1
271
     1
  0
XRECORD
  5
A56B
102
{ACAD_REACTORS
330
A567
102
}
330
A567
100
AcDbXrecord
280
     1
270
     1
271
     1
  0
XRECORD
  5
A56D
102
{ACAD_REACTORS
330
A567
102
}
330
A567
100
AcDbXrecord
280
     1
270
     1
271
     1
  0
XRECORD
  5
A56A
102
{ACAD_REACTORS
330
A567
102
}
330
A567
100
AcDbXrecord
280
     1
270
     1
271
     1
  0
XRECORD
  5
A5FB
102
{ACAD_REACTORS
330
A5FA
102
}
330
A5FA
100
AcDbXrecord
280
     1
102
DISPLAYNAME
  1
Imperial24
102
FLAGS
 90
        0
  0
CELLSTYLEMAP
  5
A5C2
102
{ACAD_REACTORS
330
A5C1
102
}
330
A5C1
100
AcDbCellStyleMap
 90
        3
300
CELLSTYLE
  1
TABLEFORMAT_BEGIN
 90
        5
170
     1
 91
        0
 92
    32768
 62
   257
 93
        1
300
CONTENTFORMAT
  1
CONTENTFORMAT_BEGIN
 90
        0
 91
        0
 92
      512
 93
        0
300

 40
0.0
140
1.0
 94
        5
 62
     0
340
A227
144
0.25
309
CONTENTFORMAT_END
171
     0
 94
        0
309
TABLEFORMAT_END
  1
CELLSTYLE_BEGIN
 90
        1
 91
        1
300
_TITLE
309
CELLSTYLE_END
300
CELLSTYLE
  1
TABLEFORMAT_BEGIN
 90
        5
170
     1
 91
        0
 92
        0
 62
   257
 93
        1
300
CONTENTFORMAT
  1
CONTENTFORMAT_BEGIN
 90
        0
 91
        0
 92
      512
 93
        0
300

 40
0.0
140
1.0
 94
        5
 62
     0
340
A227
144
0.18
309
CONTENTFORMAT_END
171
     0
 94
        0
309
TABLEFORMAT_END
  1
CELLSTYLE_BEGIN
 90
        2
 91
        1
300
_HEADER
309
CELLSTYLE_END
300
CELLSTYLE
  1
TABLEFORMAT_BEGIN
 90
        5
170
     1
 91
        0
 92
        0
 62
   257
 93
        1
300
CONTENTFORMAT
  1
CONTENTFORMAT_BEGIN
 90
        0
 91
        0
 92
      512
 93
        0
300

 40
0.0
140
1.0
 94
        2
 62
     0
340
A227
144
0.18
309
CONTENTFORMAT_END
171
     0
 94
        0
309
TABLEFORMAT_END
  1
CELLSTYLE_BEGIN
 90
        3
 91
        2
300
_DATA
309
CELLSTYLE_END
  0
XRECORD
  5
A5F8
102
{ACAD_REACTORS
330
A5C1
102
}
330
A5C1
100
AcDbXrecord
280
     1
102
ACAD_ROUNDTRIP_PRE2007_TABLESTYLE
 90
      512
 91
        0
  1

 92
      512
 93
        0
  2

 94
      512
 95
        0
  3

  0
XRECORD
  5
A5D3
102
{ACAD_REACTORS
330
A5D2
102
}
330
A5D2
100
AcDbXrecord
280
     1
102
RTVSPost2010Prop28
280
     1
102
RTVSPost2010PropOp28
 70
     1
102
RTVSPost2010Prop29
280
     1
102
RTVSPost2010PropOp29
 70
     1
102
RTVSPost2010Prop30
280
     0
102
RTVSPost2010PropOp30
 70
     1
102
RTVSPost2010Prop31
280
     0
102
RTVSPost2010PropOp31
 70
     1
102
RTVSPost2010Prop32
280
     0
102
RTVSPost2010PropOp32
 70
     1
102
RTVSPost2010Prop33
280
     0
102
RTVSPost2010PropOp33
 70
     1
102
RTVSPost2010Prop34
280
     0
102
RTVSPost2010PropOp34
 70
     1
102
RTVSPost2010Prop35
280
     0
102
RTVSPost2010PropOp35
 70
     1
102
RTVSPost2010Prop36
280
     0
102
RTVSPost2010PropOp36
 70
     1
102
RTVSPost2010Prop37
 90
       50
102
RTVSPost2010PropOp37
 70
     1
102
RTVSPost2010Prop38
140
0.0
102
RTVSPost2010PropOp38
 70
     1
102
RTVSPost2010Prop39
140
1.0
102
RTVSPost2010PropOp39
 70
     1
102
RTVSPost2010Prop40
 90
        0
102
RTVSPost2010PropOp40
 70
     1
102
RTVSPost2010Prop41ColorIndex
 90
       18
102
RTVSPost2010Prop41ColorRGB
 90
        0
102
RTVSPost2010PropOp41
 70
     1
102
RTVSPost2010Prop42
 90
       50
102
RTVSPost2010PropOp42
 70
     1
102
RTVSPost2010Prop43
 90
        3
102
RTVSPost2010PropOp43
 70
     1
102
RTVSPost2010Prop44ColorIndex
 90
        5
102
RTVSPost2010Prop44ColorRGB
 90
      255
102
RTVSPost2010PropOp44
 70
     1
102
RTVSPost2010Prop45
280
     0
102
RTVSPost2010PropOp45
 70
     1
102
RTVSPost2010Prop46
 90
       50
102
RTVSPost2010PropOp46
 70
     1
102
RTVSPost2010Prop47
 90
       50
102
RTVSPost2010PropOp47
 70
     1
102
RTVSPost2010Prop48
 90
       50
102
RTVSPost2010PropOp48
 70
     1
102
RTVSPost2010Prop49
280
     0
102
RTVSPost2010PropOp49
 70
     1
102
RTVSPost2010Prop50
 90
       50
102
RTVSPost2010PropOp50
 70
     1
102
RTVSPost2010Prop51ColorIndex
 90
      256
102
RTVSPost2010Prop51ColorRGB
 90
-16777216
102
RTVSPost2010PropOp51
 70
     0
102
RTVSPost2010Prop52
140
1.0
102
RTVSPost2010PropOp52
 70
     0
102
RTVSPost2010Prop53
 90
        2
102
RTVSPost2010PropOp53
 70
     1
102
RTVSPost2010Prop54
  1
strokes_ogs.tif
102
RTVSPost2010PropOp54
 70
     1
102
RTVSPost2010Prop55
280
     0
102
RTVSPost2010PropOp55
 70
     1
102
RTVSPost2010Prop56
140
1.0
102
RTVSPost2010PropOp56
 70
     1
102
RTVSPost2010Prop57
140
1.0
102
RTVSPost2010PropOp57
 70
     1
102
RTVSPropertyOp0
 70
     1
102
RTVSPropertyOp1
 70
     1
102
RTVSPropertyOp2
 70
     1
102
RTVSPropertyOp3
 70
     1
102
RTVSPropertyOp4
 70
     1
102
RTVSPropertyOp5
 70
     1
102
RTVSPropertyOp6
 70
     1
102
RTVSPropertyOp7
 70
     1
102
RTVSPropertyOp8
 70
     1
102
RTVSPropertyOp9
 70
     1
102
RTVSPropertyOp10
 70
     1
102
RTVSPropertyOp11
 70
     1
102
RTVSPropertyOp12
 70
     1
102
RTVSPropertyOp13
 70
     1
102
RTVSPropertyOp14
 70
     1
102
RTVSPropertyOp15
 70
     1
102
RTVSPropertyOp16
 70
     1
102
RTVSPropertyOp17
 70
     1
102
RTVSPropertyOp18
 70
     1
102
RTVSPropertyOp19
 70
     1
102
RTVSPropertyOp20
 70
     1
102
RTVSPropertyOp21
 70
     1
102
RTVSPropertyOp22
 70
     1
102
RTVSPropertyOp23
 70
     1
102
RTVSPropertyOp24
 70
     1
102
RTVSPropertyOp25
 70
     1
102
RTVSPropertyOp26
 70
     1
102
RTVSPropertyOp27
 70
     1
102
RTVSPropertyOp28
 70
     1
102
RTVSPropertyOp29
 70
     1
102
RTVSPropertyOp30
 70
     1
102
RTVSPropertyOp31
 70
     1
102
RTVSPropertyOp32
 70
     1
102
RTVSPropertyOp33
 70
     1
102
RTVSPropertyOp34
 70
     1
102
RTVSPropertyOp35
 70
     1
102
RTVSPropertyOp36
 70
     1
102
RTVSPropertyOp37
 70
     1
102
RTVSPropertyOp38
 70
     1
102
RTVSPropertyOp39
 70
     1
102
RTVSPropertyOp40
 70
     1
102
RTVSPropertyOp41
 70
     1
102
RTVSPropertyOp42
 70
     1
102
RTVSPropertyOp43
 70
     1
102
RTVSPropertyOp44
 70
     1
102
RTVSPropertyOp45
 70
     1
102
RTVSPropertyOp46
 70
     1
102
RTVSPropertyOp47
 70
     1
102
RTVSPropertyOp48
 70
     1
102
RTVSPropertyOp49
 70
     1
102
RTVSPropertyOp50
 70
     1
102
RTVSPropertyOp51
 70
     0
102
RTVSPropertyOp52
 70
     0
102
RTVSPropertyOp53
 70
     1
102
RTVSPropertyOp54
 70
     1
102
RTVSPropertyOp55
 70
     1
102
RTVSPropertyOp56
 70
     1
102
RTVSPropertyOp57
 70
     1
102
RTVSPropertyOp58
 70
     1
102
RTVSPropertyOp59
 70
     1
102
RTVSPropertyOp60
 70
     1
102
RTVSPropertyOp61
 70
     1
102
RTVSPropertyOp62
 70
     1
  0
XRECORD
  5
A5D1
102
{ACAD_REACTORS
330
A5D0
102
}
330
A5D0
100
AcDbXrecord
280
     1
102
RTVSPost2010Prop28
280
     0
102
RTVSPost2010PropOp28
 70
     1
102
RTVSPost2010Prop29
280
     1
102
RTVSPost2010PropOp29
 70
     1
102
RTVSPost2010Prop30
280
     1
102
RTVSPost2010PropOp30
 70
     1
102
RTVSPost2010Prop31
280
     0
102
RTVSPost2010PropOp31
 70
     1
102
RTVSPost2010Prop32
280
     0
102
RTVSPost2010PropOp32
 70
     1
102
RTVSPost2010Prop33
280
     0
102
RTVSPost2010PropOp33
 70
     1
102
RTVSPost2010Prop34
280
     0
102
RTVSPost2010PropOp34
 70
     1
102
RTVSPost2010Prop35
280
     0
102
RTVSPost2010PropOp35
 70
     1
102
RTVSPost2010Prop36
280
     0
102
RTVSPost2010PropOp36
 70
     1
102
RTVSPost2010Prop37
 90
       50
102
RTVSPost2010PropOp37
 70
     1
102
RTVSPost2010Prop38
140
0.0
102
RTVSPost2010PropOp38
 70
     1
102
RTVSPost2010Prop39
140
1.0
102
RTVSPost2010PropOp39
 70
     1
102
RTVSPost2010Prop40
 90
        0
102
RTVSPost2010PropOp40
 70
     1
102
RTVSPost2010Prop41ColorIndex
 90
       18
102
RTVSPost2010Prop41ColorRGB
 90
        0
102
RTVSPost2010PropOp41
 70
     1
102
RTVSPost2010Prop42
 90
       50
102
RTVSPost2010PropOp42
 70
     1
102
RTVSPost2010Prop43
 90
        3
102
RTVSPost2010PropOp43
 70
     1
102
RTVSPost2010Prop44ColorIndex
 90
        5
102
RTVSPost2010Prop44ColorRGB
 90
      255
102
RTVSPost2010PropOp44
 70
     1
102
RTVSPost2010Prop45
280
     0
102
RTVSPost2010PropOp45
 70
     1
102
RTVSPost2010Prop46
 90
       50
102
RTVSPost2010PropOp46
 70
     1
102
RTVSPost2010Prop47
 90
       50
102
RTVSPost2010PropOp47
 70
     1
102
RTVSPost2010Prop48
 90
       50
102
RTVSPost2010PropOp48
 70
     1
102
RTVSPost2010Prop49
280
     0
102
RTVSPost2010PropOp49
 70
     1
102
RTVSPost2010Prop50
 90
       50
102
RTVSPost2010PropOp50
 70
     1
102
RTVSPost2010Prop51ColorIndex
 90
      256
102
RTVSPost2010Prop51ColorRGB
 90
-16777216
102
RTVSPost2010PropOp51
 70
     0
102
RTVSPost2010Prop52
140
1.0
102
RTVSPost2010PropOp52
 70
     0
102
RTVSPost2010Prop53
 90
        2
102
RTVSPost2010PropOp53
 70
     1
102
RTVSPost2010Prop54
  1
strokes_ogs.tif
102
RTVSPost2010PropOp54
 70
     1
102
RTVSPost2010Prop55
280
     0
102
RTVSPost2010PropOp55
 70
     1
102
RTVSPost2010Prop56
140
1.0
102
RTVSPost2010PropOp56
 70
     1
102
RTVSPost2010Prop57
140
1.0
102
RTVSPost2010PropOp57
 70
     1
102
RTVSPropertyOp0
 70
     1
102
RTVSPropertyOp1
 70
     1
102
RTVSPropertyOp2
 70
     1
102
RTVSPropertyOp3
 70
     1
102
RTVSPropertyOp4
 70
     1
102
RTVSPropertyOp5
 70
     1
102
RTVSPropertyOp6
 70
     1
102
RTVSPropertyOp7
 70
     1
102
RTVSPropertyOp8
 70
     1
102
RTVSPropertyOp9
 70
     1
102
RTVSPropertyOp10
 70
     1
102
RTVSPropertyOp11
 70
     1
102
RTVSPropertyOp12
 70
     1
102
RTVSPropertyOp13
 70
     1
102
RTVSPropertyOp14
 70
     1
102
RTVSPropertyOp15
 70
     1
102
RTVSPropertyOp16
 70
     1
102
RTVSPropertyOp17
 70
     1
102
RTVSPropertyOp18
 70
     1
102
RTVSPropertyOp19
 70
     1
102
RTVSPropertyOp20
 70
     1
102
RTVSPropertyOp21
 70
     1
102
RTVSPropertyOp22
 70
     1
102
RTVSPropertyOp23
 70
     1
102
RTVSPropertyOp24
 70
     1
102
RTVSPropertyOp25
 70
     1
102
RTVSPropertyOp26
 70
     1
102
RTVSPropertyOp27
 70
     1
102
RTVSPropertyOp28
 70
     1
102
RTVSPropertyOp29
 70
     1
102
RTVSPropertyOp30
 70
     1
102
RTVSPropertyOp31
 70
     1
102
RTVSPropertyOp32
 70
     1
102
RTVSPropertyOp33
 70
     1
102
RTVSPropertyOp34
 70
     1
102
RTVSPropertyOp35
 70
     1
102
RTVSPropertyOp36
 70
     1
102
RTVSPropertyOp37
 70
     1
102
RTVSPropertyOp38
 70
     1
102
RTVSPropertyOp39
 70
     1
102
RTVSPropertyOp40
 70
     1
102
RTVSPropertyOp41
 70
     1
102
RTVSPropertyOp42
 70
     1
102
RTVSPropertyOp43
 70
     1
102
RTVSPropertyOp44
 70
     1
102
RTVSPropertyOp45
 70
     1
102
RTVSPropertyOp46
 70
     1
102
RTVSPropertyOp47
 70
     1
102
RTVSPropertyOp48
 70
     1
102
RTVSPropertyOp49
 70
     1
102
RTVSPropertyOp50
 70
     1
102
RTVSPropertyOp51
 70
     0
102
RTVSPropertyOp52
 70
     0
102
RTVSPropertyOp53
 70
     1
102
RTVSPropertyOp54
 70
     1
102
RTVSPropertyOp55
 70
     1
102
RTVSPropertyOp56
 70
     1
102
RTVSPropertyOp57
 70
     1
102
RTVSPropertyOp58
 70
     1
102
RTVSPropertyOp59
 70
     1
102
RTVSPropertyOp60
 70
     1
102
RTVSPropertyOp61
 70
     1
102
RTVSPropertyOp62
 70
     1
  0
XRECORD
  5
A5DF
102
{ACAD_REACTORS
330
A5DE
102
}
330
A5DE
100
AcDbXrecord
280
     1
102
RTVSPost2010Prop28
280
     0
102
RTVSPost2010PropOp28
 70
     1
102
RTVSPost2010Prop29
280
     1
102
RTVSPost2010PropOp29
 70
     1
102
RTVSPost2010Prop30
280
     1
102
RTVSPost2010PropOp30
 70
     1
102
RTVSPost2010Prop31
280
     0
102
RTVSPost2010PropOp31
 70
     1
102
RTVSPost2010Prop32
280
     0
102
RTVSPost2010PropOp32
 70
     1
102
RTVSPost2010Prop33
280
     0
102
RTVSPost2010PropOp33
 70
     1
102
RTVSPost2010Prop34
280
     0
102
RTVSPost2010PropOp34
 70
     1
102
RTVSPost2010Prop35
280
     0
102
RTVSPost2010PropOp35
 70
     1
102
RTVSPost2010Prop36
280
     0
102
RTVSPost2010PropOp36
 70
     1
102
RTVSPost2010Prop37
 90
       50
102
RTVSPost2010PropOp37
 70
     1
102
RTVSPost2010Prop38
140
0.0
102
RTVSPost2010PropOp38
 70
     1
102
RTVSPost2010Prop39
140
1.0
102
RTVSPost2010PropOp39
 70
     1
102
RTVSPost2010Prop40
 90
        0
102
RTVSPost2010PropOp40
 70
     1
102
RTVSPost2010Prop41ColorIndex
 90
       18
102
RTVSPost2010Prop41ColorRGB
 90
        0
102
RTVSPost2010PropOp41
 70
     1
102
RTVSPost2010Prop42
 90
       50
102
RTVSPost2010PropOp42
 70
     1
102
RTVSPost2010Prop43
 90
        3
102
RTVSPost2010PropOp43
 70
     1
102
RTVSPost2010Prop44ColorIndex
 90
        5
102
RTVSPost2010Prop44ColorRGB
 90
      255
102
RTVSPost2010PropOp44
 70
     1
102
RTVSPost2010Prop45
280
     0
102
RTVSPost2010PropOp45
 70
     1
102
RTVSPost2010Prop46
 90
       50
102
RTVSPost2010PropOp46
 70
     1
102
RTVSPost2010Prop47
 90
       50
102
RTVSPost2010PropOp47
 70
     1
102
RTVSPost2010Prop48
 90
       50
102
RTVSPost2010PropOp48
 70
     1
102
RTVSPost2010Prop49
280
     0
102
RTVSPost2010PropOp49
 70
     1
102
RTVSPost2010Prop50
 90
       50
102
RTVSPost2010PropOp50
 70
     1
102
RTVSPost2010Prop51ColorIndex
 90
      256
102
RTVSPost2010Prop51ColorRGB
 90
-16777216
102
RTVSPost2010PropOp51
 70
     0
102
RTVSPost2010Prop52
140
1.0
102
RTVSPost2010PropOp52
 70
     0
102
RTVSPost2010Prop53
 90
        2
102
RTVSPost2010PropOp53
 70
     1
102
RTVSPost2010Prop54
  1
strokes_ogs.tif
102
RTVSPost2010PropOp54
 70
     1
102
RTVSPost2010Prop55
280
     0
102
RTVSPost2010PropOp55
 70
     1
102
RTVSPost2010Prop56
140
1.0
102
RTVSPost2010PropOp56
 70
     1
102
RTVSPost2010Prop57
140
1.0
102
RTVSPost2010PropOp57
 70
     1
102
RTVSPropertyOp0
 70
     1
102
RTVSPropertyOp1
 70
     1
102
RTVSPropertyOp2
 70
     1
102
RTVSPropertyOp3
 70
     1
102
RTVSPropertyOp4
 70
     1
102
RTVSPropertyOp5
 70
     1
102
RTVSPropertyOp6
 70
     1
102
RTVSPropertyOp7
 70
     1
102
RTVSPropertyOp8
 70
     1
102
RTVSPropertyOp9
 70
     1
102
RTVSPropertyOp10
 70
     1
102
RTVSPropertyOp11
 70
     1
102
RTVSPropertyOp12
 70
     1
102
RTVSPropertyOp13
 70
     1
102
RTVSPropertyOp14
 70
     1
102
RTVSPropertyOp15
 70
     1
102
RTVSPropertyOp16
 70
     1
102
RTVSPropertyOp17
 70
     1
102
RTVSPropertyOp18
 70
     1
102
RTVSPropertyOp19
 70
     1
102
RTVSPropertyOp20
 70
     1
102
RTVSPropertyOp21
 70
     1
102
RTVSPropertyOp22
 70
     1
102
RTVSPropertyOp23
 70
     1
102
RTVSPropertyOp24
 70
     1
102
RTVSPropertyOp25
 70
     1
102
RTVSPropertyOp26
 70
     1
102
RTVSPropertyOp27
 70
     1
102
RTVSPropertyOp28
 70
     1
102
RTVSPropertyOp29
 70
     1
102
RTVSPropertyOp30
 70
     1
102
RTVSPropertyOp31
 70
     1
102
RTVSPropertyOp32
 70
     1
102
RTVSPropertyOp33
 70
     1
102
RTVSPropertyOp34
 70
     1
102
RTVSPropertyOp35
 70
     1
102
RTVSPropertyOp36
 70
     1
102
RTVSPropertyOp37
 70
     1
102
RTVSPropertyOp38
 70
     1
102
RTVSPropertyOp39
 70
     1
102
RTVSPropertyOp40
 70
     1
102
RTVSPropertyOp41
 70
     1
102
RTVSPropertyOp42
 70
     1
102
RTVSPropertyOp43
 70
     1
102
RTVSPropertyOp44
 70
     1
102
RTVSPropertyOp45
 70
     1
102
RTVSPropertyOp46
 70
     1
102
RTVSPropertyOp47
 70
     1
102
RTVSPropertyOp48
 70
     1
102
RTVSPropertyOp49
 70
     1
102
RTVSPropertyOp50
 70
     1
102
RTVSPropertyOp51
 70
     0
102
RTVSPropertyOp52
 70
     0
102
RTVSPropertyOp53
 70
     1
102
RTVSPropertyOp54
 70
     1
102
RTVSPropertyOp55
 70
     1
102
RTVSPropertyOp56
 70
     1
102
RTVSPropertyOp57
 70
     1
102
RTVSPropertyOp58
 70
     1
102
RTVSPropertyOp59
 70
     1
102
RTVSPropertyOp60
 70
     1
102
RTVSPropertyOp61
 70
     1
102
RTVSPropertyOp62
 70
     1
  0
XRECORD
  5
A5E7
102
{ACAD_REACTORS
330
A5E6
102
}
330
A5E6
100
AcDbXrecord
280
     1
102
RTVSPost2010Prop28
280
     0
102
RTVSPost2010PropOp28
 70
     1
102
RTVSPost2010Prop29
280
     1
102
RTVSPost2010PropOp29
 70
     1
102
RTVSPost2010Prop30
280
     1
102
RTVSPost2010PropOp30
 70
     1
102
RTVSPost2010Prop31
280
     0
102
RTVSPost2010PropOp31
 70
     1
102
RTVSPost2010Prop32
280
     0
102
RTVSPost2010PropOp32
 70
     1
102
RTVSPost2010Prop33
280
     0
102
RTVSPost2010PropOp33
 70
     1
102
RTVSPost2010Prop34
280
     0
102
RTVSPost2010PropOp34
 70
     1
102
RTVSPost2010Prop35
280
     0
102
RTVSPost2010PropOp35
 70
     1
102
RTVSPost2010Prop36
280
     0
102
RTVSPost2010PropOp36
 70
     1
102
RTVSPost2010Prop37
 90
       50
102
RTVSPost2010PropOp37
 70
     1
102
RTVSPost2010Prop38
140
0.0
102
RTVSPost2010PropOp38
 70
     1
102
RTVSPost2010Prop39
140
1.0
102
RTVSPost2010PropOp39
 70
     1
102
RTVSPost2010Prop40
 90
        0
102
RTVSPost2010PropOp40
 70
     1
102
RTVSPost2010Prop41ColorIndex
 90
       18
102
RTVSPost2010Prop41ColorRGB
 90
        0
102
RTVSPost2010PropOp41
 70
     1
102
RTVSPost2010Prop42
 90
       50
102
RTVSPost2010PropOp42
 70
     1
102
RTVSPost2010Prop43
 90
        3
102
RTVSPost2010PropOp43
 70
     1
102
RTVSPost2010Prop44ColorIndex
 90
        5
102
RTVSPost2010Prop44ColorRGB
 90
      255
102
RTVSPost2010PropOp44
 70
     1
102
RTVSPost2010Prop45
280
     0
102
RTVSPost2010PropOp45
 70
     1
102
RTVSPost2010Prop46
 90
       50
102
RTVSPost2010PropOp46
 70
     1
102
RTVSPost2010Prop47
 90
       50
102
RTVSPost2010PropOp47
 70
     1
102
RTVSPost2010Prop48
 90
       50
102
RTVSPost2010PropOp48
 70
     1
102
RTVSPost2010Prop49
280
     0
102
RTVSPost2010PropOp49
 70
     1
102
RTVSPost2010Prop50
 90
       50
102
RTVSPost2010PropOp50
 70
     1
102
RTVSPost2010Prop51ColorIndex
 90
      256
102
RTVSPost2010Prop51ColorRGB
 90
-16777216
102
RTVSPost2010PropOp51
 70
     0
102
RTVSPost2010Prop52
140
1.0
102
RTVSPost2010PropOp52
 70
     0
102
RTVSPost2010Prop53
 90
        2
102
RTVSPost2010PropOp53
 70
     1
102
RTVSPost2010Prop54
  1
strokes_ogs.tif
102
RTVSPost2010PropOp54
 70
     1
102
RTVSPost2010Prop55
280
     0
102
RTVSPost2010PropOp55
 70
     1
102
RTVSPost2010Prop56
140
1.0
102
RTVSPost2010PropOp56
 70
     1
102
RTVSPost2010Prop57
140
1.0
102
RTVSPost2010PropOp57
 70
     1
102
RTVSPropertyOp0
 70
     1
102
RTVSPropertyOp1
 70
     1
102
RTVSPropertyOp2
 70
     1
102
RTVSPropertyOp3
 70
     1
102
RTVSPropertyOp4
 70
     1
102
RTVSPropertyOp5
 70
     1
102
RTVSPropertyOp6
 70
     1
102
RTVSPropertyOp7
 70
     1
102
RTVSPropertyOp8
 70
     1
102
RTVSPropertyOp9
 70
     1
102
RTVSPropertyOp10
 70
     1
102
RTVSPropertyOp11
 70
     1
102
RTVSPropertyOp12
 70
     1
102
RTVSPropertyOp13
 70
     1
102
RTVSPropertyOp14
 70
     1
102
RTVSPropertyOp15
 70
     1
102
RTVSPropertyOp16
 70
     1
102
RTVSPropertyOp17
 70
     1
102
RTVSPropertyOp18
 70
     1
102
RTVSPropertyOp19
 70
     1
102
RTVSPropertyOp20
 70
     1
102
RTVSPropertyOp21
 70
     1
102
RTVSPropertyOp22
 70
     1
102
RTVSPropertyOp23
 70
     1
102
RTVSPropertyOp24
 70
     1
102
RTVSPropertyOp25
 70
     1
102
RTVSPropertyOp26
 70
     1
102
RTVSPropertyOp27
 70
     1
102
RTVSPropertyOp28
 70
     1
102
RTVSPropertyOp29
 70
     1
102
RTVSPropertyOp30
 70
     1
102
RTVSPropertyOp31
 70
     1
102
RTVSPropertyOp32
 70
     1
102
RTVSPropertyOp33
 70
     1
102
RTVSPropertyOp34
 70
     1
102
RTVSPropertyOp35
 70
     1
102
RTVSPropertyOp36
 70
     1
102
RTVSPropertyOp37
 70
     1
102
RTVSPropertyOp38
 70
     1
102
RTVSPropertyOp39
 70
     1
102
RTVSPropertyOp40
 70
     1
102
RTVSPropertyOp41
 70
     1
102
RTVSPropertyOp42
 70
     1
102
RTVSPropertyOp43
 70
     1
102
RTVSPropertyOp44
 70
     1
102
RTVSPropertyOp45
 70
     1
102
RTVSPropertyOp46
 70
     1
102
RTVSPropertyOp47
 70
     1
102
RTVSPropertyOp48
 70
     1
102
RTVSPropertyOp49
 70
     1
102
RTVSPropertyOp50
 70
     1
102
RTVSPropertyOp51
 70
     0
102
RTVSPropertyOp52
 70
     0
102
RTVSPropertyOp53
 70
     1
102
RTVSPropertyOp54
 70
     1
102
RTVSPropertyOp55
 70
     1
102
RTVSPropertyOp56
 70
     1
102
RTVSPropertyOp57
 70
     1
102
RTVSPropertyOp58
 70
     1
102
RTVSPropertyOp59
 70
     1
102
RTVSPropertyOp60
 70
     1
102
RTVSPropertyOp61
 70
     1
102
RTVSPropertyOp62
 70
     1
  0
XRECORD
  5
A5D9
102
{ACAD_REACTORS
330
A5D8
102
}
330
A5D8
100
AcDbXrecord
280
     1
102
RTVSPost2010Prop28
280
     0
102
RTVSPost2010PropOp28
 70
     1
102
RTVSPost2010Prop29
280
     1
102
RTVSPost2010PropOp29
 70
     1
102
RTVSPost2010Prop30
280
     1
102
RTVSPost2010PropOp30
 70
     1
102
RTVSPost2010Prop31
280
     0
102
RTVSPost2010PropOp31
 70
     1
102
RTVSPost2010Prop32
280
     0
102
RTVSPost2010PropOp32
 70
     1
102
RTVSPost2010Prop33
280
     0
102
RTVSPost2010PropOp33
 70
     1
102
RTVSPost2010Prop34
280
     0
102
RTVSPost2010PropOp34
 70
     1
102
RTVSPost2010Prop35
280
     0
102
RTVSPost2010PropOp35
 70
     1
102
RTVSPost2010Prop36
280
     0
102
RTVSPost2010PropOp36
 70
     1
102
RTVSPost2010Prop37
 90
       50
102
RTVSPost2010PropOp37
 70
     1
102
RTVSPost2010Prop38
140
0.0
102
RTVSPost2010PropOp38
 70
     1
102
RTVSPost2010Prop39
140
1.0
102
RTVSPost2010PropOp39
 70
     1
102
RTVSPost2010Prop40
 90
        0
102
RTVSPost2010PropOp40
 70
     1
102
RTVSPost2010Prop41ColorIndex
 90
       18
102
RTVSPost2010Prop41ColorRGB
 90
        0
102
RTVSPost2010PropOp41
 70
     1
102
RTVSPost2010Prop42
 90
       50
102
RTVSPost2010PropOp42
 70
     1
102
RTVSPost2010Prop43
 90
        3
102
RTVSPost2010PropOp43
 70
     1
102
RTVSPost2010Prop44ColorIndex
 90
        5
102
RTVSPost2010Prop44ColorRGB
 90
      255
102
RTVSPost2010PropOp44
 70
     1
102
RTVSPost2010Prop45
280
     0
102
RTVSPost2010PropOp45
 70
     1
102
RTVSPost2010Prop46
 90
       50
102
RTVSPost2010PropOp46
 70
     1
102
RTVSPost2010Prop47
 90
       50
102
RTVSPost2010PropOp47
 70
     1
102
RTVSPost2010Prop48
 90
       50
102
RTVSPost2010PropOp48
 70
     1
102
RTVSPost2010Prop49
280
     0
102
RTVSPost2010PropOp49
 70
     1
102
RTVSPost2010Prop50
 90
       50
102
RTVSPost2010PropOp50
 70
     1
102
RTVSPost2010Prop51ColorIndex
 90
      256
102
RTVSPost2010Prop51ColorRGB
 90
-16777216
102
RTVSPost2010PropOp51
 70
     0
102
RTVSPost2010Prop52
140
1.0
102
RTVSPost2010PropOp52
 70
     0
102
RTVSPost2010Prop53
 90
        2
102
RTVSPost2010PropOp53
 70
     1
102
RTVSPost2010Prop54
  1
strokes_ogs.tif
102
RTVSPost2010PropOp54
 70
     1
102
RTVSPost2010Prop55
280
     0
102
RTVSPost2010PropOp55
 70
     1
102
RTVSPost2010Prop56
140
1.0
102
RTVSPost2010PropOp56
 70
     1
102
RTVSPost2010Prop57
140
1.0
102
RTVSPost2010PropOp57
 70
     1
102
RTVSPropertyOp0
 70
     1
102
RTVSPropertyOp1
 70
     1
102
RTVSPropertyOp2
 70
     1
102
RTVSPropertyOp3
 70
     1
102
RTVSPropertyOp4
 70
     1
102
RTVSPropertyOp5
 70
     1
102
RTVSPropertyOp6
 70
     1
102
RTVSPropertyOp7
 70
     1
102
RTVSPropertyOp8
 70
     1
102
RTVSPropertyOp9
 70
     1
102
RTVSPropertyOp10
 70
     1
102
RTVSPropertyOp11
 70
     1
102
RTVSPropertyOp12
 70
     1
102
RTVSPropertyOp13
 70
     1
102
RTVSPropertyOp14
 70
     1
102
RTVSPropertyOp15
 70
     1
102
RTVSPropertyOp16
 70
     1
102
RTVSPropertyOp17
 70
     1
102
RTVSPropertyOp18
 70
     1
102
RTVSPropertyOp19
 70
     1
102
RTVSPropertyOp20
 70
     1
102
RTVSPropertyOp21
 70
     1
102
RTVSPropertyOp22
 70
     1
102
RTVSPropertyOp23
 70
     1
102
RTVSPropertyOp24
 70
     1
102
RTVSPropertyOp25
 70
     1
102
RTVSPropertyOp26
 70
     1
102
RTVSPropertyOp27
 70
     1
102
RTVSPropertyOp28
 70
     1
102
RTVSPropertyOp29
 70
     1
102
RTVSPropertyOp30
 70
     1
102
RTVSPropertyOp31
 70
     1
102
RTVSPropertyOp32
 70
     1
102
RTVSPropertyOp33
 70
     1
102
RTVSPropertyOp34
 70
     1
102
RTVSPropertyOp35
 70
     1
102
RTVSPropertyOp36
 70
     1
102
RTVSPropertyOp37
 70
     1
102
RTVSPropertyOp38
 70
     1
102
RTVSPropertyOp39
 70
     1
102
RTVSPropertyOp40
 70
     1
102
RTVSPropertyOp41
 70
     1
102
RTVSPropertyOp42
 70
     1
102
RTVSPropertyOp43
 70
     1
102
RTVSPropertyOp44
 70
     1
102
RTVSPropertyOp45
 70
     1
102
RTVSPropertyOp46
 70
     1
102
RTVSPropertyOp47
 70
     1
102
RTVSPropertyOp48
 70
     1
102
RTVSPropertyOp49
 70
     1
102
RTVSPropertyOp50
 70
     1
102
RTVSPropertyOp51
 70
     0
102
RTVSPropertyOp52
 70
     0
102
RTVSPropertyOp53
 70
     1
102
RTVSPropertyOp54
 70
     1
102
RTVSPropertyOp55
 70
     1
102
RTVSPropertyOp56
 70
     1
102
RTVSPropertyOp57
 70
     1
102
RTVSPropertyOp58
 70
     1
102
RTVSPropertyOp59
 70
     1
102
RTVSPropertyOp60
 70
     1
102
RTVSPropertyOp61
 70
     1
102
RTVSPropertyOp62
 70
     1
  0
XRECORD
  5
A5DD
102
{ACAD_REACTORS
330
A5DC
102
}
330
A5DC
100
AcDbXrecord
280
     1
102
RTVSPost2010Prop28
280
     0
102
RTVSPost2010PropOp28
 70
     1
102
RTVSPost2010Prop29
280
     1
102
RTVSPost2010PropOp29
 70
     1
102
RTVSPost2010Prop30
280
     1
102
RTVSPost2010PropOp30
 70
     1
102
RTVSPost2010Prop31
280
     0
102
RTVSPost2010PropOp31
 70
     1
102
RTVSPost2010Prop32
280
     0
102
RTVSPost2010PropOp32
 70
     1
102
RTVSPost2010Prop33
280
     0
102
RTVSPost2010PropOp33
 70
     1
102
RTVSPost2010Prop34
280
     0
102
RTVSPost2010PropOp34
 70
     1
102
RTVSPost2010Prop35
280
     0
102
RTVSPost2010PropOp35
 70
     1
102
RTVSPost2010Prop36
280
     0
102
RTVSPost2010PropOp36
 70
     1
102
RTVSPost2010Prop37
 90
       50
102
RTVSPost2010PropOp37
 70
     1
102
RTVSPost2010Prop38
140
0.0
102
RTVSPost2010PropOp38
 70
     1
102
RTVSPost2010Prop39
140
1.0
102
RTVSPost2010PropOp39
 70
     1
102
RTVSPost2010Prop40
 90
        0
102
RTVSPost2010PropOp40
 70
     1
102
RTVSPost2010Prop41ColorIndex
 90
       18
102
RTVSPost2010Prop41ColorRGB
 90
        0
102
RTVSPost2010PropOp41
 70
     1
102
RTVSPost2010Prop42
 90
       50
102
RTVSPost2010PropOp42
 70
     1
102
RTVSPost2010Prop43
 90
        3
102
RTVSPost2010PropOp43
 70
     1
102
RTVSPost2010Prop44ColorIndex
 90
        5
102
RTVSPost2010Prop44ColorRGB
 90
      255
102
RTVSPost2010PropOp44
 70
     1
102
RTVSPost2010Prop45
280
     0
102
RTVSPost2010PropOp45
 70
     1
102
RTVSPost2010Prop46
 90
       50
102
RTVSPost2010PropOp46
 70
     1
102
RTVSPost2010Prop47
 90
       50
102
RTVSPost2010PropOp47
 70
     1
102
RTVSPost2010Prop48
 90
       50
102
RTVSPost2010PropOp48
 70
     1
102
RTVSPost2010Prop49
280
     0
102
RTVSPost2010PropOp49
 70
     1
102
RTVSPost2010Prop50
 90
       50
102
RTVSPost2010PropOp50
 70
     1
102
RTVSPost2010Prop51ColorIndex
 90
      256
102
RTVSPost2010Prop51ColorRGB
 90
-16777216
102
RTVSPost2010PropOp51
 70
     0
102
RTVSPost2010Prop52
140
1.0
102
RTVSPost2010PropOp52
 70
     0
102
RTVSPost2010Prop53
 90
        2
102
RTVSPost2010PropOp53
 70
     1
102
RTVSPost2010Prop54
  1
strokes_ogs.tif
102
RTVSPost2010PropOp54
 70
     1
102
RTVSPost2010Prop55
280
     0
102
RTVSPost2010PropOp55
 70
     1
102
RTVSPost2010Prop56
140
1.0
102
RTVSPost2010PropOp56
 70
     1
102
RTVSPost2010Prop57
140
1.0
102
RTVSPost2010PropOp57
 70
     1
102
RTVSPropertyOp0
 70
     1
102
RTVSPropertyOp1
 70
     1
102
RTVSPropertyOp2
 70
     1
102
RTVSPropertyOp3
 70
     1
102
RTVSPropertyOp4
 70
     1
102
RTVSPropertyOp5
 70
     1
102
RTVSPropertyOp6
 70
     1
102
RTVSPropertyOp7
 70
     1
102
RTVSPropertyOp8
 70
     1
102
RTVSPropertyOp9
 70
     1
102
RTVSPropertyOp10
 70
     1
102
RTVSPropertyOp11
 70
     1
102
RTVSPropertyOp12
 70
     1
102
RTVSPropertyOp13
 70
     1
102
RTVSPropertyOp14
 70
     1
102
RTVSPropertyOp15
 70
     1
102
RTVSPropertyOp16
 70
     1
102
RTVSPropertyOp17
 70
     1
102
RTVSPropertyOp18
 70
     1
102
RTVSPropertyOp19
 70
     1
102
RTVSPropertyOp20
 70
     1
102
RTVSPropertyOp21
 70
     1
102
RTVSPropertyOp22
 70
     1
102
RTVSPropertyOp23
 70
     1
102
RTVSPropertyOp24
 70
     1
102
RTVSPropertyOp25
 70
     1
102
RTVSPropertyOp26
 70
     1
102
RTVSPropertyOp27
 70
     1
102
RTVSPropertyOp28
 70
     1
102
RTVSPropertyOp29
 70
     1
102
RTVSPropertyOp30
 70
     1
102
RTVSPropertyOp31
 70
     1
102
RTVSPropertyOp32
 70
     1
102
RTVSPropertyOp33
 70
     1
102
RTVSPropertyOp34
 70
     1
102
RTVSPropertyOp35
 70
     1
102
RTVSPropertyOp36
 70
     1
102
RTVSPropertyOp37
 70
     1
102
RTVSPropertyOp38
 70
     1
102
RTVSPropertyOp39
 70
     1
102
RTVSPropertyOp40
 70
     1
102
RTVSPropertyOp41
 70
     1
102
RTVSPropertyOp42
 70
     1
102
RTVSPropertyOp43
 70
     1
102
RTVSPropertyOp44
 70
     1
102
RTVSPropertyOp45
 70
     1
102
RTVSPropertyOp46
 70
     1
102
RTVSPropertyOp47
 70
     1
102
RTVSPropertyOp48
 70
     1
102
RTVSPropertyOp49
 70
     1
102
RTVSPropertyOp50
 70
     1
102
RTVSPropertyOp51
 70
     0
102
RTVSPropertyOp52
 70
     0
102
RTVSPropertyOp53
 70
     1
102
RTVSPropertyOp54
 70
     1
102
RTVSPropertyOp55
 70
     1
102
RTVSPropertyOp56
 70
     1
102
RTVSPropertyOp57
 70
     1
102
RTVSPropertyOp58
 70
     1
102
RTVSPropertyOp59
 70
     1
102
RTVSPropertyOp60
 70
     1
102
RTVSPropertyOp61
 70
     1
102
RTVSPropertyOp62
 70
     1
  0
XRECORD
  5
A5F7
102
{ACAD_REACTORS
330
A5F6
102
}
330
A5F6
100
AcDbXrecord
280
     1
102
RTVSPost2010Prop28
280
     0
102
RTVSPost2010PropOp28
 70
     1
102
RTVSPost2010Prop29
280
     1
102
RTVSPost2010PropOp29
 70
     1
102
RTVSPost2010Prop30
280
     1
102
RTVSPost2010PropOp30
 70
     1
102
RTVSPost2010Prop31
280
     0
102
RTVSPost2010PropOp31
 70
     1
102
RTVSPost2010Prop32
280
     0
102
RTVSPost2010PropOp32
 70
     1
102
RTVSPost2010Prop33
280
     0
102
RTVSPost2010PropOp33
 70
     1
102
RTVSPost2010Prop34
280
     0
102
RTVSPost2010PropOp34
 70
     1
102
RTVSPost2010Prop35
280
     0
102
RTVSPost2010PropOp35
 70
     1
102
RTVSPost2010Prop36
280
     0
102
RTVSPost2010PropOp36
 70
     1
102
RTVSPost2010Prop37
 90
       50
102
RTVSPost2010PropOp37
 70
     0
102
RTVSPost2010Prop38
140
0.0
102
RTVSPost2010PropOp38
 70
     0
102
RTVSPost2010Prop39
140
1.0
102
RTVSPost2010PropOp39
 70
     0
102
RTVSPost2010Prop40
 90
        0
102
RTVSPost2010PropOp40
 70
     0
102
RTVSPost2010Prop41ColorIndex
 90
       18
102
RTVSPost2010Prop41ColorRGB
 90
        0
102
RTVSPost2010PropOp41
 70
     0
102
RTVSPost2010Prop42
 90
       50
102
RTVSPost2010PropOp42
 70
     0
102
RTVSPost2010Prop43
 90
        3
102
RTVSPost2010PropOp43
 70
     0
102
RTVSPost2010Prop44ColorIndex
 90
        5
102
RTVSPost2010Prop44ColorRGB
 90
      255
102
RTVSPost2010PropOp44
 70
     0
102
RTVSPost2010Prop45
280
     0
102
RTVSPost2010PropOp45
 70
     1
102
RTVSPost2010Prop46
 90
       50
102
RTVSPost2010PropOp46
 70
     0
102
RTVSPost2010Prop47
 90
       50
102
RTVSPost2010PropOp47
 70
     0
102
RTVSPost2010Prop48
 90
       50
102
RTVSPost2010PropOp48
 70
     0
102
RTVSPost2010Prop49
280
     0
102
RTVSPost2010PropOp49
 70
     1
102
RTVSPost2010Prop50
 90
       50
102
RTVSPost2010PropOp50
 70
     0
102
RTVSPost2010Prop51ColorIndex
 90
      256
102
RTVSPost2010Prop51ColorRGB
 90
-16777216
102
RTVSPost2010PropOp51
 70
     0
102
RTVSPost2010Prop52
140
1.0
102
RTVSPost2010PropOp52
 70
     0
102
RTVSPost2010Prop53
 90
        2
102
RTVSPost2010PropOp53
 70
     0
102
RTVSPost2010Prop54
  1
strokes_ogs.tif
102
RTVSPost2010PropOp54
 70
     0
102
RTVSPost2010Prop55
280
     0
102
RTVSPost2010PropOp55
 70
     1
102
RTVSPost2010Prop56
140
1.0
102
RTVSPost2010PropOp56
 70
     0
102
RTVSPost2010Prop57
140
1.0
102
RTVSPost2010PropOp57
 70
     0
102
RTVSPropertyOp0
 70
     0
102
RTVSPropertyOp1
 70
     0
102
RTVSPropertyOp2
 70
     0
102
RTVSPropertyOp3
 70
     0
102
RTVSPropertyOp4
 70
     0
102
RTVSPropertyOp5
 70
     0
102
RTVSPropertyOp6
 70
     0
102
RTVSPropertyOp7
 70
     0
102
RTVSPropertyOp8
 70
     0
102
RTVSPropertyOp9
 70
     0
102
RTVSPropertyOp10
 70
     0
102
RTVSPropertyOp11
 70
     0
102
RTVSPropertyOp12
 70
     0
102
RTVSPropertyOp13
 70
     0
102
RTVSPropertyOp14
 70
     2
102
RTVSPropertyOp15
 70
     0
102
RTVSPropertyOp16
 70
     0
102
RTVSPropertyOp17
 70
     0
102
RTVSPropertyOp18
 70
     0
102
RTVSPropertyOp19
 70
     0
102
RTVSPropertyOp20
 70
     0
102
RTVSPropertyOp21
 70
     0
102
RTVSPropertyOp22
 70
     0
102
RTVSPropertyOp23
 70
     0
102
RTVSPropertyOp24
 70
     0
102
RTVSPropertyOp25
 70
     0
102
RTVSPropertyOp26
 70
     0
102
RTVSPropertyOp27
 70
     0
102
RTVSPropertyOp28
 70
     1
102
RTVSPropertyOp29
 70
     1
102
RTVSPropertyOp30
 70
     1
102
RTVSPropertyOp31
 70
     1
102
RTVSPropertyOp32
 70
     1
102
RTVSPropertyOp33
 70
     1
102
RTVSPropertyOp34
 70
     1
102
RTVSPropertyOp35
 70
     1
102
RTVSPropertyOp36
 70
     1
102
RTVSPropertyOp37
 70
     0
102
RTVSPropertyOp38
 70
     0
102
RTVSPropertyOp39
 70
     0
102
RTVSPropertyOp40
 70
     0
102
RTVSPropertyOp41
 70
     0
102
RTVSPropertyOp42
 70
     0
102
RTVSPropertyOp43
 70
     0
102
RTVSPropertyOp44
 70
     0
102
RTVSPropertyOp45
 70
     1
102
RTVSPropertyOp46
 70
     0
102
RTVSPropertyOp47
 70
     0
102
RTVSPropertyOp48
 70
     0
102
RTVSPropertyOp49
 70
     1
102
RTVSPropertyOp50
 70
     0
102
RTVSPropertyOp51
 70
     0
102
RTVSPropertyOp52
 70
     0
102
RTVSPropertyOp53
 70
     0
102
RTVSPropertyOp54
 70
     0
102
RTVSPropertyOp55
 70
     1
102
RTVSPropertyOp56
 70
     0
102
RTVSPropertyOp57
 70
     0
102
RTVSPropertyOp58
 70
     0
102
RTVSPropertyOp59
 70
     0
102
RTVSPropertyOp60
 70
     0
102
RTVSPropertyOp61
 70
     0
102
RTVSPropertyOp62
 70
     0
  0
XRECORD
  5
A5E5
102
{ACAD_REACTORS
330
A5E4
102
}
330
A5E4
100
AcDbXrecord
280
     1
102
RTVSPost2010Prop28
280
     0
102
RTVSPost2010PropOp28
 70
     1
102
RTVSPost2010Prop29
280
     1
102
RTVSPost2010PropOp29
 70
     1
102
RTVSPost2010Prop30
280
     1
102
RTVSPost2010PropOp30
 70
     1
102
RTVSPost2010Prop31
280
     0
102
RTVSPost2010PropOp31
 70
     1
102
RTVSPost2010Prop32
280
     0
102
RTVSPost2010PropOp32
 70
     1
102
RTVSPost2010Prop33
280
     0
102
RTVSPost2010PropOp33
 70
     1
102
RTVSPost2010Prop34
280
     0
102
RTVSPost2010PropOp34
 70
     1
102
RTVSPost2010Prop35
280
     0
102
RTVSPost2010PropOp35
 70
     1
102
RTVSPost2010Prop36
280
     0
102
RTVSPost2010PropOp36
 70
     1
102
RTVSPost2010Prop37
 90
       50
102
RTVSPost2010PropOp37
 70
     1
102
RTVSPost2010Prop38
140
0.0
102
RTVSPost2010PropOp38
 70
     1
102
RTVSPost2010Prop39
140
1.0
102
RTVSPost2010PropOp39
 70
     1
102
RTVSPost2010Prop40
 90
        0
102
RTVSPost2010PropOp40
 70
     1
102
RTVSPost2010Prop41ColorIndex
 90
       18
102
RTVSPost2010Prop41ColorRGB
 90
        0
102
RTVSPost2010PropOp41
 70
     1
102
RTVSPost2010Prop42
 90
       50
102
RTVSPost2010PropOp42
 70
     1
102
RTVSPost2010Prop43
 90
        3
102
RTVSPost2010PropOp43
 70
     1
102
RTVSPost2010Prop44ColorIndex
 90
        5
102
RTVSPost2010Prop44ColorRGB
 90
      255
102
RTVSPost2010PropOp44
 70
     1
102
RTVSPost2010Prop45
280
     0
102
RTVSPost2010PropOp45
 70
     1
102
RTVSPost2010Prop46
 90
       50
102
RTVSPost2010PropOp46
 70
     1
102
RTVSPost2010Prop47
 90
       50
102
RTVSPost2010PropOp47
 70
     1
102
RTVSPost2010Prop48
 90
       50
102
RTVSPost2010PropOp48
 70
     1
102
RTVSPost2010Prop49
280
     0
102
RTVSPost2010PropOp49
 70
     1
102
RTVSPost2010Prop50
 90
       50
102
RTVSPost2010PropOp50
 70
     1
102
RTVSPost2010Prop51ColorIndex
 90
      256
102
RTVSPost2010Prop51ColorRGB
 90
-16777216
102
RTVSPost2010PropOp51
 70
     0
102
RTVSPost2010Prop52
140
1.0
102
RTVSPost2010PropOp52
 70
     0
102
RTVSPost2010Prop53
 90
        2
102
RTVSPost2010PropOp53
 70
     1
102
RTVSPost2010Prop54
  1
strokes_ogs.tif
102
RTVSPost2010PropOp54
 70
     1
102
RTVSPost2010Prop55
280
     0
102
RTVSPost2010PropOp55
 70
     1
102
RTVSPost2010Prop56
140
1.0
102
RTVSPost2010PropOp56
 70
     1
102
RTVSPost2010Prop57
140
1.0
102
RTVSPost2010PropOp57
 70
     1
102
RTVSPropertyOp0
 70
     1
102
RTVSPropertyOp1
 70
     1
102
RTVSPropertyOp2
 70
     1
102
RTVSPropertyOp3
 70
     1
102
RTVSPropertyOp4
 70
     1
102
RTVSPropertyOp5
 70
     1
102
RTVSPropertyOp6
 70
     1
102
RTVSPropertyOp7
 70
     1
102
RTVSPropertyOp8
 70
     1
102
RTVSPropertyOp9
 70
     1
102
RTVSPropertyOp10
 70
     1
102
RTVSPropertyOp11
 70
     1
102
RTVSPropertyOp12
 70
     1
102
RTVSPropertyOp13
 70
     1
102
RTVSPropertyOp14
 70
     1
102
RTVSPropertyOp15
 70
     1
102
RTVSPropertyOp16
 70
     1
102
RTVSPropertyOp17
 70
     1
102
RTVSPropertyOp18
 70
     1
102
RTVSPropertyOp19
 70
     1
102
RTVSPropertyOp20
 70
     1
102
RTVSPropertyOp21
 70
     1
102
RTVSPropertyOp22
 70
     1
102
RTVSPropertyOp23
 70
     1
102
RTVSPropertyOp24
 70
     1
102
RTVSPropertyOp25
 70
     1
102
RTVSPropertyOp26
 70
     1
102
RTVSPropertyOp27
 70
     1
102
RTVSPropertyOp28
 70
     1
102
RTVSPropertyOp29
 70
     1
102
RTVSPropertyOp30
 70
     1
102
RTVSPropertyOp31
 70
     1
102
RTVSPropertyOp32
 70
     1
102
RTVSPropertyOp33
 70
     1
102
RTVSPropertyOp34
 70
     1
102
RTVSPropertyOp35
 70
     1
102
RTVSPropertyOp36
 70
     1
102
RTVSPropertyOp37
 70
     1
102
RTVSPropertyOp38
 70
     1
102
RTVSPropertyOp39
 70
     1
102
RTVSPropertyOp40
 70
     1
102
RTVSPropertyOp41
 70
     1
102
RTVSPropertyOp42
 70
     1
102
RTVSPropertyOp43
 70
     1
102
RTVSPropertyOp44
 70
     1
102
RTVSPropertyOp45
 70
     1
102
RTVSPropertyOp46
 70
     1
102
RTVSPropertyOp47
 70
     1
102
RTVSPropertyOp48
 70
     1
102
RTVSPropertyOp49
 70
     1
102
RTVSPropertyOp50
 70
     1
102
RTVSPropertyOp51
 70
     0
102
RTVSPropertyOp52
 70
     0
102
RTVSPropertyOp53
 70
     1
102
RTVSPropertyOp54
 70
     1
102
RTVSPropertyOp55
 70
     1
102
RTVSPropertyOp56
 70
     1
102
RTVSPropertyOp57
 70
     1
102
RTVSPropertyOp58
 70
     1
102
RTVSPropertyOp59
 70
     1
102
RTVSPropertyOp60
 70
     1
102
RTVSPropertyOp61
 70
     1
102
RTVSPropertyOp62
 70
     1
  0
XRECORD
  5
A5C9
102
{ACAD_REACTORS
330
A5C8
102
}
330
A5C8
100
AcDbXrecord
280
     1
102
RTVSPost2010Prop28
280
     0
102
RTVSPost2010PropOp28
 70
     1
102
RTVSPost2010Prop29
280
     1
102
RTVSPost2010PropOp29
 70
     1
102
RTVSPost2010Prop30
280
     1
102
RTVSPost2010PropOp30
 70
     1
102
RTVSPost2010Prop31
280
     0
102
RTVSPost2010PropOp31
 70
     1
102
RTVSPost2010Prop32
280
     0
102
RTVSPost2010PropOp32
 70
     1
102
RTVSPost2010Prop33
280
     0
102
RTVSPost2010PropOp33
 70
     1
102
RTVSPost2010Prop34
280
     0
102
RTVSPost2010PropOp34
 70
     1
102
RTVSPost2010Prop35
280
     0
102
RTVSPost2010PropOp35
 70
     1
102
RTVSPost2010Prop36
280
     0
102
RTVSPost2010PropOp36
 70
     1
102
RTVSPost2010Prop37
 90
       50
102
RTVSPost2010PropOp37
 70
     1
102
RTVSPost2010Prop38
140
0.0
102
RTVSPost2010PropOp38
 70
     1
102
RTVSPost2010Prop39
140
1.0
102
RTVSPost2010PropOp39
 70
     1
102
RTVSPost2010Prop40
 90
        0
102
RTVSPost2010PropOp40
 70
     1
102
RTVSPost2010Prop41ColorIndex
 90
       18
102
RTVSPost2010Prop41ColorRGB
 90
        0
102
RTVSPost2010PropOp41
 70
     1
102
RTVSPost2010Prop42
 90
       50
102
RTVSPost2010PropOp42
 70
     1
102
RTVSPost2010Prop43
 90
        3
102
RTVSPost2010PropOp43
 70
     1
102
RTVSPost2010Prop44ColorIndex
 90
        5
102
RTVSPost2010Prop44ColorRGB
 90
      255
102
RTVSPost2010PropOp44
 70
     1
102
RTVSPost2010Prop45
280
     0
102
RTVSPost2010PropOp45
 70
     1
102
RTVSPost2010Prop46
 90
       50
102
RTVSPost2010PropOp46
 70
     1
102
RTVSPost2010Prop47
 90
       50
102
RTVSPost2010PropOp47
 70
     1
102
RTVSPost2010Prop48
 90
       50
102
RTVSPost2010PropOp48
 70
     1
102
RTVSPost2010Prop49
280
     0
102
RTVSPost2010PropOp49
 70
     1
102
RTVSPost2010Prop50
 90
       50
102
RTVSPost2010PropOp50
 70
     1
102
RTVSPost2010Prop51ColorIndex
 90
      256
102
RTVSPost2010Prop51ColorRGB
 90
-16777216
102
RTVSPost2010PropOp51
 70
     0
102
RTVSPost2010Prop52
140
1.0
102
RTVSPost2010PropOp52
 70
     0
102
RTVSPost2010Prop53
 90
        2
102
RTVSPost2010PropOp53
 70
     1
102
RTVSPost2010Prop54
  1
strokes_ogs.tif
102
RTVSPost2010PropOp54
 70
     1
102
RTVSPost2010Prop55
280
     0
102
RTVSPost2010PropOp55
 70
     1
102
RTVSPost2010Prop56
140
1.0
102
RTVSPost2010PropOp56
 70
     1
102
RTVSPost2010Prop57
140
1.0
102
RTVSPost2010PropOp57
 70
     1
102
RTVSPropertyOp0
 70
     1
102
RTVSPropertyOp1
 70
     1
102
RTVSPropertyOp2
 70
     1
102
RTVSPropertyOp3
 70
     1
102
RTVSPropertyOp4
 70
     1
102
RTVSPropertyOp5
 70
     1
102
RTVSPropertyOp6
 70
     1
102
RTVSPropertyOp7
 70
     1
102
RTVSPropertyOp8
 70
     1
102
RTVSPropertyOp9
 70
     1
102
RTVSPropertyOp10
 70
     1
102
RTVSPropertyOp11
 70
     1
102
RTVSPropertyOp12
 70
     1
102
RTVSPropertyOp13
 70
     1
102
RTVSPropertyOp14
 70
     1
102
RTVSPropertyOp15
 70
     1
102
RTVSPropertyOp16
 70
     1
102
RTVSPropertyOp17
 70
     1
102
RTVSPropertyOp18
 70
     1
102
RTVSPropertyOp19
 70
     1
102
RTVSPropertyOp20
 70
     1
102
RTVSPropertyOp21
 70
     1
102
RTVSPropertyOp22
 70
     1
102
RTVSPropertyOp23
 70
     1
102
RTVSPropertyOp24
 70
     1
102
RTVSPropertyOp25
 70
     1
102
RTVSPropertyOp26
 70
     1
102
RTVSPropertyOp27
 70
     1
102
RTVSPropertyOp28
 70
     1
102
RTVSPropertyOp29
 70
     1
102
RTVSPropertyOp30
 70
     1
102
RTVSPropertyOp31
 70
     1
102
RTVSPropertyOp32
 70
     1
102
RTVSPropertyOp33
 70
     1
102
RTVSPropertyOp34
 70
     1
102
RTVSPropertyOp35
 70
     1
102
RTVSPropertyOp36
 70
     1
102
RTVSPropertyOp37
 70
     1
102
RTVSPropertyOp38
 70
     1
102
RTVSPropertyOp39
 70
     1
102
RTVSPropertyOp40
 70
     1
102
RTVSPropertyOp41
 70
     1
102
RTVSPropertyOp42
 70
     1
102
RTVSPropertyOp43
 70
     1
102
RTVSPropertyOp44
 70
     1
102
RTVSPropertyOp45
 70
     1
102
RTVSPropertyOp46
 70
     1
102
RTVSPropertyOp47
 70
     1
102
RTVSPropertyOp48
 70
     1
102
RTVSPropertyOp49
 70
     1
102
RTVSPropertyOp50
 70
     1
102
RTVSPropertyOp51
 70
     0
102
RTVSPropertyOp52
 70
     0
102
RTVSPropertyOp53
 70
     1
102
RTVSPropertyOp54
 70
     1
102
RTVSPropertyOp55
 70
     1
102
RTVSPropertyOp56
 70
     1
102
RTVSPropertyOp57
 70
     1
102
RTVSPropertyOp58
 70
     1
102
RTVSPropertyOp59
 70
     1
102
RTVSPropertyOp60
 70
     1
102
RTVSPropertyOp61
 70
     1
102
RTVSPropertyOp62
 70
     1
  0
XRECORD
  5
A5CB
102
{ACAD_REACTORS
330
A5CA
102
}
330
A5CA
100
AcDbXrecord
280
     1
102
RTVSPost2010Prop28
280
     0
102
RTVSPost2010PropOp28
 70
     1
102
RTVSPost2010Prop29
280
     1
102
RTVSPost2010PropOp29
 70
     1
102
RTVSPost2010Prop30
280
     1
102
RTVSPost2010PropOp30
 70
     1
102
RTVSPost2010Prop31
280
     0
102
RTVSPost2010PropOp31
 70
     1
102
RTVSPost2010Prop32
280
     0
102
RTVSPost2010PropOp32
 70
     1
102
RTVSPost2010Prop33
280
     0
102
RTVSPost2010PropOp33
 70
     1
102
RTVSPost2010Prop34
280
     0
102
RTVSPost2010PropOp34
 70
     1
102
RTVSPost2010Prop35
280
     0
102
RTVSPost2010PropOp35
 70
     1
102
RTVSPost2010Prop36
280
     0
102
RTVSPost2010PropOp36
 70
     1
102
RTVSPost2010Prop37
 90
       50
102
RTVSPost2010PropOp37
 70
     1
102
RTVSPost2010Prop38
140
0.0
102
RTVSPost2010PropOp38
 70
     1
102
RTVSPost2010Prop39
140
1.0
102
RTVSPost2010PropOp39
 70
     1
102
RTVSPost2010Prop40
 90
        0
102
RTVSPost2010PropOp40
 70
     1
102
RTVSPost2010Prop41ColorIndex
 90
       18
102
RTVSPost2010Prop41ColorRGB
 90
        0
102
RTVSPost2010PropOp41
 70
     1
102
RTVSPost2010Prop42
 90
       50
102
RTVSPost2010PropOp42
 70
     1
102
RTVSPost2010Prop43
 90
        3
102
RTVSPost2010PropOp43
 70
     1
102
RTVSPost2010Prop44ColorIndex
 90
        5
102
RTVSPost2010Prop44ColorRGB
 90
      255
102
RTVSPost2010PropOp44
 70
     1
102
RTVSPost2010Prop45
280
     0
102
RTVSPost2010PropOp45
 70
     1
102
RTVSPost2010Prop46
 90
       50
102
RTVSPost2010PropOp46
 70
     1
102
RTVSPost2010Prop47
 90
       50
102
RTVSPost2010PropOp47
 70
     1
102
RTVSPost2010Prop48
 90
       50
102
RTVSPost2010PropOp48
 70
     1
102
RTVSPost2010Prop49
280
     0
102
RTVSPost2010PropOp49
 70
     1
102
RTVSPost2010Prop50
 90
       50
102
RTVSPost2010PropOp50
 70
     1
102
RTVSPost2010Prop51ColorIndex
 90
      256
102
RTVSPost2010Prop51ColorRGB
 90
-16777216
102
RTVSPost2010PropOp51
 70
     0
102
RTVSPost2010Prop52
140
1.0
102
RTVSPost2010PropOp52
 70
     0
102
RTVSPost2010Prop53
 90
        2
102
RTVSPost2010PropOp53
 70
     1
102
RTVSPost2010Prop54
  1
strokes_ogs.tif
102
RTVSPost2010PropOp54
 70
     1
102
RTVSPost2010Prop55
280
     0
102
RTVSPost2010PropOp55
 70
     1
102
RTVSPost2010Prop56
140
1.0
102
RTVSPost2010PropOp56
 70
     1
102
RTVSPost2010Prop57
140
1.0
102
RTVSPost2010PropOp57
 70
     1
102
RTVSPropertyOp0
 70
     1
102
RTVSPropertyOp1
 70
     1
102
RTVSPropertyOp2
 70
     1
102
RTVSPropertyOp3
 70
     1
102
RTVSPropertyOp4
 70
     1
102
RTVSPropertyOp5
 70
     1
102
RTVSPropertyOp6
 70
     1
102
RTVSPropertyOp7
 70
     1
102
RTVSPropertyOp8
 70
     1
102
RTVSPropertyOp9
 70
     1
102
RTVSPropertyOp10
 70
     1
102
RTVSPropertyOp11
 70
     1
102
RTVSPropertyOp12
 70
     1
102
RTVSPropertyOp13
 70
     1
102
RTVSPropertyOp14
 70
     1
102
RTVSPropertyOp15
 70
     1
102
RTVSPropertyOp16
 70
     1
102
RTVSPropertyOp17
 70
     1
102
RTVSPropertyOp18
 70
     1
102
RTVSPropertyOp19
 70
     1
102
RTVSPropertyOp20
 70
     1
102
RTVSPropertyOp21
 70
     1
102
RTVSPropertyOp22
 70
     1
102
RTVSPropertyOp23
 70
     1
102
RTVSPropertyOp24
 70
     1
102
RTVSPropertyOp25
 70
     1
102
RTVSPropertyOp26
 70
     1
102
RTVSPropertyOp27
 70
     1
102
RTVSPropertyOp28
 70
     1
102
RTVSPropertyOp29
 70
     1
102
RTVSPropertyOp30
 70
     1
102
RTVSPropertyOp31
 70
     1
102
RTVSPropertyOp32
 70
     1
102
RTVSPropertyOp33
 70
     1
102
RTVSPropertyOp34
 70
     1
102
RTVSPropertyOp35
 70
     1
102
RTVSPropertyOp36
 70
     1
102
RTVSPropertyOp37
 70
     1
102
RTVSPropertyOp38
 70
     1
102
RTVSPropertyOp39
 70
     1
102
RTVSPropertyOp40
 70
     1
102
RTVSPropertyOp41
 70
     1
102
RTVSPropertyOp42
 70
     1
102
RTVSPropertyOp43
 70
     1
102
RTVSPropertyOp44
 70
     1
102
RTVSPropertyOp45
 70
     1
102
RTVSPropertyOp46
 70
     1
102
RTVSPropertyOp47
 70
     1
102
RTVSPropertyOp48
 70
     1
102
RTVSPropertyOp49
 70
     1
102
RTVSPropertyOp50
 70
     1
102
RTVSPropertyOp51
 70
     0
102
RTVSPropertyOp52
 70
     0
102
RTVSPropertyOp53
 70
     1
102
RTVSPropertyOp54
 70
     1
102
RTVSPropertyOp55
 70
     1
102
RTVSPropertyOp56
 70
     1
102
RTVSPropertyOp57
 70
     1
102
RTVSPropertyOp58
 70
     1
102
RTVSPropertyOp59
 70
     1
102
RTVSPropertyOp60
 70
     1
102
RTVSPropertyOp61
 70
     1
102
RTVSPropertyOp62
 70
     1
  0
XRECORD
  5
A5CD
102
{ACAD_REACTORS
330
A5CC
102
}
330
A5CC
100
AcDbXrecord
280
     1
102
RTVSPost2010Prop28
280
     0
102
RTVSPost2010PropOp28
 70
     1
102
RTVSPost2010Prop29
280
     1
102
RTVSPost2010PropOp29
 70
     1
102
RTVSPost2010Prop30
280
     1
102
RTVSPost2010PropOp30
 70
     1
102
RTVSPost2010Prop31
280
     0
102
RTVSPost2010PropOp31
 70
     1
102
RTVSPost2010Prop32
280
     0
102
RTVSPost2010PropOp32
 70
     1
102
RTVSPost2010Prop33
280
     0
102
RTVSPost2010PropOp33
 70
     1
102
RTVSPost2010Prop34
280
     0
102
RTVSPost2010PropOp34
 70
     1
102
RTVSPost2010Prop35
280
     0
102
RTVSPost2010PropOp35
 70
     1
102
RTVSPost2010Prop36
280
     0
102
RTVSPost2010PropOp36
 70
     1
102
RTVSPost2010Prop37
 90
       50
102
RTVSPost2010PropOp37
 70
     1
102
RTVSPost2010Prop38
140
0.0
102
RTVSPost2010PropOp38
 70
     1
102
RTVSPost2010Prop39
140
1.0
102
RTVSPost2010PropOp39
 70
     1
102
RTVSPost2010Prop40
 90
        0
102
RTVSPost2010PropOp40
 70
     1
102
RTVSPost2010Prop41ColorIndex
 90
       18
102
RTVSPost2010Prop41ColorRGB
 90
        0
102
RTVSPost2010PropOp41
 70
     1
102
RTVSPost2010Prop42
 90
       50
102
RTVSPost2010PropOp42
 70
     1
102
RTVSPost2010Prop43
 90
        3
102
RTVSPost2010PropOp43
 70
     1
102
RTVSPost2010Prop44ColorIndex
 90
        5
102
RTVSPost2010Prop44ColorRGB
 90
      255
102
RTVSPost2010PropOp44
 70
     1
102
RTVSPost2010Prop45
280
     0
102
RTVSPost2010PropOp45
 70
     1
102
RTVSPost2010Prop46
 90
       50
102
RTVSPost2010PropOp46
 70
     1
102
RTVSPost2010Prop47
 90
       50
102
RTVSPost2010PropOp47
 70
     1
102
RTVSPost2010Prop48
 90
       50
102
RTVSPost2010PropOp48
 70
     1
102
RTVSPost2010Prop49
280
     0
102
RTVSPost2010PropOp49
 70
     1
102
RTVSPost2010Prop50
 90
       50
102
RTVSPost2010PropOp50
 70
     1
102
RTVSPost2010Prop51ColorIndex
 90
      256
102
RTVSPost2010Prop51ColorRGB
 90
-16777216
102
RTVSPost2010PropOp51
 70
     0
102
RTVSPost2010Prop52
140
1.0
102
RTVSPost2010PropOp52
 70
     0
102
RTVSPost2010Prop53
 90
        2
102
RTVSPost2010PropOp53
 70
     1
102
RTVSPost2010Prop54
  1
strokes_ogs.tif
102
RTVSPost2010PropOp54
 70
     1
102
RTVSPost2010Prop55
280
     0
102
RTVSPost2010PropOp55
 70
     1
102
RTVSPost2010Prop56
140
1.0
102
RTVSPost2010PropOp56
 70
     1
102
RTVSPost2010Prop57
140
1.0
102
RTVSPost2010PropOp57
 70
     1
102
RTVSPropertyOp0
 70
     1
102
RTVSPropertyOp1
 70
     1
102
RTVSPropertyOp2
 70
     1
102
RTVSPropertyOp3
 70
     1
102
RTVSPropertyOp4
 70
     1
102
RTVSPropertyOp5
 70
     1
102
RTVSPropertyOp6
 70
     1
102
RTVSPropertyOp7
 70
     1
102
RTVSPropertyOp8
 70
     1
102
RTVSPropertyOp9
 70
     1
102
RTVSPropertyOp10
 70
     1
102
RTVSPropertyOp11
 70
     1
102
RTVSPropertyOp12
 70
     1
102
RTVSPropertyOp13
 70
     1
102
RTVSPropertyOp14
 70
     1
102
RTVSPropertyOp15
 70
     1
102
RTVSPropertyOp16
 70
     1
102
RTVSPropertyOp17
 70
     1
102
RTVSPropertyOp18
 70
     1
102
RTVSPropertyOp19
 70
     1
102
RTVSPropertyOp20
 70
     1
102
RTVSPropertyOp21
 70
     1
102
RTVSPropertyOp22
 70
     1
102
RTVSPropertyOp23
 70
     1
102
RTVSPropertyOp24
 70
     1
102
RTVSPropertyOp25
 70
     1
102
RTVSPropertyOp26
 70
     1
102
RTVSPropertyOp27
 70
     1
102
RTVSPropertyOp28
 70
     1
102
RTVSPropertyOp29
 70
     1
102
RTVSPropertyOp30
 70
     1
102
RTVSPropertyOp31
 70
     1
102
RTVSPropertyOp32
 70
     1
102
RTVSPropertyOp33
 70
     1
102
RTVSPropertyOp34
 70
     1
102
RTVSPropertyOp35
 70
     1
102
RTVSPropertyOp36
 70
     1
102
RTVSPropertyOp37
 70
     1
102
RTVSPropertyOp38
 70
     1
102
RTVSPropertyOp39
 70
     1
102
RTVSPropertyOp40
 70
     1
102
RTVSPropertyOp41
 70
     1
102
RTVSPropertyOp42
 70
     1
102
RTVSPropertyOp43
 70
     1
102
RTVSPropertyOp44
 70
     1
102
RTVSPropertyOp45
 70
     1
102
RTVSPropertyOp46
 70
     1
102
RTVSPropertyOp47
 70
     1
102
RTVSPropertyOp48
 70
     1
102
RTVSPropertyOp49
 70
     1
102
RTVSPropertyOp50
 70
     1
102
RTVSPropertyOp51
 70
     0
102
RTVSPropertyOp52
 70
     0
102
RTVSPropertyOp53
 70
     1
102
RTVSPropertyOp54
 70
     1
102
RTVSPropertyOp55
 70
     1
102
RTVSPropertyOp56
 70
     1
102
RTVSPropertyOp57
 70
     1
102
RTVSPropertyOp58
 70
     1
102
RTVSPropertyOp59
 70
     1
102
RTVSPropertyOp60
 70
     1
102
RTVSPropertyOp61
 70
     1
102
RTVSPropertyOp62
 70
     1
  0
XRECORD
  5
A5CF
102
{ACAD_REACTORS
330
A5CE
102
}
330
A5CE
100
AcDbXrecord
280
     1
102
RTVSPost2010Prop28
280
     0
102
RTVSPost2010PropOp28
 70
     1
102
RTVSPost2010Prop29
280
     1
102
RTVSPost2010PropOp29
 70
     1
102
RTVSPost2010Prop30
280
     1
102
RTVSPost2010PropOp30
 70
     1
102
RTVSPost2010Prop31
280
     0
102
RTVSPost2010PropOp31
 70
     1
102
RTVSPost2010Prop32
280
     0
102
RTVSPost2010PropOp32
 70
     1
102
RTVSPost2010Prop33
280
     0
102
RTVSPost2010PropOp33
 70
     1
102
RTVSPost2010Prop34
280
     0
102
RTVSPost2010PropOp34
 70
     1
102
RTVSPost2010Prop35
280
     0
102
RTVSPost2010PropOp35
 70
     1
102
RTVSPost2010Prop36
280
     0
102
RTVSPost2010PropOp36
 70
     1
102
RTVSPost2010Prop37
 90
       50
102
RTVSPost2010PropOp37
 70
     1
102
RTVSPost2010Prop38
140
0.0
102
RTVSPost2010PropOp38
 70
     1
102
RTVSPost2010Prop39
140
1.0
102
RTVSPost2010PropOp39
 70
     1
102
RTVSPost2010Prop40
 90
        0
102
RTVSPost2010PropOp40
 70
     1
102
RTVSPost2010Prop41ColorIndex
 90
       18
102
RTVSPost2010Prop41ColorRGB
 90
        0
102
RTVSPost2010PropOp41
 70
     1
102
RTVSPost2010Prop42
 90
       50
102
RTVSPost2010PropOp42
 70
     1
102
RTVSPost2010Prop43
 90
        3
102
RTVSPost2010PropOp43
 70
     1
102
RTVSPost2010Prop44ColorIndex
 90
        5
102
RTVSPost2010Prop44ColorRGB
 90
      255
102
RTVSPost2010PropOp44
 70
     1
102
RTVSPost2010Prop45
280
     0
102
RTVSPost2010PropOp45
 70
     1
102
RTVSPost2010Prop46
 90
       50
102
RTVSPost2010PropOp46
 70
     1
102
RTVSPost2010Prop47
 90
       50
102
RTVSPost2010PropOp47
 70
     1
102
RTVSPost2010Prop48
 90
       50
102
RTVSPost2010PropOp48
 70
     1
102
RTVSPost2010Prop49
280
     0
102
RTVSPost2010PropOp49
 70
     1
102
RTVSPost2010Prop50
 90
       50
102
RTVSPost2010PropOp50
 70
     1
102
RTVSPost2010Prop51ColorIndex
 90
      256
102
RTVSPost2010Prop51ColorRGB
 90
-16777216
102
RTVSPost2010PropOp51
 70
     0
102
RTVSPost2010Prop52
140
1.0
102
RTVSPost2010PropOp52
 70
     0
102
RTVSPost2010Prop53
 90
        2
102
RTVSPost2010PropOp53
 70
     1
102
RTVSPost2010Prop54
  1
strokes_ogs.tif
102
RTVSPost2010PropOp54
 70
     1
102
RTVSPost2010Prop55
280
     0
102
RTVSPost2010PropOp55
 70
     1
102
RTVSPost2010Prop56
140
1.0
102
RTVSPost2010PropOp56
 70
     1
102
RTVSPost2010Prop57
140
1.0
102
RTVSPost2010PropOp57
 70
     1
102
RTVSPropertyOp0
 70
     1
102
RTVSPropertyOp1
 70
     1
102
RTVSPropertyOp2
 70
     1
102
RTVSPropertyOp3
 70
     1
102
RTVSPropertyOp4
 70
     1
102
RTVSPropertyOp5
 70
     1
102
RTVSPropertyOp6
 70
     1
102
RTVSPropertyOp7
 70
     1
102
RTVSPropertyOp8
 70
     1
102
RTVSPropertyOp9
 70
     1
102
RTVSPropertyOp10
 70
     1
102
RTVSPropertyOp11
 70
     1
102
RTVSPropertyOp12
 70
     1
102
RTVSPropertyOp13
 70
     1
102
RTVSPropertyOp14
 70
     1
102
RTVSPropertyOp15
 70
     1
102
RTVSPropertyOp16
 70
     1
102
RTVSPropertyOp17
 70
     1
102
RTVSPropertyOp18
 70
     1
102
RTVSPropertyOp19
 70
     1
102
RTVSPropertyOp20
 70
     1
102
RTVSPropertyOp21
 70
     1
102
RTVSPropertyOp22
 70
     1
102
RTVSPropertyOp23
 70
     1
102
RTVSPropertyOp24
 70
     1
102
RTVSPropertyOp25
 70
     1
102
RTVSPropertyOp26
 70
     1
102
RTVSPropertyOp27
 70
     1
102
RTVSPropertyOp28
 70
     1
102
RTVSPropertyOp29
 70
     1
102
RTVSPropertyOp30
 70
     1
102
RTVSPropertyOp31
 70
     1
102
RTVSPropertyOp32
 70
     1
102
RTVSPropertyOp33
 70
     1
102
RTVSPropertyOp34
 70
     1
102
RTVSPropertyOp35
 70
     1
102
RTVSPropertyOp36
 70
     1
102
RTVSPropertyOp37
 70
     1
102
RTVSPropertyOp38
 70
     1
102
RTVSPropertyOp39
 70
     1
102
RTVSPropertyOp40
 70
     1
102
RTVSPropertyOp41
 70
     1
102
RTVSPropertyOp42
 70
     1
102
RTVSPropertyOp43
 70
     1
102
RTVSPropertyOp44
 70
     1
102
RTVSPropertyOp45
 70
     1
102
RTVSPropertyOp46
 70
     1
102
RTVSPropertyOp47
 70
     1
102
RTVSPropertyOp48
 70
     1
102
RTVSPropertyOp49
 70
     1
102
RTVSPropertyOp50
 70
     1
102
RTVSPropertyOp51
 70
     0
102
RTVSPropertyOp52
 70
     0
102
RTVSPropertyOp53
 70
     1
102
RTVSPropertyOp54
 70
     1
102
RTVSPropertyOp55
 70
     1
102
RTVSPropertyOp56
 70
     1
102
RTVSPropertyOp57
 70
     1
102
RTVSPropertyOp58
 70
     1
102
RTVSPropertyOp59
 70
     1
102
RTVSPropertyOp60
 70
     1
102
RTVSPropertyOp61
 70
     1
102
RTVSPropertyOp62
 70
     1
  0
XRECORD
  5
A5D7
102
{ACAD_REACTORS
330
A5D6
102
}
330
A5D6
100
AcDbXrecord
280
     1
102
RTVSPost2010Prop28
280
     0
102
RTVSPost2010PropOp28
 70
     1
102
RTVSPost2010Prop29
280
     1
102
RTVSPost2010PropOp29
 70
     1
102
RTVSPost2010Prop30
280
     1
102
RTVSPost2010PropOp30
 70
     1
102
RTVSPost2010Prop31
280
     0
102
RTVSPost2010PropOp31
 70
     1
102
RTVSPost2010Prop32
280
     0
102
RTVSPost2010PropOp32
 70
     1
102
RTVSPost2010Prop33
280
     0
102
RTVSPost2010PropOp33
 70
     1
102
RTVSPost2010Prop34
280
     0
102
RTVSPost2010PropOp34
 70
     1
102
RTVSPost2010Prop35
280
     0
102
RTVSPost2010PropOp35
 70
     1
102
RTVSPost2010Prop36
280
     0
102
RTVSPost2010PropOp36
 70
     1
102
RTVSPost2010Prop37
 90
       50
102
RTVSPost2010PropOp37
 70
     1
102
RTVSPost2010Prop38
140
0.0
102
RTVSPost2010PropOp38
 70
     1
102
RTVSPost2010Prop39
140
1.0
102
RTVSPost2010PropOp39
 70
     1
102
RTVSPost2010Prop40
 90
        0
102
RTVSPost2010PropOp40
 70
     1
102
RTVSPost2010Prop41ColorIndex
 90
       18
102
RTVSPost2010Prop41ColorRGB
 90
        0
102
RTVSPost2010PropOp41
 70
     1
102
RTVSPost2010Prop42
 90
       50
102
RTVSPost2010PropOp42
 70
     1
102
RTVSPost2010Prop43
 90
        3
102
RTVSPost2010PropOp43
 70
     1
102
RTVSPost2010Prop44ColorIndex
 90
        5
102
RTVSPost2010Prop44ColorRGB
 90
      255
102
RTVSPost2010PropOp44
 70
     1
102
RTVSPost2010Prop45
280
     0
102
RTVSPost2010PropOp45
 70
     1
102
RTVSPost2010Prop46
 90
       50
102
RTVSPost2010PropOp46
 70
     1
102
RTVSPost2010Prop47
 90
       50
102
RTVSPost2010PropOp47
 70
     1
102
RTVSPost2010Prop48
 90
       50
102
RTVSPost2010PropOp48
 70
     1
102
RTVSPost2010Prop49
280
     0
102
RTVSPost2010PropOp49
 70
     1
102
RTVSPost2010Prop50
 90
       50
102
RTVSPost2010PropOp50
 70
     1
102
RTVSPost2010Prop51ColorIndex
 90
      256
102
RTVSPost2010Prop51ColorRGB
 90
-16777216
102
RTVSPost2010PropOp51
 70
     0
102
RTVSPost2010Prop52
140
1.0
102
RTVSPost2010PropOp52
 70
     0
102
RTVSPost2010Prop53
 90
        2
102
RTVSPost2010PropOp53
 70
     1
102
RTVSPost2010Prop54
  1
strokes_ogs.tif
102
RTVSPost2010PropOp54
 70
     1
102
RTVSPost2010Prop55
280
     0
102
RTVSPost2010PropOp55
 70
     1
102
RTVSPost2010Prop56
140
1.0
102
RTVSPost2010PropOp56
 70
     1
102
RTVSPost2010Prop57
140
1.0
102
RTVSPost2010PropOp57
 70
     1
102
RTVSPropertyOp0
 70
     1
102
RTVSPropertyOp1
 70
     1
102
RTVSPropertyOp2
 70
     1
102
RTVSPropertyOp3
 70
     1
102
RTVSPropertyOp4
 70
     1
102
RTVSPropertyOp5
 70
     1
102
RTVSPropertyOp6
 70
     1
102
RTVSPropertyOp7
 70
     1
102
RTVSPropertyOp8
 70
     1
102
RTVSPropertyOp9
 70
     1
102
RTVSPropertyOp10
 70
     1
102
RTVSPropertyOp11
 70
     1
102
RTVSPropertyOp12
 70
     1
102
RTVSPropertyOp13
 70
     1
102
RTVSPropertyOp14
 70
     1
102
RTVSPropertyOp15
 70
     1
102
RTVSPropertyOp16
 70
     1
102
RTVSPropertyOp17
 70
     1
102
RTVSPropertyOp18
 70
     1
102
RTVSPropertyOp19
 70
     1
102
RTVSPropertyOp20
 70
     1
102
RTVSPropertyOp21
 70
     1
102
RTVSPropertyOp22
 70
     1
102
RTVSPropertyOp23
 70
     1
102
RTVSPropertyOp24
 70
     1
102
RTVSPropertyOp25
 70
     1
102
RTVSPropertyOp26
 70
     1
102
RTVSPropertyOp27
 70
     1
102
RTVSPropertyOp28
 70
     1
102
RTVSPropertyOp29
 70
     1
102
RTVSPropertyOp30
 70
     1
102
RTVSPropertyOp31
 70
     1
102
RTVSPropertyOp32
 70
     1
102
RTVSPropertyOp33
 70
     1
102
RTVSPropertyOp34
 70
     1
102
RTVSPropertyOp35
 70
     1
102
RTVSPropertyOp36
 70
     1
102
RTVSPropertyOp37
 70
     1
102
RTVSPropertyOp38
 70
     1
102
RTVSPropertyOp39
 70
     1
102
RTVSPropertyOp40
 70
     1
102
RTVSPropertyOp41
 70
     1
102
RTVSPropertyOp42
 70
     1
102
RTVSPropertyOp43
 70
     1
102
RTVSPropertyOp44
 70
     1
102
RTVSPropertyOp45
 70
     1
102
RTVSPropertyOp46
 70
     1
102
RTVSPropertyOp47
 70
     1
102
RTVSPropertyOp48
 70
     1
102
RTVSPropertyOp49
 70
     1
102
RTVSPropertyOp50
 70
     1
102
RTVSPropertyOp51
 70
     0
102
RTVSPropertyOp52
 70
     0
102
RTVSPropertyOp53
 70
     1
102
RTVSPropertyOp54
 70
     1
102
RTVSPropertyOp55
 70
     1
102
RTVSPropertyOp56
 70
     1
102
RTVSPropertyOp57
 70
     1
102
RTVSPropertyOp58
 70
     1
102
RTVSPropertyOp59
 70
     1
102
RTVSPropertyOp60
 70
     1
102
RTVSPropertyOp61
 70
     1
102
RTVSPropertyOp62
 70
     1
  0
XRECORD
  5
A5F3
102
{ACAD_REACTORS
330
A5F2
102
}
330
A5F2
100
AcDbXrecord
280
     1
102
RTVSPost2010Prop28
280
     0
102
RTVSPost2010PropOp28
 70
     1
102
RTVSPost2010Prop29
280
     1
102
RTVSPost2010PropOp29
 70
     1
102
RTVSPost2010Prop30
280
     1
102
RTVSPost2010PropOp30
 70
     1
102
RTVSPost2010Prop31
280
     0
102
RTVSPost2010PropOp31
 70
     1
102
RTVSPost2010Prop32
280
     0
102
RTVSPost2010PropOp32
 70
     1
102
RTVSPost2010Prop33
280
     0
102
RTVSPost2010PropOp33
 70
     1
102
RTVSPost2010Prop34
280
     0
102
RTVSPost2010PropOp34
 70
     1
102
RTVSPost2010Prop35
280
     0
102
RTVSPost2010PropOp35
 70
     1
102
RTVSPost2010Prop36
280
     0
102
RTVSPost2010PropOp36
 70
     1
102
RTVSPost2010Prop37
 90
       50
102
RTVSPost2010PropOp37
 70
     0
102
RTVSPost2010Prop38
140
0.0
102
RTVSPost2010PropOp38
 70
     0
102
RTVSPost2010Prop39
140
1.0
102
RTVSPost2010PropOp39
 70
     0
102
RTVSPost2010Prop40
 90
        0
102
RTVSPost2010PropOp40
 70
     0
102
RTVSPost2010Prop41ColorIndex
 90
       18
102
RTVSPost2010Prop41ColorRGB
 90
        0
102
RTVSPost2010PropOp41
 70
     0
102
RTVSPost2010Prop42
 90
       50
102
RTVSPost2010PropOp42
 70
     0
102
RTVSPost2010Prop43
 90
        3
102
RTVSPost2010PropOp43
 70
     0
102
RTVSPost2010Prop44ColorIndex
 90
        5
102
RTVSPost2010Prop44ColorRGB
 90
      255
102
RTVSPost2010PropOp44
 70
     0
102
RTVSPost2010Prop45
280
     0
102
RTVSPost2010PropOp45
 70
     1
102
RTVSPost2010Prop46
 90
       50
102
RTVSPost2010PropOp46
 70
     0
102
RTVSPost2010Prop47
 90
       50
102
RTVSPost2010PropOp47
 70
     0
102
RTVSPost2010Prop48
 90
       50
102
RTVSPost2010PropOp48
 70
     0
102
RTVSPost2010Prop49
280
     0
102
RTVSPost2010PropOp49
 70
     1
102
RTVSPost2010Prop50
 90
       50
102
RTVSPost2010PropOp50
 70
     0
102
RTVSPost2010Prop51ColorIndex
 90
      256
102
RTVSPost2010Prop51ColorRGB
 90
-16777216
102
RTVSPost2010PropOp51
 70
     0
102
RTVSPost2010Prop52
140
1.0
102
RTVSPost2010PropOp52
 70
     0
102
RTVSPost2010Prop53
 90
        2
102
RTVSPost2010PropOp53
 70
     0
102
RTVSPost2010Prop54
  1
strokes_ogs.tif
102
RTVSPost2010PropOp54
 70
     0
102
RTVSPost2010Prop55
280
     0
102
RTVSPost2010PropOp55
 70
     1
102
RTVSPost2010Prop56
140
1.0
102
RTVSPost2010PropOp56
 70
     0
102
RTVSPost2010Prop57
140
1.0
102
RTVSPost2010PropOp57
 70
     0
102
RTVSPropertyOp0
 70
     0
102
RTVSPropertyOp1
 70
     0
102
RTVSPropertyOp2
 70
     0
102
RTVSPropertyOp3
 70
     0
102
RTVSPropertyOp4
 70
     0
102
RTVSPropertyOp5
 70
     0
102
RTVSPropertyOp6
 70
     0
102
RTVSPropertyOp7
 70
     0
102
RTVSPropertyOp8
 70
     0
102
RTVSPropertyOp9
 70
     0
102
RTVSPropertyOp10
 70
     0
102
RTVSPropertyOp11
 70
     0
102
RTVSPropertyOp12
 70
     0
102
RTVSPropertyOp13
 70
     0
102
RTVSPropertyOp14
 70
     2
102
RTVSPropertyOp15
 70
     0
102
RTVSPropertyOp16
 70
     0
102
RTVSPropertyOp17
 70
     0
102
RTVSPropertyOp18
 70
     0
102
RTVSPropertyOp19
 70
     0
102
RTVSPropertyOp20
 70
     0
102
RTVSPropertyOp21
 70
     0
102
RTVSPropertyOp22
 70
     0
102
RTVSPropertyOp23
 70
     0
102
RTVSPropertyOp24
 70
     0
102
RTVSPropertyOp25
 70
     0
102
RTVSPropertyOp26
 70
     0
102
RTVSPropertyOp27
 70
     0
102
RTVSPropertyOp28
 70
     1
102
RTVSPropertyOp29
 70
     1
102
RTVSPropertyOp30
 70
     1
102
RTVSPropertyOp31
 70
     1
102
RTVSPropertyOp32
 70
     1
102
RTVSPropertyOp33
 70
     1
102
RTVSPropertyOp34
 70
     1
102
RTVSPropertyOp35
 70
     1
102
RTVSPropertyOp36
 70
     1
102
RTVSPropertyOp37
 70
     0
102
RTVSPropertyOp38
 70
     0
102
RTVSPropertyOp39
 70
     0
102
RTVSPropertyOp40
 70
     0
102
RTVSPropertyOp41
 70
     0
102
RTVSPropertyOp42
 70
     0
102
RTVSPropertyOp43
 70
     0
102
RTVSPropertyOp44
 70
     0
102
RTVSPropertyOp45
 70
     1
102
RTVSPropertyOp46
 70
     0
102
RTVSPropertyOp47
 70
     0
102
RTVSPropertyOp48
 70
     0
102
RTVSPropertyOp49
 70
     1
102
RTVSPropertyOp50
 70
     0
102
RTVSPropertyOp51
 70
     0
102
RTVSPropertyOp52
 70
     0
102
RTVSPropertyOp53
 70
     0
102
RTVSPropertyOp54
 70
     0
102
RTVSPropertyOp55
 70
     1
102
RTVSPropertyOp56
 70
     0
102
RTVSPropertyOp57
 70
     0
102
RTVSPropertyOp58
 70
     0
102
RTVSPropertyOp59
 70
     0
102
RTVSPropertyOp60
 70
     0
102
RTVSPropertyOp61
 70
     0
102
RTVSPropertyOp62
 70
     0
  0
XRECORD
  5
A5E3
102
{ACAD_REACTORS
330
A5E2
102
}
330
A5E2
100
AcDbXrecord
280
     1
102
RTVSPost2010Prop28
280
     0
102
RTVSPost2010PropOp28
 70
     1
102
RTVSPost2010Prop29
280
     1
102
RTVSPost2010PropOp29
 70
     1
102
RTVSPost2010Prop30
280
     1
102
RTVSPost2010PropOp30
 70
     1
102
RTVSPost2010Prop31
280
     0
102
RTVSPost2010PropOp31
 70
     1
102
RTVSPost2010Prop32
280
     0
102
RTVSPost2010PropOp32
 70
     1
102
RTVSPost2010Prop33
280
     0
102
RTVSPost2010PropOp33
 70
     1
102
RTVSPost2010Prop34
280
     0
102
RTVSPost2010PropOp34
 70
     1
102
RTVSPost2010Prop35
280
     0
102
RTVSPost2010PropOp35
 70
     1
102
RTVSPost2010Prop36
280
     0
102
RTVSPost2010PropOp36
 70
     1
102
RTVSPost2010Prop37
 90
       50
102
RTVSPost2010PropOp37
 70
     1
102
RTVSPost2010Prop38
140
0.0
102
RTVSPost2010PropOp38
 70
     1
102
RTVSPost2010Prop39
140
1.0
102
RTVSPost2010PropOp39
 70
     1
102
RTVSPost2010Prop40
 90
        0
102
RTVSPost2010PropOp40
 70
     1
102
RTVSPost2010Prop41ColorIndex
 90
       18
102
RTVSPost2010Prop41ColorRGB
 90
        0
102
RTVSPost2010PropOp41
 70
     1
102
RTVSPost2010Prop42
 90
       50
102
RTVSPost2010PropOp42
 70
     1
102
RTVSPost2010Prop43
 90
        3
102
RTVSPost2010PropOp43
 70
     1
102
RTVSPost2010Prop44ColorIndex
 90
        5
102
RTVSPost2010Prop44ColorRGB
 90
      255
102
RTVSPost2010PropOp44
 70
     1
102
RTVSPost2010Prop45
280
     0
102
RTVSPost2010PropOp45
 70
     1
102
RTVSPost2010Prop46
 90
       50
102
RTVSPost2010PropOp46
 70
     1
102
RTVSPost2010Prop47
 90
       50
102
RTVSPost2010PropOp47
 70
     1
102
RTVSPost2010Prop48
 90
       50
102
RTVSPost2010PropOp48
 70
     1
102
RTVSPost2010Prop49
280
     0
102
RTVSPost2010PropOp49
 70
     1
102
RTVSPost2010Prop50
 90
       50
102
RTVSPost2010PropOp50
 70
     1
102
RTVSPost2010Prop51ColorIndex
 90
      256
102
RTVSPost2010Prop51ColorRGB
 90
-16777216
102
RTVSPost2010PropOp51
 70
     0
102
RTVSPost2010Prop52
140
1.0
102
RTVSPost2010PropOp52
 70
     0
102
RTVSPost2010Prop53
 90
        2
102
RTVSPost2010PropOp53
 70
     1
102
RTVSPost2010Prop54
  1
strokes_ogs.tif
102
RTVSPost2010PropOp54
 70
     1
102
RTVSPost2010Prop55
280
     0
102
RTVSPost2010PropOp55
 70
     1
102
RTVSPost2010Prop56
140
1.0
102
RTVSPost2010PropOp56
 70
     1
102
RTVSPost2010Prop57
140
1.0
102
RTVSPost2010PropOp57
 70
     1
102
RTVSPropertyOp0
 70
     1
102
RTVSPropertyOp1
 70
     1
102
RTVSPropertyOp2
 70
     1
102
RTVSPropertyOp3
 70
     1
102
RTVSPropertyOp4
 70
     1
102
RTVSPropertyOp5
 70
     1
102
RTVSPropertyOp6
 70
     1
102
RTVSPropertyOp7
 70
     1
102
RTVSPropertyOp8
 70
     1
102
RTVSPropertyOp9
 70
     1
102
RTVSPropertyOp10
 70
     1
102
RTVSPropertyOp11
 70
     1
102
RTVSPropertyOp12
 70
     1
102
RTVSPropertyOp13
 70
     1
102
RTVSPropertyOp14
 70
     1
102
RTVSPropertyOp15
 70
     1
102
RTVSPropertyOp16
 70
     1
102
RTVSPropertyOp17
 70
     1
102
RTVSPropertyOp18
 70
     1
102
RTVSPropertyOp19
 70
     1
102
RTVSPropertyOp20
 70
     1
102
RTVSPropertyOp21
 70
     1
102
RTVSPropertyOp22
 70
     1
102
RTVSPropertyOp23
 70
     1
102
RTVSPropertyOp24
 70
     1
102
RTVSPropertyOp25
 70
     1
102
RTVSPropertyOp26
 70
     1
102
RTVSPropertyOp27
 70
     1
102
RTVSPropertyOp28
 70
     1
102
RTVSPropertyOp29
 70
     1
102
RTVSPropertyOp30
 70
     1
102
RTVSPropertyOp31
 70
     1
102
RTVSPropertyOp32
 70
     1
102
RTVSPropertyOp33
 70
     1
102
RTVSPropertyOp34
 70
     1
102
RTVSPropertyOp35
 70
     1
102
RTVSPropertyOp36
 70
     1
102
RTVSPropertyOp37
 70
     1
102
RTVSPropertyOp38
 70
     1
102
RTVSPropertyOp39
 70
     1
102
RTVSPropertyOp40
 70
     1
102
RTVSPropertyOp41
 70
     1
102
RTVSPropertyOp42
 70
     1
102
RTVSPropertyOp43
 70
     1
102
RTVSPropertyOp44
 70
     1
102
RTVSPropertyOp45
 70
     1
102
RTVSPropertyOp46
 70
     1
102
RTVSPropertyOp47
 70
     1
102
RTVSPropertyOp48
 70
     1
102
RTVSPropertyOp49
 70
     1
102
RTVSPropertyOp50
 70
     1
102
RTVSPropertyOp51
 70
     0
102
RTVSPropertyOp52
 70
     0
102
RTVSPropertyOp53
 70
     1
102
RTVSPropertyOp54
 70
     1
102
RTVSPropertyOp55
 70
     1
102
RTVSPropertyOp56
 70
     1
102
RTVSPropertyOp57
 70
     1
102
RTVSPropertyOp58
 70
     1
102
RTVSPropertyOp59
 70
     1
102
RTVSPropertyOp60
 70
     1
102
RTVSPropertyOp61
 70
     1
102
RTVSPropertyOp62
 70
     1
  0
XRECORD
  5
A5F5
102
{ACAD_REACTORS
330
A5F4
102
}
330
A5F4
100
AcDbXrecord
280
     1
102
RTVSPost2010Prop28
280
     0
102
RTVSPost2010PropOp28
 70
     1
102
RTVSPost2010Prop29
280
     1
102
RTVSPost2010PropOp29
 70
     1
102
RTVSPost2010Prop30
280
     1
102
RTVSPost2010PropOp30
 70
     1
102
RTVSPost2010Prop31
280
     0
102
RTVSPost2010PropOp31
 70
     1
102
RTVSPost2010Prop32
280
     0
102
RTVSPost2010PropOp32
 70
     1
102
RTVSPost2010Prop33
280
     0
102
RTVSPost2010PropOp33
 70
     1
102
RTVSPost2010Prop34
280
     0
102
RTVSPost2010PropOp34
 70
     1
102
RTVSPost2010Prop35
280
     0
102
RTVSPost2010PropOp35
 70
     1
102
RTVSPost2010Prop36
280
     0
102
RTVSPost2010PropOp36
 70
     1
102
RTVSPost2010Prop37
 90
       50
102
RTVSPost2010PropOp37
 70
     0
102
RTVSPost2010Prop38
140
0.0
102
RTVSPost2010PropOp38
 70
     0
102
RTVSPost2010Prop39
140
1.0
102
RTVSPost2010PropOp39
 70
     0
102
RTVSPost2010Prop40
 90
        0
102
RTVSPost2010PropOp40
 70
     0
102
RTVSPost2010Prop41ColorIndex
 90
       18
102
RTVSPost2010Prop41ColorRGB
 90
        0
102
RTVSPost2010PropOp41
 70
     0
102
RTVSPost2010Prop42
 90
       50
102
RTVSPost2010PropOp42
 70
     0
102
RTVSPost2010Prop43
 90
        3
102
RTVSPost2010PropOp43
 70
     0
102
RTVSPost2010Prop44ColorIndex
 90
        5
102
RTVSPost2010Prop44ColorRGB
 90
      255
102
RTVSPost2010PropOp44
 70
     0
102
RTVSPost2010Prop45
280
     0
102
RTVSPost2010PropOp45
 70
     1
102
RTVSPost2010Prop46
 90
       50
102
RTVSPost2010PropOp46
 70
     0
102
RTVSPost2010Prop47
 90
       50
102
RTVSPost2010PropOp47
 70
     0
102
RTVSPost2010Prop48
 90
       50
102
RTVSPost2010PropOp48
 70
     0
102
RTVSPost2010Prop49
280
     0
102
RTVSPost2010PropOp49
 70
     1
102
RTVSPost2010Prop50
 90
       50
102
RTVSPost2010PropOp50
 70
     0
102
RTVSPost2010Prop51ColorIndex
 90
      256
102
RTVSPost2010Prop51ColorRGB
 90
-16777216
102
RTVSPost2010PropOp51
 70
     0
102
RTVSPost2010Prop52
140
1.0
102
RTVSPost2010PropOp52
 70
     0
102
RTVSPost2010Prop53
 90
        2
102
RTVSPost2010PropOp53
 70
     0
102
RTVSPost2010Prop54
  1
strokes_ogs.tif
102
RTVSPost2010PropOp54
 70
     0
102
RTVSPost2010Prop55
280
     0
102
RTVSPost2010PropOp55
 70
     1
102
RTVSPost2010Prop56
140
1.0
102
RTVSPost2010PropOp56
 70
     0
102
RTVSPost2010Prop57
140
1.0
102
RTVSPost2010PropOp57
 70
     0
102
RTVSPropertyOp0
 70
     0
102
RTVSPropertyOp1
 70
     0
102
RTVSPropertyOp2
 70
     0
102
RTVSPropertyOp3
 70
     0
102
RTVSPropertyOp4
 70
     0
102
RTVSPropertyOp5
 70
     0
102
RTVSPropertyOp6
 70
     0
102
RTVSPropertyOp7
 70
     0
102
RTVSPropertyOp8
 70
     0
102
RTVSPropertyOp9
 70
     0
102
RTVSPropertyOp10
 70
     0
102
RTVSPropertyOp11
 70
     0
102
RTVSPropertyOp12
 70
     0
102
RTVSPropertyOp13
 70
     0
102
RTVSPropertyOp14
 70
     2
102
RTVSPropertyOp15
 70
     0
102
RTVSPropertyOp16
 70
     0
102
RTVSPropertyOp17
 70
     0
102
RTVSPropertyOp18
 70
     0
102
RTVSPropertyOp19
 70
     0
102
RTVSPropertyOp20
 70
     0
102
RTVSPropertyOp21
 70
     0
102
RTVSPropertyOp22
 70
     0
102
RTVSPropertyOp23
 70
     0
102
RTVSPropertyOp24
 70
     0
102
RTVSPropertyOp25
 70
     0
102
RTVSPropertyOp26
 70
     0
102
RTVSPropertyOp27
 70
     0
102
RTVSPropertyOp28
 70
     1
102
RTVSPropertyOp29
 70
     1
102
RTVSPropertyOp30
 70
     1
102
RTVSPropertyOp31
 70
     1
102
RTVSPropertyOp32
 70
     1
102
RTVSPropertyOp33
 70
     1
102
RTVSPropertyOp34
 70
     1
102
RTVSPropertyOp35
 70
     1
102
RTVSPropertyOp36
 70
     1
102
RTVSPropertyOp37
 70
     0
102
RTVSPropertyOp38
 70
     0
102
RTVSPropertyOp39
 70
     0
102
RTVSPropertyOp40
 70
     0
102
RTVSPropertyOp41
 70
     0
102
RTVSPropertyOp42
 70
     0
102
RTVSPropertyOp43
 70
     0
102
RTVSPropertyOp44
 70
     0
102
RTVSPropertyOp45
 70
     1
102
RTVSPropertyOp46
 70
     0
102
RTVSPropertyOp47
 70
     0
102
RTVSPropertyOp48
 70
     0
102
RTVSPropertyOp49
 70
     1
102
RTVSPropertyOp50
 70
     0
102
RTVSPropertyOp51
 70
     0
102
RTVSPropertyOp52
 70
     0
102
RTVSPropertyOp53
 70
     0
102
RTVSPropertyOp54
 70
     0
102
RTVSPropertyOp55
 70
     1
102
RTVSPropertyOp56
 70
     0
102
RTVSPropertyOp57
 70
     0
102
RTVSPropertyOp58
 70
     0
102
RTVSPropertyOp59
 70
     0
102
RTVSPropertyOp60
 70
     0
102
RTVSPropertyOp61
 70
     0
102
RTVSPropertyOp62
 70
     0
  0
XRECORD
  5
A5DB
102
{ACAD_REACTORS
330
A5DA
102
}
330
A5DA
100
AcDbXrecord
280
     1
102
RTVSPost2010Prop28
280
     0
102
RTVSPost2010PropOp28
 70
     1
102
RTVSPost2010Prop29
280
     1
102
RTVSPost2010PropOp29
 70
     1
102
RTVSPost2010Prop30
280
     1
102
RTVSPost2010PropOp30
 70
     1
102
RTVSPost2010Prop31
280
     0
102
RTVSPost2010PropOp31
 70
     1
102
RTVSPost2010Prop32
280
     0
102
RTVSPost2010PropOp32
 70
     1
102
RTVSPost2010Prop33
280
     0
102
RTVSPost2010PropOp33
 70
     1
102
RTVSPost2010Prop34
280
     0
102
RTVSPost2010PropOp34
 70
     1
102
RTVSPost2010Prop35
280
     0
102
RTVSPost2010PropOp35
 70
     1
102
RTVSPost2010Prop36
280
     0
102
RTVSPost2010PropOp36
 70
     1
102
RTVSPost2010Prop37
 90
       50
102
RTVSPost2010PropOp37
 70
     1
102
RTVSPost2010Prop38
140
0.0
102
RTVSPost2010PropOp38
 70
     1
102
RTVSPost2010Prop39
140
1.0
102
RTVSPost2010PropOp39
 70
     1
102
RTVSPost2010Prop40
 90
        0
102
RTVSPost2010PropOp40
 70
     1
102
RTVSPost2010Prop41ColorIndex
 90
       18
102
RTVSPost2010Prop41ColorRGB
 90
        0
102
RTVSPost2010PropOp41
 70
     1
102
RTVSPost2010Prop42
 90
       50
102
RTVSPost2010PropOp42
 70
     1
102
RTVSPost2010Prop43
 90
        3
102
RTVSPost2010PropOp43
 70
     1
102
RTVSPost2010Prop44ColorIndex
 90
        5
102
RTVSPost2010Prop44ColorRGB
 90
      255
102
RTVSPost2010PropOp44
 70
     1
102
RTVSPost2010Prop45
280
     0
102
RTVSPost2010PropOp45
 70
     1
102
RTVSPost2010Prop46
 90
       50
102
RTVSPost2010PropOp46
 70
     1
102
RTVSPost2010Prop47
 90
       50
102
RTVSPost2010PropOp47
 70
     1
102
RTVSPost2010Prop48
 90
       50
102
RTVSPost2010PropOp48
 70
     1
102
RTVSPost2010Prop49
280
     0
102
RTVSPost2010PropOp49
 70
     1
102
RTVSPost2010Prop50
 90
       50
102
RTVSPost2010PropOp50
 70
     1
102
RTVSPost2010Prop51ColorIndex
 90
      256
102
RTVSPost2010Prop51ColorRGB
 90
-16777216
102
RTVSPost2010PropOp51
 70
     0
102
RTVSPost2010Prop52
140
1.0
102
RTVSPost2010PropOp52
 70
     0
102
RTVSPost2010Prop53
 90
        2
102
RTVSPost2010PropOp53
 70
     1
102
RTVSPost2010Prop54
  1
strokes_ogs.tif
102
RTVSPost2010PropOp54
 70
     1
102
RTVSPost2010Prop55
280
     0
102
RTVSPost2010PropOp55
 70
     1
102
RTVSPost2010Prop56
140
1.0
102
RTVSPost2010PropOp56
 70
     1
102
RTVSPost2010Prop57
140
1.0
102
RTVSPost2010PropOp57
 70
     1
102
RTVSPropertyOp0
 70
     1
102
RTVSPropertyOp1
 70
     1
102
RTVSPropertyOp2
 70
     1
102
RTVSPropertyOp3
 70
     1
102
RTVSPropertyOp4
 70
     1
102
RTVSPropertyOp5
 70
     1
102
RTVSPropertyOp6
 70
     1
102
RTVSPropertyOp7
 70
     1
102
RTVSPropertyOp8
 70
     1
102
RTVSPropertyOp9
 70
     1
102
RTVSPropertyOp10
 70
     1
102
RTVSPropertyOp11
 70
     1
102
RTVSPropertyOp12
 70
     1
102
RTVSPropertyOp13
 70
     1
102
RTVSPropertyOp14
 70
     1
102
RTVSPropertyOp15
 70
     1
102
RTVSPropertyOp16
 70
     1
102
RTVSPropertyOp17
 70
     1
102
RTVSPropertyOp18
 70
     1
102
RTVSPropertyOp19
 70
     1
102
RTVSPropertyOp20
 70
     1
102
RTVSPropertyOp21
 70
     1
102
RTVSPropertyOp22
 70
     1
102
RTVSPropertyOp23
 70
     1
102
RTVSPropertyOp24
 70
     1
102
RTVSPropertyOp25
 70
     1
102
RTVSPropertyOp26
 70
     1
102
RTVSPropertyOp27
 70
     1
102
RTVSPropertyOp28
 70
     1
102
RTVSPropertyOp29
 70
     1
102
RTVSPropertyOp30
 70
     1
102
RTVSPropertyOp31
 70
     1
102
RTVSPropertyOp32
 70
     1
102
RTVSPropertyOp33
 70
     1
102
RTVSPropertyOp34
 70
     1
102
RTVSPropertyOp35
 70
     1
102
RTVSPropertyOp36
 70
     1
102
RTVSPropertyOp37
 70
     1
102
RTVSPropertyOp38
 70
     1
102
RTVSPropertyOp39
 70
     1
102
RTVSPropertyOp40
 70
     1
102
RTVSPropertyOp41
 70
     1
102
RTVSPropertyOp42
 70
     1
102
RTVSPropertyOp43
 70
     1
102
RTVSPropertyOp44
 70
     1
102
RTVSPropertyOp45
 70
     1
102
RTVSPropertyOp46
 70
     1
102
RTVSPropertyOp47
 70
     1
102
RTVSPropertyOp48
 70
     1
102
RTVSPropertyOp49
 70
     1
102
RTVSPropertyOp50
 70
     1
102
RTVSPropertyOp51
 70
     0
102
RTVSPropertyOp52
 70
     0
102
RTVSPropertyOp53
 70
     1
102
RTVSPropertyOp54
 70
     1
102
RTVSPropertyOp55
 70
     1
102
RTVSPropertyOp56
 70
     1
102
RTVSPropertyOp57
 70
     1
102
RTVSPropertyOp58
 70
     1
102
RTVSPropertyOp59
 70
     1
102
RTVSPropertyOp60
 70
     1
102
RTVSPropertyOp61
 70
     1
102
RTVSPropertyOp62
 70
     1
  0
XRECORD
  5
A5F1
102
{ACAD_REACTORS
330
A5F0
102
}
330
A5F0
100
AcDbXrecord
280
     1
102
RTVSPost2010Prop28
280
     0
102
RTVSPost2010PropOp28
 70
     1
102
RTVSPost2010Prop29
280
     1
102
RTVSPost2010PropOp29
 70
     1
102
RTVSPost2010Prop30
280
     1
102
RTVSPost2010PropOp30
 70
     1
102
RTVSPost2010Prop31
280
     0
102
RTVSPost2010PropOp31
 70
     1
102
RTVSPost2010Prop32
280
     0
102
RTVSPost2010PropOp32
 70
     1
102
RTVSPost2010Prop33
280
     0
102
RTVSPost2010PropOp33
 70
     1
102
RTVSPost2010Prop34
280
     0
102
RTVSPost2010PropOp34
 70
     1
102
RTVSPost2010Prop35
280
     0
102
RTVSPost2010PropOp35
 70
     1
102
RTVSPost2010Prop36
280
     0
102
RTVSPost2010PropOp36
 70
     1
102
RTVSPost2010Prop37
 90
       50
102
RTVSPost2010PropOp37
 70
     1
102
RTVSPost2010Prop38
140
0.0
102
RTVSPost2010PropOp38
 70
     1
102
RTVSPost2010Prop39
140
1.0
102
RTVSPost2010PropOp39
 70
     1
102
RTVSPost2010Prop40
 90
        0
102
RTVSPost2010PropOp40
 70
     1
102
RTVSPost2010Prop41ColorIndex
 90
       18
102
RTVSPost2010Prop41ColorRGB
 90
        0
102
RTVSPost2010PropOp41
 70
     1
102
RTVSPost2010Prop42
 90
       50
102
RTVSPost2010PropOp42
 70
     1
102
RTVSPost2010Prop43
 90
        3
102
RTVSPost2010PropOp43
 70
     1
102
RTVSPost2010Prop44ColorIndex
 90
        5
102
RTVSPost2010Prop44ColorRGB
 90
      255
102
RTVSPost2010PropOp44
 70
     1
102
RTVSPost2010Prop45
280
     0
102
RTVSPost2010PropOp45
 70
     1
102
RTVSPost2010Prop46
 90
       50
102
RTVSPost2010PropOp46
 70
     1
102
RTVSPost2010Prop47
 90
       50
102
RTVSPost2010PropOp47
 70
     1
102
RTVSPost2010Prop48
 90
       50
102
RTVSPost2010PropOp48
 70
     1
102
RTVSPost2010Prop49
280
     0
102
RTVSPost2010PropOp49
 70
     1
102
RTVSPost2010Prop50
 90
       50
102
RTVSPost2010PropOp50
 70
     1
102
RTVSPost2010Prop51ColorIndex
 90
      256
102
RTVSPost2010Prop51ColorRGB
 90
-16777216
102
RTVSPost2010PropOp51
 70
     0
102
RTVSPost2010Prop52
140
1.0
102
RTVSPost2010PropOp52
 70
     0
102
RTVSPost2010Prop53
 90
        2
102
RTVSPost2010PropOp53
 70
     1
102
RTVSPost2010Prop54
  1
strokes_ogs.tif
102
RTVSPost2010PropOp54
 70
     1
102
RTVSPost2010Prop55
280
     0
102
RTVSPost2010PropOp55
 70
     1
102
RTVSPost2010Prop56
140
1.0
102
RTVSPost2010PropOp56
 70
     1
102
RTVSPost2010Prop57
140
1.0
102
RTVSPost2010PropOp57
 70
     1
102
RTVSPropertyOp0
 70
     1
102
RTVSPropertyOp1
 70
     1
102
RTVSPropertyOp2
 70
     1
102
RTVSPropertyOp3
 70
     1
102
RTVSPropertyOp4
 70
     1
102
RTVSPropertyOp5
 70
     1
102
RTVSPropertyOp6
 70
     1
102
RTVSPropertyOp7
 70
     1
102
RTVSPropertyOp8
 70
     1
102
RTVSPropertyOp9
 70
     1
102
RTVSPropertyOp10
 70
     1
102
RTVSPropertyOp11
 70
     1
102
RTVSPropertyOp12
 70
     1
102
RTVSPropertyOp13
 70
     1
102
RTVSPropertyOp14
 70
     1
102
RTVSPropertyOp15
 70
     1
102
RTVSPropertyOp16
 70
     1
102
RTVSPropertyOp17
 70
     1
102
RTVSPropertyOp18
 70
     1
102
RTVSPropertyOp19
 70
     1
102
RTVSPropertyOp20
 70
     1
102
RTVSPropertyOp21
 70
     1
102
RTVSPropertyOp22
 70
     1
102
RTVSPropertyOp23
 70
     1
102
RTVSPropertyOp24
 70
     1
102
RTVSPropertyOp25
 70
     1
102
RTVSPropertyOp26
 70
     1
102
RTVSPropertyOp27
 70
     1
102
RTVSPropertyOp28
 70
     1
102
RTVSPropertyOp29
 70
     1
102
RTVSPropertyOp30
 70
     1
102
RTVSPropertyOp31
 70
     1
102
RTVSPropertyOp32
 70
     1
102
RTVSPropertyOp33
 70
     1
102
RTVSPropertyOp34
 70
     1
102
RTVSPropertyOp35
 70
     1
102
RTVSPropertyOp36
 70
     1
102
RTVSPropertyOp37
 70
     1
102
RTVSPropertyOp38
 70
     1
102
RTVSPropertyOp39
 70
     1
102
RTVSPropertyOp40
 70
     1
102
RTVSPropertyOp41
 70
     1
102
RTVSPropertyOp42
 70
     1
102
RTVSPropertyOp43
 70
     1
102
RTVSPropertyOp44
 70
     1
102
RTVSPropertyOp45
 70
     1
102
RTVSPropertyOp46
 70
     1
102
RTVSPropertyOp47
 70
     1
102
RTVSPropertyOp48
 70
     1
102
RTVSPropertyOp49
 70
     1
102
RTVSPropertyOp50
 70
     1
102
RTVSPropertyOp51
 70
     0
102
RTVSPropertyOp52
 70
     0
102
RTVSPropertyOp53
 70
     1
102
RTVSPropertyOp54
 70
     1
102
RTVSPropertyOp55
 70
     1
102
RTVSPropertyOp56
 70
     1
102
RTVSPropertyOp57
 70
     1
102
RTVSPropertyOp58
 70
     1
102
RTVSPropertyOp59
 70
     1
102
RTVSPropertyOp60
 70
     1
102
RTVSPropertyOp61
 70
     1
102
RTVSPropertyOp62
 70
     1
  0
XRECORD
  5
A5EF
102
{ACAD_REACTORS
330
A5EE
102
}
330
A5EE
100
AcDbXrecord
280
     1
102
RTVSPost2010Prop28
280
     0
102
RTVSPost2010PropOp28
 70
     1
102
RTVSPost2010Prop29
280
     1
102
RTVSPost2010PropOp29
 70
     1
102
RTVSPost2010Prop30
280
     1
102
RTVSPost2010PropOp30
 70
     1
102
RTVSPost2010Prop31
280
     0
102
RTVSPost2010PropOp31
 70
     1
102
RTVSPost2010Prop32
280
     0
102
RTVSPost2010PropOp32
 70
     1
102
RTVSPost2010Prop33
280
     0
102
RTVSPost2010PropOp33
 70
     1
102
RTVSPost2010Prop34
280
     0
102
RTVSPost2010PropOp34
 70
     1
102
RTVSPost2010Prop35
280
     0
102
RTVSPost2010PropOp35
 70
     1
102
RTVSPost2010Prop36
280
     0
102
RTVSPost2010PropOp36
 70
     1
102
RTVSPost2010Prop37
 90
       50
102
RTVSPost2010PropOp37
 70
     1
102
RTVSPost2010Prop38
140
0.0
102
RTVSPost2010PropOp38
 70
     1
102
RTVSPost2010Prop39
140
1.0
102
RTVSPost2010PropOp39
 70
     1
102
RTVSPost2010Prop40
 90
        0
102
RTVSPost2010PropOp40
 70
     1
102
RTVSPost2010Prop41ColorIndex
 90
       18
102
RTVSPost2010Prop41ColorRGB
 90
        0
102
RTVSPost2010PropOp41
 70
     1
102
RTVSPost2010Prop42
 90
       50
102
RTVSPost2010PropOp42
 70
     1
102
RTVSPost2010Prop43
 90
        3
102
RTVSPost2010PropOp43
 70
     1
102
RTVSPost2010Prop44ColorIndex
 90
        5
102
RTVSPost2010Prop44ColorRGB
 90
      255
102
RTVSPost2010PropOp44
 70
     1
102
RTVSPost2010Prop45
280
     0
102
RTVSPost2010PropOp45
 70
     1
102
RTVSPost2010Prop46
 90
       50
102
RTVSPost2010PropOp46
 70
     1
102
RTVSPost2010Prop47
 90
       50
102
RTVSPost2010PropOp47
 70
     1
102
RTVSPost2010Prop48
 90
       50
102
RTVSPost2010PropOp48
 70
     1
102
RTVSPost2010Prop49
280
     0
102
RTVSPost2010PropOp49
 70
     1
102
RTVSPost2010Prop50
 90
       50
102
RTVSPost2010PropOp50
 70
     1
102
RTVSPost2010Prop51ColorIndex
 90
      256
102
RTVSPost2010Prop51ColorRGB
 90
-16777216
102
RTVSPost2010PropOp51
 70
     0
102
RTVSPost2010Prop52
140
1.0
102
RTVSPost2010PropOp52
 70
     0
102
RTVSPost2010Prop53
 90
        2
102
RTVSPost2010PropOp53
 70
     1
102
RTVSPost2010Prop54
  1
strokes_ogs.tif
102
RTVSPost2010PropOp54
 70
     1
102
RTVSPost2010Prop55
280
     0
102
RTVSPost2010PropOp55
 70
     1
102
RTVSPost2010Prop56
140
1.0
102
RTVSPost2010PropOp56
 70
     1
102
RTVSPost2010Prop57
140
1.0
102
RTVSPost2010PropOp57
 70
     1
102
RTVSPropertyOp0
 70
     1
102
RTVSPropertyOp1
 70
     1
102
RTVSPropertyOp2
 70
     1
102
RTVSPropertyOp3
 70
     1
102
RTVSPropertyOp4
 70
     1
102
RTVSPropertyOp5
 70
     1
102
RTVSPropertyOp6
 70
     1
102
RTVSPropertyOp7
 70
     1
102
RTVSPropertyOp8
 70
     1
102
RTVSPropertyOp9
 70
     1
102
RTVSPropertyOp10
 70
     1
102
RTVSPropertyOp11
 70
     1
102
RTVSPropertyOp12
 70
     1
102
RTVSPropertyOp13
 70
     1
102
RTVSPropertyOp14
 70
     1
102
RTVSPropertyOp15
 70
     1
102
RTVSPropertyOp16
 70
     1
102
RTVSPropertyOp17
 70
     1
102
RTVSPropertyOp18
 70
     1
102
RTVSPropertyOp19
 70
     1
102
RTVSPropertyOp20
 70
     1
102
RTVSPropertyOp21
 70
     1
102
RTVSPropertyOp22
 70
     1
102
RTVSPropertyOp23
 70
     1
102
RTVSPropertyOp24
 70
     1
102
RTVSPropertyOp25
 70
     1
102
RTVSPropertyOp26
 70
     1
102
RTVSPropertyOp27
 70
     1
102
RTVSPropertyOp28
 70
     1
102
RTVSPropertyOp29
 70
     1
102
RTVSPropertyOp30
 70
     1
102
RTVSPropertyOp31
 70
     1
102
RTVSPropertyOp32
 70
     1
102
RTVSPropertyOp33
 70
     1
102
RTVSPropertyOp34
 70
     1
102
RTVSPropertyOp35
 70
     1
102
RTVSPropertyOp36
 70
     1
102
RTVSPropertyOp37
 70
     1
102
RTVSPropertyOp38
 70
     1
102
RTVSPropertyOp39
 70
     1
102
RTVSPropertyOp40
 70
     1
102
RTVSPropertyOp41
 70
     1
102
RTVSPropertyOp42
 70
     1
102
RTVSPropertyOp43
 70
     1
102
RTVSPropertyOp44
 70
     1
102
RTVSPropertyOp45
 70
     1
102
RTVSPropertyOp46
 70
     1
102
RTVSPropertyOp47
 70
     1
102
RTVSPropertyOp48
 70
     1
102
RTVSPropertyOp49
 70
     1
102
RTVSPropertyOp50
 70
     1
102
RTVSPropertyOp51
 70
     0
102
RTVSPropertyOp52
 70
     0
102
RTVSPropertyOp53
 70
     1
102
RTVSPropertyOp54
 70
     1
102
RTVSPropertyOp55
 70
     1
102
RTVSPropertyOp56
 70
     1
102
RTVSPropertyOp57
 70
     1
102
RTVSPropertyOp58
 70
     1
102
RTVSPropertyOp59
 70
     1
102
RTVSPropertyOp60
 70
     1
102
RTVSPropertyOp61
 70
     1
102
RTVSPropertyOp62
 70
     1
  0
XRECORD
  5
A5E9
102
{ACAD_REACTORS
330
A5E8
102
}
330
A5E8
100
AcDbXrecord
280
     1
102
RTVSPost2010Prop28
280
     0
102
RTVSPost2010PropOp28
 70
     1
102
RTVSPost2010Prop29
280
     1
102
RTVSPost2010PropOp29
 70
     1
102
RTVSPost2010Prop30
280
     1
102
RTVSPost2010PropOp30
 70
     1
102
RTVSPost2010Prop31
280
     0
102
RTVSPost2010PropOp31
 70
     1
102
RTVSPost2010Prop32
280
     0
102
RTVSPost2010PropOp32
 70
     1
102
RTVSPost2010Prop33
280
     0
102
RTVSPost2010PropOp33
 70
     1
102
RTVSPost2010Prop34
280
     0
102
RTVSPost2010PropOp34
 70
     1
102
RTVSPost2010Prop35
280
     0
102
RTVSPost2010PropOp35
 70
     1
102
RTVSPost2010Prop36
280
     0
102
RTVSPost2010PropOp36
 70
     1
102
RTVSPost2010Prop37
 90
       50
102
RTVSPost2010PropOp37
 70
     1
102
RTVSPost2010Prop38
140
0.0
102
RTVSPost2010PropOp38
 70
     1
102
RTVSPost2010Prop39
140
1.0
102
RTVSPost2010PropOp39
 70
     1
102
RTVSPost2010Prop40
 90
        0
102
RTVSPost2010PropOp40
 70
     1
102
RTVSPost2010Prop41ColorIndex
 90
       18
102
RTVSPost2010Prop41ColorRGB
 90
        0
102
RTVSPost2010PropOp41
 70
     1
102
RTVSPost2010Prop42
 90
       50
102
RTVSPost2010PropOp42
 70
     1
102
RTVSPost2010Prop43
 90
        3
102
RTVSPost2010PropOp43
 70
     1
102
RTVSPost2010Prop44ColorIndex
 90
        5
102
RTVSPost2010Prop44ColorRGB
 90
      255
102
RTVSPost2010PropOp44
 70
     1
102
RTVSPost2010Prop45
280
     0
102
RTVSPost2010PropOp45
 70
     1
102
RTVSPost2010Prop46
 90
       50
102
RTVSPost2010PropOp46
 70
     1
102
RTVSPost2010Prop47
 90
       50
102
RTVSPost2010PropOp47
 70
     1
102
RTVSPost2010Prop48
 90
       50
102
RTVSPost2010PropOp48
 70
     1
102
RTVSPost2010Prop49
280
     0
102
RTVSPost2010PropOp49
 70
     1
102
RTVSPost2010Prop50
 90
       50
102
RTVSPost2010PropOp50
 70
     1
102
RTVSPost2010Prop51ColorIndex
 90
      256
102
RTVSPost2010Prop51ColorRGB
 90
-16777216
102
RTVSPost2010PropOp51
 70
     0
102
RTVSPost2010Prop52
140
1.0
102
RTVSPost2010PropOp52
 70
     0
102
RTVSPost2010Prop53
 90
        2
102
RTVSPost2010PropOp53
 70
     1
102
RTVSPost2010Prop54
  1
strokes_ogs.tif
102
RTVSPost2010PropOp54
 70
     1
102
RTVSPost2010Prop55
280
     0
102
RTVSPost2010PropOp55
 70
     1
102
RTVSPost2010Prop56
140
1.0
102
RTVSPost2010PropOp56
 70
     1
102
RTVSPost2010Prop57
140
1.0
102
RTVSPost2010PropOp57
 70
     1
102
RTVSPropertyOp0
 70
     1
102
RTVSPropertyOp1
 70
     1
102
RTVSPropertyOp2
 70
     1
102
RTVSPropertyOp3
 70
     1
102
RTVSPropertyOp4
 70
     1
102
RTVSPropertyOp5
 70
     1
102
RTVSPropertyOp6
 70
     1
102
RTVSPropertyOp7
 70
     1
102
RTVSPropertyOp8
 70
     1
102
RTVSPropertyOp9
 70
     1
102
RTVSPropertyOp10
 70
     1
102
RTVSPropertyOp11
 70
     1
102
RTVSPropertyOp12
 70
     1
102
RTVSPropertyOp13
 70
     1
102
RTVSPropertyOp14
 70
     1
102
RTVSPropertyOp15
 70
     1
102
RTVSPropertyOp16
 70
     1
102
RTVSPropertyOp17
 70
     1
102
RTVSPropertyOp18
 70
     1
102
RTVSPropertyOp19
 70
     1
102
RTVSPropertyOp20
 70
     1
102
RTVSPropertyOp21
 70
     1
102
RTVSPropertyOp22
 70
     1
102
RTVSPropertyOp23
 70
     1
102
RTVSPropertyOp24
 70
     1
102
RTVSPropertyOp25
 70
     1
102
RTVSPropertyOp26
 70
     1
102
RTVSPropertyOp27
 70
     1
102
RTVSPropertyOp28
 70
     1
102
RTVSPropertyOp29
 70
     1
102
RTVSPropertyOp30
 70
     1
102
RTVSPropertyOp31
 70
     1
102
RTVSPropertyOp32
 70
     1
102
RTVSPropertyOp33
 70
     1
102
RTVSPropertyOp34
 70
     1
102
RTVSPropertyOp35
 70
     1
102
RTVSPropertyOp36
 70
     1
102
RTVSPropertyOp37
 70
     1
102
RTVSPropertyOp38
 70
     1
102
RTVSPropertyOp39
 70
     1
102
RTVSPropertyOp40
 70
     1
102
RTVSPropertyOp41
 70
     1
102
RTVSPropertyOp42
 70
     1
102
RTVSPropertyOp43
 70
     1
102
RTVSPropertyOp44
 70
     1
102
RTVSPropertyOp45
 70
     1
102
RTVSPropertyOp46
 70
     1
102
RTVSPropertyOp47
 70
     1
102
RTVSPropertyOp48
 70
     1
102
RTVSPropertyOp49
 70
     1
102
RTVSPropertyOp50
 70
     1
102
RTVSPropertyOp51
 70
     0
102
RTVSPropertyOp52
 70
     0
102
RTVSPropertyOp53
 70
     1
102
RTVSPropertyOp54
 70
     1
102
RTVSPropertyOp55
 70
     1
102
RTVSPropertyOp56
 70
     1
102
RTVSPropertyOp57
 70
     1
102
RTVSPropertyOp58
 70
     1
102
RTVSPropertyOp59
 70
     1
102
RTVSPropertyOp60
 70
     1
102
RTVSPropertyOp61
 70
     1
102
RTVSPropertyOp62
 70
     1
  0
XRECORD
  5
A5EB
102
{ACAD_REACTORS
330
A5EA
102
}
330
A5EA
100
AcDbXrecord
280
     1
102
RTVSPost2010Prop28
280
     0
102
RTVSPost2010PropOp28
 70
     1
102
RTVSPost2010Prop29
280
     1
102
RTVSPost2010PropOp29
 70
     1
102
RTVSPost2010Prop30
280
     1
102
RTVSPost2010PropOp30
 70
     1
102
RTVSPost2010Prop31
280
     0
102
RTVSPost2010PropOp31
 70
     1
102
RTVSPost2010Prop32
280
     0
102
RTVSPost2010PropOp32
 70
     1
102
RTVSPost2010Prop33
280
     0
102
RTVSPost2010PropOp33
 70
     1
102
RTVSPost2010Prop34
280
     0
102
RTVSPost2010PropOp34
 70
     1
102
RTVSPost2010Prop35
280
     0
102
RTVSPost2010PropOp35
 70
     1
102
RTVSPost2010Prop36
280
     0
102
RTVSPost2010PropOp36
 70
     1
102
RTVSPost2010Prop37
 90
       50
102
RTVSPost2010PropOp37
 70
     1
102
RTVSPost2010Prop38
140
0.0
102
RTVSPost2010PropOp38
 70
     1
102
RTVSPost2010Prop39
140
1.0
102
RTVSPost2010PropOp39
 70
     1
102
RTVSPost2010Prop40
 90
        0
102
RTVSPost2010PropOp40
 70
     1
102
RTVSPost2010Prop41ColorIndex
 90
       18
102
RTVSPost2010Prop41ColorRGB
 90
        0
102
RTVSPost2010PropOp41
 70
     1
102
RTVSPost2010Prop42
 90
       50
102
RTVSPost2010PropOp42
 70
     1
102
RTVSPost2010Prop43
 90
        3
102
RTVSPost2010PropOp43
 70
     1
102
RTVSPost2010Prop44ColorIndex
 90
        5
102
RTVSPost2010Prop44ColorRGB
 90
      255
102
RTVSPost2010PropOp44
 70
     1
102
RTVSPost2010Prop45
280
     0
102
RTVSPost2010PropOp45
 70
     1
102
RTVSPost2010Prop46
 90
       50
102
RTVSPost2010PropOp46
 70
     1
102
RTVSPost2010Prop47
 90
       50
102
RTVSPost2010PropOp47
 70
     1
102
RTVSPost2010Prop48
 90
       50
102
RTVSPost2010PropOp48
 70
     1
102
RTVSPost2010Prop49
280
     0
102
RTVSPost2010PropOp49
 70
     1
102
RTVSPost2010Prop50
 90
       50
102
RTVSPost2010PropOp50
 70
     1
102
RTVSPost2010Prop51ColorIndex
 90
      256
102
RTVSPost2010Prop51ColorRGB
 90
-16777216
102
RTVSPost2010PropOp51
 70
     0
102
RTVSPost2010Prop52
140
1.0
102
RTVSPost2010PropOp52
 70
     0
102
RTVSPost2010Prop53
 90
        2
102
RTVSPost2010PropOp53
 70
     1
102
RTVSPost2010Prop54
  1
strokes_ogs.tif
102
RTVSPost2010PropOp54
 70
     1
102
RTVSPost2010Prop55
280
     0
102
RTVSPost2010PropOp55
 70
     1
102
RTVSPost2010Prop56
140
1.0
102
RTVSPost2010PropOp56
 70
     1
102
RTVSPost2010Prop57
140
1.0
102
RTVSPost2010PropOp57
 70
     1
102
RTVSPropertyOp0
 70
     1
102
RTVSPropertyOp1
 70
     1
102
RTVSPropertyOp2
 70
     1
102
RTVSPropertyOp3
 70
     1
102
RTVSPropertyOp4
 70
     1
102
RTVSPropertyOp5
 70
     1
102
RTVSPropertyOp6
 70
     1
102
RTVSPropertyOp7
 70
     1
102
RTVSPropertyOp8
 70
     1
102
RTVSPropertyOp9
 70
     1
102
RTVSPropertyOp10
 70
     1
102
RTVSPropertyOp11
 70
     1
102
RTVSPropertyOp12
 70
     1
102
RTVSPropertyOp13
 70
     1
102
RTVSPropertyOp14
 70
     1
102
RTVSPropertyOp15
 70
     1
102
RTVSPropertyOp16
 70
     1
102
RTVSPropertyOp17
 70
     1
102
RTVSPropertyOp18
 70
     1
102
RTVSPropertyOp19
 70
     1
102
RTVSPropertyOp20
 70
     1
102
RTVSPropertyOp21
 70
     1
102
RTVSPropertyOp22
 70
     1
102
RTVSPropertyOp23
 70
     1
102
RTVSPropertyOp24
 70
     1
102
RTVSPropertyOp25
 70
     1
102
RTVSPropertyOp26
 70
     1
102
RTVSPropertyOp27
 70
     1
102
RTVSPropertyOp28
 70
     1
102
RTVSPropertyOp29
 70
     1
102
RTVSPropertyOp30
 70
     1
102
RTVSPropertyOp31
 70
     1
102
RTVSPropertyOp32
 70
     1
102
RTVSPropertyOp33
 70
     1
102
RTVSPropertyOp34
 70
     1
102
RTVSPropertyOp35
 70
     1
102
RTVSPropertyOp36
 70
     1
102
RTVSPropertyOp37
 70
     1
102
RTVSPropertyOp38
 70
     1
102
RTVSPropertyOp39
 70
     1
102
RTVSPropertyOp40
 70
     1
102
RTVSPropertyOp41
 70
     1
102
RTVSPropertyOp42
 70
     1
102
RTVSPropertyOp43
 70
     1
102
RTVSPropertyOp44
 70
     1
102
RTVSPropertyOp45
 70
     1
102
RTVSPropertyOp46
 70
     1
102
RTVSPropertyOp47
 70
     1
102
RTVSPropertyOp48
 70
     1
102
RTVSPropertyOp49
 70
     1
102
RTVSPropertyOp50
 70
     1
102
RTVSPropertyOp51
 70
     0
102
RTVSPropertyOp52
 70
     0
102
RTVSPropertyOp53
 70
     1
102
RTVSPropertyOp54
 70
     1
102
RTVSPropertyOp55
 70
     1
102
RTVSPropertyOp56
 70
     1
102
RTVSPropertyOp57
 70
     1
102
RTVSPropertyOp58
 70
     1
102
RTVSPropertyOp59
 70
     1
102
RTVSPropertyOp60
 70
     1
102
RTVSPropertyOp61
 70
     1
102
RTVSPropertyOp62
 70
     1
  0
XRECORD
  5
A5E1
102
{ACAD_REACTORS
330
A5E0
102
}
330
A5E0
100
AcDbXrecord
280
     1
102
RTVSPost2010Prop28
280
     0
102
RTVSPost2010PropOp28
 70
     1
102
RTVSPost2010Prop29
280
     1
102
RTVSPost2010PropOp29
 70
     1
102
RTVSPost2010Prop30
280
     1
102
RTVSPost2010PropOp30
 70
     1
102
RTVSPost2010Prop31
280
     0
102
RTVSPost2010PropOp31
 70
     1
102
RTVSPost2010Prop32
280
     0
102
RTVSPost2010PropOp32
 70
     1
102
RTVSPost2010Prop33
280
     0
102
RTVSPost2010PropOp33
 70
     1
102
RTVSPost2010Prop34
280
     0
102
RTVSPost2010PropOp34
 70
     1
102
RTVSPost2010Prop35
280
     0
102
RTVSPost2010PropOp35
 70
     1
102
RTVSPost2010Prop36
280
     0
102
RTVSPost2010PropOp36
 70
     1
102
RTVSPost2010Prop37
 90
       50
102
RTVSPost2010PropOp37
 70
     1
102
RTVSPost2010Prop38
140
0.0
102
RTVSPost2010PropOp38
 70
     1
102
RTVSPost2010Prop39
140
1.0
102
RTVSPost2010PropOp39
 70
     1
102
RTVSPost2010Prop40
 90
        0
102
RTVSPost2010PropOp40
 70
     1
102
RTVSPost2010Prop41ColorIndex
 90
       18
102
RTVSPost2010Prop41ColorRGB
 90
        0
102
RTVSPost2010PropOp41
 70
     1
102
RTVSPost2010Prop42
 90
       50
102
RTVSPost2010PropOp42
 70
     1
102
RTVSPost2010Prop43
 90
        3
102
RTVSPost2010PropOp43
 70
     1
102
RTVSPost2010Prop44ColorIndex
 90
        5
102
RTVSPost2010Prop44ColorRGB
 90
      255
102
RTVSPost2010PropOp44
 70
     1
102
RTVSPost2010Prop45
280
     0
102
RTVSPost2010PropOp45
 70
     1
102
RTVSPost2010Prop46
 90
       50
102
RTVSPost2010PropOp46
 70
     1
102
RTVSPost2010Prop47
 90
       50
102
RTVSPost2010PropOp47
 70
     1
102
RTVSPost2010Prop48
 90
       50
102
RTVSPost2010PropOp48
 70
     1
102
RTVSPost2010Prop49
280
     0
102
RTVSPost2010PropOp49
 70
     1
102
RTVSPost2010Prop50
 90
       50
102
RTVSPost2010PropOp50
 70
     1
102
RTVSPost2010Prop51ColorIndex
 90
      256
102
RTVSPost2010Prop51ColorRGB
 90
-16777216
102
RTVSPost2010PropOp51
 70
     0
102
RTVSPost2010Prop52
140
1.0
102
RTVSPost2010PropOp52
 70
     0
102
RTVSPost2010Prop53
 90
        2
102
RTVSPost2010PropOp53
 70
     1
102
RTVSPost2010Prop54
  1
strokes_ogs.tif
102
RTVSPost2010PropOp54
 70
     1
102
RTVSPost2010Prop55
280
     0
102
RTVSPost2010PropOp55
 70
     1
102
RTVSPost2010Prop56
140
1.0
102
RTVSPost2010PropOp56
 70
     1
102
RTVSPost2010Prop57
140
1.0
102
RTVSPost2010PropOp57
 70
     1
102
RTVSPropertyOp0
 70
     1
102
RTVSPropertyOp1
 70
     1
102
RTVSPropertyOp2
 70
     1
102
RTVSPropertyOp3
 70
     1
102
RTVSPropertyOp4
 70
     1
102
RTVSPropertyOp5
 70
     1
102
RTVSPropertyOp6
 70
     1
102
RTVSPropertyOp7
 70
     1
102
RTVSPropertyOp8
 70
     1
102
RTVSPropertyOp9
 70
     1
102
RTVSPropertyOp10
 70
     1
102
RTVSPropertyOp11
 70
     1
102
RTVSPropertyOp12
 70
     1
102
RTVSPropertyOp13
 70
     1
102
RTVSPropertyOp14
 70
     1
102
RTVSPropertyOp15
 70
     1
102
RTVSPropertyOp16
 70
     1
102
RTVSPropertyOp17
 70
     1
102
RTVSPropertyOp18
 70
     1
102
RTVSPropertyOp19
 70
     1
102
RTVSPropertyOp20
 70
     1
102
RTVSPropertyOp21
 70
     1
102
RTVSPropertyOp22
 70
     1
102
RTVSPropertyOp23
 70
     1
102
RTVSPropertyOp24
 70
     1
102
RTVSPropertyOp25
 70
     1
102
RTVSPropertyOp26
 70
     1
102
RTVSPropertyOp27
 70
     1
102
RTVSPropertyOp28
 70
     1
102
RTVSPropertyOp29
 70
     1
102
RTVSPropertyOp30
 70
     1
102
RTVSPropertyOp31
 70
     1
102
RTVSPropertyOp32
 70
     1
102
RTVSPropertyOp33
 70
     1
102
RTVSPropertyOp34
 70
     1
102
RTVSPropertyOp35
 70
     1
102
RTVSPropertyOp36
 70
     1
102
RTVSPropertyOp37
 70
     1
102
RTVSPropertyOp38
 70
     1
102
RTVSPropertyOp39
 70
     1
102
RTVSPropertyOp40
 70
     1
102
RTVSPropertyOp41
 70
     1
102
RTVSPropertyOp42
 70
     1
102
RTVSPropertyOp43
 70
     1
102
RTVSPropertyOp44
 70
     1
102
RTVSPropertyOp45
 70
     1
102
RTVSPropertyOp46
 70
     1
102
RTVSPropertyOp47
 70
     1
102
RTVSPropertyOp48
 70
     1
102
RTVSPropertyOp49
 70
     1
102
RTVSPropertyOp50
 70
     1
102
RTVSPropertyOp51
 70
     0
102
RTVSPropertyOp52
 70
     0
102
RTVSPropertyOp53
 70
     1
102
RTVSPropertyOp54
 70
     1
102
RTVSPropertyOp55
 70
     1
102
RTVSPropertyOp56
 70
     1
102
RTVSPropertyOp57
 70
     1
102
RTVSPropertyOp58
 70
     1
102
RTVSPropertyOp59
 70
     1
102
RTVSPropertyOp60
 70
     1
102
RTVSPropertyOp61
 70
     1
102
RTVSPropertyOp62
 70
     1
  0
XRECORD
  5
A5D5
102
{ACAD_REACTORS
330
A5D4
102
}
330
A5D4
100
AcDbXrecord
280
     1
102
RTVSPost2010Prop28
280
     0
102
RTVSPost2010PropOp28
 70
     1
102
RTVSPost2010Prop29
280
     1
102
RTVSPost2010PropOp29
 70
     1
102
RTVSPost2010Prop30
280
     1
102
RTVSPost2010PropOp30
 70
     1
102
RTVSPost2010Prop31
280
     0
102
RTVSPost2010PropOp31
 70
     1
102
RTVSPost2010Prop32
280
     0
102
RTVSPost2010PropOp32
 70
     1
102
RTVSPost2010Prop33
280
     0
102
RTVSPost2010PropOp33
 70
     1
102
RTVSPost2010Prop34
280
     0
102
RTVSPost2010PropOp34
 70
     1
102
RTVSPost2010Prop35
280
     0
102
RTVSPost2010PropOp35
 70
     1
102
RTVSPost2010Prop36
280
     0
102
RTVSPost2010PropOp36
 70
     1
102
RTVSPost2010Prop37
 90
       50
102
RTVSPost2010PropOp37
 70
     1
102
RTVSPost2010Prop38
140
0.0
102
RTVSPost2010PropOp38
 70
     1
102
RTVSPost2010Prop39
140
1.0
102
RTVSPost2010PropOp39
 70
     1
102
RTVSPost2010Prop40
 90
        0
102
RTVSPost2010PropOp40
 70
     1
102
RTVSPost2010Prop41ColorIndex
 90
       18
102
RTVSPost2010Prop41ColorRGB
 90
        0
102
RTVSPost2010PropOp41
 70
     1
102
RTVSPost2010Prop42
 90
       50
102
RTVSPost2010PropOp42
 70
     1
102
RTVSPost2010Prop43
 90
        3
102
RTVSPost2010PropOp43
 70
     1
102
RTVSPost2010Prop44ColorIndex
 90
        5
102
RTVSPost2010Prop44ColorRGB
 90
      255
102
RTVSPost2010PropOp44
 70
     1
102
RTVSPost2010Prop45
280
     0
102
RTVSPost2010PropOp45
 70
     1
102
RTVSPost2010Prop46
 90
       50
102
RTVSPost2010PropOp46
 70
     1
102
RTVSPost2010Prop47
 90
       50
102
RTVSPost2010PropOp47
 70
     1
102
RTVSPost2010Prop48
 90
       50
102
RTVSPost2010PropOp48
 70
     1
102
RTVSPost2010Prop49
280
     0
102
RTVSPost2010PropOp49
 70
     1
102
RTVSPost2010Prop50
 90
       50
102
RTVSPost2010PropOp50
 70
     1
102
RTVSPost2010Prop51ColorIndex
 90
      256
102
RTVSPost2010Prop51ColorRGB
 90
-16777216
102
RTVSPost2010PropOp51
 70
     0
102
RTVSPost2010Prop52
140
1.0
102
RTVSPost2010PropOp52
 70
     0
102
RTVSPost2010Prop53
 90
        2
102
RTVSPost2010PropOp53
 70
     1
102
RTVSPost2010Prop54
  1
strokes_ogs.tif
102
RTVSPost2010PropOp54
 70
     1
102
RTVSPost2010Prop55
280
     0
102
RTVSPost2010PropOp55
 70
     1
102
RTVSPost2010Prop56
140
1.0
102
RTVSPost2010PropOp56
 70
     1
102
RTVSPost2010Prop57
140
1.0
102
RTVSPost2010PropOp57
 70
     1
102
RTVSPropertyOp0
 70
     1
102
RTVSPropertyOp1
 70
     1
102
RTVSPropertyOp2
 70
     1
102
RTVSPropertyOp3
 70
     1
102
RTVSPropertyOp4
 70
     1
102
RTVSPropertyOp5
 70
     1
102
RTVSPropertyOp6
 70
     1
102
RTVSPropertyOp7
 70
     1
102
RTVSPropertyOp8
 70
     1
102
RTVSPropertyOp9
 70
     1
102
RTVSPropertyOp10
 70
     1
102
RTVSPropertyOp11
 70
     1
102
RTVSPropertyOp12
 70
     1
102
RTVSPropertyOp13
 70
     1
102
RTVSPropertyOp14
 70
     1
102
RTVSPropertyOp15
 70
     1
102
RTVSPropertyOp16
 70
     1
102
RTVSPropertyOp17
 70
     1
102
RTVSPropertyOp18
 70
     1
102
RTVSPropertyOp19
 70
     1
102
RTVSPropertyOp20
 70
     1
102
RTVSPropertyOp21
 70
     1
102
RTVSPropertyOp22
 70
     1
102
RTVSPropertyOp23
 70
     1
102
RTVSPropertyOp24
 70
     1
102
RTVSPropertyOp25
 70
     1
102
RTVSPropertyOp26
 70
     1
102
RTVSPropertyOp27
 70
     1
102
RTVSPropertyOp28
 70
     1
102
RTVSPropertyOp29
 70
     1
102
RTVSPropertyOp30
 70
     1
102
RTVSPropertyOp31
 70
     1
102
RTVSPropertyOp32
 70
     1
102
RTVSPropertyOp33
 70
     1
102
RTVSPropertyOp34
 70
     1
102
RTVSPropertyOp35
 70
     1
102
RTVSPropertyOp36
 70
     1
102
RTVSPropertyOp37
 70
     1
102
RTVSPropertyOp38
 70
     1
102
RTVSPropertyOp39
 70
     1
102
RTVSPropertyOp40
 70
     1
102
RTVSPropertyOp41
 70
     1
102
RTVSPropertyOp42
 70
     1
102
RTVSPropertyOp43
 70
     1
102
RTVSPropertyOp44
 70
     1
102
RTVSPropertyOp45
 70
     1
102
RTVSPropertyOp46
 70
     1
102
RTVSPropertyOp47
 70
     1
102
RTVSPropertyOp48
 70
     1
102
RTVSPropertyOp49
 70
     1
102
RTVSPropertyOp50
 70
     1
102
RTVSPropertyOp51
 70
     0
102
RTVSPropertyOp52
 70
     0
102
RTVSPropertyOp53
 70
     1
102
RTVSPropertyOp54
 70
     1
102
RTVSPropertyOp55
 70
     1
102
RTVSPropertyOp56
 70
     1
102
RTVSPropertyOp57
 70
     1
102
RTVSPropertyOp58
 70
     1
102
RTVSPropertyOp59
 70
     1
102
RTVSPropertyOp60
 70
     1
102
RTVSPropertyOp61
 70
     1
102
RTVSPropertyOp62
 70
     1
  0
XRECORD
  5
A5ED
102
{ACAD_REACTORS
330
A5EC
102
}
330
A5EC
100
AcDbXrecord
280
     1
102
RTVSPost2010Prop28
280
     0
102
RTVSPost2010PropOp28
 70
     1
102
RTVSPost2010Prop29
280
     1
102
RTVSPost2010PropOp29
 70
     1
102
RTVSPost2010Prop30
280
     1
102
RTVSPost2010PropOp30
 70
     1
102
RTVSPost2010Prop31
280
     0
102
RTVSPost2010PropOp31
 70
     1
102
RTVSPost2010Prop32
280
     0
102
RTVSPost2010PropOp32
 70
     1
102
RTVSPost2010Prop33
280
     0
102
RTVSPost2010PropOp33
 70
     1
102
RTVSPost2010Prop34
280
     0
102
RTVSPost2010PropOp34
 70
     1
102
RTVSPost2010Prop35
280
     0
102
RTVSPost2010PropOp35
 70
     1
102
RTVSPost2010Prop36
280
     0
102
RTVSPost2010PropOp36
 70
     1
102
RTVSPost2010Prop37
 90
       50
102
RTVSPost2010PropOp37
 70
     1
102
RTVSPost2010Prop38
140
0.0
102
RTVSPost2010PropOp38
 70
     1
102
RTVSPost2010Prop39
140
1.0
102
RTVSPost2010PropOp39
 70
     1
102
RTVSPost2010Prop40
 90
        0
102
RTVSPost2010PropOp40
 70
     1
102
RTVSPost2010Prop41ColorIndex
 90
       18
102
RTVSPost2010Prop41ColorRGB
 90
        0
102
RTVSPost2010PropOp41
 70
     1
102
RTVSPost2010Prop42
 90
       50
102
RTVSPost2010PropOp42
 70
     1
102
RTVSPost2010Prop43
 90
        3
102
RTVSPost2010PropOp43
 70
     1
102
RTVSPost2010Prop44ColorIndex
 90
        5
102
RTVSPost2010Prop44ColorRGB
 90
      255
102
RTVSPost2010PropOp44
 70
     1
102
RTVSPost2010Prop45
280
     0
102
RTVSPost2010PropOp45
 70
     1
102
RTVSPost2010Prop46
 90
       50
102
RTVSPost2010PropOp46
 70
     1
102
RTVSPost2010Prop47
 90
       50
102
RTVSPost2010PropOp47
 70
     1
102
RTVSPost2010Prop48
 90
       50
102
RTVSPost2010PropOp48
 70
     1
102
RTVSPost2010Prop49
280
     0
102
RTVSPost2010PropOp49
 70
     1
102
RTVSPost2010Prop50
 90
       50
102
RTVSPost2010PropOp50
 70
     1
102
RTVSPost2010Prop51ColorIndex
 90
      256
102
RTVSPost2010Prop51ColorRGB
 90
-16777216
102
RTVSPost2010PropOp51
 70
     0
102
RTVSPost2010Prop52
140
1.0
102
RTVSPost2010PropOp52
 70
     0
102
RTVSPost2010Prop53
 90
        2
102
RTVSPost2010PropOp53
 70
     1
102
RTVSPost2010Prop54
  1
strokes_ogs.tif
102
RTVSPost2010PropOp54
 70
     1
102
RTVSPost2010Prop55
280
     0
102
RTVSPost2010PropOp55
 70
     1
102
RTVSPost2010Prop56
140
1.0
102
RTVSPost2010PropOp56
 70
     1
102
RTVSPost2010Prop57
140
1.0
102
RTVSPost2010PropOp57
 70
     1
102
RTVSPropertyOp0
 70
     1
102
RTVSPropertyOp1
 70
     1
102
RTVSPropertyOp2
 70
     1
102
RTVSPropertyOp3
 70
     1
102
RTVSPropertyOp4
 70
     1
102
RTVSPropertyOp5
 70
     1
102
RTVSPropertyOp6
 70
     1
102
RTVSPropertyOp7
 70
     1
102
RTVSPropertyOp8
 70
     1
102
RTVSPropertyOp9
 70
     1
102
RTVSPropertyOp10
 70
     1
102
RTVSPropertyOp11
 70
     1
102
RTVSPropertyOp12
 70
     1
102
RTVSPropertyOp13
 70
     1
102
RTVSPropertyOp14
 70
     1
102
RTVSPropertyOp15
 70
     1
102
RTVSPropertyOp16
 70
     1
102
RTVSPropertyOp17
 70
     1
102
RTVSPropertyOp18
 70
     1
102
RTVSPropertyOp19
 70
     1
102
RTVSPropertyOp20
 70
     1
102
RTVSPropertyOp21
 70
     1
102
RTVSPropertyOp22
 70
     1
102
RTVSPropertyOp23
 70
     1
102
RTVSPropertyOp24
 70
     1
102
RTVSPropertyOp25
 70
     1
102
RTVSPropertyOp26
 70
     1
102
RTVSPropertyOp27
 70
     1
102
RTVSPropertyOp28
 70
     1
102
RTVSPropertyOp29
 70
     1
102
RTVSPropertyOp30
 70
     1
102
RTVSPropertyOp31
 70
     1
102
RTVSPropertyOp32
 70
     1
102
RTVSPropertyOp33
 70
     1
102
RTVSPropertyOp34
 70
     1
102
RTVSPropertyOp35
 70
     1
102
RTVSPropertyOp36
 70
     1
102
RTVSPropertyOp37
 70
     1
102
RTVSPropertyOp38
 70
     1
102
RTVSPropertyOp39
 70
     1
102
RTVSPropertyOp40
 70
     1
102
RTVSPropertyOp41
 70
     1
102
RTVSPropertyOp42
 70
     1
102
RTVSPropertyOp43
 70
     1
102
RTVSPropertyOp44
 70
     1
102
RTVSPropertyOp45
 70
     1
102
RTVSPropertyOp46
 70
     1
102
RTVSPropertyOp47
 70
     1
102
RTVSPropertyOp48
 70
     1
102
RTVSPropertyOp49
 70
     1
102
RTVSPropertyOp50
 70
     1
102
RTVSPropertyOp51
 70
     0
102
RTVSPropertyOp52
 70
     0
102
RTVSPropertyOp53
 70
     1
102
RTVSPropertyOp54
 70
     1
102
RTVSPropertyOp55
 70
     1
102
RTVSPropertyOp56
 70
     1
102
RTVSPropertyOp57
 70
     1
102
RTVSPropertyOp58
 70
     1
102
RTVSPropertyOp59
 70
     1
102
RTVSPropertyOp60
 70
     1
102
RTVSPropertyOp61
 70
     1
102
RTVSPropertyOp62
 70
     1
  0
ENDSEC
  0
EOF
