  0
SECTION
  2
HEADER
  9
$ACADVER
  1
AC1015
  9
$ACADMAINTVER
 70
    20
  9
$DWGCODEPAGE
  3
ANSI_932
  9
$INSBASE
 10
0.0
 20
0.0
 30
0.0
  9
$EXTMIN
 10
10.0
 20
9.999999999999998
 30
0.0
  9
$EXTMAX
 10
413.802204
 20
283.200895
 30
0.0
  9
$LIMMIN
 10
0.0
 20
0.0
  9
$LIMMAX
 10
495.0
 20
341.25
  9
$ORTHOMODE
 70
     0
  9
$REGENMODE
 70
     1
  9
$FILLMODE
 70
     1
  9
$QTEXTMODE
 70
     0
  9
$MIRRTEXT
 70
     1
  9
$LTSCALE
 40
20.0
  9
$ATTMODE
 70
     1
  9
$TEXTSIZE
 40
5.0
  9
$TRACEWID
 40
1.0
  9
$TEXTSTYLE
  7
STANDARD
  9
$CLAYER
  8
0
  9
$CELTYPE
  6
BYLAYER
  9
$CECOLOR
 62
   256
  9
$CELTSCALE
 40
1.0
  9
$DISPSILH
 70
     0
  9
$DIMSCALE
 40
1.0
  9
$DIMASZ
 40
2.5
  9
$DIMEXO
 40
1.0
  9
$DIMDLI
 40
10.0
  9
$DIMRND
 40
0.0
  9
$DIMDLE
 40
0.0
  9
$DIMEXE
 40
1.0
  9
$DIMTP
 40
0.0
  9
$DIMTM
 40
0.0
  9
$DIMTXT
 40
3.2
  9
$DIMCEN
 40
0.0
  9
$DIMTSZ
 40
0.0
  9
$DIMTOL
 70
     0
  9
$DIMLIM
 70
     0
  9
$DIMTIH
 70
     0
  9
$DIMTOH
 70
     0
  9
$DIMSE1
 70
     0
  9
$DIMSE2
 70
     0
  9
$DIMTAD
 70
     3
  9
$DIMZIN
 70
     8
  9
$DIMBLK
  1

  9
$DIMASO
 70
     1
  9
$DIMSHO
 70
     1
  9
$DIMPOST
  1

  9
$DIMAPOST
  1

  9
$DIMALT
 70
     0
  9
$DIMALTD
 70
     2
  9
$DIMALTF
 40
25.4
  9
$DIMLFAC
 40
1.0
  9
$DIMTOFL
 70
     1
  9
$DIMTVP
 40
0.0
  9
$DIMTIX
 70
     0
  9
$DIMSOXD
 70
     0
  9
$DIMSAH
 70
     1
  9
$DIMBLK1
  1

  9
$DIMBLK2
  1

  9
$DIMSTYLE
  2
STANDARD
  9
$DIMCLRD
 70
     0
  9
$DIMCLRE
 70
     0
  9
$DIMCLRT
 70
     0
  9
$DIMTFAC
 40
1.0
  9
$DIMGAP
 40
1.0
  9
$DIMJUST
 70
     0
  9
$DIMSD1
 70
     0
  9
$DIMSD2
 70
     0
  9
$DIMTOLJ
 70
     1
  9
$DIMTZIN
 70
     0
  9
$DIMALTZ
 70
     0
  9
$DIMALTTZ
 70
     0
  9
$DIMUPT
 70
     0
  9
$DIMDEC
 70
     4
  9
$DIMTDEC
 70
     4
  9
$DIMALTU
 70
     2
  9
$DIMALTTD
 70
     2
  9
$DIMTXSTY
  7
STANDARD
  9
$DIMAUNIT
 70
     0
  9
$DIMADEC
 70
     0
  9
$DIMALTRND
 40
0.0
  9
$DIMAZIN
 70
     0
  9
$DIMDSEP
 70
    46
  9
$DIMATFIT
 70
     3
  9
$DIMFRAC
 70
     0
  9
$DIMLDRBLK
  1

  9
$DIMLUNIT
 70
     2
  9
$DIMLWD
 70
    -2
  9
$DIMLWE
 70
    -2
  9
$DIMTMOVE
 70
     0
  9
$LUNITS
 70
     2
  9
$LUPREC
 70
     4
  9
$SKETCHINC
 40
1.0
  9
$FILLETRAD
 40
1.5
  9
$AUNITS
 70
     0
  9
$AUPREC
 70
     2
  9
$MENU
  1
.
  9
$ELEVATION
 40
0.0
  9
$PELEVATION
 40
0.0
  9
$THICKNESS
 40
0.0
  9
$LIMCHECK
 70
     0
  9
$CHAMFERA
 40
10.0
  9
$CHAMFERB
 40
10.0
  9
$CHAMFERC
 40
0.0
  9
$CHAMFERD
 40
0.0
  9
$SKPOLY
 70
     0
  9
$TDCREATE
 40
2451301.430973958
  9
$TDUCREATE
 40
2451301.055973958
  9
$TDUPDATE
 40
2457192.689952697
  9
$TDUUPDATE
 40
2457192.314952697
  9
$TDINDWG
 40
0.0423648727
  9
$TDUSRTIMER
 40
0.0423642014
  9
$USRTIMER
 70
     1
  9
$ANGBASE
 50
0.0
  9
$ANGDIR
 70
     0
  9
$PDMODE
 70
     0
  9
$PDSIZE
 40
0.0
  9
$PLINEWID
 40
0.0
  9
$SPLFRAME
 70
     0
  9
$SPLINETYPE
 70
     6
  9
$SPLINESEGS
 70
     8
  9
$HANDSEED
  5
A7EA
  9
$SURFTAB1
 70
     6
  9
$SURFTAB2
 70
     6
  9
$SURFTYPE
 70
     6
  9
$SURFU
 70
     6
  9
$SURFV
 70
     6
  9
$UCSBASE
  2

  9
$UCSNAME
  2

  9
$UCSORG
 10
0.0
 20
0.0
 30
0.0
  9
$UCSXDIR
 10
1.0
 20
0.0
 30
0.0
  9
$UCSYDIR
 10
0.0
 20
1.0
 30
0.0
  9
$UCSORTHOREF
  2

  9
$UCSORTHOVIEW
 70
     0
  9
$UCSORGTOP
 10
0.0
 20
0.0
 30
0.0
  9
$UCSORGBOTTOM
 10
0.0
 20
0.0
 30
0.0
  9
$UCSORGLEFT
 10
0.0
 20
0.0
 30
0.0
  9
$UCSORGRIGHT
 10
0.0
 20
0.0
 30
0.0
  9
$UCSORGFRONT
 10
0.0
 20
0.0
 30
0.0
  9
$UCSORGBACK
 10
0.0
 20
0.0
 30
0.0
  9
$PUCSBASE
  2

  9
$PUCSNAME
  2

  9
$PUCSORG
 10
0.0
 20
0.0
 30
0.0
  9
$PUCSXDIR
 10
1.0
 20
0.0
 30
0.0
  9
$PUCSYDIR
 10
0.0
 20
1.0
 30
0.0
  9
$PUCSORTHOREF
  2

  9
$PUCSORTHOVIEW
 70
     0
  9
$PUCSORGTOP
 10
0.0
 20
0.0
 30
0.0
  9
$PUCSORGBOTTOM
 10
0.0
 20
0.0
 30
0.0
  9
$PUCSORGLEFT
 10
0.0
 20
0.0
 30
0.0
  9
$PUCSORGRIGHT
 10
0.0
 20
0.0
 30
0.0
  9
$PUCSORGFRONT
 10
0.0
 20
0.0
 30
0.0
  9
$PUCSORGBACK
 10
0.0
 20
0.0
 30
0.0
  9
$USERI1
 70
     0
  9
$USERI2
 70
     0
  9
$USERI3
 70
     0
  9
$USERI4
 70
     0
  9
$USERI5
 70
     0
  9
$USERR1
 40
0.0
  9
$USERR2
 40
0.0
  9
$USERR3
 40
0.0
  9
$USERR4
 40
0.0
  9
$USERR5
 40
0.0
  9
$WORLDVIEW
 70
     1
  9
$SHADEDGE
 70
     3
  9
$SHADEDIF
 70
    70
  9
$TILEMODE
 70
     1
  9
$MAXACTVP
 70
    16
  9
$PINSBASE
 10
0.0
 20
0.0
 30
0.0
  9
$PLIMCHECK
 70
     0
  9
$PEXTMIN
 10
1.000000000000000E+20
 20
1.000000000000000E+20
 30
1.000000000000000E+20
  9
$PEXTMAX
 10
-1.000000000000000E+20
 20
-1.000000000000000E+20
 30
-1.000000000000000E+20
  9
$PLIMMIN
 10
0.0
 20
0.0
  9
$PLIMMAX
 10
420.0
 20
297.0
  9
$UNITMODE
 70
     0
  9
$VISRETAIN
 70
     0
  9
$PLINEGEN
 70
     0
  9
$PSLTSCALE
 70
     0
  9
$TREEDEPTH
 70
  3020
  9
$CMLSTYLE
  2
STANDARD
  9
$CMLJUST
 70
     0
  9
$CMLSCALE
 40
1.0
  9
$PROXYGRAPHICS
 70
     1
  9
$MEASUREMENT
 70
     0
  9
$CELWEIGHT
370
    -1
  9
$ENDCAPS
280
     0
  9
$JOINSTYLE
280
     0
  9
$LWDISPLAY
290
     0
  9
$INSUNITS
 70
     0
  9
$HYPERLINKBASE
  1

  9
$STYLESHEET
  1

  9
$XEDIT
290
     1
  9
$CEPSNTYPE
380
     0
  9
$PSTYLEMODE
290
     1
  9
$FINGERPRINTGUID
  2
{0D732F3F-8342-4B98-91F4-F79EFDF06581}
  9
$VERSIONGUID
  2
{BA6E798C-0436-4F8A-9DAF-4EDC20B2C828}
  9
$EXTNAMES
290
     1
  9
$PSVPSCALE
 40
0.0
  9
$OLESTARTUP
290
     0
  0
ENDSEC
  0
SECTION
  2
CLASSES
  0
CLASS
  1
ACDBDICTIONARYWDFLT
  2
AcDbDictionaryWithDefault
  3
ObjectDBX Classes
 90
        0
280
     0
281
     0
  0
CLASS
  1
ACDBPLACEHOLDER
  2
AcDbPlaceHolder
  3
ObjectDBX Classes
 90
        0
280
     0
281
     0
  0
CLASS
  1
LAYOUT
  2
AcDbLayout
  3
ObjectDBX Classes
 90
        0
280
     0
281
     0
  0
CLASS
  1
DICTIONARYVAR
  2
AcDbDictionaryVar
  3
ObjectDBX Classes
 90
        0
280
     0
281
     0
  0
CLASS
  1
MATERIAL
  2
AcDbMaterial
  3
ObjectDBX Classes
 90
     1153
280
     0
281
     0
  0
CLASS
  1
VISUALSTYLE
  2
AcDbVisualStyle
  3
ObjectDBX Classes
 90
     4095
280
     0
281
     0
  0
CLASS
  1
TABLESTYLE
  2
AcDbTableStyle
  3
ObjectDBX Classes
 90
     4095
280
     0
281
     0
  0
CLASS
  1
SCALE
  2
AcDbScale
  3
ObjectDBX Classes
 90
     1153
280
     0
281
     0
  0
CLASS
  1
MLEADERSTYLE
  2
AcDbMLeaderStyle
  3
ACDB_MLEADERSTYLE_CLASS
 90
     4095
280
     0
281
     0
  0
CLASS
  1
ACDBSECTIONVIEWSTYLE
  2
AcDbSectionViewStyle
  3
ObjectDBX Classes
 90
     1025
280
     0
281
     0
  0
CLASS
  1
ACDBDETAILVIEWSTYLE
  2
AcDbDetailViewStyle
  3
ObjectDBX Classes
 90
     1025
280
     0
281
     0
  0
CLASS
  1
CELLSTYLEMAP
  2
AcDbCellStyleMap
  3
ObjectDBX Classes
 90
     1152
280
     0
281
     0
  0
ENDSEC
  0
SECTION
  2
TABLES
  0
TABLE
  2
VPORT
  5
A433
330
0
100
AcDbSymbolTable
 70
     1
  0
VPORT
  5
A735
330
A433
100
AcDbSymbolTableRecord
100
AcDbViewportTableRecord
  2
*ACTIVE
 70
     0
 10
0.0
 20
0.0
 11
1.0
 21
1.0
 12
317.0660197313054
 22
146.5944107091861
 13
0.0
 23
0.0
 14
10.0
 24
10.0
 15
10.0
 25
10.0
 16
0.0
 26
0.0
 36
1.0
 17
0.0
 27
0.0
 37
0.0
 40
275.3714876882438
 41
2.35006605019815
 42
50.0
 43
0.0
 44
0.0
 50
0.0
 51
0.0
 71
     0
 72
   100
 73
     1
 74
     0
 75
     0
 76
     0
 77
     0
 78
     0
281
     0
 65
     1
110
0.0
120
0.0
130
0.0
111
1.0
121
0.0
131
0.0
112
0.0
122
1.0
132
0.0
 79
     0
146
0.0
1001
ACAD_NAV_VCDISPLAY
1070
     3
  0
ENDTAB
  0
TABLE
  2
LTYPE
  5
A430
330
0
100
AcDbSymbolTable
 70
     4
  0
LTYPE
  5
A43E
330
A430
100
AcDbSymbolTableRecord
100
AcDbLinetypeTableRecord
  2
BYBLOCK
 70
     0
  3

 72
    65
 73
     0
 40
0.0
  0
LTYPE
  5
A43F
330
A430
100
AcDbSymbolTableRecord
100
AcDbLinetypeTableRecord
  2
BYLAYER
 70
     0
  3

 72
    65
 73
     0
 40
0.0
  0
LTYPE
  5
A440
330
A430
100
AcDbSymbolTableRecord
100
AcDbLinetypeTableRecord
  2
CONTINUOUS
 70
     0
  3
Solid line
 72
    65
 73
     0
 40
0.0
  0
LTYPE
  5
A44E
330
A430
100
AcDbSymbolTableRecord
100
AcDbLinetypeTableRecord
  2
DASHED
 70
     0
  3
__ __ __ __ __ __ __ __ __ __ __ __ __ __ __ __
 72
    65
 73
     2
 40
0.75
 49
0.5
 74
     0
 49
-0.25
 74
     0
  0
LTYPE
  5
A44F
330
A430
100
AcDbSymbolTableRecord
100
AcDbLinetypeTableRecord
  2
CENTER
 70
     0
  3
____ _ ____ _ ____ _ ____ _ ____ _ ____ _ ____ 
 72
    65
 73
     4
 40
2.0
 49
1.25
 74
     0
 49
-0.25
 74
     0
 49
0.25
 74
     0
 49
-0.25
 74
     0
  0
LTYPE
  5
A450
330
A430
100
AcDbSymbolTableRecord
100
AcDbLinetypeTableRecord
  2
PHANTOM
 70
     0
  3
______  __  __  ______  __  __  ______  __  __ 
 72
    65
 73
     6
 40
2.5
 49
1.25
 74
     0
 49
-0.25
 74
     0
 49
0.25
 74
     0
 49
-0.25
 74
     0
 49
0.25
 74
     0
 49
-0.25
 74
     0
  0
ENDTAB
  0
TABLE
  2
LAYER
  5
A42D
330
0
100
AcDbSymbolTable
 70
     8
  0
LAYER
  5
A43B
102
{ACAD_XDICTIONARY
360
A78E
102
}
330
A42D
100
AcDbSymbolTableRecord
100
AcDbLayerTableRecord
  2
0
 70
     0
 62
     7
  6
CONTINUOUS
370
    -3
390
A73C
  0
LAYER
  5
A452
102
{ACAD_XDICTIONARY
360
A790
102
}
330
A42D
100
AcDbSymbolTableRecord
100
AcDbLayerTableRecord
  2
4
 70
     0
 62
     1
  6
CENTER
370
    -3
390
A73C
  0
LAYER
  5
A453
102
{ACAD_XDICTIONARY
360
A792
102
}
330
A42D
100
AcDbSymbolTableRecord
100
AcDbLayerTableRecord
  2
5
 70
     0
 62
     6
  6
PHANTOM
370
    -3
390
A73C
  0
LAYER
  5
A454
102
{ACAD_XDICTIONARY
360
A794
102
}
330
A42D
100
AcDbSymbolTableRecord
100
AcDbLayerTableRecord
  2
1
 70
     0
 62
     7
  6
CONTINUOUS
370
    -3
390
A73C
  0
LAYER
  5
A455
102
{ACAD_XDICTIONARY
360
A796
102
}
330
A42D
100
AcDbSymbolTableRecord
100
AcDbLayerTableRecord
  2
2
 70
     0
 62
     4
  6
CONTINUOUS
370
    -3
390
A73C
  0
LAYER
  5
A456
102
{ACAD_XDICTIONARY
360
A798
102
}
330
A42D
100
AcDbSymbolTableRecord
100
AcDbLayerTableRecord
  2
3
 70
     0
 62
     2
  6
DASHED
370
    -3
390
A73C
  0
LAYER
  5
A457
102
{ACAD_XDICTIONARY
360
A79A
102
}
330
A42D
100
AcDbSymbolTableRecord
100
AcDbLayerTableRecord
  2
6
 70
     0
 62
     5
  6
CONTINUOUS
370
    -3
390
A73C
  0
LAYER
  5
A458
102
{ACAD_XDICTIONARY
360
A79C
102
}
330
A42D
100
AcDbSymbolTableRecord
100
AcDbLayerTableRecord
  2
7
 70
     0
 62
     3
  6
CONTINUOUS
370
    -3
390
A73C
  0
ENDTAB
  0
TABLE
  2
STYLE
  5
A42E
330
0
100
AcDbSymbolTable
 70
     1
  0
STYLE
  5
A43C
330
A42E
100
AcDbSymbolTableRecord
100
AcDbTextStyleTableRecord
  2
STANDARD
 70
     0
 40
0.0
 41
1.0
 50
0.0
 71
     0
 42
5.0
  3
txt
  4

  0
ENDTAB
  0
TABLE
  2
VIEW
  5
A431
330
0
100
AcDbSymbolTable
 70
     0
  0
ENDTAB
  0
TABLE
  2
UCS
  5
A432
330
0
100
AcDbSymbolTable
 70
     0
  0
ENDTAB
  0
TABLE
  2
APPID
  5
A434
330
0
100
AcDbSymbolTable
 70
     3
  0
APPID
  5
A43D
330
A434
100
AcDbSymbolTableRecord
100
AcDbRegAppTableRecord
  2
ACAD
 70
     0
  0
APPID
  5
A7A8
330
A434
100
AcDbSymbolTableRecord
100
AcDbRegAppTableRecord
  2
ACAD_NAV_VCDISPLAY
 70
     0
  0
APPID
  5
A7E1
330
A434
100
AcDbSymbolTableRecord
100
AcDbRegAppTableRecord
  2
ACAD_MLEADERVER
 70
     0
  0
ENDTAB
  0
TABLE
  2
DIMSTYLE
  5
A435
330
0
100
AcDbSymbolTable
 70
     1
100
AcDbDimStyleTable
 71
     0
  0
DIMSTYLE
105
A45A
330
A435
100
AcDbSymbolTableRecord
100
AcDbDimStyleTableRecord
  2
STANDARD
 70
     0
 41
2.5
 42
1.0
 43
10.0
 44
1.0
 73
     0
 74
     0
 77
     3
 78
     8
140
3.2
141
0.0
147
1.0
172
     1
173
     1
284
     8
285
     8
286
     8
340
A43C
  0
ENDTAB
  0
TABLE
  2
BLOCK_RECORD
  5
A42C
330
0
100
AcDbSymbolTable
 70
     0
  0
BLOCK_RECORD
  5
A449
102
{ACAD_XDICTIONARY
360
A71A
102
}
330
A42C
100
AcDbSymbolTableRecord
100
AcDbBlockTableRecord
  2
*MODEL_SPACE
340
A78A
  0
BLOCK_RECORD
  5
A445
102
{ACAD_XDICTIONARY
360
A718
102
}
330
A42C
100
AcDbSymbolTableRecord
100
AcDbBlockTableRecord
  2
*PAPER_SPACE
340
A78B
  0
ENDTAB
  0
ENDSEC
  0
SECTION
  2
BLOCKS
  0
BLOCK
  5
A44A
330
A449
100
AcDbEntity
  8
0
100
AcDbBlockBegin
  2
*MODEL_SPACE
 70
     0
 10
0.0
 20
0.0
 30
0.0
  3
*MODEL_SPACE
  1

  0
ENDBLK
  5
A44B
330
A449
100
AcDbEntity
  8
0
100
AcDbBlockEnd
  0
BLOCK
  5
A446
330
A445
100
AcDbEntity
 67
     1
  8
0
100
AcDbBlockBegin
  2
*PAPER_SPACE
 70
     0
 10
0.0
 20
0.0
 30
0.0
  3
*PAPER_SPACE
  1

  0
ENDBLK
  5
A447
330
A445
100
AcDbEntity
 67
     1
  8
0
100
AcDbBlockEnd
  0
ENDSEC
  0
SECTION
  2
ENTITIES
  0
TEXT
  5
A462
330
A449
100
AcDbEntity
  8
7
  6
Continuous
100
AcDbText
 10
10.0
 20
18.0
 30
0.0
 40
3.0
  1
TYPE No.TCA-415E-N50
100
AcDbText
  0
TEXT
  5
A463
330
A449
100
AcDbEntity
  8
7
  6
Continuous
100
AcDbText
 10
10.0
 20
26.0
 30
0.0
 40
3.0
  1
CODE No.9759
100
AcDbText
  0
TEXT
  5
A464
330
A449
100
AcDbEntity
  8
1
  6
Continuous
100
AcDbText
 10
10.0
 20
10.0
 30
0.0
 40
1.399999999999999
  1
LAYER
100
AcDbText
  0
TEXT
  5
A465
330
A449
100
AcDbEntity
  8
1
  6
Continuous
100
AcDbText
 10
17.97951099999998
 20
10.04873699999998
 30
0.0
 40
1.399999999999999
  1
1
100
AcDbText
  0
TEXT
  5
A466
330
A449
100
AcDbEntity
  8
7
  6
Continuous
100
AcDbText
 10
29.97951099999999
 20
10.04873699999998
 30
0.0
 40
1.399999999999999
  1
7
100
AcDbText
  0
TEXT
  5
A467
330
A449
100
AcDbEntity
  8
4
  6
CENTER
100
AcDbText
 10
23.97951099999999
 20
10.04873699999998
 30
0.0
 40
1.399999999999999
  1
4
100
AcDbText
  0
TEXT
  5
A468
330
A449
100
AcDbEntity
  8
3
  6
DASHED
100
AcDbText
 10
21.979511
 20
10.04873699999998
 30
0.0
 40
1.399999999999999
  1
3
100
AcDbText
  0
TEXT
  5
A469
330
A449
100
AcDbEntity
  8
2
  6
Continuous
100
AcDbText
 10
19.97951099999998
 20
10.04873699999998
 30
0.0
 40
1.399999999999999
  1
2
100
AcDbText
  0
TEXT
  5
A46A
330
A449
100
AcDbEntity
  8
6
  6
Continuous
100
AcDbText
 10
27.979511
 20
10.04873699999998
 30
0.0
 40
1.399999999999999
  1
6
100
AcDbText
  0
TEXT
  5
A46B
330
A449
100
AcDbEntity
  8
5
  6
PHANTOM
100
AcDbText
 10
25.97951099999999
 20
10.04873699999998
 30
0.0
 40
1.399999999999999
  1
5
100
AcDbText
  0
LINE
  5
A46C
330
A449
100
AcDbEntity
  8
4
  6
CENTER
 48
0.8
100
AcDbLine
 10
49.033949
 20
198.700895
 30
0.0
 11
49.033949
 21
123.7008949999997
 31
0.0
  0
LINE
  5
A46D
330
A449
100
AcDbEntity
  8
4
  6
CENTER
 48
0.8
100
AcDbLine
 10
27.533964
 20
153.700895
 30
0.0
 11
80.33393000000002
 21
153.700895
 31
0.0
  0
LINE
  5
A46E
330
A449
100
AcDbEntity
  8
1
  6
Continuous
100
AcDbLine
 10
37.75704000000001
 20
180.393352
 30
0.0
 11
60.31085799999999
 21
180.393352
 31
0.0
  0
LINE
  5
A46F
330
A449
100
AcDbEntity
  8
1
  6
Continuous
100
AcDbLine
 10
37.20402299999999
 20
181.627127
 30
0.0
 11
37.75703200000001
 21
180.393347
 31
0.0
  0
LINE
  5
A470
330
A449
100
AcDbEntity
  8
1
  6
Continuous
100
AcDbLine
 10
60.863852
 20
181.627135
 30
0.0
 11
60.310835
 21
180.3933539999999
 31
0.0
  0
LINE
  5
A471
330
A449
100
AcDbEntity
  8
4
  6
CENTER
 48
0.8
100
AcDbLine
 10
158.533949
 20
198.700895
 30
0.0
 11
158.533949
 21
163.967531
 31
0.0
  0
LINE
  5
A472
330
A449
100
AcDbEntity
  8
4
  6
CENTER
100
AcDbLine
 10
191.533949
 20
271.2008949999999
 30
0.0
 11
181.533949
 21
271.2008949999999
 31
0.0
  0
LINE
  5
A473
330
A449
100
AcDbEntity
  8
4
  6
CENTER
100
AcDbLine
 10
186.533949
 20
276.200895
 30
0.0
 11
186.533949
 21
266.200895
 31
0.0
  0
LINE
  5
A474
330
A449
100
AcDbEntity
  8
4
  6
CENTER
 48
0.8
100
AcDbLine
 10
158.533949
 20
283.200895
 30
0.0
 11
158.533949
 21
231.200895
 31
0.0
  0
LINE
  5
A475
330
A449
100
AcDbEntity
  8
4
  6
CENTER
 48
0.8
100
AcDbLine
 10
196.1618629999999
 20
257.200895
 30
0.0
 11
107.5339489999997
 21
257.200895
 31
0.0
  0
LINE
  5
A476
330
A449
100
AcDbEntity
  8
4
  6
CENTER
100
AcDbLine
 10
191.533949
 20
243.2008909999999
 30
0.0
 11
181.533949
 21
243.2008909999999
 31
0.0
  0
LINE
  5
A477
330
A449
100
AcDbEntity
  8
4
  6
CENTER
100
AcDbLine
 10
186.533949
 20
238.200895
 30
0.0
 11
186.533949
 21
248.200895
 31
0.0
  0
LINE
  5
A478
330
A449
100
AcDbEntity
  8
1
  6
Continuous
100
AcDbLine
 10
130.533949
 20
278.200895
 30
0.0
 11
186.533949
 21
278.200895
 31
0.0
  0
LINE
  5
A479
330
A449
100
AcDbEntity
  8
4
  6
CENTER
100
AcDbLine
 10
125.5339489999997
 20
271.2008949999999
 30
0.0
 11
135.533945
 21
271.2008949999999
 31
0.0
  0
LINE
  5
A47A
330
A449
100
AcDbEntity
  8
4
  6
CENTER
100
AcDbLine
 10
130.533949
 20
276.200895
 30
0.0
 11
130.533949
 21
266.200887
 31
0.0
  0
LINE
  5
A47B
330
A449
100
AcDbEntity
  8
1
  6
Continuous
100
AcDbLine
 10
130.5339529999999
 20
236.200895
 30
0.0
 11
186.533949
 21
236.200895
 31
0.0
  0
LINE
  5
A47C
330
A449
100
AcDbEntity
  8
4
  6
CENTER
100
AcDbLine
 10
125.5339489999997
 20
243.2008909999999
 30
0.0
 11
135.533949
 21
243.2008909999999
 31
0.0
  0
LINE
  5
A47D
330
A449
100
AcDbEntity
  8
4
  6
CENTER
100
AcDbLine
 10
130.533949
 20
238.200891
 30
0.0
 11
130.533949
 21
248.200887
 31
0.0
  0
LINE
  5
A47E
330
A449
100
AcDbEntity
  8
1
  6
Continuous
100
AcDbLine
 10
28.033949
 20
193.700895
 30
0.0
 11
70.03394899999999
 21
193.700895
 31
0.0
  0
LINE
  5
A47F
330
A449
100
AcDbEntity
  8
1
  6
Continuous
100
AcDbLine
 10
28.033949
 20
191.7008949999998
 30
0.0
 11
70.03394899999999
 21
191.7008949999998
 31
0.0
  0
LINE
  5
A480
330
A449
100
AcDbEntity
  8
1
  6
Continuous
100
AcDbLine
 10
32.23394600000001
 20
188.400892
 30
0.0
 11
65.833952
 21
188.400892
 31
0.0
  0
LINE
  5
A481
330
A449
100
AcDbEntity
  8
1
  6
Continuous
100
AcDbLine
 10
29.97637800000001
 20
190.26119
 30
0.0
 11
29.77474
 21
191.2964839999999
 31
0.0
  0
LINE
  5
A482
330
A449
100
AcDbEntity
  8
1
  6
Continuous
100
AcDbLine
 10
68.091513
 20
190.261174
 30
0.0
 11
68.293154
 21
191.296469
 31
0.0
  0
LINE
  5
A483
330
A449
100
AcDbEntity
  8
1
  6
Continuous
100
AcDbLine
 10
123.5339489999997
 20
193.700895
 30
0.0
 11
193.533949
 21
193.700895
 31
0.0
  0
LINE
  5
A484
330
A449
100
AcDbEntity
  8
1
  6
Continuous
100
AcDbLine
 10
123.5339489999997
 20
191.7009
 30
0.0
 11
123.5339489999997
 21
193.7008999999999
 31
0.0
  0
LINE
  5
A485
330
A449
100
AcDbEntity
  8
1
  6
Continuous
100
AcDbLine
 10
123.5339489999997
 20
191.7008949999998
 30
0.0
 11
193.533949
 21
191.7008949999998
 31
0.0
  0
LINE
  5
A486
330
A449
100
AcDbEntity
  8
1
  6
Continuous
100
AcDbLine
 10
141.733948
 20
188.400892
 30
0.0
 11
175.333952
 21
188.400892
 31
0.0
  0
LINE
  5
A487
330
A449
100
AcDbEntity
  8
1
  6
Continuous
100
AcDbLine
 10
139.476378
 20
190.261191
 30
0.0
 11
139.274735
 21
191.2964849999999
 31
0.0
  0
LINE
  5
A488
330
A449
100
AcDbEntity
  8
1
  6
Continuous
100
AcDbLine
 10
193.533949
 20
191.7008889999999
 30
0.0
 11
193.533949
 21
193.700895
 31
0.0
  0
LINE
  5
A489
330
A449
100
AcDbEntity
  8
1
  6
Continuous
100
AcDbLine
 10
177.591505
 20
190.261174
 30
0.0
 11
177.79315
 21
191.2964679999998
 31
0.0
  0
LINE
  5
A48A
330
A449
100
AcDbEntity
  8
4
  6
CENTER
100
AcDbLine
 10
130.533949
 20
189.2008949999998
 30
0.0
 11
130.533949
 21
196.2008949999999
 31
0.0
  0
LINE
  5
A48B
330
A449
100
AcDbEntity
  8
4
  6
CENTER
100
AcDbLine
 10
186.533949
 20
189.2008949999998
 30
0.0
 11
186.533949
 21
196.2008949999999
 31
0.0
  0
LINE
  5
A48C
330
A449
100
AcDbEntity
  8
1
  6
Continuous
100
AcDbLine
 10
28.033949
 20
193.700895
 30
0.0
 11
28.033949
 21
191.7008949999998
 31
0.0
  0
LINE
  5
A48D
330
A449
100
AcDbEntity
  8
1
  6
Continuous
100
AcDbLine
 10
70.03394899999999
 20
193.700895
 30
0.0
 11
70.03394899999999
 21
191.7008949999998
 31
0.0
  0
LINE
  5
A48E
330
A449
100
AcDbEntity
  8
4
  6
CENTER
100
AcDbLine
 10
35.03394899999999
 20
196.2008949999999
 30
0.0
 11
35.03394899999999
 21
189.2008949999998
 31
0.0
  0
LINE
  5
A48F
330
A449
100
AcDbEntity
  8
4
  6
CENTER
100
AcDbLine
 10
63.033949
 20
196.2008949999999
 30
0.0
 11
63.033949
 21
189.2008949999998
 31
0.0
  0
LINE
  5
A490
330
A449
100
AcDbEntity
  8
1
  6
Continuous
100
AcDbLine
 10
33.033949
 20
187.6608939999999
 30
0.0
 11
65.03394899999999
 21
187.6608939999999
 31
0.0
  0
LINE
  5
A491
330
A449
100
AcDbEntity
  8
1
  6
Continuous
100
AcDbLine
 10
36.033949
 20
142.850895
 30
0.0
 11
36.033949
 21
150.7662139999998
 31
0.0
  0
LINE
  5
A492
330
A449
100
AcDbEntity
  8
1
  6
Continuous
100
AcDbLine
 10
34.033964
 20
146.75279
 30
0.0
 11
36.03396399999999
 21
146.75279
 31
0.0
  0
LINE
  5
A493
330
A449
100
AcDbEntity
  8
1
  6
Continuous
100
AcDbLine
 10
34.033964
 20
146.75279
 30
0.0
 11
34.033964
 21
181.7042589999998
 31
0.0
  0
LINE
  5
A494
330
A449
100
AcDbEntity
  8
1
  6
Continuous
100
AcDbLine
 10
62.033949
 20
146.7527859999998
 30
0.0
 11
62.033949
 21
168.1135219999999
 31
0.0
  0
LINE
  5
A495
330
A449
100
AcDbEntity
  8
1
  6
Continuous
100
AcDbLine
 10
64.033934
 20
146.75279
 30
0.0
 11
62.03393399999999
 21
146.75279
 31
0.0
  0
LINE
  5
A496
330
A449
100
AcDbEntity
  8
1
  6
Continuous
100
AcDbLine
 10
64.033934
 20
146.75279
 30
0.0
 11
64.033934
 21
181.7042589999998
 31
0.0
  0
LINE
  5
A497
330
A449
100
AcDbEntity
  8
1
  6
Continuous
100
AcDbLine
 10
131.7812419999998
 20
181.255969
 30
0.0
 11
134.2432599999999
 21
181.690089
 31
0.0
  0
LINE
  5
A498
330
A449
100
AcDbEntity
  8
1
  6
Continuous
100
AcDbLine
 10
131.433941
 20
183.2255849999999
 30
0.0
 11
142.678883
 21
185.208371
 31
0.0
  0
LINE
  5
A499
330
A449
100
AcDbEntity
  8
1
  6
Continuous
100
AcDbLine
 10
131.433945
 20
183.22558
 30
0.0
 11
131.7812419999998
 21
181.2559639999999
 31
0.0
  0
LINE
  5
A49A
330
A449
100
AcDbEntity
  8
1
  6
Continuous
100
AcDbLine
 10
139.383951
 20
184.6273789999999
 30
0.0
 11
140.136604
 21
186.057825
 31
0.0
  0
LINE
  5
A49B
330
A449
100
AcDbEntity
  8
1
  6
Continuous
100
AcDbLine
 10
142.7915209999999
 20
187.6608939999999
 30
0.0
 11
174.2763809999999
 21
187.6608939999999
 31
0.0
  0
LINE
  5
A49C
330
A449
100
AcDbEntity
  8
1
  6
Continuous
100
AcDbLine
 10
133.8959659999999
 20
183.659701
 30
0.0
 11
134.259974
 21
181.595299
 31
0.0
  0
LINE
  5
A49D
330
A449
100
AcDbEntity
  8
1
  6
Continuous
100
AcDbLine
 10
145.533949
 20
183.9415149999999
 30
0.0
 11
145.533949
 21
162.6947239999998
 31
0.0
  0
LINE
  5
A49E
330
A449
100
AcDbEntity
  8
4
  6
CENTER
 48
0.8
100
AcDbLine
 10
167.5339489999998
 20
153.700895
 30
0.0
 11
107.5339489999997
 21
153.700895
 31
0.0
  0
LINE
  5
A49F
330
A449
100
AcDbEntity
  8
4
  6
CENTER
 48
0.8
100
AcDbLine
 10
137.5339489999997
 20
181.200895
 30
0.0
 11
137.5339489999997
 21
123.7008949999997
 31
0.0
  0
LINE
  5
A4A0
330
A449
100
AcDbEntity
  8
1
  6
Continuous
100
AcDbLine
 10
134.2658919999997
 20
181.2857539999999
 30
0.0
 11
132.372296
 21
167.480859
 31
0.0
  0
LINE
  5
A4A1
330
A449
100
AcDbEntity
  8
1
  6
Continuous
100
AcDbLine
 10
162.7856509999998
 20
175.94998
 30
0.0
 11
149.6633689999999
 21
158.221866
 31
0.0
  0
LINE
  5
A4A2
330
A449
100
AcDbEntity
  8
1
  6
Continuous
100
AcDbLine
 10
168.883993
 20
179.115304
 30
0.0
 11
177.533949
 21
179.4173679999999
 31
0.0
  0
LINE
  5
A4A3
330
A449
100
AcDbEntity
  8
1
  6
Continuous
100
AcDbLine
 10
61.033949
 20
156.950895
 30
0.0
 11
62.033949
 21
156.950895
 31
0.0
  0
LINE
  5
A4A4
330
A449
100
AcDbEntity
  8
1
  6
Continuous
100
AcDbLine
 10
61.033949
 20
150.4508949999998
 30
0.0
 11
62.033949
 21
150.4508949999998
 31
0.0
  0
ARC
  5
A4A5
330
A449
100
AcDbEntity
  8
1
  6
Continuous
100
AcDbCircle
 10
186.533949
 20
271.2008949999999
 30
0.0
 40
7.0
100
AcDbArc
 50
340.76692
 51
89.99996800000003
  0
ARC
  5
A4A6
330
A449
100
AcDbEntity
  8
1
  6
Continuous
100
AcDbCircle
 10
186.533949
 20
243.200895
 30
0.0
 40
7.0
100
AcDbArc
 50
270.0
 51
19.233055
  0
ARC
  5
A4A7
330
A449
100
AcDbEntity
  8
1
  6
Continuous
100
AcDbCircle
 10
226.6618589999999
 20
257.2009029999999
 30
0.0
 40
35.49999600000001
100
AcDbArc
 50
160.7508329999998
 51
199.23307
  0
ARC
  5
A4A8
330
A449
100
AcDbEntity
  8
1
  6
Continuous
100
AcDbCircle
 10
130.533949
 20
271.200887
 30
0.0
 40
7.0
100
AcDbArc
 50
89.99998199999996
 51
199.23301
  0
ARC
  5
A4A9
330
A449
100
AcDbEntity
  8
1
  6
Continuous
100
AcDbCircle
 10
130.5339529999999
 20
243.200895
 30
0.0
 40
7.0
100
AcDbArc
 50
160.76689
 51
269.99995
  0
ARC
  5
A4AA
330
A449
100
AcDbEntity
  8
1
  6
Continuous
100
AcDbCircle
 10
90.40603500000001
 20
257.200887
 30
0.0
 40
35.49999600000001
100
AcDbArc
 50
340.7668799999999
 51
19.241066
  0
CIRCLE
  5
A4AB
330
A449
100
AcDbEntity
  8
1
  6
Continuous
100
AcDbCircle
 10
158.533949
 20
257.200895
 30
0.0
 40
17.25
  0
CIRCLE
  5
A4AC
330
A449
100
AcDbEntity
  8
1
  6
Continuous
100
AcDbCircle
 10
158.533949
 20
257.200895
 30
0.0
 40
15.75
  0
CIRCLE
  5
A4AD
330
A449
100
AcDbEntity
  8
1
  6
Continuous
100
AcDbCircle
 10
158.533949
 20
257.200895
 30
0.0
 40
8.3
  0
CIRCLE
  5
A4AE
330
A449
100
AcDbEntity
  8
1
  6
Continuous
100
AcDbCircle
 10
158.533949
 20
257.200895
 30
0.0
 40
6.75
  0
ARC
  5
A4AF
330
A449
100
AcDbEntity
  8
1
  6
Continuous
100
AcDbCircle
 10
29.283949
 20
191.2008979999999
 30
0.0
 40
0.5
100
AcDbArc
 50
11.021507
 51
90.00000900000001
  0
ARC
  5
A4B0
330
A449
100
AcDbEntity
  8
1
  6
Continuous
100
AcDbCircle
 10
32.219526
 20
191.200859
 30
0.0
 40
2.799999999999998
100
AcDbArc
 50
270.00002
 51
271.65221
  0
ARC
  5
A4B1
330
A449
100
AcDbEntity
  8
1
  6
Continuous
100
AcDbCircle
 10
32.23394600000001
 20
190.7008969999999
 30
0.0
 40
2.299999999999998
100
AcDbArc
 50
191.02148
 51
269.9999899999999
  0
ARC
  5
A4B2
330
A449
100
AcDbEntity
  8
1
  6
Continuous
100
AcDbCircle
 10
68.78394899999999
 20
191.2008909999999
 30
0.0
 40
0.5
100
AcDbArc
 50
89.999955
 51
168.97846
  0
ARC
  5
A4B3
330
A449
100
AcDbEntity
  8
1
  6
Continuous
100
AcDbCircle
 10
65.833952
 20
190.7008919999999
 30
0.0
 40
2.299999999999998
100
AcDbArc
 50
270.00002
 51
348.9785299999998
  0
ARC
  5
A4B4
330
A449
100
AcDbEntity
  8
1
  6
Continuous
100
AcDbCircle
 10
52.95457299999998
 20
188.745394
 30
0.0
 40
1.984499999999996
100
AcDbArc
 50
189.9969899999999
 51
213.12621
  0
ARC
  5
A4B5
330
A449
100
AcDbEntity
  8
1
  6
Continuous
100
AcDbCircle
 10
49.033949
 20
188.745394
 30
0.0
 40
1.984499999999996
100
AcDbArc
 50
326.8737799999998
 51
350.00299
  0
ARC
  5
A4B6
330
A449
100
AcDbEntity
  8
1
  6
Continuous
100
AcDbCircle
 10
56.495268
 20
188.745394
 30
0.0
 40
1.984499999999996
100
AcDbArc
 50
206.86325
 51
213.12621
  0
ARC
  5
A4B7
330
A449
100
AcDbEntity
  8
1
  6
Continuous
100
AcDbCircle
 10
59.312933
 20
188.745394
 30
0.0
 40
1.984499999999996
100
AcDbArc
 50
326.8737799999998
 51
350.00299
  0
ARC
  5
A4B8
330
A449
100
AcDbEntity
  8
1
  6
Continuous
100
AcDbCircle
 10
61.134535
 20
188.745394
 30
0.0
 40
1.984499999999996
100
AcDbArc
 50
326.8737799999998
 51
350.00299
  0
ARC
  5
A4B9
330
A449
100
AcDbEntity
  8
1
  6
Continuous
100
AcDbCircle
 10
61.783949
 20
188.745394
 30
0.0
 40
1.984499999999996
100
AcDbArc
 50
326.8737799999998
 51
350.00299
  0
ARC
  5
A4BA
330
A449
100
AcDbEntity
  8
1
  6
Continuous
100
AcDbCircle
 10
45.113325
 20
188.745394
 30
0.0
 40
1.984499999999996
100
AcDbArc
 50
189.99704
 51
213.12621
  0
ARC
  5
A4BB
330
A449
100
AcDbEntity
  8
1
  6
Continuous
100
AcDbCircle
 10
49.033949
 20
188.745394
 30
0.0
 40
1.984499999999996
100
AcDbArc
 50
189.9970599999999
 51
213.12621
  0
ARC
  5
A4BC
330
A449
100
AcDbEntity
  8
1
  6
Continuous
100
AcDbCircle
 10
41.57262999999999
 20
188.745394
 30
0.0
 40
1.984499999999996
100
AcDbArc
 50
189.9970599999999
 51
213.12621
  0
ARC
  5
A4BD
330
A449
100
AcDbEntity
  8
1
  6
Continuous
100
AcDbCircle
 10
38.754965
 20
188.745394
 30
0.0
 40
1.984499999999996
100
AcDbArc
 50
189.9970599999999
 51
213.12621
  0
ARC
  5
A4BE
330
A449
100
AcDbEntity
  8
1
  6
Continuous
100
AcDbCircle
 10
36.933363
 20
188.745394
 30
0.0
 40
1.984499999999996
100
AcDbArc
 50
189.9970599999999
 51
213.12621
  0
ARC
  5
A4BF
330
A449
100
AcDbEntity
  8
1
  6
Continuous
100
AcDbCircle
 10
36.28394899999999
 20
188.745394
 30
0.0
 40
1.984499999999996
100
AcDbArc
 50
189.9970599999999
 51
213.12621
  0
ARC
  5
A4C0
330
A449
100
AcDbEntity
  8
1
  6
Continuous
100
AcDbCircle
 10
138.783949
 20
191.2008979999999
 30
0.0
 40
0.5
100
AcDbArc
 50
11.021507
 51
90.00000900000001
  0
ARC
  5
A4C1
330
A449
100
AcDbEntity
  8
1
  6
Continuous
100
AcDbCircle
 10
141.7195259999997
 20
191.200859
 30
0.0
 40
2.799999999999998
100
AcDbArc
 50
270.00002
 51
271.65221
  0
ARC
  5
A4C2
330
A449
100
AcDbEntity
  8
1
  6
Continuous
100
AcDbCircle
 10
141.733948
 20
190.7008969999999
 30
0.0
 40
2.299999999999998
100
AcDbArc
 50
191.02148
 51
269.9999899999999
  0
ARC
  5
A4C3
330
A449
100
AcDbEntity
  8
1
  6
Continuous
100
AcDbCircle
 10
178.283949
 20
191.2008909999999
 30
0.0
 40
0.5
100
AcDbArc
 50
89.999955
 51
168.97846
  0
ARC
  5
A4C4
330
A449
100
AcDbEntity
  8
1
  6
Continuous
100
AcDbCircle
 10
175.333952
 20
190.7008919999999
 30
0.0
 40
2.299999999999998
100
AcDbArc
 50
270.00002
 51
348.9785299999998
  0
ARC
  5
A4C5
330
A449
100
AcDbEntity
  8
1
  6
Continuous
100
AcDbCircle
 10
162.454573
 20
188.745394
 30
0.0
 40
1.984499999999996
100
AcDbArc
 50
189.9969899999999
 51
213.12621
  0
ARC
  5
A4C6
330
A449
100
AcDbEntity
  8
1
  6
Continuous
100
AcDbCircle
 10
158.533949
 20
188.745394
 30
0.0
 40
1.984499999999996
100
AcDbArc
 50
326.8737699999998
 51
350.00299
  0
ARC
  5
A4C7
330
A449
100
AcDbEntity
  8
1
  6
Continuous
100
AcDbCircle
 10
165.9952679999999
 20
188.745394
 30
0.0
 40
1.984499999999996
100
AcDbArc
 50
206.86325
 51
213.12621
  0
ARC
  5
A4C8
330
A449
100
AcDbEntity
  8
1
  6
Continuous
100
AcDbCircle
 10
168.8129329999999
 20
188.745394
 30
0.0
 40
1.984499999999996
100
AcDbArc
 50
326.8737699999998
 51
350.00299
  0
ARC
  5
A4C9
330
A449
100
AcDbEntity
  8
1
  6
Continuous
100
AcDbCircle
 10
170.634535
 20
188.745394
 30
0.0
 40
1.984499999999996
100
AcDbArc
 50
326.8737699999998
 51
350.00299
  0
ARC
  5
A4CA
330
A449
100
AcDbEntity
  8
1
  6
Continuous
100
AcDbCircle
 10
171.283949
 20
188.745394
 30
0.0
 40
1.984499999999996
100
AcDbArc
 50
326.8737699999998
 51
350.00299
  0
ARC
  5
A4CB
330
A449
100
AcDbEntity
  8
1
  6
Continuous
100
AcDbCircle
 10
154.613325
 20
188.745394
 30
0.0
 40
1.984499999999996
100
AcDbArc
 50
189.99704
 51
213.12621
  0
ARC
  5
A4CC
330
A449
100
AcDbEntity
  8
1
  6
Continuous
100
AcDbCircle
 10
158.533949
 20
188.745394
 30
0.0
 40
1.984499999999996
100
AcDbArc
 50
189.9970599999999
 51
213.12621
  0
ARC
  5
A4CD
330
A449
100
AcDbEntity
  8
1
  6
Continuous
100
AcDbCircle
 10
151.0726299999998
 20
188.745394
 30
0.0
 40
1.984499999999996
100
AcDbArc
 50
189.9970599999999
 51
213.12621
  0
ARC
  5
A4CE
330
A449
100
AcDbEntity
  8
1
  6
Continuous
100
AcDbCircle
 10
148.2549649999999
 20
188.745394
 30
0.0
 40
1.984499999999996
100
AcDbArc
 50
189.9970599999999
 51
213.12621
  0
ARC
  5
A4CF
330
A449
100
AcDbEntity
  8
1
  6
Continuous
100
AcDbCircle
 10
146.4333629999998
 20
188.745394
 30
0.0
 40
1.984499999999996
100
AcDbArc
 50
189.9970599999999
 51
213.12621
  0
ARC
  5
A4D0
330
A449
100
AcDbEntity
  8
1
  6
Continuous
100
AcDbCircle
 10
145.783949
 20
188.745394
 30
0.0
 40
1.984499999999996
100
AcDbArc
 50
189.9970599999999
 51
213.12621
  0
ARC
  5
A4D1
330
A449
100
AcDbEntity
  8
1
  6
Continuous
100
AcDbCircle
 10
49.033949
 20
369.9722249999999
 30
0.0
 40
188.71625
100
AcDbArc
 50
266.04995
 51
273.9500299999999
  0
ARC
  5
A4D2
330
A449
100
AcDbEntity
  8
1
  6
Continuous
100
AcDbCircle
 10
36.033949
 20
181.7042589999998
 30
0.0
 40
2.0
100
AcDbArc
 50
112.0263899999999
 51
179.9999899999999
  0
ARC
  5
A4D3
330
A449
100
AcDbEntity
  8
1
  6
Continuous
100
AcDbCircle
 10
49.033949
 20
467.502895
 30
0.0
 40
284.27734
100
AcDbArc
 50
267.2275899999998
 51
272.7723899999999
  0
ARC
  5
A4D4
330
A449
100
AcDbEntity
  8
1
  6
Continuous
100
AcDbCircle
 10
49.033949
 20
277.2391489999999
 30
0.0
 40
92.611763
100
AcDbArc
 50
261.46176
 51
278.53822
  0
ARC
  5
A4D5
330
A449
100
AcDbEntity
  8
1
  6
Continuous
100
AcDbCircle
 10
61.97495100000001
 20
170.79731
 30
0.0
 40
32.0
100
AcDbArc
 50
183.47975
 51
204.0784949999999
  0
ARC
  5
A4D6
330
A449
100
AcDbEntity
  8
1
  6
Continuous
100
AcDbCircle
 10
62.033949
 20
181.7042589999998
 30
0.0
 40
2.0
100
AcDbArc
 50
359.99997
 51
67.97357099999999
  0
ARC
  5
A4D7
330
A449
100
AcDbEntity
  8
1
  6
Continuous
100
AcDbCircle
 10
45.113325
 20
188.745394
 30
0.0
 40
1.984499999999996
100
AcDbArc
 50
326.8737799999998
 51
350.0030499999998
  0
ARC
  5
A4D8
330
A449
100
AcDbEntity
  8
1
  6
Continuous
100
AcDbCircle
 10
41.57262999999999
 20
188.745394
 30
0.0
 40
1.984499999999996
100
AcDbArc
 50
326.8737799999998
 51
333.1367799999998
  0
ARC
  5
A4D9
330
A449
100
AcDbEntity
  8
1
  6
Continuous
100
AcDbCircle
 10
52.95457299999998
 20
188.745394
 30
0.0
 40
1.984499999999996
100
AcDbArc
 50
326.8737799999998
 51
350.00299
  0
ARC
  5
A4DA
330
A449
100
AcDbEntity
  8
1
  6
Continuous
100
AcDbCircle
 10
56.495268
 20
188.745394
 30
0.0
 40
1.984499999999996
100
AcDbArc
 50
326.8737799999998
 51
350.00299
  0
ARC
  5
A4DB
330
A449
100
AcDbEntity
  8
1
  6
Continuous
100
AcDbCircle
 10
154.613325
 20
188.745394
 30
0.0
 40
1.984499999999996
100
AcDbArc
 50
326.8737699999998
 51
350.0030499999998
  0
ARC
  5
A4DC
330
A449
100
AcDbEntity
  8
1
  6
Continuous
100
AcDbCircle
 10
142.7915209999999
 20
184.6608939999999
 30
0.0
 40
3.0
100
AcDbArc
 50
89.99998199999996
 51
152.24815
  0
ARC
  5
A4DD
330
A449
100
AcDbEntity
  8
1
  6
Continuous
100
AcDbCircle
 10
174.2763809999999
 20
184.6608939999999
 30
0.0
 40
3.0
100
AcDbArc
 50
6.796801999999997
 51
89.99998199999996
  0
ARC
  5
A4DE
330
A449
100
AcDbEntity
  8
1
  6
Continuous
100
AcDbCircle
 10
133.2751679999997
 20
181.42165
 30
0.0
 40
1.0
100
AcDbArc
 50
352.1895799999999
 51
10.0
  0
ARC
  5
A4DF
330
A449
100
AcDbEntity
  8
1
  6
Continuous
100
AcDbCircle
 10
162.454573
 20
188.745394
 30
0.0
 40
1.984499999999996
100
AcDbArc
 50
326.8737699999998
 51
350.00299
  0
ARC
  5
A4E0
330
A449
100
AcDbEntity
  8
1
  6
Continuous
100
AcDbCircle
 10
165.9952679999999
 20
188.745394
 30
0.0
 40
1.984499999999996
100
AcDbArc
 50
326.8737699999998
 51
350.00299
  0
ARC
  5
A4E1
330
A449
100
AcDbEntity
  8
1
  6
Continuous
100
AcDbCircle
 10
151.0726299999998
 20
188.745394
 30
0.0
 40
1.984499999999996
100
AcDbArc
 50
326.8737699999998
 51
333.1367799999998
  0
ARC
  5
A4E2
330
A449
100
AcDbEntity
  8
1
  6
Continuous
100
AcDbCircle
 10
169.1631909999999
 20
171.120178
 30
0.0
 40
8.0
100
AcDbArc
 50
92.00003199999995
 51
143.32582
  0
LINE
  5
A4E3
330
A449
100
AcDbEntity
  8
1
  6
Continuous
100
AcDbLine
 10
68.03394899999999
 20
184.6608939999999
 30
0.0
 11
68.03394899999999
 21
179.676532
 31
0.0
  0
LINE
  5
A4E4
330
A449
100
AcDbEntity
  8
1
  6
Continuous
100
AcDbLine
 10
30.03394899999999
 20
184.6608939999999
 30
0.0
 11
30.03394899999999
 21
168.8550449999999
 31
0.0
  0
ARC
  5
A4E5
330
A449
100
AcDbEntity
  8
1
  6
Continuous
100
AcDbCircle
 10
65.03394899999999
 20
184.6608939999999
 30
0.0
 40
3.0
100
AcDbArc
 50
0.0
 51
90.0
  0
ARC
  5
A4E6
330
A449
100
AcDbEntity
  8
1
  6
Continuous
100
AcDbCircle
 10
33.033949
 20
184.6608939999999
 30
0.0
 40
3.0
100
AcDbArc
 50
90.0
 51
180.0
  0
LINE
  5
A4E7
330
A449
100
AcDbEntity
  8
1
  6
Continuous
100
AcDbLine
 10
177.2552969999999
 20
185.01594
 30
0.0
 11
177.533949
 21
179.4173679999999
 31
0.0
  0
LINE
  5
A4E8
330
A449
100
AcDbEntity
  8
4
  6
CENTER
 48
0.8
100
AcDbLine
 10
137.5339489999997
 20
283.200895
 30
0.0
 11
137.5339489999997
 21
231.200895
 31
0.0
  0
LINE
  5
A4E9
330
A449
100
AcDbEntity
  8
1
  6
Continuous
100
AcDbLine
 10
170.4752349999999
 20
86.20089499999997
 30
0.0
 11
186.533949
 21
86.20089499999997
 31
0.0
  0
LINE
  5
A4EA
330
A449
100
AcDbEntity
  8
1
  6
Continuous
100
AcDbLine
 10
130.533949
 20
44.200895
 30
0.0
 11
186.533949
 21
44.200895
 31
0.0
  0
LINE
  5
A4EB
330
A449
100
AcDbEntity
  8
4
  6
CENTER
 48
0.8
100
AcDbLine
 10
196.1618629999999
 20
65.20089499999999
 30
0.0
 11
107.5339489999997
 21
65.20089499999999
 31
0.0
  0
LINE
  5
A4EC
330
A449
100
AcDbEntity
  8
4
  6
CENTER
 48
0.8
100
AcDbLine
 10
137.5339489999997
 20
39.200895
 30
0.0
 11
137.5339489999997
 21
91.20089499999997
 31
0.0
  0
ARC
  5
A4ED
330
A449
100
AcDbEntity
  8
1
  6
Continuous
100
AcDbCircle
 10
90.40603500000001
 20
65.20090299999999
 30
0.0
 40
35.49999600000001
100
AcDbArc
 50
340.758934
 51
341.9492419999999
  0
LINE
  5
A4EE
330
A449
100
AcDbEntity
  8
4
  6
CENTER
 48
0.8
100
AcDbLine
 10
158.533949
 20
39.200895
 30
0.0
 11
158.533949
 21
91.20089499999997
 31
0.0
  0
ARC
  5
A4EF
330
A449
100
AcDbEntity
  8
1
  6
Continuous
100
AcDbCircle
 10
130.5339529999999
 20
79.20089499999997
 30
0.0
 40
7.0
100
AcDbArc
 50
171.7869129999999
 51
199.23311
  0
LINE
  5
A4F0
330
A449
100
AcDbEntity
  8
4
  6
CENTER
100
AcDbLine
 10
125.5339489999997
 20
79.20089899999998
 30
0.0
 11
135.533949
 21
79.20089899999998
 31
0.0
  0
LINE
  5
A4F1
330
A449
100
AcDbEntity
  8
4
  6
CENTER
100
AcDbLine
 10
130.533949
 20
84.20089899999998
 30
0.0
 11
130.533949
 21
74.20090299999998
 31
0.0
  0
ARC
  5
A4F2
330
A449
100
AcDbEntity
  8
1
  6
Continuous
100
AcDbCircle
 10
130.533949
 20
51.20090300000001
 30
0.0
 40
7.0
100
AcDbArc
 50
160.7669899999999
 51
270.0000179999999
  0
LINE
  5
A4F3
330
A449
100
AcDbEntity
  8
4
  6
CENTER
100
AcDbLine
 10
130.533949
 20
46.200895
 30
0.0
 11
130.533949
 21
56.20090300000001
 31
0.0
  0
LINE
  5
A4F4
330
A449
100
AcDbEntity
  8
4
  6
CENTER
100
AcDbLine
 10
125.5339489999997
 20
51.200895
 30
0.0
 11
135.533945
 21
51.200895
 31
0.0
  0
ARC
  5
A4F5
330
A449
100
AcDbEntity
  8
1
  6
Continuous
100
AcDbCircle
 10
226.6618589999999
 20
65.20088699999999
 30
0.0
 40
35.49999600000001
100
AcDbArc
 50
160.7669299999997
 51
199.2491669999998
  0
ARC
  5
A4F6
330
A449
100
AcDbEntity
  8
1
  6
Continuous
100
AcDbCircle
 10
186.533949
 20
79.20089499999997
 30
0.0
 40
7.0
100
AcDbArc
 50
340.766945
 51
90.0
  0
LINE
  5
A4F7
330
A449
100
AcDbEntity
  8
4
  6
CENTER
100
AcDbLine
 10
191.533949
 20
79.20089899999998
 30
0.0
 11
181.533949
 21
79.20089899999998
 31
0.0
  0
LINE
  5
A4F8
330
A449
100
AcDbEntity
  8
4
  6
CENTER
100
AcDbLine
 10
186.533949
 20
84.20089500000001
 30
0.0
 11
186.533949
 21
74.20089499999997
 31
0.0
  0
ARC
  5
A4F9
330
A449
100
AcDbEntity
  8
1
  6
Continuous
100
AcDbCircle
 10
186.533949
 20
51.200895
 30
0.0
 40
7.0
100
AcDbArc
 50
270.000032
 51
19.23307999999997
  0
LINE
  5
A4FA
330
A449
100
AcDbEntity
  8
4
  6
CENTER
100
AcDbLine
 10
186.533949
 20
46.200895
 30
0.0
 11
186.533949
 21
56.20089499999998
 31
0.0
  0
LINE
  5
A4FB
330
A449
100
AcDbEntity
  8
4
  6
CENTER
100
AcDbLine
 10
191.533949
 20
51.200895
 30
0.0
 11
181.533949
 21
51.200895
 31
0.0
  0
LINE
  5
A4FC
330
A449
100
AcDbEntity
  8
4
  6
CENTER
 48
0.8
100
AcDbLine
 10
257.033949
 20
198.700895
 30
0.0
 11
257.033949
 21
123.7008949999997
 31
0.0
  0
LINE
  5
A4FD
330
A449
100
AcDbEntity
  8
1
  6
Continuous
100
AcDbLine
 10
242.033964
 20
146.75279
 30
0.0
 11
244.033964
 21
146.75279
 31
0.0
  0
LINE
  5
A4FE
330
A449
100
AcDbEntity
  8
1
  6
Continuous
100
AcDbLine
 10
273.0339489999999
 20
187.6608939999999
 30
0.0
 11
241.0339490000001
 21
187.6608939999999
 31
0.0
  0
LINE
  5
A4FF
330
A449
100
AcDbEntity
  8
1
  6
Continuous
100
AcDbLine
 10
273.833952
 20
188.400892
 30
0.0
 11
240.2339449999999
 21
188.400892
 31
0.0
  0
LINE
  5
A500
330
A449
100
AcDbEntity
  8
1
  6
Continuous
100
AcDbLine
 10
278.033949
 20
191.7008949999998
 30
0.0
 11
236.033949
 21
191.7008949999998
 31
0.0
  0
LINE
  5
A501
330
A449
100
AcDbEntity
  8
1
  6
Continuous
100
AcDbLine
 10
278.033949
 20
193.700895
 30
0.0
 11
236.033949
 21
193.700895
 31
0.0
  0
LINE
  5
A502
330
A449
100
AcDbEntity
  8
4
  6
CENTER
 48
0.8
100
AcDbLine
 10
278.5339339999998
 20
153.700895
 30
0.0
 11
225.733949
 21
153.700895
 31
0.0
  0
LINE
  5
A503
330
A449
100
AcDbEntity
  8
1
  6
Continuous
100
AcDbLine
 10
276.033949
 20
184.6608939999999
 30
0.0
 11
276.033949
 21
168.8550449999999
 31
0.0
  0
LINE
  5
A504
330
A449
100
AcDbEntity
  8
1
  6
Continuous
100
AcDbLine
 10
244.0339489999999
 20
146.7527859999998
 30
0.0
 11
244.0339489999999
 21
179.4173679999999
 31
0.0
  0
LINE
  5
A505
330
A449
100
AcDbEntity
  8
1
  6
Continuous
100
AcDbLine
 10
272.0339339999998
 20
146.75279
 30
0.0
 11
272.0339339999998
 21
154.3455789999998
 31
0.0
  0
LINE
  5
A506
330
A449
100
AcDbEntity
  8
1
  6
Continuous
100
AcDbLine
 10
270.033949
 20
142.850895
 30
0.0
 11
270.033949
 21
145.4716909999999
 31
0.0
  0
LINE
  5
A507
330
A449
100
AcDbEntity
  8
1
  6
Continuous
100
AcDbLine
 10
245.0339490000001
 20
150.4508949999998
 30
0.0
 11
244.0339489999999
 21
150.4508949999998
 31
0.0
  0
LINE
  5
A508
330
A449
100
AcDbEntity
  8
1
  6
Continuous
100
AcDbLine
 10
245.0339490000001
 20
156.950895
 30
0.0
 11
244.0339489999999
 21
156.950895
 31
0.0
  0
ARC
  5
A509
330
A449
100
AcDbEntity
  8
1
  6
Continuous
100
AcDbCircle
 10
273.0339489999999
 20
184.6608939999999
 30
0.0
 40
3.0
100
AcDbArc
 50
0.0
 51
90.0
  0
ARC
  5
A50A
330
A449
100
AcDbEntity
  8
1
  6
Continuous
100
AcDbCircle
 10
273.833952
 20
190.7008969999999
 30
0.0
 40
2.299999999999998
100
AcDbArc
 50
270.00001
 51
348.97852
  0
ARC
  5
A50B
330
A449
100
AcDbEntity
  8
1
  6
Continuous
100
AcDbCircle
 10
276.783949
 20
191.2008979999999
 30
0.0
 40
0.5
100
AcDbArc
 50
89.99999100000001
 51
168.9784929999999
  0
LINE
  5
A50C
330
A449
100
AcDbEntity
  8
1
  6
Continuous
100
AcDbLine
 10
278.033949
 20
193.700895
 30
0.0
 11
278.033949
 21
191.7008949999998
 31
0.0
  0
LINE
  5
A50D
330
A449
100
AcDbEntity
  8
1
  6
Continuous
100
AcDbLine
 10
276.0915199999999
 20
190.26119
 30
0.0
 11
276.293158
 21
191.2964839999999
 31
0.0
  0
ARC
  5
A50E
330
A449
100
AcDbEntity
  8
1
  6
Continuous
100
AcDbCircle
 10
264.495268
 20
188.745394
 30
0.0
 40
1.984499999999996
100
AcDbArc
 50
206.8632199999999
 51
213.12622
  0
ARC
  5
A50F
330
A449
100
AcDbEntity
  8
1
  6
Continuous
100
AcDbCircle
 10
260.9545729999999
 20
188.745394
 30
0.0
 40
1.984499999999996
100
AcDbArc
 50
189.99695
 51
213.12622
  0
ARC
  5
A510
330
A449
100
AcDbEntity
  8
1
  6
Continuous
100
AcDbCircle
 10
269.783949
 20
188.745394
 30
0.0
 40
1.984499999999996
100
AcDbArc
 50
326.87379
 51
350.0029399999998
  0
ARC
  5
A511
330
A449
100
AcDbEntity
  8
1
  6
Continuous
100
AcDbCircle
 10
269.134535
 20
188.745394
 30
0.0
 40
1.984499999999996
100
AcDbArc
 50
326.87379
 51
350.0029399999998
  0
ARC
  5
A512
330
A449
100
AcDbEntity
  8
1
  6
Continuous
100
AcDbCircle
 10
267.312933
 20
188.745394
 30
0.0
 40
1.984499999999996
100
AcDbArc
 50
326.87379
 51
350.0029399999998
  0
ARC
  5
A513
330
A449
100
AcDbEntity
  8
1
  6
Continuous
100
AcDbCircle
 10
264.495268
 20
188.745394
 30
0.0
 40
1.984499999999996
100
AcDbArc
 50
326.87379
 51
350.0029399999998
  0
ARC
  5
A514
330
A449
100
AcDbEntity
  8
1
  6
Continuous
100
AcDbCircle
 10
257.033949
 20
188.745394
 30
0.0
 40
1.984499999999996
100
AcDbArc
 50
326.87379
 51
350.0029399999998
  0
ARC
  5
A515
330
A449
100
AcDbEntity
  8
1
  6
Continuous
100
AcDbCircle
 10
260.9545729999999
 20
188.745394
 30
0.0
 40
1.984499999999996
100
AcDbArc
 50
326.87379
 51
350.0029599999999
  0
ARC
  5
A516
330
A449
100
AcDbEntity
  8
1
  6
Continuous
100
AcDbCircle
 10
273.848372
 20
191.200859
 30
0.0
 40
2.799999999999998
100
AcDbArc
 50
268.3477899999999
 51
269.99998
  0
LINE
  5
A517
330
A449
100
AcDbEntity
  8
4
  6
CENTER
100
AcDbLine
 10
271.0339489999999
 20
196.2008949999999
 30
0.0
 11
271.0339489999999
 21
189.2008949999998
 31
0.0
  0
ARC
  5
A518
330
A449
100
AcDbEntity
  8
1
  6
Continuous
100
AcDbCircle
 10
249.5726299999998
 20
188.745394
 30
0.0
 40
1.984499999999996
100
AcDbArc
 50
189.99701
 51
213.12622
  0
ARC
  5
A519
330
A449
100
AcDbEntity
  8
1
  6
Continuous
100
AcDbCircle
 10
253.1133249999999
 20
188.745394
 30
0.0
 40
1.984499999999996
100
AcDbArc
 50
189.99701
 51
213.12622
  0
ARC
  5
A51A
330
A449
100
AcDbEntity
  8
1
  6
Continuous
100
AcDbCircle
 10
244.283949
 20
188.745394
 30
0.0
 40
1.984499999999996
100
AcDbArc
 50
189.99701
 51
213.12622
  0
ARC
  5
A51B
330
A449
100
AcDbEntity
  8
1
  6
Continuous
100
AcDbCircle
 10
244.9333629999999
 20
188.745394
 30
0.0
 40
1.984499999999996
100
AcDbArc
 50
189.99701
 51
213.12622
  0
ARC
  5
A51C
330
A449
100
AcDbEntity
  8
1
  6
Continuous
100
AcDbCircle
 10
246.754965
 20
188.745394
 30
0.0
 40
1.984499999999996
100
AcDbArc
 50
189.99701
 51
213.12622
  0
ARC
  5
A51D
330
A449
100
AcDbEntity
  8
1
  6
Continuous
100
AcDbCircle
 10
249.5726299999998
 20
188.745394
 30
0.0
 40
1.984499999999996
100
AcDbArc
 50
326.87379
 51
333.13675
  0
ARC
  5
A51E
330
A449
100
AcDbEntity
  8
1
  6
Continuous
100
AcDbCircle
 10
257.033949
 20
188.745394
 30
0.0
 40
1.984499999999996
100
AcDbArc
 50
189.99701
 51
213.12622
  0
ARC
  5
A51F
330
A449
100
AcDbEntity
  8
1
  6
Continuous
100
AcDbCircle
 10
253.1133249999999
 20
188.745394
 30
0.0
 40
1.984499999999996
100
AcDbArc
 50
326.87379
 51
350.00301
  0
LINE
  5
A520
330
A449
100
AcDbEntity
  8
4
  6
CENTER
100
AcDbLine
 10
243.0339490000001
 20
196.2008949999999
 30
0.0
 11
243.0339490000001
 21
189.2008949999998
 31
0.0
  0
LINE
  5
A521
330
A449
100
AcDbEntity
  8
1
  6
Continuous
100
AcDbLine
 10
242.033964
 20
146.75279
 30
0.0
 11
242.033964
 21
154.3455789999998
 31
0.0
  0
ARC
  5
A522
330
A449
100
AcDbEntity
  8
1
  6
Continuous
100
AcDbCircle
 10
241.0339490000001
 20
184.6608939999999
 30
0.0
 40
3.0
100
AcDbArc
 50
90.0
 51
180.0
  0
ARC
  5
A523
330
A449
100
AcDbEntity
  8
1
  6
Continuous
100
AcDbCircle
 10
240.2339459999998
 20
190.7008919999999
 30
0.0
 40
2.299999999999998
100
AcDbArc
 50
191.02147
 51
269.99998
  0
ARC
  5
A524
330
A449
100
AcDbEntity
  8
1
  6
Continuous
100
AcDbCircle
 10
237.283949
 20
191.2008909999999
 30
0.0
 40
0.5
100
AcDbArc
 50
11.02154
 51
90.00004500000001
  0
LINE
  5
A525
330
A449
100
AcDbEntity
  8
1
  6
Continuous
100
AcDbLine
 10
236.033949
 20
193.700895
 30
0.0
 11
236.033949
 21
191.7008949999998
 31
0.0
  0
LINE
  5
A526
330
A449
100
AcDbEntity
  8
1
  6
Continuous
100
AcDbLine
 10
237.9763849999999
 20
190.261174
 30
0.0
 11
237.7747439999999
 21
191.296469
 31
0.0
  0
LINE
  5
A527
330
A449
100
AcDbEntity
  8
1
  6
Continuous
100
AcDbLine
 10
240.1250649999997
 20
179.4173679999999
 30
0.0
 11
273.942832
 21
179.4173679999999
 31
0.0
  0
LINE
  5
A528
330
A449
100
AcDbEntity
  8
1
  6
Continuous
100
AcDbLine
 10
238.033949
 20
184.6608939999999
 30
0.0
 11
238.033949
 21
168.8550449999999
 31
0.0
  0
LINE
  5
A529
330
A449
100
AcDbEntity
  8
1
  6
Continuous
100
AcDbLine
 10
134.283949
 20
77.20089499999997
 30
0.0
 11
134.283949
 21
78.20089499999998
 31
0.0
  0
LINE
  5
A52A
330
A449
100
AcDbEntity
  8
1
  6
Continuous
100
AcDbLine
 10
140.783949
 20
77.20089499999997
 30
0.0
 11
140.783949
 21
78.20089499999998
 31
0.0
  0
LINE
  5
A52B
330
A449
100
AcDbEntity
  8
1
  6
Continuous
100
AcDbLine
 10
145.5724449999999
 20
78.20088
 30
0.0
 11
130.819274
 21
78.20088
 31
0.0
  0
ARC
  5
A52C
330
A449
100
AcDbEntity
  8
1
  6
Continuous
100
AcDbCircle
 10
90.40603500000001
 20
65.20090299999999
 30
0.0
 40
35.49999600000001
100
AcDbArc
 50
17.20398299999999
 51
19.23312
  0
LINE
  5
A52D
330
A449
100
AcDbEntity
  8
1
  6
Continuous
100
AcDbLine
 10
144.5886529999999
 20
52.20091
 30
0.0
 11
129.3372019999999
 21
52.20091
 31
0.0
  0
LINE
  5
A52E
330
A449
100
AcDbEntity
  8
1
  6
Continuous
100
AcDbLine
 10
145.5724449999999
 20
50.20091
 30
0.0
 11
130.534663
 21
50.20091
 31
0.0
  0
LINE
  5
A52F
330
A449
100
AcDbEntity
  8
1
  6
Continuous
100
AcDbLine
 10
130.534663
 20
52.20091
 30
0.0
 11
130.534663
 21
50.20091
 31
0.0
  0
ARC
  5
A530
330
A449
100
AcDbEntity
  8
1
  6
Continuous
100
AcDbCircle
 10
158.533949
 20
65.20089499999999
 30
0.0
 40
19.0
100
AcDbArc
 50
235.7944209999997
 51
65.659788
  0
ARC
  5
A531
330
A449
100
AcDbEntity
  8
1
  6
Continuous
100
AcDbCircle
 10
158.533949
 20
65.20089499999999
 30
0.0
 40
17.0
100
AcDbArc
 50
233.746358
 51
76.06923499999997
  0
ARC
  5
A532
330
A449
100
AcDbEntity
  8
1
  6
Continuous
100
AcDbCircle
 10
178.3590309999999
 20
65.20089499999999
 30
0.0
 40
46.925087
100
AcDbArc
 50
163.916557
 51
165.1833469999999
  0
ARC
  5
A533
330
A449
100
AcDbEntity
  8
1
  6
Continuous
100
AcDbCircle
 10
158.533949
 20
65.20089499999999
 30
0.0
 40
19.75
100
AcDbArc
 50
229.4269879999999
 51
65.60963499999998
  0
LINE
  5
A534
330
A449
100
AcDbEntity
  8
4
  6
CENTER
 48
0.8
100
AcDbLine
 10
376.533949
 20
181.200895
 30
0.0
 11
376.533949
 21
123.7008949999997
 31
0.0
  0
LINE
  5
A535
330
A449
100
AcDbEntity
  8
4
  6
CENTER
 48
0.8
100
AcDbLine
 10
346.533949
 20
153.700895
 30
0.0
 11
406.533949
 21
153.700895
 31
0.0
  0
ARC
  5
A536
330
A449
100
AcDbEntity
  8
1
  6
Continuous
100
AcDbCircle
 10
339.791517
 20
184.6608939999999
 30
0.0
 40
3.0
100
AcDbArc
 50
90.00001800000005
 51
173.2031979999999
  0
LINE
  5
A537
330
A449
100
AcDbEntity
  8
1
  6
Continuous
100
AcDbLine
 10
345.1839049999999
 20
179.115304
 30
0.0
 11
336.533949
 21
179.4173679999999
 31
0.0
  0
LINE
  5
A538
330
A449
100
AcDbEntity
  8
1
  6
Continuous
100
AcDbLine
 10
372.33395
 20
188.400892
 30
0.0
 11
338.733945
 21
188.400892
 31
0.0
  0
LINE
  5
A539
330
A449
100
AcDbEntity
  8
1
  6
Continuous
100
AcDbLine
 10
390.533949
 20
191.7008949999998
 30
0.0
 11
320.533949
 21
191.7008949999998
 31
0.0
  0
LINE
  5
A53A
330
A449
100
AcDbEntity
  8
1
  6
Continuous
100
AcDbLine
 10
390.533949
 20
193.700895
 30
0.0
 11
320.533949
 21
193.700895
 31
0.0
  0
LINE
  5
A53B
330
A449
100
AcDbEntity
  8
1
  6
Continuous
100
AcDbLine
 10
379.802006
 20
181.2857539999999
 30
0.0
 11
383.46901
 21
154.552168
 31
0.0
  0
LINE
  5
A53C
330
A449
100
AcDbEntity
  8
1
  6
Continuous
100
AcDbLine
 10
368.533949
 20
183.9415149999999
 30
0.0
 11
368.533949
 21
157.5930209999999
 31
0.0
  0
LINE
  5
A53D
330
A449
100
AcDbEntity
  8
4
  6
CENTER
 48
0.8
100
AcDbLine
 10
355.533949
 20
198.700895
 30
0.0
 11
355.533949
 21
163.967531
 31
0.0
  0
ARC
  5
A53E
330
A449
100
AcDbEntity
  8
1
  6
Continuous
100
AcDbCircle
 10
376.533949
 20
153.600897
 30
0.0
 40
7.0
100
AcDbArc
 50
216.50872
 51
7.810410000000001
  0
LINE
  5
A53F
330
A449
100
AcDbEntity
  8
1
  6
Continuous
100
AcDbLine
 10
351.2822459999999
 20
175.94998
 30
0.0
 11
370.9075829999999
 21
149.4362849999999
 31
0.0
  0
ARC
  5
A540
330
A449
100
AcDbEntity
  8
1
  6
Continuous
100
AcDbCircle
 10
344.9047069999999
 20
171.120178
 30
0.0
 40
8.0
100
AcDbArc
 50
36.67418
 51
87.99996799999998
  0
LINE
  5
A541
330
A449
100
AcDbEntity
  8
1
  6
Continuous
100
AcDbLine
 10
371.276377
 20
187.6608939999999
 30
0.0
 11
339.791517
 21
187.6608939999999
 31
0.0
  0
LINE
  5
A542
330
A449
100
AcDbEntity
  8
1
  6
Continuous
100
AcDbLine
 10
390.533949
 20
191.7009
 30
0.0
 11
390.533949
 21
193.7008999999999
 31
0.0
  0
ARC
  5
A543
330
A449
100
AcDbEntity
  8
1
  6
Continuous
100
AcDbCircle
 10
380.79273
 20
181.42165
 30
0.0
 40
1.0
100
AcDbArc
 50
170.0
 51
187.8104199999999
  0
ARC
  5
A544
330
A449
100
AcDbEntity
  8
1
  6
Continuous
100
AcDbCircle
 10
371.276377
 20
184.6608939999999
 30
0.0
 40
3.0
100
AcDbArc
 50
27.75185
 51
90.00001800000005
  0
ARC
  5
A545
330
A449
100
AcDbEntity
  8
1
  6
Continuous
100
AcDbCircle
 10
372.33395
 20
190.7008969999999
 30
0.0
 40
2.299999999999998
100
AcDbArc
 50
270.00001
 51
348.97852
  0
ARC
  5
A546
330
A449
100
AcDbEntity
  8
1
  6
Continuous
100
AcDbCircle
 10
372.3483719999999
 20
191.200859
 30
0.0
 40
2.799999999999998
100
AcDbArc
 50
268.3477899999999
 51
269.99998
  0
ARC
  5
A547
330
A449
100
AcDbEntity
  8
1
  6
Continuous
100
AcDbCircle
 10
375.2839489999999
 20
191.2008979999999
 30
0.0
 40
0.5
100
AcDbArc
 50
89.99999100000001
 51
168.9784929999999
  0
LINE
  5
A548
330
A449
100
AcDbEntity
  8
1
  6
Continuous
100
AcDbLine
 10
380.1719319999999
 20
183.659701
 30
0.0
 11
379.807924
 21
181.595299
 31
0.0
  0
LINE
  5
A549
330
A449
100
AcDbEntity
  8
1
  6
Continuous
100
AcDbLine
 10
374.6839469999999
 20
184.6273789999999
 30
0.0
 11
373.931294
 21
186.057825
 31
0.0
  0
LINE
  5
A54A
330
A449
100
AcDbEntity
  8
1
  6
Continuous
100
AcDbLine
 10
382.6339529999998
 20
183.22558
 30
0.0
 11
382.2866559999998
 21
181.2559639999999
 31
0.0
  0
LINE
  5
A54B
330
A449
100
AcDbEntity
  8
1
  6
Continuous
100
AcDbLine
 10
382.633957
 20
183.2255849999999
 30
0.0
 11
371.3890149999999
 21
185.208371
 31
0.0
  0
LINE
  5
A54C
330
A449
100
AcDbEntity
  8
1
  6
Continuous
100
AcDbLine
 10
382.2866559999998
 20
181.255969
 30
0.0
 11
379.824638
 21
181.690089
 31
0.0
  0
LINE
  5
A54D
330
A449
100
AcDbEntity
  8
4
  6
CENTER
100
AcDbLine
 10
383.5339489999999
 20
189.2008949999998
 30
0.0
 11
383.5339489999999
 21
196.2008949999999
 31
0.0
  0
LINE
  5
A54E
330
A449
100
AcDbEntity
  8
1
  6
Continuous
100
AcDbLine
 10
374.59152
 20
190.261191
 30
0.0
 11
374.793163
 21
191.2964849999999
 31
0.0
  0
ARC
  5
A54F
330
A449
100
AcDbEntity
  8
1
  6
Continuous
100
AcDbCircle
 10
362.995268
 20
188.745394
 30
0.0
 40
1.984499999999996
100
AcDbArc
 50
206.8632199999999
 51
213.1262299999999
  0
ARC
  5
A550
330
A449
100
AcDbEntity
  8
1
  6
Continuous
100
AcDbCircle
 10
359.454573
 20
188.745394
 30
0.0
 40
1.984499999999996
100
AcDbArc
 50
189.99695
 51
213.1262299999999
  0
ARC
  5
A551
330
A449
100
AcDbEntity
  8
1
  6
Continuous
100
AcDbCircle
 10
368.283949
 20
188.745394
 30
0.0
 40
1.984499999999996
100
AcDbArc
 50
326.87379
 51
350.0029399999998
  0
ARC
  5
A552
330
A449
100
AcDbEntity
  8
1
  6
Continuous
100
AcDbCircle
 10
367.634535
 20
188.745394
 30
0.0
 40
1.984499999999996
100
AcDbArc
 50
326.87379
 51
350.0029399999998
  0
ARC
  5
A553
330
A449
100
AcDbEntity
  8
1
  6
Continuous
100
AcDbCircle
 10
365.8129329999999
 20
188.745394
 30
0.0
 40
1.984499999999996
100
AcDbArc
 50
326.87379
 51
350.0029399999998
  0
ARC
  5
A554
330
A449
100
AcDbEntity
  8
1
  6
Continuous
100
AcDbCircle
 10
362.995268
 20
188.745394
 30
0.0
 40
1.984499999999996
100
AcDbArc
 50
326.87379
 51
350.0029399999998
  0
ARC
  5
A555
330
A449
100
AcDbEntity
  8
1
  6
Continuous
100
AcDbCircle
 10
355.533949
 20
188.745394
 30
0.0
 40
1.984499999999996
100
AcDbArc
 50
326.87379
 51
350.0029399999998
  0
ARC
  5
A556
330
A449
100
AcDbEntity
  8
1
  6
Continuous
100
AcDbCircle
 10
359.454573
 20
188.745394
 30
0.0
 40
1.984499999999996
100
AcDbArc
 50
326.87379
 51
350.0029599999999
  0
ARC
  5
A557
330
A449
100
AcDbEntity
  8
1
  6
Continuous
100
AcDbCircle
 10
348.07263
 20
188.745394
 30
0.0
 40
1.984499999999996
100
AcDbArc
 50
189.99701
 51
213.1262299999999
  0
ARC
  5
A558
330
A449
100
AcDbEntity
  8
1
  6
Continuous
100
AcDbCircle
 10
351.6133249999999
 20
188.745394
 30
0.0
 40
1.984499999999996
100
AcDbArc
 50
189.99701
 51
213.1262299999999
  0
ARC
  5
A559
330
A449
100
AcDbEntity
  8
1
  6
Continuous
100
AcDbCircle
 10
342.783949
 20
188.745394
 30
0.0
 40
1.984499999999996
100
AcDbArc
 50
189.99701
 51
213.1262299999999
  0
ARC
  5
A55A
330
A449
100
AcDbEntity
  8
1
  6
Continuous
100
AcDbCircle
 10
343.4333629999998
 20
188.745394
 30
0.0
 40
1.984499999999996
100
AcDbArc
 50
189.99701
 51
213.1262299999999
  0
ARC
  5
A55B
330
A449
100
AcDbEntity
  8
1
  6
Continuous
100
AcDbCircle
 10
345.2549649999999
 20
188.745394
 30
0.0
 40
1.984499999999996
100
AcDbArc
 50
189.99701
 51
213.1262299999999
  0
ARC
  5
A55C
330
A449
100
AcDbEntity
  8
1
  6
Continuous
100
AcDbCircle
 10
348.07263
 20
188.745394
 30
0.0
 40
1.984499999999996
100
AcDbArc
 50
326.87379
 51
333.13675
  0
ARC
  5
A55D
330
A449
100
AcDbEntity
  8
1
  6
Continuous
100
AcDbCircle
 10
355.533949
 20
188.745394
 30
0.0
 40
1.984499999999996
100
AcDbArc
 50
189.99701
 51
213.1262299999999
  0
ARC
  5
A55E
330
A449
100
AcDbEntity
  8
1
  6
Continuous
100
AcDbCircle
 10
351.6133249999999
 20
188.745394
 30
0.0
 40
1.984499999999996
100
AcDbArc
 50
326.87379
 51
350.00301
  0
LINE
  5
A55F
330
A449
100
AcDbEntity
  8
1
  6
Continuous
100
AcDbLine
 10
336.8125999999998
 20
185.01594
 30
0.0
 11
336.533949
 21
179.4173679999999
 31
0.0
  0
ARC
  5
A560
330
A449
100
AcDbEntity
  8
1
  6
Continuous
100
AcDbCircle
 10
338.733946
 20
190.7008919999999
 30
0.0
 40
2.299999999999998
100
AcDbArc
 50
191.02147
 51
269.99998
  0
ARC
  5
A561
330
A449
100
AcDbEntity
  8
1
  6
Continuous
100
AcDbCircle
 10
335.7839489999999
 20
191.2008909999999
 30
0.0
 40
0.5
100
AcDbArc
 50
11.02154
 51
90.00004500000001
  0
LINE
  5
A562
330
A449
100
AcDbEntity
  8
4
  6
CENTER
100
AcDbLine
 10
327.533949
 20
189.2008949999998
 30
0.0
 11
327.533949
 21
196.2008949999999
 31
0.0
  0
LINE
  5
A563
330
A449
100
AcDbEntity
  8
1
  6
Continuous
100
AcDbLine
 10
336.4763929999998
 20
190.261174
 30
0.0
 11
336.2747479999999
 21
191.2964679999998
 31
0.0
  0
LINE
  5
A564
330
A449
100
AcDbEntity
  8
1
  6
Continuous
100
AcDbLine
 10
320.533949
 20
191.7008889999999
 30
0.0
 11
320.533949
 21
193.700895
 31
0.0
  0
ARC
  5
A565
330
A449
100
AcDbEntity
  8
1
  6
Continuous
100
AcDbCircle
 10
158.533949
 20
65.20089499999999
 30
0.0
 40
13.5
100
AcDbArc
 50
234.569055
 51
128.942441
  0
ARC
  5
A566
330
A449
100
AcDbEntity
  8
1
  6
Continuous
100
AcDbCircle
 10
158.533949
 20
65.20089499999999
 30
0.0
 40
10.5
100
AcDbArc
 50
281.8918919999998
 51
78.108108
  0
ARC
  5
A567
330
A449
100
AcDbEntity
  8
1
  6
Continuous
100
AcDbCircle
 10
159.766274
 20
63.968593
 30
0.0
 40
3.623304
100
AcDbArc
 50
316.5091669999998
 51
358.2470069999998
  0
ARC
  5
A568
330
A449
100
AcDbEntity
  8
1
  6
Continuous
100
AcDbCircle
 10
159.7663169999998
 20
66.43334399999999
 30
0.0
 40
3.623247999999998
100
AcDbArc
 50
1.753413
 51
43.491106
  0
LINE
  5
A569
330
A449
100
AcDbEntity
  8
1
  6
Continuous
100
AcDbLine
 10
162.7839189999999
 20
65.200951
 30
0.0
 11
163.3459389999998
 21
66.450955
 31
0.0
  0
LINE
  5
A56A
330
A449
100
AcDbEntity
  8
1
  6
Continuous
100
AcDbLine
 10
163.3459769999998
 20
63.95096999999999
 30
0.0
 11
162.7839569999999
 21
65.20096600000001
 31
0.0
  0
ARC
  5
A56B
330
A449
100
AcDbEntity
  8
1
  6
Continuous
100
AcDbCircle
 10
162.1100219999999
 20
63.100953
 30
0.0
 40
1.5
100
AcDbArc
 50
34.51822999999999
 51
73.756776
  0
ARC
  5
A56C
330
A449
100
AcDbEntity
  8
1
  6
Continuous
100
AcDbCircle
 10
162.1100219999999
 20
67.300949
 30
0.0
 40
1.5
100
AcDbArc
 50
286.2431649999998
 51
325.48158
  0
ARC
  5
A574
330
A449
100
AcDbEntity
  8
1
  6
Continuous
100
AcDbCircle
 10
270.477794
 20
170.205959
 30
0.0
 40
32.44384500000001
100
AcDbArc
 50
164.8619749999998
 51
208.309821
  0
ARC
  5
A575
330
A449
100
AcDbEntity
  8
1
  6
Continuous
100
AcDbCircle
 10
243.5901029999999
 20
170.205959
 30
0.0
 40
32.44384500000001
100
AcDbArc
 50
331.690179
 51
15.138025
  0
ARC
  5
A576
330
A449
100
AcDbEntity
  8
1
  6
Continuous
100
AcDbCircle
 10
243.5901029999999
 20
170.205959
 30
0.0
 40
30.443845
100
AcDbArc
 50
331.690233
 51
17.61205799999998
  0
ARC
  5
A577
330
A449
100
AcDbEntity
  8
1
  6
Continuous
100
AcDbCircle
 10
270.477794
 20
170.205959
 30
0.0
 40
30.443845
100
AcDbArc
 50
162.3879419999999
 51
208.3097669999999
  0
ARC
  5
A578
330
A449
100
AcDbEntity
  8
1
  6
Continuous
100
AcDbCircle
 10
273.942832
 20
178.4173679999999
 30
0.0
 40
1.0
100
AcDbArc
 50
15.138025
 51
90.0
  0
ARC
  5
A579
330
A449
100
AcDbEntity
  8
1
  6
Continuous
100
AcDbCircle
 10
240.1250649999997
 20
178.4173679999999
 30
0.0
 40
1.0
100
AcDbArc
 50
90.0
 51
164.8619749999998
  0
ARC
  5
A57A
330
A449
100
AcDbEntity
  8
1
  6
Continuous
100
AcDbCircle
 10
241.033964
 20
154.3455789999998
 30
0.0
 40
1.0
100
AcDbArc
 50
0.0
 51
28.30982099999999
  0
ARC
  5
A57B
330
A449
100
AcDbEntity
  8
1
  6
Continuous
100
AcDbCircle
 10
241.0339490000001
 20
154.3456069999997
 30
0.0
 40
3.0
100
AcDbArc
 50
0.0
 51
28.30976699999999
  0
ARC
  5
A57C
330
A449
100
AcDbEntity
  8
1
  6
Continuous
100
AcDbCircle
 10
273.033934
 20
154.3455789999998
 30
0.0
 40
1.0
100
AcDbArc
 50
151.690179
 51
180.0
  0
ARC
  5
A57D
330
A449
100
AcDbEntity
  8
1
  6
Continuous
100
AcDbCircle
 10
273.0339489999999
 20
154.3456069999997
 30
0.0
 40
3.0
100
AcDbArc
 50
151.690233
 51
162.9837
  0
ARC
  5
A57E
330
A449
100
AcDbEntity
  8
1
  6
Continuous
100
AcDbCircle
 10
145.5724449999999
 20
84.20087999999998
 30
0.0
 40
6.0
100
AcDbArc
 50
270.0
 51
304.301219
  0
ARC
  5
A57F
330
A449
100
AcDbEntity
  8
1
  6
Continuous
100
AcDbCircle
 10
145.5724449999999
 20
46.20091
 30
0.0
 40
4.0
100
AcDbArc
 50
55.698781
 51
90.0
  0
CIRCLE
  5
A580
330
A449
100
AcDbEntity
  8
1
  6
Continuous
100
AcDbCircle
 10
186.533949
 20
243.2008909999999
 30
0.0
 40
3.25
  0
CIRCLE
  5
A581
330
A449
100
AcDbEntity
  8
1
  6
Continuous
100
AcDbCircle
 10
186.533949
 20
271.2008949999999
 30
0.0
 40
3.25
  0
CIRCLE
  5
A582
330
A449
100
AcDbEntity
  8
1
  6
Continuous
100
AcDbCircle
 10
130.533949
 20
271.2008949999999
 30
0.0
 40
3.25
  0
CIRCLE
  5
A583
330
A449
100
AcDbEntity
  8
1
  6
Continuous
100
AcDbCircle
 10
130.533949
 20
243.2008909999999
 30
0.0
 40
3.25
  0
CIRCLE
  5
A584
330
A449
100
AcDbEntity
  8
1
  6
Continuous
100
AcDbCircle
 10
186.533949
 20
79.20089899999998
 30
0.0
 40
3.25
  0
CIRCLE
  5
A585
330
A449
100
AcDbEntity
  8
1
  6
Continuous
100
AcDbCircle
 10
186.533949
 20
51.200891
 30
0.0
 40
3.25
  0
ARC
  5
A586
330
A449
100
AcDbEntity
  8
1
  6
Continuous
100
AcDbCircle
 10
130.5796729999999
 20
51.307025
 30
0.0
 40
3.25
100
AcDbArc
 50
199.8981999999998
 51
321.126329
  0
LINE
  5
A587
330
A449
100
AcDbEntity
  8
5
  6
PHANTOM
100
AcDbLine
 10
101.024672
 20
145.2113139999999
 30
0.0
 11
121.777994
 21
153.723509
 31
0.0
  0
LINE
  5
A588
330
A449
100
AcDbEntity
  8
5
  6
PHANTOM
100
AcDbLine
 10
100.2657059999999
 20
147.0617129999999
 30
0.0
 11
121.0190399999999
 21
155.573899
 31
0.0
  0
LINE
  5
A589
330
A449
100
AcDbEntity
  8
5
  6
PHANTOM
100
AcDbLine
 10
101.024672
 20
145.2113139999999
 30
0.0
 11
100.265693
 21
147.061721
 31
0.0
  0
LINE
  5
A58A
330
A449
100
AcDbEntity
  8
5
  6
PHANTOM
100
AcDbLine
 10
122.567451
 20
154.08818
 30
0.0
 11
123.720224
 21
151.2776069999999
 31
0.0
  0
LINE
  5
A58B
330
A449
100
AcDbEntity
  8
5
  6
PHANTOM
100
AcDbLine
 10
118.881028
 20
152.535287
 30
0.0
 11
120.0194639999997
 21
149.759704
 31
0.0
  0
LINE
  5
A58C
330
A449
100
AcDbEntity
  8
5
  6
PHANTOM
100
AcDbLine
 10
120.0194639999997
 20
149.759704
 30
0.0
 11
123.7202539999999
 21
151.2776239999998
 31
0.0
  0
LINE
  5
A58D
330
A449
100
AcDbEntity
  8
5
  6
PHANTOM
100
AcDbLine
 10
155.097644
 20
159.1238779999999
 30
0.0
 11
159.5527859999999
 21
166.627634
 31
0.0
  0
LINE
  5
A58E
330
A449
100
AcDbEntity
  8
5
  6
PHANTOM
100
AcDbLine
 10
147.9771429999999
 20
166.6310629999999
 30
0.0
 11
168.7304849999998
 21
175.1432619999999
 31
0.0
  0
LINE
  5
A58F
330
A449
100
AcDbEntity
  8
5
  6
PHANTOM
100
AcDbLine
 10
148.7361129999999
 20
164.780642
 30
0.0
 11
169.4894559999999
 21
173.2928409999999
 31
0.0
  0
LINE
  5
A590
330
A449
100
AcDbEntity
  8
5
  6
PHANTOM
100
AcDbLine
 10
152.367905
 20
154.4272829999998
 30
0.0
 11
148.4715669999999
 21
163.9268129999998
 31
0.0
  0
LINE
  5
A591
330
A449
100
AcDbEntity
  8
5
  6
PHANTOM
100
AcDbLine
 10
152.5180599999998
 20
160.6554429999999
 30
0.0
 11
156.973181
 21
168.1591939999998
 31
0.0
  0
LINE
  5
A592
330
A449
100
AcDbEntity
  8
5
  6
PHANTOM
100
AcDbLine
 10
153.017281
 20
160.7815979999998
 30
0.0
 11
154.969771
 21
159.6223599999999
 31
0.0
  0
LINE
  5
A593
330
A449
100
AcDbEntity
  8
5
  6
PHANTOM
100
AcDbLine
 10
154.745628
 20
164.407331
 30
0.0
 11
157.3252339999999
 21
162.8757709999999
 31
0.0
  0
LINE
  5
A594
330
A449
100
AcDbEntity
  8
5
  6
PHANTOM
100
AcDbLine
 10
157.1163529999997
 20
167.651661
 30
0.0
 11
159.0837559999999
 21
166.483586
 31
0.0
  0
LINE
  5
A595
330
A449
100
AcDbEntity
  8
5
  6
PHANTOM
100
AcDbLine
 10
169.4895399999998
 20
173.2929139999999
 30
0.0
 11
168.730574
 21
175.143314
 31
0.0
  0
LINE
  5
A596
330
A449
100
AcDbEntity
  8
5
  6
PHANTOM
100
AcDbLine
 10
163.013044
 20
170.636478
 30
0.0
 11
164.436647
 21
167.165666
 31
0.0
  0
LINE
  5
A597
330
A449
100
AcDbEntity
  8
5
  6
PHANTOM
100
AcDbLine
 10
107.5010629999999
 20
147.8676729999999
 30
0.0
 11
108.9246579999999
 21
144.396848
 31
0.0
  0
LINE
  5
A598
330
A449
100
AcDbEntity
  8
5
  6
PHANTOM
100
AcDbLine
 10
154.19981
 20
155.231353
 30
0.0
 11
150.3219789999999
 21
164.6857709999999
 31
0.0
  0
LINE
  5
A599
330
A449
100
AcDbEntity
  8
1
  6
Continuous
100
AcDbLine
 10
132.0727369999999
 20
232.1009029999999
 30
0.0
 11
122.96176
 21
224.9685179999999
 31
0.0
  0
LINE
  5
A59B
330
A449
100
AcDbEntity
  8
1
  6
Continuous
100
AcDbLine
 10
152.098601
 20
232.100919
 30
0.0
 11
160.724562
 21
224.0061159999999
 31
0.0
  0
LINE
  5
A59C
330
A449
100
AcDbEntity
  8
1
  6
Continuous
100
AcDbLine
 10
149.399291
 20
233.5661589999999
 30
0.0
 11
160.855788
 21
222.815106
 31
0.0
  0
LINE
  5
A59D
330
A449
100
AcDbEntity
  8
1
  6
Continuous
100
AcDbLine
 10
152.098601
 20
232.1009029999999
 30
0.0
 11
152.098601
 21
236.200895
 31
0.0
  0
LINE
  5
A59E
330
A449
100
AcDbEntity
  8
1
  6
Continuous
100
AcDbLine
 10
132.072753
 20
232.1009029999999
 30
0.0
 11
132.072753
 21
236.200895
 31
0.0
  0
LINE
  5
A5A2
330
A449
100
AcDbEntity
  8
1
  6
Continuous
100
AcDbLine
 10
123.6057469999997
 20
242.2009099999999
 30
0.0
 11
114.142424
 21
242.2009099999999
 31
0.0
  0
LINE
  5
A5A3
330
A449
100
AcDbEntity
  8
1
  6
Continuous
100
AcDbLine
 10
131.3713979999999
 20
231.551862
 30
0.0
 11
122.96176
 21
224.9685179999999
 31
0.0
  0
LINE
  5
A5A4
330
A449
100
AcDbEntity
  8
1
  6
Continuous
100
AcDbLine
 10
117.4147779999999
 20
240.2009099999999
 30
0.0
 11
114.142424
 21
240.2009099999999
 31
0.0
  0
LINE
  5
A5A5
330
A449
100
AcDbEntity
  8
1
  6
Continuous
100
AcDbLine
 10
114.142424
 20
242.2009099999999
 30
0.0
 11
114.142424
 21
240.2009099999999
 31
0.0
  0
LINE
  5
A5A6
330
A449
100
AcDbEntity
  8
1
  6
Continuous
100
AcDbLine
 10
240.533964
 20
138.4485409999997
 30
0.0
 11
240.533964
 21
151.858255
 31
0.0
  0
LINE
  5
A5A7
330
A449
100
AcDbEntity
  8
1
  6
Continuous
100
AcDbLine
 10
240.533964
 20
138.4485409999997
 30
0.0
 11
238.533964
 21
138.4485409999997
 31
0.0
  0
LINE
  5
A5A8
330
A449
100
AcDbEntity
  8
1
  6
Continuous
100
AcDbLine
 10
238.533964
 20
138.4485409999997
 30
0.0
 11
238.533964
 21
144.1473479999999
 31
0.0
  0
LINE
  5
A5A9
330
A449
100
AcDbEntity
  8
1
  6
Continuous
100
AcDbLine
 10
231.9339569999999
 20
153.4352349999998
 30
0.0
 11
222.9969
 21
147.0027859999999
 31
0.0
  0
LINE
  5
A5AA
330
A449
100
AcDbEntity
  8
1
  6
Continuous
100
AcDbLine
 10
221.533964
 20
142.502634
 30
0.0
 11
221.533964
 21
144.1473479999999
 31
0.0
  0
LINE
  5
A5AB
330
A449
100
AcDbEntity
  8
1
  6
Continuous
100
AcDbLine
 10
231.9339419999999
 20
165.6457
 30
0.0
 11
224.2542849999999
 21
172.269479
 31
0.0
  0
LINE
  5
A5AC
330
A449
100
AcDbEntity
  8
1
  6
Continuous
100
AcDbLine
 10
223.033964
 20
174.9494719999999
 30
0.0
 11
223.033964
 21
176.5782869999999
 31
0.0
  0
LINE
  5
A5AD
330
A449
100
AcDbEntity
  8
1
  6
Continuous
100
AcDbLine
 10
231.9339569999999
 20
167.2904299999999
 30
0.0
 11
224.9938329999999
 21
173.4240659999999
 31
0.0
  0
LINE
  5
A5AE
330
A449
100
AcDbEntity
  8
1
  6
Continuous
100
AcDbLine
 10
231.9339569999999
 20
167.2905969999999
 30
0.0
 11
238.165199
 21
167.2905969999999
 31
0.0
  0
LINE
  5
A5AF
330
A449
100
AcDbEntity
  8
1
  6
Continuous
100
AcDbLine
 10
231.9339569999999
 20
153.4352349999998
 30
0.0
 11
238.533964
 21
153.4352349999998
 31
0.0
  0
LINE
  5
A5B0
330
A449
100
AcDbEntity
  8
1
  6
Continuous
100
AcDbLine
 10
62.983396
 20
144.9668669999998
 30
0.0
 11
64.033934
 21
144.9668669999998
 31
0.0
  0
LINE
  5
A5B1
330
A449
100
AcDbEntity
  8
1
  6
Continuous
100
AcDbLine
 10
62.983396
 20
142.680734
 30
0.0
 11
64.033934
 21
142.680734
 31
0.0
  0
LINE
  5
A5B2
330
A449
100
AcDbEntity
  8
1
  6
Continuous
100
AcDbLine
 10
62.983396
 20
142.680734
 30
0.0
 11
62.983396
 21
144.9668669999998
 31
0.0
  0
LINE
  5
A5B3
330
A449
100
AcDbEntity
  8
1
  6
Continuous
100
AcDbLine
 10
64.033934
 20
170.3504739999999
 30
0.0
 11
64.033934
 21
175.348735
 31
0.0
  0
LINE
  5
A5B4
330
A449
100
AcDbEntity
  8
1
  6
Continuous
100
AcDbLine
 10
65.533934
 20
138.36555
 30
0.0
 11
65.533934
 21
140.561015
 31
0.0
  0
LINE
  5
A5B5
330
A449
100
AcDbEntity
  8
1
  6
Continuous
100
AcDbLine
 10
74.13393999999998
 20
151.7075
 30
0.0
 11
70.43393399999998
 21
151.7075
 31
0.0
  0
LINE
  5
A5B6
330
A449
100
AcDbEntity
  8
1
  6
Continuous
100
AcDbLine
 10
64.033934
 20
141.658854
 30
0.0
 11
64.033934
 21
172.618968
 31
0.0
  0
LINE
  5
A5B7
330
A449
100
AcDbEntity
  8
1
  6
Continuous
100
AcDbLine
 10
74.13393999999998
 20
165.5626939999999
 30
0.0
 11
66.033934
 21
165.5626939999999
 31
0.0
  0
LINE
  5
A5B8
330
A449
100
AcDbEntity
  8
1
  6
Continuous
100
AcDbLine
 10
65.533934
 20
138.36555
 30
0.0
 11
67.533934
 21
138.36555
 31
0.0
  0
LINE
  5
A5B9
330
A449
100
AcDbEntity
  8
1
  6
Continuous
100
AcDbLine
 10
67.533934
 20
138.36555
 30
0.0
 11
67.533934
 21
151.460887
 31
0.0
  0
LINE
  5
A5BA
330
A449
100
AcDbEntity
  8
1
  6
Continuous
100
AcDbLine
 10
66.033934
 20
141.658854
 30
0.0
 11
66.033934
 21
177.348735
 31
0.0
  0
LINE
  5
A5BB
330
A449
100
AcDbEntity
  8
1
  6
Continuous
100
AcDbLine
 10
64.033934
 20
172.618968
 30
0.0
 11
66.033934
 21
172.618968
 31
0.0
  0
LINE
  5
A5BC
330
A449
100
AcDbEntity
  8
1
  6
Continuous
100
AcDbLine
 10
74.13392399999998
 20
151.7075299999999
 30
0.0
 11
83.07098999999999
 21
145.2750809999997
 31
0.0
  0
LINE
  5
A5BD
330
A449
100
AcDbEntity
  8
1
  6
Continuous
100
AcDbLine
 10
74.133932
 20
153.3522439999998
 30
0.0
 11
83.07098999999999
 21
146.9197949999999
 31
0.0
  0
LINE
  5
A5BE
330
A449
100
AcDbEntity
  8
1
  6
Continuous
100
AcDbLine
 10
84.53393400000001
 20
142.4196269999999
 30
0.0
 11
84.53393400000001
 21
144.0643419999998
 31
0.0
  0
LINE
  5
A5BF
330
A449
100
AcDbEntity
  8
1
  6
Continuous
100
AcDbLine
 10
74.13396299999998
 20
165.562709
 30
0.0
 11
81.81361200000003
 21
172.186488
 31
0.0
  0
LINE
  5
A5C0
330
A449
100
AcDbEntity
  8
1
  6
Continuous
100
AcDbLine
 10
83.033934
 20
174.850566
 30
0.0
 11
83.033934
 21
176.49528
 31
0.0
  0
LINE
  5
A5C1
330
A449
100
AcDbEntity
  8
1
  6
Continuous
100
AcDbLine
 10
64.033934
 20
141.658854
 30
0.0
 11
66.033934
 21
141.658854
 31
0.0
  0
LINE
  5
A5C2
330
A449
100
AcDbEntity
  8
1
  6
Continuous
100
AcDbLine
 10
64.033934
 20
155.6286419999999
 30
0.0
 11
66.033934
 21
155.6286419999999
 31
0.0
  0
LINE
  5
A5C3
330
A449
100
AcDbEntity
  8
1
  6
Continuous
100
AcDbLine
 10
65.533934
 20
140.561015
 30
0.0
 11
67.533934
 21
140.561015
 31
0.0
  0
LINE
  5
A5C4
330
A449
100
AcDbEntity
  8
1
  6
Continuous
100
AcDbLine
 10
131.804885
 20
90.510564
 30
0.0
 11
122.4320819999999
 21
97.84792100000002
 31
0.0
  0
LINE
  5
A5C5
330
A449
100
AcDbEntity
  8
1
  6
Continuous
100
AcDbLine
 10
150.928557
 20
80.20087999999999
 30
0.0
 11
114.142424
 21
80.20087999999999
 31
0.0
  0
LINE
  5
A5C6
330
A449
100
AcDbEntity
  8
1
  6
Continuous
100
AcDbLine
 10
164.7565449999999
 20
81.70087999999998
 30
0.0
 11
148.281844
 21
81.70087999999998
 31
0.0
  0
LINE
  5
A5C7
330
A449
100
AcDbEntity
  8
1
  6
Continuous
100
AcDbLine
 10
150.9606769999997
 20
90.300878
 30
0.0
 11
160.601332
 21
99.347913
 31
0.0
  0
LINE
  5
A5C8
330
A449
100
AcDbEntity
  8
1
  6
Continuous
100
AcDbLine
 10
130.6669149999999
 20
90.51061799999999
 30
0.0
 11
121.294158
 21
97.84792100000002
 31
0.0
  0
LINE
  5
A5C9
330
A449
100
AcDbEntity
  8
1
  6
Continuous
100
AcDbLine
 10
150.9606769999997
 20
90.300886
 30
0.0
 11
150.9606769999997
 21
83.70088
 31
0.0
  0
LINE
  5
A5CA
330
A449
100
AcDbEntity
  8
1
  6
Continuous
100
AcDbLine
 10
130.9348129999999
 20
90.41984300000001
 30
0.0
 11
130.9348129999999
 21
82.20088
 31
0.0
  0
LINE
  5
A5CB
330
A449
100
AcDbEntity
  8
1
  6
Continuous
100
AcDbLine
 10
166.7565449999998
 20
83.70088
 30
0.0
 11
148.6645949999999
 21
83.70088
 31
0.0
  0
LINE
  5
A5CC
330
A449
100
AcDbEntity
  8
1
  6
Continuous
100
AcDbLine
 10
145.843886
 20
82.20088
 30
0.0
 11
114.142424
 21
82.20088
 31
0.0
  0
LINE
  5
A5CD
330
A449
100
AcDbEntity
  8
1
  6
Continuous
100
AcDbLine
 10
114.142424
 20
80.20087999999999
 30
0.0
 11
114.142424
 21
82.20088
 31
0.0
  0
LINE
  5
A5CE
330
A449
100
AcDbEntity
  8
1
  6
Continuous
100
AcDbLine
 10
163.4841749999999
 20
81.70087999999998
 30
0.0
 11
163.4841749999999
 21
83.70088
 31
0.0
  0
LINE
  5
A5CF
330
A449
100
AcDbEntity
  8
1
  6
Continuous
100
AcDbLine
 10
124.5795729999999
 20
80.20087999999999
 30
0.0
 11
124.5795729999999
 21
82.20088
 31
0.0
  0
LINE
  5
A5D0
330
A449
100
AcDbEntity
  8
1
  6
Continuous
100
AcDbLine
 10
143.905104
 20
80.20087999999999
 30
0.0
 11
143.905104
 21
82.20088
 31
0.0
  0
LINE
  5
A5D1
330
A449
100
AcDbEntity
  8
1
  6
Continuous
100
AcDbLine
 10
147.6141649999999
 20
81.44532499999998
 30
0.0
 11
146.7965069999999
 21
80.71197999999998
 31
0.0
  0
LINE
  5
A5D2
330
A449
100
AcDbEntity
  8
1
  6
Continuous
100
AcDbLine
 10
147.3292219999999
 20
83.18976399999998
 30
0.0
 11
146.5115649999999
 21
82.45642600000001
 31
0.0
  0
LINE
  5
A5D3
330
A449
100
AcDbEntity
  8
1
  6
Continuous
100
AcDbLine
 10
127.52986
 20
77.70088
 30
0.0
 11
127.52986
 21
80.20087999999999
 31
0.0
  0
LINE
  5
A5D4
330
A449
100
AcDbEntity
  8
1
  6
Continuous
100
AcDbLine
 10
130.819274
 20
77.70088
 30
0.0
 11
130.819274
 21
80.20087999999999
 31
0.0
  0
LINE
  5
A5D5
330
A449
100
AcDbEntity
  8
1
  6
Continuous
100
AcDbLine
 10
129.681349
 20
77.70088
 30
0.0
 11
129.681349
 21
80.20087999999999
 31
0.0
  0
LINE
  5
A5D6
330
A449
100
AcDbEntity
  8
1
  6
Continuous
100
AcDbLine
 10
127.52986
 20
77.70088
 30
0.0
 11
130.819274
 21
77.70088
 31
0.0
  0
LINE
  5
A5D7
330
A449
100
AcDbEntity
  8
1
  6
Continuous
100
AcDbLine
 10
159.902556
 20
81.70087999999998
 30
0.0
 11
156.5057819999998
 21
79.151418
 31
0.0
  0
LINE
  5
A5D8
330
A449
100
AcDbEntity
  8
1
  6
Continuous
100
AcDbLine
 10
155.3052199999999
 20
79.151426
 30
0.0
 11
151.908431
 21
81.70088699999999
 31
0.0
  0
LINE
  5
A5D9
330
A449
100
AcDbEntity
  8
1
  6
Continuous
100
AcDbLine
 10
155.9055009999999
 20
81.20154300000001
 30
0.0
 11
155.240202
 21
81.70088699999999
 31
0.0
  0
LINE
  5
A5DA
330
A449
100
AcDbEntity
  8
1
  6
Continuous
100
AcDbLine
 10
156.5707989999999
 20
81.70087999999998
 30
0.0
 11
155.9055009999999
 21
81.201536
 31
0.0
  0
ARC
  5
A5DB
330
A449
100
AcDbEntity
  8
5
  6
PHANTOM
100
AcDbCircle
 10
117.9832039999999
 20
162.9755129999998
 30
0.0
 40
10.0
100
AcDbArc
 50
292.301514
 51
323.0070529999998
  0
ARC
  5
A5DC
330
A449
100
AcDbEntity
  8
5
  6
PHANTOM
100
AcDbCircle
 10
144.9413059999999
 20
174.032677
 30
0.0
 40
8.0
100
AcDbArc
 50
261.5959339999999
 51
292.301514
  0
ARC
  5
A5DD
330
A449
100
AcDbEntity
  8
5
  6
PHANTOM
100
AcDbCircle
 10
131.4873729999999
 20
185.070825
 30
0.0
 40
37.49999199999999
100
AcDbArc
 50
300.6426499999999
 51
331.4796359999998
  0
ARC
  5
A5DE
330
A449
100
AcDbEntity
  8
5
  6
PHANTOM
100
AcDbCircle
 10
119.8113669999999
 20
180.281787
 30
0.0
 40
37.49999199999999
100
AcDbArc
 50
253.123344
 51
283.960364
  0
ARC
  5
A5DF
330
A449
100
AcDbEntity
  8
5
  6
PHANTOM
100
AcDbCircle
 10
144.9413059999999
 20
174.032677
 30
0.0
 40
10.0
100
AcDbArc
 50
261.5959339999999
 51
292.301514
  0
ARC
  5
A5E0
330
A449
100
AcDbEntity
  8
5
  6
PHANTOM
100
AcDbCircle
 10
134.3136459999997
 20
161.552208
 30
0.0
 40
18.48607099999998
100
AcDbArc
 50
252.8359839999998
 51
331.767023
  0
ARC
  5
A5E1
330
A449
100
AcDbEntity
  8
5
  6
PHANTOM
100
AcDbCircle
 10
140.7713939999998
 20
145.807785
 30
0.0
 40
20.53125
100
AcDbArc
 50
81.595949
 51
143.0070639999998
  0
ARC
  5
A5E2
330
A449
100
AcDbEntity
  8
5
  6
PHANTOM
100
AcDbCircle
 10
117.9832039999999
 20
162.9755129999998
 30
0.0
 40
8.0
100
AcDbArc
 50
292.301514
 51
323.0070529999998
  0
ARC
  5
A5E3
330
A449
100
AcDbEntity
  8
5
  6
PHANTOM
100
AcDbCircle
 10
140.7713939999998
 20
145.807785
 30
0.0
 40
18.53125
100
AcDbArc
 50
81.595949
 51
143.0070639999998
  0
ARC
  5
A5E4
330
A449
100
AcDbEntity
  8
1
  6
Continuous
100
AcDbCircle
 10
120.371962
 20
231.7009099999999
 30
0.0
 40
9.851650999999996
100
AcDbArc
 50
140.567329
 51
219.432668
  0
ARC
  5
A5E5
330
A449
100
AcDbEntity
  8
1
  6
Continuous
100
AcDbCircle
 10
117.510405
 20
234.0541509999999
 30
0.0
 40
6.146760999999997
100
AcDbArc
 50
90.89140399999999
 51
140.567329
  0
ARC
  5
A5E6
330
A449
100
AcDbEntity
  8
1
  6
Continuous
100
AcDbCircle
 10
117.510405
 20
229.3476689999998
 30
0.0
 40
6.146760999999997
100
AcDbArc
 50
219.4326709999999
 51
275.311064
  0
ARC
  5
A5E7
330
A449
100
AcDbEntity
  8
1
  6
Continuous
100
AcDbCircle
 10
121.5098859999999
 20
231.7009099999999
 30
0.0
 40
9.851650999999996
100
AcDbArc
 50
140.567329
 51
219.432668
  0
ARC
  5
A5E8
330
A449
100
AcDbEntity
  8
1
  6
Continuous
100
AcDbCircle
 10
118.6483289999999
 20
234.0541509999999
 30
0.0
 40
6.146760999999997
100
AcDbArc
 50
101.6146229999999
 51
140.567329
  0
ARC
  5
A5E9
330
A449
100
AcDbEntity
  8
1
  6
Continuous
100
AcDbCircle
 10
118.6483289999999
 20
229.3476689999998
 30
0.0
 40
6.146760999999997
100
AcDbArc
 50
219.4326709999999
 51
314.5668759999998
  0
ARC
  5
A5EA
330
A449
100
AcDbEntity
  8
1
  6
Continuous
100
AcDbCircle
 10
162.6614519999999
 20
230.2009099999999
 30
0.0
 40
9.851650999999996
100
AcDbArc
 50
320.5673269999998
 51
37.519647
  0
ARC
  5
A5EB
330
A449
100
AcDbEntity
  8
1
  6
Continuous
100
AcDbCircle
 10
165.523009
 20
227.847669
 30
0.0
 40
6.146760999999997
100
AcDbArc
 50
218.68019
 51
320.5673269999998
  0
ARC
  5
A5EC
330
A449
100
AcDbEntity
  8
1
  6
Continuous
100
AcDbCircle
 10
164.3850849999997
 20
227.847669
 30
0.0
 40
6.146760999999997
100
AcDbArc
 50
234.95832
 51
275.311064
  0
ARC
  5
A5ED
330
A449
100
AcDbEntity
  8
1
  6
Continuous
100
AcDbCircle
 10
115.4147779999999
 20
240.2009099999999
 30
0.0
 40
2.0
100
AcDbArc
 50
356.3919439999998
 51
90.00000300000001
  0
ARC
  5
A5EE
330
A449
100
AcDbEntity
  8
1
  6
Continuous
100
AcDbCircle
 10
144.8027789999999
 20
194.0896419999999
 30
0.0
 40
40.086208
100
AcDbArc
 50
87.393794
 51
107.1556069999999
  0
ARC
  5
A5EF
330
A449
100
AcDbEntity
  8
1
  6
Continuous
100
AcDbCircle
 10
145.772231
 20
222.9152039999999
 30
0.0
 40
11.251592
100
AcDbArc
 50
55.78749300000001
 51
85.650559
  0
ARC
  5
A5F0
330
A449
100
AcDbEntity
  8
1
  6
Continuous
100
AcDbCircle
 10
134.453475
 20
227.614774
 30
0.0
 40
5.0
100
AcDbArc
 50
107.1556069999999
 51
128.0550499999999
  0
ARC
  5
A5F1
330
A449
100
AcDbEntity
  8
1
  6
Continuous
100
AcDbCircle
 10
230.033964
 20
152.903375
 30
0.0
 40
13.592206
100
AcDbArc
 50
240.3616959999999
 51
299.638299
  0
ARC
  5
A5F2
330
A449
100
AcDbEntity
  8
1
  6
Continuous
100
AcDbCircle
 10
235.015821
 20
144.1473479999999
 30
0.0
 40
3.518145999999997
100
AcDbArc
 50
299.638299
 51
0.000003
  0
ARC
  5
A5F3
330
A449
100
AcDbEntity
  8
1
  6
Continuous
100
AcDbCircle
 10
225.052106
 20
144.1473479999999
 30
0.0
 40
3.518145999999997
100
AcDbArc
 50
125.7444519999999
 51
240.361706
  0
ARC
  5
A5F4
330
A449
100
AcDbEntity
  8
1
  6
Continuous
100
AcDbCircle
 10
225.052106
 20
144.1473479999999
 30
0.0
 40
3.518145999999997
100
AcDbArc
 50
125.7444519999999
 51
180.000005
  0
ARC
  5
A5F5
330
A449
100
AcDbEntity
  8
1
  6
Continuous
100
AcDbCircle
 10
231.533964
 20
167.8222749999999
 30
0.0
 40
13.592206
100
AcDbArc
 50
61.43117099999999
 51
119.638304
  0
ARC
  5
A5F6
330
A449
100
AcDbEntity
  8
1
  6
Continuous
100
AcDbCircle
 10
226.552106
 20
174.9335719999999
 30
0.0
 40
3.518145999999997
100
AcDbArc
 50
179.9999909999999
 51
229.221941
  0
ARC
  5
A5F7
330
A449
100
AcDbEntity
  8
1
  6
Continuous
100
AcDbCircle
 10
231.9083379999999
 20
163.793069
 30
0.0
 40
1.852803999999999
100
AcDbArc
 50
18.56101299999998
 51
90.00000300000001
  0
ARC
  5
A5F8
330
A449
100
AcDbEntity
  8
1
  6
Continuous
100
AcDbCircle
 10
226.7397589999999
 20
162.0575649999999
 30
0.0
 40
7.304966999999997
100
AcDbArc
 50
7.903514999999999
 51
17.966712
  0
ARC
  5
A5F9
330
A449
100
AcDbEntity
  8
1
  6
Continuous
100
AcDbCircle
 10
226.552106
 20
176.5782869999999
 30
0.0
 40
3.518145999999997
100
AcDbArc
 50
119.6382899999999
 51
243.709209
  0
ARC
  5
A5FA
330
A449
100
AcDbEntity
  8
1
  6
Continuous
100
AcDbCircle
 10
231.9083379999999
 20
165.4377839999999
 30
0.0
 40
1.852803999999999
100
AcDbArc
 50
18.56101299999998
 51
90.00000300000001
  0
ARC
  5
A5FB
330
A449
100
AcDbEntity
  8
1
  6
Continuous
100
AcDbCircle
 10
226.7397589999999
 20
163.70228
 30
0.0
 40
7.304966999999997
100
AcDbArc
 50
353.536205
 51
17.966712
  0
ARC
  5
A5FC
330
A449
100
AcDbEntity
  8
1
  6
Continuous
100
AcDbCircle
 10
196.70857
 20
165.934671
 30
0.0
 40
37.37731899999999
100
AcDbArc
 50
340.463209
 51
355.5922009999999
  0
ARC
  5
A5FD
330
A449
100
AcDbEntity
  8
1
  6
Continuous
100
AcDbCircle
 10
230.033964
 20
151.258645
 30
0.0
 40
13.592206
100
AcDbArc
 50
240.3616959999999
 51
299.638299
  0
ARC
  5
A5FE
330
A449
100
AcDbEntity
  8
1
  6
Continuous
100
AcDbCircle
 10
225.052106
 20
142.502634
 30
0.0
 40
3.518145999999997
100
AcDbArc
 50
179.9999909999999
 51
240.361706
  0
ARC
  5
A5FF
330
A449
100
AcDbEntity
  8
1
  6
Continuous
100
AcDbCircle
 10
235.015821
 20
142.502634
 30
0.0
 40
3.518145999999997
100
AcDbArc
 50
299.638299
 51
0.000003
  0
ARC
  5
A600
330
A449
100
AcDbEntity
  8
1
  6
Continuous
100
AcDbCircle
 10
237.033964
 20
146.741861
 30
0.0
 40
5.0
100
AcDbArc
 50
339.2068499999998
 51
0.000003
  0
ARC
  5
A601
330
A449
100
AcDbEntity
  8
1
  6
Continuous
100
AcDbCircle
 10
237.033964
 20
155.4289639999998
 30
0.0
 40
5.0
100
AcDbArc
 50
314.427004
 51
351.3583949999999
  0
ARC
  5
A602
330
A449
100
AcDbEntity
  8
1
  6
Continuous
100
AcDbCircle
 10
69.689901
 20
145.074412
 30
0.0
 40
5.0
100
AcDbArc
 50
223.087164
 51
244.5124429999999
  0
ARC
  5
A603
330
A449
100
AcDbEntity
  8
1
  6
Continuous
100
AcDbCircle
 10
67.689909
 20
145.074412
 30
0.0
 40
5.0
100
AcDbArc
 50
223.087164
 51
244.5124429999999
  0
ARC
  5
A604
330
A449
100
AcDbEntity
  8
1
  6
Continuous
100
AcDbCircle
 10
66.033934
 20
175.348735
 30
0.0
 40
2.0
100
AcDbArc
 50
90.00000300000001
 51
180.000005
  0
ARC
  5
A605
330
A449
100
AcDbEntity
  8
1
  6
Continuous
100
AcDbCircle
 10
76.033934
 20
151.1756389999999
 30
0.0
 40
13.592206
100
AcDbArc
 50
240.3616959999999
 51
299.6383059999999
  0
ARC
  5
A606
330
A449
100
AcDbEntity
  8
1
  6
Continuous
100
AcDbCircle
 10
71.05207599999999
 20
142.4196269999999
 30
0.0
 40
3.518145999999997
100
AcDbArc
 50
180.000005
 51
240.361706
  0
ARC
  5
A607
330
A449
100
AcDbEntity
  8
1
  6
Continuous
100
AcDbCircle
 10
81.01578299999998
 20
142.4196269999999
 30
0.0
 40
3.518145999999997
100
AcDbArc
 50
299.6383059999999
 51
54.25554599999999
  0
ARC
  5
A608
330
A449
100
AcDbEntity
  8
1
  6
Continuous
100
AcDbCircle
 10
81.01578299999998
 20
144.0643419999998
 30
0.0
 40
3.518145999999997
100
AcDbArc
 50
359.999997
 51
54.25554599999999
  0
ARC
  5
A609
330
A449
100
AcDbEntity
  8
1
  6
Continuous
100
AcDbCircle
 10
74.533934
 20
167.7392679999998
 30
0.0
 40
13.592206
100
AcDbArc
 50
60.36170099999999
 51
119.638304
  0
ARC
  5
A60A
330
A449
100
AcDbEntity
  8
1
  6
Continuous
100
AcDbCircle
 10
69.552076
 20
176.49528
 30
0.0
 40
3.518145999999997
100
AcDbArc
 50
119.638304
 51
180.000005
  0
ARC
  5
A60B
330
A449
100
AcDbEntity
  8
1
  6
Continuous
100
AcDbCircle
 10
79.515783
 20
176.49528
 30
0.0
 40
3.518145999999997
100
AcDbArc
 50
359.999997
 51
60.36170099999999
  0
ARC
  5
A60C
330
A449
100
AcDbEntity
  8
1
  6
Continuous
100
AcDbCircle
 10
74.533934
 20
166.0945539999999
 30
0.0
 40
13.592206
100
AcDbArc
 50
60.36170099999999
 51
119.638304
  0
ARC
  5
A60D
330
A449
100
AcDbEntity
  8
1
  6
Continuous
100
AcDbCircle
 10
69.552076
 20
174.850566
 30
0.0
 40
3.518145999999997
100
AcDbArc
 50
119.638304
 51
180.000005
  0
ARC
  5
A60E
330
A449
100
AcDbEntity
  8
1
  6
Continuous
100
AcDbCircle
 10
79.515783
 20
174.850566
 30
0.0
 40
3.518145999999997
100
AcDbArc
 50
309.5937259999999
 51
60.36170099999999
  0
ARC
  5
A60F
330
A449
100
AcDbEntity
  8
1
  6
Continuous
100
AcDbCircle
 10
109.3593199999999
 20
165.8516649999999
 30
0.0
 40
37.37731899999999
100
AcDbArc
 50
184.407803
 51
199.5367949999999
  0
ARC
  5
A610
330
A449
100
AcDbEntity
  8
1
  6
Continuous
100
AcDbCircle
 10
74.159559
 20
163.7100629999999
 30
0.0
 40
1.852803999999999
100
AcDbArc
 50
90.00000300000001
 51
161.4389799999998
  0
ARC
  5
A611
330
A449
100
AcDbEntity
  8
1
  6
Continuous
100
AcDbCircle
 10
109.3549249999997
 20
164.220897
 30
0.0
 40
37.37731899999999
100
AcDbArc
 50
183.1994469999999
 51
199.5367949999999
  0
ARC
  5
A612
330
A449
100
AcDbEntity
  8
1
  6
Continuous
100
AcDbCircle
 10
79.328131
 20
161.9745589999999
 30
0.0
 40
7.304966999999997
100
AcDbArc
 50
162.033288
 51
178.741283
  0
ARC
  5
A613
330
A449
100
AcDbEntity
  8
1
  6
Continuous
100
AcDbCircle
 10
164.7565449999999
 20
83.70088
 30
0.0
 40
2.0
100
AcDbArc
 50
269.9999969999999
 51
3.561938999999998
  0
ARC
  5
A614
330
A449
100
AcDbEntity
  8
1
  6
Continuous
100
AcDbCircle
 10
161.523528
 20
92.20088
 30
0.0
 40
9.851650999999996
100
AcDbArc
 50
320.5673269999998
 51
39.432673
  0
ARC
  5
A615
330
A449
100
AcDbEntity
  8
1
  6
Continuous
100
AcDbCircle
 10
164.3850849999997
 20
94.554121
 30
0.0
 40
6.146760999999997
100
AcDbArc
 50
39.432673
 51
128.2840799999999
  0
ARC
  5
A616
330
A449
100
AcDbEntity
  8
1
  6
Continuous
100
AcDbCircle
 10
164.3850849999997
 20
89.847639
 30
0.0
 40
6.146760999999997
100
AcDbArc
 50
269.9999969999999
 51
320.5673269999998
  0
ARC
  5
A617
330
A449
100
AcDbEntity
  8
1
  6
Continuous
100
AcDbCircle
 10
162.6614519999999
 20
92.20088
 30
0.0
 40
9.851650999999996
100
AcDbArc
 50
320.5673269999998
 51
39.432673
  0
ARC
  5
A618
330
A449
100
AcDbEntity
  8
1
  6
Continuous
100
AcDbCircle
 10
165.523009
 20
94.554121
 30
0.0
 40
6.146760999999997
100
AcDbArc
 50
39.432673
 51
95.31106200000001
  0
ARC
  5
A619
330
A449
100
AcDbEntity
  8
1
  6
Continuous
100
AcDbCircle
 10
165.523009
 20
89.847639
 30
0.0
 40
6.146760999999997
100
AcDbArc
 50
269.9999969999999
 51
320.5673269999998
  0
ARC
  5
A61A
330
A449
100
AcDbEntity
  8
1
  6
Continuous
100
AcDbCircle
 10
120.371962
 20
90.70088
 30
0.0
 40
9.851650999999996
100
AcDbArc
 50
140.567329
 51
219.432668
  0
ARC
  5
A61B
330
A449
100
AcDbEntity
  8
1
  6
Continuous
100
AcDbCircle
 10
117.510405
 20
93.05412099999999
 30
0.0
 40
6.146760999999997
100
AcDbArc
 50
51.71595599999999
 51
140.567329
  0
ARC
  5
A61C
330
A449
100
AcDbEntity
  8
1
  6
Continuous
100
AcDbCircle
 10
117.510405
 20
88.347639
 30
0.0
 40
6.146760999999997
100
AcDbArc
 50
219.4326709999999
 51
269.9999969999999
  0
ARC
  5
A61D
330
A449
100
AcDbEntity
  8
1
  6
Continuous
100
AcDbCircle
 10
118.6483289999999
 20
93.05412099999999
 30
0.0
 40
6.146760999999997
100
AcDbArc
 50
51.718104
 51
95.31106200000001
  0
ARC
  5
A61E
330
A449
100
AcDbEntity
  8
1
  6
Continuous
100
AcDbCircle
 10
144.8021379999999
 20
128.431219
 30
0.0
 40
40.086208
100
AcDbArc
 50
251.079861
 51
269.1968699999999
  0
ARC
  5
A61F
330
A449
100
AcDbEntity
  8
1
  6
Continuous
100
AcDbCircle
 10
144.634306
 20
99.605466
 30
0.0
 40
11.251592
100
AcDbArc
 50
274.349441
 51
304.2125069999999
  0
ARC
  5
A620
330
A449
100
AcDbEntity
  8
1
  6
Continuous
100
AcDbCircle
 10
143.6648549999999
 20
128.4310199999999
 30
0.0
 40
40.086208
100
AcDbArc
 50
251.079861
 51
272.6062059999998
  0
ARC
  5
A621
330
A449
100
AcDbEntity
  8
1
  6
Continuous
100
AcDbCircle
 10
148.281844
 20
80.70088
 30
0.0
 40
1.0
100
AcDbArc
 50
90.00000300000001
 51
131.8883849999997
  0
ARC
  5
A622
330
A449
100
AcDbEntity
  8
1
  6
Continuous
100
AcDbCircle
 10
145.46115
 20
82.20088
 30
0.0
 40
2.0
100
AcDbArc
 50
269.9999969999999
 51
311.88839
  0
ARC
  5
A623
330
A449
100
AcDbEntity
  8
1
  6
Continuous
100
AcDbCircle
 10
148.6645949999999
 20
81.70087999999998
 30
0.0
 40
2.0
100
AcDbArc
 50
90.00000300000001
 51
131.8883849999997
  0
ARC
  5
A624
330
A449
100
AcDbEntity
  8
1
  6
Continuous
100
AcDbCircle
 10
145.843886
 20
83.20088
 30
0.0
 40
1.0
100
AcDbArc
 50
269.9999969999999
 51
311.88839
  0
ARC
  5
A625
330
A449
100
AcDbEntity
  8
1
  6
Continuous
100
AcDbCircle
 10
150.928557
 20
82.20088
 30
0.0
 40
2.0
100
AcDbArc
 50
269.9999969999999
 51
328.5124009999999
  0
ARC
  5
A626
330
A449
100
AcDbEntity
  8
1
  6
Continuous
100
AcDbCircle
 10
155.9055009999999
 20
79.951215
 30
0.0
 40
1.0
100
AcDbArc
 50
233.109907
 51
306.8900919999998
  0
ARC
  5
A627
330
A449
100
AcDbEntity
  8
1
  6
Continuous
100
AcDbCircle
 10
376.533949
 20
153.700895
 30
0.0
 40
16.0
100
AcDbArc
 50
152.690342
 51
71.92005899999998
  0
ARC
  5
A628
330
A449
100
AcDbEntity
  8
1
  6
Continuous
100
AcDbCircle
 10
376.533949
 20
153.700895
 30
0.0
 40
12.5
100
AcDbArc
 50
160.8942889999999
 51
63.829788
  0
ARC
  5
A629
330
A449
100
AcDbEntity
  8
1
  6
Continuous
100
AcDbCircle
 10
376.533949
 20
153.700895
 30
0.0
 40
9.75
100
AcDbArc
 50
344.307317
 51
49.03966
  0
ARC
  5
A62A
330
A449
100
AcDbEntity
  8
1
  6
Continuous
100
AcDbCircle
 10
376.533949
 20
153.700895
 30
0.0
 40
10.84999999999999
100
AcDbArc
 50
241.7451310000001
 51
335.042525
  0
LINE
  5
A62B
330
A449
100
AcDbEntity
  8
1
  6
Continuous
100
AcDbLine
 10
383.6774919999998
 20
161.930098
 30
0.0
 11
382.623532
 21
160.7159599999999
 31
0.0
  0
LINE
  5
A62C
330
A449
100
AcDbEntity
  8
1
  6
Continuous
100
AcDbLine
 10
384.986216
 20
151.3262339999999
 30
0.0
 11
387.025015
 21
150.753434
 31
0.0
  0
ARC
  5
A62D
330
A449
100
AcDbEntity
  8
1
  6
Continuous
100
AcDbCircle
 10
385.527171
 20
153.251687
 30
0.0
 40
2.0
100
AcDbArc
 50
177.7763019999999
 51
254.3073169999999
  0
ARC
  5
A62E
330
A449
100
AcDbEntity
  8
1
  6
Continuous
100
AcDbCircle
 10
387.4307309999999
 20
152.1975239999999
 30
0.0
 40
1.5
100
AcDbArc
 50
254.3073169999999
 51
352.144797
  0
ARC
  5
A62F
330
A449
100
AcDbEntity
  8
1
  6
Continuous
100
AcDbCircle
 10
384.8102369999999
 20
160.9467939999998
 30
0.0
 40
1.5
100
AcDbArc
 50
41.20218
 51
139.03966
  0
ARC
  5
A630
330
A449
100
AcDbEntity
  8
1
  6
Continuous
100
AcDbCircle
 10
376.533949
 20
153.700895
 30
0.0
 40
10.84999999999999
100
AcDbArc
 50
171.9327209999999
 51
229.03966
  0
ARC
  5
A631
330
A449
100
AcDbEntity
  8
1
  6
Continuous
100
AcDbCircle
 10
376.533949
 20
153.700895
 30
0.0
 40
9.75
100
AcDbArc
 50
174.179899
 51
229.03966
  0
LINE
  5
A632
330
A449
100
AcDbEntity
  8
1
  6
Continuous
100
AcDbLine
 10
369.3904059999999
 20
145.4716909999999
 30
0.0
 11
371.8958919999999
 21
148.357956
 31
0.0
  0
ARC
  5
A633
330
A449
100
AcDbEntity
  8
1
  6
Continuous
100
AcDbCircle
 10
368.2576599999999
 20
146.454996
 30
0.0
 40
1.5
100
AcDbArc
 50
221.2021799999999
 51
319.0396600000001
  0
ARC
  5
A634
330
A449
100
AcDbEntity
  8
1
  6
Continuous
100
AcDbCircle
 10
365.634212
 20
153.6312289999998
 30
0.0
 40
1.600041
100
AcDbArc
 50
41.41151599999999
 51
177.504568
  0
LINE
  5
A635
330
A449
100
AcDbEntity
  8
1
  6
Continuous
100
AcDbLine
 10
268.033949
 20
137.700895
 30
0.0
 11
267.533949
 21
137.700895
 31
0.0
  0
LINE
  5
A636
330
A449
100
AcDbEntity
  8
1
  6
Continuous
100
AcDbLine
 10
268.033949
 20
169.700895
 30
0.0
 11
267.533949
 21
169.700895
 31
0.0
  0
LINE
  5
A637
330
A449
100
AcDbEntity
  8
1
  6
Continuous
100
AcDbLine
 10
268.033949
 20
169.700895
 30
0.0
 11
268.033949
 21
137.700895
 31
0.0
  0
ARC
  5
A638
330
A449
100
AcDbEntity
  8
1
  6
Continuous
100
AcDbCircle
 10
376.533949
 20
153.700895
 30
0.0
 40
10.84999999999999
100
AcDbArc
 50
344.307317
 51
49.03966
  0
ARC
  5
A639
330
A449
100
AcDbEntity
  8
1
  6
Continuous
100
AcDbCircle
 10
267.524962
 20
163.54682
 30
0.0
 40
2.702439
100
AcDbArc
 50
21.810854
 51
79.14388399999999
  0
ARC
  5
A63A
330
A449
100
AcDbEntity
  8
1
  6
Continuous
100
AcDbCircle
 10
267.524962
 20
143.8549689999998
 30
0.0
 40
2.702439
100
AcDbArc
 50
280.856116
 51
338.1891459999998
  0
LINE
  5
A63B
330
A449
100
AcDbEntity
  8
1
  6
Continuous
100
AcDbLine
 10
270.835916
 20
155.2235379999999
 30
0.0
 11
268.033949
 21
155.2235379999999
 31
0.0
  0
LINE
  5
A63C
330
A449
100
AcDbEntity
  8
1
  6
Continuous
100
AcDbLine
 10
270.835916
 20
145.4716909999999
 30
0.0
 11
268.033949
 21
145.4716909999999
 31
0.0
  0
ARC
  5
A63D
330
A449
100
AcDbEntity
  8
1
  6
Continuous
100
AcDbCircle
 10
295.558566
 20
150.347615
 30
0.0
 40
24.024632
100
AcDbArc
 50
171.0899109999997
 51
188.9100889999998
  0
ARC
  5
A63E
330
A449
100
AcDbEntity
  8
1
  6
Continuous
100
AcDbCircle
 10
270.835916
 20
154.2235379999999
 30
0.0
 40
1.0
100
AcDbArc
 50
351.0899109999999
 51
90.0
  0
ARC
  5
A63F
330
A449
100
AcDbEntity
  8
1
  6
Continuous
100
AcDbCircle
 10
270.835916
 20
146.4716909999999
 30
0.0
 40
1.0
100
AcDbArc
 50
270.0
 51
8.910088999999997
  0
LINE
  5
A640
330
A449
100
AcDbEntity
  8
1
  6
Continuous
100
AcDbLine
 10
270.033949
 20
155.2235379999999
 30
0.0
 11
270.033949
 21
179.4173679999999
 31
0.0
  0
LINE
  5
A641
330
A449
100
AcDbEntity
  8
1
  6
Continuous
100
AcDbLine
 10
271.8044039999999
 20
146.75279
 30
0.0
 11
272.0339339999998
 21
146.75279
 31
0.0
  0
LINE
  5
A642
330
A449
100
AcDbEntity
  8
1
  6
Continuous
100
AcDbLine
 10
38.033949
 20
169.700895
 30
0.0
 11
38.033949
 21
137.700895
 31
0.0
  0
LINE
  5
A643
330
A449
100
AcDbEntity
  8
1
  6
Continuous
100
AcDbLine
 10
38.033949
 20
169.700895
 30
0.0
 11
38.53394899999999
 21
169.700895
 31
0.0
  0
ARC
  5
A644
330
A449
100
AcDbEntity
  8
1
  6
Continuous
100
AcDbCircle
 10
38.542935
 20
163.54682
 30
0.0
 40
2.702439
100
AcDbArc
 50
100.8561159999999
 51
158.189146
  0
ARC
  5
A645
330
A449
100
AcDbEntity
  8
1
  6
Continuous
100
AcDbCircle
 10
38.542935
 20
143.8549689999998
 30
0.0
 40
2.702439
100
AcDbArc
 50
201.8108539999999
 51
259.1438839999999
  0
LINE
  5
A646
330
A449
100
AcDbEntity
  8
1
  6
Continuous
100
AcDbLine
 10
38.033949
 20
137.700895
 30
0.0
 11
38.53394899999999
 21
137.700895
 31
0.0
  0
LINE
  5
A647
330
A449
100
AcDbEntity
  8
1
  6
Continuous
100
AcDbLine
 10
38.033949
 20
150.7662139999998
 30
0.0
 11
35.208425
 21
150.7662139999998
 31
0.0
  0
LINE
  5
A648
330
A449
100
AcDbEntity
  8
1
  6
Continuous
100
AcDbLine
 10
38.033949
 20
161.930098
 30
0.0
 11
35.208425
 21
161.930098
 31
0.0
  0
LINE
  5
A649
330
A449
100
AcDbEntity
  8
1
  6
Continuous
100
AcDbLine
 10
36.033949
 20
161.930098
 30
0.0
 11
36.033949
 21
181.70426
 31
0.0
  0
ARC
  5
A64A
330
A449
100
AcDbEntity
  8
1
  6
Continuous
100
AcDbCircle
 10
3.125884
 20
156.3481559999999
 30
0.0
 40
31.40807999999999
100
AcDbArc
 50
351.8721339999999
 51
8.127865999999999
  0
ARC
  5
A64B
330
A449
100
AcDbEntity
  8
1
  6
Continuous
100
AcDbCircle
 10
35.208425
 20
160.9300979999999
 30
0.0
 40
1.0
100
AcDbArc
 50
90.0
 51
188.1278659999999
  0
ARC
  5
A64C
330
A449
100
AcDbEntity
  8
1
  6
Continuous
100
AcDbCircle
 10
35.208425
 20
151.7662139999998
 30
0.0
 40
1.0
100
AcDbArc
 50
171.8721339999999
 51
270.0
  0
LINE
  5
A64D
330
A449
100
AcDbEntity
  8
5
  6
PHANTOM
100
AcDbLine
 10
141.0033689999998
 20
147.5699799999999
 30
0.0
 11
139.9917989999997
 21
148.227416
 31
0.0
  0
LINE
  5
A64E
330
A449
100
AcDbEntity
  8
5
  6
PHANTOM
100
AcDbLine
 10
144.5454729999999
 20
153.020071
 30
0.0
 11
143.533903
 21
153.677507
 31
0.0
  0
ARC
  5
A64F
330
A449
100
AcDbEntity
  8
5
  6
PHANTOM
100
AcDbCircle
 10
142.774421
 20
150.295025
 30
0.0
 40
3.25
100
AcDbArc
 50
236.9795
 51
56.9795
  0
ARC
  5
A650
330
A449
100
AcDbEntity
  8
5
  6
PHANTOM
100
AcDbCircle
 10
132.293476
 20
157.106764
 30
0.0
 40
3.25
100
AcDbArc
 50
56.9795
 51
236.9795
  0
LINE
  5
A651
330
A449
100
AcDbEntity
  8
1
  6
Continuous
100
AcDbLine
 10
67.533934
 20
147.450895
 30
0.0
 11
67.533934
 21
159.950895
 31
0.0
  0
LINE
  5
A652
330
A449
100
AcDbEntity
  8
1
  6
Continuous
100
AcDbLine
 10
66.033934
 20
155.6286419999999
 30
0.0
 11
67.533934
 21
157.450895
 31
0.0
  0
LINE
  5
A653
330
A449
100
AcDbEntity
  8
1
  6
Continuous
100
AcDbLine
 10
66.033934
 20
151.8300659999999
 30
0.0
 11
67.533934
 21
149.950895
 31
0.0
  0
ARC
  5
A654
330
A449
100
AcDbEntity
  8
1
  6
Continuous
100
AcDbCircle
 10
63.2631
 20
159.950895
 30
0.0
 40
4.270832999999997
100
AcDbArc
 50
310.449719
 51
49.55028099999999
  0
ARC
  5
A655
330
A449
100
AcDbEntity
  8
1
  6
Continuous
100
AcDbCircle
 10
63.2631
 20
147.450895
 30
0.0
 40
4.270832999999997
100
AcDbArc
 50
310.449719
 51
0.0
  0
LINE
  5
A656
330
A449
100
AcDbEntity
  8
1
  6
Continuous
100
AcDbLine
 10
67.122355
 20
156.950895
 30
0.0
 11
67.533934
 21
156.950895
 31
0.0
  0
LINE
  5
A657
330
A449
100
AcDbEntity
  8
1
  6
Continuous
100
AcDbLine
 10
67.134821
 20
150.4508949999998
 30
0.0
 11
67.533934
 21
150.4508949999998
 31
0.0
  0
ARC
  5
A658
330
A449
100
AcDbEntity
  8
1
  6
Continuous
100
AcDbCircle
 10
158.533949
 20
65.20089499999999
 30
0.0
 40
17.0
100
AcDbArc
 50
118.0725939999999
 51
124.3012189999999
  0
ARC
  5
A659
330
A449
100
AcDbEntity
  8
1
  6
Continuous
100
AcDbCircle
 10
137.5339489999997
 20
79.43004599999998
 30
0.0
 40
4.270832999999997
100
AcDbArc
 50
40.449719
 51
139.550281
  0
LINE
  5
A65A
330
A449
100
AcDbEntity
  8
1
  6
Continuous
100
AcDbLine
 10
134.283949
 20
82.20088
 30
0.0
 11
134.283949
 21
83.70087899999999
 31
0.0
  0
LINE
  5
A65B
330
A449
100
AcDbEntity
  8
1
  6
Continuous
100
AcDbLine
 10
140.783949
 20
82.20088
 30
0.0
 11
140.783949
 21
83.70088
 31
0.0
  0
LINE
  5
A65C
330
A449
100
AcDbEntity
  8
1
  6
Continuous
100
AcDbLine
 10
131.533949
 20
83.70087899999999
 30
0.0
 11
143.533949
 21
83.70088
 31
0.0
  0
LINE
  5
A65D
330
A449
100
AcDbEntity
  8
1
  6
Continuous
100
AcDbLine
 10
61.53393399999998
 20
168.1135219999999
 30
0.0
 11
61.53393399999998
 21
170.350447
 31
0.0
  0
LINE
  5
A65E
330
A449
100
AcDbEntity
  8
1
  6
Continuous
100
AcDbLine
 10
64.033934
 20
168.1135219999999
 30
0.0
 11
61.53393399999998
 21
168.1135219999999
 31
0.0
  0
LINE
  5
A65F
330
A449
100
AcDbEntity
  8
1
  6
Continuous
100
AcDbLine
 10
64.033934
 20
169.7582399999998
 30
0.0
 11
61.53393399999998
 21
169.7582399999998
 31
0.0
  0
LINE
  5
A660
330
A449
100
AcDbEntity
  8
1
  6
Continuous
100
AcDbLine
 10
64.033934
 20
170.350447
 30
0.0
 11
61.53393399999998
 21
170.350447
 31
0.0
  0
LINE
  5
A661
330
A449
100
AcDbEntity
  8
1
  6
Continuous
100
AcDbLine
 10
62.033949
 20
170.350447
 30
0.0
 11
62.033949
 21
181.70426
 31
0.0
  0
LINE
  5
A662
330
A449
100
AcDbEntity
  8
1
  6
Continuous
100
AcDbLine
 10
243.084501
 20
144.9668669999998
 30
0.0
 11
240.533964
 21
144.9668669999998
 31
0.0
  0
LINE
  5
A663
330
A449
100
AcDbEntity
  8
1
  6
Continuous
100
AcDbLine
 10
243.084501
 20
142.680734
 30
0.0
 11
240.533964
 21
142.680734
 31
0.0
  0
LINE
  5
A664
330
A449
100
AcDbEntity
  8
1
  6
Continuous
100
AcDbLine
 10
243.084501
 20
142.680734
 30
0.0
 11
243.084501
 21
144.9668669999998
 31
0.0
  0
LINE
  5
A665
330
A449
100
AcDbEntity
  8
5
  6
PHANTOM
100
AcDbLine
 10
135.0760979999998
 20
159.174373
 30
0.0
 11
134.0645279999999
 21
159.83181
 31
0.0
  0
LINE
  5
A666
330
A449
100
AcDbEntity
  8
5
  6
PHANTOM
100
AcDbLine
 10
131.533994
 20
153.7242819999999
 30
0.0
 11
130.522424
 21
154.381718
 31
0.0
  0
ARC
  5
A667
330
A449
100
AcDbEntity
  8
1
  6
Continuous
100
AcDbCircle
 10
150.163652
 20
183.045815
 30
0.0
 40
37.49999199999999
100
AcDbArc
 50
196.143844
 51
226.980864
  0
LINE
  5
A668
330
A449
100
AcDbEntity
  8
1
  6
Continuous
100
AcDbLine
 10
111.658235
 20
181.331459
 30
0.0
 11
130.1047989999997
 21
168.568916
 31
0.0
  0
LINE
  5
A669
330
A449
100
AcDbEntity
  8
1
  6
Continuous
100
AcDbLine
 10
110.520311
 20
179.686729
 30
0.0
 11
128.9668749999999
 21
166.924202
 31
0.0
  0
LINE
  5
A66A
330
A449
100
AcDbEntity
  8
1
  6
Continuous
100
AcDbLine
 10
116.2768419999999
 20
175.703987
 30
0.0
 11
114.1424119999999
 21
172.61895
 31
0.0
  0
LINE
  5
A66B
330
A449
100
AcDbEntity
  8
1
  6
Continuous
100
AcDbLine
 10
110.520311
 20
179.686729
 30
0.0
 11
111.658235
 21
181.3314739999999
 31
0.0
  0
ARC
  5
A66C
330
A449
100
AcDbEntity
  8
1
  6
Continuous
100
AcDbCircle
 10
132.679979
 20
146.685112
 30
0.0
 40
20.53125
100
AcDbArc
 50
24.616449
 51
86.027564
  0
ARC
  5
A66D
330
A449
100
AcDbEntity
  8
1
  6
Continuous
100
AcDbCircle
 10
158.618211
 20
158.5695879999998
 30
0.0
 40
10.0
100
AcDbArc
 50
204.6164339999999
 51
235.3220140000001
  0
ARC
  5
A66E
330
A449
100
AcDbEntity
  8
1
  6
Continuous
100
AcDbCircle
 10
160.5418559999999
 20
175.865501
 30
0.0
 40
37.49999199999999
100
AcDbArc
 50
243.66315
 51
274.5001359999998
  0
ARC
  5
A66F
330
A449
100
AcDbEntity
  8
1
  6
Continuous
100
AcDbCircle
 10
158.618211
 20
158.5695879999998
 30
0.0
 40
8.0
100
AcDbArc
 50
204.6164339999999
 51
235.3220140000001
  0
LINE
  5
A670
330
A449
100
AcDbEntity
  8
1
  6
Continuous
100
AcDbLine
 10
147.89908
 20
140.560982
 30
0.0
 11
153.713197
 21
148.964531
 31
0.0
  0
LINE
  5
A671
330
A449
100
AcDbEntity
  8
1
  6
Continuous
100
AcDbLine
 10
151.530595
 20
144.9268879999999
 30
0.0
 11
160.2500779999997
 21
145.2804639999999
 31
0.0
  0
LINE
  5
A672
330
A449
100
AcDbEntity
  8
1
  6
Continuous
100
AcDbLine
 10
151.652132
 20
141.929359
 30
0.0
 11
160.371629
 21
142.2829209999999
 31
0.0
  0
ARC
  5
A673
330
A449
100
AcDbEntity
  8
1
  6
Continuous
100
AcDbCircle
 10
142.3622149999999
 20
160.679527
 30
0.0
 40
18.48607099999998
100
AcDbArc
 50
195.856484
 51
274.787523
  0
ARC
  5
A674
330
A449
100
AcDbEntity
  8
1
  6
Continuous
100
AcDbCircle
 10
137.5339489999997
 20
147.450895
 30
0.0
 40
3.25
100
AcDbArc
 50
180.0
 51
0.0
  0
LINE
  5
A675
330
A449
100
AcDbEntity
  8
1
  6
Continuous
100
AcDbLine
 10
134.283949
 20
147.450895
 30
0.0
 11
134.283949
 21
148.6573339999999
 31
0.0
  0
LINE
  5
A676
330
A449
100
AcDbEntity
  8
1
  6
Continuous
100
AcDbLine
 10
140.783949
 20
147.450895
 30
0.0
 11
140.783949
 21
148.6573339999999
 31
0.0
  0
LINE
  5
A677
330
A449
100
AcDbEntity
  8
1
  6
Continuous
100
AcDbLine
 10
151.9084179999999
 20
144.5770489999999
 30
0.0
 11
152.0004129999998
 21
142.30822
 31
0.0
  0
LINE
  5
A678
330
A449
100
AcDbEntity
  8
1
  6
Continuous
100
AcDbLine
 10
146.2266099999999
 20
141.658821
 30
0.0
 11
152.068468
 21
150.1024699999998
 31
0.0
  0
ARC
  5
A679
330
A449
100
AcDbEntity
  8
1
  6
Continuous
100
AcDbCircle
 10
137.5339489999997
 20
159.950895
 30
0.0
 40
3.25
100
AcDbArc
 50
0.0
 51
180.0
  0
ARC
  5
A67A
330
A449
100
AcDbEntity
  8
1
  6
Continuous
100
AcDbCircle
 10
132.679979
 20
146.685112
 30
0.0
 40
18.53125
100
AcDbArc
 50
24.616449
 51
86.027564
  0
LINE
  5
A67B
330
A449
100
AcDbEntity
  8
1
  6
Continuous
100
AcDbLine
 10
134.283949
 20
158.7444549999998
 30
0.0
 11
134.283949
 21
159.950895
 31
0.0
  0
LINE
  5
A67C
330
A449
100
AcDbEntity
  8
1
  6
Continuous
100
AcDbLine
 10
129.7028489999999
 20
166.4609859999998
 30
0.0
 11
127.974443
 21
163.9628219999998
 31
0.0
  0
LINE
  5
A67D
330
A449
100
AcDbEntity
  8
1
  6
Continuous
100
AcDbLine
 10
126.39191
 20
168.705729
 30
0.0
 11
124.6850299999999
 21
166.2386549999999
 31
0.0
  0
ARC
  5
A67E
330
A449
100
AcDbEntity
  8
1
  6
Continuous
100
AcDbCircle
 10
134.656526
 20
175.14782
 30
0.0
 40
8.0
100
AcDbArc
 50
235.3220140000001
 51
266.0275529999998
  0
ARC
  5
A67F
330
A449
100
AcDbEntity
  8
1
  6
Continuous
100
AcDbCircle
 10
134.656526
 20
175.14782
 30
0.0
 40
10.0
100
AcDbArc
 50
235.3220140000001
 51
266.0275529999998
  0
LINE
  5
A680
330
A449
100
AcDbEntity
  8
1
  6
Continuous
100
AcDbLine
 10
124.6850299999999
 20
166.2386549999999
 30
0.0
 11
127.9744739999999
 21
163.962807
 31
0.0
  0
LINE
  5
A681
330
A449
100
AcDbEntity
  8
1
  6
Continuous
100
AcDbLine
 10
140.783949
 20
158.7444549999998
 30
0.0
 11
140.783949
 21
159.950895
 31
0.0
  0
LINE
  5
A682
330
A449
100
AcDbEntity
  8
1
  6
Continuous
100
AcDbLine
 10
154.0664839999998
 20
151.990685
 30
0.0
 11
172.5130629999999
 21
139.2281419999999
 31
0.0
  0
LINE
  5
A683
330
A449
100
AcDbEntity
  8
1
  6
Continuous
100
AcDbLine
 10
152.9285449999999
 20
150.3459399999998
 30
0.0
 11
171.375124
 21
137.5833969999999
 31
0.0
  0
LINE
  5
A684
330
A449
100
AcDbEntity
  8
1
  6
Continuous
100
AcDbLine
 10
165.618578
 20
141.566154
 30
0.0
 11
163.4841629999999
 21
138.4811169999997
 31
0.0
  0
LINE
  5
A685
330
A449
100
AcDbEntity
  8
1
  6
Continuous
100
AcDbLine
 10
159.902544
 20
144.8838419999999
 30
0.0
 11
159.995256
 21
142.5976939999999
 31
0.0
  0
LINE
  5
A686
330
A449
100
AcDbEntity
  8
1
  6
Continuous
100
AcDbLine
 10
155.890352
 20
145.103676
 30
0.0
 11
156.0119029999999
 21
142.106133
 31
0.0
  0
LINE
  5
A687
330
A449
100
AcDbEntity
  8
1
  6
Continuous
100
AcDbLine
 10
171.3752299999999
 20
137.5833659999997
 30
0.0
 11
172.513155
 21
139.2280959999999
 31
0.0
  0
LINE
  5
A688
330
A449
100
AcDbEntity
  8
1
  6
Continuous
100
AcDbLine
 10
348.449322
 20
141.5661509999999
 30
0.0
 11
342.692774
 21
137.5833969999999
 31
0.0
  0
LINE
  5
A689
330
A449
100
AcDbEntity
  8
1
  6
Continuous
100
AcDbLine
 10
352.5042199999999
 20
146.8036389999998
 30
0.0
 11
341.5548339999998
 21
139.2281419999999
 31
0.0
  0
LINE
  5
A68A
330
A449
100
AcDbEntity
  8
1
  6
Continuous
100
AcDbLine
 10
342.6926669999998
 20
137.5833659999997
 30
0.0
 11
341.5547429999998
 21
139.2280959999999
 31
0.0
  0
LINE
  5
A68B
330
A449
100
AcDbEntity
  8
1
  6
Continuous
100
AcDbLine
 10
347.3113859999998
 20
143.210899
 30
0.0
 11
350.5837339999998
 21
138.4811169999997
 31
0.0
  0
ARC
  5
A68C
330
A449
100
AcDbEntity
  8
1
  6
Continuous
100
AcDbCircle
 10
353.526041
 20
175.865501
 30
0.0
 40
37.49999199999999
100
AcDbArc
 50
265.499864
 51
274.835325
  0
ARC
  5
A68D
330
A449
100
AcDbEntity
  8
1
  6
Continuous
100
AcDbCircle
 10
363.904245
 20
183.045815
 30
0.0
 40
37.49999199999999
100
AcDbArc
 50
334.520641
 51
343.856156
  0
LINE
  5
A68E
330
A449
100
AcDbEntity
  8
1
  6
Continuous
100
AcDbLine
 10
402.4096619999999
 20
181.331459
 30
0.0
 11
391.460263
 21
173.7559469999999
 31
0.0
  0
LINE
  5
A68F
330
A449
100
AcDbEntity
  8
1
  6
Continuous
100
AcDbLine
 10
403.547586
 20
179.686729
 30
0.0
 11
397.7910549999998
 21
175.7039879999999
 31
0.0
  0
LINE
  5
A690
330
A449
100
AcDbEntity
  8
1
  6
Continuous
100
AcDbLine
 10
403.547586
 20
179.686729
 30
0.0
 11
402.4096619999999
 21
181.3314739999999
 31
0.0
  0
LINE
  5
A691
330
A449
100
AcDbEntity
  8
1
  6
Continuous
100
AcDbLine
 10
396.6531279999998
 20
177.348711
 30
0.0
 11
399.9254849999999
 21
172.61895
 31
0.0
  0
ARC
  5
A692
330
A449
100
AcDbEntity
  8
5
  6
PHANTOM
100
AcDbCircle
 10
382.580524
 20
185.070825
 30
0.0
 40
37.49999199999999
100
AcDbArc
 50
208.520364
 51
217.855825
  0
LINE
  5
A693
330
A449
100
AcDbEntity
  8
5
  6
PHANTOM
100
AcDbLine
 10
354.731375
 20
171.29023
 30
0.0
 11
345.3374119999998
 21
175.1432619999999
 31
0.0
  0
LINE
  5
A694
330
A449
100
AcDbEntity
  8
5
  6
PHANTOM
100
AcDbLine
 10
351.054851
 20
170.6364739999999
 30
0.0
 11
344.5784409999998
 21
173.2928409999999
 31
0.0
  0
LINE
  5
A695
330
A449
100
AcDbEntity
  8
5
  6
PHANTOM
100
AcDbLine
 10
351.813827
 20
172.4868929999999
 30
0.0
 11
349.63125
 21
167.165666
 31
0.0
  0
LINE
  5
A696
330
A449
100
AcDbEntity
  8
5
  6
PHANTOM
100
AcDbLine
 10
344.5783569999999
 20
173.2929139999999
 30
0.0
 11
345.337323
 21
175.143314
 31
0.0
  0
LINE
  5
A697
330
A449
100
AcDbEntity
  8
5
  6
PHANTOM
100
AcDbLine
 10
413.043225
 20
145.2113139999999
 30
0.0
 11
413.802204
 21
147.061721
 31
0.0
  0
LINE
  5
A698
330
A449
100
AcDbEntity
  8
5
  6
PHANTOM
100
AcDbLine
 10
413.8021909999998
 20
147.0617129999999
 30
0.0
 11
401.4835539999998
 21
152.114325
 31
0.0
  0
ARC
  5
A699
330
A449
100
AcDbEntity
  8
5
  6
PHANTOM
100
AcDbCircle
 10
394.25653
 20
180.281787
 30
0.0
 40
37.49999199999999
100
AcDbArc
 50
277.5411409999999
 51
286.876656
  0
LINE
  5
A69A
330
A449
100
AcDbEntity
  8
5
  6
PHANTOM
100
AcDbLine
 10
413.043225
 20
145.2113139999999
 30
0.0
 11
406.566834
 21
147.867674
 31
0.0
  0
LINE
  5
A69B
330
A449
100
AcDbEntity
  8
5
  6
PHANTOM
100
AcDbLine
 10
407.3257939999998
 20
149.718072
 30
0.0
 11
405.14324
 21
144.396848
 31
0.0
  0
ARC
  5
A69C
330
A449
100
AcDbEntity
  8
5
  6
PHANTOM
100
AcDbCircle
 10
108.129706
 20
230.681868
 30
0.0
 40
7.454571999999997
100
AcDbArc
 50
222.774274
 51
270.0
  0
ARC
  5
A69D
330
A449
100
AcDbEntity
  8
5
  6
PHANTOM
100
AcDbCircle
 10
109.259683
 20
231.7272959999999
 30
0.0
 40
8.993976999999997
100
AcDbArc
 50
137.225726
 51
222.774274
  0
ARC
  5
A69E
330
A449
100
AcDbEntity
  8
5
  6
PHANTOM
100
AcDbCircle
 10
108.129706
 20
232.772724
 30
0.0
 40
7.454571999999997
100
AcDbArc
 50
111.3018899999999
 51
137.225726
  0
LINE
  5
A69F
330
A449
100
AcDbEntity
  8
5
  6
PHANTOM
100
AcDbLine
 10
118.0793669999999
 20
223.2272959999999
 30
0.0
 11
108.129706
 21
223.2272959999999
 31
0.0
  0
ARC
  5
A6A0
330
A449
100
AcDbEntity
  8
5
  6
PHANTOM
100
AcDbCircle
 10
109.259683
 20
90.67449299999998
 30
0.0
 40
8.993976999999997
100
AcDbArc
 50
137.225726
 51
222.774274
  0
ARC
  5
A6A1
330
A449
100
AcDbEntity
  8
5
  6
PHANTOM
100
AcDbCircle
 10
108.129706
 20
89.62906499999998
 30
0.0
 40
7.454571999999997
100
AcDbArc
 50
222.774274
 51
248.69811
  0
ARC
  5
A6A2
330
A449
100
AcDbEntity
  8
5
  6
PHANTOM
100
AcDbCircle
 10
108.129706
 20
91.71992100000002
 30
0.0
 40
7.454571999999997
100
AcDbArc
 50
90.0
 51
137.225726
  0
LINE
  5
A6A3
330
A449
100
AcDbEntity
  8
5
  6
PHANTOM
100
AcDbLine
 10
118.0793679999997
 20
99.17449300000001
 30
0.0
 11
108.129706
 21
99.17449300000001
 31
0.0
  0
LINE
  5
A6A4
330
A449
100
AcDbEntity
  8
1
  6
Continuous
100
AcDbLine
 10
121.5339489999997
 20
54.20089499999999
 30
0.0
 11
153.533949
 21
54.20089499999999
 31
0.0
  0
LINE
  5
A6A5
330
A449
100
AcDbEntity
  8
1
  6
Continuous
100
AcDbLine
 10
153.533949
 20
54.20089499999999
 30
0.0
 11
153.533949
 21
54.700895
 31
0.0
  0
LINE
  5
A6A6
330
A449
100
AcDbEntity
  8
1
  6
Continuous
100
AcDbLine
 10
121.5339489999997
 20
54.20089499999999
 30
0.0
 11
121.5339489999997
 21
54.700895
 31
0.0
  0
LINE
  5
A6A7
330
A449
100
AcDbEntity
  8
1
  6
Continuous
100
AcDbLine
 10
121.5339489999997
 20
268.200895
 30
0.0
 11
121.5339489999997
 21
267.700895
 31
0.0
  0
LINE
  5
A6A8
330
A449
100
AcDbEntity
  8
1
  6
Continuous
100
AcDbLine
 10
121.5339489999997
 20
268.200895
 30
0.0
 11
124.158805
 21
268.200895
 31
0.0
  0
CIRCLE
  5
A6AA
330
A449
100
AcDbEntity
  8
1
  6
Continuous
100
AcDbCircle
 10
376.533949
 20
153.700895
 30
0.0
 40
2.25
  0
CIRCLE
  5
A6AB
330
A449
100
AcDbEntity
  8
1
  6
Continuous
100
AcDbCircle
 10
376.533949
 20
153.700895
 30
0.0
 40
4.75
  0
CIRCLE
  5
A6AC
330
A449
100
AcDbEntity
  8
1
  6
Continuous
100
AcDbCircle
 10
137.5339489999997
 20
153.700895
 30
0.0
 40
6.0
  0
LINE
  5
A6AD
330
A449
100
AcDbEntity
  8
1
  6
Continuous
100
AcDbLine
 10
134.4339479999999
 20
86.600879
 30
0.0
 11
140.6339479999997
 21
86.60088
 31
0.0
  0
LINE
  5
A6AE
330
A449
100
AcDbEntity
  8
1
  6
Continuous
100
AcDbLine
 10
143.533949
 20
83.70088
 30
0.0
 11
143.533949
 21
83.70088
 31
0.0
  0
LINE
  5
A6AF
330
A449
100
AcDbEntity
  8
1
  6
Continuous
100
AcDbLine
 10
131.533949
 20
83.70087899999999
 30
0.0
 11
131.533949
 21
83.70087899999999
 31
0.0
  0
ARC
  5
A6B0
330
A449
100
AcDbEntity
  8
1
  6
Continuous
100
AcDbCircle
 10
140.633949
 20
83.70088
 30
0.0
 40
2.9
100
AcDbArc
 50
0.0
 51
90.00000500000002
  0
ARC
  5
A6B1
330
A449
100
AcDbEntity
  8
1
  6
Continuous
100
AcDbCircle
 10
134.433949
 20
83.70087899999999
 30
0.0
 40
2.9
100
AcDbArc
 50
90.00000500000002
 51
180.0
  0
LINE
  5
A6B2
330
A449
100
AcDbEntity
  8
1
  6
Continuous
100
AcDbLine
 10
140.783949
 20
48.70091
 30
0.0
 11
134.283949
 21
48.70091
 31
0.0
  0
LINE
  5
A6B3
330
A449
100
AcDbEntity
  8
1
  6
Continuous
100
AcDbLine
 10
132.783949
 20
50.20091
 30
0.0
 11
132.783949
 21
50.20091
 31
0.0
  0
LINE
  5
A6B4
330
A449
100
AcDbEntity
  8
1
  6
Continuous
100
AcDbLine
 10
142.283949
 20
50.20091
 30
0.0
 11
142.283949
 21
50.20091
 31
0.0
  0
ARC
  5
A6B5
330
A449
100
AcDbEntity
  8
1
  6
Continuous
100
AcDbCircle
 10
140.783949
 20
50.20091
 30
0.0
 40
1.5
100
AcDbArc
 50
270.0
 51
0.0
  0
ARC
  5
A6B6
330
A449
100
AcDbEntity
  8
1
  6
Continuous
100
AcDbCircle
 10
134.283949
 20
50.20091
 30
0.0
 40
1.5
100
AcDbArc
 50
180.0
 51
270.0
  0
LINE
  5
A6B7
330
A449
100
AcDbEntity
  8
1
  6
Continuous
100
AcDbLine
 10
70.43393399999998
 20
150.600895
 30
0.0
 11
70.43393399999998
 21
156.800895
 31
0.0
  0
LINE
  5
A6B8
330
A449
100
AcDbEntity
  8
1
  6
Continuous
100
AcDbLine
 10
67.533934
 20
159.700895
 30
0.0
 11
67.533934
 21
159.700895
 31
0.0
  0
LINE
  5
A6B9
330
A449
100
AcDbEntity
  8
1
  6
Continuous
100
AcDbLine
 10
67.533934
 20
147.700895
 30
0.0
 11
67.533934
 21
147.700895
 31
0.0
  0
ARC
  5
A6BA
330
A449
100
AcDbEntity
  8
1
  6
Continuous
100
AcDbCircle
 10
67.533934
 20
156.800895
 30
0.0
 40
2.9
100
AcDbArc
 50
0.0
 51
90.0
  0
ARC
  5
A6BB
330
A449
100
AcDbEntity
  8
1
  6
Continuous
100
AcDbCircle
 10
67.533934
 20
150.600895
 30
0.0
 40
2.9
100
AcDbArc
 50
270.0
 51
0.0
  0
LINE
  5
A6BC
330
A449
100
AcDbEntity
  8
1
  6
Continuous
100
AcDbLine
 10
32.53396399999999
 20
150.4508949999998
 30
0.0
 11
32.53396399999999
 21
156.950895
 31
0.0
  0
LINE
  5
A6BD
330
A449
100
AcDbEntity
  8
1
  6
Continuous
100
AcDbLine
 10
34.033964
 20
158.450895
 30
0.0
 11
34.033964
 21
158.450895
 31
0.0
  0
LINE
  5
A6BE
330
A449
100
AcDbEntity
  8
1
  6
Continuous
100
AcDbLine
 10
34.033964
 20
148.950895
 30
0.0
 11
34.033964
 21
148.950895
 31
0.0
  0
ARC
  5
A6BF
330
A449
100
AcDbEntity
  8
1
  6
Continuous
100
AcDbCircle
 10
34.033964
 20
156.950895
 30
0.0
 40
1.5
100
AcDbArc
 50
90.0
 51
180.0
  0
ARC
  5
A6C0
330
A449
100
AcDbEntity
  8
1
  6
Continuous
100
AcDbCircle
 10
34.033964
 20
150.4508949999998
 30
0.0
 40
1.5
100
AcDbArc
 50
180.0
 51
270.0
  0
LINE
  5
A6C2
330
A449
100
AcDbEntity
  8
1
  6
Continuous
100
AcDbLine
 10
273.5339339999999
 20
156.950895
 30
0.0
 11
273.5339339999999
 21
150.4508949999998
 31
0.0
  0
ARC
  5
A6C3
330
A449
100
AcDbEntity
  8
1
  6
Continuous
100
AcDbCircle
 10
272.0339339999998
 20
150.4508949999998
 30
0.0
 40
1.5
100
AcDbArc
 50
270.0
 51
0.0
  0
LINE
  5
A6C4
330
A449
100
AcDbEntity
  8
1
  6
Continuous
100
AcDbLine
 10
272.0339339999998
 20
148.950895
 30
0.0
 11
272.0339339999998
 21
148.950895
 31
0.0
  0
ARC
  5
A6C5
330
A449
100
AcDbEntity
  8
1
  6
Continuous
100
AcDbCircle
 10
272.0339339999998
 20
156.950895
 30
0.0
 40
1.5
100
AcDbArc
 50
0.0
 51
20.837593
  0
LINE
  5
A6C6
330
A449
100
AcDbEntity
  8
1
  6
Continuous
100
AcDbLine
 10
115.292547
 20
246.700895
 30
0.0
 11
124.317683
 21
246.700895
 31
0.0
  0
LINE
  5
A6C7
330
A449
100
AcDbEntity
  8
1
  6
Continuous
100
AcDbLine
 10
115.292547
 20
267.700895
 30
0.0
 11
124.3176779999999
 21
267.700895
 31
0.0
  0
ARC
  5
A6C8
330
A449
100
AcDbEntity
  8
1
  6
Continuous
100
AcDbCircle
 10
137.5339489999997
 20
153.700895
 30
0.0
 40
25.0
100
AcDbArc
 50
98.41733300000001
 51
126.659096
  0
ARC
  5
A6C9
330
A449
100
AcDbEntity
  8
1
  6
Continuous
100
AcDbCircle
 10
137.5339489999997
 20
153.700895
 30
0.0
 40
20.450001
100
AcDbArc
 50
102.16601
 51
122.2929679999999
  0
LINE
  5
A6CD
330
A449
100
AcDbEntity
  8
1
  6
Continuous
100
AcDbLine
 10
119.121431
 20
144.802478
 30
0.0
 11
127.524157
 21
149.6537919999999
 31
0.0
  0
LINE
  5
A6CE
330
A449
100
AcDbEntity
  8
1
  6
Continuous
100
AcDbLine
 10
120.621431
 20
142.204403
 30
0.0
 11
129.546249
 21
147.357146
 31
0.0
  0
ARC
  5
A6CF
330
A449
100
AcDbEntity
  8
1
  6
Continuous
100
AcDbCircle
 10
162.5339489999998
 20
257.200895
 30
0.0
 40
50.0
100
AcDbArc
 50
169.7981879999999
 51
190.1999899999999
  0
ARC
  5
A6D0
330
A449
100
AcDbEntity
  8
1
  6
Continuous
100
AcDbCircle
 10
115.292547
 20
248.700895
 30
0.0
 40
2.0
100
AcDbArc
 50
190.1999299999999
 51
270.00002
  0
ARC
  5
A6D1
330
A449
100
AcDbEntity
  8
1
  6
Continuous
100
AcDbCircle
 10
115.292547
 20
265.700895
 30
0.0
 40
2.0
100
AcDbArc
 50
90.00005499999994
 51
169.80014
  0
ARC
  5
A6D2
330
A449
100
AcDbEntity
  8
1
  6
Continuous
100
AcDbCircle
 10
60.533949
 20
159.700895
 30
0.0
 40
0.5
100
AcDbArc
 50
0.000055
 51
90.000037
  0
LINE
  5
A6D3
330
A449
100
AcDbEntity
  8
1
  6
Continuous
100
AcDbLine
 10
38.53394899999999
 20
175.9422969999999
 30
0.0
 11
38.53394899999999
 21
131.4594909999997
 31
0.0
  0
LINE
  5
A6D4
330
A449
100
AcDbEntity
  8
1
  6
Continuous
100
AcDbLine
 10
59.533949
 20
175.9422969999999
 30
0.0
 11
59.533949
 21
131.4594909999997
 31
0.0
  0
ARC
  5
A6D5
330
A449
100
AcDbEntity
  8
1
  6
Continuous
100
AcDbCircle
 10
49.033949
 20
178.700895
 30
0.0
 40
50.0
100
AcDbArc
 50
259.8000099999998
 51
280.2018119999999
  0
ARC
  5
A6D6
330
A449
100
AcDbEntity
  8
1
  6
Continuous
100
AcDbCircle
 10
40.53394899999999
 20
131.4594929999999
 30
0.0
 40
2.0
100
AcDbArc
 50
179.9999799999999
 51
259.80007
  0
ARC
  5
A6D7
330
A449
100
AcDbEntity
  8
1
  6
Continuous
100
AcDbCircle
 10
57.53394899999999
 20
131.4594929999999
 30
0.0
 40
2.0
100
AcDbArc
 50
280.19986
 51
359.99995
  0
LINE
  5
A6D8
330
A449
100
AcDbEntity
  8
1
  6
Continuous
100
AcDbLine
 10
61.033949
 20
159.700895
 30
0.0
 11
61.033949
 21
147.700894
 31
0.0
  0
ARC
  5
A6D9
330
A449
100
AcDbEntity
  8
1
  6
Continuous
100
AcDbCircle
 10
60.533949
 20
147.700895
 30
0.0
 40
0.5
100
AcDbArc
 50
269.9999599999998
 51
359.99995
  0
LINE
  5
A6DA
330
A449
100
AcDbEntity
  8
1
  6
Continuous
100
AcDbLine
 10
60.6192
 20
147.208215
 30
0.0
 11
59.53394499999999
 21
147.0204349999999
 31
0.0
  0
ARC
  5
A6DB
330
A449
100
AcDbEntity
  8
1
  6
Continuous
100
AcDbCircle
 10
49.033949
 20
128.700895
 30
0.0
 40
50.0
100
AcDbArc
 50
79.79818799999998
 51
100.1999899999999
  0
ARC
  5
A6DC
330
A449
100
AcDbEntity
  8
1
  6
Continuous
100
AcDbCircle
 10
40.53394899999999
 20
175.9422969999999
 30
0.0
 40
2.0
100
AcDbArc
 50
100.19993
 51
180.00002
  0
ARC
  5
A6DD
330
A449
100
AcDbEntity
  8
1
  6
Continuous
100
AcDbCircle
 10
57.53394899999999
 20
175.9422969999999
 30
0.0
 40
2.0
100
AcDbArc
 50
0.000055
 51
79.80014
  0
LINE
  5
A6DE
330
A449
100
AcDbEntity
  8
1
  6
Continuous
100
AcDbLine
 10
60.6192
 20
160.193574
 30
0.0
 11
59.53394499999999
 21
160.3813539999999
 31
0.0
  0
LINE
  5
A6DF
330
A449
100
AcDbEntity
  8
1
  6
Continuous
100
AcDbLine
 10
245.0339490000001
 20
159.700895
 30
0.0
 11
245.0339490000001
 21
147.700894
 31
0.0
  0
LINE
  5
A6E0
330
A449
100
AcDbEntity
  8
1
  6
Continuous
100
AcDbLine
 10
267.533949
 20
175.9422969999999
 30
0.0
 11
267.533949
 21
131.4594909999997
 31
0.0
  0
LINE
  5
A6E1
330
A449
100
AcDbEntity
  8
1
  6
Continuous
100
AcDbLine
 10
246.533949
 20
175.9422969999999
 30
0.0
 11
246.533949
 21
131.4594909999997
 31
0.0
  0
ARC
  5
A6E2
330
A449
100
AcDbEntity
  8
1
  6
Continuous
100
AcDbCircle
 10
265.533949
 20
131.4594929999999
 30
0.0
 40
2.0
100
AcDbArc
 50
280.19986
 51
359.99995
  0
ARC
  5
A6E3
330
A449
100
AcDbEntity
  8
1
  6
Continuous
100
AcDbCircle
 10
248.533949
 20
131.4594929999999
 30
0.0
 40
2.0
100
AcDbArc
 50
179.9999799999999
 51
259.80007
  0
ARC
  5
A6E4
330
A449
100
AcDbEntity
  8
1
  6
Continuous
100
AcDbCircle
 10
257.033949
 20
178.700895
 30
0.0
 40
50.0
100
AcDbArc
 50
259.8000099999998
 51
280.2018119999999
  0
LINE
  5
A6E5
330
A449
100
AcDbEntity
  8
1
  6
Continuous
100
AcDbLine
 10
245.4486979999999
 20
147.2082139999999
 30
0.0
 11
246.533949
 21
147.0204339999999
 31
0.0
  0
ARC
  5
A6E6
330
A449
100
AcDbEntity
  8
1
  6
Continuous
100
AcDbCircle
 10
245.533949
 20
147.700895
 30
0.0
 40
0.5
100
AcDbArc
 50
179.9999799999999
 51
269.99997
  0
ARC
  5
A6E7
330
A449
100
AcDbEntity
  8
1
  6
Continuous
100
AcDbCircle
 10
257.033949
 20
128.700895
 30
0.0
 40
50.0
100
AcDbArc
 50
79.79818799999998
 51
100.1999899999999
  0
LINE
  5
A6E8
330
A449
100
AcDbEntity
  8
1
  6
Continuous
100
AcDbLine
 10
245.4486979999999
 20
160.193575
 30
0.0
 11
246.533949
 21
160.381355
 31
0.0
  0
ARC
  5
A6E9
330
A449
100
AcDbEntity
  8
1
  6
Continuous
100
AcDbCircle
 10
248.533949
 20
175.9422969999999
 30
0.0
 40
2.0
100
AcDbArc
 50
100.19993
 51
180.00002
  0
ARC
  5
A6EA
330
A449
100
AcDbEntity
  8
1
  6
Continuous
100
AcDbCircle
 10
245.533949
 20
159.700895
 30
0.0
 40
0.5
100
AcDbArc
 50
90.000037
 51
180.00002
  0
ARC
  5
A6EB
330
A449
100
AcDbEntity
  8
1
  6
Continuous
100
AcDbCircle
 10
265.533949
 20
175.9422969999999
 30
0.0
 40
2.0
100
AcDbArc
 50
0.000055
 51
79.80014
  0
ARC
  5
A6EC
330
A449
100
AcDbEntity
  8
1
  6
Continuous
100
AcDbCircle
 10
115.292547
 20
56.70089499999999
 30
0.0
 40
2.0
100
AcDbArc
 50
190.1999299999999
 51
270.00002
  0
ARC
  5
A6ED
330
A449
100
AcDbEntity
  8
1
  6
Continuous
100
AcDbCircle
 10
115.292547
 20
73.70089499999997
 30
0.0
 40
2.0
100
AcDbArc
 50
90.00005499999994
 51
169.80014
  0
ARC
  5
A6EE
330
A449
100
AcDbEntity
  8
1
  6
Continuous
100
AcDbCircle
 10
162.5339489999998
 20
65.20089499999999
 30
0.0
 40
50.0
100
AcDbArc
 50
169.7981879999999
 51
190.1999899999999
  0
LINE
  5
A6EF
330
A449
100
AcDbEntity
  8
1
  6
Continuous
100
AcDbLine
 10
115.292547
 20
54.700895
 30
0.0
 11
159.7753519999999
 21
54.700895
 31
0.0
  0
LINE
  5
A6F0
330
A449
100
AcDbEntity
  8
1
  6
Continuous
100
AcDbLine
 10
115.292547
 20
75.70089499999998
 30
0.0
 11
159.7753519999999
 21
75.70089499999998
 31
0.0
  0
LINE
  5
A6F1
330
A449
100
AcDbEntity
  8
1
  6
Continuous
100
AcDbLine
 10
131.533949
 20
77.20089499999997
 30
0.0
 11
143.533949
 21
77.20089499999997
 31
0.0
  0
LINE
  5
A6F2
330
A449
100
AcDbEntity
  8
1
  6
Continuous
100
AcDbLine
 10
131.0412689999997
 20
76.786146
 30
0.0
 11
130.853489
 21
75.700891
 31
0.0
  0
ARC
  5
A6F3
330
A449
100
AcDbEntity
  8
1
  6
Continuous
100
AcDbCircle
 10
131.533949
 20
76.70089499999997
 30
0.0
 40
0.5
100
AcDbArc
 50
90.00005499999994
 51
180.000037
  0
ARC
  5
A6F4
330
A449
100
AcDbEntity
  8
1
  6
Continuous
100
AcDbCircle
 10
143.533949
 20
76.70089499999997
 30
0.0
 40
0.5
100
AcDbArc
 50
359.9999599999999
 51
89.99995000000001
  0
LINE
  5
A6F5
330
A449
100
AcDbEntity
  8
1
  6
Continuous
100
AcDbLine
 10
144.0266279999999
 20
76.786146
 30
0.0
 11
144.214408
 21
75.700891
 31
0.0
  0
ARC
  5
A6F6
330
A449
100
AcDbEntity
  8
1
  6
Continuous
100
AcDbCircle
 10
112.5339489999997
 20
65.20089499999999
 30
0.0
 40
50.0
100
AcDbArc
 50
349.80001
 51
10.201812
  0
ARC
  5
A6F7
330
A449
100
AcDbEntity
  8
1
  6
Continuous
100
AcDbCircle
 10
159.7753509999997
 20
56.70089499999999
 30
0.0
 40
2.0
100
AcDbArc
 50
269.99998
 51
349.8000699999999
  0
ARC
  5
A6F8
330
A449
100
AcDbEntity
  8
1
  6
Continuous
100
AcDbCircle
 10
159.7753509999997
 20
73.70089499999997
 30
0.0
 40
2.0
100
AcDbArc
 50
10.19986
 51
89.99995000000001
  0
ARC
  5
A6F9
330
A449
100
AcDbEntity
  8
1
  6
Continuous
100
AcDbCircle
 10
137.5339489999997
 20
153.700895
 30
0.0
 40
20.450001
100
AcDbArc
 50
348.351068
 51
33.29683699999999
  0
ARC
  5
A6FA
330
A449
100
AcDbEntity
  8
1
  6
Continuous
100
AcDbCircle
 10
137.5339489999997
 20
153.700895
 30
0.0
 40
25.0
100
AcDbArc
 50
343.984927
 51
37.08901199999999
  0
ARC
  5
A6FB
330
A449
100
AcDbEntity
  8
1
  6
Continuous
100
AcDbCircle
 10
137.5339489999997
 20
153.700895
 30
0.0
 40
25.0
100
AcDbArc
 50
148.0946199999999
 51
322.54941
  0
ARC
  5
A6FC
330
A449
100
AcDbEntity
  8
1
  6
Continuous
100
AcDbCircle
 10
137.5339489999997
 20
153.700895
 30
0.0
 40
20.450001
100
AcDbArc
 50
155.284469
 51
315.35956
  0
ARC
  5
A6FD
330
A449
100
AcDbEntity
  8
1
  6
Continuous
100
AcDbCircle
 10
376.533949
 20
153.700895
 30
0.0
 40
25.0
100
AcDbArc
 50
142.9109879999998
 51
81.582667
  0
ARC
  5
A6FE
330
A449
100
AcDbEntity
  8
1
  6
Continuous
100
AcDbCircle
 10
376.533949
 20
153.700895
 30
0.0
 40
20.450001
100
AcDbArc
 50
146.7031629999999
 51
77.83399
  0
LINE
  5
A6FF
330
A449
100
AcDbEntity
  8
1
  6
Continuous
100
AcDbLine
 10
359.6214309999999
 20
142.204403
 30
0.0
 11
363.488567
 21
144.437093
 31
0.0
  0
LINE
  5
A700
330
A449
100
AcDbEntity
  8
1
  6
Continuous
100
AcDbLine
 10
358.121431
 20
144.802478
 30
0.0
 11
361.9885679999999
 21
147.0351699999999
 31
0.0
  0
LINE
  5
A701
330
A449
100
AcDbEntity
  8
1
  6
Continuous
100
AcDbLine
 10
394.946462
 20
144.8024699999997
 30
0.0
 11
391.0793269999999
 21
147.0351629999998
 31
0.0
  0
LINE
  5
A702
330
A449
100
AcDbEntity
  8
1
  6
Continuous
100
AcDbLine
 10
393.4464619999998
 20
142.204394
 30
0.0
 11
389.5793259999999
 21
144.4370879999999
 31
0.0
  0
LINE
  5
A703
330
A449
100
AcDbEntity
  8
1
  6
Continuous
100
AcDbLine
 10
130.8580189999997
 20
50.20088799999999
 30
0.0
 11
126.5068709999999
 21
50.20088799999999
 31
0.0
  0
LINE
  5
A704
330
A449
100
AcDbEntity
  8
1
  6
Continuous
100
AcDbLine
 10
126.0768639999999
 20
54.20089499999999
 30
0.0
 11
127.549758
 21
50.20088799999999
 31
0.0
  0
LINE
  5
A705
330
A449
100
AcDbEntity
  8
1
  6
Continuous
100
AcDbLine
 10
125.0339769999999
 20
54.20089499999999
 30
0.0
 11
126.5068709999999
 21
50.20088799999999
 31
0.0
  0
LINE
  5
A706
330
A449
100
AcDbEntity
  8
1
  6
Continuous
100
AcDbLine
 10
127.844626
 20
54.20089499999999
 30
0.0
 11
130.533949
 21
50.63106099999998
 31
0.0
  0
LINE
  5
A707
330
A449
100
AcDbEntity
  8
1
  6
Continuous
100
AcDbLine
 10
145.5363189999999
 20
50.20088799999999
 30
0.0
 11
147.740566
 21
50.20088799999999
 31
0.0
  0
LINE
  5
A708
330
A449
100
AcDbEntity
  8
1
  6
Continuous
100
AcDbLine
 10
150.033977
 20
54.20089499999999
 30
0.0
 11
147.740566
 21
50.20088799999999
 31
0.0
  0
LINE
  5
A709
330
A449
100
AcDbEntity
  8
1
  6
Continuous
100
AcDbLine
 10
146.2909119999999
 20
54.20089499999999
 30
0.0
 11
144.3930419999998
 21
50.20091
 31
0.0
  0
LINE
  5
A70A
330
A449
100
AcDbEntity
  8
1
  6
Continuous
100
AcDbLine
 10
145.5363189999999
 20
54.20089499999999
 30
0.0
 11
143.6409789999999
 21
50.20091
 31
0.0
  0
ENDSEC
  0
SECTION
  2
OBJECTS
  0
DICTIONARY
  5
A437
330
0
100
AcDbDictionary
281
     1
  3
ACAD_CIP_PREVIOUS_PRODUCT_INFO
350
A78D
  3
ACAD_COLOR
350
A76F
  3
ACAD_DETAILVIEWSTYLE
350
A788
  3
ACAD_GROUP
350
A438
  3
ACAD_LAYOUT
350
A444
  3
ACAD_MATERIAL
350
A73D
  3
ACAD_MLEADERSTYLE
350
A784
  3
ACAD_MLINESTYLE
350
A441
  3
ACAD_PLOTSETTINGS
350
A443
  3
ACAD_PLOTSTYLENAME
350
A73B
  3
ACAD_SCALELIST
350
A772
  3
ACAD_SECTIONVIEWSTYLE
350
A786
  3
ACAD_TABLESTYLE
350
A770
  3
ACAD_VISUALSTYLE
350
A756
  3
ACDB_RECOMPOSE_DATA
350
A7AB
  3
AcDbVariableDictionary
350
A79E
  3
DWGPROPS
350
A7AC
  0
DICTIONARY
  5
A78E
330
A43B
100
AcDbDictionary
280
     1
281
     1
  3
ADSK_XREC_LAYER_RECONCILED
360
A78F
  0
DICTIONARY
  5
A790
330
A452
100
AcDbDictionary
280
     1
281
     1
  3
ADSK_XREC_LAYER_RECONCILED
360
A791
  0
DICTIONARY
  5
A792
330
A453
100
AcDbDictionary
280
     1
281
     1
  3
ADSK_XREC_LAYER_RECONCILED
360
A793
  0
DICTIONARY
  5
A794
330
A454
100
AcDbDictionary
280
     1
281
     1
  3
ADSK_XREC_LAYER_RECONCILED
360
A795
  0
DICTIONARY
  5
A796
330
A455
100
AcDbDictionary
280
     1
281
     1
  3
ADSK_XREC_LAYER_RECONCILED
360
A797
  0
DICTIONARY
  5
A798
330
A456
100
AcDbDictionary
280
     1
281
     1
  3
ADSK_XREC_LAYER_RECONCILED
360
A799
  0
DICTIONARY
  5
A79A
330
A457
100
AcDbDictionary
280
     1
281
     1
  3
ADSK_XREC_LAYER_RECONCILED
360
A79B
  0
DICTIONARY
  5
A79C
330
A458
100
AcDbDictionary
280
     1
281
     1
  3
ADSK_XREC_LAYER_RECONCILED
360
A79D
  0
DICTIONARY
  5
A71A
330
A449
100
AcDbDictionary
281
     1
  3
ACAD_LAYOUTSELFREF
350
A737
  0
DICTIONARY
  5
A718
330
A445
100
AcDbDictionary
281
     1
  3
ACAD_LAYOUTSELFREF
350
A736
  0
XRECORD
  5
A78D
102
{ACAD_REACTORS
330
A437
102
}
330
A437
100
AcDbXrecord
280
     1
300
ACDLT
300
2014
300
ACDLT_F_S
  0
DICTIONARY
  5
A76F
102
{ACAD_REACTORS
330
A437
102
}
330
A437
100
AcDbDictionary
281
     1
  0
DICTIONARY
  5
A788
102
{ACAD_REACTORS
330
A437
102
}
330
A437
100
AcDbDictionary
281
     1
  3
Imperial24
350
A789
  0
DICTIONARY
  5
A438
102
{ACAD_REACTORS
330
A437
102
}
330
A437
100
AcDbDictionary
281
     1
  0
DICTIONARY
  5
A444
102
{ACAD_REACTORS
330
A437
102
}
330
A437
100
AcDbDictionary
281
     1
  3
Model
350
A78A
  3
レイアウト1
350
A78B
  0
DICTIONARY
  5
A73D
102
{ACAD_REACTORS
330
A437
102
}
330
A437
100
AcDbDictionary
281
     1
  3
ByBlock
350
A746
  3
ByLayer
350
A73E
  3
Global
350
A74E
  0
DICTIONARY
  5
A784
102
{ACAD_REACTORS
330
A437
102
}
330
A437
100
AcDbDictionary
281
     1
  3
Standard
350
A785
  0
DICTIONARY
  5
A441
102
{ACAD_REACTORS
330
A437
102
}
330
A437
100
AcDbDictionary
281
     1
  3
STANDARD
350
A442
  0
DICTIONARY
  5
A443
102
{ACAD_REACTORS
330
A437
102
}
330
A437
100
AcDbDictionary
281
     1
  0
ACDBDICTIONARYWDFLT
  5
A73B
102
{ACAD_REACTORS
330
A437
102
}
330
A437
100
AcDbDictionary
281
     1
  3
Normal
350
A73C
100
AcDbDictionaryWithDefault
340
A73C
  0
DICTIONARY
  5
A772
102
{ACAD_REACTORS
330
A437
102
}
330
A437
100
AcDbDictionary
281
     1
  3
A0
350
A773
  3
A1
350
A774
  3
A2
350
A775
  3
A3
350
A776
  3
A4
350
A777
  3
A5
350
A778
  3
A6
350
A779
  3
A7
350
A77A
  3
A8
350
A77B
  3
A9
350
A77C
  3
B0
350
A77D
  3
B1
350
A77E
  3
B2
350
A77F
  3
B3
350
A780
  3
B4
350
A781
  3
B5
350
A782
  3
B6
350
A783
  0
DICTIONARY
  5
A786
102
{ACAD_REACTORS
330
A437
102
}
330
A437
100
AcDbDictionary
281
     1
  3
Imperial24
350
A787
  0
DICTIONARY
  5
A770
102
{ACAD_REACTORS
330
A437
102
}
330
A437
100
AcDbDictionary
281
     1
  3
Standard
350
A771
  0
DICTIONARY
  5
A756
102
{ACAD_REACTORS
330
A437
102
}
330
A437
100
AcDbDictionary
281
     1
  3
2dWireframe
350
A75C
  3
Basic
350
A75B
  3
Brighten
350
A762
  3
ColorChange
350
A766
  3
Conceptual
350
A75F
  3
Dim
350
A761
  3
EdgeColorOff
350
A76E
  3
Facepattern
350
A765
  3
Flat
350
A757
  3
FlatWithEdges
350
A758
  3
Gouraud
350
A759
  3
GouraudWithEdges
350
A75A
  3
Hidden
350
A75E
  3
JitterOff
350
A76C
  3
Linepattern
350
A764
  3
OverhangOff
350
A76D
  3
Realistic
350
A760
  3
Shaded
350
A76B
  3
Shaded with edges
350
A76A
  3
Shades of Gray
350
A767
  3
Sketchy
350
A768
  3
Thicken
350
A763
  3
Wireframe
350
A75D
  3
X-Ray
350
A769
  0
XRECORD
  5
A7AB
102
{ACAD_REACTORS
330
A437
102
}
330
A437
100
AcDbXrecord
280
     1
 90
        1
330
A771
  0
DICTIONARY
  5
A79E
102
{ACAD_REACTORS
330
A437
102
}
330
A437
100
AcDbDictionary
281
     1
  3
CANNOSCALE
350
A7A3
  3
CMLEADERSTYLE
350
A7A0
  3
CTABLESTYLE
350
A79F
  3
CVIEWDETAILSTYLE
350
A7A1
  3
CVIEWSECTIONSTYLE
350
A7A2
  3
DIMASSOC
350
A7A6
  3
INDEXCTL
350
A7A5
  3
SORTENTS
350
A7A4
  3
XCLIPFRAME
350
A7A7
  0
XRECORD
  5
A7AC
102
{ACAD_REACTORS
330
A437
102
}
330
A437
100
AcDbXrecord
280
     1
  1
DWGPROPS COOKIE
  2

  3

  4

  6

  7

  8
Yoshitsune
  9

300
=
301
=
302
=
303
=
304
=
305
=
306
=
307
=
308
=
309
=
 40
0.042364212962963
 41
2451301.430973958
 42
2457192.689952697
  1

 90
        0
  0
XRECORD
  5
A78F
102
{ACAD_REACTORS
330
A78E
102
}
330
A78E
100
AcDbXrecord
280
     1
290
     1
  0
XRECORD
  5
A791
102
{ACAD_REACTORS
330
A790
102
}
330
A790
100
AcDbXrecord
280
     1
290
     1
  0
XRECORD
  5
A793
102
{ACAD_REACTORS
330
A792
102
}
330
A792
100
AcDbXrecord
280
     1
290
     1
  0
XRECORD
  5
A795
102
{ACAD_REACTORS
330
A794
102
}
330
A794
100
AcDbXrecord
280
     1
290
     1
  0
XRECORD
  5
A797
102
{ACAD_REACTORS
330
A796
102
}
330
A796
100
AcDbXrecord
280
     1
290
     1
  0
XRECORD
  5
A799
102
{ACAD_REACTORS
330
A798
102
}
330
A798
100
AcDbXrecord
280
     1
290
     1
  0
XRECORD
  5
A79B
102
{ACAD_REACTORS
330
A79A
102
}
330
A79A
100
AcDbXrecord
280
     1
290
     1
  0
XRECORD
  5
A79D
102
{ACAD_REACTORS
330
A79C
102
}
330
A79C
100
AcDbXrecord
280
     1
290
     1
  0
XRECORD
  5
A737
102
{ACAD_REACTORS
330
A71A
102
}
330
A71A
100
AcDbXrecord
280
     1
340
A449
  0
XRECORD
  5
A736
102
{ACAD_REACTORS
330
A718
102
}
330
A718
100
AcDbXrecord
280
     1
340
A445
  0
ACDBDETAILVIEWSTYLE
  5
A789
102
{ACAD_XDICTIONARY
360
A7E4
102
}
102
{ACAD_REACTORS
330
A788
102
}
330
A788
100
AcDbModelDocViewStyle
 70
     0
  3
Imperial24
290
     0
100
AcDbDetailViewStyle
 70
     0
 71
     0
 90
        3
 71
     1
340
A43C
 40
0.24
340
0
 40
0.24
300

 40
0.36
280
     3
 71
     2
340
A440
 90
       25
 71
     3
340
A43C
 40
0.24
 90
        1
 40
0.75
 90
        1
300
%<\AcVar ViewType \f "%tc1">% %<\AcVar ViewDetailId>%\PSCALE %<\AcVar ViewScale \f "%sn">%
 71
     4
340
A440
 90
       25
340
A440
 90
       25
280
     0
  0
LAYOUT
  5
A78A
102
{ACAD_XDICTIONARY
360
A7E6
102
}
102
{ACAD_REACTORS
330
A444
102
}
330
A444
100
AcDbPlotSettings
  1

  2
Canon LBP9100C
  4

  6

 40
0.0
 41
0.0
 42
0.0
 43
0.0
 44
0.0
 45
0.0
 46
0.0
 47
0.0
 48
0.0
 49
0.0
140
0.0
141
0.0
142
1.0
143
1.0
 70
  1712
 72
     0
 73
     0
 74
     0
  7

 75
     0
147
1.0
148
0.0
149
0.0
100
AcDbLayout
  1
Model
 70
     1
 71
     0
 10
0.0
 20
0.0
 11
12.0
 21
9.0
 12
0.0
 22
0.0
 32
0.0
 14
0.0
 24
0.0
 34
0.0
 15
0.0
 25
0.0
 35
0.0
146
0.0
 13
0.0
 23
0.0
 33
0.0
 16
1.0
 26
0.0
 36
0.0
 17
0.0
 27
1.0
 37
0.0
 76
     0
330
A449
331
A735
  0
LAYOUT
  5
A78B
102
{ACAD_XDICTIONARY
360
A7E8
102
}
102
{ACAD_REACTORS
330
A444
102
}
330
A444
100
AcDbPlotSettings
  1

  2
Canon LBP9100C
  4

  6

 40
0.0
 41
0.0
 42
0.0
 43
0.0
 44
0.0
 45
0.0
 46
0.0
 47
0.0
 48
0.0
 49
0.0
140
0.0
141
0.0
142
1.0
143
1.0
 70
   688
 72
     0
 73
     0
 74
     5
  7

 75
    16
147
1.0
148
0.0
149
0.0
100
AcDbLayout
  1
レイアウト1
 70
     0
 71
     1
 10
0.0
 20
0.0
 11
420.0
 21
297.0
 12
0.0
 22
0.0
 32
0.0
 14
1.000000000000000E+20
 24
1.000000000000000E+20
 34
1.000000000000000E+20
 15
-1.000000000000000E+20
 25
-1.000000000000000E+20
 35
-1.000000000000000E+20
146
0.0
 13
0.0
 23
0.0
 33
0.0
 16
1.0
 26
0.0
 36
0.0
 17
0.0
 27
1.0
 37
0.0
 76
     0
330
A445
  0
MATERIAL
  5
A746
102
{ACAD_XDICTIONARY
360
A747
102
}
102
{ACAD_REACTORS
330
A73D
102
}
330
A73D
100
AcDbMaterial
  1
ByBlock
 72
     0
 43
0.0208333333333333
 43
0.0
 43
0.0
 43
0.0
 43
0.0
 43
0.0208333333333333
 43
0.0
 43
0.0
 43
0.0
 43
0.0
 43
1.0
 43
0.0
 43
0.0
 43
0.0
 43
0.0
 43
1.0
 77
     0
 47
0.0208333333333333
 47
0.0
 47
0.0
 47
0.0
 47
0.0
 47
0.0208333333333333
 47
0.0
 47
0.0
 47
0.0
 47
0.0
 47
1.0
 47
0.0
 47
0.0
 47
0.0
 47
0.0
 47
1.0
171
     0
 49
0.0208333333333333
 49
0.0
 49
0.0
 49
0.0
 49
0.0
 49
0.0208333333333333
 49
0.0
 49
0.0
 49
0.0
 49
0.0
 49
1.0
 49
0.0
 49
0.0
 49
0.0
 49
0.0
 49
1.0
175
     0
142
0.0208333333333333
142
0.0
142
0.0
142
0.0
142
0.0
142
0.0208333333333333
142
0.0
142
0.0
142
0.0
142
0.0
142
1.0
142
0.0
142
0.0
142
0.0
142
0.0
142
1.0
179
     0
144
0.0208333333333333
144
0.0
144
0.0
144
0.0
144
0.0
144
0.0208333333333333
144
0.0
144
0.0
144
0.0
144
0.0
144
1.0
144
0.0
144
0.0
144
0.0
144
0.0
144
1.0
147
0.0208333333333333
147
0.0
147
0.0
147
0.0
147
0.0
147
0.0208333333333333
147
0.0
147
0.0
147
0.0
147
0.0
147
1.0
147
0.0
147
0.0
147
0.0
147
0.0
147
1.0
  0
MATERIAL
  5
A73E
102
{ACAD_XDICTIONARY
360
A73F
102
}
102
{ACAD_REACTORS
330
A73D
102
}
330
A73D
100
AcDbMaterial
  1
ByLayer
 72
     0
 43
0.0208333333333333
 43
0.0
 43
0.0
 43
0.0
 43
0.0
 43
0.0208333333333333
 43
0.0
 43
0.0
 43
0.0
 43
0.0
 43
1.0
 43
0.0
 43
0.0
 43
0.0
 43
0.0
 43
1.0
 77
     0
 47
0.0208333333333333
 47
0.0
 47
0.0
 47
0.0
 47
0.0
 47
0.0208333333333333
 47
0.0
 47
0.0
 47
0.0
 47
0.0
 47
1.0
 47
0.0
 47
0.0
 47
0.0
 47
0.0
 47
1.0
171
     0
 49
0.0208333333333333
 49
0.0
 49
0.0
 49
0.0
 49
0.0
 49
0.0208333333333333
 49
0.0
 49
0.0
 49
0.0
 49
0.0
 49
1.0
 49
0.0
 49
0.0
 49
0.0
 49
0.0
 49
1.0
175
     0
142
0.0208333333333333
142
0.0
142
0.0
142
0.0
142
0.0
142
0.0208333333333333
142
0.0
142
0.0
142
0.0
142
0.0
142
1.0
142
0.0
142
0.0
142
0.0
142
0.0
142
1.0
179
     0
144
0.0208333333333333
144
0.0
144
0.0
144
0.0
144
0.0
144
0.0208333333333333
144
0.0
144
0.0
144
0.0
144
0.0
144
1.0
144
0.0
144
0.0
144
0.0
144
0.0
144
1.0
147
0.0208333333333333
147
0.0
147
0.0
147
0.0
147
0.0
147
0.0208333333333333
147
0.0
147
0.0
147
0.0
147
0.0
147
1.0
147
0.0
147
0.0
147
0.0
147
0.0
147
1.0
  0
MATERIAL
  5
A74E
102
{ACAD_XDICTIONARY
360
A74F
102
}
102
{ACAD_REACTORS
330
A73D
102
}
330
A73D
100
AcDbMaterial
  1
Global
 72
     0
 43
0.0208333333333333
 43
0.0
 43
0.0
 43
0.0
 43
0.0
 43
0.0208333333333333
 43
0.0
 43
0.0
 43
0.0
 43
0.0
 43
1.0
 43
0.0
 43
0.0
 43
0.0
 43
0.0
 43
1.0
 77
     0
 47
0.0208333333333333
 47
0.0
 47
0.0
 47
0.0
 47
0.0
 47
0.0208333333333333
 47
0.0
 47
0.0
 47
0.0
 47
0.0
 47
1.0
 47
0.0
 47
0.0
 47
0.0
 47
0.0
 47
1.0
171
     0
 49
0.0208333333333333
 49
0.0
 49
0.0
 49
0.0
 49
0.0
 49
0.0208333333333333
 49
0.0
 49
0.0
 49
0.0
 49
0.0
 49
1.0
 49
0.0
 49
0.0
 49
0.0
 49
0.0
 49
1.0
175
     0
142
0.0208333333333333
142
0.0
142
0.0
142
0.0
142
0.0
142
0.0208333333333333
142
0.0
142
0.0
142
0.0
142
0.0
142
1.0
142
0.0
142
0.0
142
0.0
142
0.0
142
1.0
179
     0
144
0.0208333333333333
144
0.0
144
0.0
144
0.0
144
0.0
144
0.0208333333333333
144
0.0
144
0.0
144
0.0
144
0.0
144
1.0
144
0.0
144
0.0
144
0.0
144
0.0
144
1.0
147
0.0208333333333333
147
0.0
147
0.0
147
0.0
147
0.0
147
0.0208333333333333
147
0.0
147
0.0
147
0.0
147
0.0
147
1.0
147
0.0
147
0.0
147
0.0
147
0.0
147
1.0
  0
MLEADERSTYLE
  5
A785
102
{ACAD_REACTORS
330
A784
102
}
330
A784
100
AcDbMLeaderStyle
170
     2
171
     1
172
     0
 90
        2
 40
0.0
 41
0.0
173
     1
 91
-1056964608
340
A43E
 92
       -2
290
     1
 42
0.09
291
     1
 43
0.36
  3
Standard
 44
0.18
300

342
A43C
174
     1
178
     6
175
     1
176
     0
 93
-1056964608
 45
0.18
292
     0
297
     0
 46
0.18
 94
-1056964608
 47
1.0
 49
1.0
140
1.0
293
     1
141
0.0
294
     1
177
     0
142
1.0
295
     0
296
     0
143
0.125
1001
ACAD_MLEADERVER
1070
     2
  0
MLINESTYLE
  5
A442
102
{ACAD_REACTORS
330
A441
102
}
330
A441
100
AcDbMlineStyle
  2
STANDARD
 70
     0
  3

 62
   256
 51
90.0
 52
90.0
 71
     2
 49
0.5
 62
   256
  6
BYLAYER
 49
-0.5
 62
   256
  6
BYLAYER
  0
ACDBPLACEHOLDER
  5
A73C
102
{ACAD_REACTORS
330
A73B
102
}
330
A73B
  0
SCALE
  5
A773
102
{ACAD_REACTORS
330
A772
102
}
330
A772
100
AcDbScale
 70
     0
300
1:1
140
1.0
141
1.0
290
     1
  0
SCALE
  5
A774
102
{ACAD_REACTORS
330
A772
102
}
330
A772
100
AcDbScale
 70
     0
300
1/128" = 1'-0"
140
0.0078125
141
12.0
290
     0
  0
SCALE
  5
A775
102
{ACAD_REACTORS
330
A772
102
}
330
A772
100
AcDbScale
 70
     0
300
1/64" = 1'-0"
140
0.015625
141
12.0
290
     0
  0
SCALE
  5
A776
102
{ACAD_REACTORS
330
A772
102
}
330
A772
100
AcDbScale
 70
     0
300
1/32" = 1'-0"
140
0.03125
141
12.0
290
     0
  0
SCALE
  5
A777
102
{ACAD_REACTORS
330
A772
102
}
330
A772
100
AcDbScale
 70
     0
300
1/16" = 1'-0"
140
0.0625
141
12.0
290
     0
  0
SCALE
  5
A778
102
{ACAD_REACTORS
330
A772
102
}
330
A772
100
AcDbScale
 70
     0
300
3/32" = 1'-0"
140
0.09375
141
12.0
290
     0
  0
SCALE
  5
A779
102
{ACAD_REACTORS
330
A772
102
}
330
A772
100
AcDbScale
 70
     0
300
1/8" = 1'-0"
140
0.125
141
12.0
290
     0
  0
SCALE
  5
A77A
102
{ACAD_REACTORS
330
A772
102
}
330
A772
100
AcDbScale
 70
     0
300
3/16" = 1'-0"
140
0.1875
141
12.0
290
     0
  0
SCALE
  5
A77B
102
{ACAD_REACTORS
330
A772
102
}
330
A772
100
AcDbScale
 70
     0
300
1/4" = 1'-0"
140
0.25
141
12.0
290
     0
  0
SCALE
  5
A77C
102
{ACAD_REACTORS
330
A772
102
}
330
A772
100
AcDbScale
 70
     0
300
3/8" = 1'-0"
140
0.375
141
12.0
290
     0
  0
SCALE
  5
A77D
102
{ACAD_REACTORS
330
A772
102
}
330
A772
100
AcDbScale
 70
     0
300
1/2" = 1'-0"
140
0.5
141
12.0
290
     0
  0
SCALE
  5
A77E
102
{ACAD_REACTORS
330
A772
102
}
330
A772
100
AcDbScale
 70
     0
300
3/4" = 1'-0"
140
0.75
141
12.0
290
     0
  0
SCALE
  5
A77F
102
{ACAD_REACTORS
330
A772
102
}
330
A772
100
AcDbScale
 70
     0
300
1" = 1'-0"
140
1.0
141
12.0
290
     0
  0
SCALE
  5
A780
102
{ACAD_REACTORS
330
A772
102
}
330
A772
100
AcDbScale
 70
     0
300
1-1/2" = 1'-0"
140
1.5
141
12.0
290
     0
  0
SCALE
  5
A781
102
{ACAD_REACTORS
330
A772
102
}
330
A772
100
AcDbScale
 70
     0
300
3" = 1'-0"
140
3.0
141
12.0
290
     0
  0
SCALE
  5
A782
102
{ACAD_REACTORS
330
A772
102
}
330
A772
100
AcDbScale
 70
     0
300
6" = 1'-0"
140
6.0
141
12.0
290
     0
  0
SCALE
  5
A783
102
{ACAD_REACTORS
330
A772
102
}
330
A772
100
AcDbScale
 70
     0
300
1'-0" = 1'-0"
140
12.0
141
12.0
290
     0
  0
ACDBSECTIONVIEWSTYLE
  5
A787
102
{ACAD_XDICTIONARY
360
A7E2
102
}
102
{ACAD_REACTORS
330
A786
102
}
330
A786
100
AcDbModelDocViewStyle
 70
     0
  3
Imperial24
290
     0
100
AcDbSectionViewStyle
 70
     0
 71
     0
 90
       78
 71
     1
340
A43C
 40
0.24
340
0
340
0
 40
0.24
300
I, O, Q, S, X, Z
 40
0.48
 90
        3
 40
0.18
 90
        1
 71
     2
340
A440
 90
       25
340
A440
 90
       50
 40
0.24
 40
0.0
 40
0.24
 71
     3
340
A43C
 40
0.24
 90
        1
 40
0.75
 90
        1
300
%<\AcVar ViewType \f "%tc1">% %<\AcVar ViewSectionStartId>%-%<\AcVar ViewSectionEndId>%\PSCALE %<\AcVar ViewScale \f "%sn">%
 71
     4
300
ANSI31
 40
1.0
 90
        0
290
     0
290
     0
 90
        6
 40
0.0
 40
1.570796326794896
 40
0.2617993877991494
 40
1.308996938995747
 40
-0.2617993877991494
 40
1.832595714594046
  0
TABLESTYLE
  5
A771
102
{ACAD_XDICTIONARY
360
A7A9
102
}
102
{ACAD_REACTORS
330
A770
102
}
330
A770
100
AcDbTableStyle
  3
Standard
 70
     0
 71
     0
 40
0.06
 41
0.06
280
     0
281
     0
  7
STANDARD
140
0.18
170
     2
 62
     0
 63
     7
283
     0
274
    -2
284
     1
 64
     0
275
    -2
285
     1
 65
     0
276
    -2
286
     1
 66
     0
277
    -2
287
     1
 67
     0
278
    -2
288
     1
 68
     0
279
    -2
289
     1
 69
     0
  7
STANDARD
140
0.25
170
     5
 62
     0
 63
     7
283
     0
274
    -2
284
     1
 64
     0
275
    -2
285
     1
 65
     0
276
    -2
286
     1
 66
     0
277
    -2
287
     1
 67
     0
278
    -2
288
     1
 68
     0
279
    -2
289
     1
 69
     0
  7
STANDARD
140
0.18
170
     5
 62
     0
 63
     7
283
     0
274
    -2
284
     1
 64
     0
275
    -2
285
     1
 65
     0
276
    -2
286
     1
 66
     0
277
    -2
287
     1
 67
     0
278
    -2
288
     1
 68
     0
279
    -2
289
     1
 69
     0
  0
VISUALSTYLE
  5
A75C
102
{ACAD_XDICTIONARY
360
A7BA
102
}
102
{ACAD_REACTORS
330
A756
102
}
330
A756
100
AcDbVisualStyle
  2
2dWireframe
 70
     4
 71
     0
 72
     2
 73
     0
 90
        0
 40
-0.6
 41
-30.0
 62
     5
 63
     7
 74
     1
 91
        4
 64
     7
 65
   257
 75
     1
175
     1
 42
1.0
 92
        0
 66
   257
 43
1.0
 76
     1
 77
     6
 78
     2
 67
     7
 79
     5
170
     0
171
     0
290
     0
174
     0
 93
        1
 44
0.0
173
     0
291
     0
 45
0.0
1001
ACAD
1000
AcDbSavedByObjectVersion
1070
     0
  0
VISUALSTYLE
  5
A75B
102
{ACAD_XDICTIONARY
360
A7B8
102
}
102
{ACAD_REACTORS
330
A756
102
}
330
A756
100
AcDbVisualStyle
  2
Basic
 70
     7
 71
     1
 72
     0
 73
     1
 90
        0
 40
-0.6
 41
-30.0
 62
     5
 63
     7
 74
     0
 91
        4
 64
     7
 65
   257
 75
     1
175
     1
 42
1.0
 92
        8
 66
     7
 43
1.0
 76
     1
 77
     6
 78
     2
 67
     7
 79
     5
170
     0
171
     0
290
     0
174
     0
 93
        1
 44
0.0
173
     0
291
     1
 45
0.0
1001
ACAD
1000
AcDbSavedByObjectVersion
1070
     0
  0
VISUALSTYLE
  5
A762
102
{ACAD_XDICTIONARY
360
A7C6
102
}
102
{ACAD_REACTORS
330
A756
102
}
330
A756
100
AcDbVisualStyle
  2
Brighten
 70
    12
 71
     2
 72
     2
 73
     0
 90
        0
 40
-0.6
 41
-30.0
 62
     5
 63
     7
 74
     1
 91
        4
 64
     7
 65
   257
 75
     1
175
     1
 42
1.0
 92
        8
 66
     7
 43
1.0
 76
     1
 77
     6
 78
     2
 67
     7
 79
     5
170
     0
171
     0
290
     0
174
     0
 93
        1
 44
50.0
173
     0
291
     1
 45
0.0
1001
ACAD
1000
AcDbSavedByObjectVersion
1070
     0
  0
VISUALSTYLE
  5
A766
102
{ACAD_XDICTIONARY
360
A7CE
102
}
102
{ACAD_REACTORS
330
A756
102
}
330
A756
100
AcDbVisualStyle
  2
ColorChange
 70
    16
 71
     2
 72
     2
 73
     3
 90
        0
 40
-0.6
 41
-30.0
 62
     5
 63
     8
 74
     1
 91
        4
 64
     7
 65
   257
 75
     1
175
     1
 42
1.0
 92
        8
 66
     8
 43
1.0
 76
     1
 77
     6
 78
     2
 67
     7
 79
     5
170
     0
171
     0
290
     0
174
     0
 93
        1
 44
0.0
173
     0
291
     1
 45
0.0
1001
ACAD
1000
AcDbSavedByObjectVersion
1070
     0
  0
VISUALSTYLE
  5
A75F
102
{ACAD_XDICTIONARY
360
A7C0
102
}
102
{ACAD_REACTORS
330
A756
102
}
330
A756
100
AcDbVisualStyle
  2
Conceptual
 70
     9
 71
     3
 72
     2
 73
     0
 90
        0
 40
-0.6
 41
-30.0
 62
     5
 63
     7
 74
     2
 91
        2
 64
     7
 65
   257
 75
     1
175
     1
 42
179.0
 92
        8
 66
     7
 43
1.0
 76
     1
 77
     6
 78
     2
 67
     7
 79
     3
170
     0
171
     0
290
     0
174
     0
 93
        1
 44
0.0
173
     0
291
     0
 45
0.0
1001
ACAD
1000
AcDbSavedByObjectVersion
1070
     0
  0
VISUALSTYLE
  5
A761
102
{ACAD_XDICTIONARY
360
A7C4
102
}
102
{ACAD_REACTORS
330
A756
102
}
330
A756
100
AcDbVisualStyle
  2
Dim
 70
    11
 71
     2
 72
     2
 73
     0
 90
        0
 40
-0.6
 41
-30.0
 62
     5
 63
     7
 74
     1
 91
        4
 64
     7
 65
   257
 75
     1
175
     1
 42
1.0
 92
        8
 66
     7
 43
1.0
 76
     1
 77
     6
 78
     2
 67
     7
 79
     5
170
     0
171
     0
290
     0
174
     0
 93
        1
 44
-50.0
173
     0
291
     1
 45
0.0
1001
ACAD
1000
AcDbSavedByObjectVersion
1070
     0
  0
VISUALSTYLE
  5
A76E
102
{ACAD_XDICTIONARY
360
A7DE
102
}
102
{ACAD_REACTORS
330
A756
102
}
330
A756
100
AcDbVisualStyle
  2
EdgeColorOff
 70
    22
 71
     2
 72
     2
 73
     0
 90
        0
 40
-0.6
 41
-30.0
 62
     5
 63
     7
 74
     1
 91
        4
 64
     7
 65
   257
 75
     1
175
     1
 42
1.0
 92
        8
 66
     7
 43
1.0
 76
     1
 77
     6
 78
     2
 67
     7
 79
     5
170
     0
171
     0
290
     0
174
     0
 93
        1
 44
0.0
173
     0
291
     1
 45
0.0
1001
ACAD
1000
AcDbSavedByObjectVersion
1070
     0
  0
VISUALSTYLE
  5
A765
102
{ACAD_XDICTIONARY
360
A7CC
102
}
102
{ACAD_REACTORS
330
A756
102
}
330
A756
100
AcDbVisualStyle
  2
Facepattern
 70
    15
 71
     2
 72
     2
 73
     0
 90
        0
 40
-0.6
 41
-30.0
 62
     5
 63
     7
 74
     1
 91
        4
 64
     7
 65
   257
 75
     1
175
     1
 42
1.0
 92
        8
 66
     7
 43
1.0
 76
     1
 77
     6
 78
     2
 67
     7
 79
     5
170
     0
171
     0
290
     0
174
     0
 93
        1
 44
0.0
173
     0
291
     1
 45
0.0
1001
ACAD
1000
AcDbSavedByObjectVersion
1070
     0
  0
VISUALSTYLE
  5
A757
102
{ACAD_XDICTIONARY
360
A7B0
102
}
102
{ACAD_REACTORS
330
A756
102
}
330
A756
100
AcDbVisualStyle
  2
Flat
 70
     0
 71
     2
 72
     1
 73
     1
 90
        2
 40
-0.6
 41
30.0
 62
     5
 63
     7
 74
     0
 91
        0
 64
     7
 65
   257
 75
     1
175
     1
 42
1.0
 92
        8
 66
     7
 43
1.0
 76
     1
 77
     6
 78
     2
 67
     7
 79
     5
170
     0
171
     0
290
     0
174
     0
 93
       13
 44
0.0
173
     0
291
     1
 45
0.0
1001
ACAD
1000
AcDbSavedByObjectVersion
1070
     0
  0
VISUALSTYLE
  5
A758
102
{ACAD_XDICTIONARY
360
A7B2
102
}
102
{ACAD_REACTORS
330
A756
102
}
330
A756
100
AcDbVisualStyle
  2
FlatWithEdges
 70
     1
 71
     2
 72
     1
 73
     1
 90
        2
 40
-0.6
 41
30.0
 62
     5
 63
     7
 74
     1
 91
        0
 64
     7
 65
   257
 75
     1
175
     1
 42
1.0
 92
        0
 66
   257
 43
1.0
 76
     1
 77
     6
 78
     2
 67
     7
 79
     5
170
     0
171
     0
290
     0
174
     0
 93
       13
 44
0.0
173
     0
291
     1
 45
0.0
1001
ACAD
1000
AcDbSavedByObjectVersion
1070
     0
  0
VISUALSTYLE
  5
A759
102
{ACAD_XDICTIONARY
360
A7B4
102
}
102
{ACAD_REACTORS
330
A756
102
}
330
A756
100
AcDbVisualStyle
  2
Gouraud
 70
     2
 71
     2
 72
     2
 73
     1
 90
        2
 40
-0.6
 41
30.0
 62
     5
 63
     7
 74
     0
 91
        0
 64
     7
 65
   257
 75
     1
175
     1
 42
1.0
 92
        0
 66
     7
 43
1.0
 76
     1
 77
     6
 78
     2
 67
     7
 79
     5
170
     0
171
     0
290
     0
174
     0
 93
       13
 44
0.0
173
     0
291
     1
 45
0.0
1001
ACAD
1000
AcDbSavedByObjectVersion
1070
     0
  0
VISUALSTYLE
  5
A75A
102
{ACAD_XDICTIONARY
360
A7B6
102
}
102
{ACAD_REACTORS
330
A756
102
}
330
A756
100
AcDbVisualStyle
  2
GouraudWithEdges
 70
     3
 71
     2
 72
     2
 73
     1
 90
        2
 40
-0.6
 41
30.0
 62
     5
 63
     7
 74
     1
 91
        0
 64
     7
 65
   257
 75
     1
175
     1
 42
1.0
 92
        0
 66
   257
 43
1.0
 76
     1
 77
     6
 78
     2
 67
     7
 79
     5
170
     0
171
     0
290
     0
174
     0
 93
       13
 44
0.0
173
     0
291
     1
 45
0.0
1001
ACAD
1000
AcDbSavedByObjectVersion
1070
     0
  0
VISUALSTYLE
  5
A75E
102
{ACAD_XDICTIONARY
360
A7BE
102
}
102
{ACAD_REACTORS
330
A756
102
}
330
A756
100
AcDbVisualStyle
  2
Hidden
 70
     6
 71
     1
 72
     2
 73
     2
 90
        0
 40
-0.6
 41
-30.0
 62
     5
 63
     7
 74
     2
 91
        2
 64
     7
 65
   257
 75
     2
175
     1
 42
40.0
 92
        0
 66
   257
 43
1.0
 76
     1
 77
     6
 78
     2
 67
     7
 79
     3
170
     0
171
     0
290
     0
174
     0
 93
        1
 44
0.0
173
     0
291
     0
 45
0.0
1001
ACAD
1000
AcDbSavedByObjectVersion
1070
     0
  0
VISUALSTYLE
  5
A76C
102
{ACAD_XDICTIONARY
360
A7DA
102
}
102
{ACAD_REACTORS
330
A756
102
}
330
A756
100
AcDbVisualStyle
  2
JitterOff
 70
    20
 71
     2
 72
     2
 73
     0
 90
        0
 40
-0.6
 41
-30.0
 62
     5
 63
     7
 74
     1
 91
        4
 64
     7
 65
   257
 75
     1
175
     1
 42
1.0
 92
       10
 66
     7
 43
1.0
 76
     1
 77
     6
 78
     2
 67
     7
 79
     5
170
     0
171
     0
290
     0
174
     0
 93
        1
 44
0.0
173
     0
291
     1
 45
0.0
1001
ACAD
1000
AcDbSavedByObjectVersion
1070
     0
  0
VISUALSTYLE
  5
A764
102
{ACAD_XDICTIONARY
360
A7CA
102
}
102
{ACAD_REACTORS
330
A756
102
}
330
A756
100
AcDbVisualStyle
  2
Linepattern
 70
    14
 71
     2
 72
     2
 73
     0
 90
        0
 40
-0.6
 41
-30.0
 62
     5
 63
     7
 74
     1
 91
        4
 64
     7
 65
   257
 75
     7
175
     7
 42
1.0
 92
        8
 66
     7
 43
1.0
 76
     1
 77
     6
 78
     2
 67
     7
 79
     5
170
     0
171
     0
290
     0
174
     0
 93
        1
 44
0.0
173
     0
291
     1
 45
0.0
1001
ACAD
1000
AcDbSavedByObjectVersion
1070
     0
  0
VISUALSTYLE
  5
A76D
102
{ACAD_XDICTIONARY
360
A7DC
102
}
102
{ACAD_REACTORS
330
A756
102
}
330
A756
100
AcDbVisualStyle
  2
OverhangOff
 70
    21
 71
     2
 72
     2
 73
     0
 90
        0
 40
-0.6
 41
-30.0
 62
     5
 63
     7
 74
     1
 91
        4
 64
     7
 65
   257
 75
     1
175
     1
 42
1.0
 92
        9
 66
     7
 43
1.0
 76
     1
 77
     6
 78
     2
 67
     7
 79
     5
170
     0
171
     0
290
     0
174
     0
 93
        1
 44
0.0
173
     0
291
     1
 45
0.0
1001
ACAD
1000
AcDbSavedByObjectVersion
1070
     0
  0
VISUALSTYLE
  5
A760
102
{ACAD_XDICTIONARY
360
A7C2
102
}
102
{ACAD_REACTORS
330
A756
102
}
330
A756
100
AcDbVisualStyle
  2
Realistic
 70
     8
 71
     2
 72
     3
 73
     0
 90
        2
 40
-0.6
 41
30.0
 62
     5
 63
     7
 74
     0
 91
        0
 64
     7
 65
   257
 75
     1
175
     1
 42
1.0
 92
        8
 66
   257
 43
1.0
 76
     1
 77
     6
 78
     2
 67
     7
 79
     3
170
     0
171
     0
290
     0
174
     0
 93
       13
 44
0.0
173
     0
291
     0
 45
0.0
1001
ACAD
1000
AcDbSavedByObjectVersion
1070
     0
  0
VISUALSTYLE
  5
A76B
102
{ACAD_XDICTIONARY
360
A7D8
102
}
102
{ACAD_REACTORS
330
A756
102
}
330
A756
100
AcDbVisualStyle
  2
Shaded
 70
    27
 71
     2
 72
     2
 73
     1
 90
        2
 40
-0.6
 41
30.0
 62
     5
 63
     7
 74
     0
 91
        4
 64
     7
 65
   257
 75
     1
175
     1
 42
1.0
 92
        8
 66
   257
 43
1.0
 76
     1
 77
     6
 78
     2
 67
     8
 79
     3
170
     0
171
     0
290
     0
174
     0
 93
        5
 44
0.0
173
     0
291
     0
 45
0.0
1001
ACAD
1000
AcDbSavedByObjectVersion
1070
     0
  0
VISUALSTYLE
  5
A76A
102
{ACAD_XDICTIONARY
360
A7D6
102
}
102
{ACAD_REACTORS
330
A756
102
}
330
A756
100
AcDbVisualStyle
  2
Shaded with edges
 70
    26
 71
     2
 72
     2
 73
     1
 90
        2
 40
-0.6
 41
30.0
 62
     5
 63
     7
 74
     1
 91
       10
 64
     7
 65
   257
 75
     2
175
     1
 42
1.0
 92
        8
 66
   257
 43
1.0
 76
     1
 77
     6
 78
     2
 67
     7
 79
     3
170
     0
171
     0
290
     0
174
     0
 93
        5
 44
0.0
173
     0
291
     0
 45
0.0
1001
ACAD
1000
AcDbSavedByObjectVersion
1070
     0
  0
VISUALSTYLE
  5
A767
102
{ACAD_XDICTIONARY
360
A7D0
102
}
102
{ACAD_REACTORS
330
A756
102
}
330
A756
100
AcDbVisualStyle
  2
Shades of Gray
 70
    23
 71
     2
 72
     2
 73
     3
 90
        0
 40
-0.6
 41
-30.0
 62
     5
 63
     7
 74
     2
 91
        2
 64
     7
 65
     7
 75
     1
175
     1
 42
40.0
 92
        8
 66
     7
 43
1.0
 76
     1
 77
     6
 78
     2
 67
     7
 79
     3
170
     0
171
     0
290
     0
174
     0
 93
        1
 44
0.0
173
     0
291
     0
 45
0.0
1001
ACAD
1000
AcDbSavedByObjectVersion
1070
     0
  0
VISUALSTYLE
  5
A768
102
{ACAD_XDICTIONARY
360
A7D2
102
}
102
{ACAD_REACTORS
330
A756
102
}
330
A756
100
AcDbVisualStyle
  2
Sketchy
 70
    24
 71
     1
 72
     2
 73
     2
 90
        0
 40
-0.6
 41
-30.0
 62
     5
 63
     7
 74
     2
 91
        2
 64
     7
 65
     7
 75
     1
175
     1
 42
40.0
 92
       11
 66
     7
 43
1.0
 76
     1
 77
     6
 78
     2
 67
     7
 79
     6
170
     0
171
     0
290
     0
174
     0
 93
        1
 44
0.0
173
     0
291
     0
 45
0.0
1001
ACAD
1000
AcDbSavedByObjectVersion
1070
     0
  0
VISUALSTYLE
  5
A763
102
{ACAD_XDICTIONARY
360
A7C8
102
}
102
{ACAD_REACTORS
330
A756
102
}
330
A756
100
AcDbVisualStyle
  2
Thicken
 70
    13
 71
     2
 72
     2
 73
     0
 90
        0
 40
-0.6
 41
-30.0
 62
     5
 63
     7
 74
     1
 91
        4
 64
     7
 65
   257
 75
     1
175
     1
 42
1.0
 92
       12
 66
     7
 43
1.0
 76
     1
 77
     6
 78
     2
 67
     7
 79
     5
170
     0
171
     0
290
     0
174
     0
 93
        1
 44
0.0
173
     0
291
     1
 45
0.0
1001
ACAD
1000
AcDbSavedByObjectVersion
1070
     0
  0
VISUALSTYLE
  5
A75D
102
{ACAD_XDICTIONARY
360
A7BC
102
}
102
{ACAD_REACTORS
330
A756
102
}
330
A756
100
AcDbVisualStyle
  2
Wireframe
 70
     5
 71
     0
 72
     2
 73
     0
 90
        0
 40
-0.6
 41
-30.0
 62
     5
 63
     7
 74
     1
 91
        4
 64
     7
 65
   257
 75
     1
175
     1
 42
1.0
 92
        0
 66
   257
 43
1.0
 76
     1
 77
     6
 78
     2
 67
     7
 79
     3
170
     0
171
     0
290
     0
174
     0
 93
        1
 44
0.0
173
     0
291
     0
 45
0.0
1001
ACAD
1000
AcDbSavedByObjectVersion
1070
     0
  0
VISUALSTYLE
  5
A769
102
{ACAD_XDICTIONARY
360
A7D4
102
}
102
{ACAD_REACTORS
330
A756
102
}
330
A756
100
AcDbVisualStyle
  2
X-Ray
 70
    25
 71
     2
 72
     2
 73
     1
 90
        1
 40
0.5
 41
-30.0
 62
     5
 63
     7
 74
     1
 91
        0
 64
     7
 65
   257
 75
     1
175
     1
 42
1.0
 92
        8
 66
     7
 43
1.0
 76
     1
 77
     6
 78
     2
 67
     7
 79
     3
170
     0
171
     0
290
     0
174
     0
 93
       13
 44
0.0
173
     0
291
     0
 45
0.0
1001
ACAD
1000
AcDbSavedByObjectVersion
1070
     0
  0
DICTIONARYVAR
  5
A7A3
102
{ACAD_REACTORS
330
A79E
102
}
330
A79E
100
DictionaryVariables
280
     0
  1
1:1
  0
DICTIONARYVAR
  5
A7A0
102
{ACAD_REACTORS
330
A79E
102
}
330
A79E
100
DictionaryVariables
280
     0
  1
STANDARD
  0
DICTIONARYVAR
  5
A79F
102
{ACAD_REACTORS
330
A79E
102
}
330
A79E
100
DictionaryVariables
280
     0
  1
STANDARD
  0
DICTIONARYVAR
  5
A7A1
102
{ACAD_REACTORS
330
A79E
102
}
330
A79E
100
DictionaryVariables
280
     0
  1
Imperial24
  0
DICTIONARYVAR
  5
A7A2
102
{ACAD_REACTORS
330
A79E
102
}
330
A79E
100
DictionaryVariables
280
     0
  1
Imperial24
  0
DICTIONARYVAR
  5
A7A6
102
{ACAD_REACTORS
330
A79E
102
}
330
A79E
100
DictionaryVariables
280
     0
  1
1
  0
DICTIONARYVAR
  5
A7A5
102
{ACAD_REACTORS
330
A79E
102
}
330
A79E
100
DictionaryVariables
280
     0
  1
0
  0
DICTIONARYVAR
  5
A7A4
102
{ACAD_REACTORS
330
A79E
102
}
330
A79E
100
DictionaryVariables
280
     0
  1
127
  0
DICTIONARYVAR
  5
A7A7
102
{ACAD_REACTORS
330
A79E
102
}
330
A79E
100
DictionaryVariables
280
     0
  1
2
  0
DICTIONARY
  5
A7E4
330
A789
100
AcDbDictionary
280
     1
281
     1
  3
ACAD_XREC_ROUNDTRIP
360
A7E5
  0
DICTIONARY
  5
A7E6
330
A78A
100
AcDbDictionary
280
     1
281
     1
  3
ACAD_XREC_ROUNDTRIP
360
A7E7
  0
DICTIONARY
  5
A7E8
330
A78B
100
AcDbDictionary
280
     1
281
     1
  3
ACAD_XREC_ROUNDTRIP
360
A7E9
  0
DICTIONARY
  5
A747
330
A746
100
AcDbDictionary
280
     1
281
     1
  3
ACAD_XREC_ROUNDTRIP
360
A7AE
  3
BUMPTILE
360
A749
  3
DIFFUSETILE
360
A748
  3
OPACITYTILE
360
A74C
  3
REFLECTIONTILE
360
A74B
  3
REFRACTIONTILE
360
A74D
  3
SPECULARTILE
360
A74A
  0
DICTIONARY
  5
A73F
330
A73E
100
AcDbDictionary
280
     1
281
     1
  3
ACAD_XREC_ROUNDTRIP
360
A7AD
  3
BUMPTILE
360
A741
  3
DIFFUSETILE
360
A740
  3
OPACITYTILE
360
A744
  3
REFLECTIONTILE
360
A743
  3
REFRACTIONTILE
360
A745
  3
SPECULARTILE
360
A742
  0
DICTIONARY
  5
A74F
330
A74E
100
AcDbDictionary
280
     1
281
     1
  3
ACAD_XREC_ROUNDTRIP
360
A7AF
  3
BUMPTILE
360
A751
  3
DIFFUSETILE
360
A750
  3
OPACITYTILE
360
A754
  3
REFLECTIONTILE
360
A753
  3
REFRACTIONTILE
360
A755
  3
SPECULARTILE
360
A752
  0
DICTIONARY
  5
A7E2
330
A787
100
AcDbDictionary
280
     1
281
     1
  3
ACAD_XREC_ROUNDTRIP
360
A7E3
  0
DICTIONARY
  5
A7A9
330
A771
100
AcDbDictionary
280
     1
281
     1
  3
ACAD_ROUNDTRIP_2008_TABLESTYLE_CELLSTYLEMAP
360
A7AA
  3
ACAD_XREC_ROUNDTRIP
360
A7E0
  0
DICTIONARY
  5
A7BA
330
A75C
100
AcDbDictionary
280
     1
281
     1
  3
ACAD_XREC_ROUNDTRIP
360
A7BB
  0
DICTIONARY
  5
A7B8
330
A75B
100
AcDbDictionary
280
     1
281
     1
  3
ACAD_XREC_ROUNDTRIP
360
A7B9
  0
DICTIONARY
  5
A7C6
330
A762
100
AcDbDictionary
280
     1
281
     1
  3
ACAD_XREC_ROUNDTRIP
360
A7C7
  0
DICTIONARY
  5
A7CE
330
A766
100
AcDbDictionary
280
     1
281
     1
  3
ACAD_XREC_ROUNDTRIP
360
A7CF
  0
DICTIONARY
  5
A7C0
330
A75F
100
AcDbDictionary
280
     1
281
     1
  3
ACAD_XREC_ROUNDTRIP
360
A7C1
  0
DICTIONARY
  5
A7C4
330
A761
100
AcDbDictionary
280
     1
281
     1
  3
ACAD_XREC_ROUNDTRIP
360
A7C5
  0
DICTIONARY
  5
A7DE
330
A76E
100
AcDbDictionary
280
     1
281
     1
  3
ACAD_XREC_ROUNDTRIP
360
A7DF
  0
DICTIONARY
  5
A7CC
330
A765
100
AcDbDictionary
280
     1
281
     1
  3
ACAD_XREC_ROUNDTRIP
360
A7CD
  0
DICTIONARY
  5
A7B0
330
A757
100
AcDbDictionary
280
     1
281
     1
  3
ACAD_XREC_ROUNDTRIP
360
A7B1
  0
DICTIONARY
  5
A7B2
330
A758
100
AcDbDictionary
280
     1
281
     1
  3
ACAD_XREC_ROUNDTRIP
360
A7B3
  0
DICTIONARY
  5
A7B4
330
A759
100
AcDbDictionary
280
     1
281
     1
  3
ACAD_XREC_ROUNDTRIP
360
A7B5
  0
DICTIONARY
  5
A7B6
330
A75A
100
AcDbDictionary
280
     1
281
     1
  3
ACAD_XREC_ROUNDTRIP
360
A7B7
  0
DICTIONARY
  5
A7BE
330
A75E
100
AcDbDictionary
280
     1
281
     1
  3
ACAD_XREC_ROUNDTRIP
360
A7BF
  0
DICTIONARY
  5
A7DA
330
A76C
100
AcDbDictionary
280
     1
281
     1
  3
ACAD_XREC_ROUNDTRIP
360
A7DB
  0
DICTIONARY
  5
A7CA
330
A764
100
AcDbDictionary
280
     1
281
     1
  3
ACAD_XREC_ROUNDTRIP
360
A7CB
  0
DICTIONARY
  5
A7DC
330
A76D
100
AcDbDictionary
280
     1
281
     1
  3
ACAD_XREC_ROUNDTRIP
360
A7DD
  0
DICTIONARY
  5
A7C2
330
A760
100
AcDbDictionary
280
     1
281
     1
  3
ACAD_XREC_ROUNDTRIP
360
A7C3
  0
DICTIONARY
  5
A7D8
330
A76B
100
AcDbDictionary
280
     1
281
     1
  3
ACAD_XREC_ROUNDTRIP
360
A7D9
  0
DICTIONARY
  5
A7D6
330
A76A
100
AcDbDictionary
280
     1
281
     1
  3
ACAD_XREC_ROUNDTRIP
360
A7D7
  0
DICTIONARY
  5
A7D0
330
A767
100
AcDbDictionary
280
     1
281
     1
  3
ACAD_XREC_ROUNDTRIP
360
A7D1
  0
DICTIONARY
  5
A7D2
330
A768
100
AcDbDictionary
280
     1
281
     1
  3
ACAD_XREC_ROUNDTRIP
360
A7D3
  0
DICTIONARY
  5
A7C8
330
A763
100
AcDbDictionary
280
     1
281
     1
  3
ACAD_XREC_ROUNDTRIP
360
A7C9
  0
DICTIONARY
  5
A7BC
330
A75D
100
AcDbDictionary
280
     1
281
     1
  3
ACAD_XREC_ROUNDTRIP
360
A7BD
  0
DICTIONARY
  5
A7D4
330
A769
100
AcDbDictionary
280
     1
281
     1
  3
ACAD_XREC_ROUNDTRIP
360
A7D5
  0
XRECORD
  5
A7E5
102
{ACAD_REACTORS
330
A7E4
102
}
330
A7E4
100
AcDbXrecord
280
     1
102
DISPLAYNAME
  1
Imperial24
102
FLAGS
 90
        0
  0
XRECORD
  5
A7E7
102
{ACAD_REACTORS
330
A7E6
102
}
330
A7E6
100
AcDbXrecord
280
     1
102
SHADEPLOT
 70
     0
102
SHADEPLOTRESLEVEL
 70
     2
102
SHADEPLOTCUSTOMDPI
 70
   300
  0
XRECORD
  5
A7E9
102
{ACAD_REACTORS
330
A7E8
102
}
330
A7E8
100
AcDbXrecord
280
     1
102
SHADEPLOT
 70
     0
102
SHADEPLOTRESLEVEL
 70
     2
102
SHADEPLOTCUSTOMDPI
 70
   300
  0
XRECORD
  5
A7AE
102
{ACAD_REACTORS
330
A747
102
}
330
A747
100
AcDbXrecord
280
     1
102
MATERIAL
148
0.0
149
0.0
149
0.0
 93
        0
 94
      127
282
     0
 72
     0
 77
     0
171
     0
175
     0
179
     0
273
     0
  0
XRECORD
  5
A749
102
{ACAD_REACTORS
330
A747
102
}
330
A747
100
AcDbXrecord
280
     1
270
     1
271
     1
  0
XRECORD
  5
A748
102
{ACAD_REACTORS
330
A747
102
}
330
A747
100
AcDbXrecord
280
     1
270
     1
271
     1
  0
XRECORD
  5
A74C
102
{ACAD_REACTORS
330
A747
102
}
330
A747
100
AcDbXrecord
280
     1
270
     1
271
     1
  0
XRECORD
  5
A74B
102
{ACAD_REACTORS
330
A747
102
}
330
A747
100
AcDbXrecord
280
     1
270
     1
271
     1
  0
XRECORD
  5
A74D
102
{ACAD_REACTORS
330
A747
102
}
330
A747
100
AcDbXrecord
280
     1
270
     1
271
     1
  0
XRECORD
  5
A74A
102
{ACAD_REACTORS
330
A747
102
}
330
A747
100
AcDbXrecord
280
     1
270
     1
271
     1
  0
XRECORD
  5
A7AD
102
{ACAD_REACTORS
330
A73F
102
}
330
A73F
100
AcDbXrecord
280
     1
102
MATERIAL
148
0.0
149
0.0
149
0.0
 93
        0
 94
      127
282
     0
 72
     0
 77
     0
171
     0
175
     0
179
     0
273
     0
  0
XRECORD
  5
A741
102
{ACAD_REACTORS
330
A73F
102
}
330
A73F
100
AcDbXrecord
280
     1
270
     1
271
     1
  0
XRECORD
  5
A740
102
{ACAD_REACTORS
330
A73F
102
}
330
A73F
100
AcDbXrecord
280
     1
270
     1
271
     1
  0
XRECORD
  5
A744
102
{ACAD_REACTORS
330
A73F
102
}
330
A73F
100
AcDbXrecord
280
     1
270
     1
271
     1
  0
XRECORD
  5
A743
102
{ACAD_REACTORS
330
A73F
102
}
330
A73F
100
AcDbXrecord
280
     1
270
     1
271
     1
  0
XRECORD
  5
A745
102
{ACAD_REACTORS
330
A73F
102
}
330
A73F
100
AcDbXrecord
280
     1
270
     1
271
     1
  0
XRECORD
  5
A742
102
{ACAD_REACTORS
330
A73F
102
}
330
A73F
100
AcDbXrecord
280
     1
270
     1
271
     1
  0
XRECORD
  5
A7AF
102
{ACAD_REACTORS
330
A74F
102
}
330
A74F
100
AcDbXrecord
280
     1
102
MATERIAL
148
0.0
149
0.0
149
0.0
 93
        0
 94
      127
282
     0
 72
     0
 77
     0
171
     0
175
     0
179
     0
273
     0
  0
XRECORD
  5
A751
102
{ACAD_REACTORS
330
A74F
102
}
330
A74F
100
AcDbXrecord
280
     1
270
     1
271
     1
  0
XRECORD
  5
A750
102
{ACAD_REACTORS
330
A74F
102
}
330
A74F
100
AcDbXrecord
280
     1
270
     1
271
     1
  0
XRECORD
  5
A754
102
{ACAD_REACTORS
330
A74F
102
}
330
A74F
100
AcDbXrecord
280
     1
270
     1
271
     1
  0
XRECORD
  5
A753
102
{ACAD_REACTORS
330
A74F
102
}
330
A74F
100
AcDbXrecord
280
     1
270
     1
271
     1
  0
XRECORD
  5
A755
102
{ACAD_REACTORS
330
A74F
102
}
330
A74F
100
AcDbXrecord
280
     1
270
     1
271
     1
  0
XRECORD
  5
A752
102
{ACAD_REACTORS
330
A74F
102
}
330
A74F
100
AcDbXrecord
280
     1
270
     1
271
     1
  0
XRECORD
  5
A7E3
102
{ACAD_REACTORS
330
A7E2
102
}
330
A7E2
100
AcDbXrecord
280
     1
102
DISPLAYNAME
  1
Imperial24
102
FLAGS
 90
        0
  0
CELLSTYLEMAP
  5
A7AA
102
{ACAD_REACTORS
330
A7A9
102
}
330
A7A9
100
AcDbCellStyleMap
 90
        3
300
CELLSTYLE
  1
TABLEFORMAT_BEGIN
 90
        5
170
     1
 91
        0
 92
    32768
 62
   257
 93
        1
300
CONTENTFORMAT
  1
CONTENTFORMAT_BEGIN
 90
        0
 91
        0
 92
      512
 93
        0
300

 40
0.0
140
1.0
 94
        5
 62
     0
340
A43C
144
0.25
309
CONTENTFORMAT_END
171
     0
 94
        0
309
TABLEFORMAT_END
  1
CELLSTYLE_BEGIN
 90
        1
 91
        1
300
_TITLE
309
CELLSTYLE_END
300
CELLSTYLE
  1
TABLEFORMAT_BEGIN
 90
        5
170
     1
 91
        0
 92
        0
 62
   257
 93
        1
300
CONTENTFORMAT
  1
CONTENTFORMAT_BEGIN
 90
        0
 91
        0
 92
      512
 93
        0
300

 40
0.0
140
1.0
 94
        5
 62
     0
340
A43C
144
0.18
309
CONTENTFORMAT_END
171
     0
 94
        0
309
TABLEFORMAT_END
  1
CELLSTYLE_BEGIN
 90
        2
 91
        1
300
_HEADER
309
CELLSTYLE_END
300
CELLSTYLE
  1
TABLEFORMAT_BEGIN
 90
        5
170
     1
 91
        0
 92
        0
 62
   257
 93
        1
300
CONTENTFORMAT
  1
CONTENTFORMAT_BEGIN
 90
        0
 91
        0
 92
      512
 93
        0
300

 40
0.0
140
1.0
 94
        2
 62
     0
340
A43C
144
0.18
309
CONTENTFORMAT_END
171
     0
 94
        0
309
TABLEFORMAT_END
  1
CELLSTYLE_BEGIN
 90
        3
 91
        2
300
_DATA
309
CELLSTYLE_END
  0
XRECORD
  5
A7E0
102
{ACAD_REACTORS
330
A7A9
102
}
330
A7A9
100
AcDbXrecord
280
     1
102
ACAD_ROUNDTRIP_PRE2007_TABLESTYLE
 90
      512
 91
        0
  1

 92
      512
 93
        0
  2

 94
      512
 95
        0
  3

  0
XRECORD
  5
A7BB
102
{ACAD_REACTORS
330
A7BA
102
}
330
A7BA
100
AcDbXrecord
280
     1
102
RTVSPost2010Prop28
280
     1
102
RTVSPost2010PropOp28
 70
     1
102
RTVSPost2010Prop29
280
     1
102
RTVSPost2010PropOp29
 70
     1
102
RTVSPost2010Prop30
280
     0
102
RTVSPost2010PropOp30
 70
     1
102
RTVSPost2010Prop31
280
     0
102
RTVSPost2010PropOp31
 70
     1
102
RTVSPost2010Prop32
280
     0
102
RTVSPost2010PropOp32
 70
     1
102
RTVSPost2010Prop33
280
     0
102
RTVSPost2010PropOp33
 70
     1
102
RTVSPost2010Prop34
280
     0
102
RTVSPost2010PropOp34
 70
     1
102
RTVSPost2010Prop35
280
     0
102
RTVSPost2010PropOp35
 70
     1
102
RTVSPost2010Prop36
280
     0
102
RTVSPost2010PropOp36
 70
     1
102
RTVSPost2010Prop37
 90
       50
102
RTVSPost2010PropOp37
 70
     1
102
RTVSPost2010Prop38
140
0.0
102
RTVSPost2010PropOp38
 70
     1
102
RTVSPost2010Prop39
140
1.0
102
RTVSPost2010PropOp39
 70
     1
102
RTVSPost2010Prop40
 90
        0
102
RTVSPost2010PropOp40
 70
     1
102
RTVSPost2010Prop41ColorIndex
 90
       18
102
RTVSPost2010Prop41ColorRGB
 90
        0
102
RTVSPost2010PropOp41
 70
     1
102
RTVSPost2010Prop42
 90
       50
102
RTVSPost2010PropOp42
 70
     1
102
RTVSPost2010Prop43
 90
        3
102
RTVSPost2010PropOp43
 70
     1
102
RTVSPost2010Prop44ColorIndex
 90
        5
102
RTVSPost2010Prop44ColorRGB
 90
      255
102
RTVSPost2010PropOp44
 70
     1
102
RTVSPost2010Prop45
280
     0
102
RTVSPost2010PropOp45
 70
     1
102
RTVSPost2010Prop46
 90
       50
102
RTVSPost2010PropOp46
 70
     1
102
RTVSPost2010Prop47
 90
       50
102
RTVSPost2010PropOp47
 70
     1
102
RTVSPost2010Prop48
 90
       50
102
RTVSPost2010PropOp48
 70
     1
102
RTVSPost2010Prop49
280
     0
102
RTVSPost2010PropOp49
 70
     1
102
RTVSPost2010Prop50
 90
       50
102
RTVSPost2010PropOp50
 70
     1
102
RTVSPost2010Prop51ColorIndex
 90
      256
102
RTVSPost2010Prop51ColorRGB
 90
-16777216
102
RTVSPost2010PropOp51
 70
     0
102
RTVSPost2010Prop52
140
1.0
102
RTVSPost2010PropOp52
 70
     0
102
RTVSPost2010Prop53
 90
        2
102
RTVSPost2010PropOp53
 70
     1
102
RTVSPost2010Prop54
  1
strokes_ogs.tif
102
RTVSPost2010PropOp54
 70
     1
102
RTVSPost2010Prop55
280
     0
102
RTVSPost2010PropOp55
 70
     1
102
RTVSPost2010Prop56
140
1.0
102
RTVSPost2010PropOp56
 70
     1
102
RTVSPost2010Prop57
140
1.0
102
RTVSPost2010PropOp57
 70
     1
102
RTVSPropertyOp0
 70
     1
102
RTVSPropertyOp1
 70
     1
102
RTVSPropertyOp2
 70
     1
102
RTVSPropertyOp3
 70
     1
102
RTVSPropertyOp4
 70
     1
102
RTVSPropertyOp5
 70
     1
102
RTVSPropertyOp6
 70
     1
102
RTVSPropertyOp7
 70
     1
102
RTVSPropertyOp8
 70
     1
102
RTVSPropertyOp9
 70
     1
102
RTVSPropertyOp10
 70
     1
102
RTVSPropertyOp11
 70
     1
102
RTVSPropertyOp12
 70
     1
102
RTVSPropertyOp13
 70
     1
102
RTVSPropertyOp14
 70
     1
102
RTVSPropertyOp15
 70
     1
102
RTVSPropertyOp16
 70
     1
102
RTVSPropertyOp17
 70
     1
102
RTVSPropertyOp18
 70
     1
102
RTVSPropertyOp19
 70
     1
102
RTVSPropertyOp20
 70
     1
102
RTVSPropertyOp21
 70
     1
102
RTVSPropertyOp22
 70
     1
102
RTVSPropertyOp23
 70
     1
102
RTVSPropertyOp24
 70
     1
102
RTVSPropertyOp25
 70
     1
102
RTVSPropertyOp26
 70
     1
102
RTVSPropertyOp27
 70
     1
102
RTVSPropertyOp28
 70
     1
102
RTVSPropertyOp29
 70
     1
102
RTVSPropertyOp30
 70
     1
102
RTVSPropertyOp31
 70
     1
102
RTVSPropertyOp32
 70
     1
102
RTVSPropertyOp33
 70
     1
102
RTVSPropertyOp34
 70
     1
102
RTVSPropertyOp35
 70
     1
102
RTVSPropertyOp36
 70
     1
102
RTVSPropertyOp37
 70
     1
102
RTVSPropertyOp38
 70
     1
102
RTVSPropertyOp39
 70
     1
102
RTVSPropertyOp40
 70
     1
102
RTVSPropertyOp41
 70
     1
102
RTVSPropertyOp42
 70
     1
102
RTVSPropertyOp43
 70
     1
102
RTVSPropertyOp44
 70
     1
102
RTVSPropertyOp45
 70
     1
102
RTVSPropertyOp46
 70
     1
102
RTVSPropertyOp47
 70
     1
102
RTVSPropertyOp48
 70
     1
102
RTVSPropertyOp49
 70
     1
102
RTVSPropertyOp50
 70
     1
102
RTVSPropertyOp51
 70
     0
102
RTVSPropertyOp52
 70
     0
102
RTVSPropertyOp53
 70
     1
102
RTVSPropertyOp54
 70
     1
102
RTVSPropertyOp55
 70
     1
102
RTVSPropertyOp56
 70
     1
102
RTVSPropertyOp57
 70
     1
102
RTVSPropertyOp58
 70
     1
102
RTVSPropertyOp59
 70
     1
102
RTVSPropertyOp60
 70
     1
102
RTVSPropertyOp61
 70
     1
102
RTVSPropertyOp62
 70
     1
  0
XRECORD
  5
A7B9
102
{ACAD_REACTORS
330
A7B8
102
}
330
A7B8
100
AcDbXrecord
280
     1
102
RTVSPost2010Prop28
280
     0
102
RTVSPost2010PropOp28
 70
     1
102
RTVSPost2010Prop29
280
     1
102
RTVSPost2010PropOp29
 70
     1
102
RTVSPost2010Prop30
280
     1
102
RTVSPost2010PropOp30
 70
     1
102
RTVSPost2010Prop31
280
     0
102
RTVSPost2010PropOp31
 70
     1
102
RTVSPost2010Prop32
280
     0
102
RTVSPost2010PropOp32
 70
     1
102
RTVSPost2010Prop33
280
     0
102
RTVSPost2010PropOp33
 70
     1
102
RTVSPost2010Prop34
280
     0
102
RTVSPost2010PropOp34
 70
     1
102
RTVSPost2010Prop35
280
     0
102
RTVSPost2010PropOp35
 70
     1
102
RTVSPost2010Prop36
280
     0
102
RTVSPost2010PropOp36
 70
     1
102
RTVSPost2010Prop37
 90
       50
102
RTVSPost2010PropOp37
 70
     1
102
RTVSPost2010Prop38
140
0.0
102
RTVSPost2010PropOp38
 70
     1
102
RTVSPost2010Prop39
140
1.0
102
RTVSPost2010PropOp39
 70
     1
102
RTVSPost2010Prop40
 90
        0
102
RTVSPost2010PropOp40
 70
     1
102
RTVSPost2010Prop41ColorIndex
 90
       18
102
RTVSPost2010Prop41ColorRGB
 90
        0
102
RTVSPost2010PropOp41
 70
     1
102
RTVSPost2010Prop42
 90
       50
102
RTVSPost2010PropOp42
 70
     1
102
RTVSPost2010Prop43
 90
        3
102
RTVSPost2010PropOp43
 70
     1
102
RTVSPost2010Prop44ColorIndex
 90
        5
102
RTVSPost2010Prop44ColorRGB
 90
      255
102
RTVSPost2010PropOp44
 70
     1
102
RTVSPost2010Prop45
280
     0
102
RTVSPost2010PropOp45
 70
     1
102
RTVSPost2010Prop46
 90
       50
102
RTVSPost2010PropOp46
 70
     1
102
RTVSPost2010Prop47
 90
       50
102
RTVSPost2010PropOp47
 70
     1
102
RTVSPost2010Prop48
 90
       50
102
RTVSPost2010PropOp48
 70
     1
102
RTVSPost2010Prop49
280
     0
102
RTVSPost2010PropOp49
 70
     1
102
RTVSPost2010Prop50
 90
       50
102
RTVSPost2010PropOp50
 70
     1
102
RTVSPost2010Prop51ColorIndex
 90
      256
102
RTVSPost2010Prop51ColorRGB
 90
-16777216
102
RTVSPost2010PropOp51
 70
     0
102
RTVSPost2010Prop52
140
1.0
102
RTVSPost2010PropOp52
 70
     0
102
RTVSPost2010Prop53
 90
        2
102
RTVSPost2010PropOp53
 70
     1
102
RTVSPost2010Prop54
  1
strokes_ogs.tif
102
RTVSPost2010PropOp54
 70
     1
102
RTVSPost2010Prop55
280
     0
102
RTVSPost2010PropOp55
 70
     1
102
RTVSPost2010Prop56
140
1.0
102
RTVSPost2010PropOp56
 70
     1
102
RTVSPost2010Prop57
140
1.0
102
RTVSPost2010PropOp57
 70
     1
102
RTVSPropertyOp0
 70
     1
102
RTVSPropertyOp1
 70
     1
102
RTVSPropertyOp2
 70
     1
102
RTVSPropertyOp3
 70
     1
102
RTVSPropertyOp4
 70
     1
102
RTVSPropertyOp5
 70
     1
102
RTVSPropertyOp6
 70
     1
102
RTVSPropertyOp7
 70
     1
102
RTVSPropertyOp8
 70
     1
102
RTVSPropertyOp9
 70
     1
102
RTVSPropertyOp10
 70
     1
102
RTVSPropertyOp11
 70
     1
102
RTVSPropertyOp12
 70
     1
102
RTVSPropertyOp13
 70
     1
102
RTVSPropertyOp14
 70
     1
102
RTVSPropertyOp15
 70
     1
102
RTVSPropertyOp16
 70
     1
102
RTVSPropertyOp17
 70
     1
102
RTVSPropertyOp18
 70
     1
102
RTVSPropertyOp19
 70
     1
102
RTVSPropertyOp20
 70
     1
102
RTVSPropertyOp21
 70
     1
102
RTVSPropertyOp22
 70
     1
102
RTVSPropertyOp23
 70
     1
102
RTVSPropertyOp24
 70
     1
102
RTVSPropertyOp25
 70
     1
102
RTVSPropertyOp26
 70
     1
102
RTVSPropertyOp27
 70
     1
102
RTVSPropertyOp28
 70
     1
102
RTVSPropertyOp29
 70
     1
102
RTVSPropertyOp30
 70
     1
102
RTVSPropertyOp31
 70
     1
102
RTVSPropertyOp32
 70
     1
102
RTVSPropertyOp33
 70
     1
102
RTVSPropertyOp34
 70
     1
102
RTVSPropertyOp35
 70
     1
102
RTVSPropertyOp36
 70
     1
102
RTVSPropertyOp37
 70
     1
102
RTVSPropertyOp38
 70
     1
102
RTVSPropertyOp39
 70
     1
102
RTVSPropertyOp40
 70
     1
102
RTVSPropertyOp41
 70
     1
102
RTVSPropertyOp42
 70
     1
102
RTVSPropertyOp43
 70
     1
102
RTVSPropertyOp44
 70
     1
102
RTVSPropertyOp45
 70
     1
102
RTVSPropertyOp46
 70
     1
102
RTVSPropertyOp47
 70
     1
102
RTVSPropertyOp48
 70
     1
102
RTVSPropertyOp49
 70
     1
102
RTVSPropertyOp50
 70
     1
102
RTVSPropertyOp51
 70
     0
102
RTVSPropertyOp52
 70
     0
102
RTVSPropertyOp53
 70
     1
102
RTVSPropertyOp54
 70
     1
102
RTVSPropertyOp55
 70
     1
102
RTVSPropertyOp56
 70
     1
102
RTVSPropertyOp57
 70
     1
102
RTVSPropertyOp58
 70
     1
102
RTVSPropertyOp59
 70
     1
102
RTVSPropertyOp60
 70
     1
102
RTVSPropertyOp61
 70
     1
102
RTVSPropertyOp62
 70
     1
  0
XRECORD
  5
A7C7
102
{ACAD_REACTORS
330
A7C6
102
}
330
A7C6
100
AcDbXrecord
280
     1
102
RTVSPost2010Prop28
280
     0
102
RTVSPost2010PropOp28
 70
     1
102
RTVSPost2010Prop29
280
     1
102
RTVSPost2010PropOp29
 70
     1
102
RTVSPost2010Prop30
280
     1
102
RTVSPost2010PropOp30
 70
     1
102
RTVSPost2010Prop31
280
     0
102
RTVSPost2010PropOp31
 70
     1
102
RTVSPost2010Prop32
280
     0
102
RTVSPost2010PropOp32
 70
     1
102
RTVSPost2010Prop33
280
     0
102
RTVSPost2010PropOp33
 70
     1
102
RTVSPost2010Prop34
280
     0
102
RTVSPost2010PropOp34
 70
     1
102
RTVSPost2010Prop35
280
     0
102
RTVSPost2010PropOp35
 70
     1
102
RTVSPost2010Prop36
280
     0
102
RTVSPost2010PropOp36
 70
     1
102
RTVSPost2010Prop37
 90
       50
102
RTVSPost2010PropOp37
 70
     1
102
RTVSPost2010Prop38
140
0.0
102
RTVSPost2010PropOp38
 70
     1
102
RTVSPost2010Prop39
140
1.0
102
RTVSPost2010PropOp39
 70
     1
102
RTVSPost2010Prop40
 90
        0
102
RTVSPost2010PropOp40
 70
     1
102
RTVSPost2010Prop41ColorIndex
 90
       18
102
RTVSPost2010Prop41ColorRGB
 90
        0
102
RTVSPost2010PropOp41
 70
     1
102
RTVSPost2010Prop42
 90
       50
102
RTVSPost2010PropOp42
 70
     1
102
RTVSPost2010Prop43
 90
        3
102
RTVSPost2010PropOp43
 70
     1
102
RTVSPost2010Prop44ColorIndex
 90
        5
102
RTVSPost2010Prop44ColorRGB
 90
      255
102
RTVSPost2010PropOp44
 70
     1
102
RTVSPost2010Prop45
280
     0
102
RTVSPost2010PropOp45
 70
     1
102
RTVSPost2010Prop46
 90
       50
102
RTVSPost2010PropOp46
 70
     1
102
RTVSPost2010Prop47
 90
       50
102
RTVSPost2010PropOp47
 70
     1
102
RTVSPost2010Prop48
 90
       50
102
RTVSPost2010PropOp48
 70
     1
102
RTVSPost2010Prop49
280
     0
102
RTVSPost2010PropOp49
 70
     1
102
RTVSPost2010Prop50
 90
       50
102
RTVSPost2010PropOp50
 70
     1
102
RTVSPost2010Prop51ColorIndex
 90
      256
102
RTVSPost2010Prop51ColorRGB
 90
-16777216
102
RTVSPost2010PropOp51
 70
     0
102
RTVSPost2010Prop52
140
1.0
102
RTVSPost2010PropOp52
 70
     0
102
RTVSPost2010Prop53
 90
        2
102
RTVSPost2010PropOp53
 70
     1
102
RTVSPost2010Prop54
  1
strokes_ogs.tif
102
RTVSPost2010PropOp54
 70
     1
102
RTVSPost2010Prop55
280
     0
102
RTVSPost2010PropOp55
 70
     1
102
RTVSPost2010Prop56
140
1.0
102
RTVSPost2010PropOp56
 70
     1
102
RTVSPost2010Prop57
140
1.0
102
RTVSPost2010PropOp57
 70
     1
102
RTVSPropertyOp0
 70
     1
102
RTVSPropertyOp1
 70
     1
102
RTVSPropertyOp2
 70
     1
102
RTVSPropertyOp3
 70
     1
102
RTVSPropertyOp4
 70
     1
102
RTVSPropertyOp5
 70
     1
102
RTVSPropertyOp6
 70
     1
102
RTVSPropertyOp7
 70
     1
102
RTVSPropertyOp8
 70
     1
102
RTVSPropertyOp9
 70
     1
102
RTVSPropertyOp10
 70
     1
102
RTVSPropertyOp11
 70
     1
102
RTVSPropertyOp12
 70
     1
102
RTVSPropertyOp13
 70
     1
102
RTVSPropertyOp14
 70
     1
102
RTVSPropertyOp15
 70
     1
102
RTVSPropertyOp16
 70
     1
102
RTVSPropertyOp17
 70
     1
102
RTVSPropertyOp18
 70
     1
102
RTVSPropertyOp19
 70
     1
102
RTVSPropertyOp20
 70
     1
102
RTVSPropertyOp21
 70
     1
102
RTVSPropertyOp22
 70
     1
102
RTVSPropertyOp23
 70
     1
102
RTVSPropertyOp24
 70
     1
102
RTVSPropertyOp25
 70
     1
102
RTVSPropertyOp26
 70
     1
102
RTVSPropertyOp27
 70
     1
102
RTVSPropertyOp28
 70
     1
102
RTVSPropertyOp29
 70
     1
102
RTVSPropertyOp30
 70
     1
102
RTVSPropertyOp31
 70
     1
102
RTVSPropertyOp32
 70
     1
102
RTVSPropertyOp33
 70
     1
102
RTVSPropertyOp34
 70
     1
102
RTVSPropertyOp35
 70
     1
102
RTVSPropertyOp36
 70
     1
102
RTVSPropertyOp37
 70
     1
102
RTVSPropertyOp38
 70
     1
102
RTVSPropertyOp39
 70
     1
102
RTVSPropertyOp40
 70
     1
102
RTVSPropertyOp41
 70
     1
102
RTVSPropertyOp42
 70
     1
102
RTVSPropertyOp43
 70
     1
102
RTVSPropertyOp44
 70
     1
102
RTVSPropertyOp45
 70
     1
102
RTVSPropertyOp46
 70
     1
102
RTVSPropertyOp47
 70
     1
102
RTVSPropertyOp48
 70
     1
102
RTVSPropertyOp49
 70
     1
102
RTVSPropertyOp50
 70
     1
102
RTVSPropertyOp51
 70
     0
102
RTVSPropertyOp52
 70
     0
102
RTVSPropertyOp53
 70
     1
102
RTVSPropertyOp54
 70
     1
102
RTVSPropertyOp55
 70
     1
102
RTVSPropertyOp56
 70
     1
102
RTVSPropertyOp57
 70
     1
102
RTVSPropertyOp58
 70
     1
102
RTVSPropertyOp59
 70
     1
102
RTVSPropertyOp60
 70
     1
102
RTVSPropertyOp61
 70
     1
102
RTVSPropertyOp62
 70
     1
  0
XRECORD
  5
A7CF
102
{ACAD_REACTORS
330
A7CE
102
}
330
A7CE
100
AcDbXrecord
280
     1
102
RTVSPost2010Prop28
280
     0
102
RTVSPost2010PropOp28
 70
     1
102
RTVSPost2010Prop29
280
     1
102
RTVSPost2010PropOp29
 70
     1
102
RTVSPost2010Prop30
280
     1
102
RTVSPost2010PropOp30
 70
     1
102
RTVSPost2010Prop31
280
     0
102
RTVSPost2010PropOp31
 70
     1
102
RTVSPost2010Prop32
280
     0
102
RTVSPost2010PropOp32
 70
     1
102
RTVSPost2010Prop33
280
     0
102
RTVSPost2010PropOp33
 70
     1
102
RTVSPost2010Prop34
280
     0
102
RTVSPost2010PropOp34
 70
     1
102
RTVSPost2010Prop35
280
     0
102
RTVSPost2010PropOp35
 70
     1
102
RTVSPost2010Prop36
280
     0
102
RTVSPost2010PropOp36
 70
     1
102
RTVSPost2010Prop37
 90
       50
102
RTVSPost2010PropOp37
 70
     1
102
RTVSPost2010Prop38
140
0.0
102
RTVSPost2010PropOp38
 70
     1
102
RTVSPost2010Prop39
140
1.0
102
RTVSPost2010PropOp39
 70
     1
102
RTVSPost2010Prop40
 90
        0
102
RTVSPost2010PropOp40
 70
     1
102
RTVSPost2010Prop41ColorIndex
 90
       18
102
RTVSPost2010Prop41ColorRGB
 90
        0
102
RTVSPost2010PropOp41
 70
     1
102
RTVSPost2010Prop42
 90
       50
102
RTVSPost2010PropOp42
 70
     1
102
RTVSPost2010Prop43
 90
        3
102
RTVSPost2010PropOp43
 70
     1
102
RTVSPost2010Prop44ColorIndex
 90
        5
102
RTVSPost2010Prop44ColorRGB
 90
      255
102
RTVSPost2010PropOp44
 70
     1
102
RTVSPost2010Prop45
280
     0
102
RTVSPost2010PropOp45
 70
     1
102
RTVSPost2010Prop46
 90
       50
102
RTVSPost2010PropOp46
 70
     1
102
RTVSPost2010Prop47
 90
       50
102
RTVSPost2010PropOp47
 70
     1
102
RTVSPost2010Prop48
 90
       50
102
RTVSPost2010PropOp48
 70
     1
102
RTVSPost2010Prop49
280
     0
102
RTVSPost2010PropOp49
 70
     1
102
RTVSPost2010Prop50
 90
       50
102
RTVSPost2010PropOp50
 70
     1
102
RTVSPost2010Prop51ColorIndex
 90
      256
102
RTVSPost2010Prop51ColorRGB
 90
-16777216
102
RTVSPost2010PropOp51
 70
     0
102
RTVSPost2010Prop52
140
1.0
102
RTVSPost2010PropOp52
 70
     0
102
RTVSPost2010Prop53
 90
        2
102
RTVSPost2010PropOp53
 70
     1
102
RTVSPost2010Prop54
  1
strokes_ogs.tif
102
RTVSPost2010PropOp54
 70
     1
102
RTVSPost2010Prop55
280
     0
102
RTVSPost2010PropOp55
 70
     1
102
RTVSPost2010Prop56
140
1.0
102
RTVSPost2010PropOp56
 70
     1
102
RTVSPost2010Prop57
140
1.0
102
RTVSPost2010PropOp57
 70
     1
102
RTVSPropertyOp0
 70
     1
102
RTVSPropertyOp1
 70
     1
102
RTVSPropertyOp2
 70
     1
102
RTVSPropertyOp3
 70
     1
102
RTVSPropertyOp4
 70
     1
102
RTVSPropertyOp5
 70
     1
102
RTVSPropertyOp6
 70
     1
102
RTVSPropertyOp7
 70
     1
102
RTVSPropertyOp8
 70
     1
102
RTVSPropertyOp9
 70
     1
102
RTVSPropertyOp10
 70
     1
102
RTVSPropertyOp11
 70
     1
102
RTVSPropertyOp12
 70
     1
102
RTVSPropertyOp13
 70
     1
102
RTVSPropertyOp14
 70
     1
102
RTVSPropertyOp15
 70
     1
102
RTVSPropertyOp16
 70
     1
102
RTVSPropertyOp17
 70
     1
102
RTVSPropertyOp18
 70
     1
102
RTVSPropertyOp19
 70
     1
102
RTVSPropertyOp20
 70
     1
102
RTVSPropertyOp21
 70
     1
102
RTVSPropertyOp22
 70
     1
102
RTVSPropertyOp23
 70
     1
102
RTVSPropertyOp24
 70
     1
102
RTVSPropertyOp25
 70
     1
102
RTVSPropertyOp26
 70
     1
102
RTVSPropertyOp27
 70
     1
102
RTVSPropertyOp28
 70
     1
102
RTVSPropertyOp29
 70
     1
102
RTVSPropertyOp30
 70
     1
102
RTVSPropertyOp31
 70
     1
102
RTVSPropertyOp32
 70
     1
102
RTVSPropertyOp33
 70
     1
102
RTVSPropertyOp34
 70
     1
102
RTVSPropertyOp35
 70
     1
102
RTVSPropertyOp36
 70
     1
102
RTVSPropertyOp37
 70
     1
102
RTVSPropertyOp38
 70
     1
102
RTVSPropertyOp39
 70
     1
102
RTVSPropertyOp40
 70
     1
102
RTVSPropertyOp41
 70
     1
102
RTVSPropertyOp42
 70
     1
102
RTVSPropertyOp43
 70
     1
102
RTVSPropertyOp44
 70
     1
102
RTVSPropertyOp45
 70
     1
102
RTVSPropertyOp46
 70
     1
102
RTVSPropertyOp47
 70
     1
102
RTVSPropertyOp48
 70
     1
102
RTVSPropertyOp49
 70
     1
102
RTVSPropertyOp50
 70
     1
102
RTVSPropertyOp51
 70
     0
102
RTVSPropertyOp52
 70
     0
102
RTVSPropertyOp53
 70
     1
102
RTVSPropertyOp54
 70
     1
102
RTVSPropertyOp55
 70
     1
102
RTVSPropertyOp56
 70
     1
102
RTVSPropertyOp57
 70
     1
102
RTVSPropertyOp58
 70
     1
102
RTVSPropertyOp59
 70
     1
102
RTVSPropertyOp60
 70
     1
102
RTVSPropertyOp61
 70
     1
102
RTVSPropertyOp62
 70
     1
  0
XRECORD
  5
A7C1
102
{ACAD_REACTORS
330
A7C0
102
}
330
A7C0
100
AcDbXrecord
280
     1
102
RTVSPost2010Prop28
280
     0
102
RTVSPost2010PropOp28
 70
     1
102
RTVSPost2010Prop29
280
     1
102
RTVSPost2010PropOp29
 70
     1
102
RTVSPost2010Prop30
280
     1
102
RTVSPost2010PropOp30
 70
     1
102
RTVSPost2010Prop31
280
     0
102
RTVSPost2010PropOp31
 70
     1
102
RTVSPost2010Prop32
280
     0
102
RTVSPost2010PropOp32
 70
     1
102
RTVSPost2010Prop33
280
     0
102
RTVSPost2010PropOp33
 70
     1
102
RTVSPost2010Prop34
280
     0
102
RTVSPost2010PropOp34
 70
     1
102
RTVSPost2010Prop35
280
     0
102
RTVSPost2010PropOp35
 70
     1
102
RTVSPost2010Prop36
280
     0
102
RTVSPost2010PropOp36
 70
     1
102
RTVSPost2010Prop37
 90
       50
102
RTVSPost2010PropOp37
 70
     1
102
RTVSPost2010Prop38
140
0.0
102
RTVSPost2010PropOp38
 70
     1
102
RTVSPost2010Prop39
140
1.0
102
RTVSPost2010PropOp39
 70
     1
102
RTVSPost2010Prop40
 90
        0
102
RTVSPost2010PropOp40
 70
     1
102
RTVSPost2010Prop41ColorIndex
 90
       18
102
RTVSPost2010Prop41ColorRGB
 90
        0
102
RTVSPost2010PropOp41
 70
     1
102
RTVSPost2010Prop42
 90
       50
102
RTVSPost2010PropOp42
 70
     1
102
RTVSPost2010Prop43
 90
        3
102
RTVSPost2010PropOp43
 70
     1
102
RTVSPost2010Prop44ColorIndex
 90
        5
102
RTVSPost2010Prop44ColorRGB
 90
      255
102
RTVSPost2010PropOp44
 70
     1
102
RTVSPost2010Prop45
280
     0
102
RTVSPost2010PropOp45
 70
     1
102
RTVSPost2010Prop46
 90
       50
102
RTVSPost2010PropOp46
 70
     1
102
RTVSPost2010Prop47
 90
       50
102
RTVSPost2010PropOp47
 70
     1
102
RTVSPost2010Prop48
 90
       50
102
RTVSPost2010PropOp48
 70
     1
102
RTVSPost2010Prop49
280
     0
102
RTVSPost2010PropOp49
 70
     1
102
RTVSPost2010Prop50
 90
       50
102
RTVSPost2010PropOp50
 70
     1
102
RTVSPost2010Prop51ColorIndex
 90
      256
102
RTVSPost2010Prop51ColorRGB
 90
-16777216
102
RTVSPost2010PropOp51
 70
     0
102
RTVSPost2010Prop52
140
1.0
102
RTVSPost2010PropOp52
 70
     0
102
RTVSPost2010Prop53
 90
        2
102
RTVSPost2010PropOp53
 70
     1
102
RTVSPost2010Prop54
  1
strokes_ogs.tif
102
RTVSPost2010PropOp54
 70
     1
102
RTVSPost2010Prop55
280
     0
102
RTVSPost2010PropOp55
 70
     1
102
RTVSPost2010Prop56
140
1.0
102
RTVSPost2010PropOp56
 70
     1
102
RTVSPost2010Prop57
140
1.0
102
RTVSPost2010PropOp57
 70
     1
102
RTVSPropertyOp0
 70
     1
102
RTVSPropertyOp1
 70
     1
102
RTVSPropertyOp2
 70
     1
102
RTVSPropertyOp3
 70
     1
102
RTVSPropertyOp4
 70
     1
102
RTVSPropertyOp5
 70
     1
102
RTVSPropertyOp6
 70
     1
102
RTVSPropertyOp7
 70
     1
102
RTVSPropertyOp8
 70
     1
102
RTVSPropertyOp9
 70
     1
102
RTVSPropertyOp10
 70
     1
102
RTVSPropertyOp11
 70
     1
102
RTVSPropertyOp12
 70
     1
102
RTVSPropertyOp13
 70
     1
102
RTVSPropertyOp14
 70
     1
102
RTVSPropertyOp15
 70
     1
102
RTVSPropertyOp16
 70
     1
102
RTVSPropertyOp17
 70
     1
102
RTVSPropertyOp18
 70
     1
102
RTVSPropertyOp19
 70
     1
102
RTVSPropertyOp20
 70
     1
102
RTVSPropertyOp21
 70
     1
102
RTVSPropertyOp22
 70
     1
102
RTVSPropertyOp23
 70
     1
102
RTVSPropertyOp24
 70
     1
102
RTVSPropertyOp25
 70
     1
102
RTVSPropertyOp26
 70
     1
102
RTVSPropertyOp27
 70
     1
102
RTVSPropertyOp28
 70
     1
102
RTVSPropertyOp29
 70
     1
102
RTVSPropertyOp30
 70
     1
102
RTVSPropertyOp31
 70
     1
102
RTVSPropertyOp32
 70
     1
102
RTVSPropertyOp33
 70
     1
102
RTVSPropertyOp34
 70
     1
102
RTVSPropertyOp35
 70
     1
102
RTVSPropertyOp36
 70
     1
102
RTVSPropertyOp37
 70
     1
102
RTVSPropertyOp38
 70
     1
102
RTVSPropertyOp39
 70
     1
102
RTVSPropertyOp40
 70
     1
102
RTVSPropertyOp41
 70
     1
102
RTVSPropertyOp42
 70
     1
102
RTVSPropertyOp43
 70
     1
102
RTVSPropertyOp44
 70
     1
102
RTVSPropertyOp45
 70
     1
102
RTVSPropertyOp46
 70
     1
102
RTVSPropertyOp47
 70
     1
102
RTVSPropertyOp48
 70
     1
102
RTVSPropertyOp49
 70
     1
102
RTVSPropertyOp50
 70
     1
102
RTVSPropertyOp51
 70
     0
102
RTVSPropertyOp52
 70
     0
102
RTVSPropertyOp53
 70
     1
102
RTVSPropertyOp54
 70
     1
102
RTVSPropertyOp55
 70
     1
102
RTVSPropertyOp56
 70
     1
102
RTVSPropertyOp57
 70
     1
102
RTVSPropertyOp58
 70
     1
102
RTVSPropertyOp59
 70
     1
102
RTVSPropertyOp60
 70
     1
102
RTVSPropertyOp61
 70
     1
102
RTVSPropertyOp62
 70
     1
  0
XRECORD
  5
A7C5
102
{ACAD_REACTORS
330
A7C4
102
}
330
A7C4
100
AcDbXrecord
280
     1
102
RTVSPost2010Prop28
280
     0
102
RTVSPost2010PropOp28
 70
     1
102
RTVSPost2010Prop29
280
     1
102
RTVSPost2010PropOp29
 70
     1
102
RTVSPost2010Prop30
280
     1
102
RTVSPost2010PropOp30
 70
     1
102
RTVSPost2010Prop31
280
     0
102
RTVSPost2010PropOp31
 70
     1
102
RTVSPost2010Prop32
280
     0
102
RTVSPost2010PropOp32
 70
     1
102
RTVSPost2010Prop33
280
     0
102
RTVSPost2010PropOp33
 70
     1
102
RTVSPost2010Prop34
280
     0
102
RTVSPost2010PropOp34
 70
     1
102
RTVSPost2010Prop35
280
     0
102
RTVSPost2010PropOp35
 70
     1
102
RTVSPost2010Prop36
280
     0
102
RTVSPost2010PropOp36
 70
     1
102
RTVSPost2010Prop37
 90
       50
102
RTVSPost2010PropOp37
 70
     1
102
RTVSPost2010Prop38
140
0.0
102
RTVSPost2010PropOp38
 70
     1
102
RTVSPost2010Prop39
140
1.0
102
RTVSPost2010PropOp39
 70
     1
102
RTVSPost2010Prop40
 90
        0
102
RTVSPost2010PropOp40
 70
     1
102
RTVSPost2010Prop41ColorIndex
 90
       18
102
RTVSPost2010Prop41ColorRGB
 90
        0
102
RTVSPost2010PropOp41
 70
     1
102
RTVSPost2010Prop42
 90
       50
102
RTVSPost2010PropOp42
 70
     1
102
RTVSPost2010Prop43
 90
        3
102
RTVSPost2010PropOp43
 70
     1
102
RTVSPost2010Prop44ColorIndex
 90
        5
102
RTVSPost2010Prop44ColorRGB
 90
      255
102
RTVSPost2010PropOp44
 70
     1
102
RTVSPost2010Prop45
280
     0
102
RTVSPost2010PropOp45
 70
     1
102
RTVSPost2010Prop46
 90
       50
102
RTVSPost2010PropOp46
 70
     1
102
RTVSPost2010Prop47
 90
       50
102
RTVSPost2010PropOp47
 70
     1
102
RTVSPost2010Prop48
 90
       50
102
RTVSPost2010PropOp48
 70
     1
102
RTVSPost2010Prop49
280
     0
102
RTVSPost2010PropOp49
 70
     1
102
RTVSPost2010Prop50
 90
       50
102
RTVSPost2010PropOp50
 70
     1
102
RTVSPost2010Prop51ColorIndex
 90
      256
102
RTVSPost2010Prop51ColorRGB
 90
-16777216
102
RTVSPost2010PropOp51
 70
     0
102
RTVSPost2010Prop52
140
1.0
102
RTVSPost2010PropOp52
 70
     0
102
RTVSPost2010Prop53
 90
        2
102
RTVSPost2010PropOp53
 70
     1
102
RTVSPost2010Prop54
  1
strokes_ogs.tif
102
RTVSPost2010PropOp54
 70
     1
102
RTVSPost2010Prop55
280
     0
102
RTVSPost2010PropOp55
 70
     1
102
RTVSPost2010Prop56
140
1.0
102
RTVSPost2010PropOp56
 70
     1
102
RTVSPost2010Prop57
140
1.0
102
RTVSPost2010PropOp57
 70
     1
102
RTVSPropertyOp0
 70
     1
102
RTVSPropertyOp1
 70
     1
102
RTVSPropertyOp2
 70
     1
102
RTVSPropertyOp3
 70
     1
102
RTVSPropertyOp4
 70
     1
102
RTVSPropertyOp5
 70
     1
102
RTVSPropertyOp6
 70
     1
102
RTVSPropertyOp7
 70
     1
102
RTVSPropertyOp8
 70
     1
102
RTVSPropertyOp9
 70
     1
102
RTVSPropertyOp10
 70
     1
102
RTVSPropertyOp11
 70
     1
102
RTVSPropertyOp12
 70
     1
102
RTVSPropertyOp13
 70
     1
102
RTVSPropertyOp14
 70
     1
102
RTVSPropertyOp15
 70
     1
102
RTVSPropertyOp16
 70
     1
102
RTVSPropertyOp17
 70
     1
102
RTVSPropertyOp18
 70
     1
102
RTVSPropertyOp19
 70
     1
102
RTVSPropertyOp20
 70
     1
102
RTVSPropertyOp21
 70
     1
102
RTVSPropertyOp22
 70
     1
102
RTVSPropertyOp23
 70
     1
102
RTVSPropertyOp24
 70
     1
102
RTVSPropertyOp25
 70
     1
102
RTVSPropertyOp26
 70
     1
102
RTVSPropertyOp27
 70
     1
102
RTVSPropertyOp28
 70
     1
102
RTVSPropertyOp29
 70
     1
102
RTVSPropertyOp30
 70
     1
102
RTVSPropertyOp31
 70
     1
102
RTVSPropertyOp32
 70
     1
102
RTVSPropertyOp33
 70
     1
102
RTVSPropertyOp34
 70
     1
102
RTVSPropertyOp35
 70
     1
102
RTVSPropertyOp36
 70
     1
102
RTVSPropertyOp37
 70
     1
102
RTVSPropertyOp38
 70
     1
102
RTVSPropertyOp39
 70
     1
102
RTVSPropertyOp40
 70
     1
102
RTVSPropertyOp41
 70
     1
102
RTVSPropertyOp42
 70
     1
102
RTVSPropertyOp43
 70
     1
102
RTVSPropertyOp44
 70
     1
102
RTVSPropertyOp45
 70
     1
102
RTVSPropertyOp46
 70
     1
102
RTVSPropertyOp47
 70
     1
102
RTVSPropertyOp48
 70
     1
102
RTVSPropertyOp49
 70
     1
102
RTVSPropertyOp50
 70
     1
102
RTVSPropertyOp51
 70
     0
102
RTVSPropertyOp52
 70
     0
102
RTVSPropertyOp53
 70
     1
102
RTVSPropertyOp54
 70
     1
102
RTVSPropertyOp55
 70
     1
102
RTVSPropertyOp56
 70
     1
102
RTVSPropertyOp57
 70
     1
102
RTVSPropertyOp58
 70
     1
102
RTVSPropertyOp59
 70
     1
102
RTVSPropertyOp60
 70
     1
102
RTVSPropertyOp61
 70
     1
102
RTVSPropertyOp62
 70
     1
  0
XRECORD
  5
A7DF
102
{ACAD_REACTORS
330
A7DE
102
}
330
A7DE
100
AcDbXrecord
280
     1
102
RTVSPost2010Prop28
280
     0
102
RTVSPost2010PropOp28
 70
     1
102
RTVSPost2010Prop29
280
     1
102
RTVSPost2010PropOp29
 70
     1
102
RTVSPost2010Prop30
280
     1
102
RTVSPost2010PropOp30
 70
     1
102
RTVSPost2010Prop31
280
     0
102
RTVSPost2010PropOp31
 70
     1
102
RTVSPost2010Prop32
280
     0
102
RTVSPost2010PropOp32
 70
     1
102
RTVSPost2010Prop33
280
     0
102
RTVSPost2010PropOp33
 70
     1
102
RTVSPost2010Prop34
280
     0
102
RTVSPost2010PropOp34
 70
     1
102
RTVSPost2010Prop35
280
     0
102
RTVSPost2010PropOp35
 70
     1
102
RTVSPost2010Prop36
280
     0
102
RTVSPost2010PropOp36
 70
     1
102
RTVSPost2010Prop37
 90
       50
102
RTVSPost2010PropOp37
 70
     0
102
RTVSPost2010Prop38
140
0.0
102
RTVSPost2010PropOp38
 70
     0
102
RTVSPost2010Prop39
140
1.0
102
RTVSPost2010PropOp39
 70
     0
102
RTVSPost2010Prop40
 90
        0
102
RTVSPost2010PropOp40
 70
     0
102
RTVSPost2010Prop41ColorIndex
 90
       18
102
RTVSPost2010Prop41ColorRGB
 90
        0
102
RTVSPost2010PropOp41
 70
     0
102
RTVSPost2010Prop42
 90
       50
102
RTVSPost2010PropOp42
 70
     0
102
RTVSPost2010Prop43
 90
        3
102
RTVSPost2010PropOp43
 70
     0
102
RTVSPost2010Prop44ColorIndex
 90
        5
102
RTVSPost2010Prop44ColorRGB
 90
      255
102
RTVSPost2010PropOp44
 70
     0
102
RTVSPost2010Prop45
280
     0
102
RTVSPost2010PropOp45
 70
     1
102
RTVSPost2010Prop46
 90
       50
102
RTVSPost2010PropOp46
 70
     0
102
RTVSPost2010Prop47
 90
       50
102
RTVSPost2010PropOp47
 70
     0
102
RTVSPost2010Prop48
 90
       50
102
RTVSPost2010PropOp48
 70
     0
102
RTVSPost2010Prop49
280
     0
102
RTVSPost2010PropOp49
 70
     1
102
RTVSPost2010Prop50
 90
       50
102
RTVSPost2010PropOp50
 70
     0
102
RTVSPost2010Prop51ColorIndex
 90
      256
102
RTVSPost2010Prop51ColorRGB
 90
-16777216
102
RTVSPost2010PropOp51
 70
     0
102
RTVSPost2010Prop52
140
1.0
102
RTVSPost2010PropOp52
 70
     0
102
RTVSPost2010Prop53
 90
        2
102
RTVSPost2010PropOp53
 70
     0
102
RTVSPost2010Prop54
  1
strokes_ogs.tif
102
RTVSPost2010PropOp54
 70
     0
102
RTVSPost2010Prop55
280
     0
102
RTVSPost2010PropOp55
 70
     1
102
RTVSPost2010Prop56
140
1.0
102
RTVSPost2010PropOp56
 70
     0
102
RTVSPost2010Prop57
140
1.0
102
RTVSPost2010PropOp57
 70
     0
102
RTVSPropertyOp0
 70
     0
102
RTVSPropertyOp1
 70
     0
102
RTVSPropertyOp2
 70
     0
102
RTVSPropertyOp3
 70
     0
102
RTVSPropertyOp4
 70
     0
102
RTVSPropertyOp5
 70
     0
102
RTVSPropertyOp6
 70
     0
102
RTVSPropertyOp7
 70
     0
102
RTVSPropertyOp8
 70
     0
102
RTVSPropertyOp9
 70
     0
102
RTVSPropertyOp10
 70
     0
102
RTVSPropertyOp11
 70
     0
102
RTVSPropertyOp12
 70
     0
102
RTVSPropertyOp13
 70
     0
102
RTVSPropertyOp14
 70
     2
102
RTVSPropertyOp15
 70
     0
102
RTVSPropertyOp16
 70
     0
102
RTVSPropertyOp17
 70
     0
102
RTVSPropertyOp18
 70
     0
102
RTVSPropertyOp19
 70
     0
102
RTVSPropertyOp20
 70
     0
102
RTVSPropertyOp21
 70
     0
102
RTVSPropertyOp22
 70
     0
102
RTVSPropertyOp23
 70
     0
102
RTVSPropertyOp24
 70
     0
102
RTVSPropertyOp25
 70
     0
102
RTVSPropertyOp26
 70
     0
102
RTVSPropertyOp27
 70
     0
102
RTVSPropertyOp28
 70
     1
102
RTVSPropertyOp29
 70
     1
102
RTVSPropertyOp30
 70
     1
102
RTVSPropertyOp31
 70
     1
102
RTVSPropertyOp32
 70
     1
102
RTVSPropertyOp33
 70
     1
102
RTVSPropertyOp34
 70
     1
102
RTVSPropertyOp35
 70
     1
102
RTVSPropertyOp36
 70
     1
102
RTVSPropertyOp37
 70
     0
102
RTVSPropertyOp38
 70
     0
102
RTVSPropertyOp39
 70
     0
102
RTVSPropertyOp40
 70
     0
102
RTVSPropertyOp41
 70
     0
102
RTVSPropertyOp42
 70
     0
102
RTVSPropertyOp43
 70
     0
102
RTVSPropertyOp44
 70
     0
102
RTVSPropertyOp45
 70
     1
102
RTVSPropertyOp46
 70
     0
102
RTVSPropertyOp47
 70
     0
102
RTVSPropertyOp48
 70
     0
102
RTVSPropertyOp49
 70
     1
102
RTVSPropertyOp50
 70
     0
102
RTVSPropertyOp51
 70
     0
102
RTVSPropertyOp52
 70
     0
102
RTVSPropertyOp53
 70
     0
102
RTVSPropertyOp54
 70
     0
102
RTVSPropertyOp55
 70
     1
102
RTVSPropertyOp56
 70
     0
102
RTVSPropertyOp57
 70
     0
102
RTVSPropertyOp58
 70
     0
102
RTVSPropertyOp59
 70
     0
102
RTVSPropertyOp60
 70
     0
102
RTVSPropertyOp61
 70
     0
102
RTVSPropertyOp62
 70
     0
  0
XRECORD
  5
A7CD
102
{ACAD_REACTORS
330
A7CC
102
}
330
A7CC
100
AcDbXrecord
280
     1
102
RTVSPost2010Prop28
280
     0
102
RTVSPost2010PropOp28
 70
     1
102
RTVSPost2010Prop29
280
     1
102
RTVSPost2010PropOp29
 70
     1
102
RTVSPost2010Prop30
280
     1
102
RTVSPost2010PropOp30
 70
     1
102
RTVSPost2010Prop31
280
     0
102
RTVSPost2010PropOp31
 70
     1
102
RTVSPost2010Prop32
280
     0
102
RTVSPost2010PropOp32
 70
     1
102
RTVSPost2010Prop33
280
     0
102
RTVSPost2010PropOp33
 70
     1
102
RTVSPost2010Prop34
280
     0
102
RTVSPost2010PropOp34
 70
     1
102
RTVSPost2010Prop35
280
     0
102
RTVSPost2010PropOp35
 70
     1
102
RTVSPost2010Prop36
280
     0
102
RTVSPost2010PropOp36
 70
     1
102
RTVSPost2010Prop37
 90
       50
102
RTVSPost2010PropOp37
 70
     1
102
RTVSPost2010Prop38
140
0.0
102
RTVSPost2010PropOp38
 70
     1
102
RTVSPost2010Prop39
140
1.0
102
RTVSPost2010PropOp39
 70
     1
102
RTVSPost2010Prop40
 90
        0
102
RTVSPost2010PropOp40
 70
     1
102
RTVSPost2010Prop41ColorIndex
 90
       18
102
RTVSPost2010Prop41ColorRGB
 90
        0
102
RTVSPost2010PropOp41
 70
     1
102
RTVSPost2010Prop42
 90
       50
102
RTVSPost2010PropOp42
 70
     1
102
RTVSPost2010Prop43
 90
        3
102
RTVSPost2010PropOp43
 70
     1
102
RTVSPost2010Prop44ColorIndex
 90
        5
102
RTVSPost2010Prop44ColorRGB
 90
      255
102
RTVSPost2010PropOp44
 70
     1
102
RTVSPost2010Prop45
280
     0
102
RTVSPost2010PropOp45
 70
     1
102
RTVSPost2010Prop46
 90
       50
102
RTVSPost2010PropOp46
 70
     1
102
RTVSPost2010Prop47
 90
       50
102
RTVSPost2010PropOp47
 70
     1
102
RTVSPost2010Prop48
 90
       50
102
RTVSPost2010PropOp48
 70
     1
102
RTVSPost2010Prop49
280
     0
102
RTVSPost2010PropOp49
 70
     1
102
RTVSPost2010Prop50
 90
       50
102
RTVSPost2010PropOp50
 70
     1
102
RTVSPost2010Prop51ColorIndex
 90
      256
102
RTVSPost2010Prop51ColorRGB
 90
-16777216
102
RTVSPost2010PropOp51
 70
     0
102
RTVSPost2010Prop52
140
1.0
102
RTVSPost2010PropOp52
 70
     0
102
RTVSPost2010Prop53
 90
        2
102
RTVSPost2010PropOp53
 70
     1
102
RTVSPost2010Prop54
  1
strokes_ogs.tif
102
RTVSPost2010PropOp54
 70
     1
102
RTVSPost2010Prop55
280
     0
102
RTVSPost2010PropOp55
 70
     1
102
RTVSPost2010Prop56
140
1.0
102
RTVSPost2010PropOp56
 70
     1
102
RTVSPost2010Prop57
140
1.0
102
RTVSPost2010PropOp57
 70
     1
102
RTVSPropertyOp0
 70
     1
102
RTVSPropertyOp1
 70
     1
102
RTVSPropertyOp2
 70
     1
102
RTVSPropertyOp3
 70
     1
102
RTVSPropertyOp4
 70
     1
102
RTVSPropertyOp5
 70
     1
102
RTVSPropertyOp6
 70
     1
102
RTVSPropertyOp7
 70
     1
102
RTVSPropertyOp8
 70
     1
102
RTVSPropertyOp9
 70
     1
102
RTVSPropertyOp10
 70
     1
102
RTVSPropertyOp11
 70
     1
102
RTVSPropertyOp12
 70
     1
102
RTVSPropertyOp13
 70
     1
102
RTVSPropertyOp14
 70
     1
102
RTVSPropertyOp15
 70
     1
102
RTVSPropertyOp16
 70
     1
102
RTVSPropertyOp17
 70
     1
102
RTVSPropertyOp18
 70
     1
102
RTVSPropertyOp19
 70
     1
102
RTVSPropertyOp20
 70
     1
102
RTVSPropertyOp21
 70
     1
102
RTVSPropertyOp22
 70
     1
102
RTVSPropertyOp23
 70
     1
102
RTVSPropertyOp24
 70
     1
102
RTVSPropertyOp25
 70
     1
102
RTVSPropertyOp26
 70
     1
102
RTVSPropertyOp27
 70
     1
102
RTVSPropertyOp28
 70
     1
102
RTVSPropertyOp29
 70
     1
102
RTVSPropertyOp30
 70
     1
102
RTVSPropertyOp31
 70
     1
102
RTVSPropertyOp32
 70
     1
102
RTVSPropertyOp33
 70
     1
102
RTVSPropertyOp34
 70
     1
102
RTVSPropertyOp35
 70
     1
102
RTVSPropertyOp36
 70
     1
102
RTVSPropertyOp37
 70
     1
102
RTVSPropertyOp38
 70
     1
102
RTVSPropertyOp39
 70
     1
102
RTVSPropertyOp40
 70
     1
102
RTVSPropertyOp41
 70
     1
102
RTVSPropertyOp42
 70
     1
102
RTVSPropertyOp43
 70
     1
102
RTVSPropertyOp44
 70
     1
102
RTVSPropertyOp45
 70
     1
102
RTVSPropertyOp46
 70
     1
102
RTVSPropertyOp47
 70
     1
102
RTVSPropertyOp48
 70
     1
102
RTVSPropertyOp49
 70
     1
102
RTVSPropertyOp50
 70
     1
102
RTVSPropertyOp51
 70
     0
102
RTVSPropertyOp52
 70
     0
102
RTVSPropertyOp53
 70
     1
102
RTVSPropertyOp54
 70
     1
102
RTVSPropertyOp55
 70
     1
102
RTVSPropertyOp56
 70
     1
102
RTVSPropertyOp57
 70
     1
102
RTVSPropertyOp58
 70
     1
102
RTVSPropertyOp59
 70
     1
102
RTVSPropertyOp60
 70
     1
102
RTVSPropertyOp61
 70
     1
102
RTVSPropertyOp62
 70
     1
  0
XRECORD
  5
A7B1
102
{ACAD_REACTORS
330
A7B0
102
}
330
A7B0
100
AcDbXrecord
280
     1
102
RTVSPost2010Prop28
280
     0
102
RTVSPost2010PropOp28
 70
     1
102
RTVSPost2010Prop29
280
     1
102
RTVSPost2010PropOp29
 70
     1
102
RTVSPost2010Prop30
280
     1
102
RTVSPost2010PropOp30
 70
     1
102
RTVSPost2010Prop31
280
     0
102
RTVSPost2010PropOp31
 70
     1
102
RTVSPost2010Prop32
280
     0
102
RTVSPost2010PropOp32
 70
     1
102
RTVSPost2010Prop33
280
     0
102
RTVSPost2010PropOp33
 70
     1
102
RTVSPost2010Prop34
280
     0
102
RTVSPost2010PropOp34
 70
     1
102
RTVSPost2010Prop35
280
     0
102
RTVSPost2010PropOp35
 70
     1
102
RTVSPost2010Prop36
280
     0
102
RTVSPost2010PropOp36
 70
     1
102
RTVSPost2010Prop37
 90
       50
102
RTVSPost2010PropOp37
 70
     1
102
RTVSPost2010Prop38
140
0.0
102
RTVSPost2010PropOp38
 70
     1
102
RTVSPost2010Prop39
140
1.0
102
RTVSPost2010PropOp39
 70
     1
102
RTVSPost2010Prop40
 90
        0
102
RTVSPost2010PropOp40
 70
     1
102
RTVSPost2010Prop41ColorIndex
 90
       18
102
RTVSPost2010Prop41ColorRGB
 90
        0
102
RTVSPost2010PropOp41
 70
     1
102
RTVSPost2010Prop42
 90
       50
102
RTVSPost2010PropOp42
 70
     1
102
RTVSPost2010Prop43
 90
        3
102
RTVSPost2010PropOp43
 70
     1
102
RTVSPost2010Prop44ColorIndex
 90
        5
102
RTVSPost2010Prop44ColorRGB
 90
      255
102
RTVSPost2010PropOp44
 70
     1
102
RTVSPost2010Prop45
280
     0
102
RTVSPost2010PropOp45
 70
     1
102
RTVSPost2010Prop46
 90
       50
102
RTVSPost2010PropOp46
 70
     1
102
RTVSPost2010Prop47
 90
       50
102
RTVSPost2010PropOp47
 70
     1
102
RTVSPost2010Prop48
 90
       50
102
RTVSPost2010PropOp48
 70
     1
102
RTVSPost2010Prop49
280
     0
102
RTVSPost2010PropOp49
 70
     1
102
RTVSPost2010Prop50
 90
       50
102
RTVSPost2010PropOp50
 70
     1
102
RTVSPost2010Prop51ColorIndex
 90
      256
102
RTVSPost2010Prop51ColorRGB
 90
-16777216
102
RTVSPost2010PropOp51
 70
     0
102
RTVSPost2010Prop52
140
1.0
102
RTVSPost2010PropOp52
 70
     0
102
RTVSPost2010Prop53
 90
        2
102
RTVSPost2010PropOp53
 70
     1
102
RTVSPost2010Prop54
  1
strokes_ogs.tif
102
RTVSPost2010PropOp54
 70
     1
102
RTVSPost2010Prop55
280
     0
102
RTVSPost2010PropOp55
 70
     1
102
RTVSPost2010Prop56
140
1.0
102
RTVSPost2010PropOp56
 70
     1
102
RTVSPost2010Prop57
140
1.0
102
RTVSPost2010PropOp57
 70
     1
102
RTVSPropertyOp0
 70
     1
102
RTVSPropertyOp1
 70
     1
102
RTVSPropertyOp2
 70
     1
102
RTVSPropertyOp3
 70
     1
102
RTVSPropertyOp4
 70
     1
102
RTVSPropertyOp5
 70
     1
102
RTVSPropertyOp6
 70
     1
102
RTVSPropertyOp7
 70
     1
102
RTVSPropertyOp8
 70
     1
102
RTVSPropertyOp9
 70
     1
102
RTVSPropertyOp10
 70
     1
102
RTVSPropertyOp11
 70
     1
102
RTVSPropertyOp12
 70
     1
102
RTVSPropertyOp13
 70
     1
102
RTVSPropertyOp14
 70
     1
102
RTVSPropertyOp15
 70
     1
102
RTVSPropertyOp16
 70
     1
102
RTVSPropertyOp17
 70
     1
102
RTVSPropertyOp18
 70
     1
102
RTVSPropertyOp19
 70
     1
102
RTVSPropertyOp20
 70
     1
102
RTVSPropertyOp21
 70
     1
102
RTVSPropertyOp22
 70
     1
102
RTVSPropertyOp23
 70
     1
102
RTVSPropertyOp24
 70
     1
102
RTVSPropertyOp25
 70
     1
102
RTVSPropertyOp26
 70
     1
102
RTVSPropertyOp27
 70
     1
102
RTVSPropertyOp28
 70
     1
102
RTVSPropertyOp29
 70
     1
102
RTVSPropertyOp30
 70
     1
102
RTVSPropertyOp31
 70
     1
102
RTVSPropertyOp32
 70
     1
102
RTVSPropertyOp33
 70
     1
102
RTVSPropertyOp34
 70
     1
102
RTVSPropertyOp35
 70
     1
102
RTVSPropertyOp36
 70
     1
102
RTVSPropertyOp37
 70
     1
102
RTVSPropertyOp38
 70
     1
102
RTVSPropertyOp39
 70
     1
102
RTVSPropertyOp40
 70
     1
102
RTVSPropertyOp41
 70
     1
102
RTVSPropertyOp42
 70
     1
102
RTVSPropertyOp43
 70
     1
102
RTVSPropertyOp44
 70
     1
102
RTVSPropertyOp45
 70
     1
102
RTVSPropertyOp46
 70
     1
102
RTVSPropertyOp47
 70
     1
102
RTVSPropertyOp48
 70
     1
102
RTVSPropertyOp49
 70
     1
102
RTVSPropertyOp50
 70
     1
102
RTVSPropertyOp51
 70
     0
102
RTVSPropertyOp52
 70
     0
102
RTVSPropertyOp53
 70
     1
102
RTVSPropertyOp54
 70
     1
102
RTVSPropertyOp55
 70
     1
102
RTVSPropertyOp56
 70
     1
102
RTVSPropertyOp57
 70
     1
102
RTVSPropertyOp58
 70
     1
102
RTVSPropertyOp59
 70
     1
102
RTVSPropertyOp60
 70
     1
102
RTVSPropertyOp61
 70
     1
102
RTVSPropertyOp62
 70
     1
  0
XRECORD
  5
A7B3
102
{ACAD_REACTORS
330
A7B2
102
}
330
A7B2
100
AcDbXrecord
280
     1
102
RTVSPost2010Prop28
280
     0
102
RTVSPost2010PropOp28
 70
     1
102
RTVSPost2010Prop29
280
     1
102
RTVSPost2010PropOp29
 70
     1
102
RTVSPost2010Prop30
280
     1
102
RTVSPost2010PropOp30
 70
     1
102
RTVSPost2010Prop31
280
     0
102
RTVSPost2010PropOp31
 70
     1
102
RTVSPost2010Prop32
280
     0
102
RTVSPost2010PropOp32
 70
     1
102
RTVSPost2010Prop33
280
     0
102
RTVSPost2010PropOp33
 70
     1
102
RTVSPost2010Prop34
280
     0
102
RTVSPost2010PropOp34
 70
     1
102
RTVSPost2010Prop35
280
     0
102
RTVSPost2010PropOp35
 70
     1
102
RTVSPost2010Prop36
280
     0
102
RTVSPost2010PropOp36
 70
     1
102
RTVSPost2010Prop37
 90
       50
102
RTVSPost2010PropOp37
 70
     1
102
RTVSPost2010Prop38
140
0.0
102
RTVSPost2010PropOp38
 70
     1
102
RTVSPost2010Prop39
140
1.0
102
RTVSPost2010PropOp39
 70
     1
102
RTVSPost2010Prop40
 90
        0
102
RTVSPost2010PropOp40
 70
     1
102
RTVSPost2010Prop41ColorIndex
 90
       18
102
RTVSPost2010Prop41ColorRGB
 90
        0
102
RTVSPost2010PropOp41
 70
     1
102
RTVSPost2010Prop42
 90
       50
102
RTVSPost2010PropOp42
 70
     1
102
RTVSPost2010Prop43
 90
        3
102
RTVSPost2010PropOp43
 70
     1
102
RTVSPost2010Prop44ColorIndex
 90
        5
102
RTVSPost2010Prop44ColorRGB
 90
      255
102
RTVSPost2010PropOp44
 70
     1
102
RTVSPost2010Prop45
280
     0
102
RTVSPost2010PropOp45
 70
     1
102
RTVSPost2010Prop46
 90
       50
102
RTVSPost2010PropOp46
 70
     1
102
RTVSPost2010Prop47
 90
       50
102
RTVSPost2010PropOp47
 70
     1
102
RTVSPost2010Prop48
 90
       50
102
RTVSPost2010PropOp48
 70
     1
102
RTVSPost2010Prop49
280
     0
102
RTVSPost2010PropOp49
 70
     1
102
RTVSPost2010Prop50
 90
       50
102
RTVSPost2010PropOp50
 70
     1
102
RTVSPost2010Prop51ColorIndex
 90
      256
102
RTVSPost2010Prop51ColorRGB
 90
-16777216
102
RTVSPost2010PropOp51
 70
     0
102
RTVSPost2010Prop52
140
1.0
102
RTVSPost2010PropOp52
 70
     0
102
RTVSPost2010Prop53
 90
        2
102
RTVSPost2010PropOp53
 70
     1
102
RTVSPost2010Prop54
  1
strokes_ogs.tif
102
RTVSPost2010PropOp54
 70
     1
102
RTVSPost2010Prop55
280
     0
102
RTVSPost2010PropOp55
 70
     1
102
RTVSPost2010Prop56
140
1.0
102
RTVSPost2010PropOp56
 70
     1
102
RTVSPost2010Prop57
140
1.0
102
RTVSPost2010PropOp57
 70
     1
102
RTVSPropertyOp0
 70
     1
102
RTVSPropertyOp1
 70
     1
102
RTVSPropertyOp2
 70
     1
102
RTVSPropertyOp3
 70
     1
102
RTVSPropertyOp4
 70
     1
102
RTVSPropertyOp5
 70
     1
102
RTVSPropertyOp6
 70
     1
102
RTVSPropertyOp7
 70
     1
102
RTVSPropertyOp8
 70
     1
102
RTVSPropertyOp9
 70
     1
102
RTVSPropertyOp10
 70
     1
102
RTVSPropertyOp11
 70
     1
102
RTVSPropertyOp12
 70
     1
102
RTVSPropertyOp13
 70
     1
102
RTVSPropertyOp14
 70
     1
102
RTVSPropertyOp15
 70
     1
102
RTVSPropertyOp16
 70
     1
102
RTVSPropertyOp17
 70
     1
102
RTVSPropertyOp18
 70
     1
102
RTVSPropertyOp19
 70
     1
102
RTVSPropertyOp20
 70
     1
102
RTVSPropertyOp21
 70
     1
102
RTVSPropertyOp22
 70
     1
102
RTVSPropertyOp23
 70
     1
102
RTVSPropertyOp24
 70
     1
102
RTVSPropertyOp25
 70
     1
102
RTVSPropertyOp26
 70
     1
102
RTVSPropertyOp27
 70
     1
102
RTVSPropertyOp28
 70
     1
102
RTVSPropertyOp29
 70
     1
102
RTVSPropertyOp30
 70
     1
102
RTVSPropertyOp31
 70
     1
102
RTVSPropertyOp32
 70
     1
102
RTVSPropertyOp33
 70
     1
102
RTVSPropertyOp34
 70
     1
102
RTVSPropertyOp35
 70
     1
102
RTVSPropertyOp36
 70
     1
102
RTVSPropertyOp37
 70
     1
102
RTVSPropertyOp38
 70
     1
102
RTVSPropertyOp39
 70
     1
102
RTVSPropertyOp40
 70
     1
102
RTVSPropertyOp41
 70
     1
102
RTVSPropertyOp42
 70
     1
102
RTVSPropertyOp43
 70
     1
102
RTVSPropertyOp44
 70
     1
102
RTVSPropertyOp45
 70
     1
102
RTVSPropertyOp46
 70
     1
102
RTVSPropertyOp47
 70
     1
102
RTVSPropertyOp48
 70
     1
102
RTVSPropertyOp49
 70
     1
102
RTVSPropertyOp50
 70
     1
102
RTVSPropertyOp51
 70
     0
102
RTVSPropertyOp52
 70
     0
102
RTVSPropertyOp53
 70
     1
102
RTVSPropertyOp54
 70
     1
102
RTVSPropertyOp55
 70
     1
102
RTVSPropertyOp56
 70
     1
102
RTVSPropertyOp57
 70
     1
102
RTVSPropertyOp58
 70
     1
102
RTVSPropertyOp59
 70
     1
102
RTVSPropertyOp60
 70
     1
102
RTVSPropertyOp61
 70
     1
102
RTVSPropertyOp62
 70
     1
  0
XRECORD
  5
A7B5
102
{ACAD_REACTORS
330
A7B4
102
}
330
A7B4
100
AcDbXrecord
280
     1
102
RTVSPost2010Prop28
280
     0
102
RTVSPost2010PropOp28
 70
     1
102
RTVSPost2010Prop29
280
     1
102
RTVSPost2010PropOp29
 70
     1
102
RTVSPost2010Prop30
280
     1
102
RTVSPost2010PropOp30
 70
     1
102
RTVSPost2010Prop31
280
     0
102
RTVSPost2010PropOp31
 70
     1
102
RTVSPost2010Prop32
280
     0
102
RTVSPost2010PropOp32
 70
     1
102
RTVSPost2010Prop33
280
     0
102
RTVSPost2010PropOp33
 70
     1
102
RTVSPost2010Prop34
280
     0
102
RTVSPost2010PropOp34
 70
     1
102
RTVSPost2010Prop35
280
     0
102
RTVSPost2010PropOp35
 70
     1
102
RTVSPost2010Prop36
280
     0
102
RTVSPost2010PropOp36
 70
     1
102
RTVSPost2010Prop37
 90
       50
102
RTVSPost2010PropOp37
 70
     1
102
RTVSPost2010Prop38
140
0.0
102
RTVSPost2010PropOp38
 70
     1
102
RTVSPost2010Prop39
140
1.0
102
RTVSPost2010PropOp39
 70
     1
102
RTVSPost2010Prop40
 90
        0
102
RTVSPost2010PropOp40
 70
     1
102
RTVSPost2010Prop41ColorIndex
 90
       18
102
RTVSPost2010Prop41ColorRGB
 90
        0
102
RTVSPost2010PropOp41
 70
     1
102
RTVSPost2010Prop42
 90
       50
102
RTVSPost2010PropOp42
 70
     1
102
RTVSPost2010Prop43
 90
        3
102
RTVSPost2010PropOp43
 70
     1
102
RTVSPost2010Prop44ColorIndex
 90
        5
102
RTVSPost2010Prop44ColorRGB
 90
      255
102
RTVSPost2010PropOp44
 70
     1
102
RTVSPost2010Prop45
280
     0
102
RTVSPost2010PropOp45
 70
     1
102
RTVSPost2010Prop46
 90
       50
102
RTVSPost2010PropOp46
 70
     1
102
RTVSPost2010Prop47
 90
       50
102
RTVSPost2010PropOp47
 70
     1
102
RTVSPost2010Prop48
 90
       50
102
RTVSPost2010PropOp48
 70
     1
102
RTVSPost2010Prop49
280
     0
102
RTVSPost2010PropOp49
 70
     1
102
RTVSPost2010Prop50
 90
       50
102
RTVSPost2010PropOp50
 70
     1
102
RTVSPost2010Prop51ColorIndex
 90
      256
102
RTVSPost2010Prop51ColorRGB
 90
-16777216
102
RTVSPost2010PropOp51
 70
     0
102
RTVSPost2010Prop52
140
1.0
102
RTVSPost2010PropOp52
 70
     0
102
RTVSPost2010Prop53
 90
        2
102
RTVSPost2010PropOp53
 70
     1
102
RTVSPost2010Prop54
  1
strokes_ogs.tif
102
RTVSPost2010PropOp54
 70
     1
102
RTVSPost2010Prop55
280
     0
102
RTVSPost2010PropOp55
 70
     1
102
RTVSPost2010Prop56
140
1.0
102
RTVSPost2010PropOp56
 70
     1
102
RTVSPost2010Prop57
140
1.0
102
RTVSPost2010PropOp57
 70
     1
102
RTVSPropertyOp0
 70
     1
102
RTVSPropertyOp1
 70
     1
102
RTVSPropertyOp2
 70
     1
102
RTVSPropertyOp3
 70
     1
102
RTVSPropertyOp4
 70
     1
102
RTVSPropertyOp5
 70
     1
102
RTVSPropertyOp6
 70
     1
102
RTVSPropertyOp7
 70
     1
102
RTVSPropertyOp8
 70
     1
102
RTVSPropertyOp9
 70
     1
102
RTVSPropertyOp10
 70
     1
102
RTVSPropertyOp11
 70
     1
102
RTVSPropertyOp12
 70
     1
102
RTVSPropertyOp13
 70
     1
102
RTVSPropertyOp14
 70
     1
102
RTVSPropertyOp15
 70
     1
102
RTVSPropertyOp16
 70
     1
102
RTVSPropertyOp17
 70
     1
102
RTVSPropertyOp18
 70
     1
102
RTVSPropertyOp19
 70
     1
102
RTVSPropertyOp20
 70
     1
102
RTVSPropertyOp21
 70
     1
102
RTVSPropertyOp22
 70
     1
102
RTVSPropertyOp23
 70
     1
102
RTVSPropertyOp24
 70
     1
102
RTVSPropertyOp25
 70
     1
102
RTVSPropertyOp26
 70
     1
102
RTVSPropertyOp27
 70
     1
102
RTVSPropertyOp28
 70
     1
102
RTVSPropertyOp29
 70
     1
102
RTVSPropertyOp30
 70
     1
102
RTVSPropertyOp31
 70
     1
102
RTVSPropertyOp32
 70
     1
102
RTVSPropertyOp33
 70
     1
102
RTVSPropertyOp34
 70
     1
102
RTVSPropertyOp35
 70
     1
102
RTVSPropertyOp36
 70
     1
102
RTVSPropertyOp37
 70
     1
102
RTVSPropertyOp38
 70
     1
102
RTVSPropertyOp39
 70
     1
102
RTVSPropertyOp40
 70
     1
102
RTVSPropertyOp41
 70
     1
102
RTVSPropertyOp42
 70
     1
102
RTVSPropertyOp43
 70
     1
102
RTVSPropertyOp44
 70
     1
102
RTVSPropertyOp45
 70
     1
102
RTVSPropertyOp46
 70
     1
102
RTVSPropertyOp47
 70
     1
102
RTVSPropertyOp48
 70
     1
102
RTVSPropertyOp49
 70
     1
102
RTVSPropertyOp50
 70
     1
102
RTVSPropertyOp51
 70
     0
102
RTVSPropertyOp52
 70
     0
102
RTVSPropertyOp53
 70
     1
102
RTVSPropertyOp54
 70
     1
102
RTVSPropertyOp55
 70
     1
102
RTVSPropertyOp56
 70
     1
102
RTVSPropertyOp57
 70
     1
102
RTVSPropertyOp58
 70
     1
102
RTVSPropertyOp59
 70
     1
102
RTVSPropertyOp60
 70
     1
102
RTVSPropertyOp61
 70
     1
102
RTVSPropertyOp62
 70
     1
  0
XRECORD
  5
A7B7
102
{ACAD_REACTORS
330
A7B6
102
}
330
A7B6
100
AcDbXrecord
280
     1
102
RTVSPost2010Prop28
280
     0
102
RTVSPost2010PropOp28
 70
     1
102
RTVSPost2010Prop29
280
     1
102
RTVSPost2010PropOp29
 70
     1
102
RTVSPost2010Prop30
280
     1
102
RTVSPost2010PropOp30
 70
     1
102
RTVSPost2010Prop31
280
     0
102
RTVSPost2010PropOp31
 70
     1
102
RTVSPost2010Prop32
280
     0
102
RTVSPost2010PropOp32
 70
     1
102
RTVSPost2010Prop33
280
     0
102
RTVSPost2010PropOp33
 70
     1
102
RTVSPost2010Prop34
280
     0
102
RTVSPost2010PropOp34
 70
     1
102
RTVSPost2010Prop35
280
     0
102
RTVSPost2010PropOp35
 70
     1
102
RTVSPost2010Prop36
280
     0
102
RTVSPost2010PropOp36
 70
     1
102
RTVSPost2010Prop37
 90
       50
102
RTVSPost2010PropOp37
 70
     1
102
RTVSPost2010Prop38
140
0.0
102
RTVSPost2010PropOp38
 70
     1
102
RTVSPost2010Prop39
140
1.0
102
RTVSPost2010PropOp39
 70
     1
102
RTVSPost2010Prop40
 90
        0
102
RTVSPost2010PropOp40
 70
     1
102
RTVSPost2010Prop41ColorIndex
 90
       18
102
RTVSPost2010Prop41ColorRGB
 90
        0
102
RTVSPost2010PropOp41
 70
     1
102
RTVSPost2010Prop42
 90
       50
102
RTVSPost2010PropOp42
 70
     1
102
RTVSPost2010Prop43
 90
        3
102
RTVSPost2010PropOp43
 70
     1
102
RTVSPost2010Prop44ColorIndex
 90
        5
102
RTVSPost2010Prop44ColorRGB
 90
      255
102
RTVSPost2010PropOp44
 70
     1
102
RTVSPost2010Prop45
280
     0
102
RTVSPost2010PropOp45
 70
     1
102
RTVSPost2010Prop46
 90
       50
102
RTVSPost2010PropOp46
 70
     1
102
RTVSPost2010Prop47
 90
       50
102
RTVSPost2010PropOp47
 70
     1
102
RTVSPost2010Prop48
 90
       50
102
RTVSPost2010PropOp48
 70
     1
102
RTVSPost2010Prop49
280
     0
102
RTVSPost2010PropOp49
 70
     1
102
RTVSPost2010Prop50
 90
       50
102
RTVSPost2010PropOp50
 70
     1
102
RTVSPost2010Prop51ColorIndex
 90
      256
102
RTVSPost2010Prop51ColorRGB
 90
-16777216
102
RTVSPost2010PropOp51
 70
     0
102
RTVSPost2010Prop52
140
1.0
102
RTVSPost2010PropOp52
 70
     0
102
RTVSPost2010Prop53
 90
        2
102
RTVSPost2010PropOp53
 70
     1
102
RTVSPost2010Prop54
  1
strokes_ogs.tif
102
RTVSPost2010PropOp54
 70
     1
102
RTVSPost2010Prop55
280
     0
102
RTVSPost2010PropOp55
 70
     1
102
RTVSPost2010Prop56
140
1.0
102
RTVSPost2010PropOp56
 70
     1
102
RTVSPost2010Prop57
140
1.0
102
RTVSPost2010PropOp57
 70
     1
102
RTVSPropertyOp0
 70
     1
102
RTVSPropertyOp1
 70
     1
102
RTVSPropertyOp2
 70
     1
102
RTVSPropertyOp3
 70
     1
102
RTVSPropertyOp4
 70
     1
102
RTVSPropertyOp5
 70
     1
102
RTVSPropertyOp6
 70
     1
102
RTVSPropertyOp7
 70
     1
102
RTVSPropertyOp8
 70
     1
102
RTVSPropertyOp9
 70
     1
102
RTVSPropertyOp10
 70
     1
102
RTVSPropertyOp11
 70
     1
102
RTVSPropertyOp12
 70
     1
102
RTVSPropertyOp13
 70
     1
102
RTVSPropertyOp14
 70
     1
102
RTVSPropertyOp15
 70
     1
102
RTVSPropertyOp16
 70
     1
102
RTVSPropertyOp17
 70
     1
102
RTVSPropertyOp18
 70
     1
102
RTVSPropertyOp19
 70
     1
102
RTVSPropertyOp20
 70
     1
102
RTVSPropertyOp21
 70
     1
102
RTVSPropertyOp22
 70
     1
102
RTVSPropertyOp23
 70
     1
102
RTVSPropertyOp24
 70
     1
102
RTVSPropertyOp25
 70
     1
102
RTVSPropertyOp26
 70
     1
102
RTVSPropertyOp27
 70
     1
102
RTVSPropertyOp28
 70
     1
102
RTVSPropertyOp29
 70
     1
102
RTVSPropertyOp30
 70
     1
102
RTVSPropertyOp31
 70
     1
102
RTVSPropertyOp32
 70
     1
102
RTVSPropertyOp33
 70
     1
102
RTVSPropertyOp34
 70
     1
102
RTVSPropertyOp35
 70
     1
102
RTVSPropertyOp36
 70
     1
102
RTVSPropertyOp37
 70
     1
102
RTVSPropertyOp38
 70
     1
102
RTVSPropertyOp39
 70
     1
102
RTVSPropertyOp40
 70
     1
102
RTVSPropertyOp41
 70
     1
102
RTVSPropertyOp42
 70
     1
102
RTVSPropertyOp43
 70
     1
102
RTVSPropertyOp44
 70
     1
102
RTVSPropertyOp45
 70
     1
102
RTVSPropertyOp46
 70
     1
102
RTVSPropertyOp47
 70
     1
102
RTVSPropertyOp48
 70
     1
102
RTVSPropertyOp49
 70
     1
102
RTVSPropertyOp50
 70
     1
102
RTVSPropertyOp51
 70
     0
102
RTVSPropertyOp52
 70
     0
102
RTVSPropertyOp53
 70
     1
102
RTVSPropertyOp54
 70
     1
102
RTVSPropertyOp55
 70
     1
102
RTVSPropertyOp56
 70
     1
102
RTVSPropertyOp57
 70
     1
102
RTVSPropertyOp58
 70
     1
102
RTVSPropertyOp59
 70
     1
102
RTVSPropertyOp60
 70
     1
102
RTVSPropertyOp61
 70
     1
102
RTVSPropertyOp62
 70
     1
  0
XRECORD
  5
A7BF
102
{ACAD_REACTORS
330
A7BE
102
}
330
A7BE
100
AcDbXrecord
280
     1
102
RTVSPost2010Prop28
280
     0
102
RTVSPost2010PropOp28
 70
     1
102
RTVSPost2010Prop29
280
     1
102
RTVSPost2010PropOp29
 70
     1
102
RTVSPost2010Prop30
280
     1
102
RTVSPost2010PropOp30
 70
     1
102
RTVSPost2010Prop31
280
     0
102
RTVSPost2010PropOp31
 70
     1
102
RTVSPost2010Prop32
280
     0
102
RTVSPost2010PropOp32
 70
     1
102
RTVSPost2010Prop33
280
     0
102
RTVSPost2010PropOp33
 70
     1
102
RTVSPost2010Prop34
280
     0
102
RTVSPost2010PropOp34
 70
     1
102
RTVSPost2010Prop35
280
     0
102
RTVSPost2010PropOp35
 70
     1
102
RTVSPost2010Prop36
280
     0
102
RTVSPost2010PropOp36
 70
     1
102
RTVSPost2010Prop37
 90
       50
102
RTVSPost2010PropOp37
 70
     1
102
RTVSPost2010Prop38
140
0.0
102
RTVSPost2010PropOp38
 70
     1
102
RTVSPost2010Prop39
140
1.0
102
RTVSPost2010PropOp39
 70
     1
102
RTVSPost2010Prop40
 90
        0
102
RTVSPost2010PropOp40
 70
     1
102
RTVSPost2010Prop41ColorIndex
 90
       18
102
RTVSPost2010Prop41ColorRGB
 90
        0
102
RTVSPost2010PropOp41
 70
     1
102
RTVSPost2010Prop42
 90
       50
102
RTVSPost2010PropOp42
 70
     1
102
RTVSPost2010Prop43
 90
        3
102
RTVSPost2010PropOp43
 70
     1
102
RTVSPost2010Prop44ColorIndex
 90
        5
102
RTVSPost2010Prop44ColorRGB
 90
      255
102
RTVSPost2010PropOp44
 70
     1
102
RTVSPost2010Prop45
280
     0
102
RTVSPost2010PropOp45
 70
     1
102
RTVSPost2010Prop46
 90
       50
102
RTVSPost2010PropOp46
 70
     1
102
RTVSPost2010Prop47
 90
       50
102
RTVSPost2010PropOp47
 70
     1
102
RTVSPost2010Prop48
 90
       50
102
RTVSPost2010PropOp48
 70
     1
102
RTVSPost2010Prop49
280
     0
102
RTVSPost2010PropOp49
 70
     1
102
RTVSPost2010Prop50
 90
       50
102
RTVSPost2010PropOp50
 70
     1
102
RTVSPost2010Prop51ColorIndex
 90
      256
102
RTVSPost2010Prop51ColorRGB
 90
-16777216
102
RTVSPost2010PropOp51
 70
     0
102
RTVSPost2010Prop52
140
1.0
102
RTVSPost2010PropOp52
 70
     0
102
RTVSPost2010Prop53
 90
        2
102
RTVSPost2010PropOp53
 70
     1
102
RTVSPost2010Prop54
  1
strokes_ogs.tif
102
RTVSPost2010PropOp54
 70
     1
102
RTVSPost2010Prop55
280
     0
102
RTVSPost2010PropOp55
 70
     1
102
RTVSPost2010Prop56
140
1.0
102
RTVSPost2010PropOp56
 70
     1
102
RTVSPost2010Prop57
140
1.0
102
RTVSPost2010PropOp57
 70
     1
102
RTVSPropertyOp0
 70
     1
102
RTVSPropertyOp1
 70
     1
102
RTVSPropertyOp2
 70
     1
102
RTVSPropertyOp3
 70
     1
102
RTVSPropertyOp4
 70
     1
102
RTVSPropertyOp5
 70
     1
102
RTVSPropertyOp6
 70
     1
102
RTVSPropertyOp7
 70
     1
102
RTVSPropertyOp8
 70
     1
102
RTVSPropertyOp9
 70
     1
102
RTVSPropertyOp10
 70
     1
102
RTVSPropertyOp11
 70
     1
102
RTVSPropertyOp12
 70
     1
102
RTVSPropertyOp13
 70
     1
102
RTVSPropertyOp14
 70
     1
102
RTVSPropertyOp15
 70
     1
102
RTVSPropertyOp16
 70
     1
102
RTVSPropertyOp17
 70
     1
102
RTVSPropertyOp18
 70
     1
102
RTVSPropertyOp19
 70
     1
102
RTVSPropertyOp20
 70
     1
102
RTVSPropertyOp21
 70
     1
102
RTVSPropertyOp22
 70
     1
102
RTVSPropertyOp23
 70
     1
102
RTVSPropertyOp24
 70
     1
102
RTVSPropertyOp25
 70
     1
102
RTVSPropertyOp26
 70
     1
102
RTVSPropertyOp27
 70
     1
102
RTVSPropertyOp28
 70
     1
102
RTVSPropertyOp29
 70
     1
102
RTVSPropertyOp30
 70
     1
102
RTVSPropertyOp31
 70
     1
102
RTVSPropertyOp32
 70
     1
102
RTVSPropertyOp33
 70
     1
102
RTVSPropertyOp34
 70
     1
102
RTVSPropertyOp35
 70
     1
102
RTVSPropertyOp36
 70
     1
102
RTVSPropertyOp37
 70
     1
102
RTVSPropertyOp38
 70
     1
102
RTVSPropertyOp39
 70
     1
102
RTVSPropertyOp40
 70
     1
102
RTVSPropertyOp41
 70
     1
102
RTVSPropertyOp42
 70
     1
102
RTVSPropertyOp43
 70
     1
102
RTVSPropertyOp44
 70
     1
102
RTVSPropertyOp45
 70
     1
102
RTVSPropertyOp46
 70
     1
102
RTVSPropertyOp47
 70
     1
102
RTVSPropertyOp48
 70
     1
102
RTVSPropertyOp49
 70
     1
102
RTVSPropertyOp50
 70
     1
102
RTVSPropertyOp51
 70
     0
102
RTVSPropertyOp52
 70
     0
102
RTVSPropertyOp53
 70
     1
102
RTVSPropertyOp54
 70
     1
102
RTVSPropertyOp55
 70
     1
102
RTVSPropertyOp56
 70
     1
102
RTVSPropertyOp57
 70
     1
102
RTVSPropertyOp58
 70
     1
102
RTVSPropertyOp59
 70
     1
102
RTVSPropertyOp60
 70
     1
102
RTVSPropertyOp61
 70
     1
102
RTVSPropertyOp62
 70
     1
  0
XRECORD
  5
A7DB
102
{ACAD_REACTORS
330
A7DA
102
}
330
A7DA
100
AcDbXrecord
280
     1
102
RTVSPost2010Prop28
280
     0
102
RTVSPost2010PropOp28
 70
     1
102
RTVSPost2010Prop29
280
     1
102
RTVSPost2010PropOp29
 70
     1
102
RTVSPost2010Prop30
280
     1
102
RTVSPost2010PropOp30
 70
     1
102
RTVSPost2010Prop31
280
     0
102
RTVSPost2010PropOp31
 70
     1
102
RTVSPost2010Prop32
280
     0
102
RTVSPost2010PropOp32
 70
     1
102
RTVSPost2010Prop33
280
     0
102
RTVSPost2010PropOp33
 70
     1
102
RTVSPost2010Prop34
280
     0
102
RTVSPost2010PropOp34
 70
     1
102
RTVSPost2010Prop35
280
     0
102
RTVSPost2010PropOp35
 70
     1
102
RTVSPost2010Prop36
280
     0
102
RTVSPost2010PropOp36
 70
     1
102
RTVSPost2010Prop37
 90
       50
102
RTVSPost2010PropOp37
 70
     0
102
RTVSPost2010Prop38
140
0.0
102
RTVSPost2010PropOp38
 70
     0
102
RTVSPost2010Prop39
140
1.0
102
RTVSPost2010PropOp39
 70
     0
102
RTVSPost2010Prop40
 90
        0
102
RTVSPost2010PropOp40
 70
     0
102
RTVSPost2010Prop41ColorIndex
 90
       18
102
RTVSPost2010Prop41ColorRGB
 90
        0
102
RTVSPost2010PropOp41
 70
     0
102
RTVSPost2010Prop42
 90
       50
102
RTVSPost2010PropOp42
 70
     0
102
RTVSPost2010Prop43
 90
        3
102
RTVSPost2010PropOp43
 70
     0
102
RTVSPost2010Prop44ColorIndex
 90
        5
102
RTVSPost2010Prop44ColorRGB
 90
      255
102
RTVSPost2010PropOp44
 70
     0
102
RTVSPost2010Prop45
280
     0
102
RTVSPost2010PropOp45
 70
     1
102
RTVSPost2010Prop46
 90
       50
102
RTVSPost2010PropOp46
 70
     0
102
RTVSPost2010Prop47
 90
       50
102
RTVSPost2010PropOp47
 70
     0
102
RTVSPost2010Prop48
 90
       50
102
RTVSPost2010PropOp48
 70
     0
102
RTVSPost2010Prop49
280
     0
102
RTVSPost2010PropOp49
 70
     1
102
RTVSPost2010Prop50
 90
       50
102
RTVSPost2010PropOp50
 70
     0
102
RTVSPost2010Prop51ColorIndex
 90
      256
102
RTVSPost2010Prop51ColorRGB
 90
-16777216
102
RTVSPost2010PropOp51
 70
     0
102
RTVSPost2010Prop52
140
1.0
102
RTVSPost2010PropOp52
 70
     0
102
RTVSPost2010Prop53
 90
        2
102
RTVSPost2010PropOp53
 70
     0
102
RTVSPost2010Prop54
  1
strokes_ogs.tif
102
RTVSPost2010PropOp54
 70
     0
102
RTVSPost2010Prop55
280
     0
102
RTVSPost2010PropOp55
 70
     1
102
RTVSPost2010Prop56
140
1.0
102
RTVSPost2010PropOp56
 70
     0
102
RTVSPost2010Prop57
140
1.0
102
RTVSPost2010PropOp57
 70
     0
102
RTVSPropertyOp0
 70
     0
102
RTVSPropertyOp1
 70
     0
102
RTVSPropertyOp2
 70
     0
102
RTVSPropertyOp3
 70
     0
102
RTVSPropertyOp4
 70
     0
102
RTVSPropertyOp5
 70
     0
102
RTVSPropertyOp6
 70
     0
102
RTVSPropertyOp7
 70
     0
102
RTVSPropertyOp8
 70
     0
102
RTVSPropertyOp9
 70
     0
102
RTVSPropertyOp10
 70
     0
102
RTVSPropertyOp11
 70
     0
102
RTVSPropertyOp12
 70
     0
102
RTVSPropertyOp13
 70
     0
102
RTVSPropertyOp14
 70
     2
102
RTVSPropertyOp15
 70
     0
102
RTVSPropertyOp16
 70
     0
102
RTVSPropertyOp17
 70
     0
102
RTVSPropertyOp18
 70
     0
102
RTVSPropertyOp19
 70
     0
102
RTVSPropertyOp20
 70
     0
102
RTVSPropertyOp21
 70
     0
102
RTVSPropertyOp22
 70
     0
102
RTVSPropertyOp23
 70
     0
102
RTVSPropertyOp24
 70
     0
102
RTVSPropertyOp25
 70
     0
102
RTVSPropertyOp26
 70
     0
102
RTVSPropertyOp27
 70
     0
102
RTVSPropertyOp28
 70
     1
102
RTVSPropertyOp29
 70
     1
102
RTVSPropertyOp30
 70
     1
102
RTVSPropertyOp31
 70
     1
102
RTVSPropertyOp32
 70
     1
102
RTVSPropertyOp33
 70
     1
102
RTVSPropertyOp34
 70
     1
102
RTVSPropertyOp35
 70
     1
102
RTVSPropertyOp36
 70
     1
102
RTVSPropertyOp37
 70
     0
102
RTVSPropertyOp38
 70
     0
102
RTVSPropertyOp39
 70
     0
102
RTVSPropertyOp40
 70
     0
102
RTVSPropertyOp41
 70
     0
102
RTVSPropertyOp42
 70
     0
102
RTVSPropertyOp43
 70
     0
102
RTVSPropertyOp44
 70
     0
102
RTVSPropertyOp45
 70
     1
102
RTVSPropertyOp46
 70
     0
102
RTVSPropertyOp47
 70
     0
102
RTVSPropertyOp48
 70
     0
102
RTVSPropertyOp49
 70
     1
102
RTVSPropertyOp50
 70
     0
102
RTVSPropertyOp51
 70
     0
102
RTVSPropertyOp52
 70
     0
102
RTVSPropertyOp53
 70
     0
102
RTVSPropertyOp54
 70
     0
102
RTVSPropertyOp55
 70
     1
102
RTVSPropertyOp56
 70
     0
102
RTVSPropertyOp57
 70
     0
102
RTVSPropertyOp58
 70
     0
102
RTVSPropertyOp59
 70
     0
102
RTVSPropertyOp60
 70
     0
102
RTVSPropertyOp61
 70
     0
102
RTVSPropertyOp62
 70
     0
  0
XRECORD
  5
A7CB
102
{ACAD_REACTORS
330
A7CA
102
}
330
A7CA
100
AcDbXrecord
280
     1
102
RTVSPost2010Prop28
280
     0
102
RTVSPost2010PropOp28
 70
     1
102
RTVSPost2010Prop29
280
     1
102
RTVSPost2010PropOp29
 70
     1
102
RTVSPost2010Prop30
280
     1
102
RTVSPost2010PropOp30
 70
     1
102
RTVSPost2010Prop31
280
     0
102
RTVSPost2010PropOp31
 70
     1
102
RTVSPost2010Prop32
280
     0
102
RTVSPost2010PropOp32
 70
     1
102
RTVSPost2010Prop33
280
     0
102
RTVSPost2010PropOp33
 70
     1
102
RTVSPost2010Prop34
280
     0
102
RTVSPost2010PropOp34
 70
     1
102
RTVSPost2010Prop35
280
     0
102
RTVSPost2010PropOp35
 70
     1
102
RTVSPost2010Prop36
280
     0
102
RTVSPost2010PropOp36
 70
     1
102
RTVSPost2010Prop37
 90
       50
102
RTVSPost2010PropOp37
 70
     1
102
RTVSPost2010Prop38
140
0.0
102
RTVSPost2010PropOp38
 70
     1
102
RTVSPost2010Prop39
140
1.0
102
RTVSPost2010PropOp39
 70
     1
102
RTVSPost2010Prop40
 90
        0
102
RTVSPost2010PropOp40
 70
     1
102
RTVSPost2010Prop41ColorIndex
 90
       18
102
RTVSPost2010Prop41ColorRGB
 90
        0
102
RTVSPost2010PropOp41
 70
     1
102
RTVSPost2010Prop42
 90
       50
102
RTVSPost2010PropOp42
 70
     1
102
RTVSPost2010Prop43
 90
        3
102
RTVSPost2010PropOp43
 70
     1
102
RTVSPost2010Prop44ColorIndex
 90
        5
102
RTVSPost2010Prop44ColorRGB
 90
      255
102
RTVSPost2010PropOp44
 70
     1
102
RTVSPost2010Prop45
280
     0
102
RTVSPost2010PropOp45
 70
     1
102
RTVSPost2010Prop46
 90
       50
102
RTVSPost2010PropOp46
 70
     1
102
RTVSPost2010Prop47
 90
       50
102
RTVSPost2010PropOp47
 70
     1
102
RTVSPost2010Prop48
 90
       50
102
RTVSPost2010PropOp48
 70
     1
102
RTVSPost2010Prop49
280
     0
102
RTVSPost2010PropOp49
 70
     1
102
RTVSPost2010Prop50
 90
       50
102
RTVSPost2010PropOp50
 70
     1
102
RTVSPost2010Prop51ColorIndex
 90
      256
102
RTVSPost2010Prop51ColorRGB
 90
-16777216
102
RTVSPost2010PropOp51
 70
     0
102
RTVSPost2010Prop52
140
1.0
102
RTVSPost2010PropOp52
 70
     0
102
RTVSPost2010Prop53
 90
        2
102
RTVSPost2010PropOp53
 70
     1
102
RTVSPost2010Prop54
  1
strokes_ogs.tif
102
RTVSPost2010PropOp54
 70
     1
102
RTVSPost2010Prop55
280
     0
102
RTVSPost2010PropOp55
 70
     1
102
RTVSPost2010Prop56
140
1.0
102
RTVSPost2010PropOp56
 70
     1
102
RTVSPost2010Prop57
140
1.0
102
RTVSPost2010PropOp57
 70
     1
102
RTVSPropertyOp0
 70
     1
102
RTVSPropertyOp1
 70
     1
102
RTVSPropertyOp2
 70
     1
102
RTVSPropertyOp3
 70
     1
102
RTVSPropertyOp4
 70
     1
102
RTVSPropertyOp5
 70
     1
102
RTVSPropertyOp6
 70
     1
102
RTVSPropertyOp7
 70
     1
102
RTVSPropertyOp8
 70
     1
102
RTVSPropertyOp9
 70
     1
102
RTVSPropertyOp10
 70
     1
102
RTVSPropertyOp11
 70
     1
102
RTVSPropertyOp12
 70
     1
102
RTVSPropertyOp13
 70
     1
102
RTVSPropertyOp14
 70
     1
102
RTVSPropertyOp15
 70
     1
102
RTVSPropertyOp16
 70
     1
102
RTVSPropertyOp17
 70
     1
102
RTVSPropertyOp18
 70
     1
102
RTVSPropertyOp19
 70
     1
102
RTVSPropertyOp20
 70
     1
102
RTVSPropertyOp21
 70
     1
102
RTVSPropertyOp22
 70
     1
102
RTVSPropertyOp23
 70
     1
102
RTVSPropertyOp24
 70
     1
102
RTVSPropertyOp25
 70
     1
102
RTVSPropertyOp26
 70
     1
102
RTVSPropertyOp27
 70
     1
102
RTVSPropertyOp28
 70
     1
102
RTVSPropertyOp29
 70
     1
102
RTVSPropertyOp30
 70
     1
102
RTVSPropertyOp31
 70
     1
102
RTVSPropertyOp32
 70
     1
102
RTVSPropertyOp33
 70
     1
102
RTVSPropertyOp34
 70
     1
102
RTVSPropertyOp35
 70
     1
102
RTVSPropertyOp36
 70
     1
102
RTVSPropertyOp37
 70
     1
102
RTVSPropertyOp38
 70
     1
102
RTVSPropertyOp39
 70
     1
102
RTVSPropertyOp40
 70
     1
102
RTVSPropertyOp41
 70
     1
102
RTVSPropertyOp42
 70
     1
102
RTVSPropertyOp43
 70
     1
102
RTVSPropertyOp44
 70
     1
102
RTVSPropertyOp45
 70
     1
102
RTVSPropertyOp46
 70
     1
102
RTVSPropertyOp47
 70
     1
102
RTVSPropertyOp48
 70
     1
102
RTVSPropertyOp49
 70
     1
102
RTVSPropertyOp50
 70
     1
102
RTVSPropertyOp51
 70
     0
102
RTVSPropertyOp52
 70
     0
102
RTVSPropertyOp53
 70
     1
102
RTVSPropertyOp54
 70
     1
102
RTVSPropertyOp55
 70
     1
102
RTVSPropertyOp56
 70
     1
102
RTVSPropertyOp57
 70
     1
102
RTVSPropertyOp58
 70
     1
102
RTVSPropertyOp59
 70
     1
102
RTVSPropertyOp60
 70
     1
102
RTVSPropertyOp61
 70
     1
102
RTVSPropertyOp62
 70
     1
  0
XRECORD
  5
A7DD
102
{ACAD_REACTORS
330
A7DC
102
}
330
A7DC
100
AcDbXrecord
280
     1
102
RTVSPost2010Prop28
280
     0
102
RTVSPost2010PropOp28
 70
     1
102
RTVSPost2010Prop29
280
     1
102
RTVSPost2010PropOp29
 70
     1
102
RTVSPost2010Prop30
280
     1
102
RTVSPost2010PropOp30
 70
     1
102
RTVSPost2010Prop31
280
     0
102
RTVSPost2010PropOp31
 70
     1
102
RTVSPost2010Prop32
280
     0
102
RTVSPost2010PropOp32
 70
     1
102
RTVSPost2010Prop33
280
     0
102
RTVSPost2010PropOp33
 70
     1
102
RTVSPost2010Prop34
280
     0
102
RTVSPost2010PropOp34
 70
     1
102
RTVSPost2010Prop35
280
     0
102
RTVSPost2010PropOp35
 70
     1
102
RTVSPost2010Prop36
280
     0
102
RTVSPost2010PropOp36
 70
     1
102
RTVSPost2010Prop37
 90
       50
102
RTVSPost2010PropOp37
 70
     0
102
RTVSPost2010Prop38
140
0.0
102
RTVSPost2010PropOp38
 70
     0
102
RTVSPost2010Prop39
140
1.0
102
RTVSPost2010PropOp39
 70
     0
102
RTVSPost2010Prop40
 90
        0
102
RTVSPost2010PropOp40
 70
     0
102
RTVSPost2010Prop41ColorIndex
 90
       18
102
RTVSPost2010Prop41ColorRGB
 90
        0
102
RTVSPost2010PropOp41
 70
     0
102
RTVSPost2010Prop42
 90
       50
102
RTVSPost2010PropOp42
 70
     0
102
RTVSPost2010Prop43
 90
        3
102
RTVSPost2010PropOp43
 70
     0
102
RTVSPost2010Prop44ColorIndex
 90
        5
102
RTVSPost2010Prop44ColorRGB
 90
      255
102
RTVSPost2010PropOp44
 70
     0
102
RTVSPost2010Prop45
280
     0
102
RTVSPost2010PropOp45
 70
     1
102
RTVSPost2010Prop46
 90
       50
102
RTVSPost2010PropOp46
 70
     0
102
RTVSPost2010Prop47
 90
       50
102
RTVSPost2010PropOp47
 70
     0
102
RTVSPost2010Prop48
 90
       50
102
RTVSPost2010PropOp48
 70
     0
102
RTVSPost2010Prop49
280
     0
102
RTVSPost2010PropOp49
 70
     1
102
RTVSPost2010Prop50
 90
       50
102
RTVSPost2010PropOp50
 70
     0
102
RTVSPost2010Prop51ColorIndex
 90
      256
102
RTVSPost2010Prop51ColorRGB
 90
-16777216
102
RTVSPost2010PropOp51
 70
     0
102
RTVSPost2010Prop52
140
1.0
102
RTVSPost2010PropOp52
 70
     0
102
RTVSPost2010Prop53
 90
        2
102
RTVSPost2010PropOp53
 70
     0
102
RTVSPost2010Prop54
  1
strokes_ogs.tif
102
RTVSPost2010PropOp54
 70
     0
102
RTVSPost2010Prop55
280
     0
102
RTVSPost2010PropOp55
 70
     1
102
RTVSPost2010Prop56
140
1.0
102
RTVSPost2010PropOp56
 70
     0
102
RTVSPost2010Prop57
140
1.0
102
RTVSPost2010PropOp57
 70
     0
102
RTVSPropertyOp0
 70
     0
102
RTVSPropertyOp1
 70
     0
102
RTVSPropertyOp2
 70
     0
102
RTVSPropertyOp3
 70
     0
102
RTVSPropertyOp4
 70
     0
102
RTVSPropertyOp5
 70
     0
102
RTVSPropertyOp6
 70
     0
102
RTVSPropertyOp7
 70
     0
102
RTVSPropertyOp8
 70
     0
102
RTVSPropertyOp9
 70
     0
102
RTVSPropertyOp10
 70
     0
102
RTVSPropertyOp11
 70
     0
102
RTVSPropertyOp12
 70
     0
102
RTVSPropertyOp13
 70
     0
102
RTVSPropertyOp14
 70
     2
102
RTVSPropertyOp15
 70
     0
102
RTVSPropertyOp16
 70
     0
102
RTVSPropertyOp17
 70
     0
102
RTVSPropertyOp18
 70
     0
102
RTVSPropertyOp19
 70
     0
102
RTVSPropertyOp20
 70
     0
102
RTVSPropertyOp21
 70
     0
102
RTVSPropertyOp22
 70
     0
102
RTVSPropertyOp23
 70
     0
102
RTVSPropertyOp24
 70
     0
102
RTVSPropertyOp25
 70
     0
102
RTVSPropertyOp26
 70
     0
102
RTVSPropertyOp27
 70
     0
102
RTVSPropertyOp28
 70
     1
102
RTVSPropertyOp29
 70
     1
102
RTVSPropertyOp30
 70
     1
102
RTVSPropertyOp31
 70
     1
102
RTVSPropertyOp32
 70
     1
102
RTVSPropertyOp33
 70
     1
102
RTVSPropertyOp34
 70
     1
102
RTVSPropertyOp35
 70
     1
102
RTVSPropertyOp36
 70
     1
102
RTVSPropertyOp37
 70
     0
102
RTVSPropertyOp38
 70
     0
102
RTVSPropertyOp39
 70
     0
102
RTVSPropertyOp40
 70
     0
102
RTVSPropertyOp41
 70
     0
102
RTVSPropertyOp42
 70
     0
102
RTVSPropertyOp43
 70
     0
102
RTVSPropertyOp44
 70
     0
102
RTVSPropertyOp45
 70
     1
102
RTVSPropertyOp46
 70
     0
102
RTVSPropertyOp47
 70
     0
102
RTVSPropertyOp48
 70
     0
102
RTVSPropertyOp49
 70
     1
102
RTVSPropertyOp50
 70
     0
102
RTVSPropertyOp51
 70
     0
102
RTVSPropertyOp52
 70
     0
102
RTVSPropertyOp53
 70
     0
102
RTVSPropertyOp54
 70
     0
102
RTVSPropertyOp55
 70
     1
102
RTVSPropertyOp56
 70
     0
102
RTVSPropertyOp57
 70
     0
102
RTVSPropertyOp58
 70
     0
102
RTVSPropertyOp59
 70
     0
102
RTVSPropertyOp60
 70
     0
102
RTVSPropertyOp61
 70
     0
102
RTVSPropertyOp62
 70
     0
  0
XRECORD
  5
A7C3
102
{ACAD_REACTORS
330
A7C2
102
}
330
A7C2
100
AcDbXrecord
280
     1
102
RTVSPost2010Prop28
280
     0
102
RTVSPost2010PropOp28
 70
     1
102
RTVSPost2010Prop29
280
     1
102
RTVSPost2010PropOp29
 70
     1
102
RTVSPost2010Prop30
280
     1
102
RTVSPost2010PropOp30
 70
     1
102
RTVSPost2010Prop31
280
     0
102
RTVSPost2010PropOp31
 70
     1
102
RTVSPost2010Prop32
280
     0
102
RTVSPost2010PropOp32
 70
     1
102
RTVSPost2010Prop33
280
     0
102
RTVSPost2010PropOp33
 70
     1
102
RTVSPost2010Prop34
280
     0
102
RTVSPost2010PropOp34
 70
     1
102
RTVSPost2010Prop35
280
     0
102
RTVSPost2010PropOp35
 70
     1
102
RTVSPost2010Prop36
280
     0
102
RTVSPost2010PropOp36
 70
     1
102
RTVSPost2010Prop37
 90
       50
102
RTVSPost2010PropOp37
 70
     1
102
RTVSPost2010Prop38
140
0.0
102
RTVSPost2010PropOp38
 70
     1
102
RTVSPost2010Prop39
140
1.0
102
RTVSPost2010PropOp39
 70
     1
102
RTVSPost2010Prop40
 90
        0
102
RTVSPost2010PropOp40
 70
     1
102
RTVSPost2010Prop41ColorIndex
 90
       18
102
RTVSPost2010Prop41ColorRGB
 90
        0
102
RTVSPost2010PropOp41
 70
     1
102
RTVSPost2010Prop42
 90
       50
102
RTVSPost2010PropOp42
 70
     1
102
RTVSPost2010Prop43
 90
        3
102
RTVSPost2010PropOp43
 70
     1
102
RTVSPost2010Prop44ColorIndex
 90
        5
102
RTVSPost2010Prop44ColorRGB
 90
      255
102
RTVSPost2010PropOp44
 70
     1
102
RTVSPost2010Prop45
280
     0
102
RTVSPost2010PropOp45
 70
     1
102
RTVSPost2010Prop46
 90
       50
102
RTVSPost2010PropOp46
 70
     1
102
RTVSPost2010Prop47
 90
       50
102
RTVSPost2010PropOp47
 70
     1
102
RTVSPost2010Prop48
 90
       50
102
RTVSPost2010PropOp48
 70
     1
102
RTVSPost2010Prop49
280
     0
102
RTVSPost2010PropOp49
 70
     1
102
RTVSPost2010Prop50
 90
       50
102
RTVSPost2010PropOp50
 70
     1
102
RTVSPost2010Prop51ColorIndex
 90
      256
102
RTVSPost2010Prop51ColorRGB
 90
-16777216
102
RTVSPost2010PropOp51
 70
     0
102
RTVSPost2010Prop52
140
1.0
102
RTVSPost2010PropOp52
 70
     0
102
RTVSPost2010Prop53
 90
        2
102
RTVSPost2010PropOp53
 70
     1
102
RTVSPost2010Prop54
  1
strokes_ogs.tif
102
RTVSPost2010PropOp54
 70
     1
102
RTVSPost2010Prop55
280
     0
102
RTVSPost2010PropOp55
 70
     1
102
RTVSPost2010Prop56
140
1.0
102
RTVSPost2010PropOp56
 70
     1
102
RTVSPost2010Prop57
140
1.0
102
RTVSPost2010PropOp57
 70
     1
102
RTVSPropertyOp0
 70
     1
102
RTVSPropertyOp1
 70
     1
102
RTVSPropertyOp2
 70
     1
102
RTVSPropertyOp3
 70
     1
102
RTVSPropertyOp4
 70
     1
102
RTVSPropertyOp5
 70
     1
102
RTVSPropertyOp6
 70
     1
102
RTVSPropertyOp7
 70
     1
102
RTVSPropertyOp8
 70
     1
102
RTVSPropertyOp9
 70
     1
102
RTVSPropertyOp10
 70
     1
102
RTVSPropertyOp11
 70
     1
102
RTVSPropertyOp12
 70
     1
102
RTVSPropertyOp13
 70
     1
102
RTVSPropertyOp14
 70
     1
102
RTVSPropertyOp15
 70
     1
102
RTVSPropertyOp16
 70
     1
102
RTVSPropertyOp17
 70
     1
102
RTVSPropertyOp18
 70
     1
102
RTVSPropertyOp19
 70
     1
102
RTVSPropertyOp20
 70
     1
102
RTVSPropertyOp21
 70
     1
102
RTVSPropertyOp22
 70
     1
102
RTVSPropertyOp23
 70
     1
102
RTVSPropertyOp24
 70
     1
102
RTVSPropertyOp25
 70
     1
102
RTVSPropertyOp26
 70
     1
102
RTVSPropertyOp27
 70
     1
102
RTVSPropertyOp28
 70
     1
102
RTVSPropertyOp29
 70
     1
102
RTVSPropertyOp30
 70
     1
102
RTVSPropertyOp31
 70
     1
102
RTVSPropertyOp32
 70
     1
102
RTVSPropertyOp33
 70
     1
102
RTVSPropertyOp34
 70
     1
102
RTVSPropertyOp35
 70
     1
102
RTVSPropertyOp36
 70
     1
102
RTVSPropertyOp37
 70
     1
102
RTVSPropertyOp38
 70
     1
102
RTVSPropertyOp39
 70
     1
102
RTVSPropertyOp40
 70
     1
102
RTVSPropertyOp41
 70
     1
102
RTVSPropertyOp42
 70
     1
102
RTVSPropertyOp43
 70
     1
102
RTVSPropertyOp44
 70
     1
102
RTVSPropertyOp45
 70
     1
102
RTVSPropertyOp46
 70
     1
102
RTVSPropertyOp47
 70
     1
102
RTVSPropertyOp48
 70
     1
102
RTVSPropertyOp49
 70
     1
102
RTVSPropertyOp50
 70
     1
102
RTVSPropertyOp51
 70
     0
102
RTVSPropertyOp52
 70
     0
102
RTVSPropertyOp53
 70
     1
102
RTVSPropertyOp54
 70
     1
102
RTVSPropertyOp55
 70
     1
102
RTVSPropertyOp56
 70
     1
102
RTVSPropertyOp57
 70
     1
102
RTVSPropertyOp58
 70
     1
102
RTVSPropertyOp59
 70
     1
102
RTVSPropertyOp60
 70
     1
102
RTVSPropertyOp61
 70
     1
102
RTVSPropertyOp62
 70
     1
  0
XRECORD
  5
A7D9
102
{ACAD_REACTORS
330
A7D8
102
}
330
A7D8
100
AcDbXrecord
280
     1
102
RTVSPost2010Prop28
280
     0
102
RTVSPost2010PropOp28
 70
     1
102
RTVSPost2010Prop29
280
     1
102
RTVSPost2010PropOp29
 70
     1
102
RTVSPost2010Prop30
280
     1
102
RTVSPost2010PropOp30
 70
     1
102
RTVSPost2010Prop31
280
     0
102
RTVSPost2010PropOp31
 70
     1
102
RTVSPost2010Prop32
280
     0
102
RTVSPost2010PropOp32
 70
     1
102
RTVSPost2010Prop33
280
     0
102
RTVSPost2010PropOp33
 70
     1
102
RTVSPost2010Prop34
280
     0
102
RTVSPost2010PropOp34
 70
     1
102
RTVSPost2010Prop35
280
     0
102
RTVSPost2010PropOp35
 70
     1
102
RTVSPost2010Prop36
280
     0
102
RTVSPost2010PropOp36
 70
     1
102
RTVSPost2010Prop37
 90
       50
102
RTVSPost2010PropOp37
 70
     1
102
RTVSPost2010Prop38
140
0.0
102
RTVSPost2010PropOp38
 70
     1
102
RTVSPost2010Prop39
140
1.0
102
RTVSPost2010PropOp39
 70
     1
102
RTVSPost2010Prop40
 90
        0
102
RTVSPost2010PropOp40
 70
     1
102
RTVSPost2010Prop41ColorIndex
 90
       18
102
RTVSPost2010Prop41ColorRGB
 90
        0
102
RTVSPost2010PropOp41
 70
     1
102
RTVSPost2010Prop42
 90
       50
102
RTVSPost2010PropOp42
 70
     1
102
RTVSPost2010Prop43
 90
        3
102
RTVSPost2010PropOp43
 70
     1
102
RTVSPost2010Prop44ColorIndex
 90
        5
102
RTVSPost2010Prop44ColorRGB
 90
      255
102
RTVSPost2010PropOp44
 70
     1
102
RTVSPost2010Prop45
280
     0
102
RTVSPost2010PropOp45
 70
     1
102
RTVSPost2010Prop46
 90
       50
102
RTVSPost2010PropOp46
 70
     1
102
RTVSPost2010Prop47
 90
       50
102
RTVSPost2010PropOp47
 70
     1
102
RTVSPost2010Prop48
 90
       50
102
RTVSPost2010PropOp48
 70
     1
102
RTVSPost2010Prop49
280
     0
102
RTVSPost2010PropOp49
 70
     1
102
RTVSPost2010Prop50
 90
       50
102
RTVSPost2010PropOp50
 70
     1
102
RTVSPost2010Prop51ColorIndex
 90
      256
102
RTVSPost2010Prop51ColorRGB
 90
-16777216
102
RTVSPost2010PropOp51
 70
     0
102
RTVSPost2010Prop52
140
1.0
102
RTVSPost2010PropOp52
 70
     0
102
RTVSPost2010Prop53
 90
        2
102
RTVSPost2010PropOp53
 70
     1
102
RTVSPost2010Prop54
  1
strokes_ogs.tif
102
RTVSPost2010PropOp54
 70
     1
102
RTVSPost2010Prop55
280
     0
102
RTVSPost2010PropOp55
 70
     1
102
RTVSPost2010Prop56
140
1.0
102
RTVSPost2010PropOp56
 70
     1
102
RTVSPost2010Prop57
140
1.0
102
RTVSPost2010PropOp57
 70
     1
102
RTVSPropertyOp0
 70
     1
102
RTVSPropertyOp1
 70
     1
102
RTVSPropertyOp2
 70
     1
102
RTVSPropertyOp3
 70
     1
102
RTVSPropertyOp4
 70
     1
102
RTVSPropertyOp5
 70
     1
102
RTVSPropertyOp6
 70
     1
102
RTVSPropertyOp7
 70
     1
102
RTVSPropertyOp8
 70
     1
102
RTVSPropertyOp9
 70
     1
102
RTVSPropertyOp10
 70
     1
102
RTVSPropertyOp11
 70
     1
102
RTVSPropertyOp12
 70
     1
102
RTVSPropertyOp13
 70
     1
102
RTVSPropertyOp14
 70
     1
102
RTVSPropertyOp15
 70
     1
102
RTVSPropertyOp16
 70
     1
102
RTVSPropertyOp17
 70
     1
102
RTVSPropertyOp18
 70
     1
102
RTVSPropertyOp19
 70
     1
102
RTVSPropertyOp20
 70
     1
102
RTVSPropertyOp21
 70
     1
102
RTVSPropertyOp22
 70
     1
102
RTVSPropertyOp23
 70
     1
102
RTVSPropertyOp24
 70
     1
102
RTVSPropertyOp25
 70
     1
102
RTVSPropertyOp26
 70
     1
102
RTVSPropertyOp27
 70
     1
102
RTVSPropertyOp28
 70
     1
102
RTVSPropertyOp29
 70
     1
102
RTVSPropertyOp30
 70
     1
102
RTVSPropertyOp31
 70
     1
102
RTVSPropertyOp32
 70
     1
102
RTVSPropertyOp33
 70
     1
102
RTVSPropertyOp34
 70
     1
102
RTVSPropertyOp35
 70
     1
102
RTVSPropertyOp36
 70
     1
102
RTVSPropertyOp37
 70
     1
102
RTVSPropertyOp38
 70
     1
102
RTVSPropertyOp39
 70
     1
102
RTVSPropertyOp40
 70
     1
102
RTVSPropertyOp41
 70
     1
102
RTVSPropertyOp42
 70
     1
102
RTVSPropertyOp43
 70
     1
102
RTVSPropertyOp44
 70
     1
102
RTVSPropertyOp45
 70
     1
102
RTVSPropertyOp46
 70
     1
102
RTVSPropertyOp47
 70
     1
102
RTVSPropertyOp48
 70
     1
102
RTVSPropertyOp49
 70
     1
102
RTVSPropertyOp50
 70
     1
102
RTVSPropertyOp51
 70
     0
102
RTVSPropertyOp52
 70
     0
102
RTVSPropertyOp53
 70
     1
102
RTVSPropertyOp54
 70
     1
102
RTVSPropertyOp55
 70
     1
102
RTVSPropertyOp56
 70
     1
102
RTVSPropertyOp57
 70
     1
102
RTVSPropertyOp58
 70
     1
102
RTVSPropertyOp59
 70
     1
102
RTVSPropertyOp60
 70
     1
102
RTVSPropertyOp61
 70
     1
102
RTVSPropertyOp62
 70
     1
  0
XRECORD
  5
A7D7
102
{ACAD_REACTORS
330
A7D6
102
}
330
A7D6
100
AcDbXrecord
280
     1
102
RTVSPost2010Prop28
280
     0
102
RTVSPost2010PropOp28
 70
     1
102
RTVSPost2010Prop29
280
     1
102
RTVSPost2010PropOp29
 70
     1
102
RTVSPost2010Prop30
280
     1
102
RTVSPost2010PropOp30
 70
     1
102
RTVSPost2010Prop31
280
     0
102
RTVSPost2010PropOp31
 70
     1
102
RTVSPost2010Prop32
280
     0
102
RTVSPost2010PropOp32
 70
     1
102
RTVSPost2010Prop33
280
     0
102
RTVSPost2010PropOp33
 70
     1
102
RTVSPost2010Prop34
280
     0
102
RTVSPost2010PropOp34
 70
     1
102
RTVSPost2010Prop35
280
     0
102
RTVSPost2010PropOp35
 70
     1
102
RTVSPost2010Prop36
280
     0
102
RTVSPost2010PropOp36
 70
     1
102
RTVSPost2010Prop37
 90
       50
102
RTVSPost2010PropOp37
 70
     1
102
RTVSPost2010Prop38
140
0.0
102
RTVSPost2010PropOp38
 70
     1
102
RTVSPost2010Prop39
140
1.0
102
RTVSPost2010PropOp39
 70
     1
102
RTVSPost2010Prop40
 90
        0
102
RTVSPost2010PropOp40
 70
     1
102
RTVSPost2010Prop41ColorIndex
 90
       18
102
RTVSPost2010Prop41ColorRGB
 90
        0
102
RTVSPost2010PropOp41
 70
     1
102
RTVSPost2010Prop42
 90
       50
102
RTVSPost2010PropOp42
 70
     1
102
RTVSPost2010Prop43
 90
        3
102
RTVSPost2010PropOp43
 70
     1
102
RTVSPost2010Prop44ColorIndex
 90
        5
102
RTVSPost2010Prop44ColorRGB
 90
      255
102
RTVSPost2010PropOp44
 70
     1
102
RTVSPost2010Prop45
280
     0
102
RTVSPost2010PropOp45
 70
     1
102
RTVSPost2010Prop46
 90
       50
102
RTVSPost2010PropOp46
 70
     1
102
RTVSPost2010Prop47
 90
       50
102
RTVSPost2010PropOp47
 70
     1
102
RTVSPost2010Prop48
 90
       50
102
RTVSPost2010PropOp48
 70
     1
102
RTVSPost2010Prop49
280
     0
102
RTVSPost2010PropOp49
 70
     1
102
RTVSPost2010Prop50
 90
       50
102
RTVSPost2010PropOp50
 70
     1
102
RTVSPost2010Prop51ColorIndex
 90
      256
102
RTVSPost2010Prop51ColorRGB
 90
-16777216
102
RTVSPost2010PropOp51
 70
     0
102
RTVSPost2010Prop52
140
1.0
102
RTVSPost2010PropOp52
 70
     0
102
RTVSPost2010Prop53
 90
        2
102
RTVSPost2010PropOp53
 70
     1
102
RTVSPost2010Prop54
  1
strokes_ogs.tif
102
RTVSPost2010PropOp54
 70
     1
102
RTVSPost2010Prop55
280
     0
102
RTVSPost2010PropOp55
 70
     1
102
RTVSPost2010Prop56
140
1.0
102
RTVSPost2010PropOp56
 70
     1
102
RTVSPost2010Prop57
140
1.0
102
RTVSPost2010PropOp57
 70
     1
102
RTVSPropertyOp0
 70
     1
102
RTVSPropertyOp1
 70
     1
102
RTVSPropertyOp2
 70
     1
102
RTVSPropertyOp3
 70
     1
102
RTVSPropertyOp4
 70
     1
102
RTVSPropertyOp5
 70
     1
102
RTVSPropertyOp6
 70
     1
102
RTVSPropertyOp7
 70
     1
102
RTVSPropertyOp8
 70
     1
102
RTVSPropertyOp9
 70
     1
102
RTVSPropertyOp10
 70
     1
102
RTVSPropertyOp11
 70
     1
102
RTVSPropertyOp12
 70
     1
102
RTVSPropertyOp13
 70
     1
102
RTVSPropertyOp14
 70
     1
102
RTVSPropertyOp15
 70
     1
102
RTVSPropertyOp16
 70
     1
102
RTVSPropertyOp17
 70
     1
102
RTVSPropertyOp18
 70
     1
102
RTVSPropertyOp19
 70
     1
102
RTVSPropertyOp20
 70
     1
102
RTVSPropertyOp21
 70
     1
102
RTVSPropertyOp22
 70
     1
102
RTVSPropertyOp23
 70
     1
102
RTVSPropertyOp24
 70
     1
102
RTVSPropertyOp25
 70
     1
102
RTVSPropertyOp26
 70
     1
102
RTVSPropertyOp27
 70
     1
102
RTVSPropertyOp28
 70
     1
102
RTVSPropertyOp29
 70
     1
102
RTVSPropertyOp30
 70
     1
102
RTVSPropertyOp31
 70
     1
102
RTVSPropertyOp32
 70
     1
102
RTVSPropertyOp33
 70
     1
102
RTVSPropertyOp34
 70
     1
102
RTVSPropertyOp35
 70
     1
102
RTVSPropertyOp36
 70
     1
102
RTVSPropertyOp37
 70
     1
102
RTVSPropertyOp38
 70
     1
102
RTVSPropertyOp39
 70
     1
102
RTVSPropertyOp40
 70
     1
102
RTVSPropertyOp41
 70
     1
102
RTVSPropertyOp42
 70
     1
102
RTVSPropertyOp43
 70
     1
102
RTVSPropertyOp44
 70
     1
102
RTVSPropertyOp45
 70
     1
102
RTVSPropertyOp46
 70
     1
102
RTVSPropertyOp47
 70
     1
102
RTVSPropertyOp48
 70
     1
102
RTVSPropertyOp49
 70
     1
102
RTVSPropertyOp50
 70
     1
102
RTVSPropertyOp51
 70
     0
102
RTVSPropertyOp52
 70
     0
102
RTVSPropertyOp53
 70
     1
102
RTVSPropertyOp54
 70
     1
102
RTVSPropertyOp55
 70
     1
102
RTVSPropertyOp56
 70
     1
102
RTVSPropertyOp57
 70
     1
102
RTVSPropertyOp58
 70
     1
102
RTVSPropertyOp59
 70
     1
102
RTVSPropertyOp60
 70
     1
102
RTVSPropertyOp61
 70
     1
102
RTVSPropertyOp62
 70
     1
  0
XRECORD
  5
A7D1
102
{ACAD_REACTORS
330
A7D0
102
}
330
A7D0
100
AcDbXrecord
280
     1
102
RTVSPost2010Prop28
280
     0
102
RTVSPost2010PropOp28
 70
     1
102
RTVSPost2010Prop29
280
     1
102
RTVSPost2010PropOp29
 70
     1
102
RTVSPost2010Prop30
280
     1
102
RTVSPost2010PropOp30
 70
     1
102
RTVSPost2010Prop31
280
     0
102
RTVSPost2010PropOp31
 70
     1
102
RTVSPost2010Prop32
280
     0
102
RTVSPost2010PropOp32
 70
     1
102
RTVSPost2010Prop33
280
     0
102
RTVSPost2010PropOp33
 70
     1
102
RTVSPost2010Prop34
280
     0
102
RTVSPost2010PropOp34
 70
     1
102
RTVSPost2010Prop35
280
     0
102
RTVSPost2010PropOp35
 70
     1
102
RTVSPost2010Prop36
280
     0
102
RTVSPost2010PropOp36
 70
     1
102
RTVSPost2010Prop37
 90
       50
102
RTVSPost2010PropOp37
 70
     1
102
RTVSPost2010Prop38
140
0.0
102
RTVSPost2010PropOp38
 70
     1
102
RTVSPost2010Prop39
140
1.0
102
RTVSPost2010PropOp39
 70
     1
102
RTVSPost2010Prop40
 90
        0
102
RTVSPost2010PropOp40
 70
     1
102
RTVSPost2010Prop41ColorIndex
 90
       18
102
RTVSPost2010Prop41ColorRGB
 90
        0
102
RTVSPost2010PropOp41
 70
     1
102
RTVSPost2010Prop42
 90
       50
102
RTVSPost2010PropOp42
 70
     1
102
RTVSPost2010Prop43
 90
        3
102
RTVSPost2010PropOp43
 70
     1
102
RTVSPost2010Prop44ColorIndex
 90
        5
102
RTVSPost2010Prop44ColorRGB
 90
      255
102
RTVSPost2010PropOp44
 70
     1
102
RTVSPost2010Prop45
280
     0
102
RTVSPost2010PropOp45
 70
     1
102
RTVSPost2010Prop46
 90
       50
102
RTVSPost2010PropOp46
 70
     1
102
RTVSPost2010Prop47
 90
       50
102
RTVSPost2010PropOp47
 70
     1
102
RTVSPost2010Prop48
 90
       50
102
RTVSPost2010PropOp48
 70
     1
102
RTVSPost2010Prop49
280
     0
102
RTVSPost2010PropOp49
 70
     1
102
RTVSPost2010Prop50
 90
       50
102
RTVSPost2010PropOp50
 70
     1
102
RTVSPost2010Prop51ColorIndex
 90
      256
102
RTVSPost2010Prop51ColorRGB
 90
-16777216
102
RTVSPost2010PropOp51
 70
     0
102
RTVSPost2010Prop52
140
1.0
102
RTVSPost2010PropOp52
 70
     0
102
RTVSPost2010Prop53
 90
        2
102
RTVSPost2010PropOp53
 70
     1
102
RTVSPost2010Prop54
  1
strokes_ogs.tif
102
RTVSPost2010PropOp54
 70
     1
102
RTVSPost2010Prop55
280
     0
102
RTVSPost2010PropOp55
 70
     1
102
RTVSPost2010Prop56
140
1.0
102
RTVSPost2010PropOp56
 70
     1
102
RTVSPost2010Prop57
140
1.0
102
RTVSPost2010PropOp57
 70
     1
102
RTVSPropertyOp0
 70
     1
102
RTVSPropertyOp1
 70
     1
102
RTVSPropertyOp2
 70
     1
102
RTVSPropertyOp3
 70
     1
102
RTVSPropertyOp4
 70
     1
102
RTVSPropertyOp5
 70
     1
102
RTVSPropertyOp6
 70
     1
102
RTVSPropertyOp7
 70
     1
102
RTVSPropertyOp8
 70
     1
102
RTVSPropertyOp9
 70
     1
102
RTVSPropertyOp10
 70
     1
102
RTVSPropertyOp11
 70
     1
102
RTVSPropertyOp12
 70
     1
102
RTVSPropertyOp13
 70
     1
102
RTVSPropertyOp14
 70
     1
102
RTVSPropertyOp15
 70
     1
102
RTVSPropertyOp16
 70
     1
102
RTVSPropertyOp17
 70
     1
102
RTVSPropertyOp18
 70
     1
102
RTVSPropertyOp19
 70
     1
102
RTVSPropertyOp20
 70
     1
102
RTVSPropertyOp21
 70
     1
102
RTVSPropertyOp22
 70
     1
102
RTVSPropertyOp23
 70
     1
102
RTVSPropertyOp24
 70
     1
102
RTVSPropertyOp25
 70
     1
102
RTVSPropertyOp26
 70
     1
102
RTVSPropertyOp27
 70
     1
102
RTVSPropertyOp28
 70
     1
102
RTVSPropertyOp29
 70
     1
102
RTVSPropertyOp30
 70
     1
102
RTVSPropertyOp31
 70
     1
102
RTVSPropertyOp32
 70
     1
102
RTVSPropertyOp33
 70
     1
102
RTVSPropertyOp34
 70
     1
102
RTVSPropertyOp35
 70
     1
102
RTVSPropertyOp36
 70
     1
102
RTVSPropertyOp37
 70
     1
102
RTVSPropertyOp38
 70
     1
102
RTVSPropertyOp39
 70
     1
102
RTVSPropertyOp40
 70
     1
102
RTVSPropertyOp41
 70
     1
102
RTVSPropertyOp42
 70
     1
102
RTVSPropertyOp43
 70
     1
102
RTVSPropertyOp44
 70
     1
102
RTVSPropertyOp45
 70
     1
102
RTVSPropertyOp46
 70
     1
102
RTVSPropertyOp47
 70
     1
102
RTVSPropertyOp48
 70
     1
102
RTVSPropertyOp49
 70
     1
102
RTVSPropertyOp50
 70
     1
102
RTVSPropertyOp51
 70
     0
102
RTVSPropertyOp52
 70
     0
102
RTVSPropertyOp53
 70
     1
102
RTVSPropertyOp54
 70
     1
102
RTVSPropertyOp55
 70
     1
102
RTVSPropertyOp56
 70
     1
102
RTVSPropertyOp57
 70
     1
102
RTVSPropertyOp58
 70
     1
102
RTVSPropertyOp59
 70
     1
102
RTVSPropertyOp60
 70
     1
102
RTVSPropertyOp61
 70
     1
102
RTVSPropertyOp62
 70
     1
  0
XRECORD
  5
A7D3
102
{ACAD_REACTORS
330
A7D2
102
}
330
A7D2
100
AcDbXrecord
280
     1
102
RTVSPost2010Prop28
280
     0
102
RTVSPost2010PropOp28
 70
     1
102
RTVSPost2010Prop29
280
     1
102
RTVSPost2010PropOp29
 70
     1
102
RTVSPost2010Prop30
280
     1
102
RTVSPost2010PropOp30
 70
     1
102
RTVSPost2010Prop31
280
     0
102
RTVSPost2010PropOp31
 70
     1
102
RTVSPost2010Prop32
280
     0
102
RTVSPost2010PropOp32
 70
     1
102
RTVSPost2010Prop33
280
     0
102
RTVSPost2010PropOp33
 70
     1
102
RTVSPost2010Prop34
280
     0
102
RTVSPost2010PropOp34
 70
     1
102
RTVSPost2010Prop35
280
     0
102
RTVSPost2010PropOp35
 70
     1
102
RTVSPost2010Prop36
280
     0
102
RTVSPost2010PropOp36
 70
     1
102
RTVSPost2010Prop37
 90
       50
102
RTVSPost2010PropOp37
 70
     1
102
RTVSPost2010Prop38
140
0.0
102
RTVSPost2010PropOp38
 70
     1
102
RTVSPost2010Prop39
140
1.0
102
RTVSPost2010PropOp39
 70
     1
102
RTVSPost2010Prop40
 90
        0
102
RTVSPost2010PropOp40
 70
     1
102
RTVSPost2010Prop41ColorIndex
 90
       18
102
RTVSPost2010Prop41ColorRGB
 90
        0
102
RTVSPost2010PropOp41
 70
     1
102
RTVSPost2010Prop42
 90
       50
102
RTVSPost2010PropOp42
 70
     1
102
RTVSPost2010Prop43
 90
        3
102
RTVSPost2010PropOp43
 70
     1
102
RTVSPost2010Prop44ColorIndex
 90
        5
102
RTVSPost2010Prop44ColorRGB
 90
      255
102
RTVSPost2010PropOp44
 70
     1
102
RTVSPost2010Prop45
280
     0
102
RTVSPost2010PropOp45
 70
     1
102
RTVSPost2010Prop46
 90
       50
102
RTVSPost2010PropOp46
 70
     1
102
RTVSPost2010Prop47
 90
       50
102
RTVSPost2010PropOp47
 70
     1
102
RTVSPost2010Prop48
 90
       50
102
RTVSPost2010PropOp48
 70
     1
102
RTVSPost2010Prop49
280
     0
102
RTVSPost2010PropOp49
 70
     1
102
RTVSPost2010Prop50
 90
       50
102
RTVSPost2010PropOp50
 70
     1
102
RTVSPost2010Prop51ColorIndex
 90
      256
102
RTVSPost2010Prop51ColorRGB
 90
-16777216
102
RTVSPost2010PropOp51
 70
     0
102
RTVSPost2010Prop52
140
1.0
102
RTVSPost2010PropOp52
 70
     0
102
RTVSPost2010Prop53
 90
        2
102
RTVSPost2010PropOp53
 70
     1
102
RTVSPost2010Prop54
  1
strokes_ogs.tif
102
RTVSPost2010PropOp54
 70
     1
102
RTVSPost2010Prop55
280
     0
102
RTVSPost2010PropOp55
 70
     1
102
RTVSPost2010Prop56
140
1.0
102
RTVSPost2010PropOp56
 70
     1
102
RTVSPost2010Prop57
140
1.0
102
RTVSPost2010PropOp57
 70
     1
102
RTVSPropertyOp0
 70
     1
102
RTVSPropertyOp1
 70
     1
102
RTVSPropertyOp2
 70
     1
102
RTVSPropertyOp3
 70
     1
102
RTVSPropertyOp4
 70
     1
102
RTVSPropertyOp5
 70
     1
102
RTVSPropertyOp6
 70
     1
102
RTVSPropertyOp7
 70
     1
102
RTVSPropertyOp8
 70
     1
102
RTVSPropertyOp9
 70
     1
102
RTVSPropertyOp10
 70
     1
102
RTVSPropertyOp11
 70
     1
102
RTVSPropertyOp12
 70
     1
102
RTVSPropertyOp13
 70
     1
102
RTVSPropertyOp14
 70
     1
102
RTVSPropertyOp15
 70
     1
102
RTVSPropertyOp16
 70
     1
102
RTVSPropertyOp17
 70
     1
102
RTVSPropertyOp18
 70
     1
102
RTVSPropertyOp19
 70
     1
102
RTVSPropertyOp20
 70
     1
102
RTVSPropertyOp21
 70
     1
102
RTVSPropertyOp22
 70
     1
102
RTVSPropertyOp23
 70
     1
102
RTVSPropertyOp24
 70
     1
102
RTVSPropertyOp25
 70
     1
102
RTVSPropertyOp26
 70
     1
102
RTVSPropertyOp27
 70
     1
102
RTVSPropertyOp28
 70
     1
102
RTVSPropertyOp29
 70
     1
102
RTVSPropertyOp30
 70
     1
102
RTVSPropertyOp31
 70
     1
102
RTVSPropertyOp32
 70
     1
102
RTVSPropertyOp33
 70
     1
102
RTVSPropertyOp34
 70
     1
102
RTVSPropertyOp35
 70
     1
102
RTVSPropertyOp36
 70
     1
102
RTVSPropertyOp37
 70
     1
102
RTVSPropertyOp38
 70
     1
102
RTVSPropertyOp39
 70
     1
102
RTVSPropertyOp40
 70
     1
102
RTVSPropertyOp41
 70
     1
102
RTVSPropertyOp42
 70
     1
102
RTVSPropertyOp43
 70
     1
102
RTVSPropertyOp44
 70
     1
102
RTVSPropertyOp45
 70
     1
102
RTVSPropertyOp46
 70
     1
102
RTVSPropertyOp47
 70
     1
102
RTVSPropertyOp48
 70
     1
102
RTVSPropertyOp49
 70
     1
102
RTVSPropertyOp50
 70
     1
102
RTVSPropertyOp51
 70
     0
102
RTVSPropertyOp52
 70
     0
102
RTVSPropertyOp53
 70
     1
102
RTVSPropertyOp54
 70
     1
102
RTVSPropertyOp55
 70
     1
102
RTVSPropertyOp56
 70
     1
102
RTVSPropertyOp57
 70
     1
102
RTVSPropertyOp58
 70
     1
102
RTVSPropertyOp59
 70
     1
102
RTVSPropertyOp60
 70
     1
102
RTVSPropertyOp61
 70
     1
102
RTVSPropertyOp62
 70
     1
  0
XRECORD
  5
A7C9
102
{ACAD_REACTORS
330
A7C8
102
}
330
A7C8
100
AcDbXrecord
280
     1
102
RTVSPost2010Prop28
280
     0
102
RTVSPost2010PropOp28
 70
     1
102
RTVSPost2010Prop29
280
     1
102
RTVSPost2010PropOp29
 70
     1
102
RTVSPost2010Prop30
280
     1
102
RTVSPost2010PropOp30
 70
     1
102
RTVSPost2010Prop31
280
     0
102
RTVSPost2010PropOp31
 70
     1
102
RTVSPost2010Prop32
280
     0
102
RTVSPost2010PropOp32
 70
     1
102
RTVSPost2010Prop33
280
     0
102
RTVSPost2010PropOp33
 70
     1
102
RTVSPost2010Prop34
280
     0
102
RTVSPost2010PropOp34
 70
     1
102
RTVSPost2010Prop35
280
     0
102
RTVSPost2010PropOp35
 70
     1
102
RTVSPost2010Prop36
280
     0
102
RTVSPost2010PropOp36
 70
     1
102
RTVSPost2010Prop37
 90
       50
102
RTVSPost2010PropOp37
 70
     1
102
RTVSPost2010Prop38
140
0.0
102
RTVSPost2010PropOp38
 70
     1
102
RTVSPost2010Prop39
140
1.0
102
RTVSPost2010PropOp39
 70
     1
102
RTVSPost2010Prop40
 90
        0
102
RTVSPost2010PropOp40
 70
     1
102
RTVSPost2010Prop41ColorIndex
 90
       18
102
RTVSPost2010Prop41ColorRGB
 90
        0
102
RTVSPost2010PropOp41
 70
     1
102
RTVSPost2010Prop42
 90
       50
102
RTVSPost2010PropOp42
 70
     1
102
RTVSPost2010Prop43
 90
        3
102
RTVSPost2010PropOp43
 70
     1
102
RTVSPost2010Prop44ColorIndex
 90
        5
102
RTVSPost2010Prop44ColorRGB
 90
      255
102
RTVSPost2010PropOp44
 70
     1
102
RTVSPost2010Prop45
280
     0
102
RTVSPost2010PropOp45
 70
     1
102
RTVSPost2010Prop46
 90
       50
102
RTVSPost2010PropOp46
 70
     1
102
RTVSPost2010Prop47
 90
       50
102
RTVSPost2010PropOp47
 70
     1
102
RTVSPost2010Prop48
 90
       50
102
RTVSPost2010PropOp48
 70
     1
102
RTVSPost2010Prop49
280
     0
102
RTVSPost2010PropOp49
 70
     1
102
RTVSPost2010Prop50
 90
       50
102
RTVSPost2010PropOp50
 70
     1
102
RTVSPost2010Prop51ColorIndex
 90
      256
102
RTVSPost2010Prop51ColorRGB
 90
-16777216
102
RTVSPost2010PropOp51
 70
     0
102
RTVSPost2010Prop52
140
1.0
102
RTVSPost2010PropOp52
 70
     0
102
RTVSPost2010Prop53
 90
        2
102
RTVSPost2010PropOp53
 70
     1
102
RTVSPost2010Prop54
  1
strokes_ogs.tif
102
RTVSPost2010PropOp54
 70
     1
102
RTVSPost2010Prop55
280
     0
102
RTVSPost2010PropOp55
 70
     1
102
RTVSPost2010Prop56
140
1.0
102
RTVSPost2010PropOp56
 70
     1
102
RTVSPost2010Prop57
140
1.0
102
RTVSPost2010PropOp57
 70
     1
102
RTVSPropertyOp0
 70
     1
102
RTVSPropertyOp1
 70
     1
102
RTVSPropertyOp2
 70
     1
102
RTVSPropertyOp3
 70
     1
102
RTVSPropertyOp4
 70
     1
102
RTVSPropertyOp5
 70
     1
102
RTVSPropertyOp6
 70
     1
102
RTVSPropertyOp7
 70
     1
102
RTVSPropertyOp8
 70
     1
102
RTVSPropertyOp9
 70
     1
102
RTVSPropertyOp10
 70
     1
102
RTVSPropertyOp11
 70
     1
102
RTVSPropertyOp12
 70
     1
102
RTVSPropertyOp13
 70
     1
102
RTVSPropertyOp14
 70
     1
102
RTVSPropertyOp15
 70
     1
102
RTVSPropertyOp16
 70
     1
102
RTVSPropertyOp17
 70
     1
102
RTVSPropertyOp18
 70
     1
102
RTVSPropertyOp19
 70
     1
102
RTVSPropertyOp20
 70
     1
102
RTVSPropertyOp21
 70
     1
102
RTVSPropertyOp22
 70
     1
102
RTVSPropertyOp23
 70
     1
102
RTVSPropertyOp24
 70
     1
102
RTVSPropertyOp25
 70
     1
102
RTVSPropertyOp26
 70
     1
102
RTVSPropertyOp27
 70
     1
102
RTVSPropertyOp28
 70
     1
102
RTVSPropertyOp29
 70
     1
102
RTVSPropertyOp30
 70
     1
102
RTVSPropertyOp31
 70
     1
102
RTVSPropertyOp32
 70
     1
102
RTVSPropertyOp33
 70
     1
102
RTVSPropertyOp34
 70
     1
102
RTVSPropertyOp35
 70
     1
102
RTVSPropertyOp36
 70
     1
102
RTVSPropertyOp37
 70
     1
102
RTVSPropertyOp38
 70
     1
102
RTVSPropertyOp39
 70
     1
102
RTVSPropertyOp40
 70
     1
102
RTVSPropertyOp41
 70
     1
102
RTVSPropertyOp42
 70
     1
102
RTVSPropertyOp43
 70
     1
102
RTVSPropertyOp44
 70
     1
102
RTVSPropertyOp45
 70
     1
102
RTVSPropertyOp46
 70
     1
102
RTVSPropertyOp47
 70
     1
102
RTVSPropertyOp48
 70
     1
102
RTVSPropertyOp49
 70
     1
102
RTVSPropertyOp50
 70
     1
102
RTVSPropertyOp51
 70
     0
102
RTVSPropertyOp52
 70
     0
102
RTVSPropertyOp53
 70
     1
102
RTVSPropertyOp54
 70
     1
102
RTVSPropertyOp55
 70
     1
102
RTVSPropertyOp56
 70
     1
102
RTVSPropertyOp57
 70
     1
102
RTVSPropertyOp58
 70
     1
102
RTVSPropertyOp59
 70
     1
102
RTVSPropertyOp60
 70
     1
102
RTVSPropertyOp61
 70
     1
102
RTVSPropertyOp62
 70
     1
  0
XRECORD
  5
A7BD
102
{ACAD_REACTORS
330
A7BC
102
}
330
A7BC
100
AcDbXrecord
280
     1
102
RTVSPost2010Prop28
280
     0
102
RTVSPost2010PropOp28
 70
     1
102
RTVSPost2010Prop29
280
     1
102
RTVSPost2010PropOp29
 70
     1
102
RTVSPost2010Prop30
280
     1
102
RTVSPost2010PropOp30
 70
     1
102
RTVSPost2010Prop31
280
     0
102
RTVSPost2010PropOp31
 70
     1
102
RTVSPost2010Prop32
280
     0
102
RTVSPost2010PropOp32
 70
     1
102
RTVSPost2010Prop33
280
     0
102
RTVSPost2010PropOp33
 70
     1
102
RTVSPost2010Prop34
280
     0
102
RTVSPost2010PropOp34
 70
     1
102
RTVSPost2010Prop35
280
     0
102
RTVSPost2010PropOp35
 70
     1
102
RTVSPost2010Prop36
280
     0
102
RTVSPost2010PropOp36
 70
     1
102
RTVSPost2010Prop37
 90
       50
102
RTVSPost2010PropOp37
 70
     1
102
RTVSPost2010Prop38
140
0.0
102
RTVSPost2010PropOp38
 70
     1
102
RTVSPost2010Prop39
140
1.0
102
RTVSPost2010PropOp39
 70
     1
102
RTVSPost2010Prop40
 90
        0
102
RTVSPost2010PropOp40
 70
     1
102
RTVSPost2010Prop41ColorIndex
 90
       18
102
RTVSPost2010Prop41ColorRGB
 90
        0
102
RTVSPost2010PropOp41
 70
     1
102
RTVSPost2010Prop42
 90
       50
102
RTVSPost2010PropOp42
 70
     1
102
RTVSPost2010Prop43
 90
        3
102
RTVSPost2010PropOp43
 70
     1
102
RTVSPost2010Prop44ColorIndex
 90
        5
102
RTVSPost2010Prop44ColorRGB
 90
      255
102
RTVSPost2010PropOp44
 70
     1
102
RTVSPost2010Prop45
280
     0
102
RTVSPost2010PropOp45
 70
     1
102
RTVSPost2010Prop46
 90
       50
102
RTVSPost2010PropOp46
 70
     1
102
RTVSPost2010Prop47
 90
       50
102
RTVSPost2010PropOp47
 70
     1
102
RTVSPost2010Prop48
 90
       50
102
RTVSPost2010PropOp48
 70
     1
102
RTVSPost2010Prop49
280
     0
102
RTVSPost2010PropOp49
 70
     1
102
RTVSPost2010Prop50
 90
       50
102
RTVSPost2010PropOp50
 70
     1
102
RTVSPost2010Prop51ColorIndex
 90
      256
102
RTVSPost2010Prop51ColorRGB
 90
-16777216
102
RTVSPost2010PropOp51
 70
     0
102
RTVSPost2010Prop52
140
1.0
102
RTVSPost2010PropOp52
 70
     0
102
RTVSPost2010Prop53
 90
        2
102
RTVSPost2010PropOp53
 70
     1
102
RTVSPost2010Prop54
  1
strokes_ogs.tif
102
RTVSPost2010PropOp54
 70
     1
102
RTVSPost2010Prop55
280
     0
102
RTVSPost2010PropOp55
 70
     1
102
RTVSPost2010Prop56
140
1.0
102
RTVSPost2010PropOp56
 70
     1
102
RTVSPost2010Prop57
140
1.0
102
RTVSPost2010PropOp57
 70
     1
102
RTVSPropertyOp0
 70
     1
102
RTVSPropertyOp1
 70
     1
102
RTVSPropertyOp2
 70
     1
102
RTVSPropertyOp3
 70
     1
102
RTVSPropertyOp4
 70
     1
102
RTVSPropertyOp5
 70
     1
102
RTVSPropertyOp6
 70
     1
102
RTVSPropertyOp7
 70
     1
102
RTVSPropertyOp8
 70
     1
102
RTVSPropertyOp9
 70
     1
102
RTVSPropertyOp10
 70
     1
102
RTVSPropertyOp11
 70
     1
102
RTVSPropertyOp12
 70
     1
102
RTVSPropertyOp13
 70
     1
102
RTVSPropertyOp14
 70
     1
102
RTVSPropertyOp15
 70
     1
102
RTVSPropertyOp16
 70
     1
102
RTVSPropertyOp17
 70
     1
102
RTVSPropertyOp18
 70
     1
102
RTVSPropertyOp19
 70
     1
102
RTVSPropertyOp20
 70
     1
102
RTVSPropertyOp21
 70
     1
102
RTVSPropertyOp22
 70
     1
102
RTVSPropertyOp23
 70
     1
102
RTVSPropertyOp24
 70
     1
102
RTVSPropertyOp25
 70
     1
102
RTVSPropertyOp26
 70
     1
102
RTVSPropertyOp27
 70
     1
102
RTVSPropertyOp28
 70
     1
102
RTVSPropertyOp29
 70
     1
102
RTVSPropertyOp30
 70
     1
102
RTVSPropertyOp31
 70
     1
102
RTVSPropertyOp32
 70
     1
102
RTVSPropertyOp33
 70
     1
102
RTVSPropertyOp34
 70
     1
102
RTVSPropertyOp35
 70
     1
102
RTVSPropertyOp36
 70
     1
102
RTVSPropertyOp37
 70
     1
102
RTVSPropertyOp38
 70
     1
102
RTVSPropertyOp39
 70
     1
102
RTVSPropertyOp40
 70
     1
102
RTVSPropertyOp41
 70
     1
102
RTVSPropertyOp42
 70
     1
102
RTVSPropertyOp43
 70
     1
102
RTVSPropertyOp44
 70
     1
102
RTVSPropertyOp45
 70
     1
102
RTVSPropertyOp46
 70
     1
102
RTVSPropertyOp47
 70
     1
102
RTVSPropertyOp48
 70
     1
102
RTVSPropertyOp49
 70
     1
102
RTVSPropertyOp50
 70
     1
102
RTVSPropertyOp51
 70
     0
102
RTVSPropertyOp52
 70
     0
102
RTVSPropertyOp53
 70
     1
102
RTVSPropertyOp54
 70
     1
102
RTVSPropertyOp55
 70
     1
102
RTVSPropertyOp56
 70
     1
102
RTVSPropertyOp57
 70
     1
102
RTVSPropertyOp58
 70
     1
102
RTVSPropertyOp59
 70
     1
102
RTVSPropertyOp60
 70
     1
102
RTVSPropertyOp61
 70
     1
102
RTVSPropertyOp62
 70
     1
  0
XRECORD
  5
A7D5
102
{ACAD_REACTORS
330
A7D4
102
}
330
A7D4
100
AcDbXrecord
280
     1
102
RTVSPost2010Prop28
280
     0
102
RTVSPost2010PropOp28
 70
     1
102
RTVSPost2010Prop29
280
     1
102
RTVSPost2010PropOp29
 70
     1
102
RTVSPost2010Prop30
280
     1
102
RTVSPost2010PropOp30
 70
     1
102
RTVSPost2010Prop31
280
     0
102
RTVSPost2010PropOp31
 70
     1
102
RTVSPost2010Prop32
280
     0
102
RTVSPost2010PropOp32
 70
     1
102
RTVSPost2010Prop33
280
     0
102
RTVSPost2010PropOp33
 70
     1
102
RTVSPost2010Prop34
280
     0
102
RTVSPost2010PropOp34
 70
     1
102
RTVSPost2010Prop35
280
     0
102
RTVSPost2010PropOp35
 70
     1
102
RTVSPost2010Prop36
280
     0
102
RTVSPost2010PropOp36
 70
     1
102
RTVSPost2010Prop37
 90
       50
102
RTVSPost2010PropOp37
 70
     1
102
RTVSPost2010Prop38
140
0.0
102
RTVSPost2010PropOp38
 70
     1
102
RTVSPost2010Prop39
140
1.0
102
RTVSPost2010PropOp39
 70
     1
102
RTVSPost2010Prop40
 90
        0
102
RTVSPost2010PropOp40
 70
     1
102
RTVSPost2010Prop41ColorIndex
 90
       18
102
RTVSPost2010Prop41ColorRGB
 90
        0
102
RTVSPost2010PropOp41
 70
     1
102
RTVSPost2010Prop42
 90
       50
102
RTVSPost2010PropOp42
 70
     1
102
RTVSPost2010Prop43
 90
        3
102
RTVSPost2010PropOp43
 70
     1
102
RTVSPost2010Prop44ColorIndex
 90
        5
102
RTVSPost2010Prop44ColorRGB
 90
      255
102
RTVSPost2010PropOp44
 70
     1
102
RTVSPost2010Prop45
280
     0
102
RTVSPost2010PropOp45
 70
     1
102
RTVSPost2010Prop46
 90
       50
102
RTVSPost2010PropOp46
 70
     1
102
RTVSPost2010Prop47
 90
       50
102
RTVSPost2010PropOp47
 70
     1
102
RTVSPost2010Prop48
 90
       50
102
RTVSPost2010PropOp48
 70
     1
102
RTVSPost2010Prop49
280
     0
102
RTVSPost2010PropOp49
 70
     1
102
RTVSPost2010Prop50
 90
       50
102
RTVSPost2010PropOp50
 70
     1
102
RTVSPost2010Prop51ColorIndex
 90
      256
102
RTVSPost2010Prop51ColorRGB
 90
-16777216
102
RTVSPost2010PropOp51
 70
     0
102
RTVSPost2010Prop52
140
1.0
102
RTVSPost2010PropOp52
 70
     0
102
RTVSPost2010Prop53
 90
        2
102
RTVSPost2010PropOp53
 70
     1
102
RTVSPost2010Prop54
  1
strokes_ogs.tif
102
RTVSPost2010PropOp54
 70
     1
102
RTVSPost2010Prop55
280
     0
102
RTVSPost2010PropOp55
 70
     1
102
RTVSPost2010Prop56
140
1.0
102
RTVSPost2010PropOp56
 70
     1
102
RTVSPost2010Prop57
140
1.0
102
RTVSPost2010PropOp57
 70
     1
102
RTVSPropertyOp0
 70
     1
102
RTVSPropertyOp1
 70
     1
102
RTVSPropertyOp2
 70
     1
102
RTVSPropertyOp3
 70
     1
102
RTVSPropertyOp4
 70
     1
102
RTVSPropertyOp5
 70
     1
102
RTVSPropertyOp6
 70
     1
102
RTVSPropertyOp7
 70
     1
102
RTVSPropertyOp8
 70
     1
102
RTVSPropertyOp9
 70
     1
102
RTVSPropertyOp10
 70
     1
102
RTVSPropertyOp11
 70
     1
102
RTVSPropertyOp12
 70
     1
102
RTVSPropertyOp13
 70
     1
102
RTVSPropertyOp14
 70
     1
102
RTVSPropertyOp15
 70
     1
102
RTVSPropertyOp16
 70
     1
102
RTVSPropertyOp17
 70
     1
102
RTVSPropertyOp18
 70
     1
102
RTVSPropertyOp19
 70
     1
102
RTVSPropertyOp20
 70
     1
102
RTVSPropertyOp21
 70
     1
102
RTVSPropertyOp22
 70
     1
102
RTVSPropertyOp23
 70
     1
102
RTVSPropertyOp24
 70
     1
102
RTVSPropertyOp25
 70
     1
102
RTVSPropertyOp26
 70
     1
102
RTVSPropertyOp27
 70
     1
102
RTVSPropertyOp28
 70
     1
102
RTVSPropertyOp29
 70
     1
102
RTVSPropertyOp30
 70
     1
102
RTVSPropertyOp31
 70
     1
102
RTVSPropertyOp32
 70
     1
102
RTVSPropertyOp33
 70
     1
102
RTVSPropertyOp34
 70
     1
102
RTVSPropertyOp35
 70
     1
102
RTVSPropertyOp36
 70
     1
102
RTVSPropertyOp37
 70
     1
102
RTVSPropertyOp38
 70
     1
102
RTVSPropertyOp39
 70
     1
102
RTVSPropertyOp40
 70
     1
102
RTVSPropertyOp41
 70
     1
102
RTVSPropertyOp42
 70
     1
102
RTVSPropertyOp43
 70
     1
102
RTVSPropertyOp44
 70
     1
102
RTVSPropertyOp45
 70
     1
102
RTVSPropertyOp46
 70
     1
102
RTVSPropertyOp47
 70
     1
102
RTVSPropertyOp48
 70
     1
102
RTVSPropertyOp49
 70
     1
102
RTVSPropertyOp50
 70
     1
102
RTVSPropertyOp51
 70
     0
102
RTVSPropertyOp52
 70
     0
102
RTVSPropertyOp53
 70
     1
102
RTVSPropertyOp54
 70
     1
102
RTVSPropertyOp55
 70
     1
102
RTVSPropertyOp56
 70
     1
102
RTVSPropertyOp57
 70
     1
102
RTVSPropertyOp58
 70
     1
102
RTVSPropertyOp59
 70
     1
102
RTVSPropertyOp60
 70
     1
102
RTVSPropertyOp61
 70
     1
102
RTVSPropertyOp62
 70
     1
  0
ENDSEC
  0
EOF
