  0
SECTION
  2
HEADER
  9
$ACADVER
  1
AC1015
  9
$ACADMAINTVER
 70
    20
  9
$DWGCODEPAGE
  3
ANSI_932
  9
$INSBASE
 10
0.0
 20
0.0
 30
0.0
  9
$EXTMIN
 10
10.0
 20
9.999999999999998
 30
0.0
  9
$EXTMAX
 10
663.220223
 20
459.8716089999999
 30
0.0
  9
$LIMMIN
 10
0.0
 20
0.0
  9
$LIMMAX
 10
792.0
 20
546.0
  9
$ORTHOMODE
 70
     1
  9
$REGENMODE
 70
     1
  9
$FILLMODE
 70
     1
  9
$QTEXTMODE
 70
     0
  9
$MIRRTEXT
 70
     1
  9
$LTSCALE
 40
20.0
  9
$ATTMODE
 70
     1
  9
$TEXTSIZE
 40
5.0
  9
$TRACEWID
 40
1.0
  9
$TEXTSTYLE
  7
STANDARD
  9
$CLAYER
  8
0
  9
$CELTYPE
  6
BYLAYER
  9
$CECOLOR
 62
   256
  9
$CELTSCALE
 40
1.0
  9
$DISPSILH
 70
     0
  9
$DIMSCALE
 40
1.0
  9
$DIMASZ
 40
2.5
  9
$DIMEXO
 40
1.0
  9
$DIMDLI
 40
10.0
  9
$DIMRND
 40
0.0
  9
$DIMDLE
 40
0.0
  9
$DIMEXE
 40
1.0
  9
$DIMTP
 40
0.0
  9
$DIMTM
 40
0.0
  9
$DIMTXT
 40
3.2
  9
$DIMCEN
 40
0.0
  9
$DIMTSZ
 40
0.0
  9
$DIMTOL
 70
     0
  9
$DIMLIM
 70
     0
  9
$DIMTIH
 70
     0
  9
$DIMTOH
 70
     0
  9
$DIMSE1
 70
     0
  9
$DIMSE2
 70
     0
  9
$DIMTAD
 70
     3
  9
$DIMZIN
 70
     8
  9
$DIMBLK
  1

  9
$DIMASO
 70
     1
  9
$DIMSHO
 70
     1
  9
$DIMPOST
  1

  9
$DIMAPOST
  1

  9
$DIMALT
 70
     0
  9
$DIMALTD
 70
     2
  9
$DIMALTF
 40
25.4
  9
$DIMLFAC
 40
1.0
  9
$DIMTOFL
 70
     1
  9
$DIMTVP
 40
0.0
  9
$DIMTIX
 70
     0
  9
$DIMSOXD
 70
     0
  9
$DIMSAH
 70
     1
  9
$DIMBLK1
  1

  9
$DIMBLK2
  1

  9
$DIMSTYLE
  2
STANDARD
  9
$DIMCLRD
 70
     0
  9
$DIMCLRE
 70
     0
  9
$DIMCLRT
 70
     0
  9
$DIMTFAC
 40
1.0
  9
$DIMGAP
 40
1.0
  9
$DIMJUST
 70
     0
  9
$DIMSD1
 70
     0
  9
$DIMSD2
 70
     0
  9
$DIMTOLJ
 70
     1
  9
$DIMTZIN
 70
     0
  9
$DIMALTZ
 70
     0
  9
$DIMALTTZ
 70
     0
  9
$DIMUPT
 70
     0
  9
$DIMDEC
 70
     4
  9
$DIMTDEC
 70
     4
  9
$DIMALTU
 70
     2
  9
$DIMALTTD
 70
     2
  9
$DIMTXSTY
  7
STANDARD
  9
$DIMAUNIT
 70
     0
  9
$DIMADEC
 70
     0
  9
$DIMALTRND
 40
0.0
  9
$DIMAZIN
 70
     0
  9
$DIMDSEP
 70
    46
  9
$DIMATFIT
 70
     3
  9
$DIMFRAC
 70
     0
  9
$DIMLDRBLK
  1

  9
$DIMLUNIT
 70
     2
  9
$DIMLWD
 70
    -2
  9
$DIMLWE
 70
    -2
  9
$DIMTMOVE
 70
     0
  9
$LUNITS
 70
     2
  9
$LUPREC
 70
     4
  9
$SKETCHINC
 40
1.0
  9
$FILLETRAD
 40
3.299999999999998
  9
$AUNITS
 70
     0
  9
$AUPREC
 70
     2
  9
$MENU
  1
.
  9
$ELEVATION
 40
0.0
  9
$PELEVATION
 40
0.0
  9
$THICKNESS
 40
0.0
  9
$LIMCHECK
 70
     0
  9
$CHAMFERA
 40
10.0
  9
$CHAMFERB
 40
10.0
  9
$CHAMFERC
 40
0.0
  9
$CHAMFERD
 40
0.0
  9
$SKPOLY
 70
     0
  9
$TDCREATE
 40
2451302.684918287
  9
$TDUCREATE
 40
2451302.309918288
  9
$TDUPDATE
 40
2457192.690002836
  9
$TDUUPDATE
 40
2457192.315002836
  9
$TDINDWG
 40
0.0485020949
  9
$TDUSRTIMER
 40
0.0485019097
  9
$USRTIMER
 70
     1
  9
$ANGBASE
 50
0.0
  9
$ANGDIR
 70
     0
  9
$PDMODE
 70
     0
  9
$PDSIZE
 40
0.0
  9
$PLINEWID
 40
0.0
  9
$SPLFRAME
 70
     0
  9
$SPLINETYPE
 70
     6
  9
$SPLINESEGS
 70
     8
  9
$HANDSEED
  5
ABDF
  9
$SURFTAB1
 70
     6
  9
$SURFTAB2
 70
     6
  9
$SURFTYPE
 70
     6
  9
$SURFU
 70
     6
  9
$SURFV
 70
     6
  9
$UCSBASE
  2

  9
$UCSNAME
  2

  9
$UCSORG
 10
0.0
 20
0.0
 30
0.0
  9
$UCSXDIR
 10
1.0
 20
0.0
 30
0.0
  9
$UCSYDIR
 10
0.0
 20
1.0
 30
0.0
  9
$UCSORTHOREF
  2

  9
$UCSORTHOVIEW
 70
     0
  9
$UCSORGTOP
 10
0.0
 20
0.0
 30
0.0
  9
$UCSORGBOTTOM
 10
0.0
 20
0.0
 30
0.0
  9
$UCSORGLEFT
 10
0.0
 20
0.0
 30
0.0
  9
$UCSORGRIGHT
 10
0.0
 20
0.0
 30
0.0
  9
$UCSORGFRONT
 10
0.0
 20
0.0
 30
0.0
  9
$UCSORGBACK
 10
0.0
 20
0.0
 30
0.0
  9
$PUCSBASE
  2

  9
$PUCSNAME
  2

  9
$PUCSORG
 10
0.0
 20
0.0
 30
0.0
  9
$PUCSXDIR
 10
1.0
 20
0.0
 30
0.0
  9
$PUCSYDIR
 10
0.0
 20
1.0
 30
0.0
  9
$PUCSORTHOREF
  2

  9
$PUCSORTHOVIEW
 70
     0
  9
$PUCSORGTOP
 10
0.0
 20
0.0
 30
0.0
  9
$PUCSORGBOTTOM
 10
0.0
 20
0.0
 30
0.0
  9
$PUCSORGLEFT
 10
0.0
 20
0.0
 30
0.0
  9
$PUCSORGRIGHT
 10
0.0
 20
0.0
 30
0.0
  9
$PUCSORGFRONT
 10
0.0
 20
0.0
 30
0.0
  9
$PUCSORGBACK
 10
0.0
 20
0.0
 30
0.0
  9
$USERI1
 70
     0
  9
$USERI2
 70
     0
  9
$USERI3
 70
     0
  9
$USERI4
 70
     0
  9
$USERI5
 70
     0
  9
$USERR1
 40
0.0
  9
$USERR2
 40
0.0
  9
$USERR3
 40
0.0
  9
$USERR4
 40
0.0
  9
$USERR5
 40
0.0
  9
$WORLDVIEW
 70
     1
  9
$SHADEDGE
 70
     3
  9
$SHADEDIF
 70
    70
  9
$TILEMODE
 70
     1
  9
$MAXACTVP
 70
    16
  9
$PINSBASE
 10
0.0
 20
0.0
 30
0.0
  9
$PLIMCHECK
 70
     0
  9
$PEXTMIN
 10
1.000000000000000E+20
 20
1.000000000000000E+20
 30
1.000000000000000E+20
  9
$PEXTMAX
 10
-1.000000000000000E+20
 20
-1.000000000000000E+20
 30
-1.000000000000000E+20
  9
$PLIMMIN
 10
0.0
 20
0.0
  9
$PLIMMAX
 10
420.0
 20
297.0
  9
$UNITMODE
 70
     0
  9
$VISRETAIN
 70
     0
  9
$PLINEGEN
 70
     0
  9
$PSLTSCALE
 70
     0
  9
$TREEDEPTH
 70
  3020
  9
$CMLSTYLE
  2
STANDARD
  9
$CMLJUST
 70
     0
  9
$CMLSCALE
 40
1.0
  9
$PROXYGRAPHICS
 70
     1
  9
$MEASUREMENT
 70
     0
  9
$CELWEIGHT
370
    -1
  9
$ENDCAPS
280
     0
  9
$JOINSTYLE
280
     0
  9
$LWDISPLAY
290
     0
  9
$INSUNITS
 70
     0
  9
$HYPERLINKBASE
  1

  9
$STYLESHEET
  1

  9
$XEDIT
290
     1
  9
$CEPSNTYPE
380
     0
  9
$PSTYLEMODE
290
     1
  9
$FINGERPRINTGUID
  2
{EAD98871-846C-45B3-B215-CF8F474560C1}
  9
$VERSIONGUID
  2
{384737B8-F04B-4187-9F64-0F6A4E61B1BC}
  9
$EXTNAMES
290
     1
  9
$PSVPSCALE
 40
0.0
  9
$OLESTARTUP
290
     0
  0
ENDSEC
  0
SECTION
  2
CLASSES
  0
CLASS
  1
ACDBDICTIONARYWDFLT
  2
AcDbDictionaryWithDefault
  3
ObjectDBX Classes
 90
        0
280
     0
281
     0
  0
CLASS
  1
ACDBPLACEHOLDER
  2
AcDbPlaceHolder
  3
ObjectDBX Classes
 90
        0
280
     0
281
     0
  0
CLASS
  1
LAYOUT
  2
AcDbLayout
  3
ObjectDBX Classes
 90
        0
280
     0
281
     0
  0
CLASS
  1
DICTIONARYVAR
  2
AcDbDictionaryVar
  3
ObjectDBX Classes
 90
        0
280
     0
281
     0
  0
CLASS
  1
MATERIAL
  2
AcDbMaterial
  3
ObjectDBX Classes
 90
     1153
280
     0
281
     0
  0
CLASS
  1
VISUALSTYLE
  2
AcDbVisualStyle
  3
ObjectDBX Classes
 90
     4095
280
     0
281
     0
  0
CLASS
  1
TABLESTYLE
  2
AcDbTableStyle
  3
ObjectDBX Classes
 90
     4095
280
     0
281
     0
  0
CLASS
  1
SCALE
  2
AcDbScale
  3
ObjectDBX Classes
 90
     1153
280
     0
281
     0
  0
CLASS
  1
MLEADERSTYLE
  2
AcDbMLeaderStyle
  3
ACDB_MLEADERSTYLE_CLASS
 90
     4095
280
     0
281
     0
  0
CLASS
  1
ACDBSECTIONVIEWSTYLE
  2
AcDbSectionViewStyle
  3
ObjectDBX Classes
 90
     1025
280
     0
281
     0
  0
CLASS
  1
ACDBDETAILVIEWSTYLE
  2
AcDbDetailViewStyle
  3
ObjectDBX Classes
 90
     1025
280
     0
281
     0
  0
CLASS
  1
CELLSTYLEMAP
  2
AcDbCellStyleMap
  3
ObjectDBX Classes
 90
     1152
280
     0
281
     0
  0
ENDSEC
  0
SECTION
  2
TABLES
  0
TABLE
  2
VPORT
  5
A78A
330
0
100
AcDbSymbolTable
 70
     1
  0
VPORT
  5
AB2A
330
A78A
100
AcDbSymbolTableRecord
100
AcDbViewportTableRecord
  2
*ACTIVE
 70
     0
 10
0.0
 20
0.0
 11
1.0
 21
1.0
 12
509.7807249186653
 22
234.9467938294945
 13
0.0
 23
0.0
 14
10.0
 24
10.0
 15
10.0
 25
10.0
 16
0.0
 26
0.0
 36
1.0
 17
0.0
 27
0.0
 37
0.0
 40
453.4838862044819
 41
2.35006605019815
 42
50.0
 43
0.0
 44
0.0
 50
0.0
 51
0.0
 71
     0
 72
   100
 73
     1
 74
     0
 75
     0
 76
     0
 77
     0
 78
     0
281
     0
 65
     1
110
0.0
120
0.0
130
0.0
111
1.0
121
0.0
131
0.0
112
0.0
122
1.0
132
0.0
 79
     0
146
0.0
1001
ACAD_NAV_VCDISPLAY
1070
     3
  0
ENDTAB
  0
TABLE
  2
LTYPE
  5
A787
330
0
100
AcDbSymbolTable
 70
     4
  0
LTYPE
  5
A795
330
A787
100
AcDbSymbolTableRecord
100
AcDbLinetypeTableRecord
  2
BYBLOCK
 70
     0
  3

 72
    65
 73
     0
 40
0.0
  0
LTYPE
  5
A796
330
A787
100
AcDbSymbolTableRecord
100
AcDbLinetypeTableRecord
  2
BYLAYER
 70
     0
  3

 72
    65
 73
     0
 40
0.0
  0
LTYPE
  5
A797
330
A787
100
AcDbSymbolTableRecord
100
AcDbLinetypeTableRecord
  2
CONTINUOUS
 70
     0
  3
Solid line
 72
    65
 73
     0
 40
0.0
  0
LTYPE
  5
A7A5
330
A787
100
AcDbSymbolTableRecord
100
AcDbLinetypeTableRecord
  2
DASHED
 70
     0
  3
__ __ __ __ __ __ __ __ __ __ __ __ __ __ __ __
 72
    65
 73
     2
 40
0.75
 49
0.5
 74
     0
 49
-0.25
 74
     0
  0
LTYPE
  5
A7A6
330
A787
100
AcDbSymbolTableRecord
100
AcDbLinetypeTableRecord
  2
CENTER
 70
     0
  3
____ _ ____ _ ____ _ ____ _ ____ _ ____ _ ____ 
 72
    65
 73
     4
 40
2.0
 49
1.25
 74
     0
 49
-0.25
 74
     0
 49
0.25
 74
     0
 49
-0.25
 74
     0
  0
LTYPE
  5
A7A7
330
A787
100
AcDbSymbolTableRecord
100
AcDbLinetypeTableRecord
  2
PHANTOM
 70
     0
  3
______  __  __  ______  __  __  ______  __  __ 
 72
    65
 73
     6
 40
2.5
 49
1.25
 74
     0
 49
-0.25
 74
     0
 49
0.25
 74
     0
 49
-0.25
 74
     0
 49
0.25
 74
     0
 49
-0.25
 74
     0
  0
ENDTAB
  0
TABLE
  2
LAYER
  5
A784
330
0
100
AcDbSymbolTable
 70
     8
  0
LAYER
  5
A792
102
{ACAD_XDICTIONARY
360
AB83
102
}
330
A784
100
AcDbSymbolTableRecord
100
AcDbLayerTableRecord
  2
0
 70
     0
 62
     7
  6
CONTINUOUS
370
    -3
390
AB31
  0
LAYER
  5
A7A8
102
{ACAD_XDICTIONARY
360
AB85
102
}
330
A784
100
AcDbSymbolTableRecord
100
AcDbLayerTableRecord
  2
4
 70
     0
 62
     1
  6
CENTER
370
    -3
390
AB31
  0
LAYER
  5
A7A9
102
{ACAD_XDICTIONARY
360
AB87
102
}
330
A784
100
AcDbSymbolTableRecord
100
AcDbLayerTableRecord
  2
5
 70
     0
 62
     6
  6
PHANTOM
370
    -3
390
AB31
  0
LAYER
  5
A7AA
102
{ACAD_XDICTIONARY
360
AB89
102
}
330
A784
100
AcDbSymbolTableRecord
100
AcDbLayerTableRecord
  2
1
 70
     0
 62
     7
  6
CONTINUOUS
370
    -3
390
AB31
  0
LAYER
  5
A7AB
102
{ACAD_XDICTIONARY
360
AB8B
102
}
330
A784
100
AcDbSymbolTableRecord
100
AcDbLayerTableRecord
  2
2
 70
     0
 62
     4
  6
CONTINUOUS
370
    -3
390
AB31
  0
LAYER
  5
A7AC
102
{ACAD_XDICTIONARY
360
AB8D
102
}
330
A784
100
AcDbSymbolTableRecord
100
AcDbLayerTableRecord
  2
3
 70
     0
 62
     2
  6
DASHED
370
    -3
390
AB31
  0
LAYER
  5
A7AD
102
{ACAD_XDICTIONARY
360
AB8F
102
}
330
A784
100
AcDbSymbolTableRecord
100
AcDbLayerTableRecord
  2
6
 70
     0
 62
     5
  6
CONTINUOUS
370
    -3
390
AB31
  0
LAYER
  5
A7AE
102
{ACAD_XDICTIONARY
360
AB91
102
}
330
A784
100
AcDbSymbolTableRecord
100
AcDbLayerTableRecord
  2
7
 70
     0
 62
     3
  6
CONTINUOUS
370
    -3
390
AB31
  0
ENDTAB
  0
TABLE
  2
STYLE
  5
A785
330
0
100
AcDbSymbolTable
 70
     1
  0
STYLE
  5
A793
330
A785
100
AcDbSymbolTableRecord
100
AcDbTextStyleTableRecord
  2
STANDARD
 70
     0
 40
0.0
 41
1.0
 50
0.0
 71
     0
 42
5.0
  3
txt
  4

  0
ENDTAB
  0
TABLE
  2
VIEW
  5
A788
330
0
100
AcDbSymbolTable
 70
     0
  0
ENDTAB
  0
TABLE
  2
UCS
  5
A789
330
0
100
AcDbSymbolTable
 70
     0
  0
ENDTAB
  0
TABLE
  2
APPID
  5
A78B
330
0
100
AcDbSymbolTable
 70
     3
  0
APPID
  5
A794
330
A78B
100
AcDbSymbolTableRecord
100
AcDbRegAppTableRecord
  2
ACAD
 70
     0
  0
APPID
  5
AB9D
330
A78B
100
AcDbSymbolTableRecord
100
AcDbRegAppTableRecord
  2
ACAD_NAV_VCDISPLAY
 70
     0
  0
APPID
  5
ABD6
330
A78B
100
AcDbSymbolTableRecord
100
AcDbRegAppTableRecord
  2
ACAD_MLEADERVER
 70
     0
  0
ENDTAB
  0
TABLE
  2
DIMSTYLE
  5
A78C
330
0
100
AcDbSymbolTable
 70
     1
100
AcDbDimStyleTable
 71
     0
  0
DIMSTYLE
105
A7B0
330
A78C
100
AcDbSymbolTableRecord
100
AcDbDimStyleTableRecord
  2
STANDARD
 70
     0
 41
2.5
 42
1.0
 43
10.0
 44
1.0
 73
     0
 74
     0
 77
     3
 78
     8
140
3.2
141
0.0
147
1.0
172
     1
173
     1
284
     8
285
     8
286
     8
340
A793
  0
ENDTAB
  0
TABLE
  2
BLOCK_RECORD
  5
A783
330
0
100
AcDbSymbolTable
 70
     0
  0
BLOCK_RECORD
  5
A7A0
102
{ACAD_XDICTIONARY
360
AAEC
102
}
330
A783
100
AcDbSymbolTableRecord
100
AcDbBlockTableRecord
  2
*MODEL_SPACE
340
AB7F
  0
BLOCK_RECORD
  5
A79C
102
{ACAD_XDICTIONARY
360
AAEA
102
}
330
A783
100
AcDbSymbolTableRecord
100
AcDbBlockTableRecord
  2
*PAPER_SPACE
340
AB80
  0
ENDTAB
  0
ENDSEC
  0
SECTION
  2
BLOCKS
  0
BLOCK
  5
A7A1
330
A7A0
100
AcDbEntity
  8
0
100
AcDbBlockBegin
  2
*MODEL_SPACE
 70
     0
 10
0.0
 20
0.0
 30
0.0
  3
*MODEL_SPACE
  1

  0
ENDBLK
  5
A7A2
330
A7A0
100
AcDbEntity
  8
0
100
AcDbBlockEnd
  0
BLOCK
  5
A79D
330
A79C
100
AcDbEntity
 67
     1
  8
0
100
AcDbBlockBegin
  2
*PAPER_SPACE
 70
     0
 10
0.0
 20
0.0
 30
0.0
  3
*PAPER_SPACE
  1

  0
ENDBLK
  5
A79E
330
A79C
100
AcDbEntity
 67
     1
  8
0
100
AcDbBlockEnd
  0
ENDSEC
  0
SECTION
  2
ENTITIES
  0
TEXT
  5
A7B8
330
A7A0
100
AcDbEntity
  8
7
  6
Continuous
100
AcDbText
 10
10.0
 20
18.0
 30
0.0
 40
3.0
  1
TYPE No.TCA-415E-R150
100
AcDbText
  0
TEXT
  5
A7B9
330
A7A0
100
AcDbEntity
  8
7
  6
Continuous
100
AcDbText
 10
10.0
 20
26.0
 30
0.0
 40
3.0
  1
CODE No.9757
100
AcDbText
  0
TEXT
  5
A7BA
330
A7A0
100
AcDbEntity
  8
1
  6
Continuous
100
AcDbText
 10
10.0
 20
10.0
 30
0.0
 40
1.399999999999999
  1
LAYER
100
AcDbText
  0
TEXT
  5
A7BB
330
A7A0
100
AcDbEntity
  8
1
  6
Continuous
100
AcDbText
 10
17.97951099999998
 20
10.04873699999998
 30
0.0
 40
1.399999999999999
  1
1
100
AcDbText
  0
TEXT
  5
A7BC
330
A7A0
100
AcDbEntity
  8
7
  6
Continuous
100
AcDbText
 10
29.97951099999999
 20
10.04873699999998
 30
0.0
 40
1.399999999999999
  1
7
100
AcDbText
  0
TEXT
  5
A7BD
330
A7A0
100
AcDbEntity
  8
4
  6
CENTER
100
AcDbText
 10
23.97951099999999
 20
10.04873699999998
 30
0.0
 40
1.399999999999999
  1
4
100
AcDbText
  0
TEXT
  5
A7BE
330
A7A0
100
AcDbEntity
  8
3
  6
DASHED
100
AcDbText
 10
21.979511
 20
10.04873699999998
 30
0.0
 40
1.399999999999999
  1
3
100
AcDbText
  0
TEXT
  5
A7BF
330
A7A0
100
AcDbEntity
  8
2
  6
Continuous
100
AcDbText
 10
19.97951099999998
 20
10.04873699999998
 30
0.0
 40
1.399999999999999
  1
2
100
AcDbText
  0
TEXT
  5
A7C0
330
A7A0
100
AcDbEntity
  8
6
  6
Continuous
100
AcDbText
 10
27.979511
 20
10.04873699999998
 30
0.0
 40
1.399999999999999
  1
6
100
AcDbText
  0
TEXT
  5
A7C1
330
A7A0
100
AcDbEntity
  8
5
  6
PHANTOM
100
AcDbText
 10
25.97951099999999
 20
10.04873699999998
 30
0.0
 40
1.399999999999999
  1
5
100
AcDbText
  0
LINE
  5
A7C2
330
A7A0
100
AcDbEntity
  8
4
  6
CENTER
100
AcDbLine
 10
57.22022299999999
 20
342.8716089999998
 30
0.0
 11
57.22022299999999
 21
156.871609
 31
0.0
  0
LINE
  5
A7C3
330
A7A0
100
AcDbEntity
  8
4
  6
CENTER
100
AcDbLine
 10
140.220223
 20
425.871609
 30
0.0
 11
314.686883
 21
425.871609
 31
0.0
  0
LINE
  5
A7C4
330
A7A0
100
AcDbEntity
  8
4
  6
CENTER
100
AcDbLine
 10
262.2202229999999
 20
459.8716089999999
 30
0.0
 11
262.2202229999998
 21
391.8716090000001
 31
0.0
  0
LINE
  5
A7C5
330
A7A0
100
AcDbEntity
  8
1
  6
Continuous
100
AcDbLine
 10
212.220223
 20
337.8716089999998
 30
0.0
 11
312.220208
 21
337.8716089999998
 31
0.0
  0
LINE
  5
A7C6
330
A7A0
100
AcDbEntity
  8
1
  6
Continuous
100
AcDbLine
 10
28.220223
 20
337.8716089999998
 30
0.0
 11
86.22022300000002
 21
337.8716089999998
 31
0.0
  0
LINE
  5
A7C7
330
A7A0
100
AcDbEntity
  8
4
  6
CENTER
100
AcDbLine
 10
262.2202229999999
 20
39.871609
 30
0.0
 11
262.2202229999999
 21
107.8716089999999
 31
0.0
  0
LINE
  5
A7C8
330
A7A0
100
AcDbEntity
  8
4
  6
CENTER
100
AcDbLine
 10
303.2202229999998
 20
99.87160900000001
 30
0.0
 11
303.2202229999998
 21
87.87160899999998
 31
0.0
  0
LINE
  5
A7C9
330
A7A0
100
AcDbEntity
  8
4
  6
CENTER
100
AcDbLine
 10
221.2202229999999
 20
99.87160900000001
 30
0.0
 11
221.2202229999999
 21
87.87160899999998
 31
0.0
  0
CIRCLE
  5
A7CA
330
A7A0
100
AcDbEntity
  8
1
  6
Continuous
100
AcDbCircle
 10
303.2202229999998
 20
93.87160900000001
 30
0.0
 40
4.4
  0
ARC
  5
A7CB
330
A7A0
100
AcDbEntity
  8
1
  6
Continuous
100
AcDbCircle
 10
394.686883
 20
73.87160899999997
 30
0.0
 40
85.0
100
AcDbArc
 50
166.55971
 51
193.4403599999999
  0
ARC
  5
A7CC
330
A7A0
100
AcDbEntity
  8
1
  6
Continuous
100
AcDbCircle
 10
304.7202229999998
 20
95.37160900000001
 30
0.0
 40
7.5
100
AcDbArc
 50
346.5597179999999
 51
89.99997999999996
  0
LINE
  5
A7CD
330
A7A0
100
AcDbEntity
  8
4
  6
CENTER
100
AcDbLine
 10
309.2202229999998
 20
93.87160900000001
 30
0.0
 11
297.2202229999998
 21
93.87160900000001
 31
0.0
  0
LINE
  5
A7CE
330
A7A0
100
AcDbEntity
  8
1
  6
Continuous
100
AcDbLine
 10
273.472735
 20
102.8716089999999
 30
0.0
 11
304.7202229999998
 21
102.8716089999999
 31
0.0
  0
LINE
  5
A7CF
330
A7A0
100
AcDbEntity
  8
4
  6
CENTER
100
AcDbLine
 10
215.2202229999998
 20
93.87160900000001
 30
0.0
 11
227.2202229999999
 21
93.87160900000001
 31
0.0
  0
LINE
  5
A7D0
330
A7A0
100
AcDbEntity
  8
4
  6
CENTER
100
AcDbLine
 10
140.220223
 20
73.87160899999997
 30
0.0
 11
314.686883
 21
73.87160899999997
 31
0.0
  0
CIRCLE
  5
A7D1
330
A7A0
100
AcDbEntity
  8
1
  6
Continuous
100
AcDbCircle
 10
303.2202229999998
 20
53.871609
 30
0.0
 40
4.4
  0
ARC
  5
A7D2
330
A7A0
100
AcDbEntity
  8
1
  6
Continuous
100
AcDbCircle
 10
304.7202229999998
 20
52.371609
 30
0.0
 40
7.5
100
AcDbArc
 50
270.0000179999999
 51
13.44032
  0
LINE
  5
A7D3
330
A7A0
100
AcDbEntity
  8
4
  6
CENTER
100
AcDbLine
 10
309.2202229999998
 20
53.871609
 30
0.0
 11
297.2202229999998
 21
53.871609
 31
0.0
  0
LINE
  5
A7D4
330
A7A0
100
AcDbEntity
  8
1
  6
Continuous
100
AcDbLine
 10
219.720223
 20
44.871609
 30
0.0
 11
304.7202229999998
 21
44.871609
 31
0.0
  0
ARC
  5
A7D5
330
A7A0
100
AcDbEntity
  8
1
  6
Continuous
100
AcDbCircle
 10
219.720223
 20
52.371609
 30
0.0
 40
7.5
100
AcDbArc
 50
166.55971
 51
270.0000179999999
  0
LINE
  5
A7D6
330
A7A0
100
AcDbEntity
  8
4
  6
CENTER
100
AcDbLine
 10
215.2202229999998
 20
53.871609
 30
0.0
 11
227.2202229999999
 21
53.871609
 31
0.0
  0
LINE
  5
A7D7
330
A7A0
100
AcDbEntity
  8
4
  6
CENTER
100
AcDbLine
 10
221.2202229999999
 20
47.87160899999999
 30
0.0
 11
221.2202229999999
 21
59.871609
 31
0.0
  0
LINE
  5
A7D8
330
A7A0
100
AcDbEntity
  8
4
  6
CENTER
100
AcDbLine
 10
303.2202229999998
 20
47.87160899999999
 30
0.0
 11
303.2202229999998
 21
59.871609
 31
0.0
  0
LINE
  5
A7D9
330
A7A0
100
AcDbEntity
  8
4
  6
CENTER
100
AcDbLine
 10
262.2202229999999
 20
342.8716089999998
 30
0.0
 11
262.2202229999999
 21
283.6049389999999
 31
0.0
  0
CIRCLE
  5
A7DA
330
A7A0
100
AcDbEntity
  8
1
  6
Continuous
100
AcDbCircle
 10
262.2202229999999
 20
425.871609
 30
0.0
 40
24.25
  0
CIRCLE
  5
A7DB
330
A7A0
100
AcDbEntity
  8
1
  6
Continuous
100
AcDbCircle
 10
262.2202229999999
 20
425.871609
 30
0.0
 40
9.5
  0
CIRCLE
  5
A7DC
330
A7A0
100
AcDbEntity
  8
1
  6
Continuous
100
AcDbCircle
 10
262.2202229999999
 20
425.871609
 30
0.0
 40
21.75
  0
CIRCLE
  5
A7DD
330
A7A0
100
AcDbEntity
  8
1
  6
Continuous
100
AcDbCircle
 10
262.2202229999999
 20
425.871609
 30
0.0
 40
12.5
  0
LINE
  5
A7DE
330
A7A0
100
AcDbEntity
  8
1
  6
Continuous
100
AcDbLine
 10
219.720223
 20
454.871609
 30
0.0
 11
304.7202149999999
 21
454.871609
 31
0.0
  0
LINE
  5
A7DF
330
A7A0
100
AcDbEntity
  8
1
  6
Continuous
100
AcDbLine
 10
219.720223
 20
396.871609
 30
0.0
 11
304.7202149999999
 21
396.871609
 31
0.0
  0
ARC
  5
A7E0
330
A7A0
100
AcDbEntity
  8
1
  6
Continuous
100
AcDbCircle
 10
129.7535629999997
 20
425.871609
 30
0.0
 40
85.0
100
AcDbArc
 50
346.5596799999998
 51
13.440323
  0
CIRCLE
  5
A7E1
330
A7A0
100
AcDbEntity
  8
1
  6
Continuous
100
AcDbCircle
 10
221.2202229999999
 20
405.8716089999998
 30
0.0
 40
4.4
  0
LINE
  5
A7E2
330
A7A0
100
AcDbEntity
  8
4
  6
CENTER
100
AcDbLine
 10
227.2202229999999
 20
405.8716089999998
 30
0.0
 11
215.2202229999998
 21
405.8716089999998
 31
0.0
  0
ARC
  5
A7E3
330
A7A0
100
AcDbEntity
  8
1
  6
Continuous
100
AcDbCircle
 10
219.720223
 20
404.371609
 30
0.0
 40
7.5
100
AcDbArc
 50
166.55972
 51
270.0
  0
LINE
  5
A7E4
330
A7A0
100
AcDbEntity
  8
4
  6
CENTER
100
AcDbLine
 10
221.2202229999999
 20
411.8716089999998
 30
0.0
 11
221.2202229999999
 21
399.8716089999999
 31
0.0
  0
CIRCLE
  5
A7E5
330
A7A0
100
AcDbEntity
  8
1
  6
Continuous
100
AcDbCircle
 10
221.2202229999999
 20
445.871609
 30
0.0
 40
4.4
  0
LINE
  5
A7E6
330
A7A0
100
AcDbEntity
  8
4
  6
CENTER
100
AcDbLine
 10
227.2202229999999
 20
445.871609
 30
0.0
 11
215.2202229999998
 21
445.871609
 31
0.0
  0
ARC
  5
A7E7
330
A7A0
100
AcDbEntity
  8
1
  6
Continuous
100
AcDbCircle
 10
219.720223
 20
447.3716089999999
 30
0.0
 40
7.5
100
AcDbArc
 50
89.99992699999998
 51
193.44026
  0
LINE
  5
A7E8
330
A7A0
100
AcDbEntity
  8
4
  6
CENTER
100
AcDbLine
 10
221.2202229999999
 20
451.8716089999998
 30
0.0
 11
221.2202229999999
 21
439.8716089999998
 31
0.0
  0
ARC
  5
A7E9
330
A7A0
100
AcDbEntity
  8
1
  6
Continuous
100
AcDbCircle
 10
394.6868929999998
 20
425.871609
 30
0.0
 40
85.0
100
AcDbArc
 50
166.55964
 51
193.44029
  0
LINE
  5
A7EA
330
A7A0
100
AcDbEntity
  8
4
  6
CENTER
100
AcDbLine
 10
297.220215
 20
405.8716089999998
 30
0.0
 11
309.2202149999998
 21
405.8716089999998
 31
0.0
  0
CIRCLE
  5
A7EB
330
A7A0
100
AcDbEntity
  8
1
  6
Continuous
100
AcDbCircle
 10
303.2202149999998
 20
405.8716089999998
 30
0.0
 40
4.4
  0
ARC
  5
A7EC
330
A7A0
100
AcDbEntity
  8
1
  6
Continuous
100
AcDbCircle
 10
304.7202149999999
 20
404.371609
 30
0.0
 40
7.5
100
AcDbArc
 50
269.9999599999998
 51
13.44024099999999
  0
LINE
  5
A7ED
330
A7A0
100
AcDbEntity
  8
4
  6
CENTER
100
AcDbLine
 10
303.2202149999998
 20
411.8716089999998
 30
0.0
 11
303.2202149999998
 21
399.8716089999999
 31
0.0
  0
CIRCLE
  5
A7EE
330
A7A0
100
AcDbEntity
  8
1
  6
Continuous
100
AcDbCircle
 10
303.2202149999998
 20
445.871609
 30
0.0
 40
4.4
  0
LINE
  5
A7EF
330
A7A0
100
AcDbEntity
  8
4
  6
CENTER
100
AcDbLine
 10
297.220215
 20
445.871609
 30
0.0
 11
309.2202149999998
 21
445.871609
 31
0.0
  0
LINE
  5
A7F0
330
A7A0
100
AcDbEntity
  8
4
  6
CENTER
100
AcDbLine
 10
303.2202149999998
 20
451.8716089999998
 30
0.0
 11
303.2202149999998
 21
439.8716089999998
 31
0.0
  0
ARC
  5
A7F1
330
A7A0
100
AcDbEntity
  8
1
  6
Continuous
100
AcDbCircle
 10
304.7202149999999
 20
447.3716089999999
 30
0.0
 40
7.5
100
AcDbArc
 50
346.5597
 51
90.000037
  0
LINE
  5
A7F2
330
A7A0
100
AcDbEntity
  8
1
  6
Continuous
100
AcDbLine
 10
209.220223
 20
89.87160899999997
 30
0.0
 11
243.3228689999999
 21
89.87160899999997
 31
0.0
  0
LINE
  5
A7F3
330
A7A0
100
AcDbEntity
  8
1
  6
Continuous
100
AcDbLine
 10
204.720206
 20
57.87160899999999
 30
0.0
 11
235.7202389999999
 21
57.87160899999999
 31
0.0
  0
LINE
  5
A7F4
330
A7A0
100
AcDbEntity
  8
1
  6
Continuous
100
AcDbLine
 10
209.220223
 20
55.57161899999999
 30
0.0
 11
232.9409019999999
 21
55.57161899999999
 31
0.0
  0
ARC
  5
A7F6
330
A7A0
100
AcDbEntity
  8
1
  6
Continuous
100
AcDbCircle
 10
262.2202229999999
 20
73.87160899999997
 30
0.0
 40
25.0
100
AcDbArc
 50
230.9563529999997
 51
327.3163609999998
  0
ARC
  5
A7F7
330
A7A0
100
AcDbEntity
  8
1
  6
Continuous
100
AcDbCircle
 10
129.7535629999997
 20
73.87160899999997
 30
0.0
 40
85.0
100
AcDbArc
 50
346.5596399999999
 51
347.567224
  0
ARC
  5
A7FA
330
A7A0
100
AcDbEntity
  8
1
  6
Continuous
100
AcDbCircle
 10
275.6035719999999
 20
73.87161399999998
 30
0.0
 40
64.383349
100
AcDbArc
 50
165.6105589999999
 51
166.527454
  0
ARC
  5
A7FB
330
A7A0
100
AcDbEntity
  8
1
  6
Continuous
100
AcDbCircle
 10
262.2202229999999
 20
73.87160899999997
 30
0.0
 40
22.7
100
AcDbArc
 50
230.956384
 51
323.5077779999998
  0
ARC
  5
A7FC
330
A7A0
100
AcDbEntity
  8
1
  6
Continuous
100
AcDbCircle
 10
262.2202229999999
 20
73.87160899999997
 30
0.0
 40
25.0
100
AcDbArc
 50
32.683639
 51
67.440155
  0
ARC
  5
A7FD
330
A7A0
100
AcDbEntity
  8
1
  6
Continuous
100
AcDbCircle
 10
262.2202229999999
 20
73.87160899999997
 30
0.0
 40
22.7
100
AcDbArc
 50
36.492222
 51
68.934721
  0
ARC
  5
A7FE
330
A7A0
100
AcDbEntity
  8
1
  6
Continuous
100
AcDbCircle
 10
262.2202229999999
 20
73.87160899999997
 30
0.0
 40
27.500023
100
AcDbArc
 50
221.717136
 51
330.5996759999998
  0
ARC
  5
A7FF
330
A7A0
100
AcDbEntity
  8
1
  6
Continuous
100
AcDbCircle
 10
262.2202229999999
 20
73.87160899999997
 30
0.0
 40
17.7
100
AcDbArc
 50
49.70385700000001
 51
94.919475
  0
ARC
  5
A800
330
A7A0
100
AcDbEntity
  8
1
  6
Continuous
100
AcDbCircle
 10
262.2202229999999
 20
73.87160899999997
 30
0.0
 40
17.7
100
AcDbArc
 50
229.7038569999999
 51
310.2961429999998
  0
LINE
  5
A801
330
A7A0
100
AcDbEntity
  8
4
  6
CENTER
100
AcDbLine
 10
137.220223
 20
236.8716089999999
 30
0.0
 11
303.2202229999998
 21
236.8716089999999
 31
0.0
  0
ARC
  5
A802
330
A7A0
100
AcDbEntity
  8
1
  6
Continuous
100
AcDbCircle
 10
220.220223
 20
236.8716089999999
 30
0.0
 40
75.0
100
AcDbArc
 50
93.07922299999999
 51
55.396095
  0
ARC
  5
A803
330
A7A0
100
AcDbEntity
  8
1
  6
Continuous
100
AcDbCircle
 10
220.220223
 20
236.8716089999999
 30
0.0
 40
54.5
100
AcDbArc
 50
96.289691
 51
139.480596
  0
ARC
  5
A804
330
A7A0
100
AcDbEntity
  8
1
  6
Continuous
100
AcDbCircle
 10
220.220223
 20
236.8716089999999
 30
0.0
 40
44.0
100
AcDbArc
 50
99.12292900000002
 51
136.9303139999999
  0
ARC
  5
A805
330
A7A0
100
AcDbEntity
  8
1
  6
Continuous
100
AcDbCircle
 10
220.220223
 20
236.8716089999999
 30
0.0
 40
50.0
100
AcDbArc
 50
97.35445
 51
138.521532
  0
LINE
  5
A806
330
A7A0
100
AcDbEntity
  8
4
  6
CENTER
100
AcDbLine
 10
220.220223
 20
314.2043569999998
 30
0.0
 11
220.220223
 21
153.871609
 31
0.0
  0
CIRCLE
  5
A807
330
A7A0
100
AcDbEntity
  8
1
  6
Continuous
100
AcDbCircle
 10
580.220223
 20
236.8716089999999
 30
0.0
 40
6.25
  0
ARC
  5
A808
330
A7A0
100
AcDbEntity
  8
1
  6
Continuous
100
AcDbCircle
 10
220.220223
 20
236.8716089999999
 30
0.0
 40
31.0
100
AcDbArc
 50
105.42898
 51
131.278579
  0
ARC
  5
A809
330
A7A0
100
AcDbEntity
  8
1
  6
Continuous
100
AcDbCircle
 10
220.220223
 20
236.8716089999999
 30
0.0
 40
16.0
100
AcDbArc
 50
180.253835
 51
299.746168
  0
LINE
  5
A80A
330
A7A0
100
AcDbEntity
  8
1
  6
Continuous
100
AcDbLine
 10
210.762066
 20
253.836144
 30
0.0
 11
216.7989439999999
 21
318.2445259999998
 31
0.0
  0
LINE
  5
A80B
330
A7A0
100
AcDbEntity
  8
1
  6
Continuous
100
AcDbLine
 10
235.364422
 20
242.748087
 30
0.0
 11
269.7386859999999
 21
312.697958
 31
0.0
  0
CIRCLE
  5
A80C
330
A7A0
100
AcDbEntity
  8
1
  6
Continuous
100
AcDbCircle
 10
580.220223
 20
236.8716089999999
 30
0.0
 40
1.5
  0
LINE
  5
A80D
330
A7A0
100
AcDbEntity
  8
1
  6
Continuous
100
AcDbLine
 10
241.220223
 20
320.771611
 30
0.0
 11
241.220223
 21
259.6821409999999
 31
0.0
  0
LINE
  5
A80E
330
A7A0
100
AcDbEntity
  8
1
  6
Continuous
100
AcDbLine
 10
211.2202179999999
 20
320.4716069999999
 30
0.0
 11
240.061743
 21
325.557144
 31
0.0
  0
ARC
  5
A80F
330
A7A0
100
AcDbEntity
  8
1
  6
Continuous
100
AcDbCircle
 10
214.3098529999999
 20
318.4778249999999
 30
0.0
 40
2.5
100
AcDbArc
 50
354.64542
 51
100.0000199999999
  0
ARC
  5
A810
330
A7A0
100
AcDbEntity
  8
1
  6
Continuous
100
AcDbCircle
 10
215.774773
 20
317.923786
 30
0.0
 40
1.0
100
AcDbArc
 50
356.0
 51
100.00001
  0
LINE
  5
A811
330
A7A0
100
AcDbEntity
  8
1
  6
Continuous
100
AcDbLine
 10
211.220227
 20
320.4716069999999
 30
0.0
 11
211.619618
 21
318.206551
 31
0.0
  0
LINE
  5
A812
330
A7A0
100
AcDbEntity
  8
1
  6
Continuous
100
AcDbLine
 10
211.6196239999999
 20
318.2065469999999
 30
0.0
 11
215.601141
 21
318.9085959999998
 31
0.0
  0
ARC
  5
A813
330
A7A0
100
AcDbEntity
  8
1
  6
Continuous
100
AcDbCircle
 10
283.19571
 20
306.0716080000001
 30
0.0
 40
15.0
100
AcDbArc
 50
89.99998199999996
 51
153.82993
  0
LINE
  5
A814
330
A7A0
100
AcDbEntity
  8
1
  6
Continuous
100
AcDbLine
 10
283.19571
 20
321.0716059999998
 30
0.0
 11
287.2202229999998
 21
321.0716059999998
 31
0.0
  0
LINE
  5
A815
330
A7A0
100
AcDbEntity
  8
1
  6
Continuous
100
AcDbLine
 10
239.220221
 20
330.971607
 30
0.0
 11
285.2202229999998
 21
330.971607
 31
0.0
  0
LINE
  5
A816
330
A7A0
100
AcDbEntity
  8
1
  6
Continuous
100
AcDbLine
 10
212.220223
 20
335.5716059999998
 30
0.0
 11
312.220208
 21
335.5716059999998
 31
0.0
  0
LINE
  5
A817
330
A7A0
100
AcDbEntity
  8
1
  6
Continuous
100
AcDbLine
 10
241.220223
 20
329.971604
 30
0.0
 11
282.2202229999998
 21
329.971604
 31
0.0
  0
ARC
  5
A818
330
A7A0
100
AcDbEntity
  8
1
  6
Continuous
100
AcDbCircle
 10
251.7790529999998
 20
331.449612
 30
0.0
 40
2.778
100
AcDbArc
 50
189.9080999999999
 51
212.1434
  0
LINE
  5
A819
330
A7A0
100
AcDbEntity
  8
1
  6
Continuous
100
AcDbLine
 10
212.220208
 20
335.571614
 30
0.0
 11
212.220208
 21
337.871617
 31
0.0
  0
LINE
  5
A81A
330
A7A0
100
AcDbEntity
  8
4
  6
CENTER
100
AcDbLine
 10
221.2202229999999
 20
342.8716089999998
 30
0.0
 11
221.2202229999999
 21
330.5716059999998
 31
0.0
  0
ARC
  5
A81B
330
A7A0
100
AcDbEntity
  8
1
  6
Continuous
100
AcDbCircle
 10
239.220223
 20
333.971607
 30
0.0
 40
3.0
100
AcDbArc
 50
211.5135899999999
 51
270.00002
  0
LINE
  5
A81C
330
A7A0
100
AcDbEntity
  8
1
  6
Continuous
100
AcDbLine
 10
234.7202269999999
 20
335.5716249999998
 30
0.0
 11
236.66268
 21
332.4035149999999
 31
0.0
  0
ARC
  5
A81D
330
A7A0
100
AcDbEntity
  8
1
  6
Continuous
100
AcDbCircle
 10
245.3078389999999
 20
331.449612
 30
0.0
 40
2.778
100
AcDbArc
 50
189.9080999999999
 51
212.1433699999999
  0
ARC
  5
A81E
330
A7A0
100
AcDbEntity
  8
1
  6
Continuous
100
AcDbCircle
 10
247.8430789999999
 20
331.449612
 30
0.0
 40
2.778
100
AcDbArc
 50
189.9080999999999
 51
212.1434
  0
ARC
  5
A81F
330
A7A0
100
AcDbEntity
  8
1
  6
Continuous
100
AcDbCircle
 10
244.420197
 20
331.449612
 30
0.0
 40
2.778
100
AcDbArc
 50
189.9080999999999
 51
212.1433699999999
  0
ARC
  5
A820
330
A7A0
100
AcDbEntity
  8
1
  6
Continuous
100
AcDbCircle
 10
267.708123
 20
331.449612
 30
0.0
 40
2.778
100
AcDbArc
 50
189.90804
 51
212.1434
  0
ARC
  5
A821
330
A7A0
100
AcDbEntity
  8
1
  6
Continuous
100
AcDbCircle
 10
256.732293
 20
331.449612
 30
0.0
 40
2.778
100
AcDbArc
 50
189.9080999999999
 51
212.1434
  0
ARC
  5
A822
330
A7A0
100
AcDbEntity
  8
1
  6
Continuous
100
AcDbCircle
 10
256.732293
 20
331.449612
 30
0.0
 40
2.778
100
AcDbArc
 50
327.8565799999999
 51
350.0919899999999
  0
ARC
  5
A823
330
A7A0
100
AcDbEntity
  8
1
  6
Continuous
100
AcDbCircle
 10
262.220208
 20
331.449612
 30
0.0
 40
2.778
100
AcDbArc
 50
189.9080999999999
 51
212.1434
  0
ARC
  5
A824
330
A7A0
100
AcDbEntity
  8
1
  6
Continuous
100
AcDbCircle
 10
262.220208
 20
331.449612
 30
0.0
 40
2.778
100
AcDbArc
 50
327.8565799999999
 51
350.09193
  0
ARC
  5
A825
330
A7A0
100
AcDbEntity
  8
1
  6
Continuous
100
AcDbCircle
 10
267.708123
 20
331.449612
 30
0.0
 40
2.778
100
AcDbArc
 50
327.8565799999999
 51
350.09193
  0
ARC
  5
A826
330
A7A0
100
AcDbEntity
  8
1
  6
Continuous
100
AcDbCircle
 10
272.661362
 20
331.449612
 30
0.0
 40
2.778
100
AcDbArc
 50
327.8565799999999
 51
350.09193
  0
ARC
  5
A827
330
A7A0
100
AcDbEntity
  8
1
  6
Continuous
100
AcDbCircle
 10
276.5973359999999
 20
331.449612
 30
0.0
 40
2.778
100
AcDbArc
 50
327.85663
 51
350.09193
  0
LINE
  5
A828
330
A7A0
100
AcDbEntity
  8
1
  6
Continuous
100
AcDbLine
 10
289.720231
 20
335.571591
 30
0.0
 11
287.777779
 21
332.4034879999998
 31
0.0
  0
ARC
  5
A829
330
A7A0
100
AcDbEntity
  8
1
  6
Continuous
100
AcDbCircle
 10
279.132577
 20
331.449612
 30
0.0
 40
2.778
100
AcDbArc
 50
327.85663
 51
350.09193
  0
ARC
  5
A82A
330
A7A0
100
AcDbEntity
  8
1
  6
Continuous
100
AcDbCircle
 10
285.2202229999998
 20
333.971607
 30
0.0
 40
3.0
100
AcDbArc
 50
270.00002
 51
328.48644
  0
ARC
  5
A82B
330
A7A0
100
AcDbEntity
  8
1
  6
Continuous
100
AcDbCircle
 10
280.0202179999999
 20
331.449612
 30
0.0
 40
2.778
100
AcDbArc
 50
327.85663
 51
350.09193
  0
LINE
  5
A82C
330
A7A0
100
AcDbEntity
  8
4
  6
CENTER
100
AcDbLine
 10
303.2202229999998
 20
342.8716089999998
 30
0.0
 11
303.2202229999998
 21
330.5716059999998
 31
0.0
  0
LINE
  5
A82D
330
A7A0
100
AcDbEntity
  8
1
  6
Continuous
100
AcDbLine
 10
312.220208
 20
335.5715979999998
 30
0.0
 11
312.220208
 21
337.8716089999998
 31
0.0
  0
LINE
  5
A82E
330
A7A0
100
AcDbEntity
  8
1
  6
Continuous
100
AcDbLine
 10
72.220223
 20
228.5872759999997
 30
0.0
 11
72.220223
 21
249.413571
 31
0.0
  0
LINE
  5
A82F
330
A7A0
100
AcDbEntity
  8
1
  6
Continuous
100
AcDbLine
 10
43.720223
 20
164.851099
 30
0.0
 11
43.720223
 21
308.892124
 31
0.0
  0
LINE
  5
A830
330
A7A0
100
AcDbEntity
  8
1
  6
Continuous
100
AcDbLine
 10
70.720223
 20
164.851099
 30
0.0
 11
70.720223
 21
308.892124
 31
0.0
  0
LINE
  5
A831
330
A7A0
100
AcDbEntity
  8
1
  6
Continuous
100
AcDbLine
 10
75.520223
 20
318.0279509999998
 30
0.0
 11
75.520223
 21
217.100704
 31
0.0
  0
LINE
  5
A832
330
A7A0
100
AcDbEntity
  8
1
  6
Continuous
100
AcDbLine
 10
38.920233
 20
318.0279509999998
 30
0.0
 11
38.920233
 21
242.2247749999999
 31
0.0
  0
LINE
  5
A833
330
A7A0
100
AcDbEntity
  8
1
  6
Continuous
100
AcDbLine
 10
41.220223
 20
318.078213
 30
0.0
 11
41.220223
 21
243.304796
 31
0.0
  0
LINE
  5
A834
330
A7A0
100
AcDbEntity
  8
1
  6
Continuous
100
AcDbLine
 10
73.220223
 20
318.078213
 30
0.0
 11
73.220223
 21
259.0872759999999
 31
0.0
  0
LINE
  5
A835
330
A7A0
100
AcDbEntity
  8
4
  6
CENTER
100
AcDbLine
 10
26.92023300000001
 20
236.8716089999999
 30
0.0
 11
97.921802
 21
236.8716089999999
 31
0.0
  0
ARC
  5
A836
330
A7A0
100
AcDbEntity
  8
1
  6
Continuous
100
AcDbCircle
 10
57.22022299999999
 20
231.8716089999998
 30
0.0
 40
70.0
100
AcDbArc
 50
260.26341
 51
279.7365199999999
  0
ARC
  5
A837
330
A7A0
100
AcDbEntity
  8
1
  6
Continuous
100
AcDbCircle
 10
45.72022299999999
 20
164.851099
 30
0.0
 40
2.0
100
AcDbArc
 50
179.9999799999999
 51
260.2634299999999
  0
LINE
  5
A838
330
A7A0
100
AcDbEntity
  8
1
  6
Continuous
100
AcDbLine
 10
38.920233
 20
225.8716089999999
 30
0.0
 11
41.220223
 21
225.8716089999999
 31
0.0
  0
ARC
  5
A839
330
A7A0
100
AcDbEntity
  8
1
  6
Continuous
100
AcDbCircle
 10
68.72022300000001
 20
164.851099
 30
0.0
 40
2.0
100
AcDbArc
 50
279.73649
 51
359.99995
  0
ARC
  5
A83A
330
A7A0
100
AcDbEntity
  8
1
  6
Continuous
100
AcDbCircle
 10
69.220223
 20
224.329647
 30
0.0
 40
3.0
100
AcDbArc
 50
300.00001
 51
356.793838
  0
LINE
  5
A83B
330
A7A0
100
AcDbEntity
  8
1
  6
Continuous
100
AcDbLine
 10
72.220223
 20
232.8716089999999
 30
0.0
 11
73.220223
 21
232.8716089999999
 31
0.0
  0
ARC
  5
A83C
330
A7A0
100
AcDbEntity
  8
1
  6
Continuous
100
AcDbCircle
 10
57.22022299999999
 20
241.8716089999997
 30
0.0
 40
70.0
100
AcDbArc
 50
80.26348
 51
99.736594
  0
LINE
  5
A83D
330
A7A0
100
AcDbEntity
  8
1
  6
Continuous
100
AcDbLine
 10
34.220223
 20
330.971607
 30
0.0
 11
80.22022300000001
 21
330.971607
 31
0.0
  0
LINE
  5
A83E
330
A7A0
100
AcDbEntity
  8
1
  6
Continuous
100
AcDbLine
 10
28.220223
 20
335.5716059999998
 30
0.0
 11
86.22022300000002
 21
335.5716059999998
 31
0.0
  0
ARC
  5
A83F
330
A7A0
100
AcDbEntity
  8
1
  6
Continuous
100
AcDbCircle
 10
57.22022299999999
 20
453.573819
 30
0.0
 40
128.4999999999998
100
AcDbArc
 50
262.8473099999999
 51
277.1526699999999
  0
ARC
  5
A840
330
A7A0
100
AcDbEntity
  8
1
  6
Continuous
100
AcDbCircle
 10
57.22022299999999
 20
446.7065589999998
 30
0.0
 40
128.4999999999998
100
AcDbArc
 50
263.34847
 51
276.6515099999999
  0
ARC
  5
A841
330
A7A0
100
AcDbEntity
  8
1
  6
Continuous
100
AcDbCircle
 10
57.22022299999999
 20
448.971599
 30
0.0
 40
128.4999999999998
100
AcDbArc
 50
263.46506
 51
276.53492
  0
LINE
  5
A842
330
A7A0
100
AcDbEntity
  8
1
  6
Continuous
100
AcDbLine
 10
37.22022299999999
 20
329.9716
 30
0.0
 11
77.220223
 21
329.9716
 31
0.0
  0
ARC
  5
A843
330
A7A0
100
AcDbEntity
  8
1
  6
Continuous
100
AcDbCircle
 10
37.22022299999999
 20
324.9716
 30
0.0
 40
5.0
100
AcDbArc
 50
89.99998199999996
 51
179.9999599999999
  0
ARC
  5
A844
330
A7A0
100
AcDbEntity
  8
1
  6
Continuous
100
AcDbCircle
 10
177.2202229999997
 20
297.398272
 30
0.0
 40
145.0
100
AcDbArc
 50
179.9999799999999
 51
197.4854799999997
  0
LINE
  5
A845
330
A7A0
100
AcDbEntity
  8
1
  6
Continuous
100
AcDbLine
 10
32.22022299999999
 20
324.9716
 30
0.0
 11
32.22022299999999
 21
297.398272
 31
0.0
  0
ARC
  5
A846
330
A7A0
100
AcDbEntity
  8
1
  6
Continuous
100
AcDbCircle
 10
42.22022299999999
 20
318.078213
 30
0.0
 40
1.0
100
AcDbArc
 50
83.348539
 51
179.9999599999999
  0
ARC
  5
A847
330
A7A0
100
AcDbEntity
  8
1
  6
Continuous
100
AcDbCircle
 10
42.220243
 20
318.0279509999998
 30
0.0
 40
3.299999999999998
100
AcDbArc
 50
83.465158
 51
179.9999599999999
  0
ARC
  5
A848
330
A7A0
100
AcDbEntity
  8
1
  6
Continuous
100
AcDbCircle
 10
45.72022299999999
 20
308.892124
 30
0.0
 40
2.0
100
AcDbArc
 50
99.73656
 51
180.00002
  0
LINE
  5
A849
330
A7A0
100
AcDbEntity
  8
4
  6
CENTER
100
AcDbLine
 10
37.22022299999999
 20
342.8716089999998
 30
0.0
 11
37.22022299999999
 21
330.5716059999998
 31
0.0
  0
ARC
  5
A84A
330
A7A0
100
AcDbEntity
  8
1
  6
Continuous
100
AcDbCircle
 10
34.220223
 20
333.971607
 30
0.0
 40
3.0
100
AcDbArc
 50
211.5135899999999
 51
270.00002
  0
LINE
  5
A84B
330
A7A0
100
AcDbEntity
  8
1
  6
Continuous
100
AcDbLine
 10
29.720173
 20
335.571614
 30
0.0
 11
31.66262299999999
 21
332.403504
 31
0.0
  0
LINE
  5
A84C
330
A7A0
100
AcDbEntity
  8
1
  6
Continuous
100
AcDbLine
 10
28.220223
 20
337.8716089999998
 30
0.0
 11
28.220223
 21
335.57161
 31
0.0
  0
ARC
  5
A84D
330
A7A0
100
AcDbEntity
  8
1
  6
Continuous
100
AcDbCircle
 10
40.30784299999999
 20
331.449612
 30
0.0
 40
2.778
100
AcDbArc
 50
189.9080999999999
 51
212.14351
  0
ARC
  5
A84E
330
A7A0
100
AcDbEntity
  8
1
  6
Continuous
100
AcDbCircle
 10
42.843083
 20
331.449612
 30
0.0
 40
2.778
100
AcDbArc
 50
189.9080999999999
 51
212.14351
  0
ARC
  5
A84F
330
A7A0
100
AcDbEntity
  8
1
  6
Continuous
100
AcDbCircle
 10
39.420203
 20
331.449612
 30
0.0
 40
2.778
100
AcDbArc
 50
189.9080999999999
 51
212.14351
  0
ARC
  5
A850
330
A7A0
100
AcDbEntity
  8
1
  6
Continuous
100
AcDbCircle
 10
46.779063
 20
331.449612
 30
0.0
 40
2.778
100
AcDbArc
 50
327.8564799999998
 51
333.0638399999999
  0
ARC
  5
A851
330
A7A0
100
AcDbEntity
  8
1
  6
Continuous
100
AcDbCircle
 10
51.732293
 20
331.449612
 30
0.0
 40
2.778
100
AcDbArc
 50
189.9080999999999
 51
212.14351
  0
ARC
  5
A852
330
A7A0
100
AcDbEntity
  8
1
  6
Continuous
100
AcDbCircle
 10
46.779063
 20
331.449612
 30
0.0
 40
2.778
100
AcDbArc
 50
189.9080999999999
 51
212.14351
  0
ARC
  5
A853
330
A7A0
100
AcDbEntity
  8
1
  6
Continuous
100
AcDbCircle
 10
51.732293
 20
331.449612
 30
0.0
 40
2.778
100
AcDbArc
 50
327.8564799999998
 51
350.0919899999999
  0
ARC
  5
A854
330
A7A0
100
AcDbEntity
  8
1
  6
Continuous
100
AcDbCircle
 10
57.220203
 20
331.449612
 30
0.0
 40
2.778
100
AcDbArc
 50
189.9080999999999
 51
212.14351
  0
ARC
  5
A855
330
A7A0
100
AcDbEntity
  8
1
  6
Continuous
100
AcDbCircle
 10
77.220223
 20
324.9716
 30
0.0
 40
5.0
100
AcDbArc
 50
0.0
 51
89.99998199999996
  0
ARC
  5
A856
330
A7A0
100
AcDbEntity
  8
1
  6
Continuous
100
AcDbCircle
 10
-62.779777
 20
297.398272
 30
0.0
 40
145.0
100
AcDbArc
 50
350.064268
 51
0.0
  0
LINE
  5
A857
330
A7A0
100
AcDbEntity
  8
1
  6
Continuous
100
AcDbLine
 10
72.220223
 20
240.8716089999999
 30
0.0
 11
73.220223
 21
240.8716089999999
 31
0.0
  0
ARC
  5
A858
330
A7A0
100
AcDbEntity
  8
1
  6
Continuous
100
AcDbCircle
 10
69.220223
 20
249.413571
 30
0.0
 40
3.0
100
AcDbArc
 50
0.000055
 51
59.999995
  0
LINE
  5
A859
330
A7A0
100
AcDbEntity
  8
1
  6
Continuous
100
AcDbLine
 10
82.220223
 20
324.9716
 30
0.0
 11
82.220223
 21
297.398272
 31
0.0
  0
ARC
  5
A85A
330
A7A0
100
AcDbEntity
  8
1
  6
Continuous
100
AcDbCircle
 10
72.220223
 20
318.0279509999998
 30
0.0
 40
3.299999999999998
100
AcDbArc
 50
0.0
 51
96.53486100000002
  0
ARC
  5
A85B
330
A7A0
100
AcDbEntity
  8
1
  6
Continuous
100
AcDbCircle
 10
68.72022300000001
 20
308.892124
 30
0.0
 40
2.0
100
AcDbArc
 50
0.000055
 51
80.26351299999998
  0
ARC
  5
A85C
330
A7A0
100
AcDbEntity
  8
1
  6
Continuous
100
AcDbCircle
 10
72.220223
 20
318.078213
 30
0.0
 40
1.0
100
AcDbArc
 50
0.0
 51
96.65148000000002
  0
ARC
  5
A85D
330
A7A0
100
AcDbEntity
  8
1
  6
Continuous
100
AcDbCircle
 10
67.66135300000001
 20
331.449612
 30
0.0
 40
2.778
100
AcDbArc
 50
206.9362
 51
212.14351
  0
ARC
  5
A85E
330
A7A0
100
AcDbEntity
  8
1
  6
Continuous
100
AcDbCircle
 10
62.708123
 20
331.449612
 30
0.0
 40
2.778
100
AcDbArc
 50
327.8564799999998
 51
350.09193
  0
ARC
  5
A85F
330
A7A0
100
AcDbEntity
  8
1
  6
Continuous
100
AcDbCircle
 10
62.708123
 20
331.449612
 30
0.0
 40
2.778
100
AcDbArc
 50
189.90804
 51
212.14351
  0
ARC
  5
A860
330
A7A0
100
AcDbEntity
  8
1
  6
Continuous
100
AcDbCircle
 10
57.220203
 20
331.449612
 30
0.0
 40
2.778
100
AcDbArc
 50
327.8564799999998
 51
350.09193
  0
ARC
  5
A861
330
A7A0
100
AcDbEntity
  8
1
  6
Continuous
100
AcDbCircle
 10
67.66135300000001
 20
331.449612
 30
0.0
 40
2.778
100
AcDbArc
 50
327.8564799999998
 51
350.09193
  0
LINE
  5
A862
330
A7A0
100
AcDbEntity
  8
4
  6
CENTER
100
AcDbLine
 10
77.220223
 20
342.8716089999998
 30
0.0
 11
77.220223
 21
330.5716059999998
 31
0.0
  0
LINE
  5
A863
330
A7A0
100
AcDbEntity
  8
1
  6
Continuous
100
AcDbLine
 10
86.22022300000002
 20
337.8716089999998
 30
0.0
 11
86.22022300000002
 21
335.5716059999998
 31
0.0
  0
ARC
  5
A864
330
A7A0
100
AcDbEntity
  8
1
  6
Continuous
100
AcDbCircle
 10
80.22022300000001
 20
333.971607
 30
0.0
 40
3.0
100
AcDbArc
 50
270.00002
 51
328.48644
  0
ARC
  5
A865
330
A7A0
100
AcDbEntity
  8
1
  6
Continuous
100
AcDbCircle
 10
74.13257299999997
 20
331.449612
 30
0.0
 40
2.778
100
AcDbArc
 50
327.8564799999998
 51
350.09193
  0
ARC
  5
A866
330
A7A0
100
AcDbEntity
  8
1
  6
Continuous
100
AcDbCircle
 10
71.59733299999998
 20
331.449612
 30
0.0
 40
2.778
100
AcDbArc
 50
327.8564799999998
 51
350.09193
  0
ARC
  5
A867
330
A7A0
100
AcDbEntity
  8
1
  6
Continuous
100
AcDbCircle
 10
75.020213
 20
331.449612
 30
0.0
 40
2.778
100
AcDbArc
 50
327.80113
 51
350.09193
  0
LINE
  5
A868
330
A7A0
100
AcDbEntity
  8
1
  6
Continuous
100
AcDbLine
 10
84.72014299999996
 20
335.5716519999998
 30
0.0
 11
82.77768299999998
 21
332.4035489999999
 31
0.0
  0
LINE
  5
A869
330
A7A0
100
AcDbEntity
  8
1
  6
Continuous
100
AcDbLine
 10
287.2202229999998
 20
324.971604
 30
0.0
 11
287.2202229999998
 21
321.0716059999998
 31
0.0
  0
ARC
  5
A86A
330
A7A0
100
AcDbEntity
  8
1
  6
Continuous
100
AcDbCircle
 10
282.2202229999998
 20
324.971604
 30
0.0
 40
5.0
100
AcDbArc
 50
0.0
 51
90.0
  0
ARC
  5
A86B
330
A7A0
100
AcDbEntity
  8
1
  6
Continuous
100
AcDbCircle
 10
242.2202229999999
 20
324.971604
 30
0.0
 40
5.0
100
AcDbArc
 50
90.0
 51
180.0
  0
LINE
  5
A86C
330
A7A0
100
AcDbEntity
  8
4
  6
CENTER
100
AcDbLine
 10
220.220223
 20
39.871609
 30
0.0
 11
220.220223
 21
114.073609
 31
0.0
  0
LINE
  5
A86D
330
A7A0
100
AcDbEntity
  8
1
  6
Continuous
100
AcDbLine
 10
292.240733
 20
87.37160899999997
 30
0.0
 11
148.199708
 21
87.37160899999997
 31
0.0
  0
LINE
  5
A86E
330
A7A0
100
AcDbEntity
  8
1
  6
Continuous
100
AcDbLine
 10
292.240733
 20
60.37160899999999
 30
0.0
 11
148.199708
 21
60.37160899999999
 31
0.0
  0
ARC
  5
A86F
330
A7A0
100
AcDbEntity
  8
1
  6
Continuous
100
AcDbCircle
 10
215.2202229999998
 20
73.87160899999997
 30
0.0
 40
70.0
100
AcDbArc
 50
170.26348
 51
189.7365939999999
  0
ARC
  5
A870
330
A7A0
100
AcDbEntity
  8
1
  6
Continuous
100
AcDbCircle
 10
148.199708
 20
62.371609
 30
0.0
 40
2.0
100
AcDbArc
 50
189.73656
 51
270.00002
  0
ARC
  5
A871
330
A7A0
100
AcDbEntity
  8
1
  6
Continuous
100
AcDbCircle
 10
148.199708
 20
85.37160899999998
 30
0.0
 40
2.0
100
AcDbArc
 50
90.00005499999994
 51
170.2635129999999
  0
ARC
  5
A872
330
A7A0
100
AcDbEntity
  8
1
  6
Continuous
100
AcDbCircle
 10
225.2202229999999
 20
73.87160899999997
 30
0.0
 40
70.0
100
AcDbArc
 50
350.26341
 51
9.73652
  0
ARC
  5
A873
330
A7A0
100
AcDbEntity
  8
1
  6
Continuous
100
AcDbCircle
 10
292.240733
 20
62.371609
 30
0.0
 40
2.0
100
AcDbArc
 50
269.99998
 51
350.2634299999999
  0
LINE
  5
A874
330
A7A0
100
AcDbEntity
  8
1
  6
Continuous
100
AcDbLine
 10
232.7621849999999
 20
88.87160899999996
 30
0.0
 11
207.874804
 21
88.87160899999996
 31
0.0
  0
ARC
  5
A875
330
A7A0
100
AcDbEntity
  8
1
  6
Continuous
100
AcDbCircle
 10
207.6782609999999
 20
85.87160899999998
 30
0.0
 40
3.0
100
AcDbArc
 50
125.826498
 51
149.9999949999998
  0
LINE
  5
A876
330
A7A0
100
AcDbEntity
  8
1
  6
Continuous
100
AcDbLine
 10
216.220223
 20
88.87160899999996
 30
0.0
 11
216.220223
 21
89.87160899999997
 31
0.0
  0
LINE
  5
A877
330
A7A0
100
AcDbEntity
  8
1
  6
Continuous
100
AcDbLine
 10
224.220223
 20
88.87160899999996
 30
0.0
 11
224.220223
 21
89.87160899999997
 31
0.0
  0
ARC
  5
A878
330
A7A0
100
AcDbEntity
  8
1
  6
Continuous
100
AcDbCircle
 10
232.7621849999999
 20
85.87160899999998
 30
0.0
 40
3.0
100
AcDbArc
 50
30.00001
 51
89.99995000000001
  0
ARC
  5
A879
330
A7A0
100
AcDbEntity
  8
1
  6
Continuous
100
AcDbCircle
 10
292.240733
 20
85.37160899999998
 30
0.0
 40
2.0
100
AcDbArc
 50
9.736489999999999
 51
89.99995000000001
  0
LINE
  5
A87A
330
A7A0
100
AcDbEntity
  8
1
  6
Continuous
100
AcDbLine
 10
209.220223
 20
92.17160900000001
 30
0.0
 11
209.220223
 21
89.87160899999997
 31
0.0
  0
LINE
  5
A87B
330
A7A0
100
AcDbEntity
  8
1
  6
Continuous
100
AcDbLine
 10
209.220223
 20
57.87160899999999
 30
0.0
 11
209.220223
 21
55.57161899999999
 31
0.0
  0
ARC
  5
A87C
330
A7A0
100
AcDbEntity
  8
1
  6
Continuous
100
AcDbCircle
 10
262.2202229999999
 20
73.87160899999997
 30
0.0
 40
27.500023
100
AcDbArc
 50
29.400324
 51
67.27038399999999
  0
LINE
  5
A87D
330
A7A0
100
AcDbEntity
  8
4
  6
CENTER
100
AcDbLine
 10
220.220223
 20
459.8716089999999
 30
0.0
 11
220.220223
 21
385.6696089999999
 31
0.0
  0
LINE
  5
A87E
330
A7A0
100
AcDbEntity
  8
1
  6
Continuous
100
AcDbLine
 10
212.651483
 20
412.371609
 30
0.0
 11
148.199708
 21
412.371609
 31
0.0
  0
LINE
  5
A87F
330
A7A0
100
AcDbEntity
  8
1
  6
Continuous
100
AcDbLine
 10
212.6514809999999
 20
439.3716089999998
 30
0.0
 11
148.199708
 21
439.3716089999998
 31
0.0
  0
ARC
  5
A880
330
A7A0
100
AcDbEntity
  8
1
  6
Continuous
100
AcDbCircle
 10
215.2202229999998
 20
425.871609
 30
0.0
 40
70.0
100
AcDbArc
 50
170.26348
 51
189.7365939999999
  0
ARC
  5
A881
330
A7A0
100
AcDbEntity
  8
1
  6
Continuous
100
AcDbCircle
 10
148.199708
 20
414.3716089999998
 30
0.0
 40
2.0
100
AcDbArc
 50
189.73656
 51
270.00002
  0
ARC
  5
A882
330
A7A0
100
AcDbEntity
  8
1
  6
Continuous
100
AcDbCircle
 10
148.199708
 20
437.371609
 30
0.0
 40
2.0
100
AcDbArc
 50
90.00005499999994
 51
170.2635129999999
  0
LINE
  5
A884
330
A7A0
100
AcDbEntity
  8
1
  6
Continuous
100
AcDbLine
 10
209.220223
 20
409.8716089999999
 30
0.0
 11
213.2340989999999
 21
409.8716089999999
 31
0.0
  0
LINE
  5
A885
330
A7A0
100
AcDbEntity
  8
1
  6
Continuous
100
AcDbLine
 10
212.991948
 20
410.8716089999998
 30
0.0
 11
207.6782609999999
 21
410.8716089999998
 31
0.0
  0
ARC
  5
A888
330
A7A0
100
AcDbEntity
  8
1
  6
Continuous
100
AcDbCircle
 10
207.6782609999999
 20
413.8716089999999
 30
0.0
 40
3.0
100
AcDbArc
 50
210.00002
 51
270.00002
  0
ARC
  5
A88A
330
A7A0
100
AcDbEntity
  8
1
  6
Continuous
100
AcDbCircle
 10
275.6035719999999
 20
425.8716139999998
 30
0.0
 40
64.383349
100
AcDbArc
 50
165.622647
 51
194.38945
  0
LINE
  5
A890
330
A7A0
100
AcDbEntity
  8
1
  6
Continuous
100
AcDbLine
 10
209.220223
 20
444.1716089999999
 30
0.0
 11
209.220223
 21
441.871609
 31
0.0
  0
LINE
  5
A892
330
A7A0
100
AcDbEntity
  8
4
  6
CENTER
100
AcDbLine
 10
400.2202229999999
 20
342.8716089999998
 30
0.0
 11
400.2202229999999
 21
156.871609
 31
0.0
  0
LINE
  5
A893
330
A7A0
100
AcDbEntity
  8
1
  6
Continuous
100
AcDbLine
 10
386.7202229999999
 20
164.851099
 30
0.0
 11
386.7202229999999
 21
308.892124
 31
0.0
  0
LINE
  5
A894
330
A7A0
100
AcDbEntity
  8
1
  6
Continuous
100
AcDbLine
 10
413.7202229999998
 20
164.851099
 30
0.0
 11
413.7202229999998
 21
308.892124
 31
0.0
  0
ARC
  5
A895
330
A7A0
100
AcDbEntity
  8
1
  6
Continuous
100
AcDbCircle
 10
400.2202229999999
 20
231.8716089999998
 30
0.0
 40
70.0
100
AcDbArc
 50
260.2634799999999
 51
279.7365899999999
  0
ARC
  5
A896
330
A7A0
100
AcDbEntity
  8
1
  6
Continuous
100
AcDbCircle
 10
411.720223
 20
164.851099
 30
0.0
 40
2.0
100
AcDbArc
 50
279.7365699999999
 51
0.00002
  0
ARC
  5
A897
330
A7A0
100
AcDbEntity
  8
1
  6
Continuous
100
AcDbCircle
 10
388.7202229999999
 20
164.851099
 30
0.0
 40
2.0
100
AcDbArc
 50
180.0000499999999
 51
260.26351
  0
LINE
  5
A898
330
A7A0
100
AcDbEntity
  8
1
  6
Continuous
100
AcDbLine
 10
384.2202229999998
 20
318.0782109999999
 30
0.0
 11
384.2202229999998
 21
228.4885299999999
 31
0.0
  0
LINE
  5
A899
330
A7A0
100
AcDbEntity
  8
1
  6
Continuous
100
AcDbLine
 10
416.220223
 20
318.0782109999999
 30
0.0
 11
416.220223
 21
238.198296
 31
0.0
  0
LINE
  5
A89A
330
A7A0
100
AcDbEntity
  8
1
  6
Continuous
100
AcDbLine
 10
418.520213
 20
262.4312629999999
 30
0.0
 11
418.520213
 21
237.9755649999999
 31
0.0
  0
LINE
  5
A89B
330
A7A0
100
AcDbEntity
  8
1
  6
Continuous
100
AcDbLine
 10
381.920223
 20
262.431288
 30
0.0
 11
381.920223
 21
228.4885299999999
 31
0.0
  0
LINE
  5
A89C
330
A7A0
100
AcDbEntity
  8
4
  6
CENTER
100
AcDbLine
 10
430.520213
 20
236.8716089999999
 30
0.0
 11
360.0182229999999
 21
236.8716089999999
 31
0.0
  0
LINE
  5
A89D
330
A7A0
100
AcDbEntity
  8
1
  6
Continuous
100
AcDbLine
 10
418.520213
 20
225.8716089999999
 30
0.0
 11
416.220223
 21
225.8716089999999
 31
0.0
  0
LINE
  5
A89E
330
A7A0
100
AcDbEntity
  8
1
  6
Continuous
100
AcDbLine
 10
385.2202229999999
 20
226.038569
 30
0.0
 11
385.2202229999999
 21
249.413571
 31
0.0
  0
ARC
  5
A89F
330
A7A0
100
AcDbEntity
  8
1
  6
Continuous
100
AcDbCircle
 10
388.2202229999998
 20
224.329647
 30
0.0
 40
3.0
100
AcDbArc
 50
184.7273389999998
 51
239.99999
  0
LINE
  5
A8A0
330
A7A0
100
AcDbEntity
  8
1
  6
Continuous
100
AcDbLine
 10
385.2202229999999
 20
232.8716089999999
 30
0.0
 11
384.2202229999998
 21
232.8716089999999
 31
0.0
  0
LINE
  5
A8A1
330
A7A0
100
AcDbEntity
  8
1
  6
Continuous
100
AcDbLine
 10
385.2202229999999
 20
240.8716089999999
 30
0.0
 11
384.2202229999998
 21
240.8716089999999
 31
0.0
  0
ARC
  5
A8A2
330
A7A0
100
AcDbEntity
  8
1
  6
Continuous
100
AcDbCircle
 10
388.2202229999998
 20
249.413571
 30
0.0
 40
3.0
100
AcDbArc
 50
120.000005
 51
179.999945
  0
ARC
  5
A8A3
330
A7A0
100
AcDbEntity
  8
1
  6
Continuous
100
AcDbCircle
 10
400.2202229999999
 20
241.8716089999997
 30
0.0
 40
70.0
100
AcDbArc
 50
80.26340600000002
 51
99.73652000000001
  0
LINE
  5
A8A4
330
A7A0
100
AcDbEntity
  8
1
  6
Continuous
100
AcDbLine
 10
420.220223
 20
329.9716
 30
0.0
 11
380.2202229999999
 21
329.9716
 31
0.0
  0
LINE
  5
A8A5
330
A7A0
100
AcDbEntity
  8
1
  6
Continuous
100
AcDbLine
 10
429.220223
 20
335.5716059999998
 30
0.0
 11
371.2202229999999
 21
335.5716059999998
 31
0.0
  0
LINE
  5
A8A6
330
A7A0
100
AcDbEntity
  8
1
  6
Continuous
100
AcDbLine
 10
423.2202229999998
 20
330.971607
 30
0.0
 11
377.2202229999999
 21
330.971607
 31
0.0
  0
LINE
  5
A8A7
330
A7A0
100
AcDbEntity
  8
1
  6
Continuous
100
AcDbLine
 10
429.220223
 20
337.8716089999998
 30
0.0
 11
371.2202229999999
 21
337.8716089999998
 31
0.0
  0
ARC
  5
A8A8
330
A7A0
100
AcDbEntity
  8
1
  6
Continuous
100
AcDbCircle
 10
420.220223
 20
324.9716
 30
0.0
 40
5.0
100
AcDbArc
 50
0.00004
 51
90.00001800000005
  0
LINE
  5
A8A9
330
A7A0
100
AcDbEntity
  8
1
  6
Continuous
100
AcDbLine
 10
425.2202229999999
 20
324.9716
 30
0.0
 11
425.2202229999999
 21
297.3982689999999
 31
0.0
  0
ARC
  5
A8AA
330
A7A0
100
AcDbEntity
  8
1
  6
Continuous
100
AcDbCircle
 10
411.720223
 20
308.892124
 30
0.0
 40
2.0
100
AcDbArc
 50
359.9999799999998
 51
80.26343999999998
  0
ARC
  5
A8AB
330
A7A0
100
AcDbEntity
  8
1
  6
Continuous
100
AcDbCircle
 10
423.2202229999998
 20
333.971607
 30
0.0
 40
3.0
100
AcDbArc
 50
269.99998
 51
328.48641
  0
LINE
  5
A8AC
330
A7A0
100
AcDbEntity
  8
1
  6
Continuous
100
AcDbLine
 10
429.220223
 20
337.8716089999998
 30
0.0
 11
429.220223
 21
335.57161
 31
0.0
  0
LINE
  5
A8AD
330
A7A0
100
AcDbEntity
  8
1
  6
Continuous
100
AcDbLine
 10
427.7202729999998
 20
335.571614
 30
0.0
 11
425.777823
 21
332.403504
 31
0.0
  0
ARC
  5
A8AE
330
A7A0
100
AcDbEntity
  8
1
  6
Continuous
100
AcDbCircle
 10
410.6613829999998
 20
331.449612
 30
0.0
 40
2.778
100
AcDbArc
 50
327.85649
 51
350.0919
  0
LINE
  5
A8AF
330
A7A0
100
AcDbEntity
  8
4
  6
CENTER
100
AcDbLine
 10
420.220223
 20
342.8716089999998
 30
0.0
 11
420.220223
 21
330.5716059999998
 31
0.0
  0
ARC
  5
A8B0
330
A7A0
100
AcDbEntity
  8
1
  6
Continuous
100
AcDbCircle
 10
418.0202429999998
 20
331.449612
 30
0.0
 40
2.778
100
AcDbArc
 50
327.85649
 51
350.0919
  0
ARC
  5
A8B1
330
A7A0
100
AcDbEntity
  8
1
  6
Continuous
100
AcDbCircle
 10
414.5973629999998
 20
331.449612
 30
0.0
 40
2.778
100
AcDbArc
 50
327.85649
 51
350.0919
  0
ARC
  5
A8B2
330
A7A0
100
AcDbEntity
  8
1
  6
Continuous
100
AcDbCircle
 10
417.1326029999998
 20
331.449612
 30
0.0
 40
2.778
100
AcDbArc
 50
327.85649
 51
350.0919
  0
ARC
  5
A8B3
330
A7A0
100
AcDbEntity
  8
1
  6
Continuous
100
AcDbCircle
 10
400.2202429999998
 20
331.449612
 30
0.0
 40
2.778
100
AcDbArc
 50
189.90807
 51
212.14352
  0
ARC
  5
A8B4
330
A7A0
100
AcDbEntity
  8
1
  6
Continuous
100
AcDbCircle
 10
394.732323
 20
331.449612
 30
0.0
 40
2.778
100
AcDbArc
 50
327.85649
 51
350.0919599999999
  0
ARC
  5
A8B5
330
A7A0
100
AcDbEntity
  8
1
  6
Continuous
100
AcDbCircle
 10
400.2202429999998
 20
331.449612
 30
0.0
 40
2.778
100
AcDbArc
 50
327.85649
 51
350.0919
  0
ARC
  5
A8B6
330
A7A0
100
AcDbEntity
  8
1
  6
Continuous
100
AcDbCircle
 10
405.7081529999998
 20
331.449612
 30
0.0
 40
2.778
100
AcDbArc
 50
189.9080099999999
 51
212.14352
  0
ARC
  5
A8B7
330
A7A0
100
AcDbEntity
  8
1
  6
Continuous
100
AcDbCircle
 10
405.7081529999998
 20
331.449612
 30
0.0
 40
2.778
100
AcDbArc
 50
327.85649
 51
350.0919
  0
ARC
  5
A8B8
330
A7A0
100
AcDbEntity
  8
1
  6
Continuous
100
AcDbCircle
 10
410.6613829999998
 20
331.449612
 30
0.0
 40
2.778
100
AcDbArc
 50
206.93616
 51
212.14352
  0
ARC
  5
A8B9
330
A7A0
100
AcDbEntity
  8
1
  6
Continuous
100
AcDbCircle
 10
380.2202229999999
 20
324.9716
 30
0.0
 40
5.0
100
AcDbArc
 50
90.00001800000005
 51
180.0
  0
ARC
  5
A8BA
330
A7A0
100
AcDbEntity
  8
1
  6
Continuous
100
AcDbCircle
 10
388.7202229999999
 20
308.892124
 30
0.0
 40
2.0
100
AcDbArc
 50
99.736487
 51
179.999945
  0
LINE
  5
A8BB
330
A7A0
100
AcDbEntity
  8
4
  6
CENTER
100
AcDbLine
 10
380.2202229999999
 20
342.8716089999998
 30
0.0
 11
380.2202229999999
 21
330.5716059999998
 31
0.0
  0
ARC
  5
A8BC
330
A7A0
100
AcDbEntity
  8
1
  6
Continuous
100
AcDbCircle
 10
382.4202329999998
 20
331.449612
 30
0.0
 40
2.778
100
AcDbArc
 50
189.90807
 51
212.19887
  0
ARC
  5
A8BD
330
A7A0
100
AcDbEntity
  8
1
  6
Continuous
100
AcDbCircle
 10
385.8431129999999
 20
331.449612
 30
0.0
 40
2.778
100
AcDbArc
 50
189.90807
 51
212.14352
  0
ARC
  5
A8BE
330
A7A0
100
AcDbEntity
  8
1
  6
Continuous
100
AcDbCircle
 10
383.307873
 20
331.449612
 30
0.0
 40
2.778
100
AcDbArc
 50
189.90807
 51
212.14352
  0
ARC
  5
A8BF
330
A7A0
100
AcDbEntity
  8
1
  6
Continuous
100
AcDbCircle
 10
389.7790929999999
 20
331.449612
 30
0.0
 40
2.778
100
AcDbArc
 50
189.90807
 51
212.14352
  0
ARC
  5
A8C0
330
A7A0
100
AcDbEntity
  8
1
  6
Continuous
100
AcDbCircle
 10
394.732323
 20
331.449612
 30
0.0
 40
2.778
100
AcDbArc
 50
189.90807
 51
212.14352
  0
ARC
  5
A8C1
330
A7A0
100
AcDbEntity
  8
1
  6
Continuous
100
AcDbCircle
 10
389.7790929999999
 20
331.449612
 30
0.0
 40
2.778
100
AcDbArc
 50
327.85649
 51
333.0638
  0
LINE
  5
A8C2
330
A7A0
100
AcDbEntity
  8
1
  6
Continuous
100
AcDbLine
 10
371.2202229999999
 20
337.8716089999998
 30
0.0
 11
371.2202229999999
 21
335.5716059999998
 31
0.0
  0
LINE
  5
A8C3
330
A7A0
100
AcDbEntity
  8
1
  6
Continuous
100
AcDbLine
 10
372.720303
 20
335.5716519999998
 30
0.0
 11
374.6627629999999
 21
332.4035489999999
 31
0.0
  0
ARC
  5
A8C4
330
A7A0
100
AcDbEntity
  8
1
  6
Continuous
100
AcDbCircle
 10
377.2202229999999
 20
333.971607
 30
0.0
 40
3.0
100
AcDbArc
 50
211.5135599999999
 51
269.99998
  0
ARC
  5
A8C5
330
A7A0
100
AcDbEntity
  8
1
  6
Continuous
100
AcDbCircle
 10
400.2202229999999
 20
446.7065569999999
 30
0.0
 40
128.4999999999998
100
AcDbArc
 50
263.3484899999999
 51
276.65153
  0
ARC
  5
A8C6
330
A7A0
100
AcDbEntity
  8
1
  6
Continuous
100
AcDbCircle
 10
400.2202229999999
 20
448.9715969999998
 30
0.0
 40
128.4999999999998
100
AcDbArc
 50
264.460965
 51
275.539035
  0
LINE
  5
A8C7
330
A7A0
100
AcDbEntity
  8
1
  6
Continuous
100
AcDbLine
 10
379.821329
 20
321.0716059999998
 30
0.0
 11
420.619117
 21
321.0716059999998
 31
0.0
  0
ARC
  5
A8C8
330
A7A0
100
AcDbEntity
  8
1
  6
Continuous
100
AcDbCircle
 10
385.2202229999999
 20
318.0782109999999
 30
0.0
 40
1.0
100
AcDbArc
 50
83.34851999999996
 51
180.0
  0
ARC
  5
A8C9
330
A7A0
100
AcDbEntity
  8
1
  6
Continuous
100
AcDbCircle
 10
415.2202229999998
 20
318.0782109999999
 30
0.0
 40
1.0
100
AcDbArc
 50
0.00004
 51
96.65146100000001
  0
LINE
  5
A8CA
330
A7A0
100
AcDbEntity
  8
1
  6
Continuous
100
AcDbLine
 10
375.2202229999999
 20
324.9716
 30
0.0
 11
375.2202229999999
 21
297.3982689999999
 31
0.0
  0
LINE
  5
A8CB
330
A7A0
100
AcDbEntity
  8
1
  6
Continuous
100
AcDbLine
 10
588.220223
 20
337.8716089999998
 30
0.0
 11
488.2202379999998
 21
337.8716089999998
 31
0.0
  0
ARC
  5
A8CC
330
A7A0
100
AcDbEntity
  8
1
  6
Continuous
100
AcDbCircle
 10
580.220223
 20
236.8716089999999
 30
0.0
 40
75.0
100
AcDbArc
 50
124.603905
 51
86.920777
  0
LINE
  5
A8CD
330
A7A0
100
AcDbEntity
  8
1
  6
Continuous
100
AcDbLine
 10
588.220223
 20
335.5716059999998
 30
0.0
 11
488.2202379999998
 21
335.5716059999998
 31
0.0
  0
ARC
  5
A8CE
330
A7A0
100
AcDbEntity
  8
1
  6
Continuous
100
AcDbCircle
 10
580.220223
 20
236.8716089999999
 30
0.0
 40
54.5
100
AcDbArc
 50
127.8143669999999
 51
83.71030899999999
  0
ARC
  5
A8CF
330
A7A0
100
AcDbEntity
  8
1
  6
Continuous
100
AcDbCircle
 10
580.220223
 20
236.8716089999999
 30
0.0
 40
44.0
100
AcDbArc
 50
130.647611
 51
80.87707100000001
  0
ARC
  5
A8D0
330
A7A0
100
AcDbEntity
  8
1
  6
Continuous
100
AcDbCircle
 10
580.220223
 20
236.8716089999999
 30
0.0
 40
50.0
100
AcDbArc
 50
128.8791389999997
 51
82.64554999999999
  0
LINE
  5
A8D1
330
A7A0
100
AcDbEntity
  8
1
  6
Continuous
100
AcDbLine
 10
567.413187
 20
237.9920789999999
 30
0.0
 11
530.7070620000001
 21
312.6871679999998
 31
0.0
  0
LINE
  5
A8D2
330
A7A0
100
AcDbEntity
  8
1
  6
Continuous
100
AcDbLine
 10
561.220225
 20
330.971607
 30
0.0
 11
515.220223
 21
330.971607
 31
0.0
  0
LINE
  5
A8D3
330
A7A0
100
AcDbEntity
  8
1
  6
Continuous
100
AcDbLine
 10
559.220223
 20
329.971604
 30
0.0
 11
518.220223
 21
329.971604
 31
0.0
  0
LINE
  5
A8D4
330
A7A0
100
AcDbEntity
  8
4
  6
CENTER
100
AcDbLine
 10
580.220223
 20
314.2043569999998
 30
0.0
 11
580.220223
 21
153.871609
 31
0.0
  0
ARC
  5
A8D5
330
A7A0
100
AcDbEntity
  8
1
  6
Continuous
100
AcDbCircle
 10
580.220223
 20
236.8716089999999
 30
0.0
 40
31.0
100
AcDbArc
 50
136.953652
 51
74.57101999999998
  0
LINE
  5
A8D6
330
A7A0
100
AcDbEntity
  8
1
  6
Continuous
100
AcDbLine
 10
590.80578
 20
241.807735
 30
0.0
 11
583.6415019999996
 21
318.2445259999998
 31
0.0
  0
LINE
  5
A8D7
330
A7A0
100
AcDbEntity
  8
1
  6
Continuous
100
AcDbLine
 10
559.220223
 20
320.771611
 30
0.0
 11
559.220223
 21
259.6821409999999
 31
0.0
  0
ARC
  5
A8D8
330
A7A0
100
AcDbEntity
  8
1
  6
Continuous
100
AcDbCircle
 10
580.220223
 20
236.8716089999999
 30
0.0
 40
11.0
100
AcDbArc
 50
209.31727
 51
5.35458
  0
LINE
  5
A8D9
330
A7A0
100
AcDbEntity
  8
1
  6
Continuous
100
AcDbLine
 10
589.220228
 20
320.4716069999999
 30
0.0
 11
560.3787029999998
 21
325.557144
 31
0.0
  0
ARC
  5
A8DA
330
A7A0
100
AcDbEntity
  8
1
  6
Continuous
100
AcDbCircle
 10
586.1305929999997
 20
318.4778249999999
 30
0.0
 40
2.5
100
AcDbArc
 50
79.99997999999997
 51
185.3545799999999
  0
ARC
  5
A8DB
330
A7A0
100
AcDbEntity
  8
1
  6
Continuous
100
AcDbCircle
 10
584.6656730000002
 20
317.923786
 30
0.0
 40
1.0
100
AcDbArc
 50
79.99998999999998
 51
183.9999999999998
  0
LINE
  5
A8DC
330
A7A0
100
AcDbEntity
  8
1
  6
Continuous
100
AcDbLine
 10
589.220219
 20
320.4716069999999
 30
0.0
 11
588.8208279999997
 21
318.206551
 31
0.0
  0
LINE
  5
A8DD
330
A7A0
100
AcDbEntity
  8
1
  6
Continuous
100
AcDbLine
 10
588.820822
 20
318.2065469999999
 30
0.0
 11
584.8393049999997
 21
318.9085959999998
 31
0.0
  0
LINE
  5
A8DE
330
A7A0
100
AcDbEntity
  8
4
  6
CENTER
100
AcDbLine
 10
579.220223
 20
342.8716089999998
 30
0.0
 11
579.220223
 21
330.5716059999998
 31
0.0
  0
LINE
  5
A8DF
330
A7A0
100
AcDbEntity
  8
1
  6
Continuous
100
AcDbLine
 10
588.2202379999998
 20
335.571614
 30
0.0
 11
588.2202379999998
 21
337.871617
 31
0.0
  0
ARC
  5
A8E0
330
A7A0
100
AcDbEntity
  8
1
  6
Continuous
100
AcDbCircle
 10
555.132607
 20
331.449612
 30
0.0
 40
2.778
100
AcDbArc
 50
327.85663
 51
350.0919
  0
ARC
  5
A8E1
330
A7A0
100
AcDbEntity
  8
1
  6
Continuous
100
AcDbCircle
 10
548.6613929999998
 20
331.449612
 30
0.0
 40
2.778
100
AcDbArc
 50
327.8566
 51
350.0919
  0
ARC
  5
A8E2
330
A7A0
100
AcDbEntity
  8
1
  6
Continuous
100
AcDbCircle
 10
552.5973669999998
 20
331.449612
 30
0.0
 40
2.778
100
AcDbArc
 50
327.8566
 51
350.0919
  0
ARC
  5
A8E3
330
A7A0
100
AcDbEntity
  8
1
  6
Continuous
100
AcDbCircle
 10
543.708153
 20
331.449612
 30
0.0
 40
2.778
100
AcDbArc
 50
327.8566
 51
350.0919
  0
ARC
  5
A8E4
330
A7A0
100
AcDbEntity
  8
1
  6
Continuous
100
AcDbCircle
 10
556.020249
 20
331.449612
 30
0.0
 40
2.778
100
AcDbArc
 50
327.85663
 51
350.0919
  0
ARC
  5
A8E5
330
A7A0
100
AcDbEntity
  8
1
  6
Continuous
100
AcDbCircle
 10
558.220223
 20
324.971604
 30
0.0
 40
5.0
100
AcDbArc
 50
0.0
 51
90.0
  0
ARC
  5
A8E6
330
A7A0
100
AcDbEntity
  8
1
  6
Continuous
100
AcDbCircle
 10
561.220223
 20
333.971607
 30
0.0
 40
3.0
100
AcDbArc
 50
269.99998
 51
328.48641
  0
LINE
  5
A8E7
330
A7A0
100
AcDbEntity
  8
1
  6
Continuous
100
AcDbLine
 10
565.720219
 20
335.5716249999998
 30
0.0
 11
563.777766
 21
332.4035149999999
 31
0.0
  0
LINE
  5
A8E8
330
A7A0
100
AcDbEntity
  8
4
  6
CENTER
100
AcDbLine
 10
538.220223
 20
342.8716089999998
 30
0.0
 11
538.220223
 21
283.6049389999999
 31
0.0
  0
ARC
  5
A8E9
330
A7A0
100
AcDbEntity
  8
1
  6
Continuous
100
AcDbCircle
 10
527.779084
 20
331.449612
 30
0.0
 40
2.778
100
AcDbArc
 50
189.90807
 51
212.1434199999999
  0
ARC
  5
A8EA
330
A7A0
100
AcDbEntity
  8
1
  6
Continuous
100
AcDbCircle
 10
523.8431099999997
 20
331.449612
 30
0.0
 40
2.778
100
AcDbArc
 50
189.90807
 51
212.1433699999999
  0
ARC
  5
A8EB
330
A7A0
100
AcDbEntity
  8
1
  6
Continuous
100
AcDbCircle
 10
521.3078690000001
 20
331.449612
 30
0.0
 40
2.778
100
AcDbArc
 50
189.90807
 51
212.1433699999999
  0
ARC
  5
A8EC
330
A7A0
100
AcDbEntity
  8
1
  6
Continuous
100
AcDbCircle
 10
520.4202279999998
 20
331.449612
 30
0.0
 40
2.778
100
AcDbArc
 50
189.90807
 51
212.1433699999999
  0
ARC
  5
A8ED
330
A7A0
100
AcDbEntity
  8
1
  6
Continuous
100
AcDbCircle
 10
543.708153
 20
331.449612
 30
0.0
 40
2.778
100
AcDbArc
 50
189.9080099999999
 51
212.1434199999999
  0
ARC
  5
A8EE
330
A7A0
100
AcDbEntity
  8
1
  6
Continuous
100
AcDbCircle
 10
538.2202379999998
 20
331.449612
 30
0.0
 40
2.778
100
AcDbArc
 50
327.8566
 51
350.0919
  0
ARC
  5
A8EF
330
A7A0
100
AcDbEntity
  8
1
  6
Continuous
100
AcDbCircle
 10
532.7323230000001
 20
331.449612
 30
0.0
 40
2.778
100
AcDbArc
 50
327.8566
 51
350.0919599999999
  0
ARC
  5
A8F0
330
A7A0
100
AcDbEntity
  8
1
  6
Continuous
100
AcDbCircle
 10
538.2202379999998
 20
331.449612
 30
0.0
 40
2.778
100
AcDbArc
 50
189.90807
 51
212.1434199999999
  0
ARC
  5
A8F1
330
A7A0
100
AcDbEntity
  8
1
  6
Continuous
100
AcDbCircle
 10
532.7323230000001
 20
331.449612
 30
0.0
 40
2.778
100
AcDbArc
 50
189.90807
 51
212.1434199999999
  0
ARC
  5
A8F2
330
A7A0
100
AcDbEntity
  8
1
  6
Continuous
100
AcDbCircle
 10
518.220223
 20
324.971604
 30
0.0
 40
5.0
100
AcDbArc
 50
90.0
 51
180.0
  0
ARC
  5
A8F3
330
A7A0
100
AcDbEntity
  8
1
  6
Continuous
100
AcDbCircle
 10
517.2447359999998
 20
306.0716080000001
 30
0.0
 40
15.0
100
AcDbArc
 50
26.17007
 51
90.00001800000005
  0
LINE
  5
A8F4
330
A7A0
100
AcDbEntity
  8
1
  6
Continuous
100
AcDbLine
 10
517.2447359999998
 20
321.0716059999998
 30
0.0
 11
513.220223
 21
321.0716059999998
 31
0.0
  0
LINE
  5
A8F5
330
A7A0
100
AcDbEntity
  8
1
  6
Continuous
100
AcDbLine
 10
513.220223
 20
324.971604
 30
0.0
 11
513.220223
 21
321.0716059999998
 31
0.0
  0
LINE
  5
A8F6
330
A7A0
100
AcDbEntity
  8
1
  6
Continuous
100
AcDbLine
 10
510.720215
 20
335.571591
 30
0.0
 11
512.6626669999998
 21
332.4034879999998
 31
0.0
  0
ARC
  5
A8F7
330
A7A0
100
AcDbEntity
  8
1
  6
Continuous
100
AcDbCircle
 10
515.220223
 20
333.971607
 30
0.0
 40
3.0
100
AcDbArc
 50
211.5135599999999
 51
269.99998
  0
LINE
  5
A8F8
330
A7A0
100
AcDbEntity
  8
4
  6
CENTER
100
AcDbLine
 10
497.2202229999998
 20
342.8716089999998
 30
0.0
 11
497.2202229999998
 21
330.5716059999998
 31
0.0
  0
LINE
  5
A8F9
330
A7A0
100
AcDbEntity
  8
1
  6
Continuous
100
AcDbLine
 10
488.2202379999998
 20
335.5715979999998
 30
0.0
 11
488.2202379999998
 21
337.8716089999998
 31
0.0
  0
LINE
  5
A8FA
330
A7A0
100
AcDbEntity
  8
4
  6
CENTER
100
AcDbLine
 10
663.220223
 20
236.8716089999999
 30
0.0
 11
497.2202229999998
 21
236.8716089999999
 31
0.0
  0
LINE
  5
A8FC
330
A7A0
100
AcDbEntity
  8
4
  6
CENTER
100
AcDbLine
 10
221.2202229999999
 20
399.8716089999999
 30
0.0
 11
221.2202229999999
 21
411.8716089999998
 31
0.0
  0
LINE
  5
A8FF
330
A7A0
100
AcDbEntity
  8
4
  6
CENTER
100
AcDbLine
 10
221.2202229999999
 20
451.8716089999998
 30
0.0
 11
221.2202229999999
 21
439.8716089999998
 31
0.0
  0
LINE
  5
A901
330
A7A0
100
AcDbEntity
  8
4
  6
CENTER
100
AcDbLine
 10
215.2202229999998
 20
405.8716089999998
 30
0.0
 11
227.2202229999999
 21
405.8716089999998
 31
0.0
  0
LINE
  5
A902
330
A7A0
100
AcDbEntity
  8
1
  6
Continuous
100
AcDbLine
 10
209.220223
 20
407.5716089999998
 30
0.0
 11
209.220223
 21
409.8716089999999
 31
0.0
  0
LINE
  5
A904
330
A7A0
100
AcDbEntity
  8
1
  6
Continuous
100
AcDbLine
 10
209.0248169999999
 20
407.5716089999998
 30
0.0
 11
212.760249
 21
407.5716089999998
 31
0.0
  0
LINE
  5
A906
330
A7A0
100
AcDbEntity
  8
1
  6
Continuous
100
AcDbLine
 10
209.220223
 20
444.171599
 30
0.0
 11
212.7602519999999
 21
444.171599
 31
0.0
  0
ARC
  5
A909
330
A7A0
100
AcDbEntity
  8
1
  6
Continuous
100
AcDbCircle
 10
468.8157279999998
 20
297.3982689999999
 30
0.0
 40
93.595505
100
AcDbArc
 50
166.312859
 51
201.693872
  0
ARC
  5
A90A
330
A7A0
100
AcDbEntity
  8
1
  6
Continuous
100
AcDbCircle
 10
331.624717
 20
297.3982689999999
 30
0.0
 40
93.595505
100
AcDbArc
 50
338.3061109999998
 51
13.687141
  0
ARC
  5
A90B
330
A7A0
100
AcDbEntity
  8
1
  6
Continuous
100
AcDbCircle
 10
331.624717
 20
297.3982689999999
 30
0.0
 40
91.295505
100
AcDbArc
 50
338.306128
 51
15.028798
  0
ARC
  5
A90C
330
A7A0
100
AcDbEntity
  8
1
  6
Continuous
100
AcDbCircle
 10
468.8157279999998
 20
297.3982689999999
 30
0.0
 40
91.295505
100
AcDbArc
 50
164.971202
 51
201.693872
  0
ARC
  5
A90D
330
A7A0
100
AcDbEntity
  8
1
  6
Continuous
100
AcDbCircle
 10
243.3228689999999
 20
97.17160900000001
 30
0.0
 40
7.299999999999998
100
AcDbArc
 50
270.0
 51
316.769779
  0
ARC
  5
A90E
330
A7A0
100
AcDbEntity
  8
1
  6
Continuous
100
AcDbCircle
 10
243.3228689999999
 20
50.571609
 30
0.0
 40
7.299999999999998
100
AcDbArc
 50
50.956384
 51
90.0
  0
ARC
  5
A90F
330
A7A0
100
AcDbEntity
  8
1
  6
Continuous
100
AcDbCircle
 10
243.3228559999998
 20
50.571619
 30
0.0
 40
5.0
100
AcDbArc
 50
50.956353
 51
90.0
  0
ARC
  5
A910
330
A7A0
100
AcDbEntity
  8
1
  6
Continuous
100
AcDbCircle
 10
420.619117
 20
319.0716059999998
 30
0.0
 40
2.0
100
AcDbArc
 50
13.687141
 51
90.0
  0
ARC
  5
A911
330
A7A0
100
AcDbEntity
  8
1
  6
Continuous
100
AcDbCircle
 10
379.821329
 20
319.0716059999998
 30
0.0
 40
2.0
100
AcDbArc
 50
90.0
 51
166.312859
  0
ARC
  5
A912
330
A7A0
100
AcDbEntity
  8
1
  6
Continuous
100
AcDbCircle
 10
380.920223
 20
262.431288
 30
0.0
 40
1.0
100
AcDbArc
 50
0.0
 51
21.693872
  0
ARC
  5
A913
330
A7A0
100
AcDbEntity
  8
1
  6
Continuous
100
AcDbCircle
 10
419.520213
 20
262.4312629999999
 30
0.0
 40
1.0
100
AcDbArc
 50
158.3061109999999
 51
180.0
  0
ARC
  5
A914
330
A7A0
100
AcDbEntity
  8
1
  6
Continuous
100
AcDbCircle
 10
380.920223
 20
262.431288
 30
0.0
 40
3.299999999999998
100
AcDbArc
 50
0.0
 51
21.693872
  0
ARC
  5
A915
330
A7A0
100
AcDbEntity
  8
1
  6
Continuous
100
AcDbCircle
 10
419.5202229999998
 20
262.431288
 30
0.0
 40
3.299999999999998
100
AcDbArc
 50
158.306128
 51
180.0
  0
ARC
  5
A916
330
A7A0
100
AcDbEntity
  8
1
  6
Continuous
100
AcDbCircle
 10
369.725093
 20
252.3111459999999
 30
0.0
 40
1.0
100
AcDbArc
 50
214.7676109999999
 51
281.8310799999998
  0
ARC
  5
A917
330
A7A0
100
AcDbEntity
  8
1
  6
Continuous
100
AcDbCircle
 10
370.4483139999999
 20
250.8487439999999
 30
0.0
 40
2.529177999999999
100
AcDbArc
 50
3.716425
 51
98.37553599999999
  0
ARC
  5
A918
330
A7A0
100
AcDbEntity
  8
1
  6
Continuous
100
AcDbCircle
 10
370.448665
 20
248.8569379999999
 30
0.0
 40
2.529177999999999
100
AcDbArc
 50
3.716425
 51
101.831079
  0
LINE
  5
A919
330
A7A0
100
AcDbEntity
  8
1
  6
Continuous
100
AcDbLine
 10
381.920223
 20
253.289379
 30
0.0
 11
381.920223
 21
228.4885299999999
 31
0.0
  0
LINE
  5
A91A
330
A7A0
100
AcDbEntity
  8
1
  6
Continuous
100
AcDbLine
 10
368.0182229999999
 20
239.6715939999999
 30
0.0
 11
369.218223
 21
240.8715939999999
 31
0.0
  0
ARC
  5
A91B
330
A7A0
100
AcDbEntity
  8
1
  6
Continuous
100
AcDbCircle
 10
370.920223
 20
237.5126999999999
 30
0.0
 40
19.899187
100
AcDbArc
 50
243.4349529999999
 51
296.5650479999998
  0
ARC
  5
A91C
330
A7A0
100
AcDbEntity
  8
1
  6
Continuous
100
AcDbCircle
 10
370.920223
 20
235.5208549999999
 30
0.0
 40
19.899187
100
AcDbArc
 50
243.4349529999999
 51
296.5650479999998
  0
LINE
  5
A91D
330
A7A0
100
AcDbEntity
  8
1
  6
Continuous
100
AcDbLine
 10
369.420223
 20
237.988537
 30
0.0
 11
360.5986899999999
 21
225.280697
 31
0.0
  0
LINE
  5
A91E
330
A7A0
100
AcDbEntity
  8
5
  6
PHANTOM
100
AcDbLine
 10
167.9683019999997
 20
215.9833379999998
 30
0.0
 11
201.5786589999999
 21
235.078932
 31
0.0
  0
LINE
  5
A91F
330
A7A0
100
AcDbEntity
  8
5
  6
PHANTOM
100
AcDbLine
 10
166.832129
 20
217.9830969999999
 30
0.0
 11
200.4424859999998
 21
237.078691
 31
0.0
  0
ARC
  5
A920
330
A7A0
100
AcDbEntity
  8
5
  6
PHANTOM
100
AcDbCircle
 10
186.930136
 20
239.744727
 30
0.0
 40
22.51196699999999
100
AcDbArc
 50
241.1256709999999
 51
301.9589419999998
  0
LINE
  5
A921
330
A7A0
100
AcDbEntity
  8
1
  6
Continuous
100
AcDbLine
 10
176.9142999999999
 20
273.3635469999999
 30
0.0
 11
210.3915039999999
 21
254.035468
 31
0.0
  0
LINE
  5
A922
330
A7A0
100
AcDbEntity
  8
1
  6
Continuous
100
AcDbLine
 10
175.764322
 20
271.3716949999999
 30
0.0
 11
209.241525
 21
252.043616
 31
0.0
  0
ARC
  5
A923
330
A7A0
100
AcDbEntity
  8
1
  6
Continuous
100
AcDbCircle
 10
205.853952
 20
267.039389
 30
0.0
 40
22.51196699999999
100
AcDbArc
 50
181.522758
 51
242.3560289999998
  0
LINE
  5
A924
330
A7A0
100
AcDbEntity
  8
1
  6
Continuous
100
AcDbLine
 10
175.76436
 20
271.3716949999999
 30
0.0
 11
176.914361
 21
273.363562
 31
0.0
  0
LINE
  5
A925
330
A7A0
100
AcDbEntity
  8
5
  6
PHANTOM
100
AcDbLine
 10
167.968321
 20
215.983371
 30
0.0
 11
166.832146
 21
217.983158
 31
0.0
  0
ARC
  5
A926
330
A7A0
100
AcDbEntity
  8
5
  6
PHANTOM
100
AcDbCircle
 10
175.576447
 20
219.1557689999999
 30
0.0
 40
1.0
100
AcDbArc
 50
61.12566000000001
 51
119.602908
  0
ARC
  5
A927
330
A7A0
100
AcDbEntity
  8
1
  6
Continuous
100
AcDbCircle
 10
182.3503129999997
 20
266.414587
 30
0.0
 40
1.0
100
AcDbArc
 50
1.522746999999999
 51
59.999995
  0
LINE
  5
A928
330
A7A0
100
AcDbEntity
  8
1
  6
Continuous
100
AcDbLine
 10
413.7202229999998
 20
238.440395
 30
0.0
 11
420.020213
 21
237.8303049999999
 31
0.0
  0
LINE
  5
A929
330
A7A0
100
AcDbEntity
  8
1
  6
Continuous
100
AcDbLine
 10
413.7202229999998
 20
229.2644629999998
 30
0.0
 11
420.020213
 21
232.2064839999999
 31
0.0
  0
ARC
  5
A92A
330
A7A0
100
AcDbEntity
  8
1
  6
Continuous
100
AcDbCircle
 10
413.7202229999998
 20
221.3715919999999
 30
0.0
 40
2.5
100
AcDbArc
 50
270.0
 51
0.0
  0
LINE
  5
A92B
330
A7A0
100
AcDbEntity
  8
1
  6
Continuous
100
AcDbLine
 10
420.020213
 20
237.8303049999999
 30
0.0
 11
420.020213
 21
232.2064839999999
 31
0.0
  0
ARC
  5
A92C
330
A7A0
100
AcDbEntity
  8
1
  6
Continuous
100
AcDbCircle
 10
413.7202229999998
 20
252.371625
 30
0.0
 40
2.5
100
AcDbArc
 50
0.0
 51
90.0
  0
ARC
  5
A92D
330
A7A0
100
AcDbEntity
  8
1
  6
Continuous
100
AcDbCircle
 10
363.720638
 20
221.12167
 30
0.0
 40
3.800405999999998
100
AcDbArc
 50
179.9999909999999
 51
243.4349629999999
  0
ARC
  5
A92E
330
A7A0
100
AcDbEntity
  8
1
  6
Continuous
100
AcDbCircle
 10
363.720638
 20
223.113514
 30
0.0
 40
3.800405999999998
100
AcDbArc
 50
145.2323889999999
 51
243.4349629999999
  0
LINE
  5
A92F
330
A7A0
100
AcDbEntity
  8
1
  6
Continuous
100
AcDbLine
 10
359.920223
 20
223.113514
 30
0.0
 11
359.920223
 21
221.12167
 31
0.0
  0
LINE
  5
A930
330
A7A0
100
AcDbEntity
  8
1
  6
Continuous
100
AcDbLine
 10
368.0182229999999
 20
239.6715939999999
 30
0.0
 11
368.0182229999999
 21
235.968889
 31
0.0
  0
ARC
  5
A931
330
A7A0
100
AcDbEntity
  8
1
  6
Continuous
100
AcDbCircle
 10
87.152197
 20
248.719875
 30
0.0
 40
2.529177999999999
100
AcDbArc
 50
137.409623
 51
176.283576
  0
LINE
  5
A932
330
A7A0
100
AcDbEntity
  8
1
  6
Continuous
100
AcDbLine
 10
77.820223
 20
264.239895
 30
0.0
 11
77.820223
 21
217.100704
 31
0.0
  0
LINE
  5
A933
330
A7A0
100
AcDbEntity
  8
5
  6
PHANTOM
100
AcDbLine
 10
264.9141009999999
 20
271.06276
 30
0.0
 11
263.777942
 21
273.0625279999998
 31
0.0
  0
LINE
  5
A934
330
A7A0
100
AcDbEntity
  8
5
  6
PHANTOM
100
AcDbLine
 10
230.167662
 20
253.9669599999998
 30
0.0
 11
263.7780409999999
 21
273.0625759999999
 31
0.0
  0
LINE
  5
A935
330
A7A0
100
AcDbEntity
  8
5
  6
PHANTOM
100
AcDbLine
 10
248.582237
 20
255.779135
 30
0.0
 11
254.065393
 21
260.298599
 31
0.0
  0
LINE
  5
A936
330
A7A0
100
AcDbEntity
  8
5
  6
PHANTOM
100
AcDbLine
 10
231.3038129999999
 20
251.9671789999999
 30
0.0
 11
264.914192
 21
271.062795
 31
0.0
  0
ARC
  5
A937
330
A7A0
100
AcDbEntity
  8
5
  6
PHANTOM
100
AcDbCircle
 10
234.795226
 20
266.9391059999999
 30
0.0
 40
22.51196699999999
100
AcDbArc
 50
297.2468899999999
 51
358.0801619999999
  0
ARC
  5
A938
330
A7A0
100
AcDbEntity
  8
1
  6
Continuous
100
AcDbCircle
 10
253.5294279999999
 20
239.513945
 30
0.0
 40
22.51196699999999
100
AcDbArc
 50
237.6439779999998
 51
298.4772489999998
  0
LINE
  5
A939
330
A7A0
100
AcDbEntity
  8
1
  6
Continuous
100
AcDbLine
 10
238.848932
 20
234.9497819999999
 30
0.0
 11
272.3261659999999
 21
215.621695
 31
0.0
  0
LINE
  5
A93A
330
A7A0
100
AcDbEntity
  8
1
  6
Continuous
100
AcDbLine
 10
239.9989409999998
 20
236.9416259999999
 30
0.0
 11
273.476175
 21
217.613539
 31
0.0
  0
ARC
  5
A93B
330
A7A0
100
AcDbEntity
  8
1
  6
Continuous
100
AcDbCircle
 10
229.5299959999999
 20
231.4966089999999
 30
0.0
 40
4.25
100
AcDbArc
 50
240.000004
 51
60.00000400000001
  0
LINE
  5
A93C
330
A7A0
100
AcDbEntity
  8
5
  6
PHANTOM
100
AcDbLine
 10
215.919309
 20
229.5400239999999
 30
0.0
 11
212.9728639999999
 21
227.866011
 31
0.0
  0
LINE
  5
A93D
330
A7A0
100
AcDbEntity
  8
5
  6
PHANTOM
100
AcDbLine
 10
194.941513
 20
226.707616
 30
0.0
 11
201.613173
 21
229.1351839999999
 31
0.0
  0
ARC
  5
A93E
330
A7A0
100
AcDbEntity
  8
5
  6
PHANTOM
100
AcDbCircle
 10
210.873423
 20
231.561258
 30
0.0
 40
4.25
100
AcDbArc
 50
119.602917
 51
299.6029169999999
  0
ARC
  5
A93F
330
A7A0
100
AcDbEntity
  8
5
  6
PHANTOM
100
AcDbCircle
 10
215.4285429999999
 20
245.3055009999999
 30
0.0
 40
22.450027
100
AcDbArc
 50
261.848889
 51
337.356944
  0
LINE
  5
A940
330
A7A0
100
AcDbEntity
  8
1
  6
Continuous
100
AcDbLine
 10
227.404997
 20
227.8160009999997
 30
0.0
 11
224.470223
 21
229.5103929999999
 31
0.0
  0
ARC
  5
A941
330
A7A0
100
AcDbEntity
  8
1
  6
Continuous
100
AcDbCircle
 10
225.070245
 20
245.2720859999999
 30
0.0
 40
22.450027
100
AcDbArc
 50
202.245976
 51
277.754031
  0
LINE
  5
A942
330
A7A0
100
AcDbEntity
  8
5
  6
PHANTOM
100
AcDbLine
 10
192.9655919999999
 20
230.185464
 30
0.0
 11
194.9415319999999
 21
226.7075879999999
 31
0.0
  0
ARC
  5
A943
330
A7A0
100
AcDbEntity
  8
5
  6
PHANTOM
100
AcDbCircle
 10
203.2528649999999
 20
234.469005
 30
0.0
 40
14.509467
100
AcDbArc
 50
252.3185339999999
 51
308.2997349999998
  0
ARC
  5
A944
330
A7A0
100
AcDbEntity
  8
1
  6
Continuous
100
AcDbCircle
 10
237.1705259999999
 20
234.3514689999999
 30
0.0
 40
14.509467
100
AcDbArc
 50
231.303185
 51
287.2843849999999
  0
LINE
  5
A945
330
A7A0
100
AcDbEntity
  8
1
  6
Continuous
100
AcDbLine
 10
215.970222
 20
244.232824
 30
0.0
 11
213.035449
 21
245.9272159999999
 31
0.0
  0
CIRCLE
  5
A946
330
A7A0
100
AcDbEntity
  8
1
  6
Continuous
100
AcDbCircle
 10
220.220223
 20
236.8716089999999
 30
0.0
 40
2.799999999999998
  0
CIRCLE
  5
A947
330
A7A0
100
AcDbEntity
  8
2
  6
Continuous
100
AcDbCircle
 10
220.220223
 20
236.8716089999999
 30
0.0
 40
3.3235
  0
LINE
  5
A948
330
A7A0
100
AcDbEntity
  8
1
  6
Continuous
100
AcDbLine
 10
214.5910619999999
 20
233.6216109999998
 30
0.0
 11
220.220223
 21
230.371614
 31
0.0
  0
CIRCLE
  5
A949
330
A7A0
100
AcDbEntity
  8
1
  6
Continuous
100
AcDbCircle
 10
220.220223
 20
236.8716089999999
 30
0.0
 40
4.0
  0
CIRCLE
  5
A94A
330
A7A0
100
AcDbEntity
  8
1
  6
Continuous
100
AcDbCircle
 10
220.220223
 20
236.8716089999999
 30
0.0
 40
5.102005
  0
LINE
  5
A94B
330
A7A0
100
AcDbEntity
  8
1
  6
Continuous
100
AcDbLine
 10
220.220223
 20
243.3716029999999
 30
0.0
 11
214.5910619999999
 21
240.121606
 31
0.0
  0
ARC
  5
A94C
330
A7A0
100
AcDbEntity
  8
5
  6
PHANTOM
100
AcDbCircle
 10
225.697276
 20
227.231395
 30
0.0
 40
25.837463
100
AcDbArc
 50
88.233112
 51
150.972723
  0
ARC
  5
A94D
330
A7A0
100
AcDbEntity
  8
5
  6
PHANTOM
100
AcDbCircle
 10
225.697276
 20
227.231395
 30
0.0
 40
23.53746399999999
100
AcDbArc
 50
88.23314000000001
 51
150.9726959999998
  0
ARC
  5
A94E
330
A7A0
100
AcDbEntity
  8
1
  6
Continuous
100
AcDbCircle
 10
214.6764919999998
 20
227.2695829999999
 30
0.0
 40
23.53746399999999
100
AcDbArc
 50
28.630227
 51
91.369783
  0
ARC
  5
A94F
330
A7A0
100
AcDbEntity
  8
1
  6
Continuous
100
AcDbCircle
 10
214.6764919999998
 20
227.2695829999999
 30
0.0
 40
25.837463
100
AcDbArc
 50
28.63019999999999
 51
91.36981099999998
  0
LINE
  5
A950
330
A7A0
100
AcDbEntity
  8
1
  6
Continuous
100
AcDbLine
 10
206.724725
 20
253.49671
 30
0.0
 11
204.132226
 21
249.0063539999999
 31
0.0
  0
LINE
  5
A951
330
A7A0
100
AcDbEntity
  8
1
  6
Continuous
100
AcDbLine
 10
198.6626069999998
 20
253.532614
 30
0.0
 11
204.132272
 21
249.0063689999999
 31
0.0
  0
ARC
  5
A952
330
A7A0
100
AcDbEntity
  8
5
  6
PHANTOM
100
AcDbCircle
 10
196.9845629999998
 20
243.165009
 30
0.0
 40
9.3
100
AcDbArc
 50
299.6029229999998
 51
330.972691
  0
ARC
  5
A953
330
A7A0
100
AcDbEntity
  8
5
  6
PHANTOM
100
AcDbCircle
 10
196.9845689999999
 20
243.164988
 30
0.0
 40
7.0
100
AcDbArc
 50
299.6029229999998
 51
330.9727179999998
  0
ARC
  5
A954
330
A7A0
100
AcDbEntity
  8
1
  6
Continuous
100
AcDbCircle
 10
209.5625699999999
 20
250.2909299999998
 30
0.0
 40
14.509467
100
AcDbArc
 50
192.715622
 51
248.696822
  0
LINE
  5
A955
330
A7A0
100
AcDbEntity
  8
5
  6
PHANTOM
100
AcDbLine
 10
199.0518319999999
 20
233.6433439999999
 30
0.0
 11
201.6131629999999
 21
229.135137
 31
0.0
  0
LINE
  5
A956
330
A7A0
100
AcDbEntity
  8
1
  6
Continuous
100
AcDbLine
 10
214.5910619999999
 20
240.121606
 30
0.0
 11
214.5910619999999
 21
233.6216109999998
 31
0.0
  0
LINE
  5
A957
330
A7A0
100
AcDbEntity
  8
5
  6
PHANTOM
100
AcDbLine
 10
211.720427
 20
236.930517
 30
0.0
 11
208.7739819999999
 21
235.2565039999999
 31
0.0
  0
LINE
  5
A958
330
A7A0
100
AcDbEntity
  8
1
  6
Continuous
100
AcDbLine
 10
211.720223
 20
236.871608
 30
0.0
 11
208.78545
 21
238.5659999999997
 31
0.0
  0
ARC
  5
A959
330
A7A0
100
AcDbEntity
  8
1
  6
Continuous
100
AcDbCircle
 10
210.910449
 20
242.2466079999999
 30
0.0
 40
4.25
100
AcDbArc
 50
60.00000400000001
 51
240.000004
  0
LINE
  5
A95A
330
A7A0
100
AcDbEntity
  8
1
  6
Continuous
100
AcDbLine
 10
200.6625909999999
 20
256.9966799999999
 30
0.0
 11
198.6625909999999
 21
253.532584
 31
0.0
  0
ARC
  5
A95B
330
A7A0
100
AcDbEntity
  8
1
  6
Continuous
100
AcDbCircle
 10
213.891504
 20
260.097662
 30
0.0
 40
7.0
100
AcDbArc
 50
240.00001
 51
271.369806
  0
ARC
  5
A95C
330
A7A0
100
AcDbEntity
  8
1
  6
Continuous
100
AcDbCircle
 10
213.891519
 20
260.0976779999999
 30
0.0
 40
9.3
100
AcDbArc
 50
240.00001
 51
271.3697779999999
  0
ARC
  5
A95D
330
A7A0
100
AcDbEntity
  8
5
  6
PHANTOM
100
AcDbCircle
 10
229.567023
 20
242.18196
 30
0.0
 40
4.25
100
AcDbArc
 50
299.6029169999999
 51
119.602917
  0
LINE
  5
A95E
330
A7A0
100
AcDbEntity
  8
5
  6
PHANTOM
100
AcDbLine
 10
231.6664639999999
 20
238.4867129999999
 30
0.0
 11
228.720019
 21
236.8127009999998
 31
0.0
  0
LINE
  5
A95F
330
A7A0
100
AcDbEntity
  8
1
  6
Continuous
100
AcDbLine
 10
231.6549959999999
 20
235.177218
 30
0.0
 11
228.720223
 21
236.8716089999999
 31
0.0
  0
LINE
  5
A960
330
A7A0
100
AcDbEntity
  8
1
  6
Continuous
100
AcDbLine
 10
225.8493829999999
 20
233.6216109999998
 30
0.0
 11
225.8493829999999
 21
240.121606
 31
0.0
  0
LINE
  5
A961
330
A7A0
100
AcDbEntity
  8
5
  6
PHANTOM
100
AcDbLine
 10
227.467582
 20
245.877206
 30
0.0
 11
224.521137
 21
244.203194
 31
0.0
  0
LINE
  5
A962
330
A7A0
100
AcDbEntity
  8
1
  6
Continuous
100
AcDbLine
 10
225.8493829999999
 20
240.121606
 30
0.0
 11
220.220223
 21
243.3716029999999
 31
0.0
  0
LINE
  5
A963
330
A7A0
100
AcDbEntity
  8
1
  6
Continuous
100
AcDbLine
 10
220.220223
 20
230.371614
 30
0.0
 11
225.8493829999999
 21
233.6216109999998
 31
0.0
  0
ARC
  5
A964
330
A7A0
100
AcDbEntity
  8
1
  6
Continuous
100
AcDbCircle
 10
243.498941
 20
243.003806
 30
0.0
 40
7.0
100
AcDbArc
 50
208.630208
 51
240.00001
  0
ARC
  5
A965
330
A7A0
100
AcDbEntity
  8
1
  6
Continuous
100
AcDbCircle
 10
243.498941
 20
243.0038209999999
 30
0.0
 40
9.3
100
AcDbArc
 50
208.6302359999999
 51
239.999997
  0
ARC
  5
A966
330
A7A0
100
AcDbEntity
  8
5
  6
PHANTOM
100
AcDbCircle
 10
230.970625
 20
250.216748
 30
0.0
 40
14.509467
100
AcDbArc
 50
290.9060979999998
 51
346.8872979999999
  0
ARC
  5
A967
330
A7A0
100
AcDbEntity
  8
5
  6
PHANTOM
100
AcDbCircle
 10
226.709745
 20
260.053258
 30
0.0
 40
9.3
100
AcDbArc
 50
268.2331479999999
 51
299.60291
  0
ARC
  5
A968
330
A7A0
100
AcDbEntity
  8
5
  6
PHANTOM
100
AcDbCircle
 10
226.709758
 20
260.0532499999999
 30
0.0
 40
7.0
100
AcDbArc
 50
268.233121
 51
299.6029229999998
  0
LINE
  5
A969
330
A7A0
100
AcDbEntity
  8
5
  6
PHANTOM
100
AcDbLine
 10
246.003213
 20
260.318596
 30
0.0
 11
248.5822719999999
 21
255.7791499999999
 31
0.0
  0
ARC
  5
A96A
330
A7A0
100
AcDbEntity
  8
1
  6
Continuous
100
AcDbCircle
 10
264.7401669999998
 20
218.8467769999999
 30
0.0
 40
1.0
100
AcDbArc
 50
60.000002
 51
118.477254
  0
LINE
  5
A96B
330
A7A0
100
AcDbEntity
  8
1
  6
Continuous
100
AcDbLine
 10
250.879602
 20
221.9752719999999
 30
0.0
 11
257.55224
 21
219.532637
 31
0.0
  0
LINE
  5
A96C
330
A7A0
100
AcDbEntity
  8
1
  6
Continuous
100
AcDbLine
 10
253.490106
 20
226.4967029999999
 30
0.0
 11
250.879632
 21
221.9752489999999
 31
0.0
  0
LINE
  5
A96D
330
A7A0
100
AcDbEntity
  8
1
  6
Continuous
100
AcDbLine
 10
259.552255
 20
222.9967559999999
 30
0.0
 11
257.55224
 21
219.532637
 31
0.0
  0
LINE
  5
A96E
330
A7A0
100
AcDbEntity
  8
1
  6
Continuous
100
AcDbLine
 10
272.326089
 20
215.6217559999999
 30
0.0
 11
273.476083
 21
217.6136
 31
0.0
  0
ARC
  5
A96F
330
A7A0
100
AcDbEntity
  8
1
  6
Continuous
100
AcDbCircle
 10
43.720223
 20
221.3715919999999
 30
0.0
 40
2.5
100
AcDbArc
 50
180.0
 51
270.0
  0
LINE
  5
A970
330
A7A0
100
AcDbEntity
  8
5
  6
PHANTOM
100
AcDbLine
 10
252.0894419999999
 20
263.7765009999998
 30
0.0
 11
254.065393
 21
260.298599
 31
0.0
  0
ARC
  5
A971
330
A7A0
100
AcDbEntity
  8
5
  6
PHANTOM
100
AcDbCircle
 10
258.293993
 20
266.151432
 30
0.0
 40
1.0
100
AcDbArc
 50
119.6029149999999
 51
178.0801669999999
  0
LINE
  5
A972
330
A7A0
100
AcDbEntity
  8
1
  6
Continuous
100
AcDbLine
 10
43.720223
 20
244.478737
 30
0.0
 11
37.420233
 21
241.5204099999999
 31
0.0
  0
LINE
  5
A973
330
A7A0
100
AcDbEntity
  8
1
  6
Continuous
100
AcDbLine
 10
38.920223
 20
243.1216089999999
 30
0.0
 11
37.72024299999999
 21
243.1216089999999
 31
0.0
  0
ARC
  5
A974
330
A7A0
100
AcDbEntity
  8
1
  6
Continuous
100
AcDbCircle
 10
37.72024299999999
 20
241.1216089999999
 30
0.0
 40
2.0
100
AcDbArc
 50
90.00001800000005
 51
180.0
  0
LINE
  5
A975
330
A7A0
100
AcDbEntity
  8
1
  6
Continuous
100
AcDbLine
 10
43.720223
 20
235.3028049999998
 30
0.0
 11
37.420233
 21
235.912896
 31
0.0
  0
LINE
  5
A976
330
A7A0
100
AcDbEntity
  8
1
  6
Continuous
100
AcDbLine
 10
38.920223
 20
230.6216089999999
 30
0.0
 11
37.72024299999999
 21
230.6216089999999
 31
0.0
  0
ARC
  5
A977
330
A7A0
100
AcDbEntity
  8
1
  6
Continuous
100
AcDbCircle
 10
37.72024299999999
 20
232.6216089999999
 30
0.0
 40
2.0
100
AcDbArc
 50
180.0
 51
269.99998
  0
LINE
  5
A978
330
A7A0
100
AcDbEntity
  8
1
  6
Continuous
100
AcDbLine
 10
37.420233
 20
241.5204099999999
 30
0.0
 11
37.420233
 21
235.912896
 31
0.0
  0
LINE
  5
A979
330
A7A0
100
AcDbEntity
  8
1
  6
Continuous
100
AcDbLine
 10
35.72024299999997
 20
241.1216089999999
 30
0.0
 11
35.72024299999997
 21
232.6216089999999
 31
0.0
  0
LINE
  5
A97A
330
A7A0
100
AcDbEntity
  8
1
  6
Continuous
100
AcDbLine
 10
89.422233
 20
236.062084
 30
0.0
 11
96.84121500000001
 21
225.3801919999999
 31
0.0
  0
LINE
  5
A97B
330
A7A0
100
AcDbEntity
  8
1
  6
Continuous
100
AcDbLine
 10
96.841185
 20
223.388386
 30
0.0
 11
89.38104199999996
 21
234.12915
 31
0.0
  0
ARC
  5
A97C
330
A7A0
100
AcDbEntity
  8
1
  6
Continuous
100
AcDbCircle
 10
76.070223
 20
231.218324
 30
0.0
 40
4.25
100
AcDbArc
 50
294.315739
 51
0.0
  0
LINE
  5
A97D
330
A7A0
100
AcDbEntity
  8
1
  6
Continuous
100
AcDbLine
 10
71.52021999999998
 20
228.5872759999997
 30
0.0
 11
71.52021999999998
 21
226.595425
 31
0.0
  0
ARC
  5
A97E
330
A7A0
100
AcDbEntity
  8
1
  6
Continuous
100
AcDbCircle
 10
86.52021600000002
 20
235.619595
 30
0.0
 40
19.899187
100
AcDbArc
 50
244.0744089999999
 51
296.565062
  0
LINE
  5
A97F
330
A7A0
100
AcDbEntity
  8
1
  6
Continuous
100
AcDbLine
 10
75.52021999999998
 20
223.126064
 30
0.0
 11
77.820223
 21
223.126064
 31
0.0
  0
LINE
  5
A980
330
A7A0
100
AcDbEntity
  8
1
  6
Continuous
100
AcDbLine
 10
71.52022399999999
 20
226.595417
 30
0.0
 11
72.520224
 21
223.0954249999999
 31
0.0
  0
LINE
  5
A981
330
A7A0
100
AcDbEntity
  8
1
  6
Continuous
100
AcDbLine
 10
75.52021999999998
 20
223.0954249999999
 30
0.0
 11
72.52021999999998
 21
223.0954249999999
 31
0.0
  0
LINE
  5
A982
330
A7A0
100
AcDbEntity
  8
1
  6
Continuous
100
AcDbLine
 10
75.52021999999998
 20
226.595425
 30
0.0
 11
71.52021999999998
 21
226.595425
 31
0.0
  0
LINE
  5
A983
330
A7A0
100
AcDbEntity
  8
1
  6
Continuous
100
AcDbLine
 10
75.52021999999998
 20
219.940731
 30
0.0
 11
77.820223
 21
219.940731
 31
0.0
  0
LINE
  5
A984
330
A7A0
100
AcDbEntity
  8
1
  6
Continuous
100
AcDbLine
 10
75.52021999999998
 20
217.100704
 30
0.0
 11
77.820223
 21
217.100704
 31
0.0
  0
ARC
  5
A985
330
A7A0
100
AcDbEntity
  8
1
  6
Continuous
100
AcDbCircle
 10
93.719809
 20
223.2122459999999
 30
0.0
 40
3.800405999999998
100
AcDbArc
 50
359.999997
 51
34.78147100000001
  0
LINE
  5
A986
330
A7A0
100
AcDbEntity
  8
1
  6
Continuous
100
AcDbLine
 10
97.520216
 20
221.220394
 30
0.0
 11
97.520216
 21
223.2122459999999
 31
0.0
  0
ARC
  5
A987
330
A7A0
100
AcDbEntity
  8
1
  6
Continuous
100
AcDbCircle
 10
93.719809
 20
221.220394
 30
0.0
 40
3.800405999999998
100
AcDbArc
 50
296.5650479999998
 51
34.78245799999999
  0
ARC
  5
A988
330
A7A0
100
AcDbEntity
  8
1
  6
Continuous
100
AcDbCircle
 10
79.968213
 20
232.028712
 30
0.0
 40
3.25
100
AcDbArc
 50
298.524959
 51
31.365793
  0
ARC
  5
A989
330
A7A0
100
AcDbEntity
  8
1
  6
Continuous
100
AcDbCircle
 10
79.968213
 20
241.911968
 30
0.0
 40
3.25
100
AcDbArc
 50
328.6342
 51
61.475041
  0
LINE
  5
A98A
330
A7A0
100
AcDbEntity
  8
1
  6
Continuous
100
AcDbLine
 10
80.32022299999999
 20
245.47034
 30
0.0
 11
81.520223
 21
245.47034
 31
0.0
  0
LINE
  5
A98B
330
A7A0
100
AcDbEntity
  8
1
  6
Continuous
100
AcDbLine
 10
75.52021999999998
 20
247.19595
 30
0.0
 11
77.820223
 21
247.19595
 31
0.0
  0
LINE
  5
A98C
330
A7A0
100
AcDbEntity
  8
2
  6
Continuous
100
AcDbLine
 10
80.32022299999999
 20
233.64684
 30
0.0
 11
77.820223
 21
233.64684
 31
0.0
  0
LINE
  5
A98D
330
A7A0
100
AcDbEntity
  8
1
  6
Continuous
100
AcDbLine
 10
80.32022299999999
 20
232.97034
 30
0.0
 11
77.820223
 21
232.97034
 31
0.0
  0
LINE
  5
A98E
330
A7A0
100
AcDbEntity
  8
1
  6
Continuous
100
AcDbLine
 10
80.32022299999999
 20
228.47034
 30
0.0
 11
81.520223
 21
228.47034
 31
0.0
  0
LINE
  5
A98F
330
A7A0
100
AcDbEntity
  8
1
  6
Continuous
100
AcDbLine
 10
77.820223
 20
232.8260509999998
 30
0.0
 11
80.32022299999999
 21
232.62034
 31
0.0
  0
LINE
  5
A990
330
A7A0
100
AcDbEntity
  8
1
  6
Continuous
100
AcDbLine
 10
80.32022299999999
 20
239.14534
 30
0.0
 11
77.820223
 21
233.7534129999998
 31
0.0
  0
LINE
  5
A991
330
A7A0
100
AcDbEntity
  8
1
  6
Continuous
100
AcDbLine
 10
75.52021999999998
 20
236.8716089999999
 30
0.0
 11
77.820223
 21
236.8716089999999
 31
0.0
  0
LINE
  5
A992
330
A7A0
100
AcDbEntity
  8
1
  6
Continuous
100
AcDbLine
 10
75.52021999999998
 20
228.5872759999997
 30
0.0
 11
71.52021999999998
 21
228.5872759999997
 31
0.0
  0
LINE
  5
A993
330
A7A0
100
AcDbEntity
  8
1
  6
Continuous
100
AcDbLine
 10
81.520223
 20
245.47034
 30
0.0
 11
81.520223
 21
228.47034
 31
0.0
  0
ARC
  5
A994
330
A7A0
100
AcDbEntity
  8
1
  6
Continuous
100
AcDbCircle
 10
76.070223
 20
242.7223559999999
 30
0.0
 40
4.25
100
AcDbArc
 50
294.315739
 51
65.68426099999999
  0
LINE
  5
A995
330
A7A0
100
AcDbEntity
  8
1
  6
Continuous
100
AcDbLine
 10
80.32022299999999
 20
245.47034
 30
0.0
 11
80.32022299999999
 21
228.47034
 31
0.0
  0
LINE
  5
A996
330
A7A0
100
AcDbEntity
  8
1
  6
Continuous
100
AcDbLine
 10
88.222233
 20
240.97034
 30
0.0
 11
87.42223299999997
 21
240.97034
 31
0.0
  0
LINE
  5
A997
330
A7A0
100
AcDbEntity
  8
2
  6
Continuous
100
AcDbLine
 10
88.89873299999996
 20
240.29384
 30
0.0
 11
87.42223299999997
 21
240.29384
 31
0.0
  0
LINE
  5
A998
330
A7A0
100
AcDbEntity
  8
1
  6
Continuous
100
AcDbLine
 10
89.422233
 20
234.1703399999999
 30
0.0
 11
88.222233
 21
232.97034
 31
0.0
  0
LINE
  5
A999
330
A7A0
100
AcDbEntity
  8
2
  6
Continuous
100
AcDbLine
 10
88.89873299999996
 20
233.64684
 30
0.0
 11
87.42223299999997
 21
233.64684
 31
0.0
  0
LINE
  5
A99A
330
A7A0
100
AcDbEntity
  8
1
  6
Continuous
100
AcDbLine
 10
88.222233
 20
232.97034
 30
0.0
 11
87.42223299999997
 21
232.97034
 31
0.0
  0
LINE
  5
A99B
330
A7A0
100
AcDbEntity
  8
1
  6
Continuous
100
AcDbLine
 10
89.422233
 20
234.1703399999999
 30
0.0
 11
89.422233
 21
239.77034
 31
0.0
  0
LINE
  5
A99C
330
A7A0
100
AcDbEntity
  8
1
  6
Continuous
100
AcDbLine
 10
89.422233
 20
239.77034
 30
0.0
 11
88.222233
 21
240.97034
 31
0.0
  0
LINE
  5
A99D
330
A7A0
100
AcDbEntity
  8
1
  6
Continuous
100
AcDbLine
 10
88.222233
 20
232.97034
 30
0.0
 11
88.222233
 21
240.97034
 31
0.0
  0
LINE
  5
A99E
330
A7A0
100
AcDbEntity
  8
1
  6
Continuous
100
AcDbLine
 10
87.42223299999997
 20
242.072353
 30
0.0
 11
87.42223299999997
 21
231.868327
 31
0.0
  0
LINE
  5
A99F
330
A7A0
100
AcDbEntity
  8
1
  6
Continuous
100
AcDbLine
 10
86.02423299999998
 20
243.47034
 30
0.0
 11
82.82022299999999
 21
243.47034
 31
0.0
  0
ARC
  5
A9A0
330
A7A0
100
AcDbEntity
  8
1
  6
Continuous
100
AcDbCircle
 10
105.3480739999999
 20
249.529781
 30
0.0
 40
20.76305799999997
100
AcDbArc
 50
182.739379
 51
196.968003
  0
ARC
  5
A9A1
330
A7A0
100
AcDbEntity
  8
1
  6
Continuous
100
AcDbCircle
 10
105.347731
 20
247.537991
 30
0.0
 40
20.76305799999997
100
AcDbArc
 50
176.283576
 51
191.2977749999997
  0
LINE
  5
A9A2
330
A7A0
100
AcDbEntity
  8
1
  6
Continuous
100
AcDbLine
 10
86.02423299999998
 20
230.47034
 30
0.0
 11
82.82022299999999
 21
230.47034
 31
0.0
  0
ARC
  5
A9A3
330
A7A0
100
AcDbEntity
  8
1
  6
Continuous
100
AcDbCircle
 10
71.21821300000002
 20
236.97034
 30
0.0
 40
12.0
100
AcDbArc
 50
344.2861399999999
 51
15.71386099999998
  0
LINE
  5
A9A4
330
A7A0
100
AcDbEntity
  8
1
  6
Continuous
100
AcDbLine
 10
85.973743
 20
240.2203399999999
 30
0.0
 11
82.87071299999999
 21
240.2203399999999
 31
0.0
  0
LINE
  5
A9A5
330
A7A0
100
AcDbEntity
  8
1
  6
Continuous
100
AcDbLine
 10
85.94728299999998
 20
233.7203399999999
 30
0.0
 11
82.89717299999997
 21
233.7203399999999
 31
0.0
  0
ARC
  5
A9A6
330
A7A0
100
AcDbEntity
  8
1
  6
Continuous
100
AcDbCircle
 10
83.172233
 20
241.911968
 30
0.0
 40
3.25
100
AcDbArc
 50
328.6342499999999
 51
28.65275
  0
ARC
  5
A9A7
330
A7A0
100
AcDbEntity
  8
1
  6
Continuous
100
AcDbCircle
 10
83.172233
 20
232.028712
 30
0.0
 40
3.25
100
AcDbArc
 50
331.3472699999998
 51
31.36577
  0
LINE
  5
A9A8
330
A7A0
100
AcDbEntity
  8
1
  6
Continuous
100
AcDbLine
 10
86.024203
 20
230.4703589999999
 30
0.0
 11
87.42218299999995
 21
231.86835
 31
0.0
  0
ARC
  5
A9A9
330
A7A0
100
AcDbEntity
  8
1
  6
Continuous
100
AcDbCircle
 10
74.42223299999998
 20
236.97034
 30
0.0
 40
12.0
100
AcDbArc
 50
344.28617
 51
15.71384
  0
LINE
  5
A9AA
330
A7A0
100
AcDbEntity
  8
1
  6
Continuous
100
AcDbLine
 10
87.42220299999997
 20
242.072345
 30
0.0
 11
86.02422299999997
 21
243.4703289999999
 31
0.0
  0
ARC
  5
A9AB
330
A7A0
100
AcDbEntity
  8
1
  6
Continuous
100
AcDbCircle
 10
580.220223
 20
236.8716089999999
 30
0.0
 40
16.5
100
AcDbArc
 50
205.0
 51
355.0
  0
LINE
  5
A9AC
330
A7A0
100
AcDbEntity
  8
1
  6
Continuous
100
AcDbLine
 10
598.1517269999998
 20
235.3028049999998
 30
0.0
 11
591.178365
 21
235.912896
 31
0.0
  0
ARC
  5
A9AD
330
A7A0
100
AcDbEntity
  8
1
  6
Continuous
100
AcDbCircle
 10
580.220223
 20
236.8716089999999
 30
0.0
 40
18.0
100
AcDbArc
 50
153.8399819999999
 51
57.684697
  0
ARC
  5
A9AE
330
A7A0
100
AcDbEntity
  8
1
  6
Continuous
100
AcDbCircle
 10
580.220223
 20
236.8716089999999
 30
0.0
 40
21.4
100
AcDbArc
 50
147.101981
 51
64.422698
  0
LINE
  5
A9AF
330
A7A0
100
AcDbEntity
  8
1
  6
Continuous
100
AcDbLine
 10
570.2508370000002
 20
232.2228079999999
 30
0.0
 11
563.906683
 21
229.26448
 31
0.0
  0
LINE
  5
A9B0
330
A7A0
100
AcDbEntity
  8
1
  6
Continuous
100
AcDbLine
 10
569.262081
 20
237.830322
 30
0.0
 11
562.288718
 21
238.440412
 31
0.0
  0
ARC
  5
A9B1
330
A7A0
100
AcDbEntity
  8
1
  6
Continuous
100
AcDbCircle
 10
580.220223
 20
236.8716089999999
 30
0.0
 40
16.5
100
AcDbArc
 50
157.98041
 51
175.0
  0
ARC
  5
A9B2
330
A7A0
100
AcDbEntity
  8
1
  6
Continuous
100
AcDbCircle
 10
580.220223
 20
236.8716089999999
 30
0.0
 40
13.5
100
AcDbArc
 50
175.0
 51
205.0
  0
ARC
  5
A9B3
330
A7A0
100
AcDbEntity
  8
1
  6
Continuous
100
AcDbCircle
 10
580.220223
 20
236.8716089999999
 30
0.0
 40
11.0
100
AcDbArc
 50
175.0
 51
205.0
  0
LINE
  5
A9B4
330
A7A0
100
AcDbEntity
  8
1
  6
Continuous
100
AcDbLine
 10
570.6795120000001
 20
231.3966819999999
 30
0.0
 11
570.215865
 21
232.2065
 31
0.0
  0
ARC
  5
A9B5
330
A7A0
100
AcDbEntity
  8
1
  6
Continuous
100
AcDbCircle
 10
580.220223
 20
236.8716089999999
 30
0.0
 40
16.5
100
AcDbArc
 50
25.0
 51
53.54426899999999
  0
LINE
  5
A9B6
330
A7A0
100
AcDbEntity
  8
1
  6
Continuous
100
AcDbLine
 10
596.533763
 20
244.478737
 30
0.0
 11
590.189608
 21
241.5204099999999
 31
0.0
  0
ARC
  5
A9B7
330
A7A0
100
AcDbEntity
  8
1
  6
Continuous
100
AcDbCircle
 10
580.220223
 20
236.8716089999999
 30
0.0
 40
13.5
100
AcDbArc
 50
355.0
 51
25.0
  0
ARC
  5
A9B8
330
A7A0
100
AcDbEntity
  8
1
  6
Continuous
100
AcDbCircle
 10
580.220223
 20
236.8716089999999
 30
0.0
 40
11.0
100
AcDbArc
 50
355.0
 51
25.0
  0
LINE
  5
A9B9
330
A7A0
100
AcDbEntity
  8
1
  6
Continuous
100
AcDbLine
 10
380.420223
 20
228.4885299999999
 30
0.0
 11
385.920223
 21
228.4885299999999
 31
0.0
  0
LINE
  5
A9BA
330
A7A0
100
AcDbEntity
  8
1
  6
Continuous
100
AcDbLine
 10
381.920223
 20
222.996685
 30
0.0
 11
384.920223
 21
222.996685
 31
0.0
  0
LINE
  5
A9BB
330
A7A0
100
AcDbEntity
  8
1
  6
Continuous
100
AcDbLine
 10
380.420223
 20
224.9885299999998
 30
0.0
 11
384.920223
 21
224.9885299999998
 31
0.0
  0
ARC
  5
A9BC
330
A7A0
100
AcDbEntity
  8
1
  6
Continuous
100
AcDbCircle
 10
378.119823
 20
221.12167
 30
0.0
 40
3.800405999999998
100
AcDbArc
 50
296.5650479999998
 51
0.000003
  0
LINE
  5
A9BD
330
A7A0
100
AcDbEntity
  8
1
  6
Continuous
100
AcDbLine
 10
381.920223
 20
223.4885299999999
 30
0.0
 11
381.920223
 21
217.001957
 31
0.0
  0
LINE
  5
A9BE
330
A7A0
100
AcDbEntity
  8
1
  6
Continuous
100
AcDbLine
 10
379.62022
 20
217.6242719999999
 30
0.0
 11
379.62022
 21
217.001957
 31
0.0
  0
LINE
  5
A9BF
330
A7A0
100
AcDbEntity
  8
1
  6
Continuous
100
AcDbLine
 10
381.920223
 20
217.001957
 30
0.0
 11
379.62022
 21
217.001957
 31
0.0
  0
ARC
  5
A9C0
330
A7A0
100
AcDbEntity
  8
1
  6
Continuous
100
AcDbCircle
 10
378.119823
 20
223.113514
 30
0.0
 40
3.800405999999998
100
AcDbArc
 50
296.5650479999998
 51
15.04255799999999
  0
ARC
  5
A9C1
330
A7A0
100
AcDbEntity
  8
1
  6
Continuous
100
AcDbCircle
 10
380.420223
 20
223.4885299999999
 30
0.0
 40
1.5
100
AcDbArc
 50
0.000003
 51
90.00000300000001
  0
LINE
  5
A9C2
330
A7A0
100
AcDbEntity
  8
1
  6
Continuous
100
AcDbLine
 10
384.920223
 20
222.996685
 30
0.0
 11
384.920223
 21
224.9885299999998
 31
0.0
  0
LINE
  5
A9C3
330
A7A0
100
AcDbEntity
  8
1
  6
Continuous
100
AcDbLine
 10
385.920223
 20
226.4966849999999
 30
0.0
 11
384.920223
 21
222.996685
 31
0.0
  0
LINE
  5
A9C4
330
A7A0
100
AcDbEntity
  8
1
  6
Continuous
100
AcDbLine
 10
385.920223
 20
228.488537
 30
0.0
 11
384.9202079999998
 21
224.9885299999998
 31
0.0
  0
LINE
  5
A9C5
330
A7A0
100
AcDbEntity
  8
1
  6
Continuous
100
AcDbLine
 10
385.920223
 20
226.4966849999999
 30
0.0
 11
385.920223
 21
228.4885299999999
 31
0.0
  0
LINE
  5
A9C6
330
A7A0
100
AcDbEntity
  8
1
  6
Continuous
100
AcDbLine
 10
369.218223
 20
240.8715939999999
 30
0.0
 11
369.218223
 21
237.697547
 31
0.0
  0
LINE
  5
A9C7
330
A7A0
100
AcDbEntity
  8
1
  6
Continuous
100
AcDbLine
 10
370.0182229999999
 20
241.9736069999999
 30
0.0
 11
370.0182229999999
 21
238.92005
 31
0.0
  0
LINE
  5
A9C8
330
A7A0
100
AcDbEntity
  8
2
  6
Continuous
100
AcDbLine
 10
368.541723
 20
240.1950939999999
 30
0.0
 11
370.0182229999999
 21
240.1950939999999
 31
0.0
  0
ARC
  5
A9C9
330
A7A0
100
AcDbEntity
  8
1
  6
Continuous
100
AcDbCircle
 10
352.253124
 20
247.6750529999999
 30
0.0
 40
20.76305799999997
100
AcDbArc
 50
2.759138999999998
 51
3.716425
  0
LINE
  5
A9CA
330
A7A0
100
AcDbEntity
  8
1
  6
Continuous
100
AcDbLine
 10
369.218223
 20
240.8715939999999
 30
0.0
 11
370.0182229999999
 21
240.8715939999999
 31
0.0
  0
ARC
  5
A9CB
330
A7A0
100
AcDbEntity
  8
1
  6
Continuous
100
AcDbCircle
 10
374.2682229999999
 20
241.813222
 30
0.0
 40
3.25
100
AcDbArc
 50
151.34725
 51
194.462184
  0
LINE
  5
A9CC
330
A7A0
100
AcDbEntity
  8
1
  6
Continuous
100
AcDbLine
 10
371.4162229999999
 20
243.3715939999999
 30
0.0
 11
372.038495
 21
243.3715939999999
 31
0.0
  0
LINE
  5
A9CD
330
A7A0
100
AcDbEntity
  8
1
  6
Continuous
100
AcDbLine
 10
370.0182529999998
 20
241.9735989999999
 30
0.0
 11
371.4162329999999
 21
243.371583
 31
0.0
  0
LINE
  5
A9CE
330
A7A0
100
AcDbEntity
  8
1
  6
Continuous
100
AcDbLine
 10
370.7993119999999
 20
237.9885299999999
 30
0.0
 11
380.1568259999998
 21
237.9885299999999
 31
0.0
  0
ARC
  5
A9CF
330
A7A0
100
AcDbEntity
  8
1
  6
Continuous
100
AcDbCircle
 10
352.252788
 20
249.666859
 30
0.0
 40
20.76305799999997
100
AcDbArc
 50
325.7741129999998
 51
3.716425
  0
ARC
  5
A9D1
330
A7A0
100
AcDbEntity
  8
1
  6
Continuous
100
AcDbCircle
 10
204.720206
 20
60.37160899999999
 30
0.0
 40
2.5
100
AcDbArc
 50
180.0
 51
270.0
  0
LINE
  5
A9D2
330
A7A0
100
AcDbEntity
  8
1
  6
Continuous
100
AcDbLine
 10
202.554575
 20
59.12259200000001
 30
0.0
 11
203.509742
 21
55.55444300000001
 31
0.0
  0
ARC
  5
A9D3
330
A7A0
100
AcDbEntity
  8
1
  6
Continuous
100
AcDbCircle
 10
205.4417169999999
 20
56.07161899999999
 30
0.0
 40
2.0
100
AcDbArc
 50
194.986275
 51
270.0
  0
LINE
  5
A9D4
330
A7A0
100
AcDbEntity
  8
1
  6
Continuous
100
AcDbLine
 10
205.4417169999999
 20
54.07161899999999
 30
0.0
 11
209.262081
 21
54.07161899999999
 31
0.0
  0
LINE
  5
A9D5
330
A7A0
100
AcDbEntity
  8
1
  6
Continuous
100
AcDbLine
 10
206.033662
 20
55.07161899999999
 30
0.0
 11
209.262081
 21
55.07161899999999
 31
0.0
  0
LINE
  5
A9D6
330
A7A0
100
AcDbEntity
  8
1
  6
Continuous
100
AcDbLine
 10
209.262081
 20
54.07161899999999
 30
0.0
 11
209.262081
 21
55.07161899999999
 31
0.0
  0
LINE
  5
A9D7
330
A7A0
100
AcDbEntity
  8
1
  6
Continuous
100
AcDbLine
 10
206.7715939999999
 20
54.07161899999999
 30
0.0
 11
206.7715939999999
 21
55.07161899999999
 31
0.0
  0
LINE
  5
A9D8
330
A7A0
100
AcDbEntity
  8
1
  6
Continuous
100
AcDbLine
 10
209.262081
 20
54.07161899999999
 30
0.0
 11
209.262081
 21
55.07161899999999
 31
0.0
  0
LINE
  5
A9D9
330
A7A0
100
AcDbEntity
  8
1
  6
Continuous
100
AcDbLine
 10
204.514335
 20
57.88009999999999
 30
0.0
 11
205.067674
 21
55.813031
 31
0.0
  0
LINE
  5
A9DA
330
A7A0
100
AcDbEntity
  8
1
  6
Continuous
100
AcDbLine
 10
206.019785
 20
57.88009999999999
 30
0.0
 11
206.7715939999999
 21
55.07161899999999
 31
0.0
  0
ARC
  5
A9DB
330
A7A0
100
AcDbEntity
  8
1
  6
Continuous
100
AcDbCircle
 10
206.033662
 20
56.07161899999999
 30
0.0
 40
1.0
100
AcDbArc
 50
194.986275
 51
270.0
  0
ARC
  5
A9DC
330
A7A0
100
AcDbEntity
  8
1
  6
Continuous
100
AcDbCircle
 10
43.720223
 20
252.371625
 30
0.0
 40
2.5
100
AcDbArc
 50
90.0
 51
180.0
  0
ARC
  5
A9DD
330
A7A0
100
AcDbEntity
  8
1
  6
Continuous
100
AcDbCircle
 10
93.719809
 20
267.9622759999999
 30
0.0
 40
3.800405999999998
100
AcDbArc
 50
359.999997
 51
63.434952
  0
ARC
  5
A9DE
330
A7A0
100
AcDbEntity
  8
1
  6
Continuous
100
AcDbCircle
 10
79.320627
 20
267.9622759999999
 30
0.0
 40
3.800405999999998
100
AcDbArc
 50
116.5650469999998
 51
180.000005
  0
ARC
  5
A9DF
330
A7A0
100
AcDbEntity
  8
1
  6
Continuous
100
AcDbCircle
 10
86.52021600000002
 20
253.5631069999999
 30
0.0
 40
19.899187
100
AcDbArc
 50
63.434952
 51
116.5650469999998
  0
ARC
  5
A9E0
330
A7A0
100
AcDbEntity
  8
1
  6
Continuous
100
AcDbCircle
 10
86.52021600000002
 20
251.5712549999999
 30
0.0
 40
19.899187
100
AcDbArc
 50
63.434952
 51
116.5650469999998
  0
LINE
  5
A9E1
330
A7A0
100
AcDbEntity
  8
1
  6
Continuous
100
AcDbLine
 10
87.559324
 20
250.4314839999999
 30
0.0
 11
78.76634399999997
 21
250.4314839999999
 31
0.0
  0
ARC
  5
A9E2
330
A7A0
100
AcDbEntity
  8
1
  6
Continuous
100
AcDbCircle
 10
79.320627
 20
265.9704249999999
 30
0.0
 40
3.800405999999998
100
AcDbArc
 50
116.5650469999998
 51
171.3823689999999
  0
LINE
  5
A9E3
330
A7A0
100
AcDbEntity
  8
1
  6
Continuous
100
AcDbLine
 10
75.52021999999998
 20
266.5398829999999
 30
0.0
 11
75.52021999999998
 21
266.5398829999999
 31
0.0
  0
ARC
  5
A9E4
330
A7A0
100
AcDbEntity
  8
1
  6
Continuous
100
AcDbCircle
 10
75.52021999999998
 20
264.239895
 30
0.0
 40
2.299999999999998
100
AcDbArc
 50
359.999997
 51
90.00000300000001
  0
LINE
  5
A9E5
330
A7A0
100
AcDbEntity
  8
1
  6
Continuous
100
AcDbLine
 10
72.52021999999998
 20
257.0954249999999
 30
0.0
 11
72.52021999999998
 21
259.0872759999999
 31
0.0
  0
LINE
  5
A9E6
330
A7A0
100
AcDbEntity
  8
1
  6
Continuous
100
AcDbLine
 10
71.52021999999998
 20
255.5872759999997
 30
0.0
 11
71.52021999999998
 21
253.595425
 31
0.0
  0
LINE
  5
A9E7
330
A7A0
100
AcDbEntity
  8
1
  6
Continuous
100
AcDbLine
 10
75.52021999999998
 20
253.595425
 30
0.0
 11
71.52021999999998
 21
253.595425
 31
0.0
  0
LINE
  5
A9E8
330
A7A0
100
AcDbEntity
  8
1
  6
Continuous
100
AcDbLine
 10
75.52021999999998
 20
257.0954249999999
 30
0.0
 11
72.52021999999998
 21
257.0954249999999
 31
0.0
  0
LINE
  5
A9E9
330
A7A0
100
AcDbEntity
  8
1
  6
Continuous
100
AcDbLine
 10
71.52021600000002
 20
253.59544
 30
0.0
 11
72.520216
 21
257.0954249999999
 31
0.0
  0
LINE
  5
A9EA
330
A7A0
100
AcDbEntity
  8
1
  6
Continuous
100
AcDbLine
 10
75.52021999999998
 20
259.0872759999999
 30
0.0
 11
72.52021999999998
 21
259.0872759999999
 31
0.0
  0
LINE
  5
A9EB
330
A7A0
100
AcDbEntity
  8
1
  6
Continuous
100
AcDbLine
 10
71.52021999999998
 20
255.587292
 30
0.0
 11
72.520216
 21
259.0872919999998
 31
0.0
  0
ARC
  5
A9EC
330
A7A0
100
AcDbEntity
  8
1
  6
Continuous
100
AcDbCircle
 10
93.719809
 20
265.9704249999999
 30
0.0
 40
3.800405999999998
100
AcDbArc
 50
325.232387
 51
63.434952
  0
LINE
  5
A9ED
330
A7A0
100
AcDbEntity
  8
1
  6
Continuous
100
AcDbLine
 10
97.520216
 20
265.9704249999999
 30
0.0
 11
97.520216
 21
267.9622759999999
 31
0.0
  0
LINE
  5
A9EE
330
A7A0
100
AcDbEntity
  8
1
  6
Continuous
100
AcDbLine
 10
87.55933199999999
 20
250.4315
 30
0.0
 11
96.841757
 21
263.8032649999999
 31
0.0
  0
LINE
  5
A9EF
330
A7A0
100
AcDbEntity
  8
1
  6
Continuous
100
AcDbLine
 10
234.2790990000001
 20
54.54355699999999
 30
0.0
 11
237.5105819999999
 21
57.272359
 31
0.0
  0
LINE
  5
A9F0
330
A7A0
100
AcDbEntity
  8
1
  6
Continuous
100
AcDbLine
 10
232.743402
 20
54.33998199999999
 30
0.0
 11
236.5337629999999
 21
57.87160899999999
 31
0.0
  0
LINE
  5
A9F1
330
A7A0
100
AcDbEntity
  8
1
  6
Continuous
100
AcDbLine
 10
232.74995
 20
55.374974
 30
0.0
 11
235.1743009999999
 21
57.87160899999999
 31
0.0
  0
ARC
  5
A9F2
330
A7A0
100
AcDbEntity
  8
1
  6
Continuous
100
AcDbCircle
 10
232.988739
 20
56.07161899999999
 30
0.0
 40
2.0
100
AcDbArc
 50
270.0
 51
310.17916
  0
ARC
  5
A9F3
330
A7A0
100
AcDbEntity
  8
1
  6
Continuous
100
AcDbCircle
 10
235.7202389999999
 20
60.37160899999999
 30
0.0
 40
2.5
100
AcDbArc
 50
270.0
 51
0.0
  0
LINE
  5
A9F4
330
A7A0
100
AcDbEntity
  8
1
  6
Continuous
100
AcDbLine
 10
236.5337629999999
 20
57.87160899999999
 30
0.0
 11
236.5337629999999
 21
58.007676
 31
0.0
  0
LINE
  5
A9F5
330
A7A0
100
AcDbEntity
  8
1
  6
Continuous
100
AcDbLine
 10
238.220223
 20
58.80041999999999
 30
0.0
 11
238.220223
 21
60.37160899999999
 31
0.0
  0
ARC
  5
A9F6
330
A7A0
100
AcDbEntity
  8
1
  6
Continuous
100
AcDbCircle
 10
236.220223
 20
58.80041999999999
 30
0.0
 40
2.0
100
AcDbArc
 50
310.17916
 51
0.0
  0
LINE
  5
A9F7
330
A7A0
100
AcDbEntity
  8
1
  6
Continuous
100
AcDbLine
 10
230.189608
 20
54.07161899999999
 30
0.0
 11
230.189608
 21
55.07161899999999
 31
0.0
  0
LINE
  5
A9F8
330
A7A0
100
AcDbEntity
  8
1
  6
Continuous
100
AcDbLine
 10
230.189608
 20
55.07161899999999
 30
0.0
 11
232.032534
 21
55.07161899999999
 31
0.0
  0
ARC
  5
A9F9
330
A7A0
100
AcDbEntity
  8
1
  6
Continuous
100
AcDbCircle
 10
232.032534
 20
56.07161899999999
 30
0.0
 40
1.0
100
AcDbArc
 50
270.0
 51
315.8415499999998
  0
ARC
  5
A9FA
330
A7A0
100
AcDbEntity
  8
1
  6
Continuous
100
AcDbCircle
 10
232.0617069999999
 20
55.07161899999999
 30
0.0
 40
1.0
100
AcDbArc
 50
270.0
 51
312.976204
  0
LINE
  5
A9FB
330
A7A0
100
AcDbEntity
  8
1
  6
Continuous
100
AcDbLine
 10
230.189608
 20
54.07161899999999
 30
0.0
 11
232.988739
 21
54.07161899999999
 31
0.0
  0
LINE
  5
A9FC
330
A7A0
100
AcDbEntity
  8
1
  6
Continuous
100
AcDbLine
 10
368.9036209999999
 20
251.740902
 30
0.0
 11
360.5987049999998
 21
263.7045249999999
 31
0.0
  0
LINE
  5
A9FD
330
A7A0
100
AcDbEntity
  8
1
  6
Continuous
100
AcDbLine
 10
369.1203879999998
 20
253.7592509999999
 30
0.0
 11
360.627575
 21
265.6553769999998
 31
0.0
  0
ARC
  5
A9FE
330
A7A0
100
AcDbEntity
  8
1
  6
Continuous
100
AcDbCircle
 10
370.920223
 20
253.4643599999998
 30
0.0
 40
19.899187
100
AcDbArc
 50
66.64841199999999
 51
116.5650599999999
  0
ARC
  5
A9FF
330
A7A0
100
AcDbEntity
  8
1
  6
Continuous
100
AcDbCircle
 10
363.720638
 20
267.8635529999999
 30
0.0
 40
3.800405999999998
100
AcDbArc
 50
116.565033
 51
215.5235869999999
  0
ARC
  5
AA00
330
A7A0
100
AcDbEntity
  8
1
  6
Continuous
100
AcDbCircle
 10
363.720638
 20
265.8717009999999
 30
0.0
 40
3.800405999999998
100
AcDbArc
 50
179.9999909999999
 51
214.767608
  0
LINE
  5
AA01
330
A7A0
100
AcDbEntity
  8
1
  6
Continuous
100
AcDbLine
 10
359.920223
 20
267.8635529999999
 30
0.0
 11
359.920223
 21
265.8717009999999
 31
0.0
  0
ARC
  5
AA02
330
A7A0
100
AcDbEntity
  8
1
  6
Continuous
100
AcDbCircle
 10
369.9342609999998
 20
254.340283
 30
0.0
 40
1.0
100
AcDbArc
 50
215.52359
 51
278.3755439999998
  0
LINE
  5
AA03
330
A7A0
100
AcDbEntity
  8
1
  6
Continuous
100
AcDbLine
 10
370.4483139999999
 20
253.3779259999997
 30
0.0
 11
379.9933889999999
 21
253.3779259999997
 31
0.0
  0
ARC
  5
AA04
330
A7A0
100
AcDbEntity
  8
1
  6
Continuous
100
AcDbCircle
 10
220.220223
 20
236.8716089999999
 30
0.0
 40
44.0
100
AcDbArc
 50
343.0697059999999
 51
49.352389
  0
ARC
  5
AA05
330
A7A0
100
AcDbEntity
  8
1
  6
Continuous
100
AcDbCircle
 10
220.220223
 20
236.8716089999999
 30
0.0
 40
50.0
100
AcDbArc
 50
341.4784859999998
 51
51.12086099999999
  0
ARC
  5
AA06
330
A7A0
100
AcDbEntity
  8
1
  6
Continuous
100
AcDbCircle
 10
220.220223
 20
236.8716089999999
 30
0.0
 40
54.5
100
AcDbArc
 50
340.51942
 51
52.18563300000002
  0
ARC
  5
AA07
330
A7A0
100
AcDbEntity
  8
1
  6
Continuous
100
AcDbCircle
 10
220.220223
 20
236.8716089999999
 30
0.0
 40
31.0
100
AcDbArc
 50
156.160088
 51
323.8399189999999
  0
ARC
  5
AA08
330
A7A0
100
AcDbEntity
  8
1
  6
Continuous
100
AcDbCircle
 10
220.220223
 20
236.8716089999999
 30
0.0
 40
44.0
100
AcDbArc
 50
145.494774
 51
334.505226
  0
ARC
  5
AA09
330
A7A0
100
AcDbEntity
  8
1
  6
Continuous
100
AcDbCircle
 10
220.220223
 20
236.8716089999999
 30
0.0
 40
50.0
100
AcDbArc
 50
141.1991789999999
 51
338.8008279999999
  0
ARC
  5
AA0A
330
A7A0
100
AcDbEntity
  8
1
  6
Continuous
100
AcDbCircle
 10
220.220223
 20
236.8716089999999
 30
0.0
 40
54.5
100
AcDbArc
 50
141.9309179999999
 51
338.0690879999999
  0
ARC
  5
AA0B
330
A7A0
100
AcDbEntity
  8
1
  6
Continuous
100
AcDbCircle
 10
220.220223
 20
236.8716089999999
 30
0.0
 40
31.0
100
AcDbArc
 50
348.721453
 51
43.04634799999997
  0
LINE
  5
AA0C
330
A7A0
100
AcDbEntity
  8
1
  6
Continuous
100
AcDbLine
 10
73.220223
 20
253.595425
 30
0.0
 11
73.220223
 21
228.5872759999997
 31
0.0
  0
LINE
  5
AA0D
330
A7A0
100
AcDbEntity
  8
1
  6
Continuous
100
AcDbLine
 10
38.920233
 20
235.7676359999999
 30
0.0
 11
38.920233
 21
225.8716089999999
 31
0.0
  0
LINE
  5
AA0E
330
A7A0
100
AcDbEntity
  8
1
  6
Continuous
100
AcDbLine
 10
41.220223
 20
235.5449049999998
 30
0.0
 11
41.220223
 21
221.3715919999999
 31
0.0
  0
LINE
  5
AA0F
330
A7A0
100
AcDbEntity
  8
1
  6
Continuous
100
AcDbLine
 10
416.220223
 20
230.4319339999999
 30
0.0
 11
416.220223
 21
221.3715919999999
 31
0.0
  0
LINE
  5
AA10
330
A7A0
100
AcDbEntity
  8
1
  6
Continuous
100
AcDbLine
 10
418.520213
 20
231.506002
 30
0.0
 11
418.520213
 21
225.8716089999999
 31
0.0
  0
LINE
  5
AA11
330
A7A0
100
AcDbEntity
  8
1
  6
Continuous
100
AcDbLine
 10
235.496543
 20
55.57161899999999
 30
0.0
 11
243.3228559999998
 21
55.57161899999999
 31
0.0
  0
LINE
  5
AA12
330
A7A0
100
AcDbEntity
  8
1
  6
Continuous
100
AcDbLine
 10
237.991468
 20
57.87160899999999
 30
0.0
 11
243.3228689999999
 21
57.87160899999999
 31
0.0
  0
ARC
  5
AA13
330
A7A0
100
AcDbEntity
  8
1
  6
Continuous
100
AcDbCircle
 10
204.720206
 20
439.3716089999998
 30
0.0
 40
2.5
100
AcDbArc
 50
90.0
 51
180.0
  0
LINE
  5
AA14
330
A7A0
100
AcDbEntity
  8
1
  6
Continuous
100
AcDbLine
 10
202.554575
 20
440.620625
 30
0.0
 11
203.509742
 21
444.188774
 31
0.0
  0
LINE
  5
AA16
330
A7A0
100
AcDbEntity
  8
1
  6
Continuous
100
AcDbLine
 10
204.720206
 20
441.871609
 30
0.0
 11
213.2340996537611
 21
441.871609
 31
0.0
  0
LINE
  5
AA17
330
A7A0
100
AcDbEntity
  8
1
  6
Continuous
100
AcDbLine
 10
206.033662
 20
444.671599
 30
0.0
 11
209.262081
 21
444.671599
 31
0.0
  0
LINE
  5
AA18
330
A7A0
100
AcDbEntity
  8
1
  6
Continuous
100
AcDbLine
 10
209.262081
 20
445.671599
 30
0.0
 11
209.262081
 21
444.671599
 31
0.0
  0
LINE
  5
AA19
330
A7A0
100
AcDbEntity
  8
1
  6
Continuous
100
AcDbLine
 10
206.7715939999999
 20
445.671599
 30
0.0
 11
206.7715939999999
 21
444.671599
 31
0.0
  0
LINE
  5
AA1A
330
A7A0
100
AcDbEntity
  8
1
  6
Continuous
100
AcDbLine
 10
209.262081
 20
445.671599
 30
0.0
 11
209.262081
 21
444.671599
 31
0.0
  0
LINE
  5
AA1B
330
A7A0
100
AcDbEntity
  8
1
  6
Continuous
100
AcDbLine
 10
206.019785
 20
441.863118
 30
0.0
 11
206.7715939999999
 21
444.671599
 31
0.0
  0
ARC
  5
AA1C
330
A7A0
100
AcDbEntity
  8
1
  6
Continuous
100
AcDbCircle
 10
205.4417169999999
 20
443.671599
 30
0.0
 40
2.0
100
AcDbArc
 50
90.0
 51
165.013725
  0
LINE
  5
AA1D
330
A7A0
100
AcDbEntity
  8
1
  6
Continuous
100
AcDbLine
 10
204.514335
 20
441.863118
 30
0.0
 11
205.067674
 21
443.9301859999998
 31
0.0
  0
LINE
  5
AA1E
330
A7A0
100
AcDbEntity
  8
1
  6
Continuous
100
AcDbLine
 10
205.4417169999999
 20
445.671599
 30
0.0
 11
209.262081
 21
445.671599
 31
0.0
  0
ARC
  5
AA1F
330
A7A0
100
AcDbEntity
  8
1
  6
Continuous
100
AcDbCircle
 10
206.033662
 20
443.671599
 30
0.0
 40
1.0
100
AcDbArc
 50
90.0
 51
165.013725
  0
ARC
  5
AA22
330
A7A0
100
AcDbEntity
  8
1
  6
Continuous
100
AcDbCircle
 10
217.2202229999999
 20
402.511209
 30
0.0
 40
6.841600999999998
100
AcDbArc
 50
257.3616059999998
 51
296.0078240000001
  0
LINE
  5
AA23
330
A7A0
100
AcDbEntity
  8
1
  6
Continuous
100
AcDbLine
 10
190.7131259999999
 20
386.1548299999999
 30
0.0
 11
215.8430089999999
 21
395.8817129999998
 31
0.0
  0
ARC
  5
AA24
330
A7A0
100
AcDbEntity
  8
1
  6
Continuous
100
AcDbCircle
 10
187.5906589999999
 20
398.921355
 30
0.0
 40
8.650256
100
AcDbArc
 50
90.00000300000001
 51
139.1065419999998
  0
ARC
  5
AA25
330
A7A0
100
AcDbEntity
  8
1
  6
Continuous
100
AcDbCircle
 10
186.440665
 20
398.921355
 30
0.0
 40
8.650256
100
AcDbArc
 50
90.00000300000001
 51
139.1065419999998
  0
ARC
  5
AA26
330
A7A0
100
AcDbEntity
  8
1
  6
Continuous
100
AcDbCircle
 10
187.5906589999999
 20
394.221877
 30
0.0
 40
8.650256
100
AcDbArc
 50
220.893458
 51
291.1596369999998
  0
ARC
  5
AA27
330
A7A0
100
AcDbEntity
  8
1
  6
Continuous
100
AcDbCircle
 10
186.440665
 20
394.221877
 30
0.0
 40
8.650256
100
AcDbArc
 50
220.893458
 51
269.9999969999999
  0
ARC
  5
AA28
330
A7A0
100
AcDbEntity
  8
1
  6
Continuous
100
AcDbCircle
 10
190.3038999999999
 20
396.5716089999999
 30
0.0
 40
12.239545
100
AcDbArc
 50
139.1065419999998
 51
220.893454
  0
ARC
  5
AA29
330
A7A0
100
AcDbEntity
  8
1
  6
Continuous
100
AcDbCircle
 10
189.153906
 20
396.5716089999999
 30
0.0
 40
12.239545
100
AcDbArc
 50
139.1065419999998
 51
220.893454
  0
ARC
  5
AA2A
330
A7A0
100
AcDbEntity
  8
5
  6
PHANTOM
100
AcDbCircle
 10
179.034267
 20
396.5716089999999
 30
0.0
 40
12.202099
100
AcDbArc
 50
138.994524
 51
221.0054759999999
  0
ARC
  5
AA2B
330
A7A0
100
AcDbEntity
  8
5
  6
PHANTOM
100
AcDbCircle
 10
176.3961679999999
 20
394.277902
 30
0.0
 40
8.706292999999996
100
AcDbArc
 50
221.0054759999999
 51
270.0
  0
ARC
  5
AA2C
330
A7A0
100
AcDbEntity
  8
5
  6
PHANTOM
100
AcDbCircle
 10
176.3961679999999
 20
398.865316
 30
0.0
 40
8.706292999999996
100
AcDbArc
 50
90.0
 51
138.994524
  0
LINE
  5
AA2D
330
A7A0
100
AcDbEntity
  8
1
  6
Continuous
100
AcDbLine
 10
186.440665
 20
385.5716089999999
 30
0.0
 11
187.5906589999999
 21
385.5716089999999
 31
0.0
  0
LINE
  5
AA2E
330
A7A0
100
AcDbEntity
  8
1
  6
Continuous
100
AcDbLine
 10
186.440665
 20
407.5716089999998
 30
0.0
 11
201.462637
 21
407.5716089999998
 31
0.0
  0
LINE
  5
AA2F
330
A7A0
100
AcDbEntity
  8
1
  6
Continuous
100
AcDbLine
 10
206.4300929999999
 20
411.1435919999998
 30
0.0
 11
202.9626369999999
 21
410.5716089999998
 31
0.0
  0
LINE
  5
AA30
330
A7A0
100
AcDbEntity
  8
1
  6
Continuous
100
AcDbLine
 10
206.153924
 20
411.2877359999997
 30
0.0
 11
201.812644
 21
410.5716089999998
 31
0.0
  0
LINE
  5
AA31
330
A7A0
100
AcDbEntity
  8
1
  6
Continuous
100
AcDbLine
 10
202.9626369999999
 20
406.0716089999998
 30
0.0
 11
202.9626369999999
 21
410.5716089999998
 31
0.0
  0
LINE
  5
AA32
330
A7A0
100
AcDbEntity
  8
1
  6
Continuous
100
AcDbLine
 10
201.812644
 20
407.5716089999998
 30
0.0
 11
201.812644
 21
410.5716089999998
 31
0.0
  0
LINE
  5
AA33
330
A7A0
100
AcDbEntity
  8
1
  6
Continuous
100
AcDbLine
 10
201.812644
 20
410.5716089999998
 30
0.0
 11
202.9626369999999
 21
410.5716089999998
 31
0.0
  0
ARC
  5
AA34
330
A7A0
100
AcDbEntity
  8
1
  6
Continuous
100
AcDbCircle
 10
201.462637
 20
406.0716089999998
 30
0.0
 40
1.5
100
AcDbArc
 50
0.0
 51
90.00000300000001
  0
LINE
  5
AA35
330
A7A0
100
AcDbEntity
  8
1
  6
Continuous
100
AcDbLine
 10
209.0248169999999
 20
406.406051
 30
0.0
 11
209.0248169999999
 21
410.8716089999998
 31
0.0
  0
LINE
  5
AA38
330
A7A0
100
AcDbEntity
  8
1
  6
Continuous
100
AcDbLine
 10
239.3356999999999
 20
395.0716089999998
 30
0.0
 11
261.36343
 21
386.420268
 31
0.0
  0
LINE
  5
AA39
330
A7A0
100
AcDbEntity
  8
1
  6
Continuous
100
AcDbLine
 10
238.185706
 20
395.0716239999999
 30
0.0
 11
260.780249
 21
386.173278
 31
0.0
  0
LINE
  5
AA3A
330
A7A0
100
AcDbEntity
  8
1
  6
Continuous
100
AcDbLine
 10
226.220223
 20
396.871609
 30
0.0
 11
226.220223
 21
396.362429
 31
0.0
  0
ARC
  5
AA3B
330
A7A0
100
AcDbEntity
  8
1
  6
Continuous
100
AcDbCircle
 10
246.788092
 20
315.9334709999999
 30
0.0
 40
85.728165
100
AcDbArc
 50
109.243677
 51
111.159635
  0
LINE
  5
AA3C
330
A7A0
100
AcDbEntity
  8
1
  6
Continuous
100
AcDbLine
 10
217.470223
 20
395.6696089999999
 30
0.0
 11
222.970223
 21
395.6696089999999
 31
0.0
  0
LINE
  5
AA3D
330
A7A0
100
AcDbEntity
  8
1
  6
Continuous
100
AcDbLine
 10
220.220223
 20
397.4409339999998
 30
0.0
 11
220.220223
 21
396.362429
 31
0.0
  0
ARC
  5
AA3E
330
A7A0
100
AcDbEntity
  8
1
  6
Continuous
100
AcDbCircle
 10
223.2202229999999
 20
402.511209
 30
0.0
 40
6.841600999999998
100
AcDbArc
 50
243.992176
 51
296.0078240000001
  0
LINE
  5
AA3F
330
A7A0
100
AcDbEntity
  8
1
  6
Continuous
100
AcDbLine
 10
224.220223
 20
394.8696089999998
 30
0.0
 11
216.220223
 21
394.8696089999998
 31
0.0
  0
LINE
  5
AA40
330
A7A0
100
AcDbEntity
  8
1
  6
Continuous
100
AcDbLine
 10
223.0202229999999
 20
393.6696089999998
 30
0.0
 11
217.420223
 21
393.6696089999998
 31
0.0
  0
LINE
  5
AA41
330
A7A0
100
AcDbEntity
  8
1
  6
Continuous
100
AcDbLine
 10
217.420223
 20
393.6696089999998
 30
0.0
 11
216.220223
 21
394.8696089999998
 31
0.0
  0
LINE
  5
AA42
330
A7A0
100
AcDbEntity
  8
1
  6
Continuous
100
AcDbLine
 10
223.0202229999999
 20
393.6696089999998
 30
0.0
 11
224.220223
 21
394.8696089999998
 31
0.0
  0
LINE
  5
AA43
330
A7A0
100
AcDbEntity
  8
1
  6
Continuous
100
AcDbLine
 10
216.220223
 20
394.8696089999998
 30
0.0
 11
216.220223
 21
395.6696089999999
 31
0.0
  0
LINE
  5
AA44
330
A7A0
100
AcDbEntity
  8
2
  6
Continuous
100
AcDbLine
 10
216.896723
 20
394.193109
 30
0.0
 11
216.896723
 21
395.6696089999999
 31
0.0
  0
LINE
  5
AA45
330
A7A0
100
AcDbEntity
  8
1
  6
Continuous
100
AcDbLine
 10
224.220223
 20
394.8696089999998
 30
0.0
 11
224.220223
 21
395.6696089999999
 31
0.0
  0
LINE
  5
AA46
330
A7A0
100
AcDbEntity
  8
2
  6
Continuous
100
AcDbLine
 10
223.543723
 20
394.193109
 30
0.0
 11
223.543723
 21
395.6696089999999
 31
0.0
  0
ARC
  5
AA47
330
A7A0
100
AcDbEntity
  8
1
  6
Continuous
100
AcDbCircle
 10
227.7473049999999
 20
384.4907219999998
 30
0.0
 40
14.874959
100
AcDbArc
 50
45.39152799999999
 51
56.33892000000001
  0
ARC
  5
AA48
330
A7A0
100
AcDbEntity
  8
1
  6
Continuous
100
AcDbCircle
 10
228.897299
 20
384.4907219999998
 30
0.0
 40
14.874959
100
AcDbArc
 50
45.39152799999999
 51
56.33892000000001
  0
ARC
  5
AA49
330
A7A0
100
AcDbEntity
  8
1
  6
Continuous
100
AcDbCircle
 10
262.3867399999999
 20
396.5716089999999
 30
0.0
 40
12.239545
100
AcDbArc
 50
319.106544
 51
1.404500999999998
  0
ARC
  5
AA4A
330
A7A0
100
AcDbEntity
  8
1
  6
Continuous
100
AcDbCircle
 10
265.099982
 20
394.221877
 30
0.0
 40
8.650256
100
AcDbArc
 50
244.407436
 51
319.106544
  0
ARC
  5
AA4B
330
A7A0
100
AcDbEntity
  8
1
  6
Continuous
100
AcDbCircle
 10
263.9499879999998
 20
394.221877
 30
0.0
 40
8.650256
100
AcDbArc
 50
248.5041559999999
 51
269.9999969999999
  0
LINE
  5
AA4C
330
A7A0
100
AcDbEntity
  8
1
  6
Continuous
100
AcDbLine
 10
263.9499879999998
 20
385.5716089999999
 30
0.0
 11
265.099982
 21
385.5716089999999
 31
0.0
  0
ARC
  5
AA73
330
A7A0
100
AcDbEntity
  8
1
  6
Continuous
100
AcDbCircle
 10
226.5972919999999
 20
115.252496
 30
0.0
 40
14.874959
100
AcDbArc
 50
268.547438
 51
314.60477
  0
LINE
  5
AA74
330
A7A0
100
AcDbEntity
  8
1
  6
Continuous
100
AcDbLine
 10
224.220223
 20
104.873609
 30
0.0
 11
224.220223
 21
104.073609
 31
0.0
  0
LINE
  5
AA75
330
A7A0
100
AcDbEntity
  8
2
  6
Continuous
100
AcDbLine
 10
223.543723
 20
105.550109
 30
0.0
 11
223.543723
 21
104.073609
 31
0.0
  0
LINE
  5
AA76
330
A7A0
100
AcDbEntity
  8
1
  6
Continuous
100
AcDbLine
 10
216.220223
 20
104.873609
 30
0.0
 11
216.220223
 21
104.073609
 31
0.0
  0
LINE
  5
AA77
330
A7A0
100
AcDbEntity
  8
2
  6
Continuous
100
AcDbLine
 10
216.896723
 20
105.550109
 30
0.0
 11
216.896723
 21
104.073609
 31
0.0
  0
ARC
  5
AA78
330
A7A0
100
AcDbEntity
  8
5
  6
PHANTOM
100
AcDbCircle
 10
179.034267
 20
103.170746
 30
0.0
 40
12.202099
100
AcDbArc
 50
138.994524
 51
221.0054759999999
  0
LINE
  5
AA8C
330
A7A0
100
AcDbEntity
  8
1
  6
Continuous
100
AcDbLine
 10
189.5082419999999
 20
113.5856939999999
 30
0.0
 11
214.759035
 21
103.8359959999997
 31
0.0
  0
LINE
  5
AA8D
330
A7A0
100
AcDbEntity
  8
1
  6
Continuous
100
AcDbLine
 10
188.358248
 20
113.5856939999999
 30
0.0
 11
213.6090419999999
 21
103.835988
 31
0.0
  0
LINE
  5
AA8E
330
A7A0
100
AcDbEntity
  8
1
  6
Continuous
100
AcDbLine
 10
207.229841
 20
96.971612
 30
0.0
 11
233.2106039999999
 21
96.971612
 31
0.0
  0
LINE
  5
AA8F
330
A7A0
100
AcDbEntity
  8
1
  6
Continuous
100
AcDbLine
 10
185.6500269999999
 20
94.471612
 30
0.0
 11
261.963427
 21
94.471612
 31
0.0
  0
LINE
  5
AA90
330
A7A0
100
AcDbEntity
  8
1
  6
Continuous
100
AcDbLine
 10
183.350024
 20
92.17160900000001
 30
0.0
 11
263.949969
 21
92.17160900000001
 31
0.0
  0
ARC
  5
AA91
330
A7A0
100
AcDbEntity
  8
5
  6
PHANTOM
100
AcDbCircle
 10
176.3961679999999
 20
100.8770399999999
 30
0.0
 40
8.706292999999996
100
AcDbArc
 50
221.0054759999999
 51
270.0
  0
ARC
  5
AA92
330
A7A0
100
AcDbEntity
  8
1
  6
Continuous
100
AcDbCircle
 10
185.6500269999999
 20
92.17160900000001
 30
0.0
 40
2.299999999999998
100
AcDbArc
 50
90.00000300000001
 51
180.000005
  0
LINE
  5
AA93
330
A7A0
100
AcDbEntity
  8
1
  6
Continuous
100
AcDbLine
 10
183.350024
 20
92.17160900000001
 30
0.0
 11
183.350024
 21
92.17160900000001
 31
0.0
  0
LINE
  5
AA94
330
A7A0
100
AcDbEntity
  8
1
  6
Continuous
100
AcDbLine
 10
204.2913229999999
 20
92.17160900000001
 30
0.0
 11
204.2913229999999
 21
94.471612
 31
0.0
  0
LINE
  5
AA95
330
A7A0
100
AcDbEntity
  8
1
  6
Continuous
100
AcDbLine
 10
195.4090449999999
 20
92.17160900000001
 30
0.0
 11
195.4090449999999
 21
94.471612
 31
0.0
  0
LINE
  5
AA96
330
A7A0
100
AcDbEntity
  8
1
  6
Continuous
100
AcDbLine
 10
206.72481
 20
88.17160900000002
 30
0.0
 11
207.874804
 21
88.17160900000002
 31
0.0
  0
LINE
  5
AA97
330
A7A0
100
AcDbEntity
  8
1
  6
Continuous
100
AcDbLine
 10
206.724795
 20
88.17160499999998
 30
0.0
 11
200.6626149999999
 21
89.17160499999999
 31
0.0
  0
LINE
  5
AA98
330
A7A0
100
AcDbEntity
  8
1
  6
Continuous
100
AcDbLine
 10
207.874804
 20
92.17160900000001
 30
0.0
 11
207.874804
 21
88.17160900000002
 31
0.0
  0
LINE
  5
AA99
330
A7A0
100
AcDbEntity
  8
1
  6
Continuous
100
AcDbLine
 10
200.66263
 20
92.17160900000001
 30
0.0
 11
200.66263
 21
89.171609
 31
0.0
  0
LINE
  5
AA9A
330
A7A0
100
AcDbEntity
  8
1
  6
Continuous
100
AcDbLine
 10
206.72481
 20
92.17160900000001
 30
0.0
 11
206.72481
 21
88.17160900000002
 31
0.0
  0
LINE
  5
AA9B
330
A7A0
100
AcDbEntity
  8
1
  6
Continuous
100
AcDbLine
 10
207.229841
 20
96.971612
 30
0.0
 11
207.229841
 21
94.471612
 31
0.0
  0
ARC
  5
AA9C
330
A7A0
100
AcDbEntity
  8
1
  6
Continuous
100
AcDbCircle
 10
227.7472859999999
 20
115.252496
 30
0.0
 40
14.874959
100
AcDbArc
 50
264.1076339999999
 51
267.7846599999999
  0
LINE
  5
AA9D
330
A7A0
100
AcDbEntity
  8
1
  6
Continuous
100
AcDbLine
 10
211.720223
 20
98.17161200000001
 30
0.0
 11
228.720223
 21
98.17161200000001
 31
0.0
  0
ARC
  5
AA9E
330
A7A0
100
AcDbEntity
  8
1
  6
Continuous
100
AcDbCircle
 10
223.2718259999999
 20
93.592738
 30
0.0
 40
6.841600999999998
100
AcDbArc
 50
42.010696
 51
116.487702
  0
LINE
  5
AA9F
330
A7A0
100
AcDbEntity
  8
1
  6
Continuous
100
AcDbLine
 10
226.220223
 20
99.76642900000001
 30
0.0
 11
226.220223
 21
103.3807879999999
 31
0.0
  0
LINE
  5
AAA0
330
A7A0
100
AcDbEntity
  8
1
  6
Continuous
100
AcDbLine
 10
211.720223
 20
96.971612
 30
0.0
 11
211.720223
 21
98.17161200000001
 31
0.0
  0
LINE
  5
AAA1
330
A7A0
100
AcDbEntity
  8
1
  6
Continuous
100
AcDbLine
 10
216.220223
 20
96.971612
 30
0.0
 11
216.220223
 21
96.35623000000002
 31
0.0
  0
LINE
  5
AAA2
330
A7A0
100
AcDbEntity
  8
1
  6
Continuous
100
AcDbLine
 10
224.220223
 20
96.971612
 30
0.0
 11
224.220223
 21
96.81734200000001
 31
0.0
  0
LINE
  5
AAA3
330
A7A0
100
AcDbEntity
  8
2
  6
Continuous
100
AcDbLine
 10
223.543723
 20
96.971612
 30
0.0
 11
223.543723
 21
96.51915999999999
 31
0.0
  0
LINE
  5
AAA4
330
A7A0
100
AcDbEntity
  8
1
  6
Continuous
100
AcDbLine
 10
211.0549339999999
 20
103.133797
 30
0.0
 11
211.0549339999999
 21
99.471612
 31
0.0
  0
ARC
  5
AAA5
330
A7A0
100
AcDbEntity
  8
1
  6
Continuous
100
AcDbCircle
 10
245.638079
 20
183.8097389999999
 30
0.0
 40
85.728165
100
AcDbArc
 50
248.8876919999999
 51
249.099962
  0
ARC
  5
AAA6
330
A7A0
100
AcDbEntity
  8
1
  6
Continuous
100
AcDbCircle
 10
244.488085
 20
183.8097389999999
 30
0.0
 40
85.728165
100
AcDbArc
 50
248.8876919999999
 51
249.514114
  0
ARC
  5
AAA7
330
A7A0
100
AcDbEntity
  8
1
  6
Continuous
100
AcDbCircle
 10
217.2720369999999
 20
93.542486
 30
0.0
 40
6.841600999999998
100
AcDbArc
 50
64.472054
 51
137.4203559999999
  0
LINE
  5
AAA8
330
A7A0
100
AcDbEntity
  8
1
  6
Continuous
100
AcDbLine
 10
217.470223
 20
104.073609
 30
0.0
 11
222.970223
 21
104.073609
 31
0.0
  0
ARC
  5
AAA9
330
A7A0
100
AcDbEntity
  8
1
  6
Continuous
100
AcDbCircle
 10
217.2202229999999
 20
97.232008
 30
0.0
 40
6.841600999999998
100
AcDbArc
 50
63.992176
 51
116.007824
  0
LINE
  5
AAAA
330
A7A0
100
AcDbEntity
  8
1
  6
Continuous
100
AcDbLine
 10
214.220223
 20
99.76642900000001
 30
0.0
 11
214.220223
 21
103.3807879999999
 31
0.0
  0
LINE
  5
AAAB
330
A7A0
100
AcDbEntity
  8
1
  6
Continuous
100
AcDbLine
 10
220.220223
 20
99.073609
 30
0.0
 11
220.220223
 21
103.3807879999999
 31
0.0
  0
ARC
  5
AAAC
330
A7A0
100
AcDbEntity
  8
1
  6
Continuous
100
AcDbCircle
 10
223.2202229999999
 20
97.232008
 30
0.0
 40
6.841600999999998
100
AcDbArc
 50
63.992176
 51
116.007824
  0
LINE
  5
AAAD
330
A7A0
100
AcDbEntity
  8
2
  6
Continuous
100
AcDbLine
 10
216.896723
 20
96.971612
 30
0.0
 11
216.896723
 21
95.16678500000001
 31
0.0
  0
LINE
  5
AAAE
330
A7A0
100
AcDbEntity
  8
1
  6
Continuous
100
AcDbLine
 10
215.870223
 20
96.971612
 30
0.0
 11
217.2921039999998
 21
94.471612
 31
0.0
  0
LINE
  5
AAAF
330
A7A0
100
AcDbEntity
  8
1
  6
Continuous
100
AcDbLine
 10
224.570223
 20
96.971612
 30
0.0
 11
218.898342
 21
94.471612
 31
0.0
  0
LINE
  5
AAB0
330
A7A0
100
AcDbEntity
  8
1
  6
Continuous
100
AcDbLine
 10
228.720223
 20
96.971612
 30
0.0
 11
228.720223
 21
98.17161200000001
 31
0.0
  0
LINE
  5
AAB1
330
A7A0
100
AcDbEntity
  8
1
  6
Continuous
100
AcDbLine
 10
237.035708
 20
103.133797
 30
0.0
 11
237.035708
 21
96.382027
 31
0.0
  0
LINE
  5
AAB2
330
A7A0
100
AcDbEntity
  8
1
  6
Continuous
100
AcDbLine
 10
241.481585
 20
92.17160900000001
 30
0.0
 11
241.481585
 21
94.471612
 31
0.0
  0
LINE
  5
AAB3
330
A7A0
100
AcDbEntity
  8
1
  6
Continuous
100
AcDbLine
 10
228.099306
 20
92.17160900000001
 30
0.0
 11
228.099306
 21
94.471612
 31
0.0
  0
LINE
  5
AAB4
330
A7A0
100
AcDbEntity
  8
1
  6
Continuous
100
AcDbLine
 10
233.2106039999999
 20
96.971612
 30
0.0
 11
233.2106039999999
 21
94.471612
 31
0.0
  0
LINE
  5
AAB5
330
A7A0
100
AcDbEntity
  8
1
  6
Continuous
100
AcDbLine
 10
254.6401689999999
 20
88.17160900000002
 30
0.0
 11
260.7023639999998
 21
89.17161299999998
 31
0.0
  0
LINE
  5
AAB6
330
A7A0
100
AcDbEntity
  8
1
  6
Continuous
100
AcDbLine
 10
254.6401689999999
 20
88.17160900000002
 30
0.0
 11
260.7023639999998
 21
89.17161299999998
 31
0.0
  0
LINE
  5
AAB7
330
A7A0
100
AcDbEntity
  8
1
  6
Continuous
100
AcDbLine
 10
253.4901759999999
 20
88.17160499999998
 30
0.0
 11
259.55237
 21
89.17160499999999
 31
0.0
  0
LINE
  5
AAB8
330
A7A0
100
AcDbEntity
  8
1
  6
Continuous
100
AcDbLine
 10
253.490191
 20
88.17160900000002
 30
0.0
 11
254.640154
 21
88.17160900000002
 31
0.0
  0
LINE
  5
AAB9
330
A7A0
100
AcDbEntity
  8
1
  6
Continuous
100
AcDbLine
 10
253.490191
 20
92.17160900000001
 30
0.0
 11
253.490191
 21
88.17160900000002
 31
0.0
  0
ARC
  5
AABA
330
A7A0
100
AcDbEntity
  8
1
  6
Continuous
100
AcDbCircle
 10
261.963427
 20
92.17160900000001
 30
0.0
 40
2.299999999999998
100
AcDbArc
 50
0.8506262898771812
 51
90.00000300000001
  0
LINE
  5
AABC
330
A7A0
100
AcDbEntity
  8
1
  6
Continuous
100
AcDbLine
 10
259.5523549999999
 20
89.171609
 30
0.0
 11
260.702349
 21
89.171609
 31
0.0
  0
LINE
  5
AABD
330
A7A0
100
AcDbEntity
  8
1
  6
Continuous
100
AcDbLine
 10
260.702349
 20
92.17160900000001
 30
0.0
 11
260.702349
 21
89.171609
 31
0.0
  0
LINE
  5
AABE
330
A7A0
100
AcDbEntity
  8
1
  6
Continuous
100
AcDbLine
 10
259.5523549999999
 20
92.17160900000001
 30
0.0
 11
259.5523549999999
 21
89.171609
 31
0.0
  0
ARC
  5
AABF
330
A7A0
100
AcDbEntity
  8
5
  6
PHANTOM
100
AcDbCircle
 10
176.3961679999999
 20
105.464453
 30
0.0
 40
8.706292999999996
100
AcDbArc
 50
90.0
 51
138.994524
  0
LINE
  5
AAD3
330
A7A0
100
AcDbEntity
  8
1
  6
Continuous
100
AcDbLine
 10
237.035708
 20
104.6715969999999
 30
0.0
 11
259.7323939999998
 21
113.585687
 31
0.0
  0
LINE
  5
AAD4
330
A7A0
100
AcDbEntity
  8
1
  6
Continuous
100
AcDbLine
 10
223.0202229999999
 20
106.073609
 30
0.0
 11
224.220223
 21
104.873609
 31
0.0
  0
LINE
  5
AAD5
330
A7A0
100
AcDbEntity
  8
1
  6
Continuous
100
AcDbLine
 10
217.420223
 20
106.073609
 30
0.0
 11
216.220223
 21
104.873609
 31
0.0
  0
LINE
  5
AAD6
330
A7A0
100
AcDbEntity
  8
1
  6
Continuous
100
AcDbLine
 10
224.220223
 20
104.873609
 30
0.0
 11
216.220223
 21
104.873609
 31
0.0
  0
LINE
  5
AAD7
330
A7A0
100
AcDbEntity
  8
1
  6
Continuous
100
AcDbLine
 10
223.0202229999999
 20
106.073609
 30
0.0
 11
217.420223
 21
106.073609
 31
0.0
  0
ARC
  5
AAD8
330
A7A0
100
AcDbEntity
  8
1
  6
Continuous
100
AcDbCircle
 10
262.2202229999999
 20
73.87160899999997
 30
0.0
 40
17.7
100
AcDbArc
 50
119.5525849999999
 51
130.296143
  0
ARC
  5
AAD9
330
A7A0
100
AcDbEntity
  8
1
  6
Continuous
100
AcDbCircle
 10
221.2202229999999
 20
53.871609
 30
0.0
 40
4.4
100
AcDbArc
 50
199.9318539999999
 51
343.500132
  0
LINE
  5
AADA
330
A7A0
100
AcDbEntity
  8
1
  6
Continuous
100
AcDbLine
 10
215.970223
 20
52.371639
 30
0.0
 11
224.470223
 21
52.371639
 31
0.0
  0
ARC
  5
AADB
330
A7A0
100
AcDbEntity
  8
1
  6
Continuous
100
AcDbCircle
 10
215.970223
 20
54.371639
 30
0.0
 40
2.0
100
AcDbArc
 50
180.0000179999999
 51
270.0
  0
LINE
  5
AADC
330
A7A0
100
AcDbEntity
  8
1
  6
Continuous
100
AcDbLine
 10
213.970223
 20
55.57161899999999
 30
0.0
 11
213.970223
 21
54.371639
 31
0.0
  0
LINE
  5
AADD
330
A7A0
100
AcDbEntity
  8
1
  6
Continuous
100
AcDbLine
 10
226.470223
 20
55.57161899999999
 30
0.0
 11
226.470223
 21
54.371639
 31
0.0
  0
ARC
  5
AADE
330
A7A0
100
AcDbEntity
  8
1
  6
Continuous
100
AcDbCircle
 10
224.470223
 20
54.371639
 30
0.0
 40
2.0
100
AcDbArc
 50
270.0
 51
359.9999799999998
  0
CIRCLE
  5
AAE1
330
A7A0
100
AcDbEntity
  8
1
  6
Continuous
100
AcDbCircle
 10
220.220223
 20
236.8716089999999
 30
0.0
 40
8.5
  0
ARC
  5
AB04
330
A7A0
100
AcDbEntity
  8
1
  6
Continuous
100
AcDbCircle
 10
188.0114888801114
 20
103.1716027515657
 30
0.0
 40
12.239545
100
AcDbArc
 50
139.1065419999998
 51
220.893454
  0
ARC
  5
AB05
330
A7A0
100
AcDbEntity
  8
1
  6
Continuous
100
AcDbCircle
 10
185.2982478801114
 20
105.5213487515659
 30
0.0
 40
8.650256
100
AcDbArc
 50
90.00000300000001
 51
139.1065419999998
  0
ARC
  5
AB06
330
A7A0
100
AcDbEntity
  8
1
  6
Continuous
100
AcDbCircle
 10
185.2982478801114
 20
100.8218707515659
 30
0.0
 40
8.650256
100
AcDbArc
 50
220.893458
 51
257.0556838750387
  0
ARC
  5
AB07
330
A7A0
100
AcDbEntity
  8
1
  6
Continuous
100
AcDbCircle
 10
185.284415267707
 20
105.8157692253276
 30
0.0
 40
8.355846975033793
100
AcDbArc
 50
68.41592658515388
 51
89.90515327487235
  0
ARC
  5
AB08
330
A7A0
100
AcDbEntity
  8
1
  6
Continuous
100
AcDbCircle
 10
186.4383503664709
 20
105.8310726682081
 30
0.0
 40
8.340167063140372
100
AcDbArc
 50
68.40242817895469
 51
93.93601683863254
  0
ARC
  5
AB09
330
A7A0
100
AcDbEntity
  8
1
  6
Continuous
100
AcDbCircle
 10
262.9679341758748
 20
102.6331252597544
 30
0.0
 40
10.50750754693528
100
AcDbArc
 50
275.3627072951353
 51
1.300525852142557
  0
ARC
  5
AB0A
330
A7A0
100
AcDbEntity
  8
1
  6
Continuous
100
AcDbCircle
 10
262.694083772991
 20
103.587056325859
 30
0.0
 40
10.80236951550823
100
AcDbArc
 50
356.2024868638443
 51
75.38482878661921
  0
ARC
  5
AB0B
330
A7A0
100
AcDbEntity
  8
1
  6
Continuous
100
AcDbCircle
 10
263.9500698122523
 20
105.904508448553
 30
0.0
 40
8.267072342806917
100
AcDbArc
 50
79.75946548212707
 51
94.02698711332233
  0
ARC
  5
AB0C
330
A7A0
100
AcDbEntity
  8
1
  6
Continuous
100
AcDbCircle
 10
261.5446623165459
 20
103.6119504001452
 30
0.0
 40
10.80236951550817
100
AcDbArc
 50
356.2024868638442
 51
73.57571011594746
  0
ARC
  5
AB0D
330
A7A0
100
AcDbEntity
  8
1
  6
Continuous
100
AcDbCircle
 10
261.7920736128561
 20
102.5453642812432
 30
0.0
 40
10.53709224264076
100
AcDbArc
 50
283.5643062680934
 51
1.909682091703436
  0
ARC
  5
AB0E
330
A7A0
100
AcDbEntity
  8
1
  6
Continuous
100
AcDbCircle
 10
262.7976467167761
 20
105.8498385766896
 30
0.0
 40
8.321005050241126
100
AcDbArc
 50
77.49738924465614
 51
111.6154525606086
  0
ARC
  5
AB15
330
A7A0
100
AcDbEntity
  8
1
  6
Continuous
100
AcDbCircle
 10
419.7202029999998
 20
241.1216089999999
 30
0.0
 40
2.0
100
AcDbArc
 50
0.000000000000007
 51
89.99998199999996
  0
LINE
  5
AB16
330
A7A0
100
AcDbEntity
  8
1
  6
Continuous
100
AcDbLine
 10
421.7202029999998
 20
241.1216089999999
 30
0.0
 11
421.7202029999998
 21
232.6216089999999
 31
0.0
  0
LINE
  5
AB17
330
A7A0
100
AcDbEntity
  8
1
  6
Continuous
100
AcDbLine
 10
418.5202229999998
 20
243.1216089999999
 30
0.0
 11
419.7202029999998
 21
243.1216089999999
 31
0.0
  0
ARC
  5
AB18
330
A7A0
100
AcDbEntity
  8
1
  6
Continuous
100
AcDbCircle
 10
419.7202029999998
 20
232.6216089999999
 30
0.0
 40
2.0
100
AcDbArc
 50
270.0000199999999
 51
0.000000000000007
  0
LINE
  5
AB19
330
A7A0
100
AcDbEntity
  8
1
  6
Continuous
100
AcDbLine
 10
418.5202229999998
 20
230.6216089999999
 30
0.0
 11
419.7202029999998
 21
230.6216089999999
 31
0.0
  0
ENDSEC
  0
SECTION
  2
OBJECTS
  0
DICTIONARY
  5
A78E
330
0
100
AcDbDictionary
281
     1
  3
ACAD_CIP_PREVIOUS_PRODUCT_INFO
350
AB82
  3
ACAD_COLOR
350
AB64
  3
ACAD_DETAILVIEWSTYLE
350
AB7D
  3
ACAD_GROUP
350
A78F
  3
ACAD_LAYOUT
350
A79B
  3
ACAD_MATERIAL
350
AB32
  3
ACAD_MLEADERSTYLE
350
AB79
  3
ACAD_MLINESTYLE
350
A798
  3
ACAD_PLOTSETTINGS
350
A79A
  3
ACAD_PLOTSTYLENAME
350
AB30
  3
ACAD_SCALELIST
350
AB67
  3
ACAD_SECTIONVIEWSTYLE
350
AB7B
  3
ACAD_TABLESTYLE
350
AB65
  3
ACAD_VISUALSTYLE
350
AB4B
  3
ACDB_RECOMPOSE_DATA
350
ABA0
  3
AcDbVariableDictionary
350
AB93
  3
DWGPROPS
350
ABA1
  0
DICTIONARY
  5
AB83
330
A792
100
AcDbDictionary
280
     1
281
     1
  3
ADSK_XREC_LAYER_RECONCILED
360
AB84
  0
DICTIONARY
  5
AB85
330
A7A8
100
AcDbDictionary
280
     1
281
     1
  3
ADSK_XREC_LAYER_RECONCILED
360
AB86
  0
DICTIONARY
  5
AB87
330
A7A9
100
AcDbDictionary
280
     1
281
     1
  3
ADSK_XREC_LAYER_RECONCILED
360
AB88
  0
DICTIONARY
  5
AB89
330
A7AA
100
AcDbDictionary
280
     1
281
     1
  3
ADSK_XREC_LAYER_RECONCILED
360
AB8A
  0
DICTIONARY
  5
AB8B
330
A7AB
100
AcDbDictionary
280
     1
281
     1
  3
ADSK_XREC_LAYER_RECONCILED
360
AB8C
  0
DICTIONARY
  5
AB8D
330
A7AC
100
AcDbDictionary
280
     1
281
     1
  3
ADSK_XREC_LAYER_RECONCILED
360
AB8E
  0
DICTIONARY
  5
AB8F
330
A7AD
100
AcDbDictionary
280
     1
281
     1
  3
ADSK_XREC_LAYER_RECONCILED
360
AB90
  0
DICTIONARY
  5
AB91
330
A7AE
100
AcDbDictionary
280
     1
281
     1
  3
ADSK_XREC_LAYER_RECONCILED
360
AB92
  0
DICTIONARY
  5
AAEC
330
A7A0
100
AcDbDictionary
281
     1
  3
ACAD_LAYOUTSELFREF
350
AB2C
  0
DICTIONARY
  5
AAEA
330
A79C
100
AcDbDictionary
281
     1
  3
ACAD_LAYOUTSELFREF
350
AB2B
  0
XRECORD
  5
AB82
102
{ACAD_REACTORS
330
A78E
102
}
330
A78E
100
AcDbXrecord
280
     1
300
ACDLT
300
2014
300
ACDLT_F_S
  0
DICTIONARY
  5
AB64
102
{ACAD_REACTORS
330
A78E
102
}
330
A78E
100
AcDbDictionary
281
     1
  0
DICTIONARY
  5
AB7D
102
{ACAD_REACTORS
330
A78E
102
}
330
A78E
100
AcDbDictionary
281
     1
  3
Imperial24
350
AB7E
  0
DICTIONARY
  5
A78F
102
{ACAD_REACTORS
330
A78E
102
}
330
A78E
100
AcDbDictionary
281
     1
  0
DICTIONARY
  5
A79B
102
{ACAD_REACTORS
330
A78E
102
}
330
A78E
100
AcDbDictionary
281
     1
  3
Model
350
AB7F
  3
レイアウト1
350
AB80
  0
DICTIONARY
  5
AB32
102
{ACAD_REACTORS
330
A78E
102
}
330
A78E
100
AcDbDictionary
281
     1
  3
ByBlock
350
AB3B
  3
ByLayer
350
AB33
  3
Global
350
AB43
  0
DICTIONARY
  5
AB79
102
{ACAD_REACTORS
330
A78E
102
}
330
A78E
100
AcDbDictionary
281
     1
  3
Standard
350
AB7A
  0
DICTIONARY
  5
A798
102
{ACAD_REACTORS
330
A78E
102
}
330
A78E
100
AcDbDictionary
281
     1
  3
STANDARD
350
A799
  0
DICTIONARY
  5
A79A
102
{ACAD_REACTORS
330
A78E
102
}
330
A78E
100
AcDbDictionary
281
     1
  0
ACDBDICTIONARYWDFLT
  5
AB30
102
{ACAD_REACTORS
330
A78E
102
}
330
A78E
100
AcDbDictionary
281
     1
  3
Normal
350
AB31
100
AcDbDictionaryWithDefault
340
AB31
  0
DICTIONARY
  5
AB67
102
{ACAD_REACTORS
330
A78E
102
}
330
A78E
100
AcDbDictionary
281
     1
  3
A0
350
AB68
  3
A1
350
AB69
  3
A2
350
AB6A
  3
A3
350
AB6B
  3
A4
350
AB6C
  3
A5
350
AB6D
  3
A6
350
AB6E
  3
A7
350
AB6F
  3
A8
350
AB70
  3
A9
350
AB71
  3
B0
350
AB72
  3
B1
350
AB73
  3
B2
350
AB74
  3
B3
350
AB75
  3
B4
350
AB76
  3
B5
350
AB77
  3
B6
350
AB78
  0
DICTIONARY
  5
AB7B
102
{ACAD_REACTORS
330
A78E
102
}
330
A78E
100
AcDbDictionary
281
     1
  3
Imperial24
350
AB7C
  0
DICTIONARY
  5
AB65
102
{ACAD_REACTORS
330
A78E
102
}
330
A78E
100
AcDbDictionary
281
     1
  3
Standard
350
AB66
  0
DICTIONARY
  5
AB4B
102
{ACAD_REACTORS
330
A78E
102
}
330
A78E
100
AcDbDictionary
281
     1
  3
2dWireframe
350
AB51
  3
Basic
350
AB50
  3
Brighten
350
AB57
  3
ColorChange
350
AB5B
  3
Conceptual
350
AB54
  3
Dim
350
AB56
  3
EdgeColorOff
350
AB63
  3
Facepattern
350
AB5A
  3
Flat
350
AB4C
  3
FlatWithEdges
350
AB4D
  3
Gouraud
350
AB4E
  3
GouraudWithEdges
350
AB4F
  3
Hidden
350
AB53
  3
JitterOff
350
AB61
  3
Linepattern
350
AB59
  3
OverhangOff
350
AB62
  3
Realistic
350
AB55
  3
Shaded
350
AB60
  3
Shaded with edges
350
AB5F
  3
Shades of Gray
350
AB5C
  3
Sketchy
350
AB5D
  3
Thicken
350
AB58
  3
Wireframe
350
AB52
  3
X-Ray
350
AB5E
  0
XRECORD
  5
ABA0
102
{ACAD_REACTORS
330
A78E
102
}
330
A78E
100
AcDbXrecord
280
     1
 90
        1
330
AB66
  0
DICTIONARY
  5
AB93
102
{ACAD_REACTORS
330
A78E
102
}
330
A78E
100
AcDbDictionary
281
     1
  3
CANNOSCALE
350
AB98
  3
CMLEADERSTYLE
350
AB95
  3
CTABLESTYLE
350
AB94
  3
CVIEWDETAILSTYLE
350
AB96
  3
CVIEWSECTIONSTYLE
350
AB97
  3
DIMASSOC
350
AB9B
  3
INDEXCTL
350
AB9A
  3
SORTENTS
350
AB99
  3
XCLIPFRAME
350
AB9C
  0
XRECORD
  5
ABA1
102
{ACAD_REACTORS
330
A78E
102
}
330
A78E
100
AcDbXrecord
280
     1
  1
DWGPROPS COOKIE
  2

  3

  4

  6

  7

  8
Yoshitsune
  9

300
=
301
=
302
=
303
=
304
=
305
=
306
=
307
=
308
=
309
=
 40
0.0485014236111111
 41
2451302.684918287
 42
2457192.690002836
  1

 90
        0
  0
XRECORD
  5
AB84
102
{ACAD_REACTORS
330
AB83
102
}
330
AB83
100
AcDbXrecord
280
     1
290
     1
  0
XRECORD
  5
AB86
102
{ACAD_REACTORS
330
AB85
102
}
330
AB85
100
AcDbXrecord
280
     1
290
     1
  0
XRECORD
  5
AB88
102
{ACAD_REACTORS
330
AB87
102
}
330
AB87
100
AcDbXrecord
280
     1
290
     1
  0
XRECORD
  5
AB8A
102
{ACAD_REACTORS
330
AB89
102
}
330
AB89
100
AcDbXrecord
280
     1
290
     1
  0
XRECORD
  5
AB8C
102
{ACAD_REACTORS
330
AB8B
102
}
330
AB8B
100
AcDbXrecord
280
     1
290
     1
  0
XRECORD
  5
AB8E
102
{ACAD_REACTORS
330
AB8D
102
}
330
AB8D
100
AcDbXrecord
280
     1
290
     1
  0
XRECORD
  5
AB90
102
{ACAD_REACTORS
330
AB8F
102
}
330
AB8F
100
AcDbXrecord
280
     1
290
     1
  0
XRECORD
  5
AB92
102
{ACAD_REACTORS
330
AB91
102
}
330
AB91
100
AcDbXrecord
280
     1
290
     1
  0
XRECORD
  5
AB2C
102
{ACAD_REACTORS
330
AAEC
102
}
330
AAEC
100
AcDbXrecord
280
     1
340
A7A0
  0
XRECORD
  5
AB2B
102
{ACAD_REACTORS
330
AAEA
102
}
330
AAEA
100
AcDbXrecord
280
     1
340
A79C
  0
ACDBDETAILVIEWSTYLE
  5
AB7E
102
{ACAD_XDICTIONARY
360
ABD9
102
}
102
{ACAD_REACTORS
330
AB7D
102
}
330
AB7D
100
AcDbModelDocViewStyle
 70
     0
  3
Imperial24
290
     0
100
AcDbDetailViewStyle
 70
     0
 71
     0
 90
        3
 71
     1
340
A793
 40
0.24
340
0
 40
0.24
300

 40
0.36
280
     3
 71
     2
340
A797
 90
       25
 71
     3
340
A793
 40
0.24
 90
        1
 40
0.75
 90
        1
300
%<\AcVar ViewType \f "%tc1">% %<\AcVar ViewDetailId>%\PSCALE %<\AcVar ViewScale \f "%sn">%
 71
     4
340
A797
 90
       25
340
A797
 90
       25
280
     0
  0
LAYOUT
  5
AB7F
102
{ACAD_XDICTIONARY
360
ABDB
102
}
102
{ACAD_REACTORS
330
A79B
102
}
330
A79B
100
AcDbPlotSettings
  1

  2
Canon LBP9100C
  4

  6

 40
0.0
 41
0.0
 42
0.0
 43
0.0
 44
0.0
 45
0.0
 46
0.0
 47
0.0
 48
0.0
 49
0.0
140
0.0
141
0.0
142
1.0
143
1.0
 70
  1712
 72
     0
 73
     0
 74
     0
  7

 75
     0
147
1.0
148
0.0
149
0.0
100
AcDbLayout
  1
Model
 70
     1
 71
     0
 10
0.0
 20
0.0
 11
12.0
 21
9.0
 12
0.0
 22
0.0
 32
0.0
 14
0.0
 24
0.0
 34
0.0
 15
0.0
 25
0.0
 35
0.0
146
0.0
 13
0.0
 23
0.0
 33
0.0
 16
1.0
 26
0.0
 36
0.0
 17
0.0
 27
1.0
 37
0.0
 76
     0
330
A7A0
331
AB2A
  0
LAYOUT
  5
AB80
102
{ACAD_XDICTIONARY
360
ABDD
102
}
102
{ACAD_REACTORS
330
A79B
102
}
330
A79B
100
AcDbPlotSettings
  1

  2
Canon LBP9100C
  4

  6

 40
0.0
 41
0.0
 42
0.0
 43
0.0
 44
0.0
 45
0.0
 46
0.0
 47
0.0
 48
0.0
 49
0.0
140
0.0
141
0.0
142
1.0
143
1.0
 70
   688
 72
     0
 73
     0
 74
     5
  7

 75
    16
147
1.0
148
0.0
149
0.0
100
AcDbLayout
  1
レイアウト1
 70
     0
 71
     1
 10
0.0
 20
0.0
 11
420.0
 21
297.0
 12
0.0
 22
0.0
 32
0.0
 14
1.000000000000000E+20
 24
1.000000000000000E+20
 34
1.000000000000000E+20
 15
-1.000000000000000E+20
 25
-1.000000000000000E+20
 35
-1.000000000000000E+20
146
0.0
 13
0.0
 23
0.0
 33
0.0
 16
1.0
 26
0.0
 36
0.0
 17
0.0
 27
1.0
 37
0.0
 76
     0
330
A79C
  0
MATERIAL
  5
AB3B
102
{ACAD_XDICTIONARY
360
AB3C
102
}
102
{ACAD_REACTORS
330
AB32
102
}
330
AB32
100
AcDbMaterial
  1
ByBlock
 72
     0
 43
0.0208333333333333
 43
0.0
 43
0.0
 43
0.0
 43
0.0
 43
0.0208333333333333
 43
0.0
 43
0.0
 43
0.0
 43
0.0
 43
1.0
 43
0.0
 43
0.0
 43
0.0
 43
0.0
 43
1.0
 77
     0
 47
0.0208333333333333
 47
0.0
 47
0.0
 47
0.0
 47
0.0
 47
0.0208333333333333
 47
0.0
 47
0.0
 47
0.0
 47
0.0
 47
1.0
 47
0.0
 47
0.0
 47
0.0
 47
0.0
 47
1.0
171
     0
 49
0.0208333333333333
 49
0.0
 49
0.0
 49
0.0
 49
0.0
 49
0.0208333333333333
 49
0.0
 49
0.0
 49
0.0
 49
0.0
 49
1.0
 49
0.0
 49
0.0
 49
0.0
 49
0.0
 49
1.0
175
     0
142
0.0208333333333333
142
0.0
142
0.0
142
0.0
142
0.0
142
0.0208333333333333
142
0.0
142
0.0
142
0.0
142
0.0
142
1.0
142
0.0
142
0.0
142
0.0
142
0.0
142
1.0
179
     0
144
0.0208333333333333
144
0.0
144
0.0
144
0.0
144
0.0
144
0.0208333333333333
144
0.0
144
0.0
144
0.0
144
0.0
144
1.0
144
0.0
144
0.0
144
0.0
144
0.0
144
1.0
147
0.0208333333333333
147
0.0
147
0.0
147
0.0
147
0.0
147
0.0208333333333333
147
0.0
147
0.0
147
0.0
147
0.0
147
1.0
147
0.0
147
0.0
147
0.0
147
0.0
147
1.0
  0
MATERIAL
  5
AB33
102
{ACAD_XDICTIONARY
360
AB34
102
}
102
{ACAD_REACTORS
330
AB32
102
}
330
AB32
100
AcDbMaterial
  1
ByLayer
 72
     0
 43
0.0208333333333333
 43
0.0
 43
0.0
 43
0.0
 43
0.0
 43
0.0208333333333333
 43
0.0
 43
0.0
 43
0.0
 43
0.0
 43
1.0
 43
0.0
 43
0.0
 43
0.0
 43
0.0
 43
1.0
 77
     0
 47
0.0208333333333333
 47
0.0
 47
0.0
 47
0.0
 47
0.0
 47
0.0208333333333333
 47
0.0
 47
0.0
 47
0.0
 47
0.0
 47
1.0
 47
0.0
 47
0.0
 47
0.0
 47
0.0
 47
1.0
171
     0
 49
0.0208333333333333
 49
0.0
 49
0.0
 49
0.0
 49
0.0
 49
0.0208333333333333
 49
0.0
 49
0.0
 49
0.0
 49
0.0
 49
1.0
 49
0.0
 49
0.0
 49
0.0
 49
0.0
 49
1.0
175
     0
142
0.0208333333333333
142
0.0
142
0.0
142
0.0
142
0.0
142
0.0208333333333333
142
0.0
142
0.0
142
0.0
142
0.0
142
1.0
142
0.0
142
0.0
142
0.0
142
0.0
142
1.0
179
     0
144
0.0208333333333333
144
0.0
144
0.0
144
0.0
144
0.0
144
0.0208333333333333
144
0.0
144
0.0
144
0.0
144
0.0
144
1.0
144
0.0
144
0.0
144
0.0
144
0.0
144
1.0
147
0.0208333333333333
147
0.0
147
0.0
147
0.0
147
0.0
147
0.0208333333333333
147
0.0
147
0.0
147
0.0
147
0.0
147
1.0
147
0.0
147
0.0
147
0.0
147
0.0
147
1.0
  0
MATERIAL
  5
AB43
102
{ACAD_XDICTIONARY
360
AB44
102
}
102
{ACAD_REACTORS
330
AB32
102
}
330
AB32
100
AcDbMaterial
  1
Global
 72
     0
 43
0.0208333333333333
 43
0.0
 43
0.0
 43
0.0
 43
0.0
 43
0.0208333333333333
 43
0.0
 43
0.0
 43
0.0
 43
0.0
 43
1.0
 43
0.0
 43
0.0
 43
0.0
 43
0.0
 43
1.0
 77
     0
 47
0.0208333333333333
 47
0.0
 47
0.0
 47
0.0
 47
0.0
 47
0.0208333333333333
 47
0.0
 47
0.0
 47
0.0
 47
0.0
 47
1.0
 47
0.0
 47
0.0
 47
0.0
 47
0.0
 47
1.0
171
     0
 49
0.0208333333333333
 49
0.0
 49
0.0
 49
0.0
 49
0.0
 49
0.0208333333333333
 49
0.0
 49
0.0
 49
0.0
 49
0.0
 49
1.0
 49
0.0
 49
0.0
 49
0.0
 49
0.0
 49
1.0
175
     0
142
0.0208333333333333
142
0.0
142
0.0
142
0.0
142
0.0
142
0.0208333333333333
142
0.0
142
0.0
142
0.0
142
0.0
142
1.0
142
0.0
142
0.0
142
0.0
142
0.0
142
1.0
179
     0
144
0.0208333333333333
144
0.0
144
0.0
144
0.0
144
0.0
144
0.0208333333333333
144
0.0
144
0.0
144
0.0
144
0.0
144
1.0
144
0.0
144
0.0
144
0.0
144
0.0
144
1.0
147
0.0208333333333333
147
0.0
147
0.0
147
0.0
147
0.0
147
0.0208333333333333
147
0.0
147
0.0
147
0.0
147
0.0
147
1.0
147
0.0
147
0.0
147
0.0
147
0.0
147
1.0
  0
MLEADERSTYLE
  5
AB7A
102
{ACAD_REACTORS
330
AB79
102
}
330
AB79
100
AcDbMLeaderStyle
170
     2
171
     1
172
     0
 90
        2
 40
0.0
 41
0.0
173
     1
 91
-1056964608
340
A795
 92
       -2
290
     1
 42
0.09
291
     1
 43
0.36
  3
Standard
 44
0.18
300

342
A793
174
     1
178
     6
175
     1
176
     0
 93
-1056964608
 45
0.18
292
     0
297
     0
 46
0.18
 94
-1056964608
 47
1.0
 49
1.0
140
1.0
293
     1
141
0.0
294
     1
177
     0
142
1.0
295
     0
296
     0
143
0.125
1001
ACAD_MLEADERVER
1070
     2
  0
MLINESTYLE
  5
A799
102
{ACAD_REACTORS
330
A798
102
}
330
A798
100
AcDbMlineStyle
  2
STANDARD
 70
     0
  3

 62
   256
 51
90.0
 52
90.0
 71
     2
 49
0.5
 62
   256
  6
BYLAYER
 49
-0.5
 62
   256
  6
BYLAYER
  0
ACDBPLACEHOLDER
  5
AB31
102
{ACAD_REACTORS
330
AB30
102
}
330
AB30
  0
SCALE
  5
AB68
102
{ACAD_REACTORS
330
AB67
102
}
330
AB67
100
AcDbScale
 70
     0
300
1:1
140
1.0
141
1.0
290
     1
  0
SCALE
  5
AB69
102
{ACAD_REACTORS
330
AB67
102
}
330
AB67
100
AcDbScale
 70
     0
300
1/128" = 1'-0"
140
0.0078125
141
12.0
290
     0
  0
SCALE
  5
AB6A
102
{ACAD_REACTORS
330
AB67
102
}
330
AB67
100
AcDbScale
 70
     0
300
1/64" = 1'-0"
140
0.015625
141
12.0
290
     0
  0
SCALE
  5
AB6B
102
{ACAD_REACTORS
330
AB67
102
}
330
AB67
100
AcDbScale
 70
     0
300
1/32" = 1'-0"
140
0.03125
141
12.0
290
     0
  0
SCALE
  5
AB6C
102
{ACAD_REACTORS
330
AB67
102
}
330
AB67
100
AcDbScale
 70
     0
300
1/16" = 1'-0"
140
0.0625
141
12.0
290
     0
  0
SCALE
  5
AB6D
102
{ACAD_REACTORS
330
AB67
102
}
330
AB67
100
AcDbScale
 70
     0
300
3/32" = 1'-0"
140
0.09375
141
12.0
290
     0
  0
SCALE
  5
AB6E
102
{ACAD_REACTORS
330
AB67
102
}
330
AB67
100
AcDbScale
 70
     0
300
1/8" = 1'-0"
140
0.125
141
12.0
290
     0
  0
SCALE
  5
AB6F
102
{ACAD_REACTORS
330
AB67
102
}
330
AB67
100
AcDbScale
 70
     0
300
3/16" = 1'-0"
140
0.1875
141
12.0
290
     0
  0
SCALE
  5
AB70
102
{ACAD_REACTORS
330
AB67
102
}
330
AB67
100
AcDbScale
 70
     0
300
1/4" = 1'-0"
140
0.25
141
12.0
290
     0
  0
SCALE
  5
AB71
102
{ACAD_REACTORS
330
AB67
102
}
330
AB67
100
AcDbScale
 70
     0
300
3/8" = 1'-0"
140
0.375
141
12.0
290
     0
  0
SCALE
  5
AB72
102
{ACAD_REACTORS
330
AB67
102
}
330
AB67
100
AcDbScale
 70
     0
300
1/2" = 1'-0"
140
0.5
141
12.0
290
     0
  0
SCALE
  5
AB73
102
{ACAD_REACTORS
330
AB67
102
}
330
AB67
100
AcDbScale
 70
     0
300
3/4" = 1'-0"
140
0.75
141
12.0
290
     0
  0
SCALE
  5
AB74
102
{ACAD_REACTORS
330
AB67
102
}
330
AB67
100
AcDbScale
 70
     0
300
1" = 1'-0"
140
1.0
141
12.0
290
     0
  0
SCALE
  5
AB75
102
{ACAD_REACTORS
330
AB67
102
}
330
AB67
100
AcDbScale
 70
     0
300
1-1/2" = 1'-0"
140
1.5
141
12.0
290
     0
  0
SCALE
  5
AB76
102
{ACAD_REACTORS
330
AB67
102
}
330
AB67
100
AcDbScale
 70
     0
300
3" = 1'-0"
140
3.0
141
12.0
290
     0
  0
SCALE
  5
AB77
102
{ACAD_REACTORS
330
AB67
102
}
330
AB67
100
AcDbScale
 70
     0
300
6" = 1'-0"
140
6.0
141
12.0
290
     0
  0
SCALE
  5
AB78
102
{ACAD_REACTORS
330
AB67
102
}
330
AB67
100
AcDbScale
 70
     0
300
1'-0" = 1'-0"
140
12.0
141
12.0
290
     0
  0
ACDBSECTIONVIEWSTYLE
  5
AB7C
102
{ACAD_XDICTIONARY
360
ABD7
102
}
102
{ACAD_REACTORS
330
AB7B
102
}
330
AB7B
100
AcDbModelDocViewStyle
 70
     0
  3
Imperial24
290
     0
100
AcDbSectionViewStyle
 70
     0
 71
     0
 90
       78
 71
     1
340
A793
 40
0.24
340
0
340
0
 40
0.24
300
I, O, Q, S, X, Z
 40
0.48
 90
        3
 40
0.18
 90
        1
 71
     2
340
A797
 90
       25
340
A797
 90
       50
 40
0.24
 40
0.0
 40
0.24
 71
     3
340
A793
 40
0.24
 90
        1
 40
0.75
 90
        1
300
%<\AcVar ViewType \f "%tc1">% %<\AcVar ViewSectionStartId>%-%<\AcVar ViewSectionEndId>%\PSCALE %<\AcVar ViewScale \f "%sn">%
 71
     4
300
ANSI31
 40
1.0
 90
        0
290
     0
290
     0
 90
        6
 40
0.0
 40
1.570796326794896
 40
0.2617993877991494
 40
1.308996938995747
 40
-0.2617993877991494
 40
1.832595714594046
  0
TABLESTYLE
  5
AB66
102
{ACAD_XDICTIONARY
360
AB9E
102
}
102
{ACAD_REACTORS
330
AB65
102
}
330
AB65
100
AcDbTableStyle
  3
Standard
 70
     0
 71
     0
 40
0.06
 41
0.06
280
     0
281
     0
  7
STANDARD
140
0.18
170
     2
 62
     0
 63
     7
283
     0
274
    -2
284
     1
 64
     0
275
    -2
285
     1
 65
     0
276
    -2
286
     1
 66
     0
277
    -2
287
     1
 67
     0
278
    -2
288
     1
 68
     0
279
    -2
289
     1
 69
     0
  7
STANDARD
140
0.25
170
     5
 62
     0
 63
     7
283
     0
274
    -2
284
     1
 64
     0
275
    -2
285
     1
 65
     0
276
    -2
286
     1
 66
     0
277
    -2
287
     1
 67
     0
278
    -2
288
     1
 68
     0
279
    -2
289
     1
 69
     0
  7
STANDARD
140
0.18
170
     5
 62
     0
 63
     7
283
     0
274
    -2
284
     1
 64
     0
275
    -2
285
     1
 65
     0
276
    -2
286
     1
 66
     0
277
    -2
287
     1
 67
     0
278
    -2
288
     1
 68
     0
279
    -2
289
     1
 69
     0
  0
VISUALSTYLE
  5
AB51
102
{ACAD_XDICTIONARY
360
ABAF
102
}
102
{ACAD_REACTORS
330
AB4B
102
}
330
AB4B
100
AcDbVisualStyle
  2
2dWireframe
 70
     4
 71
     0
 72
     2
 73
     0
 90
        0
 40
-0.6
 41
-30.0
 62
     5
 63
     7
 74
     1
 91
        4
 64
     7
 65
   257
 75
     1
175
     1
 42
1.0
 92
        0
 66
   257
 43
1.0
 76
     1
 77
     6
 78
     2
 67
     7
 79
     5
170
     0
171
     0
290
     0
174
     0
 93
        1
 44
0.0
173
     0
291
     0
 45
0.0
1001
ACAD
1000
AcDbSavedByObjectVersion
1070
     0
  0
VISUALSTYLE
  5
AB50
102
{ACAD_XDICTIONARY
360
ABAD
102
}
102
{ACAD_REACTORS
330
AB4B
102
}
330
AB4B
100
AcDbVisualStyle
  2
Basic
 70
     7
 71
     1
 72
     0
 73
     1
 90
        0
 40
-0.6
 41
-30.0
 62
     5
 63
     7
 74
     0
 91
        4
 64
     7
 65
   257
 75
     1
175
     1
 42
1.0
 92
        8
 66
     7
 43
1.0
 76
     1
 77
     6
 78
     2
 67
     7
 79
     5
170
     0
171
     0
290
     0
174
     0
 93
        1
 44
0.0
173
     0
291
     1
 45
0.0
1001
ACAD
1000
AcDbSavedByObjectVersion
1070
     0
  0
VISUALSTYLE
  5
AB57
102
{ACAD_XDICTIONARY
360
ABBB
102
}
102
{ACAD_REACTORS
330
AB4B
102
}
330
AB4B
100
AcDbVisualStyle
  2
Brighten
 70
    12
 71
     2
 72
     2
 73
     0
 90
        0
 40
-0.6
 41
-30.0
 62
     5
 63
     7
 74
     1
 91
        4
 64
     7
 65
   257
 75
     1
175
     1
 42
1.0
 92
        8
 66
     7
 43
1.0
 76
     1
 77
     6
 78
     2
 67
     7
 79
     5
170
     0
171
     0
290
     0
174
     0
 93
        1
 44
50.0
173
     0
291
     1
 45
0.0
1001
ACAD
1000
AcDbSavedByObjectVersion
1070
     0
  0
VISUALSTYLE
  5
AB5B
102
{ACAD_XDICTIONARY
360
ABC3
102
}
102
{ACAD_REACTORS
330
AB4B
102
}
330
AB4B
100
AcDbVisualStyle
  2
ColorChange
 70
    16
 71
     2
 72
     2
 73
     3
 90
        0
 40
-0.6
 41
-30.0
 62
     5
 63
     8
 74
     1
 91
        4
 64
     7
 65
   257
 75
     1
175
     1
 42
1.0
 92
        8
 66
     8
 43
1.0
 76
     1
 77
     6
 78
     2
 67
     7
 79
     5
170
     0
171
     0
290
     0
174
     0
 93
        1
 44
0.0
173
     0
291
     1
 45
0.0
1001
ACAD
1000
AcDbSavedByObjectVersion
1070
     0
  0
VISUALSTYLE
  5
AB54
102
{ACAD_XDICTIONARY
360
ABB5
102
}
102
{ACAD_REACTORS
330
AB4B
102
}
330
AB4B
100
AcDbVisualStyle
  2
Conceptual
 70
     9
 71
     3
 72
     2
 73
     0
 90
        0
 40
-0.6
 41
-30.0
 62
     5
 63
     7
 74
     2
 91
        2
 64
     7
 65
   257
 75
     1
175
     1
 42
179.0
 92
        8
 66
     7
 43
1.0
 76
     1
 77
     6
 78
     2
 67
     7
 79
     3
170
     0
171
     0
290
     0
174
     0
 93
        1
 44
0.0
173
     0
291
     0
 45
0.0
1001
ACAD
1000
AcDbSavedByObjectVersion
1070
     0
  0
VISUALSTYLE
  5
AB56
102
{ACAD_XDICTIONARY
360
ABB9
102
}
102
{ACAD_REACTORS
330
AB4B
102
}
330
AB4B
100
AcDbVisualStyle
  2
Dim
 70
    11
 71
     2
 72
     2
 73
     0
 90
        0
 40
-0.6
 41
-30.0
 62
     5
 63
     7
 74
     1
 91
        4
 64
     7
 65
   257
 75
     1
175
     1
 42
1.0
 92
        8
 66
     7
 43
1.0
 76
     1
 77
     6
 78
     2
 67
     7
 79
     5
170
     0
171
     0
290
     0
174
     0
 93
        1
 44
-50.0
173
     0
291
     1
 45
0.0
1001
ACAD
1000
AcDbSavedByObjectVersion
1070
     0
  0
VISUALSTYLE
  5
AB63
102
{ACAD_XDICTIONARY
360
ABD3
102
}
102
{ACAD_REACTORS
330
AB4B
102
}
330
AB4B
100
AcDbVisualStyle
  2
EdgeColorOff
 70
    22
 71
     2
 72
     2
 73
     0
 90
        0
 40
-0.6
 41
-30.0
 62
     5
 63
     7
 74
     1
 91
        4
 64
     7
 65
   257
 75
     1
175
     1
 42
1.0
 92
        8
 66
     7
 43
1.0
 76
     1
 77
     6
 78
     2
 67
     7
 79
     5
170
     0
171
     0
290
     0
174
     0
 93
        1
 44
0.0
173
     0
291
     1
 45
0.0
1001
ACAD
1000
AcDbSavedByObjectVersion
1070
     0
  0
VISUALSTYLE
  5
AB5A
102
{ACAD_XDICTIONARY
360
ABC1
102
}
102
{ACAD_REACTORS
330
AB4B
102
}
330
AB4B
100
AcDbVisualStyle
  2
Facepattern
 70
    15
 71
     2
 72
     2
 73
     0
 90
        0
 40
-0.6
 41
-30.0
 62
     5
 63
     7
 74
     1
 91
        4
 64
     7
 65
   257
 75
     1
175
     1
 42
1.0
 92
        8
 66
     7
 43
1.0
 76
     1
 77
     6
 78
     2
 67
     7
 79
     5
170
     0
171
     0
290
     0
174
     0
 93
        1
 44
0.0
173
     0
291
     1
 45
0.0
1001
ACAD
1000
AcDbSavedByObjectVersion
1070
     0
  0
VISUALSTYLE
  5
AB4C
102
{ACAD_XDICTIONARY
360
ABA5
102
}
102
{ACAD_REACTORS
330
AB4B
102
}
330
AB4B
100
AcDbVisualStyle
  2
Flat
 70
     0
 71
     2
 72
     1
 73
     1
 90
        2
 40
-0.6
 41
30.0
 62
     5
 63
     7
 74
     0
 91
        0
 64
     7
 65
   257
 75
     1
175
     1
 42
1.0
 92
        8
 66
     7
 43
1.0
 76
     1
 77
     6
 78
     2
 67
     7
 79
     5
170
     0
171
     0
290
     0
174
     0
 93
       13
 44
0.0
173
     0
291
     1
 45
0.0
1001
ACAD
1000
AcDbSavedByObjectVersion
1070
     0
  0
VISUALSTYLE
  5
AB4D
102
{ACAD_XDICTIONARY
360
ABA7
102
}
102
{ACAD_REACTORS
330
AB4B
102
}
330
AB4B
100
AcDbVisualStyle
  2
FlatWithEdges
 70
     1
 71
     2
 72
     1
 73
     1
 90
        2
 40
-0.6
 41
30.0
 62
     5
 63
     7
 74
     1
 91
        0
 64
     7
 65
   257
 75
     1
175
     1
 42
1.0
 92
        0
 66
   257
 43
1.0
 76
     1
 77
     6
 78
     2
 67
     7
 79
     5
170
     0
171
     0
290
     0
174
     0
 93
       13
 44
0.0
173
     0
291
     1
 45
0.0
1001
ACAD
1000
AcDbSavedByObjectVersion
1070
     0
  0
VISUALSTYLE
  5
AB4E
102
{ACAD_XDICTIONARY
360
ABA9
102
}
102
{ACAD_REACTORS
330
AB4B
102
}
330
AB4B
100
AcDbVisualStyle
  2
Gouraud
 70
     2
 71
     2
 72
     2
 73
     1
 90
        2
 40
-0.6
 41
30.0
 62
     5
 63
     7
 74
     0
 91
        0
 64
     7
 65
   257
 75
     1
175
     1
 42
1.0
 92
        0
 66
     7
 43
1.0
 76
     1
 77
     6
 78
     2
 67
     7
 79
     5
170
     0
171
     0
290
     0
174
     0
 93
       13
 44
0.0
173
     0
291
     1
 45
0.0
1001
ACAD
1000
AcDbSavedByObjectVersion
1070
     0
  0
VISUALSTYLE
  5
AB4F
102
{ACAD_XDICTIONARY
360
ABAB
102
}
102
{ACAD_REACTORS
330
AB4B
102
}
330
AB4B
100
AcDbVisualStyle
  2
GouraudWithEdges
 70
     3
 71
     2
 72
     2
 73
     1
 90
        2
 40
-0.6
 41
30.0
 62
     5
 63
     7
 74
     1
 91
        0
 64
     7
 65
   257
 75
     1
175
     1
 42
1.0
 92
        0
 66
   257
 43
1.0
 76
     1
 77
     6
 78
     2
 67
     7
 79
     5
170
     0
171
     0
290
     0
174
     0
 93
       13
 44
0.0
173
     0
291
     1
 45
0.0
1001
ACAD
1000
AcDbSavedByObjectVersion
1070
     0
  0
VISUALSTYLE
  5
AB53
102
{ACAD_XDICTIONARY
360
ABB3
102
}
102
{ACAD_REACTORS
330
AB4B
102
}
330
AB4B
100
AcDbVisualStyle
  2
Hidden
 70
     6
 71
     1
 72
     2
 73
     2
 90
        0
 40
-0.6
 41
-30.0
 62
     5
 63
     7
 74
     2
 91
        2
 64
     7
 65
   257
 75
     2
175
     1
 42
40.0
 92
        0
 66
   257
 43
1.0
 76
     1
 77
     6
 78
     2
 67
     7
 79
     3
170
     0
171
     0
290
     0
174
     0
 93
        1
 44
0.0
173
     0
291
     0
 45
0.0
1001
ACAD
1000
AcDbSavedByObjectVersion
1070
     0
  0
VISUALSTYLE
  5
AB61
102
{ACAD_XDICTIONARY
360
ABCF
102
}
102
{ACAD_REACTORS
330
AB4B
102
}
330
AB4B
100
AcDbVisualStyle
  2
JitterOff
 70
    20
 71
     2
 72
     2
 73
     0
 90
        0
 40
-0.6
 41
-30.0
 62
     5
 63
     7
 74
     1
 91
        4
 64
     7
 65
   257
 75
     1
175
     1
 42
1.0
 92
       10
 66
     7
 43
1.0
 76
     1
 77
     6
 78
     2
 67
     7
 79
     5
170
     0
171
     0
290
     0
174
     0
 93
        1
 44
0.0
173
     0
291
     1
 45
0.0
1001
ACAD
1000
AcDbSavedByObjectVersion
1070
     0
  0
VISUALSTYLE
  5
AB59
102
{ACAD_XDICTIONARY
360
ABBF
102
}
102
{ACAD_REACTORS
330
AB4B
102
}
330
AB4B
100
AcDbVisualStyle
  2
Linepattern
 70
    14
 71
     2
 72
     2
 73
     0
 90
        0
 40
-0.6
 41
-30.0
 62
     5
 63
     7
 74
     1
 91
        4
 64
     7
 65
   257
 75
     7
175
     7
 42
1.0
 92
        8
 66
     7
 43
1.0
 76
     1
 77
     6
 78
     2
 67
     7
 79
     5
170
     0
171
     0
290
     0
174
     0
 93
        1
 44
0.0
173
     0
291
     1
 45
0.0
1001
ACAD
1000
AcDbSavedByObjectVersion
1070
     0
  0
VISUALSTYLE
  5
AB62
102
{ACAD_XDICTIONARY
360
ABD1
102
}
102
{ACAD_REACTORS
330
AB4B
102
}
330
AB4B
100
AcDbVisualStyle
  2
OverhangOff
 70
    21
 71
     2
 72
     2
 73
     0
 90
        0
 40
-0.6
 41
-30.0
 62
     5
 63
     7
 74
     1
 91
        4
 64
     7
 65
   257
 75
     1
175
     1
 42
1.0
 92
        9
 66
     7
 43
1.0
 76
     1
 77
     6
 78
     2
 67
     7
 79
     5
170
     0
171
     0
290
     0
174
     0
 93
        1
 44
0.0
173
     0
291
     1
 45
0.0
1001
ACAD
1000
AcDbSavedByObjectVersion
1070
     0
  0
VISUALSTYLE
  5
AB55
102
{ACAD_XDICTIONARY
360
ABB7
102
}
102
{ACAD_REACTORS
330
AB4B
102
}
330
AB4B
100
AcDbVisualStyle
  2
Realistic
 70
     8
 71
     2
 72
     3
 73
     0
 90
        2
 40
-0.6
 41
30.0
 62
     5
 63
     7
 74
     0
 91
        0
 64
     7
 65
   257
 75
     1
175
     1
 42
1.0
 92
        8
 66
   257
 43
1.0
 76
     1
 77
     6
 78
     2
 67
     7
 79
     3
170
     0
171
     0
290
     0
174
     0
 93
       13
 44
0.0
173
     0
291
     0
 45
0.0
1001
ACAD
1000
AcDbSavedByObjectVersion
1070
     0
  0
VISUALSTYLE
  5
AB60
102
{ACAD_XDICTIONARY
360
ABCD
102
}
102
{ACAD_REACTORS
330
AB4B
102
}
330
AB4B
100
AcDbVisualStyle
  2
Shaded
 70
    27
 71
     2
 72
     2
 73
     1
 90
        2
 40
-0.6
 41
30.0
 62
     5
 63
     7
 74
     0
 91
        4
 64
     7
 65
   257
 75
     1
175
     1
 42
1.0
 92
        8
 66
   257
 43
1.0
 76
     1
 77
     6
 78
     2
 67
     8
 79
     3
170
     0
171
     0
290
     0
174
     0
 93
        5
 44
0.0
173
     0
291
     0
 45
0.0
1001
ACAD
1000
AcDbSavedByObjectVersion
1070
     0
  0
VISUALSTYLE
  5
AB5F
102
{ACAD_XDICTIONARY
360
ABCB
102
}
102
{ACAD_REACTORS
330
AB4B
102
}
330
AB4B
100
AcDbVisualStyle
  2
Shaded with edges
 70
    26
 71
     2
 72
     2
 73
     1
 90
        2
 40
-0.6
 41
30.0
 62
     5
 63
     7
 74
     1
 91
       10
 64
     7
 65
   257
 75
     2
175
     1
 42
1.0
 92
        8
 66
   257
 43
1.0
 76
     1
 77
     6
 78
     2
 67
     7
 79
     3
170
     0
171
     0
290
     0
174
     0
 93
        5
 44
0.0
173
     0
291
     0
 45
0.0
1001
ACAD
1000
AcDbSavedByObjectVersion
1070
     0
  0
VISUALSTYLE
  5
AB5C
102
{ACAD_XDICTIONARY
360
ABC5
102
}
102
{ACAD_REACTORS
330
AB4B
102
}
330
AB4B
100
AcDbVisualStyle
  2
Shades of Gray
 70
    23
 71
     2
 72
     2
 73
     3
 90
        0
 40
-0.6
 41
-30.0
 62
     5
 63
     7
 74
     2
 91
        2
 64
     7
 65
     7
 75
     1
175
     1
 42
40.0
 92
        8
 66
     7
 43
1.0
 76
     1
 77
     6
 78
     2
 67
     7
 79
     3
170
     0
171
     0
290
     0
174
     0
 93
        1
 44
0.0
173
     0
291
     0
 45
0.0
1001
ACAD
1000
AcDbSavedByObjectVersion
1070
     0
  0
VISUALSTYLE
  5
AB5D
102
{ACAD_XDICTIONARY
360
ABC7
102
}
102
{ACAD_REACTORS
330
AB4B
102
}
330
AB4B
100
AcDbVisualStyle
  2
Sketchy
 70
    24
 71
     1
 72
     2
 73
     2
 90
        0
 40
-0.6
 41
-30.0
 62
     5
 63
     7
 74
     2
 91
        2
 64
     7
 65
     7
 75
     1
175
     1
 42
40.0
 92
       11
 66
     7
 43
1.0
 76
     1
 77
     6
 78
     2
 67
     7
 79
     6
170
     0
171
     0
290
     0
174
     0
 93
        1
 44
0.0
173
     0
291
     0
 45
0.0
1001
ACAD
1000
AcDbSavedByObjectVersion
1070
     0
  0
VISUALSTYLE
  5
AB58
102
{ACAD_XDICTIONARY
360
ABBD
102
}
102
{ACAD_REACTORS
330
AB4B
102
}
330
AB4B
100
AcDbVisualStyle
  2
Thicken
 70
    13
 71
     2
 72
     2
 73
     0
 90
        0
 40
-0.6
 41
-30.0
 62
     5
 63
     7
 74
     1
 91
        4
 64
     7
 65
   257
 75
     1
175
     1
 42
1.0
 92
       12
 66
     7
 43
1.0
 76
     1
 77
     6
 78
     2
 67
     7
 79
     5
170
     0
171
     0
290
     0
174
     0
 93
        1
 44
0.0
173
     0
291
     1
 45
0.0
1001
ACAD
1000
AcDbSavedByObjectVersion
1070
     0
  0
VISUALSTYLE
  5
AB52
102
{ACAD_XDICTIONARY
360
ABB1
102
}
102
{ACAD_REACTORS
330
AB4B
102
}
330
AB4B
100
AcDbVisualStyle
  2
Wireframe
 70
     5
 71
     0
 72
     2
 73
     0
 90
        0
 40
-0.6
 41
-30.0
 62
     5
 63
     7
 74
     1
 91
        4
 64
     7
 65
   257
 75
     1
175
     1
 42
1.0
 92
        0
 66
   257
 43
1.0
 76
     1
 77
     6
 78
     2
 67
     7
 79
     3
170
     0
171
     0
290
     0
174
     0
 93
        1
 44
0.0
173
     0
291
     0
 45
0.0
1001
ACAD
1000
AcDbSavedByObjectVersion
1070
     0
  0
VISUALSTYLE
  5
AB5E
102
{ACAD_XDICTIONARY
360
ABC9
102
}
102
{ACAD_REACTORS
330
AB4B
102
}
330
AB4B
100
AcDbVisualStyle
  2
X-Ray
 70
    25
 71
     2
 72
     2
 73
     1
 90
        1
 40
0.5
 41
-30.0
 62
     5
 63
     7
 74
     1
 91
        0
 64
     7
 65
   257
 75
     1
175
     1
 42
1.0
 92
        8
 66
     7
 43
1.0
 76
     1
 77
     6
 78
     2
 67
     7
 79
     3
170
     0
171
     0
290
     0
174
     0
 93
       13
 44
0.0
173
     0
291
     0
 45
0.0
1001
ACAD
1000
AcDbSavedByObjectVersion
1070
     0
  0
DICTIONARYVAR
  5
AB98
102
{ACAD_REACTORS
330
AB93
102
}
330
AB93
100
DictionaryVariables
280
     0
  1
1:1
  0
DICTIONARYVAR
  5
AB95
102
{ACAD_REACTORS
330
AB93
102
}
330
AB93
100
DictionaryVariables
280
     0
  1
STANDARD
  0
DICTIONARYVAR
  5
AB94
102
{ACAD_REACTORS
330
AB93
102
}
330
AB93
100
DictionaryVariables
280
     0
  1
STANDARD
  0
DICTIONARYVAR
  5
AB96
102
{ACAD_REACTORS
330
AB93
102
}
330
AB93
100
DictionaryVariables
280
     0
  1
Imperial24
  0
DICTIONARYVAR
  5
AB97
102
{ACAD_REACTORS
330
AB93
102
}
330
AB93
100
DictionaryVariables
280
     0
  1
Imperial24
  0
DICTIONARYVAR
  5
AB9B
102
{ACAD_REACTORS
330
AB93
102
}
330
AB93
100
DictionaryVariables
280
     0
  1
1
  0
DICTIONARYVAR
  5
AB9A
102
{ACAD_REACTORS
330
AB93
102
}
330
AB93
100
DictionaryVariables
280
     0
  1
0
  0
DICTIONARYVAR
  5
AB99
102
{ACAD_REACTORS
330
AB93
102
}
330
AB93
100
DictionaryVariables
280
     0
  1
127
  0
DICTIONARYVAR
  5
AB9C
102
{ACAD_REACTORS
330
AB93
102
}
330
AB93
100
DictionaryVariables
280
     0
  1
2
  0
DICTIONARY
  5
ABD9
330
AB7E
100
AcDbDictionary
280
     1
281
     1
  3
ACAD_XREC_ROUNDTRIP
360
ABDA
  0
DICTIONARY
  5
ABDB
330
AB7F
100
AcDbDictionary
280
     1
281
     1
  3
ACAD_XREC_ROUNDTRIP
360
ABDC
  0
DICTIONARY
  5
ABDD
330
AB80
100
AcDbDictionary
280
     1
281
     1
  3
ACAD_XREC_ROUNDTRIP
360
ABDE
  0
DICTIONARY
  5
AB3C
330
AB3B
100
AcDbDictionary
280
     1
281
     1
  3
ACAD_XREC_ROUNDTRIP
360
ABA3
  3
BUMPTILE
360
AB3E
  3
DIFFUSETILE
360
AB3D
  3
OPACITYTILE
360
AB41
  3
REFLECTIONTILE
360
AB40
  3
REFRACTIONTILE
360
AB42
  3
SPECULARTILE
360
AB3F
  0
DICTIONARY
  5
AB34
330
AB33
100
AcDbDictionary
280
     1
281
     1
  3
ACAD_XREC_ROUNDTRIP
360
ABA2
  3
BUMPTILE
360
AB36
  3
DIFFUSETILE
360
AB35
  3
OPACITYTILE
360
AB39
  3
REFLECTIONTILE
360
AB38
  3
REFRACTIONTILE
360
AB3A
  3
SPECULARTILE
360
AB37
  0
DICTIONARY
  5
AB44
330
AB43
100
AcDbDictionary
280
     1
281
     1
  3
ACAD_XREC_ROUNDTRIP
360
ABA4
  3
BUMPTILE
360
AB46
  3
DIFFUSETILE
360
AB45
  3
OPACITYTILE
360
AB49
  3
REFLECTIONTILE
360
AB48
  3
REFRACTIONTILE
360
AB4A
  3
SPECULARTILE
360
AB47
  0
DICTIONARY
  5
ABD7
330
AB7C
100
AcDbDictionary
280
     1
281
     1
  3
ACAD_XREC_ROUNDTRIP
360
ABD8
  0
DICTIONARY
  5
AB9E
330
AB66
100
AcDbDictionary
280
     1
281
     1
  3
ACAD_ROUNDTRIP_2008_TABLESTYLE_CELLSTYLEMAP
360
AB9F
  3
ACAD_XREC_ROUNDTRIP
360
ABD5
  0
DICTIONARY
  5
ABAF
330
AB51
100
AcDbDictionary
280
     1
281
     1
  3
ACAD_XREC_ROUNDTRIP
360
ABB0
  0
DICTIONARY
  5
ABAD
330
AB50
100
AcDbDictionary
280
     1
281
     1
  3
ACAD_XREC_ROUNDTRIP
360
ABAE
  0
DICTIONARY
  5
ABBB
330
AB57
100
AcDbDictionary
280
     1
281
     1
  3
ACAD_XREC_ROUNDTRIP
360
ABBC
  0
DICTIONARY
  5
ABC3
330
AB5B
100
AcDbDictionary
280
     1
281
     1
  3
ACAD_XREC_ROUNDTRIP
360
ABC4
  0
DICTIONARY
  5
ABB5
330
AB54
100
AcDbDictionary
280
     1
281
     1
  3
ACAD_XREC_ROUNDTRIP
360
ABB6
  0
DICTIONARY
  5
ABB9
330
AB56
100
AcDbDictionary
280
     1
281
     1
  3
ACAD_XREC_ROUNDTRIP
360
ABBA
  0
DICTIONARY
  5
ABD3
330
AB63
100
AcDbDictionary
280
     1
281
     1
  3
ACAD_XREC_ROUNDTRIP
360
ABD4
  0
DICTIONARY
  5
ABC1
330
AB5A
100
AcDbDictionary
280
     1
281
     1
  3
ACAD_XREC_ROUNDTRIP
360
ABC2
  0
DICTIONARY
  5
ABA5
330
AB4C
100
AcDbDictionary
280
     1
281
     1
  3
ACAD_XREC_ROUNDTRIP
360
ABA6
  0
DICTIONARY
  5
ABA7
330
AB4D
100
AcDbDictionary
280
     1
281
     1
  3
ACAD_XREC_ROUNDTRIP
360
ABA8
  0
DICTIONARY
  5
ABA9
330
AB4E
100
AcDbDictionary
280
     1
281
     1
  3
ACAD_XREC_ROUNDTRIP
360
ABAA
  0
DICTIONARY
  5
ABAB
330
AB4F
100
AcDbDictionary
280
     1
281
     1
  3
ACAD_XREC_ROUNDTRIP
360
ABAC
  0
DICTIONARY
  5
ABB3
330
AB53
100
AcDbDictionary
280
     1
281
     1
  3
ACAD_XREC_ROUNDTRIP
360
ABB4
  0
DICTIONARY
  5
ABCF
330
AB61
100
AcDbDictionary
280
     1
281
     1
  3
ACAD_XREC_ROUNDTRIP
360
ABD0
  0
DICTIONARY
  5
ABBF
330
AB59
100
AcDbDictionary
280
     1
281
     1
  3
ACAD_XREC_ROUNDTRIP
360
ABC0
  0
DICTIONARY
  5
ABD1
330
AB62
100
AcDbDictionary
280
     1
281
     1
  3
ACAD_XREC_ROUNDTRIP
360
ABD2
  0
DICTIONARY
  5
ABB7
330
AB55
100
AcDbDictionary
280
     1
281
     1
  3
ACAD_XREC_ROUNDTRIP
360
ABB8
  0
DICTIONARY
  5
ABCD
330
AB60
100
AcDbDictionary
280
     1
281
     1
  3
ACAD_XREC_ROUNDTRIP
360
ABCE
  0
DICTIONARY
  5
ABCB
330
AB5F
100
AcDbDictionary
280
     1
281
     1
  3
ACAD_XREC_ROUNDTRIP
360
ABCC
  0
DICTIONARY
  5
ABC5
330
AB5C
100
AcDbDictionary
280
     1
281
     1
  3
ACAD_XREC_ROUNDTRIP
360
ABC6
  0
DICTIONARY
  5
ABC7
330
AB5D
100
AcDbDictionary
280
     1
281
     1
  3
ACAD_XREC_ROUNDTRIP
360
ABC8
  0
DICTIONARY
  5
ABBD
330
AB58
100
AcDbDictionary
280
     1
281
     1
  3
ACAD_XREC_ROUNDTRIP
360
ABBE
  0
DICTIONARY
  5
ABB1
330
AB52
100
AcDbDictionary
280
     1
281
     1
  3
ACAD_XREC_ROUNDTRIP
360
ABB2
  0
DICTIONARY
  5
ABC9
330
AB5E
100
AcDbDictionary
280
     1
281
     1
  3
ACAD_XREC_ROUNDTRIP
360
ABCA
  0
XRECORD
  5
ABDA
102
{ACAD_REACTORS
330
ABD9
102
}
330
ABD9
100
AcDbXrecord
280
     1
102
DISPLAYNAME
  1
Imperial24
102
FLAGS
 90
        0
  0
XRECORD
  5
ABDC
102
{ACAD_REACTORS
330
ABDB
102
}
330
ABDB
100
AcDbXrecord
280
     1
102
SHADEPLOT
 70
     0
102
SHADEPLOTRESLEVEL
 70
     2
102
SHADEPLOTCUSTOMDPI
 70
   300
  0
XRECORD
  5
ABDE
102
{ACAD_REACTORS
330
ABDD
102
}
330
ABDD
100
AcDbXrecord
280
     1
102
SHADEPLOT
 70
     0
102
SHADEPLOTRESLEVEL
 70
     2
102
SHADEPLOTCUSTOMDPI
 70
   300
  0
XRECORD
  5
ABA3
102
{ACAD_REACTORS
330
AB3C
102
}
330
AB3C
100
AcDbXrecord
280
     1
102
MATERIAL
148
0.0
149
0.0
149
0.0
 93
        0
 94
      127
282
     0
 72
     0
 77
     0
171
     0
175
     0
179
     0
273
     0
  0
XRECORD
  5
AB3E
102
{ACAD_REACTORS
330
AB3C
102
}
330
AB3C
100
AcDbXrecord
280
     1
270
     1
271
     1
  0
XRECORD
  5
AB3D
102
{ACAD_REACTORS
330
AB3C
102
}
330
AB3C
100
AcDbXrecord
280
     1
270
     1
271
     1
  0
XRECORD
  5
AB41
102
{ACAD_REACTORS
330
AB3C
102
}
330
AB3C
100
AcDbXrecord
280
     1
270
     1
271
     1
  0
XRECORD
  5
AB40
102
{ACAD_REACTORS
330
AB3C
102
}
330
AB3C
100
AcDbXrecord
280
     1
270
     1
271
     1
  0
XRECORD
  5
AB42
102
{ACAD_REACTORS
330
AB3C
102
}
330
AB3C
100
AcDbXrecord
280
     1
270
     1
271
     1
  0
XRECORD
  5
AB3F
102
{ACAD_REACTORS
330
AB3C
102
}
330
AB3C
100
AcDbXrecord
280
     1
270
     1
271
     1
  0
XRECORD
  5
ABA2
102
{ACAD_REACTORS
330
AB34
102
}
330
AB34
100
AcDbXrecord
280
     1
102
MATERIAL
148
0.0
149
0.0
149
0.0
 93
        0
 94
      127
282
     0
 72
     0
 77
     0
171
     0
175
     0
179
     0
273
     0
  0
XRECORD
  5
AB36
102
{ACAD_REACTORS
330
AB34
102
}
330
AB34
100
AcDbXrecord
280
     1
270
     1
271
     1
  0
XRECORD
  5
AB35
102
{ACAD_REACTORS
330
AB34
102
}
330
AB34
100
AcDbXrecord
280
     1
270
     1
271
     1
  0
XRECORD
  5
AB39
102
{ACAD_REACTORS
330
AB34
102
}
330
AB34
100
AcDbXrecord
280
     1
270
     1
271
     1
  0
XRECORD
  5
AB38
102
{ACAD_REACTORS
330
AB34
102
}
330
AB34
100
AcDbXrecord
280
     1
270
     1
271
     1
  0
XRECORD
  5
AB3A
102
{ACAD_REACTORS
330
AB34
102
}
330
AB34
100
AcDbXrecord
280
     1
270
     1
271
     1
  0
XRECORD
  5
AB37
102
{ACAD_REACTORS
330
AB34
102
}
330
AB34
100
AcDbXrecord
280
     1
270
     1
271
     1
  0
XRECORD
  5
ABA4
102
{ACAD_REACTORS
330
AB44
102
}
330
AB44
100
AcDbXrecord
280
     1
102
MATERIAL
148
0.0
149
0.0
149
0.0
 93
        0
 94
      127
282
     0
 72
     0
 77
     0
171
     0
175
     0
179
     0
273
     0
  0
XRECORD
  5
AB46
102
{ACAD_REACTORS
330
AB44
102
}
330
AB44
100
AcDbXrecord
280
     1
270
     1
271
     1
  0
XRECORD
  5
AB45
102
{ACAD_REACTORS
330
AB44
102
}
330
AB44
100
AcDbXrecord
280
     1
270
     1
271
     1
  0
XRECORD
  5
AB49
102
{ACAD_REACTORS
330
AB44
102
}
330
AB44
100
AcDbXrecord
280
     1
270
     1
271
     1
  0
XRECORD
  5
AB48
102
{ACAD_REACTORS
330
AB44
102
}
330
AB44
100
AcDbXrecord
280
     1
270
     1
271
     1
  0
XRECORD
  5
AB4A
102
{ACAD_REACTORS
330
AB44
102
}
330
AB44
100
AcDbXrecord
280
     1
270
     1
271
     1
  0
XRECORD
  5
AB47
102
{ACAD_REACTORS
330
AB44
102
}
330
AB44
100
AcDbXrecord
280
     1
270
     1
271
     1
  0
XRECORD
  5
ABD8
102
{ACAD_REACTORS
330
ABD7
102
}
330
ABD7
100
AcDbXrecord
280
     1
102
DISPLAYNAME
  1
Imperial24
102
FLAGS
 90
        0
  0
CELLSTYLEMAP
  5
AB9F
102
{ACAD_REACTORS
330
AB9E
102
}
330
AB9E
100
AcDbCellStyleMap
 90
        3
300
CELLSTYLE
  1
TABLEFORMAT_BEGIN
 90
        5
170
     1
 91
        0
 92
    32768
 62
   257
 93
        1
300
CONTENTFORMAT
  1
CONTENTFORMAT_BEGIN
 90
        0
 91
        0
 92
      512
 93
        0
300

 40
0.0
140
1.0
 94
        5
 62
     0
340
A793
144
0.25
309
CONTENTFORMAT_END
171
     0
 94
        0
309
TABLEFORMAT_END
  1
CELLSTYLE_BEGIN
 90
        1
 91
        1
300
_TITLE
309
CELLSTYLE_END
300
CELLSTYLE
  1
TABLEFORMAT_BEGIN
 90
        5
170
     1
 91
        0
 92
        0
 62
   257
 93
        1
300
CONTENTFORMAT
  1
CONTENTFORMAT_BEGIN
 90
        0
 91
        0
 92
      512
 93
        0
300

 40
0.0
140
1.0
 94
        5
 62
     0
340
A793
144
0.18
309
CONTENTFORMAT_END
171
     0
 94
        0
309
TABLEFORMAT_END
  1
CELLSTYLE_BEGIN
 90
        2
 91
        1
300
_HEADER
309
CELLSTYLE_END
300
CELLSTYLE
  1
TABLEFORMAT_BEGIN
 90
        5
170
     1
 91
        0
 92
        0
 62
   257
 93
        1
300
CONTENTFORMAT
  1
CONTENTFORMAT_BEGIN
 90
        0
 91
        0
 92
      512
 93
        0
300

 40
0.0
140
1.0
 94
        2
 62
     0
340
A793
144
0.18
309
CONTENTFORMAT_END
171
     0
 94
        0
309
TABLEFORMAT_END
  1
CELLSTYLE_BEGIN
 90
        3
 91
        2
300
_DATA
309
CELLSTYLE_END
  0
XRECORD
  5
ABD5
102
{ACAD_REACTORS
330
AB9E
102
}
330
AB9E
100
AcDbXrecord
280
     1
102
ACAD_ROUNDTRIP_PRE2007_TABLESTYLE
 90
      512
 91
        0
  1

 92
      512
 93
        0
  2

 94
      512
 95
        0
  3

  0
XRECORD
  5
ABB0
102
{ACAD_REACTORS
330
ABAF
102
}
330
ABAF
100
AcDbXrecord
280
     1
102
RTVSPost2010Prop28
280
     1
102
RTVSPost2010PropOp28
 70
     1
102
RTVSPost2010Prop29
280
     1
102
RTVSPost2010PropOp29
 70
     1
102
RTVSPost2010Prop30
280
     0
102
RTVSPost2010PropOp30
 70
     1
102
RTVSPost2010Prop31
280
     0
102
RTVSPost2010PropOp31
 70
     1
102
RTVSPost2010Prop32
280
     0
102
RTVSPost2010PropOp32
 70
     1
102
RTVSPost2010Prop33
280
     0
102
RTVSPost2010PropOp33
 70
     1
102
RTVSPost2010Prop34
280
     0
102
RTVSPost2010PropOp34
 70
     1
102
RTVSPost2010Prop35
280
     0
102
RTVSPost2010PropOp35
 70
     1
102
RTVSPost2010Prop36
280
     0
102
RTVSPost2010PropOp36
 70
     1
102
RTVSPost2010Prop37
 90
       50
102
RTVSPost2010PropOp37
 70
     1
102
RTVSPost2010Prop38
140
0.0
102
RTVSPost2010PropOp38
 70
     1
102
RTVSPost2010Prop39
140
1.0
102
RTVSPost2010PropOp39
 70
     1
102
RTVSPost2010Prop40
 90
        0
102
RTVSPost2010PropOp40
 70
     1
102
RTVSPost2010Prop41ColorIndex
 90
       18
102
RTVSPost2010Prop41ColorRGB
 90
        0
102
RTVSPost2010PropOp41
 70
     1
102
RTVSPost2010Prop42
 90
       50
102
RTVSPost2010PropOp42
 70
     1
102
RTVSPost2010Prop43
 90
        3
102
RTVSPost2010PropOp43
 70
     1
102
RTVSPost2010Prop44ColorIndex
 90
        5
102
RTVSPost2010Prop44ColorRGB
 90
      255
102
RTVSPost2010PropOp44
 70
     1
102
RTVSPost2010Prop45
280
     0
102
RTVSPost2010PropOp45
 70
     1
102
RTVSPost2010Prop46
 90
       50
102
RTVSPost2010PropOp46
 70
     1
102
RTVSPost2010Prop47
 90
       50
102
RTVSPost2010PropOp47
 70
     1
102
RTVSPost2010Prop48
 90
       50
102
RTVSPost2010PropOp48
 70
     1
102
RTVSPost2010Prop49
280
     0
102
RTVSPost2010PropOp49
 70
     1
102
RTVSPost2010Prop50
 90
       50
102
RTVSPost2010PropOp50
 70
     1
102
RTVSPost2010Prop51ColorIndex
 90
      256
102
RTVSPost2010Prop51ColorRGB
 90
-16777216
102
RTVSPost2010PropOp51
 70
     0
102
RTVSPost2010Prop52
140
1.0
102
RTVSPost2010PropOp52
 70
     0
102
RTVSPost2010Prop53
 90
        2
102
RTVSPost2010PropOp53
 70
     1
102
RTVSPost2010Prop54
  1
strokes_ogs.tif
102
RTVSPost2010PropOp54
 70
     1
102
RTVSPost2010Prop55
280
     0
102
RTVSPost2010PropOp55
 70
     1
102
RTVSPost2010Prop56
140
1.0
102
RTVSPost2010PropOp56
 70
     1
102
RTVSPost2010Prop57
140
1.0
102
RTVSPost2010PropOp57
 70
     1
102
RTVSPropertyOp0
 70
     1
102
RTVSPropertyOp1
 70
     1
102
RTVSPropertyOp2
 70
     1
102
RTVSPropertyOp3
 70
     1
102
RTVSPropertyOp4
 70
     1
102
RTVSPropertyOp5
 70
     1
102
RTVSPropertyOp6
 70
     1
102
RTVSPropertyOp7
 70
     1
102
RTVSPropertyOp8
 70
     1
102
RTVSPropertyOp9
 70
     1
102
RTVSPropertyOp10
 70
     1
102
RTVSPropertyOp11
 70
     1
102
RTVSPropertyOp12
 70
     1
102
RTVSPropertyOp13
 70
     1
102
RTVSPropertyOp14
 70
     1
102
RTVSPropertyOp15
 70
     1
102
RTVSPropertyOp16
 70
     1
102
RTVSPropertyOp17
 70
     1
102
RTVSPropertyOp18
 70
     1
102
RTVSPropertyOp19
 70
     1
102
RTVSPropertyOp20
 70
     1
102
RTVSPropertyOp21
 70
     1
102
RTVSPropertyOp22
 70
     1
102
RTVSPropertyOp23
 70
     1
102
RTVSPropertyOp24
 70
     1
102
RTVSPropertyOp25
 70
     1
102
RTVSPropertyOp26
 70
     1
102
RTVSPropertyOp27
 70
     1
102
RTVSPropertyOp28
 70
     1
102
RTVSPropertyOp29
 70
     1
102
RTVSPropertyOp30
 70
     1
102
RTVSPropertyOp31
 70
     1
102
RTVSPropertyOp32
 70
     1
102
RTVSPropertyOp33
 70
     1
102
RTVSPropertyOp34
 70
     1
102
RTVSPropertyOp35
 70
     1
102
RTVSPropertyOp36
 70
     1
102
RTVSPropertyOp37
 70
     1
102
RTVSPropertyOp38
 70
     1
102
RTVSPropertyOp39
 70
     1
102
RTVSPropertyOp40
 70
     1
102
RTVSPropertyOp41
 70
     1
102
RTVSPropertyOp42
 70
     1
102
RTVSPropertyOp43
 70
     1
102
RTVSPropertyOp44
 70
     1
102
RTVSPropertyOp45
 70
     1
102
RTVSPropertyOp46
 70
     1
102
RTVSPropertyOp47
 70
     1
102
RTVSPropertyOp48
 70
     1
102
RTVSPropertyOp49
 70
     1
102
RTVSPropertyOp50
 70
     1
102
RTVSPropertyOp51
 70
     0
102
RTVSPropertyOp52
 70
     0
102
RTVSPropertyOp53
 70
     1
102
RTVSPropertyOp54
 70
     1
102
RTVSPropertyOp55
 70
     1
102
RTVSPropertyOp56
 70
     1
102
RTVSPropertyOp57
 70
     1
102
RTVSPropertyOp58
 70
     1
102
RTVSPropertyOp59
 70
     1
102
RTVSPropertyOp60
 70
     1
102
RTVSPropertyOp61
 70
     1
102
RTVSPropertyOp62
 70
     1
  0
XRECORD
  5
ABAE
102
{ACAD_REACTORS
330
ABAD
102
}
330
ABAD
100
AcDbXrecord
280
     1
102
RTVSPost2010Prop28
280
     0
102
RTVSPost2010PropOp28
 70
     1
102
RTVSPost2010Prop29
280
     1
102
RTVSPost2010PropOp29
 70
     1
102
RTVSPost2010Prop30
280
     1
102
RTVSPost2010PropOp30
 70
     1
102
RTVSPost2010Prop31
280
     0
102
RTVSPost2010PropOp31
 70
     1
102
RTVSPost2010Prop32
280
     0
102
RTVSPost2010PropOp32
 70
     1
102
RTVSPost2010Prop33
280
     0
102
RTVSPost2010PropOp33
 70
     1
102
RTVSPost2010Prop34
280
     0
102
RTVSPost2010PropOp34
 70
     1
102
RTVSPost2010Prop35
280
     0
102
RTVSPost2010PropOp35
 70
     1
102
RTVSPost2010Prop36
280
     0
102
RTVSPost2010PropOp36
 70
     1
102
RTVSPost2010Prop37
 90
       50
102
RTVSPost2010PropOp37
 70
     1
102
RTVSPost2010Prop38
140
0.0
102
RTVSPost2010PropOp38
 70
     1
102
RTVSPost2010Prop39
140
1.0
102
RTVSPost2010PropOp39
 70
     1
102
RTVSPost2010Prop40
 90
        0
102
RTVSPost2010PropOp40
 70
     1
102
RTVSPost2010Prop41ColorIndex
 90
       18
102
RTVSPost2010Prop41ColorRGB
 90
        0
102
RTVSPost2010PropOp41
 70
     1
102
RTVSPost2010Prop42
 90
       50
102
RTVSPost2010PropOp42
 70
     1
102
RTVSPost2010Prop43
 90
        3
102
RTVSPost2010PropOp43
 70
     1
102
RTVSPost2010Prop44ColorIndex
 90
        5
102
RTVSPost2010Prop44ColorRGB
 90
      255
102
RTVSPost2010PropOp44
 70
     1
102
RTVSPost2010Prop45
280
     0
102
RTVSPost2010PropOp45
 70
     1
102
RTVSPost2010Prop46
 90
       50
102
RTVSPost2010PropOp46
 70
     1
102
RTVSPost2010Prop47
 90
       50
102
RTVSPost2010PropOp47
 70
     1
102
RTVSPost2010Prop48
 90
       50
102
RTVSPost2010PropOp48
 70
     1
102
RTVSPost2010Prop49
280
     0
102
RTVSPost2010PropOp49
 70
     1
102
RTVSPost2010Prop50
 90
       50
102
RTVSPost2010PropOp50
 70
     1
102
RTVSPost2010Prop51ColorIndex
 90
      256
102
RTVSPost2010Prop51ColorRGB
 90
-16777216
102
RTVSPost2010PropOp51
 70
     0
102
RTVSPost2010Prop52
140
1.0
102
RTVSPost2010PropOp52
 70
     0
102
RTVSPost2010Prop53
 90
        2
102
RTVSPost2010PropOp53
 70
     1
102
RTVSPost2010Prop54
  1
strokes_ogs.tif
102
RTVSPost2010PropOp54
 70
     1
102
RTVSPost2010Prop55
280
     0
102
RTVSPost2010PropOp55
 70
     1
102
RTVSPost2010Prop56
140
1.0
102
RTVSPost2010PropOp56
 70
     1
102
RTVSPost2010Prop57
140
1.0
102
RTVSPost2010PropOp57
 70
     1
102
RTVSPropertyOp0
 70
     1
102
RTVSPropertyOp1
 70
     1
102
RTVSPropertyOp2
 70
     1
102
RTVSPropertyOp3
 70
     1
102
RTVSPropertyOp4
 70
     1
102
RTVSPropertyOp5
 70
     1
102
RTVSPropertyOp6
 70
     1
102
RTVSPropertyOp7
 70
     1
102
RTVSPropertyOp8
 70
     1
102
RTVSPropertyOp9
 70
     1
102
RTVSPropertyOp10
 70
     1
102
RTVSPropertyOp11
 70
     1
102
RTVSPropertyOp12
 70
     1
102
RTVSPropertyOp13
 70
     1
102
RTVSPropertyOp14
 70
     1
102
RTVSPropertyOp15
 70
     1
102
RTVSPropertyOp16
 70
     1
102
RTVSPropertyOp17
 70
     1
102
RTVSPropertyOp18
 70
     1
102
RTVSPropertyOp19
 70
     1
102
RTVSPropertyOp20
 70
     1
102
RTVSPropertyOp21
 70
     1
102
RTVSPropertyOp22
 70
     1
102
RTVSPropertyOp23
 70
     1
102
RTVSPropertyOp24
 70
     1
102
RTVSPropertyOp25
 70
     1
102
RTVSPropertyOp26
 70
     1
102
RTVSPropertyOp27
 70
     1
102
RTVSPropertyOp28
 70
     1
102
RTVSPropertyOp29
 70
     1
102
RTVSPropertyOp30
 70
     1
102
RTVSPropertyOp31
 70
     1
102
RTVSPropertyOp32
 70
     1
102
RTVSPropertyOp33
 70
     1
102
RTVSPropertyOp34
 70
     1
102
RTVSPropertyOp35
 70
     1
102
RTVSPropertyOp36
 70
     1
102
RTVSPropertyOp37
 70
     1
102
RTVSPropertyOp38
 70
     1
102
RTVSPropertyOp39
 70
     1
102
RTVSPropertyOp40
 70
     1
102
RTVSPropertyOp41
 70
     1
102
RTVSPropertyOp42
 70
     1
102
RTVSPropertyOp43
 70
     1
102
RTVSPropertyOp44
 70
     1
102
RTVSPropertyOp45
 70
     1
102
RTVSPropertyOp46
 70
     1
102
RTVSPropertyOp47
 70
     1
102
RTVSPropertyOp48
 70
     1
102
RTVSPropertyOp49
 70
     1
102
RTVSPropertyOp50
 70
     1
102
RTVSPropertyOp51
 70
     0
102
RTVSPropertyOp52
 70
     0
102
RTVSPropertyOp53
 70
     1
102
RTVSPropertyOp54
 70
     1
102
RTVSPropertyOp55
 70
     1
102
RTVSPropertyOp56
 70
     1
102
RTVSPropertyOp57
 70
     1
102
RTVSPropertyOp58
 70
     1
102
RTVSPropertyOp59
 70
     1
102
RTVSPropertyOp60
 70
     1
102
RTVSPropertyOp61
 70
     1
102
RTVSPropertyOp62
 70
     1
  0
XRECORD
  5
ABBC
102
{ACAD_REACTORS
330
ABBB
102
}
330
ABBB
100
AcDbXrecord
280
     1
102
RTVSPost2010Prop28
280
     0
102
RTVSPost2010PropOp28
 70
     1
102
RTVSPost2010Prop29
280
     1
102
RTVSPost2010PropOp29
 70
     1
102
RTVSPost2010Prop30
280
     1
102
RTVSPost2010PropOp30
 70
     1
102
RTVSPost2010Prop31
280
     0
102
RTVSPost2010PropOp31
 70
     1
102
RTVSPost2010Prop32
280
     0
102
RTVSPost2010PropOp32
 70
     1
102
RTVSPost2010Prop33
280
     0
102
RTVSPost2010PropOp33
 70
     1
102
RTVSPost2010Prop34
280
     0
102
RTVSPost2010PropOp34
 70
     1
102
RTVSPost2010Prop35
280
     0
102
RTVSPost2010PropOp35
 70
     1
102
RTVSPost2010Prop36
280
     0
102
RTVSPost2010PropOp36
 70
     1
102
RTVSPost2010Prop37
 90
       50
102
RTVSPost2010PropOp37
 70
     1
102
RTVSPost2010Prop38
140
0.0
102
RTVSPost2010PropOp38
 70
     1
102
RTVSPost2010Prop39
140
1.0
102
RTVSPost2010PropOp39
 70
     1
102
RTVSPost2010Prop40
 90
        0
102
RTVSPost2010PropOp40
 70
     1
102
RTVSPost2010Prop41ColorIndex
 90
       18
102
RTVSPost2010Prop41ColorRGB
 90
        0
102
RTVSPost2010PropOp41
 70
     1
102
RTVSPost2010Prop42
 90
       50
102
RTVSPost2010PropOp42
 70
     1
102
RTVSPost2010Prop43
 90
        3
102
RTVSPost2010PropOp43
 70
     1
102
RTVSPost2010Prop44ColorIndex
 90
        5
102
RTVSPost2010Prop44ColorRGB
 90
      255
102
RTVSPost2010PropOp44
 70
     1
102
RTVSPost2010Prop45
280
     0
102
RTVSPost2010PropOp45
 70
     1
102
RTVSPost2010Prop46
 90
       50
102
RTVSPost2010PropOp46
 70
     1
102
RTVSPost2010Prop47
 90
       50
102
RTVSPost2010PropOp47
 70
     1
102
RTVSPost2010Prop48
 90
       50
102
RTVSPost2010PropOp48
 70
     1
102
RTVSPost2010Prop49
280
     0
102
RTVSPost2010PropOp49
 70
     1
102
RTVSPost2010Prop50
 90
       50
102
RTVSPost2010PropOp50
 70
     1
102
RTVSPost2010Prop51ColorIndex
 90
      256
102
RTVSPost2010Prop51ColorRGB
 90
-16777216
102
RTVSPost2010PropOp51
 70
     0
102
RTVSPost2010Prop52
140
1.0
102
RTVSPost2010PropOp52
 70
     0
102
RTVSPost2010Prop53
 90
        2
102
RTVSPost2010PropOp53
 70
     1
102
RTVSPost2010Prop54
  1
strokes_ogs.tif
102
RTVSPost2010PropOp54
 70
     1
102
RTVSPost2010Prop55
280
     0
102
RTVSPost2010PropOp55
 70
     1
102
RTVSPost2010Prop56
140
1.0
102
RTVSPost2010PropOp56
 70
     1
102
RTVSPost2010Prop57
140
1.0
102
RTVSPost2010PropOp57
 70
     1
102
RTVSPropertyOp0
 70
     1
102
RTVSPropertyOp1
 70
     1
102
RTVSPropertyOp2
 70
     1
102
RTVSPropertyOp3
 70
     1
102
RTVSPropertyOp4
 70
     1
102
RTVSPropertyOp5
 70
     1
102
RTVSPropertyOp6
 70
     1
102
RTVSPropertyOp7
 70
     1
102
RTVSPropertyOp8
 70
     1
102
RTVSPropertyOp9
 70
     1
102
RTVSPropertyOp10
 70
     1
102
RTVSPropertyOp11
 70
     1
102
RTVSPropertyOp12
 70
     1
102
RTVSPropertyOp13
 70
     1
102
RTVSPropertyOp14
 70
     1
102
RTVSPropertyOp15
 70
     1
102
RTVSPropertyOp16
 70
     1
102
RTVSPropertyOp17
 70
     1
102
RTVSPropertyOp18
 70
     1
102
RTVSPropertyOp19
 70
     1
102
RTVSPropertyOp20
 70
     1
102
RTVSPropertyOp21
 70
     1
102
RTVSPropertyOp22
 70
     1
102
RTVSPropertyOp23
 70
     1
102
RTVSPropertyOp24
 70
     1
102
RTVSPropertyOp25
 70
     1
102
RTVSPropertyOp26
 70
     1
102
RTVSPropertyOp27
 70
     1
102
RTVSPropertyOp28
 70
     1
102
RTVSPropertyOp29
 70
     1
102
RTVSPropertyOp30
 70
     1
102
RTVSPropertyOp31
 70
     1
102
RTVSPropertyOp32
 70
     1
102
RTVSPropertyOp33
 70
     1
102
RTVSPropertyOp34
 70
     1
102
RTVSPropertyOp35
 70
     1
102
RTVSPropertyOp36
 70
     1
102
RTVSPropertyOp37
 70
     1
102
RTVSPropertyOp38
 70
     1
102
RTVSPropertyOp39
 70
     1
102
RTVSPropertyOp40
 70
     1
102
RTVSPropertyOp41
 70
     1
102
RTVSPropertyOp42
 70
     1
102
RTVSPropertyOp43
 70
     1
102
RTVSPropertyOp44
 70
     1
102
RTVSPropertyOp45
 70
     1
102
RTVSPropertyOp46
 70
     1
102
RTVSPropertyOp47
 70
     1
102
RTVSPropertyOp48
 70
     1
102
RTVSPropertyOp49
 70
     1
102
RTVSPropertyOp50
 70
     1
102
RTVSPropertyOp51
 70
     0
102
RTVSPropertyOp52
 70
     0
102
RTVSPropertyOp53
 70
     1
102
RTVSPropertyOp54
 70
     1
102
RTVSPropertyOp55
 70
     1
102
RTVSPropertyOp56
 70
     1
102
RTVSPropertyOp57
 70
     1
102
RTVSPropertyOp58
 70
     1
102
RTVSPropertyOp59
 70
     1
102
RTVSPropertyOp60
 70
     1
102
RTVSPropertyOp61
 70
     1
102
RTVSPropertyOp62
 70
     1
  0
XRECORD
  5
ABC4
102
{ACAD_REACTORS
330
ABC3
102
}
330
ABC3
100
AcDbXrecord
280
     1
102
RTVSPost2010Prop28
280
     0
102
RTVSPost2010PropOp28
 70
     1
102
RTVSPost2010Prop29
280
     1
102
RTVSPost2010PropOp29
 70
     1
102
RTVSPost2010Prop30
280
     1
102
RTVSPost2010PropOp30
 70
     1
102
RTVSPost2010Prop31
280
     0
102
RTVSPost2010PropOp31
 70
     1
102
RTVSPost2010Prop32
280
     0
102
RTVSPost2010PropOp32
 70
     1
102
RTVSPost2010Prop33
280
     0
102
RTVSPost2010PropOp33
 70
     1
102
RTVSPost2010Prop34
280
     0
102
RTVSPost2010PropOp34
 70
     1
102
RTVSPost2010Prop35
280
     0
102
RTVSPost2010PropOp35
 70
     1
102
RTVSPost2010Prop36
280
     0
102
RTVSPost2010PropOp36
 70
     1
102
RTVSPost2010Prop37
 90
       50
102
RTVSPost2010PropOp37
 70
     1
102
RTVSPost2010Prop38
140
0.0
102
RTVSPost2010PropOp38
 70
     1
102
RTVSPost2010Prop39
140
1.0
102
RTVSPost2010PropOp39
 70
     1
102
RTVSPost2010Prop40
 90
        0
102
RTVSPost2010PropOp40
 70
     1
102
RTVSPost2010Prop41ColorIndex
 90
       18
102
RTVSPost2010Prop41ColorRGB
 90
        0
102
RTVSPost2010PropOp41
 70
     1
102
RTVSPost2010Prop42
 90
       50
102
RTVSPost2010PropOp42
 70
     1
102
RTVSPost2010Prop43
 90
        3
102
RTVSPost2010PropOp43
 70
     1
102
RTVSPost2010Prop44ColorIndex
 90
        5
102
RTVSPost2010Prop44ColorRGB
 90
      255
102
RTVSPost2010PropOp44
 70
     1
102
RTVSPost2010Prop45
280
     0
102
RTVSPost2010PropOp45
 70
     1
102
RTVSPost2010Prop46
 90
       50
102
RTVSPost2010PropOp46
 70
     1
102
RTVSPost2010Prop47
 90
       50
102
RTVSPost2010PropOp47
 70
     1
102
RTVSPost2010Prop48
 90
       50
102
RTVSPost2010PropOp48
 70
     1
102
RTVSPost2010Prop49
280
     0
102
RTVSPost2010PropOp49
 70
     1
102
RTVSPost2010Prop50
 90
       50
102
RTVSPost2010PropOp50
 70
     1
102
RTVSPost2010Prop51ColorIndex
 90
      256
102
RTVSPost2010Prop51ColorRGB
 90
-16777216
102
RTVSPost2010PropOp51
 70
     0
102
RTVSPost2010Prop52
140
1.0
102
RTVSPost2010PropOp52
 70
     0
102
RTVSPost2010Prop53
 90
        2
102
RTVSPost2010PropOp53
 70
     1
102
RTVSPost2010Prop54
  1
strokes_ogs.tif
102
RTVSPost2010PropOp54
 70
     1
102
RTVSPost2010Prop55
280
     0
102
RTVSPost2010PropOp55
 70
     1
102
RTVSPost2010Prop56
140
1.0
102
RTVSPost2010PropOp56
 70
     1
102
RTVSPost2010Prop57
140
1.0
102
RTVSPost2010PropOp57
 70
     1
102
RTVSPropertyOp0
 70
     1
102
RTVSPropertyOp1
 70
     1
102
RTVSPropertyOp2
 70
     1
102
RTVSPropertyOp3
 70
     1
102
RTVSPropertyOp4
 70
     1
102
RTVSPropertyOp5
 70
     1
102
RTVSPropertyOp6
 70
     1
102
RTVSPropertyOp7
 70
     1
102
RTVSPropertyOp8
 70
     1
102
RTVSPropertyOp9
 70
     1
102
RTVSPropertyOp10
 70
     1
102
RTVSPropertyOp11
 70
     1
102
RTVSPropertyOp12
 70
     1
102
RTVSPropertyOp13
 70
     1
102
RTVSPropertyOp14
 70
     1
102
RTVSPropertyOp15
 70
     1
102
RTVSPropertyOp16
 70
     1
102
RTVSPropertyOp17
 70
     1
102
RTVSPropertyOp18
 70
     1
102
RTVSPropertyOp19
 70
     1
102
RTVSPropertyOp20
 70
     1
102
RTVSPropertyOp21
 70
     1
102
RTVSPropertyOp22
 70
     1
102
RTVSPropertyOp23
 70
     1
102
RTVSPropertyOp24
 70
     1
102
RTVSPropertyOp25
 70
     1
102
RTVSPropertyOp26
 70
     1
102
RTVSPropertyOp27
 70
     1
102
RTVSPropertyOp28
 70
     1
102
RTVSPropertyOp29
 70
     1
102
RTVSPropertyOp30
 70
     1
102
RTVSPropertyOp31
 70
     1
102
RTVSPropertyOp32
 70
     1
102
RTVSPropertyOp33
 70
     1
102
RTVSPropertyOp34
 70
     1
102
RTVSPropertyOp35
 70
     1
102
RTVSPropertyOp36
 70
     1
102
RTVSPropertyOp37
 70
     1
102
RTVSPropertyOp38
 70
     1
102
RTVSPropertyOp39
 70
     1
102
RTVSPropertyOp40
 70
     1
102
RTVSPropertyOp41
 70
     1
102
RTVSPropertyOp42
 70
     1
102
RTVSPropertyOp43
 70
     1
102
RTVSPropertyOp44
 70
     1
102
RTVSPropertyOp45
 70
     1
102
RTVSPropertyOp46
 70
     1
102
RTVSPropertyOp47
 70
     1
102
RTVSPropertyOp48
 70
     1
102
RTVSPropertyOp49
 70
     1
102
RTVSPropertyOp50
 70
     1
102
RTVSPropertyOp51
 70
     0
102
RTVSPropertyOp52
 70
     0
102
RTVSPropertyOp53
 70
     1
102
RTVSPropertyOp54
 70
     1
102
RTVSPropertyOp55
 70
     1
102
RTVSPropertyOp56
 70
     1
102
RTVSPropertyOp57
 70
     1
102
RTVSPropertyOp58
 70
     1
102
RTVSPropertyOp59
 70
     1
102
RTVSPropertyOp60
 70
     1
102
RTVSPropertyOp61
 70
     1
102
RTVSPropertyOp62
 70
     1
  0
XRECORD
  5
ABB6
102
{ACAD_REACTORS
330
ABB5
102
}
330
ABB5
100
AcDbXrecord
280
     1
102
RTVSPost2010Prop28
280
     0
102
RTVSPost2010PropOp28
 70
     1
102
RTVSPost2010Prop29
280
     1
102
RTVSPost2010PropOp29
 70
     1
102
RTVSPost2010Prop30
280
     1
102
RTVSPost2010PropOp30
 70
     1
102
RTVSPost2010Prop31
280
     0
102
RTVSPost2010PropOp31
 70
     1
102
RTVSPost2010Prop32
280
     0
102
RTVSPost2010PropOp32
 70
     1
102
RTVSPost2010Prop33
280
     0
102
RTVSPost2010PropOp33
 70
     1
102
RTVSPost2010Prop34
280
     0
102
RTVSPost2010PropOp34
 70
     1
102
RTVSPost2010Prop35
280
     0
102
RTVSPost2010PropOp35
 70
     1
102
RTVSPost2010Prop36
280
     0
102
RTVSPost2010PropOp36
 70
     1
102
RTVSPost2010Prop37
 90
       50
102
RTVSPost2010PropOp37
 70
     1
102
RTVSPost2010Prop38
140
0.0
102
RTVSPost2010PropOp38
 70
     1
102
RTVSPost2010Prop39
140
1.0
102
RTVSPost2010PropOp39
 70
     1
102
RTVSPost2010Prop40
 90
        0
102
RTVSPost2010PropOp40
 70
     1
102
RTVSPost2010Prop41ColorIndex
 90
       18
102
RTVSPost2010Prop41ColorRGB
 90
        0
102
RTVSPost2010PropOp41
 70
     1
102
RTVSPost2010Prop42
 90
       50
102
RTVSPost2010PropOp42
 70
     1
102
RTVSPost2010Prop43
 90
        3
102
RTVSPost2010PropOp43
 70
     1
102
RTVSPost2010Prop44ColorIndex
 90
        5
102
RTVSPost2010Prop44ColorRGB
 90
      255
102
RTVSPost2010PropOp44
 70
     1
102
RTVSPost2010Prop45
280
     0
102
RTVSPost2010PropOp45
 70
     1
102
RTVSPost2010Prop46
 90
       50
102
RTVSPost2010PropOp46
 70
     1
102
RTVSPost2010Prop47
 90
       50
102
RTVSPost2010PropOp47
 70
     1
102
RTVSPost2010Prop48
 90
       50
102
RTVSPost2010PropOp48
 70
     1
102
RTVSPost2010Prop49
280
     0
102
RTVSPost2010PropOp49
 70
     1
102
RTVSPost2010Prop50
 90
       50
102
RTVSPost2010PropOp50
 70
     1
102
RTVSPost2010Prop51ColorIndex
 90
      256
102
RTVSPost2010Prop51ColorRGB
 90
-16777216
102
RTVSPost2010PropOp51
 70
     0
102
RTVSPost2010Prop52
140
1.0
102
RTVSPost2010PropOp52
 70
     0
102
RTVSPost2010Prop53
 90
        2
102
RTVSPost2010PropOp53
 70
     1
102
RTVSPost2010Prop54
  1
strokes_ogs.tif
102
RTVSPost2010PropOp54
 70
     1
102
RTVSPost2010Prop55
280
     0
102
RTVSPost2010PropOp55
 70
     1
102
RTVSPost2010Prop56
140
1.0
102
RTVSPost2010PropOp56
 70
     1
102
RTVSPost2010Prop57
140
1.0
102
RTVSPost2010PropOp57
 70
     1
102
RTVSPropertyOp0
 70
     1
102
RTVSPropertyOp1
 70
     1
102
RTVSPropertyOp2
 70
     1
102
RTVSPropertyOp3
 70
     1
102
RTVSPropertyOp4
 70
     1
102
RTVSPropertyOp5
 70
     1
102
RTVSPropertyOp6
 70
     1
102
RTVSPropertyOp7
 70
     1
102
RTVSPropertyOp8
 70
     1
102
RTVSPropertyOp9
 70
     1
102
RTVSPropertyOp10
 70
     1
102
RTVSPropertyOp11
 70
     1
102
RTVSPropertyOp12
 70
     1
102
RTVSPropertyOp13
 70
     1
102
RTVSPropertyOp14
 70
     1
102
RTVSPropertyOp15
 70
     1
102
RTVSPropertyOp16
 70
     1
102
RTVSPropertyOp17
 70
     1
102
RTVSPropertyOp18
 70
     1
102
RTVSPropertyOp19
 70
     1
102
RTVSPropertyOp20
 70
     1
102
RTVSPropertyOp21
 70
     1
102
RTVSPropertyOp22
 70
     1
102
RTVSPropertyOp23
 70
     1
102
RTVSPropertyOp24
 70
     1
102
RTVSPropertyOp25
 70
     1
102
RTVSPropertyOp26
 70
     1
102
RTVSPropertyOp27
 70
     1
102
RTVSPropertyOp28
 70
     1
102
RTVSPropertyOp29
 70
     1
102
RTVSPropertyOp30
 70
     1
102
RTVSPropertyOp31
 70
     1
102
RTVSPropertyOp32
 70
     1
102
RTVSPropertyOp33
 70
     1
102
RTVSPropertyOp34
 70
     1
102
RTVSPropertyOp35
 70
     1
102
RTVSPropertyOp36
 70
     1
102
RTVSPropertyOp37
 70
     1
102
RTVSPropertyOp38
 70
     1
102
RTVSPropertyOp39
 70
     1
102
RTVSPropertyOp40
 70
     1
102
RTVSPropertyOp41
 70
     1
102
RTVSPropertyOp42
 70
     1
102
RTVSPropertyOp43
 70
     1
102
RTVSPropertyOp44
 70
     1
102
RTVSPropertyOp45
 70
     1
102
RTVSPropertyOp46
 70
     1
102
RTVSPropertyOp47
 70
     1
102
RTVSPropertyOp48
 70
     1
102
RTVSPropertyOp49
 70
     1
102
RTVSPropertyOp50
 70
     1
102
RTVSPropertyOp51
 70
     0
102
RTVSPropertyOp52
 70
     0
102
RTVSPropertyOp53
 70
     1
102
RTVSPropertyOp54
 70
     1
102
RTVSPropertyOp55
 70
     1
102
RTVSPropertyOp56
 70
     1
102
RTVSPropertyOp57
 70
     1
102
RTVSPropertyOp58
 70
     1
102
RTVSPropertyOp59
 70
     1
102
RTVSPropertyOp60
 70
     1
102
RTVSPropertyOp61
 70
     1
102
RTVSPropertyOp62
 70
     1
  0
XRECORD
  5
ABBA
102
{ACAD_REACTORS
330
ABB9
102
}
330
ABB9
100
AcDbXrecord
280
     1
102
RTVSPost2010Prop28
280
     0
102
RTVSPost2010PropOp28
 70
     1
102
RTVSPost2010Prop29
280
     1
102
RTVSPost2010PropOp29
 70
     1
102
RTVSPost2010Prop30
280
     1
102
RTVSPost2010PropOp30
 70
     1
102
RTVSPost2010Prop31
280
     0
102
RTVSPost2010PropOp31
 70
     1
102
RTVSPost2010Prop32
280
     0
102
RTVSPost2010PropOp32
 70
     1
102
RTVSPost2010Prop33
280
     0
102
RTVSPost2010PropOp33
 70
     1
102
RTVSPost2010Prop34
280
     0
102
RTVSPost2010PropOp34
 70
     1
102
RTVSPost2010Prop35
280
     0
102
RTVSPost2010PropOp35
 70
     1
102
RTVSPost2010Prop36
280
     0
102
RTVSPost2010PropOp36
 70
     1
102
RTVSPost2010Prop37
 90
       50
102
RTVSPost2010PropOp37
 70
     1
102
RTVSPost2010Prop38
140
0.0
102
RTVSPost2010PropOp38
 70
     1
102
RTVSPost2010Prop39
140
1.0
102
RTVSPost2010PropOp39
 70
     1
102
RTVSPost2010Prop40
 90
        0
102
RTVSPost2010PropOp40
 70
     1
102
RTVSPost2010Prop41ColorIndex
 90
       18
102
RTVSPost2010Prop41ColorRGB
 90
        0
102
RTVSPost2010PropOp41
 70
     1
102
RTVSPost2010Prop42
 90
       50
102
RTVSPost2010PropOp42
 70
     1
102
RTVSPost2010Prop43
 90
        3
102
RTVSPost2010PropOp43
 70
     1
102
RTVSPost2010Prop44ColorIndex
 90
        5
102
RTVSPost2010Prop44ColorRGB
 90
      255
102
RTVSPost2010PropOp44
 70
     1
102
RTVSPost2010Prop45
280
     0
102
RTVSPost2010PropOp45
 70
     1
102
RTVSPost2010Prop46
 90
       50
102
RTVSPost2010PropOp46
 70
     1
102
RTVSPost2010Prop47
 90
       50
102
RTVSPost2010PropOp47
 70
     1
102
RTVSPost2010Prop48
 90
       50
102
RTVSPost2010PropOp48
 70
     1
102
RTVSPost2010Prop49
280
     0
102
RTVSPost2010PropOp49
 70
     1
102
RTVSPost2010Prop50
 90
       50
102
RTVSPost2010PropOp50
 70
     1
102
RTVSPost2010Prop51ColorIndex
 90
      256
102
RTVSPost2010Prop51ColorRGB
 90
-16777216
102
RTVSPost2010PropOp51
 70
     0
102
RTVSPost2010Prop52
140
1.0
102
RTVSPost2010PropOp52
 70
     0
102
RTVSPost2010Prop53
 90
        2
102
RTVSPost2010PropOp53
 70
     1
102
RTVSPost2010Prop54
  1
strokes_ogs.tif
102
RTVSPost2010PropOp54
 70
     1
102
RTVSPost2010Prop55
280
     0
102
RTVSPost2010PropOp55
 70
     1
102
RTVSPost2010Prop56
140
1.0
102
RTVSPost2010PropOp56
 70
     1
102
RTVSPost2010Prop57
140
1.0
102
RTVSPost2010PropOp57
 70
     1
102
RTVSPropertyOp0
 70
     1
102
RTVSPropertyOp1
 70
     1
102
RTVSPropertyOp2
 70
     1
102
RTVSPropertyOp3
 70
     1
102
RTVSPropertyOp4
 70
     1
102
RTVSPropertyOp5
 70
     1
102
RTVSPropertyOp6
 70
     1
102
RTVSPropertyOp7
 70
     1
102
RTVSPropertyOp8
 70
     1
102
RTVSPropertyOp9
 70
     1
102
RTVSPropertyOp10
 70
     1
102
RTVSPropertyOp11
 70
     1
102
RTVSPropertyOp12
 70
     1
102
RTVSPropertyOp13
 70
     1
102
RTVSPropertyOp14
 70
     1
102
RTVSPropertyOp15
 70
     1
102
RTVSPropertyOp16
 70
     1
102
RTVSPropertyOp17
 70
     1
102
RTVSPropertyOp18
 70
     1
102
RTVSPropertyOp19
 70
     1
102
RTVSPropertyOp20
 70
     1
102
RTVSPropertyOp21
 70
     1
102
RTVSPropertyOp22
 70
     1
102
RTVSPropertyOp23
 70
     1
102
RTVSPropertyOp24
 70
     1
102
RTVSPropertyOp25
 70
     1
102
RTVSPropertyOp26
 70
     1
102
RTVSPropertyOp27
 70
     1
102
RTVSPropertyOp28
 70
     1
102
RTVSPropertyOp29
 70
     1
102
RTVSPropertyOp30
 70
     1
102
RTVSPropertyOp31
 70
     1
102
RTVSPropertyOp32
 70
     1
102
RTVSPropertyOp33
 70
     1
102
RTVSPropertyOp34
 70
     1
102
RTVSPropertyOp35
 70
     1
102
RTVSPropertyOp36
 70
     1
102
RTVSPropertyOp37
 70
     1
102
RTVSPropertyOp38
 70
     1
102
RTVSPropertyOp39
 70
     1
102
RTVSPropertyOp40
 70
     1
102
RTVSPropertyOp41
 70
     1
102
RTVSPropertyOp42
 70
     1
102
RTVSPropertyOp43
 70
     1
102
RTVSPropertyOp44
 70
     1
102
RTVSPropertyOp45
 70
     1
102
RTVSPropertyOp46
 70
     1
102
RTVSPropertyOp47
 70
     1
102
RTVSPropertyOp48
 70
     1
102
RTVSPropertyOp49
 70
     1
102
RTVSPropertyOp50
 70
     1
102
RTVSPropertyOp51
 70
     0
102
RTVSPropertyOp52
 70
     0
102
RTVSPropertyOp53
 70
     1
102
RTVSPropertyOp54
 70
     1
102
RTVSPropertyOp55
 70
     1
102
RTVSPropertyOp56
 70
     1
102
RTVSPropertyOp57
 70
     1
102
RTVSPropertyOp58
 70
     1
102
RTVSPropertyOp59
 70
     1
102
RTVSPropertyOp60
 70
     1
102
RTVSPropertyOp61
 70
     1
102
RTVSPropertyOp62
 70
     1
  0
XRECORD
  5
ABD4
102
{ACAD_REACTORS
330
ABD3
102
}
330
ABD3
100
AcDbXrecord
280
     1
102
RTVSPost2010Prop28
280
     0
102
RTVSPost2010PropOp28
 70
     1
102
RTVSPost2010Prop29
280
     1
102
RTVSPost2010PropOp29
 70
     1
102
RTVSPost2010Prop30
280
     1
102
RTVSPost2010PropOp30
 70
     1
102
RTVSPost2010Prop31
280
     0
102
RTVSPost2010PropOp31
 70
     1
102
RTVSPost2010Prop32
280
     0
102
RTVSPost2010PropOp32
 70
     1
102
RTVSPost2010Prop33
280
     0
102
RTVSPost2010PropOp33
 70
     1
102
RTVSPost2010Prop34
280
     0
102
RTVSPost2010PropOp34
 70
     1
102
RTVSPost2010Prop35
280
     0
102
RTVSPost2010PropOp35
 70
     1
102
RTVSPost2010Prop36
280
     0
102
RTVSPost2010PropOp36
 70
     1
102
RTVSPost2010Prop37
 90
       50
102
RTVSPost2010PropOp37
 70
     0
102
RTVSPost2010Prop38
140
0.0
102
RTVSPost2010PropOp38
 70
     0
102
RTVSPost2010Prop39
140
1.0
102
RTVSPost2010PropOp39
 70
     0
102
RTVSPost2010Prop40
 90
        0
102
RTVSPost2010PropOp40
 70
     0
102
RTVSPost2010Prop41ColorIndex
 90
       18
102
RTVSPost2010Prop41ColorRGB
 90
        0
102
RTVSPost2010PropOp41
 70
     0
102
RTVSPost2010Prop42
 90
       50
102
RTVSPost2010PropOp42
 70
     0
102
RTVSPost2010Prop43
 90
        3
102
RTVSPost2010PropOp43
 70
     0
102
RTVSPost2010Prop44ColorIndex
 90
        5
102
RTVSPost2010Prop44ColorRGB
 90
      255
102
RTVSPost2010PropOp44
 70
     0
102
RTVSPost2010Prop45
280
     0
102
RTVSPost2010PropOp45
 70
     1
102
RTVSPost2010Prop46
 90
       50
102
RTVSPost2010PropOp46
 70
     0
102
RTVSPost2010Prop47
 90
       50
102
RTVSPost2010PropOp47
 70
     0
102
RTVSPost2010Prop48
 90
       50
102
RTVSPost2010PropOp48
 70
     0
102
RTVSPost2010Prop49
280
     0
102
RTVSPost2010PropOp49
 70
     1
102
RTVSPost2010Prop50
 90
       50
102
RTVSPost2010PropOp50
 70
     0
102
RTVSPost2010Prop51ColorIndex
 90
      256
102
RTVSPost2010Prop51ColorRGB
 90
-16777216
102
RTVSPost2010PropOp51
 70
     0
102
RTVSPost2010Prop52
140
1.0
102
RTVSPost2010PropOp52
 70
     0
102
RTVSPost2010Prop53
 90
        2
102
RTVSPost2010PropOp53
 70
     0
102
RTVSPost2010Prop54
  1
strokes_ogs.tif
102
RTVSPost2010PropOp54
 70
     0
102
RTVSPost2010Prop55
280
     0
102
RTVSPost2010PropOp55
 70
     1
102
RTVSPost2010Prop56
140
1.0
102
RTVSPost2010PropOp56
 70
     0
102
RTVSPost2010Prop57
140
1.0
102
RTVSPost2010PropOp57
 70
     0
102
RTVSPropertyOp0
 70
     0
102
RTVSPropertyOp1
 70
     0
102
RTVSPropertyOp2
 70
     0
102
RTVSPropertyOp3
 70
     0
102
RTVSPropertyOp4
 70
     0
102
RTVSPropertyOp5
 70
     0
102
RTVSPropertyOp6
 70
     0
102
RTVSPropertyOp7
 70
     0
102
RTVSPropertyOp8
 70
     0
102
RTVSPropertyOp9
 70
     0
102
RTVSPropertyOp10
 70
     0
102
RTVSPropertyOp11
 70
     0
102
RTVSPropertyOp12
 70
     0
102
RTVSPropertyOp13
 70
     0
102
RTVSPropertyOp14
 70
     2
102
RTVSPropertyOp15
 70
     0
102
RTVSPropertyOp16
 70
     0
102
RTVSPropertyOp17
 70
     0
102
RTVSPropertyOp18
 70
     0
102
RTVSPropertyOp19
 70
     0
102
RTVSPropertyOp20
 70
     0
102
RTVSPropertyOp21
 70
     0
102
RTVSPropertyOp22
 70
     0
102
RTVSPropertyOp23
 70
     0
102
RTVSPropertyOp24
 70
     0
102
RTVSPropertyOp25
 70
     0
102
RTVSPropertyOp26
 70
     0
102
RTVSPropertyOp27
 70
     0
102
RTVSPropertyOp28
 70
     1
102
RTVSPropertyOp29
 70
     1
102
RTVSPropertyOp30
 70
     1
102
RTVSPropertyOp31
 70
     1
102
RTVSPropertyOp32
 70
     1
102
RTVSPropertyOp33
 70
     1
102
RTVSPropertyOp34
 70
     1
102
RTVSPropertyOp35
 70
     1
102
RTVSPropertyOp36
 70
     1
102
RTVSPropertyOp37
 70
     0
102
RTVSPropertyOp38
 70
     0
102
RTVSPropertyOp39
 70
     0
102
RTVSPropertyOp40
 70
     0
102
RTVSPropertyOp41
 70
     0
102
RTVSPropertyOp42
 70
     0
102
RTVSPropertyOp43
 70
     0
102
RTVSPropertyOp44
 70
     0
102
RTVSPropertyOp45
 70
     1
102
RTVSPropertyOp46
 70
     0
102
RTVSPropertyOp47
 70
     0
102
RTVSPropertyOp48
 70
     0
102
RTVSPropertyOp49
 70
     1
102
RTVSPropertyOp50
 70
     0
102
RTVSPropertyOp51
 70
     0
102
RTVSPropertyOp52
 70
     0
102
RTVSPropertyOp53
 70
     0
102
RTVSPropertyOp54
 70
     0
102
RTVSPropertyOp55
 70
     1
102
RTVSPropertyOp56
 70
     0
102
RTVSPropertyOp57
 70
     0
102
RTVSPropertyOp58
 70
     0
102
RTVSPropertyOp59
 70
     0
102
RTVSPropertyOp60
 70
     0
102
RTVSPropertyOp61
 70
     0
102
RTVSPropertyOp62
 70
     0
  0
XRECORD
  5
ABC2
102
{ACAD_REACTORS
330
ABC1
102
}
330
ABC1
100
AcDbXrecord
280
     1
102
RTVSPost2010Prop28
280
     0
102
RTVSPost2010PropOp28
 70
     1
102
RTVSPost2010Prop29
280
     1
102
RTVSPost2010PropOp29
 70
     1
102
RTVSPost2010Prop30
280
     1
102
RTVSPost2010PropOp30
 70
     1
102
RTVSPost2010Prop31
280
     0
102
RTVSPost2010PropOp31
 70
     1
102
RTVSPost2010Prop32
280
     0
102
RTVSPost2010PropOp32
 70
     1
102
RTVSPost2010Prop33
280
     0
102
RTVSPost2010PropOp33
 70
     1
102
RTVSPost2010Prop34
280
     0
102
RTVSPost2010PropOp34
 70
     1
102
RTVSPost2010Prop35
280
     0
102
RTVSPost2010PropOp35
 70
     1
102
RTVSPost2010Prop36
280
     0
102
RTVSPost2010PropOp36
 70
     1
102
RTVSPost2010Prop37
 90
       50
102
RTVSPost2010PropOp37
 70
     1
102
RTVSPost2010Prop38
140
0.0
102
RTVSPost2010PropOp38
 70
     1
102
RTVSPost2010Prop39
140
1.0
102
RTVSPost2010PropOp39
 70
     1
102
RTVSPost2010Prop40
 90
        0
102
RTVSPost2010PropOp40
 70
     1
102
RTVSPost2010Prop41ColorIndex
 90
       18
102
RTVSPost2010Prop41ColorRGB
 90
        0
102
RTVSPost2010PropOp41
 70
     1
102
RTVSPost2010Prop42
 90
       50
102
RTVSPost2010PropOp42
 70
     1
102
RTVSPost2010Prop43
 90
        3
102
RTVSPost2010PropOp43
 70
     1
102
RTVSPost2010Prop44ColorIndex
 90
        5
102
RTVSPost2010Prop44ColorRGB
 90
      255
102
RTVSPost2010PropOp44
 70
     1
102
RTVSPost2010Prop45
280
     0
102
RTVSPost2010PropOp45
 70
     1
102
RTVSPost2010Prop46
 90
       50
102
RTVSPost2010PropOp46
 70
     1
102
RTVSPost2010Prop47
 90
       50
102
RTVSPost2010PropOp47
 70
     1
102
RTVSPost2010Prop48
 90
       50
102
RTVSPost2010PropOp48
 70
     1
102
RTVSPost2010Prop49
280
     0
102
RTVSPost2010PropOp49
 70
     1
102
RTVSPost2010Prop50
 90
       50
102
RTVSPost2010PropOp50
 70
     1
102
RTVSPost2010Prop51ColorIndex
 90
      256
102
RTVSPost2010Prop51ColorRGB
 90
-16777216
102
RTVSPost2010PropOp51
 70
     0
102
RTVSPost2010Prop52
140
1.0
102
RTVSPost2010PropOp52
 70
     0
102
RTVSPost2010Prop53
 90
        2
102
RTVSPost2010PropOp53
 70
     1
102
RTVSPost2010Prop54
  1
strokes_ogs.tif
102
RTVSPost2010PropOp54
 70
     1
102
RTVSPost2010Prop55
280
     0
102
RTVSPost2010PropOp55
 70
     1
102
RTVSPost2010Prop56
140
1.0
102
RTVSPost2010PropOp56
 70
     1
102
RTVSPost2010Prop57
140
1.0
102
RTVSPost2010PropOp57
 70
     1
102
RTVSPropertyOp0
 70
     1
102
RTVSPropertyOp1
 70
     1
102
RTVSPropertyOp2
 70
     1
102
RTVSPropertyOp3
 70
     1
102
RTVSPropertyOp4
 70
     1
102
RTVSPropertyOp5
 70
     1
102
RTVSPropertyOp6
 70
     1
102
RTVSPropertyOp7
 70
     1
102
RTVSPropertyOp8
 70
     1
102
RTVSPropertyOp9
 70
     1
102
RTVSPropertyOp10
 70
     1
102
RTVSPropertyOp11
 70
     1
102
RTVSPropertyOp12
 70
     1
102
RTVSPropertyOp13
 70
     1
102
RTVSPropertyOp14
 70
     1
102
RTVSPropertyOp15
 70
     1
102
RTVSPropertyOp16
 70
     1
102
RTVSPropertyOp17
 70
     1
102
RTVSPropertyOp18
 70
     1
102
RTVSPropertyOp19
 70
     1
102
RTVSPropertyOp20
 70
     1
102
RTVSPropertyOp21
 70
     1
102
RTVSPropertyOp22
 70
     1
102
RTVSPropertyOp23
 70
     1
102
RTVSPropertyOp24
 70
     1
102
RTVSPropertyOp25
 70
     1
102
RTVSPropertyOp26
 70
     1
102
RTVSPropertyOp27
 70
     1
102
RTVSPropertyOp28
 70
     1
102
RTVSPropertyOp29
 70
     1
102
RTVSPropertyOp30
 70
     1
102
RTVSPropertyOp31
 70
     1
102
RTVSPropertyOp32
 70
     1
102
RTVSPropertyOp33
 70
     1
102
RTVSPropertyOp34
 70
     1
102
RTVSPropertyOp35
 70
     1
102
RTVSPropertyOp36
 70
     1
102
RTVSPropertyOp37
 70
     1
102
RTVSPropertyOp38
 70
     1
102
RTVSPropertyOp39
 70
     1
102
RTVSPropertyOp40
 70
     1
102
RTVSPropertyOp41
 70
     1
102
RTVSPropertyOp42
 70
     1
102
RTVSPropertyOp43
 70
     1
102
RTVSPropertyOp44
 70
     1
102
RTVSPropertyOp45
 70
     1
102
RTVSPropertyOp46
 70
     1
102
RTVSPropertyOp47
 70
     1
102
RTVSPropertyOp48
 70
     1
102
RTVSPropertyOp49
 70
     1
102
RTVSPropertyOp50
 70
     1
102
RTVSPropertyOp51
 70
     0
102
RTVSPropertyOp52
 70
     0
102
RTVSPropertyOp53
 70
     1
102
RTVSPropertyOp54
 70
     1
102
RTVSPropertyOp55
 70
     1
102
RTVSPropertyOp56
 70
     1
102
RTVSPropertyOp57
 70
     1
102
RTVSPropertyOp58
 70
     1
102
RTVSPropertyOp59
 70
     1
102
RTVSPropertyOp60
 70
     1
102
RTVSPropertyOp61
 70
     1
102
RTVSPropertyOp62
 70
     1
  0
XRECORD
  5
ABA6
102
{ACAD_REACTORS
330
ABA5
102
}
330
ABA5
100
AcDbXrecord
280
     1
102
RTVSPost2010Prop28
280
     0
102
RTVSPost2010PropOp28
 70
     1
102
RTVSPost2010Prop29
280
     1
102
RTVSPost2010PropOp29
 70
     1
102
RTVSPost2010Prop30
280
     1
102
RTVSPost2010PropOp30
 70
     1
102
RTVSPost2010Prop31
280
     0
102
RTVSPost2010PropOp31
 70
     1
102
RTVSPost2010Prop32
280
     0
102
RTVSPost2010PropOp32
 70
     1
102
RTVSPost2010Prop33
280
     0
102
RTVSPost2010PropOp33
 70
     1
102
RTVSPost2010Prop34
280
     0
102
RTVSPost2010PropOp34
 70
     1
102
RTVSPost2010Prop35
280
     0
102
RTVSPost2010PropOp35
 70
     1
102
RTVSPost2010Prop36
280
     0
102
RTVSPost2010PropOp36
 70
     1
102
RTVSPost2010Prop37
 90
       50
102
RTVSPost2010PropOp37
 70
     1
102
RTVSPost2010Prop38
140
0.0
102
RTVSPost2010PropOp38
 70
     1
102
RTVSPost2010Prop39
140
1.0
102
RTVSPost2010PropOp39
 70
     1
102
RTVSPost2010Prop40
 90
        0
102
RTVSPost2010PropOp40
 70
     1
102
RTVSPost2010Prop41ColorIndex
 90
       18
102
RTVSPost2010Prop41ColorRGB
 90
        0
102
RTVSPost2010PropOp41
 70
     1
102
RTVSPost2010Prop42
 90
       50
102
RTVSPost2010PropOp42
 70
     1
102
RTVSPost2010Prop43
 90
        3
102
RTVSPost2010PropOp43
 70
     1
102
RTVSPost2010Prop44ColorIndex
 90
        5
102
RTVSPost2010Prop44ColorRGB
 90
      255
102
RTVSPost2010PropOp44
 70
     1
102
RTVSPost2010Prop45
280
     0
102
RTVSPost2010PropOp45
 70
     1
102
RTVSPost2010Prop46
 90
       50
102
RTVSPost2010PropOp46
 70
     1
102
RTVSPost2010Prop47
 90
       50
102
RTVSPost2010PropOp47
 70
     1
102
RTVSPost2010Prop48
 90
       50
102
RTVSPost2010PropOp48
 70
     1
102
RTVSPost2010Prop49
280
     0
102
RTVSPost2010PropOp49
 70
     1
102
RTVSPost2010Prop50
 90
       50
102
RTVSPost2010PropOp50
 70
     1
102
RTVSPost2010Prop51ColorIndex
 90
      256
102
RTVSPost2010Prop51ColorRGB
 90
-16777216
102
RTVSPost2010PropOp51
 70
     0
102
RTVSPost2010Prop52
140
1.0
102
RTVSPost2010PropOp52
 70
     0
102
RTVSPost2010Prop53
 90
        2
102
RTVSPost2010PropOp53
 70
     1
102
RTVSPost2010Prop54
  1
strokes_ogs.tif
102
RTVSPost2010PropOp54
 70
     1
102
RTVSPost2010Prop55
280
     0
102
RTVSPost2010PropOp55
 70
     1
102
RTVSPost2010Prop56
140
1.0
102
RTVSPost2010PropOp56
 70
     1
102
RTVSPost2010Prop57
140
1.0
102
RTVSPost2010PropOp57
 70
     1
102
RTVSPropertyOp0
 70
     1
102
RTVSPropertyOp1
 70
     1
102
RTVSPropertyOp2
 70
     1
102
RTVSPropertyOp3
 70
     1
102
RTVSPropertyOp4
 70
     1
102
RTVSPropertyOp5
 70
     1
102
RTVSPropertyOp6
 70
     1
102
RTVSPropertyOp7
 70
     1
102
RTVSPropertyOp8
 70
     1
102
RTVSPropertyOp9
 70
     1
102
RTVSPropertyOp10
 70
     1
102
RTVSPropertyOp11
 70
     1
102
RTVSPropertyOp12
 70
     1
102
RTVSPropertyOp13
 70
     1
102
RTVSPropertyOp14
 70
     1
102
RTVSPropertyOp15
 70
     1
102
RTVSPropertyOp16
 70
     1
102
RTVSPropertyOp17
 70
     1
102
RTVSPropertyOp18
 70
     1
102
RTVSPropertyOp19
 70
     1
102
RTVSPropertyOp20
 70
     1
102
RTVSPropertyOp21
 70
     1
102
RTVSPropertyOp22
 70
     1
102
RTVSPropertyOp23
 70
     1
102
RTVSPropertyOp24
 70
     1
102
RTVSPropertyOp25
 70
     1
102
RTVSPropertyOp26
 70
     1
102
RTVSPropertyOp27
 70
     1
102
RTVSPropertyOp28
 70
     1
102
RTVSPropertyOp29
 70
     1
102
RTVSPropertyOp30
 70
     1
102
RTVSPropertyOp31
 70
     1
102
RTVSPropertyOp32
 70
     1
102
RTVSPropertyOp33
 70
     1
102
RTVSPropertyOp34
 70
     1
102
RTVSPropertyOp35
 70
     1
102
RTVSPropertyOp36
 70
     1
102
RTVSPropertyOp37
 70
     1
102
RTVSPropertyOp38
 70
     1
102
RTVSPropertyOp39
 70
     1
102
RTVSPropertyOp40
 70
     1
102
RTVSPropertyOp41
 70
     1
102
RTVSPropertyOp42
 70
     1
102
RTVSPropertyOp43
 70
     1
102
RTVSPropertyOp44
 70
     1
102
RTVSPropertyOp45
 70
     1
102
RTVSPropertyOp46
 70
     1
102
RTVSPropertyOp47
 70
     1
102
RTVSPropertyOp48
 70
     1
102
RTVSPropertyOp49
 70
     1
102
RTVSPropertyOp50
 70
     1
102
RTVSPropertyOp51
 70
     0
102
RTVSPropertyOp52
 70
     0
102
RTVSPropertyOp53
 70
     1
102
RTVSPropertyOp54
 70
     1
102
RTVSPropertyOp55
 70
     1
102
RTVSPropertyOp56
 70
     1
102
RTVSPropertyOp57
 70
     1
102
RTVSPropertyOp58
 70
     1
102
RTVSPropertyOp59
 70
     1
102
RTVSPropertyOp60
 70
     1
102
RTVSPropertyOp61
 70
     1
102
RTVSPropertyOp62
 70
     1
  0
XRECORD
  5
ABA8
102
{ACAD_REACTORS
330
ABA7
102
}
330
ABA7
100
AcDbXrecord
280
     1
102
RTVSPost2010Prop28
280
     0
102
RTVSPost2010PropOp28
 70
     1
102
RTVSPost2010Prop29
280
     1
102
RTVSPost2010PropOp29
 70
     1
102
RTVSPost2010Prop30
280
     1
102
RTVSPost2010PropOp30
 70
     1
102
RTVSPost2010Prop31
280
     0
102
RTVSPost2010PropOp31
 70
     1
102
RTVSPost2010Prop32
280
     0
102
RTVSPost2010PropOp32
 70
     1
102
RTVSPost2010Prop33
280
     0
102
RTVSPost2010PropOp33
 70
     1
102
RTVSPost2010Prop34
280
     0
102
RTVSPost2010PropOp34
 70
     1
102
RTVSPost2010Prop35
280
     0
102
RTVSPost2010PropOp35
 70
     1
102
RTVSPost2010Prop36
280
     0
102
RTVSPost2010PropOp36
 70
     1
102
RTVSPost2010Prop37
 90
       50
102
RTVSPost2010PropOp37
 70
     1
102
RTVSPost2010Prop38
140
0.0
102
RTVSPost2010PropOp38
 70
     1
102
RTVSPost2010Prop39
140
1.0
102
RTVSPost2010PropOp39
 70
     1
102
RTVSPost2010Prop40
 90
        0
102
RTVSPost2010PropOp40
 70
     1
102
RTVSPost2010Prop41ColorIndex
 90
       18
102
RTVSPost2010Prop41ColorRGB
 90
        0
102
RTVSPost2010PropOp41
 70
     1
102
RTVSPost2010Prop42
 90
       50
102
RTVSPost2010PropOp42
 70
     1
102
RTVSPost2010Prop43
 90
        3
102
RTVSPost2010PropOp43
 70
     1
102
RTVSPost2010Prop44ColorIndex
 90
        5
102
RTVSPost2010Prop44ColorRGB
 90
      255
102
RTVSPost2010PropOp44
 70
     1
102
RTVSPost2010Prop45
280
     0
102
RTVSPost2010PropOp45
 70
     1
102
RTVSPost2010Prop46
 90
       50
102
RTVSPost2010PropOp46
 70
     1
102
RTVSPost2010Prop47
 90
       50
102
RTVSPost2010PropOp47
 70
     1
102
RTVSPost2010Prop48
 90
       50
102
RTVSPost2010PropOp48
 70
     1
102
RTVSPost2010Prop49
280
     0
102
RTVSPost2010PropOp49
 70
     1
102
RTVSPost2010Prop50
 90
       50
102
RTVSPost2010PropOp50
 70
     1
102
RTVSPost2010Prop51ColorIndex
 90
      256
102
RTVSPost2010Prop51ColorRGB
 90
-16777216
102
RTVSPost2010PropOp51
 70
     0
102
RTVSPost2010Prop52
140
1.0
102
RTVSPost2010PropOp52
 70
     0
102
RTVSPost2010Prop53
 90
        2
102
RTVSPost2010PropOp53
 70
     1
102
RTVSPost2010Prop54
  1
strokes_ogs.tif
102
RTVSPost2010PropOp54
 70
     1
102
RTVSPost2010Prop55
280
     0
102
RTVSPost2010PropOp55
 70
     1
102
RTVSPost2010Prop56
140
1.0
102
RTVSPost2010PropOp56
 70
     1
102
RTVSPost2010Prop57
140
1.0
102
RTVSPost2010PropOp57
 70
     1
102
RTVSPropertyOp0
 70
     1
102
RTVSPropertyOp1
 70
     1
102
RTVSPropertyOp2
 70
     1
102
RTVSPropertyOp3
 70
     1
102
RTVSPropertyOp4
 70
     1
102
RTVSPropertyOp5
 70
     1
102
RTVSPropertyOp6
 70
     1
102
RTVSPropertyOp7
 70
     1
102
RTVSPropertyOp8
 70
     1
102
RTVSPropertyOp9
 70
     1
102
RTVSPropertyOp10
 70
     1
102
RTVSPropertyOp11
 70
     1
102
RTVSPropertyOp12
 70
     1
102
RTVSPropertyOp13
 70
     1
102
RTVSPropertyOp14
 70
     1
102
RTVSPropertyOp15
 70
     1
102
RTVSPropertyOp16
 70
     1
102
RTVSPropertyOp17
 70
     1
102
RTVSPropertyOp18
 70
     1
102
RTVSPropertyOp19
 70
     1
102
RTVSPropertyOp20
 70
     1
102
RTVSPropertyOp21
 70
     1
102
RTVSPropertyOp22
 70
     1
102
RTVSPropertyOp23
 70
     1
102
RTVSPropertyOp24
 70
     1
102
RTVSPropertyOp25
 70
     1
102
RTVSPropertyOp26
 70
     1
102
RTVSPropertyOp27
 70
     1
102
RTVSPropertyOp28
 70
     1
102
RTVSPropertyOp29
 70
     1
102
RTVSPropertyOp30
 70
     1
102
RTVSPropertyOp31
 70
     1
102
RTVSPropertyOp32
 70
     1
102
RTVSPropertyOp33
 70
     1
102
RTVSPropertyOp34
 70
     1
102
RTVSPropertyOp35
 70
     1
102
RTVSPropertyOp36
 70
     1
102
RTVSPropertyOp37
 70
     1
102
RTVSPropertyOp38
 70
     1
102
RTVSPropertyOp39
 70
     1
102
RTVSPropertyOp40
 70
     1
102
RTVSPropertyOp41
 70
     1
102
RTVSPropertyOp42
 70
     1
102
RTVSPropertyOp43
 70
     1
102
RTVSPropertyOp44
 70
     1
102
RTVSPropertyOp45
 70
     1
102
RTVSPropertyOp46
 70
     1
102
RTVSPropertyOp47
 70
     1
102
RTVSPropertyOp48
 70
     1
102
RTVSPropertyOp49
 70
     1
102
RTVSPropertyOp50
 70
     1
102
RTVSPropertyOp51
 70
     0
102
RTVSPropertyOp52
 70
     0
102
RTVSPropertyOp53
 70
     1
102
RTVSPropertyOp54
 70
     1
102
RTVSPropertyOp55
 70
     1
102
RTVSPropertyOp56
 70
     1
102
RTVSPropertyOp57
 70
     1
102
RTVSPropertyOp58
 70
     1
102
RTVSPropertyOp59
 70
     1
102
RTVSPropertyOp60
 70
     1
102
RTVSPropertyOp61
 70
     1
102
RTVSPropertyOp62
 70
     1
  0
XRECORD
  5
ABAA
102
{ACAD_REACTORS
330
ABA9
102
}
330
ABA9
100
AcDbXrecord
280
     1
102
RTVSPost2010Prop28
280
     0
102
RTVSPost2010PropOp28
 70
     1
102
RTVSPost2010Prop29
280
     1
102
RTVSPost2010PropOp29
 70
     1
102
RTVSPost2010Prop30
280
     1
102
RTVSPost2010PropOp30
 70
     1
102
RTVSPost2010Prop31
280
     0
102
RTVSPost2010PropOp31
 70
     1
102
RTVSPost2010Prop32
280
     0
102
RTVSPost2010PropOp32
 70
     1
102
RTVSPost2010Prop33
280
     0
102
RTVSPost2010PropOp33
 70
     1
102
RTVSPost2010Prop34
280
     0
102
RTVSPost2010PropOp34
 70
     1
102
RTVSPost2010Prop35
280
     0
102
RTVSPost2010PropOp35
 70
     1
102
RTVSPost2010Prop36
280
     0
102
RTVSPost2010PropOp36
 70
     1
102
RTVSPost2010Prop37
 90
       50
102
RTVSPost2010PropOp37
 70
     1
102
RTVSPost2010Prop38
140
0.0
102
RTVSPost2010PropOp38
 70
     1
102
RTVSPost2010Prop39
140
1.0
102
RTVSPost2010PropOp39
 70
     1
102
RTVSPost2010Prop40
 90
        0
102
RTVSPost2010PropOp40
 70
     1
102
RTVSPost2010Prop41ColorIndex
 90
       18
102
RTVSPost2010Prop41ColorRGB
 90
        0
102
RTVSPost2010PropOp41
 70
     1
102
RTVSPost2010Prop42
 90
       50
102
RTVSPost2010PropOp42
 70
     1
102
RTVSPost2010Prop43
 90
        3
102
RTVSPost2010PropOp43
 70
     1
102
RTVSPost2010Prop44ColorIndex
 90
        5
102
RTVSPost2010Prop44ColorRGB
 90
      255
102
RTVSPost2010PropOp44
 70
     1
102
RTVSPost2010Prop45
280
     0
102
RTVSPost2010PropOp45
 70
     1
102
RTVSPost2010Prop46
 90
       50
102
RTVSPost2010PropOp46
 70
     1
102
RTVSPost2010Prop47
 90
       50
102
RTVSPost2010PropOp47
 70
     1
102
RTVSPost2010Prop48
 90
       50
102
RTVSPost2010PropOp48
 70
     1
102
RTVSPost2010Prop49
280
     0
102
RTVSPost2010PropOp49
 70
     1
102
RTVSPost2010Prop50
 90
       50
102
RTVSPost2010PropOp50
 70
     1
102
RTVSPost2010Prop51ColorIndex
 90
      256
102
RTVSPost2010Prop51ColorRGB
 90
-16777216
102
RTVSPost2010PropOp51
 70
     0
102
RTVSPost2010Prop52
140
1.0
102
RTVSPost2010PropOp52
 70
     0
102
RTVSPost2010Prop53
 90
        2
102
RTVSPost2010PropOp53
 70
     1
102
RTVSPost2010Prop54
  1
strokes_ogs.tif
102
RTVSPost2010PropOp54
 70
     1
102
RTVSPost2010Prop55
280
     0
102
RTVSPost2010PropOp55
 70
     1
102
RTVSPost2010Prop56
140
1.0
102
RTVSPost2010PropOp56
 70
     1
102
RTVSPost2010Prop57
140
1.0
102
RTVSPost2010PropOp57
 70
     1
102
RTVSPropertyOp0
 70
     1
102
RTVSPropertyOp1
 70
     1
102
RTVSPropertyOp2
 70
     1
102
RTVSPropertyOp3
 70
     1
102
RTVSPropertyOp4
 70
     1
102
RTVSPropertyOp5
 70
     1
102
RTVSPropertyOp6
 70
     1
102
RTVSPropertyOp7
 70
     1
102
RTVSPropertyOp8
 70
     1
102
RTVSPropertyOp9
 70
     1
102
RTVSPropertyOp10
 70
     1
102
RTVSPropertyOp11
 70
     1
102
RTVSPropertyOp12
 70
     1
102
RTVSPropertyOp13
 70
     1
102
RTVSPropertyOp14
 70
     1
102
RTVSPropertyOp15
 70
     1
102
RTVSPropertyOp16
 70
     1
102
RTVSPropertyOp17
 70
     1
102
RTVSPropertyOp18
 70
     1
102
RTVSPropertyOp19
 70
     1
102
RTVSPropertyOp20
 70
     1
102
RTVSPropertyOp21
 70
     1
102
RTVSPropertyOp22
 70
     1
102
RTVSPropertyOp23
 70
     1
102
RTVSPropertyOp24
 70
     1
102
RTVSPropertyOp25
 70
     1
102
RTVSPropertyOp26
 70
     1
102
RTVSPropertyOp27
 70
     1
102
RTVSPropertyOp28
 70
     1
102
RTVSPropertyOp29
 70
     1
102
RTVSPropertyOp30
 70
     1
102
RTVSPropertyOp31
 70
     1
102
RTVSPropertyOp32
 70
     1
102
RTVSPropertyOp33
 70
     1
102
RTVSPropertyOp34
 70
     1
102
RTVSPropertyOp35
 70
     1
102
RTVSPropertyOp36
 70
     1
102
RTVSPropertyOp37
 70
     1
102
RTVSPropertyOp38
 70
     1
102
RTVSPropertyOp39
 70
     1
102
RTVSPropertyOp40
 70
     1
102
RTVSPropertyOp41
 70
     1
102
RTVSPropertyOp42
 70
     1
102
RTVSPropertyOp43
 70
     1
102
RTVSPropertyOp44
 70
     1
102
RTVSPropertyOp45
 70
     1
102
RTVSPropertyOp46
 70
     1
102
RTVSPropertyOp47
 70
     1
102
RTVSPropertyOp48
 70
     1
102
RTVSPropertyOp49
 70
     1
102
RTVSPropertyOp50
 70
     1
102
RTVSPropertyOp51
 70
     0
102
RTVSPropertyOp52
 70
     0
102
RTVSPropertyOp53
 70
     1
102
RTVSPropertyOp54
 70
     1
102
RTVSPropertyOp55
 70
     1
102
RTVSPropertyOp56
 70
     1
102
RTVSPropertyOp57
 70
     1
102
RTVSPropertyOp58
 70
     1
102
RTVSPropertyOp59
 70
     1
102
RTVSPropertyOp60
 70
     1
102
RTVSPropertyOp61
 70
     1
102
RTVSPropertyOp62
 70
     1
  0
XRECORD
  5
ABAC
102
{ACAD_REACTORS
330
ABAB
102
}
330
ABAB
100
AcDbXrecord
280
     1
102
RTVSPost2010Prop28
280
     0
102
RTVSPost2010PropOp28
 70
     1
102
RTVSPost2010Prop29
280
     1
102
RTVSPost2010PropOp29
 70
     1
102
RTVSPost2010Prop30
280
     1
102
RTVSPost2010PropOp30
 70
     1
102
RTVSPost2010Prop31
280
     0
102
RTVSPost2010PropOp31
 70
     1
102
RTVSPost2010Prop32
280
     0
102
RTVSPost2010PropOp32
 70
     1
102
RTVSPost2010Prop33
280
     0
102
RTVSPost2010PropOp33
 70
     1
102
RTVSPost2010Prop34
280
     0
102
RTVSPost2010PropOp34
 70
     1
102
RTVSPost2010Prop35
280
     0
102
RTVSPost2010PropOp35
 70
     1
102
RTVSPost2010Prop36
280
     0
102
RTVSPost2010PropOp36
 70
     1
102
RTVSPost2010Prop37
 90
       50
102
RTVSPost2010PropOp37
 70
     1
102
RTVSPost2010Prop38
140
0.0
102
RTVSPost2010PropOp38
 70
     1
102
RTVSPost2010Prop39
140
1.0
102
RTVSPost2010PropOp39
 70
     1
102
RTVSPost2010Prop40
 90
        0
102
RTVSPost2010PropOp40
 70
     1
102
RTVSPost2010Prop41ColorIndex
 90
       18
102
RTVSPost2010Prop41ColorRGB
 90
        0
102
RTVSPost2010PropOp41
 70
     1
102
RTVSPost2010Prop42
 90
       50
102
RTVSPost2010PropOp42
 70
     1
102
RTVSPost2010Prop43
 90
        3
102
RTVSPost2010PropOp43
 70
     1
102
RTVSPost2010Prop44ColorIndex
 90
        5
102
RTVSPost2010Prop44ColorRGB
 90
      255
102
RTVSPost2010PropOp44
 70
     1
102
RTVSPost2010Prop45
280
     0
102
RTVSPost2010PropOp45
 70
     1
102
RTVSPost2010Prop46
 90
       50
102
RTVSPost2010PropOp46
 70
     1
102
RTVSPost2010Prop47
 90
       50
102
RTVSPost2010PropOp47
 70
     1
102
RTVSPost2010Prop48
 90
       50
102
RTVSPost2010PropOp48
 70
     1
102
RTVSPost2010Prop49
280
     0
102
RTVSPost2010PropOp49
 70
     1
102
RTVSPost2010Prop50
 90
       50
102
RTVSPost2010PropOp50
 70
     1
102
RTVSPost2010Prop51ColorIndex
 90
      256
102
RTVSPost2010Prop51ColorRGB
 90
-16777216
102
RTVSPost2010PropOp51
 70
     0
102
RTVSPost2010Prop52
140
1.0
102
RTVSPost2010PropOp52
 70
     0
102
RTVSPost2010Prop53
 90
        2
102
RTVSPost2010PropOp53
 70
     1
102
RTVSPost2010Prop54
  1
strokes_ogs.tif
102
RTVSPost2010PropOp54
 70
     1
102
RTVSPost2010Prop55
280
     0
102
RTVSPost2010PropOp55
 70
     1
102
RTVSPost2010Prop56
140
1.0
102
RTVSPost2010PropOp56
 70
     1
102
RTVSPost2010Prop57
140
1.0
102
RTVSPost2010PropOp57
 70
     1
102
RTVSPropertyOp0
 70
     1
102
RTVSPropertyOp1
 70
     1
102
RTVSPropertyOp2
 70
     1
102
RTVSPropertyOp3
 70
     1
102
RTVSPropertyOp4
 70
     1
102
RTVSPropertyOp5
 70
     1
102
RTVSPropertyOp6
 70
     1
102
RTVSPropertyOp7
 70
     1
102
RTVSPropertyOp8
 70
     1
102
RTVSPropertyOp9
 70
     1
102
RTVSPropertyOp10
 70
     1
102
RTVSPropertyOp11
 70
     1
102
RTVSPropertyOp12
 70
     1
102
RTVSPropertyOp13
 70
     1
102
RTVSPropertyOp14
 70
     1
102
RTVSPropertyOp15
 70
     1
102
RTVSPropertyOp16
 70
     1
102
RTVSPropertyOp17
 70
     1
102
RTVSPropertyOp18
 70
     1
102
RTVSPropertyOp19
 70
     1
102
RTVSPropertyOp20
 70
     1
102
RTVSPropertyOp21
 70
     1
102
RTVSPropertyOp22
 70
     1
102
RTVSPropertyOp23
 70
     1
102
RTVSPropertyOp24
 70
     1
102
RTVSPropertyOp25
 70
     1
102
RTVSPropertyOp26
 70
     1
102
RTVSPropertyOp27
 70
     1
102
RTVSPropertyOp28
 70
     1
102
RTVSPropertyOp29
 70
     1
102
RTVSPropertyOp30
 70
     1
102
RTVSPropertyOp31
 70
     1
102
RTVSPropertyOp32
 70
     1
102
RTVSPropertyOp33
 70
     1
102
RTVSPropertyOp34
 70
     1
102
RTVSPropertyOp35
 70
     1
102
RTVSPropertyOp36
 70
     1
102
RTVSPropertyOp37
 70
     1
102
RTVSPropertyOp38
 70
     1
102
RTVSPropertyOp39
 70
     1
102
RTVSPropertyOp40
 70
     1
102
RTVSPropertyOp41
 70
     1
102
RTVSPropertyOp42
 70
     1
102
RTVSPropertyOp43
 70
     1
102
RTVSPropertyOp44
 70
     1
102
RTVSPropertyOp45
 70
     1
102
RTVSPropertyOp46
 70
     1
102
RTVSPropertyOp47
 70
     1
102
RTVSPropertyOp48
 70
     1
102
RTVSPropertyOp49
 70
     1
102
RTVSPropertyOp50
 70
     1
102
RTVSPropertyOp51
 70
     0
102
RTVSPropertyOp52
 70
     0
102
RTVSPropertyOp53
 70
     1
102
RTVSPropertyOp54
 70
     1
102
RTVSPropertyOp55
 70
     1
102
RTVSPropertyOp56
 70
     1
102
RTVSPropertyOp57
 70
     1
102
RTVSPropertyOp58
 70
     1
102
RTVSPropertyOp59
 70
     1
102
RTVSPropertyOp60
 70
     1
102
RTVSPropertyOp61
 70
     1
102
RTVSPropertyOp62
 70
     1
  0
XRECORD
  5
ABB4
102
{ACAD_REACTORS
330
ABB3
102
}
330
ABB3
100
AcDbXrecord
280
     1
102
RTVSPost2010Prop28
280
     0
102
RTVSPost2010PropOp28
 70
     1
102
RTVSPost2010Prop29
280
     1
102
RTVSPost2010PropOp29
 70
     1
102
RTVSPost2010Prop30
280
     1
102
RTVSPost2010PropOp30
 70
     1
102
RTVSPost2010Prop31
280
     0
102
RTVSPost2010PropOp31
 70
     1
102
RTVSPost2010Prop32
280
     0
102
RTVSPost2010PropOp32
 70
     1
102
RTVSPost2010Prop33
280
     0
102
RTVSPost2010PropOp33
 70
     1
102
RTVSPost2010Prop34
280
     0
102
RTVSPost2010PropOp34
 70
     1
102
RTVSPost2010Prop35
280
     0
102
RTVSPost2010PropOp35
 70
     1
102
RTVSPost2010Prop36
280
     0
102
RTVSPost2010PropOp36
 70
     1
102
RTVSPost2010Prop37
 90
       50
102
RTVSPost2010PropOp37
 70
     1
102
RTVSPost2010Prop38
140
0.0
102
RTVSPost2010PropOp38
 70
     1
102
RTVSPost2010Prop39
140
1.0
102
RTVSPost2010PropOp39
 70
     1
102
RTVSPost2010Prop40
 90
        0
102
RTVSPost2010PropOp40
 70
     1
102
RTVSPost2010Prop41ColorIndex
 90
       18
102
RTVSPost2010Prop41ColorRGB
 90
        0
102
RTVSPost2010PropOp41
 70
     1
102
RTVSPost2010Prop42
 90
       50
102
RTVSPost2010PropOp42
 70
     1
102
RTVSPost2010Prop43
 90
        3
102
RTVSPost2010PropOp43
 70
     1
102
RTVSPost2010Prop44ColorIndex
 90
        5
102
RTVSPost2010Prop44ColorRGB
 90
      255
102
RTVSPost2010PropOp44
 70
     1
102
RTVSPost2010Prop45
280
     0
102
RTVSPost2010PropOp45
 70
     1
102
RTVSPost2010Prop46
 90
       50
102
RTVSPost2010PropOp46
 70
     1
102
RTVSPost2010Prop47
 90
       50
102
RTVSPost2010PropOp47
 70
     1
102
RTVSPost2010Prop48
 90
       50
102
RTVSPost2010PropOp48
 70
     1
102
RTVSPost2010Prop49
280
     0
102
RTVSPost2010PropOp49
 70
     1
102
RTVSPost2010Prop50
 90
       50
102
RTVSPost2010PropOp50
 70
     1
102
RTVSPost2010Prop51ColorIndex
 90
      256
102
RTVSPost2010Prop51ColorRGB
 90
-16777216
102
RTVSPost2010PropOp51
 70
     0
102
RTVSPost2010Prop52
140
1.0
102
RTVSPost2010PropOp52
 70
     0
102
RTVSPost2010Prop53
 90
        2
102
RTVSPost2010PropOp53
 70
     1
102
RTVSPost2010Prop54
  1
strokes_ogs.tif
102
RTVSPost2010PropOp54
 70
     1
102
RTVSPost2010Prop55
280
     0
102
RTVSPost2010PropOp55
 70
     1
102
RTVSPost2010Prop56
140
1.0
102
RTVSPost2010PropOp56
 70
     1
102
RTVSPost2010Prop57
140
1.0
102
RTVSPost2010PropOp57
 70
     1
102
RTVSPropertyOp0
 70
     1
102
RTVSPropertyOp1
 70
     1
102
RTVSPropertyOp2
 70
     1
102
RTVSPropertyOp3
 70
     1
102
RTVSPropertyOp4
 70
     1
102
RTVSPropertyOp5
 70
     1
102
RTVSPropertyOp6
 70
     1
102
RTVSPropertyOp7
 70
     1
102
RTVSPropertyOp8
 70
     1
102
RTVSPropertyOp9
 70
     1
102
RTVSPropertyOp10
 70
     1
102
RTVSPropertyOp11
 70
     1
102
RTVSPropertyOp12
 70
     1
102
RTVSPropertyOp13
 70
     1
102
RTVSPropertyOp14
 70
     1
102
RTVSPropertyOp15
 70
     1
102
RTVSPropertyOp16
 70
     1
102
RTVSPropertyOp17
 70
     1
102
RTVSPropertyOp18
 70
     1
102
RTVSPropertyOp19
 70
     1
102
RTVSPropertyOp20
 70
     1
102
RTVSPropertyOp21
 70
     1
102
RTVSPropertyOp22
 70
     1
102
RTVSPropertyOp23
 70
     1
102
RTVSPropertyOp24
 70
     1
102
RTVSPropertyOp25
 70
     1
102
RTVSPropertyOp26
 70
     1
102
RTVSPropertyOp27
 70
     1
102
RTVSPropertyOp28
 70
     1
102
RTVSPropertyOp29
 70
     1
102
RTVSPropertyOp30
 70
     1
102
RTVSPropertyOp31
 70
     1
102
RTVSPropertyOp32
 70
     1
102
RTVSPropertyOp33
 70
     1
102
RTVSPropertyOp34
 70
     1
102
RTVSPropertyOp35
 70
     1
102
RTVSPropertyOp36
 70
     1
102
RTVSPropertyOp37
 70
     1
102
RTVSPropertyOp38
 70
     1
102
RTVSPropertyOp39
 70
     1
102
RTVSPropertyOp40
 70
     1
102
RTVSPropertyOp41
 70
     1
102
RTVSPropertyOp42
 70
     1
102
RTVSPropertyOp43
 70
     1
102
RTVSPropertyOp44
 70
     1
102
RTVSPropertyOp45
 70
     1
102
RTVSPropertyOp46
 70
     1
102
RTVSPropertyOp47
 70
     1
102
RTVSPropertyOp48
 70
     1
102
RTVSPropertyOp49
 70
     1
102
RTVSPropertyOp50
 70
     1
102
RTVSPropertyOp51
 70
     0
102
RTVSPropertyOp52
 70
     0
102
RTVSPropertyOp53
 70
     1
102
RTVSPropertyOp54
 70
     1
102
RTVSPropertyOp55
 70
     1
102
RTVSPropertyOp56
 70
     1
102
RTVSPropertyOp57
 70
     1
102
RTVSPropertyOp58
 70
     1
102
RTVSPropertyOp59
 70
     1
102
RTVSPropertyOp60
 70
     1
102
RTVSPropertyOp61
 70
     1
102
RTVSPropertyOp62
 70
     1
  0
XRECORD
  5
ABD0
102
{ACAD_REACTORS
330
ABCF
102
}
330
ABCF
100
AcDbXrecord
280
     1
102
RTVSPost2010Prop28
280
     0
102
RTVSPost2010PropOp28
 70
     1
102
RTVSPost2010Prop29
280
     1
102
RTVSPost2010PropOp29
 70
     1
102
RTVSPost2010Prop30
280
     1
102
RTVSPost2010PropOp30
 70
     1
102
RTVSPost2010Prop31
280
     0
102
RTVSPost2010PropOp31
 70
     1
102
RTVSPost2010Prop32
280
     0
102
RTVSPost2010PropOp32
 70
     1
102
RTVSPost2010Prop33
280
     0
102
RTVSPost2010PropOp33
 70
     1
102
RTVSPost2010Prop34
280
     0
102
RTVSPost2010PropOp34
 70
     1
102
RTVSPost2010Prop35
280
     0
102
RTVSPost2010PropOp35
 70
     1
102
RTVSPost2010Prop36
280
     0
102
RTVSPost2010PropOp36
 70
     1
102
RTVSPost2010Prop37
 90
       50
102
RTVSPost2010PropOp37
 70
     0
102
RTVSPost2010Prop38
140
0.0
102
RTVSPost2010PropOp38
 70
     0
102
RTVSPost2010Prop39
140
1.0
102
RTVSPost2010PropOp39
 70
     0
102
RTVSPost2010Prop40
 90
        0
102
RTVSPost2010PropOp40
 70
     0
102
RTVSPost2010Prop41ColorIndex
 90
       18
102
RTVSPost2010Prop41ColorRGB
 90
        0
102
RTVSPost2010PropOp41
 70
     0
102
RTVSPost2010Prop42
 90
       50
102
RTVSPost2010PropOp42
 70
     0
102
RTVSPost2010Prop43
 90
        3
102
RTVSPost2010PropOp43
 70
     0
102
RTVSPost2010Prop44ColorIndex
 90
        5
102
RTVSPost2010Prop44ColorRGB
 90
      255
102
RTVSPost2010PropOp44
 70
     0
102
RTVSPost2010Prop45
280
     0
102
RTVSPost2010PropOp45
 70
     1
102
RTVSPost2010Prop46
 90
       50
102
RTVSPost2010PropOp46
 70
     0
102
RTVSPost2010Prop47
 90
       50
102
RTVSPost2010PropOp47
 70
     0
102
RTVSPost2010Prop48
 90
       50
102
RTVSPost2010PropOp48
 70
     0
102
RTVSPost2010Prop49
280
     0
102
RTVSPost2010PropOp49
 70
     1
102
RTVSPost2010Prop50
 90
       50
102
RTVSPost2010PropOp50
 70
     0
102
RTVSPost2010Prop51ColorIndex
 90
      256
102
RTVSPost2010Prop51ColorRGB
 90
-16777216
102
RTVSPost2010PropOp51
 70
     0
102
RTVSPost2010Prop52
140
1.0
102
RTVSPost2010PropOp52
 70
     0
102
RTVSPost2010Prop53
 90
        2
102
RTVSPost2010PropOp53
 70
     0
102
RTVSPost2010Prop54
  1
strokes_ogs.tif
102
RTVSPost2010PropOp54
 70
     0
102
RTVSPost2010Prop55
280
     0
102
RTVSPost2010PropOp55
 70
     1
102
RTVSPost2010Prop56
140
1.0
102
RTVSPost2010PropOp56
 70
     0
102
RTVSPost2010Prop57
140
1.0
102
RTVSPost2010PropOp57
 70
     0
102
RTVSPropertyOp0
 70
     0
102
RTVSPropertyOp1
 70
     0
102
RTVSPropertyOp2
 70
     0
102
RTVSPropertyOp3
 70
     0
102
RTVSPropertyOp4
 70
     0
102
RTVSPropertyOp5
 70
     0
102
RTVSPropertyOp6
 70
     0
102
RTVSPropertyOp7
 70
     0
102
RTVSPropertyOp8
 70
     0
102
RTVSPropertyOp9
 70
     0
102
RTVSPropertyOp10
 70
     0
102
RTVSPropertyOp11
 70
     0
102
RTVSPropertyOp12
 70
     0
102
RTVSPropertyOp13
 70
     0
102
RTVSPropertyOp14
 70
     2
102
RTVSPropertyOp15
 70
     0
102
RTVSPropertyOp16
 70
     0
102
RTVSPropertyOp17
 70
     0
102
RTVSPropertyOp18
 70
     0
102
RTVSPropertyOp19
 70
     0
102
RTVSPropertyOp20
 70
     0
102
RTVSPropertyOp21
 70
     0
102
RTVSPropertyOp22
 70
     0
102
RTVSPropertyOp23
 70
     0
102
RTVSPropertyOp24
 70
     0
102
RTVSPropertyOp25
 70
     0
102
RTVSPropertyOp26
 70
     0
102
RTVSPropertyOp27
 70
     0
102
RTVSPropertyOp28
 70
     1
102
RTVSPropertyOp29
 70
     1
102
RTVSPropertyOp30
 70
     1
102
RTVSPropertyOp31
 70
     1
102
RTVSPropertyOp32
 70
     1
102
RTVSPropertyOp33
 70
     1
102
RTVSPropertyOp34
 70
     1
102
RTVSPropertyOp35
 70
     1
102
RTVSPropertyOp36
 70
     1
102
RTVSPropertyOp37
 70
     0
102
RTVSPropertyOp38
 70
     0
102
RTVSPropertyOp39
 70
     0
102
RTVSPropertyOp40
 70
     0
102
RTVSPropertyOp41
 70
     0
102
RTVSPropertyOp42
 70
     0
102
RTVSPropertyOp43
 70
     0
102
RTVSPropertyOp44
 70
     0
102
RTVSPropertyOp45
 70
     1
102
RTVSPropertyOp46
 70
     0
102
RTVSPropertyOp47
 70
     0
102
RTVSPropertyOp48
 70
     0
102
RTVSPropertyOp49
 70
     1
102
RTVSPropertyOp50
 70
     0
102
RTVSPropertyOp51
 70
     0
102
RTVSPropertyOp52
 70
     0
102
RTVSPropertyOp53
 70
     0
102
RTVSPropertyOp54
 70
     0
102
RTVSPropertyOp55
 70
     1
102
RTVSPropertyOp56
 70
     0
102
RTVSPropertyOp57
 70
     0
102
RTVSPropertyOp58
 70
     0
102
RTVSPropertyOp59
 70
     0
102
RTVSPropertyOp60
 70
     0
102
RTVSPropertyOp61
 70
     0
102
RTVSPropertyOp62
 70
     0
  0
XRECORD
  5
ABC0
102
{ACAD_REACTORS
330
ABBF
102
}
330
ABBF
100
AcDbXrecord
280
     1
102
RTVSPost2010Prop28
280
     0
102
RTVSPost2010PropOp28
 70
     1
102
RTVSPost2010Prop29
280
     1
102
RTVSPost2010PropOp29
 70
     1
102
RTVSPost2010Prop30
280
     1
102
RTVSPost2010PropOp30
 70
     1
102
RTVSPost2010Prop31
280
     0
102
RTVSPost2010PropOp31
 70
     1
102
RTVSPost2010Prop32
280
     0
102
RTVSPost2010PropOp32
 70
     1
102
RTVSPost2010Prop33
280
     0
102
RTVSPost2010PropOp33
 70
     1
102
RTVSPost2010Prop34
280
     0
102
RTVSPost2010PropOp34
 70
     1
102
RTVSPost2010Prop35
280
     0
102
RTVSPost2010PropOp35
 70
     1
102
RTVSPost2010Prop36
280
     0
102
RTVSPost2010PropOp36
 70
     1
102
RTVSPost2010Prop37
 90
       50
102
RTVSPost2010PropOp37
 70
     1
102
RTVSPost2010Prop38
140
0.0
102
RTVSPost2010PropOp38
 70
     1
102
RTVSPost2010Prop39
140
1.0
102
RTVSPost2010PropOp39
 70
     1
102
RTVSPost2010Prop40
 90
        0
102
RTVSPost2010PropOp40
 70
     1
102
RTVSPost2010Prop41ColorIndex
 90
       18
102
RTVSPost2010Prop41ColorRGB
 90
        0
102
RTVSPost2010PropOp41
 70
     1
102
RTVSPost2010Prop42
 90
       50
102
RTVSPost2010PropOp42
 70
     1
102
RTVSPost2010Prop43
 90
        3
102
RTVSPost2010PropOp43
 70
     1
102
RTVSPost2010Prop44ColorIndex
 90
        5
102
RTVSPost2010Prop44ColorRGB
 90
      255
102
RTVSPost2010PropOp44
 70
     1
102
RTVSPost2010Prop45
280
     0
102
RTVSPost2010PropOp45
 70
     1
102
RTVSPost2010Prop46
 90
       50
102
RTVSPost2010PropOp46
 70
     1
102
RTVSPost2010Prop47
 90
       50
102
RTVSPost2010PropOp47
 70
     1
102
RTVSPost2010Prop48
 90
       50
102
RTVSPost2010PropOp48
 70
     1
102
RTVSPost2010Prop49
280
     0
102
RTVSPost2010PropOp49
 70
     1
102
RTVSPost2010Prop50
 90
       50
102
RTVSPost2010PropOp50
 70
     1
102
RTVSPost2010Prop51ColorIndex
 90
      256
102
RTVSPost2010Prop51ColorRGB
 90
-16777216
102
RTVSPost2010PropOp51
 70
     0
102
RTVSPost2010Prop52
140
1.0
102
RTVSPost2010PropOp52
 70
     0
102
RTVSPost2010Prop53
 90
        2
102
RTVSPost2010PropOp53
 70
     1
102
RTVSPost2010Prop54
  1
strokes_ogs.tif
102
RTVSPost2010PropOp54
 70
     1
102
RTVSPost2010Prop55
280
     0
102
RTVSPost2010PropOp55
 70
     1
102
RTVSPost2010Prop56
140
1.0
102
RTVSPost2010PropOp56
 70
     1
102
RTVSPost2010Prop57
140
1.0
102
RTVSPost2010PropOp57
 70
     1
102
RTVSPropertyOp0
 70
     1
102
RTVSPropertyOp1
 70
     1
102
RTVSPropertyOp2
 70
     1
102
RTVSPropertyOp3
 70
     1
102
RTVSPropertyOp4
 70
     1
102
RTVSPropertyOp5
 70
     1
102
RTVSPropertyOp6
 70
     1
102
RTVSPropertyOp7
 70
     1
102
RTVSPropertyOp8
 70
     1
102
RTVSPropertyOp9
 70
     1
102
RTVSPropertyOp10
 70
     1
102
RTVSPropertyOp11
 70
     1
102
RTVSPropertyOp12
 70
     1
102
RTVSPropertyOp13
 70
     1
102
RTVSPropertyOp14
 70
     1
102
RTVSPropertyOp15
 70
     1
102
RTVSPropertyOp16
 70
     1
102
RTVSPropertyOp17
 70
     1
102
RTVSPropertyOp18
 70
     1
102
RTVSPropertyOp19
 70
     1
102
RTVSPropertyOp20
 70
     1
102
RTVSPropertyOp21
 70
     1
102
RTVSPropertyOp22
 70
     1
102
RTVSPropertyOp23
 70
     1
102
RTVSPropertyOp24
 70
     1
102
RTVSPropertyOp25
 70
     1
102
RTVSPropertyOp26
 70
     1
102
RTVSPropertyOp27
 70
     1
102
RTVSPropertyOp28
 70
     1
102
RTVSPropertyOp29
 70
     1
102
RTVSPropertyOp30
 70
     1
102
RTVSPropertyOp31
 70
     1
102
RTVSPropertyOp32
 70
     1
102
RTVSPropertyOp33
 70
     1
102
RTVSPropertyOp34
 70
     1
102
RTVSPropertyOp35
 70
     1
102
RTVSPropertyOp36
 70
     1
102
RTVSPropertyOp37
 70
     1
102
RTVSPropertyOp38
 70
     1
102
RTVSPropertyOp39
 70
     1
102
RTVSPropertyOp40
 70
     1
102
RTVSPropertyOp41
 70
     1
102
RTVSPropertyOp42
 70
     1
102
RTVSPropertyOp43
 70
     1
102
RTVSPropertyOp44
 70
     1
102
RTVSPropertyOp45
 70
     1
102
RTVSPropertyOp46
 70
     1
102
RTVSPropertyOp47
 70
     1
102
RTVSPropertyOp48
 70
     1
102
RTVSPropertyOp49
 70
     1
102
RTVSPropertyOp50
 70
     1
102
RTVSPropertyOp51
 70
     0
102
RTVSPropertyOp52
 70
     0
102
RTVSPropertyOp53
 70
     1
102
RTVSPropertyOp54
 70
     1
102
RTVSPropertyOp55
 70
     1
102
RTVSPropertyOp56
 70
     1
102
RTVSPropertyOp57
 70
     1
102
RTVSPropertyOp58
 70
     1
102
RTVSPropertyOp59
 70
     1
102
RTVSPropertyOp60
 70
     1
102
RTVSPropertyOp61
 70
     1
102
RTVSPropertyOp62
 70
     1
  0
XRECORD
  5
ABD2
102
{ACAD_REACTORS
330
ABD1
102
}
330
ABD1
100
AcDbXrecord
280
     1
102
RTVSPost2010Prop28
280
     0
102
RTVSPost2010PropOp28
 70
     1
102
RTVSPost2010Prop29
280
     1
102
RTVSPost2010PropOp29
 70
     1
102
RTVSPost2010Prop30
280
     1
102
RTVSPost2010PropOp30
 70
     1
102
RTVSPost2010Prop31
280
     0
102
RTVSPost2010PropOp31
 70
     1
102
RTVSPost2010Prop32
280
     0
102
RTVSPost2010PropOp32
 70
     1
102
RTVSPost2010Prop33
280
     0
102
RTVSPost2010PropOp33
 70
     1
102
RTVSPost2010Prop34
280
     0
102
RTVSPost2010PropOp34
 70
     1
102
RTVSPost2010Prop35
280
     0
102
RTVSPost2010PropOp35
 70
     1
102
RTVSPost2010Prop36
280
     0
102
RTVSPost2010PropOp36
 70
     1
102
RTVSPost2010Prop37
 90
       50
102
RTVSPost2010PropOp37
 70
     0
102
RTVSPost2010Prop38
140
0.0
102
RTVSPost2010PropOp38
 70
     0
102
RTVSPost2010Prop39
140
1.0
102
RTVSPost2010PropOp39
 70
     0
102
RTVSPost2010Prop40
 90
        0
102
RTVSPost2010PropOp40
 70
     0
102
RTVSPost2010Prop41ColorIndex
 90
       18
102
RTVSPost2010Prop41ColorRGB
 90
        0
102
RTVSPost2010PropOp41
 70
     0
102
RTVSPost2010Prop42
 90
       50
102
RTVSPost2010PropOp42
 70
     0
102
RTVSPost2010Prop43
 90
        3
102
RTVSPost2010PropOp43
 70
     0
102
RTVSPost2010Prop44ColorIndex
 90
        5
102
RTVSPost2010Prop44ColorRGB
 90
      255
102
RTVSPost2010PropOp44
 70
     0
102
RTVSPost2010Prop45
280
     0
102
RTVSPost2010PropOp45
 70
     1
102
RTVSPost2010Prop46
 90
       50
102
RTVSPost2010PropOp46
 70
     0
102
RTVSPost2010Prop47
 90
       50
102
RTVSPost2010PropOp47
 70
     0
102
RTVSPost2010Prop48
 90
       50
102
RTVSPost2010PropOp48
 70
     0
102
RTVSPost2010Prop49
280
     0
102
RTVSPost2010PropOp49
 70
     1
102
RTVSPost2010Prop50
 90
       50
102
RTVSPost2010PropOp50
 70
     0
102
RTVSPost2010Prop51ColorIndex
 90
      256
102
RTVSPost2010Prop51ColorRGB
 90
-16777216
102
RTVSPost2010PropOp51
 70
     0
102
RTVSPost2010Prop52
140
1.0
102
RTVSPost2010PropOp52
 70
     0
102
RTVSPost2010Prop53
 90
        2
102
RTVSPost2010PropOp53
 70
     0
102
RTVSPost2010Prop54
  1
strokes_ogs.tif
102
RTVSPost2010PropOp54
 70
     0
102
RTVSPost2010Prop55
280
     0
102
RTVSPost2010PropOp55
 70
     1
102
RTVSPost2010Prop56
140
1.0
102
RTVSPost2010PropOp56
 70
     0
102
RTVSPost2010Prop57
140
1.0
102
RTVSPost2010PropOp57
 70
     0
102
RTVSPropertyOp0
 70
     0
102
RTVSPropertyOp1
 70
     0
102
RTVSPropertyOp2
 70
     0
102
RTVSPropertyOp3
 70
     0
102
RTVSPropertyOp4
 70
     0
102
RTVSPropertyOp5
 70
     0
102
RTVSPropertyOp6
 70
     0
102
RTVSPropertyOp7
 70
     0
102
RTVSPropertyOp8
 70
     0
102
RTVSPropertyOp9
 70
     0
102
RTVSPropertyOp10
 70
     0
102
RTVSPropertyOp11
 70
     0
102
RTVSPropertyOp12
 70
     0
102
RTVSPropertyOp13
 70
     0
102
RTVSPropertyOp14
 70
     2
102
RTVSPropertyOp15
 70
     0
102
RTVSPropertyOp16
 70
     0
102
RTVSPropertyOp17
 70
     0
102
RTVSPropertyOp18
 70
     0
102
RTVSPropertyOp19
 70
     0
102
RTVSPropertyOp20
 70
     0
102
RTVSPropertyOp21
 70
     0
102
RTVSPropertyOp22
 70
     0
102
RTVSPropertyOp23
 70
     0
102
RTVSPropertyOp24
 70
     0
102
RTVSPropertyOp25
 70
     0
102
RTVSPropertyOp26
 70
     0
102
RTVSPropertyOp27
 70
     0
102
RTVSPropertyOp28
 70
     1
102
RTVSPropertyOp29
 70
     1
102
RTVSPropertyOp30
 70
     1
102
RTVSPropertyOp31
 70
     1
102
RTVSPropertyOp32
 70
     1
102
RTVSPropertyOp33
 70
     1
102
RTVSPropertyOp34
 70
     1
102
RTVSPropertyOp35
 70
     1
102
RTVSPropertyOp36
 70
     1
102
RTVSPropertyOp37
 70
     0
102
RTVSPropertyOp38
 70
     0
102
RTVSPropertyOp39
 70
     0
102
RTVSPropertyOp40
 70
     0
102
RTVSPropertyOp41
 70
     0
102
RTVSPropertyOp42
 70
     0
102
RTVSPropertyOp43
 70
     0
102
RTVSPropertyOp44
 70
     0
102
RTVSPropertyOp45
 70
     1
102
RTVSPropertyOp46
 70
     0
102
RTVSPropertyOp47
 70
     0
102
RTVSPropertyOp48
 70
     0
102
RTVSPropertyOp49
 70
     1
102
RTVSPropertyOp50
 70
     0
102
RTVSPropertyOp51
 70
     0
102
RTVSPropertyOp52
 70
     0
102
RTVSPropertyOp53
 70
     0
102
RTVSPropertyOp54
 70
     0
102
RTVSPropertyOp55
 70
     1
102
RTVSPropertyOp56
 70
     0
102
RTVSPropertyOp57
 70
     0
102
RTVSPropertyOp58
 70
     0
102
RTVSPropertyOp59
 70
     0
102
RTVSPropertyOp60
 70
     0
102
RTVSPropertyOp61
 70
     0
102
RTVSPropertyOp62
 70
     0
  0
XRECORD
  5
ABB8
102
{ACAD_REACTORS
330
ABB7
102
}
330
ABB7
100
AcDbXrecord
280
     1
102
RTVSPost2010Prop28
280
     0
102
RTVSPost2010PropOp28
 70
     1
102
RTVSPost2010Prop29
280
     1
102
RTVSPost2010PropOp29
 70
     1
102
RTVSPost2010Prop30
280
     1
102
RTVSPost2010PropOp30
 70
     1
102
RTVSPost2010Prop31
280
     0
102
RTVSPost2010PropOp31
 70
     1
102
RTVSPost2010Prop32
280
     0
102
RTVSPost2010PropOp32
 70
     1
102
RTVSPost2010Prop33
280
     0
102
RTVSPost2010PropOp33
 70
     1
102
RTVSPost2010Prop34
280
     0
102
RTVSPost2010PropOp34
 70
     1
102
RTVSPost2010Prop35
280
     0
102
RTVSPost2010PropOp35
 70
     1
102
RTVSPost2010Prop36
280
     0
102
RTVSPost2010PropOp36
 70
     1
102
RTVSPost2010Prop37
 90
       50
102
RTVSPost2010PropOp37
 70
     1
102
RTVSPost2010Prop38
140
0.0
102
RTVSPost2010PropOp38
 70
     1
102
RTVSPost2010Prop39
140
1.0
102
RTVSPost2010PropOp39
 70
     1
102
RTVSPost2010Prop40
 90
        0
102
RTVSPost2010PropOp40
 70
     1
102
RTVSPost2010Prop41ColorIndex
 90
       18
102
RTVSPost2010Prop41ColorRGB
 90
        0
102
RTVSPost2010PropOp41
 70
     1
102
RTVSPost2010Prop42
 90
       50
102
RTVSPost2010PropOp42
 70
     1
102
RTVSPost2010Prop43
 90
        3
102
RTVSPost2010PropOp43
 70
     1
102
RTVSPost2010Prop44ColorIndex
 90
        5
102
RTVSPost2010Prop44ColorRGB
 90
      255
102
RTVSPost2010PropOp44
 70
     1
102
RTVSPost2010Prop45
280
     0
102
RTVSPost2010PropOp45
 70
     1
102
RTVSPost2010Prop46
 90
       50
102
RTVSPost2010PropOp46
 70
     1
102
RTVSPost2010Prop47
 90
       50
102
RTVSPost2010PropOp47
 70
     1
102
RTVSPost2010Prop48
 90
       50
102
RTVSPost2010PropOp48
 70
     1
102
RTVSPost2010Prop49
280
     0
102
RTVSPost2010PropOp49
 70
     1
102
RTVSPost2010Prop50
 90
       50
102
RTVSPost2010PropOp50
 70
     1
102
RTVSPost2010Prop51ColorIndex
 90
      256
102
RTVSPost2010Prop51ColorRGB
 90
-16777216
102
RTVSPost2010PropOp51
 70
     0
102
RTVSPost2010Prop52
140
1.0
102
RTVSPost2010PropOp52
 70
     0
102
RTVSPost2010Prop53
 90
        2
102
RTVSPost2010PropOp53
 70
     1
102
RTVSPost2010Prop54
  1
strokes_ogs.tif
102
RTVSPost2010PropOp54
 70
     1
102
RTVSPost2010Prop55
280
     0
102
RTVSPost2010PropOp55
 70
     1
102
RTVSPost2010Prop56
140
1.0
102
RTVSPost2010PropOp56
 70
     1
102
RTVSPost2010Prop57
140
1.0
102
RTVSPost2010PropOp57
 70
     1
102
RTVSPropertyOp0
 70
     1
102
RTVSPropertyOp1
 70
     1
102
RTVSPropertyOp2
 70
     1
102
RTVSPropertyOp3
 70
     1
102
RTVSPropertyOp4
 70
     1
102
RTVSPropertyOp5
 70
     1
102
RTVSPropertyOp6
 70
     1
102
RTVSPropertyOp7
 70
     1
102
RTVSPropertyOp8
 70
     1
102
RTVSPropertyOp9
 70
     1
102
RTVSPropertyOp10
 70
     1
102
RTVSPropertyOp11
 70
     1
102
RTVSPropertyOp12
 70
     1
102
RTVSPropertyOp13
 70
     1
102
RTVSPropertyOp14
 70
     1
102
RTVSPropertyOp15
 70
     1
102
RTVSPropertyOp16
 70
     1
102
RTVSPropertyOp17
 70
     1
102
RTVSPropertyOp18
 70
     1
102
RTVSPropertyOp19
 70
     1
102
RTVSPropertyOp20
 70
     1
102
RTVSPropertyOp21
 70
     1
102
RTVSPropertyOp22
 70
     1
102
RTVSPropertyOp23
 70
     1
102
RTVSPropertyOp24
 70
     1
102
RTVSPropertyOp25
 70
     1
102
RTVSPropertyOp26
 70
     1
102
RTVSPropertyOp27
 70
     1
102
RTVSPropertyOp28
 70
     1
102
RTVSPropertyOp29
 70
     1
102
RTVSPropertyOp30
 70
     1
102
RTVSPropertyOp31
 70
     1
102
RTVSPropertyOp32
 70
     1
102
RTVSPropertyOp33
 70
     1
102
RTVSPropertyOp34
 70
     1
102
RTVSPropertyOp35
 70
     1
102
RTVSPropertyOp36
 70
     1
102
RTVSPropertyOp37
 70
     1
102
RTVSPropertyOp38
 70
     1
102
RTVSPropertyOp39
 70
     1
102
RTVSPropertyOp40
 70
     1
102
RTVSPropertyOp41
 70
     1
102
RTVSPropertyOp42
 70
     1
102
RTVSPropertyOp43
 70
     1
102
RTVSPropertyOp44
 70
     1
102
RTVSPropertyOp45
 70
     1
102
RTVSPropertyOp46
 70
     1
102
RTVSPropertyOp47
 70
     1
102
RTVSPropertyOp48
 70
     1
102
RTVSPropertyOp49
 70
     1
102
RTVSPropertyOp50
 70
     1
102
RTVSPropertyOp51
 70
     0
102
RTVSPropertyOp52
 70
     0
102
RTVSPropertyOp53
 70
     1
102
RTVSPropertyOp54
 70
     1
102
RTVSPropertyOp55
 70
     1
102
RTVSPropertyOp56
 70
     1
102
RTVSPropertyOp57
 70
     1
102
RTVSPropertyOp58
 70
     1
102
RTVSPropertyOp59
 70
     1
102
RTVSPropertyOp60
 70
     1
102
RTVSPropertyOp61
 70
     1
102
RTVSPropertyOp62
 70
     1
  0
XRECORD
  5
ABCE
102
{ACAD_REACTORS
330
ABCD
102
}
330
ABCD
100
AcDbXrecord
280
     1
102
RTVSPost2010Prop28
280
     0
102
RTVSPost2010PropOp28
 70
     1
102
RTVSPost2010Prop29
280
     1
102
RTVSPost2010PropOp29
 70
     1
102
RTVSPost2010Prop30
280
     1
102
RTVSPost2010PropOp30
 70
     1
102
RTVSPost2010Prop31
280
     0
102
RTVSPost2010PropOp31
 70
     1
102
RTVSPost2010Prop32
280
     0
102
RTVSPost2010PropOp32
 70
     1
102
RTVSPost2010Prop33
280
     0
102
RTVSPost2010PropOp33
 70
     1
102
RTVSPost2010Prop34
280
     0
102
RTVSPost2010PropOp34
 70
     1
102
RTVSPost2010Prop35
280
     0
102
RTVSPost2010PropOp35
 70
     1
102
RTVSPost2010Prop36
280
     0
102
RTVSPost2010PropOp36
 70
     1
102
RTVSPost2010Prop37
 90
       50
102
RTVSPost2010PropOp37
 70
     1
102
RTVSPost2010Prop38
140
0.0
102
RTVSPost2010PropOp38
 70
     1
102
RTVSPost2010Prop39
140
1.0
102
RTVSPost2010PropOp39
 70
     1
102
RTVSPost2010Prop40
 90
        0
102
RTVSPost2010PropOp40
 70
     1
102
RTVSPost2010Prop41ColorIndex
 90
       18
102
RTVSPost2010Prop41ColorRGB
 90
        0
102
RTVSPost2010PropOp41
 70
     1
102
RTVSPost2010Prop42
 90
       50
102
RTVSPost2010PropOp42
 70
     1
102
RTVSPost2010Prop43
 90
        3
102
RTVSPost2010PropOp43
 70
     1
102
RTVSPost2010Prop44ColorIndex
 90
        5
102
RTVSPost2010Prop44ColorRGB
 90
      255
102
RTVSPost2010PropOp44
 70
     1
102
RTVSPost2010Prop45
280
     0
102
RTVSPost2010PropOp45
 70
     1
102
RTVSPost2010Prop46
 90
       50
102
RTVSPost2010PropOp46
 70
     1
102
RTVSPost2010Prop47
 90
       50
102
RTVSPost2010PropOp47
 70
     1
102
RTVSPost2010Prop48
 90
       50
102
RTVSPost2010PropOp48
 70
     1
102
RTVSPost2010Prop49
280
     0
102
RTVSPost2010PropOp49
 70
     1
102
RTVSPost2010Prop50
 90
       50
102
RTVSPost2010PropOp50
 70
     1
102
RTVSPost2010Prop51ColorIndex
 90
      256
102
RTVSPost2010Prop51ColorRGB
 90
-16777216
102
RTVSPost2010PropOp51
 70
     0
102
RTVSPost2010Prop52
140
1.0
102
RTVSPost2010PropOp52
 70
     0
102
RTVSPost2010Prop53
 90
        2
102
RTVSPost2010PropOp53
 70
     1
102
RTVSPost2010Prop54
  1
strokes_ogs.tif
102
RTVSPost2010PropOp54
 70
     1
102
RTVSPost2010Prop55
280
     0
102
RTVSPost2010PropOp55
 70
     1
102
RTVSPost2010Prop56
140
1.0
102
RTVSPost2010PropOp56
 70
     1
102
RTVSPost2010Prop57
140
1.0
102
RTVSPost2010PropOp57
 70
     1
102
RTVSPropertyOp0
 70
     1
102
RTVSPropertyOp1
 70
     1
102
RTVSPropertyOp2
 70
     1
102
RTVSPropertyOp3
 70
     1
102
RTVSPropertyOp4
 70
     1
102
RTVSPropertyOp5
 70
     1
102
RTVSPropertyOp6
 70
     1
102
RTVSPropertyOp7
 70
     1
102
RTVSPropertyOp8
 70
     1
102
RTVSPropertyOp9
 70
     1
102
RTVSPropertyOp10
 70
     1
102
RTVSPropertyOp11
 70
     1
102
RTVSPropertyOp12
 70
     1
102
RTVSPropertyOp13
 70
     1
102
RTVSPropertyOp14
 70
     1
102
RTVSPropertyOp15
 70
     1
102
RTVSPropertyOp16
 70
     1
102
RTVSPropertyOp17
 70
     1
102
RTVSPropertyOp18
 70
     1
102
RTVSPropertyOp19
 70
     1
102
RTVSPropertyOp20
 70
     1
102
RTVSPropertyOp21
 70
     1
102
RTVSPropertyOp22
 70
     1
102
RTVSPropertyOp23
 70
     1
102
RTVSPropertyOp24
 70
     1
102
RTVSPropertyOp25
 70
     1
102
RTVSPropertyOp26
 70
     1
102
RTVSPropertyOp27
 70
     1
102
RTVSPropertyOp28
 70
     1
102
RTVSPropertyOp29
 70
     1
102
RTVSPropertyOp30
 70
     1
102
RTVSPropertyOp31
 70
     1
102
RTVSPropertyOp32
 70
     1
102
RTVSPropertyOp33
 70
     1
102
RTVSPropertyOp34
 70
     1
102
RTVSPropertyOp35
 70
     1
102
RTVSPropertyOp36
 70
     1
102
RTVSPropertyOp37
 70
     1
102
RTVSPropertyOp38
 70
     1
102
RTVSPropertyOp39
 70
     1
102
RTVSPropertyOp40
 70
     1
102
RTVSPropertyOp41
 70
     1
102
RTVSPropertyOp42
 70
     1
102
RTVSPropertyOp43
 70
     1
102
RTVSPropertyOp44
 70
     1
102
RTVSPropertyOp45
 70
     1
102
RTVSPropertyOp46
 70
     1
102
RTVSPropertyOp47
 70
     1
102
RTVSPropertyOp48
 70
     1
102
RTVSPropertyOp49
 70
     1
102
RTVSPropertyOp50
 70
     1
102
RTVSPropertyOp51
 70
     0
102
RTVSPropertyOp52
 70
     0
102
RTVSPropertyOp53
 70
     1
102
RTVSPropertyOp54
 70
     1
102
RTVSPropertyOp55
 70
     1
102
RTVSPropertyOp56
 70
     1
102
RTVSPropertyOp57
 70
     1
102
RTVSPropertyOp58
 70
     1
102
RTVSPropertyOp59
 70
     1
102
RTVSPropertyOp60
 70
     1
102
RTVSPropertyOp61
 70
     1
102
RTVSPropertyOp62
 70
     1
  0
XRECORD
  5
ABCC
102
{ACAD_REACTORS
330
ABCB
102
}
330
ABCB
100
AcDbXrecord
280
     1
102
RTVSPost2010Prop28
280
     0
102
RTVSPost2010PropOp28
 70
     1
102
RTVSPost2010Prop29
280
     1
102
RTVSPost2010PropOp29
 70
     1
102
RTVSPost2010Prop30
280
     1
102
RTVSPost2010PropOp30
 70
     1
102
RTVSPost2010Prop31
280
     0
102
RTVSPost2010PropOp31
 70
     1
102
RTVSPost2010Prop32
280
     0
102
RTVSPost2010PropOp32
 70
     1
102
RTVSPost2010Prop33
280
     0
102
RTVSPost2010PropOp33
 70
     1
102
RTVSPost2010Prop34
280
     0
102
RTVSPost2010PropOp34
 70
     1
102
RTVSPost2010Prop35
280
     0
102
RTVSPost2010PropOp35
 70
     1
102
RTVSPost2010Prop36
280
     0
102
RTVSPost2010PropOp36
 70
     1
102
RTVSPost2010Prop37
 90
       50
102
RTVSPost2010PropOp37
 70
     1
102
RTVSPost2010Prop38
140
0.0
102
RTVSPost2010PropOp38
 70
     1
102
RTVSPost2010Prop39
140
1.0
102
RTVSPost2010PropOp39
 70
     1
102
RTVSPost2010Prop40
 90
        0
102
RTVSPost2010PropOp40
 70
     1
102
RTVSPost2010Prop41ColorIndex
 90
       18
102
RTVSPost2010Prop41ColorRGB
 90
        0
102
RTVSPost2010PropOp41
 70
     1
102
RTVSPost2010Prop42
 90
       50
102
RTVSPost2010PropOp42
 70
     1
102
RTVSPost2010Prop43
 90
        3
102
RTVSPost2010PropOp43
 70
     1
102
RTVSPost2010Prop44ColorIndex
 90
        5
102
RTVSPost2010Prop44ColorRGB
 90
      255
102
RTVSPost2010PropOp44
 70
     1
102
RTVSPost2010Prop45
280
     0
102
RTVSPost2010PropOp45
 70
     1
102
RTVSPost2010Prop46
 90
       50
102
RTVSPost2010PropOp46
 70
     1
102
RTVSPost2010Prop47
 90
       50
102
RTVSPost2010PropOp47
 70
     1
102
RTVSPost2010Prop48
 90
       50
102
RTVSPost2010PropOp48
 70
     1
102
RTVSPost2010Prop49
280
     0
102
RTVSPost2010PropOp49
 70
     1
102
RTVSPost2010Prop50
 90
       50
102
RTVSPost2010PropOp50
 70
     1
102
RTVSPost2010Prop51ColorIndex
 90
      256
102
RTVSPost2010Prop51ColorRGB
 90
-16777216
102
RTVSPost2010PropOp51
 70
     0
102
RTVSPost2010Prop52
140
1.0
102
RTVSPost2010PropOp52
 70
     0
102
RTVSPost2010Prop53
 90
        2
102
RTVSPost2010PropOp53
 70
     1
102
RTVSPost2010Prop54
  1
strokes_ogs.tif
102
RTVSPost2010PropOp54
 70
     1
102
RTVSPost2010Prop55
280
     0
102
RTVSPost2010PropOp55
 70
     1
102
RTVSPost2010Prop56
140
1.0
102
RTVSPost2010PropOp56
 70
     1
102
RTVSPost2010Prop57
140
1.0
102
RTVSPost2010PropOp57
 70
     1
102
RTVSPropertyOp0
 70
     1
102
RTVSPropertyOp1
 70
     1
102
RTVSPropertyOp2
 70
     1
102
RTVSPropertyOp3
 70
     1
102
RTVSPropertyOp4
 70
     1
102
RTVSPropertyOp5
 70
     1
102
RTVSPropertyOp6
 70
     1
102
RTVSPropertyOp7
 70
     1
102
RTVSPropertyOp8
 70
     1
102
RTVSPropertyOp9
 70
     1
102
RTVSPropertyOp10
 70
     1
102
RTVSPropertyOp11
 70
     1
102
RTVSPropertyOp12
 70
     1
102
RTVSPropertyOp13
 70
     1
102
RTVSPropertyOp14
 70
     1
102
RTVSPropertyOp15
 70
     1
102
RTVSPropertyOp16
 70
     1
102
RTVSPropertyOp17
 70
     1
102
RTVSPropertyOp18
 70
     1
102
RTVSPropertyOp19
 70
     1
102
RTVSPropertyOp20
 70
     1
102
RTVSPropertyOp21
 70
     1
102
RTVSPropertyOp22
 70
     1
102
RTVSPropertyOp23
 70
     1
102
RTVSPropertyOp24
 70
     1
102
RTVSPropertyOp25
 70
     1
102
RTVSPropertyOp26
 70
     1
102
RTVSPropertyOp27
 70
     1
102
RTVSPropertyOp28
 70
     1
102
RTVSPropertyOp29
 70
     1
102
RTVSPropertyOp30
 70
     1
102
RTVSPropertyOp31
 70
     1
102
RTVSPropertyOp32
 70
     1
102
RTVSPropertyOp33
 70
     1
102
RTVSPropertyOp34
 70
     1
102
RTVSPropertyOp35
 70
     1
102
RTVSPropertyOp36
 70
     1
102
RTVSPropertyOp37
 70
     1
102
RTVSPropertyOp38
 70
     1
102
RTVSPropertyOp39
 70
     1
102
RTVSPropertyOp40
 70
     1
102
RTVSPropertyOp41
 70
     1
102
RTVSPropertyOp42
 70
     1
102
RTVSPropertyOp43
 70
     1
102
RTVSPropertyOp44
 70
     1
102
RTVSPropertyOp45
 70
     1
102
RTVSPropertyOp46
 70
     1
102
RTVSPropertyOp47
 70
     1
102
RTVSPropertyOp48
 70
     1
102
RTVSPropertyOp49
 70
     1
102
RTVSPropertyOp50
 70
     1
102
RTVSPropertyOp51
 70
     0
102
RTVSPropertyOp52
 70
     0
102
RTVSPropertyOp53
 70
     1
102
RTVSPropertyOp54
 70
     1
102
RTVSPropertyOp55
 70
     1
102
RTVSPropertyOp56
 70
     1
102
RTVSPropertyOp57
 70
     1
102
RTVSPropertyOp58
 70
     1
102
RTVSPropertyOp59
 70
     1
102
RTVSPropertyOp60
 70
     1
102
RTVSPropertyOp61
 70
     1
102
RTVSPropertyOp62
 70
     1
  0
XRECORD
  5
ABC6
102
{ACAD_REACTORS
330
ABC5
102
}
330
ABC5
100
AcDbXrecord
280
     1
102
RTVSPost2010Prop28
280
     0
102
RTVSPost2010PropOp28
 70
     1
102
RTVSPost2010Prop29
280
     1
102
RTVSPost2010PropOp29
 70
     1
102
RTVSPost2010Prop30
280
     1
102
RTVSPost2010PropOp30
 70
     1
102
RTVSPost2010Prop31
280
     0
102
RTVSPost2010PropOp31
 70
     1
102
RTVSPost2010Prop32
280
     0
102
RTVSPost2010PropOp32
 70
     1
102
RTVSPost2010Prop33
280
     0
102
RTVSPost2010PropOp33
 70
     1
102
RTVSPost2010Prop34
280
     0
102
RTVSPost2010PropOp34
 70
     1
102
RTVSPost2010Prop35
280
     0
102
RTVSPost2010PropOp35
 70
     1
102
RTVSPost2010Prop36
280
     0
102
RTVSPost2010PropOp36
 70
     1
102
RTVSPost2010Prop37
 90
       50
102
RTVSPost2010PropOp37
 70
     1
102
RTVSPost2010Prop38
140
0.0
102
RTVSPost2010PropOp38
 70
     1
102
RTVSPost2010Prop39
140
1.0
102
RTVSPost2010PropOp39
 70
     1
102
RTVSPost2010Prop40
 90
        0
102
RTVSPost2010PropOp40
 70
     1
102
RTVSPost2010Prop41ColorIndex
 90
       18
102
RTVSPost2010Prop41ColorRGB
 90
        0
102
RTVSPost2010PropOp41
 70
     1
102
RTVSPost2010Prop42
 90
       50
102
RTVSPost2010PropOp42
 70
     1
102
RTVSPost2010Prop43
 90
        3
102
RTVSPost2010PropOp43
 70
     1
102
RTVSPost2010Prop44ColorIndex
 90
        5
102
RTVSPost2010Prop44ColorRGB
 90
      255
102
RTVSPost2010PropOp44
 70
     1
102
RTVSPost2010Prop45
280
     0
102
RTVSPost2010PropOp45
 70
     1
102
RTVSPost2010Prop46
 90
       50
102
RTVSPost2010PropOp46
 70
     1
102
RTVSPost2010Prop47
 90
       50
102
RTVSPost2010PropOp47
 70
     1
102
RTVSPost2010Prop48
 90
       50
102
RTVSPost2010PropOp48
 70
     1
102
RTVSPost2010Prop49
280
     0
102
RTVSPost2010PropOp49
 70
     1
102
RTVSPost2010Prop50
 90
       50
102
RTVSPost2010PropOp50
 70
     1
102
RTVSPost2010Prop51ColorIndex
 90
      256
102
RTVSPost2010Prop51ColorRGB
 90
-16777216
102
RTVSPost2010PropOp51
 70
     0
102
RTVSPost2010Prop52
140
1.0
102
RTVSPost2010PropOp52
 70
     0
102
RTVSPost2010Prop53
 90
        2
102
RTVSPost2010PropOp53
 70
     1
102
RTVSPost2010Prop54
  1
strokes_ogs.tif
102
RTVSPost2010PropOp54
 70
     1
102
RTVSPost2010Prop55
280
     0
102
RTVSPost2010PropOp55
 70
     1
102
RTVSPost2010Prop56
140
1.0
102
RTVSPost2010PropOp56
 70
     1
102
RTVSPost2010Prop57
140
1.0
102
RTVSPost2010PropOp57
 70
     1
102
RTVSPropertyOp0
 70
     1
102
RTVSPropertyOp1
 70
     1
102
RTVSPropertyOp2
 70
     1
102
RTVSPropertyOp3
 70
     1
102
RTVSPropertyOp4
 70
     1
102
RTVSPropertyOp5
 70
     1
102
RTVSPropertyOp6
 70
     1
102
RTVSPropertyOp7
 70
     1
102
RTVSPropertyOp8
 70
     1
102
RTVSPropertyOp9
 70
     1
102
RTVSPropertyOp10
 70
     1
102
RTVSPropertyOp11
 70
     1
102
RTVSPropertyOp12
 70
     1
102
RTVSPropertyOp13
 70
     1
102
RTVSPropertyOp14
 70
     1
102
RTVSPropertyOp15
 70
     1
102
RTVSPropertyOp16
 70
     1
102
RTVSPropertyOp17
 70
     1
102
RTVSPropertyOp18
 70
     1
102
RTVSPropertyOp19
 70
     1
102
RTVSPropertyOp20
 70
     1
102
RTVSPropertyOp21
 70
     1
102
RTVSPropertyOp22
 70
     1
102
RTVSPropertyOp23
 70
     1
102
RTVSPropertyOp24
 70
     1
102
RTVSPropertyOp25
 70
     1
102
RTVSPropertyOp26
 70
     1
102
RTVSPropertyOp27
 70
     1
102
RTVSPropertyOp28
 70
     1
102
RTVSPropertyOp29
 70
     1
102
RTVSPropertyOp30
 70
     1
102
RTVSPropertyOp31
 70
     1
102
RTVSPropertyOp32
 70
     1
102
RTVSPropertyOp33
 70
     1
102
RTVSPropertyOp34
 70
     1
102
RTVSPropertyOp35
 70
     1
102
RTVSPropertyOp36
 70
     1
102
RTVSPropertyOp37
 70
     1
102
RTVSPropertyOp38
 70
     1
102
RTVSPropertyOp39
 70
     1
102
RTVSPropertyOp40
 70
     1
102
RTVSPropertyOp41
 70
     1
102
RTVSPropertyOp42
 70
     1
102
RTVSPropertyOp43
 70
     1
102
RTVSPropertyOp44
 70
     1
102
RTVSPropertyOp45
 70
     1
102
RTVSPropertyOp46
 70
     1
102
RTVSPropertyOp47
 70
     1
102
RTVSPropertyOp48
 70
     1
102
RTVSPropertyOp49
 70
     1
102
RTVSPropertyOp50
 70
     1
102
RTVSPropertyOp51
 70
     0
102
RTVSPropertyOp52
 70
     0
102
RTVSPropertyOp53
 70
     1
102
RTVSPropertyOp54
 70
     1
102
RTVSPropertyOp55
 70
     1
102
RTVSPropertyOp56
 70
     1
102
RTVSPropertyOp57
 70
     1
102
RTVSPropertyOp58
 70
     1
102
RTVSPropertyOp59
 70
     1
102
RTVSPropertyOp60
 70
     1
102
RTVSPropertyOp61
 70
     1
102
RTVSPropertyOp62
 70
     1
  0
XRECORD
  5
ABC8
102
{ACAD_REACTORS
330
ABC7
102
}
330
ABC7
100
AcDbXrecord
280
     1
102
RTVSPost2010Prop28
280
     0
102
RTVSPost2010PropOp28
 70
     1
102
RTVSPost2010Prop29
280
     1
102
RTVSPost2010PropOp29
 70
     1
102
RTVSPost2010Prop30
280
     1
102
RTVSPost2010PropOp30
 70
     1
102
RTVSPost2010Prop31
280
     0
102
RTVSPost2010PropOp31
 70
     1
102
RTVSPost2010Prop32
280
     0
102
RTVSPost2010PropOp32
 70
     1
102
RTVSPost2010Prop33
280
     0
102
RTVSPost2010PropOp33
 70
     1
102
RTVSPost2010Prop34
280
     0
102
RTVSPost2010PropOp34
 70
     1
102
RTVSPost2010Prop35
280
     0
102
RTVSPost2010PropOp35
 70
     1
102
RTVSPost2010Prop36
280
     0
102
RTVSPost2010PropOp36
 70
     1
102
RTVSPost2010Prop37
 90
       50
102
RTVSPost2010PropOp37
 70
     1
102
RTVSPost2010Prop38
140
0.0
102
RTVSPost2010PropOp38
 70
     1
102
RTVSPost2010Prop39
140
1.0
102
RTVSPost2010PropOp39
 70
     1
102
RTVSPost2010Prop40
 90
        0
102
RTVSPost2010PropOp40
 70
     1
102
RTVSPost2010Prop41ColorIndex
 90
       18
102
RTVSPost2010Prop41ColorRGB
 90
        0
102
RTVSPost2010PropOp41
 70
     1
102
RTVSPost2010Prop42
 90
       50
102
RTVSPost2010PropOp42
 70
     1
102
RTVSPost2010Prop43
 90
        3
102
RTVSPost2010PropOp43
 70
     1
102
RTVSPost2010Prop44ColorIndex
 90
        5
102
RTVSPost2010Prop44ColorRGB
 90
      255
102
RTVSPost2010PropOp44
 70
     1
102
RTVSPost2010Prop45
280
     0
102
RTVSPost2010PropOp45
 70
     1
102
RTVSPost2010Prop46
 90
       50
102
RTVSPost2010PropOp46
 70
     1
102
RTVSPost2010Prop47
 90
       50
102
RTVSPost2010PropOp47
 70
     1
102
RTVSPost2010Prop48
 90
       50
102
RTVSPost2010PropOp48
 70
     1
102
RTVSPost2010Prop49
280
     0
102
RTVSPost2010PropOp49
 70
     1
102
RTVSPost2010Prop50
 90
       50
102
RTVSPost2010PropOp50
 70
     1
102
RTVSPost2010Prop51ColorIndex
 90
      256
102
RTVSPost2010Prop51ColorRGB
 90
-16777216
102
RTVSPost2010PropOp51
 70
     0
102
RTVSPost2010Prop52
140
1.0
102
RTVSPost2010PropOp52
 70
     0
102
RTVSPost2010Prop53
 90
        2
102
RTVSPost2010PropOp53
 70
     1
102
RTVSPost2010Prop54
  1
strokes_ogs.tif
102
RTVSPost2010PropOp54
 70
     1
102
RTVSPost2010Prop55
280
     0
102
RTVSPost2010PropOp55
 70
     1
102
RTVSPost2010Prop56
140
1.0
102
RTVSPost2010PropOp56
 70
     1
102
RTVSPost2010Prop57
140
1.0
102
RTVSPost2010PropOp57
 70
     1
102
RTVSPropertyOp0
 70
     1
102
RTVSPropertyOp1
 70
     1
102
RTVSPropertyOp2
 70
     1
102
RTVSPropertyOp3
 70
     1
102
RTVSPropertyOp4
 70
     1
102
RTVSPropertyOp5
 70
     1
102
RTVSPropertyOp6
 70
     1
102
RTVSPropertyOp7
 70
     1
102
RTVSPropertyOp8
 70
     1
102
RTVSPropertyOp9
 70
     1
102
RTVSPropertyOp10
 70
     1
102
RTVSPropertyOp11
 70
     1
102
RTVSPropertyOp12
 70
     1
102
RTVSPropertyOp13
 70
     1
102
RTVSPropertyOp14
 70
     1
102
RTVSPropertyOp15
 70
     1
102
RTVSPropertyOp16
 70
     1
102
RTVSPropertyOp17
 70
     1
102
RTVSPropertyOp18
 70
     1
102
RTVSPropertyOp19
 70
     1
102
RTVSPropertyOp20
 70
     1
102
RTVSPropertyOp21
 70
     1
102
RTVSPropertyOp22
 70
     1
102
RTVSPropertyOp23
 70
     1
102
RTVSPropertyOp24
 70
     1
102
RTVSPropertyOp25
 70
     1
102
RTVSPropertyOp26
 70
     1
102
RTVSPropertyOp27
 70
     1
102
RTVSPropertyOp28
 70
     1
102
RTVSPropertyOp29
 70
     1
102
RTVSPropertyOp30
 70
     1
102
RTVSPropertyOp31
 70
     1
102
RTVSPropertyOp32
 70
     1
102
RTVSPropertyOp33
 70
     1
102
RTVSPropertyOp34
 70
     1
102
RTVSPropertyOp35
 70
     1
102
RTVSPropertyOp36
 70
     1
102
RTVSPropertyOp37
 70
     1
102
RTVSPropertyOp38
 70
     1
102
RTVSPropertyOp39
 70
     1
102
RTVSPropertyOp40
 70
     1
102
RTVSPropertyOp41
 70
     1
102
RTVSPropertyOp42
 70
     1
102
RTVSPropertyOp43
 70
     1
102
RTVSPropertyOp44
 70
     1
102
RTVSPropertyOp45
 70
     1
102
RTVSPropertyOp46
 70
     1
102
RTVSPropertyOp47
 70
     1
102
RTVSPropertyOp48
 70
     1
102
RTVSPropertyOp49
 70
     1
102
RTVSPropertyOp50
 70
     1
102
RTVSPropertyOp51
 70
     0
102
RTVSPropertyOp52
 70
     0
102
RTVSPropertyOp53
 70
     1
102
RTVSPropertyOp54
 70
     1
102
RTVSPropertyOp55
 70
     1
102
RTVSPropertyOp56
 70
     1
102
RTVSPropertyOp57
 70
     1
102
RTVSPropertyOp58
 70
     1
102
RTVSPropertyOp59
 70
     1
102
RTVSPropertyOp60
 70
     1
102
RTVSPropertyOp61
 70
     1
102
RTVSPropertyOp62
 70
     1
  0
XRECORD
  5
ABBE
102
{ACAD_REACTORS
330
ABBD
102
}
330
ABBD
100
AcDbXrecord
280
     1
102
RTVSPost2010Prop28
280
     0
102
RTVSPost2010PropOp28
 70
     1
102
RTVSPost2010Prop29
280
     1
102
RTVSPost2010PropOp29
 70
     1
102
RTVSPost2010Prop30
280
     1
102
RTVSPost2010PropOp30
 70
     1
102
RTVSPost2010Prop31
280
     0
102
RTVSPost2010PropOp31
 70
     1
102
RTVSPost2010Prop32
280
     0
102
RTVSPost2010PropOp32
 70
     1
102
RTVSPost2010Prop33
280
     0
102
RTVSPost2010PropOp33
 70
     1
102
RTVSPost2010Prop34
280
     0
102
RTVSPost2010PropOp34
 70
     1
102
RTVSPost2010Prop35
280
     0
102
RTVSPost2010PropOp35
 70
     1
102
RTVSPost2010Prop36
280
     0
102
RTVSPost2010PropOp36
 70
     1
102
RTVSPost2010Prop37
 90
       50
102
RTVSPost2010PropOp37
 70
     1
102
RTVSPost2010Prop38
140
0.0
102
RTVSPost2010PropOp38
 70
     1
102
RTVSPost2010Prop39
140
1.0
102
RTVSPost2010PropOp39
 70
     1
102
RTVSPost2010Prop40
 90
        0
102
RTVSPost2010PropOp40
 70
     1
102
RTVSPost2010Prop41ColorIndex
 90
       18
102
RTVSPost2010Prop41ColorRGB
 90
        0
102
RTVSPost2010PropOp41
 70
     1
102
RTVSPost2010Prop42
 90
       50
102
RTVSPost2010PropOp42
 70
     1
102
RTVSPost2010Prop43
 90
        3
102
RTVSPost2010PropOp43
 70
     1
102
RTVSPost2010Prop44ColorIndex
 90
        5
102
RTVSPost2010Prop44ColorRGB
 90
      255
102
RTVSPost2010PropOp44
 70
     1
102
RTVSPost2010Prop45
280
     0
102
RTVSPost2010PropOp45
 70
     1
102
RTVSPost2010Prop46
 90
       50
102
RTVSPost2010PropOp46
 70
     1
102
RTVSPost2010Prop47
 90
       50
102
RTVSPost2010PropOp47
 70
     1
102
RTVSPost2010Prop48
 90
       50
102
RTVSPost2010PropOp48
 70
     1
102
RTVSPost2010Prop49
280
     0
102
RTVSPost2010PropOp49
 70
     1
102
RTVSPost2010Prop50
 90
       50
102
RTVSPost2010PropOp50
 70
     1
102
RTVSPost2010Prop51ColorIndex
 90
      256
102
RTVSPost2010Prop51ColorRGB
 90
-16777216
102
RTVSPost2010PropOp51
 70
     0
102
RTVSPost2010Prop52
140
1.0
102
RTVSPost2010PropOp52
 70
     0
102
RTVSPost2010Prop53
 90
        2
102
RTVSPost2010PropOp53
 70
     1
102
RTVSPost2010Prop54
  1
strokes_ogs.tif
102
RTVSPost2010PropOp54
 70
     1
102
RTVSPost2010Prop55
280
     0
102
RTVSPost2010PropOp55
 70
     1
102
RTVSPost2010Prop56
140
1.0
102
RTVSPost2010PropOp56
 70
     1
102
RTVSPost2010Prop57
140
1.0
102
RTVSPost2010PropOp57
 70
     1
102
RTVSPropertyOp0
 70
     1
102
RTVSPropertyOp1
 70
     1
102
RTVSPropertyOp2
 70
     1
102
RTVSPropertyOp3
 70
     1
102
RTVSPropertyOp4
 70
     1
102
RTVSPropertyOp5
 70
     1
102
RTVSPropertyOp6
 70
     1
102
RTVSPropertyOp7
 70
     1
102
RTVSPropertyOp8
 70
     1
102
RTVSPropertyOp9
 70
     1
102
RTVSPropertyOp10
 70
     1
102
RTVSPropertyOp11
 70
     1
102
RTVSPropertyOp12
 70
     1
102
RTVSPropertyOp13
 70
     1
102
RTVSPropertyOp14
 70
     1
102
RTVSPropertyOp15
 70
     1
102
RTVSPropertyOp16
 70
     1
102
RTVSPropertyOp17
 70
     1
102
RTVSPropertyOp18
 70
     1
102
RTVSPropertyOp19
 70
     1
102
RTVSPropertyOp20
 70
     1
102
RTVSPropertyOp21
 70
     1
102
RTVSPropertyOp22
 70
     1
102
RTVSPropertyOp23
 70
     1
102
RTVSPropertyOp24
 70
     1
102
RTVSPropertyOp25
 70
     1
102
RTVSPropertyOp26
 70
     1
102
RTVSPropertyOp27
 70
     1
102
RTVSPropertyOp28
 70
     1
102
RTVSPropertyOp29
 70
     1
102
RTVSPropertyOp30
 70
     1
102
RTVSPropertyOp31
 70
     1
102
RTVSPropertyOp32
 70
     1
102
RTVSPropertyOp33
 70
     1
102
RTVSPropertyOp34
 70
     1
102
RTVSPropertyOp35
 70
     1
102
RTVSPropertyOp36
 70
     1
102
RTVSPropertyOp37
 70
     1
102
RTVSPropertyOp38
 70
     1
102
RTVSPropertyOp39
 70
     1
102
RTVSPropertyOp40
 70
     1
102
RTVSPropertyOp41
 70
     1
102
RTVSPropertyOp42
 70
     1
102
RTVSPropertyOp43
 70
     1
102
RTVSPropertyOp44
 70
     1
102
RTVSPropertyOp45
 70
     1
102
RTVSPropertyOp46
 70
     1
102
RTVSPropertyOp47
 70
     1
102
RTVSPropertyOp48
 70
     1
102
RTVSPropertyOp49
 70
     1
102
RTVSPropertyOp50
 70
     1
102
RTVSPropertyOp51
 70
     0
102
RTVSPropertyOp52
 70
     0
102
RTVSPropertyOp53
 70
     1
102
RTVSPropertyOp54
 70
     1
102
RTVSPropertyOp55
 70
     1
102
RTVSPropertyOp56
 70
     1
102
RTVSPropertyOp57
 70
     1
102
RTVSPropertyOp58
 70
     1
102
RTVSPropertyOp59
 70
     1
102
RTVSPropertyOp60
 70
     1
102
RTVSPropertyOp61
 70
     1
102
RTVSPropertyOp62
 70
     1
  0
XRECORD
  5
ABB2
102
{ACAD_REACTORS
330
ABB1
102
}
330
ABB1
100
AcDbXrecord
280
     1
102
RTVSPost2010Prop28
280
     0
102
RTVSPost2010PropOp28
 70
     1
102
RTVSPost2010Prop29
280
     1
102
RTVSPost2010PropOp29
 70
     1
102
RTVSPost2010Prop30
280
     1
102
RTVSPost2010PropOp30
 70
     1
102
RTVSPost2010Prop31
280
     0
102
RTVSPost2010PropOp31
 70
     1
102
RTVSPost2010Prop32
280
     0
102
RTVSPost2010PropOp32
 70
     1
102
RTVSPost2010Prop33
280
     0
102
RTVSPost2010PropOp33
 70
     1
102
RTVSPost2010Prop34
280
     0
102
RTVSPost2010PropOp34
 70
     1
102
RTVSPost2010Prop35
280
     0
102
RTVSPost2010PropOp35
 70
     1
102
RTVSPost2010Prop36
280
     0
102
RTVSPost2010PropOp36
 70
     1
102
RTVSPost2010Prop37
 90
       50
102
RTVSPost2010PropOp37
 70
     1
102
RTVSPost2010Prop38
140
0.0
102
RTVSPost2010PropOp38
 70
     1
102
RTVSPost2010Prop39
140
1.0
102
RTVSPost2010PropOp39
 70
     1
102
RTVSPost2010Prop40
 90
        0
102
RTVSPost2010PropOp40
 70
     1
102
RTVSPost2010Prop41ColorIndex
 90
       18
102
RTVSPost2010Prop41ColorRGB
 90
        0
102
RTVSPost2010PropOp41
 70
     1
102
RTVSPost2010Prop42
 90
       50
102
RTVSPost2010PropOp42
 70
     1
102
RTVSPost2010Prop43
 90
        3
102
RTVSPost2010PropOp43
 70
     1
102
RTVSPost2010Prop44ColorIndex
 90
        5
102
RTVSPost2010Prop44ColorRGB
 90
      255
102
RTVSPost2010PropOp44
 70
     1
102
RTVSPost2010Prop45
280
     0
102
RTVSPost2010PropOp45
 70
     1
102
RTVSPost2010Prop46
 90
       50
102
RTVSPost2010PropOp46
 70
     1
102
RTVSPost2010Prop47
 90
       50
102
RTVSPost2010PropOp47
 70
     1
102
RTVSPost2010Prop48
 90
       50
102
RTVSPost2010PropOp48
 70
     1
102
RTVSPost2010Prop49
280
     0
102
RTVSPost2010PropOp49
 70
     1
102
RTVSPost2010Prop50
 90
       50
102
RTVSPost2010PropOp50
 70
     1
102
RTVSPost2010Prop51ColorIndex
 90
      256
102
RTVSPost2010Prop51ColorRGB
 90
-16777216
102
RTVSPost2010PropOp51
 70
     0
102
RTVSPost2010Prop52
140
1.0
102
RTVSPost2010PropOp52
 70
     0
102
RTVSPost2010Prop53
 90
        2
102
RTVSPost2010PropOp53
 70
     1
102
RTVSPost2010Prop54
  1
strokes_ogs.tif
102
RTVSPost2010PropOp54
 70
     1
102
RTVSPost2010Prop55
280
     0
102
RTVSPost2010PropOp55
 70
     1
102
RTVSPost2010Prop56
140
1.0
102
RTVSPost2010PropOp56
 70
     1
102
RTVSPost2010Prop57
140
1.0
102
RTVSPost2010PropOp57
 70
     1
102
RTVSPropertyOp0
 70
     1
102
RTVSPropertyOp1
 70
     1
102
RTVSPropertyOp2
 70
     1
102
RTVSPropertyOp3
 70
     1
102
RTVSPropertyOp4
 70
     1
102
RTVSPropertyOp5
 70
     1
102
RTVSPropertyOp6
 70
     1
102
RTVSPropertyOp7
 70
     1
102
RTVSPropertyOp8
 70
     1
102
RTVSPropertyOp9
 70
     1
102
RTVSPropertyOp10
 70
     1
102
RTVSPropertyOp11
 70
     1
102
RTVSPropertyOp12
 70
     1
102
RTVSPropertyOp13
 70
     1
102
RTVSPropertyOp14
 70
     1
102
RTVSPropertyOp15
 70
     1
102
RTVSPropertyOp16
 70
     1
102
RTVSPropertyOp17
 70
     1
102
RTVSPropertyOp18
 70
     1
102
RTVSPropertyOp19
 70
     1
102
RTVSPropertyOp20
 70
     1
102
RTVSPropertyOp21
 70
     1
102
RTVSPropertyOp22
 70
     1
102
RTVSPropertyOp23
 70
     1
102
RTVSPropertyOp24
 70
     1
102
RTVSPropertyOp25
 70
     1
102
RTVSPropertyOp26
 70
     1
102
RTVSPropertyOp27
 70
     1
102
RTVSPropertyOp28
 70
     1
102
RTVSPropertyOp29
 70
     1
102
RTVSPropertyOp30
 70
     1
102
RTVSPropertyOp31
 70
     1
102
RTVSPropertyOp32
 70
     1
102
RTVSPropertyOp33
 70
     1
102
RTVSPropertyOp34
 70
     1
102
RTVSPropertyOp35
 70
     1
102
RTVSPropertyOp36
 70
     1
102
RTVSPropertyOp37
 70
     1
102
RTVSPropertyOp38
 70
     1
102
RTVSPropertyOp39
 70
     1
102
RTVSPropertyOp40
 70
     1
102
RTVSPropertyOp41
 70
     1
102
RTVSPropertyOp42
 70
     1
102
RTVSPropertyOp43
 70
     1
102
RTVSPropertyOp44
 70
     1
102
RTVSPropertyOp45
 70
     1
102
RTVSPropertyOp46
 70
     1
102
RTVSPropertyOp47
 70
     1
102
RTVSPropertyOp48
 70
     1
102
RTVSPropertyOp49
 70
     1
102
RTVSPropertyOp50
 70
     1
102
RTVSPropertyOp51
 70
     0
102
RTVSPropertyOp52
 70
     0
102
RTVSPropertyOp53
 70
     1
102
RTVSPropertyOp54
 70
     1
102
RTVSPropertyOp55
 70
     1
102
RTVSPropertyOp56
 70
     1
102
RTVSPropertyOp57
 70
     1
102
RTVSPropertyOp58
 70
     1
102
RTVSPropertyOp59
 70
     1
102
RTVSPropertyOp60
 70
     1
102
RTVSPropertyOp61
 70
     1
102
RTVSPropertyOp62
 70
     1
  0
XRECORD
  5
ABCA
102
{ACAD_REACTORS
330
ABC9
102
}
330
ABC9
100
AcDbXrecord
280
     1
102
RTVSPost2010Prop28
280
     0
102
RTVSPost2010PropOp28
 70
     1
102
RTVSPost2010Prop29
280
     1
102
RTVSPost2010PropOp29
 70
     1
102
RTVSPost2010Prop30
280
     1
102
RTVSPost2010PropOp30
 70
     1
102
RTVSPost2010Prop31
280
     0
102
RTVSPost2010PropOp31
 70
     1
102
RTVSPost2010Prop32
280
     0
102
RTVSPost2010PropOp32
 70
     1
102
RTVSPost2010Prop33
280
     0
102
RTVSPost2010PropOp33
 70
     1
102
RTVSPost2010Prop34
280
     0
102
RTVSPost2010PropOp34
 70
     1
102
RTVSPost2010Prop35
280
     0
102
RTVSPost2010PropOp35
 70
     1
102
RTVSPost2010Prop36
280
     0
102
RTVSPost2010PropOp36
 70
     1
102
RTVSPost2010Prop37
 90
       50
102
RTVSPost2010PropOp37
 70
     1
102
RTVSPost2010Prop38
140
0.0
102
RTVSPost2010PropOp38
 70
     1
102
RTVSPost2010Prop39
140
1.0
102
RTVSPost2010PropOp39
 70
     1
102
RTVSPost2010Prop40
 90
        0
102
RTVSPost2010PropOp40
 70
     1
102
RTVSPost2010Prop41ColorIndex
 90
       18
102
RTVSPost2010Prop41ColorRGB
 90
        0
102
RTVSPost2010PropOp41
 70
     1
102
RTVSPost2010Prop42
 90
       50
102
RTVSPost2010PropOp42
 70
     1
102
RTVSPost2010Prop43
 90
        3
102
RTVSPost2010PropOp43
 70
     1
102
RTVSPost2010Prop44ColorIndex
 90
        5
102
RTVSPost2010Prop44ColorRGB
 90
      255
102
RTVSPost2010PropOp44
 70
     1
102
RTVSPost2010Prop45
280
     0
102
RTVSPost2010PropOp45
 70
     1
102
RTVSPost2010Prop46
 90
       50
102
RTVSPost2010PropOp46
 70
     1
102
RTVSPost2010Prop47
 90
       50
102
RTVSPost2010PropOp47
 70
     1
102
RTVSPost2010Prop48
 90
       50
102
RTVSPost2010PropOp48
 70
     1
102
RTVSPost2010Prop49
280
     0
102
RTVSPost2010PropOp49
 70
     1
102
RTVSPost2010Prop50
 90
       50
102
RTVSPost2010PropOp50
 70
     1
102
RTVSPost2010Prop51ColorIndex
 90
      256
102
RTVSPost2010Prop51ColorRGB
 90
-16777216
102
RTVSPost2010PropOp51
 70
     0
102
RTVSPost2010Prop52
140
1.0
102
RTVSPost2010PropOp52
 70
     0
102
RTVSPost2010Prop53
 90
        2
102
RTVSPost2010PropOp53
 70
     1
102
RTVSPost2010Prop54
  1
strokes_ogs.tif
102
RTVSPost2010PropOp54
 70
     1
102
RTVSPost2010Prop55
280
     0
102
RTVSPost2010PropOp55
 70
     1
102
RTVSPost2010Prop56
140
1.0
102
RTVSPost2010PropOp56
 70
     1
102
RTVSPost2010Prop57
140
1.0
102
RTVSPost2010PropOp57
 70
     1
102
RTVSPropertyOp0
 70
     1
102
RTVSPropertyOp1
 70
     1
102
RTVSPropertyOp2
 70
     1
102
RTVSPropertyOp3
 70
     1
102
RTVSPropertyOp4
 70
     1
102
RTVSPropertyOp5
 70
     1
102
RTVSPropertyOp6
 70
     1
102
RTVSPropertyOp7
 70
     1
102
RTVSPropertyOp8
 70
     1
102
RTVSPropertyOp9
 70
     1
102
RTVSPropertyOp10
 70
     1
102
RTVSPropertyOp11
 70
     1
102
RTVSPropertyOp12
 70
     1
102
RTVSPropertyOp13
 70
     1
102
RTVSPropertyOp14
 70
     1
102
RTVSPropertyOp15
 70
     1
102
RTVSPropertyOp16
 70
     1
102
RTVSPropertyOp17
 70
     1
102
RTVSPropertyOp18
 70
     1
102
RTVSPropertyOp19
 70
     1
102
RTVSPropertyOp20
 70
     1
102
RTVSPropertyOp21
 70
     1
102
RTVSPropertyOp22
 70
     1
102
RTVSPropertyOp23
 70
     1
102
RTVSPropertyOp24
 70
     1
102
RTVSPropertyOp25
 70
     1
102
RTVSPropertyOp26
 70
     1
102
RTVSPropertyOp27
 70
     1
102
RTVSPropertyOp28
 70
     1
102
RTVSPropertyOp29
 70
     1
102
RTVSPropertyOp30
 70
     1
102
RTVSPropertyOp31
 70
     1
102
RTVSPropertyOp32
 70
     1
102
RTVSPropertyOp33
 70
     1
102
RTVSPropertyOp34
 70
     1
102
RTVSPropertyOp35
 70
     1
102
RTVSPropertyOp36
 70
     1
102
RTVSPropertyOp37
 70
     1
102
RTVSPropertyOp38
 70
     1
102
RTVSPropertyOp39
 70
     1
102
RTVSPropertyOp40
 70
     1
102
RTVSPropertyOp41
 70
     1
102
RTVSPropertyOp42
 70
     1
102
RTVSPropertyOp43
 70
     1
102
RTVSPropertyOp44
 70
     1
102
RTVSPropertyOp45
 70
     1
102
RTVSPropertyOp46
 70
     1
102
RTVSPropertyOp47
 70
     1
102
RTVSPropertyOp48
 70
     1
102
RTVSPropertyOp49
 70
     1
102
RTVSPropertyOp50
 70
     1
102
RTVSPropertyOp51
 70
     0
102
RTVSPropertyOp52
 70
     0
102
RTVSPropertyOp53
 70
     1
102
RTVSPropertyOp54
 70
     1
102
RTVSPropertyOp55
 70
     1
102
RTVSPropertyOp56
 70
     1
102
RTVSPropertyOp57
 70
     1
102
RTVSPropertyOp58
 70
     1
102
RTVSPropertyOp59
 70
     1
102
RTVSPropertyOp60
 70
     1
102
RTVSPropertyOp61
 70
     1
102
RTVSPropertyOp62
 70
     1
  0
ENDSEC
  0
EOF
