  0
SECTION
  2
HEADER
  9
$ACADVER
  1
AC1015
  9
$ACADMAINTVER
 70
    20
  9
$DWGCODEPAGE
  3
ANSI_932
  9
$INSBASE
 10
0.0
 20
0.0
 30
0.0
  9
$EXTMIN
 10
10.0
 20
9.999999999999998
 30
0.0
  9
$EXTMAX
 10
481.264008
 20
382.909486
 30
0.0
  9
$LIMMIN
 10
0.0
 20
0.0
  9
$LIMMAX
 10
594.9999999638297
 20
410.1893938350131
  9
$ORTHOMODE
 70
     1
  9
$REGENMODE
 70
     1
  9
$FILLMODE
 70
     1
  9
$QTEXTMODE
 70
     0
  9
$MIRRTEXT
 70
     1
  9
$LTSCALE
 40
20.0
  9
$ATTMODE
 70
     1
  9
$TEXTSIZE
 40
5.0
  9
$TRACEWID
 40
1.0
  9
$TEXTSTYLE
  7
STANDARD
  9
$CLAYER
  8
0
  9
$CELTYPE
  6
BYLAYER
  9
$CECOLOR
 62
   256
  9
$CELTSCALE
 40
1.0
  9
$DISPSILH
 70
     0
  9
$DIMSCALE
 40
1.0
  9
$DIMASZ
 40
2.5
  9
$DIMEXO
 40
1.0
  9
$DIMDLI
 40
10.0
  9
$DIMRND
 40
0.0
  9
$DIMDLE
 40
0.0
  9
$DIMEXE
 40
1.0
  9
$DIMTP
 40
0.0
  9
$DIMTM
 40
0.0
  9
$DIMTXT
 40
3.2
  9
$DIMCEN
 40
0.0
  9
$DIMTSZ
 40
0.0
  9
$DIMTOL
 70
     0
  9
$DIMLIM
 70
     0
  9
$DIMTIH
 70
     0
  9
$DIMTOH
 70
     0
  9
$DIMSE1
 70
     0
  9
$DIMSE2
 70
     0
  9
$DIMTAD
 70
     3
  9
$DIMZIN
 70
     8
  9
$DIMBLK
  1

  9
$DIMASO
 70
     1
  9
$DIMSHO
 70
     1
  9
$DIMPOST
  1

  9
$DIMAPOST
  1

  9
$DIMALT
 70
     0
  9
$DIMALTD
 70
     2
  9
$DIMALTF
 40
25.4
  9
$DIMLFAC
 40
1.0
  9
$DIMTOFL
 70
     1
  9
$DIMTVP
 40
0.0
  9
$DIMTIX
 70
     0
  9
$DIMSOXD
 70
     0
  9
$DIMSAH
 70
     1
  9
$DIMBLK1
  1

  9
$DIMBLK2
  1

  9
$DIMSTYLE
  2
STANDARD
  9
$DIMCLRD
 70
     0
  9
$DIMCLRE
 70
     0
  9
$DIMCLRT
 70
     0
  9
$DIMTFAC
 40
1.0
  9
$DIMGAP
 40
1.0
  9
$DIMJUST
 70
     0
  9
$DIMSD1
 70
     0
  9
$DIMSD2
 70
     0
  9
$DIMTOLJ
 70
     1
  9
$DIMTZIN
 70
     0
  9
$DIMALTZ
 70
     0
  9
$DIMALTTZ
 70
     0
  9
$DIMUPT
 70
     0
  9
$DIMDEC
 70
     4
  9
$DIMTDEC
 70
     4
  9
$DIMALTU
 70
     2
  9
$DIMALTTD
 70
     2
  9
$DIMTXSTY
  7
STANDARD
  9
$DIMAUNIT
 70
     0
  9
$DIMADEC
 70
     0
  9
$DIMALTRND
 40
0.0
  9
$DIMAZIN
 70
     0
  9
$DIMDSEP
 70
    46
  9
$DIMATFIT
 70
     3
  9
$DIMFRAC
 70
     0
  9
$DIMLDRBLK
  1

  9
$DIMLUNIT
 70
     2
  9
$DIMLWD
 70
    -2
  9
$DIMLWE
 70
    -2
  9
$DIMTMOVE
 70
     0
  9
$LUNITS
 70
     2
  9
$LUPREC
 70
     4
  9
$SKETCHINC
 40
1.0
  9
$FILLETRAD
 40
0.0
  9
$AUNITS
 70
     0
  9
$AUPREC
 70
     2
  9
$MENU
  1
.
  9
$ELEVATION
 40
0.0
  9
$PELEVATION
 40
0.0
  9
$THICKNESS
 40
0.0
  9
$LIMCHECK
 70
     0
  9
$CHAMFERA
 40
10.0
  9
$CHAMFERB
 40
10.0
  9
$CHAMFERC
 40
0.0
  9
$CHAMFERD
 40
0.0
  9
$SKPOLY
 70
     0
  9
$TDCREATE
 40
2451301.455463658
  9
$TDUCREATE
 40
2451301.080463657
  9
$TDUPDATE
 40
2457192.690205047
  9
$TDUUPDATE
 40
2457192.315205046
  9
$TDINDWG
 40
0.1131442014
  9
$TDUSRTIMER
 40
0.1131439005
  9
$USRTIMER
 70
     1
  9
$ANGBASE
 50
0.0
  9
$ANGDIR
 70
     0
  9
$PDMODE
 70
     0
  9
$PDSIZE
 40
0.0
  9
$PLINEWID
 40
0.0
  9
$SPLFRAME
 70
     0
  9
$SPLINETYPE
 70
     6
  9
$SPLINESEGS
 70
     8
  9
$HANDSEED
  5
9E93
  9
$SURFTAB1
 70
     6
  9
$SURFTAB2
 70
     6
  9
$SURFTYPE
 70
     6
  9
$SURFU
 70
     6
  9
$SURFV
 70
     6
  9
$UCSBASE
  2

  9
$UCSNAME
  2

  9
$UCSORG
 10
0.0
 20
0.0
 30
0.0
  9
$UCSXDIR
 10
1.0
 20
0.0
 30
0.0
  9
$UCSYDIR
 10
0.0
 20
1.0
 30
0.0
  9
$UCSORTHOREF
  2

  9
$UCSORTHOVIEW
 70
     0
  9
$UCSORGTOP
 10
0.0
 20
0.0
 30
0.0
  9
$UCSORGBOTTOM
 10
0.0
 20
0.0
 30
0.0
  9
$UCSORGLEFT
 10
0.0
 20
0.0
 30
0.0
  9
$UCSORGRIGHT
 10
0.0
 20
0.0
 30
0.0
  9
$UCSORGFRONT
 10
0.0
 20
0.0
 30
0.0
  9
$UCSORGBACK
 10
0.0
 20
0.0
 30
0.0
  9
$PUCSBASE
  2

  9
$PUCSNAME
  2

  9
$PUCSORG
 10
0.0
 20
0.0
 30
0.0
  9
$PUCSXDIR
 10
1.0
 20
0.0
 30
0.0
  9
$PUCSYDIR
 10
0.0
 20
1.0
 30
0.0
  9
$PUCSORTHOREF
  2

  9
$PUCSORTHOVIEW
 70
     0
  9
$PUCSORGTOP
 10
0.0
 20
0.0
 30
0.0
  9
$PUCSORGBOTTOM
 10
0.0
 20
0.0
 30
0.0
  9
$PUCSORGLEFT
 10
0.0
 20
0.0
 30
0.0
  9
$PUCSORGRIGHT
 10
0.0
 20
0.0
 30
0.0
  9
$PUCSORGFRONT
 10
0.0
 20
0.0
 30
0.0
  9
$PUCSORGBACK
 10
0.0
 20
0.0
 30
0.0
  9
$USERI1
 70
     0
  9
$USERI2
 70
     0
  9
$USERI3
 70
     0
  9
$USERI4
 70
     0
  9
$USERI5
 70
     0
  9
$USERR1
 40
0.0
  9
$USERR2
 40
0.0
  9
$USERR3
 40
0.0
  9
$USERR4
 40
0.0
  9
$USERR5
 40
0.0
  9
$WORLDVIEW
 70
     1
  9
$SHADEDGE
 70
     3
  9
$SHADEDIF
 70
    70
  9
$TILEMODE
 70
     1
  9
$MAXACTVP
 70
    16
  9
$PINSBASE
 10
0.0
 20
0.0
 30
0.0
  9
$PLIMCHECK
 70
     0
  9
$PEXTMIN
 10
1.000000000000000E+20
 20
1.000000000000000E+20
 30
1.000000000000000E+20
  9
$PEXTMAX
 10
-1.000000000000000E+20
 20
-1.000000000000000E+20
 30
-1.000000000000000E+20
  9
$PLIMMIN
 10
0.0
 20
0.0
  9
$PLIMMAX
 10
420.0
 20
297.0
  9
$UNITMODE
 70
     0
  9
$VISRETAIN
 70
     0
  9
$PLINEGEN
 70
     0
  9
$PSLTSCALE
 70
     0
  9
$TREEDEPTH
 70
  3020
  9
$CMLSTYLE
  2
STANDARD
  9
$CMLJUST
 70
     0
  9
$CMLSCALE
 40
1.0
  9
$PROXYGRAPHICS
 70
     1
  9
$MEASUREMENT
 70
     0
  9
$CELWEIGHT
370
    -1
  9
$ENDCAPS
280
     0
  9
$JOINSTYLE
280
     0
  9
$LWDISPLAY
290
     0
  9
$INSUNITS
 70
     0
  9
$HYPERLINKBASE
  1

  9
$STYLESHEET
  1

  9
$XEDIT
290
     1
  9
$CEPSNTYPE
380
     0
  9
$PSTYLEMODE
290
     1
  9
$FINGERPRINTGUID
  2
{3939314D-9AD4-47B7-8546-4004FB196F55}
  9
$VERSIONGUID
  2
{BBCDBEDF-EFB8-4045-837A-AD6F9BEB0581}
  9
$EXTNAMES
290
     1
  9
$PSVPSCALE
 40
0.0
  9
$OLESTARTUP
290
     0
  0
ENDSEC
  0
SECTION
  2
CLASSES
  0
CLASS
  1
ACDBDICTIONARYWDFLT
  2
AcDbDictionaryWithDefault
  3
ObjectDBX Classes
 90
        0
280
     0
281
     0
  0
CLASS
  1
ACDBPLACEHOLDER
  2
AcDbPlaceHolder
  3
ObjectDBX Classes
 90
        0
280
     0
281
     0
  0
CLASS
  1
LAYOUT
  2
AcDbLayout
  3
ObjectDBX Classes
 90
        0
280
     0
281
     0
  0
CLASS
  1
DICTIONARYVAR
  2
AcDbDictionaryVar
  3
ObjectDBX Classes
 90
        0
280
     0
281
     0
  0
CLASS
  1
MATERIAL
  2
AcDbMaterial
  3
ObjectDBX Classes
 90
     1153
280
     0
281
     0
  0
CLASS
  1
VISUALSTYLE
  2
AcDbVisualStyle
  3
ObjectDBX Classes
 90
     4095
280
     0
281
     0
  0
CLASS
  1
TABLESTYLE
  2
AcDbTableStyle
  3
ObjectDBX Classes
 90
     4095
280
     0
281
     0
  0
CLASS
  1
SCALE
  2
AcDbScale
  3
ObjectDBX Classes
 90
     1153
280
     0
281
     0
  0
CLASS
  1
MLEADERSTYLE
  2
AcDbMLeaderStyle
  3
ACDB_MLEADERSTYLE_CLASS
 90
     4095
280
     0
281
     0
  0
CLASS
  1
ACDBSECTIONVIEWSTYLE
  2
AcDbSectionViewStyle
  3
ObjectDBX Classes
 90
     1025
280
     0
281
     0
  0
CLASS
  1
ACDBDETAILVIEWSTYLE
  2
AcDbDetailViewStyle
  3
ObjectDBX Classes
 90
     1025
280
     0
281
     0
  0
CLASS
  1
CELLSTYLEMAP
  2
AcDbCellStyleMap
  3
ObjectDBX Classes
 90
     1152
280
     0
281
     0
  0
ENDSEC
  0
SECTION
  2
TABLES
  0
TABLE
  2
VPORT
  5
9915
330
0
100
AcDbSymbolTable
 70
     1
  0
VPORT
  5
9DDE
330
9915
100
AcDbSymbolTableRecord
100
AcDbViewportTableRecord
  2
*ACTIVE
 70
     0
 10
0.0
 20
0.0
 11
1.0
 21
1.0
 12
389.1813888824048
 22
196.4416394369287
 13
0.0
 23
0.0
 14
10.0
 24
10.0
 15
10.0
 25
10.0
 16
0.0
 26
0.0
 36
1.0
 17
0.0
 27
0.0
 37
0.0
 40
375.8864037779602
 41
2.35006605019815
 42
50.0
 43
0.0
 44
0.0
 50
0.0
 51
0.0
 71
     0
 72
   100
 73
     1
 74
     0
 75
     0
 76
     0
 77
     0
 78
     0
281
     0
 65
     1
110
0.0
120
0.0
130
0.0
111
1.0
121
0.0
131
0.0
112
0.0
122
1.0
132
0.0
 79
     0
146
0.0
1001
ACAD_NAV_VCDISPLAY
1070
     3
  0
ENDTAB
  0
TABLE
  2
LTYPE
  5
9912
330
0
100
AcDbSymbolTable
 70
     4
  0
LTYPE
  5
9920
330
9912
100
AcDbSymbolTableRecord
100
AcDbLinetypeTableRecord
  2
BYBLOCK
 70
     0
  3

 72
    65
 73
     0
 40
0.0
  0
LTYPE
  5
9921
330
9912
100
AcDbSymbolTableRecord
100
AcDbLinetypeTableRecord
  2
BYLAYER
 70
     0
  3

 72
    65
 73
     0
 40
0.0
  0
LTYPE
  5
9922
330
9912
100
AcDbSymbolTableRecord
100
AcDbLinetypeTableRecord
  2
CONTINUOUS
 70
     0
  3
Solid line
 72
    65
 73
     0
 40
0.0
  0
LTYPE
  5
9930
330
9912
100
AcDbSymbolTableRecord
100
AcDbLinetypeTableRecord
  2
DASHED
 70
     0
  3
__ __ __ __ __ __ __ __ __ __ __ __ __ __ __ __
 72
    65
 73
     2
 40
0.75
 49
0.5
 74
     0
 49
-0.25
 74
     0
  0
LTYPE
  5
9931
330
9912
100
AcDbSymbolTableRecord
100
AcDbLinetypeTableRecord
  2
CENTER
 70
     0
  3
____ _ ____ _ ____ _ ____ _ ____ _ ____ _ ____ 
 72
    65
 73
     4
 40
2.0
 49
1.25
 74
     0
 49
-0.25
 74
     0
 49
0.25
 74
     0
 49
-0.25
 74
     0
  0
LTYPE
  5
9932
330
9912
100
AcDbSymbolTableRecord
100
AcDbLinetypeTableRecord
  2
PHANTOM
 70
     0
  3
______  __  __  ______  __  __  ______  __  __ 
 72
    65
 73
     6
 40
2.5
 49
1.25
 74
     0
 49
-0.25
 74
     0
 49
0.25
 74
     0
 49
-0.25
 74
     0
 49
0.25
 74
     0
 49
-0.25
 74
     0
  0
ENDTAB
  0
TABLE
  2
LAYER
  5
990F
330
0
100
AcDbSymbolTable
 70
     8
  0
LAYER
  5
991D
102
{ACAD_XDICTIONARY
360
9E37
102
}
330
990F
100
AcDbSymbolTableRecord
100
AcDbLayerTableRecord
  2
0
 70
     0
 62
     7
  6
CONTINUOUS
370
    -3
390
9DE5
  0
LAYER
  5
9933
102
{ACAD_XDICTIONARY
360
9E39
102
}
330
990F
100
AcDbSymbolTableRecord
100
AcDbLayerTableRecord
  2
4
 70
     0
 62
     1
  6
CENTER
370
    -3
390
9DE5
  0
LAYER
  5
9934
102
{ACAD_XDICTIONARY
360
9E3B
102
}
330
990F
100
AcDbSymbolTableRecord
100
AcDbLayerTableRecord
  2
5
 70
     0
 62
     6
  6
PHANTOM
370
    -3
390
9DE5
  0
LAYER
  5
9935
102
{ACAD_XDICTIONARY
360
9E3D
102
}
330
990F
100
AcDbSymbolTableRecord
100
AcDbLayerTableRecord
  2
1
 70
     0
 62
     7
  6
CONTINUOUS
370
    -3
390
9DE5
  0
LAYER
  5
9936
102
{ACAD_XDICTIONARY
360
9E3F
102
}
330
990F
100
AcDbSymbolTableRecord
100
AcDbLayerTableRecord
  2
2
 70
     0
 62
     4
  6
CONTINUOUS
370
    -3
390
9DE5
  0
LAYER
  5
9937
102
{ACAD_XDICTIONARY
360
9E41
102
}
330
990F
100
AcDbSymbolTableRecord
100
AcDbLayerTableRecord
  2
3
 70
     0
 62
     2
  6
DASHED
370
    -3
390
9DE5
  0
LAYER
  5
9938
102
{ACAD_XDICTIONARY
360
9E43
102
}
330
990F
100
AcDbSymbolTableRecord
100
AcDbLayerTableRecord
  2
6
 70
     0
 62
     5
  6
CONTINUOUS
370
    -3
390
9DE5
  0
LAYER
  5
9939
102
{ACAD_XDICTIONARY
360
9E45
102
}
330
990F
100
AcDbSymbolTableRecord
100
AcDbLayerTableRecord
  2
7
 70
     0
 62
     3
  6
CONTINUOUS
370
    -3
390
9DE5
  0
ENDTAB
  0
TABLE
  2
STYLE
  5
9910
330
0
100
AcDbSymbolTable
 70
     1
  0
STYLE
  5
991E
330
9910
100
AcDbSymbolTableRecord
100
AcDbTextStyleTableRecord
  2
STANDARD
 70
     0
 40
0.0
 41
1.0
 50
0.0
 71
     0
 42
5.0
  3
txt
  4

  0
ENDTAB
  0
TABLE
  2
VIEW
  5
9913
330
0
100
AcDbSymbolTable
 70
     0
  0
ENDTAB
  0
TABLE
  2
UCS
  5
9914
330
0
100
AcDbSymbolTable
 70
     0
  0
ENDTAB
  0
TABLE
  2
APPID
  5
9916
330
0
100
AcDbSymbolTable
 70
     3
  0
APPID
  5
991F
330
9916
100
AcDbSymbolTableRecord
100
AcDbRegAppTableRecord
  2
ACAD
 70
     0
  0
APPID
  5
9E51
330
9916
100
AcDbSymbolTableRecord
100
AcDbRegAppTableRecord
  2
ACAD_NAV_VCDISPLAY
 70
     0
  0
APPID
  5
9E8A
330
9916
100
AcDbSymbolTableRecord
100
AcDbRegAppTableRecord
  2
ACAD_MLEADERVER
 70
     0
  0
ENDTAB
  0
TABLE
  2
DIMSTYLE
  5
9917
330
0
100
AcDbSymbolTable
 70
     1
100
AcDbDimStyleTable
 71
     0
  0
DIMSTYLE
105
993B
330
9917
100
AcDbSymbolTableRecord
100
AcDbDimStyleTableRecord
  2
STANDARD
 70
     0
 41
2.5
 42
1.0
 43
10.0
 44
1.0
 73
     0
 74
     0
 77
     3
 78
     8
140
3.2
141
0.0
147
1.0
172
     1
173
     1
284
     8
285
     8
286
     8
340
991E
  0
ENDTAB
  0
TABLE
  2
BLOCK_RECORD
  5
990E
330
0
100
AcDbSymbolTable
 70
     0
  0
BLOCK_RECORD
  5
992B
102
{ACAD_XDICTIONARY
360
9B32
102
}
330
990E
100
AcDbSymbolTableRecord
100
AcDbBlockTableRecord
  2
*MODEL_SPACE
340
9E33
  0
BLOCK_RECORD
  5
9927
102
{ACAD_XDICTIONARY
360
9B30
102
}
330
990E
100
AcDbSymbolTableRecord
100
AcDbBlockTableRecord
  2
*PAPER_SPACE
340
9E34
  0
ENDTAB
  0
ENDSEC
  0
SECTION
  2
BLOCKS
  0
BLOCK
  5
992C
330
992B
100
AcDbEntity
  8
0
100
AcDbBlockBegin
  2
*MODEL_SPACE
 70
     0
 10
0.0
 20
0.0
 30
0.0
  3
*MODEL_SPACE
  1

  0
ENDBLK
  5
992D
330
992B
100
AcDbEntity
  8
0
100
AcDbBlockEnd
  0
BLOCK
  5
9928
330
9927
100
AcDbEntity
 67
     1
  8
0
100
AcDbBlockBegin
  2
*PAPER_SPACE
 70
     0
 10
0.0
 20
0.0
 30
0.0
  3
*PAPER_SPACE
  1

  0
ENDBLK
  5
9929
330
9927
100
AcDbEntity
 67
     1
  8
0
100
AcDbBlockEnd
  0
ENDSEC
  0
SECTION
  2
ENTITIES
  0
TEXT
  5
9943
330
992B
100
AcDbEntity
  8
7
  6
Continuous
100
AcDbText
 10
10.0
 20
18.0
 30
0.0
 40
3.0
  1
TYPE No.TCA-420ER-R100
100
AcDbText
  0
TEXT
  5
9944
330
992B
100
AcDbEntity
  8
7
  6
Continuous
100
AcDbText
 10
10.0
 20
26.0
 30
0.0
 40
3.0
  1
CODE No.9792
100
AcDbText
  0
TEXT
  5
9945
330
992B
100
AcDbEntity
  8
1
  6
Continuous
100
AcDbText
 10
10.0
 20
10.0
 30
0.0
 40
1.399999999999999
  1
LAYER
100
AcDbText
  0
TEXT
  5
9946
330
992B
100
AcDbEntity
  8
1
  6
Continuous
100
AcDbText
 10
17.97951099999998
 20
10.04873699999998
 30
0.0
 40
1.399999999999999
  1
1
100
AcDbText
  0
TEXT
  5
9947
330
992B
100
AcDbEntity
  8
7
  6
Continuous
100
AcDbText
 10
29.97951099999999
 20
10.04873699999998
 30
0.0
 40
1.399999999999999
  1
7
100
AcDbText
  0
TEXT
  5
9948
330
992B
100
AcDbEntity
  8
4
  6
CENTER
100
AcDbText
 10
23.97951099999999
 20
10.04873699999998
 30
0.0
 40
1.399999999999999
  1
4
100
AcDbText
  0
TEXT
  5
9949
330
992B
100
AcDbEntity
  8
3
  6
DASHED
100
AcDbText
 10
21.979511
 20
10.04873699999998
 30
0.0
 40
1.399999999999999
  1
3
100
AcDbText
  0
TEXT
  5
994A
330
992B
100
AcDbEntity
  8
2
  6
Continuous
100
AcDbText
 10
19.97951099999998
 20
10.04873699999998
 30
0.0
 40
1.399999999999999
  1
2
100
AcDbText
  0
TEXT
  5
994B
330
992B
100
AcDbEntity
  8
6
  6
Continuous
100
AcDbText
 10
27.979511
 20
10.04873699999998
 30
0.0
 40
1.399999999999999
  1
6
100
AcDbText
  0
TEXT
  5
994C
330
992B
100
AcDbEntity
  8
5
  6
PHANTOM
100
AcDbText
 10
25.97951099999999
 20
10.04873699999998
 30
0.0
 40
1.399999999999999
  1
5
100
AcDbText
  0
LINE
  5
994D
330
992B
100
AcDbEntity
  8
1
  6
Continuous
100
AcDbLine
 10
27.522709
 20
279.1094959999999
 30
0.0
 11
85.52270899999998
 21
279.1094959999999
 31
0.0
  0
LINE
  5
994E
330
992B
100
AcDbEntity
  8
1
  6
Continuous
100
AcDbLine
 10
27.522709
 20
276.3094929999999
 30
0.0
 11
85.52270899999998
 21
276.3094929999999
 31
0.0
  0
LINE
  5
994F
330
992B
100
AcDbEntity
  8
1
  6
Continuous
100
AcDbLine
 10
27.522709
 20
279.1094959999999
 30
0.0
 11
27.522709
 21
276.3094929999999
 31
0.0
  0
LINE
  5
9950
330
992B
100
AcDbEntity
  8
1
  6
Continuous
100
AcDbLine
 10
85.52270899999998
 20
279.1094959999999
 30
0.0
 11
85.52270899999998
 21
276.3094929999999
 31
0.0
  0
LINE
  5
9951
330
992B
100
AcDbEntity
  8
1
  6
Continuous
100
AcDbLine
 10
40.52270899999999
 20
276.3094929999999
 30
0.0
 11
40.52270899999999
 21
197.109496
 31
0.0
  0
LINE
  5
9952
330
992B
100
AcDbEntity
  8
1
  6
Continuous
100
AcDbLine
 10
72.52270899999998
 20
276.3094929999999
 30
0.0
 11
72.52270899999998
 21
197.109496
 31
0.0
  0
LINE
  5
9953
330
992B
100
AcDbEntity
  8
1
  6
Continuous
100
AcDbLine
 10
37.72271899999999
 20
197.109496
 30
0.0
 11
40.52270899999999
 21
197.109496
 31
0.0
  0
LINE
  5
9954
330
992B
100
AcDbEntity
  8
1
  6
Continuous
100
AcDbLine
 10
75.322704
 20
197.109496
 30
0.0
 11
72.52270899999998
 21
197.109496
 31
0.0
  0
LINE
  5
9955
330
992B
100
AcDbEntity
  8
4
  6
CENTER
 48
0.8
100
AcDbLine
 10
27.927309
 20
207.1094959999999
 30
0.0
 11
81.256161
 21
207.1094959999999
 31
0.0
  0
LINE
  5
9956
330
992B
100
AcDbEntity
  8
4
  6
CENTER
 48
0.8
100
AcDbLine
 10
56.522709
 20
284.1094959999998
 30
0.0
 11
56.522709
 21
152.109496
 31
0.0
  0
LINE
  5
9957
330
992B
100
AcDbEntity
  8
1
  6
Continuous
100
AcDbLine
 10
40.52270899999999
 20
211.1094959999999
 30
0.0
 11
41.522709
 21
211.1094959999999
 31
0.0
  0
LINE
  5
9958
330
992B
100
AcDbEntity
  8
1
  6
Continuous
100
AcDbLine
 10
40.52270899999999
 20
203.1094959999999
 30
0.0
 11
41.522709
 21
203.1094959999999
 31
0.0
  0
LINE
  5
9959
330
992B
100
AcDbEntity
  8
1
  6
Continuous
100
AcDbLine
 10
75.322704
 20
270.3172124722392
 30
0.0
 11
75.322704
 21
197.109496
 31
0.0
  0
LINE
  5
995A
330
992B
100
AcDbEntity
  8
1
  6
Continuous
100
AcDbLine
 10
37.72271899999999
 20
270.317168
 30
0.0
 11
37.72271899999999
 21
197.109496
 31
0.0
  0
LINE
  5
995B
330
992B
100
AcDbEntity
  8
4
  6
CENTER
 48
0.8
100
AcDbLine
 10
76.522711
 20
284.1094959999998
 30
0.0
 11
76.522711
 21
271.309493
 31
0.0
  0
LINE
  5
995C
330
992B
100
AcDbEntity
  8
1
  6
Continuous
100
AcDbLine
 10
129.522709
 20
279.1094959999999
 30
0.0
 11
173.5227109999999
 21
279.1094959999999
 31
0.0
  0
LINE
  5
995D
330
992B
100
AcDbEntity
  8
1
  6
Continuous
100
AcDbLine
 10
129.522709
 20
276.3094929999999
 30
0.0
 11
147.5227089999999
 21
276.3094929999999
 31
0.0
  0
LINE
  5
995E
330
992B
100
AcDbEntity
  8
1
  6
Continuous
100
AcDbLine
 10
129.522709
 20
276.3094929999999
 30
0.0
 11
129.522709
 21
279.1094959999999
 31
0.0
  0
LINE
  5
995F
330
992B
100
AcDbEntity
  8
1
  6
Continuous
100
AcDbLine
 10
229.522709
 20
276.3094929999999
 30
0.0
 11
229.522709
 21
279.1094959999999
 31
0.0
  0
LINE
  5
9960
330
992B
100
AcDbEntity
  8
4
  6
CENTER
 48
0.8
100
AcDbLine
 10
123.78141
 20
207.1094959999999
 30
0.0
 11
233.8364829999999
 21
207.1094959999999
 31
0.0
  0
LINE
  5
9961
330
992B
100
AcDbEntity
  8
4
  6
CENTER
 48
0.8
100
AcDbLine
 10
179.522709
 20
284.4094909999999
 30
0.0
 11
179.522709
 21
152.109496
 31
0.0
  0
LINE
  5
9962
330
992B
100
AcDbEntity
  8
4
  6
CENTER
 48
0.8
100
AcDbLine
 10
138.5227089999998
 20
284.1094959999998
 30
0.0
 11
138.5227089999998
 21
271.309493
 31
0.0
  0
LINE
  5
9963
330
992B
100
AcDbEntity
  8
1
  6
Continuous
100
AcDbLine
 10
211.5227089999999
 20
276.3094929999999
 30
0.0
 11
229.522709
 21
276.3094929999999
 31
0.0
  0
LINE
  5
9964
330
992B
100
AcDbEntity
  8
4
  6
CENTER
 48
0.8
100
AcDbLine
 10
220.522709
 20
284.1094959999998
 30
0.0
 11
220.522709
 21
271.309493
 31
0.0
  0
LINE
  5
9965
330
992B
100
AcDbEntity
  8
1
  6
Continuous
100
AcDbLine
 10
154.8055549999999
 20
270.815791
 30
0.0
 11
169.770849
 21
204.895614
 31
0.0
  0
LINE
  5
9966
330
992B
100
AcDbEntity
  8
1
  6
Continuous
100
AcDbLine
 10
204.2398920663074
 20
270.8158342600863
 30
0.0
 11
189.2745919999999
 21
204.89561
 31
0.0
  0
LINE
  5
9967
330
992B
100
AcDbEntity
  8
1
  6
Continuous
100
AcDbLine
 10
78.522701
 20
211.3594959999999
 30
0.0
 11
78.522701
 21
202.8594959999999
 31
0.0
  0
LINE
  5
9968
330
992B
100
AcDbEntity
  8
1
  6
Continuous
100
AcDbLine
 10
75.322704
 20
213.3594959999999
 30
0.0
 11
76.52270099999999
 21
213.3594959999999
 31
0.0
  0
LINE
  5
9969
330
992B
100
AcDbEntity
  8
1
  6
Continuous
100
AcDbLine
 10
75.322704
 20
200.8594959999999
 30
0.0
 11
76.52270099999999
 21
200.8594959999999
 31
0.0
  0
LINE
  5
996A
330
992B
100
AcDbEntity
  8
1
  6
Continuous
100
AcDbLine
 10
32.72271899999999
 20
212.2115089999998
 30
0.0
 11
32.72271899999999
 21
202.0074829999999
 31
0.0
  0
LINE
  5
996B
330
992B
100
AcDbEntity
  8
1
  6
Continuous
100
AcDbLine
 10
34.19766899999999
 20
203.859496
 30
0.0
 11
37.247779
 21
203.859496
 31
0.0
  0
LINE
  5
996C
330
992B
100
AcDbEntity
  8
1
  6
Continuous
100
AcDbLine
 10
34.171209
 20
210.359496
 30
0.0
 11
37.274239
 21
210.359496
 31
0.0
  0
LINE
  5
996D
330
992B
100
AcDbEntity
  8
1
  6
Continuous
100
AcDbLine
 10
34.120719
 20
200.6094959999999
 30
0.0
 11
37.32472899999999
 21
200.6094959999999
 31
0.0
  0
LINE
  5
996E
330
992B
100
AcDbEntity
  8
1
  6
Continuous
100
AcDbLine
 10
34.120719
 20
213.609496
 30
0.0
 11
37.32472899999999
 21
213.609496
 31
0.0
  0
LINE
  5
996F
330
992B
100
AcDbEntity
  8
1
  6
Continuous
100
AcDbLine
 10
34.120719
 20
200.6095039999999
 30
0.0
 11
32.72271899999999
 21
202.007495
 31
0.0
  0
LINE
  5
9970
330
992B
100
AcDbEntity
  8
1
  6
Continuous
100
AcDbLine
 10
32.72271899999999
 20
212.2115089999998
 30
0.0
 11
34.120699
 21
213.6094879999999
 31
0.0
  0
LINE
  5
9971
330
992B
100
AcDbEntity
  8
4
  6
CENTER
 48
0.8
100
AcDbLine
 10
126.3311429999999
 20
352.1094959999999
 30
0.0
 11
232.904942
 21
352.1094959999999
 31
0.0
  0
LINE
  5
9972
330
992B
100
AcDbEntity
  8
1
  6
Continuous
100
AcDbLine
 10
136.5227089999999
 20
381.1094959999999
 30
0.0
 11
142.9077069999999
 21
381.1094959999999
 31
0.0
  0
LINE
  5
9973
330
992B
100
AcDbEntity
  8
4
  6
CENTER
 48
0.8
100
AcDbLine
 10
179.522709
 20
382.909486
 30
0.0
 11
179.522709
 21
325.109504
 31
0.0
  0
LINE
  5
9974
330
992B
100
AcDbEntity
  8
4
  6
CENTER
 48
0.8
100
AcDbLine
 10
144.5227089999999
 20
372.1094959999998
 30
0.0
 11
132.522709
 21
372.1094959999998
 31
0.0
  0
LINE
  5
9975
330
992B
100
AcDbEntity
  8
4
  6
CENTER
 48
0.8
100
AcDbLine
 10
138.5227089999998
 20
378.1094959999999
 30
0.0
 11
138.5227089999998
 21
366.1094959999999
 31
0.0
  0
LINE
  5
9976
330
992B
100
AcDbEntity
  8
4
  6
CENTER
 48
0.8
100
AcDbLine
 10
144.5227089999999
 20
332.1094959999998
 30
0.0
 11
132.522709
 21
332.1094959999998
 31
0.0
  0
LINE
  5
9977
330
992B
100
AcDbEntity
  8
4
  6
CENTER
 48
0.8
100
AcDbLine
 10
138.5227089999998
 20
326.1094959999998
 30
0.0
 11
138.5227089999998
 21
338.1094959999998
 31
0.0
  0
LINE
  5
9978
330
992B
100
AcDbEntity
  8
4
  6
CENTER
 48
0.8
100
AcDbLine
 10
214.522709
 20
372.1094959999998
 30
0.0
 11
226.5227089999999
 21
372.1094959999998
 31
0.0
  0
LINE
  5
9979
330
992B
100
AcDbEntity
  8
4
  6
CENTER
 48
0.8
100
AcDbLine
 10
220.522709
 20
378.1094959999999
 30
0.0
 11
220.522709
 21
366.1094959999999
 31
0.0
  0
LINE
  5
997A
330
992B
100
AcDbEntity
  8
4
  6
CENTER
 48
0.8
100
AcDbLine
 10
214.522709
 20
332.1094959999998
 30
0.0
 11
226.5227089999999
 21
332.1094959999998
 31
0.0
  0
LINE
  5
997B
330
992B
100
AcDbEntity
  8
4
  6
CENTER
 48
0.8
100
AcDbLine
 10
220.522709
 20
326.1094959999998
 30
0.0
 11
220.522709
 21
338.1094959999998
 31
0.0
  0
LINE
  5
997C
330
992B
100
AcDbEntity
  8
1
  6
Continuous
100
AcDbLine
 10
129.522709
 20
374.1094959999998
 30
0.0
 11
129.522709
 21
330.1094959999998
 31
0.0
  0
LINE
  5
997D
330
992B
100
AcDbEntity
  8
1
  6
Continuous
100
AcDbLine
 10
157.8194499999999
 20
370.9094959999998
 30
0.0
 11
201.2259709999999
 21
370.9094959999998
 31
0.0
  0
LINE
  5
997E
330
992B
100
AcDbEntity
  8
1
  6
Continuous
100
AcDbLine
 10
136.5227089999999
 20
323.109496
 30
0.0
 11
142.9077069999999
 21
323.109496
 31
0.0
  0
LINE
  5
997F
330
992B
100
AcDbEntity
  8
1
  6
Continuous
100
AcDbLine
 10
157.8194499999999
 20
333.3095009999999
 30
0.0
 11
201.2259709999999
 21
333.3095009999999
 31
0.0
  0
LINE
  5
9980
330
992B
100
AcDbEntity
  8
1
  6
Continuous
100
AcDbLine
 10
222.522709
 20
381.1094959999999
 30
0.0
 11
216.1377139999999
 21
381.1094959999999
 31
0.0
  0
LINE
  5
9981
330
992B
100
AcDbEntity
  8
1
  6
Continuous
100
AcDbLine
 10
229.522709
 20
374.1094959999998
 30
0.0
 11
229.522709
 21
330.1094959999998
 31
0.0
  0
LINE
  5
9982
330
992B
100
AcDbEntity
  8
1
  6
Continuous
100
AcDbLine
 10
222.522709
 20
323.109496
 30
0.0
 11
216.1377139999999
 21
323.109496
 31
0.0
  0
LINE
  5
9983
330
992B
100
AcDbEntity
  8
1
  6
Continuous
100
AcDbLine
 10
174.522709
 20
334.8094929999998
 30
0.0
 11
174.522709
 21
369.409496
 31
0.0
  0
LINE
  5
9984
330
992B
100
AcDbEntity
  8
1
  6
Continuous
100
AcDbLine
 10
174.522709
 20
335.809493
 30
0.0
 11
184.5227069999999
 21
335.809493
 31
0.0
  0
LINE
  5
9985
330
992B
100
AcDbEntity
  8
1
  6
Continuous
100
AcDbLine
 10
174.522709
 20
334.8094929999998
 30
0.0
 11
184.5227069999999
 21
334.8094929999998
 31
0.0
  0
LINE
  5
9986
330
992B
100
AcDbEntity
  8
1
  6
Continuous
100
AcDbLine
 10
174.522709
 20
334.8094929999998
 30
0.0
 11
174.522709
 21
335.809493
 31
0.0
  0
LINE
  5
9987
330
992B
100
AcDbEntity
  8
1
  6
Continuous
100
AcDbLine
 10
184.5227069999999
 20
334.8094929999998
 30
0.0
 11
184.5227069999999
 21
335.809493
 31
0.0
  0
LINE
  5
9988
330
992B
100
AcDbEntity
  8
1
  6
Continuous
100
AcDbLine
 10
174.522709
 20
368.4094959999998
 30
0.0
 11
184.5227069999999
 21
368.4094959999998
 31
0.0
  0
LINE
  5
9989
330
992B
100
AcDbEntity
  8
1
  6
Continuous
100
AcDbLine
 10
174.522709
 20
369.409496
 30
0.0
 11
184.5227069999999
 21
369.409496
 31
0.0
  0
LINE
  5
998A
330
992B
100
AcDbEntity
  8
1
  6
Continuous
100
AcDbLine
 10
184.5227069999999
 20
334.8094929999998
 30
0.0
 11
184.5227069999999
 21
369.409496
 31
0.0
  0
LINE
  5
998B
330
992B
100
AcDbEntity
  8
1
  6
Continuous
100
AcDbLine
 10
184.5227129999999
 20
277.1094939999999
 30
0.0
 11
174.5227099999999
 21
277.1094939999999
 31
0.0
  0
LINE
  5
998C
330
992B
100
AcDbEntity
  8
1
  6
Continuous
100
AcDbLine
 10
183.8363919999999
 20
259.4968819999999
 30
0.0
 11
175.008735
 21
259.4968819999999
 31
0.0
  0
LINE
  5
998D
330
992B
100
AcDbEntity
  8
1
  6
Continuous
100
AcDbLine
 10
174.5227109999999
 20
260.1094939999999
 30
0.0
 11
174.5227109999999
 21
278.109494
 31
0.0
  0
LINE
  5
998E
330
992B
100
AcDbEntity
  8
1
  6
Continuous
100
AcDbLine
 10
184.5227089999999
 20
260.1094939999999
 30
0.0
 11
184.5227089999999
 21
278.109494
 31
0.0
  0
LINE
  5
998F
330
992B
100
AcDbEntity
  8
1
  6
Continuous
100
AcDbLine
 10
44.022709
 20
274.3094929999999
 30
0.0
 11
69.02270899999999
 21
274.3094929999999
 31
0.0
  0
LINE
  5
9990
330
992B
100
AcDbEntity
  8
1
  6
Continuous
100
AcDbLine
 10
70.147729
 20
259.4553579999999
 30
0.0
 11
71.072709
 21
255.3970899999999
 31
0.0
  0
LINE
  5
9991
330
992B
100
AcDbEntity
  8
1
  6
Continuous
100
AcDbLine
 10
43.02270899999999
 20
273.3094929999999
 30
0.0
 11
43.02270899999999
 21
260.566494
 31
0.0
  0
LINE
  5
9992
330
992B
100
AcDbEntity
  8
1
  6
Continuous
100
AcDbLine
 10
70.02270899999999
 20
273.3094929999999
 30
0.0
 11
70.02270899999999
 21
260.566494
 31
0.0
  0
LINE
  5
9993
330
992B
100
AcDbEntity
  8
1
  6
Continuous
100
AcDbLine
 10
42.897679
 20
259.4553599999999
 30
0.0
 11
41.972689
 21
255.3970919999999
 31
0.0
  0
LINE
  5
9994
330
992B
100
AcDbEntity
  8
1
  6
Continuous
100
AcDbLine
 10
185.5227089999999
 20
279.1094959999999
 30
0.0
 11
229.522709
 21
279.1094959999999
 31
0.0
  0
LINE
  5
9995
330
992B
100
AcDbEntity
  8
1
  6
Continuous
100
AcDbLine
 10
71.52270899999997
 20
194.609496
 30
0.0
 11
71.52270899999997
 21
219.6094959999999
 31
0.0
  0
LINE
  5
9996
330
992B
100
AcDbEntity
  8
1
  6
Continuous
100
AcDbLine
 10
70.02270899999999
 20
160.0889809999999
 30
0.0
 11
70.02270899999999
 21
254.1300109999999
 31
0.0
  0
LINE
  5
9997
330
992B
100
AcDbEntity
  8
1
  6
Continuous
100
AcDbLine
 10
43.02270899999999
 20
160.0889809999999
 30
0.0
 11
43.02270899999999
 21
254.1300109999999
 31
0.0
  0
LINE
  5
9998
330
992B
100
AcDbEntity
  8
1
  6
Continuous
100
AcDbLine
 10
41.522709
 20
194.609496
 30
0.0
 11
41.522709
 21
219.6094959999999
 31
0.0
  0
LINE
  5
9999
330
992B
100
AcDbEntity
  8
1
  6
Continuous
100
AcDbLine
 10
71.52270899999997
 20
211.1094959999999
 30
0.0
 11
72.52270899999998
 21
211.1094959999999
 31
0.0
  0
LINE
  5
999A
330
992B
100
AcDbEntity
  8
1
  6
Continuous
100
AcDbLine
 10
71.52270899999997
 20
203.1094959999999
 30
0.0
 11
72.52270899999998
 21
203.1094959999999
 31
0.0
  0
ARC
  5
999F
330
992B
100
AcDbEntity
  8
1
  6
Continuous
100
AcDbCircle
 10
179.522709
 20
207.1094959999999
 30
0.0
 40
10.0
100
AcDbArc
 50
192.79056
 51
347.2094399999999
  0
CIRCLE
  5
99A0
330
992B
100
AcDbEntity
  8
1
  6
Continuous
100
AcDbCircle
 10
179.522709
 20
207.1094959999999
 30
0.0
 40
2.0
  0
CIRCLE
  5
99A1
330
992B
100
AcDbEntity
  8
1
  6
Continuous
100
AcDbCircle
 10
179.522709
 20
207.1094959999999
 30
0.0
 40
6.25
  0
ARC
  5
99A2
330
992B
100
AcDbEntity
  8
1
  6
Continuous
100
AcDbCircle
 10
76.52270099999999
 20
211.3594959999999
 30
0.0
 40
2.0
100
AcDbArc
 50
0.0
 51
89.99998199999996
  0
ARC
  5
99A3
330
992B
100
AcDbEntity
  8
1
  6
Continuous
100
AcDbCircle
 10
76.52270099999999
 20
202.8594959999999
 30
0.0
 40
2.0
100
AcDbArc
 50
270.00002
 51
0.0
  0
ARC
  5
99A4
330
992B
100
AcDbEntity
  8
1
  6
Continuous
100
AcDbCircle
 10
45.72271899999999
 20
207.1094959999999
 30
0.0
 40
12.0
100
AcDbArc
 50
164.2861599999999
 51
195.71383
  0
ARC
  5
99A5
330
992B
100
AcDbEntity
  8
1
  6
Continuous
100
AcDbCircle
 10
25.722719
 20
207.1094959999999
 30
0.0
 40
12.0
100
AcDbArc
 50
344.2861399999999
 51
15.71386099999998
  0
ARC
  5
99A6
330
992B
100
AcDbEntity
  8
1
  6
Continuous
100
AcDbCircle
 10
36.972719
 20
212.0511239999999
 30
0.0
 40
3.25
100
AcDbArc
 50
151.34725
 51
211.3657499999999
  0
ARC
  5
99A7
330
992B
100
AcDbEntity
  8
1
  6
Continuous
100
AcDbCircle
 10
34.472719
 20
212.0511239999999
 30
0.0
 40
3.25
100
AcDbArc
 50
328.6342
 51
28.65276699999999
  0
ARC
  5
99A8
330
992B
100
AcDbEntity
  8
1
  6
Continuous
100
AcDbCircle
 10
34.472719
 20
202.1678679999999
 30
0.0
 40
3.25
100
AcDbArc
 50
331.3472299999999
 51
31.365793
  0
ARC
  5
99A9
330
992B
100
AcDbEntity
  8
1
  6
Continuous
100
AcDbCircle
 10
36.972719
 20
202.1678679999999
 30
0.0
 40
3.25
100
AcDbArc
 50
148.63423
 51
208.6527299999999
  0
CIRCLE
  5
99AA
330
992B
100
AcDbEntity
  8
1
  6
Continuous
100
AcDbCircle
 10
138.5227089999998
 20
372.1094959999998
 30
0.0
 40
4.4
  0
CIRCLE
  5
99AB
330
992B
100
AcDbEntity
  8
1
  6
Continuous
100
AcDbCircle
 10
138.5227089999998
 20
332.1094959999998
 30
0.0
 40
4.4
  0
CIRCLE
  5
99AC
330
992B
100
AcDbEntity
  8
1
  6
Continuous
100
AcDbCircle
 10
220.522709
 20
372.1094959999998
 30
0.0
 40
4.4
  0
CIRCLE
  5
99AD
330
992B
100
AcDbEntity
  8
1
  6
Continuous
100
AcDbCircle
 10
220.522709
 20
332.1094959999998
 30
0.0
 40
4.4
  0
ARC
  5
99AE
330
992B
100
AcDbEntity
  8
1
  6
Continuous
100
AcDbCircle
 10
136.5227089999999
 20
374.1094959999998
 30
0.0
 40
7.0
100
AcDbArc
 50
89.99998199999996
 51
179.9999599999999
  0
ARC
  5
99AF
330
992B
100
AcDbEntity
  8
1
  6
Continuous
100
AcDbCircle
 10
142.9077069999999
 20
373.109496
 30
0.0
 40
8.0
100
AcDbArc
 50
21.25376399999999
 51
89.99998199999996
  0
ARC
  5
99B0
330
992B
100
AcDbEntity
  8
1
  6
Continuous
100
AcDbCircle
 10
157.8194499999999
 20
378.9094959999998
 30
0.0
 40
8.0
100
AcDbArc
 50
201.2538
 51
270.00002
  0
ARC
  5
99B1
330
992B
100
AcDbEntity
  8
1
  6
Continuous
100
AcDbCircle
 10
136.5227089999999
 20
330.1094959999998
 30
0.0
 40
7.0
100
AcDbArc
 50
179.9999799999999
 51
269.99997
  0
ARC
  5
99B2
330
992B
100
AcDbEntity
  8
1
  6
Continuous
100
AcDbCircle
 10
142.9077069999999
 20
331.1094959999998
 30
0.0
 40
8.0
100
AcDbArc
 50
269.9999599999998
 51
338.74618
  0
ARC
  5
99B3
330
992B
100
AcDbEntity
  8
1
  6
Continuous
100
AcDbCircle
 10
157.8194499999999
 20
325.3095009999999
 30
0.0
 40
8.0
100
AcDbArc
 50
89.99992699999998
 51
158.74615
  0
ARC
  5
99B4
330
992B
100
AcDbEntity
  8
1
  6
Continuous
100
AcDbCircle
 10
222.522709
 20
374.1094959999998
 30
0.0
 40
7.0
100
AcDbArc
 50
0.0
 51
89.99998199999996
  0
ARC
  5
99B5
330
992B
100
AcDbEntity
  8
1
  6
Continuous
100
AcDbCircle
 10
216.1377139999999
 20
373.109496
 30
0.0
 40
8.0
100
AcDbArc
 50
89.99998199999996
 51
158.7461899999999
  0
ARC
  5
99B6
330
992B
100
AcDbEntity
  8
1
  6
Continuous
100
AcDbCircle
 10
201.2259709999999
 20
378.9094959999998
 30
0.0
 40
8.0
100
AcDbArc
 50
269.9999599999998
 51
338.74619
  0
ARC
  5
99B7
330
992B
100
AcDbEntity
  8
1
  6
Continuous
100
AcDbCircle
 10
222.522709
 20
330.1094959999998
 30
0.0
 40
7.0
100
AcDbArc
 50
270.00002
 51
0.0
  0
ARC
  5
99B8
330
992B
100
AcDbEntity
  8
1
  6
Continuous
100
AcDbCircle
 10
216.1377139999999
 20
331.1094959999998
 30
0.0
 40
8.0
100
AcDbArc
 50
201.2538099999999
 51
270.00002
  0
ARC
  5
99B9
330
992B
100
AcDbEntity
  8
1
  6
Continuous
100
AcDbCircle
 10
201.2259709999999
 20
325.3095009999999
 30
0.0
 40
8.0
100
AcDbArc
 50
21.25381399999998
 51
90.000037
  0
ARC
  5
99BA
330
992B
100
AcDbEntity
  8
1
  6
Continuous
100
AcDbCircle
 10
186.022709
 20
369.409496
 30
0.0
 40
1.5
100
AcDbArc
 50
90.00000300000001
 51
180.00001
  0
ARC
  5
99BB
330
992B
100
AcDbEntity
  8
1
  6
Continuous
100
AcDbCircle
 10
173.0227089999999
 20
334.8095009999997
 30
0.0
 40
1.5
100
AcDbArc
 50
270.0
 51
0.0
  0
ARC
  5
99BC
330
992B
100
AcDbEntity
  8
1
  6
Continuous
100
AcDbCircle
 10
186.022709
 20
334.8095009999997
 30
0.0
 40
1.5
100
AcDbArc
 50
179.9999899999999
 51
270.0
  0
ARC
  5
99BD
330
992B
100
AcDbEntity
  8
1
  6
Continuous
100
AcDbCircle
 10
179.5227109999999
 20
260.1094939999999
 30
0.0
 40
5.0
100
AcDbArc
 50
179.9999899999999
 51
0.00001
  0
ARC
  5
99BE
330
992B
100
AcDbEntity
  8
1
  6
Continuous
100
AcDbCircle
 10
173.5227109999999
 20
278.109494
 30
0.0
 40
1.0
100
AcDbArc
 50
0.0
 51
90.00000300000001
  0
ARC
  5
99BF
330
992B
100
AcDbEntity
  8
1
  6
Continuous
100
AcDbCircle
 10
185.5227089999999
 20
278.109494
 30
0.0
 40
1.0
100
AcDbArc
 50
89.99999599999998
 51
180.00001
  0
ARC
  5
99C0
330
992B
100
AcDbEntity
  8
1
  6
Continuous
100
AcDbCircle
 10
44.022709
 20
273.3094929999999
 30
0.0
 40
1.0
100
AcDbArc
 50
90.00000300000001
 51
180.00001
  0
ARC
  5
99C1
330
992B
100
AcDbEntity
  8
1
  6
Continuous
100
AcDbCircle
 10
69.02270899999999
 20
273.3094929999999
 30
0.0
 40
1.0
100
AcDbArc
 50
0.0
 51
90.00000300000001
  0
ARC
  5
99C2
330
992B
100
AcDbEntity
  8
1
  6
Continuous
100
AcDbCircle
 10
38.02270899999999
 20
260.566494
 30
0.0
 40
5.0
100
AcDbArc
 50
347.16015
 51
0.0
  0
ARC
  5
99C3
330
992B
100
AcDbEntity
  8
1
  6
Continuous
100
AcDbCircle
 10
73.02270899999998
 20
255.841545
 30
0.0
 40
2.0
100
AcDbArc
 50
192.83985
 51
255.52249
  0
ARC
  5
99C4
330
992B
100
AcDbEntity
  8
1
  6
Continuous
100
AcDbCircle
 10
40.022709
 20
255.841545
 30
0.0
 40
2.0
100
AcDbArc
 50
284.47751
 51
347.16015
  0
ARC
  5
99C5
330
992B
100
AcDbEntity
  8
1
  6
Continuous
100
AcDbCircle
 10
75.02270899999998
 20
260.566494
 30
0.0
 40
5.0
100
AcDbArc
 50
179.9999899999999
 51
192.83985
  0
ARC
  5
99C6
330
992B
100
AcDbEntity
  8
1
  6
Continuous
100
AcDbCircle
 10
173.0227089999999
 20
369.409496
 30
0.0
 40
1.5
100
AcDbArc
 50
359.9999899999998
 51
89.99999599999998
  0
ARC
  5
99C7
330
992B
100
AcDbEntity
  8
1
  6
Continuous
100
AcDbCircle
 10
179.522709
 20
207.1094959999999
 30
0.0
 40
50.0
100
AcDbArc
 50
114.32754
 51
65.672443
  0
ARC
  5
99C8
330
992B
100
AcDbEntity
  8
1
  6
Continuous
100
AcDbCircle
 10
179.522709
 20
207.1094959999999
 30
0.0
 40
34.5
100
AcDbArc
 50
119.63986
 51
60.360113
  0
ARC
  5
99C9
330
992B
100
AcDbEntity
  8
1
  6
Continuous
100
AcDbCircle
 10
179.522709
 20
207.1094959999999
 30
0.0
 40
15.5
100
AcDbArc
 50
142.9683599999999
 51
37.03154699999997
  0
ARC
  5
99CA
330
992B
100
AcDbEntity
  8
1
  6
Continuous
100
AcDbCircle
 10
45.022709
 20
160.0889809999999
 30
0.0
 40
2.0
100
AcDbArc
 50
180.00002
 51
260.2634799999999
  0
ARC
  5
99CB
330
992B
100
AcDbEntity
  8
1
  6
Continuous
100
AcDbCircle
 10
44.52270900000001
 20
194.609496
 30
0.0
 40
3.0
100
AcDbArc
 50
180.0000399999998
 51
239.99998
  0
ARC
  5
99CC
330
992B
100
AcDbEntity
  8
1
  6
Continuous
100
AcDbCircle
 10
68.52270899999999
 20
194.609496
 30
0.0
 40
3.0
100
AcDbArc
 50
300.00001
 51
359.99995
  0
ARC
  5
99CD
330
992B
100
AcDbEntity
  8
1
  6
Continuous
100
AcDbCircle
 10
68.02270899999999
 20
160.0889809999999
 30
0.0
 40
2.0
100
AcDbArc
 50
279.73647
 51
359.99995
  0
ARC
  5
99CE
330
992B
100
AcDbEntity
  8
1
  6
Continuous
100
AcDbCircle
 10
68.02270899999999
 20
254.1300109999999
 30
0.0
 40
2.0
100
AcDbArc
 50
0.000055
 51
80.26353399999996
  0
ARC
  5
99CF
330
992B
100
AcDbEntity
  8
1
  6
Continuous
100
AcDbCircle
 10
68.52270899999999
 20
219.6094959999999
 30
0.0
 40
3.0
100
AcDbArc
 50
0.000055
 51
59.999995
  0
ARC
  5
99D0
330
992B
100
AcDbEntity
  8
1
  6
Continuous
100
AcDbCircle
 10
56.522709
 20
187.109496
 30
0.0
 40
70.0
100
AcDbArc
 50
80.26348
 51
99.73649899999999
  0
ARC
  5
99D1
330
992B
100
AcDbEntity
  8
1
  6
Continuous
100
AcDbCircle
 10
44.52270900000001
 20
219.6094959999999
 30
0.0
 40
3.0
100
AcDbArc
 50
120.0000199999999
 51
179.9999599999999
  0
ARC
  5
99D2
330
992B
100
AcDbEntity
  8
1
  6
Continuous
100
AcDbCircle
 10
45.022709
 20
254.1300109999999
 30
0.0
 40
2.0
100
AcDbArc
 50
99.736519
 51
179.9999799999999
  0
ARC
  5
99EC
330
992B
100
AcDbEntity
  8
1
  6
Continuous
100
AcDbCircle
 10
56.522709
 20
227.109496
 30
0.0
 40
70.0
100
AcDbArc
 50
260.2635009999999
 51
279.7365199999999
  0
LINE
  5
99F4
330
992B
100
AcDbEntity
  8
4
  6
CENTER
 48
0.8
100
AcDbLine
 10
36.52270699999998
 20
284.1094959999998
 30
0.0
 11
36.52270699999998
 21
271.309493
 31
0.0
  0
LINE
  5
99F5
330
992B
100
AcDbEntity
  8
4
  6
CENTER
 48
0.8
100
AcDbLine
 10
124.5227089999999
 20
84.10949599999998
 30
0.0
 11
234.5227089999999
 21
84.10949599999998
 31
0.0
  0
LINE
  5
99F6
330
992B
100
AcDbEntity
  8
1
  6
Continuous
100
AcDbLine
 10
157.8194499999999
 20
65.30949599999999
 30
0.0
 11
201.2259709999999
 21
65.30949599999999
 31
0.0
  0
LINE
  5
99F7
330
992B
100
AcDbEntity
  8
1
  6
Continuous
100
AcDbLine
 10
157.8194499999999
 20
102.9094909999999
 30
0.0
 11
201.2259709999999
 21
102.9094909999999
 31
0.0
  0
LINE
  5
99F8
330
992B
100
AcDbEntity
  8
4
  6
CENTER
 48
0.8
100
AcDbLine
 10
179.522709
 20
53.30950600000001
 30
0.0
 11
179.522709
 21
111.1094879999999
 31
0.0
  0
LINE
  5
99F9
330
992B
100
AcDbEntity
  8
1
  6
Continuous
100
AcDbLine
 10
129.522709
 20
62.10949599999999
 30
0.0
 11
129.522709
 21
106.1094959999997
 31
0.0
  0
ARC
  5
99FA
330
992B
100
AcDbEntity
  8
1
  6
Continuous
100
AcDbCircle
 10
157.8194499999999
 20
110.9094909999999
 30
0.0
 40
8.0
100
AcDbArc
 50
201.25385
 51
270.0000729999998
  0
LINE
  5
99FB
330
992B
100
AcDbEntity
  8
4
  6
CENTER
 48
0.8
100
AcDbLine
 10
138.5227089999998
 20
110.1094959999997
 30
0.0
 11
138.5227089999998
 21
98.109496
 31
0.0
  0
CIRCLE
  5
99FC
330
992B
100
AcDbEntity
  8
1
  6
Continuous
100
AcDbCircle
 10
138.5227089999998
 20
104.1094959999997
 30
0.0
 40
4.4
  0
LINE
  5
99FD
330
992B
100
AcDbEntity
  8
4
  6
CENTER
 48
0.8
100
AcDbLine
 10
144.5227089999999
 20
104.1094959999997
 30
0.0
 11
132.522709
 21
104.1094959999997
 31
0.0
  0
ARC
  5
99FE
330
992B
100
AcDbEntity
  8
1
  6
Continuous
100
AcDbCircle
 10
142.9077069999999
 20
105.1094959999997
 30
0.0
 40
8.0
100
AcDbArc
 50
21.25382
 51
90.00004000000002
  0
LINE
  5
99FF
330
992B
100
AcDbEntity
  8
1
  6
Continuous
100
AcDbLine
 10
136.5227089999999
 20
113.1094959999997
 30
0.0
 11
142.9077069999999
 21
113.1094959999997
 31
0.0
  0
ARC
  5
9A00
330
992B
100
AcDbEntity
  8
1
  6
Continuous
100
AcDbCircle
 10
136.5227089999999
 20
106.1094959999997
 30
0.0
 40
7.0
100
AcDbArc
 50
90.00003000000004
 51
180.00002
  0
LINE
  5
9A01
330
992B
100
AcDbEntity
  8
4
  6
CENTER
 48
0.8
100
AcDbLine
 10
138.5227089999998
 20
58.10949599999999
 30
0.0
 11
138.5227089999998
 21
70.109496
 31
0.0
  0
CIRCLE
  5
9A02
330
992B
100
AcDbEntity
  8
1
  6
Continuous
100
AcDbCircle
 10
138.5227089999998
 20
64.10949599999999
 30
0.0
 40
4.4
  0
ARC
  5
9A03
330
992B
100
AcDbEntity
  8
1
  6
Continuous
100
AcDbCircle
 10
136.5227089999999
 20
62.10949599999999
 30
0.0
 40
7.0
100
AcDbArc
 50
180.0000399999998
 51
270.0000179999999
  0
ARC
  5
9A04
330
992B
100
AcDbEntity
  8
1
  6
Continuous
100
AcDbCircle
 10
142.9077069999999
 20
63.10949599999999
 30
0.0
 40
8.0
100
AcDbArc
 50
270.0000179999999
 51
338.746236
  0
LINE
  5
9A05
330
992B
100
AcDbEntity
  8
4
  6
CENTER
 48
0.8
100
AcDbLine
 10
144.5227089999999
 20
64.10949599999999
 30
0.0
 11
132.522709
 21
64.10949599999999
 31
0.0
  0
ARC
  5
9A06
330
992B
100
AcDbEntity
  8
1
  6
Continuous
100
AcDbCircle
 10
157.8194499999999
 20
57.30949599999998
 30
0.0
 40
8.0
100
AcDbArc
 50
89.99997999999996
 51
158.7461999999999
  0
LINE
  5
9A07
330
992B
100
AcDbEntity
  8
1
  6
Continuous
100
AcDbLine
 10
136.5227089999999
 20
55.109496
 30
0.0
 11
142.9077069999999
 21
55.109496
 31
0.0
  0
LINE
  5
9A08
330
992B
100
AcDbEntity
  8
1
  6
Continuous
100
AcDbLine
 10
229.522709
 20
62.10949599999999
 30
0.0
 11
229.522709
 21
106.1094959999997
 31
0.0
  0
LINE
  5
9A09
330
992B
100
AcDbEntity
  8
4
  6
CENTER
 48
0.8
100
AcDbLine
 10
214.522709
 20
104.1094959999997
 30
0.0
 11
226.5227089999999
 21
104.1094959999997
 31
0.0
  0
CIRCLE
  5
9A0A
330
992B
100
AcDbEntity
  8
1
  6
Continuous
100
AcDbCircle
 10
220.522709
 20
104.1094959999997
 30
0.0
 40
4.4
  0
ARC
  5
9A0B
330
992B
100
AcDbEntity
  8
1
  6
Continuous
100
AcDbCircle
 10
222.522709
 20
106.1094959999997
 30
0.0
 40
7.0
100
AcDbArc
 50
0.0
 51
89.99997999999996
  0
LINE
  5
9A0C
330
992B
100
AcDbEntity
  8
4
  6
CENTER
 48
0.8
100
AcDbLine
 10
220.522709
 20
110.1094959999997
 30
0.0
 11
220.522709
 21
98.109496
 31
0.0
  0
ARC
  5
9A0D
330
992B
100
AcDbEntity
  8
1
  6
Continuous
100
AcDbCircle
 10
201.2259709999999
 20
110.9094909999999
 30
0.0
 40
8.0
100
AcDbArc
 50
269.9999629999999
 51
338.7461859999999
  0
LINE
  5
9A0E
330
992B
100
AcDbEntity
  8
1
  6
Continuous
100
AcDbLine
 10
222.522709
 20
113.1094959999997
 30
0.0
 11
216.1377139999999
 21
113.1094959999997
 31
0.0
  0
ARC
  5
9A0F
330
992B
100
AcDbEntity
  8
1
  6
Continuous
100
AcDbCircle
 10
216.1377139999999
 20
105.1094959999997
 30
0.0
 40
8.0
100
AcDbArc
 50
89.99997999999996
 51
158.7461899999999
  0
LINE
  5
9A10
330
992B
100
AcDbEntity
  8
4
  6
CENTER
 48
0.8
100
AcDbLine
 10
214.522709
 20
64.10949599999999
 30
0.0
 11
226.5227089999999
 21
64.10949599999999
 31
0.0
  0
CIRCLE
  5
9A11
330
992B
100
AcDbEntity
  8
1
  6
Continuous
100
AcDbCircle
 10
220.522709
 20
64.10949599999999
 30
0.0
 40
4.4
  0
ARC
  5
9A12
330
992B
100
AcDbEntity
  8
1
  6
Continuous
100
AcDbCircle
 10
222.522709
 20
62.10949599999999
 30
0.0
 40
7.0
100
AcDbArc
 50
270.0000179999999
 51
0.0
  0
LINE
  5
9A13
330
992B
100
AcDbEntity
  8
4
  6
CENTER
 48
0.8
100
AcDbLine
 10
220.522709
 20
58.10949599999999
 30
0.0
 11
220.522709
 21
70.109496
 31
0.0
  0
ARC
  5
9A14
330
992B
100
AcDbEntity
  8
1
  6
Continuous
100
AcDbCircle
 10
216.1377139999999
 20
63.10949599999999
 30
0.0
 40
8.0
100
AcDbArc
 50
201.2538099999999
 51
270.0000179999999
  0
ARC
  5
9A15
330
992B
100
AcDbEntity
  8
1
  6
Continuous
100
AcDbCircle
 10
201.2259709999999
 20
57.30949599999998
 30
0.0
 40
8.0
100
AcDbArc
 50
21.25381
 51
90.00004000000002
  0
LINE
  5
9A16
330
992B
100
AcDbEntity
  8
1
  6
Continuous
100
AcDbLine
 10
222.522709
 20
55.109496
 30
0.0
 11
216.1377139999999
 21
55.109496
 31
0.0
  0
ARC
  5
9A17
330
992B
100
AcDbEntity
  8
1
  6
Continuous
100
AcDbCircle
 10
183.7727089999999
 20
332.109504
 30
0.0
 40
2.0
100
AcDbArc
 50
270.0
 51
359.9999799999998
  0
ARC
  5
9A18
330
992B
100
AcDbEntity
  8
1
  6
Continuous
100
AcDbCircle
 10
175.272709
 20
332.109504
 30
0.0
 40
2.0
100
AcDbArc
 50
180.0000179999999
 51
270.0
  0
LINE
  5
9A19
330
992B
100
AcDbEntity
  8
1
  6
Continuous
100
AcDbLine
 10
185.772709
 20
333.3095009999999
 30
0.0
 11
185.772709
 21
332.109504
 31
0.0
  0
LINE
  5
9A1A
330
992B
100
AcDbEntity
  8
1
  6
Continuous
100
AcDbLine
 10
173.272709
 20
333.3095009999999
 30
0.0
 11
173.272709
 21
332.109504
 31
0.0
  0
LINE
  5
9A1B
330
992B
100
AcDbEntity
  8
1
  6
Continuous
100
AcDbLine
 10
175.272709
 20
330.109504
 30
0.0
 11
183.7727089999999
 21
330.109504
 31
0.0
  0
LINE
  5
9A1C
330
992B
100
AcDbEntity
  8
1
  6
Continuous
100
AcDbLine
 10
192.022709
 20
99.109496
 30
0.0
 11
167.022709
 21
99.109496
 31
0.0
  0
LINE
  5
9A1D
330
992B
100
AcDbEntity
  8
1
  6
Continuous
100
AcDbLine
 10
157.8194499999999
 20
102.9094909999999
 30
0.0
 11
189.5227089999999
 21
102.9094909999999
 31
0.0
  0
LINE
  5
9A1E
330
992B
100
AcDbEntity
  8
1
  6
Continuous
100
AcDbLine
 10
192.022709
 20
69.10949599999999
 30
0.0
 11
167.022709
 21
69.10949599999999
 31
0.0
  0
LINE
  5
9A1F
330
992B
100
AcDbEntity
  8
1
  6
Continuous
100
AcDbLine
 10
226.5432239999999
 20
70.60949599999998
 30
0.0
 11
132.502193
 21
70.60949599999998
 31
0.0
  0
LINE
  5
9A20
330
992B
100
AcDbEntity
  8
1
  6
Continuous
100
AcDbLine
 10
226.5432239999999
 20
97.609496
 30
0.0
 11
132.502193
 21
97.609496
 31
0.0
  0
LINE
  5
9A21
330
992B
100
AcDbEntity
  8
1
  6
Continuous
100
AcDbLine
 10
173.272709
 20
102.9094909999999
 30
0.0
 11
173.272709
 21
104.1094879999999
 31
0.0
  0
LINE
  5
9A22
330
992B
100
AcDbEntity
  8
1
  6
Continuous
100
AcDbLine
 10
185.772709
 20
102.9094909999999
 30
0.0
 11
185.772709
 21
104.1094879999999
 31
0.0
  0
ARC
  5
9A23
330
992B
100
AcDbEntity
  8
1
  6
Continuous
100
AcDbCircle
 10
199.522709
 20
84.10949599999998
 30
0.0
 40
70.0
100
AcDbArc
 50
170.26348
 51
189.7364989999998
  0
ARC
  5
9A24
330
992B
100
AcDbEntity
  8
1
  6
Continuous
100
AcDbCircle
 10
132.502193
 20
72.60949599999998
 30
0.0
 40
2.0
100
AcDbArc
 50
189.736519
 51
269.99998
  0
ARC
  5
9A25
330
992B
100
AcDbEntity
  8
1
  6
Continuous
100
AcDbCircle
 10
132.502193
 20
95.60949599999998
 30
0.0
 40
2.0
100
AcDbArc
 50
90.00005499999994
 51
170.263534
  0
ARC
  5
9A26
330
992B
100
AcDbEntity
  8
1
  6
Continuous
100
AcDbCircle
 10
167.022709
 20
72.10949599999998
 30
0.0
 40
3.0
100
AcDbArc
 50
210.00002
 51
269.9999599999998
  0
LINE
  5
9A27
330
992B
100
AcDbEntity
  8
1
  6
Continuous
100
AcDbLine
 10
175.5227089999999
 20
68.10949599999999
 30
0.0
 11
175.5227089999999
 21
69.10949599999999
 31
0.0
  0
LINE
  5
9A28
330
992B
100
AcDbEntity
  8
1
  6
Continuous
100
AcDbLine
 10
183.522709
 20
68.10949599999999
 30
0.0
 11
183.522709
 21
69.10949599999999
 31
0.0
  0
LINE
  5
9A29
330
992B
100
AcDbEntity
  8
1
  6
Continuous
100
AcDbLine
 10
176.272709
 20
60.309506
 30
0.0
 11
182.7727089999999
 21
60.309506
 31
0.0
  0
ARC
  5
9A2A
330
992B
100
AcDbEntity
  8
1
  6
Continuous
100
AcDbCircle
 10
167.022709
 20
96.10949599999999
 30
0.0
 40
3.0
100
AcDbArc
 50
90.00005499999994
 51
149.9999949999998
  0
LINE
  5
9A2B
330
992B
100
AcDbEntity
  8
1
  6
Continuous
100
AcDbLine
 10
175.5227089999999
 20
99.109496
 30
0.0
 11
175.5227089999999
 21
100.1094959999997
 31
0.0
  0
LINE
  5
9A2C
330
992B
100
AcDbEntity
  8
1
  6
Continuous
100
AcDbLine
 10
183.522709
 20
99.109496
 30
0.0
 11
183.522709
 21
100.1094959999997
 31
0.0
  0
ARC
  5
9A2D
330
992B
100
AcDbEntity
  8
1
  6
Continuous
100
AcDbCircle
 10
175.272709
 20
104.1094879999999
 30
0.0
 40
2.0
100
AcDbArc
 50
90.0
 51
179.999982
  0
ARC
  5
9A2E
330
992B
100
AcDbEntity
  8
1
  6
Continuous
100
AcDbCircle
 10
183.7727089999999
 20
104.1094879999999
 30
0.0
 40
2.0
100
AcDbArc
 50
0.00002
 51
90.0
  0
LINE
  5
9A2F
330
992B
100
AcDbEntity
  8
1
  6
Continuous
100
AcDbLine
 10
175.272709
 20
106.1094879999999
 30
0.0
 11
183.7727089999999
 21
106.1094879999999
 31
0.0
  0
ARC
  5
9A30
330
992B
100
AcDbEntity
  8
1
  6
Continuous
100
AcDbCircle
 10
192.022709
 20
72.10949599999998
 30
0.0
 40
3.0
100
AcDbArc
 50
270.0000399999999
 51
329.99998
  0
ARC
  5
9A31
330
992B
100
AcDbEntity
  8
1
  6
Continuous
100
AcDbCircle
 10
192.022709
 20
96.10949599999999
 30
0.0
 40
3.0
100
AcDbArc
 50
30.00001
 51
89.99995000000001
  0
ARC
  5
9A32
330
992B
100
AcDbEntity
  8
1
  6
Continuous
100
AcDbCircle
 10
159.5227089999999
 20
84.10949599999998
 30
0.0
 40
70.0
100
AcDbArc
 50
350.2635009999999
 51
9.73652
  0
ARC
  5
9A33
330
992B
100
AcDbEntity
  8
1
  6
Continuous
100
AcDbCircle
 10
226.5432239999999
 20
72.60949599999998
 30
0.0
 40
2.0
100
AcDbArc
 50
270.00002
 51
350.2634799999999
  0
ARC
  5
9A34
330
992B
100
AcDbEntity
  8
1
  6
Continuous
100
AcDbCircle
 10
226.5432239999999
 20
95.60949599999998
 30
0.0
 40
2.0
100
AcDbArc
 50
9.736469999999997
 51
89.99995000000001
  0
LINE
  5
9A35
330
992B
100
AcDbEntity
  8
1
  6
Continuous
100
AcDbLine
 10
210.4588779999999
 20
110.744283
 30
0.0
 11
210.4588779999999
 21
108.1094959999997
 31
0.0
  0
LINE
  5
9A36
330
992B
100
AcDbEntity
  8
1
  6
Continuous
100
AcDbLine
 10
203.5227089999999
 20
100.1094959999997
 30
0.0
 11
156.5865389999999
 21
100.1094959999997
 31
0.0
  0
ARC
  5
9A37
330
992B
100
AcDbEntity
  8
1
  6
Continuous
100
AcDbCircle
 10
202.458878
 20
108.1094959999997
 30
0.0
 40
8.0
100
AcDbArc
 50
270.0
 51
0.0
  0
ARC
  5
9A38
330
992B
100
AcDbEntity
  8
1
  6
Continuous
100
AcDbCircle
 10
156.5865389999999
 20
108.1094959999997
 30
0.0
 40
8.0
100
AcDbArc
 50
180.0
 51
270.0
  0
LINE
  5
9A39
330
992B
100
AcDbEntity
  8
1
  6
Continuous
100
AcDbLine
 10
148.5865389999998
 20
110.744283
 30
0.0
 11
148.5865389999998
 21
108.1094959999997
 31
0.0
  0
ARC
  5
9A3A
330
992B
100
AcDbEntity
  8
1
  6
Continuous
100
AcDbCircle
 10
202.458878
 20
60.109496
 30
0.0
 40
8.0
100
AcDbArc
 50
0.0
 51
90.0
  0
LINE
  5
9A3B
330
992B
100
AcDbEntity
  8
1
  6
Continuous
100
AcDbLine
 10
210.4588779999999
 20
57.47470899999999
 30
0.0
 11
210.4588779999999
 21
60.109496
 31
0.0
  0
LINE
  5
9A3C
330
992B
100
AcDbEntity
  8
1
  6
Continuous
100
AcDbLine
 10
202.458878
 20
68.10949599999999
 30
0.0
 11
156.5865389999999
 21
68.10949599999999
 31
0.0
  0
ARC
  5
9A3D
330
992B
100
AcDbEntity
  8
1
  6
Continuous
100
AcDbCircle
 10
156.5865389999999
 20
60.109496
 30
0.0
 40
8.0
100
AcDbArc
 50
90.0
 51
180.0
  0
LINE
  5
9A3E
330
992B
100
AcDbEntity
  8
1
  6
Continuous
100
AcDbLine
 10
148.5865389999998
 20
57.47470899999999
 30
0.0
 11
148.5865389999998
 21
60.109496
 31
0.0
  0
ARC
  5
9A3F
330
992B
100
AcDbEntity
  8
1
  6
Continuous
100
AcDbCircle
 10
182.7727089999999
 20
57.340268
 30
0.0
 40
7.969237999999998
100
AcDbArc
 50
65.932151
 51
114.0678489999999
  0
LINE
  5
9A40
330
992B
100
AcDbEntity
  8
1
  6
Continuous
100
AcDbLine
 10
176.272709
 20
65.309506
 30
0.0
 11
182.7727089999999
 21
65.309506
 31
0.0
  0
LINE
  5
9A41
330
992B
100
AcDbEntity
  8
1
  6
Continuous
100
AcDbLine
 10
179.522709
 20
61.002326
 30
0.0
 11
179.522709
 21
64.616686
 31
0.0
  0
LINE
  5
9A42
330
992B
100
AcDbEntity
  8
1
  6
Continuous
100
AcDbLine
 10
173.0227089999999
 20
61.002326
 30
0.0
 11
173.0227089999999
 21
64.616686
 31
0.0
  0
ARC
  5
9A43
330
992B
100
AcDbEntity
  8
1
  6
Continuous
100
AcDbCircle
 10
176.272709
 20
57.340268
 30
0.0
 40
7.969237999999998
100
AcDbArc
 50
65.932151
 51
114.0678489999999
  0
LINE
  5
9A44
330
992B
100
AcDbEntity
  8
1
  6
Continuous
100
AcDbLine
 10
186.022709
 20
61.002326
 30
0.0
 11
186.022709
 21
64.616686
 31
0.0
  0
LINE
  5
9A45
330
992B
100
AcDbEntity
  8
1
  6
Continuous
100
AcDbLine
 10
176.272709
 20
375.909486
 30
0.0
 11
182.7727089999999
 21
375.909486
 31
0.0
  0
LINE
  5
9A46
330
992B
100
AcDbEntity
  8
1
  6
Continuous
100
AcDbLine
 10
186.022709
 20
375.2166659999998
 30
0.0
 11
186.022709
 21
371.6023059999998
 31
0.0
  0
ARC
  5
9A47
330
992B
100
AcDbEntity
  8
1
  6
Continuous
100
AcDbCircle
 10
182.7727089999999
 20
378.878724
 30
0.0
 40
7.969237999999998
100
AcDbArc
 50
245.932151
 51
294.067849
  0
LINE
  5
9A48
330
992B
100
AcDbEntity
  8
1
  6
Continuous
100
AcDbLine
 10
179.522709
 20
375.2166659999998
 30
0.0
 11
179.522709
 21
371.6023059999998
 31
0.0
  0
ARC
  5
9A49
330
992B
100
AcDbEntity
  8
1
  6
Continuous
100
AcDbCircle
 10
176.272709
 20
378.878724
 30
0.0
 40
7.969237999999998
100
AcDbArc
 50
245.932151
 51
294.067849
  0
LINE
  5
9A4A
330
992B
100
AcDbEntity
  8
1
  6
Continuous
100
AcDbLine
 10
173.0227089999999
 20
375.2166659999998
 30
0.0
 11
173.0227089999999
 21
371.6023059999998
 31
0.0
  0
LINE
  5
9A4B
330
992B
100
AcDbEntity
  8
4
  6
CENTER
 48
0.8
100
AcDbLine
 10
302.5227089999999
 20
284.1094959999998
 30
0.0
 11
302.5227089999999
 21
152.109496
 31
0.0
  0
LINE
  5
9A4C
330
992B
100
AcDbEntity
  8
1
  6
Continuous
100
AcDbLine
 10
316.0227089999999
 20
160.0889809999999
 30
0.0
 11
316.0227089999999
 21
254.1300109999999
 31
0.0
  0
LINE
  5
9A4D
330
992B
100
AcDbEntity
  8
1
  6
Continuous
100
AcDbLine
 10
289.0227089999999
 20
160.0889809999999
 30
0.0
 11
289.0227089999999
 21
254.1300109999999
 31
0.0
  0
ARC
  5
9A4E
330
992B
100
AcDbEntity
  8
1
  6
Continuous
100
AcDbCircle
 10
314.5227089999999
 20
219.6094959999999
 30
0.0
 40
3.0
100
AcDbArc
 50
0.00004
 51
59.99998000000001
  0
ARC
  5
9A4F
330
992B
100
AcDbEntity
  8
1
  6
Continuous
100
AcDbCircle
 10
290.5227089999998
 20
219.6094959999999
 30
0.0
 40
3.0
100
AcDbArc
 50
120.000005
 51
179.999945
  0
LINE
  5
9A50
330
992B
100
AcDbEntity
  8
1
  6
Continuous
100
AcDbLine
 10
321.3226989999999
 20
270.317168
 30
0.0
 11
321.3226989999999
 21
197.109496
 31
0.0
  0
LINE
  5
9A51
330
992B
100
AcDbEntity
  8
1
  6
Continuous
100
AcDbLine
 10
283.7227139999999
 20
270.3172124722401
 30
0.0
 11
283.7227139999999
 21
197.109496
 31
0.0
  0
LINE
  5
9A52
330
992B
100
AcDbEntity
  8
1
  6
Continuous
100
AcDbLine
 10
286.5227089999999
 20
276.3094929999999
 30
0.0
 11
286.5227089999999
 21
197.109496
 31
0.0
  0
LINE
  5
9A53
330
992B
100
AcDbEntity
  8
1
  6
Continuous
100
AcDbLine
 10
318.5227089999999
 20
276.3094929999999
 30
0.0
 11
318.5227089999999
 21
197.109496
 31
0.0
  0
ARC
  5
9A54
330
992B
100
AcDbEntity
  8
1
  6
Continuous
100
AcDbCircle
 10
302.5227089999999
 20
227.109496
 30
0.0
 40
70.0
100
AcDbArc
 50
260.2634799999999
 51
279.7364989999999
  0
LINE
  5
9A55
330
992B
100
AcDbEntity
  8
4
  6
CENTER
 48
0.8
100
AcDbLine
 10
331.118109
 20
207.1094959999999
 30
0.0
 11
277.7892569999999
 21
207.1094959999999
 31
0.0
  0
ARC
  5
9A56
330
992B
100
AcDbEntity
  8
1
  6
Continuous
100
AcDbCircle
 10
314.0227089999999
 20
160.0889809999999
 30
0.0
 40
2.0
100
AcDbArc
 50
279.7365199999999
 51
359.9999799999998
  0
LINE
  5
9A57
330
992B
100
AcDbEntity
  8
1
  6
Continuous
100
AcDbLine
 10
317.5227089999999
 20
194.609496
 30
0.0
 11
317.5227089999999
 21
219.6094959999999
 31
0.0
  0
ARC
  5
9A58
330
992B
100
AcDbEntity
  8
1
  6
Continuous
100
AcDbCircle
 10
314.5227089999999
 20
194.609496
 30
0.0
 40
3.0
100
AcDbArc
 50
300.00002
 51
359.9999599999999
  0
LINE
  5
9A59
330
992B
100
AcDbEntity
  8
1
  6
Continuous
100
AcDbLine
 10
321.3226989999999
 20
197.109496
 30
0.0
 11
318.5227089999999
 21
197.109496
 31
0.0
  0
ARC
  5
9A5A
330
992B
100
AcDbEntity
  8
1
  6
Continuous
100
AcDbCircle
 10
322.072699
 20
202.1678679999999
 30
0.0
 40
3.25
100
AcDbArc
 50
331.3472699999998
 51
31.36577
  0
LINE
  5
9A5B
330
992B
100
AcDbEntity
  8
1
  6
Continuous
100
AcDbLine
 10
324.9246989999998
 20
200.6095039999999
 30
0.0
 11
326.322699
 21
202.007495
 31
0.0
  0
ARC
  5
9A5C
330
992B
100
AcDbEntity
  8
1
  6
Continuous
100
AcDbCircle
 10
313.322699
 20
207.1094959999999
 30
0.0
 40
12.0
100
AcDbArc
 50
344.28617
 51
15.71384
  0
ARC
  5
9A5D
330
992B
100
AcDbEntity
  8
1
  6
Continuous
100
AcDbCircle
 10
322.072699
 20
212.0511239999999
 30
0.0
 40
3.25
100
AcDbArc
 50
328.6342499999999
 51
28.65275
  0
LINE
  5
9A5E
330
992B
100
AcDbEntity
  8
1
  6
Continuous
100
AcDbLine
 10
326.322699
 20
212.2115089999998
 30
0.0
 11
324.9247189999998
 21
213.6094879999999
 31
0.0
  0
LINE
  5
9A5F
330
992B
100
AcDbEntity
  8
1
  6
Continuous
100
AcDbLine
 10
326.322699
 20
212.2115089999998
 30
0.0
 11
326.322699
 21
202.0074829999999
 31
0.0
  0
LINE
  5
9A60
330
992B
100
AcDbEntity
  8
1
  6
Continuous
100
AcDbLine
 10
324.9246989999998
 20
213.609496
 30
0.0
 11
321.7206889999999
 21
213.609496
 31
0.0
  0
LINE
  5
9A61
330
992B
100
AcDbEntity
  8
1
  6
Continuous
100
AcDbLine
 10
324.9246989999998
 20
200.6094959999999
 30
0.0
 11
321.7206889999999
 21
200.6094959999999
 31
0.0
  0
LINE
  5
9A62
330
992B
100
AcDbEntity
  8
1
  6
Continuous
100
AcDbLine
 10
324.874209
 20
210.359496
 30
0.0
 11
321.771179
 21
210.359496
 31
0.0
  0
LINE
  5
9A63
330
992B
100
AcDbEntity
  8
1
  6
Continuous
100
AcDbLine
 10
324.847749
 20
203.859496
 30
0.0
 11
321.797639
 21
203.859496
 31
0.0
  0
ARC
  5
9A64
330
992B
100
AcDbEntity
  8
1
  6
Continuous
100
AcDbCircle
 10
324.572699
 20
202.1678679999999
 30
0.0
 40
3.25
100
AcDbArc
 50
148.634207
 51
208.6527699999999
  0
ARC
  5
9A65
330
992B
100
AcDbEntity
  8
1
  6
Continuous
100
AcDbCircle
 10
324.572699
 20
212.0511239999999
 30
0.0
 40
3.25
100
AcDbArc
 50
151.3472329999999
 51
211.3658
  0
ARC
  5
9A66
330
992B
100
AcDbEntity
  8
1
  6
Continuous
100
AcDbCircle
 10
333.322699
 20
207.1094959999999
 30
0.0
 40
12.0
100
AcDbArc
 50
164.286139
 51
195.71386
  0
LINE
  5
9A67
330
992B
100
AcDbEntity
  8
1
  6
Continuous
100
AcDbLine
 10
318.5227089999999
 20
203.1094959999999
 30
0.0
 11
317.5227089999999
 21
203.1094959999999
 31
0.0
  0
LINE
  5
9A68
330
992B
100
AcDbEntity
  8
1
  6
Continuous
100
AcDbLine
 10
318.5227089999999
 20
211.1094959999999
 30
0.0
 11
317.5227089999999
 21
211.1094959999999
 31
0.0
  0
ARC
  5
9A69
330
992B
100
AcDbEntity
  8
1
  6
Continuous
100
AcDbCircle
 10
291.0227089999997
 20
160.0889809999999
 30
0.0
 40
2.0
100
AcDbArc
 50
180.0000499999999
 51
260.26353
  0
LINE
  5
9A6A
330
992B
100
AcDbEntity
  8
1
  6
Continuous
100
AcDbLine
 10
287.5227089999999
 20
194.609496
 30
0.0
 11
287.5227089999999
 21
219.6094959999999
 31
0.0
  0
ARC
  5
9A6B
330
992B
100
AcDbEntity
  8
1
  6
Continuous
100
AcDbCircle
 10
290.5227089999998
 20
194.609496
 30
0.0
 40
3.0
100
AcDbArc
 50
180.0000499999999
 51
239.99999
  0
LINE
  5
9A6C
330
992B
100
AcDbEntity
  8
1
  6
Continuous
100
AcDbLine
 10
283.7227139999999
 20
197.109496
 30
0.0
 11
286.5227089999999
 21
197.109496
 31
0.0
  0
ARC
  5
9A6D
330
992B
100
AcDbEntity
  8
1
  6
Continuous
100
AcDbCircle
 10
282.522717
 20
202.8594959999999
 30
0.0
 40
2.0
100
AcDbArc
 50
180.0
 51
269.99998
  0
ARC
  5
9A6E
330
992B
100
AcDbEntity
  8
1
  6
Continuous
100
AcDbCircle
 10
282.522717
 20
211.3594959999999
 30
0.0
 40
2.0
100
AcDbArc
 50
90.00001800000005
 51
180.0
  0
LINE
  5
9A6F
330
992B
100
AcDbEntity
  8
1
  6
Continuous
100
AcDbLine
 10
287.5227089999999
 20
203.1094959999999
 30
0.0
 11
286.5227089999999
 21
203.1094959999999
 31
0.0
  0
LINE
  5
9A70
330
992B
100
AcDbEntity
  8
1
  6
Continuous
100
AcDbLine
 10
287.5227089999999
 20
211.1094959999999
 30
0.0
 11
286.5227089999999
 21
211.1094959999999
 31
0.0
  0
LINE
  5
9A71
330
992B
100
AcDbEntity
  8
1
  6
Continuous
100
AcDbLine
 10
283.7227139999999
 20
200.8594959999999
 30
0.0
 11
282.522717
 21
200.8594959999999
 31
0.0
  0
LINE
  5
9A72
330
992B
100
AcDbEntity
  8
1
  6
Continuous
100
AcDbLine
 10
283.7227139999999
 20
213.3594959999999
 30
0.0
 11
282.522717
 21
213.3594959999999
 31
0.0
  0
LINE
  5
9A73
330
992B
100
AcDbEntity
  8
1
  6
Continuous
100
AcDbLine
 10
280.522717
 20
211.3594959999999
 30
0.0
 11
280.522717
 21
202.8594959999999
 31
0.0
  0
ARC
  5
9A74
330
992B
100
AcDbEntity
  8
1
  6
Continuous
100
AcDbCircle
 10
302.5227089999999
 20
187.109496
 30
0.0
 40
70.0
100
AcDbArc
 50
80.263501
 51
99.73652000000001
  0
LINE
  5
9A75
330
992B
100
AcDbEntity
  8
1
  6
Continuous
100
AcDbLine
 10
315.0227089999999
 20
274.3094929999999
 30
0.0
 11
290.0227089999999
 21
274.3094929999999
 31
0.0
  0
LINE
  5
9A76
330
992B
100
AcDbEntity
  8
1
  6
Continuous
100
AcDbLine
 10
331.5227089999999
 20
276.3094929999999
 30
0.0
 11
273.5227089999999
 21
276.3094929999999
 31
0.0
  0
LINE
  5
9A77
330
992B
100
AcDbEntity
  8
1
  6
Continuous
100
AcDbLine
 10
331.5227089999999
 20
279.1094959999999
 30
0.0
 11
273.5227089999999
 21
279.1094959999999
 31
0.0
  0
LINE
  5
9A78
330
992B
100
AcDbEntity
  8
1
  6
Continuous
100
AcDbLine
 10
316.0227089999999
 20
273.3094929999999
 30
0.0
 11
316.0227089999999
 21
260.566494
 31
0.0
  0
ARC
  5
9A79
330
992B
100
AcDbEntity
  8
1
  6
Continuous
100
AcDbCircle
 10
314.0227089999999
 20
254.1300109999999
 30
0.0
 40
2.0
100
AcDbArc
 50
0.00002
 51
80.26348100000001
  0
ARC
  5
9A7A
330
992B
100
AcDbEntity
  8
1
  6
Continuous
100
AcDbCircle
 10
319.0227089999999
 20
255.841545
 30
0.0
 40
2.0
100
AcDbArc
 50
192.83985
 51
255.52249
  0
ARC
  5
9A7B
330
992B
100
AcDbEntity
  8
1
  6
Continuous
100
AcDbCircle
 10
321.0227089999999
 20
260.566494
 30
0.0
 40
5.0
100
AcDbArc
 50
180.0
 51
192.83985
  0
LINE
  5
9A7C
330
992B
100
AcDbEntity
  8
1
  6
Continuous
100
AcDbLine
 10
316.1477389999999
 20
259.4553599999999
 30
0.0
 11
317.0727289999998
 21
255.3970919999999
 31
0.0
  0
LINE
  5
9A7E
330
992B
100
AcDbEntity
  8
1
  6
Continuous
100
AcDbLine
 10
331.5227089999999
 20
279.1094959999999
 30
0.0
 11
331.5227089999999
 21
276.3094929999999
 31
0.0
  0
LINE
  5
9A7F
330
992B
100
AcDbEntity
  8
4
  6
CENTER
 48
0.8
100
AcDbLine
 10
322.522711
 20
284.1094959999998
 30
0.0
 11
322.522711
 21
271.309493
 31
0.0
  0
ARC
  5
9A8E
330
992B
100
AcDbEntity
  8
1
  6
Continuous
100
AcDbCircle
 10
315.0227089999999
 20
273.3094929999999
 30
0.0
 40
1.0
100
AcDbArc
 50
359.9999899999998
 51
89.99999700000001
  0
LINE
  5
9A90
330
992B
100
AcDbEntity
  8
1
  6
Continuous
100
AcDbLine
 10
289.0227089999999
 20
273.3094929999999
 30
0.0
 11
289.0227089999999
 21
260.566494
 31
0.0
  0
ARC
  5
9A9A
330
992B
100
AcDbEntity
  8
1
  6
Continuous
100
AcDbCircle
 10
291.0227089999997
 20
254.1300109999999
 30
0.0
 40
2.0
100
AcDbArc
 50
99.73646600000002
 51
179.999945
  0
ARC
  5
9A9B
330
992B
100
AcDbEntity
  8
1
  6
Continuous
100
AcDbCircle
 10
284.0227089999999
 20
260.566494
 30
0.0
 40
5.0
100
AcDbArc
 50
347.16015
 51
0.00001
  0
ARC
  5
9A9C
330
992B
100
AcDbEntity
  8
1
  6
Continuous
100
AcDbCircle
 10
286.0227089999998
 20
255.841545
 30
0.0
 40
2.0
100
AcDbArc
 50
284.47751
 51
347.16015
  0
LINE
  5
9A9D
330
992B
100
AcDbEntity
  8
1
  6
Continuous
100
AcDbLine
 10
288.897689
 20
259.4553579999999
 30
0.0
 11
287.972709
 21
255.3970899999999
 31
0.0
  0
LINE
  5
9AA6
330
992B
100
AcDbEntity
  8
4
  6
CENTER
 48
0.8
100
AcDbLine
 10
282.522707
 20
284.1094959999998
 30
0.0
 11
282.522707
 21
271.309493
 31
0.0
  0
ARC
  5
9AA7
330
992B
100
AcDbEntity
  8
1
  6
Continuous
100
AcDbCircle
 10
290.0227089999999
 20
273.3094929999999
 30
0.0
 40
1.0
100
AcDbArc
 50
89.99999700000001
 51
180.0
  0
LINE
  5
9AAA
330
992B
100
AcDbEntity
  8
1
  6
Continuous
100
AcDbLine
 10
273.5227089999999
 20
279.1094959999999
 30
0.0
 11
273.5227089999999
 21
276.3094929999999
 31
0.0
  0
ARC
  5
9AAB
330
992B
100
AcDbEntity
  8
1
  6
Continuous
100
AcDbCircle
 10
182.7727089999999
 20
68.27874399999998
 30
0.0
 40
7.969237999999998
100
AcDbArc
 50
245.932151
 51
294.067849
  0
ARC
  5
9AAC
330
992B
100
AcDbEntity
  8
1
  6
Continuous
100
AcDbCircle
 10
176.272709
 20
68.27874399999998
 30
0.0
 40
7.969237999999998
100
AcDbArc
 50
245.932151
 51
294.067849
  0
ARC
  5
9AAD
330
992B
100
AcDbEntity
  8
1
  6
Continuous
100
AcDbCircle
 10
182.7727089999999
 20
367.940248
 30
0.0
 40
7.969237999999998
100
AcDbArc
 50
65.932151
 51
114.0678489999999
  0
ARC
  5
9AAE
330
992B
100
AcDbEntity
  8
1
  6
Continuous
100
AcDbCircle
 10
176.272709
 20
367.940248
 30
0.0
 40
7.969237999999998
100
AcDbArc
 50
65.932151
 51
114.0678489999999
  0
ARC
  5
9ACA
330
992B
100
AcDbEntity
  8
1
  6
Continuous
100
AcDbCircle
 10
425.5227089999998
 20
207.1094959999999
 30
0.0
 40
34.5
100
AcDbArc
 50
119.639887
 51
60.36014000000001
  0
ARC
  5
9ACB
330
992B
100
AcDbEntity
  8
1
  6
Continuous
100
AcDbCircle
 10
425.5227089999998
 20
207.1094959999999
 30
0.0
 40
50.0
100
AcDbArc
 50
114.3275569999999
 51
65.67246
  0
LINE
  5
9ACC
330
992B
100
AcDbEntity
  8
4
  6
CENTER
 48
0.8
100
AcDbLine
 10
425.5227089999998
 20
284.4094909999999
 30
0.0
 11
425.5227089999998
 21
152.109496
 31
0.0
  0
LINE
  5
9ACD
330
992B
100
AcDbEntity
  8
4
  6
CENTER
 48
0.8
100
AcDbLine
 10
481.264008
 20
207.1094959999999
 30
0.0
 11
371.2089349999998
 21
207.1094959999999
 31
0.0
  0
LINE
  5
9ACE
330
992B
100
AcDbEntity
  8
1
  6
Continuous
100
AcDbLine
 10
400.8055259336934
 20
270.8158342600812
 30
0.0
 11
415.7708259999997
 21
204.89561
 31
0.0
  0
LINE
  5
9ACF
330
992B
100
AcDbEntity
  8
1
  6
Continuous
100
AcDbLine
 10
450.239862
 20
270.815791
 30
0.0
 11
435.2745689999999
 21
204.895614
 31
0.0
  0
ARC
  5
9AD0
330
992B
100
AcDbEntity
  8
1
  6
Continuous
100
AcDbCircle
 10
425.522707
 20
260.1094939999999
 30
0.0
 40
5.0
100
AcDbArc
 50
179.9999899999999
 51
0.00001
  0
LINE
  5
9AD1
330
992B
100
AcDbEntity
  8
1
  6
Continuous
100
AcDbLine
 10
420.5227089999998
 20
260.1094939999999
 30
0.0
 11
420.5227089999998
 21
278.109494
 31
0.0
  0
LINE
  5
9AD2
330
992B
100
AcDbEntity
  8
1
  6
Continuous
100
AcDbLine
 10
430.5227069999999
 20
260.1094939999999
 30
0.0
 11
430.5227069999999
 21
278.109494
 31
0.0
  0
ARC
  5
9AD3
330
992B
100
AcDbEntity
  8
1
  6
Continuous
100
AcDbCircle
 10
425.5227089999998
 20
207.1094959999999
 30
0.0
 40
15.5
100
AcDbArc
 50
142.968453
 51
37.03164000000001
  0
ARC
  5
9AD4
330
992B
100
AcDbEntity
  8
1
  6
Continuous
100
AcDbCircle
 10
425.5227089999998
 20
207.1094959999999
 30
0.0
 40
10.0
100
AcDbArc
 50
192.79056
 51
347.2094399999999
  0
LINE
  5
9AD5
330
992B
100
AcDbEntity
  8
1
  6
Continuous
100
AcDbLine
 10
421.209026
 20
259.4968819999999
 30
0.0
 11
430.0366819999998
 21
259.4968819999999
 31
0.0
  0
LINE
  5
9AD6
330
992B
100
AcDbEntity
  8
1
  6
Continuous
100
AcDbLine
 10
419.5227089999998
 20
279.1094959999999
 30
0.0
 11
375.5227089999999
 21
279.1094959999999
 31
0.0
  0
LINE
  5
9AD7
330
992B
100
AcDbEntity
  8
1
  6
Continuous
100
AcDbLine
 10
475.5227089999998
 20
279.1094959999999
 30
0.0
 11
431.522707
 21
279.1094959999999
 31
0.0
  0
LINE
  5
9AD8
330
992B
100
AcDbEntity
  8
1
  6
Continuous
100
AcDbLine
 10
475.5227089999998
 20
276.3094929999999
 30
0.0
 11
457.5227089999998
 21
276.3094929999999
 31
0.0
  0
LINE
  5
9AD9
330
992B
100
AcDbEntity
  8
4
  6
CENTER
 48
0.8
100
AcDbLine
 10
466.522709
 20
284.1094959999998
 30
0.0
 11
466.522709
 21
271.309493
 31
0.0
  0
LINE
  5
9ADA
330
992B
100
AcDbEntity
  8
1
  6
Continuous
100
AcDbLine
 10
475.5227089999998
 20
276.3094929999999
 30
0.0
 11
475.5227089999998
 21
279.1094959999999
 31
0.0
  0
LINE
  5
9AEB
330
992B
100
AcDbEntity
  8
1
  6
Continuous
100
AcDbLine
 10
420.5227049999998
 20
277.1094939999999
 30
0.0
 11
430.5227069999999
 21
277.1094939999999
 31
0.0
  0
ARC
  5
9AEC
330
992B
100
AcDbEntity
  8
1
  6
Continuous
100
AcDbCircle
 10
431.522707
 20
278.109494
 30
0.0
 40
1.0
100
AcDbArc
 50
89.99999700000001
 51
180.0
  0
ARC
  5
9AED
330
992B
100
AcDbEntity
  8
1
  6
Continuous
100
AcDbCircle
 10
419.5227089999998
 20
278.109494
 30
0.0
 40
1.0
100
AcDbArc
 50
359.9999899999998
 51
90.00000400000002
  0
LINE
  5
9AEE
330
992B
100
AcDbEntity
  8
1
  6
Continuous
100
AcDbLine
 10
393.5227089999998
 20
276.3094929999999
 30
0.0
 11
375.5227089999999
 21
276.3094929999999
 31
0.0
  0
LINE
  5
9AFB
330
992B
100
AcDbEntity
  8
4
  6
CENTER
 48
0.8
100
AcDbLine
 10
384.5227089999998
 20
284.1094959999998
 30
0.0
 11
384.5227089999998
 21
271.309493
 31
0.0
  0
LINE
  5
9AFC
330
992B
100
AcDbEntity
  8
1
  6
Continuous
100
AcDbLine
 10
375.5227089999999
 20
276.3094929999999
 30
0.0
 11
375.5227089999999
 21
279.1094959999999
 31
0.0
  0
CIRCLE
  5
9AFD
330
992B
100
AcDbEntity
  8
2
  6
Continuous
100
AcDbCircle
 10
425.5227089999998
 20
207.1094959999999
 30
0.0
 40
3.3235
  0
CIRCLE
  5
9AFE
330
992B
100
AcDbEntity
  8
1
  6
Continuous
100
AcDbCircle
 10
425.5227089999998
 20
207.1094959999999
 30
0.0
 40
4.0
  0
LINE
  5
9AFF
330
992B
100
AcDbEntity
  8
1
  6
Continuous
100
AcDbLine
 10
419.0227089999998
 20
203.3622729999999
 30
0.0
 11
425.5227089999998
 21
199.609496
 31
0.0
  0
LINE
  5
9B00
330
992B
100
AcDbEntity
  8
1
  6
Continuous
100
AcDbLine
 10
419.0227089999998
 20
210.856719
 30
0.0
 11
425.5227089999998
 21
214.609496
 31
0.0
  0
LINE
  5
9B01
330
992B
100
AcDbEntity
  8
1
  6
Continuous
100
AcDbLine
 10
432.0227089999998
 20
203.3622729999999
 30
0.0
 11
432.0227089999998
 21
210.856719
 31
0.0
  0
LINE
  5
9B02
330
992B
100
AcDbEntity
  8
1
  6
Continuous
100
AcDbLine
 10
432.0227089999998
 20
203.3622729999999
 30
0.0
 11
425.5227089999998
 21
199.609496
 31
0.0
  0
LINE
  5
9B03
330
992B
100
AcDbEntity
  8
1
  6
Continuous
100
AcDbLine
 10
432.0227089999998
 20
210.856719
 30
0.0
 11
425.5227089999998
 21
214.609496
 31
0.0
  0
LINE
  5
9B04
330
992B
100
AcDbEntity
  8
1
  6
Continuous
100
AcDbLine
 10
419.0227089999998
 20
203.3622729999999
 30
0.0
 11
419.0227089999998
 21
210.856719
 31
0.0
  0
CIRCLE
  5
9B05
330
992B
100
AcDbEntity
  8
1
  6
Continuous
100
AcDbCircle
 10
425.5227089999998
 20
207.1094959999999
 30
0.0
 40
6.299999999999998
  0
LINE
  5
9B06
330
992B
100
AcDbEntity
  8
2
  6
Continuous
100
AcDbLine
 10
176.1992089999999
 20
377.3859859999998
 30
0.0
 11
176.1992089999999
 21
375.909486
 31
0.0
  0
LINE
  5
9B07
330
992B
100
AcDbEntity
  8
2
  6
Continuous
100
AcDbLine
 10
182.846209
 20
377.3859859999998
 30
0.0
 11
182.846209
 21
375.909486
 31
0.0
  0
LINE
  5
9B08
330
992B
100
AcDbEntity
  8
1
  6
Continuous
100
AcDbLine
 10
183.522709
 20
376.7094859999998
 30
0.0
 11
183.522709
 21
375.909486
 31
0.0
  0
LINE
  5
9B09
330
992B
100
AcDbEntity
  8
1
  6
Continuous
100
AcDbLine
 10
175.5227089999999
 20
376.7094859999998
 30
0.0
 11
175.5227089999999
 21
375.909486
 31
0.0
  0
LINE
  5
9B0A
330
992B
100
AcDbEntity
  8
1
  6
Continuous
100
AcDbLine
 10
175.5227089999999
 20
376.7094859999998
 30
0.0
 11
183.522709
 21
376.7094859999998
 31
0.0
  0
LINE
  5
9B0B
330
992B
100
AcDbEntity
  8
1
  6
Continuous
100
AcDbLine
 10
176.722709
 20
377.909486
 30
0.0
 11
182.3227089999998
 21
377.909486
 31
0.0
  0
LINE
  5
9B0C
330
992B
100
AcDbEntity
  8
1
  6
Continuous
100
AcDbLine
 10
176.722709
 20
377.909486
 30
0.0
 11
175.5227089999999
 21
376.7094859999998
 31
0.0
  0
LINE
  5
9B0D
330
992B
100
AcDbEntity
  8
1
  6
Continuous
100
AcDbLine
 10
182.3227089999998
 20
377.909486
 30
0.0
 11
183.522709
 21
376.7094859999998
 31
0.0
  0
LINE
  5
9B0E
330
992B
100
AcDbEntity
  8
1
  6
Continuous
100
AcDbLine
 10
30.722719
 20
204.3094959999999
 30
0.0
 11
30.722719
 21
209.9094959999999
 31
0.0
  0
LINE
  5
9B0F
330
992B
100
AcDbEntity
  8
1
  6
Continuous
100
AcDbLine
 10
30.722719
 20
209.9094959999999
 30
0.0
 11
31.922719
 21
211.1094959999999
 31
0.0
  0
LINE
  5
9B10
330
992B
100
AcDbEntity
  8
2
  6
Continuous
100
AcDbLine
 10
31.246219
 20
210.432996
 30
0.0
 11
32.72271899999999
 21
210.432996
 31
0.0
  0
LINE
  5
9B11
330
992B
100
AcDbEntity
  8
1
  6
Continuous
100
AcDbLine
 10
31.922719
 20
211.1094959999999
 30
0.0
 11
32.72271899999999
 21
211.1094959999999
 31
0.0
  0
LINE
  5
9B12
330
992B
100
AcDbEntity
  8
2
  6
Continuous
100
AcDbLine
 10
31.246219
 20
203.785996
 30
0.0
 11
32.72271899999999
 21
203.785996
 31
0.0
  0
LINE
  5
9B13
330
992B
100
AcDbEntity
  8
1
  6
Continuous
100
AcDbLine
 10
31.922719
 20
203.1094959999999
 30
0.0
 11
32.72271899999999
 21
203.1094959999999
 31
0.0
  0
LINE
  5
9B14
330
992B
100
AcDbEntity
  8
1
  6
Continuous
100
AcDbLine
 10
31.922719
 20
203.1094959999999
 30
0.0
 11
31.922719
 21
211.1094959999999
 31
0.0
  0
LINE
  5
9B15
330
992B
100
AcDbEntity
  8
1
  6
Continuous
100
AcDbLine
 10
30.722719
 20
204.3094959999999
 30
0.0
 11
31.922719
 21
203.1094959999999
 31
0.0
  0
LINE
  5
9B16
330
992B
100
AcDbEntity
  8
1
  6
Continuous
100
AcDbLine
 10
327.122699
 20
203.1094959999999
 30
0.0
 11
327.122699
 21
211.1094959999999
 31
0.0
  0
LINE
  5
9B17
330
992B
100
AcDbEntity
  8
1
  6
Continuous
100
AcDbLine
 10
328.322699
 20
204.3094959999999
 30
0.0
 11
328.322699
 21
209.9094959999999
 31
0.0
  0
LINE
  5
9B18
330
992B
100
AcDbEntity
  8
1
  6
Continuous
100
AcDbLine
 10
328.322699
 20
204.3094959999999
 30
0.0
 11
327.122699
 21
203.1094959999999
 31
0.0
  0
LINE
  5
9B19
330
992B
100
AcDbEntity
  8
1
  6
Continuous
100
AcDbLine
 10
327.122699
 20
203.1094959999999
 30
0.0
 11
326.322699
 21
203.1094959999999
 31
0.0
  0
LINE
  5
9B1A
330
992B
100
AcDbEntity
  8
4
  6
CENTER
 48
0.8
100
AcDbLine
 10
328.322699
 20
207.1094959999999
 30
0.0
 11
326.322699
 21
207.1094959999999
 31
0.0
  0
LINE
  5
9B1B
330
992B
100
AcDbEntity
  8
2
  6
Continuous
100
AcDbLine
 10
327.7991989999998
 20
203.785996
 30
0.0
 11
326.322699
 21
203.785996
 31
0.0
  0
LINE
  5
9B1C
330
992B
100
AcDbEntity
  8
1
  6
Continuous
100
AcDbLine
 10
327.122699
 20
211.1094959999999
 30
0.0
 11
326.322699
 21
211.1094959999999
 31
0.0
  0
LINE
  5
9B1D
330
992B
100
AcDbEntity
  8
2
  6
Continuous
100
AcDbLine
 10
327.7991989999998
 20
210.432996
 30
0.0
 11
326.322699
 21
210.432996
 31
0.0
  0
LINE
  5
9B1E
330
992B
100
AcDbEntity
  8
1
  6
Continuous
100
AcDbLine
 10
328.322699
 20
209.9094959999999
 30
0.0
 11
327.122699
 21
211.1094959999999
 31
0.0
  0
LINE
  5
9B1F
330
992B
100
AcDbEntity
  8
1
  6
Continuous
100
AcDbLine
 10
182.3227089999998
 20
58.30950600000001
 30
0.0
 11
183.522709
 21
59.50950600000001
 31
0.0
  0
LINE
  5
9B20
330
992B
100
AcDbEntity
  8
2
  6
Continuous
100
AcDbLine
 10
182.846209
 20
58.833006
 30
0.0
 11
182.846209
 21
60.309506
 31
0.0
  0
LINE
  5
9B21
330
992B
100
AcDbEntity
  8
1
  6
Continuous
100
AcDbLine
 10
183.522709
 20
59.50950600000001
 30
0.0
 11
183.522709
 21
60.309506
 31
0.0
  0
LINE
  5
9B22
330
992B
100
AcDbEntity
  8
2
  6
Continuous
100
AcDbLine
 10
176.1992089999999
 20
58.833006
 30
0.0
 11
176.1992089999999
 21
60.309506
 31
0.0
  0
LINE
  5
9B23
330
992B
100
AcDbEntity
  8
1
  6
Continuous
100
AcDbLine
 10
175.5227089999999
 20
59.50950600000001
 30
0.0
 11
175.5227089999999
 21
60.309506
 31
0.0
  0
LINE
  5
9B24
330
992B
100
AcDbEntity
  8
1
  6
Continuous
100
AcDbLine
 10
176.722709
 20
58.30950600000001
 30
0.0
 11
175.5227089999999
 21
59.50950600000001
 31
0.0
  0
LINE
  5
9B25
330
992B
100
AcDbEntity
  8
1
  6
Continuous
100
AcDbLine
 10
176.722709
 20
58.30950600000001
 30
0.0
 11
182.3227089999998
 21
58.30950600000001
 31
0.0
  0
LINE
  5
9B26
330
992B
100
AcDbEntity
  8
1
  6
Continuous
100
AcDbLine
 10
175.5227089999999
 20
59.50950600000001
 30
0.0
 11
183.522709
 21
59.50950600000001
 31
0.0
  0
CIRCLE
  5
9B27
330
992B
100
AcDbEntity
  8
1
  6
Continuous
100
AcDbCircle
 10
425.5227089999998
 20
207.1094959999999
 30
0.0
 40
2.799999999999998
  0
ARC
  5
9CF8
330
992B
100
AcDbEntity
  8
1
  6
Continuous
100
AcDbCircle
 10
77.52270900000002
 20
268.3094929999999
 30
0.0
 40
5.0
100
AcDbArc
 50
116.1039490000011
 51
180.0
  0
ARC
  5
9CF9
330
992B
100
AcDbEntity
  8
1
  6
Continuous
100
AcDbCircle
 10
35.52270899999996
 20
268.3094929999999
 30
0.0
 40
5.0
100
AcDbArc
 50
0.0
 51
63.8960509999989
  0
ARC
  5
9D1B
330
992B
100
AcDbEntity
  8
1
  6
Continuous
100
AcDbCircle
 10
39.55093177090401
 20
281.6428122872721
 30
0.0
 40
9.131693034887046
100
AcDbArc
 50
236.6975294661725
 51
251.8707568688801
  0
ARC
  5
9D1C
330
992B
100
AcDbEntity
  8
1
  6
Continuous
100
AcDbCircle
 10
33.22271899999999
 20
276.3094929999999
 30
0.0
 40
1.5
100
AcDbArc
 50
179.9999599999992
 51
244.263088120952
  0
LINE
  5
9D1D
330
992B
100
AcDbEntity
  8
1
  6
Continuous
100
AcDbLine
 10
32.57135975172673
 20
274.9582968152477
 30
0.0
 11
34.53709483413485
 21
274.0106922112452
 31
0.0
  0
ARC
  5
9D1E
330
992B
100
AcDbEntity
  8
1
  6
Continuous
100
AcDbCircle
 10
32.10874916023107
 20
269.6860136332744
 30
0.0
 40
5.649337412163668
100
AcDbArc
 50
6.414581591874084
 51
35.47313240629273
  0
ARC
  5
9D1F
330
992B
100
AcDbEntity
  8
1
  6
Continuous
100
AcDbCircle
 10
38.15910457063996
 20
278.6738714667182
 30
0.0
 40
5.890578941823518
100
AcDbArc
 50
255.7538245114332
 51
265.7514792064972
  0
ARC
  5
9D21
330
992B
100
AcDbEntity
  8
1
  6
Continuous
100
AcDbCircle
 10
73.49448622909597
 20
281.6428122872721
 30
0.0
 40
9.131693034887046
100
AcDbArc
 50
288.1292431311198
 51
303.3024705338275
  0
ARC
  5
9D24
330
992B
100
AcDbEntity
  8
1
  6
Continuous
100
AcDbCircle
 10
74.88631342936002
 20
278.6738714667182
 30
0.0
 40
5.890578941823518
100
AcDbArc
 50
274.2485207935028
 51
284.2461754885668
  0
ARC
  5
9D25
330
992B
100
AcDbEntity
  8
1
  6
Continuous
100
AcDbCircle
 10
80.93666883976892
 20
269.6860136332744
 30
0.0
 40
5.649337412163668
100
AcDbArc
 50
144.5268675937072
 51
173.5854184081259
  0
LINE
  5
9D27
330
992B
100
AcDbEntity
  8
1
  6
Continuous
100
AcDbLine
 10
80.47405824827331
 20
274.9582968152477
 30
0.0
 11
78.50832316586512
 21
274.0106922112452
 31
0.0
  0
ARC
  5
9D28
330
992B
100
AcDbEntity
  8
1
  6
Continuous
100
AcDbCircle
 10
79.822699
 20
276.3094929999999
 30
0.0
 40
1.5
100
AcDbArc
 50
295.7369118790479
 51
0.0000400000007688
  0
ARC
  5
9D29
330
992B
100
AcDbEntity
  8
1
  6
Continuous
100
AcDbCircle
 10
207.284420307288
 20
268.7701944674343
 30
0.0
 40
3.667941435111066
100
AcDbArc
 50
127.4488060261418
 51
146.1025708029587
  0
ARC
  5
9D3D
330
992B
100
AcDbEntity
  8
1
  6
Continuous
100
AcDbCircle
 10
148.4450249999998
 20
276.291697
 30
0.0
 40
2.799999999999998
100
AcDbArc
 50
0.038448999999278
 51
87.37220099999884
  0
ARC
  5
9D3E
330
992B
100
AcDbEntity
  8
1
  6
Continuous
100
AcDbCircle
 10
156.335465496199
 20
276.2016664790365
 30
0.0
 40
5.091271156231088
100
AcDbArc
 50
178.9656190858294
 51
242.5852240817362
  0
ARC
  5
9D3F
330
992B
100
AcDbEntity
  8
1
  6
Continuous
100
AcDbCircle
 10
147.5276866956139
 20
268.8843196684761
 30
0.0
 40
7.425175
100
AcDbArc
 50
59.1805830463564
 51
90.03841000000091
  0
ARC
  5
9D40
330
992B
100
AcDbEntity
  8
1
  6
Continuous
100
AcDbCircle
 10
151.760997692712
 20
268.7701944674343
 30
0.0
 40
3.667941435111066
100
AcDbArc
 50
33.8966150779649
 51
52.55119397385819
  0
ARC
  5
9D44
330
992B
100
AcDbEntity
  8
1
  6
Continuous
100
AcDbCircle
 10
281.5227089999999
 20
268.3094929999999
 30
0.0
 40
5.0
100
AcDbArc
 50
0.0
 51
63.8960509999989
  0
ARC
  5
9D52
330
992B
100
AcDbEntity
  8
1
  6
Continuous
100
AcDbCircle
 10
210.6003930000001
 20
276.291697
 30
0.0
 40
2.799999999999998
100
AcDbArc
 50
92.62779900000117
 51
179.9615510000007
  0
ARC
  5
9D53
330
992B
100
AcDbEntity
  8
1
  6
Continuous
100
AcDbCircle
 10
211.517731304386
 20
268.8843196684761
 30
0.0
 40
7.425175
100
AcDbArc
 50
89.96158999999909
 51
120.8194169536435
  0
ARC
  5
9D54
330
992B
100
AcDbEntity
  8
1
  6
Continuous
100
AcDbCircle
 10
202.709952503801
 20
276.2016664790365
 30
0.0
 40
5.091271156231088
100
AcDbArc
 50
297.4147759182637
 51
1.034380914170569
  0
LINE
  5
9D59
330
992B
100
AcDbEntity
  8
1
  6
Continuous
100
AcDbLine
 10
278.5713597517266
 20
274.9582968152477
 30
0.0
 11
280.5370948341348
 21
274.0106922112452
 31
0.0
  0
ARC
  5
9D5A
330
992B
100
AcDbEntity
  8
1
  6
Continuous
100
AcDbCircle
 10
279.2227189999999
 20
276.3094929999999
 30
0.0
 40
1.5
100
AcDbArc
 50
179.9999599999992
 51
244.263088120952
  0
ARC
  5
9D5B
330
992B
100
AcDbEntity
  8
1
  6
Continuous
100
AcDbCircle
 10
284.1591045706399
 20
278.6738714667182
 30
0.0
 40
5.890578941823518
100
AcDbArc
 50
255.7538245114332
 51
265.7514792064972
  0
ARC
  5
9D5C
330
992B
100
AcDbEntity
  8
1
  6
Continuous
100
AcDbCircle
 10
278.108749160231
 20
269.6860136332744
 30
0.0
 40
5.649337412163668
100
AcDbArc
 50
6.414581591874084
 51
35.47313240629273
  0
ARC
  5
9D5D
330
992B
100
AcDbEntity
  8
1
  6
Continuous
100
AcDbCircle
 10
285.5509317709039
 20
281.6428122872721
 30
0.0
 40
9.131693034887046
100
AcDbArc
 50
236.6975294661725
 51
251.8707568688801
  0
ARC
  5
9D9D
330
992B
100
AcDbEntity
  8
1
  6
Continuous
100
AcDbCircle
 10
323.5227089999999
 20
268.3094929999999
 30
0.0
 40
5.0
100
AcDbArc
 50
116.1039490000011
 51
180.0
  0
ARC
  5
9DB2
330
992B
100
AcDbEntity
  8
1
  6
Continuous
100
AcDbCircle
 10
325.822699
 20
276.3094929999999
 30
0.0
 40
1.5
100
AcDbArc
 50
295.7369118790479
 51
0.0000400000007688
  0
LINE
  5
9DB3
330
992B
100
AcDbEntity
  8
1
  6
Continuous
100
AcDbLine
 10
326.4740582482732
 20
274.9582968152477
 30
0.0
 11
324.508323165865
 21
274.0106922112452
 31
0.0
  0
ARC
  5
9DB4
330
992B
100
AcDbEntity
  8
1
  6
Continuous
100
AcDbCircle
 10
326.9366688397689
 20
269.6860136332744
 30
0.0
 40
5.649337412163668
100
AcDbArc
 50
144.5268675937072
 51
173.5854184081259
  0
ARC
  5
9DB5
330
992B
100
AcDbEntity
  8
1
  6
Continuous
100
AcDbCircle
 10
320.8863134293599
 20
278.6738714667182
 30
0.0
 40
5.890578941823518
100
AcDbArc
 50
274.2485207935028
 51
284.2461754885668
  0
ARC
  5
9DB6
330
992B
100
AcDbEntity
  8
1
  6
Continuous
100
AcDbCircle
 10
319.4944862290959
 20
281.6428122872721
 30
0.0
 40
9.131693034887046
100
AcDbArc
 50
288.1292431311198
 51
303.3024705338275
  0
ARC
  5
9DC5
330
992B
100
AcDbEntity
  8
1
  6
Continuous
100
AcDbCircle
 10
394.4450249999997
 20
276.291697
 30
0.0
 40
2.799999999999998
100
AcDbArc
 50
0.038448999999278
 51
87.37220099999884
  0
ARC
  5
9DC6
330
992B
100
AcDbEntity
  8
1
  6
Continuous
100
AcDbCircle
 10
393.5276866956138
 20
268.8843196684761
 30
0.0
 40
7.425175
100
AcDbArc
 50
59.1805830463564
 51
90.03841000000091
  0
ARC
  5
9DC7
330
992B
100
AcDbEntity
  8
1
  6
Continuous
100
AcDbCircle
 10
397.7609976927118
 20
268.7701944674343
 30
0.0
 40
3.667941435111066
100
AcDbArc
 50
33.8974291969644
 51
52.55119397385819
  0
ARC
  5
9DC8
330
992B
100
AcDbEntity
  8
1
  6
Continuous
100
AcDbCircle
 10
402.3354654961988
 20
276.2016664790365
 30
0.0
 40
5.091271156231088
100
AcDbArc
 50
178.9656190858294
 51
242.5852240817362
  0
ARC
  5
9DCD
330
992B
100
AcDbEntity
  8
1
  6
Continuous
100
AcDbCircle
 10
456.6003929999998
 20
276.291697
 30
0.0
 40
2.799999999999998
100
AcDbArc
 50
92.62779900000117
 51
179.9615510000007
  0
ARC
  5
9DCE
330
992B
100
AcDbEntity
  8
1
  6
Continuous
100
AcDbCircle
 10
448.7099525038009
 20
276.2016664790365
 30
0.0
 40
5.091271156231088
100
AcDbArc
 50
297.4147759182637
 51
1.034380914170569
  0
ARC
  5
9DCF
330
992B
100
AcDbEntity
  8
1
  6
Continuous
100
AcDbCircle
 10
457.5177313043858
 20
268.8843196684761
 30
0.0
 40
7.425175
100
AcDbArc
 50
89.96158999999909
 51
120.8194169536435
  0
ARC
  5
9DD0
330
992B
100
AcDbEntity
  8
1
  6
Continuous
100
AcDbCircle
 10
453.2844203072878
 20
268.7701944674343
 30
0.0
 40
3.667941435111066
100
AcDbArc
 50
127.4488060261418
 51
146.103384922035
  0
ENDSEC
  0
SECTION
  2
OBJECTS
  0
DICTIONARY
  5
9919
330
0
100
AcDbDictionary
281
     1
  3
ACAD_CIP_PREVIOUS_PRODUCT_INFO
350
9E36
  3
ACAD_COLOR
350
9E18
  3
ACAD_DETAILVIEWSTYLE
350
9E31
  3
ACAD_GROUP
350
991A
  3
ACAD_LAYOUT
350
9926
  3
ACAD_MATERIAL
350
9DE6
  3
ACAD_MLEADERSTYLE
350
9E2D
  3
ACAD_MLINESTYLE
350
9923
  3
ACAD_PLOTSETTINGS
350
9925
  3
ACAD_PLOTSTYLENAME
350
9DE4
  3
ACAD_SCALELIST
350
9E1B
  3
ACAD_SECTIONVIEWSTYLE
350
9E2F
  3
ACAD_TABLESTYLE
350
9E19
  3
ACAD_VISUALSTYLE
350
9DFF
  3
ACDB_RECOMPOSE_DATA
350
9E54
  3
AcDbVariableDictionary
350
9E47
  3
DWGPROPS
350
9E55
  0
DICTIONARY
  5
9E37
330
991D
100
AcDbDictionary
280
     1
281
     1
  3
ADSK_XREC_LAYER_RECONCILED
360
9E38
  0
DICTIONARY
  5
9E39
330
9933
100
AcDbDictionary
280
     1
281
     1
  3
ADSK_XREC_LAYER_RECONCILED
360
9E3A
  0
DICTIONARY
  5
9E3B
330
9934
100
AcDbDictionary
280
     1
281
     1
  3
ADSK_XREC_LAYER_RECONCILED
360
9E3C
  0
DICTIONARY
  5
9E3D
330
9935
100
AcDbDictionary
280
     1
281
     1
  3
ADSK_XREC_LAYER_RECONCILED
360
9E3E
  0
DICTIONARY
  5
9E3F
330
9936
100
AcDbDictionary
280
     1
281
     1
  3
ADSK_XREC_LAYER_RECONCILED
360
9E40
  0
DICTIONARY
  5
9E41
330
9937
100
AcDbDictionary
280
     1
281
     1
  3
ADSK_XREC_LAYER_RECONCILED
360
9E42
  0
DICTIONARY
  5
9E43
330
9938
100
AcDbDictionary
280
     1
281
     1
  3
ADSK_XREC_LAYER_RECONCILED
360
9E44
  0
DICTIONARY
  5
9E45
330
9939
100
AcDbDictionary
280
     1
281
     1
  3
ADSK_XREC_LAYER_RECONCILED
360
9E46
  0
DICTIONARY
  5
9B32
330
992B
100
AcDbDictionary
281
     1
  3
ACAD_LAYOUTSELFREF
350
9DE0
  0
DICTIONARY
  5
9B30
330
9927
100
AcDbDictionary
281
     1
  3
ACAD_LAYOUTSELFREF
350
9DDF
  0
XRECORD
  5
9E36
102
{ACAD_REACTORS
330
9919
102
}
330
9919
100
AcDbXrecord
280
     1
300
ACDLT
300
2014
300
ACDLT_F_S
  0
DICTIONARY
  5
9E18
102
{ACAD_REACTORS
330
9919
102
}
330
9919
100
AcDbDictionary
281
     1
  0
DICTIONARY
  5
9E31
102
{ACAD_REACTORS
330
9919
102
}
330
9919
100
AcDbDictionary
281
     1
  3
Imperial24
350
9E32
  0
DICTIONARY
  5
991A
102
{ACAD_REACTORS
330
9919
102
}
330
9919
100
AcDbDictionary
281
     1
  0
DICTIONARY
  5
9926
102
{ACAD_REACTORS
330
9919
102
}
330
9919
100
AcDbDictionary
281
     1
  3
Model
350
9E33
  3
レイアウト1
350
9E34
  0
DICTIONARY
  5
9DE6
102
{ACAD_REACTORS
330
9919
102
}
330
9919
100
AcDbDictionary
281
     1
  3
ByBlock
350
9DEF
  3
ByLayer
350
9DE7
  3
Global
350
9DF7
  0
DICTIONARY
  5
9E2D
102
{ACAD_REACTORS
330
9919
102
}
330
9919
100
AcDbDictionary
281
     1
  3
Standard
350
9E2E
  0
DICTIONARY
  5
9923
102
{ACAD_REACTORS
330
9919
102
}
330
9919
100
AcDbDictionary
281
     1
  3
STANDARD
350
9924
  0
DICTIONARY
  5
9925
102
{ACAD_REACTORS
330
9919
102
}
330
9919
100
AcDbDictionary
281
     1
  0
ACDBDICTIONARYWDFLT
  5
9DE4
102
{ACAD_REACTORS
330
9919
102
}
330
9919
100
AcDbDictionary
281
     1
  3
Normal
350
9DE5
100
AcDbDictionaryWithDefault
340
9DE5
  0
DICTIONARY
  5
9E1B
102
{ACAD_REACTORS
330
9919
102
}
330
9919
100
AcDbDictionary
281
     1
  3
A0
350
9E1C
  3
A1
350
9E1D
  3
A2
350
9E1E
  3
A3
350
9E1F
  3
A4
350
9E20
  3
A5
350
9E21
  3
A6
350
9E22
  3
A7
350
9E23
  3
A8
350
9E24
  3
A9
350
9E25
  3
B0
350
9E26
  3
B1
350
9E27
  3
B2
350
9E28
  3
B3
350
9E29
  3
B4
350
9E2A
  3
B5
350
9E2B
  3
B6
350
9E2C
  0
DICTIONARY
  5
9E2F
102
{ACAD_REACTORS
330
9919
102
}
330
9919
100
AcDbDictionary
281
     1
  3
Imperial24
350
9E30
  0
DICTIONARY
  5
9E19
102
{ACAD_REACTORS
330
9919
102
}
330
9919
100
AcDbDictionary
281
     1
  3
Standard
350
9E1A
  0
DICTIONARY
  5
9DFF
102
{ACAD_REACTORS
330
9919
102
}
330
9919
100
AcDbDictionary
281
     1
  3
2dWireframe
350
9E05
  3
Basic
350
9E04
  3
Brighten
350
9E0B
  3
ColorChange
350
9E0F
  3
Conceptual
350
9E08
  3
Dim
350
9E0A
  3
EdgeColorOff
350
9E17
  3
Facepattern
350
9E0E
  3
Flat
350
9E00
  3
FlatWithEdges
350
9E01
  3
Gouraud
350
9E02
  3
GouraudWithEdges
350
9E03
  3
Hidden
350
9E07
  3
JitterOff
350
9E15
  3
Linepattern
350
9E0D
  3
OverhangOff
350
9E16
  3
Realistic
350
9E09
  3
Shaded
350
9E14
  3
Shaded with edges
350
9E13
  3
Shades of Gray
350
9E10
  3
Sketchy
350
9E11
  3
Thicken
350
9E0C
  3
Wireframe
350
9E06
  3
X-Ray
350
9E12
  0
XRECORD
  5
9E54
102
{ACAD_REACTORS
330
9919
102
}
330
9919
100
AcDbXrecord
280
     1
 90
        1
330
9E1A
  0
DICTIONARY
  5
9E47
102
{ACAD_REACTORS
330
9919
102
}
330
9919
100
AcDbDictionary
281
     1
  3
CANNOSCALE
350
9E4C
  3
CMLEADERSTYLE
350
9E49
  3
CTABLESTYLE
350
9E48
  3
CVIEWDETAILSTYLE
350
9E4A
  3
CVIEWSECTIONSTYLE
350
9E4B
  3
DIMASSOC
350
9E4F
  3
INDEXCTL
350
9E4E
  3
SORTENTS
350
9E4D
  3
XCLIPFRAME
350
9E50
  0
XRECORD
  5
9E55
102
{ACAD_REACTORS
330
9919
102
}
330
9919
100
AcDbXrecord
280
     1
  1
DWGPROPS COOKIE
  2

  3

  4

  6

  7

  8
Yoshitsune
  9

300
=
301
=
302
=
303
=
304
=
305
=
306
=
307
=
308
=
309
=
 40
0.1131435185185185
 41
2451301.455463658
 42
2457192.690205047
  1

 90
        0
  0
XRECORD
  5
9E38
102
{ACAD_REACTORS
330
9E37
102
}
330
9E37
100
AcDbXrecord
280
     1
290
     1
  0
XRECORD
  5
9E3A
102
{ACAD_REACTORS
330
9E39
102
}
330
9E39
100
AcDbXrecord
280
     1
290
     1
  0
XRECORD
  5
9E3C
102
{ACAD_REACTORS
330
9E3B
102
}
330
9E3B
100
AcDbXrecord
280
     1
290
     1
  0
XRECORD
  5
9E3E
102
{ACAD_REACTORS
330
9E3D
102
}
330
9E3D
100
AcDbXrecord
280
     1
290
     1
  0
XRECORD
  5
9E40
102
{ACAD_REACTORS
330
9E3F
102
}
330
9E3F
100
AcDbXrecord
280
     1
290
     1
  0
XRECORD
  5
9E42
102
{ACAD_REACTORS
330
9E41
102
}
330
9E41
100
AcDbXrecord
280
     1
290
     1
  0
XRECORD
  5
9E44
102
{ACAD_REACTORS
330
9E43
102
}
330
9E43
100
AcDbXrecord
280
     1
290
     1
  0
XRECORD
  5
9E46
102
{ACAD_REACTORS
330
9E45
102
}
330
9E45
100
AcDbXrecord
280
     1
290
     1
  0
XRECORD
  5
9DE0
102
{ACAD_REACTORS
330
9B32
102
}
330
9B32
100
AcDbXrecord
280
     1
340
992B
  0
XRECORD
  5
9DDF
102
{ACAD_REACTORS
330
9B30
102
}
330
9B30
100
AcDbXrecord
280
     1
340
9927
  0
ACDBDETAILVIEWSTYLE
  5
9E32
102
{ACAD_XDICTIONARY
360
9E8D
102
}
102
{ACAD_REACTORS
330
9E31
102
}
330
9E31
100
AcDbModelDocViewStyle
 70
     0
  3
Imperial24
290
     0
100
AcDbDetailViewStyle
 70
     0
 71
     0
 90
        3
 71
     1
340
991E
 40
0.24
340
0
 40
0.24
300

 40
0.36
280
     3
 71
     2
340
9922
 90
       25
 71
     3
340
991E
 40
0.24
 90
        1
 40
0.75
 90
        1
300
%<\AcVar ViewType \f "%tc1">% %<\AcVar ViewDetailId>%\PSCALE %<\AcVar ViewScale \f "%sn">%
 71
     4
340
9922
 90
       25
340
9922
 90
       25
280
     0
  0
LAYOUT
  5
9E33
102
{ACAD_XDICTIONARY
360
9E8F
102
}
102
{ACAD_REACTORS
330
9926
102
}
330
9926
100
AcDbPlotSettings
  1

  2
Canon LBP9100C
  4

  6

 40
0.0
 41
0.0
 42
0.0
 43
0.0
 44
0.0
 45
0.0
 46
0.0
 47
0.0
 48
0.0
 49
0.0
140
0.0
141
0.0
142
1.0
143
1.0
 70
  1712
 72
     0
 73
     0
 74
     0
  7

 75
     0
147
1.0
148
0.0
149
0.0
100
AcDbLayout
  1
Model
 70
     1
 71
     0
 10
0.0
 20
0.0
 11
12.0
 21
9.0
 12
0.0
 22
0.0
 32
0.0
 14
0.0
 24
0.0
 34
0.0
 15
0.0
 25
0.0
 35
0.0
146
0.0
 13
0.0
 23
0.0
 33
0.0
 16
1.0
 26
0.0
 36
0.0
 17
0.0
 27
1.0
 37
0.0
 76
     0
330
992B
331
9DDE
  0
LAYOUT
  5
9E34
102
{ACAD_XDICTIONARY
360
9E91
102
}
102
{ACAD_REACTORS
330
9926
102
}
330
9926
100
AcDbPlotSettings
  1

  2
Canon LBP9100C
  4

  6

 40
0.0
 41
0.0
 42
0.0
 43
0.0
 44
0.0
 45
0.0
 46
0.0
 47
0.0
 48
0.0
 49
0.0
140
0.0
141
0.0
142
1.0
143
1.0
 70
   688
 72
     0
 73
     0
 74
     5
  7

 75
    16
147
1.0
148
0.0
149
0.0
100
AcDbLayout
  1
レイアウト1
 70
     0
 71
     1
 10
0.0
 20
0.0
 11
420.0
 21
297.0
 12
0.0
 22
0.0
 32
0.0
 14
1.000000000000000E+20
 24
1.000000000000000E+20
 34
1.000000000000000E+20
 15
-1.000000000000000E+20
 25
-1.000000000000000E+20
 35
-1.000000000000000E+20
146
0.0
 13
0.0
 23
0.0
 33
0.0
 16
1.0
 26
0.0
 36
0.0
 17
0.0
 27
1.0
 37
0.0
 76
     0
330
9927
  0
MATERIAL
  5
9DEF
102
{ACAD_XDICTIONARY
360
9DF0
102
}
102
{ACAD_REACTORS
330
9DE6
102
}
330
9DE6
100
AcDbMaterial
  1
ByBlock
 72
     0
 43
0.0208333333333333
 43
0.0
 43
0.0
 43
0.0
 43
0.0
 43
0.0208333333333333
 43
0.0
 43
0.0
 43
0.0
 43
0.0
 43
1.0
 43
0.0
 43
0.0
 43
0.0
 43
0.0
 43
1.0
 77
     0
 47
0.0208333333333333
 47
0.0
 47
0.0
 47
0.0
 47
0.0
 47
0.0208333333333333
 47
0.0
 47
0.0
 47
0.0
 47
0.0
 47
1.0
 47
0.0
 47
0.0
 47
0.0
 47
0.0
 47
1.0
171
     0
 49
0.0208333333333333
 49
0.0
 49
0.0
 49
0.0
 49
0.0
 49
0.0208333333333333
 49
0.0
 49
0.0
 49
0.0
 49
0.0
 49
1.0
 49
0.0
 49
0.0
 49
0.0
 49
0.0
 49
1.0
175
     0
142
0.0208333333333333
142
0.0
142
0.0
142
0.0
142
0.0
142
0.0208333333333333
142
0.0
142
0.0
142
0.0
142
0.0
142
1.0
142
0.0
142
0.0
142
0.0
142
0.0
142
1.0
179
     0
144
0.0208333333333333
144
0.0
144
0.0
144
0.0
144
0.0
144
0.0208333333333333
144
0.0
144
0.0
144
0.0
144
0.0
144
1.0
144
0.0
144
0.0
144
0.0
144
0.0
144
1.0
147
0.0208333333333333
147
0.0
147
0.0
147
0.0
147
0.0
147
0.0208333333333333
147
0.0
147
0.0
147
0.0
147
0.0
147
1.0
147
0.0
147
0.0
147
0.0
147
0.0
147
1.0
  0
MATERIAL
  5
9DE7
102
{ACAD_XDICTIONARY
360
9DE8
102
}
102
{ACAD_REACTORS
330
9DE6
102
}
330
9DE6
100
AcDbMaterial
  1
ByLayer
 72
     0
 43
0.0208333333333333
 43
0.0
 43
0.0
 43
0.0
 43
0.0
 43
0.0208333333333333
 43
0.0
 43
0.0
 43
0.0
 43
0.0
 43
1.0
 43
0.0
 43
0.0
 43
0.0
 43
0.0
 43
1.0
 77
     0
 47
0.0208333333333333
 47
0.0
 47
0.0
 47
0.0
 47
0.0
 47
0.0208333333333333
 47
0.0
 47
0.0
 47
0.0
 47
0.0
 47
1.0
 47
0.0
 47
0.0
 47
0.0
 47
0.0
 47
1.0
171
     0
 49
0.0208333333333333
 49
0.0
 49
0.0
 49
0.0
 49
0.0
 49
0.0208333333333333
 49
0.0
 49
0.0
 49
0.0
 49
0.0
 49
1.0
 49
0.0
 49
0.0
 49
0.0
 49
0.0
 49
1.0
175
     0
142
0.0208333333333333
142
0.0
142
0.0
142
0.0
142
0.0
142
0.0208333333333333
142
0.0
142
0.0
142
0.0
142
0.0
142
1.0
142
0.0
142
0.0
142
0.0
142
0.0
142
1.0
179
     0
144
0.0208333333333333
144
0.0
144
0.0
144
0.0
144
0.0
144
0.0208333333333333
144
0.0
144
0.0
144
0.0
144
0.0
144
1.0
144
0.0
144
0.0
144
0.0
144
0.0
144
1.0
147
0.0208333333333333
147
0.0
147
0.0
147
0.0
147
0.0
147
0.0208333333333333
147
0.0
147
0.0
147
0.0
147
0.0
147
1.0
147
0.0
147
0.0
147
0.0
147
0.0
147
1.0
  0
MATERIAL
  5
9DF7
102
{ACAD_XDICTIONARY
360
9DF8
102
}
102
{ACAD_REACTORS
330
9DE6
102
}
330
9DE6
100
AcDbMaterial
  1
Global
 72
     0
 43
0.0208333333333333
 43
0.0
 43
0.0
 43
0.0
 43
0.0
 43
0.0208333333333333
 43
0.0
 43
0.0
 43
0.0
 43
0.0
 43
1.0
 43
0.0
 43
0.0
 43
0.0
 43
0.0
 43
1.0
 77
     0
 47
0.0208333333333333
 47
0.0
 47
0.0
 47
0.0
 47
0.0
 47
0.0208333333333333
 47
0.0
 47
0.0
 47
0.0
 47
0.0
 47
1.0
 47
0.0
 47
0.0
 47
0.0
 47
0.0
 47
1.0
171
     0
 49
0.0208333333333333
 49
0.0
 49
0.0
 49
0.0
 49
0.0
 49
0.0208333333333333
 49
0.0
 49
0.0
 49
0.0
 49
0.0
 49
1.0
 49
0.0
 49
0.0
 49
0.0
 49
0.0
 49
1.0
175
     0
142
0.0208333333333333
142
0.0
142
0.0
142
0.0
142
0.0
142
0.0208333333333333
142
0.0
142
0.0
142
0.0
142
0.0
142
1.0
142
0.0
142
0.0
142
0.0
142
0.0
142
1.0
179
     0
144
0.0208333333333333
144
0.0
144
0.0
144
0.0
144
0.0
144
0.0208333333333333
144
0.0
144
0.0
144
0.0
144
0.0
144
1.0
144
0.0
144
0.0
144
0.0
144
0.0
144
1.0
147
0.0208333333333333
147
0.0
147
0.0
147
0.0
147
0.0
147
0.0208333333333333
147
0.0
147
0.0
147
0.0
147
0.0
147
1.0
147
0.0
147
0.0
147
0.0
147
0.0
147
1.0
  0
MLEADERSTYLE
  5
9E2E
102
{ACAD_REACTORS
330
9E2D
102
}
330
9E2D
100
AcDbMLeaderStyle
170
     2
171
     1
172
     0
 90
        2
 40
0.0
 41
0.0
173
     1
 91
-1056964608
340
9920
 92
       -2
290
     1
 42
0.09
291
     1
 43
0.36
  3
Standard
 44
0.18
300

342
991E
174
     1
178
     6
175
     1
176
     0
 93
-1056964608
 45
0.18
292
     0
297
     0
 46
0.18
 94
-1056964608
 47
1.0
 49
1.0
140
1.0
293
     1
141
0.0
294
     1
177
     0
142
1.0
295
     0
296
     0
143
0.125
1001
ACAD_MLEADERVER
1070
     2
  0
MLINESTYLE
  5
9924
102
{ACAD_REACTORS
330
9923
102
}
330
9923
100
AcDbMlineStyle
  2
STANDARD
 70
     0
  3

 62
   256
 51
90.0
 52
90.0
 71
     2
 49
0.5
 62
   256
  6
BYLAYER
 49
-0.5
 62
   256
  6
BYLAYER
  0
ACDBPLACEHOLDER
  5
9DE5
102
{ACAD_REACTORS
330
9DE4
102
}
330
9DE4
  0
SCALE
  5
9E1C
102
{ACAD_REACTORS
330
9E1B
102
}
330
9E1B
100
AcDbScale
 70
     0
300
1:1
140
1.0
141
1.0
290
     1
  0
SCALE
  5
9E1D
102
{ACAD_REACTORS
330
9E1B
102
}
330
9E1B
100
AcDbScale
 70
     0
300
1/128" = 1'-0"
140
0.0078125
141
12.0
290
     0
  0
SCALE
  5
9E1E
102
{ACAD_REACTORS
330
9E1B
102
}
330
9E1B
100
AcDbScale
 70
     0
300
1/64" = 1'-0"
140
0.015625
141
12.0
290
     0
  0
SCALE
  5
9E1F
102
{ACAD_REACTORS
330
9E1B
102
}
330
9E1B
100
AcDbScale
 70
     0
300
1/32" = 1'-0"
140
0.03125
141
12.0
290
     0
  0
SCALE
  5
9E20
102
{ACAD_REACTORS
330
9E1B
102
}
330
9E1B
100
AcDbScale
 70
     0
300
1/16" = 1'-0"
140
0.0625
141
12.0
290
     0
  0
SCALE
  5
9E21
102
{ACAD_REACTORS
330
9E1B
102
}
330
9E1B
100
AcDbScale
 70
     0
300
3/32" = 1'-0"
140
0.09375
141
12.0
290
     0
  0
SCALE
  5
9E22
102
{ACAD_REACTORS
330
9E1B
102
}
330
9E1B
100
AcDbScale
 70
     0
300
1/8" = 1'-0"
140
0.125
141
12.0
290
     0
  0
SCALE
  5
9E23
102
{ACAD_REACTORS
330
9E1B
102
}
330
9E1B
100
AcDbScale
 70
     0
300
3/16" = 1'-0"
140
0.1875
141
12.0
290
     0
  0
SCALE
  5
9E24
102
{ACAD_REACTORS
330
9E1B
102
}
330
9E1B
100
AcDbScale
 70
     0
300
1/4" = 1'-0"
140
0.25
141
12.0
290
     0
  0
SCALE
  5
9E25
102
{ACAD_REACTORS
330
9E1B
102
}
330
9E1B
100
AcDbScale
 70
     0
300
3/8" = 1'-0"
140
0.375
141
12.0
290
     0
  0
SCALE
  5
9E26
102
{ACAD_REACTORS
330
9E1B
102
}
330
9E1B
100
AcDbScale
 70
     0
300
1/2" = 1'-0"
140
0.5
141
12.0
290
     0
  0
SCALE
  5
9E27
102
{ACAD_REACTORS
330
9E1B
102
}
330
9E1B
100
AcDbScale
 70
     0
300
3/4" = 1'-0"
140
0.75
141
12.0
290
     0
  0
SCALE
  5
9E28
102
{ACAD_REACTORS
330
9E1B
102
}
330
9E1B
100
AcDbScale
 70
     0
300
1" = 1'-0"
140
1.0
141
12.0
290
     0
  0
SCALE
  5
9E29
102
{ACAD_REACTORS
330
9E1B
102
}
330
9E1B
100
AcDbScale
 70
     0
300
1-1/2" = 1'-0"
140
1.5
141
12.0
290
     0
  0
SCALE
  5
9E2A
102
{ACAD_REACTORS
330
9E1B
102
}
330
9E1B
100
AcDbScale
 70
     0
300
3" = 1'-0"
140
3.0
141
12.0
290
     0
  0
SCALE
  5
9E2B
102
{ACAD_REACTORS
330
9E1B
102
}
330
9E1B
100
AcDbScale
 70
     0
300
6" = 1'-0"
140
6.0
141
12.0
290
     0
  0
SCALE
  5
9E2C
102
{ACAD_REACTORS
330
9E1B
102
}
330
9E1B
100
AcDbScale
 70
     0
300
1'-0" = 1'-0"
140
12.0
141
12.0
290
     0
  0
ACDBSECTIONVIEWSTYLE
  5
9E30
102
{ACAD_XDICTIONARY
360
9E8B
102
}
102
{ACAD_REACTORS
330
9E2F
102
}
330
9E2F
100
AcDbModelDocViewStyle
 70
     0
  3
Imperial24
290
     0
100
AcDbSectionViewStyle
 70
     0
 71
     0
 90
       78
 71
     1
340
991E
 40
0.24
340
0
340
0
 40
0.24
300
I, O, Q, S, X, Z
 40
0.48
 90
        3
 40
0.18
 90
        1
 71
     2
340
9922
 90
       25
340
9922
 90
       50
 40
0.24
 40
0.0
 40
0.24
 71
     3
340
991E
 40
0.24
 90
        1
 40
0.75
 90
        1
300
%<\AcVar ViewType \f "%tc1">% %<\AcVar ViewSectionStartId>%-%<\AcVar ViewSectionEndId>%\PSCALE %<\AcVar ViewScale \f "%sn">%
 71
     4
300
ANSI31
 40
1.0
 90
        0
290
     0
290
     0
 90
        6
 40
0.0
 40
1.570796326794896
 40
0.2617993877991494
 40
1.308996938995747
 40
-0.2617993877991494
 40
1.832595714594046
  0
TABLESTYLE
  5
9E1A
102
{ACAD_XDICTIONARY
360
9E52
102
}
102
{ACAD_REACTORS
330
9E19
102
}
330
9E19
100
AcDbTableStyle
  3
Standard
 70
     0
 71
     0
 40
0.06
 41
0.06
280
     0
281
     0
  7
STANDARD
140
0.18
170
     2
 62
     0
 63
     7
283
     0
274
    -2
284
     1
 64
     0
275
    -2
285
     1
 65
     0
276
    -2
286
     1
 66
     0
277
    -2
287
     1
 67
     0
278
    -2
288
     1
 68
     0
279
    -2
289
     1
 69
     0
  7
STANDARD
140
0.25
170
     5
 62
     0
 63
     7
283
     0
274
    -2
284
     1
 64
     0
275
    -2
285
     1
 65
     0
276
    -2
286
     1
 66
     0
277
    -2
287
     1
 67
     0
278
    -2
288
     1
 68
     0
279
    -2
289
     1
 69
     0
  7
STANDARD
140
0.18
170
     5
 62
     0
 63
     7
283
     0
274
    -2
284
     1
 64
     0
275
    -2
285
     1
 65
     0
276
    -2
286
     1
 66
     0
277
    -2
287
     1
 67
     0
278
    -2
288
     1
 68
     0
279
    -2
289
     1
 69
     0
  0
VISUALSTYLE
  5
9E05
102
{ACAD_XDICTIONARY
360
9E63
102
}
102
{ACAD_REACTORS
330
9DFF
102
}
330
9DFF
100
AcDbVisualStyle
  2
2dWireframe
 70
     4
 71
     0
 72
     2
 73
     0
 90
        0
 40
-0.6
 41
-30.0
 62
     5
 63
     7
 74
     1
 91
        4
 64
     7
 65
   257
 75
     1
175
     1
 42
1.0
 92
        0
 66
   257
 43
1.0
 76
     1
 77
     6
 78
     2
 67
     7
 79
     5
170
     0
171
     0
290
     0
174
     0
 93
        1
 44
0.0
173
     0
291
     0
 45
0.0
1001
ACAD
1000
AcDbSavedByObjectVersion
1070
     0
  0
VISUALSTYLE
  5
9E04
102
{ACAD_XDICTIONARY
360
9E61
102
}
102
{ACAD_REACTORS
330
9DFF
102
}
330
9DFF
100
AcDbVisualStyle
  2
Basic
 70
     7
 71
     1
 72
     0
 73
     1
 90
        0
 40
-0.6
 41
-30.0
 62
     5
 63
     7
 74
     0
 91
        4
 64
     7
 65
   257
 75
     1
175
     1
 42
1.0
 92
        8
 66
     7
 43
1.0
 76
     1
 77
     6
 78
     2
 67
     7
 79
     5
170
     0
171
     0
290
     0
174
     0
 93
        1
 44
0.0
173
     0
291
     1
 45
0.0
1001
ACAD
1000
AcDbSavedByObjectVersion
1070
     0
  0
VISUALSTYLE
  5
9E0B
102
{ACAD_XDICTIONARY
360
9E6F
102
}
102
{ACAD_REACTORS
330
9DFF
102
}
330
9DFF
100
AcDbVisualStyle
  2
Brighten
 70
    12
 71
     2
 72
     2
 73
     0
 90
        0
 40
-0.6
 41
-30.0
 62
     5
 63
     7
 74
     1
 91
        4
 64
     7
 65
   257
 75
     1
175
     1
 42
1.0
 92
        8
 66
     7
 43
1.0
 76
     1
 77
     6
 78
     2
 67
     7
 79
     5
170
     0
171
     0
290
     0
174
     0
 93
        1
 44
50.0
173
     0
291
     1
 45
0.0
1001
ACAD
1000
AcDbSavedByObjectVersion
1070
     0
  0
VISUALSTYLE
  5
9E0F
102
{ACAD_XDICTIONARY
360
9E77
102
}
102
{ACAD_REACTORS
330
9DFF
102
}
330
9DFF
100
AcDbVisualStyle
  2
ColorChange
 70
    16
 71
     2
 72
     2
 73
     3
 90
        0
 40
-0.6
 41
-30.0
 62
     5
 63
     8
 74
     1
 91
        4
 64
     7
 65
   257
 75
     1
175
     1
 42
1.0
 92
        8
 66
     8
 43
1.0
 76
     1
 77
     6
 78
     2
 67
     7
 79
     5
170
     0
171
     0
290
     0
174
     0
 93
        1
 44
0.0
173
     0
291
     1
 45
0.0
1001
ACAD
1000
AcDbSavedByObjectVersion
1070
     0
  0
VISUALSTYLE
  5
9E08
102
{ACAD_XDICTIONARY
360
9E69
102
}
102
{ACAD_REACTORS
330
9DFF
102
}
330
9DFF
100
AcDbVisualStyle
  2
Conceptual
 70
     9
 71
     3
 72
     2
 73
     0
 90
        0
 40
-0.6
 41
-30.0
 62
     5
 63
     7
 74
     2
 91
        2
 64
     7
 65
   257
 75
     1
175
     1
 42
179.0
 92
        8
 66
     7
 43
1.0
 76
     1
 77
     6
 78
     2
 67
     7
 79
     3
170
     0
171
     0
290
     0
174
     0
 93
        1
 44
0.0
173
     0
291
     0
 45
0.0
1001
ACAD
1000
AcDbSavedByObjectVersion
1070
     0
  0
VISUALSTYLE
  5
9E0A
102
{ACAD_XDICTIONARY
360
9E6D
102
}
102
{ACAD_REACTORS
330
9DFF
102
}
330
9DFF
100
AcDbVisualStyle
  2
Dim
 70
    11
 71
     2
 72
     2
 73
     0
 90
        0
 40
-0.6
 41
-30.0
 62
     5
 63
     7
 74
     1
 91
        4
 64
     7
 65
   257
 75
     1
175
     1
 42
1.0
 92
        8
 66
     7
 43
1.0
 76
     1
 77
     6
 78
     2
 67
     7
 79
     5
170
     0
171
     0
290
     0
174
     0
 93
        1
 44
-50.0
173
     0
291
     1
 45
0.0
1001
ACAD
1000
AcDbSavedByObjectVersion
1070
     0
  0
VISUALSTYLE
  5
9E17
102
{ACAD_XDICTIONARY
360
9E87
102
}
102
{ACAD_REACTORS
330
9DFF
102
}
330
9DFF
100
AcDbVisualStyle
  2
EdgeColorOff
 70
    22
 71
     2
 72
     2
 73
     0
 90
        0
 40
-0.6
 41
-30.0
 62
     5
 63
     7
 74
     1
 91
        4
 64
     7
 65
   257
 75
     1
175
     1
 42
1.0
 92
        8
 66
     7
 43
1.0
 76
     1
 77
     6
 78
     2
 67
     7
 79
     5
170
     0
171
     0
290
     0
174
     0
 93
        1
 44
0.0
173
     0
291
     1
 45
0.0
1001
ACAD
1000
AcDbSavedByObjectVersion
1070
     0
  0
VISUALSTYLE
  5
9E0E
102
{ACAD_XDICTIONARY
360
9E75
102
}
102
{ACAD_REACTORS
330
9DFF
102
}
330
9DFF
100
AcDbVisualStyle
  2
Facepattern
 70
    15
 71
     2
 72
     2
 73
     0
 90
        0
 40
-0.6
 41
-30.0
 62
     5
 63
     7
 74
     1
 91
        4
 64
     7
 65
   257
 75
     1
175
     1
 42
1.0
 92
        8
 66
     7
 43
1.0
 76
     1
 77
     6
 78
     2
 67
     7
 79
     5
170
     0
171
     0
290
     0
174
     0
 93
        1
 44
0.0
173
     0
291
     1
 45
0.0
1001
ACAD
1000
AcDbSavedByObjectVersion
1070
     0
  0
VISUALSTYLE
  5
9E00
102
{ACAD_XDICTIONARY
360
9E59
102
}
102
{ACAD_REACTORS
330
9DFF
102
}
330
9DFF
100
AcDbVisualStyle
  2
Flat
 70
     0
 71
     2
 72
     1
 73
     1
 90
        2
 40
-0.6
 41
30.0
 62
     5
 63
     7
 74
     0
 91
        0
 64
     7
 65
   257
 75
     1
175
     1
 42
1.0
 92
        8
 66
     7
 43
1.0
 76
     1
 77
     6
 78
     2
 67
     7
 79
     5
170
     0
171
     0
290
     0
174
     0
 93
       13
 44
0.0
173
     0
291
     1
 45
0.0
1001
ACAD
1000
AcDbSavedByObjectVersion
1070
     0
  0
VISUALSTYLE
  5
9E01
102
{ACAD_XDICTIONARY
360
9E5B
102
}
102
{ACAD_REACTORS
330
9DFF
102
}
330
9DFF
100
AcDbVisualStyle
  2
FlatWithEdges
 70
     1
 71
     2
 72
     1
 73
     1
 90
        2
 40
-0.6
 41
30.0
 62
     5
 63
     7
 74
     1
 91
        0
 64
     7
 65
   257
 75
     1
175
     1
 42
1.0
 92
        0
 66
   257
 43
1.0
 76
     1
 77
     6
 78
     2
 67
     7
 79
     5
170
     0
171
     0
290
     0
174
     0
 93
       13
 44
0.0
173
     0
291
     1
 45
0.0
1001
ACAD
1000
AcDbSavedByObjectVersion
1070
     0
  0
VISUALSTYLE
  5
9E02
102
{ACAD_XDICTIONARY
360
9E5D
102
}
102
{ACAD_REACTORS
330
9DFF
102
}
330
9DFF
100
AcDbVisualStyle
  2
Gouraud
 70
     2
 71
     2
 72
     2
 73
     1
 90
        2
 40
-0.6
 41
30.0
 62
     5
 63
     7
 74
     0
 91
        0
 64
     7
 65
   257
 75
     1
175
     1
 42
1.0
 92
        0
 66
     7
 43
1.0
 76
     1
 77
     6
 78
     2
 67
     7
 79
     5
170
     0
171
     0
290
     0
174
     0
 93
       13
 44
0.0
173
     0
291
     1
 45
0.0
1001
ACAD
1000
AcDbSavedByObjectVersion
1070
     0
  0
VISUALSTYLE
  5
9E03
102
{ACAD_XDICTIONARY
360
9E5F
102
}
102
{ACAD_REACTORS
330
9DFF
102
}
330
9DFF
100
AcDbVisualStyle
  2
GouraudWithEdges
 70
     3
 71
     2
 72
     2
 73
     1
 90
        2
 40
-0.6
 41
30.0
 62
     5
 63
     7
 74
     1
 91
        0
 64
     7
 65
   257
 75
     1
175
     1
 42
1.0
 92
        0
 66
   257
 43
1.0
 76
     1
 77
     6
 78
     2
 67
     7
 79
     5
170
     0
171
     0
290
     0
174
     0
 93
       13
 44
0.0
173
     0
291
     1
 45
0.0
1001
ACAD
1000
AcDbSavedByObjectVersion
1070
     0
  0
VISUALSTYLE
  5
9E07
102
{ACAD_XDICTIONARY
360
9E67
102
}
102
{ACAD_REACTORS
330
9DFF
102
}
330
9DFF
100
AcDbVisualStyle
  2
Hidden
 70
     6
 71
     1
 72
     2
 73
     2
 90
        0
 40
-0.6
 41
-30.0
 62
     5
 63
     7
 74
     2
 91
        2
 64
     7
 65
   257
 75
     2
175
     1
 42
40.0
 92
        0
 66
   257
 43
1.0
 76
     1
 77
     6
 78
     2
 67
     7
 79
     3
170
     0
171
     0
290
     0
174
     0
 93
        1
 44
0.0
173
     0
291
     0
 45
0.0
1001
ACAD
1000
AcDbSavedByObjectVersion
1070
     0
  0
VISUALSTYLE
  5
9E15
102
{ACAD_XDICTIONARY
360
9E83
102
}
102
{ACAD_REACTORS
330
9DFF
102
}
330
9DFF
100
AcDbVisualStyle
  2
JitterOff
 70
    20
 71
     2
 72
     2
 73
     0
 90
        0
 40
-0.6
 41
-30.0
 62
     5
 63
     7
 74
     1
 91
        4
 64
     7
 65
   257
 75
     1
175
     1
 42
1.0
 92
       10
 66
     7
 43
1.0
 76
     1
 77
     6
 78
     2
 67
     7
 79
     5
170
     0
171
     0
290
     0
174
     0
 93
        1
 44
0.0
173
     0
291
     1
 45
0.0
1001
ACAD
1000
AcDbSavedByObjectVersion
1070
     0
  0
VISUALSTYLE
  5
9E0D
102
{ACAD_XDICTIONARY
360
9E73
102
}
102
{ACAD_REACTORS
330
9DFF
102
}
330
9DFF
100
AcDbVisualStyle
  2
Linepattern
 70
    14
 71
     2
 72
     2
 73
     0
 90
        0
 40
-0.6
 41
-30.0
 62
     5
 63
     7
 74
     1
 91
        4
 64
     7
 65
   257
 75
     7
175
     7
 42
1.0
 92
        8
 66
     7
 43
1.0
 76
     1
 77
     6
 78
     2
 67
     7
 79
     5
170
     0
171
     0
290
     0
174
     0
 93
        1
 44
0.0
173
     0
291
     1
 45
0.0
1001
ACAD
1000
AcDbSavedByObjectVersion
1070
     0
  0
VISUALSTYLE
  5
9E16
102
{ACAD_XDICTIONARY
360
9E85
102
}
102
{ACAD_REACTORS
330
9DFF
102
}
330
9DFF
100
AcDbVisualStyle
  2
OverhangOff
 70
    21
 71
     2
 72
     2
 73
     0
 90
        0
 40
-0.6
 41
-30.0
 62
     5
 63
     7
 74
     1
 91
        4
 64
     7
 65
   257
 75
     1
175
     1
 42
1.0
 92
        9
 66
     7
 43
1.0
 76
     1
 77
     6
 78
     2
 67
     7
 79
     5
170
     0
171
     0
290
     0
174
     0
 93
        1
 44
0.0
173
     0
291
     1
 45
0.0
1001
ACAD
1000
AcDbSavedByObjectVersion
1070
     0
  0
VISUALSTYLE
  5
9E09
102
{ACAD_XDICTIONARY
360
9E6B
102
}
102
{ACAD_REACTORS
330
9DFF
102
}
330
9DFF
100
AcDbVisualStyle
  2
Realistic
 70
     8
 71
     2
 72
     3
 73
     0
 90
        2
 40
-0.6
 41
30.0
 62
     5
 63
     7
 74
     0
 91
        0
 64
     7
 65
   257
 75
     1
175
     1
 42
1.0
 92
        8
 66
   257
 43
1.0
 76
     1
 77
     6
 78
     2
 67
     7
 79
     3
170
     0
171
     0
290
     0
174
     0
 93
       13
 44
0.0
173
     0
291
     0
 45
0.0
1001
ACAD
1000
AcDbSavedByObjectVersion
1070
     0
  0
VISUALSTYLE
  5
9E14
102
{ACAD_XDICTIONARY
360
9E81
102
}
102
{ACAD_REACTORS
330
9DFF
102
}
330
9DFF
100
AcDbVisualStyle
  2
Shaded
 70
    27
 71
     2
 72
     2
 73
     1
 90
        2
 40
-0.6
 41
30.0
 62
     5
 63
     7
 74
     0
 91
        4
 64
     7
 65
   257
 75
     1
175
     1
 42
1.0
 92
        8
 66
   257
 43
1.0
 76
     1
 77
     6
 78
     2
 67
     8
 79
     3
170
     0
171
     0
290
     0
174
     0
 93
        5
 44
0.0
173
     0
291
     0
 45
0.0
1001
ACAD
1000
AcDbSavedByObjectVersion
1070
     0
  0
VISUALSTYLE
  5
9E13
102
{ACAD_XDICTIONARY
360
9E7F
102
}
102
{ACAD_REACTORS
330
9DFF
102
}
330
9DFF
100
AcDbVisualStyle
  2
Shaded with edges
 70
    26
 71
     2
 72
     2
 73
     1
 90
        2
 40
-0.6
 41
30.0
 62
     5
 63
     7
 74
     1
 91
       10
 64
     7
 65
   257
 75
     2
175
     1
 42
1.0
 92
        8
 66
   257
 43
1.0
 76
     1
 77
     6
 78
     2
 67
     7
 79
     3
170
     0
171
     0
290
     0
174
     0
 93
        5
 44
0.0
173
     0
291
     0
 45
0.0
1001
ACAD
1000
AcDbSavedByObjectVersion
1070
     0
  0
VISUALSTYLE
  5
9E10
102
{ACAD_XDICTIONARY
360
9E79
102
}
102
{ACAD_REACTORS
330
9DFF
102
}
330
9DFF
100
AcDbVisualStyle
  2
Shades of Gray
 70
    23
 71
     2
 72
     2
 73
     3
 90
        0
 40
-0.6
 41
-30.0
 62
     5
 63
     7
 74
     2
 91
        2
 64
     7
 65
     7
 75
     1
175
     1
 42
40.0
 92
        8
 66
     7
 43
1.0
 76
     1
 77
     6
 78
     2
 67
     7
 79
     3
170
     0
171
     0
290
     0
174
     0
 93
        1
 44
0.0
173
     0
291
     0
 45
0.0
1001
ACAD
1000
AcDbSavedByObjectVersion
1070
     0
  0
VISUALSTYLE
  5
9E11
102
{ACAD_XDICTIONARY
360
9E7B
102
}
102
{ACAD_REACTORS
330
9DFF
102
}
330
9DFF
100
AcDbVisualStyle
  2
Sketchy
 70
    24
 71
     1
 72
     2
 73
     2
 90
        0
 40
-0.6
 41
-30.0
 62
     5
 63
     7
 74
     2
 91
        2
 64
     7
 65
     7
 75
     1
175
     1
 42
40.0
 92
       11
 66
     7
 43
1.0
 76
     1
 77
     6
 78
     2
 67
     7
 79
     6
170
     0
171
     0
290
     0
174
     0
 93
        1
 44
0.0
173
     0
291
     0
 45
0.0
1001
ACAD
1000
AcDbSavedByObjectVersion
1070
     0
  0
VISUALSTYLE
  5
9E0C
102
{ACAD_XDICTIONARY
360
9E71
102
}
102
{ACAD_REACTORS
330
9DFF
102
}
330
9DFF
100
AcDbVisualStyle
  2
Thicken
 70
    13
 71
     2
 72
     2
 73
     0
 90
        0
 40
-0.6
 41
-30.0
 62
     5
 63
     7
 74
     1
 91
        4
 64
     7
 65
   257
 75
     1
175
     1
 42
1.0
 92
       12
 66
     7
 43
1.0
 76
     1
 77
     6
 78
     2
 67
     7
 79
     5
170
     0
171
     0
290
     0
174
     0
 93
        1
 44
0.0
173
     0
291
     1
 45
0.0
1001
ACAD
1000
AcDbSavedByObjectVersion
1070
     0
  0
VISUALSTYLE
  5
9E06
102
{ACAD_XDICTIONARY
360
9E65
102
}
102
{ACAD_REACTORS
330
9DFF
102
}
330
9DFF
100
AcDbVisualStyle
  2
Wireframe
 70
     5
 71
     0
 72
     2
 73
     0
 90
        0
 40
-0.6
 41
-30.0
 62
     5
 63
     7
 74
     1
 91
        4
 64
     7
 65
   257
 75
     1
175
     1
 42
1.0
 92
        0
 66
   257
 43
1.0
 76
     1
 77
     6
 78
     2
 67
     7
 79
     3
170
     0
171
     0
290
     0
174
     0
 93
        1
 44
0.0
173
     0
291
     0
 45
0.0
1001
ACAD
1000
AcDbSavedByObjectVersion
1070
     0
  0
VISUALSTYLE
  5
9E12
102
{ACAD_XDICTIONARY
360
9E7D
102
}
102
{ACAD_REACTORS
330
9DFF
102
}
330
9DFF
100
AcDbVisualStyle
  2
X-Ray
 70
    25
 71
     2
 72
     2
 73
     1
 90
        1
 40
0.5
 41
-30.0
 62
     5
 63
     7
 74
     1
 91
        0
 64
     7
 65
   257
 75
     1
175
     1
 42
1.0
 92
        8
 66
     7
 43
1.0
 76
     1
 77
     6
 78
     2
 67
     7
 79
     3
170
     0
171
     0
290
     0
174
     0
 93
       13
 44
0.0
173
     0
291
     0
 45
0.0
1001
ACAD
1000
AcDbSavedByObjectVersion
1070
     0
  0
DICTIONARYVAR
  5
9E4C
102
{ACAD_REACTORS
330
9E47
102
}
330
9E47
100
DictionaryVariables
280
     0
  1
1:1
  0
DICTIONARYVAR
  5
9E49
102
{ACAD_REACTORS
330
9E47
102
}
330
9E47
100
DictionaryVariables
280
     0
  1
STANDARD
  0
DICTIONARYVAR
  5
9E48
102
{ACAD_REACTORS
330
9E47
102
}
330
9E47
100
DictionaryVariables
280
     0
  1
STANDARD
  0
DICTIONARYVAR
  5
9E4A
102
{ACAD_REACTORS
330
9E47
102
}
330
9E47
100
DictionaryVariables
280
     0
  1
Imperial24
  0
DICTIONARYVAR
  5
9E4B
102
{ACAD_REACTORS
330
9E47
102
}
330
9E47
100
DictionaryVariables
280
     0
  1
Imperial24
  0
DICTIONARYVAR
  5
9E4F
102
{ACAD_REACTORS
330
9E47
102
}
330
9E47
100
DictionaryVariables
280
     0
  1
1
  0
DICTIONARYVAR
  5
9E4E
102
{ACAD_REACTORS
330
9E47
102
}
330
9E47
100
DictionaryVariables
280
     0
  1
0
  0
DICTIONARYVAR
  5
9E4D
102
{ACAD_REACTORS
330
9E47
102
}
330
9E47
100
DictionaryVariables
280
     0
  1
127
  0
DICTIONARYVAR
  5
9E50
102
{ACAD_REACTORS
330
9E47
102
}
330
9E47
100
DictionaryVariables
280
     0
  1
2
  0
DICTIONARY
  5
9E8D
330
9E32
100
AcDbDictionary
280
     1
281
     1
  3
ACAD_XREC_ROUNDTRIP
360
9E8E
  0
DICTIONARY
  5
9E8F
330
9E33
100
AcDbDictionary
280
     1
281
     1
  3
ACAD_XREC_ROUNDTRIP
360
9E90
  0
DICTIONARY
  5
9E91
330
9E34
100
AcDbDictionary
280
     1
281
     1
  3
ACAD_XREC_ROUNDTRIP
360
9E92
  0
DICTIONARY
  5
9DF0
330
9DEF
100
AcDbDictionary
280
     1
281
     1
  3
ACAD_XREC_ROUNDTRIP
360
9E57
  3
BUMPTILE
360
9DF2
  3
DIFFUSETILE
360
9DF1
  3
OPACITYTILE
360
9DF5
  3
REFLECTIONTILE
360
9DF4
  3
REFRACTIONTILE
360
9DF6
  3
SPECULARTILE
360
9DF3
  0
DICTIONARY
  5
9DE8
330
9DE7
100
AcDbDictionary
280
     1
281
     1
  3
ACAD_XREC_ROUNDTRIP
360
9E56
  3
BUMPTILE
360
9DEA
  3
DIFFUSETILE
360
9DE9
  3
OPACITYTILE
360
9DED
  3
REFLECTIONTILE
360
9DEC
  3
REFRACTIONTILE
360
9DEE
  3
SPECULARTILE
360
9DEB
  0
DICTIONARY
  5
9DF8
330
9DF7
100
AcDbDictionary
280
     1
281
     1
  3
ACAD_XREC_ROUNDTRIP
360
9E58
  3
BUMPTILE
360
9DFA
  3
DIFFUSETILE
360
9DF9
  3
OPACITYTILE
360
9DFD
  3
REFLECTIONTILE
360
9DFC
  3
REFRACTIONTILE
360
9DFE
  3
SPECULARTILE
360
9DFB
  0
DICTIONARY
  5
9E8B
330
9E30
100
AcDbDictionary
280
     1
281
     1
  3
ACAD_XREC_ROUNDTRIP
360
9E8C
  0
DICTIONARY
  5
9E52
330
9E1A
100
AcDbDictionary
280
     1
281
     1
  3
ACAD_ROUNDTRIP_2008_TABLESTYLE_CELLSTYLEMAP
360
9E53
  3
ACAD_XREC_ROUNDTRIP
360
9E89
  0
DICTIONARY
  5
9E63
330
9E05
100
AcDbDictionary
280
     1
281
     1
  3
ACAD_XREC_ROUNDTRIP
360
9E64
  0
DICTIONARY
  5
9E61
330
9E04
100
AcDbDictionary
280
     1
281
     1
  3
ACAD_XREC_ROUNDTRIP
360
9E62
  0
DICTIONARY
  5
9E6F
330
9E0B
100
AcDbDictionary
280
     1
281
     1
  3
ACAD_XREC_ROUNDTRIP
360
9E70
  0
DICTIONARY
  5
9E77
330
9E0F
100
AcDbDictionary
280
     1
281
     1
  3
ACAD_XREC_ROUNDTRIP
360
9E78
  0
DICTIONARY
  5
9E69
330
9E08
100
AcDbDictionary
280
     1
281
     1
  3
ACAD_XREC_ROUNDTRIP
360
9E6A
  0
DICTIONARY
  5
9E6D
330
9E0A
100
AcDbDictionary
280
     1
281
     1
  3
ACAD_XREC_ROUNDTRIP
360
9E6E
  0
DICTIONARY
  5
9E87
330
9E17
100
AcDbDictionary
280
     1
281
     1
  3
ACAD_XREC_ROUNDTRIP
360
9E88
  0
DICTIONARY
  5
9E75
330
9E0E
100
AcDbDictionary
280
     1
281
     1
  3
ACAD_XREC_ROUNDTRIP
360
9E76
  0
DICTIONARY
  5
9E59
330
9E00
100
AcDbDictionary
280
     1
281
     1
  3
ACAD_XREC_ROUNDTRIP
360
9E5A
  0
DICTIONARY
  5
9E5B
330
9E01
100
AcDbDictionary
280
     1
281
     1
  3
ACAD_XREC_ROUNDTRIP
360
9E5C
  0
DICTIONARY
  5
9E5D
330
9E02
100
AcDbDictionary
280
     1
281
     1
  3
ACAD_XREC_ROUNDTRIP
360
9E5E
  0
DICTIONARY
  5
9E5F
330
9E03
100
AcDbDictionary
280
     1
281
     1
  3
ACAD_XREC_ROUNDTRIP
360
9E60
  0
DICTIONARY
  5
9E67
330
9E07
100
AcDbDictionary
280
     1
281
     1
  3
ACAD_XREC_ROUNDTRIP
360
9E68
  0
DICTIONARY
  5
9E83
330
9E15
100
AcDbDictionary
280
     1
281
     1
  3
ACAD_XREC_ROUNDTRIP
360
9E84
  0
DICTIONARY
  5
9E73
330
9E0D
100
AcDbDictionary
280
     1
281
     1
  3
ACAD_XREC_ROUNDTRIP
360
9E74
  0
DICTIONARY
  5
9E85
330
9E16
100
AcDbDictionary
280
     1
281
     1
  3
ACAD_XREC_ROUNDTRIP
360
9E86
  0
DICTIONARY
  5
9E6B
330
9E09
100
AcDbDictionary
280
     1
281
     1
  3
ACAD_XREC_ROUNDTRIP
360
9E6C
  0
DICTIONARY
  5
9E81
330
9E14
100
AcDbDictionary
280
     1
281
     1
  3
ACAD_XREC_ROUNDTRIP
360
9E82
  0
DICTIONARY
  5
9E7F
330
9E13
100
AcDbDictionary
280
     1
281
     1
  3
ACAD_XREC_ROUNDTRIP
360
9E80
  0
DICTIONARY
  5
9E79
330
9E10
100
AcDbDictionary
280
     1
281
     1
  3
ACAD_XREC_ROUNDTRIP
360
9E7A
  0
DICTIONARY
  5
9E7B
330
9E11
100
AcDbDictionary
280
     1
281
     1
  3
ACAD_XREC_ROUNDTRIP
360
9E7C
  0
DICTIONARY
  5
9E71
330
9E0C
100
AcDbDictionary
280
     1
281
     1
  3
ACAD_XREC_ROUNDTRIP
360
9E72
  0
DICTIONARY
  5
9E65
330
9E06
100
AcDbDictionary
280
     1
281
     1
  3
ACAD_XREC_ROUNDTRIP
360
9E66
  0
DICTIONARY
  5
9E7D
330
9E12
100
AcDbDictionary
280
     1
281
     1
  3
ACAD_XREC_ROUNDTRIP
360
9E7E
  0
XRECORD
  5
9E8E
102
{ACAD_REACTORS
330
9E8D
102
}
330
9E8D
100
AcDbXrecord
280
     1
102
DISPLAYNAME
  1
Imperial24
102
FLAGS
 90
        0
  0
XRECORD
  5
9E90
102
{ACAD_REACTORS
330
9E8F
102
}
330
9E8F
100
AcDbXrecord
280
     1
102
SHADEPLOT
 70
     0
102
SHADEPLOTRESLEVEL
 70
     2
102
SHADEPLOTCUSTOMDPI
 70
   300
  0
XRECORD
  5
9E92
102
{ACAD_REACTORS
330
9E91
102
}
330
9E91
100
AcDbXrecord
280
     1
102
SHADEPLOT
 70
     0
102
SHADEPLOTRESLEVEL
 70
     2
102
SHADEPLOTCUSTOMDPI
 70
   300
  0
XRECORD
  5
9E57
102
{ACAD_REACTORS
330
9DF0
102
}
330
9DF0
100
AcDbXrecord
280
     1
102
MATERIAL
148
0.0
149
0.0
149
0.0
 93
        0
 94
      127
282
     0
 72
     0
 77
     0
171
     0
175
     0
179
     0
273
     0
  0
XRECORD
  5
9DF2
102
{ACAD_REACTORS
330
9DF0
102
}
330
9DF0
100
AcDbXrecord
280
     1
270
     1
271
     1
  0
XRECORD
  5
9DF1
102
{ACAD_REACTORS
330
9DF0
102
}
330
9DF0
100
AcDbXrecord
280
     1
270
     1
271
     1
  0
XRECORD
  5
9DF5
102
{ACAD_REACTORS
330
9DF0
102
}
330
9DF0
100
AcDbXrecord
280
     1
270
     1
271
     1
  0
XRECORD
  5
9DF4
102
{ACAD_REACTORS
330
9DF0
102
}
330
9DF0
100
AcDbXrecord
280
     1
270
     1
271
     1
  0
XRECORD
  5
9DF6
102
{ACAD_REACTORS
330
9DF0
102
}
330
9DF0
100
AcDbXrecord
280
     1
270
     1
271
     1
  0
XRECORD
  5
9DF3
102
{ACAD_REACTORS
330
9DF0
102
}
330
9DF0
100
AcDbXrecord
280
     1
270
     1
271
     1
  0
XRECORD
  5
9E56
102
{ACAD_REACTORS
330
9DE8
102
}
330
9DE8
100
AcDbXrecord
280
     1
102
MATERIAL
148
0.0
149
0.0
149
0.0
 93
        0
 94
      127
282
     0
 72
     0
 77
     0
171
     0
175
     0
179
     0
273
     0
  0
XRECORD
  5
9DEA
102
{ACAD_REACTORS
330
9DE8
102
}
330
9DE8
100
AcDbXrecord
280
     1
270
     1
271
     1
  0
XRECORD
  5
9DE9
102
{ACAD_REACTORS
330
9DE8
102
}
330
9DE8
100
AcDbXrecord
280
     1
270
     1
271
     1
  0
XRECORD
  5
9DED
102
{ACAD_REACTORS
330
9DE8
102
}
330
9DE8
100
AcDbXrecord
280
     1
270
     1
271
     1
  0
XRECORD
  5
9DEC
102
{ACAD_REACTORS
330
9DE8
102
}
330
9DE8
100
AcDbXrecord
280
     1
270
     1
271
     1
  0
XRECORD
  5
9DEE
102
{ACAD_REACTORS
330
9DE8
102
}
330
9DE8
100
AcDbXrecord
280
     1
270
     1
271
     1
  0
XRECORD
  5
9DEB
102
{ACAD_REACTORS
330
9DE8
102
}
330
9DE8
100
AcDbXrecord
280
     1
270
     1
271
     1
  0
XRECORD
  5
9E58
102
{ACAD_REACTORS
330
9DF8
102
}
330
9DF8
100
AcDbXrecord
280
     1
102
MATERIAL
148
0.0
149
0.0
149
0.0
 93
        0
 94
      127
282
     0
 72
     0
 77
     0
171
     0
175
     0
179
     0
273
     0
  0
XRECORD
  5
9DFA
102
{ACAD_REACTORS
330
9DF8
102
}
330
9DF8
100
AcDbXrecord
280
     1
270
     1
271
     1
  0
XRECORD
  5
9DF9
102
{ACAD_REACTORS
330
9DF8
102
}
330
9DF8
100
AcDbXrecord
280
     1
270
     1
271
     1
  0
XRECORD
  5
9DFD
102
{ACAD_REACTORS
330
9DF8
102
}
330
9DF8
100
AcDbXrecord
280
     1
270
     1
271
     1
  0
XRECORD
  5
9DFC
102
{ACAD_REACTORS
330
9DF8
102
}
330
9DF8
100
AcDbXrecord
280
     1
270
     1
271
     1
  0
XRECORD
  5
9DFE
102
{ACAD_REACTORS
330
9DF8
102
}
330
9DF8
100
AcDbXrecord
280
     1
270
     1
271
     1
  0
XRECORD
  5
9DFB
102
{ACAD_REACTORS
330
9DF8
102
}
330
9DF8
100
AcDbXrecord
280
     1
270
     1
271
     1
  0
XRECORD
  5
9E8C
102
{ACAD_REACTORS
330
9E8B
102
}
330
9E8B
100
AcDbXrecord
280
     1
102
DISPLAYNAME
  1
Imperial24
102
FLAGS
 90
        0
  0
CELLSTYLEMAP
  5
9E53
102
{ACAD_REACTORS
330
9E52
102
}
330
9E52
100
AcDbCellStyleMap
 90
        3
300
CELLSTYLE
  1
TABLEFORMAT_BEGIN
 90
        5
170
     1
 91
        0
 92
    32768
 62
   257
 93
        1
300
CONTENTFORMAT
  1
CONTENTFORMAT_BEGIN
 90
        0
 91
        0
 92
      512
 93
        0
300

 40
0.0
140
1.0
 94
        5
 62
     0
340
991E
144
0.25
309
CONTENTFORMAT_END
171
     0
 94
        0
309
TABLEFORMAT_END
  1
CELLSTYLE_BEGIN
 90
        1
 91
        1
300
_TITLE
309
CELLSTYLE_END
300
CELLSTYLE
  1
TABLEFORMAT_BEGIN
 90
        5
170
     1
 91
        0
 92
        0
 62
   257
 93
        1
300
CONTENTFORMAT
  1
CONTENTFORMAT_BEGIN
 90
        0
 91
        0
 92
      512
 93
        0
300

 40
0.0
140
1.0
 94
        5
 62
     0
340
991E
144
0.18
309
CONTENTFORMAT_END
171
     0
 94
        0
309
TABLEFORMAT_END
  1
CELLSTYLE_BEGIN
 90
        2
 91
        1
300
_HEADER
309
CELLSTYLE_END
300
CELLSTYLE
  1
TABLEFORMAT_BEGIN
 90
        5
170
     1
 91
        0
 92
        0
 62
   257
 93
        1
300
CONTENTFORMAT
  1
CONTENTFORMAT_BEGIN
 90
        0
 91
        0
 92
      512
 93
        0
300

 40
0.0
140
1.0
 94
        2
 62
     0
340
991E
144
0.18
309
CONTENTFORMAT_END
171
     0
 94
        0
309
TABLEFORMAT_END
  1
CELLSTYLE_BEGIN
 90
        3
 91
        2
300
_DATA
309
CELLSTYLE_END
  0
XRECORD
  5
9E89
102
{ACAD_REACTORS
330
9E52
102
}
330
9E52
100
AcDbXrecord
280
     1
102
ACAD_ROUNDTRIP_PRE2007_TABLESTYLE
 90
      512
 91
        0
  1

 92
      512
 93
        0
  2

 94
      512
 95
        0
  3

  0
XRECORD
  5
9E64
102
{ACAD_REACTORS
330
9E63
102
}
330
9E63
100
AcDbXrecord
280
     1
102
RTVSPost2010Prop28
280
     1
102
RTVSPost2010PropOp28
 70
     1
102
RTVSPost2010Prop29
280
     1
102
RTVSPost2010PropOp29
 70
     1
102
RTVSPost2010Prop30
280
     0
102
RTVSPost2010PropOp30
 70
     1
102
RTVSPost2010Prop31
280
     0
102
RTVSPost2010PropOp31
 70
     1
102
RTVSPost2010Prop32
280
     0
102
RTVSPost2010PropOp32
 70
     1
102
RTVSPost2010Prop33
280
     0
102
RTVSPost2010PropOp33
 70
     1
102
RTVSPost2010Prop34
280
     0
102
RTVSPost2010PropOp34
 70
     1
102
RTVSPost2010Prop35
280
     0
102
RTVSPost2010PropOp35
 70
     1
102
RTVSPost2010Prop36
280
     0
102
RTVSPost2010PropOp36
 70
     1
102
RTVSPost2010Prop37
 90
       50
102
RTVSPost2010PropOp37
 70
     1
102
RTVSPost2010Prop38
140
0.0
102
RTVSPost2010PropOp38
 70
     1
102
RTVSPost2010Prop39
140
1.0
102
RTVSPost2010PropOp39
 70
     1
102
RTVSPost2010Prop40
 90
        0
102
RTVSPost2010PropOp40
 70
     1
102
RTVSPost2010Prop41ColorIndex
 90
       18
102
RTVSPost2010Prop41ColorRGB
 90
        0
102
RTVSPost2010PropOp41
 70
     1
102
RTVSPost2010Prop42
 90
       50
102
RTVSPost2010PropOp42
 70
     1
102
RTVSPost2010Prop43
 90
        3
102
RTVSPost2010PropOp43
 70
     1
102
RTVSPost2010Prop44ColorIndex
 90
        5
102
RTVSPost2010Prop44ColorRGB
 90
      255
102
RTVSPost2010PropOp44
 70
     1
102
RTVSPost2010Prop45
280
     0
102
RTVSPost2010PropOp45
 70
     1
102
RTVSPost2010Prop46
 90
       50
102
RTVSPost2010PropOp46
 70
     1
102
RTVSPost2010Prop47
 90
       50
102
RTVSPost2010PropOp47
 70
     1
102
RTVSPost2010Prop48
 90
       50
102
RTVSPost2010PropOp48
 70
     1
102
RTVSPost2010Prop49
280
     0
102
RTVSPost2010PropOp49
 70
     1
102
RTVSPost2010Prop50
 90
       50
102
RTVSPost2010PropOp50
 70
     1
102
RTVSPost2010Prop51ColorIndex
 90
      256
102
RTVSPost2010Prop51ColorRGB
 90
-16777216
102
RTVSPost2010PropOp51
 70
     0
102
RTVSPost2010Prop52
140
1.0
102
RTVSPost2010PropOp52
 70
     0
102
RTVSPost2010Prop53
 90
        2
102
RTVSPost2010PropOp53
 70
     1
102
RTVSPost2010Prop54
  1
strokes_ogs.tif
102
RTVSPost2010PropOp54
 70
     1
102
RTVSPost2010Prop55
280
     0
102
RTVSPost2010PropOp55
 70
     1
102
RTVSPost2010Prop56
140
1.0
102
RTVSPost2010PropOp56
 70
     1
102
RTVSPost2010Prop57
140
1.0
102
RTVSPost2010PropOp57
 70
     1
102
RTVSPropertyOp0
 70
     1
102
RTVSPropertyOp1
 70
     1
102
RTVSPropertyOp2
 70
     1
102
RTVSPropertyOp3
 70
     1
102
RTVSPropertyOp4
 70
     1
102
RTVSPropertyOp5
 70
     1
102
RTVSPropertyOp6
 70
     1
102
RTVSPropertyOp7
 70
     1
102
RTVSPropertyOp8
 70
     1
102
RTVSPropertyOp9
 70
     1
102
RTVSPropertyOp10
 70
     1
102
RTVSPropertyOp11
 70
     1
102
RTVSPropertyOp12
 70
     1
102
RTVSPropertyOp13
 70
     1
102
RTVSPropertyOp14
 70
     1
102
RTVSPropertyOp15
 70
     1
102
RTVSPropertyOp16
 70
     1
102
RTVSPropertyOp17
 70
     1
102
RTVSPropertyOp18
 70
     1
102
RTVSPropertyOp19
 70
     1
102
RTVSPropertyOp20
 70
     1
102
RTVSPropertyOp21
 70
     1
102
RTVSPropertyOp22
 70
     1
102
RTVSPropertyOp23
 70
     1
102
RTVSPropertyOp24
 70
     1
102
RTVSPropertyOp25
 70
     1
102
RTVSPropertyOp26
 70
     1
102
RTVSPropertyOp27
 70
     1
102
RTVSPropertyOp28
 70
     1
102
RTVSPropertyOp29
 70
     1
102
RTVSPropertyOp30
 70
     1
102
RTVSPropertyOp31
 70
     1
102
RTVSPropertyOp32
 70
     1
102
RTVSPropertyOp33
 70
     1
102
RTVSPropertyOp34
 70
     1
102
RTVSPropertyOp35
 70
     1
102
RTVSPropertyOp36
 70
     1
102
RTVSPropertyOp37
 70
     1
102
RTVSPropertyOp38
 70
     1
102
RTVSPropertyOp39
 70
     1
102
RTVSPropertyOp40
 70
     1
102
RTVSPropertyOp41
 70
     1
102
RTVSPropertyOp42
 70
     1
102
RTVSPropertyOp43
 70
     1
102
RTVSPropertyOp44
 70
     1
102
RTVSPropertyOp45
 70
     1
102
RTVSPropertyOp46
 70
     1
102
RTVSPropertyOp47
 70
     1
102
RTVSPropertyOp48
 70
     1
102
RTVSPropertyOp49
 70
     1
102
RTVSPropertyOp50
 70
     1
102
RTVSPropertyOp51
 70
     0
102
RTVSPropertyOp52
 70
     0
102
RTVSPropertyOp53
 70
     1
102
RTVSPropertyOp54
 70
     1
102
RTVSPropertyOp55
 70
     1
102
RTVSPropertyOp56
 70
     1
102
RTVSPropertyOp57
 70
     1
102
RTVSPropertyOp58
 70
     1
102
RTVSPropertyOp59
 70
     1
102
RTVSPropertyOp60
 70
     1
102
RTVSPropertyOp61
 70
     1
102
RTVSPropertyOp62
 70
     1
  0
XRECORD
  5
9E62
102
{ACAD_REACTORS
330
9E61
102
}
330
9E61
100
AcDbXrecord
280
     1
102
RTVSPost2010Prop28
280
     0
102
RTVSPost2010PropOp28
 70
     1
102
RTVSPost2010Prop29
280
     1
102
RTVSPost2010PropOp29
 70
     1
102
RTVSPost2010Prop30
280
     1
102
RTVSPost2010PropOp30
 70
     1
102
RTVSPost2010Prop31
280
     0
102
RTVSPost2010PropOp31
 70
     1
102
RTVSPost2010Prop32
280
     0
102
RTVSPost2010PropOp32
 70
     1
102
RTVSPost2010Prop33
280
     0
102
RTVSPost2010PropOp33
 70
     1
102
RTVSPost2010Prop34
280
     0
102
RTVSPost2010PropOp34
 70
     1
102
RTVSPost2010Prop35
280
     0
102
RTVSPost2010PropOp35
 70
     1
102
RTVSPost2010Prop36
280
     0
102
RTVSPost2010PropOp36
 70
     1
102
RTVSPost2010Prop37
 90
       50
102
RTVSPost2010PropOp37
 70
     1
102
RTVSPost2010Prop38
140
0.0
102
RTVSPost2010PropOp38
 70
     1
102
RTVSPost2010Prop39
140
1.0
102
RTVSPost2010PropOp39
 70
     1
102
RTVSPost2010Prop40
 90
        0
102
RTVSPost2010PropOp40
 70
     1
102
RTVSPost2010Prop41ColorIndex
 90
       18
102
RTVSPost2010Prop41ColorRGB
 90
        0
102
RTVSPost2010PropOp41
 70
     1
102
RTVSPost2010Prop42
 90
       50
102
RTVSPost2010PropOp42
 70
     1
102
RTVSPost2010Prop43
 90
        3
102
RTVSPost2010PropOp43
 70
     1
102
RTVSPost2010Prop44ColorIndex
 90
        5
102
RTVSPost2010Prop44ColorRGB
 90
      255
102
RTVSPost2010PropOp44
 70
     1
102
RTVSPost2010Prop45
280
     0
102
RTVSPost2010PropOp45
 70
     1
102
RTVSPost2010Prop46
 90
       50
102
RTVSPost2010PropOp46
 70
     1
102
RTVSPost2010Prop47
 90
       50
102
RTVSPost2010PropOp47
 70
     1
102
RTVSPost2010Prop48
 90
       50
102
RTVSPost2010PropOp48
 70
     1
102
RTVSPost2010Prop49
280
     0
102
RTVSPost2010PropOp49
 70
     1
102
RTVSPost2010Prop50
 90
       50
102
RTVSPost2010PropOp50
 70
     1
102
RTVSPost2010Prop51ColorIndex
 90
      256
102
RTVSPost2010Prop51ColorRGB
 90
-16777216
102
RTVSPost2010PropOp51
 70
     0
102
RTVSPost2010Prop52
140
1.0
102
RTVSPost2010PropOp52
 70
     0
102
RTVSPost2010Prop53
 90
        2
102
RTVSPost2010PropOp53
 70
     1
102
RTVSPost2010Prop54
  1
strokes_ogs.tif
102
RTVSPost2010PropOp54
 70
     1
102
RTVSPost2010Prop55
280
     0
102
RTVSPost2010PropOp55
 70
     1
102
RTVSPost2010Prop56
140
1.0
102
RTVSPost2010PropOp56
 70
     1
102
RTVSPost2010Prop57
140
1.0
102
RTVSPost2010PropOp57
 70
     1
102
RTVSPropertyOp0
 70
     1
102
RTVSPropertyOp1
 70
     1
102
RTVSPropertyOp2
 70
     1
102
RTVSPropertyOp3
 70
     1
102
RTVSPropertyOp4
 70
     1
102
RTVSPropertyOp5
 70
     1
102
RTVSPropertyOp6
 70
     1
102
RTVSPropertyOp7
 70
     1
102
RTVSPropertyOp8
 70
     1
102
RTVSPropertyOp9
 70
     1
102
RTVSPropertyOp10
 70
     1
102
RTVSPropertyOp11
 70
     1
102
RTVSPropertyOp12
 70
     1
102
RTVSPropertyOp13
 70
     1
102
RTVSPropertyOp14
 70
     1
102
RTVSPropertyOp15
 70
     1
102
RTVSPropertyOp16
 70
     1
102
RTVSPropertyOp17
 70
     1
102
RTVSPropertyOp18
 70
     1
102
RTVSPropertyOp19
 70
     1
102
RTVSPropertyOp20
 70
     1
102
RTVSPropertyOp21
 70
     1
102
RTVSPropertyOp22
 70
     1
102
RTVSPropertyOp23
 70
     1
102
RTVSPropertyOp24
 70
     1
102
RTVSPropertyOp25
 70
     1
102
RTVSPropertyOp26
 70
     1
102
RTVSPropertyOp27
 70
     1
102
RTVSPropertyOp28
 70
     1
102
RTVSPropertyOp29
 70
     1
102
RTVSPropertyOp30
 70
     1
102
RTVSPropertyOp31
 70
     1
102
RTVSPropertyOp32
 70
     1
102
RTVSPropertyOp33
 70
     1
102
RTVSPropertyOp34
 70
     1
102
RTVSPropertyOp35
 70
     1
102
RTVSPropertyOp36
 70
     1
102
RTVSPropertyOp37
 70
     1
102
RTVSPropertyOp38
 70
     1
102
RTVSPropertyOp39
 70
     1
102
RTVSPropertyOp40
 70
     1
102
RTVSPropertyOp41
 70
     1
102
RTVSPropertyOp42
 70
     1
102
RTVSPropertyOp43
 70
     1
102
RTVSPropertyOp44
 70
     1
102
RTVSPropertyOp45
 70
     1
102
RTVSPropertyOp46
 70
     1
102
RTVSPropertyOp47
 70
     1
102
RTVSPropertyOp48
 70
     1
102
RTVSPropertyOp49
 70
     1
102
RTVSPropertyOp50
 70
     1
102
RTVSPropertyOp51
 70
     0
102
RTVSPropertyOp52
 70
     0
102
RTVSPropertyOp53
 70
     1
102
RTVSPropertyOp54
 70
     1
102
RTVSPropertyOp55
 70
     1
102
RTVSPropertyOp56
 70
     1
102
RTVSPropertyOp57
 70
     1
102
RTVSPropertyOp58
 70
     1
102
RTVSPropertyOp59
 70
     1
102
RTVSPropertyOp60
 70
     1
102
RTVSPropertyOp61
 70
     1
102
RTVSPropertyOp62
 70
     1
  0
XRECORD
  5
9E70
102
{ACAD_REACTORS
330
9E6F
102
}
330
9E6F
100
AcDbXrecord
280
     1
102
RTVSPost2010Prop28
280
     0
102
RTVSPost2010PropOp28
 70
     1
102
RTVSPost2010Prop29
280
     1
102
RTVSPost2010PropOp29
 70
     1
102
RTVSPost2010Prop30
280
     1
102
RTVSPost2010PropOp30
 70
     1
102
RTVSPost2010Prop31
280
     0
102
RTVSPost2010PropOp31
 70
     1
102
RTVSPost2010Prop32
280
     0
102
RTVSPost2010PropOp32
 70
     1
102
RTVSPost2010Prop33
280
     0
102
RTVSPost2010PropOp33
 70
     1
102
RTVSPost2010Prop34
280
     0
102
RTVSPost2010PropOp34
 70
     1
102
RTVSPost2010Prop35
280
     0
102
RTVSPost2010PropOp35
 70
     1
102
RTVSPost2010Prop36
280
     0
102
RTVSPost2010PropOp36
 70
     1
102
RTVSPost2010Prop37
 90
       50
102
RTVSPost2010PropOp37
 70
     1
102
RTVSPost2010Prop38
140
0.0
102
RTVSPost2010PropOp38
 70
     1
102
RTVSPost2010Prop39
140
1.0
102
RTVSPost2010PropOp39
 70
     1
102
RTVSPost2010Prop40
 90
        0
102
RTVSPost2010PropOp40
 70
     1
102
RTVSPost2010Prop41ColorIndex
 90
       18
102
RTVSPost2010Prop41ColorRGB
 90
        0
102
RTVSPost2010PropOp41
 70
     1
102
RTVSPost2010Prop42
 90
       50
102
RTVSPost2010PropOp42
 70
     1
102
RTVSPost2010Prop43
 90
        3
102
RTVSPost2010PropOp43
 70
     1
102
RTVSPost2010Prop44ColorIndex
 90
        5
102
RTVSPost2010Prop44ColorRGB
 90
      255
102
RTVSPost2010PropOp44
 70
     1
102
RTVSPost2010Prop45
280
     0
102
RTVSPost2010PropOp45
 70
     1
102
RTVSPost2010Prop46
 90
       50
102
RTVSPost2010PropOp46
 70
     1
102
RTVSPost2010Prop47
 90
       50
102
RTVSPost2010PropOp47
 70
     1
102
RTVSPost2010Prop48
 90
       50
102
RTVSPost2010PropOp48
 70
     1
102
RTVSPost2010Prop49
280
     0
102
RTVSPost2010PropOp49
 70
     1
102
RTVSPost2010Prop50
 90
       50
102
RTVSPost2010PropOp50
 70
     1
102
RTVSPost2010Prop51ColorIndex
 90
      256
102
RTVSPost2010Prop51ColorRGB
 90
-16777216
102
RTVSPost2010PropOp51
 70
     0
102
RTVSPost2010Prop52
140
1.0
102
RTVSPost2010PropOp52
 70
     0
102
RTVSPost2010Prop53
 90
        2
102
RTVSPost2010PropOp53
 70
     1
102
RTVSPost2010Prop54
  1
strokes_ogs.tif
102
RTVSPost2010PropOp54
 70
     1
102
RTVSPost2010Prop55
280
     0
102
RTVSPost2010PropOp55
 70
     1
102
RTVSPost2010Prop56
140
1.0
102
RTVSPost2010PropOp56
 70
     1
102
RTVSPost2010Prop57
140
1.0
102
RTVSPost2010PropOp57
 70
     1
102
RTVSPropertyOp0
 70
     1
102
RTVSPropertyOp1
 70
     1
102
RTVSPropertyOp2
 70
     1
102
RTVSPropertyOp3
 70
     1
102
RTVSPropertyOp4
 70
     1
102
RTVSPropertyOp5
 70
     1
102
RTVSPropertyOp6
 70
     1
102
RTVSPropertyOp7
 70
     1
102
RTVSPropertyOp8
 70
     1
102
RTVSPropertyOp9
 70
     1
102
RTVSPropertyOp10
 70
     1
102
RTVSPropertyOp11
 70
     1
102
RTVSPropertyOp12
 70
     1
102
RTVSPropertyOp13
 70
     1
102
RTVSPropertyOp14
 70
     1
102
RTVSPropertyOp15
 70
     1
102
RTVSPropertyOp16
 70
     1
102
RTVSPropertyOp17
 70
     1
102
RTVSPropertyOp18
 70
     1
102
RTVSPropertyOp19
 70
     1
102
RTVSPropertyOp20
 70
     1
102
RTVSPropertyOp21
 70
     1
102
RTVSPropertyOp22
 70
     1
102
RTVSPropertyOp23
 70
     1
102
RTVSPropertyOp24
 70
     1
102
RTVSPropertyOp25
 70
     1
102
RTVSPropertyOp26
 70
     1
102
RTVSPropertyOp27
 70
     1
102
RTVSPropertyOp28
 70
     1
102
RTVSPropertyOp29
 70
     1
102
RTVSPropertyOp30
 70
     1
102
RTVSPropertyOp31
 70
     1
102
RTVSPropertyOp32
 70
     1
102
RTVSPropertyOp33
 70
     1
102
RTVSPropertyOp34
 70
     1
102
RTVSPropertyOp35
 70
     1
102
RTVSPropertyOp36
 70
     1
102
RTVSPropertyOp37
 70
     1
102
RTVSPropertyOp38
 70
     1
102
RTVSPropertyOp39
 70
     1
102
RTVSPropertyOp40
 70
     1
102
RTVSPropertyOp41
 70
     1
102
RTVSPropertyOp42
 70
     1
102
RTVSPropertyOp43
 70
     1
102
RTVSPropertyOp44
 70
     1
102
RTVSPropertyOp45
 70
     1
102
RTVSPropertyOp46
 70
     1
102
RTVSPropertyOp47
 70
     1
102
RTVSPropertyOp48
 70
     1
102
RTVSPropertyOp49
 70
     1
102
RTVSPropertyOp50
 70
     1
102
RTVSPropertyOp51
 70
     0
102
RTVSPropertyOp52
 70
     0
102
RTVSPropertyOp53
 70
     1
102
RTVSPropertyOp54
 70
     1
102
RTVSPropertyOp55
 70
     1
102
RTVSPropertyOp56
 70
     1
102
RTVSPropertyOp57
 70
     1
102
RTVSPropertyOp58
 70
     1
102
RTVSPropertyOp59
 70
     1
102
RTVSPropertyOp60
 70
     1
102
RTVSPropertyOp61
 70
     1
102
RTVSPropertyOp62
 70
     1
  0
XRECORD
  5
9E78
102
{ACAD_REACTORS
330
9E77
102
}
330
9E77
100
AcDbXrecord
280
     1
102
RTVSPost2010Prop28
280
     0
102
RTVSPost2010PropOp28
 70
     1
102
RTVSPost2010Prop29
280
     1
102
RTVSPost2010PropOp29
 70
     1
102
RTVSPost2010Prop30
280
     1
102
RTVSPost2010PropOp30
 70
     1
102
RTVSPost2010Prop31
280
     0
102
RTVSPost2010PropOp31
 70
     1
102
RTVSPost2010Prop32
280
     0
102
RTVSPost2010PropOp32
 70
     1
102
RTVSPost2010Prop33
280
     0
102
RTVSPost2010PropOp33
 70
     1
102
RTVSPost2010Prop34
280
     0
102
RTVSPost2010PropOp34
 70
     1
102
RTVSPost2010Prop35
280
     0
102
RTVSPost2010PropOp35
 70
     1
102
RTVSPost2010Prop36
280
     0
102
RTVSPost2010PropOp36
 70
     1
102
RTVSPost2010Prop37
 90
       50
102
RTVSPost2010PropOp37
 70
     1
102
RTVSPost2010Prop38
140
0.0
102
RTVSPost2010PropOp38
 70
     1
102
RTVSPost2010Prop39
140
1.0
102
RTVSPost2010PropOp39
 70
     1
102
RTVSPost2010Prop40
 90
        0
102
RTVSPost2010PropOp40
 70
     1
102
RTVSPost2010Prop41ColorIndex
 90
       18
102
RTVSPost2010Prop41ColorRGB
 90
        0
102
RTVSPost2010PropOp41
 70
     1
102
RTVSPost2010Prop42
 90
       50
102
RTVSPost2010PropOp42
 70
     1
102
RTVSPost2010Prop43
 90
        3
102
RTVSPost2010PropOp43
 70
     1
102
RTVSPost2010Prop44ColorIndex
 90
        5
102
RTVSPost2010Prop44ColorRGB
 90
      255
102
RTVSPost2010PropOp44
 70
     1
102
RTVSPost2010Prop45
280
     0
102
RTVSPost2010PropOp45
 70
     1
102
RTVSPost2010Prop46
 90
       50
102
RTVSPost2010PropOp46
 70
     1
102
RTVSPost2010Prop47
 90
       50
102
RTVSPost2010PropOp47
 70
     1
102
RTVSPost2010Prop48
 90
       50
102
RTVSPost2010PropOp48
 70
     1
102
RTVSPost2010Prop49
280
     0
102
RTVSPost2010PropOp49
 70
     1
102
RTVSPost2010Prop50
 90
       50
102
RTVSPost2010PropOp50
 70
     1
102
RTVSPost2010Prop51ColorIndex
 90
      256
102
RTVSPost2010Prop51ColorRGB
 90
-16777216
102
RTVSPost2010PropOp51
 70
     0
102
RTVSPost2010Prop52
140
1.0
102
RTVSPost2010PropOp52
 70
     0
102
RTVSPost2010Prop53
 90
        2
102
RTVSPost2010PropOp53
 70
     1
102
RTVSPost2010Prop54
  1
strokes_ogs.tif
102
RTVSPost2010PropOp54
 70
     1
102
RTVSPost2010Prop55
280
     0
102
RTVSPost2010PropOp55
 70
     1
102
RTVSPost2010Prop56
140
1.0
102
RTVSPost2010PropOp56
 70
     1
102
RTVSPost2010Prop57
140
1.0
102
RTVSPost2010PropOp57
 70
     1
102
RTVSPropertyOp0
 70
     1
102
RTVSPropertyOp1
 70
     1
102
RTVSPropertyOp2
 70
     1
102
RTVSPropertyOp3
 70
     1
102
RTVSPropertyOp4
 70
     1
102
RTVSPropertyOp5
 70
     1
102
RTVSPropertyOp6
 70
     1
102
RTVSPropertyOp7
 70
     1
102
RTVSPropertyOp8
 70
     1
102
RTVSPropertyOp9
 70
     1
102
RTVSPropertyOp10
 70
     1
102
RTVSPropertyOp11
 70
     1
102
RTVSPropertyOp12
 70
     1
102
RTVSPropertyOp13
 70
     1
102
RTVSPropertyOp14
 70
     1
102
RTVSPropertyOp15
 70
     1
102
RTVSPropertyOp16
 70
     1
102
RTVSPropertyOp17
 70
     1
102
RTVSPropertyOp18
 70
     1
102
RTVSPropertyOp19
 70
     1
102
RTVSPropertyOp20
 70
     1
102
RTVSPropertyOp21
 70
     1
102
RTVSPropertyOp22
 70
     1
102
RTVSPropertyOp23
 70
     1
102
RTVSPropertyOp24
 70
     1
102
RTVSPropertyOp25
 70
     1
102
RTVSPropertyOp26
 70
     1
102
RTVSPropertyOp27
 70
     1
102
RTVSPropertyOp28
 70
     1
102
RTVSPropertyOp29
 70
     1
102
RTVSPropertyOp30
 70
     1
102
RTVSPropertyOp31
 70
     1
102
RTVSPropertyOp32
 70
     1
102
RTVSPropertyOp33
 70
     1
102
RTVSPropertyOp34
 70
     1
102
RTVSPropertyOp35
 70
     1
102
RTVSPropertyOp36
 70
     1
102
RTVSPropertyOp37
 70
     1
102
RTVSPropertyOp38
 70
     1
102
RTVSPropertyOp39
 70
     1
102
RTVSPropertyOp40
 70
     1
102
RTVSPropertyOp41
 70
     1
102
RTVSPropertyOp42
 70
     1
102
RTVSPropertyOp43
 70
     1
102
RTVSPropertyOp44
 70
     1
102
RTVSPropertyOp45
 70
     1
102
RTVSPropertyOp46
 70
     1
102
RTVSPropertyOp47
 70
     1
102
RTVSPropertyOp48
 70
     1
102
RTVSPropertyOp49
 70
     1
102
RTVSPropertyOp50
 70
     1
102
RTVSPropertyOp51
 70
     0
102
RTVSPropertyOp52
 70
     0
102
RTVSPropertyOp53
 70
     1
102
RTVSPropertyOp54
 70
     1
102
RTVSPropertyOp55
 70
     1
102
RTVSPropertyOp56
 70
     1
102
RTVSPropertyOp57
 70
     1
102
RTVSPropertyOp58
 70
     1
102
RTVSPropertyOp59
 70
     1
102
RTVSPropertyOp60
 70
     1
102
RTVSPropertyOp61
 70
     1
102
RTVSPropertyOp62
 70
     1
  0
XRECORD
  5
9E6A
102
{ACAD_REACTORS
330
9E69
102
}
330
9E69
100
AcDbXrecord
280
     1
102
RTVSPost2010Prop28
280
     0
102
RTVSPost2010PropOp28
 70
     1
102
RTVSPost2010Prop29
280
     1
102
RTVSPost2010PropOp29
 70
     1
102
RTVSPost2010Prop30
280
     1
102
RTVSPost2010PropOp30
 70
     1
102
RTVSPost2010Prop31
280
     0
102
RTVSPost2010PropOp31
 70
     1
102
RTVSPost2010Prop32
280
     0
102
RTVSPost2010PropOp32
 70
     1
102
RTVSPost2010Prop33
280
     0
102
RTVSPost2010PropOp33
 70
     1
102
RTVSPost2010Prop34
280
     0
102
RTVSPost2010PropOp34
 70
     1
102
RTVSPost2010Prop35
280
     0
102
RTVSPost2010PropOp35
 70
     1
102
RTVSPost2010Prop36
280
     0
102
RTVSPost2010PropOp36
 70
     1
102
RTVSPost2010Prop37
 90
       50
102
RTVSPost2010PropOp37
 70
     1
102
RTVSPost2010Prop38
140
0.0
102
RTVSPost2010PropOp38
 70
     1
102
RTVSPost2010Prop39
140
1.0
102
RTVSPost2010PropOp39
 70
     1
102
RTVSPost2010Prop40
 90
        0
102
RTVSPost2010PropOp40
 70
     1
102
RTVSPost2010Prop41ColorIndex
 90
       18
102
RTVSPost2010Prop41ColorRGB
 90
        0
102
RTVSPost2010PropOp41
 70
     1
102
RTVSPost2010Prop42
 90
       50
102
RTVSPost2010PropOp42
 70
     1
102
RTVSPost2010Prop43
 90
        3
102
RTVSPost2010PropOp43
 70
     1
102
RTVSPost2010Prop44ColorIndex
 90
        5
102
RTVSPost2010Prop44ColorRGB
 90
      255
102
RTVSPost2010PropOp44
 70
     1
102
RTVSPost2010Prop45
280
     0
102
RTVSPost2010PropOp45
 70
     1
102
RTVSPost2010Prop46
 90
       50
102
RTVSPost2010PropOp46
 70
     1
102
RTVSPost2010Prop47
 90
       50
102
RTVSPost2010PropOp47
 70
     1
102
RTVSPost2010Prop48
 90
       50
102
RTVSPost2010PropOp48
 70
     1
102
RTVSPost2010Prop49
280
     0
102
RTVSPost2010PropOp49
 70
     1
102
RTVSPost2010Prop50
 90
       50
102
RTVSPost2010PropOp50
 70
     1
102
RTVSPost2010Prop51ColorIndex
 90
      256
102
RTVSPost2010Prop51ColorRGB
 90
-16777216
102
RTVSPost2010PropOp51
 70
     0
102
RTVSPost2010Prop52
140
1.0
102
RTVSPost2010PropOp52
 70
     0
102
RTVSPost2010Prop53
 90
        2
102
RTVSPost2010PropOp53
 70
     1
102
RTVSPost2010Prop54
  1
strokes_ogs.tif
102
RTVSPost2010PropOp54
 70
     1
102
RTVSPost2010Prop55
280
     0
102
RTVSPost2010PropOp55
 70
     1
102
RTVSPost2010Prop56
140
1.0
102
RTVSPost2010PropOp56
 70
     1
102
RTVSPost2010Prop57
140
1.0
102
RTVSPost2010PropOp57
 70
     1
102
RTVSPropertyOp0
 70
     1
102
RTVSPropertyOp1
 70
     1
102
RTVSPropertyOp2
 70
     1
102
RTVSPropertyOp3
 70
     1
102
RTVSPropertyOp4
 70
     1
102
RTVSPropertyOp5
 70
     1
102
RTVSPropertyOp6
 70
     1
102
RTVSPropertyOp7
 70
     1
102
RTVSPropertyOp8
 70
     1
102
RTVSPropertyOp9
 70
     1
102
RTVSPropertyOp10
 70
     1
102
RTVSPropertyOp11
 70
     1
102
RTVSPropertyOp12
 70
     1
102
RTVSPropertyOp13
 70
     1
102
RTVSPropertyOp14
 70
     1
102
RTVSPropertyOp15
 70
     1
102
RTVSPropertyOp16
 70
     1
102
RTVSPropertyOp17
 70
     1
102
RTVSPropertyOp18
 70
     1
102
RTVSPropertyOp19
 70
     1
102
RTVSPropertyOp20
 70
     1
102
RTVSPropertyOp21
 70
     1
102
RTVSPropertyOp22
 70
     1
102
RTVSPropertyOp23
 70
     1
102
RTVSPropertyOp24
 70
     1
102
RTVSPropertyOp25
 70
     1
102
RTVSPropertyOp26
 70
     1
102
RTVSPropertyOp27
 70
     1
102
RTVSPropertyOp28
 70
     1
102
RTVSPropertyOp29
 70
     1
102
RTVSPropertyOp30
 70
     1
102
RTVSPropertyOp31
 70
     1
102
RTVSPropertyOp32
 70
     1
102
RTVSPropertyOp33
 70
     1
102
RTVSPropertyOp34
 70
     1
102
RTVSPropertyOp35
 70
     1
102
RTVSPropertyOp36
 70
     1
102
RTVSPropertyOp37
 70
     1
102
RTVSPropertyOp38
 70
     1
102
RTVSPropertyOp39
 70
     1
102
RTVSPropertyOp40
 70
     1
102
RTVSPropertyOp41
 70
     1
102
RTVSPropertyOp42
 70
     1
102
RTVSPropertyOp43
 70
     1
102
RTVSPropertyOp44
 70
     1
102
RTVSPropertyOp45
 70
     1
102
RTVSPropertyOp46
 70
     1
102
RTVSPropertyOp47
 70
     1
102
RTVSPropertyOp48
 70
     1
102
RTVSPropertyOp49
 70
     1
102
RTVSPropertyOp50
 70
     1
102
RTVSPropertyOp51
 70
     0
102
RTVSPropertyOp52
 70
     0
102
RTVSPropertyOp53
 70
     1
102
RTVSPropertyOp54
 70
     1
102
RTVSPropertyOp55
 70
     1
102
RTVSPropertyOp56
 70
     1
102
RTVSPropertyOp57
 70
     1
102
RTVSPropertyOp58
 70
     1
102
RTVSPropertyOp59
 70
     1
102
RTVSPropertyOp60
 70
     1
102
RTVSPropertyOp61
 70
     1
102
RTVSPropertyOp62
 70
     1
  0
XRECORD
  5
9E6E
102
{ACAD_REACTORS
330
9E6D
102
}
330
9E6D
100
AcDbXrecord
280
     1
102
RTVSPost2010Prop28
280
     0
102
RTVSPost2010PropOp28
 70
     1
102
RTVSPost2010Prop29
280
     1
102
RTVSPost2010PropOp29
 70
     1
102
RTVSPost2010Prop30
280
     1
102
RTVSPost2010PropOp30
 70
     1
102
RTVSPost2010Prop31
280
     0
102
RTVSPost2010PropOp31
 70
     1
102
RTVSPost2010Prop32
280
     0
102
RTVSPost2010PropOp32
 70
     1
102
RTVSPost2010Prop33
280
     0
102
RTVSPost2010PropOp33
 70
     1
102
RTVSPost2010Prop34
280
     0
102
RTVSPost2010PropOp34
 70
     1
102
RTVSPost2010Prop35
280
     0
102
RTVSPost2010PropOp35
 70
     1
102
RTVSPost2010Prop36
280
     0
102
RTVSPost2010PropOp36
 70
     1
102
RTVSPost2010Prop37
 90
       50
102
RTVSPost2010PropOp37
 70
     1
102
RTVSPost2010Prop38
140
0.0
102
RTVSPost2010PropOp38
 70
     1
102
RTVSPost2010Prop39
140
1.0
102
RTVSPost2010PropOp39
 70
     1
102
RTVSPost2010Prop40
 90
        0
102
RTVSPost2010PropOp40
 70
     1
102
RTVSPost2010Prop41ColorIndex
 90
       18
102
RTVSPost2010Prop41ColorRGB
 90
        0
102
RTVSPost2010PropOp41
 70
     1
102
RTVSPost2010Prop42
 90
       50
102
RTVSPost2010PropOp42
 70
     1
102
RTVSPost2010Prop43
 90
        3
102
RTVSPost2010PropOp43
 70
     1
102
RTVSPost2010Prop44ColorIndex
 90
        5
102
RTVSPost2010Prop44ColorRGB
 90
      255
102
RTVSPost2010PropOp44
 70
     1
102
RTVSPost2010Prop45
280
     0
102
RTVSPost2010PropOp45
 70
     1
102
RTVSPost2010Prop46
 90
       50
102
RTVSPost2010PropOp46
 70
     1
102
RTVSPost2010Prop47
 90
       50
102
RTVSPost2010PropOp47
 70
     1
102
RTVSPost2010Prop48
 90
       50
102
RTVSPost2010PropOp48
 70
     1
102
RTVSPost2010Prop49
280
     0
102
RTVSPost2010PropOp49
 70
     1
102
RTVSPost2010Prop50
 90
       50
102
RTVSPost2010PropOp50
 70
     1
102
RTVSPost2010Prop51ColorIndex
 90
      256
102
RTVSPost2010Prop51ColorRGB
 90
-16777216
102
RTVSPost2010PropOp51
 70
     0
102
RTVSPost2010Prop52
140
1.0
102
RTVSPost2010PropOp52
 70
     0
102
RTVSPost2010Prop53
 90
        2
102
RTVSPost2010PropOp53
 70
     1
102
RTVSPost2010Prop54
  1
strokes_ogs.tif
102
RTVSPost2010PropOp54
 70
     1
102
RTVSPost2010Prop55
280
     0
102
RTVSPost2010PropOp55
 70
     1
102
RTVSPost2010Prop56
140
1.0
102
RTVSPost2010PropOp56
 70
     1
102
RTVSPost2010Prop57
140
1.0
102
RTVSPost2010PropOp57
 70
     1
102
RTVSPropertyOp0
 70
     1
102
RTVSPropertyOp1
 70
     1
102
RTVSPropertyOp2
 70
     1
102
RTVSPropertyOp3
 70
     1
102
RTVSPropertyOp4
 70
     1
102
RTVSPropertyOp5
 70
     1
102
RTVSPropertyOp6
 70
     1
102
RTVSPropertyOp7
 70
     1
102
RTVSPropertyOp8
 70
     1
102
RTVSPropertyOp9
 70
     1
102
RTVSPropertyOp10
 70
     1
102
RTVSPropertyOp11
 70
     1
102
RTVSPropertyOp12
 70
     1
102
RTVSPropertyOp13
 70
     1
102
RTVSPropertyOp14
 70
     1
102
RTVSPropertyOp15
 70
     1
102
RTVSPropertyOp16
 70
     1
102
RTVSPropertyOp17
 70
     1
102
RTVSPropertyOp18
 70
     1
102
RTVSPropertyOp19
 70
     1
102
RTVSPropertyOp20
 70
     1
102
RTVSPropertyOp21
 70
     1
102
RTVSPropertyOp22
 70
     1
102
RTVSPropertyOp23
 70
     1
102
RTVSPropertyOp24
 70
     1
102
RTVSPropertyOp25
 70
     1
102
RTVSPropertyOp26
 70
     1
102
RTVSPropertyOp27
 70
     1
102
RTVSPropertyOp28
 70
     1
102
RTVSPropertyOp29
 70
     1
102
RTVSPropertyOp30
 70
     1
102
RTVSPropertyOp31
 70
     1
102
RTVSPropertyOp32
 70
     1
102
RTVSPropertyOp33
 70
     1
102
RTVSPropertyOp34
 70
     1
102
RTVSPropertyOp35
 70
     1
102
RTVSPropertyOp36
 70
     1
102
RTVSPropertyOp37
 70
     1
102
RTVSPropertyOp38
 70
     1
102
RTVSPropertyOp39
 70
     1
102
RTVSPropertyOp40
 70
     1
102
RTVSPropertyOp41
 70
     1
102
RTVSPropertyOp42
 70
     1
102
RTVSPropertyOp43
 70
     1
102
RTVSPropertyOp44
 70
     1
102
RTVSPropertyOp45
 70
     1
102
RTVSPropertyOp46
 70
     1
102
RTVSPropertyOp47
 70
     1
102
RTVSPropertyOp48
 70
     1
102
RTVSPropertyOp49
 70
     1
102
RTVSPropertyOp50
 70
     1
102
RTVSPropertyOp51
 70
     0
102
RTVSPropertyOp52
 70
     0
102
RTVSPropertyOp53
 70
     1
102
RTVSPropertyOp54
 70
     1
102
RTVSPropertyOp55
 70
     1
102
RTVSPropertyOp56
 70
     1
102
RTVSPropertyOp57
 70
     1
102
RTVSPropertyOp58
 70
     1
102
RTVSPropertyOp59
 70
     1
102
RTVSPropertyOp60
 70
     1
102
RTVSPropertyOp61
 70
     1
102
RTVSPropertyOp62
 70
     1
  0
XRECORD
  5
9E88
102
{ACAD_REACTORS
330
9E87
102
}
330
9E87
100
AcDbXrecord
280
     1
102
RTVSPost2010Prop28
280
     0
102
RTVSPost2010PropOp28
 70
     1
102
RTVSPost2010Prop29
280
     1
102
RTVSPost2010PropOp29
 70
     1
102
RTVSPost2010Prop30
280
     1
102
RTVSPost2010PropOp30
 70
     1
102
RTVSPost2010Prop31
280
     0
102
RTVSPost2010PropOp31
 70
     1
102
RTVSPost2010Prop32
280
     0
102
RTVSPost2010PropOp32
 70
     1
102
RTVSPost2010Prop33
280
     0
102
RTVSPost2010PropOp33
 70
     1
102
RTVSPost2010Prop34
280
     0
102
RTVSPost2010PropOp34
 70
     1
102
RTVSPost2010Prop35
280
     0
102
RTVSPost2010PropOp35
 70
     1
102
RTVSPost2010Prop36
280
     0
102
RTVSPost2010PropOp36
 70
     1
102
RTVSPost2010Prop37
 90
       50
102
RTVSPost2010PropOp37
 70
     0
102
RTVSPost2010Prop38
140
0.0
102
RTVSPost2010PropOp38
 70
     0
102
RTVSPost2010Prop39
140
1.0
102
RTVSPost2010PropOp39
 70
     0
102
RTVSPost2010Prop40
 90
        0
102
RTVSPost2010PropOp40
 70
     0
102
RTVSPost2010Prop41ColorIndex
 90
       18
102
RTVSPost2010Prop41ColorRGB
 90
        0
102
RTVSPost2010PropOp41
 70
     0
102
RTVSPost2010Prop42
 90
       50
102
RTVSPost2010PropOp42
 70
     0
102
RTVSPost2010Prop43
 90
        3
102
RTVSPost2010PropOp43
 70
     0
102
RTVSPost2010Prop44ColorIndex
 90
        5
102
RTVSPost2010Prop44ColorRGB
 90
      255
102
RTVSPost2010PropOp44
 70
     0
102
RTVSPost2010Prop45
280
     0
102
RTVSPost2010PropOp45
 70
     1
102
RTVSPost2010Prop46
 90
       50
102
RTVSPost2010PropOp46
 70
     0
102
RTVSPost2010Prop47
 90
       50
102
RTVSPost2010PropOp47
 70
     0
102
RTVSPost2010Prop48
 90
       50
102
RTVSPost2010PropOp48
 70
     0
102
RTVSPost2010Prop49
280
     0
102
RTVSPost2010PropOp49
 70
     1
102
RTVSPost2010Prop50
 90
       50
102
RTVSPost2010PropOp50
 70
     0
102
RTVSPost2010Prop51ColorIndex
 90
      256
102
RTVSPost2010Prop51ColorRGB
 90
-16777216
102
RTVSPost2010PropOp51
 70
     0
102
RTVSPost2010Prop52
140
1.0
102
RTVSPost2010PropOp52
 70
     0
102
RTVSPost2010Prop53
 90
        2
102
RTVSPost2010PropOp53
 70
     0
102
RTVSPost2010Prop54
  1
strokes_ogs.tif
102
RTVSPost2010PropOp54
 70
     0
102
RTVSPost2010Prop55
280
     0
102
RTVSPost2010PropOp55
 70
     1
102
RTVSPost2010Prop56
140
1.0
102
RTVSPost2010PropOp56
 70
     0
102
RTVSPost2010Prop57
140
1.0
102
RTVSPost2010PropOp57
 70
     0
102
RTVSPropertyOp0
 70
     0
102
RTVSPropertyOp1
 70
     0
102
RTVSPropertyOp2
 70
     0
102
RTVSPropertyOp3
 70
     0
102
RTVSPropertyOp4
 70
     0
102
RTVSPropertyOp5
 70
     0
102
RTVSPropertyOp6
 70
     0
102
RTVSPropertyOp7
 70
     0
102
RTVSPropertyOp8
 70
     0
102
RTVSPropertyOp9
 70
     0
102
RTVSPropertyOp10
 70
     0
102
RTVSPropertyOp11
 70
     0
102
RTVSPropertyOp12
 70
     0
102
RTVSPropertyOp13
 70
     0
102
RTVSPropertyOp14
 70
     2
102
RTVSPropertyOp15
 70
     0
102
RTVSPropertyOp16
 70
     0
102
RTVSPropertyOp17
 70
     0
102
RTVSPropertyOp18
 70
     0
102
RTVSPropertyOp19
 70
     0
102
RTVSPropertyOp20
 70
     0
102
RTVSPropertyOp21
 70
     0
102
RTVSPropertyOp22
 70
     0
102
RTVSPropertyOp23
 70
     0
102
RTVSPropertyOp24
 70
     0
102
RTVSPropertyOp25
 70
     0
102
RTVSPropertyOp26
 70
     0
102
RTVSPropertyOp27
 70
     0
102
RTVSPropertyOp28
 70
     1
102
RTVSPropertyOp29
 70
     1
102
RTVSPropertyOp30
 70
     1
102
RTVSPropertyOp31
 70
     1
102
RTVSPropertyOp32
 70
     1
102
RTVSPropertyOp33
 70
     1
102
RTVSPropertyOp34
 70
     1
102
RTVSPropertyOp35
 70
     1
102
RTVSPropertyOp36
 70
     1
102
RTVSPropertyOp37
 70
     0
102
RTVSPropertyOp38
 70
     0
102
RTVSPropertyOp39
 70
     0
102
RTVSPropertyOp40
 70
     0
102
RTVSPropertyOp41
 70
     0
102
RTVSPropertyOp42
 70
     0
102
RTVSPropertyOp43
 70
     0
102
RTVSPropertyOp44
 70
     0
102
RTVSPropertyOp45
 70
     1
102
RTVSPropertyOp46
 70
     0
102
RTVSPropertyOp47
 70
     0
102
RTVSPropertyOp48
 70
     0
102
RTVSPropertyOp49
 70
     1
102
RTVSPropertyOp50
 70
     0
102
RTVSPropertyOp51
 70
     0
102
RTVSPropertyOp52
 70
     0
102
RTVSPropertyOp53
 70
     0
102
RTVSPropertyOp54
 70
     0
102
RTVSPropertyOp55
 70
     1
102
RTVSPropertyOp56
 70
     0
102
RTVSPropertyOp57
 70
     0
102
RTVSPropertyOp58
 70
     0
102
RTVSPropertyOp59
 70
     0
102
RTVSPropertyOp60
 70
     0
102
RTVSPropertyOp61
 70
     0
102
RTVSPropertyOp62
 70
     0
  0
XRECORD
  5
9E76
102
{ACAD_REACTORS
330
9E75
102
}
330
9E75
100
AcDbXrecord
280
     1
102
RTVSPost2010Prop28
280
     0
102
RTVSPost2010PropOp28
 70
     1
102
RTVSPost2010Prop29
280
     1
102
RTVSPost2010PropOp29
 70
     1
102
RTVSPost2010Prop30
280
     1
102
RTVSPost2010PropOp30
 70
     1
102
RTVSPost2010Prop31
280
     0
102
RTVSPost2010PropOp31
 70
     1
102
RTVSPost2010Prop32
280
     0
102
RTVSPost2010PropOp32
 70
     1
102
RTVSPost2010Prop33
280
     0
102
RTVSPost2010PropOp33
 70
     1
102
RTVSPost2010Prop34
280
     0
102
RTVSPost2010PropOp34
 70
     1
102
RTVSPost2010Prop35
280
     0
102
RTVSPost2010PropOp35
 70
     1
102
RTVSPost2010Prop36
280
     0
102
RTVSPost2010PropOp36
 70
     1
102
RTVSPost2010Prop37
 90
       50
102
RTVSPost2010PropOp37
 70
     1
102
RTVSPost2010Prop38
140
0.0
102
RTVSPost2010PropOp38
 70
     1
102
RTVSPost2010Prop39
140
1.0
102
RTVSPost2010PropOp39
 70
     1
102
RTVSPost2010Prop40
 90
        0
102
RTVSPost2010PropOp40
 70
     1
102
RTVSPost2010Prop41ColorIndex
 90
       18
102
RTVSPost2010Prop41ColorRGB
 90
        0
102
RTVSPost2010PropOp41
 70
     1
102
RTVSPost2010Prop42
 90
       50
102
RTVSPost2010PropOp42
 70
     1
102
RTVSPost2010Prop43
 90
        3
102
RTVSPost2010PropOp43
 70
     1
102
RTVSPost2010Prop44ColorIndex
 90
        5
102
RTVSPost2010Prop44ColorRGB
 90
      255
102
RTVSPost2010PropOp44
 70
     1
102
RTVSPost2010Prop45
280
     0
102
RTVSPost2010PropOp45
 70
     1
102
RTVSPost2010Prop46
 90
       50
102
RTVSPost2010PropOp46
 70
     1
102
RTVSPost2010Prop47
 90
       50
102
RTVSPost2010PropOp47
 70
     1
102
RTVSPost2010Prop48
 90
       50
102
RTVSPost2010PropOp48
 70
     1
102
RTVSPost2010Prop49
280
     0
102
RTVSPost2010PropOp49
 70
     1
102
RTVSPost2010Prop50
 90
       50
102
RTVSPost2010PropOp50
 70
     1
102
RTVSPost2010Prop51ColorIndex
 90
      256
102
RTVSPost2010Prop51ColorRGB
 90
-16777216
102
RTVSPost2010PropOp51
 70
     0
102
RTVSPost2010Prop52
140
1.0
102
RTVSPost2010PropOp52
 70
     0
102
RTVSPost2010Prop53
 90
        2
102
RTVSPost2010PropOp53
 70
     1
102
RTVSPost2010Prop54
  1
strokes_ogs.tif
102
RTVSPost2010PropOp54
 70
     1
102
RTVSPost2010Prop55
280
     0
102
RTVSPost2010PropOp55
 70
     1
102
RTVSPost2010Prop56
140
1.0
102
RTVSPost2010PropOp56
 70
     1
102
RTVSPost2010Prop57
140
1.0
102
RTVSPost2010PropOp57
 70
     1
102
RTVSPropertyOp0
 70
     1
102
RTVSPropertyOp1
 70
     1
102
RTVSPropertyOp2
 70
     1
102
RTVSPropertyOp3
 70
     1
102
RTVSPropertyOp4
 70
     1
102
RTVSPropertyOp5
 70
     1
102
RTVSPropertyOp6
 70
     1
102
RTVSPropertyOp7
 70
     1
102
RTVSPropertyOp8
 70
     1
102
RTVSPropertyOp9
 70
     1
102
RTVSPropertyOp10
 70
     1
102
RTVSPropertyOp11
 70
     1
102
RTVSPropertyOp12
 70
     1
102
RTVSPropertyOp13
 70
     1
102
RTVSPropertyOp14
 70
     1
102
RTVSPropertyOp15
 70
     1
102
RTVSPropertyOp16
 70
     1
102
RTVSPropertyOp17
 70
     1
102
RTVSPropertyOp18
 70
     1
102
RTVSPropertyOp19
 70
     1
102
RTVSPropertyOp20
 70
     1
102
RTVSPropertyOp21
 70
     1
102
RTVSPropertyOp22
 70
     1
102
RTVSPropertyOp23
 70
     1
102
RTVSPropertyOp24
 70
     1
102
RTVSPropertyOp25
 70
     1
102
RTVSPropertyOp26
 70
     1
102
RTVSPropertyOp27
 70
     1
102
RTVSPropertyOp28
 70
     1
102
RTVSPropertyOp29
 70
     1
102
RTVSPropertyOp30
 70
     1
102
RTVSPropertyOp31
 70
     1
102
RTVSPropertyOp32
 70
     1
102
RTVSPropertyOp33
 70
     1
102
RTVSPropertyOp34
 70
     1
102
RTVSPropertyOp35
 70
     1
102
RTVSPropertyOp36
 70
     1
102
RTVSPropertyOp37
 70
     1
102
RTVSPropertyOp38
 70
     1
102
RTVSPropertyOp39
 70
     1
102
RTVSPropertyOp40
 70
     1
102
RTVSPropertyOp41
 70
     1
102
RTVSPropertyOp42
 70
     1
102
RTVSPropertyOp43
 70
     1
102
RTVSPropertyOp44
 70
     1
102
RTVSPropertyOp45
 70
     1
102
RTVSPropertyOp46
 70
     1
102
RTVSPropertyOp47
 70
     1
102
RTVSPropertyOp48
 70
     1
102
RTVSPropertyOp49
 70
     1
102
RTVSPropertyOp50
 70
     1
102
RTVSPropertyOp51
 70
     0
102
RTVSPropertyOp52
 70
     0
102
RTVSPropertyOp53
 70
     1
102
RTVSPropertyOp54
 70
     1
102
RTVSPropertyOp55
 70
     1
102
RTVSPropertyOp56
 70
     1
102
RTVSPropertyOp57
 70
     1
102
RTVSPropertyOp58
 70
     1
102
RTVSPropertyOp59
 70
     1
102
RTVSPropertyOp60
 70
     1
102
RTVSPropertyOp61
 70
     1
102
RTVSPropertyOp62
 70
     1
  0
XRECORD
  5
9E5A
102
{ACAD_REACTORS
330
9E59
102
}
330
9E59
100
AcDbXrecord
280
     1
102
RTVSPost2010Prop28
280
     0
102
RTVSPost2010PropOp28
 70
     1
102
RTVSPost2010Prop29
280
     1
102
RTVSPost2010PropOp29
 70
     1
102
RTVSPost2010Prop30
280
     1
102
RTVSPost2010PropOp30
 70
     1
102
RTVSPost2010Prop31
280
     0
102
RTVSPost2010PropOp31
 70
     1
102
RTVSPost2010Prop32
280
     0
102
RTVSPost2010PropOp32
 70
     1
102
RTVSPost2010Prop33
280
     0
102
RTVSPost2010PropOp33
 70
     1
102
RTVSPost2010Prop34
280
     0
102
RTVSPost2010PropOp34
 70
     1
102
RTVSPost2010Prop35
280
     0
102
RTVSPost2010PropOp35
 70
     1
102
RTVSPost2010Prop36
280
     0
102
RTVSPost2010PropOp36
 70
     1
102
RTVSPost2010Prop37
 90
       50
102
RTVSPost2010PropOp37
 70
     1
102
RTVSPost2010Prop38
140
0.0
102
RTVSPost2010PropOp38
 70
     1
102
RTVSPost2010Prop39
140
1.0
102
RTVSPost2010PropOp39
 70
     1
102
RTVSPost2010Prop40
 90
        0
102
RTVSPost2010PropOp40
 70
     1
102
RTVSPost2010Prop41ColorIndex
 90
       18
102
RTVSPost2010Prop41ColorRGB
 90
        0
102
RTVSPost2010PropOp41
 70
     1
102
RTVSPost2010Prop42
 90
       50
102
RTVSPost2010PropOp42
 70
     1
102
RTVSPost2010Prop43
 90
        3
102
RTVSPost2010PropOp43
 70
     1
102
RTVSPost2010Prop44ColorIndex
 90
        5
102
RTVSPost2010Prop44ColorRGB
 90
      255
102
RTVSPost2010PropOp44
 70
     1
102
RTVSPost2010Prop45
280
     0
102
RTVSPost2010PropOp45
 70
     1
102
RTVSPost2010Prop46
 90
       50
102
RTVSPost2010PropOp46
 70
     1
102
RTVSPost2010Prop47
 90
       50
102
RTVSPost2010PropOp47
 70
     1
102
RTVSPost2010Prop48
 90
       50
102
RTVSPost2010PropOp48
 70
     1
102
RTVSPost2010Prop49
280
     0
102
RTVSPost2010PropOp49
 70
     1
102
RTVSPost2010Prop50
 90
       50
102
RTVSPost2010PropOp50
 70
     1
102
RTVSPost2010Prop51ColorIndex
 90
      256
102
RTVSPost2010Prop51ColorRGB
 90
-16777216
102
RTVSPost2010PropOp51
 70
     0
102
RTVSPost2010Prop52
140
1.0
102
RTVSPost2010PropOp52
 70
     0
102
RTVSPost2010Prop53
 90
        2
102
RTVSPost2010PropOp53
 70
     1
102
RTVSPost2010Prop54
  1
strokes_ogs.tif
102
RTVSPost2010PropOp54
 70
     1
102
RTVSPost2010Prop55
280
     0
102
RTVSPost2010PropOp55
 70
     1
102
RTVSPost2010Prop56
140
1.0
102
RTVSPost2010PropOp56
 70
     1
102
RTVSPost2010Prop57
140
1.0
102
RTVSPost2010PropOp57
 70
     1
102
RTVSPropertyOp0
 70
     1
102
RTVSPropertyOp1
 70
     1
102
RTVSPropertyOp2
 70
     1
102
RTVSPropertyOp3
 70
     1
102
RTVSPropertyOp4
 70
     1
102
RTVSPropertyOp5
 70
     1
102
RTVSPropertyOp6
 70
     1
102
RTVSPropertyOp7
 70
     1
102
RTVSPropertyOp8
 70
     1
102
RTVSPropertyOp9
 70
     1
102
RTVSPropertyOp10
 70
     1
102
RTVSPropertyOp11
 70
     1
102
RTVSPropertyOp12
 70
     1
102
RTVSPropertyOp13
 70
     1
102
RTVSPropertyOp14
 70
     1
102
RTVSPropertyOp15
 70
     1
102
RTVSPropertyOp16
 70
     1
102
RTVSPropertyOp17
 70
     1
102
RTVSPropertyOp18
 70
     1
102
RTVSPropertyOp19
 70
     1
102
RTVSPropertyOp20
 70
     1
102
RTVSPropertyOp21
 70
     1
102
RTVSPropertyOp22
 70
     1
102
RTVSPropertyOp23
 70
     1
102
RTVSPropertyOp24
 70
     1
102
RTVSPropertyOp25
 70
     1
102
RTVSPropertyOp26
 70
     1
102
RTVSPropertyOp27
 70
     1
102
RTVSPropertyOp28
 70
     1
102
RTVSPropertyOp29
 70
     1
102
RTVSPropertyOp30
 70
     1
102
RTVSPropertyOp31
 70
     1
102
RTVSPropertyOp32
 70
     1
102
RTVSPropertyOp33
 70
     1
102
RTVSPropertyOp34
 70
     1
102
RTVSPropertyOp35
 70
     1
102
RTVSPropertyOp36
 70
     1
102
RTVSPropertyOp37
 70
     1
102
RTVSPropertyOp38
 70
     1
102
RTVSPropertyOp39
 70
     1
102
RTVSPropertyOp40
 70
     1
102
RTVSPropertyOp41
 70
     1
102
RTVSPropertyOp42
 70
     1
102
RTVSPropertyOp43
 70
     1
102
RTVSPropertyOp44
 70
     1
102
RTVSPropertyOp45
 70
     1
102
RTVSPropertyOp46
 70
     1
102
RTVSPropertyOp47
 70
     1
102
RTVSPropertyOp48
 70
     1
102
RTVSPropertyOp49
 70
     1
102
RTVSPropertyOp50
 70
     1
102
RTVSPropertyOp51
 70
     0
102
RTVSPropertyOp52
 70
     0
102
RTVSPropertyOp53
 70
     1
102
RTVSPropertyOp54
 70
     1
102
RTVSPropertyOp55
 70
     1
102
RTVSPropertyOp56
 70
     1
102
RTVSPropertyOp57
 70
     1
102
RTVSPropertyOp58
 70
     1
102
RTVSPropertyOp59
 70
     1
102
RTVSPropertyOp60
 70
     1
102
RTVSPropertyOp61
 70
     1
102
RTVSPropertyOp62
 70
     1
  0
XRECORD
  5
9E5C
102
{ACAD_REACTORS
330
9E5B
102
}
330
9E5B
100
AcDbXrecord
280
     1
102
RTVSPost2010Prop28
280
     0
102
RTVSPost2010PropOp28
 70
     1
102
RTVSPost2010Prop29
280
     1
102
RTVSPost2010PropOp29
 70
     1
102
RTVSPost2010Prop30
280
     1
102
RTVSPost2010PropOp30
 70
     1
102
RTVSPost2010Prop31
280
     0
102
RTVSPost2010PropOp31
 70
     1
102
RTVSPost2010Prop32
280
     0
102
RTVSPost2010PropOp32
 70
     1
102
RTVSPost2010Prop33
280
     0
102
RTVSPost2010PropOp33
 70
     1
102
RTVSPost2010Prop34
280
     0
102
RTVSPost2010PropOp34
 70
     1
102
RTVSPost2010Prop35
280
     0
102
RTVSPost2010PropOp35
 70
     1
102
RTVSPost2010Prop36
280
     0
102
RTVSPost2010PropOp36
 70
     1
102
RTVSPost2010Prop37
 90
       50
102
RTVSPost2010PropOp37
 70
     1
102
RTVSPost2010Prop38
140
0.0
102
RTVSPost2010PropOp38
 70
     1
102
RTVSPost2010Prop39
140
1.0
102
RTVSPost2010PropOp39
 70
     1
102
RTVSPost2010Prop40
 90
        0
102
RTVSPost2010PropOp40
 70
     1
102
RTVSPost2010Prop41ColorIndex
 90
       18
102
RTVSPost2010Prop41ColorRGB
 90
        0
102
RTVSPost2010PropOp41
 70
     1
102
RTVSPost2010Prop42
 90
       50
102
RTVSPost2010PropOp42
 70
     1
102
RTVSPost2010Prop43
 90
        3
102
RTVSPost2010PropOp43
 70
     1
102
RTVSPost2010Prop44ColorIndex
 90
        5
102
RTVSPost2010Prop44ColorRGB
 90
      255
102
RTVSPost2010PropOp44
 70
     1
102
RTVSPost2010Prop45
280
     0
102
RTVSPost2010PropOp45
 70
     1
102
RTVSPost2010Prop46
 90
       50
102
RTVSPost2010PropOp46
 70
     1
102
RTVSPost2010Prop47
 90
       50
102
RTVSPost2010PropOp47
 70
     1
102
RTVSPost2010Prop48
 90
       50
102
RTVSPost2010PropOp48
 70
     1
102
RTVSPost2010Prop49
280
     0
102
RTVSPost2010PropOp49
 70
     1
102
RTVSPost2010Prop50
 90
       50
102
RTVSPost2010PropOp50
 70
     1
102
RTVSPost2010Prop51ColorIndex
 90
      256
102
RTVSPost2010Prop51ColorRGB
 90
-16777216
102
RTVSPost2010PropOp51
 70
     0
102
RTVSPost2010Prop52
140
1.0
102
RTVSPost2010PropOp52
 70
     0
102
RTVSPost2010Prop53
 90
        2
102
RTVSPost2010PropOp53
 70
     1
102
RTVSPost2010Prop54
  1
strokes_ogs.tif
102
RTVSPost2010PropOp54
 70
     1
102
RTVSPost2010Prop55
280
     0
102
RTVSPost2010PropOp55
 70
     1
102
RTVSPost2010Prop56
140
1.0
102
RTVSPost2010PropOp56
 70
     1
102
RTVSPost2010Prop57
140
1.0
102
RTVSPost2010PropOp57
 70
     1
102
RTVSPropertyOp0
 70
     1
102
RTVSPropertyOp1
 70
     1
102
RTVSPropertyOp2
 70
     1
102
RTVSPropertyOp3
 70
     1
102
RTVSPropertyOp4
 70
     1
102
RTVSPropertyOp5
 70
     1
102
RTVSPropertyOp6
 70
     1
102
RTVSPropertyOp7
 70
     1
102
RTVSPropertyOp8
 70
     1
102
RTVSPropertyOp9
 70
     1
102
RTVSPropertyOp10
 70
     1
102
RTVSPropertyOp11
 70
     1
102
RTVSPropertyOp12
 70
     1
102
RTVSPropertyOp13
 70
     1
102
RTVSPropertyOp14
 70
     1
102
RTVSPropertyOp15
 70
     1
102
RTVSPropertyOp16
 70
     1
102
RTVSPropertyOp17
 70
     1
102
RTVSPropertyOp18
 70
     1
102
RTVSPropertyOp19
 70
     1
102
RTVSPropertyOp20
 70
     1
102
RTVSPropertyOp21
 70
     1
102
RTVSPropertyOp22
 70
     1
102
RTVSPropertyOp23
 70
     1
102
RTVSPropertyOp24
 70
     1
102
RTVSPropertyOp25
 70
     1
102
RTVSPropertyOp26
 70
     1
102
RTVSPropertyOp27
 70
     1
102
RTVSPropertyOp28
 70
     1
102
RTVSPropertyOp29
 70
     1
102
RTVSPropertyOp30
 70
     1
102
RTVSPropertyOp31
 70
     1
102
RTVSPropertyOp32
 70
     1
102
RTVSPropertyOp33
 70
     1
102
RTVSPropertyOp34
 70
     1
102
RTVSPropertyOp35
 70
     1
102
RTVSPropertyOp36
 70
     1
102
RTVSPropertyOp37
 70
     1
102
RTVSPropertyOp38
 70
     1
102
RTVSPropertyOp39
 70
     1
102
RTVSPropertyOp40
 70
     1
102
RTVSPropertyOp41
 70
     1
102
RTVSPropertyOp42
 70
     1
102
RTVSPropertyOp43
 70
     1
102
RTVSPropertyOp44
 70
     1
102
RTVSPropertyOp45
 70
     1
102
RTVSPropertyOp46
 70
     1
102
RTVSPropertyOp47
 70
     1
102
RTVSPropertyOp48
 70
     1
102
RTVSPropertyOp49
 70
     1
102
RTVSPropertyOp50
 70
     1
102
RTVSPropertyOp51
 70
     0
102
RTVSPropertyOp52
 70
     0
102
RTVSPropertyOp53
 70
     1
102
RTVSPropertyOp54
 70
     1
102
RTVSPropertyOp55
 70
     1
102
RTVSPropertyOp56
 70
     1
102
RTVSPropertyOp57
 70
     1
102
RTVSPropertyOp58
 70
     1
102
RTVSPropertyOp59
 70
     1
102
RTVSPropertyOp60
 70
     1
102
RTVSPropertyOp61
 70
     1
102
RTVSPropertyOp62
 70
     1
  0
XRECORD
  5
9E5E
102
{ACAD_REACTORS
330
9E5D
102
}
330
9E5D
100
AcDbXrecord
280
     1
102
RTVSPost2010Prop28
280
     0
102
RTVSPost2010PropOp28
 70
     1
102
RTVSPost2010Prop29
280
     1
102
RTVSPost2010PropOp29
 70
     1
102
RTVSPost2010Prop30
280
     1
102
RTVSPost2010PropOp30
 70
     1
102
RTVSPost2010Prop31
280
     0
102
RTVSPost2010PropOp31
 70
     1
102
RTVSPost2010Prop32
280
     0
102
RTVSPost2010PropOp32
 70
     1
102
RTVSPost2010Prop33
280
     0
102
RTVSPost2010PropOp33
 70
     1
102
RTVSPost2010Prop34
280
     0
102
RTVSPost2010PropOp34
 70
     1
102
RTVSPost2010Prop35
280
     0
102
RTVSPost2010PropOp35
 70
     1
102
RTVSPost2010Prop36
280
     0
102
RTVSPost2010PropOp36
 70
     1
102
RTVSPost2010Prop37
 90
       50
102
RTVSPost2010PropOp37
 70
     1
102
RTVSPost2010Prop38
140
0.0
102
RTVSPost2010PropOp38
 70
     1
102
RTVSPost2010Prop39
140
1.0
102
RTVSPost2010PropOp39
 70
     1
102
RTVSPost2010Prop40
 90
        0
102
RTVSPost2010PropOp40
 70
     1
102
RTVSPost2010Prop41ColorIndex
 90
       18
102
RTVSPost2010Prop41ColorRGB
 90
        0
102
RTVSPost2010PropOp41
 70
     1
102
RTVSPost2010Prop42
 90
       50
102
RTVSPost2010PropOp42
 70
     1
102
RTVSPost2010Prop43
 90
        3
102
RTVSPost2010PropOp43
 70
     1
102
RTVSPost2010Prop44ColorIndex
 90
        5
102
RTVSPost2010Prop44ColorRGB
 90
      255
102
RTVSPost2010PropOp44
 70
     1
102
RTVSPost2010Prop45
280
     0
102
RTVSPost2010PropOp45
 70
     1
102
RTVSPost2010Prop46
 90
       50
102
RTVSPost2010PropOp46
 70
     1
102
RTVSPost2010Prop47
 90
       50
102
RTVSPost2010PropOp47
 70
     1
102
RTVSPost2010Prop48
 90
       50
102
RTVSPost2010PropOp48
 70
     1
102
RTVSPost2010Prop49
280
     0
102
RTVSPost2010PropOp49
 70
     1
102
RTVSPost2010Prop50
 90
       50
102
RTVSPost2010PropOp50
 70
     1
102
RTVSPost2010Prop51ColorIndex
 90
      256
102
RTVSPost2010Prop51ColorRGB
 90
-16777216
102
RTVSPost2010PropOp51
 70
     0
102
RTVSPost2010Prop52
140
1.0
102
RTVSPost2010PropOp52
 70
     0
102
RTVSPost2010Prop53
 90
        2
102
RTVSPost2010PropOp53
 70
     1
102
RTVSPost2010Prop54
  1
strokes_ogs.tif
102
RTVSPost2010PropOp54
 70
     1
102
RTVSPost2010Prop55
280
     0
102
RTVSPost2010PropOp55
 70
     1
102
RTVSPost2010Prop56
140
1.0
102
RTVSPost2010PropOp56
 70
     1
102
RTVSPost2010Prop57
140
1.0
102
RTVSPost2010PropOp57
 70
     1
102
RTVSPropertyOp0
 70
     1
102
RTVSPropertyOp1
 70
     1
102
RTVSPropertyOp2
 70
     1
102
RTVSPropertyOp3
 70
     1
102
RTVSPropertyOp4
 70
     1
102
RTVSPropertyOp5
 70
     1
102
RTVSPropertyOp6
 70
     1
102
RTVSPropertyOp7
 70
     1
102
RTVSPropertyOp8
 70
     1
102
RTVSPropertyOp9
 70
     1
102
RTVSPropertyOp10
 70
     1
102
RTVSPropertyOp11
 70
     1
102
RTVSPropertyOp12
 70
     1
102
RTVSPropertyOp13
 70
     1
102
RTVSPropertyOp14
 70
     1
102
RTVSPropertyOp15
 70
     1
102
RTVSPropertyOp16
 70
     1
102
RTVSPropertyOp17
 70
     1
102
RTVSPropertyOp18
 70
     1
102
RTVSPropertyOp19
 70
     1
102
RTVSPropertyOp20
 70
     1
102
RTVSPropertyOp21
 70
     1
102
RTVSPropertyOp22
 70
     1
102
RTVSPropertyOp23
 70
     1
102
RTVSPropertyOp24
 70
     1
102
RTVSPropertyOp25
 70
     1
102
RTVSPropertyOp26
 70
     1
102
RTVSPropertyOp27
 70
     1
102
RTVSPropertyOp28
 70
     1
102
RTVSPropertyOp29
 70
     1
102
RTVSPropertyOp30
 70
     1
102
RTVSPropertyOp31
 70
     1
102
RTVSPropertyOp32
 70
     1
102
RTVSPropertyOp33
 70
     1
102
RTVSPropertyOp34
 70
     1
102
RTVSPropertyOp35
 70
     1
102
RTVSPropertyOp36
 70
     1
102
RTVSPropertyOp37
 70
     1
102
RTVSPropertyOp38
 70
     1
102
RTVSPropertyOp39
 70
     1
102
RTVSPropertyOp40
 70
     1
102
RTVSPropertyOp41
 70
     1
102
RTVSPropertyOp42
 70
     1
102
RTVSPropertyOp43
 70
     1
102
RTVSPropertyOp44
 70
     1
102
RTVSPropertyOp45
 70
     1
102
RTVSPropertyOp46
 70
     1
102
RTVSPropertyOp47
 70
     1
102
RTVSPropertyOp48
 70
     1
102
RTVSPropertyOp49
 70
     1
102
RTVSPropertyOp50
 70
     1
102
RTVSPropertyOp51
 70
     0
102
RTVSPropertyOp52
 70
     0
102
RTVSPropertyOp53
 70
     1
102
RTVSPropertyOp54
 70
     1
102
RTVSPropertyOp55
 70
     1
102
RTVSPropertyOp56
 70
     1
102
RTVSPropertyOp57
 70
     1
102
RTVSPropertyOp58
 70
     1
102
RTVSPropertyOp59
 70
     1
102
RTVSPropertyOp60
 70
     1
102
RTVSPropertyOp61
 70
     1
102
RTVSPropertyOp62
 70
     1
  0
XRECORD
  5
9E60
102
{ACAD_REACTORS
330
9E5F
102
}
330
9E5F
100
AcDbXrecord
280
     1
102
RTVSPost2010Prop28
280
     0
102
RTVSPost2010PropOp28
 70
     1
102
RTVSPost2010Prop29
280
     1
102
RTVSPost2010PropOp29
 70
     1
102
RTVSPost2010Prop30
280
     1
102
RTVSPost2010PropOp30
 70
     1
102
RTVSPost2010Prop31
280
     0
102
RTVSPost2010PropOp31
 70
     1
102
RTVSPost2010Prop32
280
     0
102
RTVSPost2010PropOp32
 70
     1
102
RTVSPost2010Prop33
280
     0
102
RTVSPost2010PropOp33
 70
     1
102
RTVSPost2010Prop34
280
     0
102
RTVSPost2010PropOp34
 70
     1
102
RTVSPost2010Prop35
280
     0
102
RTVSPost2010PropOp35
 70
     1
102
RTVSPost2010Prop36
280
     0
102
RTVSPost2010PropOp36
 70
     1
102
RTVSPost2010Prop37
 90
       50
102
RTVSPost2010PropOp37
 70
     1
102
RTVSPost2010Prop38
140
0.0
102
RTVSPost2010PropOp38
 70
     1
102
RTVSPost2010Prop39
140
1.0
102
RTVSPost2010PropOp39
 70
     1
102
RTVSPost2010Prop40
 90
        0
102
RTVSPost2010PropOp40
 70
     1
102
RTVSPost2010Prop41ColorIndex
 90
       18
102
RTVSPost2010Prop41ColorRGB
 90
        0
102
RTVSPost2010PropOp41
 70
     1
102
RTVSPost2010Prop42
 90
       50
102
RTVSPost2010PropOp42
 70
     1
102
RTVSPost2010Prop43
 90
        3
102
RTVSPost2010PropOp43
 70
     1
102
RTVSPost2010Prop44ColorIndex
 90
        5
102
RTVSPost2010Prop44ColorRGB
 90
      255
102
RTVSPost2010PropOp44
 70
     1
102
RTVSPost2010Prop45
280
     0
102
RTVSPost2010PropOp45
 70
     1
102
RTVSPost2010Prop46
 90
       50
102
RTVSPost2010PropOp46
 70
     1
102
RTVSPost2010Prop47
 90
       50
102
RTVSPost2010PropOp47
 70
     1
102
RTVSPost2010Prop48
 90
       50
102
RTVSPost2010PropOp48
 70
     1
102
RTVSPost2010Prop49
280
     0
102
RTVSPost2010PropOp49
 70
     1
102
RTVSPost2010Prop50
 90
       50
102
RTVSPost2010PropOp50
 70
     1
102
RTVSPost2010Prop51ColorIndex
 90
      256
102
RTVSPost2010Prop51ColorRGB
 90
-16777216
102
RTVSPost2010PropOp51
 70
     0
102
RTVSPost2010Prop52
140
1.0
102
RTVSPost2010PropOp52
 70
     0
102
RTVSPost2010Prop53
 90
        2
102
RTVSPost2010PropOp53
 70
     1
102
RTVSPost2010Prop54
  1
strokes_ogs.tif
102
RTVSPost2010PropOp54
 70
     1
102
RTVSPost2010Prop55
280
     0
102
RTVSPost2010PropOp55
 70
     1
102
RTVSPost2010Prop56
140
1.0
102
RTVSPost2010PropOp56
 70
     1
102
RTVSPost2010Prop57
140
1.0
102
RTVSPost2010PropOp57
 70
     1
102
RTVSPropertyOp0
 70
     1
102
RTVSPropertyOp1
 70
     1
102
RTVSPropertyOp2
 70
     1
102
RTVSPropertyOp3
 70
     1
102
RTVSPropertyOp4
 70
     1
102
RTVSPropertyOp5
 70
     1
102
RTVSPropertyOp6
 70
     1
102
RTVSPropertyOp7
 70
     1
102
RTVSPropertyOp8
 70
     1
102
RTVSPropertyOp9
 70
     1
102
RTVSPropertyOp10
 70
     1
102
RTVSPropertyOp11
 70
     1
102
RTVSPropertyOp12
 70
     1
102
RTVSPropertyOp13
 70
     1
102
RTVSPropertyOp14
 70
     1
102
RTVSPropertyOp15
 70
     1
102
RTVSPropertyOp16
 70
     1
102
RTVSPropertyOp17
 70
     1
102
RTVSPropertyOp18
 70
     1
102
RTVSPropertyOp19
 70
     1
102
RTVSPropertyOp20
 70
     1
102
RTVSPropertyOp21
 70
     1
102
RTVSPropertyOp22
 70
     1
102
RTVSPropertyOp23
 70
     1
102
RTVSPropertyOp24
 70
     1
102
RTVSPropertyOp25
 70
     1
102
RTVSPropertyOp26
 70
     1
102
RTVSPropertyOp27
 70
     1
102
RTVSPropertyOp28
 70
     1
102
RTVSPropertyOp29
 70
     1
102
RTVSPropertyOp30
 70
     1
102
RTVSPropertyOp31
 70
     1
102
RTVSPropertyOp32
 70
     1
102
RTVSPropertyOp33
 70
     1
102
RTVSPropertyOp34
 70
     1
102
RTVSPropertyOp35
 70
     1
102
RTVSPropertyOp36
 70
     1
102
RTVSPropertyOp37
 70
     1
102
RTVSPropertyOp38
 70
     1
102
RTVSPropertyOp39
 70
     1
102
RTVSPropertyOp40
 70
     1
102
RTVSPropertyOp41
 70
     1
102
RTVSPropertyOp42
 70
     1
102
RTVSPropertyOp43
 70
     1
102
RTVSPropertyOp44
 70
     1
102
RTVSPropertyOp45
 70
     1
102
RTVSPropertyOp46
 70
     1
102
RTVSPropertyOp47
 70
     1
102
RTVSPropertyOp48
 70
     1
102
RTVSPropertyOp49
 70
     1
102
RTVSPropertyOp50
 70
     1
102
RTVSPropertyOp51
 70
     0
102
RTVSPropertyOp52
 70
     0
102
RTVSPropertyOp53
 70
     1
102
RTVSPropertyOp54
 70
     1
102
RTVSPropertyOp55
 70
     1
102
RTVSPropertyOp56
 70
     1
102
RTVSPropertyOp57
 70
     1
102
RTVSPropertyOp58
 70
     1
102
RTVSPropertyOp59
 70
     1
102
RTVSPropertyOp60
 70
     1
102
RTVSPropertyOp61
 70
     1
102
RTVSPropertyOp62
 70
     1
  0
XRECORD
  5
9E68
102
{ACAD_REACTORS
330
9E67
102
}
330
9E67
100
AcDbXrecord
280
     1
102
RTVSPost2010Prop28
280
     0
102
RTVSPost2010PropOp28
 70
     1
102
RTVSPost2010Prop29
280
     1
102
RTVSPost2010PropOp29
 70
     1
102
RTVSPost2010Prop30
280
     1
102
RTVSPost2010PropOp30
 70
     1
102
RTVSPost2010Prop31
280
     0
102
RTVSPost2010PropOp31
 70
     1
102
RTVSPost2010Prop32
280
     0
102
RTVSPost2010PropOp32
 70
     1
102
RTVSPost2010Prop33
280
     0
102
RTVSPost2010PropOp33
 70
     1
102
RTVSPost2010Prop34
280
     0
102
RTVSPost2010PropOp34
 70
     1
102
RTVSPost2010Prop35
280
     0
102
RTVSPost2010PropOp35
 70
     1
102
RTVSPost2010Prop36
280
     0
102
RTVSPost2010PropOp36
 70
     1
102
RTVSPost2010Prop37
 90
       50
102
RTVSPost2010PropOp37
 70
     1
102
RTVSPost2010Prop38
140
0.0
102
RTVSPost2010PropOp38
 70
     1
102
RTVSPost2010Prop39
140
1.0
102
RTVSPost2010PropOp39
 70
     1
102
RTVSPost2010Prop40
 90
        0
102
RTVSPost2010PropOp40
 70
     1
102
RTVSPost2010Prop41ColorIndex
 90
       18
102
RTVSPost2010Prop41ColorRGB
 90
        0
102
RTVSPost2010PropOp41
 70
     1
102
RTVSPost2010Prop42
 90
       50
102
RTVSPost2010PropOp42
 70
     1
102
RTVSPost2010Prop43
 90
        3
102
RTVSPost2010PropOp43
 70
     1
102
RTVSPost2010Prop44ColorIndex
 90
        5
102
RTVSPost2010Prop44ColorRGB
 90
      255
102
RTVSPost2010PropOp44
 70
     1
102
RTVSPost2010Prop45
280
     0
102
RTVSPost2010PropOp45
 70
     1
102
RTVSPost2010Prop46
 90
       50
102
RTVSPost2010PropOp46
 70
     1
102
RTVSPost2010Prop47
 90
       50
102
RTVSPost2010PropOp47
 70
     1
102
RTVSPost2010Prop48
 90
       50
102
RTVSPost2010PropOp48
 70
     1
102
RTVSPost2010Prop49
280
     0
102
RTVSPost2010PropOp49
 70
     1
102
RTVSPost2010Prop50
 90
       50
102
RTVSPost2010PropOp50
 70
     1
102
RTVSPost2010Prop51ColorIndex
 90
      256
102
RTVSPost2010Prop51ColorRGB
 90
-16777216
102
RTVSPost2010PropOp51
 70
     0
102
RTVSPost2010Prop52
140
1.0
102
RTVSPost2010PropOp52
 70
     0
102
RTVSPost2010Prop53
 90
        2
102
RTVSPost2010PropOp53
 70
     1
102
RTVSPost2010Prop54
  1
strokes_ogs.tif
102
RTVSPost2010PropOp54
 70
     1
102
RTVSPost2010Prop55
280
     0
102
RTVSPost2010PropOp55
 70
     1
102
RTVSPost2010Prop56
140
1.0
102
RTVSPost2010PropOp56
 70
     1
102
RTVSPost2010Prop57
140
1.0
102
RTVSPost2010PropOp57
 70
     1
102
RTVSPropertyOp0
 70
     1
102
RTVSPropertyOp1
 70
     1
102
RTVSPropertyOp2
 70
     1
102
RTVSPropertyOp3
 70
     1
102
RTVSPropertyOp4
 70
     1
102
RTVSPropertyOp5
 70
     1
102
RTVSPropertyOp6
 70
     1
102
RTVSPropertyOp7
 70
     1
102
RTVSPropertyOp8
 70
     1
102
RTVSPropertyOp9
 70
     1
102
RTVSPropertyOp10
 70
     1
102
RTVSPropertyOp11
 70
     1
102
RTVSPropertyOp12
 70
     1
102
RTVSPropertyOp13
 70
     1
102
RTVSPropertyOp14
 70
     1
102
RTVSPropertyOp15
 70
     1
102
RTVSPropertyOp16
 70
     1
102
RTVSPropertyOp17
 70
     1
102
RTVSPropertyOp18
 70
     1
102
RTVSPropertyOp19
 70
     1
102
RTVSPropertyOp20
 70
     1
102
RTVSPropertyOp21
 70
     1
102
RTVSPropertyOp22
 70
     1
102
RTVSPropertyOp23
 70
     1
102
RTVSPropertyOp24
 70
     1
102
RTVSPropertyOp25
 70
     1
102
RTVSPropertyOp26
 70
     1
102
RTVSPropertyOp27
 70
     1
102
RTVSPropertyOp28
 70
     1
102
RTVSPropertyOp29
 70
     1
102
RTVSPropertyOp30
 70
     1
102
RTVSPropertyOp31
 70
     1
102
RTVSPropertyOp32
 70
     1
102
RTVSPropertyOp33
 70
     1
102
RTVSPropertyOp34
 70
     1
102
RTVSPropertyOp35
 70
     1
102
RTVSPropertyOp36
 70
     1
102
RTVSPropertyOp37
 70
     1
102
RTVSPropertyOp38
 70
     1
102
RTVSPropertyOp39
 70
     1
102
RTVSPropertyOp40
 70
     1
102
RTVSPropertyOp41
 70
     1
102
RTVSPropertyOp42
 70
     1
102
RTVSPropertyOp43
 70
     1
102
RTVSPropertyOp44
 70
     1
102
RTVSPropertyOp45
 70
     1
102
RTVSPropertyOp46
 70
     1
102
RTVSPropertyOp47
 70
     1
102
RTVSPropertyOp48
 70
     1
102
RTVSPropertyOp49
 70
     1
102
RTVSPropertyOp50
 70
     1
102
RTVSPropertyOp51
 70
     0
102
RTVSPropertyOp52
 70
     0
102
RTVSPropertyOp53
 70
     1
102
RTVSPropertyOp54
 70
     1
102
RTVSPropertyOp55
 70
     1
102
RTVSPropertyOp56
 70
     1
102
RTVSPropertyOp57
 70
     1
102
RTVSPropertyOp58
 70
     1
102
RTVSPropertyOp59
 70
     1
102
RTVSPropertyOp60
 70
     1
102
RTVSPropertyOp61
 70
     1
102
RTVSPropertyOp62
 70
     1
  0
XRECORD
  5
9E84
102
{ACAD_REACTORS
330
9E83
102
}
330
9E83
100
AcDbXrecord
280
     1
102
RTVSPost2010Prop28
280
     0
102
RTVSPost2010PropOp28
 70
     1
102
RTVSPost2010Prop29
280
     1
102
RTVSPost2010PropOp29
 70
     1
102
RTVSPost2010Prop30
280
     1
102
RTVSPost2010PropOp30
 70
     1
102
RTVSPost2010Prop31
280
     0
102
RTVSPost2010PropOp31
 70
     1
102
RTVSPost2010Prop32
280
     0
102
RTVSPost2010PropOp32
 70
     1
102
RTVSPost2010Prop33
280
     0
102
RTVSPost2010PropOp33
 70
     1
102
RTVSPost2010Prop34
280
     0
102
RTVSPost2010PropOp34
 70
     1
102
RTVSPost2010Prop35
280
     0
102
RTVSPost2010PropOp35
 70
     1
102
RTVSPost2010Prop36
280
     0
102
RTVSPost2010PropOp36
 70
     1
102
RTVSPost2010Prop37
 90
       50
102
RTVSPost2010PropOp37
 70
     0
102
RTVSPost2010Prop38
140
0.0
102
RTVSPost2010PropOp38
 70
     0
102
RTVSPost2010Prop39
140
1.0
102
RTVSPost2010PropOp39
 70
     0
102
RTVSPost2010Prop40
 90
        0
102
RTVSPost2010PropOp40
 70
     0
102
RTVSPost2010Prop41ColorIndex
 90
       18
102
RTVSPost2010Prop41ColorRGB
 90
        0
102
RTVSPost2010PropOp41
 70
     0
102
RTVSPost2010Prop42
 90
       50
102
RTVSPost2010PropOp42
 70
     0
102
RTVSPost2010Prop43
 90
        3
102
RTVSPost2010PropOp43
 70
     0
102
RTVSPost2010Prop44ColorIndex
 90
        5
102
RTVSPost2010Prop44ColorRGB
 90
      255
102
RTVSPost2010PropOp44
 70
     0
102
RTVSPost2010Prop45
280
     0
102
RTVSPost2010PropOp45
 70
     1
102
RTVSPost2010Prop46
 90
       50
102
RTVSPost2010PropOp46
 70
     0
102
RTVSPost2010Prop47
 90
       50
102
RTVSPost2010PropOp47
 70
     0
102
RTVSPost2010Prop48
 90
       50
102
RTVSPost2010PropOp48
 70
     0
102
RTVSPost2010Prop49
280
     0
102
RTVSPost2010PropOp49
 70
     1
102
RTVSPost2010Prop50
 90
       50
102
RTVSPost2010PropOp50
 70
     0
102
RTVSPost2010Prop51ColorIndex
 90
      256
102
RTVSPost2010Prop51ColorRGB
 90
-16777216
102
RTVSPost2010PropOp51
 70
     0
102
RTVSPost2010Prop52
140
1.0
102
RTVSPost2010PropOp52
 70
     0
102
RTVSPost2010Prop53
 90
        2
102
RTVSPost2010PropOp53
 70
     0
102
RTVSPost2010Prop54
  1
strokes_ogs.tif
102
RTVSPost2010PropOp54
 70
     0
102
RTVSPost2010Prop55
280
     0
102
RTVSPost2010PropOp55
 70
     1
102
RTVSPost2010Prop56
140
1.0
102
RTVSPost2010PropOp56
 70
     0
102
RTVSPost2010Prop57
140
1.0
102
RTVSPost2010PropOp57
 70
     0
102
RTVSPropertyOp0
 70
     0
102
RTVSPropertyOp1
 70
     0
102
RTVSPropertyOp2
 70
     0
102
RTVSPropertyOp3
 70
     0
102
RTVSPropertyOp4
 70
     0
102
RTVSPropertyOp5
 70
     0
102
RTVSPropertyOp6
 70
     0
102
RTVSPropertyOp7
 70
     0
102
RTVSPropertyOp8
 70
     0
102
RTVSPropertyOp9
 70
     0
102
RTVSPropertyOp10
 70
     0
102
RTVSPropertyOp11
 70
     0
102
RTVSPropertyOp12
 70
     0
102
RTVSPropertyOp13
 70
     0
102
RTVSPropertyOp14
 70
     2
102
RTVSPropertyOp15
 70
     0
102
RTVSPropertyOp16
 70
     0
102
RTVSPropertyOp17
 70
     0
102
RTVSPropertyOp18
 70
     0
102
RTVSPropertyOp19
 70
     0
102
RTVSPropertyOp20
 70
     0
102
RTVSPropertyOp21
 70
     0
102
RTVSPropertyOp22
 70
     0
102
RTVSPropertyOp23
 70
     0
102
RTVSPropertyOp24
 70
     0
102
RTVSPropertyOp25
 70
     0
102
RTVSPropertyOp26
 70
     0
102
RTVSPropertyOp27
 70
     0
102
RTVSPropertyOp28
 70
     1
102
RTVSPropertyOp29
 70
     1
102
RTVSPropertyOp30
 70
     1
102
RTVSPropertyOp31
 70
     1
102
RTVSPropertyOp32
 70
     1
102
RTVSPropertyOp33
 70
     1
102
RTVSPropertyOp34
 70
     1
102
RTVSPropertyOp35
 70
     1
102
RTVSPropertyOp36
 70
     1
102
RTVSPropertyOp37
 70
     0
102
RTVSPropertyOp38
 70
     0
102
RTVSPropertyOp39
 70
     0
102
RTVSPropertyOp40
 70
     0
102
RTVSPropertyOp41
 70
     0
102
RTVSPropertyOp42
 70
     0
102
RTVSPropertyOp43
 70
     0
102
RTVSPropertyOp44
 70
     0
102
RTVSPropertyOp45
 70
     1
102
RTVSPropertyOp46
 70
     0
102
RTVSPropertyOp47
 70
     0
102
RTVSPropertyOp48
 70
     0
102
RTVSPropertyOp49
 70
     1
102
RTVSPropertyOp50
 70
     0
102
RTVSPropertyOp51
 70
     0
102
RTVSPropertyOp52
 70
     0
102
RTVSPropertyOp53
 70
     0
102
RTVSPropertyOp54
 70
     0
102
RTVSPropertyOp55
 70
     1
102
RTVSPropertyOp56
 70
     0
102
RTVSPropertyOp57
 70
     0
102
RTVSPropertyOp58
 70
     0
102
RTVSPropertyOp59
 70
     0
102
RTVSPropertyOp60
 70
     0
102
RTVSPropertyOp61
 70
     0
102
RTVSPropertyOp62
 70
     0
  0
XRECORD
  5
9E74
102
{ACAD_REACTORS
330
9E73
102
}
330
9E73
100
AcDbXrecord
280
     1
102
RTVSPost2010Prop28
280
     0
102
RTVSPost2010PropOp28
 70
     1
102
RTVSPost2010Prop29
280
     1
102
RTVSPost2010PropOp29
 70
     1
102
RTVSPost2010Prop30
280
     1
102
RTVSPost2010PropOp30
 70
     1
102
RTVSPost2010Prop31
280
     0
102
RTVSPost2010PropOp31
 70
     1
102
RTVSPost2010Prop32
280
     0
102
RTVSPost2010PropOp32
 70
     1
102
RTVSPost2010Prop33
280
     0
102
RTVSPost2010PropOp33
 70
     1
102
RTVSPost2010Prop34
280
     0
102
RTVSPost2010PropOp34
 70
     1
102
RTVSPost2010Prop35
280
     0
102
RTVSPost2010PropOp35
 70
     1
102
RTVSPost2010Prop36
280
     0
102
RTVSPost2010PropOp36
 70
     1
102
RTVSPost2010Prop37
 90
       50
102
RTVSPost2010PropOp37
 70
     1
102
RTVSPost2010Prop38
140
0.0
102
RTVSPost2010PropOp38
 70
     1
102
RTVSPost2010Prop39
140
1.0
102
RTVSPost2010PropOp39
 70
     1
102
RTVSPost2010Prop40
 90
        0
102
RTVSPost2010PropOp40
 70
     1
102
RTVSPost2010Prop41ColorIndex
 90
       18
102
RTVSPost2010Prop41ColorRGB
 90
        0
102
RTVSPost2010PropOp41
 70
     1
102
RTVSPost2010Prop42
 90
       50
102
RTVSPost2010PropOp42
 70
     1
102
RTVSPost2010Prop43
 90
        3
102
RTVSPost2010PropOp43
 70
     1
102
RTVSPost2010Prop44ColorIndex
 90
        5
102
RTVSPost2010Prop44ColorRGB
 90
      255
102
RTVSPost2010PropOp44
 70
     1
102
RTVSPost2010Prop45
280
     0
102
RTVSPost2010PropOp45
 70
     1
102
RTVSPost2010Prop46
 90
       50
102
RTVSPost2010PropOp46
 70
     1
102
RTVSPost2010Prop47
 90
       50
102
RTVSPost2010PropOp47
 70
     1
102
RTVSPost2010Prop48
 90
       50
102
RTVSPost2010PropOp48
 70
     1
102
RTVSPost2010Prop49
280
     0
102
RTVSPost2010PropOp49
 70
     1
102
RTVSPost2010Prop50
 90
       50
102
RTVSPost2010PropOp50
 70
     1
102
RTVSPost2010Prop51ColorIndex
 90
      256
102
RTVSPost2010Prop51ColorRGB
 90
-16777216
102
RTVSPost2010PropOp51
 70
     0
102
RTVSPost2010Prop52
140
1.0
102
RTVSPost2010PropOp52
 70
     0
102
RTVSPost2010Prop53
 90
        2
102
RTVSPost2010PropOp53
 70
     1
102
RTVSPost2010Prop54
  1
strokes_ogs.tif
102
RTVSPost2010PropOp54
 70
     1
102
RTVSPost2010Prop55
280
     0
102
RTVSPost2010PropOp55
 70
     1
102
RTVSPost2010Prop56
140
1.0
102
RTVSPost2010PropOp56
 70
     1
102
RTVSPost2010Prop57
140
1.0
102
RTVSPost2010PropOp57
 70
     1
102
RTVSPropertyOp0
 70
     1
102
RTVSPropertyOp1
 70
     1
102
RTVSPropertyOp2
 70
     1
102
RTVSPropertyOp3
 70
     1
102
RTVSPropertyOp4
 70
     1
102
RTVSPropertyOp5
 70
     1
102
RTVSPropertyOp6
 70
     1
102
RTVSPropertyOp7
 70
     1
102
RTVSPropertyOp8
 70
     1
102
RTVSPropertyOp9
 70
     1
102
RTVSPropertyOp10
 70
     1
102
RTVSPropertyOp11
 70
     1
102
RTVSPropertyOp12
 70
     1
102
RTVSPropertyOp13
 70
     1
102
RTVSPropertyOp14
 70
     1
102
RTVSPropertyOp15
 70
     1
102
RTVSPropertyOp16
 70
     1
102
RTVSPropertyOp17
 70
     1
102
RTVSPropertyOp18
 70
     1
102
RTVSPropertyOp19
 70
     1
102
RTVSPropertyOp20
 70
     1
102
RTVSPropertyOp21
 70
     1
102
RTVSPropertyOp22
 70
     1
102
RTVSPropertyOp23
 70
     1
102
RTVSPropertyOp24
 70
     1
102
RTVSPropertyOp25
 70
     1
102
RTVSPropertyOp26
 70
     1
102
RTVSPropertyOp27
 70
     1
102
RTVSPropertyOp28
 70
     1
102
RTVSPropertyOp29
 70
     1
102
RTVSPropertyOp30
 70
     1
102
RTVSPropertyOp31
 70
     1
102
RTVSPropertyOp32
 70
     1
102
RTVSPropertyOp33
 70
     1
102
RTVSPropertyOp34
 70
     1
102
RTVSPropertyOp35
 70
     1
102
RTVSPropertyOp36
 70
     1
102
RTVSPropertyOp37
 70
     1
102
RTVSPropertyOp38
 70
     1
102
RTVSPropertyOp39
 70
     1
102
RTVSPropertyOp40
 70
     1
102
RTVSPropertyOp41
 70
     1
102
RTVSPropertyOp42
 70
     1
102
RTVSPropertyOp43
 70
     1
102
RTVSPropertyOp44
 70
     1
102
RTVSPropertyOp45
 70
     1
102
RTVSPropertyOp46
 70
     1
102
RTVSPropertyOp47
 70
     1
102
RTVSPropertyOp48
 70
     1
102
RTVSPropertyOp49
 70
     1
102
RTVSPropertyOp50
 70
     1
102
RTVSPropertyOp51
 70
     0
102
RTVSPropertyOp52
 70
     0
102
RTVSPropertyOp53
 70
     1
102
RTVSPropertyOp54
 70
     1
102
RTVSPropertyOp55
 70
     1
102
RTVSPropertyOp56
 70
     1
102
RTVSPropertyOp57
 70
     1
102
RTVSPropertyOp58
 70
     1
102
RTVSPropertyOp59
 70
     1
102
RTVSPropertyOp60
 70
     1
102
RTVSPropertyOp61
 70
     1
102
RTVSPropertyOp62
 70
     1
  0
XRECORD
  5
9E86
102
{ACAD_REACTORS
330
9E85
102
}
330
9E85
100
AcDbXrecord
280
     1
102
RTVSPost2010Prop28
280
     0
102
RTVSPost2010PropOp28
 70
     1
102
RTVSPost2010Prop29
280
     1
102
RTVSPost2010PropOp29
 70
     1
102
RTVSPost2010Prop30
280
     1
102
RTVSPost2010PropOp30
 70
     1
102
RTVSPost2010Prop31
280
     0
102
RTVSPost2010PropOp31
 70
     1
102
RTVSPost2010Prop32
280
     0
102
RTVSPost2010PropOp32
 70
     1
102
RTVSPost2010Prop33
280
     0
102
RTVSPost2010PropOp33
 70
     1
102
RTVSPost2010Prop34
280
     0
102
RTVSPost2010PropOp34
 70
     1
102
RTVSPost2010Prop35
280
     0
102
RTVSPost2010PropOp35
 70
     1
102
RTVSPost2010Prop36
280
     0
102
RTVSPost2010PropOp36
 70
     1
102
RTVSPost2010Prop37
 90
       50
102
RTVSPost2010PropOp37
 70
     0
102
RTVSPost2010Prop38
140
0.0
102
RTVSPost2010PropOp38
 70
     0
102
RTVSPost2010Prop39
140
1.0
102
RTVSPost2010PropOp39
 70
     0
102
RTVSPost2010Prop40
 90
        0
102
RTVSPost2010PropOp40
 70
     0
102
RTVSPost2010Prop41ColorIndex
 90
       18
102
RTVSPost2010Prop41ColorRGB
 90
        0
102
RTVSPost2010PropOp41
 70
     0
102
RTVSPost2010Prop42
 90
       50
102
RTVSPost2010PropOp42
 70
     0
102
RTVSPost2010Prop43
 90
        3
102
RTVSPost2010PropOp43
 70
     0
102
RTVSPost2010Prop44ColorIndex
 90
        5
102
RTVSPost2010Prop44ColorRGB
 90
      255
102
RTVSPost2010PropOp44
 70
     0
102
RTVSPost2010Prop45
280
     0
102
RTVSPost2010PropOp45
 70
     1
102
RTVSPost2010Prop46
 90
       50
102
RTVSPost2010PropOp46
 70
     0
102
RTVSPost2010Prop47
 90
       50
102
RTVSPost2010PropOp47
 70
     0
102
RTVSPost2010Prop48
 90
       50
102
RTVSPost2010PropOp48
 70
     0
102
RTVSPost2010Prop49
280
     0
102
RTVSPost2010PropOp49
 70
     1
102
RTVSPost2010Prop50
 90
       50
102
RTVSPost2010PropOp50
 70
     0
102
RTVSPost2010Prop51ColorIndex
 90
      256
102
RTVSPost2010Prop51ColorRGB
 90
-16777216
102
RTVSPost2010PropOp51
 70
     0
102
RTVSPost2010Prop52
140
1.0
102
RTVSPost2010PropOp52
 70
     0
102
RTVSPost2010Prop53
 90
        2
102
RTVSPost2010PropOp53
 70
     0
102
RTVSPost2010Prop54
  1
strokes_ogs.tif
102
RTVSPost2010PropOp54
 70
     0
102
RTVSPost2010Prop55
280
     0
102
RTVSPost2010PropOp55
 70
     1
102
RTVSPost2010Prop56
140
1.0
102
RTVSPost2010PropOp56
 70
     0
102
RTVSPost2010Prop57
140
1.0
102
RTVSPost2010PropOp57
 70
     0
102
RTVSPropertyOp0
 70
     0
102
RTVSPropertyOp1
 70
     0
102
RTVSPropertyOp2
 70
     0
102
RTVSPropertyOp3
 70
     0
102
RTVSPropertyOp4
 70
     0
102
RTVSPropertyOp5
 70
     0
102
RTVSPropertyOp6
 70
     0
102
RTVSPropertyOp7
 70
     0
102
RTVSPropertyOp8
 70
     0
102
RTVSPropertyOp9
 70
     0
102
RTVSPropertyOp10
 70
     0
102
RTVSPropertyOp11
 70
     0
102
RTVSPropertyOp12
 70
     0
102
RTVSPropertyOp13
 70
     0
102
RTVSPropertyOp14
 70
     2
102
RTVSPropertyOp15
 70
     0
102
RTVSPropertyOp16
 70
     0
102
RTVSPropertyOp17
 70
     0
102
RTVSPropertyOp18
 70
     0
102
RTVSPropertyOp19
 70
     0
102
RTVSPropertyOp20
 70
     0
102
RTVSPropertyOp21
 70
     0
102
RTVSPropertyOp22
 70
     0
102
RTVSPropertyOp23
 70
     0
102
RTVSPropertyOp24
 70
     0
102
RTVSPropertyOp25
 70
     0
102
RTVSPropertyOp26
 70
     0
102
RTVSPropertyOp27
 70
     0
102
RTVSPropertyOp28
 70
     1
102
RTVSPropertyOp29
 70
     1
102
RTVSPropertyOp30
 70
     1
102
RTVSPropertyOp31
 70
     1
102
RTVSPropertyOp32
 70
     1
102
RTVSPropertyOp33
 70
     1
102
RTVSPropertyOp34
 70
     1
102
RTVSPropertyOp35
 70
     1
102
RTVSPropertyOp36
 70
     1
102
RTVSPropertyOp37
 70
     0
102
RTVSPropertyOp38
 70
     0
102
RTVSPropertyOp39
 70
     0
102
RTVSPropertyOp40
 70
     0
102
RTVSPropertyOp41
 70
     0
102
RTVSPropertyOp42
 70
     0
102
RTVSPropertyOp43
 70
     0
102
RTVSPropertyOp44
 70
     0
102
RTVSPropertyOp45
 70
     1
102
RTVSPropertyOp46
 70
     0
102
RTVSPropertyOp47
 70
     0
102
RTVSPropertyOp48
 70
     0
102
RTVSPropertyOp49
 70
     1
102
RTVSPropertyOp50
 70
     0
102
RTVSPropertyOp51
 70
     0
102
RTVSPropertyOp52
 70
     0
102
RTVSPropertyOp53
 70
     0
102
RTVSPropertyOp54
 70
     0
102
RTVSPropertyOp55
 70
     1
102
RTVSPropertyOp56
 70
     0
102
RTVSPropertyOp57
 70
     0
102
RTVSPropertyOp58
 70
     0
102
RTVSPropertyOp59
 70
     0
102
RTVSPropertyOp60
 70
     0
102
RTVSPropertyOp61
 70
     0
102
RTVSPropertyOp62
 70
     0
  0
XRECORD
  5
9E6C
102
{ACAD_REACTORS
330
9E6B
102
}
330
9E6B
100
AcDbXrecord
280
     1
102
RTVSPost2010Prop28
280
     0
102
RTVSPost2010PropOp28
 70
     1
102
RTVSPost2010Prop29
280
     1
102
RTVSPost2010PropOp29
 70
     1
102
RTVSPost2010Prop30
280
     1
102
RTVSPost2010PropOp30
 70
     1
102
RTVSPost2010Prop31
280
     0
102
RTVSPost2010PropOp31
 70
     1
102
RTVSPost2010Prop32
280
     0
102
RTVSPost2010PropOp32
 70
     1
102
RTVSPost2010Prop33
280
     0
102
RTVSPost2010PropOp33
 70
     1
102
RTVSPost2010Prop34
280
     0
102
RTVSPost2010PropOp34
 70
     1
102
RTVSPost2010Prop35
280
     0
102
RTVSPost2010PropOp35
 70
     1
102
RTVSPost2010Prop36
280
     0
102
RTVSPost2010PropOp36
 70
     1
102
RTVSPost2010Prop37
 90
       50
102
RTVSPost2010PropOp37
 70
     1
102
RTVSPost2010Prop38
140
0.0
102
RTVSPost2010PropOp38
 70
     1
102
RTVSPost2010Prop39
140
1.0
102
RTVSPost2010PropOp39
 70
     1
102
RTVSPost2010Prop40
 90
        0
102
RTVSPost2010PropOp40
 70
     1
102
RTVSPost2010Prop41ColorIndex
 90
       18
102
RTVSPost2010Prop41ColorRGB
 90
        0
102
RTVSPost2010PropOp41
 70
     1
102
RTVSPost2010Prop42
 90
       50
102
RTVSPost2010PropOp42
 70
     1
102
RTVSPost2010Prop43
 90
        3
102
RTVSPost2010PropOp43
 70
     1
102
RTVSPost2010Prop44ColorIndex
 90
        5
102
RTVSPost2010Prop44ColorRGB
 90
      255
102
RTVSPost2010PropOp44
 70
     1
102
RTVSPost2010Prop45
280
     0
102
RTVSPost2010PropOp45
 70
     1
102
RTVSPost2010Prop46
 90
       50
102
RTVSPost2010PropOp46
 70
     1
102
RTVSPost2010Prop47
 90
       50
102
RTVSPost2010PropOp47
 70
     1
102
RTVSPost2010Prop48
 90
       50
102
RTVSPost2010PropOp48
 70
     1
102
RTVSPost2010Prop49
280
     0
102
RTVSPost2010PropOp49
 70
     1
102
RTVSPost2010Prop50
 90
       50
102
RTVSPost2010PropOp50
 70
     1
102
RTVSPost2010Prop51ColorIndex
 90
      256
102
RTVSPost2010Prop51ColorRGB
 90
-16777216
102
RTVSPost2010PropOp51
 70
     0
102
RTVSPost2010Prop52
140
1.0
102
RTVSPost2010PropOp52
 70
     0
102
RTVSPost2010Prop53
 90
        2
102
RTVSPost2010PropOp53
 70
     1
102
RTVSPost2010Prop54
  1
strokes_ogs.tif
102
RTVSPost2010PropOp54
 70
     1
102
RTVSPost2010Prop55
280
     0
102
RTVSPost2010PropOp55
 70
     1
102
RTVSPost2010Prop56
140
1.0
102
RTVSPost2010PropOp56
 70
     1
102
RTVSPost2010Prop57
140
1.0
102
RTVSPost2010PropOp57
 70
     1
102
RTVSPropertyOp0
 70
     1
102
RTVSPropertyOp1
 70
     1
102
RTVSPropertyOp2
 70
     1
102
RTVSPropertyOp3
 70
     1
102
RTVSPropertyOp4
 70
     1
102
RTVSPropertyOp5
 70
     1
102
RTVSPropertyOp6
 70
     1
102
RTVSPropertyOp7
 70
     1
102
RTVSPropertyOp8
 70
     1
102
RTVSPropertyOp9
 70
     1
102
RTVSPropertyOp10
 70
     1
102
RTVSPropertyOp11
 70
     1
102
RTVSPropertyOp12
 70
     1
102
RTVSPropertyOp13
 70
     1
102
RTVSPropertyOp14
 70
     1
102
RTVSPropertyOp15
 70
     1
102
RTVSPropertyOp16
 70
     1
102
RTVSPropertyOp17
 70
     1
102
RTVSPropertyOp18
 70
     1
102
RTVSPropertyOp19
 70
     1
102
RTVSPropertyOp20
 70
     1
102
RTVSPropertyOp21
 70
     1
102
RTVSPropertyOp22
 70
     1
102
RTVSPropertyOp23
 70
     1
102
RTVSPropertyOp24
 70
     1
102
RTVSPropertyOp25
 70
     1
102
RTVSPropertyOp26
 70
     1
102
RTVSPropertyOp27
 70
     1
102
RTVSPropertyOp28
 70
     1
102
RTVSPropertyOp29
 70
     1
102
RTVSPropertyOp30
 70
     1
102
RTVSPropertyOp31
 70
     1
102
RTVSPropertyOp32
 70
     1
102
RTVSPropertyOp33
 70
     1
102
RTVSPropertyOp34
 70
     1
102
RTVSPropertyOp35
 70
     1
102
RTVSPropertyOp36
 70
     1
102
RTVSPropertyOp37
 70
     1
102
RTVSPropertyOp38
 70
     1
102
RTVSPropertyOp39
 70
     1
102
RTVSPropertyOp40
 70
     1
102
RTVSPropertyOp41
 70
     1
102
RTVSPropertyOp42
 70
     1
102
RTVSPropertyOp43
 70
     1
102
RTVSPropertyOp44
 70
     1
102
RTVSPropertyOp45
 70
     1
102
RTVSPropertyOp46
 70
     1
102
RTVSPropertyOp47
 70
     1
102
RTVSPropertyOp48
 70
     1
102
RTVSPropertyOp49
 70
     1
102
RTVSPropertyOp50
 70
     1
102
RTVSPropertyOp51
 70
     0
102
RTVSPropertyOp52
 70
     0
102
RTVSPropertyOp53
 70
     1
102
RTVSPropertyOp54
 70
     1
102
RTVSPropertyOp55
 70
     1
102
RTVSPropertyOp56
 70
     1
102
RTVSPropertyOp57
 70
     1
102
RTVSPropertyOp58
 70
     1
102
RTVSPropertyOp59
 70
     1
102
RTVSPropertyOp60
 70
     1
102
RTVSPropertyOp61
 70
     1
102
RTVSPropertyOp62
 70
     1
  0
XRECORD
  5
9E82
102
{ACAD_REACTORS
330
9E81
102
}
330
9E81
100
AcDbXrecord
280
     1
102
RTVSPost2010Prop28
280
     0
102
RTVSPost2010PropOp28
 70
     1
102
RTVSPost2010Prop29
280
     1
102
RTVSPost2010PropOp29
 70
     1
102
RTVSPost2010Prop30
280
     1
102
RTVSPost2010PropOp30
 70
     1
102
RTVSPost2010Prop31
280
     0
102
RTVSPost2010PropOp31
 70
     1
102
RTVSPost2010Prop32
280
     0
102
RTVSPost2010PropOp32
 70
     1
102
RTVSPost2010Prop33
280
     0
102
RTVSPost2010PropOp33
 70
     1
102
RTVSPost2010Prop34
280
     0
102
RTVSPost2010PropOp34
 70
     1
102
RTVSPost2010Prop35
280
     0
102
RTVSPost2010PropOp35
 70
     1
102
RTVSPost2010Prop36
280
     0
102
RTVSPost2010PropOp36
 70
     1
102
RTVSPost2010Prop37
 90
       50
102
RTVSPost2010PropOp37
 70
     1
102
RTVSPost2010Prop38
140
0.0
102
RTVSPost2010PropOp38
 70
     1
102
RTVSPost2010Prop39
140
1.0
102
RTVSPost2010PropOp39
 70
     1
102
RTVSPost2010Prop40
 90
        0
102
RTVSPost2010PropOp40
 70
     1
102
RTVSPost2010Prop41ColorIndex
 90
       18
102
RTVSPost2010Prop41ColorRGB
 90
        0
102
RTVSPost2010PropOp41
 70
     1
102
RTVSPost2010Prop42
 90
       50
102
RTVSPost2010PropOp42
 70
     1
102
RTVSPost2010Prop43
 90
        3
102
RTVSPost2010PropOp43
 70
     1
102
RTVSPost2010Prop44ColorIndex
 90
        5
102
RTVSPost2010Prop44ColorRGB
 90
      255
102
RTVSPost2010PropOp44
 70
     1
102
RTVSPost2010Prop45
280
     0
102
RTVSPost2010PropOp45
 70
     1
102
RTVSPost2010Prop46
 90
       50
102
RTVSPost2010PropOp46
 70
     1
102
RTVSPost2010Prop47
 90
       50
102
RTVSPost2010PropOp47
 70
     1
102
RTVSPost2010Prop48
 90
       50
102
RTVSPost2010PropOp48
 70
     1
102
RTVSPost2010Prop49
280
     0
102
RTVSPost2010PropOp49
 70
     1
102
RTVSPost2010Prop50
 90
       50
102
RTVSPost2010PropOp50
 70
     1
102
RTVSPost2010Prop51ColorIndex
 90
      256
102
RTVSPost2010Prop51ColorRGB
 90
-16777216
102
RTVSPost2010PropOp51
 70
     0
102
RTVSPost2010Prop52
140
1.0
102
RTVSPost2010PropOp52
 70
     0
102
RTVSPost2010Prop53
 90
        2
102
RTVSPost2010PropOp53
 70
     1
102
RTVSPost2010Prop54
  1
strokes_ogs.tif
102
RTVSPost2010PropOp54
 70
     1
102
RTVSPost2010Prop55
280
     0
102
RTVSPost2010PropOp55
 70
     1
102
RTVSPost2010Prop56
140
1.0
102
RTVSPost2010PropOp56
 70
     1
102
RTVSPost2010Prop57
140
1.0
102
RTVSPost2010PropOp57
 70
     1
102
RTVSPropertyOp0
 70
     1
102
RTVSPropertyOp1
 70
     1
102
RTVSPropertyOp2
 70
     1
102
RTVSPropertyOp3
 70
     1
102
RTVSPropertyOp4
 70
     1
102
RTVSPropertyOp5
 70
     1
102
RTVSPropertyOp6
 70
     1
102
RTVSPropertyOp7
 70
     1
102
RTVSPropertyOp8
 70
     1
102
RTVSPropertyOp9
 70
     1
102
RTVSPropertyOp10
 70
     1
102
RTVSPropertyOp11
 70
     1
102
RTVSPropertyOp12
 70
     1
102
RTVSPropertyOp13
 70
     1
102
RTVSPropertyOp14
 70
     1
102
RTVSPropertyOp15
 70
     1
102
RTVSPropertyOp16
 70
     1
102
RTVSPropertyOp17
 70
     1
102
RTVSPropertyOp18
 70
     1
102
RTVSPropertyOp19
 70
     1
102
RTVSPropertyOp20
 70
     1
102
RTVSPropertyOp21
 70
     1
102
RTVSPropertyOp22
 70
     1
102
RTVSPropertyOp23
 70
     1
102
RTVSPropertyOp24
 70
     1
102
RTVSPropertyOp25
 70
     1
102
RTVSPropertyOp26
 70
     1
102
RTVSPropertyOp27
 70
     1
102
RTVSPropertyOp28
 70
     1
102
RTVSPropertyOp29
 70
     1
102
RTVSPropertyOp30
 70
     1
102
RTVSPropertyOp31
 70
     1
102
RTVSPropertyOp32
 70
     1
102
RTVSPropertyOp33
 70
     1
102
RTVSPropertyOp34
 70
     1
102
RTVSPropertyOp35
 70
     1
102
RTVSPropertyOp36
 70
     1
102
RTVSPropertyOp37
 70
     1
102
RTVSPropertyOp38
 70
     1
102
RTVSPropertyOp39
 70
     1
102
RTVSPropertyOp40
 70
     1
102
RTVSPropertyOp41
 70
     1
102
RTVSPropertyOp42
 70
     1
102
RTVSPropertyOp43
 70
     1
102
RTVSPropertyOp44
 70
     1
102
RTVSPropertyOp45
 70
     1
102
RTVSPropertyOp46
 70
     1
102
RTVSPropertyOp47
 70
     1
102
RTVSPropertyOp48
 70
     1
102
RTVSPropertyOp49
 70
     1
102
RTVSPropertyOp50
 70
     1
102
RTVSPropertyOp51
 70
     0
102
RTVSPropertyOp52
 70
     0
102
RTVSPropertyOp53
 70
     1
102
RTVSPropertyOp54
 70
     1
102
RTVSPropertyOp55
 70
     1
102
RTVSPropertyOp56
 70
     1
102
RTVSPropertyOp57
 70
     1
102
RTVSPropertyOp58
 70
     1
102
RTVSPropertyOp59
 70
     1
102
RTVSPropertyOp60
 70
     1
102
RTVSPropertyOp61
 70
     1
102
RTVSPropertyOp62
 70
     1
  0
XRECORD
  5
9E80
102
{ACAD_REACTORS
330
9E7F
102
}
330
9E7F
100
AcDbXrecord
280
     1
102
RTVSPost2010Prop28
280
     0
102
RTVSPost2010PropOp28
 70
     1
102
RTVSPost2010Prop29
280
     1
102
RTVSPost2010PropOp29
 70
     1
102
RTVSPost2010Prop30
280
     1
102
RTVSPost2010PropOp30
 70
     1
102
RTVSPost2010Prop31
280
     0
102
RTVSPost2010PropOp31
 70
     1
102
RTVSPost2010Prop32
280
     0
102
RTVSPost2010PropOp32
 70
     1
102
RTVSPost2010Prop33
280
     0
102
RTVSPost2010PropOp33
 70
     1
102
RTVSPost2010Prop34
280
     0
102
RTVSPost2010PropOp34
 70
     1
102
RTVSPost2010Prop35
280
     0
102
RTVSPost2010PropOp35
 70
     1
102
RTVSPost2010Prop36
280
     0
102
RTVSPost2010PropOp36
 70
     1
102
RTVSPost2010Prop37
 90
       50
102
RTVSPost2010PropOp37
 70
     1
102
RTVSPost2010Prop38
140
0.0
102
RTVSPost2010PropOp38
 70
     1
102
RTVSPost2010Prop39
140
1.0
102
RTVSPost2010PropOp39
 70
     1
102
RTVSPost2010Prop40
 90
        0
102
RTVSPost2010PropOp40
 70
     1
102
RTVSPost2010Prop41ColorIndex
 90
       18
102
RTVSPost2010Prop41ColorRGB
 90
        0
102
RTVSPost2010PropOp41
 70
     1
102
RTVSPost2010Prop42
 90
       50
102
RTVSPost2010PropOp42
 70
     1
102
RTVSPost2010Prop43
 90
        3
102
RTVSPost2010PropOp43
 70
     1
102
RTVSPost2010Prop44ColorIndex
 90
        5
102
RTVSPost2010Prop44ColorRGB
 90
      255
102
RTVSPost2010PropOp44
 70
     1
102
RTVSPost2010Prop45
280
     0
102
RTVSPost2010PropOp45
 70
     1
102
RTVSPost2010Prop46
 90
       50
102
RTVSPost2010PropOp46
 70
     1
102
RTVSPost2010Prop47
 90
       50
102
RTVSPost2010PropOp47
 70
     1
102
RTVSPost2010Prop48
 90
       50
102
RTVSPost2010PropOp48
 70
     1
102
RTVSPost2010Prop49
280
     0
102
RTVSPost2010PropOp49
 70
     1
102
RTVSPost2010Prop50
 90
       50
102
RTVSPost2010PropOp50
 70
     1
102
RTVSPost2010Prop51ColorIndex
 90
      256
102
RTVSPost2010Prop51ColorRGB
 90
-16777216
102
RTVSPost2010PropOp51
 70
     0
102
RTVSPost2010Prop52
140
1.0
102
RTVSPost2010PropOp52
 70
     0
102
RTVSPost2010Prop53
 90
        2
102
RTVSPost2010PropOp53
 70
     1
102
RTVSPost2010Prop54
  1
strokes_ogs.tif
102
RTVSPost2010PropOp54
 70
     1
102
RTVSPost2010Prop55
280
     0
102
RTVSPost2010PropOp55
 70
     1
102
RTVSPost2010Prop56
140
1.0
102
RTVSPost2010PropOp56
 70
     1
102
RTVSPost2010Prop57
140
1.0
102
RTVSPost2010PropOp57
 70
     1
102
RTVSPropertyOp0
 70
     1
102
RTVSPropertyOp1
 70
     1
102
RTVSPropertyOp2
 70
     1
102
RTVSPropertyOp3
 70
     1
102
RTVSPropertyOp4
 70
     1
102
RTVSPropertyOp5
 70
     1
102
RTVSPropertyOp6
 70
     1
102
RTVSPropertyOp7
 70
     1
102
RTVSPropertyOp8
 70
     1
102
RTVSPropertyOp9
 70
     1
102
RTVSPropertyOp10
 70
     1
102
RTVSPropertyOp11
 70
     1
102
RTVSPropertyOp12
 70
     1
102
RTVSPropertyOp13
 70
     1
102
RTVSPropertyOp14
 70
     1
102
RTVSPropertyOp15
 70
     1
102
RTVSPropertyOp16
 70
     1
102
RTVSPropertyOp17
 70
     1
102
RTVSPropertyOp18
 70
     1
102
RTVSPropertyOp19
 70
     1
102
RTVSPropertyOp20
 70
     1
102
RTVSPropertyOp21
 70
     1
102
RTVSPropertyOp22
 70
     1
102
RTVSPropertyOp23
 70
     1
102
RTVSPropertyOp24
 70
     1
102
RTVSPropertyOp25
 70
     1
102
RTVSPropertyOp26
 70
     1
102
RTVSPropertyOp27
 70
     1
102
RTVSPropertyOp28
 70
     1
102
RTVSPropertyOp29
 70
     1
102
RTVSPropertyOp30
 70
     1
102
RTVSPropertyOp31
 70
     1
102
RTVSPropertyOp32
 70
     1
102
RTVSPropertyOp33
 70
     1
102
RTVSPropertyOp34
 70
     1
102
RTVSPropertyOp35
 70
     1
102
RTVSPropertyOp36
 70
     1
102
RTVSPropertyOp37
 70
     1
102
RTVSPropertyOp38
 70
     1
102
RTVSPropertyOp39
 70
     1
102
RTVSPropertyOp40
 70
     1
102
RTVSPropertyOp41
 70
     1
102
RTVSPropertyOp42
 70
     1
102
RTVSPropertyOp43
 70
     1
102
RTVSPropertyOp44
 70
     1
102
RTVSPropertyOp45
 70
     1
102
RTVSPropertyOp46
 70
     1
102
RTVSPropertyOp47
 70
     1
102
RTVSPropertyOp48
 70
     1
102
RTVSPropertyOp49
 70
     1
102
RTVSPropertyOp50
 70
     1
102
RTVSPropertyOp51
 70
     0
102
RTVSPropertyOp52
 70
     0
102
RTVSPropertyOp53
 70
     1
102
RTVSPropertyOp54
 70
     1
102
RTVSPropertyOp55
 70
     1
102
RTVSPropertyOp56
 70
     1
102
RTVSPropertyOp57
 70
     1
102
RTVSPropertyOp58
 70
     1
102
RTVSPropertyOp59
 70
     1
102
RTVSPropertyOp60
 70
     1
102
RTVSPropertyOp61
 70
     1
102
RTVSPropertyOp62
 70
     1
  0
XRECORD
  5
9E7A
102
{ACAD_REACTORS
330
9E79
102
}
330
9E79
100
AcDbXrecord
280
     1
102
RTVSPost2010Prop28
280
     0
102
RTVSPost2010PropOp28
 70
     1
102
RTVSPost2010Prop29
280
     1
102
RTVSPost2010PropOp29
 70
     1
102
RTVSPost2010Prop30
280
     1
102
RTVSPost2010PropOp30
 70
     1
102
RTVSPost2010Prop31
280
     0
102
RTVSPost2010PropOp31
 70
     1
102
RTVSPost2010Prop32
280
     0
102
RTVSPost2010PropOp32
 70
     1
102
RTVSPost2010Prop33
280
     0
102
RTVSPost2010PropOp33
 70
     1
102
RTVSPost2010Prop34
280
     0
102
RTVSPost2010PropOp34
 70
     1
102
RTVSPost2010Prop35
280
     0
102
RTVSPost2010PropOp35
 70
     1
102
RTVSPost2010Prop36
280
     0
102
RTVSPost2010PropOp36
 70
     1
102
RTVSPost2010Prop37
 90
       50
102
RTVSPost2010PropOp37
 70
     1
102
RTVSPost2010Prop38
140
0.0
102
RTVSPost2010PropOp38
 70
     1
102
RTVSPost2010Prop39
140
1.0
102
RTVSPost2010PropOp39
 70
     1
102
RTVSPost2010Prop40
 90
        0
102
RTVSPost2010PropOp40
 70
     1
102
RTVSPost2010Prop41ColorIndex
 90
       18
102
RTVSPost2010Prop41ColorRGB
 90
        0
102
RTVSPost2010PropOp41
 70
     1
102
RTVSPost2010Prop42
 90
       50
102
RTVSPost2010PropOp42
 70
     1
102
RTVSPost2010Prop43
 90
        3
102
RTVSPost2010PropOp43
 70
     1
102
RTVSPost2010Prop44ColorIndex
 90
        5
102
RTVSPost2010Prop44ColorRGB
 90
      255
102
RTVSPost2010PropOp44
 70
     1
102
RTVSPost2010Prop45
280
     0
102
RTVSPost2010PropOp45
 70
     1
102
RTVSPost2010Prop46
 90
       50
102
RTVSPost2010PropOp46
 70
     1
102
RTVSPost2010Prop47
 90
       50
102
RTVSPost2010PropOp47
 70
     1
102
RTVSPost2010Prop48
 90
       50
102
RTVSPost2010PropOp48
 70
     1
102
RTVSPost2010Prop49
280
     0
102
RTVSPost2010PropOp49
 70
     1
102
RTVSPost2010Prop50
 90
       50
102
RTVSPost2010PropOp50
 70
     1
102
RTVSPost2010Prop51ColorIndex
 90
      256
102
RTVSPost2010Prop51ColorRGB
 90
-16777216
102
RTVSPost2010PropOp51
 70
     0
102
RTVSPost2010Prop52
140
1.0
102
RTVSPost2010PropOp52
 70
     0
102
RTVSPost2010Prop53
 90
        2
102
RTVSPost2010PropOp53
 70
     1
102
RTVSPost2010Prop54
  1
strokes_ogs.tif
102
RTVSPost2010PropOp54
 70
     1
102
RTVSPost2010Prop55
280
     0
102
RTVSPost2010PropOp55
 70
     1
102
RTVSPost2010Prop56
140
1.0
102
RTVSPost2010PropOp56
 70
     1
102
RTVSPost2010Prop57
140
1.0
102
RTVSPost2010PropOp57
 70
     1
102
RTVSPropertyOp0
 70
     1
102
RTVSPropertyOp1
 70
     1
102
RTVSPropertyOp2
 70
     1
102
RTVSPropertyOp3
 70
     1
102
RTVSPropertyOp4
 70
     1
102
RTVSPropertyOp5
 70
     1
102
RTVSPropertyOp6
 70
     1
102
RTVSPropertyOp7
 70
     1
102
RTVSPropertyOp8
 70
     1
102
RTVSPropertyOp9
 70
     1
102
RTVSPropertyOp10
 70
     1
102
RTVSPropertyOp11
 70
     1
102
RTVSPropertyOp12
 70
     1
102
RTVSPropertyOp13
 70
     1
102
RTVSPropertyOp14
 70
     1
102
RTVSPropertyOp15
 70
     1
102
RTVSPropertyOp16
 70
     1
102
RTVSPropertyOp17
 70
     1
102
RTVSPropertyOp18
 70
     1
102
RTVSPropertyOp19
 70
     1
102
RTVSPropertyOp20
 70
     1
102
RTVSPropertyOp21
 70
     1
102
RTVSPropertyOp22
 70
     1
102
RTVSPropertyOp23
 70
     1
102
RTVSPropertyOp24
 70
     1
102
RTVSPropertyOp25
 70
     1
102
RTVSPropertyOp26
 70
     1
102
RTVSPropertyOp27
 70
     1
102
RTVSPropertyOp28
 70
     1
102
RTVSPropertyOp29
 70
     1
102
RTVSPropertyOp30
 70
     1
102
RTVSPropertyOp31
 70
     1
102
RTVSPropertyOp32
 70
     1
102
RTVSPropertyOp33
 70
     1
102
RTVSPropertyOp34
 70
     1
102
RTVSPropertyOp35
 70
     1
102
RTVSPropertyOp36
 70
     1
102
RTVSPropertyOp37
 70
     1
102
RTVSPropertyOp38
 70
     1
102
RTVSPropertyOp39
 70
     1
102
RTVSPropertyOp40
 70
     1
102
RTVSPropertyOp41
 70
     1
102
RTVSPropertyOp42
 70
     1
102
RTVSPropertyOp43
 70
     1
102
RTVSPropertyOp44
 70
     1
102
RTVSPropertyOp45
 70
     1
102
RTVSPropertyOp46
 70
     1
102
RTVSPropertyOp47
 70
     1
102
RTVSPropertyOp48
 70
     1
102
RTVSPropertyOp49
 70
     1
102
RTVSPropertyOp50
 70
     1
102
RTVSPropertyOp51
 70
     0
102
RTVSPropertyOp52
 70
     0
102
RTVSPropertyOp53
 70
     1
102
RTVSPropertyOp54
 70
     1
102
RTVSPropertyOp55
 70
     1
102
RTVSPropertyOp56
 70
     1
102
RTVSPropertyOp57
 70
     1
102
RTVSPropertyOp58
 70
     1
102
RTVSPropertyOp59
 70
     1
102
RTVSPropertyOp60
 70
     1
102
RTVSPropertyOp61
 70
     1
102
RTVSPropertyOp62
 70
     1
  0
XRECORD
  5
9E7C
102
{ACAD_REACTORS
330
9E7B
102
}
330
9E7B
100
AcDbXrecord
280
     1
102
RTVSPost2010Prop28
280
     0
102
RTVSPost2010PropOp28
 70
     1
102
RTVSPost2010Prop29
280
     1
102
RTVSPost2010PropOp29
 70
     1
102
RTVSPost2010Prop30
280
     1
102
RTVSPost2010PropOp30
 70
     1
102
RTVSPost2010Prop31
280
     0
102
RTVSPost2010PropOp31
 70
     1
102
RTVSPost2010Prop32
280
     0
102
RTVSPost2010PropOp32
 70
     1
102
RTVSPost2010Prop33
280
     0
102
RTVSPost2010PropOp33
 70
     1
102
RTVSPost2010Prop34
280
     0
102
RTVSPost2010PropOp34
 70
     1
102
RTVSPost2010Prop35
280
     0
102
RTVSPost2010PropOp35
 70
     1
102
RTVSPost2010Prop36
280
     0
102
RTVSPost2010PropOp36
 70
     1
102
RTVSPost2010Prop37
 90
       50
102
RTVSPost2010PropOp37
 70
     1
102
RTVSPost2010Prop38
140
0.0
102
RTVSPost2010PropOp38
 70
     1
102
RTVSPost2010Prop39
140
1.0
102
RTVSPost2010PropOp39
 70
     1
102
RTVSPost2010Prop40
 90
        0
102
RTVSPost2010PropOp40
 70
     1
102
RTVSPost2010Prop41ColorIndex
 90
       18
102
RTVSPost2010Prop41ColorRGB
 90
        0
102
RTVSPost2010PropOp41
 70
     1
102
RTVSPost2010Prop42
 90
       50
102
RTVSPost2010PropOp42
 70
     1
102
RTVSPost2010Prop43
 90
        3
102
RTVSPost2010PropOp43
 70
     1
102
RTVSPost2010Prop44ColorIndex
 90
        5
102
RTVSPost2010Prop44ColorRGB
 90
      255
102
RTVSPost2010PropOp44
 70
     1
102
RTVSPost2010Prop45
280
     0
102
RTVSPost2010PropOp45
 70
     1
102
RTVSPost2010Prop46
 90
       50
102
RTVSPost2010PropOp46
 70
     1
102
RTVSPost2010Prop47
 90
       50
102
RTVSPost2010PropOp47
 70
     1
102
RTVSPost2010Prop48
 90
       50
102
RTVSPost2010PropOp48
 70
     1
102
RTVSPost2010Prop49
280
     0
102
RTVSPost2010PropOp49
 70
     1
102
RTVSPost2010Prop50
 90
       50
102
RTVSPost2010PropOp50
 70
     1
102
RTVSPost2010Prop51ColorIndex
 90
      256
102
RTVSPost2010Prop51ColorRGB
 90
-16777216
102
RTVSPost2010PropOp51
 70
     0
102
RTVSPost2010Prop52
140
1.0
102
RTVSPost2010PropOp52
 70
     0
102
RTVSPost2010Prop53
 90
        2
102
RTVSPost2010PropOp53
 70
     1
102
RTVSPost2010Prop54
  1
strokes_ogs.tif
102
RTVSPost2010PropOp54
 70
     1
102
RTVSPost2010Prop55
280
     0
102
RTVSPost2010PropOp55
 70
     1
102
RTVSPost2010Prop56
140
1.0
102
RTVSPost2010PropOp56
 70
     1
102
RTVSPost2010Prop57
140
1.0
102
RTVSPost2010PropOp57
 70
     1
102
RTVSPropertyOp0
 70
     1
102
RTVSPropertyOp1
 70
     1
102
RTVSPropertyOp2
 70
     1
102
RTVSPropertyOp3
 70
     1
102
RTVSPropertyOp4
 70
     1
102
RTVSPropertyOp5
 70
     1
102
RTVSPropertyOp6
 70
     1
102
RTVSPropertyOp7
 70
     1
102
RTVSPropertyOp8
 70
     1
102
RTVSPropertyOp9
 70
     1
102
RTVSPropertyOp10
 70
     1
102
RTVSPropertyOp11
 70
     1
102
RTVSPropertyOp12
 70
     1
102
RTVSPropertyOp13
 70
     1
102
RTVSPropertyOp14
 70
     1
102
RTVSPropertyOp15
 70
     1
102
RTVSPropertyOp16
 70
     1
102
RTVSPropertyOp17
 70
     1
102
RTVSPropertyOp18
 70
     1
102
RTVSPropertyOp19
 70
     1
102
RTVSPropertyOp20
 70
     1
102
RTVSPropertyOp21
 70
     1
102
RTVSPropertyOp22
 70
     1
102
RTVSPropertyOp23
 70
     1
102
RTVSPropertyOp24
 70
     1
102
RTVSPropertyOp25
 70
     1
102
RTVSPropertyOp26
 70
     1
102
RTVSPropertyOp27
 70
     1
102
RTVSPropertyOp28
 70
     1
102
RTVSPropertyOp29
 70
     1
102
RTVSPropertyOp30
 70
     1
102
RTVSPropertyOp31
 70
     1
102
RTVSPropertyOp32
 70
     1
102
RTVSPropertyOp33
 70
     1
102
RTVSPropertyOp34
 70
     1
102
RTVSPropertyOp35
 70
     1
102
RTVSPropertyOp36
 70
     1
102
RTVSPropertyOp37
 70
     1
102
RTVSPropertyOp38
 70
     1
102
RTVSPropertyOp39
 70
     1
102
RTVSPropertyOp40
 70
     1
102
RTVSPropertyOp41
 70
     1
102
RTVSPropertyOp42
 70
     1
102
RTVSPropertyOp43
 70
     1
102
RTVSPropertyOp44
 70
     1
102
RTVSPropertyOp45
 70
     1
102
RTVSPropertyOp46
 70
     1
102
RTVSPropertyOp47
 70
     1
102
RTVSPropertyOp48
 70
     1
102
RTVSPropertyOp49
 70
     1
102
RTVSPropertyOp50
 70
     1
102
RTVSPropertyOp51
 70
     0
102
RTVSPropertyOp52
 70
     0
102
RTVSPropertyOp53
 70
     1
102
RTVSPropertyOp54
 70
     1
102
RTVSPropertyOp55
 70
     1
102
RTVSPropertyOp56
 70
     1
102
RTVSPropertyOp57
 70
     1
102
RTVSPropertyOp58
 70
     1
102
RTVSPropertyOp59
 70
     1
102
RTVSPropertyOp60
 70
     1
102
RTVSPropertyOp61
 70
     1
102
RTVSPropertyOp62
 70
     1
  0
XRECORD
  5
9E72
102
{ACAD_REACTORS
330
9E71
102
}
330
9E71
100
AcDbXrecord
280
     1
102
RTVSPost2010Prop28
280
     0
102
RTVSPost2010PropOp28
 70
     1
102
RTVSPost2010Prop29
280
     1
102
RTVSPost2010PropOp29
 70
     1
102
RTVSPost2010Prop30
280
     1
102
RTVSPost2010PropOp30
 70
     1
102
RTVSPost2010Prop31
280
     0
102
RTVSPost2010PropOp31
 70
     1
102
RTVSPost2010Prop32
280
     0
102
RTVSPost2010PropOp32
 70
     1
102
RTVSPost2010Prop33
280
     0
102
RTVSPost2010PropOp33
 70
     1
102
RTVSPost2010Prop34
280
     0
102
RTVSPost2010PropOp34
 70
     1
102
RTVSPost2010Prop35
280
     0
102
RTVSPost2010PropOp35
 70
     1
102
RTVSPost2010Prop36
280
     0
102
RTVSPost2010PropOp36
 70
     1
102
RTVSPost2010Prop37
 90
       50
102
RTVSPost2010PropOp37
 70
     1
102
RTVSPost2010Prop38
140
0.0
102
RTVSPost2010PropOp38
 70
     1
102
RTVSPost2010Prop39
140
1.0
102
RTVSPost2010PropOp39
 70
     1
102
RTVSPost2010Prop40
 90
        0
102
RTVSPost2010PropOp40
 70
     1
102
RTVSPost2010Prop41ColorIndex
 90
       18
102
RTVSPost2010Prop41ColorRGB
 90
        0
102
RTVSPost2010PropOp41
 70
     1
102
RTVSPost2010Prop42
 90
       50
102
RTVSPost2010PropOp42
 70
     1
102
RTVSPost2010Prop43
 90
        3
102
RTVSPost2010PropOp43
 70
     1
102
RTVSPost2010Prop44ColorIndex
 90
        5
102
RTVSPost2010Prop44ColorRGB
 90
      255
102
RTVSPost2010PropOp44
 70
     1
102
RTVSPost2010Prop45
280
     0
102
RTVSPost2010PropOp45
 70
     1
102
RTVSPost2010Prop46
 90
       50
102
RTVSPost2010PropOp46
 70
     1
102
RTVSPost2010Prop47
 90
       50
102
RTVSPost2010PropOp47
 70
     1
102
RTVSPost2010Prop48
 90
       50
102
RTVSPost2010PropOp48
 70
     1
102
RTVSPost2010Prop49
280
     0
102
RTVSPost2010PropOp49
 70
     1
102
RTVSPost2010Prop50
 90
       50
102
RTVSPost2010PropOp50
 70
     1
102
RTVSPost2010Prop51ColorIndex
 90
      256
102
RTVSPost2010Prop51ColorRGB
 90
-16777216
102
RTVSPost2010PropOp51
 70
     0
102
RTVSPost2010Prop52
140
1.0
102
RTVSPost2010PropOp52
 70
     0
102
RTVSPost2010Prop53
 90
        2
102
RTVSPost2010PropOp53
 70
     1
102
RTVSPost2010Prop54
  1
strokes_ogs.tif
102
RTVSPost2010PropOp54
 70
     1
102
RTVSPost2010Prop55
280
     0
102
RTVSPost2010PropOp55
 70
     1
102
RTVSPost2010Prop56
140
1.0
102
RTVSPost2010PropOp56
 70
     1
102
RTVSPost2010Prop57
140
1.0
102
RTVSPost2010PropOp57
 70
     1
102
RTVSPropertyOp0
 70
     1
102
RTVSPropertyOp1
 70
     1
102
RTVSPropertyOp2
 70
     1
102
RTVSPropertyOp3
 70
     1
102
RTVSPropertyOp4
 70
     1
102
RTVSPropertyOp5
 70
     1
102
RTVSPropertyOp6
 70
     1
102
RTVSPropertyOp7
 70
     1
102
RTVSPropertyOp8
 70
     1
102
RTVSPropertyOp9
 70
     1
102
RTVSPropertyOp10
 70
     1
102
RTVSPropertyOp11
 70
     1
102
RTVSPropertyOp12
 70
     1
102
RTVSPropertyOp13
 70
     1
102
RTVSPropertyOp14
 70
     1
102
RTVSPropertyOp15
 70
     1
102
RTVSPropertyOp16
 70
     1
102
RTVSPropertyOp17
 70
     1
102
RTVSPropertyOp18
 70
     1
102
RTVSPropertyOp19
 70
     1
102
RTVSPropertyOp20
 70
     1
102
RTVSPropertyOp21
 70
     1
102
RTVSPropertyOp22
 70
     1
102
RTVSPropertyOp23
 70
     1
102
RTVSPropertyOp24
 70
     1
102
RTVSPropertyOp25
 70
     1
102
RTVSPropertyOp26
 70
     1
102
RTVSPropertyOp27
 70
     1
102
RTVSPropertyOp28
 70
     1
102
RTVSPropertyOp29
 70
     1
102
RTVSPropertyOp30
 70
     1
102
RTVSPropertyOp31
 70
     1
102
RTVSPropertyOp32
 70
     1
102
RTVSPropertyOp33
 70
     1
102
RTVSPropertyOp34
 70
     1
102
RTVSPropertyOp35
 70
     1
102
RTVSPropertyOp36
 70
     1
102
RTVSPropertyOp37
 70
     1
102
RTVSPropertyOp38
 70
     1
102
RTVSPropertyOp39
 70
     1
102
RTVSPropertyOp40
 70
     1
102
RTVSPropertyOp41
 70
     1
102
RTVSPropertyOp42
 70
     1
102
RTVSPropertyOp43
 70
     1
102
RTVSPropertyOp44
 70
     1
102
RTVSPropertyOp45
 70
     1
102
RTVSPropertyOp46
 70
     1
102
RTVSPropertyOp47
 70
     1
102
RTVSPropertyOp48
 70
     1
102
RTVSPropertyOp49
 70
     1
102
RTVSPropertyOp50
 70
     1
102
RTVSPropertyOp51
 70
     0
102
RTVSPropertyOp52
 70
     0
102
RTVSPropertyOp53
 70
     1
102
RTVSPropertyOp54
 70
     1
102
RTVSPropertyOp55
 70
     1
102
RTVSPropertyOp56
 70
     1
102
RTVSPropertyOp57
 70
     1
102
RTVSPropertyOp58
 70
     1
102
RTVSPropertyOp59
 70
     1
102
RTVSPropertyOp60
 70
     1
102
RTVSPropertyOp61
 70
     1
102
RTVSPropertyOp62
 70
     1
  0
XRECORD
  5
9E66
102
{ACAD_REACTORS
330
9E65
102
}
330
9E65
100
AcDbXrecord
280
     1
102
RTVSPost2010Prop28
280
     0
102
RTVSPost2010PropOp28
 70
     1
102
RTVSPost2010Prop29
280
     1
102
RTVSPost2010PropOp29
 70
     1
102
RTVSPost2010Prop30
280
     1
102
RTVSPost2010PropOp30
 70
     1
102
RTVSPost2010Prop31
280
     0
102
RTVSPost2010PropOp31
 70
     1
102
RTVSPost2010Prop32
280
     0
102
RTVSPost2010PropOp32
 70
     1
102
RTVSPost2010Prop33
280
     0
102
RTVSPost2010PropOp33
 70
     1
102
RTVSPost2010Prop34
280
     0
102
RTVSPost2010PropOp34
 70
     1
102
RTVSPost2010Prop35
280
     0
102
RTVSPost2010PropOp35
 70
     1
102
RTVSPost2010Prop36
280
     0
102
RTVSPost2010PropOp36
 70
     1
102
RTVSPost2010Prop37
 90
       50
102
RTVSPost2010PropOp37
 70
     1
102
RTVSPost2010Prop38
140
0.0
102
RTVSPost2010PropOp38
 70
     1
102
RTVSPost2010Prop39
140
1.0
102
RTVSPost2010PropOp39
 70
     1
102
RTVSPost2010Prop40
 90
        0
102
RTVSPost2010PropOp40
 70
     1
102
RTVSPost2010Prop41ColorIndex
 90
       18
102
RTVSPost2010Prop41ColorRGB
 90
        0
102
RTVSPost2010PropOp41
 70
     1
102
RTVSPost2010Prop42
 90
       50
102
RTVSPost2010PropOp42
 70
     1
102
RTVSPost2010Prop43
 90
        3
102
RTVSPost2010PropOp43
 70
     1
102
RTVSPost2010Prop44ColorIndex
 90
        5
102
RTVSPost2010Prop44ColorRGB
 90
      255
102
RTVSPost2010PropOp44
 70
     1
102
RTVSPost2010Prop45
280
     0
102
RTVSPost2010PropOp45
 70
     1
102
RTVSPost2010Prop46
 90
       50
102
RTVSPost2010PropOp46
 70
     1
102
RTVSPost2010Prop47
 90
       50
102
RTVSPost2010PropOp47
 70
     1
102
RTVSPost2010Prop48
 90
       50
102
RTVSPost2010PropOp48
 70
     1
102
RTVSPost2010Prop49
280
     0
102
RTVSPost2010PropOp49
 70
     1
102
RTVSPost2010Prop50
 90
       50
102
RTVSPost2010PropOp50
 70
     1
102
RTVSPost2010Prop51ColorIndex
 90
      256
102
RTVSPost2010Prop51ColorRGB
 90
-16777216
102
RTVSPost2010PropOp51
 70
     0
102
RTVSPost2010Prop52
140
1.0
102
RTVSPost2010PropOp52
 70
     0
102
RTVSPost2010Prop53
 90
        2
102
RTVSPost2010PropOp53
 70
     1
102
RTVSPost2010Prop54
  1
strokes_ogs.tif
102
RTVSPost2010PropOp54
 70
     1
102
RTVSPost2010Prop55
280
     0
102
RTVSPost2010PropOp55
 70
     1
102
RTVSPost2010Prop56
140
1.0
102
RTVSPost2010PropOp56
 70
     1
102
RTVSPost2010Prop57
140
1.0
102
RTVSPost2010PropOp57
 70
     1
102
RTVSPropertyOp0
 70
     1
102
RTVSPropertyOp1
 70
     1
102
RTVSPropertyOp2
 70
     1
102
RTVSPropertyOp3
 70
     1
102
RTVSPropertyOp4
 70
     1
102
RTVSPropertyOp5
 70
     1
102
RTVSPropertyOp6
 70
     1
102
RTVSPropertyOp7
 70
     1
102
RTVSPropertyOp8
 70
     1
102
RTVSPropertyOp9
 70
     1
102
RTVSPropertyOp10
 70
     1
102
RTVSPropertyOp11
 70
     1
102
RTVSPropertyOp12
 70
     1
102
RTVSPropertyOp13
 70
     1
102
RTVSPropertyOp14
 70
     1
102
RTVSPropertyOp15
 70
     1
102
RTVSPropertyOp16
 70
     1
102
RTVSPropertyOp17
 70
     1
102
RTVSPropertyOp18
 70
     1
102
RTVSPropertyOp19
 70
     1
102
RTVSPropertyOp20
 70
     1
102
RTVSPropertyOp21
 70
     1
102
RTVSPropertyOp22
 70
     1
102
RTVSPropertyOp23
 70
     1
102
RTVSPropertyOp24
 70
     1
102
RTVSPropertyOp25
 70
     1
102
RTVSPropertyOp26
 70
     1
102
RTVSPropertyOp27
 70
     1
102
RTVSPropertyOp28
 70
     1
102
RTVSPropertyOp29
 70
     1
102
RTVSPropertyOp30
 70
     1
102
RTVSPropertyOp31
 70
     1
102
RTVSPropertyOp32
 70
     1
102
RTVSPropertyOp33
 70
     1
102
RTVSPropertyOp34
 70
     1
102
RTVSPropertyOp35
 70
     1
102
RTVSPropertyOp36
 70
     1
102
RTVSPropertyOp37
 70
     1
102
RTVSPropertyOp38
 70
     1
102
RTVSPropertyOp39
 70
     1
102
RTVSPropertyOp40
 70
     1
102
RTVSPropertyOp41
 70
     1
102
RTVSPropertyOp42
 70
     1
102
RTVSPropertyOp43
 70
     1
102
RTVSPropertyOp44
 70
     1
102
RTVSPropertyOp45
 70
     1
102
RTVSPropertyOp46
 70
     1
102
RTVSPropertyOp47
 70
     1
102
RTVSPropertyOp48
 70
     1
102
RTVSPropertyOp49
 70
     1
102
RTVSPropertyOp50
 70
     1
102
RTVSPropertyOp51
 70
     0
102
RTVSPropertyOp52
 70
     0
102
RTVSPropertyOp53
 70
     1
102
RTVSPropertyOp54
 70
     1
102
RTVSPropertyOp55
 70
     1
102
RTVSPropertyOp56
 70
     1
102
RTVSPropertyOp57
 70
     1
102
RTVSPropertyOp58
 70
     1
102
RTVSPropertyOp59
 70
     1
102
RTVSPropertyOp60
 70
     1
102
RTVSPropertyOp61
 70
     1
102
RTVSPropertyOp62
 70
     1
  0
XRECORD
  5
9E7E
102
{ACAD_REACTORS
330
9E7D
102
}
330
9E7D
100
AcDbXrecord
280
     1
102
RTVSPost2010Prop28
280
     0
102
RTVSPost2010PropOp28
 70
     1
102
RTVSPost2010Prop29
280
     1
102
RTVSPost2010PropOp29
 70
     1
102
RTVSPost2010Prop30
280
     1
102
RTVSPost2010PropOp30
 70
     1
102
RTVSPost2010Prop31
280
     0
102
RTVSPost2010PropOp31
 70
     1
102
RTVSPost2010Prop32
280
     0
102
RTVSPost2010PropOp32
 70
     1
102
RTVSPost2010Prop33
280
     0
102
RTVSPost2010PropOp33
 70
     1
102
RTVSPost2010Prop34
280
     0
102
RTVSPost2010PropOp34
 70
     1
102
RTVSPost2010Prop35
280
     0
102
RTVSPost2010PropOp35
 70
     1
102
RTVSPost2010Prop36
280
     0
102
RTVSPost2010PropOp36
 70
     1
102
RTVSPost2010Prop37
 90
       50
102
RTVSPost2010PropOp37
 70
     1
102
RTVSPost2010Prop38
140
0.0
102
RTVSPost2010PropOp38
 70
     1
102
RTVSPost2010Prop39
140
1.0
102
RTVSPost2010PropOp39
 70
     1
102
RTVSPost2010Prop40
 90
        0
102
RTVSPost2010PropOp40
 70
     1
102
RTVSPost2010Prop41ColorIndex
 90
       18
102
RTVSPost2010Prop41ColorRGB
 90
        0
102
RTVSPost2010PropOp41
 70
     1
102
RTVSPost2010Prop42
 90
       50
102
RTVSPost2010PropOp42
 70
     1
102
RTVSPost2010Prop43
 90
        3
102
RTVSPost2010PropOp43
 70
     1
102
RTVSPost2010Prop44ColorIndex
 90
        5
102
RTVSPost2010Prop44ColorRGB
 90
      255
102
RTVSPost2010PropOp44
 70
     1
102
RTVSPost2010Prop45
280
     0
102
RTVSPost2010PropOp45
 70
     1
102
RTVSPost2010Prop46
 90
       50
102
RTVSPost2010PropOp46
 70
     1
102
RTVSPost2010Prop47
 90
       50
102
RTVSPost2010PropOp47
 70
     1
102
RTVSPost2010Prop48
 90
       50
102
RTVSPost2010PropOp48
 70
     1
102
RTVSPost2010Prop49
280
     0
102
RTVSPost2010PropOp49
 70
     1
102
RTVSPost2010Prop50
 90
       50
102
RTVSPost2010PropOp50
 70
     1
102
RTVSPost2010Prop51ColorIndex
 90
      256
102
RTVSPost2010Prop51ColorRGB
 90
-16777216
102
RTVSPost2010PropOp51
 70
     0
102
RTVSPost2010Prop52
140
1.0
102
RTVSPost2010PropOp52
 70
     0
102
RTVSPost2010Prop53
 90
        2
102
RTVSPost2010PropOp53
 70
     1
102
RTVSPost2010Prop54
  1
strokes_ogs.tif
102
RTVSPost2010PropOp54
 70
     1
102
RTVSPost2010Prop55
280
     0
102
RTVSPost2010PropOp55
 70
     1
102
RTVSPost2010Prop56
140
1.0
102
RTVSPost2010PropOp56
 70
     1
102
RTVSPost2010Prop57
140
1.0
102
RTVSPost2010PropOp57
 70
     1
102
RTVSPropertyOp0
 70
     1
102
RTVSPropertyOp1
 70
     1
102
RTVSPropertyOp2
 70
     1
102
RTVSPropertyOp3
 70
     1
102
RTVSPropertyOp4
 70
     1
102
RTVSPropertyOp5
 70
     1
102
RTVSPropertyOp6
 70
     1
102
RTVSPropertyOp7
 70
     1
102
RTVSPropertyOp8
 70
     1
102
RTVSPropertyOp9
 70
     1
102
RTVSPropertyOp10
 70
     1
102
RTVSPropertyOp11
 70
     1
102
RTVSPropertyOp12
 70
     1
102
RTVSPropertyOp13
 70
     1
102
RTVSPropertyOp14
 70
     1
102
RTVSPropertyOp15
 70
     1
102
RTVSPropertyOp16
 70
     1
102
RTVSPropertyOp17
 70
     1
102
RTVSPropertyOp18
 70
     1
102
RTVSPropertyOp19
 70
     1
102
RTVSPropertyOp20
 70
     1
102
RTVSPropertyOp21
 70
     1
102
RTVSPropertyOp22
 70
     1
102
RTVSPropertyOp23
 70
     1
102
RTVSPropertyOp24
 70
     1
102
RTVSPropertyOp25
 70
     1
102
RTVSPropertyOp26
 70
     1
102
RTVSPropertyOp27
 70
     1
102
RTVSPropertyOp28
 70
     1
102
RTVSPropertyOp29
 70
     1
102
RTVSPropertyOp30
 70
     1
102
RTVSPropertyOp31
 70
     1
102
RTVSPropertyOp32
 70
     1
102
RTVSPropertyOp33
 70
     1
102
RTVSPropertyOp34
 70
     1
102
RTVSPropertyOp35
 70
     1
102
RTVSPropertyOp36
 70
     1
102
RTVSPropertyOp37
 70
     1
102
RTVSPropertyOp38
 70
     1
102
RTVSPropertyOp39
 70
     1
102
RTVSPropertyOp40
 70
     1
102
RTVSPropertyOp41
 70
     1
102
RTVSPropertyOp42
 70
     1
102
RTVSPropertyOp43
 70
     1
102
RTVSPropertyOp44
 70
     1
102
RTVSPropertyOp45
 70
     1
102
RTVSPropertyOp46
 70
     1
102
RTVSPropertyOp47
 70
     1
102
RTVSPropertyOp48
 70
     1
102
RTVSPropertyOp49
 70
     1
102
RTVSPropertyOp50
 70
     1
102
RTVSPropertyOp51
 70
     0
102
RTVSPropertyOp52
 70
     0
102
RTVSPropertyOp53
 70
     1
102
RTVSPropertyOp54
 70
     1
102
RTVSPropertyOp55
 70
     1
102
RTVSPropertyOp56
 70
     1
102
RTVSPropertyOp57
 70
     1
102
RTVSPropertyOp58
 70
     1
102
RTVSPropertyOp59
 70
     1
102
RTVSPropertyOp60
 70
     1
102
RTVSPropertyOp61
 70
     1
102
RTVSPropertyOp62
 70
     1
  0
ENDSEC
  0
EOF
