  0
SECTION
  2
HEADER
  9
$ACADVER
  1
AC1015
  9
$ACADMAINTVER
 70
    20
  9
$DWGCODEPAGE
  3
ANSI_932
  9
$INSBASE
 10
0.0
 20
0.0
 30
0.0
  9
$EXTMIN
 10
10.0
 20
9.999999999999998
 30
0.0
  9
$EXTMAX
 10
543.8810999999998
 20
413.8691609999998
 30
0.0
  9
$LIMMIN
 10
0.0
 20
0.0
  9
$LIMMAX
 10
624.9999999638297
 20
430.8712120168311
  9
$ORTHOMODE
 70
     1
  9
$REGENMODE
 70
     1
  9
$FILLMODE
 70
     1
  9
$QTEXTMODE
 70
     0
  9
$MIRRTEXT
 70
     1
  9
$LTSCALE
 40
20.0
  9
$ATTMODE
 70
     1
  9
$TEXTSIZE
 40
5.0
  9
$TRACEWID
 40
1.0
  9
$TEXTSTYLE
  7
STANDARD
  9
$CLAYER
  8
0
  9
$CELTYPE
  6
BYLAYER
  9
$CECOLOR
 62
   256
  9
$CELTSCALE
 40
1.0
  9
$DISPSILH
 70
     0
  9
$DIMSCALE
 40
1.0
  9
$DIMASZ
 40
2.5
  9
$DIMEXO
 40
1.0
  9
$DIMDLI
 40
10.0
  9
$DIMRND
 40
0.0
  9
$DIMDLE
 40
0.0
  9
$DIMEXE
 40
1.0
  9
$DIMTP
 40
0.0
  9
$DIMTM
 40
0.0
  9
$DIMTXT
 40
3.2
  9
$DIMCEN
 40
0.0
  9
$DIMTSZ
 40
0.0
  9
$DIMTOL
 70
     0
  9
$DIMLIM
 70
     0
  9
$DIMTIH
 70
     0
  9
$DIMTOH
 70
     0
  9
$DIMSE1
 70
     0
  9
$DIMSE2
 70
     0
  9
$DIMTAD
 70
     3
  9
$DIMZIN
 70
     8
  9
$DIMBLK
  1

  9
$DIMASO
 70
     1
  9
$DIMSHO
 70
     1
  9
$DIMPOST
  1

  9
$DIMAPOST
  1

  9
$DIMALT
 70
     0
  9
$DIMALTD
 70
     2
  9
$DIMALTF
 40
25.4
  9
$DIMLFAC
 40
1.0
  9
$DIMTOFL
 70
     1
  9
$DIMTVP
 40
0.0
  9
$DIMTIX
 70
     0
  9
$DIMSOXD
 70
     0
  9
$DIMSAH
 70
     1
  9
$DIMBLK1
  1

  9
$DIMBLK2
  1

  9
$DIMSTYLE
  2
STANDARD
  9
$DIMCLRD
 70
     0
  9
$DIMCLRE
 70
     0
  9
$DIMCLRT
 70
     0
  9
$DIMTFAC
 40
1.0
  9
$DIMGAP
 40
1.0
  9
$DIMJUST
 70
     0
  9
$DIMSD1
 70
     0
  9
$DIMSD2
 70
     0
  9
$DIMTOLJ
 70
     1
  9
$DIMTZIN
 70
     0
  9
$DIMALTZ
 70
     0
  9
$DIMALTTZ
 70
     0
  9
$DIMUPT
 70
     0
  9
$DIMDEC
 70
     4
  9
$DIMTDEC
 70
     4
  9
$DIMALTU
 70
     2
  9
$DIMALTTD
 70
     2
  9
$DIMTXSTY
  7
STANDARD
  9
$DIMAUNIT
 70
     0
  9
$DIMADEC
 70
     0
  9
$DIMALTRND
 40
0.0
  9
$DIMAZIN
 70
     0
  9
$DIMDSEP
 70
    46
  9
$DIMATFIT
 70
     3
  9
$DIMFRAC
 70
     0
  9
$DIMLDRBLK
  1

  9
$DIMLUNIT
 70
     2
  9
$DIMLWD
 70
    -2
  9
$DIMLWE
 70
    -2
  9
$DIMTMOVE
 70
     0
  9
$LUNITS
 70
     2
  9
$LUPREC
 70
     4
  9
$SKETCHINC
 40
1.0
  9
$FILLETRAD
 40
0.0
  9
$AUNITS
 70
     0
  9
$AUPREC
 70
     2
  9
$MENU
  1
.
  9
$ELEVATION
 40
0.0
  9
$PELEVATION
 40
0.0
  9
$THICKNESS
 40
0.0
  9
$LIMCHECK
 70
     0
  9
$CHAMFERA
 40
10.0
  9
$CHAMFERB
 40
10.0
  9
$CHAMFERC
 40
0.0
  9
$CHAMFERD
 40
0.0
  9
$SKPOLY
 70
     0
  9
$TDCREATE
 40
2451301.455897685
  9
$TDUCREATE
 40
2451301.080897685
  9
$TDUPDATE
 40
2457192.690214630
  9
$TDUUPDATE
 40
2457192.315214630
  9
$TDINDWG
 40
0.1065049769
  9
$TDUSRTIMER
 40
0.1065044792
  9
$USRTIMER
 70
     1
  9
$ANGBASE
 50
0.0
  9
$ANGDIR
 70
     0
  9
$PDMODE
 70
     0
  9
$PDSIZE
 40
0.0
  9
$PLINEWID
 40
0.0
  9
$SPLFRAME
 70
     0
  9
$SPLINETYPE
 70
     6
  9
$SPLINESEGS
 70
     8
  9
$HANDSEED
  5
9ECC
  9
$SURFTAB1
 70
     6
  9
$SURFTAB2
 70
     6
  9
$SURFTYPE
 70
     6
  9
$SURFU
 70
     6
  9
$SURFV
 70
     6
  9
$UCSBASE
  2

  9
$UCSNAME
  2

  9
$UCSORG
 10
0.0
 20
0.0
 30
0.0
  9
$UCSXDIR
 10
1.0
 20
0.0
 30
0.0
  9
$UCSYDIR
 10
0.0
 20
1.0
 30
0.0
  9
$UCSORTHOREF
  2

  9
$UCSORTHOVIEW
 70
     0
  9
$UCSORGTOP
 10
0.0
 20
0.0
 30
0.0
  9
$UCSORGBOTTOM
 10
0.0
 20
0.0
 30
0.0
  9
$UCSORGLEFT
 10
0.0
 20
0.0
 30
0.0
  9
$UCSORGRIGHT
 10
0.0
 20
0.0
 30
0.0
  9
$UCSORGFRONT
 10
0.0
 20
0.0
 30
0.0
  9
$UCSORGBACK
 10
0.0
 20
0.0
 30
0.0
  9
$PUCSBASE
  2

  9
$PUCSNAME
  2

  9
$PUCSORG
 10
0.0
 20
0.0
 30
0.0
  9
$PUCSXDIR
 10
1.0
 20
0.0
 30
0.0
  9
$PUCSYDIR
 10
0.0
 20
1.0
 30
0.0
  9
$PUCSORTHOREF
  2

  9
$PUCSORTHOVIEW
 70
     0
  9
$PUCSORGTOP
 10
0.0
 20
0.0
 30
0.0
  9
$PUCSORGBOTTOM
 10
0.0
 20
0.0
 30
0.0
  9
$PUCSORGLEFT
 10
0.0
 20
0.0
 30
0.0
  9
$PUCSORGRIGHT
 10
0.0
 20
0.0
 30
0.0
  9
$PUCSORGFRONT
 10
0.0
 20
0.0
 30
0.0
  9
$PUCSORGBACK
 10
0.0
 20
0.0
 30
0.0
  9
$USERI1
 70
     0
  9
$USERI2
 70
     0
  9
$USERI3
 70
     0
  9
$USERI4
 70
     0
  9
$USERI5
 70
     0
  9
$USERR1
 40
0.0
  9
$USERR2
 40
0.0
  9
$USERR3
 40
0.0
  9
$USERR4
 40
0.0
  9
$USERR5
 40
0.0
  9
$WORLDVIEW
 70
     1
  9
$SHADEDGE
 70
     3
  9
$SHADEDIF
 70
    70
  9
$TILEMODE
 70
     1
  9
$MAXACTVP
 70
    16
  9
$PINSBASE
 10
0.0
 20
0.0
 30
0.0
  9
$PLIMCHECK
 70
     0
  9
$PEXTMIN
 10
1.000000000000000E+20
 20
1.000000000000000E+20
 30
1.000000000000000E+20
  9
$PEXTMAX
 10
-1.000000000000000E+20
 20
-1.000000000000000E+20
 30
-1.000000000000000E+20
  9
$PLIMMIN
 10
0.0
 20
0.0
  9
$PLIMMAX
 10
420.0
 20
297.0
  9
$UNITMODE
 70
     0
  9
$VISRETAIN
 70
     0
  9
$PLINEGEN
 70
     0
  9
$PSLTSCALE
 70
     0
  9
$TREEDEPTH
 70
  3020
  9
$CMLSTYLE
  2
STANDARD
  9
$CMLJUST
 70
     0
  9
$CMLSCALE
 40
1.0
  9
$PROXYGRAPHICS
 70
     1
  9
$MEASUREMENT
 70
     0
  9
$CELWEIGHT
370
    -1
  9
$ENDCAPS
280
     0
  9
$JOINSTYLE
280
     0
  9
$LWDISPLAY
290
     0
  9
$INSUNITS
 70
     0
  9
$HYPERLINKBASE
  1

  9
$STYLESHEET
  1

  9
$XEDIT
290
     1
  9
$CEPSNTYPE
380
     0
  9
$PSTYLEMODE
290
     1
  9
$FINGERPRINTGUID
  2
{B04336B1-2265-4D02-BFEF-C096A196CCD8}
  9
$VERSIONGUID
  2
{5B85F175-0DA7-44B9-800B-0EFFA20F2C3C}
  9
$EXTNAMES
290
     1
  9
$PSVPSCALE
 40
0.0
  9
$OLESTARTUP
290
     0
  0
ENDSEC
  0
SECTION
  2
CLASSES
  0
CLASS
  1
ACDBDICTIONARYWDFLT
  2
AcDbDictionaryWithDefault
  3
ObjectDBX Classes
 90
        0
280
     0
281
     0
  0
CLASS
  1
ACDBPLACEHOLDER
  2
AcDbPlaceHolder
  3
ObjectDBX Classes
 90
        0
280
     0
281
     0
  0
CLASS
  1
LAYOUT
  2
AcDbLayout
  3
ObjectDBX Classes
 90
        0
280
     0
281
     0
  0
CLASS
  1
DICTIONARYVAR
  2
AcDbDictionaryVar
  3
ObjectDBX Classes
 90
        0
280
     0
281
     0
  0
CLASS
  1
MATERIAL
  2
AcDbMaterial
  3
ObjectDBX Classes
 90
     1153
280
     0
281
     0
  0
CLASS
  1
VISUALSTYLE
  2
AcDbVisualStyle
  3
ObjectDBX Classes
 90
     4095
280
     0
281
     0
  0
CLASS
  1
TABLESTYLE
  2
AcDbTableStyle
  3
ObjectDBX Classes
 90
     4095
280
     0
281
     0
  0
CLASS
  1
SCALE
  2
AcDbScale
  3
ObjectDBX Classes
 90
     1153
280
     0
281
     0
  0
CLASS
  1
MLEADERSTYLE
  2
AcDbMLeaderStyle
  3
ACDB_MLEADERSTYLE_CLASS
 90
     4095
280
     0
281
     0
  0
CLASS
  1
ACDBSECTIONVIEWSTYLE
  2
AcDbSectionViewStyle
  3
ObjectDBX Classes
 90
     1025
280
     0
281
     0
  0
CLASS
  1
ACDBDETAILVIEWSTYLE
  2
AcDbDetailViewStyle
  3
ObjectDBX Classes
 90
     1025
280
     0
281
     0
  0
CLASS
  1
CELLSTYLEMAP
  2
AcDbCellStyleMap
  3
ObjectDBX Classes
 90
     1152
280
     0
281
     0
  0
ENDSEC
  0
SECTION
  2
TABLES
  0
TABLE
  2
VPORT
  5
9924
330
0
100
AcDbSymbolTable
 70
     1
  0
VPORT
  5
9E17
330
9924
100
AcDbSymbolTableRecord
100
AcDbViewportTableRecord
  2
*ACTIVE
 70
     0
 10
0.0
 20
0.0
 11
1.0
 21
1.0
 12
432.4159264848607
 22
211.9346469184446
 13
0.0
 23
0.0
 14
10.0
 24
10.0
 15
10.0
 25
10.0
 16
0.0
 26
0.0
 36
1.0
 17
0.0
 27
0.0
 37
0.0
 40
407.0976427515708
 41
2.35006605019815
 42
50.0
 43
0.0
 44
0.0
 50
0.0
 51
0.0
 71
     0
 72
   100
 73
     1
 74
     0
 75
     0
 76
     0
 77
     0
 78
     0
281
     0
 65
     1
110
0.0
120
0.0
130
0.0
111
1.0
121
0.0
131
0.0
112
0.0
122
1.0
132
0.0
 79
     0
146
0.0
1001
ACAD_NAV_VCDISPLAY
1070
     3
  0
ENDTAB
  0
TABLE
  2
LTYPE
  5
9921
330
0
100
AcDbSymbolTable
 70
     4
  0
LTYPE
  5
992F
330
9921
100
AcDbSymbolTableRecord
100
AcDbLinetypeTableRecord
  2
BYBLOCK
 70
     0
  3

 72
    65
 73
     0
 40
0.0
  0
LTYPE
  5
9930
330
9921
100
AcDbSymbolTableRecord
100
AcDbLinetypeTableRecord
  2
BYLAYER
 70
     0
  3

 72
    65
 73
     0
 40
0.0
  0
LTYPE
  5
9931
330
9921
100
AcDbSymbolTableRecord
100
AcDbLinetypeTableRecord
  2
CONTINUOUS
 70
     0
  3
Solid line
 72
    65
 73
     0
 40
0.0
  0
LTYPE
  5
993F
330
9921
100
AcDbSymbolTableRecord
100
AcDbLinetypeTableRecord
  2
DASHED
 70
     0
  3
__ __ __ __ __ __ __ __ __ __ __ __ __ __ __ __
 72
    65
 73
     2
 40
0.75
 49
0.5
 74
     0
 49
-0.25
 74
     0
  0
LTYPE
  5
9940
330
9921
100
AcDbSymbolTableRecord
100
AcDbLinetypeTableRecord
  2
CENTER
 70
     0
  3
____ _ ____ _ ____ _ ____ _ ____ _ ____ _ ____ 
 72
    65
 73
     4
 40
2.0
 49
1.25
 74
     0
 49
-0.25
 74
     0
 49
0.25
 74
     0
 49
-0.25
 74
     0
  0
LTYPE
  5
9941
330
9921
100
AcDbSymbolTableRecord
100
AcDbLinetypeTableRecord
  2
PHANTOM
 70
     0
  3
______  __  __  ______  __  __  ______  __  __ 
 72
    65
 73
     6
 40
2.5
 49
1.25
 74
     0
 49
-0.25
 74
     0
 49
0.25
 74
     0
 49
-0.25
 74
     0
 49
0.25
 74
     0
 49
-0.25
 74
     0
  0
ENDTAB
  0
TABLE
  2
LAYER
  5
991E
330
0
100
AcDbSymbolTable
 70
     8
  0
LAYER
  5
992C
102
{ACAD_XDICTIONARY
360
9E70
102
}
330
991E
100
AcDbSymbolTableRecord
100
AcDbLayerTableRecord
  2
0
 70
     0
 62
     7
  6
CONTINUOUS
370
    -3
390
9E1E
  0
LAYER
  5
9942
102
{ACAD_XDICTIONARY
360
9E72
102
}
330
991E
100
AcDbSymbolTableRecord
100
AcDbLayerTableRecord
  2
4
 70
     0
 62
     1
  6
CENTER
370
    -3
390
9E1E
  0
LAYER
  5
9943
102
{ACAD_XDICTIONARY
360
9E74
102
}
330
991E
100
AcDbSymbolTableRecord
100
AcDbLayerTableRecord
  2
5
 70
     0
 62
     6
  6
PHANTOM
370
    -3
390
9E1E
  0
LAYER
  5
9944
102
{ACAD_XDICTIONARY
360
9E76
102
}
330
991E
100
AcDbSymbolTableRecord
100
AcDbLayerTableRecord
  2
1
 70
     0
 62
     7
  6
CONTINUOUS
370
    -3
390
9E1E
  0
LAYER
  5
9945
102
{ACAD_XDICTIONARY
360
9E78
102
}
330
991E
100
AcDbSymbolTableRecord
100
AcDbLayerTableRecord
  2
2
 70
     0
 62
     4
  6
CONTINUOUS
370
    -3
390
9E1E
  0
LAYER
  5
9946
102
{ACAD_XDICTIONARY
360
9E7A
102
}
330
991E
100
AcDbSymbolTableRecord
100
AcDbLayerTableRecord
  2
3
 70
     0
 62
     2
  6
DASHED
370
    -3
390
9E1E
  0
LAYER
  5
9947
102
{ACAD_XDICTIONARY
360
9E7C
102
}
330
991E
100
AcDbSymbolTableRecord
100
AcDbLayerTableRecord
  2
6
 70
     0
 62
     5
  6
CONTINUOUS
370
    -3
390
9E1E
  0
LAYER
  5
9948
102
{ACAD_XDICTIONARY
360
9E7E
102
}
330
991E
100
AcDbSymbolTableRecord
100
AcDbLayerTableRecord
  2
7
 70
     0
 62
     3
  6
CONTINUOUS
370
    -3
390
9E1E
  0
ENDTAB
  0
TABLE
  2
STYLE
  5
991F
330
0
100
AcDbSymbolTable
 70
     1
  0
STYLE
  5
992D
330
991F
100
AcDbSymbolTableRecord
100
AcDbTextStyleTableRecord
  2
STANDARD
 70
     0
 40
0.0
 41
1.0
 50
0.0
 71
     0
 42
5.0
  3
txt
  4

  0
ENDTAB
  0
TABLE
  2
VIEW
  5
9922
330
0
100
AcDbSymbolTable
 70
     0
  0
ENDTAB
  0
TABLE
  2
UCS
  5
9923
330
0
100
AcDbSymbolTable
 70
     0
  0
ENDTAB
  0
TABLE
  2
APPID
  5
9925
330
0
100
AcDbSymbolTable
 70
     3
  0
APPID
  5
992E
330
9925
100
AcDbSymbolTableRecord
100
AcDbRegAppTableRecord
  2
ACAD
 70
     0
  0
APPID
  5
9E8A
330
9925
100
AcDbSymbolTableRecord
100
AcDbRegAppTableRecord
  2
ACAD_NAV_VCDISPLAY
 70
     0
  0
APPID
  5
9EC3
330
9925
100
AcDbSymbolTableRecord
100
AcDbRegAppTableRecord
  2
ACAD_MLEADERVER
 70
     0
  0
ENDTAB
  0
TABLE
  2
DIMSTYLE
  5
9926
330
0
100
AcDbSymbolTable
 70
     1
100
AcDbDimStyleTable
 71
     0
  0
DIMSTYLE
105
994A
330
9926
100
AcDbSymbolTableRecord
100
AcDbDimStyleTableRecord
  2
STANDARD
 70
     0
 41
2.5
 42
1.0
 43
10.0
 44
1.0
 73
     0
 74
     0
 77
     3
 78
     8
140
3.2
141
0.0
147
1.0
172
     1
173
     1
284
     8
285
     8
286
     8
340
992D
  0
ENDTAB
  0
TABLE
  2
BLOCK_RECORD
  5
991D
330
0
100
AcDbSymbolTable
 70
     0
  0
BLOCK_RECORD
  5
993A
102
{ACAD_XDICTIONARY
360
9B5C
102
}
330
991D
100
AcDbSymbolTableRecord
100
AcDbBlockTableRecord
  2
*MODEL_SPACE
340
9E6C
  0
BLOCK_RECORD
  5
9936
102
{ACAD_XDICTIONARY
360
9B5A
102
}
330
991D
100
AcDbSymbolTableRecord
100
AcDbBlockTableRecord
  2
*PAPER_SPACE
340
9E6D
  0
ENDTAB
  0
ENDSEC
  0
SECTION
  2
BLOCKS
  0
BLOCK
  5
993B
330
993A
100
AcDbEntity
  8
0
100
AcDbBlockBegin
  2
*MODEL_SPACE
 70
     0
 10
0.0
 20
0.0
 30
0.0
  3
*MODEL_SPACE
  1

  0
ENDBLK
  5
993C
330
993A
100
AcDbEntity
  8
0
100
AcDbBlockEnd
  0
BLOCK
  5
9937
330
9936
100
AcDbEntity
 67
     1
  8
0
100
AcDbBlockBegin
  2
*PAPER_SPACE
 70
     0
 10
0.0
 20
0.0
 30
0.0
  3
*PAPER_SPACE
  1

  0
ENDBLK
  5
9938
330
9936
100
AcDbEntity
 67
     1
  8
0
100
AcDbBlockEnd
  0
ENDSEC
  0
SECTION
  2
ENTITIES
  0
TEXT
  5
9952
330
993A
100
AcDbEntity
  8
7
  6
Continuous
100
AcDbText
 10
10.0
 20
18.0
 30
0.0
 40
3.0
  1
TYPE No.TCA-420ER-R125
100
AcDbText
  0
TEXT
  5
9953
330
993A
100
AcDbEntity
  8
7
  6
Continuous
100
AcDbText
 10
10.0
 20
26.0
 30
0.0
 40
3.0
  1
CODE No.9793
100
AcDbText
  0
TEXT
  5
9954
330
993A
100
AcDbEntity
  8
1
  6
Continuous
100
AcDbText
 10
10.0
 20
10.0
 30
0.0
 40
1.399999999999999
  1
LAYER
100
AcDbText
  0
TEXT
  5
9955
330
993A
100
AcDbEntity
  8
1
  6
Continuous
100
AcDbText
 10
17.97951099999998
 20
10.04873699999998
 30
0.0
 40
1.399999999999999
  1
1
100
AcDbText
  0
TEXT
  5
9956
330
993A
100
AcDbEntity
  8
7
  6
Continuous
100
AcDbText
 10
29.97951099999999
 20
10.04873699999998
 30
0.0
 40
1.399999999999999
  1
7
100
AcDbText
  0
TEXT
  5
9957
330
993A
100
AcDbEntity
  8
4
  6
CENTER
100
AcDbText
 10
23.97951099999999
 20
10.04873699999998
 30
0.0
 40
1.399999999999999
  1
4
100
AcDbText
  0
TEXT
  5
9958
330
993A
100
AcDbEntity
  8
3
  6
DASHED
100
AcDbText
 10
21.979511
 20
10.04873699999998
 30
0.0
 40
1.399999999999999
  1
3
100
AcDbText
  0
TEXT
  5
9959
330
993A
100
AcDbEntity
  8
2
  6
Continuous
100
AcDbText
 10
19.97951099999998
 20
10.04873699999998
 30
0.0
 40
1.399999999999999
  1
2
100
AcDbText
  0
TEXT
  5
995A
330
993A
100
AcDbEntity
  8
6
  6
Continuous
100
AcDbText
 10
27.979511
 20
10.04873699999998
 30
0.0
 40
1.399999999999999
  1
6
100
AcDbText
  0
TEXT
  5
995B
330
993A
100
AcDbEntity
  8
5
  6
PHANTOM
100
AcDbText
 10
25.97951099999999
 20
10.04873699999998
 30
0.0
 40
1.399999999999999
  1
5
100
AcDbText
  0
LINE
  5
995C
330
993A
100
AcDbEntity
  8
4
  6
CENTER
 48
0.8
100
AcDbLine
 10
128.8811
 20
383.0691709999999
 30
0.0
 11
263.8811
 21
383.0691709999999
 31
0.0
  0
LINE
  5
995D
330
993A
100
AcDbEntity
  8
1
  6
Continuous
100
AcDbLine
 10
153.3811
 20
412.069171
 30
0.0
 11
159.766098
 21
412.069171
 31
0.0
  0
LINE
  5
995E
330
993A
100
AcDbEntity
  8
4
  6
CENTER
 48
0.8
100
AcDbLine
 10
196.3810999999998
 20
413.8691609999998
 30
0.0
 11
196.3810999999998
 21
356.069179
 31
0.0
  0
LINE
  5
995F
330
993A
100
AcDbEntity
  8
4
  6
CENTER
 48
0.8
100
AcDbLine
 10
161.3811
 20
403.069171
 30
0.0
 11
149.3810999999998
 21
403.069171
 31
0.0
  0
LINE
  5
9960
330
993A
100
AcDbEntity
  8
4
  6
CENTER
 48
0.8
100
AcDbLine
 10
155.3811
 20
409.0691709999998
 30
0.0
 11
155.3811
 21
397.069171
 31
0.0
  0
LINE
  5
9961
330
993A
100
AcDbEntity
  8
4
  6
CENTER
 48
0.8
100
AcDbLine
 10
161.3811
 20
363.0691709999999
 30
0.0
 11
149.3810999999998
 21
363.0691709999999
 31
0.0
  0
LINE
  5
9962
330
993A
100
AcDbEntity
  8
4
  6
CENTER
 48
0.8
100
AcDbLine
 10
155.3811
 20
357.0691709999999
 30
0.0
 11
155.3811
 21
369.0691709999999
 31
0.0
  0
LINE
  5
9963
330
993A
100
AcDbEntity
  8
4
  6
CENTER
 48
0.8
100
AcDbLine
 10
231.3811
 20
403.069171
 30
0.0
 11
243.3810999999999
 21
403.069171
 31
0.0
  0
LINE
  5
9964
330
993A
100
AcDbEntity
  8
4
  6
CENTER
 48
0.8
100
AcDbLine
 10
237.3810999999999
 20
409.0691709999998
 30
0.0
 11
237.3810999999999
 21
397.069171
 31
0.0
  0
LINE
  5
9965
330
993A
100
AcDbEntity
  8
4
  6
CENTER
 48
0.8
100
AcDbLine
 10
231.3811
 20
363.0691709999999
 30
0.0
 11
243.3810999999999
 21
363.0691709999999
 31
0.0
  0
LINE
  5
9966
330
993A
100
AcDbEntity
  8
4
  6
CENTER
 48
0.8
100
AcDbLine
 10
237.3810999999999
 20
357.0691709999999
 30
0.0
 11
237.3810999999999
 21
369.0691709999999
 31
0.0
  0
LINE
  5
9967
330
993A
100
AcDbEntity
  8
1
  6
Continuous
100
AcDbLine
 10
174.677842
 20
401.8691709999997
 30
0.0
 11
218.084362
 21
401.8691709999997
 31
0.0
  0
LINE
  5
9968
330
993A
100
AcDbEntity
  8
1
  6
Continuous
100
AcDbLine
 10
153.3811
 20
354.0691709999999
 30
0.0
 11
159.766098
 21
354.0691709999999
 31
0.0
  0
LINE
  5
9969
330
993A
100
AcDbEntity
  8
1
  6
Continuous
100
AcDbLine
 10
174.677842
 20
364.2691759999999
 30
0.0
 11
218.084362
 21
364.2691759999999
 31
0.0
  0
LINE
  5
996A
330
993A
100
AcDbEntity
  8
1
  6
Continuous
100
AcDbLine
 10
146.3810999999997
 20
361.0691709999999
 30
0.0
 11
146.3810999999997
 21
405.0691709999998
 31
0.0
  0
LINE
  5
996B
330
993A
100
AcDbEntity
  8
1
  6
Continuous
100
AcDbLine
 10
239.3810999999999
 20
412.069171
 30
0.0
 11
232.9961049999997
 21
412.069171
 31
0.0
  0
LINE
  5
996C
330
993A
100
AcDbEntity
  8
1
  6
Continuous
100
AcDbLine
 10
239.3810999999999
 20
354.0691709999999
 30
0.0
 11
232.9961049999997
 21
354.0691709999999
 31
0.0
  0
LINE
  5
996D
330
993A
100
AcDbEntity
  8
1
  6
Continuous
100
AcDbLine
 10
246.3811
 20
361.0691709999999
 30
0.0
 11
246.3811
 21
405.0691709999998
 31
0.0
  0
LINE
  5
996E
330
993A
100
AcDbEntity
  8
1
  6
Continuous
100
AcDbLine
 10
146.3810999999997
 20
305.569171
 30
0.0
 11
190.381102
 21
305.569171
 31
0.0
  0
LINE
  5
996F
330
993A
100
AcDbEntity
  8
1
  6
Continuous
100
AcDbLine
 10
146.3810999999997
 20
302.7691679999998
 30
0.0
 11
165.206955
 21
302.7691679999998
 31
0.0
  0
LINE
  5
9970
330
993A
100
AcDbEntity
  8
1
  6
Continuous
100
AcDbLine
 10
146.3810999999997
 20
302.7691679999998
 30
0.0
 11
146.3810999999997
 21
305.569171
 31
0.0
  0
LINE
  5
9971
330
993A
100
AcDbEntity
  8
1
  6
Continuous
100
AcDbLine
 10
246.3811
 20
302.7691679999998
 30
0.0
 11
246.3811
 21
305.569171
 31
0.0
  0
LINE
  5
9972
330
993A
100
AcDbEntity
  8
4
  6
CENTER
 48
0.8
100
AcDbLine
 10
128.8811
 20
220.069171
 30
0.0
 11
263.8811
 21
220.069171
 31
0.0
  0
LINE
  5
9973
330
993A
100
AcDbEntity
  8
4
  6
CENTER
 48
0.8
100
AcDbLine
 10
196.3810999999998
 20
310.5691709999998
 30
0.0
 11
196.3810999999998
 21
152.5691709999998
 31
0.0
  0
LINE
  5
9974
330
993A
100
AcDbEntity
  8
4
  6
CENTER
 48
0.8
100
AcDbLine
 10
155.3811
 20
310.5691709999998
 30
0.0
 11
155.3811
 21
297.7691679999998
 31
0.0
  0
LINE
  5
9975
330
993A
100
AcDbEntity
  8
1
  6
Continuous
100
AcDbLine
 10
227.5552459999999
 20
302.7691679999998
 30
0.0
 11
246.3811
 21
302.7691679999998
 31
0.0
  0
LINE
  5
9976
330
993A
100
AcDbEntity
  8
4
  6
CENTER
 48
0.8
100
AcDbLine
 10
237.3810999999999
 20
310.5691709999998
 30
0.0
 11
237.3810999999999
 21
297.7691679999998
 31
0.0
  0
LINE
  5
9977
330
993A
100
AcDbEntity
  8
1
  6
Continuous
100
AcDbLine
 10
27.3811
 20
305.569171
 30
0.0
 11
85.38110000000001
 21
305.569171
 31
0.0
  0
LINE
  5
9978
330
993A
100
AcDbEntity
  8
1
  6
Continuous
100
AcDbLine
 10
27.3811
 20
302.7691679999998
 30
0.0
 11
85.38110000000001
 21
302.7691679999998
 31
0.0
  0
LINE
  5
9979
330
993A
100
AcDbEntity
  8
1
  6
Continuous
100
AcDbLine
 10
27.3811
 20
305.569171
 30
0.0
 11
27.3811
 21
302.7691679999998
 31
0.0
  0
LINE
  5
997A
330
993A
100
AcDbEntity
  8
1
  6
Continuous
100
AcDbLine
 10
85.38110000000001
 20
305.569171
 30
0.0
 11
85.38110000000001
 21
302.7691679999998
 31
0.0
  0
LINE
  5
997B
330
993A
100
AcDbEntity
  8
1
  6
Continuous
100
AcDbLine
 10
40.3811
 20
302.7691679999998
 30
0.0
 11
40.3811
 21
210.0691709999999
 31
0.0
  0
LINE
  5
997C
330
993A
100
AcDbEntity
  8
1
  6
Continuous
100
AcDbLine
 10
72.3811
 20
302.7691679999998
 30
0.0
 11
72.3811
 21
210.0691709999999
 31
0.0
  0
LINE
  5
997D
330
993A
100
AcDbEntity
  8
1
  6
Continuous
100
AcDbLine
 10
37.58110999999999
 20
210.0691709999999
 30
0.0
 11
40.3811
 21
210.0691709999999
 31
0.0
  0
LINE
  5
997E
330
993A
100
AcDbEntity
  8
1
  6
Continuous
100
AcDbLine
 10
75.181095
 20
210.0691709999999
 30
0.0
 11
72.3811
 21
210.0691709999999
 31
0.0
  0
LINE
  5
997F
330
993A
100
AcDbEntity
  8
4
  6
CENTER
 48
0.8
100
AcDbLine
 10
25.58111
 20
220.069171
 30
0.0
 11
83.38109200000003
 21
220.069171
 31
0.0
  0
LINE
  5
9980
330
993A
100
AcDbEntity
  8
4
  6
CENTER
 48
0.8
100
AcDbLine
 10
56.38110000000001
 20
310.5691709999998
 30
0.0
 11
56.38110000000001
 21
152.5691709999998
 31
0.0
  0
LINE
  5
9981
330
993A
100
AcDbEntity
  8
1
  6
Continuous
100
AcDbLine
 10
40.3811
 20
224.0691709999999
 30
0.0
 11
41.3811
 21
224.0691709999999
 31
0.0
  0
LINE
  5
9982
330
993A
100
AcDbEntity
  8
1
  6
Continuous
100
AcDbLine
 10
40.3811
 20
216.069171
 30
0.0
 11
41.3811
 21
216.069171
 31
0.0
  0
LINE
  5
9983
330
993A
100
AcDbEntity
  8
1
  6
Continuous
100
AcDbLine
 10
75.181095
 20
296.7768874722384
 30
0.0
 11
75.181095
 21
210.0691709999999
 31
0.0
  0
LINE
  5
9984
330
993A
100
AcDbEntity
  8
1
  6
Continuous
100
AcDbLine
 10
37.58110999999999
 20
296.7768430000016
 30
0.0
 11
37.58110999999999
 21
210.0691709999999
 31
0.0
  0
LINE
  5
9985
330
993A
100
AcDbEntity
  8
4
  6
CENTER
 48
0.8
100
AcDbLine
 10
76.38110199999998
 20
310.5691709999998
 30
0.0
 11
76.38110199999998
 21
297.7691679999998
 31
0.0
  0
LINE
  5
9986
330
993A
100
AcDbEntity
  8
4
  6
CENTER
 48
0.8
100
AcDbLine
 10
36.38111
 20
310.5691709999998
 30
0.0
 11
36.38111
 21
297.7691679999998
 31
0.0
  0
LINE
  5
9987
330
993A
100
AcDbEntity
  8
1
  6
Continuous
100
AcDbLine
 10
171.6311
 20
297.3235260170106
 30
0.0
 11
171.6311
 21
277.0691719999999
 31
0.0
  0
LINE
  5
9988
330
993A
100
AcDbEntity
  8
1
  6
Continuous
100
AcDbLine
 10
171.631101
 20
277.0691709999999
 30
0.0
 11
186.6870989999999
 21
217.614318
 31
0.0
  0
LINE
  5
9989
330
993A
100
AcDbEntity
  8
1
  6
Continuous
100
AcDbLine
 10
221.1311
 20
297.3235260170079
 30
0.0
 11
221.1311
 21
277.0691719999999
 31
0.0
  0
LINE
  5
998A
330
993A
100
AcDbEntity
  8
1
  6
Continuous
100
AcDbLine
 10
32.58110999999999
 20
225.171184
 30
0.0
 11
32.58110999999999
 21
214.967158
 31
0.0
  0
LINE
  5
998B
330
993A
100
AcDbEntity
  8
1
  6
Continuous
100
AcDbLine
 10
34.05605999999998
 20
216.8191709999999
 30
0.0
 11
37.10617
 21
216.8191709999999
 31
0.0
  0
LINE
  5
998C
330
993A
100
AcDbEntity
  8
1
  6
Continuous
100
AcDbLine
 10
34.0296
 20
223.3191709999999
 30
0.0
 11
37.13262999999999
 21
223.3191709999999
 31
0.0
  0
LINE
  5
998D
330
993A
100
AcDbEntity
  8
1
  6
Continuous
100
AcDbLine
 10
33.97911
 20
213.5691709999999
 30
0.0
 11
37.18312
 21
213.5691709999999
 31
0.0
  0
LINE
  5
998E
330
993A
100
AcDbEntity
  8
1
  6
Continuous
100
AcDbLine
 10
33.97911
 20
226.569171
 30
0.0
 11
37.18312
 21
226.569171
 31
0.0
  0
LINE
  5
998F
330
993A
100
AcDbEntity
  8
1
  6
Continuous
100
AcDbLine
 10
33.97911
 20
213.5691859999997
 30
0.0
 11
32.58113
 21
214.967174
 31
0.0
  0
LINE
  5
9990
330
993A
100
AcDbEntity
  8
1
  6
Continuous
100
AcDbLine
 10
32.58110999999999
 20
225.1711759999998
 30
0.0
 11
33.97909
 21
226.569156
 31
0.0
  0
LINE
  5
9991
330
993A
100
AcDbEntity
  8
1
  6
Continuous
100
AcDbLine
 10
75.181095
 20
226.319171
 30
0.0
 11
76.38109200000002
 21
226.319171
 31
0.0
  0
LINE
  5
9992
330
993A
100
AcDbEntity
  8
1
  6
Continuous
100
AcDbLine
 10
78.38109200000002
 20
224.319171
 30
0.0
 11
78.38109200000002
 21
215.819171
 31
0.0
  0
LINE
  5
9993
330
993A
100
AcDbEntity
  8
1
  6
Continuous
100
AcDbLine
 10
75.181095
 20
213.819171
 30
0.0
 11
76.38109200000002
 21
213.819171
 31
0.0
  0
LINE
  5
9994
330
993A
100
AcDbEntity
  8
1
  6
Continuous
100
AcDbLine
 10
191.3811
 20
400.369171
 30
0.0
 11
201.381098
 21
400.369171
 31
0.0
  0
LINE
  5
9995
330
993A
100
AcDbEntity
  8
1
  6
Continuous
100
AcDbLine
 10
191.3811
 20
366.7691679999999
 30
0.0
 11
201.381098
 21
366.7691679999999
 31
0.0
  0
LINE
  5
9996
330
993A
100
AcDbEntity
  8
1
  6
Continuous
100
AcDbLine
 10
191.3811
 20
365.7691679999999
 30
0.0
 11
201.381098
 21
365.7691679999999
 31
0.0
  0
LINE
  5
9997
330
993A
100
AcDbEntity
  8
1
  6
Continuous
100
AcDbLine
 10
191.3811
 20
365.7691679999999
 30
0.0
 11
191.3811
 21
400.369171
 31
0.0
  0
LINE
  5
9998
330
993A
100
AcDbEntity
  8
1
  6
Continuous
100
AcDbLine
 10
201.381098
 20
365.7691679999999
 30
0.0
 11
201.381098
 21
400.369171
 31
0.0
  0
LINE
  5
9999
330
993A
100
AcDbEntity
  8
1
  6
Continuous
100
AcDbLine
 10
191.3811
 20
399.369171
 30
0.0
 11
201.381098
 21
399.369171
 31
0.0
  0
LINE
  5
999A
330
993A
100
AcDbEntity
  8
1
  6
Continuous
100
AcDbLine
 10
191.3811019999999
 20
273.0691699999999
 30
0.0
 11
191.3811019999999
 21
304.5691709999998
 31
0.0
  0
LINE
  5
999B
330
993A
100
AcDbEntity
  8
1
  6
Continuous
100
AcDbLine
 10
201.3811
 20
283.6083879999998
 30
0.0
 11
191.3811019999999
 21
283.6083879999998
 31
0.0
  0
LINE
  5
999C
330
993A
100
AcDbEntity
  8
1
  6
Continuous
100
AcDbLine
 10
201.3811
 20
286.1083879999998
 30
0.0
 11
191.3744659999999
 21
286.1083879999998
 31
0.0
  0
LINE
  5
999D
330
993A
100
AcDbEntity
  8
1
  6
Continuous
100
AcDbLine
 10
201.3811
 20
273.069169
 30
0.0
 11
201.3811
 21
304.5691709999998
 31
0.0
  0
LINE
  5
999E
330
993A
100
AcDbEntity
  8
1
  6
Continuous
100
AcDbLine
 10
201.3811039999999
 20
303.569171
 30
0.0
 11
191.3811019999999
 21
303.569171
 31
0.0
  0
LINE
  5
999F
330
993A
100
AcDbEntity
  8
1
  6
Continuous
100
AcDbLine
 10
43.8811
 20
300.7691679999998
 30
0.0
 11
68.88110000000001
 21
300.7691679999998
 31
0.0
  0
LINE
  5
99A0
330
993A
100
AcDbEntity
  8
1
  6
Continuous
100
AcDbLine
 10
69.8811
 20
299.7691679999998
 30
0.0
 11
69.8811
 21
286.532079
 31
0.0
  0
LINE
  5
99A1
330
993A
100
AcDbEntity
  8
1
  6
Continuous
100
AcDbLine
 10
42.52348
 20
284.6751259999998
 30
0.0
 11
41.3811
 21
281.819181
 31
0.0
  0
LINE
  5
99A2
330
993A
100
AcDbEntity
  8
1
  6
Continuous
100
AcDbLine
 10
42.8811
 20
299.7691679999998
 30
0.0
 11
42.8811
 21
286.532079
 31
0.0
  0
LINE
  5
99A3
330
993A
100
AcDbEntity
  8
1
  6
Continuous
100
AcDbLine
 10
70.23872
 20
284.6751239999998
 30
0.0
 11
71.38110000000001
 21
281.8191689999998
 31
0.0
  0
LINE
  5
99A4
330
993A
100
AcDbEntity
  8
1
  6
Continuous
100
AcDbLine
 10
41.3811
 20
281.819179
 30
0.0
 11
41.3811
 21
268.801219
 31
0.0
  0
LINE
  5
99A5
330
993A
100
AcDbEntity
  8
1
  6
Continuous
100
AcDbLine
 10
71.38110000000001
 20
281.8191689999998
 30
0.0
 11
71.38110000000001
 21
268.801219
 31
0.0
  0
LINE
  5
99A6
330
993A
100
AcDbEntity
  8
1
  6
Continuous
100
AcDbLine
 10
202.3811
 20
305.569171
 30
0.0
 11
246.3811
 21
305.569171
 31
0.0
  0
LINE
  5
99A7
330
993A
100
AcDbEntity
  8
1
  6
Continuous
100
AcDbLine
 10
69.8811
 20
279.5896859999999
 30
0.0
 11
69.8811
 21
160.54865
 31
0.0
  0
LINE
  5
99A8
330
993A
100
AcDbEntity
  8
1
  6
Continuous
100
AcDbLine
 10
71.38110000000001
 20
207.0691709999999
 30
0.0
 11
71.38110000000001
 21
233.0691709999999
 31
0.0
  0
LINE
  5
99A9
330
993A
100
AcDbEntity
  8
1
  6
Continuous
100
AcDbLine
 10
41.3811
 20
207.0691709999999
 30
0.0
 11
41.3811
 21
233.0691709999999
 31
0.0
  0
LINE
  5
99AA
330
993A
100
AcDbEntity
  8
1
  6
Continuous
100
AcDbLine
 10
42.8811
 20
279.5896859999999
 30
0.0
 11
42.8811
 21
160.54865
 31
0.0
  0
LINE
  5
99AB
330
993A
100
AcDbEntity
  8
1
  6
Continuous
100
AcDbLine
 10
71.38110000000001
 20
224.0691709999999
 30
0.0
 11
72.3811
 21
224.0691709999999
 31
0.0
  0
LINE
  5
99AC
330
993A
100
AcDbEntity
  8
1
  6
Continuous
100
AcDbLine
 10
71.38110000000001
 20
216.069171
 30
0.0
 11
72.3811
 21
216.069171
 31
0.0
  0
CIRCLE
  5
99AD
330
993A
100
AcDbEntity
  8
1
  6
Continuous
100
AcDbCircle
 10
155.3811
 20
403.069171
 30
0.0
 40
4.4
  0
CIRCLE
  5
99AE
330
993A
100
AcDbEntity
  8
1
  6
Continuous
100
AcDbCircle
 10
155.3811
 20
363.0691709999999
 30
0.0
 40
4.4
  0
CIRCLE
  5
99AF
330
993A
100
AcDbEntity
  8
1
  6
Continuous
100
AcDbCircle
 10
237.3810999999999
 20
403.069171
 30
0.0
 40
4.4
  0
CIRCLE
  5
99B0
330
993A
100
AcDbEntity
  8
1
  6
Continuous
100
AcDbCircle
 10
237.3810999999999
 20
363.0691709999999
 30
0.0
 40
4.4
  0
ARC
  5
99B1
330
993A
100
AcDbEntity
  8
1
  6
Continuous
100
AcDbCircle
 10
153.3811
 20
405.0691709999998
 30
0.0
 40
7.0
100
AcDbArc
 50
89.99998199999996
 51
179.9999599999999
  0
ARC
  5
99B2
330
993A
100
AcDbEntity
  8
1
  6
Continuous
100
AcDbCircle
 10
159.766098
 20
404.0691709999999
 30
0.0
 40
8.0
100
AcDbArc
 50
21.25376399999999
 51
89.99998199999996
  0
ARC
  5
99B3
330
993A
100
AcDbEntity
  8
1
  6
Continuous
100
AcDbCircle
 10
174.677842
 20
409.8691709999997
 30
0.0
 40
8.0
100
AcDbArc
 50
201.2538
 51
270.00002
  0
ARC
  5
99B4
330
993A
100
AcDbEntity
  8
1
  6
Continuous
100
AcDbCircle
 10
153.3811
 20
361.0691709999999
 30
0.0
 40
7.0
100
AcDbArc
 50
179.9999799999999
 51
269.99997
  0
ARC
  5
99B5
330
993A
100
AcDbEntity
  8
1
  6
Continuous
100
AcDbCircle
 10
159.766098
 20
362.069171
 30
0.0
 40
8.0
100
AcDbArc
 50
269.9999599999998
 51
338.74618
  0
ARC
  5
99B6
330
993A
100
AcDbEntity
  8
1
  6
Continuous
100
AcDbCircle
 10
174.677842
 20
356.2691759999998
 30
0.0
 40
8.0
100
AcDbArc
 50
89.99992699999998
 51
158.74615
  0
ARC
  5
99B7
330
993A
100
AcDbEntity
  8
1
  6
Continuous
100
AcDbCircle
 10
239.3810999999999
 20
405.0691709999998
 30
0.0
 40
7.0
100
AcDbArc
 50
0.0
 51
89.99998199999996
  0
ARC
  5
99B8
330
993A
100
AcDbEntity
  8
1
  6
Continuous
100
AcDbCircle
 10
232.9961049999997
 20
404.0691709999999
 30
0.0
 40
8.0
100
AcDbArc
 50
89.99998199999996
 51
158.7461899999999
  0
ARC
  5
99B9
330
993A
100
AcDbEntity
  8
1
  6
Continuous
100
AcDbCircle
 10
218.084362
 20
409.8691709999997
 30
0.0
 40
8.0
100
AcDbArc
 50
269.9999599999998
 51
338.74619
  0
ARC
  5
99BA
330
993A
100
AcDbEntity
  8
1
  6
Continuous
100
AcDbCircle
 10
239.3810999999999
 20
361.0691709999999
 30
0.0
 40
7.0
100
AcDbArc
 50
270.00002
 51
0.0
  0
ARC
  5
99BB
330
993A
100
AcDbEntity
  8
1
  6
Continuous
100
AcDbCircle
 10
232.9961049999997
 20
362.069171
 30
0.0
 40
8.0
100
AcDbArc
 50
201.2538099999999
 51
270.00002
  0
ARC
  5
99BC
330
993A
100
AcDbEntity
  8
1
  6
Continuous
100
AcDbCircle
 10
218.084362
 20
356.2691759999998
 30
0.0
 40
8.0
100
AcDbArc
 50
21.25381399999998
 51
90.000037
  0
ARC
  5
99C3
330
993A
100
AcDbEntity
  8
1
  6
Continuous
100
AcDbCircle
 10
196.3810999999998
 20
220.069171
 30
0.0
 40
10.0
100
AcDbArc
 50
194.2104999999999
 51
345.7895029999999
  0
CIRCLE
  5
99C4
330
993A
100
AcDbEntity
  8
1
  6
Continuous
100
AcDbCircle
 10
196.3810999999998
 20
220.069171
 30
0.0
 40
6.25
  0
CIRCLE
  5
99C5
330
993A
100
AcDbEntity
  8
1
  6
Continuous
100
AcDbCircle
 10
196.3810999999998
 20
220.069171
 30
0.0
 40
1.5
  0
ARC
  5
99C6
330
993A
100
AcDbEntity
  8
1
  6
Continuous
100
AcDbCircle
 10
34.33110999999998
 20
215.127543
 30
0.0
 40
3.25
100
AcDbArc
 50
331.3472299999999
 51
31.365793
  0
ARC
  5
99C7
330
993A
100
AcDbEntity
  8
1
  6
Continuous
100
AcDbCircle
 10
36.83110999999997
 20
215.127543
 30
0.0
 40
3.25
100
AcDbArc
 50
148.63423
 51
208.6527299999999
  0
ARC
  5
99C8
330
993A
100
AcDbEntity
  8
1
  6
Continuous
100
AcDbCircle
 10
45.58110999999999
 20
220.069171
 30
0.0
 40
12.0
100
AcDbArc
 50
164.2861599999999
 51
195.71383
  0
ARC
  5
99C9
330
993A
100
AcDbEntity
  8
1
  6
Continuous
100
AcDbCircle
 10
25.58111
 20
220.069171
 30
0.0
 40
12.0
100
AcDbArc
 50
344.2861399999999
 51
15.71386099999998
  0
ARC
  5
99CA
330
993A
100
AcDbEntity
  8
1
  6
Continuous
100
AcDbCircle
 10
36.83110999999997
 20
225.010799
 30
0.0
 40
3.25
100
AcDbArc
 50
151.34725
 51
211.3657499999999
  0
ARC
  5
99CB
330
993A
100
AcDbEntity
  8
1
  6
Continuous
100
AcDbCircle
 10
34.33110999999998
 20
225.010799
 30
0.0
 40
3.25
100
AcDbArc
 50
328.6342
 51
28.65276699999999
  0
ARC
  5
99CC
330
993A
100
AcDbEntity
  8
1
  6
Continuous
100
AcDbCircle
 10
76.38109200000002
 20
224.319171
 30
0.0
 40
2.0
100
AcDbArc
 50
0.0
 51
89.99998199999996
  0
ARC
  5
99CD
330
993A
100
AcDbEntity
  8
1
  6
Continuous
100
AcDbCircle
 10
76.38109200000002
 20
215.819171
 30
0.0
 40
2.0
100
AcDbArc
 50
270.00002
 51
0.0
  0
ARC
  5
99CE
330
993A
100
AcDbEntity
  8
1
  6
Continuous
100
AcDbCircle
 10
189.8811
 20
400.369171
 30
0.0
 40
1.5
100
AcDbArc
 50
0.0
 51
90.00000300000001
  0
ARC
  5
99CF
330
993A
100
AcDbEntity
  8
1
  6
Continuous
100
AcDbCircle
 10
202.8811
 20
400.369171
 30
0.0
 40
1.5
100
AcDbArc
 50
90.00000300000001
 51
180.00001
  0
ARC
  5
99D0
330
993A
100
AcDbEntity
  8
1
  6
Continuous
100
AcDbCircle
 10
189.8811
 20
365.7691759999999
 30
0.0
 40
1.5
100
AcDbArc
 50
270.0
 51
0.0
  0
ARC
  5
99D1
330
993A
100
AcDbEntity
  8
1
  6
Continuous
100
AcDbCircle
 10
202.8811
 20
365.7691759999999
 30
0.0
 40
1.5
100
AcDbArc
 50
179.9999899999999
 51
270.0
  0
ARC
  5
99D2
330
993A
100
AcDbEntity
  8
1
  6
Continuous
100
AcDbCircle
 10
196.3811019999999
 20
273.069169
 30
0.0
 40
5.0
100
AcDbArc
 50
180.00001
 51
0.0
  0
ARC
  5
99D3
330
993A
100
AcDbEntity
  8
1
  6
Continuous
100
AcDbCircle
 10
190.381102
 20
304.5691709999998
 30
0.0
 40
1.0
100
AcDbArc
 50
0.0
 51
90.00000300000001
  0
ARC
  5
99D4
330
993A
100
AcDbEntity
  8
1
  6
Continuous
100
AcDbCircle
 10
202.3811
 20
304.5691709999998
 30
0.0
 40
1.0
100
AcDbArc
 50
90.00000300000001
 51
180.00001
  0
ARC
  5
99D5
330
993A
100
AcDbEntity
  8
1
  6
Continuous
100
AcDbCircle
 10
43.8811
 20
299.7691679999998
 30
0.0
 40
1.0
100
AcDbArc
 50
90.00000300000001
 51
180.00001
  0
ARC
  5
99D6
330
993A
100
AcDbEntity
  8
1
  6
Continuous
100
AcDbCircle
 10
68.88110000000001
 20
299.7691679999998
 30
0.0
 40
1.0
100
AcDbArc
 50
0.0
 51
90.00000300000001
  0
ARC
  5
99D7
330
993A
100
AcDbEntity
  8
1
  6
Continuous
100
AcDbCircle
 10
37.8811
 20
286.532079
 30
0.0
 40
5.0
100
AcDbArc
 50
338.1985899999999
 51
0.0
  0
ARC
  5
99D8
330
993A
100
AcDbEntity
  8
1
  6
Continuous
100
AcDbCircle
 10
39.3811
 20
268.801219
 30
0.0
 40
2.0
100
AcDbArc
 50
300.0
 51
0.0
  0
ARC
  5
99D9
330
993A
100
AcDbEntity
  8
1
  6
Continuous
100
AcDbCircle
 10
74.8811
 20
286.532079
 30
0.0
 40
5.0
100
AcDbArc
 50
179.9999899999999
 51
201.80141
  0
ARC
  5
99DA
330
993A
100
AcDbEntity
  8
1
  6
Continuous
100
AcDbCircle
 10
73.3811
 20
268.801219
 30
0.0
 40
2.0
100
AcDbArc
 50
179.9999899999999
 51
240.00001
  0
ARC
  5
99DB
330
993A
100
AcDbEntity
  8
1
  6
Continuous
100
AcDbCircle
 10
196.3810999999998
 20
220.069171
 30
0.0
 40
62.5
100
AcDbArc
 50
113.41741
 51
66.58260699999999
  0
ARC
  5
99DC
330
993A
100
AcDbEntity
  8
1
  6
Continuous
100
AcDbCircle
 10
196.3810999999998
 20
220.069171
 30
0.0
 40
44.5
100
AcDbArc
 50
117.19687
 51
62.803135
  0
ARC
  5
99DD
330
993A
100
AcDbEntity
  8
1
  6
Continuous
100
AcDbCircle
 10
196.3810999999998
 20
220.069171
 30
0.0
 40
31.5
100
AcDbArc
 50
122.71991
 51
57.28010699999999
  0
ARC
  5
99DE
330
993A
100
AcDbEntity
  8
1
  6
Continuous
100
AcDbCircle
 10
196.3810999999998
 20
220.069171
 30
0.0
 40
15.5
100
AcDbArc
 50
144.38827
 51
35.611769
  0
ARC
  5
99DF
330
993A
100
AcDbEntity
  8
1
  6
Continuous
100
AcDbCircle
 10
68.3811
 20
233.0691709999999
 30
0.0
 40
3.0
100
AcDbArc
 50
0.000055
 51
59.999995
  0
ARC
  5
99E0
330
993A
100
AcDbEntity
  8
1
  6
Continuous
100
AcDbCircle
 10
44.3811
 20
233.0691709999999
 30
0.0
 40
3.0
100
AcDbArc
 50
120.0000199999999
 51
180.00002
  0
ARC
  5
99E1
330
993A
100
AcDbEntity
  8
1
  6
Continuous
100
AcDbCircle
 10
44.8811
 20
160.548651
 30
0.0
 40
2.0
100
AcDbArc
 50
179.9999799999999
 51
260.26346
  0
ARC
  5
99E2
330
993A
100
AcDbEntity
  8
1
  6
Continuous
100
AcDbCircle
 10
67.8811
 20
279.5896859999999
 30
0.0
 40
2.0
100
AcDbArc
 50
0.000055
 51
80.26353399999996
  0
ARC
  5
99E3
330
993A
100
AcDbEntity
  8
1
  6
Continuous
100
AcDbCircle
 10
67.8811
 20
160.548651
 30
0.0
 40
2.0
100
AcDbArc
 50
279.73647
 51
359.99995
  0
ARC
  5
99E4
330
993A
100
AcDbEntity
  8
1
  6
Continuous
100
AcDbCircle
 10
44.3811
 20
207.0691709999999
 30
0.0
 40
3.0
100
AcDbArc
 50
179.9999799999999
 51
239.99998
  0
ARC
  5
99E5
330
993A
100
AcDbEntity
  8
1
  6
Continuous
100
AcDbCircle
 10
68.3811
 20
207.0691709999999
 30
0.0
 40
3.0
100
AcDbArc
 50
300.00001
 51
359.99995
  0
ARC
  5
99E6
330
993A
100
AcDbEntity
  8
1
  6
Continuous
100
AcDbCircle
 10
56.38110000000001
 20
212.5691709999999
 30
0.0
 40
70.0
100
AcDbArc
 50
80.26348
 51
99.73654000000003
  0
ARC
  5
99E7
330
993A
100
AcDbEntity
  8
1
  6
Continuous
100
AcDbCircle
 10
44.8811
 20
279.5896859999999
 30
0.0
 40
2.0
100
AcDbArc
 50
99.73654000000003
 51
180.00002
  0
LINE
  5
9A0E
330
993A
100
AcDbEntity
  8
1
  6
Continuous
100
AcDbLine
 10
221.220254
 20
277.4212979999999
 30
0.0
 11
206.0751039999999
 21
217.6143209999999
 31
0.0
  0
ARC
  5
9A0F
330
993A
100
AcDbEntity
  8
1
  6
Continuous
100
AcDbCircle
 10
56.38110000000001
 20
227.5691709999999
 30
0.0
 40
70.0
100
AcDbArc
 50
260.26346
 51
279.7365199999999
  0
LINE
  5
9A22
330
993A
100
AcDbEntity
  8
1
  6
Continuous
100
AcDbLine
 10
164.6778419999999
 20
98.86916600000001
 30
0.0
 11
208.084362
 21
98.86916600000001
 31
0.0
  0
LINE
  5
9A23
330
993A
100
AcDbEntity
  8
1
  6
Continuous
100
AcDbLine
 10
164.6778419999999
 20
61.269171
 30
0.0
 11
208.084362
 21
61.269171
 31
0.0
  0
LINE
  5
9A24
330
993A
100
AcDbEntity
  8
4
  6
CENTER
 48
0.8
100
AcDbLine
 10
118.8811
 20
80.06917099999999
 30
0.0
 11
253.8810999999999
 21
80.06917099999999
 31
0.0
  0
LINE
  5
9A25
330
993A
100
AcDbEntity
  8
1
  6
Continuous
100
AcDbLine
 10
136.3811
 20
102.0691709999999
 30
0.0
 11
136.3811
 21
93.569171
 31
0.0
  0
LINE
  5
9A26
330
993A
100
AcDbEntity
  8
4
  6
CENTER
 48
0.8
100
AcDbLine
 10
186.3811
 20
49.269181
 30
0.0
 11
186.3811
 21
107.069163
 31
0.0
  0
ARC
  5
9A27
330
993A
100
AcDbEntity
  8
1
  6
Continuous
100
AcDbCircle
 10
164.6778419999999
 20
106.869166
 30
0.0
 40
8.0
100
AcDbArc
 50
201.25385
 51
270.0000729999998
  0
ARC
  5
9A28
330
993A
100
AcDbEntity
  8
1
  6
Continuous
100
AcDbCircle
 10
149.766098
 20
101.0691709999999
 30
0.0
 40
8.0
100
AcDbArc
 50
21.25382
 51
90.00004000000002
  0
ARC
  5
9A29
330
993A
100
AcDbEntity
  8
1
  6
Continuous
100
AcDbCircle
 10
143.3811
 20
102.0691709999999
 30
0.0
 40
7.0
100
AcDbArc
 50
90.00003000000004
 51
180.00002
  0
LINE
  5
9A2A
330
993A
100
AcDbEntity
  8
4
  6
CENTER
 48
0.8
100
AcDbLine
 10
145.3810999999998
 20
106.0691709999999
 30
0.0
 11
145.3810999999998
 21
94.06917099999999
 31
0.0
  0
LINE
  5
9A2B
330
993A
100
AcDbEntity
  8
1
  6
Continuous
100
AcDbLine
 10
143.3811
 20
109.0691709999999
 30
0.0
 11
149.766098
 21
109.0691709999999
 31
0.0
  0
CIRCLE
  5
9A2C
330
993A
100
AcDbEntity
  8
1
  6
Continuous
100
AcDbCircle
 10
145.3810999999998
 20
100.0691709999999
 30
0.0
 40
4.4
  0
LINE
  5
9A2D
330
993A
100
AcDbEntity
  8
4
  6
CENTER
 48
0.8
100
AcDbLine
 10
151.3811
 20
100.0691709999999
 30
0.0
 11
139.3811
 21
100.0691709999999
 31
0.0
  0
ARC
  5
9A2E
330
993A
100
AcDbEntity
  8
1
  6
Continuous
100
AcDbCircle
 10
164.6778419999999
 20
53.26917099999999
 30
0.0
 40
8.0
100
AcDbArc
 50
89.99997999999996
 51
158.7461999999999
  0
CIRCLE
  5
9A2F
330
993A
100
AcDbEntity
  8
1
  6
Continuous
100
AcDbCircle
 10
145.3810999999998
 20
60.06917099999999
 30
0.0
 40
4.4
  0
LINE
  5
9A30
330
993A
100
AcDbEntity
  8
4
  6
CENTER
 48
0.8
100
AcDbLine
 10
145.3810999999998
 20
54.069171
 30
0.0
 11
145.3810999999998
 21
66.069171
 31
0.0
  0
LINE
  5
9A31
330
993A
100
AcDbEntity
  8
4
  6
CENTER
 48
0.8
100
AcDbLine
 10
151.3811
 20
60.06917099999999
 30
0.0
 11
139.3811
 21
60.06917099999999
 31
0.0
  0
LINE
  5
9A32
330
993A
100
AcDbEntity
  8
1
  6
Continuous
100
AcDbLine
 10
143.3811
 20
51.069171
 30
0.0
 11
149.766098
 21
51.069171
 31
0.0
  0
ARC
  5
9A33
330
993A
100
AcDbEntity
  8
1
  6
Continuous
100
AcDbCircle
 10
143.3811
 20
58.06917099999999
 30
0.0
 40
7.0
100
AcDbArc
 50
180.0000399999998
 51
270.0000179999999
  0
ARC
  5
9A34
330
993A
100
AcDbEntity
  8
1
  6
Continuous
100
AcDbCircle
 10
149.766098
 20
59.069171
 30
0.0
 40
8.0
100
AcDbArc
 50
270.0000179999999
 51
338.746236
  0
LINE
  5
9A35
330
993A
100
AcDbEntity
  8
1
  6
Continuous
100
AcDbLine
 10
236.3811
 20
102.0691709999999
 30
0.0
 11
236.3811
 21
93.569171
 31
0.0
  0
CIRCLE
  5
9A36
330
993A
100
AcDbEntity
  8
1
  6
Continuous
100
AcDbCircle
 10
227.3811
 20
100.0691709999999
 30
0.0
 40
4.4
  0
LINE
  5
9A37
330
993A
100
AcDbEntity
  8
1
  6
Continuous
100
AcDbLine
 10
229.3811
 20
109.0691709999999
 30
0.0
 11
222.9961049999999
 21
109.0691709999999
 31
0.0
  0
LINE
  5
9A38
330
993A
100
AcDbEntity
  8
4
  6
CENTER
 48
0.8
100
AcDbLine
 10
221.3811
 20
100.0691709999999
 30
0.0
 11
233.3811
 21
100.0691709999999
 31
0.0
  0
ARC
  5
9A39
330
993A
100
AcDbEntity
  8
1
  6
Continuous
100
AcDbCircle
 10
222.9961049999999
 20
101.0691709999999
 30
0.0
 40
8.0
100
AcDbArc
 50
89.99997999999996
 51
158.7461899999999
  0
ARC
  5
9A3A
330
993A
100
AcDbEntity
  8
1
  6
Continuous
100
AcDbCircle
 10
208.084362
 20
106.869166
 30
0.0
 40
8.0
100
AcDbArc
 50
269.9999629999999
 51
338.7461859999999
  0
ARC
  5
9A3B
330
993A
100
AcDbEntity
  8
1
  6
Continuous
100
AcDbCircle
 10
229.3811
 20
102.0691709999999
 30
0.0
 40
7.0
100
AcDbArc
 50
0.0
 51
89.99997999999996
  0
LINE
  5
9A3C
330
993A
100
AcDbEntity
  8
4
  6
CENTER
 48
0.8
100
AcDbLine
 10
227.3811
 20
106.0691709999999
 30
0.0
 11
227.3811
 21
94.06917099999999
 31
0.0
  0
CIRCLE
  5
9A3D
330
993A
100
AcDbEntity
  8
1
  6
Continuous
100
AcDbCircle
 10
227.3811
 20
60.06917099999999
 30
0.0
 40
4.4
  0
LINE
  5
9A3E
330
993A
100
AcDbEntity
  8
1
  6
Continuous
100
AcDbLine
 10
229.3811
 20
51.069171
 30
0.0
 11
222.9961049999999
 21
51.069171
 31
0.0
  0
LINE
  5
9A3F
330
993A
100
AcDbEntity
  8
4
  6
CENTER
 48
0.8
100
AcDbLine
 10
221.3811
 20
60.06917099999999
 30
0.0
 11
233.3811
 21
60.06917099999999
 31
0.0
  0
ARC
  5
9A40
330
993A
100
AcDbEntity
  8
1
  6
Continuous
100
AcDbCircle
 10
208.084362
 20
53.26917099999999
 30
0.0
 40
8.0
100
AcDbArc
 50
21.25381
 51
90.00004000000002
  0
ARC
  5
9A41
330
993A
100
AcDbEntity
  8
1
  6
Continuous
100
AcDbCircle
 10
222.9961049999999
 20
59.069171
 30
0.0
 40
8.0
100
AcDbArc
 50
201.2538099999999
 51
270.0000179999999
  0
LINE
  5
9A42
330
993A
100
AcDbEntity
  8
4
  6
CENTER
 48
0.8
100
AcDbLine
 10
227.3811
 20
54.069171
 30
0.0
 11
227.3811
 21
66.069171
 31
0.0
  0
ARC
  5
9A43
330
993A
100
AcDbEntity
  8
1
  6
Continuous
100
AcDbCircle
 10
229.3811
 20
58.06917099999999
 30
0.0
 40
7.0
100
AcDbArc
 50
270.0000179999999
 51
0.0
  0
LINE
  5
9A44
330
993A
100
AcDbEntity
  8
1
  6
Continuous
100
AcDbLine
 10
126.860585
 20
66.569171
 30
0.0
 11
245.901622
 21
66.569171
 31
0.0
  0
LINE
  5
9A45
330
993A
100
AcDbEntity
  8
1
  6
Continuous
100
AcDbLine
 10
126.860585
 20
93.569171
 30
0.0
 11
245.901622
 21
93.569171
 31
0.0
  0
ARC
  5
9A46
330
993A
100
AcDbEntity
  8
1
  6
Continuous
100
AcDbCircle
 10
193.8811
 20
80.06917099999999
 30
0.0
 40
70.0
100
AcDbArc
 50
170.26348
 51
189.7365399999999
  0
ARC
  5
9A47
330
993A
100
AcDbEntity
  8
1
  6
Continuous
100
AcDbCircle
 10
126.860585
 20
68.569171
 30
0.0
 40
2.0
100
AcDbArc
 50
189.7365399999999
 51
270.00002
  0
ARC
  5
9A48
330
993A
100
AcDbEntity
  8
1
  6
Continuous
100
AcDbCircle
 10
126.860585
 20
91.56917099999999
 30
0.0
 40
2.0
100
AcDbArc
 50
90.00005499999994
 51
170.263534
  0
ARC
  5
9A49
330
993A
100
AcDbEntity
  8
1
  6
Continuous
100
AcDbCircle
 10
178.8811
 20
80.06917099999999
 30
0.0
 40
70.0
100
AcDbArc
 50
350.26346
 51
9.73652
  0
LINE
  5
9A4A
330
993A
100
AcDbEntity
  8
1
  6
Continuous
100
AcDbLine
 10
199.3810999999998
 20
65.06917099999999
 30
0.0
 11
173.3811
 21
65.06917099999999
 31
0.0
  0
ARC
  5
9A4B
330
993A
100
AcDbEntity
  8
1
  6
Continuous
100
AcDbCircle
 10
173.3811
 20
68.06917099999998
 30
0.0
 40
3.0
100
AcDbArc
 50
210.00002
 51
270.00002
  0
LINE
  5
9A4C
330
993A
100
AcDbEntity
  8
1
  6
Continuous
100
AcDbLine
 10
182.3811
 20
64.069171
 30
0.0
 11
182.3811
 21
65.06917099999999
 31
0.0
  0
LINE
  5
9A4D
330
993A
100
AcDbEntity
  8
1
  6
Continuous
100
AcDbLine
 10
190.3811
 20
64.069171
 30
0.0
 11
190.3811
 21
65.06917099999999
 31
0.0
  0
ARC
  5
9A4E
330
993A
100
AcDbEntity
  8
1
  6
Continuous
100
AcDbCircle
 10
199.3810999999998
 20
68.06917099999998
 30
0.0
 40
3.0
100
AcDbArc
 50
269.99998
 51
329.99998
  0
ARC
  5
9A4F
330
993A
100
AcDbEntity
  8
1
  6
Continuous
100
AcDbCircle
 10
245.90162
 20
68.569171
 30
0.0
 40
2.0
100
AcDbArc
 50
269.99998
 51
350.26346
  0
LINE
  5
9A50
330
993A
100
AcDbEntity
  8
1
  6
Continuous
100
AcDbLine
 10
199.3810999999998
 20
95.069171
 30
0.0
 11
173.3811
 21
95.069171
 31
0.0
  0
ARC
  5
9A51
330
993A
100
AcDbEntity
  8
1
  6
Continuous
100
AcDbCircle
 10
173.3811
 20
92.069171
 30
0.0
 40
3.0
100
AcDbArc
 50
90.00005499999994
 51
149.9999949999998
  0
ARC
  5
9A52
330
993A
100
AcDbEntity
  8
1
  6
Continuous
100
AcDbCircle
 10
190.6311
 20
100.0691629999999
 30
0.0
 40
2.0
100
AcDbArc
 50
0.00002
 51
90.0
  0
LINE
  5
9A53
330
993A
100
AcDbEntity
  8
1
  6
Continuous
100
AcDbLine
 10
182.3811
 20
95.069171
 30
0.0
 11
182.3811
 21
96.069171
 31
0.0
  0
LINE
  5
9A54
330
993A
100
AcDbEntity
  8
1
  6
Continuous
100
AcDbLine
 10
180.1311
 20
98.86916600000001
 30
0.0
 11
180.1311
 21
100.0691629999999
 31
0.0
  0
LINE
  5
9A55
330
993A
100
AcDbEntity
  8
1
  6
Continuous
100
AcDbLine
 10
190.3811
 20
95.069171
 30
0.0
 11
190.3811
 21
96.069171
 31
0.0
  0
LINE
  5
9A56
330
993A
100
AcDbEntity
  8
1
  6
Continuous
100
AcDbLine
 10
182.1311
 20
102.0691629999999
 30
0.0
 11
190.6311
 21
102.0691629999999
 31
0.0
  0
ARC
  5
9A57
330
993A
100
AcDbEntity
  8
1
  6
Continuous
100
AcDbCircle
 10
182.1311
 20
100.0691629999999
 30
0.0
 40
2.0
100
AcDbArc
 50
90.0
 51
179.999982
  0
ARC
  5
9A58
330
993A
100
AcDbEntity
  8
1
  6
Continuous
100
AcDbCircle
 10
199.3810999999998
 20
92.069171
 30
0.0
 40
3.0
100
AcDbArc
 50
30.00001
 51
89.99995000000001
  0
LINE
  5
9A59
330
993A
100
AcDbEntity
  8
1
  6
Continuous
100
AcDbLine
 10
192.6311
 20
98.86916600000001
 30
0.0
 11
192.6311
 21
100.0691629999999
 31
0.0
  0
ARC
  5
9A5A
330
993A
100
AcDbEntity
  8
1
  6
Continuous
100
AcDbCircle
 10
245.90162
 20
91.56917099999999
 30
0.0
 40
2.0
100
AcDbArc
 50
9.736469999999997
 51
89.99995000000001
  0
LINE
  5
9A5B
330
993A
100
AcDbEntity
  8
1
  6
Continuous
100
AcDbLine
 10
236.3811
 20
66.569171
 30
0.0
 11
236.3811
 21
58.06917099999999
 31
0.0
  0
LINE
  5
9A5C
330
993A
100
AcDbEntity
  8
1
  6
Continuous
100
AcDbLine
 10
136.3811
 20
66.569171
 30
0.0
 11
136.3811
 21
58.06917099999999
 31
0.0
  0
LINE
  5
9A5D
330
993A
100
AcDbEntity
  8
1
  6
Continuous
100
AcDbLine
 10
210.3810999999998
 20
96.069171
 30
0.0
 11
162.3485389999999
 21
96.069171
 31
0.0
  0
ARC
  5
9A5E
330
993A
100
AcDbEntity
  8
1
  6
Continuous
100
AcDbCircle
 10
189.6311
 20
53.29993299999999
 30
0.0
 40
7.969237999999998
100
AcDbArc
 50
65.932151
 51
114.0678489999999
  0
LINE
  5
9A5F
330
993A
100
AcDbEntity
  8
1
  6
Continuous
100
AcDbLine
 10
183.1311
 20
56.269171
 30
0.0
 11
189.6311
 21
56.269171
 31
0.0
  0
LINE
  5
9A60
330
993A
100
AcDbEntity
  8
1
  6
Continuous
100
AcDbLine
 10
183.1311
 20
61.269171
 30
0.0
 11
189.6311
 21
61.269171
 31
0.0
  0
LINE
  5
9A61
330
993A
100
AcDbEntity
  8
1
  6
Continuous
100
AcDbLine
 10
186.3811
 20
56.961992
 30
0.0
 11
186.3811
 21
60.576351
 31
0.0
  0
LINE
  5
9A62
330
993A
100
AcDbEntity
  8
1
  6
Continuous
100
AcDbLine
 10
179.8811
 20
56.961992
 30
0.0
 11
179.8811
 21
60.576351
 31
0.0
  0
ARC
  5
9A63
330
993A
100
AcDbEntity
  8
1
  6
Continuous
100
AcDbCircle
 10
183.1311
 20
53.29993299999999
 30
0.0
 40
7.969237999999998
100
AcDbArc
 50
65.932151
 51
114.0678489999999
  0
LINE
  5
9A64
330
993A
100
AcDbEntity
  8
1
  6
Continuous
100
AcDbLine
 10
192.8810999999998
 20
56.961992
 30
0.0
 11
192.8810999999998
 21
60.576351
 31
0.0
  0
LINE
  5
9A65
330
993A
100
AcDbEntity
  8
1
  6
Continuous
100
AcDbLine
 10
193.1310999999998
 20
406.869171
 30
0.0
 11
199.6311
 21
406.869171
 31
0.0
  0
LINE
  5
9A66
330
993A
100
AcDbEntity
  8
1
  6
Continuous
100
AcDbLine
 10
202.8811
 20
406.1763509999998
 30
0.0
 11
202.8811
 21
402.5619919999998
 31
0.0
  0
ARC
  5
9A67
330
993A
100
AcDbEntity
  8
1
  6
Continuous
100
AcDbCircle
 10
199.6311
 20
409.838409
 30
0.0
 40
7.969237999999998
100
AcDbArc
 50
245.932151
 51
294.067849
  0
LINE
  5
9A68
330
993A
100
AcDbEntity
  8
1
  6
Continuous
100
AcDbLine
 10
196.3810999999998
 20
406.1763509999998
 30
0.0
 11
196.3810999999998
 21
402.5619919999998
 31
0.0
  0
LINE
  5
9A69
330
993A
100
AcDbEntity
  8
1
  6
Continuous
100
AcDbLine
 10
189.8811
 20
406.1763509999998
 30
0.0
 11
189.8811
 21
402.5619919999998
 31
0.0
  0
ARC
  5
9A6A
330
993A
100
AcDbEntity
  8
1
  6
Continuous
100
AcDbCircle
 10
193.1310999999998
 20
409.838409
 30
0.0
 40
7.969237999999998
100
AcDbArc
 50
245.932151
 51
294.067849
  0
LINE
  5
9A6B
330
993A
100
AcDbEntity
  8
1
  6
Continuous
100
AcDbLine
 10
136.8605849999999
 20
396.5691709999999
 30
0.0
 11
146.3810999999997
 21
396.5691709999999
 31
0.0
  0
LINE
  5
9A6C
330
993A
100
AcDbEntity
  8
1
  6
Continuous
100
AcDbLine
 10
136.8605849999999
 20
369.5691709999999
 30
0.0
 11
146.3810999999997
 21
369.5691709999999
 31
0.0
  0
ARC
  5
9A6D
330
993A
100
AcDbEntity
  8
1
  6
Continuous
100
AcDbCircle
 10
203.8810999999999
 20
383.0691709999999
 30
0.0
 40
70.0
100
AcDbArc
 50
170.26346
 51
189.7365199999999
  0
ARC
  5
9A6E
330
993A
100
AcDbEntity
  8
1
  6
Continuous
100
AcDbCircle
 10
136.8605849999999
 20
371.5691709999999
 30
0.0
 40
2.0
100
AcDbArc
 50
189.7364659999998
 51
269.999945
  0
ARC
  5
9A6F
330
993A
100
AcDbEntity
  8
1
  6
Continuous
100
AcDbCircle
 10
136.8605849999999
 20
394.5691709999999
 30
0.0
 40
2.0
100
AcDbArc
 50
89.99997999999996
 51
170.26346
  0
ARC
  5
9A70
330
993A
100
AcDbEntity
  8
1
  6
Continuous
100
AcDbCircle
 10
188.8811
 20
383.0691709999999
 30
0.0
 40
70.0
100
AcDbArc
 50
350.2634799999999
 51
9.736539999999999
  0
ARC
  5
9A71
330
993A
100
AcDbEntity
  8
1
  6
Continuous
100
AcDbCircle
 10
255.90162
 20
371.5691709999999
 30
0.0
 40
2.0
100
AcDbArc
 50
270.0000499999998
 51
350.26353
  0
ARC
  5
9A72
330
993A
100
AcDbEntity
  8
1
  6
Continuous
100
AcDbCircle
 10
255.90162
 20
394.5691709999999
 30
0.0
 40
2.0
100
AcDbArc
 50
9.736539999999999
 51
90.00002
  0
ARC
  5
9A73
330
993A
100
AcDbEntity
  8
1
  6
Continuous
100
AcDbCircle
 10
200.6311
 20
363.069179
 30
0.0
 40
2.0
100
AcDbArc
 50
270.0
 51
359.9999799999998
  0
LINE
  5
9A74
330
993A
100
AcDbEntity
  8
1
  6
Continuous
100
AcDbLine
 10
192.1311
 20
361.069179
 30
0.0
 11
200.6311
 21
361.069179
 31
0.0
  0
ARC
  5
9A75
330
993A
100
AcDbEntity
  8
1
  6
Continuous
100
AcDbCircle
 10
192.1311
 20
363.069179
 30
0.0
 40
2.0
100
AcDbArc
 50
180.0000179999999
 51
270.0
  0
LINE
  5
9A76
330
993A
100
AcDbEntity
  8
1
  6
Continuous
100
AcDbLine
 10
202.6311
 20
364.2691759999999
 30
0.0
 11
202.6311
 21
363.069179
 31
0.0
  0
LINE
  5
9A77
330
993A
100
AcDbEntity
  8
1
  6
Continuous
100
AcDbLine
 10
190.1310999999997
 20
364.2691759999999
 30
0.0
 11
190.1310999999997
 21
363.069179
 31
0.0
  0
LINE
  5
9A78
330
993A
100
AcDbEntity
  8
1
  6
Continuous
100
AcDbLine
 10
246.3811
 20
396.5691709999999
 30
0.0
 11
255.901622
 21
396.5691709999999
 31
0.0
  0
LINE
  5
9A79
330
993A
100
AcDbEntity
  8
1
  6
Continuous
100
AcDbLine
 10
246.3811
 20
369.5691709999999
 30
0.0
 11
255.901622
 21
369.5691709999999
 31
0.0
  0
LINE
  5
9A7A
330
993A
100
AcDbEntity
  8
1
  6
Continuous
100
AcDbLine
 10
349.8810999999999
 20
279.5896859999999
 30
0.0
 11
349.8810999999999
 21
160.54865
 31
0.0
  0
LINE
  5
9A7B
330
993A
100
AcDbEntity
  8
1
  6
Continuous
100
AcDbLine
 10
322.8811
 20
279.5896859999999
 30
0.0
 11
322.8811
 21
160.54865
 31
0.0
  0
LINE
  5
9A7C
330
993A
100
AcDbEntity
  8
1
  6
Continuous
100
AcDbLine
 10
355.1810899999999
 20
296.7768429999992
 30
0.0
 11
355.1810899999999
 21
210.0691709999999
 31
0.0
  0
LINE
  5
9A7D
330
993A
100
AcDbEntity
  8
1
  6
Continuous
100
AcDbLine
 10
320.3810999999999
 20
302.7691679999998
 30
0.0
 11
320.3810999999999
 21
210.0691709999999
 31
0.0
  0
LINE
  5
9A7E
330
993A
100
AcDbEntity
  8
4
  6
CENTER
 48
0.8
100
AcDbLine
 10
336.3811
 20
310.5691709999998
 30
0.0
 11
336.3811
 21
152.5691709999998
 31
0.0
  0
LINE
  5
9A7F
330
993A
100
AcDbEntity
  8
1
  6
Continuous
100
AcDbLine
 10
317.581105
 20
296.7768874722391
 30
0.0
 11
317.581105
 21
210.0691709999999
 31
0.0
  0
LINE
  5
9A80
330
993A
100
AcDbEntity
  8
1
  6
Continuous
100
AcDbLine
 10
352.3811
 20
302.7691679999998
 30
0.0
 11
352.3811
 21
210.0691709999999
 31
0.0
  0
ARC
  5
9A81
330
993A
100
AcDbEntity
  8
1
  6
Continuous
100
AcDbCircle
 10
336.3811
 20
227.5691709999999
 30
0.0
 40
70.0
100
AcDbArc
 50
260.2634799999999
 51
279.7365399999999
  0
LINE
  5
9A82
330
993A
100
AcDbEntity
  8
4
  6
CENTER
 48
0.8
100
AcDbLine
 10
367.18109
 20
220.069171
 30
0.0
 11
309.381108
 21
220.069171
 31
0.0
  0
ARC
  5
9A83
330
993A
100
AcDbEntity
  8
1
  6
Continuous
100
AcDbCircle
 10
347.8811
 20
160.548651
 30
0.0
 40
2.0
100
AcDbArc
 50
279.7365399999999
 51
0.00002
  0
LINE
  5
9A84
330
993A
100
AcDbEntity
  8
1
  6
Continuous
100
AcDbLine
 10
351.3811
 20
207.0691709999999
 30
0.0
 11
351.3811
 21
233.0691709999999
 31
0.0
  0
ARC
  5
9A85
330
993A
100
AcDbEntity
  8
1
  6
Continuous
100
AcDbCircle
 10
355.9310899999999
 20
215.127543
 30
0.0
 40
3.25
100
AcDbArc
 50
331.3472699999998
 51
31.36577
  0
ARC
  5
9A86
330
993A
100
AcDbEntity
  8
1
  6
Continuous
100
AcDbCircle
 10
358.4310899999999
 20
215.127543
 30
0.0
 40
3.25
100
AcDbArc
 50
148.634207
 51
208.6527699999999
  0
LINE
  5
9A87
330
993A
100
AcDbEntity
  8
1
  6
Continuous
100
AcDbLine
 10
360.1810899999999
 20
225.171184
 30
0.0
 11
360.1810899999999
 21
214.967158
 31
0.0
  0
ARC
  5
9A88
330
993A
100
AcDbEntity
  8
1
  6
Continuous
100
AcDbCircle
 10
348.3811
 20
207.0691709999999
 30
0.0
 40
3.0
100
AcDbArc
 50
300.00002
 51
0.00002
  0
LINE
  5
9A89
330
993A
100
AcDbEntity
  8
1
  6
Continuous
100
AcDbLine
 10
358.78309
 20
213.5691859999997
 30
0.0
 11
360.1810699999999
 21
214.967174
 31
0.0
  0
LINE
  5
9A8A
330
993A
100
AcDbEntity
  8
1
  6
Continuous
100
AcDbLine
 10
358.78309
 20
213.5691709999999
 30
0.0
 11
355.57908
 21
213.5691709999999
 31
0.0
  0
LINE
  5
9A8B
330
993A
100
AcDbEntity
  8
1
  6
Continuous
100
AcDbLine
 10
352.3811
 20
216.069171
 30
0.0
 11
351.3811
 21
216.069171
 31
0.0
  0
LINE
  5
9A8C
330
993A
100
AcDbEntity
  8
1
  6
Continuous
100
AcDbLine
 10
355.1810899999999
 20
210.0691709999999
 30
0.0
 11
352.3811
 21
210.0691709999999
 31
0.0
  0
ARC
  5
9A8D
330
993A
100
AcDbEntity
  8
1
  6
Continuous
100
AcDbCircle
 10
348.3811
 20
233.0691709999999
 30
0.0
 40
3.0
100
AcDbArc
 50
359.9999799999998
 51
59.99998000000001
  0
ARC
  5
9A8E
330
993A
100
AcDbEntity
  8
1
  6
Continuous
100
AcDbCircle
 10
358.4310899999999
 20
225.010799
 30
0.0
 40
3.25
100
AcDbArc
 50
151.3472329999999
 51
211.3658
  0
ARC
  5
9A8F
330
993A
100
AcDbEntity
  8
1
  6
Continuous
100
AcDbCircle
 10
355.9310899999999
 20
225.010799
 30
0.0
 40
3.25
100
AcDbArc
 50
328.6342499999999
 51
28.65275
  0
ARC
  5
9A90
330
993A
100
AcDbEntity
  8
1
  6
Continuous
100
AcDbCircle
 10
367.18109
 20
220.069171
 30
0.0
 40
12.0
100
AcDbArc
 50
164.286139
 51
195.71386
  0
ARC
  5
9A91
330
993A
100
AcDbEntity
  8
1
  6
Continuous
100
AcDbCircle
 10
347.1810899999999
 20
220.069171
 30
0.0
 40
12.0
100
AcDbArc
 50
344.28617
 51
15.71384
  0
LINE
  5
9A92
330
993A
100
AcDbEntity
  8
1
  6
Continuous
100
AcDbLine
 10
360.1810899999999
 20
225.1711759999998
 30
0.0
 11
358.78311
 21
226.569156
 31
0.0
  0
LINE
  5
9A93
330
993A
100
AcDbEntity
  8
1
  6
Continuous
100
AcDbLine
 10
358.78309
 20
226.569171
 30
0.0
 11
355.57908
 21
226.569171
 31
0.0
  0
LINE
  5
9A94
330
993A
100
AcDbEntity
  8
1
  6
Continuous
100
AcDbLine
 10
358.7326
 20
223.3191709999999
 30
0.0
 11
355.62957
 21
223.3191709999999
 31
0.0
  0
LINE
  5
9A95
330
993A
100
AcDbEntity
  8
1
  6
Continuous
100
AcDbLine
 10
358.70614
 20
216.8191709999999
 30
0.0
 11
355.65603
 21
216.8191709999999
 31
0.0
  0
LINE
  5
9A96
330
993A
100
AcDbEntity
  8
1
  6
Continuous
100
AcDbLine
 10
352.3811
 20
224.0691709999999
 30
0.0
 11
351.3811
 21
224.0691709999999
 31
0.0
  0
ARC
  5
9A97
330
993A
100
AcDbEntity
  8
1
  6
Continuous
100
AcDbCircle
 10
324.8810999999999
 20
160.548651
 30
0.0
 40
2.0
100
AcDbArc
 50
180.0000499999999
 51
260.26353
  0
LINE
  5
9A98
330
993A
100
AcDbEntity
  8
1
  6
Continuous
100
AcDbLine
 10
321.3811
 20
207.0691709999999
 30
0.0
 11
321.3811
 21
233.0691709999999
 31
0.0
  0
LINE
  5
9A99
330
993A
100
AcDbEntity
  8
1
  6
Continuous
100
AcDbLine
 10
314.3811079999998
 20
224.319171
 30
0.0
 11
314.3811079999998
 21
215.819171
 31
0.0
  0
ARC
  5
9A9A
330
993A
100
AcDbEntity
  8
1
  6
Continuous
100
AcDbCircle
 10
324.3810999999999
 20
207.0691709999999
 30
0.0
 40
3.0
100
AcDbArc
 50
180.0000499999999
 51
239.99999
  0
ARC
  5
9A9B
330
993A
100
AcDbEntity
  8
1
  6
Continuous
100
AcDbCircle
 10
316.3811079999998
 20
215.819171
 30
0.0
 40
2.0
100
AcDbArc
 50
180.0
 51
269.99998
  0
LINE
  5
9A9C
330
993A
100
AcDbEntity
  8
1
  6
Continuous
100
AcDbLine
 10
321.3811
 20
216.069171
 30
0.0
 11
320.3810999999999
 21
216.069171
 31
0.0
  0
LINE
  5
9A9D
330
993A
100
AcDbEntity
  8
1
  6
Continuous
100
AcDbLine
 10
317.581105
 20
213.819171
 30
0.0
 11
316.3811079999998
 21
213.819171
 31
0.0
  0
LINE
  5
9A9E
330
993A
100
AcDbEntity
  8
1
  6
Continuous
100
AcDbLine
 10
317.581105
 20
210.0691709999999
 30
0.0
 11
320.3810999999999
 21
210.0691709999999
 31
0.0
  0
ARC
  5
9A9F
330
993A
100
AcDbEntity
  8
1
  6
Continuous
100
AcDbCircle
 10
324.3810999999999
 20
233.0691709999999
 30
0.0
 40
3.0
100
AcDbArc
 50
120.000005
 51
179.999945
  0
ARC
  5
9AA0
330
993A
100
AcDbEntity
  8
1
  6
Continuous
100
AcDbCircle
 10
316.3811079999998
 20
224.319171
 30
0.0
 40
2.0
100
AcDbArc
 50
90.00001800000005
 51
180.0
  0
LINE
  5
9AA1
330
993A
100
AcDbEntity
  8
1
  6
Continuous
100
AcDbLine
 10
321.3811
 20
224.0691709999999
 30
0.0
 11
320.3810999999999
 21
224.0691709999999
 31
0.0
  0
LINE
  5
9AA2
330
993A
100
AcDbEntity
  8
1
  6
Continuous
100
AcDbLine
 10
317.581105
 20
226.319171
 30
0.0
 11
316.3811079999998
 21
226.319171
 31
0.0
  0
ARC
  5
9AA3
330
993A
100
AcDbEntity
  8
1
  6
Continuous
100
AcDbCircle
 10
336.3811
 20
212.5691709999999
 30
0.0
 40
70.0
100
AcDbArc
 50
80.26345999999998
 51
99.73652000000001
  0
LINE
  5
9AA4
330
993A
100
AcDbEntity
  8
1
  6
Continuous
100
AcDbLine
 10
348.8811
 20
300.7691679999998
 30
0.0
 11
323.8811
 21
300.7691679999998
 31
0.0
  0
LINE
  5
9AA5
330
993A
100
AcDbEntity
  8
1
  6
Continuous
100
AcDbLine
 10
365.3811
 20
302.7691679999998
 30
0.0
 11
307.3811
 21
302.7691679999998
 31
0.0
  0
LINE
  5
9AA6
330
993A
100
AcDbEntity
  8
1
  6
Continuous
100
AcDbLine
 10
365.3811
 20
305.569171
 30
0.0
 11
307.3811
 21
305.569171
 31
0.0
  0
LINE
  5
9AA7
330
993A
100
AcDbEntity
  8
1
  6
Continuous
100
AcDbLine
 10
350.23872
 20
284.6751259999998
 30
0.0
 11
351.3811
 21
281.819181
 31
0.0
  0
ARC
  5
9AA8
330
993A
100
AcDbEntity
  8
1
  6
Continuous
100
AcDbCircle
 10
347.8811
 20
279.5896859999999
 30
0.0
 40
2.0
100
AcDbArc
 50
359.9999799999998
 51
80.26345999999998
  0
ARC
  5
9AA9
330
993A
100
AcDbEntity
  8
1
  6
Continuous
100
AcDbCircle
 10
353.3811
 20
268.801219
 30
0.0
 40
2.0
100
AcDbArc
 50
180.0
 51
239.9999999999999
  0
LINE
  5
9AAA
330
993A
100
AcDbEntity
  8
1
  6
Continuous
100
AcDbLine
 10
351.3811
 20
281.819179
 30
0.0
 11
351.3811
 21
268.801219
 31
0.0
  0
LINE
  5
9AAC
330
993A
100
AcDbEntity
  8
1
  6
Continuous
100
AcDbLine
 10
365.3811
 20
305.569171
 30
0.0
 11
365.3811
 21
302.7691679999998
 31
0.0
  0
LINE
  5
9AAD
330
993A
100
AcDbEntity
  8
4
  6
CENTER
 48
0.8
100
AcDbLine
 10
356.38109
 20
310.5691709999998
 30
0.0
 11
356.38109
 21
297.7691679999998
 31
0.0
  0
ARC
  5
9ABF
330
993A
100
AcDbEntity
  8
1
  6
Continuous
100
AcDbCircle
 10
354.8811
 20
286.532079
 30
0.0
 40
5.0
100
AcDbArc
 50
180.0
 51
201.80141
  0
ARC
  5
9AC0
330
993A
100
AcDbEntity
  8
1
  6
Continuous
100
AcDbCircle
 10
348.8811
 20
299.7691679999998
 30
0.0
 40
1.0
100
AcDbArc
 50
359.9999899999998
 51
89.99999700000001
  0
LINE
  5
9AC2
330
993A
100
AcDbEntity
  8
1
  6
Continuous
100
AcDbLine
 10
349.8810999999999
 20
299.7691679999998
 30
0.0
 11
349.8810999999999
 21
286.532079
 31
0.0
  0
LINE
  5
9AC3
330
993A
100
AcDbEntity
  8
1
  6
Continuous
100
AcDbLine
 10
322.5234799999999
 20
284.6751239999998
 30
0.0
 11
321.3811
 21
281.8191689999998
 31
0.0
  0
ARC
  5
9AC4
330
993A
100
AcDbEntity
  8
1
  6
Continuous
100
AcDbCircle
 10
324.8810999999999
 20
279.5896859999999
 30
0.0
 40
2.0
100
AcDbArc
 50
99.73646600000002
 51
179.999945
  0
ARC
  5
9AC5
330
993A
100
AcDbEntity
  8
1
  6
Continuous
100
AcDbCircle
 10
319.3811
 20
268.801219
 30
0.0
 40
2.0
100
AcDbArc
 50
299.9999899999999
 51
0.00001
  0
LINE
  5
9AC6
330
993A
100
AcDbEntity
  8
1
  6
Continuous
100
AcDbLine
 10
321.3811
 20
281.8191689999998
 30
0.0
 11
321.3811
 21
268.801219
 31
0.0
  0
LINE
  5
9AC7
330
993A
100
AcDbEntity
  8
4
  6
CENTER
 48
0.8
100
AcDbLine
 10
316.381098
 20
310.5691709999998
 30
0.0
 11
316.381098
 21
297.7691679999998
 31
0.0
  0
LINE
  5
9AC8
330
993A
100
AcDbEntity
  8
1
  6
Continuous
100
AcDbLine
 10
307.3811
 20
305.569171
 30
0.0
 11
307.3811
 21
302.7691679999998
 31
0.0
  0
ARC
  5
9ADA
330
993A
100
AcDbEntity
  8
1
  6
Continuous
100
AcDbCircle
 10
317.8811
 20
286.532079
 30
0.0
 40
5.0
100
AcDbArc
 50
338.1985899999999
 51
0.00001
  0
ARC
  5
9ADB
330
993A
100
AcDbEntity
  8
1
  6
Continuous
100
AcDbCircle
 10
323.8811
 20
299.7691679999998
 30
0.0
 40
1.0
100
AcDbArc
 50
89.99999700000001
 51
180.0
  0
LINE
  5
9ADD
330
993A
100
AcDbEntity
  8
1
  6
Continuous
100
AcDbLine
 10
322.8811
 20
299.7691679999998
 30
0.0
 11
322.8811
 21
286.532079
 31
0.0
  0
ARC
  5
9ADF
330
993A
100
AcDbEntity
  8
1
  6
Continuous
100
AcDbCircle
 10
210.381105
 20
104.0691709999999
 30
0.0
 40
8.0
100
AcDbArc
 50
269.9999629999999
 51
338.7461859999999
  0
ARC
  5
9AE0
330
993A
100
AcDbEntity
  8
1
  6
Continuous
100
AcDbCircle
 10
225.292848
 20
98.26917600000001
 30
0.0
 40
8.0
100
AcDbArc
 50
107.6060259999999
 51
158.7461899999999
  0
ARC
  5
9AE1
330
993A
100
AcDbEntity
  8
1
  6
Continuous
100
AcDbCircle
 10
221.15019
 20
111.323725
 30
0.0
 40
5.696088999999997
100
AcDbArc
 50
287.606026
 51
336.6836689999999
  0
ARC
  5
9AE2
330
993A
100
AcDbEntity
  8
1
  6
Continuous
100
AcDbCircle
 10
151.61201
 20
111.323725
 30
0.0
 40
5.696088999999997
100
AcDbArc
 50
203.3163309999999
 51
252.393974
  0
ARC
  5
9AE3
330
993A
100
AcDbEntity
  8
1
  6
Continuous
100
AcDbCircle
 10
147.4693519999999
 20
98.26917600000001
 30
0.0
 40
8.0
100
AcDbArc
 50
21.25381
 51
72.393974
  0
ARC
  5
9AE4
330
993A
100
AcDbEntity
  8
1
  6
Continuous
100
AcDbCircle
 10
162.381095
 20
104.0691709999999
 30
0.0
 40
8.0
100
AcDbArc
 50
201.253814
 51
270.000037
  0
LINE
  5
9AE5
330
993A
100
AcDbEntity
  8
1
  6
Continuous
100
AcDbLine
 10
162.3811
 20
96.069171
 30
0.0
 11
210.4136619999999
 21
96.069171
 31
0.0
  0
ARC
  5
9AE6
330
993A
100
AcDbEntity
  8
1
  6
Continuous
100
AcDbCircle
 10
221.15019
 20
48.814618
 30
0.0
 40
5.696088999999997
100
AcDbArc
 50
23.31633099999999
 51
72.393974
  0
ARC
  5
9AE7
330
993A
100
AcDbEntity
  8
1
  6
Continuous
100
AcDbCircle
 10
225.292848
 20
61.86916599999999
 30
0.0
 40
8.0
100
AcDbArc
 50
201.2538099999999
 51
252.393974
  0
ARC
  5
9AE8
330
993A
100
AcDbEntity
  8
1
  6
Continuous
100
AcDbCircle
 10
210.381105
 20
56.069171
 30
0.0
 40
8.0
100
AcDbArc
 50
21.25381399999998
 51
90.000037
  0
LINE
  5
9AE9
330
993A
100
AcDbEntity
  8
1
  6
Continuous
100
AcDbLine
 10
162.3811
 20
64.069171
 30
0.0
 11
210.4136619999999
 21
64.069171
 31
0.0
  0
ARC
  5
9AEA
330
993A
100
AcDbEntity
  8
1
  6
Continuous
100
AcDbCircle
 10
162.381095
 20
56.069171
 30
0.0
 40
8.0
100
AcDbArc
 50
89.99996299999997
 51
158.7461859999999
  0
ARC
  5
9AEB
330
993A
100
AcDbEntity
  8
1
  6
Continuous
100
AcDbCircle
 10
147.4693519999999
 20
61.86916599999999
 30
0.0
 40
8.0
100
AcDbArc
 50
287.606026
 51
338.74619
  0
ARC
  5
9AEC
330
993A
100
AcDbEntity
  8
1
  6
Continuous
100
AcDbCircle
 10
151.61201
 20
48.814618
 30
0.0
 40
5.696088999999997
100
AcDbArc
 50
107.6060259999999
 51
156.6836689999998
  0
ARC
  5
9AED
330
993A
100
AcDbEntity
  8
1
  6
Continuous
100
AcDbCircle
 10
199.6311
 20
398.899933
 30
0.0
 40
7.969237999999998
100
AcDbArc
 50
65.932151
 51
114.0678489999999
  0
ARC
  5
9AEE
330
993A
100
AcDbEntity
  8
1
  6
Continuous
100
AcDbCircle
 10
193.1310999999998
 20
398.899933
 30
0.0
 40
7.969237999999998
100
AcDbArc
 50
65.932151
 51
114.0678489999999
  0
ARC
  5
9AEF
330
993A
100
AcDbEntity
  8
1
  6
Continuous
100
AcDbCircle
 10
189.6311
 20
64.23840899999999
 30
0.0
 40
7.969237999999998
100
AcDbArc
 50
245.932151
 51
294.067849
  0
ARC
  5
9AF0
330
993A
100
AcDbEntity
  8
1
  6
Continuous
100
AcDbCircle
 10
183.1311
 20
64.23840899999999
 30
0.0
 40
7.969237999999998
100
AcDbArc
 50
245.932151
 51
294.067849
  0
ARC
  5
9AF3
330
993A
100
AcDbEntity
  8
1
  6
Continuous
100
AcDbCircle
 10
476.3811
 20
220.069171
 30
0.0
 40
62.5
100
AcDbArc
 50
113.4173929999999
 51
66.58259
  0
LINE
  5
9AF4
330
993A
100
AcDbEntity
  8
4
  6
CENTER
 48
0.8
100
AcDbLine
 10
543.8810999999998
 20
220.069171
 30
0.0
 11
408.8810999999997
 21
220.069171
 31
0.0
  0
ARC
  5
9AF5
330
993A
100
AcDbEntity
  8
1
  6
Continuous
100
AcDbCircle
 10
476.3811
 20
220.069171
 30
0.0
 40
44.5
100
AcDbArc
 50
117.1968649999999
 51
62.80313000000001
  0
LINE
  5
9AF6
330
993A
100
AcDbEntity
  8
4
  6
CENTER
 48
0.8
100
AcDbLine
 10
476.3811
 20
310.5691709999998
 30
0.0
 11
476.3811
 21
152.5691709999998
 31
0.0
  0
LINE
  5
9AF7
330
993A
100
AcDbEntity
  8
1
  6
Continuous
100
AcDbLine
 10
451.541946
 20
277.4212979999999
 30
0.0
 11
466.6870959999998
 21
217.6143209999999
 31
0.0
  0
LINE
  5
9AF8
330
993A
100
AcDbEntity
  8
1
  6
Continuous
100
AcDbLine
 10
501.131099
 20
277.0691709999999
 30
0.0
 11
486.0751009999998
 21
217.614318
 31
0.0
  0
ARC
  5
9AF9
330
993A
100
AcDbEntity
  8
1
  6
Continuous
100
AcDbCircle
 10
476.3811
 20
220.069171
 30
0.0
 40
15.5
100
AcDbArc
 50
144.388231
 51
35.61173
  0
ARC
  5
9AFA
330
993A
100
AcDbEntity
  8
1
  6
Continuous
100
AcDbCircle
 10
476.3811
 20
220.069171
 30
0.0
 40
31.5
100
AcDbArc
 50
122.719893
 51
57.28009000000001
  0
ARC
  5
9AFB
330
993A
100
AcDbEntity
  8
1
  6
Continuous
100
AcDbCircle
 10
476.3811
 20
220.069171
 30
0.0
 40
10.0
100
AcDbArc
 50
194.210497
 51
345.7894999999999
  0
ARC
  5
9AFC
330
993A
100
AcDbEntity
  8
1
  6
Continuous
100
AcDbCircle
 10
482.3810980000001
 20
304.5691709999998
 30
0.0
 40
1.0
100
AcDbArc
 50
89.99999700000001
 51
180.0
  0
ARC
  5
9AFD
330
993A
100
AcDbEntity
  8
1
  6
Continuous
100
AcDbCircle
 10
476.381098
 20
273.069169
 30
0.0
 40
5.0
100
AcDbArc
 50
180.0
 51
359.9999899999998
  0
LINE
  5
9AFE
330
993A
100
AcDbEntity
  8
1
  6
Continuous
100
AcDbLine
 10
471.3810959999998
 20
303.569171
 30
0.0
 11
481.381098
 21
303.569171
 31
0.0
  0
LINE
  5
9AFF
330
993A
100
AcDbEntity
  8
1
  6
Continuous
100
AcDbLine
 10
471.3810999999998
 20
286.1083879999998
 30
0.0
 11
481.3877339999998
 21
286.1083879999998
 31
0.0
  0
LINE
  5
9B00
330
993A
100
AcDbEntity
  8
1
  6
Continuous
100
AcDbLine
 10
471.3810999999998
 20
283.6083879999998
 30
0.0
 11
481.381098
 21
283.6083879999998
 31
0.0
  0
LINE
  5
9B01
330
993A
100
AcDbEntity
  8
4
  6
CENTER
 48
0.8
100
AcDbLine
 10
517.3810999999998
 20
310.5691709999998
 30
0.0
 11
517.3810999999998
 21
297.7691679999998
 31
0.0
  0
LINE
  5
9B02
330
993A
100
AcDbEntity
  8
1
  6
Continuous
100
AcDbLine
 10
526.3810999999998
 20
302.7691679999998
 30
0.0
 11
507.5552459999998
 21
302.7691679999998
 31
0.0
  0
LINE
  5
9B03
330
993A
100
AcDbEntity
  8
1
  6
Continuous
100
AcDbLine
 10
526.3810999999998
 20
305.569171
 30
0.0
 11
482.3810980000001
 21
305.569171
 31
0.0
  0
LINE
  5
9B04
330
993A
100
AcDbEntity
  8
1
  6
Continuous
100
AcDbLine
 10
526.3810999999998
 20
302.7691679999998
 30
0.0
 11
526.3810999999998
 21
305.569171
 31
0.0
  0
LINE
  5
9B05
330
993A
100
AcDbEntity
  8
1
  6
Continuous
100
AcDbLine
 10
481.381098
 20
273.0691699999999
 30
0.0
 11
481.381098
 21
304.5691709999998
 31
0.0
  0
LINE
  5
9B06
330
993A
100
AcDbEntity
  8
1
  6
Continuous
100
AcDbLine
 10
501.1311
 20
297.3235260170076
 30
0.0
 11
501.1311
 21
277.0691719999999
 31
0.0
  0
ARC
  5
9B07
330
993A
100
AcDbEntity
  8
1
  6
Continuous
100
AcDbCircle
 10
507.5552459999998
 20
299.1326159999998
 30
0.0
 40
3.636551999999998
100
AcDbArc
 50
90.0
 51
160.0158509999999
  0
LINE
  5
9B14
330
993A
100
AcDbEntity
  8
4
  6
CENTER
 48
0.8
100
AcDbLine
 10
435.3811
 20
310.5691709999998
 30
0.0
 11
435.3811
 21
297.7691679999998
 31
0.0
  0
LINE
  5
9B20
330
993A
100
AcDbEntity
  8
1
  6
Continuous
100
AcDbLine
 10
470.3810999999998
 20
305.569171
 30
0.0
 11
426.3811
 21
305.569171
 31
0.0
  0
LINE
  5
9B21
330
993A
100
AcDbEntity
  8
1
  6
Continuous
100
AcDbLine
 10
471.3810999999998
 20
273.069169
 30
0.0
 11
471.3810999999998
 21
304.5691709999998
 31
0.0
  0
LINE
  5
9B22
330
993A
100
AcDbEntity
  8
1
  6
Continuous
100
AcDbLine
 10
451.6310999999998
 20
297.3235260170079
 30
0.0
 11
451.6310999999998
 21
277.0691719999999
 31
0.0
  0
ARC
  5
9B23
330
993A
100
AcDbEntity
  8
1
  6
Continuous
100
AcDbCircle
 10
470.3810999999998
 20
304.5691709999998
 30
0.0
 40
1.0
100
AcDbArc
 50
359.9999899999998
 51
89.99999700000001
  0
LINE
  5
9B24
330
993A
100
AcDbEntity
  8
1
  6
Continuous
100
AcDbLine
 10
445.206955
 20
302.7691679999998
 30
0.0
 11
426.3811
 21
302.7691679999998
 31
0.0
  0
ARC
  5
9B25
330
993A
100
AcDbEntity
  8
1
  6
Continuous
100
AcDbCircle
 10
445.206955
 20
299.1326159999998
 30
0.0
 40
3.636551999999998
100
AcDbArc
 50
19.984149
 51
90.0
  0
LINE
  5
9B27
330
993A
100
AcDbEntity
  8
1
  6
Continuous
100
AcDbLine
 10
426.3811
 20
302.7691679999998
 30
0.0
 11
426.3811
 21
305.569171
 31
0.0
  0
CIRCLE
  5
9B28
330
993A
100
AcDbEntity
  8
2
  6
Continuous
100
AcDbCircle
 10
476.3811
 20
220.069171
 30
0.0
 40
3.3235
  0
CIRCLE
  5
9B29
330
993A
100
AcDbEntity
  8
1
  6
Continuous
100
AcDbCircle
 10
476.3811
 20
220.069171
 30
0.0
 40
4.0
  0
LINE
  5
9B2A
330
993A
100
AcDbEntity
  8
1
  6
Continuous
100
AcDbLine
 10
469.8811
 20
216.3219479999999
 30
0.0
 11
476.3811
 21
212.5691709999999
 31
0.0
  0
LINE
  5
9B2B
330
993A
100
AcDbEntity
  8
1
  6
Continuous
100
AcDbLine
 10
469.8811
 20
223.816395
 30
0.0
 11
476.3811
 21
227.5691709999999
 31
0.0
  0
LINE
  5
9B2C
330
993A
100
AcDbEntity
  8
1
  6
Continuous
100
AcDbLine
 10
482.8810999999998
 20
216.3219479999999
 30
0.0
 11
482.8810999999998
 21
223.816395
 31
0.0
  0
LINE
  5
9B2D
330
993A
100
AcDbEntity
  8
1
  6
Continuous
100
AcDbLine
 10
482.8810999999998
 20
216.3219479999999
 30
0.0
 11
476.3811
 21
212.5691709999999
 31
0.0
  0
LINE
  5
9B2E
330
993A
100
AcDbEntity
  8
1
  6
Continuous
100
AcDbLine
 10
482.8810999999998
 20
223.816395
 30
0.0
 11
476.3811
 21
227.5691709999999
 31
0.0
  0
LINE
  5
9B2F
330
993A
100
AcDbEntity
  8
1
  6
Continuous
100
AcDbLine
 10
469.8811
 20
216.3219479999999
 30
0.0
 11
469.8811
 21
223.816395
 31
0.0
  0
CIRCLE
  5
9B30
330
993A
100
AcDbEntity
  8
1
  6
Continuous
100
AcDbCircle
 10
476.3811
 20
220.069171
 30
0.0
 40
6.299999999999998
  0
LINE
  5
9B31
330
993A
100
AcDbEntity
  8
2
  6
Continuous
100
AcDbLine
 10
193.0576
 20
408.345671
 30
0.0
 11
193.0576
 21
406.869171
 31
0.0
  0
LINE
  5
9B32
330
993A
100
AcDbEntity
  8
2
  6
Continuous
100
AcDbLine
 10
199.7046
 20
408.345671
 30
0.0
 11
199.7046
 21
406.869171
 31
0.0
  0
LINE
  5
9B33
330
993A
100
AcDbEntity
  8
1
  6
Continuous
100
AcDbLine
 10
200.3811
 20
407.669171
 30
0.0
 11
200.3811
 21
406.869171
 31
0.0
  0
LINE
  5
9B34
330
993A
100
AcDbEntity
  8
1
  6
Continuous
100
AcDbLine
 10
192.3811
 20
407.669171
 30
0.0
 11
192.3811
 21
406.869171
 31
0.0
  0
LINE
  5
9B35
330
993A
100
AcDbEntity
  8
1
  6
Continuous
100
AcDbLine
 10
192.3811
 20
407.669171
 30
0.0
 11
200.3811
 21
407.669171
 31
0.0
  0
LINE
  5
9B36
330
993A
100
AcDbEntity
  8
1
  6
Continuous
100
AcDbLine
 10
193.5810999999999
 20
408.8691709999998
 30
0.0
 11
199.1811
 21
408.8691709999998
 31
0.0
  0
LINE
  5
9B37
330
993A
100
AcDbEntity
  8
1
  6
Continuous
100
AcDbLine
 10
193.5810999999999
 20
408.8691709999998
 30
0.0
 11
192.3811
 21
407.669171
 31
0.0
  0
LINE
  5
9B38
330
993A
100
AcDbEntity
  8
1
  6
Continuous
100
AcDbLine
 10
199.1811
 20
408.8691709999998
 30
0.0
 11
200.3811
 21
407.669171
 31
0.0
  0
LINE
  5
9B39
330
993A
100
AcDbEntity
  8
1
  6
Continuous
100
AcDbLine
 10
31.78110999999999
 20
216.069171
 30
0.0
 11
31.78110999999999
 21
224.0691709999999
 31
0.0
  0
LINE
  5
9B3A
330
993A
100
AcDbEntity
  8
1
  6
Continuous
100
AcDbLine
 10
30.58111
 20
217.269171
 30
0.0
 11
31.78110999999999
 21
216.069171
 31
0.0
  0
LINE
  5
9B3B
330
993A
100
AcDbEntity
  8
1
  6
Continuous
100
AcDbLine
 10
31.78110999999999
 20
216.069171
 30
0.0
 11
32.58110999999999
 21
216.069171
 31
0.0
  0
LINE
  5
9B3C
330
993A
100
AcDbEntity
  8
2
  6
Continuous
100
AcDbLine
 10
31.10460999999999
 20
216.7456709999999
 30
0.0
 11
32.58110999999999
 21
216.7456709999999
 31
0.0
  0
LINE
  5
9B3D
330
993A
100
AcDbEntity
  8
1
  6
Continuous
100
AcDbLine
 10
30.58111
 20
217.269171
 30
0.0
 11
30.58111
 21
222.869171
 31
0.0
  0
LINE
  5
9B3E
330
993A
100
AcDbEntity
  8
1
  6
Continuous
100
AcDbLine
 10
30.58111
 20
222.869171
 30
0.0
 11
31.78110999999999
 21
224.0691709999999
 31
0.0
  0
LINE
  5
9B3F
330
993A
100
AcDbEntity
  8
2
  6
Continuous
100
AcDbLine
 10
31.10460999999999
 20
223.3926709999999
 30
0.0
 11
32.58110999999999
 21
223.3926709999999
 31
0.0
  0
LINE
  5
9B40
330
993A
100
AcDbEntity
  8
1
  6
Continuous
100
AcDbLine
 10
31.78110999999999
 20
224.0691709999999
 30
0.0
 11
32.58110999999999
 21
224.0691709999999
 31
0.0
  0
LINE
  5
9B41
330
993A
100
AcDbEntity
  8
1
  6
Continuous
100
AcDbLine
 10
360.9810899999998
 20
216.069171
 30
0.0
 11
360.9810899999998
 21
224.0691709999999
 31
0.0
  0
LINE
  5
9B42
330
993A
100
AcDbEntity
  8
1
  6
Continuous
100
AcDbLine
 10
360.9810899999998
 20
216.069171
 30
0.0
 11
360.1810899999999
 21
216.069171
 31
0.0
  0
LINE
  5
9B43
330
993A
100
AcDbEntity
  8
2
  6
Continuous
100
AcDbLine
 10
361.6575899999999
 20
216.7456709999999
 30
0.0
 11
360.1810899999999
 21
216.7456709999999
 31
0.0
  0
LINE
  5
9B44
330
993A
100
AcDbEntity
  8
2
  6
Continuous
100
AcDbLine
 10
361.6575899999999
 20
223.3926709999999
 30
0.0
 11
360.1810899999999
 21
223.3926709999999
 31
0.0
  0
LINE
  5
9B45
330
993A
100
AcDbEntity
  8
1
  6
Continuous
100
AcDbLine
 10
360.9810899999998
 20
224.0691709999999
 30
0.0
 11
360.1810899999999
 21
224.0691709999999
 31
0.0
  0
LINE
  5
9B46
330
993A
100
AcDbEntity
  8
1
  6
Continuous
100
AcDbLine
 10
362.1810899999999
 20
217.269171
 30
0.0
 11
362.1810899999999
 21
222.869171
 31
0.0
  0
LINE
  5
9B47
330
993A
100
AcDbEntity
  8
1
  6
Continuous
100
AcDbLine
 10
362.1810899999999
 20
217.269171
 30
0.0
 11
360.9810899999998
 21
216.069171
 31
0.0
  0
LINE
  5
9B48
330
993A
100
AcDbEntity
  8
1
  6
Continuous
100
AcDbLine
 10
362.1810899999999
 20
222.869171
 30
0.0
 11
360.9810899999998
 21
224.0691709999999
 31
0.0
  0
LINE
  5
9B49
330
993A
100
AcDbEntity
  8
1
  6
Continuous
100
AcDbLine
 10
189.1810999999999
 20
54.26917099999999
 30
0.0
 11
190.3811
 21
55.46917099999999
 31
0.0
  0
LINE
  5
9B4A
330
993A
100
AcDbEntity
  8
1
  6
Continuous
100
AcDbLine
 10
183.5810999999999
 20
54.26917099999999
 30
0.0
 11
182.3811
 21
55.46917099999999
 31
0.0
  0
LINE
  5
9B4B
330
993A
100
AcDbEntity
  8
1
  6
Continuous
100
AcDbLine
 10
183.5810999999999
 20
54.26917099999999
 30
0.0
 11
189.1810999999999
 21
54.26917099999999
 31
0.0
  0
LINE
  5
9B4C
330
993A
100
AcDbEntity
  8
1
  6
Continuous
100
AcDbLine
 10
190.3811
 20
55.46917099999999
 30
0.0
 11
190.3811
 21
56.269171
 31
0.0
  0
LINE
  5
9B4D
330
993A
100
AcDbEntity
  8
2
  6
Continuous
100
AcDbLine
 10
189.7045999999999
 20
54.792671
 30
0.0
 11
189.7045999999999
 21
56.269171
 31
0.0
  0
LINE
  5
9B4E
330
993A
100
AcDbEntity
  8
2
  6
Continuous
100
AcDbLine
 10
183.0576
 20
54.792671
 30
0.0
 11
183.0576
 21
56.269171
 31
0.0
  0
LINE
  5
9B4F
330
993A
100
AcDbEntity
  8
1
  6
Continuous
100
AcDbLine
 10
182.3811
 20
55.46917099999999
 30
0.0
 11
182.3811
 21
56.269171
 31
0.0
  0
LINE
  5
9B50
330
993A
100
AcDbEntity
  8
1
  6
Continuous
100
AcDbLine
 10
182.3811
 20
55.46917099999999
 30
0.0
 11
190.3811
 21
55.46917099999999
 31
0.0
  0
CIRCLE
  5
9B51
330
993A
100
AcDbEntity
  8
1
  6
Continuous
100
AcDbCircle
 10
476.3811
 20
220.069171
 30
0.0
 40
2.799999999999998
  0
ARC
  5
9D20
330
993A
100
AcDbEntity
  8
1
  6
Continuous
100
AcDbCircle
 10
357.3811
 20
294.7691679999999
 30
0.0
 40
5.0
100
AcDbArc
 50
116.1039490000011
 51
180.0
  0
ARC
  5
9D21
330
993A
100
AcDbEntity
  8
1
  6
Continuous
100
AcDbCircle
 10
315.3810999999999
 20
294.7691679999999
 30
0.0
 40
5.0
100
AcDbArc
 50
0.0
 51
63.8960509999989
  0
ARC
  5
9D43
330
993A
100
AcDbEntity
  8
1
  6
Continuous
100
AcDbCircle
 10
319.409322770904
 20
308.1024872872722
 30
0.0
 40
9.131693034887046
100
AcDbArc
 50
236.6975294661725
 51
251.8707568688801
  0
ARC
  5
9D44
330
993A
100
AcDbEntity
  8
1
  6
Continuous
100
AcDbCircle
 10
313.0811099999999
 20
302.7691679999999
 30
0.0
 40
1.5
100
AcDbArc
 50
179.9999599999992
 51
244.263088120952
  0
LINE
  5
9D45
330
993A
100
AcDbEntity
  8
1
  6
Continuous
100
AcDbLine
 10
312.4297507517267
 20
301.4179718152477
 30
0.0
 11
314.3954858341349
 21
300.4703672112452
 31
0.0
  0
ARC
  5
9D46
330
993A
100
AcDbEntity
  8
1
  6
Continuous
100
AcDbCircle
 10
311.967140160231
 20
296.1456886332744
 30
0.0
 40
5.649337412163668
100
AcDbArc
 50
6.414581591874084
 51
35.47313240629273
  0
ARC
  5
9D47
330
993A
100
AcDbEntity
  8
1
  6
Continuous
100
AcDbCircle
 10
318.0174955706399
 20
305.1335464667182
 30
0.0
 40
5.890578941823518
100
AcDbArc
 50
255.7538245114332
 51
265.7514792064972
  0
ARC
  5
9D49
330
993A
100
AcDbEntity
  8
1
  6
Continuous
100
AcDbCircle
 10
353.3528772290958
 20
308.1024872872722
 30
0.0
 40
9.131693034887046
100
AcDbArc
 50
288.1292431311198
 51
303.3024705338275
  0
ARC
  5
9D4C
330
993A
100
AcDbEntity
  8
1
  6
Continuous
100
AcDbCircle
 10
354.7447044293601
 20
305.1335464667182
 30
0.0
 40
5.890578941823518
100
AcDbArc
 50
274.2485207935028
 51
284.2461754885668
  0
ARC
  5
9D4D
330
993A
100
AcDbEntity
  8
1
  6
Continuous
100
AcDbCircle
 10
360.7950598397688
 20
296.1456886332744
 30
0.0
 40
5.649337412163668
100
AcDbArc
 50
144.5268675937072
 51
173.5854184081259
  0
LINE
  5
9D4F
330
993A
100
AcDbEntity
  8
1
  6
Continuous
100
AcDbLine
 10
360.3324492482733
 20
301.4179718152477
 30
0.0
 11
358.3667141658651
 21
300.4703672112452
 31
0.0
  0
ARC
  5
9D50
330
993A
100
AcDbEntity
  8
1
  6
Continuous
100
AcDbCircle
 10
359.6810899999999
 20
302.7691679999999
 30
0.0
 40
1.5
100
AcDbArc
 50
295.7369118790479
 51
0.0000400000007688
  0
ARC
  5
9D6C
330
993A
100
AcDbEntity
  8
1
  6
Continuous
100
AcDbCircle
 10
35.38110000000006
 20
294.7691679999999
 30
0.0
 40
5.0
100
AcDbArc
 50
0.0
 51
63.8960509999989
  0
LINE
  5
9D81
330
993A
100
AcDbEntity
  8
1
  6
Continuous
100
AcDbLine
 10
32.42975075172683
 20
301.4179718152477
 30
0.0
 11
34.395485834135
 21
300.4703672112452
 31
0.0
  0
ARC
  5
9D82
330
993A
100
AcDbEntity
  8
1
  6
Continuous
100
AcDbCircle
 10
33.08111000000007
 20
302.7691679999999
 30
0.0
 40
1.5
100
AcDbArc
 50
179.9999599999992
 51
244.263088120952
  0
ARC
  5
9D83
330
993A
100
AcDbEntity
  8
1
  6
Continuous
100
AcDbCircle
 10
38.0174955706401
 20
305.1335464667182
 30
0.0
 40
5.890578941823518
100
AcDbArc
 50
255.7538245114332
 51
265.7514792064972
  0
ARC
  5
9D84
330
993A
100
AcDbEntity
  8
1
  6
Continuous
100
AcDbCircle
 10
31.96714016023122
 20
296.1456886332744
 30
0.0
 40
5.649337412163668
100
AcDbArc
 50
6.414581591874084
 51
35.47313240629273
  0
ARC
  5
9D85
330
993A
100
AcDbEntity
  8
1
  6
Continuous
100
AcDbCircle
 10
39.40932277090405
 20
308.1024872872722
 30
0.0
 40
9.131693034887046
100
AcDbArc
 50
236.6975294661725
 51
251.8707568688801
  0
ARC
  5
9DC5
330
993A
100
AcDbEntity
  8
1
  6
Continuous
100
AcDbCircle
 10
77.38110000000006
 20
294.7691679999999
 30
0.0
 40
5.0
100
AcDbArc
 50
116.1039490000011
 51
180.0
  0
ARC
  5
9DDA
330
993A
100
AcDbEntity
  8
1
  6
Continuous
100
AcDbCircle
 10
79.68109000000016
 20
302.7691679999999
 30
0.0
 40
1.5
100
AcDbArc
 50
295.7369118790479
 51
0.0000400000007688
  0
LINE
  5
9DDB
330
993A
100
AcDbEntity
  8
1
  6
Continuous
100
AcDbLine
 10
80.33244924827341
 20
301.4179718152477
 30
0.0
 11
78.36671416586523
 21
300.4703672112452
 31
0.0
  0
ARC
  5
9DDC
330
993A
100
AcDbEntity
  8
1
  6
Continuous
100
AcDbCircle
 10
80.79505983976902
 20
296.1456886332744
 30
0.0
 40
5.649337412163668
100
AcDbArc
 50
144.5268675937072
 51
173.5854184081259
  0
ARC
  5
9DDD
330
993A
100
AcDbEntity
  8
1
  6
Continuous
100
AcDbCircle
 10
74.74470442936013
 20
305.1335464667182
 30
0.0
 40
5.890578941823518
100
AcDbArc
 50
274.2485207935028
 51
284.2461754885668
  0
ARC
  5
9DDE
330
993A
100
AcDbEntity
  8
1
  6
Continuous
100
AcDbCircle
 10
73.35287722909606
 20
308.1024872872722
 30
0.0
 40
9.131693034887046
100
AcDbArc
 50
288.1292431311198
 51
303.3024705338275
  0
ARC
  5
9DFC
330
993A
100
AcDbEntity
  8
1
  6
Continuous
100
AcDbCircle
 10
453.193856496199
 20
302.6613434790367
 30
0.0
 40
5.091271156231088
100
AcDbArc
 50
178.9656190858294
 51
242.5852240817362
  0
ARC
  5
9DFD
330
993A
100
AcDbEntity
  8
1
  6
Continuous
100
AcDbCircle
 10
448.619388692712
 20
295.2298714674343
 30
0.0
 40
3.667941435111066
100
AcDbArc
 50
34.80590887881466
 51
52.55119397385819
  0
ARC
  5
9DFE
330
993A
100
AcDbEntity
  8
1
  6
Continuous
100
AcDbCircle
 10
445.3034159999998
 20
302.751374
 30
0.0
 40
2.799999999999998
100
AcDbArc
 50
0.038448999999278
 51
87.37220099999884
  0
ARC
  5
9DFF
330
993A
100
AcDbEntity
  8
1
  6
Continuous
100
AcDbCircle
 10
499.5683435038008
 20
302.6613434790367
 30
0.0
 40
5.091271156231088
100
AcDbArc
 50
297.4147759182637
 51
1.034380914170569
  0
ARC
  5
9E00
330
993A
100
AcDbEntity
  8
1
  6
Continuous
100
AcDbCircle
 10
504.1428113072879
 20
295.2298714674343
 30
0.0
 40
3.667941435111066
100
AcDbArc
 50
127.4488060261418
 51
145.1940911211897
  0
ARC
  5
9E02
330
993A
100
AcDbEntity
  8
1
  6
Continuous
100
AcDbCircle
 10
507.4587840000001
 20
302.751374
 30
0.0
 40
2.799999999999998
100
AcDbArc
 50
92.62779900000117
 51
179.9615510000007
  0
ARC
  5
9E03
330
993A
100
AcDbEntity
  8
1
  6
Continuous
100
AcDbCircle
 10
173.1938564961988
 20
302.6613434790367
 30
0.0
 40
5.091271156231088
100
AcDbArc
 50
178.9656190858294
 51
242.5852240817362
  0
ARC
  5
9E04
330
993A
100
AcDbEntity
  8
1
  6
Continuous
100
AcDbCircle
 10
168.6193886927117
 20
295.2298714674343
 30
0.0
 40
3.667941435111066
100
AcDbArc
 50
34.8059088788479
 51
52.55119397385819
  0
ARC
  5
9E05
330
993A
100
AcDbEntity
  8
1
  6
Continuous
100
AcDbCircle
 10
165.3034159999996
 20
302.751374
 30
0.0
 40
2.799999999999998
100
AcDbArc
 50
0.038448999999278
 51
87.37220099999884
  0
ARC
  5
9E06
330
993A
100
AcDbEntity
  8
1
  6
Continuous
100
AcDbCircle
 10
165.2069549999997
 20
299.1326159999998
 30
0.0
 40
3.636551999999998
100
AcDbArc
 50
19.984149
 51
90.0
  0
ARC
  5
9E07
330
993A
100
AcDbEntity
  8
1
  6
Continuous
100
AcDbCircle
 10
219.5683435038007
 20
302.6613434790367
 30
0.0
 40
5.091271156231088
100
AcDbArc
 50
297.4147759182637
 51
1.034380914170569
  0
ARC
  5
9E08
330
993A
100
AcDbEntity
  8
1
  6
Continuous
100
AcDbCircle
 10
224.1428113072877
 20
295.2298714674343
 30
0.0
 40
3.667941435111066
100
AcDbArc
 50
127.4488060261418
 51
145.1940911211841
  0
ARC
  5
9E09
330
993A
100
AcDbEntity
  8
1
  6
Continuous
100
AcDbCircle
 10
227.4587839999999
 20
302.751374
 30
0.0
 40
2.799999999999998
100
AcDbArc
 50
92.62779900000117
 51
179.9615510000007
  0
ARC
  5
9E0A
330
993A
100
AcDbEntity
  8
1
  6
Continuous
100
AcDbCircle
 10
227.5552459999996
 20
299.1326159999998
 30
0.0
 40
3.636551999999998
100
AcDbArc
 50
90.0
 51
160.0158509999999
  0
ENDSEC
  0
SECTION
  2
OBJECTS
  0
DICTIONARY
  5
9928
330
0
100
AcDbDictionary
281
     1
  3
ACAD_CIP_PREVIOUS_PRODUCT_INFO
350
9E6F
  3
ACAD_COLOR
350
9E51
  3
ACAD_DETAILVIEWSTYLE
350
9E6A
  3
ACAD_GROUP
350
9929
  3
ACAD_LAYOUT
350
9935
  3
ACAD_MATERIAL
350
9E1F
  3
ACAD_MLEADERSTYLE
350
9E66
  3
ACAD_MLINESTYLE
350
9932
  3
ACAD_PLOTSETTINGS
350
9934
  3
ACAD_PLOTSTYLENAME
350
9E1D
  3
ACAD_SCALELIST
350
9E54
  3
ACAD_SECTIONVIEWSTYLE
350
9E68
  3
ACAD_TABLESTYLE
350
9E52
  3
ACAD_VISUALSTYLE
350
9E38
  3
ACDB_RECOMPOSE_DATA
350
9E8D
  3
AcDbVariableDictionary
350
9E80
  3
DWGPROPS
350
9E8E
  0
DICTIONARY
  5
9E70
330
992C
100
AcDbDictionary
280
     1
281
     1
  3
ADSK_XREC_LAYER_RECONCILED
360
9E71
  0
DICTIONARY
  5
9E72
330
9942
100
AcDbDictionary
280
     1
281
     1
  3
ADSK_XREC_LAYER_RECONCILED
360
9E73
  0
DICTIONARY
  5
9E74
330
9943
100
AcDbDictionary
280
     1
281
     1
  3
ADSK_XREC_LAYER_RECONCILED
360
9E75
  0
DICTIONARY
  5
9E76
330
9944
100
AcDbDictionary
280
     1
281
     1
  3
ADSK_XREC_LAYER_RECONCILED
360
9E77
  0
DICTIONARY
  5
9E78
330
9945
100
AcDbDictionary
280
     1
281
     1
  3
ADSK_XREC_LAYER_RECONCILED
360
9E79
  0
DICTIONARY
  5
9E7A
330
9946
100
AcDbDictionary
280
     1
281
     1
  3
ADSK_XREC_LAYER_RECONCILED
360
9E7B
  0
DICTIONARY
  5
9E7C
330
9947
100
AcDbDictionary
280
     1
281
     1
  3
ADSK_XREC_LAYER_RECONCILED
360
9E7D
  0
DICTIONARY
  5
9E7E
330
9948
100
AcDbDictionary
280
     1
281
     1
  3
ADSK_XREC_LAYER_RECONCILED
360
9E7F
  0
DICTIONARY
  5
9B5C
330
993A
100
AcDbDictionary
281
     1
  3
ACAD_LAYOUTSELFREF
350
9E19
  0
DICTIONARY
  5
9B5A
330
9936
100
AcDbDictionary
281
     1
  3
ACAD_LAYOUTSELFREF
350
9E18
  0
XRECORD
  5
9E6F
102
{ACAD_REACTORS
330
9928
102
}
330
9928
100
AcDbXrecord
280
     1
300
ACDLT
300
2014
300
ACDLT_F_S
  0
DICTIONARY
  5
9E51
102
{ACAD_REACTORS
330
9928
102
}
330
9928
100
AcDbDictionary
281
     1
  0
DICTIONARY
  5
9E6A
102
{ACAD_REACTORS
330
9928
102
}
330
9928
100
AcDbDictionary
281
     1
  3
Imperial24
350
9E6B
  0
DICTIONARY
  5
9929
102
{ACAD_REACTORS
330
9928
102
}
330
9928
100
AcDbDictionary
281
     1
  0
DICTIONARY
  5
9935
102
{ACAD_REACTORS
330
9928
102
}
330
9928
100
AcDbDictionary
281
     1
  3
Model
350
9E6C
  3
レイアウト1
350
9E6D
  0
DICTIONARY
  5
9E1F
102
{ACAD_REACTORS
330
9928
102
}
330
9928
100
AcDbDictionary
281
     1
  3
ByBlock
350
9E28
  3
ByLayer
350
9E20
  3
Global
350
9E30
  0
DICTIONARY
  5
9E66
102
{ACAD_REACTORS
330
9928
102
}
330
9928
100
AcDbDictionary
281
     1
  3
Standard
350
9E67
  0
DICTIONARY
  5
9932
102
{ACAD_REACTORS
330
9928
102
}
330
9928
100
AcDbDictionary
281
     1
  3
STANDARD
350
9933
  0
DICTIONARY
  5
9934
102
{ACAD_REACTORS
330
9928
102
}
330
9928
100
AcDbDictionary
281
     1
  0
ACDBDICTIONARYWDFLT
  5
9E1D
102
{ACAD_REACTORS
330
9928
102
}
330
9928
100
AcDbDictionary
281
     1
  3
Normal
350
9E1E
100
AcDbDictionaryWithDefault
340
9E1E
  0
DICTIONARY
  5
9E54
102
{ACAD_REACTORS
330
9928
102
}
330
9928
100
AcDbDictionary
281
     1
  3
A0
350
9E55
  3
A1
350
9E56
  3
A2
350
9E57
  3
A3
350
9E58
  3
A4
350
9E59
  3
A5
350
9E5A
  3
A6
350
9E5B
  3
A7
350
9E5C
  3
A8
350
9E5D
  3
A9
350
9E5E
  3
B0
350
9E5F
  3
B1
350
9E60
  3
B2
350
9E61
  3
B3
350
9E62
  3
B4
350
9E63
  3
B5
350
9E64
  3
B6
350
9E65
  0
DICTIONARY
  5
9E68
102
{ACAD_REACTORS
330
9928
102
}
330
9928
100
AcDbDictionary
281
     1
  3
Imperial24
350
9E69
  0
DICTIONARY
  5
9E52
102
{ACAD_REACTORS
330
9928
102
}
330
9928
100
AcDbDictionary
281
     1
  3
Standard
350
9E53
  0
DICTIONARY
  5
9E38
102
{ACAD_REACTORS
330
9928
102
}
330
9928
100
AcDbDictionary
281
     1
  3
2dWireframe
350
9E3E
  3
Basic
350
9E3D
  3
Brighten
350
9E44
  3
ColorChange
350
9E48
  3
Conceptual
350
9E41
  3
Dim
350
9E43
  3
EdgeColorOff
350
9E50
  3
Facepattern
350
9E47
  3
Flat
350
9E39
  3
FlatWithEdges
350
9E3A
  3
Gouraud
350
9E3B
  3
GouraudWithEdges
350
9E3C
  3
Hidden
350
9E40
  3
JitterOff
350
9E4E
  3
Linepattern
350
9E46
  3
OverhangOff
350
9E4F
  3
Realistic
350
9E42
  3
Shaded
350
9E4D
  3
Shaded with edges
350
9E4C
  3
Shades of Gray
350
9E49
  3
Sketchy
350
9E4A
  3
Thicken
350
9E45
  3
Wireframe
350
9E3F
  3
X-Ray
350
9E4B
  0
XRECORD
  5
9E8D
102
{ACAD_REACTORS
330
9928
102
}
330
9928
100
AcDbXrecord
280
     1
 90
        1
330
9E53
  0
DICTIONARY
  5
9E80
102
{ACAD_REACTORS
330
9928
102
}
330
9928
100
AcDbDictionary
281
     1
  3
CANNOSCALE
350
9E85
  3
CMLEADERSTYLE
350
9E82
  3
CTABLESTYLE
350
9E81
  3
CVIEWDETAILSTYLE
350
9E83
  3
CVIEWSECTIONSTYLE
350
9E84
  3
DIMASSOC
350
9E88
  3
INDEXCTL
350
9E87
  3
SORTENTS
350
9E86
  3
XCLIPFRAME
350
9E89
  0
XRECORD
  5
9E8E
102
{ACAD_REACTORS
330
9928
102
}
330
9928
100
AcDbXrecord
280
     1
  1
DWGPROPS COOKIE
  2

  3

  4

  6

  7

  8
Yoshitsune
  9

300
=
301
=
302
=
303
=
304
=
305
=
306
=
307
=
308
=
309
=
 40
0.1065043171296296
 41
2451301.455897685
 42
2457192.69021463
  1

 90
        0
  0
XRECORD
  5
9E71
102
{ACAD_REACTORS
330
9E70
102
}
330
9E70
100
AcDbXrecord
280
     1
290
     1
  0
XRECORD
  5
9E73
102
{ACAD_REACTORS
330
9E72
102
}
330
9E72
100
AcDbXrecord
280
     1
290
     1
  0
XRECORD
  5
9E75
102
{ACAD_REACTORS
330
9E74
102
}
330
9E74
100
AcDbXrecord
280
     1
290
     1
  0
XRECORD
  5
9E77
102
{ACAD_REACTORS
330
9E76
102
}
330
9E76
100
AcDbXrecord
280
     1
290
     1
  0
XRECORD
  5
9E79
102
{ACAD_REACTORS
330
9E78
102
}
330
9E78
100
AcDbXrecord
280
     1
290
     1
  0
XRECORD
  5
9E7B
102
{ACAD_REACTORS
330
9E7A
102
}
330
9E7A
100
AcDbXrecord
280
     1
290
     1
  0
XRECORD
  5
9E7D
102
{ACAD_REACTORS
330
9E7C
102
}
330
9E7C
100
AcDbXrecord
280
     1
290
     1
  0
XRECORD
  5
9E7F
102
{ACAD_REACTORS
330
9E7E
102
}
330
9E7E
100
AcDbXrecord
280
     1
290
     1
  0
XRECORD
  5
9E19
102
{ACAD_REACTORS
330
9B5C
102
}
330
9B5C
100
AcDbXrecord
280
     1
340
993A
  0
XRECORD
  5
9E18
102
{ACAD_REACTORS
330
9B5A
102
}
330
9B5A
100
AcDbXrecord
280
     1
340
9936
  0
ACDBDETAILVIEWSTYLE
  5
9E6B
102
{ACAD_XDICTIONARY
360
9EC6
102
}
102
{ACAD_REACTORS
330
9E6A
102
}
330
9E6A
100
AcDbModelDocViewStyle
 70
     0
  3
Imperial24
290
     0
100
AcDbDetailViewStyle
 70
     0
 71
     0
 90
        3
 71
     1
340
992D
 40
0.24
340
0
 40
0.24
300

 40
0.36
280
     3
 71
     2
340
9931
 90
       25
 71
     3
340
992D
 40
0.24
 90
        1
 40
0.75
 90
        1
300
%<\AcVar ViewType \f "%tc1">% %<\AcVar ViewDetailId>%\PSCALE %<\AcVar ViewScale \f "%sn">%
 71
     4
340
9931
 90
       25
340
9931
 90
       25
280
     0
  0
LAYOUT
  5
9E6C
102
{ACAD_XDICTIONARY
360
9EC8
102
}
102
{ACAD_REACTORS
330
9935
102
}
330
9935
100
AcDbPlotSettings
  1

  2
Canon LBP9100C
  4

  6

 40
0.0
 41
0.0
 42
0.0
 43
0.0
 44
0.0
 45
0.0
 46
0.0
 47
0.0
 48
0.0
 49
0.0
140
0.0
141
0.0
142
1.0
143
1.0
 70
  1712
 72
     0
 73
     0
 74
     0
  7

 75
     0
147
1.0
148
0.0
149
0.0
100
AcDbLayout
  1
Model
 70
     1
 71
     0
 10
0.0
 20
0.0
 11
12.0
 21
9.0
 12
0.0
 22
0.0
 32
0.0
 14
0.0
 24
0.0
 34
0.0
 15
0.0
 25
0.0
 35
0.0
146
0.0
 13
0.0
 23
0.0
 33
0.0
 16
1.0
 26
0.0
 36
0.0
 17
0.0
 27
1.0
 37
0.0
 76
     0
330
993A
331
9E17
  0
LAYOUT
  5
9E6D
102
{ACAD_XDICTIONARY
360
9ECA
102
}
102
{ACAD_REACTORS
330
9935
102
}
330
9935
100
AcDbPlotSettings
  1

  2
Canon LBP9100C
  4

  6

 40
0.0
 41
0.0
 42
0.0
 43
0.0
 44
0.0
 45
0.0
 46
0.0
 47
0.0
 48
0.0
 49
0.0
140
0.0
141
0.0
142
1.0
143
1.0
 70
   688
 72
     0
 73
     0
 74
     5
  7

 75
    16
147
1.0
148
0.0
149
0.0
100
AcDbLayout
  1
レイアウト1
 70
     0
 71
     1
 10
0.0
 20
0.0
 11
420.0
 21
297.0
 12
0.0
 22
0.0
 32
0.0
 14
1.000000000000000E+20
 24
1.000000000000000E+20
 34
1.000000000000000E+20
 15
-1.000000000000000E+20
 25
-1.000000000000000E+20
 35
-1.000000000000000E+20
146
0.0
 13
0.0
 23
0.0
 33
0.0
 16
1.0
 26
0.0
 36
0.0
 17
0.0
 27
1.0
 37
0.0
 76
     0
330
9936
  0
MATERIAL
  5
9E28
102
{ACAD_XDICTIONARY
360
9E29
102
}
102
{ACAD_REACTORS
330
9E1F
102
}
330
9E1F
100
AcDbMaterial
  1
ByBlock
 72
     0
 43
0.0208333333333333
 43
0.0
 43
0.0
 43
0.0
 43
0.0
 43
0.0208333333333333
 43
0.0
 43
0.0
 43
0.0
 43
0.0
 43
1.0
 43
0.0
 43
0.0
 43
0.0
 43
0.0
 43
1.0
 77
     0
 47
0.0208333333333333
 47
0.0
 47
0.0
 47
0.0
 47
0.0
 47
0.0208333333333333
 47
0.0
 47
0.0
 47
0.0
 47
0.0
 47
1.0
 47
0.0
 47
0.0
 47
0.0
 47
0.0
 47
1.0
171
     0
 49
0.0208333333333333
 49
0.0
 49
0.0
 49
0.0
 49
0.0
 49
0.0208333333333333
 49
0.0
 49
0.0
 49
0.0
 49
0.0
 49
1.0
 49
0.0
 49
0.0
 49
0.0
 49
0.0
 49
1.0
175
     0
142
0.0208333333333333
142
0.0
142
0.0
142
0.0
142
0.0
142
0.0208333333333333
142
0.0
142
0.0
142
0.0
142
0.0
142
1.0
142
0.0
142
0.0
142
0.0
142
0.0
142
1.0
179
     0
144
0.0208333333333333
144
0.0
144
0.0
144
0.0
144
0.0
144
0.0208333333333333
144
0.0
144
0.0
144
0.0
144
0.0
144
1.0
144
0.0
144
0.0
144
0.0
144
0.0
144
1.0
147
0.0208333333333333
147
0.0
147
0.0
147
0.0
147
0.0
147
0.0208333333333333
147
0.0
147
0.0
147
0.0
147
0.0
147
1.0
147
0.0
147
0.0
147
0.0
147
0.0
147
1.0
  0
MATERIAL
  5
9E20
102
{ACAD_XDICTIONARY
360
9E21
102
}
102
{ACAD_REACTORS
330
9E1F
102
}
330
9E1F
100
AcDbMaterial
  1
ByLayer
 72
     0
 43
0.0208333333333333
 43
0.0
 43
0.0
 43
0.0
 43
0.0
 43
0.0208333333333333
 43
0.0
 43
0.0
 43
0.0
 43
0.0
 43
1.0
 43
0.0
 43
0.0
 43
0.0
 43
0.0
 43
1.0
 77
     0
 47
0.0208333333333333
 47
0.0
 47
0.0
 47
0.0
 47
0.0
 47
0.0208333333333333
 47
0.0
 47
0.0
 47
0.0
 47
0.0
 47
1.0
 47
0.0
 47
0.0
 47
0.0
 47
0.0
 47
1.0
171
     0
 49
0.0208333333333333
 49
0.0
 49
0.0
 49
0.0
 49
0.0
 49
0.0208333333333333
 49
0.0
 49
0.0
 49
0.0
 49
0.0
 49
1.0
 49
0.0
 49
0.0
 49
0.0
 49
0.0
 49
1.0
175
     0
142
0.0208333333333333
142
0.0
142
0.0
142
0.0
142
0.0
142
0.0208333333333333
142
0.0
142
0.0
142
0.0
142
0.0
142
1.0
142
0.0
142
0.0
142
0.0
142
0.0
142
1.0
179
     0
144
0.0208333333333333
144
0.0
144
0.0
144
0.0
144
0.0
144
0.0208333333333333
144
0.0
144
0.0
144
0.0
144
0.0
144
1.0
144
0.0
144
0.0
144
0.0
144
0.0
144
1.0
147
0.0208333333333333
147
0.0
147
0.0
147
0.0
147
0.0
147
0.0208333333333333
147
0.0
147
0.0
147
0.0
147
0.0
147
1.0
147
0.0
147
0.0
147
0.0
147
0.0
147
1.0
  0
MATERIAL
  5
9E30
102
{ACAD_XDICTIONARY
360
9E31
102
}
102
{ACAD_REACTORS
330
9E1F
102
}
330
9E1F
100
AcDbMaterial
  1
Global
 72
     0
 43
0.0208333333333333
 43
0.0
 43
0.0
 43
0.0
 43
0.0
 43
0.0208333333333333
 43
0.0
 43
0.0
 43
0.0
 43
0.0
 43
1.0
 43
0.0
 43
0.0
 43
0.0
 43
0.0
 43
1.0
 77
     0
 47
0.0208333333333333
 47
0.0
 47
0.0
 47
0.0
 47
0.0
 47
0.0208333333333333
 47
0.0
 47
0.0
 47
0.0
 47
0.0
 47
1.0
 47
0.0
 47
0.0
 47
0.0
 47
0.0
 47
1.0
171
     0
 49
0.0208333333333333
 49
0.0
 49
0.0
 49
0.0
 49
0.0
 49
0.0208333333333333
 49
0.0
 49
0.0
 49
0.0
 49
0.0
 49
1.0
 49
0.0
 49
0.0
 49
0.0
 49
0.0
 49
1.0
175
     0
142
0.0208333333333333
142
0.0
142
0.0
142
0.0
142
0.0
142
0.0208333333333333
142
0.0
142
0.0
142
0.0
142
0.0
142
1.0
142
0.0
142
0.0
142
0.0
142
0.0
142
1.0
179
     0
144
0.0208333333333333
144
0.0
144
0.0
144
0.0
144
0.0
144
0.0208333333333333
144
0.0
144
0.0
144
0.0
144
0.0
144
1.0
144
0.0
144
0.0
144
0.0
144
0.0
144
1.0
147
0.0208333333333333
147
0.0
147
0.0
147
0.0
147
0.0
147
0.0208333333333333
147
0.0
147
0.0
147
0.0
147
0.0
147
1.0
147
0.0
147
0.0
147
0.0
147
0.0
147
1.0
  0
MLEADERSTYLE
  5
9E67
102
{ACAD_REACTORS
330
9E66
102
}
330
9E66
100
AcDbMLeaderStyle
170
     2
171
     1
172
     0
 90
        2
 40
0.0
 41
0.0
173
     1
 91
-1056964608
340
992F
 92
       -2
290
     1
 42
0.09
291
     1
 43
0.36
  3
Standard
 44
0.18
300

342
992D
174
     1
178
     6
175
     1
176
     0
 93
-1056964608
 45
0.18
292
     0
297
     0
 46
0.18
 94
-1056964608
 47
1.0
 49
1.0
140
1.0
293
     1
141
0.0
294
     1
177
     0
142
1.0
295
     0
296
     0
143
0.125
1001
ACAD_MLEADERVER
1070
     2
  0
MLINESTYLE
  5
9933
102
{ACAD_REACTORS
330
9932
102
}
330
9932
100
AcDbMlineStyle
  2
STANDARD
 70
     0
  3

 62
   256
 51
90.0
 52
90.0
 71
     2
 49
0.5
 62
   256
  6
BYLAYER
 49
-0.5
 62
   256
  6
BYLAYER
  0
ACDBPLACEHOLDER
  5
9E1E
102
{ACAD_REACTORS
330
9E1D
102
}
330
9E1D
  0
SCALE
  5
9E55
102
{ACAD_REACTORS
330
9E54
102
}
330
9E54
100
AcDbScale
 70
     0
300
1:1
140
1.0
141
1.0
290
     1
  0
SCALE
  5
9E56
102
{ACAD_REACTORS
330
9E54
102
}
330
9E54
100
AcDbScale
 70
     0
300
1/128" = 1'-0"
140
0.0078125
141
12.0
290
     0
  0
SCALE
  5
9E57
102
{ACAD_REACTORS
330
9E54
102
}
330
9E54
100
AcDbScale
 70
     0
300
1/64" = 1'-0"
140
0.015625
141
12.0
290
     0
  0
SCALE
  5
9E58
102
{ACAD_REACTORS
330
9E54
102
}
330
9E54
100
AcDbScale
 70
     0
300
1/32" = 1'-0"
140
0.03125
141
12.0
290
     0
  0
SCALE
  5
9E59
102
{ACAD_REACTORS
330
9E54
102
}
330
9E54
100
AcDbScale
 70
     0
300
1/16" = 1'-0"
140
0.0625
141
12.0
290
     0
  0
SCALE
  5
9E5A
102
{ACAD_REACTORS
330
9E54
102
}
330
9E54
100
AcDbScale
 70
     0
300
3/32" = 1'-0"
140
0.09375
141
12.0
290
     0
  0
SCALE
  5
9E5B
102
{ACAD_REACTORS
330
9E54
102
}
330
9E54
100
AcDbScale
 70
     0
300
1/8" = 1'-0"
140
0.125
141
12.0
290
     0
  0
SCALE
  5
9E5C
102
{ACAD_REACTORS
330
9E54
102
}
330
9E54
100
AcDbScale
 70
     0
300
3/16" = 1'-0"
140
0.1875
141
12.0
290
     0
  0
SCALE
  5
9E5D
102
{ACAD_REACTORS
330
9E54
102
}
330
9E54
100
AcDbScale
 70
     0
300
1/4" = 1'-0"
140
0.25
141
12.0
290
     0
  0
SCALE
  5
9E5E
102
{ACAD_REACTORS
330
9E54
102
}
330
9E54
100
AcDbScale
 70
     0
300
3/8" = 1'-0"
140
0.375
141
12.0
290
     0
  0
SCALE
  5
9E5F
102
{ACAD_REACTORS
330
9E54
102
}
330
9E54
100
AcDbScale
 70
     0
300
1/2" = 1'-0"
140
0.5
141
12.0
290
     0
  0
SCALE
  5
9E60
102
{ACAD_REACTORS
330
9E54
102
}
330
9E54
100
AcDbScale
 70
     0
300
3/4" = 1'-0"
140
0.75
141
12.0
290
     0
  0
SCALE
  5
9E61
102
{ACAD_REACTORS
330
9E54
102
}
330
9E54
100
AcDbScale
 70
     0
300
1" = 1'-0"
140
1.0
141
12.0
290
     0
  0
SCALE
  5
9E62
102
{ACAD_REACTORS
330
9E54
102
}
330
9E54
100
AcDbScale
 70
     0
300
1-1/2" = 1'-0"
140
1.5
141
12.0
290
     0
  0
SCALE
  5
9E63
102
{ACAD_REACTORS
330
9E54
102
}
330
9E54
100
AcDbScale
 70
     0
300
3" = 1'-0"
140
3.0
141
12.0
290
     0
  0
SCALE
  5
9E64
102
{ACAD_REACTORS
330
9E54
102
}
330
9E54
100
AcDbScale
 70
     0
300
6" = 1'-0"
140
6.0
141
12.0
290
     0
  0
SCALE
  5
9E65
102
{ACAD_REACTORS
330
9E54
102
}
330
9E54
100
AcDbScale
 70
     0
300
1'-0" = 1'-0"
140
12.0
141
12.0
290
     0
  0
ACDBSECTIONVIEWSTYLE
  5
9E69
102
{ACAD_XDICTIONARY
360
9EC4
102
}
102
{ACAD_REACTORS
330
9E68
102
}
330
9E68
100
AcDbModelDocViewStyle
 70
     0
  3
Imperial24
290
     0
100
AcDbSectionViewStyle
 70
     0
 71
     0
 90
       78
 71
     1
340
992D
 40
0.24
340
0
340
0
 40
0.24
300
I, O, Q, S, X, Z
 40
0.48
 90
        3
 40
0.18
 90
        1
 71
     2
340
9931
 90
       25
340
9931
 90
       50
 40
0.24
 40
0.0
 40
0.24
 71
     3
340
992D
 40
0.24
 90
        1
 40
0.75
 90
        1
300
%<\AcVar ViewType \f "%tc1">% %<\AcVar ViewSectionStartId>%-%<\AcVar ViewSectionEndId>%\PSCALE %<\AcVar ViewScale \f "%sn">%
 71
     4
300
ANSI31
 40
1.0
 90
        0
290
     0
290
     0
 90
        6
 40
0.0
 40
1.570796326794896
 40
0.2617993877991494
 40
1.308996938995747
 40
-0.2617993877991494
 40
1.832595714594046
  0
TABLESTYLE
  5
9E53
102
{ACAD_XDICTIONARY
360
9E8B
102
}
102
{ACAD_REACTORS
330
9E52
102
}
330
9E52
100
AcDbTableStyle
  3
Standard
 70
     0
 71
     0
 40
0.06
 41
0.06
280
     0
281
     0
  7
STANDARD
140
0.18
170
     2
 62
     0
 63
     7
283
     0
274
    -2
284
     1
 64
     0
275
    -2
285
     1
 65
     0
276
    -2
286
     1
 66
     0
277
    -2
287
     1
 67
     0
278
    -2
288
     1
 68
     0
279
    -2
289
     1
 69
     0
  7
STANDARD
140
0.25
170
     5
 62
     0
 63
     7
283
     0
274
    -2
284
     1
 64
     0
275
    -2
285
     1
 65
     0
276
    -2
286
     1
 66
     0
277
    -2
287
     1
 67
     0
278
    -2
288
     1
 68
     0
279
    -2
289
     1
 69
     0
  7
STANDARD
140
0.18
170
     5
 62
     0
 63
     7
283
     0
274
    -2
284
     1
 64
     0
275
    -2
285
     1
 65
     0
276
    -2
286
     1
 66
     0
277
    -2
287
     1
 67
     0
278
    -2
288
     1
 68
     0
279
    -2
289
     1
 69
     0
  0
VISUALSTYLE
  5
9E3E
102
{ACAD_XDICTIONARY
360
9E9C
102
}
102
{ACAD_REACTORS
330
9E38
102
}
330
9E38
100
AcDbVisualStyle
  2
2dWireframe
 70
     4
 71
     0
 72
     2
 73
     0
 90
        0
 40
-0.6
 41
-30.0
 62
     5
 63
     7
 74
     1
 91
        4
 64
     7
 65
   257
 75
     1
175
     1
 42
1.0
 92
        0
 66
   257
 43
1.0
 76
     1
 77
     6
 78
     2
 67
     7
 79
     5
170
     0
171
     0
290
     0
174
     0
 93
        1
 44
0.0
173
     0
291
     0
 45
0.0
1001
ACAD
1000
AcDbSavedByObjectVersion
1070
     0
  0
VISUALSTYLE
  5
9E3D
102
{ACAD_XDICTIONARY
360
9E9A
102
}
102
{ACAD_REACTORS
330
9E38
102
}
330
9E38
100
AcDbVisualStyle
  2
Basic
 70
     7
 71
     1
 72
     0
 73
     1
 90
        0
 40
-0.6
 41
-30.0
 62
     5
 63
     7
 74
     0
 91
        4
 64
     7
 65
   257
 75
     1
175
     1
 42
1.0
 92
        8
 66
     7
 43
1.0
 76
     1
 77
     6
 78
     2
 67
     7
 79
     5
170
     0
171
     0
290
     0
174
     0
 93
        1
 44
0.0
173
     0
291
     1
 45
0.0
1001
ACAD
1000
AcDbSavedByObjectVersion
1070
     0
  0
VISUALSTYLE
  5
9E44
102
{ACAD_XDICTIONARY
360
9EA8
102
}
102
{ACAD_REACTORS
330
9E38
102
}
330
9E38
100
AcDbVisualStyle
  2
Brighten
 70
    12
 71
     2
 72
     2
 73
     0
 90
        0
 40
-0.6
 41
-30.0
 62
     5
 63
     7
 74
     1
 91
        4
 64
     7
 65
   257
 75
     1
175
     1
 42
1.0
 92
        8
 66
     7
 43
1.0
 76
     1
 77
     6
 78
     2
 67
     7
 79
     5
170
     0
171
     0
290
     0
174
     0
 93
        1
 44
50.0
173
     0
291
     1
 45
0.0
1001
ACAD
1000
AcDbSavedByObjectVersion
1070
     0
  0
VISUALSTYLE
  5
9E48
102
{ACAD_XDICTIONARY
360
9EB0
102
}
102
{ACAD_REACTORS
330
9E38
102
}
330
9E38
100
AcDbVisualStyle
  2
ColorChange
 70
    16
 71
     2
 72
     2
 73
     3
 90
        0
 40
-0.6
 41
-30.0
 62
     5
 63
     8
 74
     1
 91
        4
 64
     7
 65
   257
 75
     1
175
     1
 42
1.0
 92
        8
 66
     8
 43
1.0
 76
     1
 77
     6
 78
     2
 67
     7
 79
     5
170
     0
171
     0
290
     0
174
     0
 93
        1
 44
0.0
173
     0
291
     1
 45
0.0
1001
ACAD
1000
AcDbSavedByObjectVersion
1070
     0
  0
VISUALSTYLE
  5
9E41
102
{ACAD_XDICTIONARY
360
9EA2
102
}
102
{ACAD_REACTORS
330
9E38
102
}
330
9E38
100
AcDbVisualStyle
  2
Conceptual
 70
     9
 71
     3
 72
     2
 73
     0
 90
        0
 40
-0.6
 41
-30.0
 62
     5
 63
     7
 74
     2
 91
        2
 64
     7
 65
   257
 75
     1
175
     1
 42
179.0
 92
        8
 66
     7
 43
1.0
 76
     1
 77
     6
 78
     2
 67
     7
 79
     3
170
     0
171
     0
290
     0
174
     0
 93
        1
 44
0.0
173
     0
291
     0
 45
0.0
1001
ACAD
1000
AcDbSavedByObjectVersion
1070
     0
  0
VISUALSTYLE
  5
9E43
102
{ACAD_XDICTIONARY
360
9EA6
102
}
102
{ACAD_REACTORS
330
9E38
102
}
330
9E38
100
AcDbVisualStyle
  2
Dim
 70
    11
 71
     2
 72
     2
 73
     0
 90
        0
 40
-0.6
 41
-30.0
 62
     5
 63
     7
 74
     1
 91
        4
 64
     7
 65
   257
 75
     1
175
     1
 42
1.0
 92
        8
 66
     7
 43
1.0
 76
     1
 77
     6
 78
     2
 67
     7
 79
     5
170
     0
171
     0
290
     0
174
     0
 93
        1
 44
-50.0
173
     0
291
     1
 45
0.0
1001
ACAD
1000
AcDbSavedByObjectVersion
1070
     0
  0
VISUALSTYLE
  5
9E50
102
{ACAD_XDICTIONARY
360
9EC0
102
}
102
{ACAD_REACTORS
330
9E38
102
}
330
9E38
100
AcDbVisualStyle
  2
EdgeColorOff
 70
    22
 71
     2
 72
     2
 73
     0
 90
        0
 40
-0.6
 41
-30.0
 62
     5
 63
     7
 74
     1
 91
        4
 64
     7
 65
   257
 75
     1
175
     1
 42
1.0
 92
        8
 66
     7
 43
1.0
 76
     1
 77
     6
 78
     2
 67
     7
 79
     5
170
     0
171
     0
290
     0
174
     0
 93
        1
 44
0.0
173
     0
291
     1
 45
0.0
1001
ACAD
1000
AcDbSavedByObjectVersion
1070
     0
  0
VISUALSTYLE
  5
9E47
102
{ACAD_XDICTIONARY
360
9EAE
102
}
102
{ACAD_REACTORS
330
9E38
102
}
330
9E38
100
AcDbVisualStyle
  2
Facepattern
 70
    15
 71
     2
 72
     2
 73
     0
 90
        0
 40
-0.6
 41
-30.0
 62
     5
 63
     7
 74
     1
 91
        4
 64
     7
 65
   257
 75
     1
175
     1
 42
1.0
 92
        8
 66
     7
 43
1.0
 76
     1
 77
     6
 78
     2
 67
     7
 79
     5
170
     0
171
     0
290
     0
174
     0
 93
        1
 44
0.0
173
     0
291
     1
 45
0.0
1001
ACAD
1000
AcDbSavedByObjectVersion
1070
     0
  0
VISUALSTYLE
  5
9E39
102
{ACAD_XDICTIONARY
360
9E92
102
}
102
{ACAD_REACTORS
330
9E38
102
}
330
9E38
100
AcDbVisualStyle
  2
Flat
 70
     0
 71
     2
 72
     1
 73
     1
 90
        2
 40
-0.6
 41
30.0
 62
     5
 63
     7
 74
     0
 91
        0
 64
     7
 65
   257
 75
     1
175
     1
 42
1.0
 92
        8
 66
     7
 43
1.0
 76
     1
 77
     6
 78
     2
 67
     7
 79
     5
170
     0
171
     0
290
     0
174
     0
 93
       13
 44
0.0
173
     0
291
     1
 45
0.0
1001
ACAD
1000
AcDbSavedByObjectVersion
1070
     0
  0
VISUALSTYLE
  5
9E3A
102
{ACAD_XDICTIONARY
360
9E94
102
}
102
{ACAD_REACTORS
330
9E38
102
}
330
9E38
100
AcDbVisualStyle
  2
FlatWithEdges
 70
     1
 71
     2
 72
     1
 73
     1
 90
        2
 40
-0.6
 41
30.0
 62
     5
 63
     7
 74
     1
 91
        0
 64
     7
 65
   257
 75
     1
175
     1
 42
1.0
 92
        0
 66
   257
 43
1.0
 76
     1
 77
     6
 78
     2
 67
     7
 79
     5
170
     0
171
     0
290
     0
174
     0
 93
       13
 44
0.0
173
     0
291
     1
 45
0.0
1001
ACAD
1000
AcDbSavedByObjectVersion
1070
     0
  0
VISUALSTYLE
  5
9E3B
102
{ACAD_XDICTIONARY
360
9E96
102
}
102
{ACAD_REACTORS
330
9E38
102
}
330
9E38
100
AcDbVisualStyle
  2
Gouraud
 70
     2
 71
     2
 72
     2
 73
     1
 90
        2
 40
-0.6
 41
30.0
 62
     5
 63
     7
 74
     0
 91
        0
 64
     7
 65
   257
 75
     1
175
     1
 42
1.0
 92
        0
 66
     7
 43
1.0
 76
     1
 77
     6
 78
     2
 67
     7
 79
     5
170
     0
171
     0
290
     0
174
     0
 93
       13
 44
0.0
173
     0
291
     1
 45
0.0
1001
ACAD
1000
AcDbSavedByObjectVersion
1070
     0
  0
VISUALSTYLE
  5
9E3C
102
{ACAD_XDICTIONARY
360
9E98
102
}
102
{ACAD_REACTORS
330
9E38
102
}
330
9E38
100
AcDbVisualStyle
  2
GouraudWithEdges
 70
     3
 71
     2
 72
     2
 73
     1
 90
        2
 40
-0.6
 41
30.0
 62
     5
 63
     7
 74
     1
 91
        0
 64
     7
 65
   257
 75
     1
175
     1
 42
1.0
 92
        0
 66
   257
 43
1.0
 76
     1
 77
     6
 78
     2
 67
     7
 79
     5
170
     0
171
     0
290
     0
174
     0
 93
       13
 44
0.0
173
     0
291
     1
 45
0.0
1001
ACAD
1000
AcDbSavedByObjectVersion
1070
     0
  0
VISUALSTYLE
  5
9E40
102
{ACAD_XDICTIONARY
360
9EA0
102
}
102
{ACAD_REACTORS
330
9E38
102
}
330
9E38
100
AcDbVisualStyle
  2
Hidden
 70
     6
 71
     1
 72
     2
 73
     2
 90
        0
 40
-0.6
 41
-30.0
 62
     5
 63
     7
 74
     2
 91
        2
 64
     7
 65
   257
 75
     2
175
     1
 42
40.0
 92
        0
 66
   257
 43
1.0
 76
     1
 77
     6
 78
     2
 67
     7
 79
     3
170
     0
171
     0
290
     0
174
     0
 93
        1
 44
0.0
173
     0
291
     0
 45
0.0
1001
ACAD
1000
AcDbSavedByObjectVersion
1070
     0
  0
VISUALSTYLE
  5
9E4E
102
{ACAD_XDICTIONARY
360
9EBC
102
}
102
{ACAD_REACTORS
330
9E38
102
}
330
9E38
100
AcDbVisualStyle
  2
JitterOff
 70
    20
 71
     2
 72
     2
 73
     0
 90
        0
 40
-0.6
 41
-30.0
 62
     5
 63
     7
 74
     1
 91
        4
 64
     7
 65
   257
 75
     1
175
     1
 42
1.0
 92
       10
 66
     7
 43
1.0
 76
     1
 77
     6
 78
     2
 67
     7
 79
     5
170
     0
171
     0
290
     0
174
     0
 93
        1
 44
0.0
173
     0
291
     1
 45
0.0
1001
ACAD
1000
AcDbSavedByObjectVersion
1070
     0
  0
VISUALSTYLE
  5
9E46
102
{ACAD_XDICTIONARY
360
9EAC
102
}
102
{ACAD_REACTORS
330
9E38
102
}
330
9E38
100
AcDbVisualStyle
  2
Linepattern
 70
    14
 71
     2
 72
     2
 73
     0
 90
        0
 40
-0.6
 41
-30.0
 62
     5
 63
     7
 74
     1
 91
        4
 64
     7
 65
   257
 75
     7
175
     7
 42
1.0
 92
        8
 66
     7
 43
1.0
 76
     1
 77
     6
 78
     2
 67
     7
 79
     5
170
     0
171
     0
290
     0
174
     0
 93
        1
 44
0.0
173
     0
291
     1
 45
0.0
1001
ACAD
1000
AcDbSavedByObjectVersion
1070
     0
  0
VISUALSTYLE
  5
9E4F
102
{ACAD_XDICTIONARY
360
9EBE
102
}
102
{ACAD_REACTORS
330
9E38
102
}
330
9E38
100
AcDbVisualStyle
  2
OverhangOff
 70
    21
 71
     2
 72
     2
 73
     0
 90
        0
 40
-0.6
 41
-30.0
 62
     5
 63
     7
 74
     1
 91
        4
 64
     7
 65
   257
 75
     1
175
     1
 42
1.0
 92
        9
 66
     7
 43
1.0
 76
     1
 77
     6
 78
     2
 67
     7
 79
     5
170
     0
171
     0
290
     0
174
     0
 93
        1
 44
0.0
173
     0
291
     1
 45
0.0
1001
ACAD
1000
AcDbSavedByObjectVersion
1070
     0
  0
VISUALSTYLE
  5
9E42
102
{ACAD_XDICTIONARY
360
9EA4
102
}
102
{ACAD_REACTORS
330
9E38
102
}
330
9E38
100
AcDbVisualStyle
  2
Realistic
 70
     8
 71
     2
 72
     3
 73
     0
 90
        2
 40
-0.6
 41
30.0
 62
     5
 63
     7
 74
     0
 91
        0
 64
     7
 65
   257
 75
     1
175
     1
 42
1.0
 92
        8
 66
   257
 43
1.0
 76
     1
 77
     6
 78
     2
 67
     7
 79
     3
170
     0
171
     0
290
     0
174
     0
 93
       13
 44
0.0
173
     0
291
     0
 45
0.0
1001
ACAD
1000
AcDbSavedByObjectVersion
1070
     0
  0
VISUALSTYLE
  5
9E4D
102
{ACAD_XDICTIONARY
360
9EBA
102
}
102
{ACAD_REACTORS
330
9E38
102
}
330
9E38
100
AcDbVisualStyle
  2
Shaded
 70
    27
 71
     2
 72
     2
 73
     1
 90
        2
 40
-0.6
 41
30.0
 62
     5
 63
     7
 74
     0
 91
        4
 64
     7
 65
   257
 75
     1
175
     1
 42
1.0
 92
        8
 66
   257
 43
1.0
 76
     1
 77
     6
 78
     2
 67
     8
 79
     3
170
     0
171
     0
290
     0
174
     0
 93
        5
 44
0.0
173
     0
291
     0
 45
0.0
1001
ACAD
1000
AcDbSavedByObjectVersion
1070
     0
  0
VISUALSTYLE
  5
9E4C
102
{ACAD_XDICTIONARY
360
9EB8
102
}
102
{ACAD_REACTORS
330
9E38
102
}
330
9E38
100
AcDbVisualStyle
  2
Shaded with edges
 70
    26
 71
     2
 72
     2
 73
     1
 90
        2
 40
-0.6
 41
30.0
 62
     5
 63
     7
 74
     1
 91
       10
 64
     7
 65
   257
 75
     2
175
     1
 42
1.0
 92
        8
 66
   257
 43
1.0
 76
     1
 77
     6
 78
     2
 67
     7
 79
     3
170
     0
171
     0
290
     0
174
     0
 93
        5
 44
0.0
173
     0
291
     0
 45
0.0
1001
ACAD
1000
AcDbSavedByObjectVersion
1070
     0
  0
VISUALSTYLE
  5
9E49
102
{ACAD_XDICTIONARY
360
9EB2
102
}
102
{ACAD_REACTORS
330
9E38
102
}
330
9E38
100
AcDbVisualStyle
  2
Shades of Gray
 70
    23
 71
     2
 72
     2
 73
     3
 90
        0
 40
-0.6
 41
-30.0
 62
     5
 63
     7
 74
     2
 91
        2
 64
     7
 65
     7
 75
     1
175
     1
 42
40.0
 92
        8
 66
     7
 43
1.0
 76
     1
 77
     6
 78
     2
 67
     7
 79
     3
170
     0
171
     0
290
     0
174
     0
 93
        1
 44
0.0
173
     0
291
     0
 45
0.0
1001
ACAD
1000
AcDbSavedByObjectVersion
1070
     0
  0
VISUALSTYLE
  5
9E4A
102
{ACAD_XDICTIONARY
360
9EB4
102
}
102
{ACAD_REACTORS
330
9E38
102
}
330
9E38
100
AcDbVisualStyle
  2
Sketchy
 70
    24
 71
     1
 72
     2
 73
     2
 90
        0
 40
-0.6
 41
-30.0
 62
     5
 63
     7
 74
     2
 91
        2
 64
     7
 65
     7
 75
     1
175
     1
 42
40.0
 92
       11
 66
     7
 43
1.0
 76
     1
 77
     6
 78
     2
 67
     7
 79
     6
170
     0
171
     0
290
     0
174
     0
 93
        1
 44
0.0
173
     0
291
     0
 45
0.0
1001
ACAD
1000
AcDbSavedByObjectVersion
1070
     0
  0
VISUALSTYLE
  5
9E45
102
{ACAD_XDICTIONARY
360
9EAA
102
}
102
{ACAD_REACTORS
330
9E38
102
}
330
9E38
100
AcDbVisualStyle
  2
Thicken
 70
    13
 71
     2
 72
     2
 73
     0
 90
        0
 40
-0.6
 41
-30.0
 62
     5
 63
     7
 74
     1
 91
        4
 64
     7
 65
   257
 75
     1
175
     1
 42
1.0
 92
       12
 66
     7
 43
1.0
 76
     1
 77
     6
 78
     2
 67
     7
 79
     5
170
     0
171
     0
290
     0
174
     0
 93
        1
 44
0.0
173
     0
291
     1
 45
0.0
1001
ACAD
1000
AcDbSavedByObjectVersion
1070
     0
  0
VISUALSTYLE
  5
9E3F
102
{ACAD_XDICTIONARY
360
9E9E
102
}
102
{ACAD_REACTORS
330
9E38
102
}
330
9E38
100
AcDbVisualStyle
  2
Wireframe
 70
     5
 71
     0
 72
     2
 73
     0
 90
        0
 40
-0.6
 41
-30.0
 62
     5
 63
     7
 74
     1
 91
        4
 64
     7
 65
   257
 75
     1
175
     1
 42
1.0
 92
        0
 66
   257
 43
1.0
 76
     1
 77
     6
 78
     2
 67
     7
 79
     3
170
     0
171
     0
290
     0
174
     0
 93
        1
 44
0.0
173
     0
291
     0
 45
0.0
1001
ACAD
1000
AcDbSavedByObjectVersion
1070
     0
  0
VISUALSTYLE
  5
9E4B
102
{ACAD_XDICTIONARY
360
9EB6
102
}
102
{ACAD_REACTORS
330
9E38
102
}
330
9E38
100
AcDbVisualStyle
  2
X-Ray
 70
    25
 71
     2
 72
     2
 73
     1
 90
        1
 40
0.5
 41
-30.0
 62
     5
 63
     7
 74
     1
 91
        0
 64
     7
 65
   257
 75
     1
175
     1
 42
1.0
 92
        8
 66
     7
 43
1.0
 76
     1
 77
     6
 78
     2
 67
     7
 79
     3
170
     0
171
     0
290
     0
174
     0
 93
       13
 44
0.0
173
     0
291
     0
 45
0.0
1001
ACAD
1000
AcDbSavedByObjectVersion
1070
     0
  0
DICTIONARYVAR
  5
9E85
102
{ACAD_REACTORS
330
9E80
102
}
330
9E80
100
DictionaryVariables
280
     0
  1
1:1
  0
DICTIONARYVAR
  5
9E82
102
{ACAD_REACTORS
330
9E80
102
}
330
9E80
100
DictionaryVariables
280
     0
  1
STANDARD
  0
DICTIONARYVAR
  5
9E81
102
{ACAD_REACTORS
330
9E80
102
}
330
9E80
100
DictionaryVariables
280
     0
  1
STANDARD
  0
DICTIONARYVAR
  5
9E83
102
{ACAD_REACTORS
330
9E80
102
}
330
9E80
100
DictionaryVariables
280
     0
  1
Imperial24
  0
DICTIONARYVAR
  5
9E84
102
{ACAD_REACTORS
330
9E80
102
}
330
9E80
100
DictionaryVariables
280
     0
  1
Imperial24
  0
DICTIONARYVAR
  5
9E88
102
{ACAD_REACTORS
330
9E80
102
}
330
9E80
100
DictionaryVariables
280
     0
  1
1
  0
DICTIONARYVAR
  5
9E87
102
{ACAD_REACTORS
330
9E80
102
}
330
9E80
100
DictionaryVariables
280
     0
  1
0
  0
DICTIONARYVAR
  5
9E86
102
{ACAD_REACTORS
330
9E80
102
}
330
9E80
100
DictionaryVariables
280
     0
  1
127
  0
DICTIONARYVAR
  5
9E89
102
{ACAD_REACTORS
330
9E80
102
}
330
9E80
100
DictionaryVariables
280
     0
  1
2
  0
DICTIONARY
  5
9EC6
330
9E6B
100
AcDbDictionary
280
     1
281
     1
  3
ACAD_XREC_ROUNDTRIP
360
9EC7
  0
DICTIONARY
  5
9EC8
330
9E6C
100
AcDbDictionary
280
     1
281
     1
  3
ACAD_XREC_ROUNDTRIP
360
9EC9
  0
DICTIONARY
  5
9ECA
330
9E6D
100
AcDbDictionary
280
     1
281
     1
  3
ACAD_XREC_ROUNDTRIP
360
9ECB
  0
DICTIONARY
  5
9E29
330
9E28
100
AcDbDictionary
280
     1
281
     1
  3
ACAD_XREC_ROUNDTRIP
360
9E90
  3
BUMPTILE
360
9E2B
  3
DIFFUSETILE
360
9E2A
  3
OPACITYTILE
360
9E2E
  3
REFLECTIONTILE
360
9E2D
  3
REFRACTIONTILE
360
9E2F
  3
SPECULARTILE
360
9E2C
  0
DICTIONARY
  5
9E21
330
9E20
100
AcDbDictionary
280
     1
281
     1
  3
ACAD_XREC_ROUNDTRIP
360
9E8F
  3
BUMPTILE
360
9E23
  3
DIFFUSETILE
360
9E22
  3
OPACITYTILE
360
9E26
  3
REFLECTIONTILE
360
9E25
  3
REFRACTIONTILE
360
9E27
  3
SPECULARTILE
360
9E24
  0
DICTIONARY
  5
9E31
330
9E30
100
AcDbDictionary
280
     1
281
     1
  3
ACAD_XREC_ROUNDTRIP
360
9E91
  3
BUMPTILE
360
9E33
  3
DIFFUSETILE
360
9E32
  3
OPACITYTILE
360
9E36
  3
REFLECTIONTILE
360
9E35
  3
REFRACTIONTILE
360
9E37
  3
SPECULARTILE
360
9E34
  0
DICTIONARY
  5
9EC4
330
9E69
100
AcDbDictionary
280
     1
281
     1
  3
ACAD_XREC_ROUNDTRIP
360
9EC5
  0
DICTIONARY
  5
9E8B
330
9E53
100
AcDbDictionary
280
     1
281
     1
  3
ACAD_ROUNDTRIP_2008_TABLESTYLE_CELLSTYLEMAP
360
9E8C
  3
ACAD_XREC_ROUNDTRIP
360
9EC2
  0
DICTIONARY
  5
9E9C
330
9E3E
100
AcDbDictionary
280
     1
281
     1
  3
ACAD_XREC_ROUNDTRIP
360
9E9D
  0
DICTIONARY
  5
9E9A
330
9E3D
100
AcDbDictionary
280
     1
281
     1
  3
ACAD_XREC_ROUNDTRIP
360
9E9B
  0
DICTIONARY
  5
9EA8
330
9E44
100
AcDbDictionary
280
     1
281
     1
  3
ACAD_XREC_ROUNDTRIP
360
9EA9
  0
DICTIONARY
  5
9EB0
330
9E48
100
AcDbDictionary
280
     1
281
     1
  3
ACAD_XREC_ROUNDTRIP
360
9EB1
  0
DICTIONARY
  5
9EA2
330
9E41
100
AcDbDictionary
280
     1
281
     1
  3
ACAD_XREC_ROUNDTRIP
360
9EA3
  0
DICTIONARY
  5
9EA6
330
9E43
100
AcDbDictionary
280
     1
281
     1
  3
ACAD_XREC_ROUNDTRIP
360
9EA7
  0
DICTIONARY
  5
9EC0
330
9E50
100
AcDbDictionary
280
     1
281
     1
  3
ACAD_XREC_ROUNDTRIP
360
9EC1
  0
DICTIONARY
  5
9EAE
330
9E47
100
AcDbDictionary
280
     1
281
     1
  3
ACAD_XREC_ROUNDTRIP
360
9EAF
  0
DICTIONARY
  5
9E92
330
9E39
100
AcDbDictionary
280
     1
281
     1
  3
ACAD_XREC_ROUNDTRIP
360
9E93
  0
DICTIONARY
  5
9E94
330
9E3A
100
AcDbDictionary
280
     1
281
     1
  3
ACAD_XREC_ROUNDTRIP
360
9E95
  0
DICTIONARY
  5
9E96
330
9E3B
100
AcDbDictionary
280
     1
281
     1
  3
ACAD_XREC_ROUNDTRIP
360
9E97
  0
DICTIONARY
  5
9E98
330
9E3C
100
AcDbDictionary
280
     1
281
     1
  3
ACAD_XREC_ROUNDTRIP
360
9E99
  0
DICTIONARY
  5
9EA0
330
9E40
100
AcDbDictionary
280
     1
281
     1
  3
ACAD_XREC_ROUNDTRIP
360
9EA1
  0
DICTIONARY
  5
9EBC
330
9E4E
100
AcDbDictionary
280
     1
281
     1
  3
ACAD_XREC_ROUNDTRIP
360
9EBD
  0
DICTIONARY
  5
9EAC
330
9E46
100
AcDbDictionary
280
     1
281
     1
  3
ACAD_XREC_ROUNDTRIP
360
9EAD
  0
DICTIONARY
  5
9EBE
330
9E4F
100
AcDbDictionary
280
     1
281
     1
  3
ACAD_XREC_ROUNDTRIP
360
9EBF
  0
DICTIONARY
  5
9EA4
330
9E42
100
AcDbDictionary
280
     1
281
     1
  3
ACAD_XREC_ROUNDTRIP
360
9EA5
  0
DICTIONARY
  5
9EBA
330
9E4D
100
AcDbDictionary
280
     1
281
     1
  3
ACAD_XREC_ROUNDTRIP
360
9EBB
  0
DICTIONARY
  5
9EB8
330
9E4C
100
AcDbDictionary
280
     1
281
     1
  3
ACAD_XREC_ROUNDTRIP
360
9EB9
  0
DICTIONARY
  5
9EB2
330
9E49
100
AcDbDictionary
280
     1
281
     1
  3
ACAD_XREC_ROUNDTRIP
360
9EB3
  0
DICTIONARY
  5
9EB4
330
9E4A
100
AcDbDictionary
280
     1
281
     1
  3
ACAD_XREC_ROUNDTRIP
360
9EB5
  0
DICTIONARY
  5
9EAA
330
9E45
100
AcDbDictionary
280
     1
281
     1
  3
ACAD_XREC_ROUNDTRIP
360
9EAB
  0
DICTIONARY
  5
9E9E
330
9E3F
100
AcDbDictionary
280
     1
281
     1
  3
ACAD_XREC_ROUNDTRIP
360
9E9F
  0
DICTIONARY
  5
9EB6
330
9E4B
100
AcDbDictionary
280
     1
281
     1
  3
ACAD_XREC_ROUNDTRIP
360
9EB7
  0
XRECORD
  5
9EC7
102
{ACAD_REACTORS
330
9EC6
102
}
330
9EC6
100
AcDbXrecord
280
     1
102
DISPLAYNAME
  1
Imperial24
102
FLAGS
 90
        0
  0
XRECORD
  5
9EC9
102
{ACAD_REACTORS
330
9EC8
102
}
330
9EC8
100
AcDbXrecord
280
     1
102
SHADEPLOT
 70
     0
102
SHADEPLOTRESLEVEL
 70
     2
102
SHADEPLOTCUSTOMDPI
 70
   300
  0
XRECORD
  5
9ECB
102
{ACAD_REACTORS
330
9ECA
102
}
330
9ECA
100
AcDbXrecord
280
     1
102
SHADEPLOT
 70
     0
102
SHADEPLOTRESLEVEL
 70
     2
102
SHADEPLOTCUSTOMDPI
 70
   300
  0
XRECORD
  5
9E90
102
{ACAD_REACTORS
330
9E29
102
}
330
9E29
100
AcDbXrecord
280
     1
102
MATERIAL
148
0.0
149
0.0
149
0.0
 93
        0
 94
      127
282
     0
 72
     0
 77
     0
171
     0
175
     0
179
     0
273
     0
  0
XRECORD
  5
9E2B
102
{ACAD_REACTORS
330
9E29
102
}
330
9E29
100
AcDbXrecord
280
     1
270
     1
271
     1
  0
XRECORD
  5
9E2A
102
{ACAD_REACTORS
330
9E29
102
}
330
9E29
100
AcDbXrecord
280
     1
270
     1
271
     1
  0
XRECORD
  5
9E2E
102
{ACAD_REACTORS
330
9E29
102
}
330
9E29
100
AcDbXrecord
280
     1
270
     1
271
     1
  0
XRECORD
  5
9E2D
102
{ACAD_REACTORS
330
9E29
102
}
330
9E29
100
AcDbXrecord
280
     1
270
     1
271
     1
  0
XRECORD
  5
9E2F
102
{ACAD_REACTORS
330
9E29
102
}
330
9E29
100
AcDbXrecord
280
     1
270
     1
271
     1
  0
XRECORD
  5
9E2C
102
{ACAD_REACTORS
330
9E29
102
}
330
9E29
100
AcDbXrecord
280
     1
270
     1
271
     1
  0
XRECORD
  5
9E8F
102
{ACAD_REACTORS
330
9E21
102
}
330
9E21
100
AcDbXrecord
280
     1
102
MATERIAL
148
0.0
149
0.0
149
0.0
 93
        0
 94
      127
282
     0
 72
     0
 77
     0
171
     0
175
     0
179
     0
273
     0
  0
XRECORD
  5
9E23
102
{ACAD_REACTORS
330
9E21
102
}
330
9E21
100
AcDbXrecord
280
     1
270
     1
271
     1
  0
XRECORD
  5
9E22
102
{ACAD_REACTORS
330
9E21
102
}
330
9E21
100
AcDbXrecord
280
     1
270
     1
271
     1
  0
XRECORD
  5
9E26
102
{ACAD_REACTORS
330
9E21
102
}
330
9E21
100
AcDbXrecord
280
     1
270
     1
271
     1
  0
XRECORD
  5
9E25
102
{ACAD_REACTORS
330
9E21
102
}
330
9E21
100
AcDbXrecord
280
     1
270
     1
271
     1
  0
XRECORD
  5
9E27
102
{ACAD_REACTORS
330
9E21
102
}
330
9E21
100
AcDbXrecord
280
     1
270
     1
271
     1
  0
XRECORD
  5
9E24
102
{ACAD_REACTORS
330
9E21
102
}
330
9E21
100
AcDbXrecord
280
     1
270
     1
271
     1
  0
XRECORD
  5
9E91
102
{ACAD_REACTORS
330
9E31
102
}
330
9E31
100
AcDbXrecord
280
     1
102
MATERIAL
148
0.0
149
0.0
149
0.0
 93
        0
 94
      127
282
     0
 72
     0
 77
     0
171
     0
175
     0
179
     0
273
     0
  0
XRECORD
  5
9E33
102
{ACAD_REACTORS
330
9E31
102
}
330
9E31
100
AcDbXrecord
280
     1
270
     1
271
     1
  0
XRECORD
  5
9E32
102
{ACAD_REACTORS
330
9E31
102
}
330
9E31
100
AcDbXrecord
280
     1
270
     1
271
     1
  0
XRECORD
  5
9E36
102
{ACAD_REACTORS
330
9E31
102
}
330
9E31
100
AcDbXrecord
280
     1
270
     1
271
     1
  0
XRECORD
  5
9E35
102
{ACAD_REACTORS
330
9E31
102
}
330
9E31
100
AcDbXrecord
280
     1
270
     1
271
     1
  0
XRECORD
  5
9E37
102
{ACAD_REACTORS
330
9E31
102
}
330
9E31
100
AcDbXrecord
280
     1
270
     1
271
     1
  0
XRECORD
  5
9E34
102
{ACAD_REACTORS
330
9E31
102
}
330
9E31
100
AcDbXrecord
280
     1
270
     1
271
     1
  0
XRECORD
  5
9EC5
102
{ACAD_REACTORS
330
9EC4
102
}
330
9EC4
100
AcDbXrecord
280
     1
102
DISPLAYNAME
  1
Imperial24
102
FLAGS
 90
        0
  0
CELLSTYLEMAP
  5
9E8C
102
{ACAD_REACTORS
330
9E8B
102
}
330
9E8B
100
AcDbCellStyleMap
 90
        3
300
CELLSTYLE
  1
TABLEFORMAT_BEGIN
 90
        5
170
     1
 91
        0
 92
    32768
 62
   257
 93
        1
300
CONTENTFORMAT
  1
CONTENTFORMAT_BEGIN
 90
        0
 91
        0
 92
      512
 93
        0
300

 40
0.0
140
1.0
 94
        5
 62
     0
340
992D
144
0.25
309
CONTENTFORMAT_END
171
     0
 94
        0
309
TABLEFORMAT_END
  1
CELLSTYLE_BEGIN
 90
        1
 91
        1
300
_TITLE
309
CELLSTYLE_END
300
CELLSTYLE
  1
TABLEFORMAT_BEGIN
 90
        5
170
     1
 91
        0
 92
        0
 62
   257
 93
        1
300
CONTENTFORMAT
  1
CONTENTFORMAT_BEGIN
 90
        0
 91
        0
 92
      512
 93
        0
300

 40
0.0
140
1.0
 94
        5
 62
     0
340
992D
144
0.18
309
CONTENTFORMAT_END
171
     0
 94
        0
309
TABLEFORMAT_END
  1
CELLSTYLE_BEGIN
 90
        2
 91
        1
300
_HEADER
309
CELLSTYLE_END
300
CELLSTYLE
  1
TABLEFORMAT_BEGIN
 90
        5
170
     1
 91
        0
 92
        0
 62
   257
 93
        1
300
CONTENTFORMAT
  1
CONTENTFORMAT_BEGIN
 90
        0
 91
        0
 92
      512
 93
        0
300

 40
0.0
140
1.0
 94
        2
 62
     0
340
992D
144
0.18
309
CONTENTFORMAT_END
171
     0
 94
        0
309
TABLEFORMAT_END
  1
CELLSTYLE_BEGIN
 90
        3
 91
        2
300
_DATA
309
CELLSTYLE_END
  0
XRECORD
  5
9EC2
102
{ACAD_REACTORS
330
9E8B
102
}
330
9E8B
100
AcDbXrecord
280
     1
102
ACAD_ROUNDTRIP_PRE2007_TABLESTYLE
 90
      512
 91
        0
  1

 92
      512
 93
        0
  2

 94
      512
 95
        0
  3

  0
XRECORD
  5
9E9D
102
{ACAD_REACTORS
330
9E9C
102
}
330
9E9C
100
AcDbXrecord
280
     1
102
RTVSPost2010Prop28
280
     1
102
RTVSPost2010PropOp28
 70
     1
102
RTVSPost2010Prop29
280
     1
102
RTVSPost2010PropOp29
 70
     1
102
RTVSPost2010Prop30
280
     0
102
RTVSPost2010PropOp30
 70
     1
102
RTVSPost2010Prop31
280
     0
102
RTVSPost2010PropOp31
 70
     1
102
RTVSPost2010Prop32
280
     0
102
RTVSPost2010PropOp32
 70
     1
102
RTVSPost2010Prop33
280
     0
102
RTVSPost2010PropOp33
 70
     1
102
RTVSPost2010Prop34
280
     0
102
RTVSPost2010PropOp34
 70
     1
102
RTVSPost2010Prop35
280
     0
102
RTVSPost2010PropOp35
 70
     1
102
RTVSPost2010Prop36
280
     0
102
RTVSPost2010PropOp36
 70
     1
102
RTVSPost2010Prop37
 90
       50
102
RTVSPost2010PropOp37
 70
     1
102
RTVSPost2010Prop38
140
0.0
102
RTVSPost2010PropOp38
 70
     1
102
RTVSPost2010Prop39
140
1.0
102
RTVSPost2010PropOp39
 70
     1
102
RTVSPost2010Prop40
 90
        0
102
RTVSPost2010PropOp40
 70
     1
102
RTVSPost2010Prop41ColorIndex
 90
       18
102
RTVSPost2010Prop41ColorRGB
 90
        0
102
RTVSPost2010PropOp41
 70
     1
102
RTVSPost2010Prop42
 90
       50
102
RTVSPost2010PropOp42
 70
     1
102
RTVSPost2010Prop43
 90
        3
102
RTVSPost2010PropOp43
 70
     1
102
RTVSPost2010Prop44ColorIndex
 90
        5
102
RTVSPost2010Prop44ColorRGB
 90
      255
102
RTVSPost2010PropOp44
 70
     1
102
RTVSPost2010Prop45
280
     0
102
RTVSPost2010PropOp45
 70
     1
102
RTVSPost2010Prop46
 90
       50
102
RTVSPost2010PropOp46
 70
     1
102
RTVSPost2010Prop47
 90
       50
102
RTVSPost2010PropOp47
 70
     1
102
RTVSPost2010Prop48
 90
       50
102
RTVSPost2010PropOp48
 70
     1
102
RTVSPost2010Prop49
280
     0
102
RTVSPost2010PropOp49
 70
     1
102
RTVSPost2010Prop50
 90
       50
102
RTVSPost2010PropOp50
 70
     1
102
RTVSPost2010Prop51ColorIndex
 90
      256
102
RTVSPost2010Prop51ColorRGB
 90
-16777216
102
RTVSPost2010PropOp51
 70
     0
102
RTVSPost2010Prop52
140
1.0
102
RTVSPost2010PropOp52
 70
     0
102
RTVSPost2010Prop53
 90
        2
102
RTVSPost2010PropOp53
 70
     1
102
RTVSPost2010Prop54
  1
strokes_ogs.tif
102
RTVSPost2010PropOp54
 70
     1
102
RTVSPost2010Prop55
280
     0
102
RTVSPost2010PropOp55
 70
     1
102
RTVSPost2010Prop56
140
1.0
102
RTVSPost2010PropOp56
 70
     1
102
RTVSPost2010Prop57
140
1.0
102
RTVSPost2010PropOp57
 70
     1
102
RTVSPropertyOp0
 70
     1
102
RTVSPropertyOp1
 70
     1
102
RTVSPropertyOp2
 70
     1
102
RTVSPropertyOp3
 70
     1
102
RTVSPropertyOp4
 70
     1
102
RTVSPropertyOp5
 70
     1
102
RTVSPropertyOp6
 70
     1
102
RTVSPropertyOp7
 70
     1
102
RTVSPropertyOp8
 70
     1
102
RTVSPropertyOp9
 70
     1
102
RTVSPropertyOp10
 70
     1
102
RTVSPropertyOp11
 70
     1
102
RTVSPropertyOp12
 70
     1
102
RTVSPropertyOp13
 70
     1
102
RTVSPropertyOp14
 70
     1
102
RTVSPropertyOp15
 70
     1
102
RTVSPropertyOp16
 70
     1
102
RTVSPropertyOp17
 70
     1
102
RTVSPropertyOp18
 70
     1
102
RTVSPropertyOp19
 70
     1
102
RTVSPropertyOp20
 70
     1
102
RTVSPropertyOp21
 70
     1
102
RTVSPropertyOp22
 70
     1
102
RTVSPropertyOp23
 70
     1
102
RTVSPropertyOp24
 70
     1
102
RTVSPropertyOp25
 70
     1
102
RTVSPropertyOp26
 70
     1
102
RTVSPropertyOp27
 70
     1
102
RTVSPropertyOp28
 70
     1
102
RTVSPropertyOp29
 70
     1
102
RTVSPropertyOp30
 70
     1
102
RTVSPropertyOp31
 70
     1
102
RTVSPropertyOp32
 70
     1
102
RTVSPropertyOp33
 70
     1
102
RTVSPropertyOp34
 70
     1
102
RTVSPropertyOp35
 70
     1
102
RTVSPropertyOp36
 70
     1
102
RTVSPropertyOp37
 70
     1
102
RTVSPropertyOp38
 70
     1
102
RTVSPropertyOp39
 70
     1
102
RTVSPropertyOp40
 70
     1
102
RTVSPropertyOp41
 70
     1
102
RTVSPropertyOp42
 70
     1
102
RTVSPropertyOp43
 70
     1
102
RTVSPropertyOp44
 70
     1
102
RTVSPropertyOp45
 70
     1
102
RTVSPropertyOp46
 70
     1
102
RTVSPropertyOp47
 70
     1
102
RTVSPropertyOp48
 70
     1
102
RTVSPropertyOp49
 70
     1
102
RTVSPropertyOp50
 70
     1
102
RTVSPropertyOp51
 70
     0
102
RTVSPropertyOp52
 70
     0
102
RTVSPropertyOp53
 70
     1
102
RTVSPropertyOp54
 70
     1
102
RTVSPropertyOp55
 70
     1
102
RTVSPropertyOp56
 70
     1
102
RTVSPropertyOp57
 70
     1
102
RTVSPropertyOp58
 70
     1
102
RTVSPropertyOp59
 70
     1
102
RTVSPropertyOp60
 70
     1
102
RTVSPropertyOp61
 70
     1
102
RTVSPropertyOp62
 70
     1
  0
XRECORD
  5
9E9B
102
{ACAD_REACTORS
330
9E9A
102
}
330
9E9A
100
AcDbXrecord
280
     1
102
RTVSPost2010Prop28
280
     0
102
RTVSPost2010PropOp28
 70
     1
102
RTVSPost2010Prop29
280
     1
102
RTVSPost2010PropOp29
 70
     1
102
RTVSPost2010Prop30
280
     1
102
RTVSPost2010PropOp30
 70
     1
102
RTVSPost2010Prop31
280
     0
102
RTVSPost2010PropOp31
 70
     1
102
RTVSPost2010Prop32
280
     0
102
RTVSPost2010PropOp32
 70
     1
102
RTVSPost2010Prop33
280
     0
102
RTVSPost2010PropOp33
 70
     1
102
RTVSPost2010Prop34
280
     0
102
RTVSPost2010PropOp34
 70
     1
102
RTVSPost2010Prop35
280
     0
102
RTVSPost2010PropOp35
 70
     1
102
RTVSPost2010Prop36
280
     0
102
RTVSPost2010PropOp36
 70
     1
102
RTVSPost2010Prop37
 90
       50
102
RTVSPost2010PropOp37
 70
     1
102
RTVSPost2010Prop38
140
0.0
102
RTVSPost2010PropOp38
 70
     1
102
RTVSPost2010Prop39
140
1.0
102
RTVSPost2010PropOp39
 70
     1
102
RTVSPost2010Prop40
 90
        0
102
RTVSPost2010PropOp40
 70
     1
102
RTVSPost2010Prop41ColorIndex
 90
       18
102
RTVSPost2010Prop41ColorRGB
 90
        0
102
RTVSPost2010PropOp41
 70
     1
102
RTVSPost2010Prop42
 90
       50
102
RTVSPost2010PropOp42
 70
     1
102
RTVSPost2010Prop43
 90
        3
102
RTVSPost2010PropOp43
 70
     1
102
RTVSPost2010Prop44ColorIndex
 90
        5
102
RTVSPost2010Prop44ColorRGB
 90
      255
102
RTVSPost2010PropOp44
 70
     1
102
RTVSPost2010Prop45
280
     0
102
RTVSPost2010PropOp45
 70
     1
102
RTVSPost2010Prop46
 90
       50
102
RTVSPost2010PropOp46
 70
     1
102
RTVSPost2010Prop47
 90
       50
102
RTVSPost2010PropOp47
 70
     1
102
RTVSPost2010Prop48
 90
       50
102
RTVSPost2010PropOp48
 70
     1
102
RTVSPost2010Prop49
280
     0
102
RTVSPost2010PropOp49
 70
     1
102
RTVSPost2010Prop50
 90
       50
102
RTVSPost2010PropOp50
 70
     1
102
RTVSPost2010Prop51ColorIndex
 90
      256
102
RTVSPost2010Prop51ColorRGB
 90
-16777216
102
RTVSPost2010PropOp51
 70
     0
102
RTVSPost2010Prop52
140
1.0
102
RTVSPost2010PropOp52
 70
     0
102
RTVSPost2010Prop53
 90
        2
102
RTVSPost2010PropOp53
 70
     1
102
RTVSPost2010Prop54
  1
strokes_ogs.tif
102
RTVSPost2010PropOp54
 70
     1
102
RTVSPost2010Prop55
280
     0
102
RTVSPost2010PropOp55
 70
     1
102
RTVSPost2010Prop56
140
1.0
102
RTVSPost2010PropOp56
 70
     1
102
RTVSPost2010Prop57
140
1.0
102
RTVSPost2010PropOp57
 70
     1
102
RTVSPropertyOp0
 70
     1
102
RTVSPropertyOp1
 70
     1
102
RTVSPropertyOp2
 70
     1
102
RTVSPropertyOp3
 70
     1
102
RTVSPropertyOp4
 70
     1
102
RTVSPropertyOp5
 70
     1
102
RTVSPropertyOp6
 70
     1
102
RTVSPropertyOp7
 70
     1
102
RTVSPropertyOp8
 70
     1
102
RTVSPropertyOp9
 70
     1
102
RTVSPropertyOp10
 70
     1
102
RTVSPropertyOp11
 70
     1
102
RTVSPropertyOp12
 70
     1
102
RTVSPropertyOp13
 70
     1
102
RTVSPropertyOp14
 70
     1
102
RTVSPropertyOp15
 70
     1
102
RTVSPropertyOp16
 70
     1
102
RTVSPropertyOp17
 70
     1
102
RTVSPropertyOp18
 70
     1
102
RTVSPropertyOp19
 70
     1
102
RTVSPropertyOp20
 70
     1
102
RTVSPropertyOp21
 70
     1
102
RTVSPropertyOp22
 70
     1
102
RTVSPropertyOp23
 70
     1
102
RTVSPropertyOp24
 70
     1
102
RTVSPropertyOp25
 70
     1
102
RTVSPropertyOp26
 70
     1
102
RTVSPropertyOp27
 70
     1
102
RTVSPropertyOp28
 70
     1
102
RTVSPropertyOp29
 70
     1
102
RTVSPropertyOp30
 70
     1
102
RTVSPropertyOp31
 70
     1
102
RTVSPropertyOp32
 70
     1
102
RTVSPropertyOp33
 70
     1
102
RTVSPropertyOp34
 70
     1
102
RTVSPropertyOp35
 70
     1
102
RTVSPropertyOp36
 70
     1
102
RTVSPropertyOp37
 70
     1
102
RTVSPropertyOp38
 70
     1
102
RTVSPropertyOp39
 70
     1
102
RTVSPropertyOp40
 70
     1
102
RTVSPropertyOp41
 70
     1
102
RTVSPropertyOp42
 70
     1
102
RTVSPropertyOp43
 70
     1
102
RTVSPropertyOp44
 70
     1
102
RTVSPropertyOp45
 70
     1
102
RTVSPropertyOp46
 70
     1
102
RTVSPropertyOp47
 70
     1
102
RTVSPropertyOp48
 70
     1
102
RTVSPropertyOp49
 70
     1
102
RTVSPropertyOp50
 70
     1
102
RTVSPropertyOp51
 70
     0
102
RTVSPropertyOp52
 70
     0
102
RTVSPropertyOp53
 70
     1
102
RTVSPropertyOp54
 70
     1
102
RTVSPropertyOp55
 70
     1
102
RTVSPropertyOp56
 70
     1
102
RTVSPropertyOp57
 70
     1
102
RTVSPropertyOp58
 70
     1
102
RTVSPropertyOp59
 70
     1
102
RTVSPropertyOp60
 70
     1
102
RTVSPropertyOp61
 70
     1
102
RTVSPropertyOp62
 70
     1
  0
XRECORD
  5
9EA9
102
{ACAD_REACTORS
330
9EA8
102
}
330
9EA8
100
AcDbXrecord
280
     1
102
RTVSPost2010Prop28
280
     0
102
RTVSPost2010PropOp28
 70
     1
102
RTVSPost2010Prop29
280
     1
102
RTVSPost2010PropOp29
 70
     1
102
RTVSPost2010Prop30
280
     1
102
RTVSPost2010PropOp30
 70
     1
102
RTVSPost2010Prop31
280
     0
102
RTVSPost2010PropOp31
 70
     1
102
RTVSPost2010Prop32
280
     0
102
RTVSPost2010PropOp32
 70
     1
102
RTVSPost2010Prop33
280
     0
102
RTVSPost2010PropOp33
 70
     1
102
RTVSPost2010Prop34
280
     0
102
RTVSPost2010PropOp34
 70
     1
102
RTVSPost2010Prop35
280
     0
102
RTVSPost2010PropOp35
 70
     1
102
RTVSPost2010Prop36
280
     0
102
RTVSPost2010PropOp36
 70
     1
102
RTVSPost2010Prop37
 90
       50
102
RTVSPost2010PropOp37
 70
     1
102
RTVSPost2010Prop38
140
0.0
102
RTVSPost2010PropOp38
 70
     1
102
RTVSPost2010Prop39
140
1.0
102
RTVSPost2010PropOp39
 70
     1
102
RTVSPost2010Prop40
 90
        0
102
RTVSPost2010PropOp40
 70
     1
102
RTVSPost2010Prop41ColorIndex
 90
       18
102
RTVSPost2010Prop41ColorRGB
 90
        0
102
RTVSPost2010PropOp41
 70
     1
102
RTVSPost2010Prop42
 90
       50
102
RTVSPost2010PropOp42
 70
     1
102
RTVSPost2010Prop43
 90
        3
102
RTVSPost2010PropOp43
 70
     1
102
RTVSPost2010Prop44ColorIndex
 90
        5
102
RTVSPost2010Prop44ColorRGB
 90
      255
102
RTVSPost2010PropOp44
 70
     1
102
RTVSPost2010Prop45
280
     0
102
RTVSPost2010PropOp45
 70
     1
102
RTVSPost2010Prop46
 90
       50
102
RTVSPost2010PropOp46
 70
     1
102
RTVSPost2010Prop47
 90
       50
102
RTVSPost2010PropOp47
 70
     1
102
RTVSPost2010Prop48
 90
       50
102
RTVSPost2010PropOp48
 70
     1
102
RTVSPost2010Prop49
280
     0
102
RTVSPost2010PropOp49
 70
     1
102
RTVSPost2010Prop50
 90
       50
102
RTVSPost2010PropOp50
 70
     1
102
RTVSPost2010Prop51ColorIndex
 90
      256
102
RTVSPost2010Prop51ColorRGB
 90
-16777216
102
RTVSPost2010PropOp51
 70
     0
102
RTVSPost2010Prop52
140
1.0
102
RTVSPost2010PropOp52
 70
     0
102
RTVSPost2010Prop53
 90
        2
102
RTVSPost2010PropOp53
 70
     1
102
RTVSPost2010Prop54
  1
strokes_ogs.tif
102
RTVSPost2010PropOp54
 70
     1
102
RTVSPost2010Prop55
280
     0
102
RTVSPost2010PropOp55
 70
     1
102
RTVSPost2010Prop56
140
1.0
102
RTVSPost2010PropOp56
 70
     1
102
RTVSPost2010Prop57
140
1.0
102
RTVSPost2010PropOp57
 70
     1
102
RTVSPropertyOp0
 70
     1
102
RTVSPropertyOp1
 70
     1
102
RTVSPropertyOp2
 70
     1
102
RTVSPropertyOp3
 70
     1
102
RTVSPropertyOp4
 70
     1
102
RTVSPropertyOp5
 70
     1
102
RTVSPropertyOp6
 70
     1
102
RTVSPropertyOp7
 70
     1
102
RTVSPropertyOp8
 70
     1
102
RTVSPropertyOp9
 70
     1
102
RTVSPropertyOp10
 70
     1
102
RTVSPropertyOp11
 70
     1
102
RTVSPropertyOp12
 70
     1
102
RTVSPropertyOp13
 70
     1
102
RTVSPropertyOp14
 70
     1
102
RTVSPropertyOp15
 70
     1
102
RTVSPropertyOp16
 70
     1
102
RTVSPropertyOp17
 70
     1
102
RTVSPropertyOp18
 70
     1
102
RTVSPropertyOp19
 70
     1
102
RTVSPropertyOp20
 70
     1
102
RTVSPropertyOp21
 70
     1
102
RTVSPropertyOp22
 70
     1
102
RTVSPropertyOp23
 70
     1
102
RTVSPropertyOp24
 70
     1
102
RTVSPropertyOp25
 70
     1
102
RTVSPropertyOp26
 70
     1
102
RTVSPropertyOp27
 70
     1
102
RTVSPropertyOp28
 70
     1
102
RTVSPropertyOp29
 70
     1
102
RTVSPropertyOp30
 70
     1
102
RTVSPropertyOp31
 70
     1
102
RTVSPropertyOp32
 70
     1
102
RTVSPropertyOp33
 70
     1
102
RTVSPropertyOp34
 70
     1
102
RTVSPropertyOp35
 70
     1
102
RTVSPropertyOp36
 70
     1
102
RTVSPropertyOp37
 70
     1
102
RTVSPropertyOp38
 70
     1
102
RTVSPropertyOp39
 70
     1
102
RTVSPropertyOp40
 70
     1
102
RTVSPropertyOp41
 70
     1
102
RTVSPropertyOp42
 70
     1
102
RTVSPropertyOp43
 70
     1
102
RTVSPropertyOp44
 70
     1
102
RTVSPropertyOp45
 70
     1
102
RTVSPropertyOp46
 70
     1
102
RTVSPropertyOp47
 70
     1
102
RTVSPropertyOp48
 70
     1
102
RTVSPropertyOp49
 70
     1
102
RTVSPropertyOp50
 70
     1
102
RTVSPropertyOp51
 70
     0
102
RTVSPropertyOp52
 70
     0
102
RTVSPropertyOp53
 70
     1
102
RTVSPropertyOp54
 70
     1
102
RTVSPropertyOp55
 70
     1
102
RTVSPropertyOp56
 70
     1
102
RTVSPropertyOp57
 70
     1
102
RTVSPropertyOp58
 70
     1
102
RTVSPropertyOp59
 70
     1
102
RTVSPropertyOp60
 70
     1
102
RTVSPropertyOp61
 70
     1
102
RTVSPropertyOp62
 70
     1
  0
XRECORD
  5
9EB1
102
{ACAD_REACTORS
330
9EB0
102
}
330
9EB0
100
AcDbXrecord
280
     1
102
RTVSPost2010Prop28
280
     0
102
RTVSPost2010PropOp28
 70
     1
102
RTVSPost2010Prop29
280
     1
102
RTVSPost2010PropOp29
 70
     1
102
RTVSPost2010Prop30
280
     1
102
RTVSPost2010PropOp30
 70
     1
102
RTVSPost2010Prop31
280
     0
102
RTVSPost2010PropOp31
 70
     1
102
RTVSPost2010Prop32
280
     0
102
RTVSPost2010PropOp32
 70
     1
102
RTVSPost2010Prop33
280
     0
102
RTVSPost2010PropOp33
 70
     1
102
RTVSPost2010Prop34
280
     0
102
RTVSPost2010PropOp34
 70
     1
102
RTVSPost2010Prop35
280
     0
102
RTVSPost2010PropOp35
 70
     1
102
RTVSPost2010Prop36
280
     0
102
RTVSPost2010PropOp36
 70
     1
102
RTVSPost2010Prop37
 90
       50
102
RTVSPost2010PropOp37
 70
     1
102
RTVSPost2010Prop38
140
0.0
102
RTVSPost2010PropOp38
 70
     1
102
RTVSPost2010Prop39
140
1.0
102
RTVSPost2010PropOp39
 70
     1
102
RTVSPost2010Prop40
 90
        0
102
RTVSPost2010PropOp40
 70
     1
102
RTVSPost2010Prop41ColorIndex
 90
       18
102
RTVSPost2010Prop41ColorRGB
 90
        0
102
RTVSPost2010PropOp41
 70
     1
102
RTVSPost2010Prop42
 90
       50
102
RTVSPost2010PropOp42
 70
     1
102
RTVSPost2010Prop43
 90
        3
102
RTVSPost2010PropOp43
 70
     1
102
RTVSPost2010Prop44ColorIndex
 90
        5
102
RTVSPost2010Prop44ColorRGB
 90
      255
102
RTVSPost2010PropOp44
 70
     1
102
RTVSPost2010Prop45
280
     0
102
RTVSPost2010PropOp45
 70
     1
102
RTVSPost2010Prop46
 90
       50
102
RTVSPost2010PropOp46
 70
     1
102
RTVSPost2010Prop47
 90
       50
102
RTVSPost2010PropOp47
 70
     1
102
RTVSPost2010Prop48
 90
       50
102
RTVSPost2010PropOp48
 70
     1
102
RTVSPost2010Prop49
280
     0
102
RTVSPost2010PropOp49
 70
     1
102
RTVSPost2010Prop50
 90
       50
102
RTVSPost2010PropOp50
 70
     1
102
RTVSPost2010Prop51ColorIndex
 90
      256
102
RTVSPost2010Prop51ColorRGB
 90
-16777216
102
RTVSPost2010PropOp51
 70
     0
102
RTVSPost2010Prop52
140
1.0
102
RTVSPost2010PropOp52
 70
     0
102
RTVSPost2010Prop53
 90
        2
102
RTVSPost2010PropOp53
 70
     1
102
RTVSPost2010Prop54
  1
strokes_ogs.tif
102
RTVSPost2010PropOp54
 70
     1
102
RTVSPost2010Prop55
280
     0
102
RTVSPost2010PropOp55
 70
     1
102
RTVSPost2010Prop56
140
1.0
102
RTVSPost2010PropOp56
 70
     1
102
RTVSPost2010Prop57
140
1.0
102
RTVSPost2010PropOp57
 70
     1
102
RTVSPropertyOp0
 70
     1
102
RTVSPropertyOp1
 70
     1
102
RTVSPropertyOp2
 70
     1
102
RTVSPropertyOp3
 70
     1
102
RTVSPropertyOp4
 70
     1
102
RTVSPropertyOp5
 70
     1
102
RTVSPropertyOp6
 70
     1
102
RTVSPropertyOp7
 70
     1
102
RTVSPropertyOp8
 70
     1
102
RTVSPropertyOp9
 70
     1
102
RTVSPropertyOp10
 70
     1
102
RTVSPropertyOp11
 70
     1
102
RTVSPropertyOp12
 70
     1
102
RTVSPropertyOp13
 70
     1
102
RTVSPropertyOp14
 70
     1
102
RTVSPropertyOp15
 70
     1
102
RTVSPropertyOp16
 70
     1
102
RTVSPropertyOp17
 70
     1
102
RTVSPropertyOp18
 70
     1
102
RTVSPropertyOp19
 70
     1
102
RTVSPropertyOp20
 70
     1
102
RTVSPropertyOp21
 70
     1
102
RTVSPropertyOp22
 70
     1
102
RTVSPropertyOp23
 70
     1
102
RTVSPropertyOp24
 70
     1
102
RTVSPropertyOp25
 70
     1
102
RTVSPropertyOp26
 70
     1
102
RTVSPropertyOp27
 70
     1
102
RTVSPropertyOp28
 70
     1
102
RTVSPropertyOp29
 70
     1
102
RTVSPropertyOp30
 70
     1
102
RTVSPropertyOp31
 70
     1
102
RTVSPropertyOp32
 70
     1
102
RTVSPropertyOp33
 70
     1
102
RTVSPropertyOp34
 70
     1
102
RTVSPropertyOp35
 70
     1
102
RTVSPropertyOp36
 70
     1
102
RTVSPropertyOp37
 70
     1
102
RTVSPropertyOp38
 70
     1
102
RTVSPropertyOp39
 70
     1
102
RTVSPropertyOp40
 70
     1
102
RTVSPropertyOp41
 70
     1
102
RTVSPropertyOp42
 70
     1
102
RTVSPropertyOp43
 70
     1
102
RTVSPropertyOp44
 70
     1
102
RTVSPropertyOp45
 70
     1
102
RTVSPropertyOp46
 70
     1
102
RTVSPropertyOp47
 70
     1
102
RTVSPropertyOp48
 70
     1
102
RTVSPropertyOp49
 70
     1
102
RTVSPropertyOp50
 70
     1
102
RTVSPropertyOp51
 70
     0
102
RTVSPropertyOp52
 70
     0
102
RTVSPropertyOp53
 70
     1
102
RTVSPropertyOp54
 70
     1
102
RTVSPropertyOp55
 70
     1
102
RTVSPropertyOp56
 70
     1
102
RTVSPropertyOp57
 70
     1
102
RTVSPropertyOp58
 70
     1
102
RTVSPropertyOp59
 70
     1
102
RTVSPropertyOp60
 70
     1
102
RTVSPropertyOp61
 70
     1
102
RTVSPropertyOp62
 70
     1
  0
XRECORD
  5
9EA3
102
{ACAD_REACTORS
330
9EA2
102
}
330
9EA2
100
AcDbXrecord
280
     1
102
RTVSPost2010Prop28
280
     0
102
RTVSPost2010PropOp28
 70
     1
102
RTVSPost2010Prop29
280
     1
102
RTVSPost2010PropOp29
 70
     1
102
RTVSPost2010Prop30
280
     1
102
RTVSPost2010PropOp30
 70
     1
102
RTVSPost2010Prop31
280
     0
102
RTVSPost2010PropOp31
 70
     1
102
RTVSPost2010Prop32
280
     0
102
RTVSPost2010PropOp32
 70
     1
102
RTVSPost2010Prop33
280
     0
102
RTVSPost2010PropOp33
 70
     1
102
RTVSPost2010Prop34
280
     0
102
RTVSPost2010PropOp34
 70
     1
102
RTVSPost2010Prop35
280
     0
102
RTVSPost2010PropOp35
 70
     1
102
RTVSPost2010Prop36
280
     0
102
RTVSPost2010PropOp36
 70
     1
102
RTVSPost2010Prop37
 90
       50
102
RTVSPost2010PropOp37
 70
     1
102
RTVSPost2010Prop38
140
0.0
102
RTVSPost2010PropOp38
 70
     1
102
RTVSPost2010Prop39
140
1.0
102
RTVSPost2010PropOp39
 70
     1
102
RTVSPost2010Prop40
 90
        0
102
RTVSPost2010PropOp40
 70
     1
102
RTVSPost2010Prop41ColorIndex
 90
       18
102
RTVSPost2010Prop41ColorRGB
 90
        0
102
RTVSPost2010PropOp41
 70
     1
102
RTVSPost2010Prop42
 90
       50
102
RTVSPost2010PropOp42
 70
     1
102
RTVSPost2010Prop43
 90
        3
102
RTVSPost2010PropOp43
 70
     1
102
RTVSPost2010Prop44ColorIndex
 90
        5
102
RTVSPost2010Prop44ColorRGB
 90
      255
102
RTVSPost2010PropOp44
 70
     1
102
RTVSPost2010Prop45
280
     0
102
RTVSPost2010PropOp45
 70
     1
102
RTVSPost2010Prop46
 90
       50
102
RTVSPost2010PropOp46
 70
     1
102
RTVSPost2010Prop47
 90
       50
102
RTVSPost2010PropOp47
 70
     1
102
RTVSPost2010Prop48
 90
       50
102
RTVSPost2010PropOp48
 70
     1
102
RTVSPost2010Prop49
280
     0
102
RTVSPost2010PropOp49
 70
     1
102
RTVSPost2010Prop50
 90
       50
102
RTVSPost2010PropOp50
 70
     1
102
RTVSPost2010Prop51ColorIndex
 90
      256
102
RTVSPost2010Prop51ColorRGB
 90
-16777216
102
RTVSPost2010PropOp51
 70
     0
102
RTVSPost2010Prop52
140
1.0
102
RTVSPost2010PropOp52
 70
     0
102
RTVSPost2010Prop53
 90
        2
102
RTVSPost2010PropOp53
 70
     1
102
RTVSPost2010Prop54
  1
strokes_ogs.tif
102
RTVSPost2010PropOp54
 70
     1
102
RTVSPost2010Prop55
280
     0
102
RTVSPost2010PropOp55
 70
     1
102
RTVSPost2010Prop56
140
1.0
102
RTVSPost2010PropOp56
 70
     1
102
RTVSPost2010Prop57
140
1.0
102
RTVSPost2010PropOp57
 70
     1
102
RTVSPropertyOp0
 70
     1
102
RTVSPropertyOp1
 70
     1
102
RTVSPropertyOp2
 70
     1
102
RTVSPropertyOp3
 70
     1
102
RTVSPropertyOp4
 70
     1
102
RTVSPropertyOp5
 70
     1
102
RTVSPropertyOp6
 70
     1
102
RTVSPropertyOp7
 70
     1
102
RTVSPropertyOp8
 70
     1
102
RTVSPropertyOp9
 70
     1
102
RTVSPropertyOp10
 70
     1
102
RTVSPropertyOp11
 70
     1
102
RTVSPropertyOp12
 70
     1
102
RTVSPropertyOp13
 70
     1
102
RTVSPropertyOp14
 70
     1
102
RTVSPropertyOp15
 70
     1
102
RTVSPropertyOp16
 70
     1
102
RTVSPropertyOp17
 70
     1
102
RTVSPropertyOp18
 70
     1
102
RTVSPropertyOp19
 70
     1
102
RTVSPropertyOp20
 70
     1
102
RTVSPropertyOp21
 70
     1
102
RTVSPropertyOp22
 70
     1
102
RTVSPropertyOp23
 70
     1
102
RTVSPropertyOp24
 70
     1
102
RTVSPropertyOp25
 70
     1
102
RTVSPropertyOp26
 70
     1
102
RTVSPropertyOp27
 70
     1
102
RTVSPropertyOp28
 70
     1
102
RTVSPropertyOp29
 70
     1
102
RTVSPropertyOp30
 70
     1
102
RTVSPropertyOp31
 70
     1
102
RTVSPropertyOp32
 70
     1
102
RTVSPropertyOp33
 70
     1
102
RTVSPropertyOp34
 70
     1
102
RTVSPropertyOp35
 70
     1
102
RTVSPropertyOp36
 70
     1
102
RTVSPropertyOp37
 70
     1
102
RTVSPropertyOp38
 70
     1
102
RTVSPropertyOp39
 70
     1
102
RTVSPropertyOp40
 70
     1
102
RTVSPropertyOp41
 70
     1
102
RTVSPropertyOp42
 70
     1
102
RTVSPropertyOp43
 70
     1
102
RTVSPropertyOp44
 70
     1
102
RTVSPropertyOp45
 70
     1
102
RTVSPropertyOp46
 70
     1
102
RTVSPropertyOp47
 70
     1
102
RTVSPropertyOp48
 70
     1
102
RTVSPropertyOp49
 70
     1
102
RTVSPropertyOp50
 70
     1
102
RTVSPropertyOp51
 70
     0
102
RTVSPropertyOp52
 70
     0
102
RTVSPropertyOp53
 70
     1
102
RTVSPropertyOp54
 70
     1
102
RTVSPropertyOp55
 70
     1
102
RTVSPropertyOp56
 70
     1
102
RTVSPropertyOp57
 70
     1
102
RTVSPropertyOp58
 70
     1
102
RTVSPropertyOp59
 70
     1
102
RTVSPropertyOp60
 70
     1
102
RTVSPropertyOp61
 70
     1
102
RTVSPropertyOp62
 70
     1
  0
XRECORD
  5
9EA7
102
{ACAD_REACTORS
330
9EA6
102
}
330
9EA6
100
AcDbXrecord
280
     1
102
RTVSPost2010Prop28
280
     0
102
RTVSPost2010PropOp28
 70
     1
102
RTVSPost2010Prop29
280
     1
102
RTVSPost2010PropOp29
 70
     1
102
RTVSPost2010Prop30
280
     1
102
RTVSPost2010PropOp30
 70
     1
102
RTVSPost2010Prop31
280
     0
102
RTVSPost2010PropOp31
 70
     1
102
RTVSPost2010Prop32
280
     0
102
RTVSPost2010PropOp32
 70
     1
102
RTVSPost2010Prop33
280
     0
102
RTVSPost2010PropOp33
 70
     1
102
RTVSPost2010Prop34
280
     0
102
RTVSPost2010PropOp34
 70
     1
102
RTVSPost2010Prop35
280
     0
102
RTVSPost2010PropOp35
 70
     1
102
RTVSPost2010Prop36
280
     0
102
RTVSPost2010PropOp36
 70
     1
102
RTVSPost2010Prop37
 90
       50
102
RTVSPost2010PropOp37
 70
     1
102
RTVSPost2010Prop38
140
0.0
102
RTVSPost2010PropOp38
 70
     1
102
RTVSPost2010Prop39
140
1.0
102
RTVSPost2010PropOp39
 70
     1
102
RTVSPost2010Prop40
 90
        0
102
RTVSPost2010PropOp40
 70
     1
102
RTVSPost2010Prop41ColorIndex
 90
       18
102
RTVSPost2010Prop41ColorRGB
 90
        0
102
RTVSPost2010PropOp41
 70
     1
102
RTVSPost2010Prop42
 90
       50
102
RTVSPost2010PropOp42
 70
     1
102
RTVSPost2010Prop43
 90
        3
102
RTVSPost2010PropOp43
 70
     1
102
RTVSPost2010Prop44ColorIndex
 90
        5
102
RTVSPost2010Prop44ColorRGB
 90
      255
102
RTVSPost2010PropOp44
 70
     1
102
RTVSPost2010Prop45
280
     0
102
RTVSPost2010PropOp45
 70
     1
102
RTVSPost2010Prop46
 90
       50
102
RTVSPost2010PropOp46
 70
     1
102
RTVSPost2010Prop47
 90
       50
102
RTVSPost2010PropOp47
 70
     1
102
RTVSPost2010Prop48
 90
       50
102
RTVSPost2010PropOp48
 70
     1
102
RTVSPost2010Prop49
280
     0
102
RTVSPost2010PropOp49
 70
     1
102
RTVSPost2010Prop50
 90
       50
102
RTVSPost2010PropOp50
 70
     1
102
RTVSPost2010Prop51ColorIndex
 90
      256
102
RTVSPost2010Prop51ColorRGB
 90
-16777216
102
RTVSPost2010PropOp51
 70
     0
102
RTVSPost2010Prop52
140
1.0
102
RTVSPost2010PropOp52
 70
     0
102
RTVSPost2010Prop53
 90
        2
102
RTVSPost2010PropOp53
 70
     1
102
RTVSPost2010Prop54
  1
strokes_ogs.tif
102
RTVSPost2010PropOp54
 70
     1
102
RTVSPost2010Prop55
280
     0
102
RTVSPost2010PropOp55
 70
     1
102
RTVSPost2010Prop56
140
1.0
102
RTVSPost2010PropOp56
 70
     1
102
RTVSPost2010Prop57
140
1.0
102
RTVSPost2010PropOp57
 70
     1
102
RTVSPropertyOp0
 70
     1
102
RTVSPropertyOp1
 70
     1
102
RTVSPropertyOp2
 70
     1
102
RTVSPropertyOp3
 70
     1
102
RTVSPropertyOp4
 70
     1
102
RTVSPropertyOp5
 70
     1
102
RTVSPropertyOp6
 70
     1
102
RTVSPropertyOp7
 70
     1
102
RTVSPropertyOp8
 70
     1
102
RTVSPropertyOp9
 70
     1
102
RTVSPropertyOp10
 70
     1
102
RTVSPropertyOp11
 70
     1
102
RTVSPropertyOp12
 70
     1
102
RTVSPropertyOp13
 70
     1
102
RTVSPropertyOp14
 70
     1
102
RTVSPropertyOp15
 70
     1
102
RTVSPropertyOp16
 70
     1
102
RTVSPropertyOp17
 70
     1
102
RTVSPropertyOp18
 70
     1
102
RTVSPropertyOp19
 70
     1
102
RTVSPropertyOp20
 70
     1
102
RTVSPropertyOp21
 70
     1
102
RTVSPropertyOp22
 70
     1
102
RTVSPropertyOp23
 70
     1
102
RTVSPropertyOp24
 70
     1
102
RTVSPropertyOp25
 70
     1
102
RTVSPropertyOp26
 70
     1
102
RTVSPropertyOp27
 70
     1
102
RTVSPropertyOp28
 70
     1
102
RTVSPropertyOp29
 70
     1
102
RTVSPropertyOp30
 70
     1
102
RTVSPropertyOp31
 70
     1
102
RTVSPropertyOp32
 70
     1
102
RTVSPropertyOp33
 70
     1
102
RTVSPropertyOp34
 70
     1
102
RTVSPropertyOp35
 70
     1
102
RTVSPropertyOp36
 70
     1
102
RTVSPropertyOp37
 70
     1
102
RTVSPropertyOp38
 70
     1
102
RTVSPropertyOp39
 70
     1
102
RTVSPropertyOp40
 70
     1
102
RTVSPropertyOp41
 70
     1
102
RTVSPropertyOp42
 70
     1
102
RTVSPropertyOp43
 70
     1
102
RTVSPropertyOp44
 70
     1
102
RTVSPropertyOp45
 70
     1
102
RTVSPropertyOp46
 70
     1
102
RTVSPropertyOp47
 70
     1
102
RTVSPropertyOp48
 70
     1
102
RTVSPropertyOp49
 70
     1
102
RTVSPropertyOp50
 70
     1
102
RTVSPropertyOp51
 70
     0
102
RTVSPropertyOp52
 70
     0
102
RTVSPropertyOp53
 70
     1
102
RTVSPropertyOp54
 70
     1
102
RTVSPropertyOp55
 70
     1
102
RTVSPropertyOp56
 70
     1
102
RTVSPropertyOp57
 70
     1
102
RTVSPropertyOp58
 70
     1
102
RTVSPropertyOp59
 70
     1
102
RTVSPropertyOp60
 70
     1
102
RTVSPropertyOp61
 70
     1
102
RTVSPropertyOp62
 70
     1
  0
XRECORD
  5
9EC1
102
{ACAD_REACTORS
330
9EC0
102
}
330
9EC0
100
AcDbXrecord
280
     1
102
RTVSPost2010Prop28
280
     0
102
RTVSPost2010PropOp28
 70
     1
102
RTVSPost2010Prop29
280
     1
102
RTVSPost2010PropOp29
 70
     1
102
RTVSPost2010Prop30
280
     1
102
RTVSPost2010PropOp30
 70
     1
102
RTVSPost2010Prop31
280
     0
102
RTVSPost2010PropOp31
 70
     1
102
RTVSPost2010Prop32
280
     0
102
RTVSPost2010PropOp32
 70
     1
102
RTVSPost2010Prop33
280
     0
102
RTVSPost2010PropOp33
 70
     1
102
RTVSPost2010Prop34
280
     0
102
RTVSPost2010PropOp34
 70
     1
102
RTVSPost2010Prop35
280
     0
102
RTVSPost2010PropOp35
 70
     1
102
RTVSPost2010Prop36
280
     0
102
RTVSPost2010PropOp36
 70
     1
102
RTVSPost2010Prop37
 90
       50
102
RTVSPost2010PropOp37
 70
     0
102
RTVSPost2010Prop38
140
0.0
102
RTVSPost2010PropOp38
 70
     0
102
RTVSPost2010Prop39
140
1.0
102
RTVSPost2010PropOp39
 70
     0
102
RTVSPost2010Prop40
 90
        0
102
RTVSPost2010PropOp40
 70
     0
102
RTVSPost2010Prop41ColorIndex
 90
       18
102
RTVSPost2010Prop41ColorRGB
 90
        0
102
RTVSPost2010PropOp41
 70
     0
102
RTVSPost2010Prop42
 90
       50
102
RTVSPost2010PropOp42
 70
     0
102
RTVSPost2010Prop43
 90
        3
102
RTVSPost2010PropOp43
 70
     0
102
RTVSPost2010Prop44ColorIndex
 90
        5
102
RTVSPost2010Prop44ColorRGB
 90
      255
102
RTVSPost2010PropOp44
 70
     0
102
RTVSPost2010Prop45
280
     0
102
RTVSPost2010PropOp45
 70
     1
102
RTVSPost2010Prop46
 90
       50
102
RTVSPost2010PropOp46
 70
     0
102
RTVSPost2010Prop47
 90
       50
102
RTVSPost2010PropOp47
 70
     0
102
RTVSPost2010Prop48
 90
       50
102
RTVSPost2010PropOp48
 70
     0
102
RTVSPost2010Prop49
280
     0
102
RTVSPost2010PropOp49
 70
     1
102
RTVSPost2010Prop50
 90
       50
102
RTVSPost2010PropOp50
 70
     0
102
RTVSPost2010Prop51ColorIndex
 90
      256
102
RTVSPost2010Prop51ColorRGB
 90
-16777216
102
RTVSPost2010PropOp51
 70
     0
102
RTVSPost2010Prop52
140
1.0
102
RTVSPost2010PropOp52
 70
     0
102
RTVSPost2010Prop53
 90
        2
102
RTVSPost2010PropOp53
 70
     0
102
RTVSPost2010Prop54
  1
strokes_ogs.tif
102
RTVSPost2010PropOp54
 70
     0
102
RTVSPost2010Prop55
280
     0
102
RTVSPost2010PropOp55
 70
     1
102
RTVSPost2010Prop56
140
1.0
102
RTVSPost2010PropOp56
 70
     0
102
RTVSPost2010Prop57
140
1.0
102
RTVSPost2010PropOp57
 70
     0
102
RTVSPropertyOp0
 70
     0
102
RTVSPropertyOp1
 70
     0
102
RTVSPropertyOp2
 70
     0
102
RTVSPropertyOp3
 70
     0
102
RTVSPropertyOp4
 70
     0
102
RTVSPropertyOp5
 70
     0
102
RTVSPropertyOp6
 70
     0
102
RTVSPropertyOp7
 70
     0
102
RTVSPropertyOp8
 70
     0
102
RTVSPropertyOp9
 70
     0
102
RTVSPropertyOp10
 70
     0
102
RTVSPropertyOp11
 70
     0
102
RTVSPropertyOp12
 70
     0
102
RTVSPropertyOp13
 70
     0
102
RTVSPropertyOp14
 70
     2
102
RTVSPropertyOp15
 70
     0
102
RTVSPropertyOp16
 70
     0
102
RTVSPropertyOp17
 70
     0
102
RTVSPropertyOp18
 70
     0
102
RTVSPropertyOp19
 70
     0
102
RTVSPropertyOp20
 70
     0
102
RTVSPropertyOp21
 70
     0
102
RTVSPropertyOp22
 70
     0
102
RTVSPropertyOp23
 70
     0
102
RTVSPropertyOp24
 70
     0
102
RTVSPropertyOp25
 70
     0
102
RTVSPropertyOp26
 70
     0
102
RTVSPropertyOp27
 70
     0
102
RTVSPropertyOp28
 70
     1
102
RTVSPropertyOp29
 70
     1
102
RTVSPropertyOp30
 70
     1
102
RTVSPropertyOp31
 70
     1
102
RTVSPropertyOp32
 70
     1
102
RTVSPropertyOp33
 70
     1
102
RTVSPropertyOp34
 70
     1
102
RTVSPropertyOp35
 70
     1
102
RTVSPropertyOp36
 70
     1
102
RTVSPropertyOp37
 70
     0
102
RTVSPropertyOp38
 70
     0
102
RTVSPropertyOp39
 70
     0
102
RTVSPropertyOp40
 70
     0
102
RTVSPropertyOp41
 70
     0
102
RTVSPropertyOp42
 70
     0
102
RTVSPropertyOp43
 70
     0
102
RTVSPropertyOp44
 70
     0
102
RTVSPropertyOp45
 70
     1
102
RTVSPropertyOp46
 70
     0
102
RTVSPropertyOp47
 70
     0
102
RTVSPropertyOp48
 70
     0
102
RTVSPropertyOp49
 70
     1
102
RTVSPropertyOp50
 70
     0
102
RTVSPropertyOp51
 70
     0
102
RTVSPropertyOp52
 70
     0
102
RTVSPropertyOp53
 70
     0
102
RTVSPropertyOp54
 70
     0
102
RTVSPropertyOp55
 70
     1
102
RTVSPropertyOp56
 70
     0
102
RTVSPropertyOp57
 70
     0
102
RTVSPropertyOp58
 70
     0
102
RTVSPropertyOp59
 70
     0
102
RTVSPropertyOp60
 70
     0
102
RTVSPropertyOp61
 70
     0
102
RTVSPropertyOp62
 70
     0
  0
XRECORD
  5
9EAF
102
{ACAD_REACTORS
330
9EAE
102
}
330
9EAE
100
AcDbXrecord
280
     1
102
RTVSPost2010Prop28
280
     0
102
RTVSPost2010PropOp28
 70
     1
102
RTVSPost2010Prop29
280
     1
102
RTVSPost2010PropOp29
 70
     1
102
RTVSPost2010Prop30
280
     1
102
RTVSPost2010PropOp30
 70
     1
102
RTVSPost2010Prop31
280
     0
102
RTVSPost2010PropOp31
 70
     1
102
RTVSPost2010Prop32
280
     0
102
RTVSPost2010PropOp32
 70
     1
102
RTVSPost2010Prop33
280
     0
102
RTVSPost2010PropOp33
 70
     1
102
RTVSPost2010Prop34
280
     0
102
RTVSPost2010PropOp34
 70
     1
102
RTVSPost2010Prop35
280
     0
102
RTVSPost2010PropOp35
 70
     1
102
RTVSPost2010Prop36
280
     0
102
RTVSPost2010PropOp36
 70
     1
102
RTVSPost2010Prop37
 90
       50
102
RTVSPost2010PropOp37
 70
     1
102
RTVSPost2010Prop38
140
0.0
102
RTVSPost2010PropOp38
 70
     1
102
RTVSPost2010Prop39
140
1.0
102
RTVSPost2010PropOp39
 70
     1
102
RTVSPost2010Prop40
 90
        0
102
RTVSPost2010PropOp40
 70
     1
102
RTVSPost2010Prop41ColorIndex
 90
       18
102
RTVSPost2010Prop41ColorRGB
 90
        0
102
RTVSPost2010PropOp41
 70
     1
102
RTVSPost2010Prop42
 90
       50
102
RTVSPost2010PropOp42
 70
     1
102
RTVSPost2010Prop43
 90
        3
102
RTVSPost2010PropOp43
 70
     1
102
RTVSPost2010Prop44ColorIndex
 90
        5
102
RTVSPost2010Prop44ColorRGB
 90
      255
102
RTVSPost2010PropOp44
 70
     1
102
RTVSPost2010Prop45
280
     0
102
RTVSPost2010PropOp45
 70
     1
102
RTVSPost2010Prop46
 90
       50
102
RTVSPost2010PropOp46
 70
     1
102
RTVSPost2010Prop47
 90
       50
102
RTVSPost2010PropOp47
 70
     1
102
RTVSPost2010Prop48
 90
       50
102
RTVSPost2010PropOp48
 70
     1
102
RTVSPost2010Prop49
280
     0
102
RTVSPost2010PropOp49
 70
     1
102
RTVSPost2010Prop50
 90
       50
102
RTVSPost2010PropOp50
 70
     1
102
RTVSPost2010Prop51ColorIndex
 90
      256
102
RTVSPost2010Prop51ColorRGB
 90
-16777216
102
RTVSPost2010PropOp51
 70
     0
102
RTVSPost2010Prop52
140
1.0
102
RTVSPost2010PropOp52
 70
     0
102
RTVSPost2010Prop53
 90
        2
102
RTVSPost2010PropOp53
 70
     1
102
RTVSPost2010Prop54
  1
strokes_ogs.tif
102
RTVSPost2010PropOp54
 70
     1
102
RTVSPost2010Prop55
280
     0
102
RTVSPost2010PropOp55
 70
     1
102
RTVSPost2010Prop56
140
1.0
102
RTVSPost2010PropOp56
 70
     1
102
RTVSPost2010Prop57
140
1.0
102
RTVSPost2010PropOp57
 70
     1
102
RTVSPropertyOp0
 70
     1
102
RTVSPropertyOp1
 70
     1
102
RTVSPropertyOp2
 70
     1
102
RTVSPropertyOp3
 70
     1
102
RTVSPropertyOp4
 70
     1
102
RTVSPropertyOp5
 70
     1
102
RTVSPropertyOp6
 70
     1
102
RTVSPropertyOp7
 70
     1
102
RTVSPropertyOp8
 70
     1
102
RTVSPropertyOp9
 70
     1
102
RTVSPropertyOp10
 70
     1
102
RTVSPropertyOp11
 70
     1
102
RTVSPropertyOp12
 70
     1
102
RTVSPropertyOp13
 70
     1
102
RTVSPropertyOp14
 70
     1
102
RTVSPropertyOp15
 70
     1
102
RTVSPropertyOp16
 70
     1
102
RTVSPropertyOp17
 70
     1
102
RTVSPropertyOp18
 70
     1
102
RTVSPropertyOp19
 70
     1
102
RTVSPropertyOp20
 70
     1
102
RTVSPropertyOp21
 70
     1
102
RTVSPropertyOp22
 70
     1
102
RTVSPropertyOp23
 70
     1
102
RTVSPropertyOp24
 70
     1
102
RTVSPropertyOp25
 70
     1
102
RTVSPropertyOp26
 70
     1
102
RTVSPropertyOp27
 70
     1
102
RTVSPropertyOp28
 70
     1
102
RTVSPropertyOp29
 70
     1
102
RTVSPropertyOp30
 70
     1
102
RTVSPropertyOp31
 70
     1
102
RTVSPropertyOp32
 70
     1
102
RTVSPropertyOp33
 70
     1
102
RTVSPropertyOp34
 70
     1
102
RTVSPropertyOp35
 70
     1
102
RTVSPropertyOp36
 70
     1
102
RTVSPropertyOp37
 70
     1
102
RTVSPropertyOp38
 70
     1
102
RTVSPropertyOp39
 70
     1
102
RTVSPropertyOp40
 70
     1
102
RTVSPropertyOp41
 70
     1
102
RTVSPropertyOp42
 70
     1
102
RTVSPropertyOp43
 70
     1
102
RTVSPropertyOp44
 70
     1
102
RTVSPropertyOp45
 70
     1
102
RTVSPropertyOp46
 70
     1
102
RTVSPropertyOp47
 70
     1
102
RTVSPropertyOp48
 70
     1
102
RTVSPropertyOp49
 70
     1
102
RTVSPropertyOp50
 70
     1
102
RTVSPropertyOp51
 70
     0
102
RTVSPropertyOp52
 70
     0
102
RTVSPropertyOp53
 70
     1
102
RTVSPropertyOp54
 70
     1
102
RTVSPropertyOp55
 70
     1
102
RTVSPropertyOp56
 70
     1
102
RTVSPropertyOp57
 70
     1
102
RTVSPropertyOp58
 70
     1
102
RTVSPropertyOp59
 70
     1
102
RTVSPropertyOp60
 70
     1
102
RTVSPropertyOp61
 70
     1
102
RTVSPropertyOp62
 70
     1
  0
XRECORD
  5
9E93
102
{ACAD_REACTORS
330
9E92
102
}
330
9E92
100
AcDbXrecord
280
     1
102
RTVSPost2010Prop28
280
     0
102
RTVSPost2010PropOp28
 70
     1
102
RTVSPost2010Prop29
280
     1
102
RTVSPost2010PropOp29
 70
     1
102
RTVSPost2010Prop30
280
     1
102
RTVSPost2010PropOp30
 70
     1
102
RTVSPost2010Prop31
280
     0
102
RTVSPost2010PropOp31
 70
     1
102
RTVSPost2010Prop32
280
     0
102
RTVSPost2010PropOp32
 70
     1
102
RTVSPost2010Prop33
280
     0
102
RTVSPost2010PropOp33
 70
     1
102
RTVSPost2010Prop34
280
     0
102
RTVSPost2010PropOp34
 70
     1
102
RTVSPost2010Prop35
280
     0
102
RTVSPost2010PropOp35
 70
     1
102
RTVSPost2010Prop36
280
     0
102
RTVSPost2010PropOp36
 70
     1
102
RTVSPost2010Prop37
 90
       50
102
RTVSPost2010PropOp37
 70
     1
102
RTVSPost2010Prop38
140
0.0
102
RTVSPost2010PropOp38
 70
     1
102
RTVSPost2010Prop39
140
1.0
102
RTVSPost2010PropOp39
 70
     1
102
RTVSPost2010Prop40
 90
        0
102
RTVSPost2010PropOp40
 70
     1
102
RTVSPost2010Prop41ColorIndex
 90
       18
102
RTVSPost2010Prop41ColorRGB
 90
        0
102
RTVSPost2010PropOp41
 70
     1
102
RTVSPost2010Prop42
 90
       50
102
RTVSPost2010PropOp42
 70
     1
102
RTVSPost2010Prop43
 90
        3
102
RTVSPost2010PropOp43
 70
     1
102
RTVSPost2010Prop44ColorIndex
 90
        5
102
RTVSPost2010Prop44ColorRGB
 90
      255
102
RTVSPost2010PropOp44
 70
     1
102
RTVSPost2010Prop45
280
     0
102
RTVSPost2010PropOp45
 70
     1
102
RTVSPost2010Prop46
 90
       50
102
RTVSPost2010PropOp46
 70
     1
102
RTVSPost2010Prop47
 90
       50
102
RTVSPost2010PropOp47
 70
     1
102
RTVSPost2010Prop48
 90
       50
102
RTVSPost2010PropOp48
 70
     1
102
RTVSPost2010Prop49
280
     0
102
RTVSPost2010PropOp49
 70
     1
102
RTVSPost2010Prop50
 90
       50
102
RTVSPost2010PropOp50
 70
     1
102
RTVSPost2010Prop51ColorIndex
 90
      256
102
RTVSPost2010Prop51ColorRGB
 90
-16777216
102
RTVSPost2010PropOp51
 70
     0
102
RTVSPost2010Prop52
140
1.0
102
RTVSPost2010PropOp52
 70
     0
102
RTVSPost2010Prop53
 90
        2
102
RTVSPost2010PropOp53
 70
     1
102
RTVSPost2010Prop54
  1
strokes_ogs.tif
102
RTVSPost2010PropOp54
 70
     1
102
RTVSPost2010Prop55
280
     0
102
RTVSPost2010PropOp55
 70
     1
102
RTVSPost2010Prop56
140
1.0
102
RTVSPost2010PropOp56
 70
     1
102
RTVSPost2010Prop57
140
1.0
102
RTVSPost2010PropOp57
 70
     1
102
RTVSPropertyOp0
 70
     1
102
RTVSPropertyOp1
 70
     1
102
RTVSPropertyOp2
 70
     1
102
RTVSPropertyOp3
 70
     1
102
RTVSPropertyOp4
 70
     1
102
RTVSPropertyOp5
 70
     1
102
RTVSPropertyOp6
 70
     1
102
RTVSPropertyOp7
 70
     1
102
RTVSPropertyOp8
 70
     1
102
RTVSPropertyOp9
 70
     1
102
RTVSPropertyOp10
 70
     1
102
RTVSPropertyOp11
 70
     1
102
RTVSPropertyOp12
 70
     1
102
RTVSPropertyOp13
 70
     1
102
RTVSPropertyOp14
 70
     1
102
RTVSPropertyOp15
 70
     1
102
RTVSPropertyOp16
 70
     1
102
RTVSPropertyOp17
 70
     1
102
RTVSPropertyOp18
 70
     1
102
RTVSPropertyOp19
 70
     1
102
RTVSPropertyOp20
 70
     1
102
RTVSPropertyOp21
 70
     1
102
RTVSPropertyOp22
 70
     1
102
RTVSPropertyOp23
 70
     1
102
RTVSPropertyOp24
 70
     1
102
RTVSPropertyOp25
 70
     1
102
RTVSPropertyOp26
 70
     1
102
RTVSPropertyOp27
 70
     1
102
RTVSPropertyOp28
 70
     1
102
RTVSPropertyOp29
 70
     1
102
RTVSPropertyOp30
 70
     1
102
RTVSPropertyOp31
 70
     1
102
RTVSPropertyOp32
 70
     1
102
RTVSPropertyOp33
 70
     1
102
RTVSPropertyOp34
 70
     1
102
RTVSPropertyOp35
 70
     1
102
RTVSPropertyOp36
 70
     1
102
RTVSPropertyOp37
 70
     1
102
RTVSPropertyOp38
 70
     1
102
RTVSPropertyOp39
 70
     1
102
RTVSPropertyOp40
 70
     1
102
RTVSPropertyOp41
 70
     1
102
RTVSPropertyOp42
 70
     1
102
RTVSPropertyOp43
 70
     1
102
RTVSPropertyOp44
 70
     1
102
RTVSPropertyOp45
 70
     1
102
RTVSPropertyOp46
 70
     1
102
RTVSPropertyOp47
 70
     1
102
RTVSPropertyOp48
 70
     1
102
RTVSPropertyOp49
 70
     1
102
RTVSPropertyOp50
 70
     1
102
RTVSPropertyOp51
 70
     0
102
RTVSPropertyOp52
 70
     0
102
RTVSPropertyOp53
 70
     1
102
RTVSPropertyOp54
 70
     1
102
RTVSPropertyOp55
 70
     1
102
RTVSPropertyOp56
 70
     1
102
RTVSPropertyOp57
 70
     1
102
RTVSPropertyOp58
 70
     1
102
RTVSPropertyOp59
 70
     1
102
RTVSPropertyOp60
 70
     1
102
RTVSPropertyOp61
 70
     1
102
RTVSPropertyOp62
 70
     1
  0
XRECORD
  5
9E95
102
{ACAD_REACTORS
330
9E94
102
}
330
9E94
100
AcDbXrecord
280
     1
102
RTVSPost2010Prop28
280
     0
102
RTVSPost2010PropOp28
 70
     1
102
RTVSPost2010Prop29
280
     1
102
RTVSPost2010PropOp29
 70
     1
102
RTVSPost2010Prop30
280
     1
102
RTVSPost2010PropOp30
 70
     1
102
RTVSPost2010Prop31
280
     0
102
RTVSPost2010PropOp31
 70
     1
102
RTVSPost2010Prop32
280
     0
102
RTVSPost2010PropOp32
 70
     1
102
RTVSPost2010Prop33
280
     0
102
RTVSPost2010PropOp33
 70
     1
102
RTVSPost2010Prop34
280
     0
102
RTVSPost2010PropOp34
 70
     1
102
RTVSPost2010Prop35
280
     0
102
RTVSPost2010PropOp35
 70
     1
102
RTVSPost2010Prop36
280
     0
102
RTVSPost2010PropOp36
 70
     1
102
RTVSPost2010Prop37
 90
       50
102
RTVSPost2010PropOp37
 70
     1
102
RTVSPost2010Prop38
140
0.0
102
RTVSPost2010PropOp38
 70
     1
102
RTVSPost2010Prop39
140
1.0
102
RTVSPost2010PropOp39
 70
     1
102
RTVSPost2010Prop40
 90
        0
102
RTVSPost2010PropOp40
 70
     1
102
RTVSPost2010Prop41ColorIndex
 90
       18
102
RTVSPost2010Prop41ColorRGB
 90
        0
102
RTVSPost2010PropOp41
 70
     1
102
RTVSPost2010Prop42
 90
       50
102
RTVSPost2010PropOp42
 70
     1
102
RTVSPost2010Prop43
 90
        3
102
RTVSPost2010PropOp43
 70
     1
102
RTVSPost2010Prop44ColorIndex
 90
        5
102
RTVSPost2010Prop44ColorRGB
 90
      255
102
RTVSPost2010PropOp44
 70
     1
102
RTVSPost2010Prop45
280
     0
102
RTVSPost2010PropOp45
 70
     1
102
RTVSPost2010Prop46
 90
       50
102
RTVSPost2010PropOp46
 70
     1
102
RTVSPost2010Prop47
 90
       50
102
RTVSPost2010PropOp47
 70
     1
102
RTVSPost2010Prop48
 90
       50
102
RTVSPost2010PropOp48
 70
     1
102
RTVSPost2010Prop49
280
     0
102
RTVSPost2010PropOp49
 70
     1
102
RTVSPost2010Prop50
 90
       50
102
RTVSPost2010PropOp50
 70
     1
102
RTVSPost2010Prop51ColorIndex
 90
      256
102
RTVSPost2010Prop51ColorRGB
 90
-16777216
102
RTVSPost2010PropOp51
 70
     0
102
RTVSPost2010Prop52
140
1.0
102
RTVSPost2010PropOp52
 70
     0
102
RTVSPost2010Prop53
 90
        2
102
RTVSPost2010PropOp53
 70
     1
102
RTVSPost2010Prop54
  1
strokes_ogs.tif
102
RTVSPost2010PropOp54
 70
     1
102
RTVSPost2010Prop55
280
     0
102
RTVSPost2010PropOp55
 70
     1
102
RTVSPost2010Prop56
140
1.0
102
RTVSPost2010PropOp56
 70
     1
102
RTVSPost2010Prop57
140
1.0
102
RTVSPost2010PropOp57
 70
     1
102
RTVSPropertyOp0
 70
     1
102
RTVSPropertyOp1
 70
     1
102
RTVSPropertyOp2
 70
     1
102
RTVSPropertyOp3
 70
     1
102
RTVSPropertyOp4
 70
     1
102
RTVSPropertyOp5
 70
     1
102
RTVSPropertyOp6
 70
     1
102
RTVSPropertyOp7
 70
     1
102
RTVSPropertyOp8
 70
     1
102
RTVSPropertyOp9
 70
     1
102
RTVSPropertyOp10
 70
     1
102
RTVSPropertyOp11
 70
     1
102
RTVSPropertyOp12
 70
     1
102
RTVSPropertyOp13
 70
     1
102
RTVSPropertyOp14
 70
     1
102
RTVSPropertyOp15
 70
     1
102
RTVSPropertyOp16
 70
     1
102
RTVSPropertyOp17
 70
     1
102
RTVSPropertyOp18
 70
     1
102
RTVSPropertyOp19
 70
     1
102
RTVSPropertyOp20
 70
     1
102
RTVSPropertyOp21
 70
     1
102
RTVSPropertyOp22
 70
     1
102
RTVSPropertyOp23
 70
     1
102
RTVSPropertyOp24
 70
     1
102
RTVSPropertyOp25
 70
     1
102
RTVSPropertyOp26
 70
     1
102
RTVSPropertyOp27
 70
     1
102
RTVSPropertyOp28
 70
     1
102
RTVSPropertyOp29
 70
     1
102
RTVSPropertyOp30
 70
     1
102
RTVSPropertyOp31
 70
     1
102
RTVSPropertyOp32
 70
     1
102
RTVSPropertyOp33
 70
     1
102
RTVSPropertyOp34
 70
     1
102
RTVSPropertyOp35
 70
     1
102
RTVSPropertyOp36
 70
     1
102
RTVSPropertyOp37
 70
     1
102
RTVSPropertyOp38
 70
     1
102
RTVSPropertyOp39
 70
     1
102
RTVSPropertyOp40
 70
     1
102
RTVSPropertyOp41
 70
     1
102
RTVSPropertyOp42
 70
     1
102
RTVSPropertyOp43
 70
     1
102
RTVSPropertyOp44
 70
     1
102
RTVSPropertyOp45
 70
     1
102
RTVSPropertyOp46
 70
     1
102
RTVSPropertyOp47
 70
     1
102
RTVSPropertyOp48
 70
     1
102
RTVSPropertyOp49
 70
     1
102
RTVSPropertyOp50
 70
     1
102
RTVSPropertyOp51
 70
     0
102
RTVSPropertyOp52
 70
     0
102
RTVSPropertyOp53
 70
     1
102
RTVSPropertyOp54
 70
     1
102
RTVSPropertyOp55
 70
     1
102
RTVSPropertyOp56
 70
     1
102
RTVSPropertyOp57
 70
     1
102
RTVSPropertyOp58
 70
     1
102
RTVSPropertyOp59
 70
     1
102
RTVSPropertyOp60
 70
     1
102
RTVSPropertyOp61
 70
     1
102
RTVSPropertyOp62
 70
     1
  0
XRECORD
  5
9E97
102
{ACAD_REACTORS
330
9E96
102
}
330
9E96
100
AcDbXrecord
280
     1
102
RTVSPost2010Prop28
280
     0
102
RTVSPost2010PropOp28
 70
     1
102
RTVSPost2010Prop29
280
     1
102
RTVSPost2010PropOp29
 70
     1
102
RTVSPost2010Prop30
280
     1
102
RTVSPost2010PropOp30
 70
     1
102
RTVSPost2010Prop31
280
     0
102
RTVSPost2010PropOp31
 70
     1
102
RTVSPost2010Prop32
280
     0
102
RTVSPost2010PropOp32
 70
     1
102
RTVSPost2010Prop33
280
     0
102
RTVSPost2010PropOp33
 70
     1
102
RTVSPost2010Prop34
280
     0
102
RTVSPost2010PropOp34
 70
     1
102
RTVSPost2010Prop35
280
     0
102
RTVSPost2010PropOp35
 70
     1
102
RTVSPost2010Prop36
280
     0
102
RTVSPost2010PropOp36
 70
     1
102
RTVSPost2010Prop37
 90
       50
102
RTVSPost2010PropOp37
 70
     1
102
RTVSPost2010Prop38
140
0.0
102
RTVSPost2010PropOp38
 70
     1
102
RTVSPost2010Prop39
140
1.0
102
RTVSPost2010PropOp39
 70
     1
102
RTVSPost2010Prop40
 90
        0
102
RTVSPost2010PropOp40
 70
     1
102
RTVSPost2010Prop41ColorIndex
 90
       18
102
RTVSPost2010Prop41ColorRGB
 90
        0
102
RTVSPost2010PropOp41
 70
     1
102
RTVSPost2010Prop42
 90
       50
102
RTVSPost2010PropOp42
 70
     1
102
RTVSPost2010Prop43
 90
        3
102
RTVSPost2010PropOp43
 70
     1
102
RTVSPost2010Prop44ColorIndex
 90
        5
102
RTVSPost2010Prop44ColorRGB
 90
      255
102
RTVSPost2010PropOp44
 70
     1
102
RTVSPost2010Prop45
280
     0
102
RTVSPost2010PropOp45
 70
     1
102
RTVSPost2010Prop46
 90
       50
102
RTVSPost2010PropOp46
 70
     1
102
RTVSPost2010Prop47
 90
       50
102
RTVSPost2010PropOp47
 70
     1
102
RTVSPost2010Prop48
 90
       50
102
RTVSPost2010PropOp48
 70
     1
102
RTVSPost2010Prop49
280
     0
102
RTVSPost2010PropOp49
 70
     1
102
RTVSPost2010Prop50
 90
       50
102
RTVSPost2010PropOp50
 70
     1
102
RTVSPost2010Prop51ColorIndex
 90
      256
102
RTVSPost2010Prop51ColorRGB
 90
-16777216
102
RTVSPost2010PropOp51
 70
     0
102
RTVSPost2010Prop52
140
1.0
102
RTVSPost2010PropOp52
 70
     0
102
RTVSPost2010Prop53
 90
        2
102
RTVSPost2010PropOp53
 70
     1
102
RTVSPost2010Prop54
  1
strokes_ogs.tif
102
RTVSPost2010PropOp54
 70
     1
102
RTVSPost2010Prop55
280
     0
102
RTVSPost2010PropOp55
 70
     1
102
RTVSPost2010Prop56
140
1.0
102
RTVSPost2010PropOp56
 70
     1
102
RTVSPost2010Prop57
140
1.0
102
RTVSPost2010PropOp57
 70
     1
102
RTVSPropertyOp0
 70
     1
102
RTVSPropertyOp1
 70
     1
102
RTVSPropertyOp2
 70
     1
102
RTVSPropertyOp3
 70
     1
102
RTVSPropertyOp4
 70
     1
102
RTVSPropertyOp5
 70
     1
102
RTVSPropertyOp6
 70
     1
102
RTVSPropertyOp7
 70
     1
102
RTVSPropertyOp8
 70
     1
102
RTVSPropertyOp9
 70
     1
102
RTVSPropertyOp10
 70
     1
102
RTVSPropertyOp11
 70
     1
102
RTVSPropertyOp12
 70
     1
102
RTVSPropertyOp13
 70
     1
102
RTVSPropertyOp14
 70
     1
102
RTVSPropertyOp15
 70
     1
102
RTVSPropertyOp16
 70
     1
102
RTVSPropertyOp17
 70
     1
102
RTVSPropertyOp18
 70
     1
102
RTVSPropertyOp19
 70
     1
102
RTVSPropertyOp20
 70
     1
102
RTVSPropertyOp21
 70
     1
102
RTVSPropertyOp22
 70
     1
102
RTVSPropertyOp23
 70
     1
102
RTVSPropertyOp24
 70
     1
102
RTVSPropertyOp25
 70
     1
102
RTVSPropertyOp26
 70
     1
102
RTVSPropertyOp27
 70
     1
102
RTVSPropertyOp28
 70
     1
102
RTVSPropertyOp29
 70
     1
102
RTVSPropertyOp30
 70
     1
102
RTVSPropertyOp31
 70
     1
102
RTVSPropertyOp32
 70
     1
102
RTVSPropertyOp33
 70
     1
102
RTVSPropertyOp34
 70
     1
102
RTVSPropertyOp35
 70
     1
102
RTVSPropertyOp36
 70
     1
102
RTVSPropertyOp37
 70
     1
102
RTVSPropertyOp38
 70
     1
102
RTVSPropertyOp39
 70
     1
102
RTVSPropertyOp40
 70
     1
102
RTVSPropertyOp41
 70
     1
102
RTVSPropertyOp42
 70
     1
102
RTVSPropertyOp43
 70
     1
102
RTVSPropertyOp44
 70
     1
102
RTVSPropertyOp45
 70
     1
102
RTVSPropertyOp46
 70
     1
102
RTVSPropertyOp47
 70
     1
102
RTVSPropertyOp48
 70
     1
102
RTVSPropertyOp49
 70
     1
102
RTVSPropertyOp50
 70
     1
102
RTVSPropertyOp51
 70
     0
102
RTVSPropertyOp52
 70
     0
102
RTVSPropertyOp53
 70
     1
102
RTVSPropertyOp54
 70
     1
102
RTVSPropertyOp55
 70
     1
102
RTVSPropertyOp56
 70
     1
102
RTVSPropertyOp57
 70
     1
102
RTVSPropertyOp58
 70
     1
102
RTVSPropertyOp59
 70
     1
102
RTVSPropertyOp60
 70
     1
102
RTVSPropertyOp61
 70
     1
102
RTVSPropertyOp62
 70
     1
  0
XRECORD
  5
9E99
102
{ACAD_REACTORS
330
9E98
102
}
330
9E98
100
AcDbXrecord
280
     1
102
RTVSPost2010Prop28
280
     0
102
RTVSPost2010PropOp28
 70
     1
102
RTVSPost2010Prop29
280
     1
102
RTVSPost2010PropOp29
 70
     1
102
RTVSPost2010Prop30
280
     1
102
RTVSPost2010PropOp30
 70
     1
102
RTVSPost2010Prop31
280
     0
102
RTVSPost2010PropOp31
 70
     1
102
RTVSPost2010Prop32
280
     0
102
RTVSPost2010PropOp32
 70
     1
102
RTVSPost2010Prop33
280
     0
102
RTVSPost2010PropOp33
 70
     1
102
RTVSPost2010Prop34
280
     0
102
RTVSPost2010PropOp34
 70
     1
102
RTVSPost2010Prop35
280
     0
102
RTVSPost2010PropOp35
 70
     1
102
RTVSPost2010Prop36
280
     0
102
RTVSPost2010PropOp36
 70
     1
102
RTVSPost2010Prop37
 90
       50
102
RTVSPost2010PropOp37
 70
     1
102
RTVSPost2010Prop38
140
0.0
102
RTVSPost2010PropOp38
 70
     1
102
RTVSPost2010Prop39
140
1.0
102
RTVSPost2010PropOp39
 70
     1
102
RTVSPost2010Prop40
 90
        0
102
RTVSPost2010PropOp40
 70
     1
102
RTVSPost2010Prop41ColorIndex
 90
       18
102
RTVSPost2010Prop41ColorRGB
 90
        0
102
RTVSPost2010PropOp41
 70
     1
102
RTVSPost2010Prop42
 90
       50
102
RTVSPost2010PropOp42
 70
     1
102
RTVSPost2010Prop43
 90
        3
102
RTVSPost2010PropOp43
 70
     1
102
RTVSPost2010Prop44ColorIndex
 90
        5
102
RTVSPost2010Prop44ColorRGB
 90
      255
102
RTVSPost2010PropOp44
 70
     1
102
RTVSPost2010Prop45
280
     0
102
RTVSPost2010PropOp45
 70
     1
102
RTVSPost2010Prop46
 90
       50
102
RTVSPost2010PropOp46
 70
     1
102
RTVSPost2010Prop47
 90
       50
102
RTVSPost2010PropOp47
 70
     1
102
RTVSPost2010Prop48
 90
       50
102
RTVSPost2010PropOp48
 70
     1
102
RTVSPost2010Prop49
280
     0
102
RTVSPost2010PropOp49
 70
     1
102
RTVSPost2010Prop50
 90
       50
102
RTVSPost2010PropOp50
 70
     1
102
RTVSPost2010Prop51ColorIndex
 90
      256
102
RTVSPost2010Prop51ColorRGB
 90
-16777216
102
RTVSPost2010PropOp51
 70
     0
102
RTVSPost2010Prop52
140
1.0
102
RTVSPost2010PropOp52
 70
     0
102
RTVSPost2010Prop53
 90
        2
102
RTVSPost2010PropOp53
 70
     1
102
RTVSPost2010Prop54
  1
strokes_ogs.tif
102
RTVSPost2010PropOp54
 70
     1
102
RTVSPost2010Prop55
280
     0
102
RTVSPost2010PropOp55
 70
     1
102
RTVSPost2010Prop56
140
1.0
102
RTVSPost2010PropOp56
 70
     1
102
RTVSPost2010Prop57
140
1.0
102
RTVSPost2010PropOp57
 70
     1
102
RTVSPropertyOp0
 70
     1
102
RTVSPropertyOp1
 70
     1
102
RTVSPropertyOp2
 70
     1
102
RTVSPropertyOp3
 70
     1
102
RTVSPropertyOp4
 70
     1
102
RTVSPropertyOp5
 70
     1
102
RTVSPropertyOp6
 70
     1
102
RTVSPropertyOp7
 70
     1
102
RTVSPropertyOp8
 70
     1
102
RTVSPropertyOp9
 70
     1
102
RTVSPropertyOp10
 70
     1
102
RTVSPropertyOp11
 70
     1
102
RTVSPropertyOp12
 70
     1
102
RTVSPropertyOp13
 70
     1
102
RTVSPropertyOp14
 70
     1
102
RTVSPropertyOp15
 70
     1
102
RTVSPropertyOp16
 70
     1
102
RTVSPropertyOp17
 70
     1
102
RTVSPropertyOp18
 70
     1
102
RTVSPropertyOp19
 70
     1
102
RTVSPropertyOp20
 70
     1
102
RTVSPropertyOp21
 70
     1
102
RTVSPropertyOp22
 70
     1
102
RTVSPropertyOp23
 70
     1
102
RTVSPropertyOp24
 70
     1
102
RTVSPropertyOp25
 70
     1
102
RTVSPropertyOp26
 70
     1
102
RTVSPropertyOp27
 70
     1
102
RTVSPropertyOp28
 70
     1
102
RTVSPropertyOp29
 70
     1
102
RTVSPropertyOp30
 70
     1
102
RTVSPropertyOp31
 70
     1
102
RTVSPropertyOp32
 70
     1
102
RTVSPropertyOp33
 70
     1
102
RTVSPropertyOp34
 70
     1
102
RTVSPropertyOp35
 70
     1
102
RTVSPropertyOp36
 70
     1
102
RTVSPropertyOp37
 70
     1
102
RTVSPropertyOp38
 70
     1
102
RTVSPropertyOp39
 70
     1
102
RTVSPropertyOp40
 70
     1
102
RTVSPropertyOp41
 70
     1
102
RTVSPropertyOp42
 70
     1
102
RTVSPropertyOp43
 70
     1
102
RTVSPropertyOp44
 70
     1
102
RTVSPropertyOp45
 70
     1
102
RTVSPropertyOp46
 70
     1
102
RTVSPropertyOp47
 70
     1
102
RTVSPropertyOp48
 70
     1
102
RTVSPropertyOp49
 70
     1
102
RTVSPropertyOp50
 70
     1
102
RTVSPropertyOp51
 70
     0
102
RTVSPropertyOp52
 70
     0
102
RTVSPropertyOp53
 70
     1
102
RTVSPropertyOp54
 70
     1
102
RTVSPropertyOp55
 70
     1
102
RTVSPropertyOp56
 70
     1
102
RTVSPropertyOp57
 70
     1
102
RTVSPropertyOp58
 70
     1
102
RTVSPropertyOp59
 70
     1
102
RTVSPropertyOp60
 70
     1
102
RTVSPropertyOp61
 70
     1
102
RTVSPropertyOp62
 70
     1
  0
XRECORD
  5
9EA1
102
{ACAD_REACTORS
330
9EA0
102
}
330
9EA0
100
AcDbXrecord
280
     1
102
RTVSPost2010Prop28
280
     0
102
RTVSPost2010PropOp28
 70
     1
102
RTVSPost2010Prop29
280
     1
102
RTVSPost2010PropOp29
 70
     1
102
RTVSPost2010Prop30
280
     1
102
RTVSPost2010PropOp30
 70
     1
102
RTVSPost2010Prop31
280
     0
102
RTVSPost2010PropOp31
 70
     1
102
RTVSPost2010Prop32
280
     0
102
RTVSPost2010PropOp32
 70
     1
102
RTVSPost2010Prop33
280
     0
102
RTVSPost2010PropOp33
 70
     1
102
RTVSPost2010Prop34
280
     0
102
RTVSPost2010PropOp34
 70
     1
102
RTVSPost2010Prop35
280
     0
102
RTVSPost2010PropOp35
 70
     1
102
RTVSPost2010Prop36
280
     0
102
RTVSPost2010PropOp36
 70
     1
102
RTVSPost2010Prop37
 90
       50
102
RTVSPost2010PropOp37
 70
     1
102
RTVSPost2010Prop38
140
0.0
102
RTVSPost2010PropOp38
 70
     1
102
RTVSPost2010Prop39
140
1.0
102
RTVSPost2010PropOp39
 70
     1
102
RTVSPost2010Prop40
 90
        0
102
RTVSPost2010PropOp40
 70
     1
102
RTVSPost2010Prop41ColorIndex
 90
       18
102
RTVSPost2010Prop41ColorRGB
 90
        0
102
RTVSPost2010PropOp41
 70
     1
102
RTVSPost2010Prop42
 90
       50
102
RTVSPost2010PropOp42
 70
     1
102
RTVSPost2010Prop43
 90
        3
102
RTVSPost2010PropOp43
 70
     1
102
RTVSPost2010Prop44ColorIndex
 90
        5
102
RTVSPost2010Prop44ColorRGB
 90
      255
102
RTVSPost2010PropOp44
 70
     1
102
RTVSPost2010Prop45
280
     0
102
RTVSPost2010PropOp45
 70
     1
102
RTVSPost2010Prop46
 90
       50
102
RTVSPost2010PropOp46
 70
     1
102
RTVSPost2010Prop47
 90
       50
102
RTVSPost2010PropOp47
 70
     1
102
RTVSPost2010Prop48
 90
       50
102
RTVSPost2010PropOp48
 70
     1
102
RTVSPost2010Prop49
280
     0
102
RTVSPost2010PropOp49
 70
     1
102
RTVSPost2010Prop50
 90
       50
102
RTVSPost2010PropOp50
 70
     1
102
RTVSPost2010Prop51ColorIndex
 90
      256
102
RTVSPost2010Prop51ColorRGB
 90
-16777216
102
RTVSPost2010PropOp51
 70
     0
102
RTVSPost2010Prop52
140
1.0
102
RTVSPost2010PropOp52
 70
     0
102
RTVSPost2010Prop53
 90
        2
102
RTVSPost2010PropOp53
 70
     1
102
RTVSPost2010Prop54
  1
strokes_ogs.tif
102
RTVSPost2010PropOp54
 70
     1
102
RTVSPost2010Prop55
280
     0
102
RTVSPost2010PropOp55
 70
     1
102
RTVSPost2010Prop56
140
1.0
102
RTVSPost2010PropOp56
 70
     1
102
RTVSPost2010Prop57
140
1.0
102
RTVSPost2010PropOp57
 70
     1
102
RTVSPropertyOp0
 70
     1
102
RTVSPropertyOp1
 70
     1
102
RTVSPropertyOp2
 70
     1
102
RTVSPropertyOp3
 70
     1
102
RTVSPropertyOp4
 70
     1
102
RTVSPropertyOp5
 70
     1
102
RTVSPropertyOp6
 70
     1
102
RTVSPropertyOp7
 70
     1
102
RTVSPropertyOp8
 70
     1
102
RTVSPropertyOp9
 70
     1
102
RTVSPropertyOp10
 70
     1
102
RTVSPropertyOp11
 70
     1
102
RTVSPropertyOp12
 70
     1
102
RTVSPropertyOp13
 70
     1
102
RTVSPropertyOp14
 70
     1
102
RTVSPropertyOp15
 70
     1
102
RTVSPropertyOp16
 70
     1
102
RTVSPropertyOp17
 70
     1
102
RTVSPropertyOp18
 70
     1
102
RTVSPropertyOp19
 70
     1
102
RTVSPropertyOp20
 70
     1
102
RTVSPropertyOp21
 70
     1
102
RTVSPropertyOp22
 70
     1
102
RTVSPropertyOp23
 70
     1
102
RTVSPropertyOp24
 70
     1
102
RTVSPropertyOp25
 70
     1
102
RTVSPropertyOp26
 70
     1
102
RTVSPropertyOp27
 70
     1
102
RTVSPropertyOp28
 70
     1
102
RTVSPropertyOp29
 70
     1
102
RTVSPropertyOp30
 70
     1
102
RTVSPropertyOp31
 70
     1
102
RTVSPropertyOp32
 70
     1
102
RTVSPropertyOp33
 70
     1
102
RTVSPropertyOp34
 70
     1
102
RTVSPropertyOp35
 70
     1
102
RTVSPropertyOp36
 70
     1
102
RTVSPropertyOp37
 70
     1
102
RTVSPropertyOp38
 70
     1
102
RTVSPropertyOp39
 70
     1
102
RTVSPropertyOp40
 70
     1
102
RTVSPropertyOp41
 70
     1
102
RTVSPropertyOp42
 70
     1
102
RTVSPropertyOp43
 70
     1
102
RTVSPropertyOp44
 70
     1
102
RTVSPropertyOp45
 70
     1
102
RTVSPropertyOp46
 70
     1
102
RTVSPropertyOp47
 70
     1
102
RTVSPropertyOp48
 70
     1
102
RTVSPropertyOp49
 70
     1
102
RTVSPropertyOp50
 70
     1
102
RTVSPropertyOp51
 70
     0
102
RTVSPropertyOp52
 70
     0
102
RTVSPropertyOp53
 70
     1
102
RTVSPropertyOp54
 70
     1
102
RTVSPropertyOp55
 70
     1
102
RTVSPropertyOp56
 70
     1
102
RTVSPropertyOp57
 70
     1
102
RTVSPropertyOp58
 70
     1
102
RTVSPropertyOp59
 70
     1
102
RTVSPropertyOp60
 70
     1
102
RTVSPropertyOp61
 70
     1
102
RTVSPropertyOp62
 70
     1
  0
XRECORD
  5
9EBD
102
{ACAD_REACTORS
330
9EBC
102
}
330
9EBC
100
AcDbXrecord
280
     1
102
RTVSPost2010Prop28
280
     0
102
RTVSPost2010PropOp28
 70
     1
102
RTVSPost2010Prop29
280
     1
102
RTVSPost2010PropOp29
 70
     1
102
RTVSPost2010Prop30
280
     1
102
RTVSPost2010PropOp30
 70
     1
102
RTVSPost2010Prop31
280
     0
102
RTVSPost2010PropOp31
 70
     1
102
RTVSPost2010Prop32
280
     0
102
RTVSPost2010PropOp32
 70
     1
102
RTVSPost2010Prop33
280
     0
102
RTVSPost2010PropOp33
 70
     1
102
RTVSPost2010Prop34
280
     0
102
RTVSPost2010PropOp34
 70
     1
102
RTVSPost2010Prop35
280
     0
102
RTVSPost2010PropOp35
 70
     1
102
RTVSPost2010Prop36
280
     0
102
RTVSPost2010PropOp36
 70
     1
102
RTVSPost2010Prop37
 90
       50
102
RTVSPost2010PropOp37
 70
     0
102
RTVSPost2010Prop38
140
0.0
102
RTVSPost2010PropOp38
 70
     0
102
RTVSPost2010Prop39
140
1.0
102
RTVSPost2010PropOp39
 70
     0
102
RTVSPost2010Prop40
 90
        0
102
RTVSPost2010PropOp40
 70
     0
102
RTVSPost2010Prop41ColorIndex
 90
       18
102
RTVSPost2010Prop41ColorRGB
 90
        0
102
RTVSPost2010PropOp41
 70
     0
102
RTVSPost2010Prop42
 90
       50
102
RTVSPost2010PropOp42
 70
     0
102
RTVSPost2010Prop43
 90
        3
102
RTVSPost2010PropOp43
 70
     0
102
RTVSPost2010Prop44ColorIndex
 90
        5
102
RTVSPost2010Prop44ColorRGB
 90
      255
102
RTVSPost2010PropOp44
 70
     0
102
RTVSPost2010Prop45
280
     0
102
RTVSPost2010PropOp45
 70
     1
102
RTVSPost2010Prop46
 90
       50
102
RTVSPost2010PropOp46
 70
     0
102
RTVSPost2010Prop47
 90
       50
102
RTVSPost2010PropOp47
 70
     0
102
RTVSPost2010Prop48
 90
       50
102
RTVSPost2010PropOp48
 70
     0
102
RTVSPost2010Prop49
280
     0
102
RTVSPost2010PropOp49
 70
     1
102
RTVSPost2010Prop50
 90
       50
102
RTVSPost2010PropOp50
 70
     0
102
RTVSPost2010Prop51ColorIndex
 90
      256
102
RTVSPost2010Prop51ColorRGB
 90
-16777216
102
RTVSPost2010PropOp51
 70
     0
102
RTVSPost2010Prop52
140
1.0
102
RTVSPost2010PropOp52
 70
     0
102
RTVSPost2010Prop53
 90
        2
102
RTVSPost2010PropOp53
 70
     0
102
RTVSPost2010Prop54
  1
strokes_ogs.tif
102
RTVSPost2010PropOp54
 70
     0
102
RTVSPost2010Prop55
280
     0
102
RTVSPost2010PropOp55
 70
     1
102
RTVSPost2010Prop56
140
1.0
102
RTVSPost2010PropOp56
 70
     0
102
RTVSPost2010Prop57
140
1.0
102
RTVSPost2010PropOp57
 70
     0
102
RTVSPropertyOp0
 70
     0
102
RTVSPropertyOp1
 70
     0
102
RTVSPropertyOp2
 70
     0
102
RTVSPropertyOp3
 70
     0
102
RTVSPropertyOp4
 70
     0
102
RTVSPropertyOp5
 70
     0
102
RTVSPropertyOp6
 70
     0
102
RTVSPropertyOp7
 70
     0
102
RTVSPropertyOp8
 70
     0
102
RTVSPropertyOp9
 70
     0
102
RTVSPropertyOp10
 70
     0
102
RTVSPropertyOp11
 70
     0
102
RTVSPropertyOp12
 70
     0
102
RTVSPropertyOp13
 70
     0
102
RTVSPropertyOp14
 70
     2
102
RTVSPropertyOp15
 70
     0
102
RTVSPropertyOp16
 70
     0
102
RTVSPropertyOp17
 70
     0
102
RTVSPropertyOp18
 70
     0
102
RTVSPropertyOp19
 70
     0
102
RTVSPropertyOp20
 70
     0
102
RTVSPropertyOp21
 70
     0
102
RTVSPropertyOp22
 70
     0
102
RTVSPropertyOp23
 70
     0
102
RTVSPropertyOp24
 70
     0
102
RTVSPropertyOp25
 70
     0
102
RTVSPropertyOp26
 70
     0
102
RTVSPropertyOp27
 70
     0
102
RTVSPropertyOp28
 70
     1
102
RTVSPropertyOp29
 70
     1
102
RTVSPropertyOp30
 70
     1
102
RTVSPropertyOp31
 70
     1
102
RTVSPropertyOp32
 70
     1
102
RTVSPropertyOp33
 70
     1
102
RTVSPropertyOp34
 70
     1
102
RTVSPropertyOp35
 70
     1
102
RTVSPropertyOp36
 70
     1
102
RTVSPropertyOp37
 70
     0
102
RTVSPropertyOp38
 70
     0
102
RTVSPropertyOp39
 70
     0
102
RTVSPropertyOp40
 70
     0
102
RTVSPropertyOp41
 70
     0
102
RTVSPropertyOp42
 70
     0
102
RTVSPropertyOp43
 70
     0
102
RTVSPropertyOp44
 70
     0
102
RTVSPropertyOp45
 70
     1
102
RTVSPropertyOp46
 70
     0
102
RTVSPropertyOp47
 70
     0
102
RTVSPropertyOp48
 70
     0
102
RTVSPropertyOp49
 70
     1
102
RTVSPropertyOp50
 70
     0
102
RTVSPropertyOp51
 70
     0
102
RTVSPropertyOp52
 70
     0
102
RTVSPropertyOp53
 70
     0
102
RTVSPropertyOp54
 70
     0
102
RTVSPropertyOp55
 70
     1
102
RTVSPropertyOp56
 70
     0
102
RTVSPropertyOp57
 70
     0
102
RTVSPropertyOp58
 70
     0
102
RTVSPropertyOp59
 70
     0
102
RTVSPropertyOp60
 70
     0
102
RTVSPropertyOp61
 70
     0
102
RTVSPropertyOp62
 70
     0
  0
XRECORD
  5
9EAD
102
{ACAD_REACTORS
330
9EAC
102
}
330
9EAC
100
AcDbXrecord
280
     1
102
RTVSPost2010Prop28
280
     0
102
RTVSPost2010PropOp28
 70
     1
102
RTVSPost2010Prop29
280
     1
102
RTVSPost2010PropOp29
 70
     1
102
RTVSPost2010Prop30
280
     1
102
RTVSPost2010PropOp30
 70
     1
102
RTVSPost2010Prop31
280
     0
102
RTVSPost2010PropOp31
 70
     1
102
RTVSPost2010Prop32
280
     0
102
RTVSPost2010PropOp32
 70
     1
102
RTVSPost2010Prop33
280
     0
102
RTVSPost2010PropOp33
 70
     1
102
RTVSPost2010Prop34
280
     0
102
RTVSPost2010PropOp34
 70
     1
102
RTVSPost2010Prop35
280
     0
102
RTVSPost2010PropOp35
 70
     1
102
RTVSPost2010Prop36
280
     0
102
RTVSPost2010PropOp36
 70
     1
102
RTVSPost2010Prop37
 90
       50
102
RTVSPost2010PropOp37
 70
     1
102
RTVSPost2010Prop38
140
0.0
102
RTVSPost2010PropOp38
 70
     1
102
RTVSPost2010Prop39
140
1.0
102
RTVSPost2010PropOp39
 70
     1
102
RTVSPost2010Prop40
 90
        0
102
RTVSPost2010PropOp40
 70
     1
102
RTVSPost2010Prop41ColorIndex
 90
       18
102
RTVSPost2010Prop41ColorRGB
 90
        0
102
RTVSPost2010PropOp41
 70
     1
102
RTVSPost2010Prop42
 90
       50
102
RTVSPost2010PropOp42
 70
     1
102
RTVSPost2010Prop43
 90
        3
102
RTVSPost2010PropOp43
 70
     1
102
RTVSPost2010Prop44ColorIndex
 90
        5
102
RTVSPost2010Prop44ColorRGB
 90
      255
102
RTVSPost2010PropOp44
 70
     1
102
RTVSPost2010Prop45
280
     0
102
RTVSPost2010PropOp45
 70
     1
102
RTVSPost2010Prop46
 90
       50
102
RTVSPost2010PropOp46
 70
     1
102
RTVSPost2010Prop47
 90
       50
102
RTVSPost2010PropOp47
 70
     1
102
RTVSPost2010Prop48
 90
       50
102
RTVSPost2010PropOp48
 70
     1
102
RTVSPost2010Prop49
280
     0
102
RTVSPost2010PropOp49
 70
     1
102
RTVSPost2010Prop50
 90
       50
102
RTVSPost2010PropOp50
 70
     1
102
RTVSPost2010Prop51ColorIndex
 90
      256
102
RTVSPost2010Prop51ColorRGB
 90
-16777216
102
RTVSPost2010PropOp51
 70
     0
102
RTVSPost2010Prop52
140
1.0
102
RTVSPost2010PropOp52
 70
     0
102
RTVSPost2010Prop53
 90
        2
102
RTVSPost2010PropOp53
 70
     1
102
RTVSPost2010Prop54
  1
strokes_ogs.tif
102
RTVSPost2010PropOp54
 70
     1
102
RTVSPost2010Prop55
280
     0
102
RTVSPost2010PropOp55
 70
     1
102
RTVSPost2010Prop56
140
1.0
102
RTVSPost2010PropOp56
 70
     1
102
RTVSPost2010Prop57
140
1.0
102
RTVSPost2010PropOp57
 70
     1
102
RTVSPropertyOp0
 70
     1
102
RTVSPropertyOp1
 70
     1
102
RTVSPropertyOp2
 70
     1
102
RTVSPropertyOp3
 70
     1
102
RTVSPropertyOp4
 70
     1
102
RTVSPropertyOp5
 70
     1
102
RTVSPropertyOp6
 70
     1
102
RTVSPropertyOp7
 70
     1
102
RTVSPropertyOp8
 70
     1
102
RTVSPropertyOp9
 70
     1
102
RTVSPropertyOp10
 70
     1
102
RTVSPropertyOp11
 70
     1
102
RTVSPropertyOp12
 70
     1
102
RTVSPropertyOp13
 70
     1
102
RTVSPropertyOp14
 70
     1
102
RTVSPropertyOp15
 70
     1
102
RTVSPropertyOp16
 70
     1
102
RTVSPropertyOp17
 70
     1
102
RTVSPropertyOp18
 70
     1
102
RTVSPropertyOp19
 70
     1
102
RTVSPropertyOp20
 70
     1
102
RTVSPropertyOp21
 70
     1
102
RTVSPropertyOp22
 70
     1
102
RTVSPropertyOp23
 70
     1
102
RTVSPropertyOp24
 70
     1
102
RTVSPropertyOp25
 70
     1
102
RTVSPropertyOp26
 70
     1
102
RTVSPropertyOp27
 70
     1
102
RTVSPropertyOp28
 70
     1
102
RTVSPropertyOp29
 70
     1
102
RTVSPropertyOp30
 70
     1
102
RTVSPropertyOp31
 70
     1
102
RTVSPropertyOp32
 70
     1
102
RTVSPropertyOp33
 70
     1
102
RTVSPropertyOp34
 70
     1
102
RTVSPropertyOp35
 70
     1
102
RTVSPropertyOp36
 70
     1
102
RTVSPropertyOp37
 70
     1
102
RTVSPropertyOp38
 70
     1
102
RTVSPropertyOp39
 70
     1
102
RTVSPropertyOp40
 70
     1
102
RTVSPropertyOp41
 70
     1
102
RTVSPropertyOp42
 70
     1
102
RTVSPropertyOp43
 70
     1
102
RTVSPropertyOp44
 70
     1
102
RTVSPropertyOp45
 70
     1
102
RTVSPropertyOp46
 70
     1
102
RTVSPropertyOp47
 70
     1
102
RTVSPropertyOp48
 70
     1
102
RTVSPropertyOp49
 70
     1
102
RTVSPropertyOp50
 70
     1
102
RTVSPropertyOp51
 70
     0
102
RTVSPropertyOp52
 70
     0
102
RTVSPropertyOp53
 70
     1
102
RTVSPropertyOp54
 70
     1
102
RTVSPropertyOp55
 70
     1
102
RTVSPropertyOp56
 70
     1
102
RTVSPropertyOp57
 70
     1
102
RTVSPropertyOp58
 70
     1
102
RTVSPropertyOp59
 70
     1
102
RTVSPropertyOp60
 70
     1
102
RTVSPropertyOp61
 70
     1
102
RTVSPropertyOp62
 70
     1
  0
XRECORD
  5
9EBF
102
{ACAD_REACTORS
330
9EBE
102
}
330
9EBE
100
AcDbXrecord
280
     1
102
RTVSPost2010Prop28
280
     0
102
RTVSPost2010PropOp28
 70
     1
102
RTVSPost2010Prop29
280
     1
102
RTVSPost2010PropOp29
 70
     1
102
RTVSPost2010Prop30
280
     1
102
RTVSPost2010PropOp30
 70
     1
102
RTVSPost2010Prop31
280
     0
102
RTVSPost2010PropOp31
 70
     1
102
RTVSPost2010Prop32
280
     0
102
RTVSPost2010PropOp32
 70
     1
102
RTVSPost2010Prop33
280
     0
102
RTVSPost2010PropOp33
 70
     1
102
RTVSPost2010Prop34
280
     0
102
RTVSPost2010PropOp34
 70
     1
102
RTVSPost2010Prop35
280
     0
102
RTVSPost2010PropOp35
 70
     1
102
RTVSPost2010Prop36
280
     0
102
RTVSPost2010PropOp36
 70
     1
102
RTVSPost2010Prop37
 90
       50
102
RTVSPost2010PropOp37
 70
     0
102
RTVSPost2010Prop38
140
0.0
102
RTVSPost2010PropOp38
 70
     0
102
RTVSPost2010Prop39
140
1.0
102
RTVSPost2010PropOp39
 70
     0
102
RTVSPost2010Prop40
 90
        0
102
RTVSPost2010PropOp40
 70
     0
102
RTVSPost2010Prop41ColorIndex
 90
       18
102
RTVSPost2010Prop41ColorRGB
 90
        0
102
RTVSPost2010PropOp41
 70
     0
102
RTVSPost2010Prop42
 90
       50
102
RTVSPost2010PropOp42
 70
     0
102
RTVSPost2010Prop43
 90
        3
102
RTVSPost2010PropOp43
 70
     0
102
RTVSPost2010Prop44ColorIndex
 90
        5
102
RTVSPost2010Prop44ColorRGB
 90
      255
102
RTVSPost2010PropOp44
 70
     0
102
RTVSPost2010Prop45
280
     0
102
RTVSPost2010PropOp45
 70
     1
102
RTVSPost2010Prop46
 90
       50
102
RTVSPost2010PropOp46
 70
     0
102
RTVSPost2010Prop47
 90
       50
102
RTVSPost2010PropOp47
 70
     0
102
RTVSPost2010Prop48
 90
       50
102
RTVSPost2010PropOp48
 70
     0
102
RTVSPost2010Prop49
280
     0
102
RTVSPost2010PropOp49
 70
     1
102
RTVSPost2010Prop50
 90
       50
102
RTVSPost2010PropOp50
 70
     0
102
RTVSPost2010Prop51ColorIndex
 90
      256
102
RTVSPost2010Prop51ColorRGB
 90
-16777216
102
RTVSPost2010PropOp51
 70
     0
102
RTVSPost2010Prop52
140
1.0
102
RTVSPost2010PropOp52
 70
     0
102
RTVSPost2010Prop53
 90
        2
102
RTVSPost2010PropOp53
 70
     0
102
RTVSPost2010Prop54
  1
strokes_ogs.tif
102
RTVSPost2010PropOp54
 70
     0
102
RTVSPost2010Prop55
280
     0
102
RTVSPost2010PropOp55
 70
     1
102
RTVSPost2010Prop56
140
1.0
102
RTVSPost2010PropOp56
 70
     0
102
RTVSPost2010Prop57
140
1.0
102
RTVSPost2010PropOp57
 70
     0
102
RTVSPropertyOp0
 70
     0
102
RTVSPropertyOp1
 70
     0
102
RTVSPropertyOp2
 70
     0
102
RTVSPropertyOp3
 70
     0
102
RTVSPropertyOp4
 70
     0
102
RTVSPropertyOp5
 70
     0
102
RTVSPropertyOp6
 70
     0
102
RTVSPropertyOp7
 70
     0
102
RTVSPropertyOp8
 70
     0
102
RTVSPropertyOp9
 70
     0
102
RTVSPropertyOp10
 70
     0
102
RTVSPropertyOp11
 70
     0
102
RTVSPropertyOp12
 70
     0
102
RTVSPropertyOp13
 70
     0
102
RTVSPropertyOp14
 70
     2
102
RTVSPropertyOp15
 70
     0
102
RTVSPropertyOp16
 70
     0
102
RTVSPropertyOp17
 70
     0
102
RTVSPropertyOp18
 70
     0
102
RTVSPropertyOp19
 70
     0
102
RTVSPropertyOp20
 70
     0
102
RTVSPropertyOp21
 70
     0
102
RTVSPropertyOp22
 70
     0
102
RTVSPropertyOp23
 70
     0
102
RTVSPropertyOp24
 70
     0
102
RTVSPropertyOp25
 70
     0
102
RTVSPropertyOp26
 70
     0
102
RTVSPropertyOp27
 70
     0
102
RTVSPropertyOp28
 70
     1
102
RTVSPropertyOp29
 70
     1
102
RTVSPropertyOp30
 70
     1
102
RTVSPropertyOp31
 70
     1
102
RTVSPropertyOp32
 70
     1
102
RTVSPropertyOp33
 70
     1
102
RTVSPropertyOp34
 70
     1
102
RTVSPropertyOp35
 70
     1
102
RTVSPropertyOp36
 70
     1
102
RTVSPropertyOp37
 70
     0
102
RTVSPropertyOp38
 70
     0
102
RTVSPropertyOp39
 70
     0
102
RTVSPropertyOp40
 70
     0
102
RTVSPropertyOp41
 70
     0
102
RTVSPropertyOp42
 70
     0
102
RTVSPropertyOp43
 70
     0
102
RTVSPropertyOp44
 70
     0
102
RTVSPropertyOp45
 70
     1
102
RTVSPropertyOp46
 70
     0
102
RTVSPropertyOp47
 70
     0
102
RTVSPropertyOp48
 70
     0
102
RTVSPropertyOp49
 70
     1
102
RTVSPropertyOp50
 70
     0
102
RTVSPropertyOp51
 70
     0
102
RTVSPropertyOp52
 70
     0
102
RTVSPropertyOp53
 70
     0
102
RTVSPropertyOp54
 70
     0
102
RTVSPropertyOp55
 70
     1
102
RTVSPropertyOp56
 70
     0
102
RTVSPropertyOp57
 70
     0
102
RTVSPropertyOp58
 70
     0
102
RTVSPropertyOp59
 70
     0
102
RTVSPropertyOp60
 70
     0
102
RTVSPropertyOp61
 70
     0
102
RTVSPropertyOp62
 70
     0
  0
XRECORD
  5
9EA5
102
{ACAD_REACTORS
330
9EA4
102
}
330
9EA4
100
AcDbXrecord
280
     1
102
RTVSPost2010Prop28
280
     0
102
RTVSPost2010PropOp28
 70
     1
102
RTVSPost2010Prop29
280
     1
102
RTVSPost2010PropOp29
 70
     1
102
RTVSPost2010Prop30
280
     1
102
RTVSPost2010PropOp30
 70
     1
102
RTVSPost2010Prop31
280
     0
102
RTVSPost2010PropOp31
 70
     1
102
RTVSPost2010Prop32
280
     0
102
RTVSPost2010PropOp32
 70
     1
102
RTVSPost2010Prop33
280
     0
102
RTVSPost2010PropOp33
 70
     1
102
RTVSPost2010Prop34
280
     0
102
RTVSPost2010PropOp34
 70
     1
102
RTVSPost2010Prop35
280
     0
102
RTVSPost2010PropOp35
 70
     1
102
RTVSPost2010Prop36
280
     0
102
RTVSPost2010PropOp36
 70
     1
102
RTVSPost2010Prop37
 90
       50
102
RTVSPost2010PropOp37
 70
     1
102
RTVSPost2010Prop38
140
0.0
102
RTVSPost2010PropOp38
 70
     1
102
RTVSPost2010Prop39
140
1.0
102
RTVSPost2010PropOp39
 70
     1
102
RTVSPost2010Prop40
 90
        0
102
RTVSPost2010PropOp40
 70
     1
102
RTVSPost2010Prop41ColorIndex
 90
       18
102
RTVSPost2010Prop41ColorRGB
 90
        0
102
RTVSPost2010PropOp41
 70
     1
102
RTVSPost2010Prop42
 90
       50
102
RTVSPost2010PropOp42
 70
     1
102
RTVSPost2010Prop43
 90
        3
102
RTVSPost2010PropOp43
 70
     1
102
RTVSPost2010Prop44ColorIndex
 90
        5
102
RTVSPost2010Prop44ColorRGB
 90
      255
102
RTVSPost2010PropOp44
 70
     1
102
RTVSPost2010Prop45
280
     0
102
RTVSPost2010PropOp45
 70
     1
102
RTVSPost2010Prop46
 90
       50
102
RTVSPost2010PropOp46
 70
     1
102
RTVSPost2010Prop47
 90
       50
102
RTVSPost2010PropOp47
 70
     1
102
RTVSPost2010Prop48
 90
       50
102
RTVSPost2010PropOp48
 70
     1
102
RTVSPost2010Prop49
280
     0
102
RTVSPost2010PropOp49
 70
     1
102
RTVSPost2010Prop50
 90
       50
102
RTVSPost2010PropOp50
 70
     1
102
RTVSPost2010Prop51ColorIndex
 90
      256
102
RTVSPost2010Prop51ColorRGB
 90
-16777216
102
RTVSPost2010PropOp51
 70
     0
102
RTVSPost2010Prop52
140
1.0
102
RTVSPost2010PropOp52
 70
     0
102
RTVSPost2010Prop53
 90
        2
102
RTVSPost2010PropOp53
 70
     1
102
RTVSPost2010Prop54
  1
strokes_ogs.tif
102
RTVSPost2010PropOp54
 70
     1
102
RTVSPost2010Prop55
280
     0
102
RTVSPost2010PropOp55
 70
     1
102
RTVSPost2010Prop56
140
1.0
102
RTVSPost2010PropOp56
 70
     1
102
RTVSPost2010Prop57
140
1.0
102
RTVSPost2010PropOp57
 70
     1
102
RTVSPropertyOp0
 70
     1
102
RTVSPropertyOp1
 70
     1
102
RTVSPropertyOp2
 70
     1
102
RTVSPropertyOp3
 70
     1
102
RTVSPropertyOp4
 70
     1
102
RTVSPropertyOp5
 70
     1
102
RTVSPropertyOp6
 70
     1
102
RTVSPropertyOp7
 70
     1
102
RTVSPropertyOp8
 70
     1
102
RTVSPropertyOp9
 70
     1
102
RTVSPropertyOp10
 70
     1
102
RTVSPropertyOp11
 70
     1
102
RTVSPropertyOp12
 70
     1
102
RTVSPropertyOp13
 70
     1
102
RTVSPropertyOp14
 70
     1
102
RTVSPropertyOp15
 70
     1
102
RTVSPropertyOp16
 70
     1
102
RTVSPropertyOp17
 70
     1
102
RTVSPropertyOp18
 70
     1
102
RTVSPropertyOp19
 70
     1
102
RTVSPropertyOp20
 70
     1
102
RTVSPropertyOp21
 70
     1
102
RTVSPropertyOp22
 70
     1
102
RTVSPropertyOp23
 70
     1
102
RTVSPropertyOp24
 70
     1
102
RTVSPropertyOp25
 70
     1
102
RTVSPropertyOp26
 70
     1
102
RTVSPropertyOp27
 70
     1
102
RTVSPropertyOp28
 70
     1
102
RTVSPropertyOp29
 70
     1
102
RTVSPropertyOp30
 70
     1
102
RTVSPropertyOp31
 70
     1
102
RTVSPropertyOp32
 70
     1
102
RTVSPropertyOp33
 70
     1
102
RTVSPropertyOp34
 70
     1
102
RTVSPropertyOp35
 70
     1
102
RTVSPropertyOp36
 70
     1
102
RTVSPropertyOp37
 70
     1
102
RTVSPropertyOp38
 70
     1
102
RTVSPropertyOp39
 70
     1
102
RTVSPropertyOp40
 70
     1
102
RTVSPropertyOp41
 70
     1
102
RTVSPropertyOp42
 70
     1
102
RTVSPropertyOp43
 70
     1
102
RTVSPropertyOp44
 70
     1
102
RTVSPropertyOp45
 70
     1
102
RTVSPropertyOp46
 70
     1
102
RTVSPropertyOp47
 70
     1
102
RTVSPropertyOp48
 70
     1
102
RTVSPropertyOp49
 70
     1
102
RTVSPropertyOp50
 70
     1
102
RTVSPropertyOp51
 70
     0
102
RTVSPropertyOp52
 70
     0
102
RTVSPropertyOp53
 70
     1
102
RTVSPropertyOp54
 70
     1
102
RTVSPropertyOp55
 70
     1
102
RTVSPropertyOp56
 70
     1
102
RTVSPropertyOp57
 70
     1
102
RTVSPropertyOp58
 70
     1
102
RTVSPropertyOp59
 70
     1
102
RTVSPropertyOp60
 70
     1
102
RTVSPropertyOp61
 70
     1
102
RTVSPropertyOp62
 70
     1
  0
XRECORD
  5
9EBB
102
{ACAD_REACTORS
330
9EBA
102
}
330
9EBA
100
AcDbXrecord
280
     1
102
RTVSPost2010Prop28
280
     0
102
RTVSPost2010PropOp28
 70
     1
102
RTVSPost2010Prop29
280
     1
102
RTVSPost2010PropOp29
 70
     1
102
RTVSPost2010Prop30
280
     1
102
RTVSPost2010PropOp30
 70
     1
102
RTVSPost2010Prop31
280
     0
102
RTVSPost2010PropOp31
 70
     1
102
RTVSPost2010Prop32
280
     0
102
RTVSPost2010PropOp32
 70
     1
102
RTVSPost2010Prop33
280
     0
102
RTVSPost2010PropOp33
 70
     1
102
RTVSPost2010Prop34
280
     0
102
RTVSPost2010PropOp34
 70
     1
102
RTVSPost2010Prop35
280
     0
102
RTVSPost2010PropOp35
 70
     1
102
RTVSPost2010Prop36
280
     0
102
RTVSPost2010PropOp36
 70
     1
102
RTVSPost2010Prop37
 90
       50
102
RTVSPost2010PropOp37
 70
     1
102
RTVSPost2010Prop38
140
0.0
102
RTVSPost2010PropOp38
 70
     1
102
RTVSPost2010Prop39
140
1.0
102
RTVSPost2010PropOp39
 70
     1
102
RTVSPost2010Prop40
 90
        0
102
RTVSPost2010PropOp40
 70
     1
102
RTVSPost2010Prop41ColorIndex
 90
       18
102
RTVSPost2010Prop41ColorRGB
 90
        0
102
RTVSPost2010PropOp41
 70
     1
102
RTVSPost2010Prop42
 90
       50
102
RTVSPost2010PropOp42
 70
     1
102
RTVSPost2010Prop43
 90
        3
102
RTVSPost2010PropOp43
 70
     1
102
RTVSPost2010Prop44ColorIndex
 90
        5
102
RTVSPost2010Prop44ColorRGB
 90
      255
102
RTVSPost2010PropOp44
 70
     1
102
RTVSPost2010Prop45
280
     0
102
RTVSPost2010PropOp45
 70
     1
102
RTVSPost2010Prop46
 90
       50
102
RTVSPost2010PropOp46
 70
     1
102
RTVSPost2010Prop47
 90
       50
102
RTVSPost2010PropOp47
 70
     1
102
RTVSPost2010Prop48
 90
       50
102
RTVSPost2010PropOp48
 70
     1
102
RTVSPost2010Prop49
280
     0
102
RTVSPost2010PropOp49
 70
     1
102
RTVSPost2010Prop50
 90
       50
102
RTVSPost2010PropOp50
 70
     1
102
RTVSPost2010Prop51ColorIndex
 90
      256
102
RTVSPost2010Prop51ColorRGB
 90
-16777216
102
RTVSPost2010PropOp51
 70
     0
102
RTVSPost2010Prop52
140
1.0
102
RTVSPost2010PropOp52
 70
     0
102
RTVSPost2010Prop53
 90
        2
102
RTVSPost2010PropOp53
 70
     1
102
RTVSPost2010Prop54
  1
strokes_ogs.tif
102
RTVSPost2010PropOp54
 70
     1
102
RTVSPost2010Prop55
280
     0
102
RTVSPost2010PropOp55
 70
     1
102
RTVSPost2010Prop56
140
1.0
102
RTVSPost2010PropOp56
 70
     1
102
RTVSPost2010Prop57
140
1.0
102
RTVSPost2010PropOp57
 70
     1
102
RTVSPropertyOp0
 70
     1
102
RTVSPropertyOp1
 70
     1
102
RTVSPropertyOp2
 70
     1
102
RTVSPropertyOp3
 70
     1
102
RTVSPropertyOp4
 70
     1
102
RTVSPropertyOp5
 70
     1
102
RTVSPropertyOp6
 70
     1
102
RTVSPropertyOp7
 70
     1
102
RTVSPropertyOp8
 70
     1
102
RTVSPropertyOp9
 70
     1
102
RTVSPropertyOp10
 70
     1
102
RTVSPropertyOp11
 70
     1
102
RTVSPropertyOp12
 70
     1
102
RTVSPropertyOp13
 70
     1
102
RTVSPropertyOp14
 70
     1
102
RTVSPropertyOp15
 70
     1
102
RTVSPropertyOp16
 70
     1
102
RTVSPropertyOp17
 70
     1
102
RTVSPropertyOp18
 70
     1
102
RTVSPropertyOp19
 70
     1
102
RTVSPropertyOp20
 70
     1
102
RTVSPropertyOp21
 70
     1
102
RTVSPropertyOp22
 70
     1
102
RTVSPropertyOp23
 70
     1
102
RTVSPropertyOp24
 70
     1
102
RTVSPropertyOp25
 70
     1
102
RTVSPropertyOp26
 70
     1
102
RTVSPropertyOp27
 70
     1
102
RTVSPropertyOp28
 70
     1
102
RTVSPropertyOp29
 70
     1
102
RTVSPropertyOp30
 70
     1
102
RTVSPropertyOp31
 70
     1
102
RTVSPropertyOp32
 70
     1
102
RTVSPropertyOp33
 70
     1
102
RTVSPropertyOp34
 70
     1
102
RTVSPropertyOp35
 70
     1
102
RTVSPropertyOp36
 70
     1
102
RTVSPropertyOp37
 70
     1
102
RTVSPropertyOp38
 70
     1
102
RTVSPropertyOp39
 70
     1
102
RTVSPropertyOp40
 70
     1
102
RTVSPropertyOp41
 70
     1
102
RTVSPropertyOp42
 70
     1
102
RTVSPropertyOp43
 70
     1
102
RTVSPropertyOp44
 70
     1
102
RTVSPropertyOp45
 70
     1
102
RTVSPropertyOp46
 70
     1
102
RTVSPropertyOp47
 70
     1
102
RTVSPropertyOp48
 70
     1
102
RTVSPropertyOp49
 70
     1
102
RTVSPropertyOp50
 70
     1
102
RTVSPropertyOp51
 70
     0
102
RTVSPropertyOp52
 70
     0
102
RTVSPropertyOp53
 70
     1
102
RTVSPropertyOp54
 70
     1
102
RTVSPropertyOp55
 70
     1
102
RTVSPropertyOp56
 70
     1
102
RTVSPropertyOp57
 70
     1
102
RTVSPropertyOp58
 70
     1
102
RTVSPropertyOp59
 70
     1
102
RTVSPropertyOp60
 70
     1
102
RTVSPropertyOp61
 70
     1
102
RTVSPropertyOp62
 70
     1
  0
XRECORD
  5
9EB9
102
{ACAD_REACTORS
330
9EB8
102
}
330
9EB8
100
AcDbXrecord
280
     1
102
RTVSPost2010Prop28
280
     0
102
RTVSPost2010PropOp28
 70
     1
102
RTVSPost2010Prop29
280
     1
102
RTVSPost2010PropOp29
 70
     1
102
RTVSPost2010Prop30
280
     1
102
RTVSPost2010PropOp30
 70
     1
102
RTVSPost2010Prop31
280
     0
102
RTVSPost2010PropOp31
 70
     1
102
RTVSPost2010Prop32
280
     0
102
RTVSPost2010PropOp32
 70
     1
102
RTVSPost2010Prop33
280
     0
102
RTVSPost2010PropOp33
 70
     1
102
RTVSPost2010Prop34
280
     0
102
RTVSPost2010PropOp34
 70
     1
102
RTVSPost2010Prop35
280
     0
102
RTVSPost2010PropOp35
 70
     1
102
RTVSPost2010Prop36
280
     0
102
RTVSPost2010PropOp36
 70
     1
102
RTVSPost2010Prop37
 90
       50
102
RTVSPost2010PropOp37
 70
     1
102
RTVSPost2010Prop38
140
0.0
102
RTVSPost2010PropOp38
 70
     1
102
RTVSPost2010Prop39
140
1.0
102
RTVSPost2010PropOp39
 70
     1
102
RTVSPost2010Prop40
 90
        0
102
RTVSPost2010PropOp40
 70
     1
102
RTVSPost2010Prop41ColorIndex
 90
       18
102
RTVSPost2010Prop41ColorRGB
 90
        0
102
RTVSPost2010PropOp41
 70
     1
102
RTVSPost2010Prop42
 90
       50
102
RTVSPost2010PropOp42
 70
     1
102
RTVSPost2010Prop43
 90
        3
102
RTVSPost2010PropOp43
 70
     1
102
RTVSPost2010Prop44ColorIndex
 90
        5
102
RTVSPost2010Prop44ColorRGB
 90
      255
102
RTVSPost2010PropOp44
 70
     1
102
RTVSPost2010Prop45
280
     0
102
RTVSPost2010PropOp45
 70
     1
102
RTVSPost2010Prop46
 90
       50
102
RTVSPost2010PropOp46
 70
     1
102
RTVSPost2010Prop47
 90
       50
102
RTVSPost2010PropOp47
 70
     1
102
RTVSPost2010Prop48
 90
       50
102
RTVSPost2010PropOp48
 70
     1
102
RTVSPost2010Prop49
280
     0
102
RTVSPost2010PropOp49
 70
     1
102
RTVSPost2010Prop50
 90
       50
102
RTVSPost2010PropOp50
 70
     1
102
RTVSPost2010Prop51ColorIndex
 90
      256
102
RTVSPost2010Prop51ColorRGB
 90
-16777216
102
RTVSPost2010PropOp51
 70
     0
102
RTVSPost2010Prop52
140
1.0
102
RTVSPost2010PropOp52
 70
     0
102
RTVSPost2010Prop53
 90
        2
102
RTVSPost2010PropOp53
 70
     1
102
RTVSPost2010Prop54
  1
strokes_ogs.tif
102
RTVSPost2010PropOp54
 70
     1
102
RTVSPost2010Prop55
280
     0
102
RTVSPost2010PropOp55
 70
     1
102
RTVSPost2010Prop56
140
1.0
102
RTVSPost2010PropOp56
 70
     1
102
RTVSPost2010Prop57
140
1.0
102
RTVSPost2010PropOp57
 70
     1
102
RTVSPropertyOp0
 70
     1
102
RTVSPropertyOp1
 70
     1
102
RTVSPropertyOp2
 70
     1
102
RTVSPropertyOp3
 70
     1
102
RTVSPropertyOp4
 70
     1
102
RTVSPropertyOp5
 70
     1
102
RTVSPropertyOp6
 70
     1
102
RTVSPropertyOp7
 70
     1
102
RTVSPropertyOp8
 70
     1
102
RTVSPropertyOp9
 70
     1
102
RTVSPropertyOp10
 70
     1
102
RTVSPropertyOp11
 70
     1
102
RTVSPropertyOp12
 70
     1
102
RTVSPropertyOp13
 70
     1
102
RTVSPropertyOp14
 70
     1
102
RTVSPropertyOp15
 70
     1
102
RTVSPropertyOp16
 70
     1
102
RTVSPropertyOp17
 70
     1
102
RTVSPropertyOp18
 70
     1
102
RTVSPropertyOp19
 70
     1
102
RTVSPropertyOp20
 70
     1
102
RTVSPropertyOp21
 70
     1
102
RTVSPropertyOp22
 70
     1
102
RTVSPropertyOp23
 70
     1
102
RTVSPropertyOp24
 70
     1
102
RTVSPropertyOp25
 70
     1
102
RTVSPropertyOp26
 70
     1
102
RTVSPropertyOp27
 70
     1
102
RTVSPropertyOp28
 70
     1
102
RTVSPropertyOp29
 70
     1
102
RTVSPropertyOp30
 70
     1
102
RTVSPropertyOp31
 70
     1
102
RTVSPropertyOp32
 70
     1
102
RTVSPropertyOp33
 70
     1
102
RTVSPropertyOp34
 70
     1
102
RTVSPropertyOp35
 70
     1
102
RTVSPropertyOp36
 70
     1
102
RTVSPropertyOp37
 70
     1
102
RTVSPropertyOp38
 70
     1
102
RTVSPropertyOp39
 70
     1
102
RTVSPropertyOp40
 70
     1
102
RTVSPropertyOp41
 70
     1
102
RTVSPropertyOp42
 70
     1
102
RTVSPropertyOp43
 70
     1
102
RTVSPropertyOp44
 70
     1
102
RTVSPropertyOp45
 70
     1
102
RTVSPropertyOp46
 70
     1
102
RTVSPropertyOp47
 70
     1
102
RTVSPropertyOp48
 70
     1
102
RTVSPropertyOp49
 70
     1
102
RTVSPropertyOp50
 70
     1
102
RTVSPropertyOp51
 70
     0
102
RTVSPropertyOp52
 70
     0
102
RTVSPropertyOp53
 70
     1
102
RTVSPropertyOp54
 70
     1
102
RTVSPropertyOp55
 70
     1
102
RTVSPropertyOp56
 70
     1
102
RTVSPropertyOp57
 70
     1
102
RTVSPropertyOp58
 70
     1
102
RTVSPropertyOp59
 70
     1
102
RTVSPropertyOp60
 70
     1
102
RTVSPropertyOp61
 70
     1
102
RTVSPropertyOp62
 70
     1
  0
XRECORD
  5
9EB3
102
{ACAD_REACTORS
330
9EB2
102
}
330
9EB2
100
AcDbXrecord
280
     1
102
RTVSPost2010Prop28
280
     0
102
RTVSPost2010PropOp28
 70
     1
102
RTVSPost2010Prop29
280
     1
102
RTVSPost2010PropOp29
 70
     1
102
RTVSPost2010Prop30
280
     1
102
RTVSPost2010PropOp30
 70
     1
102
RTVSPost2010Prop31
280
     0
102
RTVSPost2010PropOp31
 70
     1
102
RTVSPost2010Prop32
280
     0
102
RTVSPost2010PropOp32
 70
     1
102
RTVSPost2010Prop33
280
     0
102
RTVSPost2010PropOp33
 70
     1
102
RTVSPost2010Prop34
280
     0
102
RTVSPost2010PropOp34
 70
     1
102
RTVSPost2010Prop35
280
     0
102
RTVSPost2010PropOp35
 70
     1
102
RTVSPost2010Prop36
280
     0
102
RTVSPost2010PropOp36
 70
     1
102
RTVSPost2010Prop37
 90
       50
102
RTVSPost2010PropOp37
 70
     1
102
RTVSPost2010Prop38
140
0.0
102
RTVSPost2010PropOp38
 70
     1
102
RTVSPost2010Prop39
140
1.0
102
RTVSPost2010PropOp39
 70
     1
102
RTVSPost2010Prop40
 90
        0
102
RTVSPost2010PropOp40
 70
     1
102
RTVSPost2010Prop41ColorIndex
 90
       18
102
RTVSPost2010Prop41ColorRGB
 90
        0
102
RTVSPost2010PropOp41
 70
     1
102
RTVSPost2010Prop42
 90
       50
102
RTVSPost2010PropOp42
 70
     1
102
RTVSPost2010Prop43
 90
        3
102
RTVSPost2010PropOp43
 70
     1
102
RTVSPost2010Prop44ColorIndex
 90
        5
102
RTVSPost2010Prop44ColorRGB
 90
      255
102
RTVSPost2010PropOp44
 70
     1
102
RTVSPost2010Prop45
280
     0
102
RTVSPost2010PropOp45
 70
     1
102
RTVSPost2010Prop46
 90
       50
102
RTVSPost2010PropOp46
 70
     1
102
RTVSPost2010Prop47
 90
       50
102
RTVSPost2010PropOp47
 70
     1
102
RTVSPost2010Prop48
 90
       50
102
RTVSPost2010PropOp48
 70
     1
102
RTVSPost2010Prop49
280
     0
102
RTVSPost2010PropOp49
 70
     1
102
RTVSPost2010Prop50
 90
       50
102
RTVSPost2010PropOp50
 70
     1
102
RTVSPost2010Prop51ColorIndex
 90
      256
102
RTVSPost2010Prop51ColorRGB
 90
-16777216
102
RTVSPost2010PropOp51
 70
     0
102
RTVSPost2010Prop52
140
1.0
102
RTVSPost2010PropOp52
 70
     0
102
RTVSPost2010Prop53
 90
        2
102
RTVSPost2010PropOp53
 70
     1
102
RTVSPost2010Prop54
  1
strokes_ogs.tif
102
RTVSPost2010PropOp54
 70
     1
102
RTVSPost2010Prop55
280
     0
102
RTVSPost2010PropOp55
 70
     1
102
RTVSPost2010Prop56
140
1.0
102
RTVSPost2010PropOp56
 70
     1
102
RTVSPost2010Prop57
140
1.0
102
RTVSPost2010PropOp57
 70
     1
102
RTVSPropertyOp0
 70
     1
102
RTVSPropertyOp1
 70
     1
102
RTVSPropertyOp2
 70
     1
102
RTVSPropertyOp3
 70
     1
102
RTVSPropertyOp4
 70
     1
102
RTVSPropertyOp5
 70
     1
102
RTVSPropertyOp6
 70
     1
102
RTVSPropertyOp7
 70
     1
102
RTVSPropertyOp8
 70
     1
102
RTVSPropertyOp9
 70
     1
102
RTVSPropertyOp10
 70
     1
102
RTVSPropertyOp11
 70
     1
102
RTVSPropertyOp12
 70
     1
102
RTVSPropertyOp13
 70
     1
102
RTVSPropertyOp14
 70
     1
102
RTVSPropertyOp15
 70
     1
102
RTVSPropertyOp16
 70
     1
102
RTVSPropertyOp17
 70
     1
102
RTVSPropertyOp18
 70
     1
102
RTVSPropertyOp19
 70
     1
102
RTVSPropertyOp20
 70
     1
102
RTVSPropertyOp21
 70
     1
102
RTVSPropertyOp22
 70
     1
102
RTVSPropertyOp23
 70
     1
102
RTVSPropertyOp24
 70
     1
102
RTVSPropertyOp25
 70
     1
102
RTVSPropertyOp26
 70
     1
102
RTVSPropertyOp27
 70
     1
102
RTVSPropertyOp28
 70
     1
102
RTVSPropertyOp29
 70
     1
102
RTVSPropertyOp30
 70
     1
102
RTVSPropertyOp31
 70
     1
102
RTVSPropertyOp32
 70
     1
102
RTVSPropertyOp33
 70
     1
102
RTVSPropertyOp34
 70
     1
102
RTVSPropertyOp35
 70
     1
102
RTVSPropertyOp36
 70
     1
102
RTVSPropertyOp37
 70
     1
102
RTVSPropertyOp38
 70
     1
102
RTVSPropertyOp39
 70
     1
102
RTVSPropertyOp40
 70
     1
102
RTVSPropertyOp41
 70
     1
102
RTVSPropertyOp42
 70
     1
102
RTVSPropertyOp43
 70
     1
102
RTVSPropertyOp44
 70
     1
102
RTVSPropertyOp45
 70
     1
102
RTVSPropertyOp46
 70
     1
102
RTVSPropertyOp47
 70
     1
102
RTVSPropertyOp48
 70
     1
102
RTVSPropertyOp49
 70
     1
102
RTVSPropertyOp50
 70
     1
102
RTVSPropertyOp51
 70
     0
102
RTVSPropertyOp52
 70
     0
102
RTVSPropertyOp53
 70
     1
102
RTVSPropertyOp54
 70
     1
102
RTVSPropertyOp55
 70
     1
102
RTVSPropertyOp56
 70
     1
102
RTVSPropertyOp57
 70
     1
102
RTVSPropertyOp58
 70
     1
102
RTVSPropertyOp59
 70
     1
102
RTVSPropertyOp60
 70
     1
102
RTVSPropertyOp61
 70
     1
102
RTVSPropertyOp62
 70
     1
  0
XRECORD
  5
9EB5
102
{ACAD_REACTORS
330
9EB4
102
}
330
9EB4
100
AcDbXrecord
280
     1
102
RTVSPost2010Prop28
280
     0
102
RTVSPost2010PropOp28
 70
     1
102
RTVSPost2010Prop29
280
     1
102
RTVSPost2010PropOp29
 70
     1
102
RTVSPost2010Prop30
280
     1
102
RTVSPost2010PropOp30
 70
     1
102
RTVSPost2010Prop31
280
     0
102
RTVSPost2010PropOp31
 70
     1
102
RTVSPost2010Prop32
280
     0
102
RTVSPost2010PropOp32
 70
     1
102
RTVSPost2010Prop33
280
     0
102
RTVSPost2010PropOp33
 70
     1
102
RTVSPost2010Prop34
280
     0
102
RTVSPost2010PropOp34
 70
     1
102
RTVSPost2010Prop35
280
     0
102
RTVSPost2010PropOp35
 70
     1
102
RTVSPost2010Prop36
280
     0
102
RTVSPost2010PropOp36
 70
     1
102
RTVSPost2010Prop37
 90
       50
102
RTVSPost2010PropOp37
 70
     1
102
RTVSPost2010Prop38
140
0.0
102
RTVSPost2010PropOp38
 70
     1
102
RTVSPost2010Prop39
140
1.0
102
RTVSPost2010PropOp39
 70
     1
102
RTVSPost2010Prop40
 90
        0
102
RTVSPost2010PropOp40
 70
     1
102
RTVSPost2010Prop41ColorIndex
 90
       18
102
RTVSPost2010Prop41ColorRGB
 90
        0
102
RTVSPost2010PropOp41
 70
     1
102
RTVSPost2010Prop42
 90
       50
102
RTVSPost2010PropOp42
 70
     1
102
RTVSPost2010Prop43
 90
        3
102
RTVSPost2010PropOp43
 70
     1
102
RTVSPost2010Prop44ColorIndex
 90
        5
102
RTVSPost2010Prop44ColorRGB
 90
      255
102
RTVSPost2010PropOp44
 70
     1
102
RTVSPost2010Prop45
280
     0
102
RTVSPost2010PropOp45
 70
     1
102
RTVSPost2010Prop46
 90
       50
102
RTVSPost2010PropOp46
 70
     1
102
RTVSPost2010Prop47
 90
       50
102
RTVSPost2010PropOp47
 70
     1
102
RTVSPost2010Prop48
 90
       50
102
RTVSPost2010PropOp48
 70
     1
102
RTVSPost2010Prop49
280
     0
102
RTVSPost2010PropOp49
 70
     1
102
RTVSPost2010Prop50
 90
       50
102
RTVSPost2010PropOp50
 70
     1
102
RTVSPost2010Prop51ColorIndex
 90
      256
102
RTVSPost2010Prop51ColorRGB
 90
-16777216
102
RTVSPost2010PropOp51
 70
     0
102
RTVSPost2010Prop52
140
1.0
102
RTVSPost2010PropOp52
 70
     0
102
RTVSPost2010Prop53
 90
        2
102
RTVSPost2010PropOp53
 70
     1
102
RTVSPost2010Prop54
  1
strokes_ogs.tif
102
RTVSPost2010PropOp54
 70
     1
102
RTVSPost2010Prop55
280
     0
102
RTVSPost2010PropOp55
 70
     1
102
RTVSPost2010Prop56
140
1.0
102
RTVSPost2010PropOp56
 70
     1
102
RTVSPost2010Prop57
140
1.0
102
RTVSPost2010PropOp57
 70
     1
102
RTVSPropertyOp0
 70
     1
102
RTVSPropertyOp1
 70
     1
102
RTVSPropertyOp2
 70
     1
102
RTVSPropertyOp3
 70
     1
102
RTVSPropertyOp4
 70
     1
102
RTVSPropertyOp5
 70
     1
102
RTVSPropertyOp6
 70
     1
102
RTVSPropertyOp7
 70
     1
102
RTVSPropertyOp8
 70
     1
102
RTVSPropertyOp9
 70
     1
102
RTVSPropertyOp10
 70
     1
102
RTVSPropertyOp11
 70
     1
102
RTVSPropertyOp12
 70
     1
102
RTVSPropertyOp13
 70
     1
102
RTVSPropertyOp14
 70
     1
102
RTVSPropertyOp15
 70
     1
102
RTVSPropertyOp16
 70
     1
102
RTVSPropertyOp17
 70
     1
102
RTVSPropertyOp18
 70
     1
102
RTVSPropertyOp19
 70
     1
102
RTVSPropertyOp20
 70
     1
102
RTVSPropertyOp21
 70
     1
102
RTVSPropertyOp22
 70
     1
102
RTVSPropertyOp23
 70
     1
102
RTVSPropertyOp24
 70
     1
102
RTVSPropertyOp25
 70
     1
102
RTVSPropertyOp26
 70
     1
102
RTVSPropertyOp27
 70
     1
102
RTVSPropertyOp28
 70
     1
102
RTVSPropertyOp29
 70
     1
102
RTVSPropertyOp30
 70
     1
102
RTVSPropertyOp31
 70
     1
102
RTVSPropertyOp32
 70
     1
102
RTVSPropertyOp33
 70
     1
102
RTVSPropertyOp34
 70
     1
102
RTVSPropertyOp35
 70
     1
102
RTVSPropertyOp36
 70
     1
102
RTVSPropertyOp37
 70
     1
102
RTVSPropertyOp38
 70
     1
102
RTVSPropertyOp39
 70
     1
102
RTVSPropertyOp40
 70
     1
102
RTVSPropertyOp41
 70
     1
102
RTVSPropertyOp42
 70
     1
102
RTVSPropertyOp43
 70
     1
102
RTVSPropertyOp44
 70
     1
102
RTVSPropertyOp45
 70
     1
102
RTVSPropertyOp46
 70
     1
102
RTVSPropertyOp47
 70
     1
102
RTVSPropertyOp48
 70
     1
102
RTVSPropertyOp49
 70
     1
102
RTVSPropertyOp50
 70
     1
102
RTVSPropertyOp51
 70
     0
102
RTVSPropertyOp52
 70
     0
102
RTVSPropertyOp53
 70
     1
102
RTVSPropertyOp54
 70
     1
102
RTVSPropertyOp55
 70
     1
102
RTVSPropertyOp56
 70
     1
102
RTVSPropertyOp57
 70
     1
102
RTVSPropertyOp58
 70
     1
102
RTVSPropertyOp59
 70
     1
102
RTVSPropertyOp60
 70
     1
102
RTVSPropertyOp61
 70
     1
102
RTVSPropertyOp62
 70
     1
  0
XRECORD
  5
9EAB
102
{ACAD_REACTORS
330
9EAA
102
}
330
9EAA
100
AcDbXrecord
280
     1
102
RTVSPost2010Prop28
280
     0
102
RTVSPost2010PropOp28
 70
     1
102
RTVSPost2010Prop29
280
     1
102
RTVSPost2010PropOp29
 70
     1
102
RTVSPost2010Prop30
280
     1
102
RTVSPost2010PropOp30
 70
     1
102
RTVSPost2010Prop31
280
     0
102
RTVSPost2010PropOp31
 70
     1
102
RTVSPost2010Prop32
280
     0
102
RTVSPost2010PropOp32
 70
     1
102
RTVSPost2010Prop33
280
     0
102
RTVSPost2010PropOp33
 70
     1
102
RTVSPost2010Prop34
280
     0
102
RTVSPost2010PropOp34
 70
     1
102
RTVSPost2010Prop35
280
     0
102
RTVSPost2010PropOp35
 70
     1
102
RTVSPost2010Prop36
280
     0
102
RTVSPost2010PropOp36
 70
     1
102
RTVSPost2010Prop37
 90
       50
102
RTVSPost2010PropOp37
 70
     1
102
RTVSPost2010Prop38
140
0.0
102
RTVSPost2010PropOp38
 70
     1
102
RTVSPost2010Prop39
140
1.0
102
RTVSPost2010PropOp39
 70
     1
102
RTVSPost2010Prop40
 90
        0
102
RTVSPost2010PropOp40
 70
     1
102
RTVSPost2010Prop41ColorIndex
 90
       18
102
RTVSPost2010Prop41ColorRGB
 90
        0
102
RTVSPost2010PropOp41
 70
     1
102
RTVSPost2010Prop42
 90
       50
102
RTVSPost2010PropOp42
 70
     1
102
RTVSPost2010Prop43
 90
        3
102
RTVSPost2010PropOp43
 70
     1
102
RTVSPost2010Prop44ColorIndex
 90
        5
102
RTVSPost2010Prop44ColorRGB
 90
      255
102
RTVSPost2010PropOp44
 70
     1
102
RTVSPost2010Prop45
280
     0
102
RTVSPost2010PropOp45
 70
     1
102
RTVSPost2010Prop46
 90
       50
102
RTVSPost2010PropOp46
 70
     1
102
RTVSPost2010Prop47
 90
       50
102
RTVSPost2010PropOp47
 70
     1
102
RTVSPost2010Prop48
 90
       50
102
RTVSPost2010PropOp48
 70
     1
102
RTVSPost2010Prop49
280
     0
102
RTVSPost2010PropOp49
 70
     1
102
RTVSPost2010Prop50
 90
       50
102
RTVSPost2010PropOp50
 70
     1
102
RTVSPost2010Prop51ColorIndex
 90
      256
102
RTVSPost2010Prop51ColorRGB
 90
-16777216
102
RTVSPost2010PropOp51
 70
     0
102
RTVSPost2010Prop52
140
1.0
102
RTVSPost2010PropOp52
 70
     0
102
RTVSPost2010Prop53
 90
        2
102
RTVSPost2010PropOp53
 70
     1
102
RTVSPost2010Prop54
  1
strokes_ogs.tif
102
RTVSPost2010PropOp54
 70
     1
102
RTVSPost2010Prop55
280
     0
102
RTVSPost2010PropOp55
 70
     1
102
RTVSPost2010Prop56
140
1.0
102
RTVSPost2010PropOp56
 70
     1
102
RTVSPost2010Prop57
140
1.0
102
RTVSPost2010PropOp57
 70
     1
102
RTVSPropertyOp0
 70
     1
102
RTVSPropertyOp1
 70
     1
102
RTVSPropertyOp2
 70
     1
102
RTVSPropertyOp3
 70
     1
102
RTVSPropertyOp4
 70
     1
102
RTVSPropertyOp5
 70
     1
102
RTVSPropertyOp6
 70
     1
102
RTVSPropertyOp7
 70
     1
102
RTVSPropertyOp8
 70
     1
102
RTVSPropertyOp9
 70
     1
102
RTVSPropertyOp10
 70
     1
102
RTVSPropertyOp11
 70
     1
102
RTVSPropertyOp12
 70
     1
102
RTVSPropertyOp13
 70
     1
102
RTVSPropertyOp14
 70
     1
102
RTVSPropertyOp15
 70
     1
102
RTVSPropertyOp16
 70
     1
102
RTVSPropertyOp17
 70
     1
102
RTVSPropertyOp18
 70
     1
102
RTVSPropertyOp19
 70
     1
102
RTVSPropertyOp20
 70
     1
102
RTVSPropertyOp21
 70
     1
102
RTVSPropertyOp22
 70
     1
102
RTVSPropertyOp23
 70
     1
102
RTVSPropertyOp24
 70
     1
102
RTVSPropertyOp25
 70
     1
102
RTVSPropertyOp26
 70
     1
102
RTVSPropertyOp27
 70
     1
102
RTVSPropertyOp28
 70
     1
102
RTVSPropertyOp29
 70
     1
102
RTVSPropertyOp30
 70
     1
102
RTVSPropertyOp31
 70
     1
102
RTVSPropertyOp32
 70
     1
102
RTVSPropertyOp33
 70
     1
102
RTVSPropertyOp34
 70
     1
102
RTVSPropertyOp35
 70
     1
102
RTVSPropertyOp36
 70
     1
102
RTVSPropertyOp37
 70
     1
102
RTVSPropertyOp38
 70
     1
102
RTVSPropertyOp39
 70
     1
102
RTVSPropertyOp40
 70
     1
102
RTVSPropertyOp41
 70
     1
102
RTVSPropertyOp42
 70
     1
102
RTVSPropertyOp43
 70
     1
102
RTVSPropertyOp44
 70
     1
102
RTVSPropertyOp45
 70
     1
102
RTVSPropertyOp46
 70
     1
102
RTVSPropertyOp47
 70
     1
102
RTVSPropertyOp48
 70
     1
102
RTVSPropertyOp49
 70
     1
102
RTVSPropertyOp50
 70
     1
102
RTVSPropertyOp51
 70
     0
102
RTVSPropertyOp52
 70
     0
102
RTVSPropertyOp53
 70
     1
102
RTVSPropertyOp54
 70
     1
102
RTVSPropertyOp55
 70
     1
102
RTVSPropertyOp56
 70
     1
102
RTVSPropertyOp57
 70
     1
102
RTVSPropertyOp58
 70
     1
102
RTVSPropertyOp59
 70
     1
102
RTVSPropertyOp60
 70
     1
102
RTVSPropertyOp61
 70
     1
102
RTVSPropertyOp62
 70
     1
  0
XRECORD
  5
9E9F
102
{ACAD_REACTORS
330
9E9E
102
}
330
9E9E
100
AcDbXrecord
280
     1
102
RTVSPost2010Prop28
280
     0
102
RTVSPost2010PropOp28
 70
     1
102
RTVSPost2010Prop29
280
     1
102
RTVSPost2010PropOp29
 70
     1
102
RTVSPost2010Prop30
280
     1
102
RTVSPost2010PropOp30
 70
     1
102
RTVSPost2010Prop31
280
     0
102
RTVSPost2010PropOp31
 70
     1
102
RTVSPost2010Prop32
280
     0
102
RTVSPost2010PropOp32
 70
     1
102
RTVSPost2010Prop33
280
     0
102
RTVSPost2010PropOp33
 70
     1
102
RTVSPost2010Prop34
280
     0
102
RTVSPost2010PropOp34
 70
     1
102
RTVSPost2010Prop35
280
     0
102
RTVSPost2010PropOp35
 70
     1
102
RTVSPost2010Prop36
280
     0
102
RTVSPost2010PropOp36
 70
     1
102
RTVSPost2010Prop37
 90
       50
102
RTVSPost2010PropOp37
 70
     1
102
RTVSPost2010Prop38
140
0.0
102
RTVSPost2010PropOp38
 70
     1
102
RTVSPost2010Prop39
140
1.0
102
RTVSPost2010PropOp39
 70
     1
102
RTVSPost2010Prop40
 90
        0
102
RTVSPost2010PropOp40
 70
     1
102
RTVSPost2010Prop41ColorIndex
 90
       18
102
RTVSPost2010Prop41ColorRGB
 90
        0
102
RTVSPost2010PropOp41
 70
     1
102
RTVSPost2010Prop42
 90
       50
102
RTVSPost2010PropOp42
 70
     1
102
RTVSPost2010Prop43
 90
        3
102
RTVSPost2010PropOp43
 70
     1
102
RTVSPost2010Prop44ColorIndex
 90
        5
102
RTVSPost2010Prop44ColorRGB
 90
      255
102
RTVSPost2010PropOp44
 70
     1
102
RTVSPost2010Prop45
280
     0
102
RTVSPost2010PropOp45
 70
     1
102
RTVSPost2010Prop46
 90
       50
102
RTVSPost2010PropOp46
 70
     1
102
RTVSPost2010Prop47
 90
       50
102
RTVSPost2010PropOp47
 70
     1
102
RTVSPost2010Prop48
 90
       50
102
RTVSPost2010PropOp48
 70
     1
102
RTVSPost2010Prop49
280
     0
102
RTVSPost2010PropOp49
 70
     1
102
RTVSPost2010Prop50
 90
       50
102
RTVSPost2010PropOp50
 70
     1
102
RTVSPost2010Prop51ColorIndex
 90
      256
102
RTVSPost2010Prop51ColorRGB
 90
-16777216
102
RTVSPost2010PropOp51
 70
     0
102
RTVSPost2010Prop52
140
1.0
102
RTVSPost2010PropOp52
 70
     0
102
RTVSPost2010Prop53
 90
        2
102
RTVSPost2010PropOp53
 70
     1
102
RTVSPost2010Prop54
  1
strokes_ogs.tif
102
RTVSPost2010PropOp54
 70
     1
102
RTVSPost2010Prop55
280
     0
102
RTVSPost2010PropOp55
 70
     1
102
RTVSPost2010Prop56
140
1.0
102
RTVSPost2010PropOp56
 70
     1
102
RTVSPost2010Prop57
140
1.0
102
RTVSPost2010PropOp57
 70
     1
102
RTVSPropertyOp0
 70
     1
102
RTVSPropertyOp1
 70
     1
102
RTVSPropertyOp2
 70
     1
102
RTVSPropertyOp3
 70
     1
102
RTVSPropertyOp4
 70
     1
102
RTVSPropertyOp5
 70
     1
102
RTVSPropertyOp6
 70
     1
102
RTVSPropertyOp7
 70
     1
102
RTVSPropertyOp8
 70
     1
102
RTVSPropertyOp9
 70
     1
102
RTVSPropertyOp10
 70
     1
102
RTVSPropertyOp11
 70
     1
102
RTVSPropertyOp12
 70
     1
102
RTVSPropertyOp13
 70
     1
102
RTVSPropertyOp14
 70
     1
102
RTVSPropertyOp15
 70
     1
102
RTVSPropertyOp16
 70
     1
102
RTVSPropertyOp17
 70
     1
102
RTVSPropertyOp18
 70
     1
102
RTVSPropertyOp19
 70
     1
102
RTVSPropertyOp20
 70
     1
102
RTVSPropertyOp21
 70
     1
102
RTVSPropertyOp22
 70
     1
102
RTVSPropertyOp23
 70
     1
102
RTVSPropertyOp24
 70
     1
102
RTVSPropertyOp25
 70
     1
102
RTVSPropertyOp26
 70
     1
102
RTVSPropertyOp27
 70
     1
102
RTVSPropertyOp28
 70
     1
102
RTVSPropertyOp29
 70
     1
102
RTVSPropertyOp30
 70
     1
102
RTVSPropertyOp31
 70
     1
102
RTVSPropertyOp32
 70
     1
102
RTVSPropertyOp33
 70
     1
102
RTVSPropertyOp34
 70
     1
102
RTVSPropertyOp35
 70
     1
102
RTVSPropertyOp36
 70
     1
102
RTVSPropertyOp37
 70
     1
102
RTVSPropertyOp38
 70
     1
102
RTVSPropertyOp39
 70
     1
102
RTVSPropertyOp40
 70
     1
102
RTVSPropertyOp41
 70
     1
102
RTVSPropertyOp42
 70
     1
102
RTVSPropertyOp43
 70
     1
102
RTVSPropertyOp44
 70
     1
102
RTVSPropertyOp45
 70
     1
102
RTVSPropertyOp46
 70
     1
102
RTVSPropertyOp47
 70
     1
102
RTVSPropertyOp48
 70
     1
102
RTVSPropertyOp49
 70
     1
102
RTVSPropertyOp50
 70
     1
102
RTVSPropertyOp51
 70
     0
102
RTVSPropertyOp52
 70
     0
102
RTVSPropertyOp53
 70
     1
102
RTVSPropertyOp54
 70
     1
102
RTVSPropertyOp55
 70
     1
102
RTVSPropertyOp56
 70
     1
102
RTVSPropertyOp57
 70
     1
102
RTVSPropertyOp58
 70
     1
102
RTVSPropertyOp59
 70
     1
102
RTVSPropertyOp60
 70
     1
102
RTVSPropertyOp61
 70
     1
102
RTVSPropertyOp62
 70
     1
  0
XRECORD
  5
9EB7
102
{ACAD_REACTORS
330
9EB6
102
}
330
9EB6
100
AcDbXrecord
280
     1
102
RTVSPost2010Prop28
280
     0
102
RTVSPost2010PropOp28
 70
     1
102
RTVSPost2010Prop29
280
     1
102
RTVSPost2010PropOp29
 70
     1
102
RTVSPost2010Prop30
280
     1
102
RTVSPost2010PropOp30
 70
     1
102
RTVSPost2010Prop31
280
     0
102
RTVSPost2010PropOp31
 70
     1
102
RTVSPost2010Prop32
280
     0
102
RTVSPost2010PropOp32
 70
     1
102
RTVSPost2010Prop33
280
     0
102
RTVSPost2010PropOp33
 70
     1
102
RTVSPost2010Prop34
280
     0
102
RTVSPost2010PropOp34
 70
     1
102
RTVSPost2010Prop35
280
     0
102
RTVSPost2010PropOp35
 70
     1
102
RTVSPost2010Prop36
280
     0
102
RTVSPost2010PropOp36
 70
     1
102
RTVSPost2010Prop37
 90
       50
102
RTVSPost2010PropOp37
 70
     1
102
RTVSPost2010Prop38
140
0.0
102
RTVSPost2010PropOp38
 70
     1
102
RTVSPost2010Prop39
140
1.0
102
RTVSPost2010PropOp39
 70
     1
102
RTVSPost2010Prop40
 90
        0
102
RTVSPost2010PropOp40
 70
     1
102
RTVSPost2010Prop41ColorIndex
 90
       18
102
RTVSPost2010Prop41ColorRGB
 90
        0
102
RTVSPost2010PropOp41
 70
     1
102
RTVSPost2010Prop42
 90
       50
102
RTVSPost2010PropOp42
 70
     1
102
RTVSPost2010Prop43
 90
        3
102
RTVSPost2010PropOp43
 70
     1
102
RTVSPost2010Prop44ColorIndex
 90
        5
102
RTVSPost2010Prop44ColorRGB
 90
      255
102
RTVSPost2010PropOp44
 70
     1
102
RTVSPost2010Prop45
280
     0
102
RTVSPost2010PropOp45
 70
     1
102
RTVSPost2010Prop46
 90
       50
102
RTVSPost2010PropOp46
 70
     1
102
RTVSPost2010Prop47
 90
       50
102
RTVSPost2010PropOp47
 70
     1
102
RTVSPost2010Prop48
 90
       50
102
RTVSPost2010PropOp48
 70
     1
102
RTVSPost2010Prop49
280
     0
102
RTVSPost2010PropOp49
 70
     1
102
RTVSPost2010Prop50
 90
       50
102
RTVSPost2010PropOp50
 70
     1
102
RTVSPost2010Prop51ColorIndex
 90
      256
102
RTVSPost2010Prop51ColorRGB
 90
-16777216
102
RTVSPost2010PropOp51
 70
     0
102
RTVSPost2010Prop52
140
1.0
102
RTVSPost2010PropOp52
 70
     0
102
RTVSPost2010Prop53
 90
        2
102
RTVSPost2010PropOp53
 70
     1
102
RTVSPost2010Prop54
  1
strokes_ogs.tif
102
RTVSPost2010PropOp54
 70
     1
102
RTVSPost2010Prop55
280
     0
102
RTVSPost2010PropOp55
 70
     1
102
RTVSPost2010Prop56
140
1.0
102
RTVSPost2010PropOp56
 70
     1
102
RTVSPost2010Prop57
140
1.0
102
RTVSPost2010PropOp57
 70
     1
102
RTVSPropertyOp0
 70
     1
102
RTVSPropertyOp1
 70
     1
102
RTVSPropertyOp2
 70
     1
102
RTVSPropertyOp3
 70
     1
102
RTVSPropertyOp4
 70
     1
102
RTVSPropertyOp5
 70
     1
102
RTVSPropertyOp6
 70
     1
102
RTVSPropertyOp7
 70
     1
102
RTVSPropertyOp8
 70
     1
102
RTVSPropertyOp9
 70
     1
102
RTVSPropertyOp10
 70
     1
102
RTVSPropertyOp11
 70
     1
102
RTVSPropertyOp12
 70
     1
102
RTVSPropertyOp13
 70
     1
102
RTVSPropertyOp14
 70
     1
102
RTVSPropertyOp15
 70
     1
102
RTVSPropertyOp16
 70
     1
102
RTVSPropertyOp17
 70
     1
102
RTVSPropertyOp18
 70
     1
102
RTVSPropertyOp19
 70
     1
102
RTVSPropertyOp20
 70
     1
102
RTVSPropertyOp21
 70
     1
102
RTVSPropertyOp22
 70
     1
102
RTVSPropertyOp23
 70
     1
102
RTVSPropertyOp24
 70
     1
102
RTVSPropertyOp25
 70
     1
102
RTVSPropertyOp26
 70
     1
102
RTVSPropertyOp27
 70
     1
102
RTVSPropertyOp28
 70
     1
102
RTVSPropertyOp29
 70
     1
102
RTVSPropertyOp30
 70
     1
102
RTVSPropertyOp31
 70
     1
102
RTVSPropertyOp32
 70
     1
102
RTVSPropertyOp33
 70
     1
102
RTVSPropertyOp34
 70
     1
102
RTVSPropertyOp35
 70
     1
102
RTVSPropertyOp36
 70
     1
102
RTVSPropertyOp37
 70
     1
102
RTVSPropertyOp38
 70
     1
102
RTVSPropertyOp39
 70
     1
102
RTVSPropertyOp40
 70
     1
102
RTVSPropertyOp41
 70
     1
102
RTVSPropertyOp42
 70
     1
102
RTVSPropertyOp43
 70
     1
102
RTVSPropertyOp44
 70
     1
102
RTVSPropertyOp45
 70
     1
102
RTVSPropertyOp46
 70
     1
102
RTVSPropertyOp47
 70
     1
102
RTVSPropertyOp48
 70
     1
102
RTVSPropertyOp49
 70
     1
102
RTVSPropertyOp50
 70
     1
102
RTVSPropertyOp51
 70
     0
102
RTVSPropertyOp52
 70
     0
102
RTVSPropertyOp53
 70
     1
102
RTVSPropertyOp54
 70
     1
102
RTVSPropertyOp55
 70
     1
102
RTVSPropertyOp56
 70
     1
102
RTVSPropertyOp57
 70
     1
102
RTVSPropertyOp58
 70
     1
102
RTVSPropertyOp59
 70
     1
102
RTVSPropertyOp60
 70
     1
102
RTVSPropertyOp61
 70
     1
102
RTVSPropertyOp62
 70
     1
  0
ENDSEC
  0
EOF
