  0
SECTION
  2
HEADER
  9
$ACADVER
  1
AC1015
  9
$ACADMAINTVER
 70
    20
  9
$DWGCODEPAGE
  3
ANSI_932
  9
$INSBASE
 10
0.0
 20
0.0
 30
0.0
  9
$EXTMIN
 10
10.0
 20
9.999999999999998
 30
0.0
  9
$EXTMAX
 10
674.220223
 20
460.5716089999998
 30
0.0
  9
$LIMMIN
 10
0.0
 20
0.0
  9
$LIMMAX
 10
792.0
 20
546.0
  9
$ORTHOMODE
 70
     0
  9
$REGENMODE
 70
     1
  9
$FILLMODE
 70
     1
  9
$QTEXTMODE
 70
     0
  9
$MIRRTEXT
 70
     1
  9
$LTSCALE
 40
20.0
  9
$ATTMODE
 70
     1
  9
$TEXTSIZE
 40
5.0
  9
$TRACEWID
 40
1.0
  9
$TEXTSTYLE
  7
STANDARD
  9
$CLAYER
  8
0
  9
$CELTYPE
  6
BYLAYER
  9
$CECOLOR
 62
   256
  9
$CELTSCALE
 40
1.0
  9
$DISPSILH
 70
     0
  9
$DIMSCALE
 40
1.0
  9
$DIMASZ
 40
2.5
  9
$DIMEXO
 40
1.0
  9
$DIMDLI
 40
10.0
  9
$DIMRND
 40
0.0
  9
$DIMDLE
 40
0.0
  9
$DIMEXE
 40
1.0
  9
$DIMTP
 40
0.0
  9
$DIMTM
 40
0.0
  9
$DIMTXT
 40
3.2
  9
$DIMCEN
 40
0.0
  9
$DIMTSZ
 40
0.0
  9
$DIMTOL
 70
     0
  9
$DIMLIM
 70
     0
  9
$DIMTIH
 70
     0
  9
$DIMTOH
 70
     0
  9
$DIMSE1
 70
     0
  9
$DIMSE2
 70
     0
  9
$DIMTAD
 70
     3
  9
$DIMZIN
 70
     8
  9
$DIMBLK
  1

  9
$DIMASO
 70
     1
  9
$DIMSHO
 70
     1
  9
$DIMPOST
  1

  9
$DIMAPOST
  1

  9
$DIMALT
 70
     0
  9
$DIMALTD
 70
     2
  9
$DIMALTF
 40
25.4
  9
$DIMLFAC
 40
1.0
  9
$DIMTOFL
 70
     1
  9
$DIMTVP
 40
0.0
  9
$DIMTIX
 70
     0
  9
$DIMSOXD
 70
     0
  9
$DIMSAH
 70
     1
  9
$DIMBLK1
  1

  9
$DIMBLK2
  1

  9
$DIMSTYLE
  2
STANDARD
  9
$DIMCLRD
 70
     0
  9
$DIMCLRE
 70
     0
  9
$DIMCLRT
 70
     0
  9
$DIMTFAC
 40
1.0
  9
$DIMGAP
 40
1.0
  9
$DIMJUST
 70
     0
  9
$DIMSD1
 70
     0
  9
$DIMSD2
 70
     0
  9
$DIMTOLJ
 70
     1
  9
$DIMTZIN
 70
     0
  9
$DIMALTZ
 70
     0
  9
$DIMALTTZ
 70
     0
  9
$DIMUPT
 70
     0
  9
$DIMDEC
 70
     4
  9
$DIMTDEC
 70
     4
  9
$DIMALTU
 70
     2
  9
$DIMALTTD
 70
     2
  9
$DIMTXSTY
  7
STANDARD
  9
$DIMAUNIT
 70
     0
  9
$DIMADEC
 70
     0
  9
$DIMALTRND
 40
0.0
  9
$DIMAZIN
 70
     0
  9
$DIMDSEP
 70
    46
  9
$DIMATFIT
 70
     3
  9
$DIMFRAC
 70
     0
  9
$DIMLDRBLK
  1

  9
$DIMLUNIT
 70
     2
  9
$DIMLWD
 70
    -2
  9
$DIMLWE
 70
    -2
  9
$DIMTMOVE
 70
     0
  9
$LUNITS
 70
     2
  9
$LUPREC
 70
     4
  9
$SKETCHINC
 40
1.0
  9
$FILLETRAD
 40
3.299999999999998
  9
$AUNITS
 70
     0
  9
$AUPREC
 70
     2
  9
$MENU
  1
.
  9
$ELEVATION
 40
0.0
  9
$PELEVATION
 40
0.0
  9
$THICKNESS
 40
0.0
  9
$LIMCHECK
 70
     0
  9
$CHAMFERA
 40
10.0
  9
$CHAMFERB
 40
10.0
  9
$CHAMFERC
 40
0.0
  9
$CHAMFERD
 40
0.0
  9
$SKPOLY
 70
     0
  9
$TDCREATE
 40
2451301.440277315
  9
$TDUCREATE
 40
2451301.065277315
  9
$TDUPDATE
 40
2457192.690258565
  9
$TDUUPDATE
 40
2457192.315258565
  9
$TDINDWG
 40
0.1591809722
  9
$TDUSRTIMER
 40
0.1591804630
  9
$USRTIMER
 70
     1
  9
$ANGBASE
 50
0.0
  9
$ANGDIR
 70
     0
  9
$PDMODE
 70
     0
  9
$PDSIZE
 40
0.0
  9
$PLINEWID
 40
0.0
  9
$SPLFRAME
 70
     0
  9
$SPLINETYPE
 70
     6
  9
$SPLINESEGS
 70
     8
  9
$HANDSEED
  5
A277
  9
$SURFTAB1
 70
     6
  9
$SURFTAB2
 70
     6
  9
$SURFTYPE
 70
     6
  9
$SURFU
 70
     6
  9
$SURFV
 70
     6
  9
$UCSBASE
  2

  9
$UCSNAME
  2

  9
$UCSORG
 10
0.0
 20
0.0
 30
0.0
  9
$UCSXDIR
 10
1.0
 20
0.0
 30
0.0
  9
$UCSYDIR
 10
0.0
 20
1.0
 30
0.0
  9
$UCSORTHOREF
  2

  9
$UCSORTHOVIEW
 70
     0
  9
$UCSORGTOP
 10
0.0
 20
0.0
 30
0.0
  9
$UCSORGBOTTOM
 10
0.0
 20
0.0
 30
0.0
  9
$UCSORGLEFT
 10
0.0
 20
0.0
 30
0.0
  9
$UCSORGRIGHT
 10
0.0
 20
0.0
 30
0.0
  9
$UCSORGFRONT
 10
0.0
 20
0.0
 30
0.0
  9
$UCSORGBACK
 10
0.0
 20
0.0
 30
0.0
  9
$PUCSBASE
  2

  9
$PUCSNAME
  2

  9
$PUCSORG
 10
0.0
 20
0.0
 30
0.0
  9
$PUCSXDIR
 10
1.0
 20
0.0
 30
0.0
  9
$PUCSYDIR
 10
0.0
 20
1.0
 30
0.0
  9
$PUCSORTHOREF
  2

  9
$PUCSORTHOVIEW
 70
     0
  9
$PUCSORGTOP
 10
0.0
 20
0.0
 30
0.0
  9
$PUCSORGBOTTOM
 10
0.0
 20
0.0
 30
0.0
  9
$PUCSORGLEFT
 10
0.0
 20
0.0
 30
0.0
  9
$PUCSORGRIGHT
 10
0.0
 20
0.0
 30
0.0
  9
$PUCSORGFRONT
 10
0.0
 20
0.0
 30
0.0
  9
$PUCSORGBACK
 10
0.0
 20
0.0
 30
0.0
  9
$USERI1
 70
     0
  9
$USERI2
 70
     0
  9
$USERI3
 70
     0
  9
$USERI4
 70
     0
  9
$USERI5
 70
     0
  9
$USERR1
 40
0.0
  9
$USERR2
 40
0.0
  9
$USERR3
 40
0.0
  9
$USERR4
 40
0.0
  9
$USERR5
 40
0.0
  9
$WORLDVIEW
 70
     1
  9
$SHADEDGE
 70
     3
  9
$SHADEDIF
 70
    70
  9
$TILEMODE
 70
     1
  9
$MAXACTVP
 70
    16
  9
$PINSBASE
 10
0.0
 20
0.0
 30
0.0
  9
$PLIMCHECK
 70
     0
  9
$PEXTMIN
 10
1.000000000000000E+20
 20
1.000000000000000E+20
 30
1.000000000000000E+20
  9
$PEXTMAX
 10
-1.000000000000000E+20
 20
-1.000000000000000E+20
 30
-1.000000000000000E+20
  9
$PLIMMIN
 10
0.0
 20
0.0
  9
$PLIMMAX
 10
420.0
 20
297.0
  9
$UNITMODE
 70
     0
  9
$VISRETAIN
 70
     0
  9
$PLINEGEN
 70
     0
  9
$PSLTSCALE
 70
     0
  9
$TREEDEPTH
 70
  3020
  9
$CMLSTYLE
  2
STANDARD
  9
$CMLJUST
 70
     0
  9
$CMLSCALE
 40
1.0
  9
$PROXYGRAPHICS
 70
     1
  9
$MEASUREMENT
 70
     0
  9
$CELWEIGHT
370
    -1
  9
$ENDCAPS
280
     0
  9
$JOINSTYLE
280
     0
  9
$LWDISPLAY
290
     0
  9
$INSUNITS
 70
     0
  9
$HYPERLINKBASE
  1

  9
$STYLESHEET
  1

  9
$XEDIT
290
     1
  9
$CEPSNTYPE
380
     0
  9
$PSTYLEMODE
290
     1
  9
$FINGERPRINTGUID
  2
{54BFEA12-0108-462E-9CD7-6E27F4ABC565}
  9
$VERSIONGUID
  2
{8A02DB32-4D76-4117-8696-A9CE28379145}
  9
$EXTNAMES
290
     1
  9
$PSVPSCALE
 40
0.0
  9
$OLESTARTUP
290
     0
  0
ENDSEC
  0
SECTION
  2
CLASSES
  0
CLASS
  1
ACDBDICTIONARYWDFLT
  2
AcDbDictionaryWithDefault
  3
ObjectDBX Classes
 90
        0
280
     0
281
     0
  0
CLASS
  1
ACDBPLACEHOLDER
  2
AcDbPlaceHolder
  3
ObjectDBX Classes
 90
        0
280
     0
281
     0
  0
CLASS
  1
LAYOUT
  2
AcDbLayout
  3
ObjectDBX Classes
 90
        0
280
     0
281
     0
  0
CLASS
  1
DICTIONARYVAR
  2
AcDbDictionaryVar
  3
ObjectDBX Classes
 90
        0
280
     0
281
     0
  0
CLASS
  1
MATERIAL
  2
AcDbMaterial
  3
ObjectDBX Classes
 90
     1153
280
     0
281
     0
  0
CLASS
  1
VISUALSTYLE
  2
AcDbVisualStyle
  3
ObjectDBX Classes
 90
     4095
280
     0
281
     0
  0
CLASS
  1
TABLESTYLE
  2
AcDbTableStyle
  3
ObjectDBX Classes
 90
     4095
280
     0
281
     0
  0
CLASS
  1
SCALE
  2
AcDbScale
  3
ObjectDBX Classes
 90
     1153
280
     0
281
     0
  0
CLASS
  1
MLEADERSTYLE
  2
AcDbMLeaderStyle
  3
ACDB_MLEADERSTYLE_CLASS
 90
     4095
280
     0
281
     0
  0
CLASS
  1
ACDBSECTIONVIEWSTYLE
  2
AcDbSectionViewStyle
  3
ObjectDBX Classes
 90
     1025
280
     0
281
     0
  0
CLASS
  1
ACDBDETAILVIEWSTYLE
  2
AcDbDetailViewStyle
  3
ObjectDBX Classes
 90
     1025
280
     0
281
     0
  0
CLASS
  1
CELLSTYLEMAP
  2
AcDbCellStyleMap
  3
ObjectDBX Classes
 90
     1152
280
     0
281
     0
  0
ENDSEC
  0
SECTION
  2
TABLES
  0
TABLE
  2
VPORT
  5
9F63
330
0
100
AcDbSymbolTable
 70
     1
  0
VPORT
  5
A1C2
330
9F63
100
AcDbSymbolTableRecord
100
AcDbViewportTableRecord
  2
*ACTIVE
 70
     0
 10
0.0
 20
0.0
 11
1.0
 21
1.0
 12
515.5359188521513
 22
235.2800457830074
 13
0.0
 23
0.0
 14
10.0
 24
10.0
 15
10.0
 25
10.0
 16
0.0
 26
0.0
 36
1.0
 17
0.0
 27
0.0
 37
0.0
 40
454.1556519844577
 41
2.35006605019815
 42
50.0
 43
0.0
 44
0.0
 50
0.0
 51
0.0
 71
     0
 72
   100
 73
     1
 74
     0
 75
     0
 76
     0
 77
     0
 78
     0
281
     0
 65
     1
110
0.0
120
0.0
130
0.0
111
1.0
121
0.0
131
0.0
112
0.0
122
1.0
132
0.0
 79
     0
146
0.0
1001
ACAD_NAV_VCDISPLAY
1070
     3
  0
ENDTAB
  0
TABLE
  2
LTYPE
  5
9F60
330
0
100
AcDbSymbolTable
 70
     4
  0
LTYPE
  5
9F6E
330
9F60
100
AcDbSymbolTableRecord
100
AcDbLinetypeTableRecord
  2
BYBLOCK
 70
     0
  3

 72
    65
 73
     0
 40
0.0
  0
LTYPE
  5
9F6F
330
9F60
100
AcDbSymbolTableRecord
100
AcDbLinetypeTableRecord
  2
BYLAYER
 70
     0
  3

 72
    65
 73
     0
 40
0.0
  0
LTYPE
  5
9F70
330
9F60
100
AcDbSymbolTableRecord
100
AcDbLinetypeTableRecord
  2
CONTINUOUS
 70
     0
  3
Solid line
 72
    65
 73
     0
 40
0.0
  0
LTYPE
  5
9F7E
330
9F60
100
AcDbSymbolTableRecord
100
AcDbLinetypeTableRecord
  2
DASHED
 70
     0
  3
__ __ __ __ __ __ __ __ __ __ __ __ __ __ __ __
 72
    65
 73
     2
 40
0.75
 49
0.5
 74
     0
 49
-0.25
 74
     0
  0
LTYPE
  5
9F7F
330
9F60
100
AcDbSymbolTableRecord
100
AcDbLinetypeTableRecord
  2
CENTER
 70
     0
  3
____ _ ____ _ ____ _ ____ _ ____ _ ____ _ ____ 
 72
    65
 73
     4
 40
2.0
 49
1.25
 74
     0
 49
-0.25
 74
     0
 49
0.25
 74
     0
 49
-0.25
 74
     0
  0
LTYPE
  5
9F80
330
9F60
100
AcDbSymbolTableRecord
100
AcDbLinetypeTableRecord
  2
PHANTOM
 70
     0
  3
______  __  __  ______  __  __  ______  __  __ 
 72
    65
 73
     6
 40
2.5
 49
1.25
 74
     0
 49
-0.25
 74
     0
 49
0.25
 74
     0
 49
-0.25
 74
     0
 49
0.25
 74
     0
 49
-0.25
 74
     0
  0
ENDTAB
  0
TABLE
  2
LAYER
  5
9F5D
330
0
100
AcDbSymbolTable
 70
     8
  0
LAYER
  5
9F6B
102
{ACAD_XDICTIONARY
360
A21B
102
}
330
9F5D
100
AcDbSymbolTableRecord
100
AcDbLayerTableRecord
  2
0
 70
     0
 62
     7
  6
CONTINUOUS
370
    -3
390
A1C9
  0
LAYER
  5
9F81
102
{ACAD_XDICTIONARY
360
A21D
102
}
330
9F5D
100
AcDbSymbolTableRecord
100
AcDbLayerTableRecord
  2
4
 70
     0
 62
     1
  6
CENTER
370
    -3
390
A1C9
  0
LAYER
  5
9F82
102
{ACAD_XDICTIONARY
360
A21F
102
}
330
9F5D
100
AcDbSymbolTableRecord
100
AcDbLayerTableRecord
  2
5
 70
     0
 62
     6
  6
PHANTOM
370
    -3
390
A1C9
  0
LAYER
  5
9F83
102
{ACAD_XDICTIONARY
360
A221
102
}
330
9F5D
100
AcDbSymbolTableRecord
100
AcDbLayerTableRecord
  2
1
 70
     0
 62
     7
  6
CONTINUOUS
370
    -3
390
A1C9
  0
LAYER
  5
9F84
102
{ACAD_XDICTIONARY
360
A223
102
}
330
9F5D
100
AcDbSymbolTableRecord
100
AcDbLayerTableRecord
  2
2
 70
     0
 62
     4
  6
CONTINUOUS
370
    -3
390
A1C9
  0
LAYER
  5
9F85
102
{ACAD_XDICTIONARY
360
A225
102
}
330
9F5D
100
AcDbSymbolTableRecord
100
AcDbLayerTableRecord
  2
3
 70
     0
 62
     2
  6
DASHED
370
    -3
390
A1C9
  0
LAYER
  5
9F86
102
{ACAD_XDICTIONARY
360
A227
102
}
330
9F5D
100
AcDbSymbolTableRecord
100
AcDbLayerTableRecord
  2
6
 70
     0
 62
     5
  6
CONTINUOUS
370
    -3
390
A1C9
  0
LAYER
  5
9F87
102
{ACAD_XDICTIONARY
360
A229
102
}
330
9F5D
100
AcDbSymbolTableRecord
100
AcDbLayerTableRecord
  2
7
 70
     0
 62
     3
  6
CONTINUOUS
370
    -3
390
A1C9
  0
ENDTAB
  0
TABLE
  2
STYLE
  5
9F5E
330
0
100
AcDbSymbolTable
 70
     1
  0
STYLE
  5
9F6C
330
9F5E
100
AcDbSymbolTableRecord
100
AcDbTextStyleTableRecord
  2
STANDARD
 70
     0
 40
0.0
 41
1.0
 50
0.0
 71
     0
 42
5.0
  3
txt
  4

  0
ENDTAB
  0
TABLE
  2
VIEW
  5
9F61
330
0
100
AcDbSymbolTable
 70
     0
  0
ENDTAB
  0
TABLE
  2
UCS
  5
9F62
330
0
100
AcDbSymbolTable
 70
     0
  0
ENDTAB
  0
TABLE
  2
APPID
  5
9F64
330
0
100
AcDbSymbolTable
 70
     3
  0
APPID
  5
9F6D
330
9F64
100
AcDbSymbolTableRecord
100
AcDbRegAppTableRecord
  2
ACAD
 70
     0
  0
APPID
  5
A235
330
9F64
100
AcDbSymbolTableRecord
100
AcDbRegAppTableRecord
  2
ACAD_NAV_VCDISPLAY
 70
     0
  0
APPID
  5
A26E
330
9F64
100
AcDbSymbolTableRecord
100
AcDbRegAppTableRecord
  2
ACAD_MLEADERVER
 70
     0
  0
ENDTAB
  0
TABLE
  2
DIMSTYLE
  5
9F65
330
0
100
AcDbSymbolTable
 70
     1
100
AcDbDimStyleTable
 71
     0
  0
DIMSTYLE
105
9F89
330
9F65
100
AcDbSymbolTableRecord
100
AcDbDimStyleTableRecord
  2
STANDARD
 70
     0
 41
2.5
 42
1.0
 43
10.0
 44
1.0
 73
     0
 74
     0
 77
     3
 78
     8
140
3.2
141
0.0
147
1.0
172
     1
173
     1
284
     8
285
     8
286
     8
340
9F6C
  0
ENDTAB
  0
TABLE
  2
BLOCK_RECORD
  5
9F5C
330
0
100
AcDbSymbolTable
 70
     0
  0
BLOCK_RECORD
  5
9F79
102
{ACAD_XDICTIONARY
360
A1A8
102
}
330
9F5C
100
AcDbSymbolTableRecord
100
AcDbBlockTableRecord
  2
*MODEL_SPACE
340
A217
  0
BLOCK_RECORD
  5
9F75
102
{ACAD_XDICTIONARY
360
A1A6
102
}
330
9F5C
100
AcDbSymbolTableRecord
100
AcDbBlockTableRecord
  2
*PAPER_SPACE
340
A218
  0
ENDTAB
  0
ENDSEC
  0
SECTION
  2
BLOCKS
  0
BLOCK
  5
9F7A
330
9F79
100
AcDbEntity
  8
0
100
AcDbBlockBegin
  2
*MODEL_SPACE
 70
     0
 10
0.0
 20
0.0
 30
0.0
  3
*MODEL_SPACE
  1

  0
ENDBLK
  5
9F7B
330
9F79
100
AcDbEntity
  8
0
100
AcDbBlockEnd
  0
BLOCK
  5
9F76
330
9F75
100
AcDbEntity
 67
     1
  8
0
100
AcDbBlockBegin
  2
*PAPER_SPACE
 70
     0
 10
0.0
 20
0.0
 30
0.0
  3
*PAPER_SPACE
  1

  0
ENDBLK
  5
9F77
330
9F75
100
AcDbEntity
 67
     1
  8
0
100
AcDbBlockEnd
  0
ENDSEC
  0
SECTION
  2
ENTITIES
  0
TEXT
  5
9F91
330
9F79
100
AcDbEntity
  8
7
  6
Continuous
100
AcDbText
 10
10.0
 20
18.0
 30
0.0
 40
3.0
  1
TYPE No.TCA-420E-N125
100
AcDbText
  0
TEXT
  5
9F92
330
9F79
100
AcDbEntity
  8
7
  6
Continuous
100
AcDbText
 10
10.0
 20
26.0
 30
0.0
 40
3.0
  1
CODE No.9749
100
AcDbText
  0
TEXT
  5
9F93
330
9F79
100
AcDbEntity
  8
1
  6
Continuous
100
AcDbText
 10
10.0
 20
10.0
 30
0.0
 40
1.399999999999999
  1
LAYER
100
AcDbText
  0
TEXT
  5
9F94
330
9F79
100
AcDbEntity
  8
1
  6
Continuous
100
AcDbText
 10
17.97951099999998
 20
10.04873699999998
 30
0.0
 40
1.399999999999999
  1
1
100
AcDbText
  0
TEXT
  5
9F95
330
9F79
100
AcDbEntity
  8
7
  6
Continuous
100
AcDbText
 10
29.97951099999999
 20
10.04873699999998
 30
0.0
 40
1.399999999999999
  1
7
100
AcDbText
  0
TEXT
  5
9F96
330
9F79
100
AcDbEntity
  8
4
  6
CENTER
100
AcDbText
 10
23.97951099999999
 20
10.04873699999998
 30
0.0
 40
1.399999999999999
  1
4
100
AcDbText
  0
TEXT
  5
9F97
330
9F79
100
AcDbEntity
  8
3
  6
DASHED
100
AcDbText
 10
21.979511
 20
10.04873699999998
 30
0.0
 40
1.399999999999999
  1
3
100
AcDbText
  0
TEXT
  5
9F98
330
9F79
100
AcDbEntity
  8
2
  6
Continuous
100
AcDbText
 10
19.97951099999998
 20
10.04873699999998
 30
0.0
 40
1.399999999999999
  1
2
100
AcDbText
  0
TEXT
  5
9F99
330
9F79
100
AcDbEntity
  8
6
  6
Continuous
100
AcDbText
 10
27.979511
 20
10.04873699999998
 30
0.0
 40
1.399999999999999
  1
6
100
AcDbText
  0
TEXT
  5
9F9A
330
9F79
100
AcDbEntity
  8
5
  6
PHANTOM
100
AcDbText
 10
25.97951099999999
 20
10.04873699999998
 30
0.0
 40
1.399999999999999
  1
5
100
AcDbText
  0
LINE
  5
9F9B
330
9F79
100
AcDbEntity
  8
4
  6
CENTER
100
AcDbLine
 10
57.22022299999999
 20
328.8716089999998
 30
0.0
 11
57.22022299999999
 21
170.871609
 31
0.0
  0
LINE
  5
9F9C
330
9F79
100
AcDbEntity
  8
4
  6
CENTER
100
AcDbLine
 10
154.220223
 20
426.5716089999998
 30
0.0
 11
313.186883
 21
426.5716089999998
 31
0.0
  0
LINE
  5
9F9D
330
9F79
100
AcDbEntity
  8
4
  6
CENTER
100
AcDbLine
 10
260.7202229999999
 20
460.5716089999998
 30
0.0
 11
260.7202229999999
 21
392.5716089999998
 31
0.0
  0
LINE
  5
9F9E
330
9F79
100
AcDbEntity
  8
1
  6
Continuous
100
AcDbLine
 10
210.7202229999999
 20
323.871609
 30
0.0
 11
310.720208
 21
323.871609
 31
0.0
  0
LINE
  5
9F9F
330
9F79
100
AcDbEntity
  8
1
  6
Continuous
100
AcDbLine
 10
28.220223
 20
323.871609
 30
0.0
 11
86.22022300000002
 21
323.871609
 31
0.0
  0
LINE
  5
9FA0
330
9F79
100
AcDbEntity
  8
4
  6
CENTER
100
AcDbLine
 10
260.7202229999999
 20
39.871609
 30
0.0
 11
260.7202229999999
 21
107.871609
 31
0.0
  0
LINE
  5
9FA1
330
9F79
100
AcDbEntity
  8
4
  6
CENTER
100
AcDbLine
 10
301.7202229999998
 20
99.87160900000001
 30
0.0
 11
301.7202229999998
 21
87.87160899999998
 31
0.0
  0
LINE
  5
9FA2
330
9F79
100
AcDbEntity
  8
4
  6
CENTER
100
AcDbLine
 10
219.720223
 20
99.87160900000001
 30
0.0
 11
219.720223
 21
87.87160899999998
 31
0.0
  0
ARC
  5
9FA3
330
9F79
100
AcDbEntity
  8
1
  6
Continuous
100
AcDbCircle
 10
219.720223
 20
93.87160900000001
 30
0.0
 40
4.4
100
AcDbArc
 50
19.93199299999998
 51
195.003709
  0
CIRCLE
  5
9FA4
330
9F79
100
AcDbEntity
  8
1
  6
Continuous
100
AcDbCircle
 10
301.7202229999998
 20
93.87160900000001
 30
0.0
 40
4.4
  0
ARC
  5
9FA5
330
9F79
100
AcDbEntity
  8
1
  6
Continuous
100
AcDbCircle
 10
393.186883
 20
73.87160899999997
 30
0.0
 40
85.0
100
AcDbArc
 50
166.55971
 51
193.4403599999999
  0
ARC
  5
9FA6
330
9F79
100
AcDbEntity
  8
1
  6
Continuous
100
AcDbCircle
 10
303.2202229999998
 20
95.37160900000001
 30
0.0
 40
7.5
100
AcDbArc
 50
346.5597179999999
 51
89.99997999999996
  0
LINE
  5
9FA7
330
9F79
100
AcDbEntity
  8
4
  6
CENTER
100
AcDbLine
 10
307.7202229999998
 20
93.87160900000001
 30
0.0
 11
295.7202229999998
 21
93.87160900000001
 31
0.0
  0
LINE
  5
9FA8
330
9F79
100
AcDbEntity
  8
1
  6
Continuous
100
AcDbLine
 10
218.220223
 20
102.8716089999999
 30
0.0
 11
303.2202229999998
 21
102.8716089999999
 31
0.0
  0
LINE
  5
9FA9
330
9F79
100
AcDbEntity
  8
4
  6
CENTER
100
AcDbLine
 10
213.720223
 20
93.87160900000001
 30
0.0
 11
225.720223
 21
93.87160900000001
 31
0.0
  0
ARC
  5
9FAA
330
9F79
100
AcDbEntity
  8
1
  6
Continuous
100
AcDbCircle
 10
218.220223
 20
95.37160900000001
 30
0.0
 40
7.5
100
AcDbArc
 50
90.00004999999999
 51
193.44032
  0
LINE
  5
9FAB
330
9F79
100
AcDbEntity
  8
4
  6
CENTER
100
AcDbLine
 10
154.220223
 20
73.87160899999997
 30
0.0
 11
313.186883
 21
73.87160899999997
 31
0.0
  0
CIRCLE
  5
9FAC
330
9F79
100
AcDbEntity
  8
1
  6
Continuous
100
AcDbCircle
 10
301.7202229999998
 20
53.871609
 30
0.0
 40
4.4
  0
ARC
  5
9FAD
330
9F79
100
AcDbEntity
  8
1
  6
Continuous
100
AcDbCircle
 10
303.2202229999998
 20
52.371609
 30
0.0
 40
7.5
100
AcDbArc
 50
270.0000179999999
 51
13.44032
  0
LINE
  5
9FAE
330
9F79
100
AcDbEntity
  8
4
  6
CENTER
100
AcDbLine
 10
307.7202229999998
 20
53.871609
 30
0.0
 11
295.7202229999998
 21
53.871609
 31
0.0
  0
LINE
  5
9FAF
330
9F79
100
AcDbEntity
  8
1
  6
Continuous
100
AcDbLine
 10
218.220223
 20
44.871609
 30
0.0
 11
303.2202229999998
 21
44.871609
 31
0.0
  0
ARC
  5
9FB0
330
9F79
100
AcDbEntity
  8
1
  6
Continuous
100
AcDbCircle
 10
218.220223
 20
52.371609
 30
0.0
 40
7.5
100
AcDbArc
 50
166.55971
 51
270.0000179999999
  0
LINE
  5
9FB1
330
9F79
100
AcDbEntity
  8
4
  6
CENTER
100
AcDbLine
 10
213.720223
 20
53.871609
 30
0.0
 11
225.720223
 21
53.871609
 31
0.0
  0
LINE
  5
9FB2
330
9F79
100
AcDbEntity
  8
4
  6
CENTER
100
AcDbLine
 10
301.7202229999998
 20
47.87160899999999
 30
0.0
 11
301.7202229999998
 21
59.871609
 31
0.0
  0
LINE
  5
9FB3
330
9F79
100
AcDbEntity
  8
4
  6
CENTER
100
AcDbLine
 10
221.720223
 20
304.453911
 30
0.0
 11
221.720223
 21
167.8716089999998
 31
0.0
  0
LINE
  5
9FB4
330
9F79
100
AcDbEntity
  8
4
  6
CENTER
100
AcDbLine
 10
260.7202229999999
 20
328.8716089999998
 30
0.0
 11
260.7202229999999
 21
269.604939
 31
0.0
  0
LINE
  5
9FB5
330
9F79
100
AcDbEntity
  8
1
  6
Continuous
100
AcDbLine
 10
239.7202229999999
 20
306.771612
 30
0.0
 11
239.7202229999999
 21
254.3716089999997
 31
0.0
  0
LINE
  5
9FB6
330
9F79
100
AcDbEntity
  8
1
  6
Continuous
100
AcDbLine
 10
231.311406
 20
232.985485
 30
0.0
 11
268.6364299999999
 21
299.450985
 31
0.0
  0
LINE
  5
9FB7
330
9F79
100
AcDbEntity
  8
1
  6
Continuous
100
AcDbLine
 10
210.747018
 20
239.138924
 30
0.0
 11
215.3037669999999
 21
304.3034329999998
 31
0.0
  0
LINE
  5
9FB8
330
9F79
100
AcDbEntity
  8
4
  6
CENTER
100
AcDbLine
 10
151.2202229999997
 20
238.3716089999999
 30
0.0
 11
292.2202229999998
 21
238.3716089999999
 31
0.0
  0
CIRCLE
  5
9FB9
330
9F79
100
AcDbEntity
  8
1
  6
Continuous
100
AcDbCircle
 10
221.720223
 20
238.3716089999999
 30
0.0
 40
6.25
  0
ARC
  5
9FBA
330
9F79
100
AcDbEntity
  8
1
  6
Continuous
100
AcDbCircle
 10
221.720223
 20
238.3716089999999
 30
0.0
 40
11.0
100
AcDbArc
 50
176.00003
 51
330.68273
  0
CIRCLE
  5
9FBB
330
9F79
100
AcDbEntity
  8
1
  6
Continuous
100
AcDbCircle
 10
221.720223
 20
238.3716089999999
 30
0.0
 40
1.5
  0
LINE
  5
9FBC
330
9F79
100
AcDbEntity
  8
1
  6
Continuous
100
AcDbLine
 10
237.720221
 20
316.971607
 30
0.0
 11
283.7202229999998
 21
316.971607
 31
0.0
  0
LINE
  5
9FBD
330
9F79
100
AcDbEntity
  8
1
  6
Continuous
100
AcDbLine
 10
210.7202229999999
 20
321.5716059999998
 30
0.0
 11
310.720208
 21
321.5716059999998
 31
0.0
  0
LINE
  5
9FBE
330
9F79
100
AcDbEntity
  8
1
  6
Continuous
100
AcDbLine
 10
240.720223
 20
315.971604
 30
0.0
 11
280.7202229999999
 21
315.971604
 31
0.0
  0
LINE
  5
9FBF
330
9F79
100
AcDbEntity
  8
1
  6
Continuous
100
AcDbLine
 10
209.720223
 20
306.471606
 30
0.0
 11
238.5617429999999
 21
311.557144
 31
0.0
  0
LINE
  5
9FC0
330
9F79
100
AcDbEntity
  8
1
  6
Continuous
100
AcDbLine
 10
210.119614
 20
304.206547
 30
0.0
 11
214.1011289999999
 21
304.9085959999998
 31
0.0
  0
LINE
  5
9FC1
330
9F79
100
AcDbEntity
  8
1
  6
Continuous
100
AcDbLine
 10
209.720223
 20
306.471606
 30
0.0
 11
210.119614
 21
304.206547
 31
0.0
  0
ARC
  5
9FC2
330
9F79
100
AcDbEntity
  8
1
  6
Continuous
100
AcDbCircle
 10
214.274777
 20
303.9237879999999
 30
0.0
 40
1.0
100
AcDbArc
 50
356.0
 51
100.00001
  0
ARC
  5
9FC3
330
9F79
100
AcDbEntity
  8
1
  6
Continuous
100
AcDbCircle
 10
212.809857
 20
304.4778239999998
 30
0.0
 40
2.5
100
AcDbArc
 50
356.0
 51
100.0000199999999
  0
LINE
  5
9FC4
330
9F79
100
AcDbEntity
  8
1
  6
Continuous
100
AcDbLine
 10
210.7202079999999
 20
321.571614
 30
0.0
 11
210.7202079999999
 21
323.871617
 31
0.0
  0
ARC
  5
9FC5
330
9F79
100
AcDbEntity
  8
1
  6
Continuous
100
AcDbCircle
 10
237.7202229999999
 20
319.971607
 30
0.0
 40
3.0
100
AcDbArc
 50
211.5135899999999
 51
270.00002
  0
LINE
  5
9FC6
330
9F79
100
AcDbEntity
  8
4
  6
CENTER
100
AcDbLine
 10
219.720223
 20
328.8716089999998
 30
0.0
 11
219.720223
 21
316.5716059999998
 31
0.0
  0
LINE
  5
9FC7
330
9F79
100
AcDbEntity
  8
1
  6
Continuous
100
AcDbLine
 10
233.220229
 20
321.5716289999998
 30
0.0
 11
235.1626819999999
 21
318.403519
 31
0.0
  0
ARC
  5
9FC8
330
9F79
100
AcDbEntity
  8
1
  6
Continuous
100
AcDbCircle
 10
242.920197
 20
317.449612
 30
0.0
 40
2.778
100
AcDbArc
 50
189.9080999999999
 51
212.1433699999999
  0
ARC
  5
9FC9
330
9F79
100
AcDbEntity
  8
1
  6
Continuous
100
AcDbCircle
 10
250.2790529999999
 20
317.449612
 30
0.0
 40
2.778
100
AcDbArc
 50
189.9080999999999
 51
212.1434
  0
ARC
  5
9FCA
330
9F79
100
AcDbEntity
  8
1
  6
Continuous
100
AcDbCircle
 10
246.3430789999999
 20
317.449612
 30
0.0
 40
2.778
100
AcDbArc
 50
189.9080999999999
 51
212.1434
  0
ARC
  5
9FCB
330
9F79
100
AcDbEntity
  8
1
  6
Continuous
100
AcDbCircle
 10
243.807839
 20
317.449612
 30
0.0
 40
2.778
100
AcDbArc
 50
189.9080999999999
 51
212.1433699999999
  0
LINE
  5
9FCC
330
9F79
100
AcDbEntity
  8
1
  6
Continuous
100
AcDbLine
 10
281.69571
 20
307.071608
 30
0.0
 11
285.720223
 21
307.071608
 31
0.0
  0
ARC
  5
9FCD
330
9F79
100
AcDbEntity
  8
1
  6
Continuous
100
AcDbCircle
 10
281.69571
 20
292.071608
 30
0.0
 40
15.0
100
AcDbArc
 50
89.99998199999996
 51
150.68277
  0
ARC
  5
9FCE
330
9F79
100
AcDbEntity
  8
1
  6
Continuous
100
AcDbCircle
 10
260.7202079999999
 20
317.449612
 30
0.0
 40
2.778
100
AcDbArc
 50
327.8565799999999
 51
350.09193
  0
ARC
  5
9FCF
330
9F79
100
AcDbEntity
  8
1
  6
Continuous
100
AcDbCircle
 10
266.208123
 20
317.449612
 30
0.0
 40
2.778
100
AcDbArc
 50
189.90804
 51
212.1434
  0
ARC
  5
9FD0
330
9F79
100
AcDbEntity
  8
1
  6
Continuous
100
AcDbCircle
 10
260.7202079999999
 20
317.449612
 30
0.0
 40
2.778
100
AcDbArc
 50
189.9080999999999
 51
212.1434
  0
ARC
  5
9FD1
330
9F79
100
AcDbEntity
  8
1
  6
Continuous
100
AcDbCircle
 10
255.232293
 20
317.449612
 30
0.0
 40
2.778
100
AcDbArc
 50
189.9080999999999
 51
212.1434
  0
ARC
  5
9FD2
330
9F79
100
AcDbEntity
  8
1
  6
Continuous
100
AcDbCircle
 10
255.232293
 20
317.449612
 30
0.0
 40
2.778
100
AcDbArc
 50
327.8565799999999
 51
350.0919899999999
  0
ARC
  5
9FD3
330
9F79
100
AcDbEntity
  8
1
  6
Continuous
100
AcDbCircle
 10
278.520218
 20
317.449612
 30
0.0
 40
2.778
100
AcDbArc
 50
327.85663
 51
350.09193
  0
ARC
  5
9FD4
330
9F79
100
AcDbEntity
  8
1
  6
Continuous
100
AcDbCircle
 10
275.0973359999999
 20
317.449612
 30
0.0
 40
2.778
100
AcDbArc
 50
327.85663
 51
350.09193
  0
ARC
  5
9FD5
330
9F79
100
AcDbEntity
  8
1
  6
Continuous
100
AcDbCircle
 10
277.632577
 20
317.449612
 30
0.0
 40
2.778
100
AcDbArc
 50
327.85663
 51
350.09193
  0
ARC
  5
9FD6
330
9F79
100
AcDbEntity
  8
1
  6
Continuous
100
AcDbCircle
 10
266.208123
 20
317.449612
 30
0.0
 40
2.778
100
AcDbArc
 50
327.8565799999999
 51
350.09193
  0
ARC
  5
9FD7
330
9F79
100
AcDbEntity
  8
1
  6
Continuous
100
AcDbCircle
 10
271.161362
 20
317.449612
 30
0.0
 40
2.778
100
AcDbArc
 50
327.8565799999999
 51
350.09193
  0
LINE
  5
9FD8
330
9F79
100
AcDbEntity
  8
1
  6
Continuous
100
AcDbLine
 10
288.2202459999998
 20
321.571589
 30
0.0
 11
286.2777939999998
 21
318.403487
 31
0.0
  0
ARC
  5
9FD9
330
9F79
100
AcDbEntity
  8
1
  6
Continuous
100
AcDbCircle
 10
283.7202229999998
 20
319.971607
 30
0.0
 40
3.0
100
AcDbArc
 50
270.00002
 51
328.48644
  0
LINE
  5
9FDA
330
9F79
100
AcDbEntity
  8
4
  6
CENTER
100
AcDbLine
 10
301.7202229999998
 20
328.8716089999998
 30
0.0
 11
301.7202229999998
 21
316.5716059999998
 31
0.0
  0
LINE
  5
9FDB
330
9F79
100
AcDbEntity
  8
1
  6
Continuous
100
AcDbLine
 10
310.720208
 20
321.571598
 30
0.0
 11
310.720208
 21
323.871609
 31
0.0
  0
LINE
  5
9FDC
330
9F79
100
AcDbEntity
  8
1
  6
Continuous
100
AcDbLine
 10
598.0910619999997
 20
241.6216059999999
 30
0.0
 11
598.0910619999997
 21
235.1216109999997
 31
0.0
  0
LINE
  5
9FDD
330
9F79
100
AcDbEntity
  8
1
  6
Continuous
100
AcDbLine
 10
609.3493829999999
 20
235.1216109999997
 30
0.0
 11
609.3493829999999
 21
241.6216059999999
 31
0.0
  0
CIRCLE
  5
9FDE
330
9F79
100
AcDbEntity
  8
1
  6
Continuous
100
AcDbCircle
 10
603.720223
 20
238.3716089999999
 30
0.0
 40
4.0
  0
CIRCLE
  5
9FDF
330
9F79
100
AcDbEntity
  8
2
  6
Continuous
100
AcDbCircle
 10
603.720223
 20
238.3716089999999
 30
0.0
 40
3.3235
  0
LINE
  5
9FE0
330
9F79
100
AcDbEntity
  8
1
  6
Continuous
100
AcDbLine
 10
598.0910619999997
 20
235.1216109999997
 30
0.0
 11
603.720223
 21
231.8716139999999
 31
0.0
  0
LINE
  5
9FE1
330
9F79
100
AcDbEntity
  8
1
  6
Continuous
100
AcDbLine
 10
603.720223
 20
231.8716139999999
 30
0.0
 11
609.3493829999999
 21
235.1216109999997
 31
0.0
  0
LINE
  5
9FE2
330
9F79
100
AcDbEntity
  8
1
  6
Continuous
100
AcDbLine
 10
603.720223
 20
244.8716029999999
 30
0.0
 11
598.0910619999997
 21
241.6216059999999
 31
0.0
  0
LINE
  5
9FE3
330
9F79
100
AcDbEntity
  8
1
  6
Continuous
100
AcDbLine
 10
609.3493829999999
 20
241.6216059999999
 30
0.0
 11
603.720223
 21
244.8716029999999
 31
0.0
  0
LINE
  5
9FE4
330
9F79
100
AcDbEntity
  8
1
  6
Continuous
100
AcDbLine
 10
82.220223
 20
310.9716
 30
0.0
 11
82.220223
 21
285.354425
 31
0.0
  0
LINE
  5
9FE5
330
9F79
100
AcDbEntity
  8
1
  6
Continuous
100
AcDbLine
 10
32.22022299999999
 20
310.9716
 30
0.0
 11
32.22022299999999
 21
285.354425
 31
0.0
  0
LINE
  5
9FE6
330
9F79
100
AcDbEntity
  8
1
  6
Continuous
100
AcDbLine
 10
73.220223
 20
304.078213
 30
0.0
 11
73.220223
 21
227.3716089999997
 31
0.0
  0
LINE
  5
9FE7
330
9F79
100
AcDbEntity
  8
1
  6
Continuous
100
AcDbLine
 10
41.220223
 20
304.078213
 30
0.0
 11
41.220223
 21
227.3716089999997
 31
0.0
  0
LINE
  5
9FE8
330
9F79
100
AcDbEntity
  8
1
  6
Continuous
100
AcDbLine
 10
38.920233
 20
304.0279509999998
 30
0.0
 11
38.920233
 21
227.3716089999997
 31
0.0
  0
LINE
  5
9FE9
330
9F79
100
AcDbEntity
  8
1
  6
Continuous
100
AcDbLine
 10
75.520223
 20
304.0279509999998
 30
0.0
 11
75.520223
 21
227.3716089999997
 31
0.0
  0
LINE
  5
9FEA
330
9F79
100
AcDbEntity
  8
4
  6
CENTER
100
AcDbLine
 10
26.92023300000001
 20
238.3716089999999
 30
0.0
 11
83.720203
 21
238.3716089999999
 31
0.0
  0
ARC
  5
9FEB
330
9F79
100
AcDbEntity
  8
1
  6
Continuous
100
AcDbCircle
 10
38.17023300000001
 20
243.313237
 30
0.0
 40
3.25
100
AcDbArc
 50
151.34725
 51
211.3657499999999
  0
ARC
  5
9FEC
330
9F79
100
AcDbEntity
  8
1
  6
Continuous
100
AcDbCircle
 10
35.67023300000001
 20
243.313237
 30
0.0
 40
3.25
100
AcDbArc
 50
328.6342
 51
28.65276699999999
  0
LINE
  5
9FED
330
9F79
100
AcDbEntity
  8
1
  6
Continuous
100
AcDbLine
 10
33.920233
 20
243.473622
 30
0.0
 11
33.920233
 21
233.269596
 31
0.0
  0
LINE
  5
9FEE
330
9F79
100
AcDbEntity
  8
1
  6
Continuous
100
AcDbLine
 10
35.39518300000001
 20
235.1216089999998
 30
0.0
 11
38.44529299999999
 21
235.1216089999998
 31
0.0
  0
LINE
  5
9FEF
330
9F79
100
AcDbEntity
  8
1
  6
Continuous
100
AcDbLine
 10
35.36872299999997
 20
241.6216089999998
 30
0.0
 11
38.47175299999999
 21
241.6216089999998
 31
0.0
  0
ARC
  5
9FF0
330
9F79
100
AcDbEntity
  8
1
  6
Continuous
100
AcDbCircle
 10
46.920233
 20
238.3716089999999
 30
0.0
 40
12.0
100
AcDbArc
 50
164.2861599999999
 51
195.71383
  0
ARC
  5
9FF1
330
9F79
100
AcDbEntity
  8
1
  6
Continuous
100
AcDbCircle
 10
26.92023300000001
 20
238.3716089999999
 30
0.0
 40
12.0
100
AcDbArc
 50
344.2861399999999
 51
15.71386099999998
  0
LINE
  5
9FF2
330
9F79
100
AcDbEntity
  8
1
  6
Continuous
100
AcDbLine
 10
38.920233
 20
227.3716089999997
 30
0.0
 11
41.220223
 21
227.3716089999997
 31
0.0
  0
LINE
  5
9FF3
330
9F79
100
AcDbEntity
  8
1
  6
Continuous
100
AcDbLine
 10
41.220223
 20
234.371609
 30
0.0
 11
42.22022299999999
 21
234.371609
 31
0.0
  0
LINE
  5
9FF4
330
9F79
100
AcDbEntity
  8
1
  6
Continuous
100
AcDbLine
 10
35.318233
 20
231.8716089999998
 30
0.0
 11
38.52224299999999
 21
231.8716089999998
 31
0.0
  0
LINE
  5
9FF5
330
9F79
100
AcDbEntity
  8
1
  6
Continuous
100
AcDbLine
 10
35.318263
 20
231.8716279999999
 30
0.0
 11
33.92028299999999
 21
233.269619
 31
0.0
  0
ARC
  5
9FF6
330
9F79
100
AcDbEntity
  8
1
  6
Continuous
100
AcDbCircle
 10
35.67023300000001
 20
233.429981
 30
0.0
 40
3.25
100
AcDbArc
 50
331.3472299999999
 51
31.365793
  0
ARC
  5
9FF7
330
9F79
100
AcDbEntity
  8
1
  6
Continuous
100
AcDbCircle
 10
38.17023300000001
 20
233.429981
 30
0.0
 40
3.25
100
AcDbArc
 50
148.63423
 51
208.6527299999999
  0
ARC
  5
9FF8
330
9F79
100
AcDbEntity
  8
1
  6
Continuous
100
AcDbCircle
 10
142.220223
 20
285.354425
 30
0.0
 40
110.0
100
AcDbArc
 50
179.9999799999999
 51
200.10056
  0
LINE
  5
9FF9
330
9F79
100
AcDbEntity
  8
1
  6
Continuous
100
AcDbLine
 10
41.220223
 20
242.3716089999998
 30
0.0
 11
42.22022299999999
 21
242.3716089999998
 31
0.0
  0
LINE
  5
9FFA
330
9F79
100
AcDbEntity
  8
1
  6
Continuous
100
AcDbLine
 10
35.318233
 20
244.871609
 30
0.0
 11
38.52224299999999
 21
244.871609
 31
0.0
  0
LINE
  5
9FFB
330
9F79
100
AcDbEntity
  8
1
  6
Continuous
100
AcDbLine
 10
33.92026299999999
 20
243.473614
 30
0.0
 11
35.318243
 21
244.871598
 31
0.0
  0
LINE
  5
9FFC
330
9F79
100
AcDbEntity
  8
1
  6
Continuous
100
AcDbLine
 10
78.72020299999999
 20
242.621609
 30
0.0
 11
78.72020299999999
 21
234.1216089999999
 31
0.0
  0
ARC
  5
9FFD
330
9F79
100
AcDbEntity
  8
1
  6
Continuous
100
AcDbCircle
 10
76.72020299999998
 20
234.1216089999999
 30
0.0
 40
2.0
100
AcDbArc
 50
270.00002
 51
0.0
  0
LINE
  5
9FFE
330
9F79
100
AcDbEntity
  8
1
  6
Continuous
100
AcDbLine
 10
75.520223
 20
227.3716089999997
 30
0.0
 11
73.220223
 21
227.3716089999997
 31
0.0
  0
LINE
  5
9FFF
330
9F79
100
AcDbEntity
  8
1
  6
Continuous
100
AcDbLine
 10
75.520223
 20
232.1216089999999
 30
0.0
 11
76.72020299999998
 21
232.1216089999999
 31
0.0
  0
LINE
  5
A000
330
9F79
100
AcDbEntity
  8
1
  6
Continuous
100
AcDbLine
 10
72.220223
 20
234.371609
 30
0.0
 11
73.220223
 21
234.371609
 31
0.0
  0
ARC
  5
A001
330
9F79
100
AcDbEntity
  8
1
  6
Continuous
100
AcDbCircle
 10
-27.779777
 20
285.354425
 30
0.0
 40
110.0
100
AcDbArc
 50
339.8994099999999
 51
359.9999899999998
  0
ARC
  5
A002
330
9F79
100
AcDbEntity
  8
1
  6
Continuous
100
AcDbCircle
 10
76.72020299999998
 20
242.621609
 30
0.0
 40
2.0
100
AcDbArc
 50
0.0
 51
89.99998199999996
  0
LINE
  5
A003
330
9F79
100
AcDbEntity
  8
1
  6
Continuous
100
AcDbLine
 10
75.520223
 20
244.6216089999999
 30
0.0
 11
76.72020299999998
 21
244.6216089999999
 31
0.0
  0
LINE
  5
A004
330
9F79
100
AcDbEntity
  8
1
  6
Continuous
100
AcDbLine
 10
72.220223
 20
242.3716089999998
 30
0.0
 11
73.220223
 21
242.3716089999998
 31
0.0
  0
LINE
  5
A005
330
9F79
100
AcDbEntity
  8
1
  6
Continuous
100
AcDbLine
 10
34.220223
 20
316.971607
 30
0.0
 11
80.22022300000001
 21
316.971607
 31
0.0
  0
LINE
  5
A006
330
9F79
100
AcDbEntity
  8
1
  6
Continuous
100
AcDbLine
 10
28.220223
 20
321.5716059999998
 30
0.0
 11
86.22022300000002
 21
321.5716059999998
 31
0.0
  0
LINE
  5
A007
330
9F79
100
AcDbEntity
  8
1
  6
Continuous
100
AcDbLine
 10
37.22022299999999
 20
315.9716
 30
0.0
 11
77.220223
 21
315.9716
 31
0.0
  0
ARC
  5
A008
330
9F79
100
AcDbEntity
  8
1
  6
Continuous
100
AcDbCircle
 10
57.22022299999999
 20
439.573819
 30
0.0
 40
128.4999999999998
100
AcDbArc
 50
262.8473099999999
 51
277.1526699999999
  0
ARC
  5
A009
330
9F79
100
AcDbEntity
  8
1
  6
Continuous
100
AcDbCircle
 10
57.22022299999999
 20
434.9715989999999
 30
0.0
 40
128.4999999999998
100
AcDbArc
 50
263.46506
 51
276.53492
  0
ARC
  5
A00A
330
9F79
100
AcDbEntity
  8
1
  6
Continuous
100
AcDbCircle
 10
57.22022299999999
 20
432.706559
 30
0.0
 40
128.4999999999998
100
AcDbArc
 50
263.34847
 51
276.6515099999999
  0
LINE
  5
A00B
330
9F79
100
AcDbEntity
  8
1
  6
Continuous
100
AcDbLine
 10
28.220223
 20
323.871609
 30
0.0
 11
28.220223
 21
321.57161
 31
0.0
  0
ARC
  5
A00C
330
9F79
100
AcDbEntity
  8
1
  6
Continuous
100
AcDbCircle
 10
42.220243
 20
304.0279509999998
 30
0.0
 40
3.299999999999998
100
AcDbArc
 50
83.465158
 51
179.9999599999999
  0
ARC
  5
A00D
330
9F79
100
AcDbEntity
  8
1
  6
Continuous
100
AcDbCircle
 10
42.22022299999999
 20
304.078213
 30
0.0
 40
1.0
100
AcDbArc
 50
83.348539
 51
179.9999599999999
  0
LINE
  5
A00E
330
9F79
100
AcDbEntity
  8
4
  6
CENTER
100
AcDbLine
 10
37.22022299999999
 20
328.8716089999998
 30
0.0
 11
37.22022299999999
 21
316.5716059999998
 31
0.0
  0
LINE
  5
A00F
330
9F79
100
AcDbEntity
  8
1
  6
Continuous
100
AcDbLine
 10
29.720173
 20
321.571596
 30
0.0
 11
31.66262299999999
 21
318.403487
 31
0.0
  0
ARC
  5
A010
330
9F79
100
AcDbEntity
  8
1
  6
Continuous
100
AcDbCircle
 10
37.22022299999999
 20
310.9716
 30
0.0
 40
5.0
100
AcDbArc
 50
89.99998199999996
 51
179.9999599999999
  0
ARC
  5
A011
330
9F79
100
AcDbEntity
  8
1
  6
Continuous
100
AcDbCircle
 10
34.220223
 20
319.971607
 30
0.0
 40
3.0
100
AcDbArc
 50
211.5135899999999
 51
270.00002
  0
ARC
  5
A012
330
9F79
100
AcDbEntity
  8
1
  6
Continuous
100
AcDbCircle
 10
46.779063
 20
317.449612
 30
0.0
 40
2.778
100
AcDbArc
 50
189.9080999999999
 51
212.14351
  0
ARC
  5
A013
330
9F79
100
AcDbEntity
  8
1
  6
Continuous
100
AcDbCircle
 10
39.420203
 20
317.449612
 30
0.0
 40
2.778
100
AcDbArc
 50
189.9080999999999
 51
212.14351
  0
ARC
  5
A014
330
9F79
100
AcDbEntity
  8
1
  6
Continuous
100
AcDbCircle
 10
42.843083
 20
317.449612
 30
0.0
 40
2.778
100
AcDbArc
 50
189.9080999999999
 51
212.14351
  0
ARC
  5
A015
330
9F79
100
AcDbEntity
  8
1
  6
Continuous
100
AcDbCircle
 10
40.30784299999999
 20
317.449612
 30
0.0
 40
2.778
100
AcDbArc
 50
189.9080999999999
 51
212.14351
  0
ARC
  5
A016
330
9F79
100
AcDbEntity
  8
1
  6
Continuous
100
AcDbCircle
 10
62.708123
 20
317.449612
 30
0.0
 40
2.778
100
AcDbArc
 50
189.90804
 51
212.14351
  0
ARC
  5
A017
330
9F79
100
AcDbEntity
  8
1
  6
Continuous
100
AcDbCircle
 10
57.220203
 20
317.449612
 30
0.0
 40
2.778
100
AcDbArc
 50
327.8564799999998
 51
350.09193
  0
ARC
  5
A018
330
9F79
100
AcDbEntity
  8
1
  6
Continuous
100
AcDbCircle
 10
51.732293
 20
317.449612
 30
0.0
 40
2.778
100
AcDbArc
 50
189.9080999999999
 51
212.14351
  0
ARC
  5
A019
330
9F79
100
AcDbEntity
  8
1
  6
Continuous
100
AcDbCircle
 10
57.220203
 20
317.449612
 30
0.0
 40
2.778
100
AcDbArc
 50
189.9080999999999
 51
212.14351
  0
ARC
  5
A01A
330
9F79
100
AcDbEntity
  8
1
  6
Continuous
100
AcDbCircle
 10
51.732293
 20
317.449612
 30
0.0
 40
2.778
100
AcDbArc
 50
327.8564799999998
 51
350.0919899999999
  0
ARC
  5
A01B
330
9F79
100
AcDbEntity
  8
1
  6
Continuous
100
AcDbCircle
 10
46.779063
 20
317.449612
 30
0.0
 40
2.778
100
AcDbArc
 50
327.8564799999998
 51
333.0638399999999
  0
ARC
  5
A01C
330
9F79
100
AcDbEntity
  8
1
  6
Continuous
100
AcDbCircle
 10
72.220223
 20
304.0279509999998
 30
0.0
 40
3.299999999999998
100
AcDbArc
 50
0.0
 51
96.53486100000002
  0
ARC
  5
A01D
330
9F79
100
AcDbEntity
  8
1
  6
Continuous
100
AcDbCircle
 10
72.220223
 20
304.078213
 30
0.0
 40
1.0
100
AcDbArc
 50
0.0
 51
96.65148000000002
  0
ARC
  5
A01E
330
9F79
100
AcDbEntity
  8
1
  6
Continuous
100
AcDbCircle
 10
77.220223
 20
310.9716
 30
0.0
 40
5.0
100
AcDbArc
 50
0.0
 51
89.99998199999996
  0
ARC
  5
A01F
330
9F79
100
AcDbEntity
  8
1
  6
Continuous
100
AcDbCircle
 10
75.020213
 20
317.449612
 30
0.0
 40
2.778
100
AcDbArc
 50
327.80113
 51
350.09193
  0
LINE
  5
A020
330
9F79
100
AcDbEntity
  8
4
  6
CENTER
100
AcDbLine
 10
77.220223
 20
328.8716089999998
 30
0.0
 11
77.220223
 21
316.5716059999998
 31
0.0
  0
ARC
  5
A021
330
9F79
100
AcDbEntity
  8
1
  6
Continuous
100
AcDbCircle
 10
74.13257299999997
 20
317.449612
 30
0.0
 40
2.778
100
AcDbArc
 50
327.8564799999998
 51
350.09193
  0
ARC
  5
A022
330
9F79
100
AcDbEntity
  8
1
  6
Continuous
100
AcDbCircle
 10
71.59733299999998
 20
317.449612
 30
0.0
 40
2.778
100
AcDbArc
 50
327.8564799999998
 51
350.09193
  0
ARC
  5
A023
330
9F79
100
AcDbEntity
  8
1
  6
Continuous
100
AcDbCircle
 10
62.708123
 20
317.449612
 30
0.0
 40
2.778
100
AcDbArc
 50
327.8564799999998
 51
350.09193
  0
ARC
  5
A024
330
9F79
100
AcDbEntity
  8
1
  6
Continuous
100
AcDbCircle
 10
67.66135300000001
 20
317.449612
 30
0.0
 40
2.778
100
AcDbArc
 50
327.8564799999998
 51
350.09193
  0
ARC
  5
A025
330
9F79
100
AcDbEntity
  8
1
  6
Continuous
100
AcDbCircle
 10
67.66135300000001
 20
317.449612
 30
0.0
 40
2.778
100
AcDbArc
 50
206.9362
 51
212.14351
  0
LINE
  5
A026
330
9F79
100
AcDbEntity
  8
1
  6
Continuous
100
AcDbLine
 10
86.22022300000002
 20
323.871609
 30
0.0
 11
86.22022300000002
 21
321.5716059999998
 31
0.0
  0
LINE
  5
A027
330
9F79
100
AcDbEntity
  8
1
  6
Continuous
100
AcDbLine
 10
84.72010299999999
 20
321.5716689999998
 30
0.0
 11
82.777653
 21
318.4035740000001
 31
0.0
  0
ARC
  5
A028
330
9F79
100
AcDbEntity
  8
1
  6
Continuous
100
AcDbCircle
 10
80.22022300000001
 20
319.971607
 30
0.0
 40
3.0
100
AcDbArc
 50
270.00002
 51
328.48644
  0
CIRCLE
  5
A029
330
9F79
100
AcDbEntity
  8
1
  6
Continuous
100
AcDbCircle
 10
260.7202229999999
 20
426.5716089999998
 30
0.0
 40
24.25
  0
CIRCLE
  5
A02A
330
9F79
100
AcDbEntity
  8
1
  6
Continuous
100
AcDbCircle
 10
260.7202229999999
 20
426.5716089999998
 30
0.0
 40
9.5
  0
CIRCLE
  5
A02B
330
9F79
100
AcDbEntity
  8
1
  6
Continuous
100
AcDbCircle
 10
260.7202229999999
 20
426.5716089999998
 30
0.0
 40
21.75
  0
CIRCLE
  5
A02C
330
9F79
100
AcDbEntity
  8
1
  6
Continuous
100
AcDbCircle
 10
260.7202229999999
 20
426.5716089999998
 30
0.0
 40
12.5
  0
LINE
  5
A02D
330
9F79
100
AcDbEntity
  8
1
  6
Continuous
100
AcDbLine
 10
218.220223
 20
455.5716089999998
 30
0.0
 11
303.2202149999998
 21
455.5716089999998
 31
0.0
  0
LINE
  5
A02E
330
9F79
100
AcDbEntity
  8
1
  6
Continuous
100
AcDbLine
 10
218.220223
 20
397.5716089999999
 30
0.0
 11
303.2202149999998
 21
397.5716089999999
 31
0.0
  0
ARC
  5
A02F
330
9F79
100
AcDbEntity
  8
1
  6
Continuous
100
AcDbCircle
 10
128.2535629999999
 20
426.5716089999998
 30
0.0
 40
85.0
100
AcDbArc
 50
346.5596799999998
 51
13.440323
  0
CIRCLE
  5
A030
330
9F79
100
AcDbEntity
  8
1
  6
Continuous
100
AcDbCircle
 10
219.720223
 20
406.5716089999998
 30
0.0
 40
4.4
  0
LINE
  5
A031
330
9F79
100
AcDbEntity
  8
4
  6
CENTER
100
AcDbLine
 10
225.720223
 20
406.5716089999998
 30
0.0
 11
213.720223
 21
406.5716089999998
 31
0.0
  0
ARC
  5
A032
330
9F79
100
AcDbEntity
  8
1
  6
Continuous
100
AcDbCircle
 10
218.220223
 20
405.0716089999998
 30
0.0
 40
7.5
100
AcDbArc
 50
166.55972
 51
270.0
  0
LINE
  5
A033
330
9F79
100
AcDbEntity
  8
4
  6
CENTER
100
AcDbLine
 10
219.720223
 20
412.571609
 30
0.0
 11
219.720223
 21
400.5716089999998
 31
0.0
  0
CIRCLE
  5
A034
330
9F79
100
AcDbEntity
  8
1
  6
Continuous
100
AcDbCircle
 10
219.720223
 20
446.5716089999999
 30
0.0
 40
4.4
  0
LINE
  5
A035
330
9F79
100
AcDbEntity
  8
4
  6
CENTER
100
AcDbLine
 10
225.720223
 20
446.5716089999999
 30
0.0
 11
213.720223
 21
446.5716089999999
 31
0.0
  0
ARC
  5
A036
330
9F79
100
AcDbEntity
  8
1
  6
Continuous
100
AcDbCircle
 10
218.220223
 20
448.0716089999998
 30
0.0
 40
7.5
100
AcDbArc
 50
89.99992699999998
 51
193.44026
  0
LINE
  5
A037
330
9F79
100
AcDbEntity
  8
4
  6
CENTER
100
AcDbLine
 10
219.720223
 20
452.5716089999998
 30
0.0
 11
219.720223
 21
440.5716089999998
 31
0.0
  0
ARC
  5
A038
330
9F79
100
AcDbEntity
  8
1
  6
Continuous
100
AcDbCircle
 10
393.186893
 20
426.5716089999998
 30
0.0
 40
85.0
100
AcDbArc
 50
166.55964
 51
193.44029
  0
LINE
  5
A039
330
9F79
100
AcDbEntity
  8
4
  6
CENTER
100
AcDbLine
 10
295.720215
 20
406.5716089999998
 30
0.0
 11
307.720215
 21
406.5716089999998
 31
0.0
  0
CIRCLE
  5
A03A
330
9F79
100
AcDbEntity
  8
1
  6
Continuous
100
AcDbCircle
 10
301.720215
 20
406.5716089999998
 30
0.0
 40
4.4
  0
ARC
  5
A03B
330
9F79
100
AcDbEntity
  8
1
  6
Continuous
100
AcDbCircle
 10
303.2202149999998
 20
405.0716089999998
 30
0.0
 40
7.5
100
AcDbArc
 50
269.9999599999998
 51
13.44024099999999
  0
LINE
  5
A03C
330
9F79
100
AcDbEntity
  8
4
  6
CENTER
100
AcDbLine
 10
301.720215
 20
412.571609
 30
0.0
 11
301.720215
 21
400.5716089999998
 31
0.0
  0
CIRCLE
  5
A03D
330
9F79
100
AcDbEntity
  8
1
  6
Continuous
100
AcDbCircle
 10
301.720215
 20
446.5716089999999
 30
0.0
 40
4.4
  0
LINE
  5
A03E
330
9F79
100
AcDbEntity
  8
4
  6
CENTER
100
AcDbLine
 10
295.720215
 20
446.5716089999999
 30
0.0
 11
307.720215
 21
446.5716089999999
 31
0.0
  0
LINE
  5
A03F
330
9F79
100
AcDbEntity
  8
4
  6
CENTER
100
AcDbLine
 10
301.720215
 20
452.5716089999998
 30
0.0
 11
301.720215
 21
440.5716089999998
 31
0.0
  0
ARC
  5
A040
330
9F79
100
AcDbEntity
  8
1
  6
Continuous
100
AcDbCircle
 10
303.2202149999998
 20
448.0716089999998
 30
0.0
 40
7.5
100
AcDbArc
 50
346.5597
 51
90.000037
  0
LINE
  5
A041
330
9F79
100
AcDbEntity
  8
1
  6
Continuous
100
AcDbLine
 10
387.7202229999999
 20
310.9716
 30
0.0
 11
387.7202229999999
 21
285.354425
 31
0.0
  0
LINE
  5
A042
330
9F79
100
AcDbEntity
  8
1
  6
Continuous
100
AcDbLine
 10
437.7202229999999
 20
310.9716
 30
0.0
 11
437.7202229999999
 21
285.354425
 31
0.0
  0
LINE
  5
A043
330
9F79
100
AcDbEntity
  8
1
  6
Continuous
100
AcDbLine
 10
394.420223
 20
254.7893939999999
 30
0.0
 11
394.420223
 21
227.3716089999997
 31
0.0
  0
LINE
  5
A044
330
9F79
100
AcDbEntity
  8
1
  6
Continuous
100
AcDbLine
 10
431.020213
 20
254.7893719999999
 30
0.0
 11
431.020213
 21
227.3716089999997
 31
0.0
  0
LINE
  5
A045
330
9F79
100
AcDbEntity
  8
1
  6
Continuous
100
AcDbLine
 10
428.720223
 20
304.078213
 30
0.0
 11
428.720223
 21
227.3716089999997
 31
0.0
  0
LINE
  5
A046
330
9F79
100
AcDbEntity
  8
1
  6
Continuous
100
AcDbLine
 10
396.7202229999998
 20
304.078213
 30
0.0
 11
396.7202229999998
 21
227.3716089999997
 31
0.0
  0
LINE
  5
A047
330
9F79
100
AcDbEntity
  8
4
  6
CENTER
100
AcDbLine
 10
412.7202229999999
 20
328.8716089999998
 30
0.0
 11
412.7202229999999
 21
170.871609
 31
0.0
  0
LINE
  5
A048
330
9F79
100
AcDbEntity
  8
4
  6
CENTER
100
AcDbLine
 10
443.020213
 20
238.3716089999999
 30
0.0
 11
386.2202429999999
 21
238.3716089999999
 31
0.0
  0
LINE
  5
A049
330
9F79
100
AcDbEntity
  8
1
  6
Continuous
100
AcDbLine
 10
431.020213
 20
227.3716089999997
 30
0.0
 11
428.720223
 21
227.3716089999997
 31
0.0
  0
LINE
  5
A04A
330
9F79
100
AcDbEntity
  8
1
  6
Continuous
100
AcDbLine
 10
436.020183
 20
243.473614
 30
0.0
 11
434.6222029999998
 21
244.871598
 31
0.0
  0
LINE
  5
A04B
330
9F79
100
AcDbEntity
  8
1
  6
Continuous
100
AcDbLine
 10
434.622213
 20
244.871609
 30
0.0
 11
431.418203
 21
244.871609
 31
0.0
  0
ARC
  5
A04C
330
9F79
100
AcDbEntity
  8
1
  6
Continuous
100
AcDbCircle
 10
431.7702129999998
 20
233.429981
 30
0.0
 40
3.25
100
AcDbArc
 50
331.3472699999998
 51
31.36577
  0
ARC
  5
A04D
330
9F79
100
AcDbEntity
  8
1
  6
Continuous
100
AcDbCircle
 10
434.270213
 20
233.429981
 30
0.0
 40
3.25
100
AcDbArc
 50
148.634207
 51
208.6527699999999
  0
LINE
  5
A04E
330
9F79
100
AcDbEntity
  8
1
  6
Continuous
100
AcDbLine
 10
434.622183
 20
231.8716279999999
 30
0.0
 11
436.0201629999998
 21
233.269619
 31
0.0
  0
LINE
  5
A04F
330
9F79
100
AcDbEntity
  8
1
  6
Continuous
100
AcDbLine
 10
434.622213
 20
231.8716089999998
 30
0.0
 11
431.418203
 21
231.8716089999998
 31
0.0
  0
LINE
  5
A050
330
9F79
100
AcDbEntity
  8
1
  6
Continuous
100
AcDbLine
 10
428.720223
 20
234.371609
 30
0.0
 11
427.7202229999998
 21
234.371609
 31
0.0
  0
ARC
  5
A051
330
9F79
100
AcDbEntity
  8
1
  6
Continuous
100
AcDbCircle
 10
443.020213
 20
238.3716089999999
 30
0.0
 40
12.0
100
AcDbArc
 50
164.286139
 51
195.71386
  0
ARC
  5
A052
330
9F79
100
AcDbEntity
  8
1
  6
Continuous
100
AcDbCircle
 10
423.020213
 20
238.3716089999999
 30
0.0
 40
12.0
100
AcDbArc
 50
344.28617
 51
15.71384
  0
LINE
  5
A053
330
9F79
100
AcDbEntity
  8
1
  6
Continuous
100
AcDbLine
 10
434.5717229999998
 20
241.6216089999998
 30
0.0
 11
431.4686929999998
 21
241.6216089999998
 31
0.0
  0
LINE
  5
A054
330
9F79
100
AcDbEntity
  8
1
  6
Continuous
100
AcDbLine
 10
434.5452629999998
 20
235.1216089999998
 30
0.0
 11
431.495153
 21
235.1216089999998
 31
0.0
  0
LINE
  5
A055
330
9F79
100
AcDbEntity
  8
1
  6
Continuous
100
AcDbLine
 10
428.720223
 20
242.3716089999998
 30
0.0
 11
427.7202229999998
 21
242.3716089999998
 31
0.0
  0
LINE
  5
A056
330
9F79
100
AcDbEntity
  8
1
  6
Continuous
100
AcDbLine
 10
436.020213
 20
243.473622
 30
0.0
 11
436.020213
 21
233.269596
 31
0.0
  0
ARC
  5
A057
330
9F79
100
AcDbEntity
  8
1
  6
Continuous
100
AcDbCircle
 10
434.270213
 20
243.313237
 30
0.0
 40
3.25
100
AcDbArc
 50
151.3472329999999
 51
211.3658
  0
ARC
  5
A058
330
9F79
100
AcDbEntity
  8
1
  6
Continuous
100
AcDbCircle
 10
431.7702129999998
 20
243.313237
 30
0.0
 40
3.25
100
AcDbArc
 50
328.6342499999999
 51
28.65275
  0
LINE
  5
A059
330
9F79
100
AcDbEntity
  8
1
  6
Continuous
100
AcDbLine
 10
394.420223
 20
227.3716089999997
 30
0.0
 11
396.7202229999998
 21
227.3716089999997
 31
0.0
  0
LINE
  5
A05A
330
9F79
100
AcDbEntity
  8
1
  6
Continuous
100
AcDbLine
 10
394.420223
 20
244.6216089999999
 30
0.0
 11
393.2202429999999
 21
244.6216089999999
 31
0.0
  0
LINE
  5
A05B
330
9F79
100
AcDbEntity
  8
1
  6
Continuous
100
AcDbLine
 10
391.2202429999999
 20
242.621609
 30
0.0
 11
391.2202429999999
 21
234.1216089999999
 31
0.0
  0
LINE
  5
A05C
330
9F79
100
AcDbEntity
  8
1
  6
Continuous
100
AcDbLine
 10
397.7202229999999
 20
234.371609
 30
0.0
 11
396.7202229999998
 21
234.371609
 31
0.0
  0
LINE
  5
A05D
330
9F79
100
AcDbEntity
  8
1
  6
Continuous
100
AcDbLine
 10
394.420223
 20
232.1216089999999
 30
0.0
 11
393.2202429999999
 21
232.1216089999999
 31
0.0
  0
ARC
  5
A05E
330
9F79
100
AcDbEntity
  8
1
  6
Continuous
100
AcDbCircle
 10
393.2202429999999
 20
234.1216089999999
 30
0.0
 40
2.0
100
AcDbArc
 50
180.0
 51
269.99998
  0
LINE
  5
A05F
330
9F79
100
AcDbEntity
  8
1
  6
Continuous
100
AcDbLine
 10
397.7202229999999
 20
242.3716089999998
 30
0.0
 11
396.7202229999998
 21
242.3716089999998
 31
0.0
  0
ARC
  5
A060
330
9F79
100
AcDbEntity
  8
1
  6
Continuous
100
AcDbCircle
 10
393.2202429999999
 20
242.621609
 30
0.0
 40
2.0
100
AcDbArc
 50
90.00001800000005
 51
180.0
  0
ARC
  5
A061
330
9F79
100
AcDbEntity
  8
1
  6
Continuous
100
AcDbCircle
 10
412.7202229999999
 20
432.706559
 30
0.0
 40
128.4999999999998
100
AcDbArc
 50
263.3484899999999
 51
276.65153
  0
ARC
  5
A062
330
9F79
100
AcDbEntity
  8
1
  6
Continuous
100
AcDbCircle
 10
412.7202229999999
 20
434.9715989999999
 30
0.0
 40
128.4999999999998
100
AcDbArc
 50
264.460965
 51
275.539035
  0
LINE
  5
A063
330
9F79
100
AcDbEntity
  8
1
  6
Continuous
100
AcDbLine
 10
432.720223
 20
315.9716
 30
0.0
 11
392.7202229999999
 21
315.9716
 31
0.0
  0
LINE
  5
A064
330
9F79
100
AcDbEntity
  8
1
  6
Continuous
100
AcDbLine
 10
441.720223
 20
321.5716059999998
 30
0.0
 11
383.7202229999999
 21
321.5716059999998
 31
0.0
  0
LINE
  5
A065
330
9F79
100
AcDbEntity
  8
1
  6
Continuous
100
AcDbLine
 10
435.7202229999998
 20
316.971607
 30
0.0
 11
389.7202229999999
 21
316.971607
 31
0.0
  0
LINE
  5
A066
330
9F79
100
AcDbEntity
  8
1
  6
Continuous
100
AcDbLine
 10
441.720223
 20
323.871609
 30
0.0
 11
383.7202229999999
 21
323.871609
 31
0.0
  0
ARC
  5
A067
330
9F79
100
AcDbEntity
  8
1
  6
Continuous
100
AcDbCircle
 10
435.7202229999998
 20
319.971607
 30
0.0
 40
3.0
100
AcDbArc
 50
269.99998
 51
328.48641
  0
ARC
  5
A068
330
9F79
100
AcDbEntity
  8
1
  6
Continuous
100
AcDbCircle
 10
432.720223
 20
310.9716
 30
0.0
 40
5.0
100
AcDbArc
 50
0.00004
 51
90.00001800000005
  0
LINE
  5
A069
330
9F79
100
AcDbEntity
  8
1
  6
Continuous
100
AcDbLine
 10
441.720223
 20
323.871609
 30
0.0
 11
441.720223
 21
321.57161
 31
0.0
  0
LINE
  5
A06A
330
9F79
100
AcDbEntity
  8
1
  6
Continuous
100
AcDbLine
 10
440.2202729999998
 20
321.571596
 30
0.0
 11
438.277823
 21
318.403487
 31
0.0
  0
ARC
  5
A06B
330
9F79
100
AcDbEntity
  8
1
  6
Continuous
100
AcDbCircle
 10
423.1613829999998
 20
317.449612
 30
0.0
 40
2.778
100
AcDbArc
 50
206.93616
 51
212.14352
  0
ARC
  5
A06C
330
9F79
100
AcDbEntity
  8
1
  6
Continuous
100
AcDbCircle
 10
418.2081529999998
 20
317.449612
 30
0.0
 40
2.778
100
AcDbArc
 50
189.9080099999999
 51
212.14352
  0
ARC
  5
A06D
330
9F79
100
AcDbEntity
  8
1
  6
Continuous
100
AcDbCircle
 10
412.7202429999998
 20
317.449612
 30
0.0
 40
2.778
100
AcDbArc
 50
327.85649
 51
350.0919
  0
ARC
  5
A06E
330
9F79
100
AcDbEntity
  8
1
  6
Continuous
100
AcDbCircle
 10
418.2081529999998
 20
317.449612
 30
0.0
 40
2.778
100
AcDbArc
 50
327.85649
 51
350.0919
  0
ARC
  5
A06F
330
9F79
100
AcDbEntity
  8
1
  6
Continuous
100
AcDbCircle
 10
412.7202429999998
 20
317.449612
 30
0.0
 40
2.778
100
AcDbArc
 50
189.90807
 51
212.14352
  0
ARC
  5
A070
330
9F79
100
AcDbEntity
  8
1
  6
Continuous
100
AcDbCircle
 10
407.232323
 20
317.449612
 30
0.0
 40
2.778
100
AcDbArc
 50
327.85649
 51
350.0919599999999
  0
ARC
  5
A071
330
9F79
100
AcDbEntity
  8
1
  6
Continuous
100
AcDbCircle
 10
429.632603
 20
317.449612
 30
0.0
 40
2.778
100
AcDbArc
 50
327.85649
 51
350.0919
  0
ARC
  5
A072
330
9F79
100
AcDbEntity
  8
1
  6
Continuous
100
AcDbCircle
 10
427.0973629999998
 20
317.449612
 30
0.0
 40
2.778
100
AcDbArc
 50
327.85649
 51
350.0919
  0
ARC
  5
A073
330
9F79
100
AcDbEntity
  8
1
  6
Continuous
100
AcDbCircle
 10
430.520243
 20
317.449612
 30
0.0
 40
2.778
100
AcDbArc
 50
327.85649
 51
350.0919
  0
ARC
  5
A074
330
9F79
100
AcDbEntity
  8
1
  6
Continuous
100
AcDbCircle
 10
423.1613829999998
 20
317.449612
 30
0.0
 40
2.778
100
AcDbArc
 50
327.85649
 51
350.0919
  0
ARC
  5
A075
330
9F79
100
AcDbEntity
  8
1
  6
Continuous
100
AcDbCircle
 10
427.7202229999998
 20
304.078213
 30
0.0
 40
1.0
100
AcDbArc
 50
0.00004
 51
96.65146100000001
  0
LINE
  5
A076
330
9F79
100
AcDbEntity
  8
4
  6
CENTER
100
AcDbLine
 10
432.720223
 20
328.8716089999998
 30
0.0
 11
432.720223
 21
316.5716059999998
 31
0.0
  0
ARC
  5
A077
330
9F79
100
AcDbEntity
  8
1
  6
Continuous
100
AcDbCircle
 10
402.279093
 20
317.449612
 30
0.0
 40
2.778
100
AcDbArc
 50
327.85649
 51
333.0638
  0
ARC
  5
A078
330
9F79
100
AcDbEntity
  8
1
  6
Continuous
100
AcDbCircle
 10
402.279093
 20
317.449612
 30
0.0
 40
2.778
100
AcDbArc
 50
189.90807
 51
212.14352
  0
ARC
  5
A079
330
9F79
100
AcDbEntity
  8
1
  6
Continuous
100
AcDbCircle
 10
407.232323
 20
317.449612
 30
0.0
 40
2.778
100
AcDbArc
 50
189.90807
 51
212.14352
  0
ARC
  5
A07A
330
9F79
100
AcDbEntity
  8
1
  6
Continuous
100
AcDbCircle
 10
398.3431129999999
 20
317.449612
 30
0.0
 40
2.778
100
AcDbArc
 50
189.90807
 51
212.14352
  0
ARC
  5
A07B
330
9F79
100
AcDbEntity
  8
1
  6
Continuous
100
AcDbCircle
 10
395.807873
 20
317.449612
 30
0.0
 40
2.778
100
AcDbArc
 50
189.90807
 51
212.14352
  0
ARC
  5
A07C
330
9F79
100
AcDbEntity
  8
1
  6
Continuous
100
AcDbCircle
 10
394.9202329999998
 20
317.449612
 30
0.0
 40
2.778
100
AcDbArc
 50
189.90807
 51
212.19887
  0
ARC
  5
A07D
330
9F79
100
AcDbEntity
  8
1
  6
Continuous
100
AcDbCircle
 10
392.7202229999999
 20
310.9716
 30
0.0
 40
5.0
100
AcDbArc
 50
90.00001800000005
 51
180.0
  0
ARC
  5
A07E
330
9F79
100
AcDbEntity
  8
1
  6
Continuous
100
AcDbCircle
 10
397.7202229999999
 20
304.078213
 30
0.0
 40
1.0
100
AcDbArc
 50
83.34851999999996
 51
180.0
  0
LINE
  5
A07F
330
9F79
100
AcDbEntity
  8
4
  6
CENTER
100
AcDbLine
 10
392.7202229999999
 20
328.8716089999998
 30
0.0
 11
392.7202229999999
 21
316.5716059999998
 31
0.0
  0
LINE
  5
A080
330
9F79
100
AcDbEntity
  8
1
  6
Continuous
100
AcDbLine
 10
383.7202229999999
 20
323.871609
 30
0.0
 11
383.7202229999999
 21
321.5716059999998
 31
0.0
  0
ARC
  5
A081
330
9F79
100
AcDbEntity
  8
1
  6
Continuous
100
AcDbCircle
 10
389.7202229999999
 20
319.971607
 30
0.0
 40
3.0
100
AcDbArc
 50
211.5135599999999
 51
269.99998
  0
LINE
  5
A082
330
9F79
100
AcDbEntity
  8
1
  6
Continuous
100
AcDbLine
 10
385.220343
 20
321.5716689999998
 30
0.0
 11
387.162793
 21
318.4035740000001
 31
0.0
  0
LINE
  5
A083
330
9F79
100
AcDbEntity
  8
4
  6
CENTER
100
AcDbLine
 10
221.720223
 20
460.5716089999998
 30
0.0
 11
221.720223
 21
392.5716089999998
 31
0.0
  0
LINE
  5
A084
330
9F79
100
AcDbEntity
  8
4
  6
CENTER
100
AcDbLine
 10
221.720223
 20
39.871609
 30
0.0
 11
221.720223
 21
107.871609
 31
0.0
  0
LINE
  5
A085
330
9F79
100
AcDbEntity
  8
1
  6
Continuous
100
AcDbLine
 10
210.7202229999999
 20
89.87160899999997
 30
0.0
 11
242.180805
 21
89.87160899999997
 31
0.0
  0
LINE
  5
A086
330
9F79
100
AcDbEntity
  8
1
  6
Continuous
100
AcDbLine
 10
210.7202229999999
 20
57.87160899999999
 30
0.0
 11
242.180805
 21
57.87160899999999
 31
0.0
  0
LINE
  5
A087
330
9F79
100
AcDbEntity
  8
1
  6
Continuous
100
AcDbLine
 10
210.7202229999999
 20
55.57161899999999
 30
0.0
 11
242.1807929999999
 21
55.57161899999999
 31
0.0
  0
LINE
  5
A088
330
9F79
100
AcDbEntity
  8
1
  6
Continuous
100
AcDbLine
 10
210.7202229999999
 20
92.17160900000001
 30
0.0
 11
242.180805
 21
92.17160900000001
 31
0.0
  0
LINE
  5
A089
330
9F79
100
AcDbEntity
  8
1
  6
Continuous
100
AcDbLine
 10
217.720223
 20
57.87160899999999
 30
0.0
 11
217.720223
 21
58.871609
 31
0.0
  0
LINE
  5
A08A
330
9F79
100
AcDbEntity
  8
1
  6
Continuous
100
AcDbLine
 10
225.720223
 20
57.87160899999999
 30
0.0
 11
225.720223
 21
58.871609
 31
0.0
  0
LINE
  5
A08B
330
9F79
100
AcDbEntity
  8
1
  6
Continuous
100
AcDbLine
 10
217.470223
 20
95.37158899999999
 30
0.0
 11
225.970223
 21
95.37158899999999
 31
0.0
  0
LINE
  5
A08C
330
9F79
100
AcDbEntity
  8
1
  6
Continuous
100
AcDbLine
 10
217.720223
 20
88.87160899999996
 30
0.0
 11
217.720223
 21
89.87160899999997
 31
0.0
  0
ARC
  5
A08D
330
9F79
100
AcDbEntity
  8
1
  6
Continuous
100
AcDbCircle
 10
217.470223
 20
93.371589
 30
0.0
 40
2.0
100
AcDbArc
 50
90.0
 51
179.999982
  0
LINE
  5
A08E
330
9F79
100
AcDbEntity
  8
1
  6
Continuous
100
AcDbLine
 10
215.470223
 20
92.17160900000001
 30
0.0
 11
215.470223
 21
93.371589
 31
0.0
  0
LINE
  5
A08F
330
9F79
100
AcDbEntity
  8
1
  6
Continuous
100
AcDbLine
 10
225.720223
 20
88.87160899999996
 30
0.0
 11
225.720223
 21
89.87160899999997
 31
0.0
  0
ARC
  5
A090
330
9F79
100
AcDbEntity
  8
1
  6
Continuous
100
AcDbCircle
 10
225.970223
 20
93.371589
 30
0.0
 40
2.0
100
AcDbArc
 50
0.00002
 51
90.0
  0
LINE
  5
A091
330
9F79
100
AcDbEntity
  8
1
  6
Continuous
100
AcDbLine
 10
227.970223
 20
92.17160900000001
 30
0.0
 11
227.970223
 21
93.371589
 31
0.0
  0
ARC
  5
A092
330
9F79
100
AcDbEntity
  8
1
  6
Continuous
100
AcDbCircle
 10
219.720223
 20
53.871609
 30
0.0
 40
4.4
100
AcDbArc
 50
157.2714369999999
 51
204.61998
  0
LINE
  5
A093
330
9F79
100
AcDbEntity
  8
1
  6
Continuous
100
AcDbLine
 10
210.7202229999999
 20
92.17160900000001
 30
0.0
 11
210.7202229999999
 21
89.87160899999997
 31
0.0
  0
LINE
  5
A094
330
9F79
100
AcDbEntity
  8
1
  6
Continuous
100
AcDbLine
 10
285.720223
 20
310.971604
 30
0.0
 11
285.720223
 21
307.071608
 31
0.0
  0
ARC
  5
A095
330
9F79
100
AcDbEntity
  8
1
  6
Continuous
100
AcDbCircle
 10
280.7202229999999
 20
310.971604
 30
0.0
 40
5.0
100
AcDbArc
 50
0.0
 51
90.0
  0
ARC
  5
A096
330
9F79
100
AcDbEntity
  8
1
  6
Continuous
100
AcDbCircle
 10
240.720223
 20
310.971604
 30
0.0
 40
5.0
100
AcDbArc
 50
90.0
 51
179.030169
  0
ARC
  5
A097
330
9F79
100
AcDbEntity
  8
1
  6
Continuous
100
AcDbCircle
 10
260.7202229999999
 20
73.87160899999997
 30
0.0
 40
25.0
100
AcDbArc
 50
230.2610529999999
 51
330.070868
  0
LINE
  5
A098
330
9F79
100
AcDbEntity
  8
1
  6
Continuous
100
AcDbLine
 10
210.7202229999999
 20
57.87160899999999
 30
0.0
 11
210.7202229999999
 21
55.57161899999999
 31
0.0
  0
ARC
  5
A099
330
9F79
100
AcDbEntity
  8
1
  6
Continuous
100
AcDbCircle
 10
128.2535629999999
 20
73.87160899999997
 30
0.0
 40
85.0
100
AcDbArc
 50
346.5596399999999
 51
347.567224
  0
ARC
  5
A09A
330
9F79
100
AcDbEntity
  8
1
  6
Continuous
100
AcDbCircle
 10
128.2535629999999
 20
73.87160899999997
 30
0.0
 40
85.0
100
AcDbArc
 50
10.84078599999999
 51
10.849816
  0
ARC
  5
A09B
330
9F79
100
AcDbEntity
  8
1
  6
Continuous
100
AcDbCircle
 10
128.2535629999999
 20
73.87160899999997
 30
0.0
 40
85.0
100
AcDbArc
 50
349.1501839999998
 51
349.159218
  0
ARC
  5
A09C
330
9F79
100
AcDbEntity
  8
1
  6
Continuous
100
AcDbCircle
 10
128.2535629999999
 20
73.87160899999997
 30
0.0
 40
85.0
100
AcDbArc
 50
12.432783
 51
13.44028999999999
  0
ARC
  5
A09D
330
9F79
100
AcDbEntity
  8
1
  6
Continuous
100
AcDbCircle
 10
274.1035719999999
 20
73.87161399999998
 30
0.0
 40
64.383349
100
AcDbArc
 50
165.6105589999999
 51
168.804956
  0
ARC
  5
A09E
330
9F79
100
AcDbEntity
  8
1
  6
Continuous
100
AcDbCircle
 10
274.1035719999999
 20
73.87161399999998
 30
0.0
 40
64.383349
100
AcDbArc
 50
191.195053
 51
194.38945
  0
ARC
  5
A09F
330
9F79
100
AcDbEntity
  8
1
  6
Continuous
100
AcDbCircle
 10
260.7202229999999
 20
73.87160899999997
 30
0.0
 40
22.7
100
AcDbArc
 50
230.2610839999999
 51
326.587642
  0
ARC
  5
A0A0
330
9F79
100
AcDbEntity
  8
1
  6
Continuous
100
AcDbCircle
 10
260.7202229999999
 20
73.87160899999997
 30
0.0
 40
25.0
100
AcDbArc
 50
29.929132
 51
129.7389159999999
  0
ARC
  5
A0A1
330
9F79
100
AcDbEntity
  8
1
  6
Continuous
100
AcDbCircle
 10
260.7202229999999
 20
73.87160899999997
 30
0.0
 40
25.0
100
AcDbArc
 50
337.0698319999998
 51
22.93016799999999
  0
ARC
  5
A0A2
330
9F79
100
AcDbEntity
  8
1
  6
Continuous
100
AcDbCircle
 10
260.7202229999999
 20
73.87160899999997
 30
0.0
 40
22.7
100
AcDbArc
 50
33.41235799999999
 51
129.7389159999999
  0
ARC
  5
A0A3
330
9F79
100
AcDbEntity
  8
1
  6
Continuous
100
AcDbCircle
 10
260.7202229999999
 20
73.87160899999997
 30
0.0
 40
27.500023
100
AcDbArc
 50
221.717136
 51
138.2828359999997
  0
ARC
  5
A0A4
330
9F79
100
AcDbEntity
  8
1
  6
Continuous
100
AcDbCircle
 10
260.7202229999999
 20
73.87160899999997
 30
0.0
 40
17.7
100
AcDbArc
 50
44.92776099999999
 51
135.072239
  0
ARC
  5
A0A5
330
9F79
100
AcDbEntity
  8
1
  6
Continuous
100
AcDbCircle
 10
260.7202229999999
 20
73.87160899999997
 30
0.0
 40
17.7
100
AcDbArc
 50
224.9277609999999
 51
315.072239
  0
LINE
  5
A0A6
330
9F79
100
AcDbEntity
  8
1
  6
Continuous
100
AcDbLine
 10
392.551649
 20
307.071608
 30
0.0
 11
432.8887969999998
 21
307.071608
 31
0.0
  0
LINE
  5
A0A7
330
9F79
100
AcDbEntity
  8
1
  6
Continuous
100
AcDbLine
 10
221.720223
 20
55.57161899999999
 30
0.0
 11
221.720223
 21
51.264439
 31
0.0
  0
LINE
  5
A0A8
330
9F79
100
AcDbEntity
  8
1
  6
Continuous
100
AcDbLine
 10
227.7202229999998
 20
54.87879799999999
 30
0.0
 11
227.7202229999998
 21
51.264439
 31
0.0
  0
LINE
  5
A0A9
330
9F79
100
AcDbEntity
  8
1
  6
Continuous
100
AcDbLine
 10
215.720223
 20
54.87879799999999
 30
0.0
 11
215.720223
 21
51.264439
 31
0.0
  0
ARC
  5
A0AA
330
9F79
100
AcDbEntity
  8
1
  6
Continuous
100
AcDbCircle
 10
218.720223
 20
57.41321899999999
 30
0.0
 40
6.841600999999998
100
AcDbArc
 50
243.992176
 51
296.0078240000001
  0
LINE
  5
A0AB
330
9F79
100
AcDbEntity
  8
1
  6
Continuous
100
AcDbLine
 10
218.9702229999999
 20
50.571619
 30
0.0
 11
224.470223
 21
50.571619
 31
0.0
  0
ARC
  5
A0AC
330
9F79
100
AcDbEntity
  8
1
  6
Continuous
100
AcDbCircle
 10
224.720223
 20
57.41321899999999
 30
0.0
 40
6.841600999999998
100
AcDbArc
 50
243.992176
 51
296.0078240000001
  0
ARC
  5
A0AD
330
9F79
100
AcDbEntity
  8
1
  6
Continuous
100
AcDbCircle
 10
218.720223
 20
48.730018
 30
0.0
 40
6.841600999999998
100
AcDbArc
 50
63.992176
 51
116.007824
  0
ARC
  5
A0AE
330
9F79
100
AcDbEntity
  8
1
  6
Continuous
100
AcDbCircle
 10
224.720223
 20
48.730018
 30
0.0
 40
6.841600999999998
100
AcDbArc
 50
63.992176
 51
116.007824
  0
ARC
  5
A0AF
330
9F79
100
AcDbEntity
  8
1
  6
Continuous
100
AcDbCircle
 10
219.720223
 20
53.871609
 30
0.0
 40
4.4
100
AcDbArc
 50
221.1939529999999
 51
242.9643089999999
  0
ARC
  5
A0B0
330
9F79
100
AcDbEntity
  8
1
  6
Continuous
100
AcDbCircle
 10
543.744736
 20
292.071608
 30
0.0
 40
15.0
100
AcDbArc
 50
29.31722999999999
 51
90.00001800000005
  0
LINE
  5
A0B1
330
9F79
100
AcDbEntity
  8
1
  6
Continuous
100
AcDbLine
 10
584.720223
 20
315.971604
 30
0.0
 11
544.720223
 21
315.971604
 31
0.0
  0
LINE
  5
A0B2
330
9F79
100
AcDbEntity
  8
1
  6
Continuous
100
AcDbLine
 10
614.720223
 20
321.5716059999998
 30
0.0
 11
514.720238
 21
321.5716059999998
 31
0.0
  0
LINE
  5
A0B3
330
9F79
100
AcDbEntity
  8
1
  6
Continuous
100
AcDbLine
 10
587.720225
 20
316.971607
 30
0.0
 11
541.720223
 21
316.971607
 31
0.0
  0
LINE
  5
A0B4
330
9F79
100
AcDbEntity
  8
4
  6
CENTER
100
AcDbLine
 10
674.220223
 20
238.3716089999999
 30
0.0
 11
533.220223
 21
238.3716089999999
 31
0.0
  0
LINE
  5
A0B5
330
9F79
100
AcDbEntity
  8
1
  6
Continuous
100
AcDbLine
 10
614.720223
 20
323.871609
 30
0.0
 11
514.720238
 21
323.871609
 31
0.0
  0
LINE
  5
A0B6
330
9F79
100
AcDbEntity
  8
4
  6
CENTER
100
AcDbLine
 10
603.720223
 20
304.453911
 30
0.0
 11
603.720223
 21
167.8716089999998
 31
0.0
  0
LINE
  5
A0B7
330
9F79
100
AcDbEntity
  8
1
  6
Continuous
100
AcDbLine
 10
614.6934269999998
 20
239.138924
 30
0.0
 11
610.136679
 21
304.3034329999998
 31
0.0
  0
LINE
  5
A0B8
330
9F79
100
AcDbEntity
  8
1
  6
Continuous
100
AcDbLine
 10
594.12904
 20
232.985485
 30
0.0
 11
556.804016
 21
299.450985
 31
0.0
  0
LINE
  5
A0B9
330
9F79
100
AcDbEntity
  8
1
  6
Continuous
100
AcDbLine
 10
585.720223
 20
306.771612
 30
0.0
 11
585.720223
 21
254.3716089999997
 31
0.0
  0
LINE
  5
A0BA
330
9F79
100
AcDbEntity
  8
4
  6
CENTER
100
AcDbLine
 10
564.720223
 20
328.8716089999998
 30
0.0
 11
564.720223
 21
269.604939
 31
0.0
  0
ARC
  5
A0BB
330
9F79
100
AcDbEntity
  8
1
  6
Continuous
100
AcDbCircle
 10
603.720223
 20
238.3716089999999
 30
0.0
 40
11.0
100
AcDbArc
 50
209.31727
 51
3.999969999999999
  0
ARC
  5
A0BC
330
9F79
100
AcDbEntity
  8
1
  6
Continuous
100
AcDbCircle
 10
612.630589
 20
304.4778239999998
 30
0.0
 40
2.5
100
AcDbArc
 50
79.99997999999997
 51
183.9999999999998
  0
ARC
  5
A0BD
330
9F79
100
AcDbEntity
  8
1
  6
Continuous
100
AcDbCircle
 10
611.165668
 20
303.9237879999999
 30
0.0
 40
1.0
100
AcDbArc
 50
79.99998999999998
 51
183.9999999999998
  0
LINE
  5
A0BE
330
9F79
100
AcDbEntity
  8
1
  6
Continuous
100
AcDbLine
 10
615.720223
 20
306.471606
 30
0.0
 11
586.878703
 21
311.557144
 31
0.0
  0
LINE
  5
A0BF
330
9F79
100
AcDbEntity
  8
1
  6
Continuous
100
AcDbLine
 10
615.720223
 20
306.471606
 30
0.0
 11
615.320832
 21
304.206547
 31
0.0
  0
LINE
  5
A0C0
330
9F79
100
AcDbEntity
  8
1
  6
Continuous
100
AcDbLine
 10
615.320832
 20
304.206547
 30
0.0
 11
611.3393160000001
 21
304.9085959999998
 31
0.0
  0
LINE
  5
A0C1
330
9F79
100
AcDbEntity
  8
1
  6
Continuous
100
AcDbLine
 10
614.720238
 20
321.571614
 30
0.0
 11
614.720238
 21
323.871617
 31
0.0
  0
ARC
  5
A0C2
330
9F79
100
AcDbEntity
  8
1
  6
Continuous
100
AcDbCircle
 10
584.720223
 20
310.971604
 30
0.0
 40
5.0
100
AcDbArc
 50
0.9698309999999999
 51
90.0
  0
ARC
  5
A0C3
330
9F79
100
AcDbEntity
  8
1
  6
Continuous
100
AcDbCircle
 10
581.632607
 20
317.449612
 30
0.0
 40
2.778
100
AcDbArc
 50
327.85663
 51
350.0919
  0
ARC
  5
A0C4
330
9F79
100
AcDbEntity
  8
1
  6
Continuous
100
AcDbCircle
 10
579.0973669999997
 20
317.449612
 30
0.0
 40
2.778
100
AcDbArc
 50
327.8566
 51
350.0919
  0
ARC
  5
A0C5
330
9F79
100
AcDbEntity
  8
1
  6
Continuous
100
AcDbCircle
 10
582.520249
 20
317.449612
 30
0.0
 40
2.778
100
AcDbArc
 50
327.85663
 51
350.0919
  0
LINE
  5
A0C6
330
9F79
100
AcDbEntity
  8
4
  6
CENTER
100
AcDbLine
 10
605.720223
 20
328.8716089999998
 30
0.0
 11
605.720223
 21
316.5716059999998
 31
0.0
  0
LINE
  5
A0C7
330
9F79
100
AcDbEntity
  8
1
  6
Continuous
100
AcDbLine
 10
592.2202170000002
 20
321.5716289999998
 30
0.0
 11
590.2777639999998
 21
318.403519
 31
0.0
  0
ARC
  5
A0C8
330
9F79
100
AcDbEntity
  8
1
  6
Continuous
100
AcDbCircle
 10
587.720223
 20
319.971607
 30
0.0
 40
3.0
100
AcDbArc
 50
269.99998
 51
328.48641
  0
ARC
  5
A0C9
330
9F79
100
AcDbEntity
  8
1
  6
Continuous
100
AcDbCircle
 10
554.279084
 20
317.449612
 30
0.0
 40
2.778
100
AcDbArc
 50
189.90807
 51
212.1434199999999
  0
ARC
  5
A0CA
330
9F79
100
AcDbEntity
  8
1
  6
Continuous
100
AcDbCircle
 10
559.2323229999998
 20
317.449612
 30
0.0
 40
2.778
100
AcDbArc
 50
189.90807
 51
212.1434199999999
  0
ARC
  5
A0CB
330
9F79
100
AcDbEntity
  8
1
  6
Continuous
100
AcDbCircle
 10
550.3431099999998
 20
317.449612
 30
0.0
 40
2.778
100
AcDbArc
 50
189.90807
 51
212.1433699999999
  0
ARC
  5
A0CC
330
9F79
100
AcDbEntity
  8
1
  6
Continuous
100
AcDbCircle
 10
570.208153
 20
317.449612
 30
0.0
 40
2.778
100
AcDbArc
 50
189.9080099999999
 51
212.1434199999999
  0
ARC
  5
A0CD
330
9F79
100
AcDbEntity
  8
1
  6
Continuous
100
AcDbCircle
 10
570.208153
 20
317.449612
 30
0.0
 40
2.778
100
AcDbArc
 50
327.8566
 51
350.0919
  0
ARC
  5
A0CE
330
9F79
100
AcDbEntity
  8
1
  6
Continuous
100
AcDbCircle
 10
564.720238
 20
317.449612
 30
0.0
 40
2.778
100
AcDbArc
 50
327.8566
 51
350.0919
  0
ARC
  5
A0CF
330
9F79
100
AcDbEntity
  8
1
  6
Continuous
100
AcDbCircle
 10
559.2323229999998
 20
317.449612
 30
0.0
 40
2.778
100
AcDbArc
 50
327.8566
 51
350.0919599999999
  0
ARC
  5
A0D0
330
9F79
100
AcDbEntity
  8
1
  6
Continuous
100
AcDbCircle
 10
564.720238
 20
317.449612
 30
0.0
 40
2.778
100
AcDbArc
 50
189.90807
 51
212.1434199999999
  0
ARC
  5
A0D1
330
9F79
100
AcDbEntity
  8
1
  6
Continuous
100
AcDbCircle
 10
575.1613929999997
 20
317.449612
 30
0.0
 40
2.778
100
AcDbArc
 50
327.8566
 51
350.0919
  0
ARC
  5
A0D2
330
9F79
100
AcDbEntity
  8
1
  6
Continuous
100
AcDbCircle
 10
544.720223
 20
310.971604
 30
0.0
 40
5.0
100
AcDbArc
 50
90.0
 51
180.0
  0
ARC
  5
A0D3
330
9F79
100
AcDbEntity
  8
1
  6
Continuous
100
AcDbCircle
 10
547.8078690000001
 20
317.449612
 30
0.0
 40
2.778
100
AcDbArc
 50
189.90807
 51
212.1433699999999
  0
ARC
  5
A0D4
330
9F79
100
AcDbEntity
  8
1
  6
Continuous
100
AcDbCircle
 10
546.9202280000001
 20
317.449612
 30
0.0
 40
2.778
100
AcDbArc
 50
189.90807
 51
212.1433699999999
  0
LINE
  5
A0D5
330
9F79
100
AcDbEntity
  8
1
  6
Continuous
100
AcDbLine
 10
539.720223
 20
310.971604
 30
0.0
 11
539.720223
 21
307.071608
 31
0.0
  0
LINE
  5
A0D6
330
9F79
100
AcDbEntity
  8
1
  6
Continuous
100
AcDbLine
 10
543.744736
 20
307.071608
 30
0.0
 11
539.720223
 21
307.071608
 31
0.0
  0
ARC
  5
A0D7
330
9F79
100
AcDbEntity
  8
1
  6
Continuous
100
AcDbCircle
 10
541.720223
 20
319.971607
 30
0.0
 40
3.0
100
AcDbArc
 50
211.5135599999999
 51
269.99998
  0
LINE
  5
A0D8
330
9F79
100
AcDbEntity
  8
1
  6
Continuous
100
AcDbLine
 10
537.2201999999998
 20
321.571589
 30
0.0
 11
539.1626519999999
 21
318.403487
 31
0.0
  0
LINE
  5
A0D9
330
9F79
100
AcDbEntity
  8
1
  6
Continuous
100
AcDbLine
 10
514.720238
 20
321.571598
 30
0.0
 11
514.720238
 21
323.871609
 31
0.0
  0
LINE
  5
A0DA
330
9F79
100
AcDbEntity
  8
4
  6
CENTER
100
AcDbLine
 10
523.720223
 20
328.8716089999998
 30
0.0
 11
523.720223
 21
316.5716059999998
 31
0.0
  0
LINE
  5
A0DB
330
9F79
100
AcDbEntity
  8
2
  6
Continuous
100
AcDbLine
 10
437.4967129999998
 20
241.6951089999999
 30
0.0
 11
436.020213
 21
241.6951089999999
 31
0.0
  0
LINE
  5
A0DC
330
9F79
100
AcDbEntity
  8
2
  6
Continuous
100
AcDbLine
 10
437.4967129999998
 20
235.0481089999999
 30
0.0
 11
436.020213
 21
235.0481089999999
 31
0.0
  0
LINE
  5
A0DD
330
9F79
100
AcDbEntity
  8
4
  6
CENTER
100
AcDbLine
 10
438.0202129999998
 20
238.3716089999999
 30
0.0
 11
436.020213
 21
238.3716089999999
 31
0.0
  0
LINE
  5
A0DE
330
9F79
100
AcDbEntity
  8
1
  6
Continuous
100
AcDbLine
 10
436.8202129999998
 20
234.371609
 30
0.0
 11
436.020213
 21
234.371609
 31
0.0
  0
LINE
  5
A0DF
330
9F79
100
AcDbEntity
  8
1
  6
Continuous
100
AcDbLine
 10
436.8202129999998
 20
242.3716089999998
 30
0.0
 11
436.020213
 21
242.3716089999998
 31
0.0
  0
LINE
  5
A0E0
330
9F79
100
AcDbEntity
  8
1
  6
Continuous
100
AcDbLine
 10
436.8202129999998
 20
242.3716089999998
 30
0.0
 11
436.8202129999998
 21
234.371609
 31
0.0
  0
LINE
  5
A0E1
330
9F79
100
AcDbEntity
  8
1
  6
Continuous
100
AcDbLine
 10
438.0202129999998
 20
241.171609
 30
0.0
 11
438.0202129999998
 21
235.571609
 31
0.0
  0
LINE
  5
A0E2
330
9F79
100
AcDbEntity
  8
1
  6
Continuous
100
AcDbLine
 10
438.0202129999998
 20
241.171609
 30
0.0
 11
436.8202129999998
 21
242.3716089999998
 31
0.0
  0
LINE
  5
A0E3
330
9F79
100
AcDbEntity
  8
1
  6
Continuous
100
AcDbLine
 10
438.0202129999998
 20
235.571609
 30
0.0
 11
436.8202129999998
 21
234.371609
 31
0.0
  0
LINE
  5
A0E4
330
9F79
100
AcDbEntity
  8
1
  6
Continuous
100
AcDbLine
 10
33.12023299999999
 20
234.371609
 30
0.0
 11
33.12023299999999
 21
242.3716089999998
 31
0.0
  0
LINE
  5
A0E5
330
9F79
100
AcDbEntity
  8
1
  6
Continuous
100
AcDbLine
 10
31.92023300000001
 20
235.571609
 30
0.0
 11
31.92023300000001
 21
241.171609
 31
0.0
  0
LINE
  5
A0E6
330
9F79
100
AcDbEntity
  8
1
  6
Continuous
100
AcDbLine
 10
33.12023299999999
 20
234.371609
 30
0.0
 11
33.920233
 21
234.371609
 31
0.0
  0
LINE
  5
A0E7
330
9F79
100
AcDbEntity
  8
2
  6
Continuous
100
AcDbLine
 10
32.443733
 20
235.0481089999999
 30
0.0
 11
33.920233
 21
235.0481089999999
 31
0.0
  0
LINE
  5
A0E8
330
9F79
100
AcDbEntity
  8
1
  6
Continuous
100
AcDbLine
 10
31.92023300000001
 20
235.571609
 30
0.0
 11
33.12023299999999
 21
234.371609
 31
0.0
  0
LINE
  5
A0E9
330
9F79
100
AcDbEntity
  8
1
  6
Continuous
100
AcDbLine
 10
33.12023299999999
 20
242.3716089999998
 30
0.0
 11
33.920233
 21
242.3716089999998
 31
0.0
  0
LINE
  5
A0EA
330
9F79
100
AcDbEntity
  8
2
  6
Continuous
100
AcDbLine
 10
32.443733
 20
241.6951089999999
 30
0.0
 11
33.920233
 21
241.6951089999999
 31
0.0
  0
LINE
  5
A0EB
330
9F79
100
AcDbEntity
  8
1
  6
Continuous
100
AcDbLine
 10
31.92023300000001
 20
241.171609
 30
0.0
 11
33.12023299999999
 21
242.3716089999998
 31
0.0
  0
LINE
  5
A0EC
330
9F79
100
AcDbEntity
  8
1
  6
Continuous
100
AcDbLine
 10
224.5202229999999
 20
48.571619
 30
0.0
 11
218.9202229999999
 21
48.571619
 31
0.0
  0
LINE
  5
A0ED
330
9F79
100
AcDbEntity
  8
1
  6
Continuous
100
AcDbLine
 10
225.720223
 20
49.771619
 30
0.0
 11
217.720223
 21
49.771619
 31
0.0
  0
LINE
  5
A0EE
330
9F79
100
AcDbEntity
  8
1
  6
Continuous
100
AcDbLine
 10
218.9202229999999
 20
48.571619
 30
0.0
 11
217.720223
 21
49.771619
 31
0.0
  0
LINE
  5
A0EF
330
9F79
100
AcDbEntity
  8
2
  6
Continuous
100
AcDbLine
 10
218.3967229999999
 20
49.095119
 30
0.0
 11
218.3967229999999
 21
50.571619
 31
0.0
  0
LINE
  5
A0F0
330
9F79
100
AcDbEntity
  8
1
  6
Continuous
100
AcDbLine
 10
217.720223
 20
49.771619
 30
0.0
 11
217.720223
 21
50.571619
 31
0.0
  0
LINE
  5
A0F1
330
9F79
100
AcDbEntity
  8
4
  6
CENTER
100
AcDbLine
 10
221.720223
 20
48.571619
 30
0.0
 11
221.720223
 21
50.571619
 31
0.0
  0
LINE
  5
A0F2
330
9F79
100
AcDbEntity
  8
2
  6
Continuous
100
AcDbLine
 10
225.043723
 20
49.095119
 30
0.0
 11
225.043723
 21
50.571619
 31
0.0
  0
LINE
  5
A0F3
330
9F79
100
AcDbEntity
  8
1
  6
Continuous
100
AcDbLine
 10
225.720223
 20
49.771619
 30
0.0
 11
225.720223
 21
50.571619
 31
0.0
  0
LINE
  5
A0F4
330
9F79
100
AcDbEntity
  8
1
  6
Continuous
100
AcDbLine
 10
224.5202229999999
 20
48.571619
 30
0.0
 11
225.720223
 21
49.771619
 31
0.0
  0
CIRCLE
  5
A0F5
330
9F79
100
AcDbEntity
  8
1
  6
Continuous
100
AcDbCircle
 10
603.720223
 20
238.3716089999999
 30
0.0
 40
2.799999999999998
  0
CIRCLE
  5
A0F6
330
9F79
100
AcDbEntity
  8
1
  6
Continuous
100
AcDbCircle
 10
603.720223
 20
238.3716089999999
 30
0.0
 40
5.102005
  0
LINE
  5
A0FB
330
9F79
100
AcDbEntity
  8
4
  6
CENTER
100
AcDbLine
 10
213.720223
 20
446.5716089999999
 30
0.0
 11
225.720223
 21
446.5716089999999
 31
0.0
  0
ARC
  5
A103
330
9F79
100
AcDbEntity
  8
1
  6
Continuous
100
AcDbCircle
 10
128.2535629999999
 20
426.5716089999998
 30
0.0
 40
85.0
100
AcDbArc
 50
10.840782
 51
10.849816
  0
LINE
  5
A104
330
9F79
100
AcDbEntity
  8
1
  6
Continuous
100
AcDbLine
 10
210.7202229999999
 20
442.5716089999998
 30
0.0
 11
210.7202229999999
 21
444.871599
 31
0.0
  0
LINE
  5
A106
330
9F79
100
AcDbEntity
  8
4
  6
CENTER
100
AcDbLine
 10
213.720223
 20
406.5716089999998
 30
0.0
 11
225.720223
 21
406.5716089999998
 31
0.0
  0
ARC
  5
A107
330
9F79
100
AcDbEntity
  8
1
  6
Continuous
100
AcDbCircle
 10
128.2535629999999
 20
426.5716089999998
 30
0.0
 40
85.0
100
AcDbArc
 50
349.1501839999998
 51
349.159214
  0
LINE
  5
A108
330
9F79
100
AcDbEntity
  8
1
  6
Continuous
100
AcDbLine
 10
210.7202229999999
 20
408.2716089999998
 30
0.0
 11
210.7202229999999
 21
410.5716089999998
 31
0.0
  0
LINE
  5
A10B
330
9F79
100
AcDbEntity
  8
1
  6
Continuous
100
AcDbLine
 10
210.7202229999999
 20
444.871599
 30
0.0
 11
211.260252
 21
444.871599
 31
0.0
  0
LINE
  5
A10C
330
9F79
100
AcDbEntity
  8
1
  6
Continuous
100
AcDbLine
 10
210.7202229999999
 20
442.5716089999998
 30
0.0
 11
211.7340989999999
 21
442.5716089999998
 31
0.0
  0
LINE
  5
A10D
330
9F79
100
AcDbEntity
  8
1
  6
Continuous
100
AcDbLine
 10
210.7202229999999
 20
408.2716089999998
 30
0.0
 11
211.2602489999999
 21
408.2716089999998
 31
0.0
  0
LINE
  5
A10E
330
9F79
100
AcDbEntity
  8
1
  6
Continuous
100
AcDbLine
 10
210.7202229999999
 20
410.5716089999998
 30
0.0
 11
211.7340989999999
 21
410.5716089999998
 31
0.0
  0
ARC
  5
A111
330
9F79
100
AcDbEntity
  8
1
  6
Continuous
100
AcDbCircle
 10
242.500997
 20
426.571604
 30
0.0
 40
32.780774
100
AcDbArc
 50
157.142433
 51
202.857562
  0
ARC
  5
A112
330
9F79
100
AcDbEntity
  8
1
  6
Continuous
100
AcDbCircle
 10
459.788189
 20
285.354419
 30
0.0
 40
72.067966
100
AcDbArc
 50
163.6561669999998
 51
204.7279049999999
  0
ARC
  5
A113
330
9F79
100
AcDbEntity
  8
1
  6
Continuous
100
AcDbCircle
 10
365.6522569999999
 20
285.354419
 30
0.0
 40
72.067966
100
AcDbArc
 50
335.2720759999999
 51
16.343833
  0
ARC
  5
A114
330
9F79
100
AcDbEntity
  8
1
  6
Continuous
100
AcDbCircle
 10
365.6522569999999
 20
285.354419
 30
0.0
 40
69.767966
100
AcDbArc
 50
335.2720949999998
 51
18.13622699999998
  0
ARC
  5
A115
330
9F79
100
AcDbEntity
  8
1
  6
Continuous
100
AcDbCircle
 10
459.788189
 20
285.354419
 30
0.0
 40
69.767966
100
AcDbArc
 50
161.863773
 51
204.7279049999999
  0
ARC
  5
A116
330
9F79
100
AcDbEntity
  8
1
  6
Continuous
100
AcDbCircle
 10
432.8887969999998
 20
305.071608
 30
0.0
 40
2.0
100
AcDbArc
 50
16.343833
 51
90.0
  0
ARC
  5
A117
330
9F79
100
AcDbEntity
  8
1
  6
Continuous
100
AcDbCircle
 10
392.551649
 20
305.071608
 30
0.0
 40
2.0
100
AcDbArc
 50
90.0
 51
163.6561669999998
  0
ARC
  5
A118
330
9F79
100
AcDbEntity
  8
1
  6
Continuous
100
AcDbCircle
 10
242.180805
 20
96.17160900000001
 30
0.0
 40
4.0
100
AcDbArc
 50
270.0
 51
309.738916
  0
ARC
  5
A119
330
9F79
100
AcDbEntity
  8
1
  6
Continuous
100
AcDbCircle
 10
242.180805
 20
96.17160900000001
 30
0.0
 40
6.299999999999998
100
AcDbArc
 50
270.0
 51
309.738916
  0
ARC
  5
A11A
330
9F79
100
AcDbEntity
  8
1
  6
Continuous
100
AcDbCircle
 10
242.180805
 20
51.571609
 30
0.0
 40
6.299999999999998
100
AcDbArc
 50
50.261084
 51
90.0
  0
ARC
  5
A11B
330
9F79
100
AcDbEntity
  8
1
  6
Continuous
100
AcDbCircle
 10
242.1807929999999
 20
51.571619
 30
0.0
 40
4.0
100
AcDbArc
 50
50.26105300000001
 51
90.0
  0
ARC
  5
A11C
330
9F79
100
AcDbEntity
  8
1
  6
Continuous
100
AcDbCircle
 10
393.420223
 20
254.7893939999999
 30
0.0
 40
1.0
100
AcDbArc
 50
0.0
 51
24.727905
  0
ARC
  5
A11D
330
9F79
100
AcDbEntity
  8
1
  6
Continuous
100
AcDbCircle
 10
393.420223
 20
254.7893939999999
 30
0.0
 40
3.299999999999998
100
AcDbArc
 50
0.0
 51
24.727905
  0
ARC
  5
A11E
330
9F79
100
AcDbEntity
  8
1
  6
Continuous
100
AcDbCircle
 10
432.020213
 20
254.7893719999999
 30
0.0
 40
1.0
100
AcDbArc
 50
155.2720759999999
 51
180.0
  0
ARC
  5
A11F
330
9F79
100
AcDbEntity
  8
1
  6
Continuous
100
AcDbCircle
 10
432.0202229999998
 20
254.7893939999999
 30
0.0
 40
3.299999999999998
100
AcDbArc
 50
155.272095
 51
180.0
  0
ARC
  5
A120
330
9F79
100
AcDbEntity
  8
1
  6
Continuous
100
AcDbCircle
 10
221.720223
 20
238.3716089999999
 30
0.0
 40
56.24260699999999
100
AcDbArc
 50
97.27867899999999
 51
49.40401000000001
  0
ARC
  5
A121
330
9F79
100
AcDbEntity
  8
1
  6
Continuous
100
AcDbCircle
 10
221.720223
 20
238.3716089999999
 30
0.0
 40
62.5
100
AcDbArc
 50
96.13685500000002
 51
50.54584000000001
  0
LINE
  5
A122
330
9F79
100
AcDbEntity
  8
1
  6
Continuous
100
AcDbLine
 10
161.336365
 20
414.0716089999998
 30
0.0
 11
212.1970489999999
 21
414.0716089999998
 31
0.0
  0
LINE
  5
A123
330
9F79
100
AcDbEntity
  8
1
  6
Continuous
100
AcDbLine
 10
161.336365
 20
439.0716089999998
 30
0.0
 11
212.197053
 21
439.0716089999998
 31
0.0
  0
LINE
  5
A124
330
9F79
100
AcDbEntity
  8
1
  6
Continuous
100
AcDbLine
 10
218.720223
 20
226.8390459999999
 30
0.0
 11
218.720223
 21
185.468159
 31
0.0
  0
ARC
  5
A125
330
9F79
100
AcDbEntity
  8
1
  6
Continuous
100
AcDbCircle
 10
215.720223
 20
185.468159
 30
0.0
 40
3.0
100
AcDbArc
 50
263.52951
 51
0.0
  0
LINE
  5
A126
330
9F79
100
AcDbEntity
  8
1
  6
Continuous
100
AcDbLine
 10
174.404494
 20
214.5179619999999
 30
0.0
 11
210.232739
 21
235.2034039999999
 31
0.0
  0
LINE
  5
A127
330
9F79
100
AcDbEntity
  8
1
  6
Continuous
100
AcDbLine
 10
177.4044879999999
 20
209.3217999999999
 30
0.0
 11
213.2327309999999
 21
230.007245
 31
0.0
  0
ARC
  5
A128
330
9F79
100
AcDbEntity
  8
1
  6
Continuous
100
AcDbCircle
 10
172.904488
 20
217.1160379999999
 30
0.0
 40
3.0
100
AcDbArc
 50
203.5294599999998
 51
300.00001
  0
ARC
  5
A129
330
9F79
100
AcDbEntity
  8
1
  6
Continuous
100
AcDbCircle
 10
178.9044879999999
 20
206.7237299999999
 30
0.0
 40
3.0
100
AcDbArc
 50
120.0000199999999
 51
216.4704399999999
  0
LINE
  5
A12A
330
9F79
100
AcDbEntity
  8
1
  6
Continuous
100
AcDbLine
 10
206.9725
 20
232.1664029999999
 30
0.0
 11
211.352728
 21
234.695328
 31
0.0
  0
ARC
  5
A12B
330
9F79
100
AcDbEntity
  8
1
  6
Continuous
100
AcDbCircle
 10
214.732731
 20
227.409174
 30
0.0
 40
3.0
100
AcDbArc
 50
100.5354899999999
 51
120.00003
  0
ARC
  5
A12C
330
9F79
100
AcDbEntity
  8
1
  6
Continuous
100
AcDbCircle
 10
215.720223
 20
226.8390459999999
 30
0.0
 40
3.0
100
AcDbArc
 50
0.0
 51
19.46448699999998
  0
ARC
  5
A12D
330
9F79
100
AcDbEntity
  8
1
  6
Continuous
100
AcDbCircle
 10
221.720223
 20
238.3716089999999
 30
0.0
 40
16.0
100
AcDbArc
 50
202.8192199999999
 51
217.1807299999999
  0
LINE
  5
A12E
330
9F79
100
AcDbEntity
  8
1
  6
Continuous
100
AcDbLine
 10
208.9725
 20
228.7023
 30
0.0
 11
213.3527299999999
 21
231.2312259999999
 31
0.0
  0
ARC
  5
A12F
330
9F79
100
AcDbEntity
  8
1
  6
Continuous
100
AcDbCircle
 10
208.732731
 20
237.8014809999999
 30
0.0
 40
3.0
100
AcDbArc
 50
300.0
 51
319.464485
  0
LINE
  5
A130
330
9F79
100
AcDbEntity
  8
1
  6
Continuous
100
AcDbLine
 10
224.720223
 20
226.8390459999999
 30
0.0
 11
224.720223
 21
185.468159
 31
0.0
  0
ARC
  5
A131
330
9F79
100
AcDbEntity
  8
1
  6
Continuous
100
AcDbCircle
 10
227.7202229999998
 20
185.468159
 30
0.0
 40
3.0
100
AcDbArc
 50
179.9999799999999
 51
276.4704599999999
  0
LINE
  5
A132
330
9F79
100
AcDbEntity
  8
1
  6
Continuous
100
AcDbLine
 10
233.2077219999999
 20
235.2034069999999
 30
0.0
 11
269.035973
 21
214.5179619999999
 31
0.0
  0
LINE
  5
A133
330
9F79
100
AcDbEntity
  8
1
  6
Continuous
100
AcDbLine
 10
230.207722
 20
230.007253
 30
0.0
 11
266.035973
 21
209.321808
 31
0.0
  0
LINE
  5
A134
330
9F79
100
AcDbEntity
  8
1
  6
Continuous
100
AcDbLine
 10
232.2265859999999
 20
234.6151669999999
 30
0.0
 11
236.4679649999999
 21
232.166407
 31
0.0
  0
ARC
  5
A135
330
9F79
100
AcDbEntity
  8
1
  6
Continuous
100
AcDbCircle
 10
221.720223
 20
238.3716089999999
 30
0.0
 40
16.0
100
AcDbArc
 50
322.8192399999998
 51
337.18076
  0
ARC
  5
A136
330
9F79
100
AcDbEntity
  8
1
  6
Continuous
100
AcDbCircle
 10
227.7202229999998
 20
226.8390459999999
 30
0.0
 40
3.0
100
AcDbArc
 50
160.5355129999999
 51
179.9999599999999
  0
ARC
  5
A137
330
9F79
100
AcDbEntity
  8
1
  6
Continuous
100
AcDbCircle
 10
228.707718
 20
227.409175
 30
0.0
 40
3.0
100
AcDbArc
 50
59.999995
 51
79.46454099999998
  0
LINE
  5
A138
330
9F79
100
AcDbEntity
  8
1
  6
Continuous
100
AcDbLine
 10
230.087723
 20
231.2312339999997
 30
0.0
 11
234.467953
 21
228.7023079999999
 31
0.0
  0
ARC
  5
A139
330
9F79
100
AcDbEntity
  8
1
  6
Continuous
100
AcDbCircle
 10
234.707718
 20
237.801483
 30
0.0
 40
3.0
100
AcDbArc
 50
229.0836169999999
 51
239.99998
  0
ARC
  5
A13A
330
9F79
100
AcDbEntity
  8
1
  6
Continuous
100
AcDbCircle
 10
264.535958
 20
206.723732
 30
0.0
 40
3.0
100
AcDbArc
 50
323.5295299999999
 51
59.999995
  0
ARC
  5
A13B
330
9F79
100
AcDbEntity
  8
1
  6
Continuous
100
AcDbCircle
 10
270.535958
 20
217.11604
 30
0.0
 40
3.0
100
AcDbArc
 50
239.99997
 51
336.47053
  0
ARC
  5
A13C
330
9F79
100
AcDbEntity
  8
1
  6
Continuous
100
AcDbCircle
 10
259.2202229999999
 20
426.5716089999998
 30
0.0
 40
100.0
100
AcDbArc
 50
173.5881149999999
 51
186.411904
  0
ARC
  5
A13D
330
9F79
100
AcDbEntity
  8
1
  6
Continuous
100
AcDbCircle
 10
212.7202229999999
 20
412.571609
 30
0.0
 40
1.0
100
AcDbArc
 50
184.4115399999997
 51
222.081122
  0
LINE
  5
A13E
330
9F79
100
AcDbEntity
  8
1
  6
Continuous
100
AcDbLine
 10
211.7231819999997
 20
412.4946969999998
 30
0.0
 11
211.601527
 21
414.071617
 31
0.0
  0
ARC
  5
A13F
330
9F79
100
AcDbEntity
  8
1
  6
Continuous
100
AcDbCircle
 10
161.336365
 20
415.5716089999998
 30
0.0
 40
1.5
100
AcDbArc
 50
186.4118629999999
 51
270.00002
  0
ARC
  5
A140
330
9F79
100
AcDbEntity
  8
1
  6
Continuous
100
AcDbCircle
 10
212.7202229999999
 20
440.5716089999998
 30
0.0
 40
1.0
100
AcDbArc
 50
137.918878
 51
175.588479
  0
LINE
  5
A141
330
9F79
100
AcDbEntity
  8
1
  6
Continuous
100
AcDbLine
 10
211.6015319999999
 20
439.0716239999998
 30
0.0
 11
211.723187
 21
440.6485359999998
 31
0.0
  0
ARC
  5
A142
330
9F79
100
AcDbEntity
  8
1
  6
Continuous
100
AcDbCircle
 10
161.336365
 20
437.571609
 30
0.0
 40
1.5
100
AcDbArc
 50
90.0
 51
173.5881559999999
  0
LINE
  5
A143
330
9F79
100
AcDbEntity
  8
1
  6
Continuous
100
AcDbLine
 10
177.4044879999999
 20
267.421414
 30
0.0
 11
211.3541
 21
247.820595
 31
0.0
  0
LINE
  5
A144
330
9F79
100
AcDbEntity
  8
1
  6
Continuous
100
AcDbLine
 10
174.4044949999999
 20
262.225258
 30
0.0
 11
210.232739
 21
241.539814
 31
0.0
  0
ARC
  5
A145
330
9F79
100
AcDbEntity
  8
1
  6
Continuous
100
AcDbCircle
 10
172.904488
 20
259.6271799999998
 30
0.0
 40
3.0
100
AcDbArc
 50
59.999995
 51
156.47054
  0
ARC
  5
A146
330
9F79
100
AcDbEntity
  8
1
  6
Continuous
100
AcDbCircle
 10
178.9044879999999
 20
270.01949
 30
0.0
 40
3.0
100
AcDbArc
 50
143.52954
 51
239.99995
  0
ARC
  5
A147
330
9F79
100
AcDbEntity
  8
1
  6
Continuous
100
AcDbCircle
 10
208.732731
 20
238.9417369999999
 30
0.0
 40
3.0
100
AcDbArc
 50
44.30167199999998
 51
60.000002
  0
LINE
  5
A148
330
9F79
100
AcDbEntity
  8
1
  6
Continuous
100
AcDbLine
 10
237.5102259999999
 20
244.0238609999999
 30
0.0
 11
269.035973
 21
262.225256
 31
0.0
  0
LINE
  5
A149
330
9F79
100
AcDbEntity
  8
1
  6
Continuous
100
AcDbLine
 10
243.267553
 20
254.276062
 30
0.0
 11
266.035973
 21
267.421414
 31
0.0
  0
ARC
  5
A14A
330
9F79
100
AcDbEntity
  8
1
  6
Continuous
100
AcDbCircle
 10
264.535958
 20
270.0194859999999
 30
0.0
 40
3.0
100
AcDbArc
 50
300.00001
 51
36.47047500000001
  0
ARC
  5
A14B
330
9F79
100
AcDbEntity
  8
1
  6
Continuous
100
AcDbCircle
 10
270.535958
 20
259.6271779999999
 30
0.0
 40
3.0
100
AcDbArc
 50
23.529474
 51
120.00003
  0
LINE
  5
A14C
330
9F79
100
AcDbEntity
  8
1
  6
Continuous
100
AcDbLine
 10
69.720223
 20
298.755467
 30
0.0
 11
69.720223
 21
177.987751
 31
0.0
  0
LINE
  5
A14D
330
9F79
100
AcDbEntity
  8
1
  6
Continuous
100
AcDbLine
 10
44.72022299999999
 20
298.755467
 30
0.0
 11
44.72022299999999
 21
177.987751
 31
0.0
  0
ARC
  5
A14E
330
9F79
100
AcDbEntity
  8
1
  6
Continuous
100
AcDbCircle
 10
46.220223
 20
177.987751
 30
0.0
 40
1.5
100
AcDbArc
 50
179.9999799999999
 51
263.5881499999999
  0
ARC
  5
A14F
330
9F79
100
AcDbEntity
  8
1
  6
Continuous
100
AcDbCircle
 10
57.22022299999999
 20
275.8716089999999
 30
0.0
 40
100.0
100
AcDbArc
 50
263.5880999999999
 51
276.4118899999999
  0
ARC
  5
A150
330
9F79
100
AcDbEntity
  8
1
  6
Continuous
100
AcDbCircle
 10
68.220223
 20
177.987751
 30
0.0
 40
1.5
100
AcDbArc
 50
276.41184
 51
0.0
  0
LINE
  5
A151
330
9F79
100
AcDbEntity
  8
1
  6
Continuous
100
AcDbLine
 10
42.22022299999999
 20
247.3716089999999
 30
0.0
 11
42.22022299999999
 21
229.3716089999997
 31
0.0
  0
LINE
  5
A152
330
9F79
100
AcDbEntity
  8
1
  6
Continuous
100
AcDbLine
 10
43.14331099999999
 20
228.374568
 30
0.0
 11
44.720231
 21
228.2529129999999
 31
0.0
  0
ARC
  5
A153
330
9F79
100
AcDbEntity
  8
1
  6
Continuous
100
AcDbCircle
 10
43.22022299999999
 20
229.3716089999997
 30
0.0
 40
1.0
100
AcDbArc
 50
179.9999799999999
 51
265.5884599999998
  0
LINE
  5
A154
330
9F79
100
AcDbEntity
  8
1
  6
Continuous
100
AcDbLine
 10
43.14331099999999
 20
248.36865
 30
0.0
 11
44.720231
 21
248.4903049999998
 31
0.0
  0
ARC
  5
A155
330
9F79
100
AcDbEntity
  8
1
  6
Continuous
100
AcDbCircle
 10
43.22022299999999
 20
247.3716089999999
 30
0.0
 40
1.0
100
AcDbArc
 50
94.41154
 51
180.00002
  0
LINE
  5
A156
330
9F79
100
AcDbEntity
  8
1
  6
Continuous
100
AcDbLine
 10
72.220223
 20
247.3716089999999
 30
0.0
 11
72.220223
 21
229.3716089999997
 31
0.0
  0
LINE
  5
A157
330
9F79
100
AcDbEntity
  8
1
  6
Continuous
100
AcDbLine
 10
69.72023799999999
 20
228.252918
 30
0.0
 11
71.29715
 21
228.374573
 31
0.0
  0
ARC
  5
A158
330
9F79
100
AcDbEntity
  8
1
  6
Continuous
100
AcDbCircle
 10
71.22022300000002
 20
229.3716089999997
 30
0.0
 40
1.0
100
AcDbArc
 50
274.4115199999999
 51
0.0
  0
LINE
  5
A159
330
9F79
100
AcDbEntity
  8
1
  6
Continuous
100
AcDbLine
 10
69.72023799999999
 20
248.4903
 30
0.0
 11
71.29715
 21
248.3686449999999
 31
0.0
  0
ARC
  5
A15A
330
9F79
100
AcDbEntity
  8
1
  6
Continuous
100
AcDbCircle
 10
71.22022300000002
 20
247.3716089999999
 30
0.0
 40
1.0
100
AcDbArc
 50
0.0
 51
85.58847900000001
  0
ARC
  5
A15B
330
9F79
100
AcDbEntity
  8
1
  6
Continuous
100
AcDbCircle
 10
46.220223
 20
298.755467
 30
0.0
 40
1.5
100
AcDbArc
 50
96.41186300000001
 51
180.00002
  0
ARC
  5
A15C
330
9F79
100
AcDbEntity
  8
1
  6
Continuous
100
AcDbCircle
 10
57.22022299999999
 20
200.871609
 30
0.0
 40
100.0
100
AcDbArc
 50
83.58811499999999
 51
96.41190400000001
  0
ARC
  5
A15D
330
9F79
100
AcDbEntity
  8
1
  6
Continuous
100
AcDbCircle
 10
68.220223
 20
298.755467
 30
0.0
 40
1.5
100
AcDbArc
 50
0.0
 51
83.58815600000001
  0
LINE
  5
A15E
330
9F79
100
AcDbEntity
  8
1
  6
Continuous
100
AcDbLine
 10
400.2202229999999
 20
298.755467
 30
0.0
 11
400.2202229999999
 21
177.987751
 31
0.0
  0
LINE
  5
A15F
330
9F79
100
AcDbEntity
  8
1
  6
Continuous
100
AcDbLine
 10
425.2202229999999
 20
298.755467
 30
0.0
 11
425.2202229999999
 21
177.987751
 31
0.0
  0
ARC
  5
A160
330
9F79
100
AcDbEntity
  8
1
  6
Continuous
100
AcDbCircle
 10
412.7202229999999
 20
275.8716089999999
 30
0.0
 40
100.0
100
AcDbArc
 50
263.5880999999999
 51
276.4118899999999
  0
ARC
  5
A161
330
9F79
100
AcDbEntity
  8
1
  6
Continuous
100
AcDbCircle
 10
401.7202229999998
 20
177.987751
 30
0.0
 40
1.5
100
AcDbArc
 50
179.9999799999999
 51
263.5881499999999
  0
ARC
  5
A162
330
9F79
100
AcDbEntity
  8
1
  6
Continuous
100
AcDbCircle
 10
423.7202229999998
 20
177.987751
 30
0.0
 40
1.5
100
AcDbArc
 50
276.41184
 51
0.0
  0
LINE
  5
A163
330
9F79
100
AcDbEntity
  8
1
  6
Continuous
100
AcDbLine
 10
397.7202229999999
 20
247.3716089999999
 30
0.0
 11
397.7202229999999
 21
229.3716089999997
 31
0.0
  0
ARC
  5
A164
330
9F79
100
AcDbEntity
  8
1
  6
Continuous
100
AcDbCircle
 10
398.7202229999999
 20
229.3716089999997
 30
0.0
 40
1.0
100
AcDbArc
 50
179.9999799999999
 51
265.5884599999998
  0
LINE
  5
A165
330
9F79
100
AcDbEntity
  8
1
  6
Continuous
100
AcDbLine
 10
398.643311
 20
228.374568
 30
0.0
 11
400.220231
 21
228.2529129999999
 31
0.0
  0
ARC
  5
A166
330
9F79
100
AcDbEntity
  8
1
  6
Continuous
100
AcDbCircle
 10
398.7202229999999
 20
247.3716089999999
 30
0.0
 40
1.0
100
AcDbArc
 50
94.41154
 51
180.00002
  0
LINE
  5
A167
330
9F79
100
AcDbEntity
  8
1
  6
Continuous
100
AcDbLine
 10
398.643311
 20
248.36865
 30
0.0
 11
400.220231
 21
248.4903049999998
 31
0.0
  0
LINE
  5
A168
330
9F79
100
AcDbEntity
  8
1
  6
Continuous
100
AcDbLine
 10
427.7202229999998
 20
247.3716089999999
 30
0.0
 11
427.7202229999998
 21
229.3716089999997
 31
0.0
  0
ARC
  5
A169
330
9F79
100
AcDbEntity
  8
1
  6
Continuous
100
AcDbCircle
 10
426.7202229999998
 20
229.3716089999997
 30
0.0
 40
1.0
100
AcDbArc
 50
274.4115199999999
 51
0.0
  0
LINE
  5
A16A
330
9F79
100
AcDbEntity
  8
1
  6
Continuous
100
AcDbLine
 10
425.2202379999998
 20
228.252918
 30
0.0
 11
426.7971499999998
 21
228.374573
 31
0.0
  0
ARC
  5
A16B
330
9F79
100
AcDbEntity
  8
1
  6
Continuous
100
AcDbCircle
 10
426.7202229999998
 20
247.3716089999999
 30
0.0
 40
1.0
100
AcDbArc
 50
0.0
 51
85.58847900000001
  0
LINE
  5
A16C
330
9F79
100
AcDbEntity
  8
1
  6
Continuous
100
AcDbLine
 10
425.2202379999998
 20
248.4903
 30
0.0
 11
426.7971499999998
 21
248.3686449999999
 31
0.0
  0
ARC
  5
A16D
330
9F79
100
AcDbEntity
  8
1
  6
Continuous
100
AcDbCircle
 10
423.7202229999998
 20
298.755467
 30
0.0
 40
1.5
100
AcDbArc
 50
0.0
 51
83.58815600000001
  0
ARC
  5
A16E
330
9F79
100
AcDbEntity
  8
1
  6
Continuous
100
AcDbCircle
 10
412.7202229999999
 20
200.871609
 30
0.0
 40
100.0
100
AcDbArc
 50
83.58811499999999
 51
96.41190400000001
  0
ARC
  5
A16F
330
9F79
100
AcDbEntity
  8
1
  6
Continuous
100
AcDbCircle
 10
401.7202229999998
 20
298.755467
 30
0.0
 40
1.5
100
AcDbArc
 50
96.41186300000001
 51
180.00002
  0
LINE
  5
A170
330
9F79
100
AcDbEntity
  8
1
  6
Continuous
100
AcDbLine
 10
161.336365
 20
61.371609
 30
0.0
 11
282.1040809999999
 21
61.371609
 31
0.0
  0
LINE
  5
A171
330
9F79
100
AcDbEntity
  8
1
  6
Continuous
100
AcDbLine
 10
161.336365
 20
86.37160899999996
 30
0.0
 11
282.1040809999999
 21
86.37160899999996
 31
0.0
  0
ARC
  5
A172
330
9F79
100
AcDbEntity
  8
1
  6
Continuous
100
AcDbCircle
 10
259.2202229999999
 20
73.87160899999997
 30
0.0
 40
100.0
100
AcDbArc
 50
173.5881149999999
 51
186.411904
  0
ARC
  5
A173
330
9F79
100
AcDbEntity
  8
1
  6
Continuous
100
AcDbCircle
 10
161.336365
 20
62.87160899999999
 30
0.0
 40
1.5
100
AcDbArc
 50
186.4118629999999
 51
270.00002
  0
LINE
  5
A174
330
9F79
100
AcDbEntity
  8
1
  6
Continuous
100
AcDbLine
 10
212.7202229999999
 20
58.871609
 30
0.0
 11
230.720223
 21
58.871609
 31
0.0
  0
ARC
  5
A175
330
9F79
100
AcDbEntity
  8
1
  6
Continuous
100
AcDbCircle
 10
212.7202229999999
 20
59.871609
 30
0.0
 40
1.0
100
AcDbArc
 50
184.4115399999997
 51
270.00002
  0
LINE
  5
A176
330
9F79
100
AcDbEntity
  8
1
  6
Continuous
100
AcDbLine
 10
211.7231819999997
 20
59.794697
 30
0.0
 11
211.601527
 21
61.371617
 31
0.0
  0
ARC
  5
A177
330
9F79
100
AcDbEntity
  8
1
  6
Continuous
100
AcDbCircle
 10
230.720223
 20
59.871609
 30
0.0
 40
1.0
100
AcDbArc
 50
269.99998
 51
355.58846
  0
LINE
  5
A178
330
9F79
100
AcDbEntity
  8
1
  6
Continuous
100
AcDbLine
 10
231.7172629999999
 20
59.794697
 30
0.0
 11
231.8389189999999
 21
61.371617
 31
0.0
  0
ARC
  5
A179
330
9F79
100
AcDbEntity
  8
1
  6
Continuous
100
AcDbCircle
 10
161.336365
 20
84.87160899999997
 30
0.0
 40
1.5
100
AcDbArc
 50
90.0
 51
173.5881559999999
  0
ARC
  5
A17A
330
9F79
100
AcDbEntity
  8
1
  6
Continuous
100
AcDbCircle
 10
212.7202229999999
 20
87.87160899999998
 30
0.0
 40
1.0
100
AcDbArc
 50
90.0
 51
175.588479
  0
ARC
  5
A17B
330
9F79
100
AcDbEntity
  8
1
  6
Continuous
100
AcDbCircle
 10
230.720223
 20
87.87160899999998
 30
0.0
 40
1.0
100
AcDbArc
 50
4.411519999999998
 51
90.0
  0
LINE
  5
A17C
330
9F79
100
AcDbEntity
  8
1
  6
Continuous
100
AcDbLine
 10
211.6015319999999
 20
86.37162399999999
 30
0.0
 11
211.723187
 21
87.94853600000001
 31
0.0
  0
LINE
  5
A17D
330
9F79
100
AcDbEntity
  8
1
  6
Continuous
100
AcDbLine
 10
231.8389139999999
 20
86.37162399999999
 30
0.0
 11
231.7172589999999
 21
87.94853600000001
 31
0.0
  0
LINE
  5
A17E
330
9F79
100
AcDbEntity
  8
1
  6
Continuous
100
AcDbLine
 10
212.7202229999999
 20
88.87160899999996
 30
0.0
 11
230.720223
 21
88.87160899999996
 31
0.0
  0
ARC
  5
A17F
330
9F79
100
AcDbEntity
  8
1
  6
Continuous
100
AcDbCircle
 10
184.220223
 20
73.87160899999997
 30
0.0
 40
100.0
100
AcDbArc
 50
353.5880999999998
 51
6.411889999999998
  0
ARC
  5
A180
330
9F79
100
AcDbEntity
  8
1
  6
Continuous
100
AcDbCircle
 10
282.1040809999999
 20
62.87160899999999
 30
0.0
 40
1.5
100
AcDbArc
 50
269.99998
 51
353.5881499999999
  0
ARC
  5
A181
330
9F79
100
AcDbEntity
  8
1
  6
Continuous
100
AcDbCircle
 10
282.1040809999999
 20
84.87160899999997
 30
0.0
 40
1.5
100
AcDbArc
 50
6.411839999999997
 51
90.0
  0
ARC
  5
A182
330
9F79
100
AcDbEntity
  8
1
  6
Continuous
100
AcDbCircle
 10
603.720223
 20
238.3716089999999
 30
0.0
 40
62.5
100
AcDbArc
 50
129.45416
 51
83.86314500000002
  0
ARC
  5
A183
330
9F79
100
AcDbEntity
  8
1
  6
Continuous
100
AcDbCircle
 10
603.720223
 20
238.3716089999999
 30
0.0
 40
56.24260699999999
100
AcDbArc
 50
130.59599
 51
82.721321
  0
LINE
  5
A184
330
9F79
100
AcDbEntity
  8
1
  6
Continuous
100
AcDbLine
 10
614.3853759999997
 20
235.678189
 30
0.0
 11
651.035973
 21
214.5179619999999
 31
0.0
  0
LINE
  5
A185
330
9F79
100
AcDbEntity
  8
1
  6
Continuous
100
AcDbLine
 10
611.3853779999997
 20
230.482033
 30
0.0
 11
648.0359729999999
 21
209.321808
 31
0.0
  0
LINE
  5
A186
330
9F79
100
AcDbEntity
  8
1
  6
Continuous
100
AcDbLine
 10
614.226586
 20
234.6151669999999
 30
0.0
 11
618.4679650000001
 21
232.166407
 31
0.0
  0
ARC
  5
A187
330
9F79
100
AcDbEntity
  8
1
  6
Continuous
100
AcDbCircle
 10
603.720223
 20
238.3716089999999
 30
0.0
 40
16.0
100
AcDbArc
 50
322.8192399999998
 51
337.18076
  0
ARC
  5
A188
330
9F79
100
AcDbEntity
  8
1
  6
Continuous
100
AcDbCircle
 10
652.5359580000001
 20
217.11604
 30
0.0
 40
3.0
100
AcDbArc
 50
239.99997
 51
336.47053
  0
ARC
  5
A189
330
9F79
100
AcDbEntity
  8
1
  6
Continuous
100
AcDbCircle
 10
646.5359580000002
 20
206.723732
 30
0.0
 40
3.0
100
AcDbArc
 50
323.5295299999999
 51
59.999995
  0
LINE
  5
A18A
330
9F79
100
AcDbEntity
  8
1
  6
Continuous
100
AcDbLine
 10
612.0877230000001
 20
231.2312339999997
 30
0.0
 11
616.4679529999999
 21
228.7023079999999
 31
0.0
  0
LINE
  5
A18B
330
9F79
100
AcDbEntity
  8
1
  6
Continuous
100
AcDbLine
 10
606.720223
 20
227.7886039999999
 30
0.0
 11
606.720223
 21
185.468159
 31
0.0
  0
ARC
  5
A18C
330
9F79
100
AcDbEntity
  8
1
  6
Continuous
100
AcDbCircle
 10
609.720223
 20
185.468159
 30
0.0
 40
3.0
100
AcDbArc
 50
179.9999799999999
 51
276.4704599999999
  0
ARC
  5
A18D
330
9F79
100
AcDbEntity
  8
1
  6
Continuous
100
AcDbCircle
 10
597.720223
 20
185.468159
 30
0.0
 40
3.0
100
AcDbArc
 50
263.52951
 51
0.0
  0
LINE
  5
A18E
330
9F79
100
AcDbEntity
  8
1
  6
Continuous
100
AcDbLine
 10
600.720223
 20
227.7886039999999
 30
0.0
 11
600.720223
 21
185.468159
 31
0.0
  0
LINE
  5
A18F
330
9F79
100
AcDbEntity
  8
1
  6
Continuous
100
AcDbLine
 10
556.404494
 20
214.5179619999999
 30
0.0
 11
592.7241849999997
 21
235.487141
 31
0.0
  0
LINE
  5
A190
330
9F79
100
AcDbEntity
  8
1
  6
Continuous
100
AcDbLine
 10
559.404488
 20
209.3217999999999
 30
0.0
 11
596.055076
 21
230.482026
 31
0.0
  0
ARC
  5
A191
330
9F79
100
AcDbEntity
  8
1
  6
Continuous
100
AcDbCircle
 10
560.9044879999999
 20
206.7237299999999
 30
0.0
 40
3.0
100
AcDbArc
 50
120.0000199999999
 51
216.4704399999999
  0
ARC
  5
A192
330
9F79
100
AcDbEntity
  8
1
  6
Continuous
100
AcDbCircle
 10
554.904488
 20
217.1160379999999
 30
0.0
 40
3.0
100
AcDbArc
 50
203.5294599999998
 51
300.00001
  0
ARC
  5
A193
330
9F79
100
AcDbEntity
  8
1
  6
Continuous
100
AcDbCircle
 10
603.720223
 20
238.3716089999999
 30
0.0
 40
16.0
100
AcDbArc
 50
202.8192199999999
 51
217.1807299999999
  0
LINE
  5
A194
330
9F79
100
AcDbEntity
  8
1
  6
Continuous
100
AcDbLine
 10
590.9724999999999
 20
228.7023
 30
0.0
 11
595.3527299999997
 21
231.2312259999999
 31
0.0
  0
LINE
  5
A195
330
9F79
100
AcDbEntity
  8
1
  6
Continuous
100
AcDbLine
 10
588.9724999999997
 20
232.1664029999999
 30
0.0
 11
593.2138660000001
 21
234.615156
 31
0.0
  0
LINE
  5
A196
330
9F79
100
AcDbEntity
  8
1
  6
Continuous
100
AcDbLine
 10
559.404488
 20
267.421414
 30
0.0
 11
582.1728869999997
 21
254.276071
 31
0.0
  0
LINE
  5
A197
330
9F79
100
AcDbEntity
  8
1
  6
Continuous
100
AcDbLine
 10
556.404495
 20
262.225258
 30
0.0
 11
587.930209
 21
244.0238799999999
 31
0.0
  0
ARC
  5
A198
330
9F79
100
AcDbEntity
  8
1
  6
Continuous
100
AcDbCircle
 10
554.904488
 20
259.6271799999998
 30
0.0
 40
3.0
100
AcDbArc
 50
59.999995
 51
156.47054
  0
ARC
  5
A199
330
9F79
100
AcDbEntity
  8
1
  6
Continuous
100
AcDbCircle
 10
560.9044879999999
 20
270.01949
 30
0.0
 40
3.0
100
AcDbArc
 50
143.52954
 51
239.99995
  0
LINE
  5
A19A
330
9F79
100
AcDbEntity
  8
1
  6
Continuous
100
AcDbLine
 10
614.552013
 20
241.1612369999998
 30
0.0
 11
651.035973
 21
262.225256
 31
0.0
  0
LINE
  5
A19B
330
9F79
100
AcDbEntity
  8
1
  6
Continuous
100
AcDbLine
 10
614.0863460000002
 20
247.8205899999999
 30
0.0
 11
648.0359729999999
 21
267.421414
 31
0.0
  0
ARC
  5
A19C
330
9F79
100
AcDbEntity
  8
1
  6
Continuous
100
AcDbCircle
 10
652.5359580000001
 20
259.6271779999999
 30
0.0
 40
3.0
100
AcDbArc
 50
23.529474
 51
120.00003
  0
ARC
  5
A19D
330
9F79
100
AcDbEntity
  8
1
  6
Continuous
100
AcDbCircle
 10
646.5359580000002
 20
270.0194859999999
 30
0.0
 40
3.0
100
AcDbArc
 50
300.00001
 51
36.47047500000001
  0
ENDSEC
  0
SECTION
  2
OBJECTS
  0
DICTIONARY
  5
9F67
330
0
100
AcDbDictionary
281
     1
  3
ACAD_CIP_PREVIOUS_PRODUCT_INFO
350
A21A
  3
ACAD_COLOR
350
A1FC
  3
ACAD_DETAILVIEWSTYLE
350
A215
  3
ACAD_GROUP
350
9F68
  3
ACAD_LAYOUT
350
9F74
  3
ACAD_MATERIAL
350
A1CA
  3
ACAD_MLEADERSTYLE
350
A211
  3
ACAD_MLINESTYLE
350
9F71
  3
ACAD_PLOTSETTINGS
350
9F73
  3
ACAD_PLOTSTYLENAME
350
A1C8
  3
ACAD_SCALELIST
350
A1FF
  3
ACAD_SECTIONVIEWSTYLE
350
A213
  3
ACAD_TABLESTYLE
350
A1FD
  3
ACAD_VISUALSTYLE
350
A1E3
  3
ACDB_RECOMPOSE_DATA
350
A238
  3
AcDbVariableDictionary
350
A22B
  3
DWGPROPS
350
A239
  0
DICTIONARY
  5
A21B
330
9F6B
100
AcDbDictionary
280
     1
281
     1
  3
ADSK_XREC_LAYER_RECONCILED
360
A21C
  0
DICTIONARY
  5
A21D
330
9F81
100
AcDbDictionary
280
     1
281
     1
  3
ADSK_XREC_LAYER_RECONCILED
360
A21E
  0
DICTIONARY
  5
A21F
330
9F82
100
AcDbDictionary
280
     1
281
     1
  3
ADSK_XREC_LAYER_RECONCILED
360
A220
  0
DICTIONARY
  5
A221
330
9F83
100
AcDbDictionary
280
     1
281
     1
  3
ADSK_XREC_LAYER_RECONCILED
360
A222
  0
DICTIONARY
  5
A223
330
9F84
100
AcDbDictionary
280
     1
281
     1
  3
ADSK_XREC_LAYER_RECONCILED
360
A224
  0
DICTIONARY
  5
A225
330
9F85
100
AcDbDictionary
280
     1
281
     1
  3
ADSK_XREC_LAYER_RECONCILED
360
A226
  0
DICTIONARY
  5
A227
330
9F86
100
AcDbDictionary
280
     1
281
     1
  3
ADSK_XREC_LAYER_RECONCILED
360
A228
  0
DICTIONARY
  5
A229
330
9F87
100
AcDbDictionary
280
     1
281
     1
  3
ADSK_XREC_LAYER_RECONCILED
360
A22A
  0
DICTIONARY
  5
A1A8
330
9F79
100
AcDbDictionary
281
     1
  3
ACAD_LAYOUTSELFREF
350
A1C4
  0
DICTIONARY
  5
A1A6
330
9F75
100
AcDbDictionary
281
     1
  3
ACAD_LAYOUTSELFREF
350
A1C3
  0
XRECORD
  5
A21A
102
{ACAD_REACTORS
330
9F67
102
}
330
9F67
100
AcDbXrecord
280
     1
300
ACDLT
300
2014
300
ACDLT_F_S
  0
DICTIONARY
  5
A1FC
102
{ACAD_REACTORS
330
9F67
102
}
330
9F67
100
AcDbDictionary
281
     1
  0
DICTIONARY
  5
A215
102
{ACAD_REACTORS
330
9F67
102
}
330
9F67
100
AcDbDictionary
281
     1
  3
Imperial24
350
A216
  0
DICTIONARY
  5
9F68
102
{ACAD_REACTORS
330
9F67
102
}
330
9F67
100
AcDbDictionary
281
     1
  0
DICTIONARY
  5
9F74
102
{ACAD_REACTORS
330
9F67
102
}
330
9F67
100
AcDbDictionary
281
     1
  3
Model
350
A217
  3
レイアウト1
350
A218
  0
DICTIONARY
  5
A1CA
102
{ACAD_REACTORS
330
9F67
102
}
330
9F67
100
AcDbDictionary
281
     1
  3
ByBlock
350
A1D3
  3
ByLayer
350
A1CB
  3
Global
350
A1DB
  0
DICTIONARY
  5
A211
102
{ACAD_REACTORS
330
9F67
102
}
330
9F67
100
AcDbDictionary
281
     1
  3
Standard
350
A212
  0
DICTIONARY
  5
9F71
102
{ACAD_REACTORS
330
9F67
102
}
330
9F67
100
AcDbDictionary
281
     1
  3
STANDARD
350
9F72
  0
DICTIONARY
  5
9F73
102
{ACAD_REACTORS
330
9F67
102
}
330
9F67
100
AcDbDictionary
281
     1
  0
ACDBDICTIONARYWDFLT
  5
A1C8
102
{ACAD_REACTORS
330
9F67
102
}
330
9F67
100
AcDbDictionary
281
     1
  3
Normal
350
A1C9
100
AcDbDictionaryWithDefault
340
A1C9
  0
DICTIONARY
  5
A1FF
102
{ACAD_REACTORS
330
9F67
102
}
330
9F67
100
AcDbDictionary
281
     1
  3
A0
350
A200
  3
A1
350
A201
  3
A2
350
A202
  3
A3
350
A203
  3
A4
350
A204
  3
A5
350
A205
  3
A6
350
A206
  3
A7
350
A207
  3
A8
350
A208
  3
A9
350
A209
  3
B0
350
A20A
  3
B1
350
A20B
  3
B2
350
A20C
  3
B3
350
A20D
  3
B4
350
A20E
  3
B5
350
A20F
  3
B6
350
A210
  0
DICTIONARY
  5
A213
102
{ACAD_REACTORS
330
9F67
102
}
330
9F67
100
AcDbDictionary
281
     1
  3
Imperial24
350
A214
  0
DICTIONARY
  5
A1FD
102
{ACAD_REACTORS
330
9F67
102
}
330
9F67
100
AcDbDictionary
281
     1
  3
Standard
350
A1FE
  0
DICTIONARY
  5
A1E3
102
{ACAD_REACTORS
330
9F67
102
}
330
9F67
100
AcDbDictionary
281
     1
  3
2dWireframe
350
A1E9
  3
Basic
350
A1E8
  3
Brighten
350
A1EF
  3
ColorChange
350
A1F3
  3
Conceptual
350
A1EC
  3
Dim
350
A1EE
  3
EdgeColorOff
350
A1FB
  3
Facepattern
350
A1F2
  3
Flat
350
A1E4
  3
FlatWithEdges
350
A1E5
  3
Gouraud
350
A1E6
  3
GouraudWithEdges
350
A1E7
  3
Hidden
350
A1EB
  3
JitterOff
350
A1F9
  3
Linepattern
350
A1F1
  3
OverhangOff
350
A1FA
  3
Realistic
350
A1ED
  3
Shaded
350
A1F8
  3
Shaded with edges
350
A1F7
  3
Shades of Gray
350
A1F4
  3
Sketchy
350
A1F5
  3
Thicken
350
A1F0
  3
Wireframe
350
A1EA
  3
X-Ray
350
A1F6
  0
XRECORD
  5
A238
102
{ACAD_REACTORS
330
9F67
102
}
330
9F67
100
AcDbXrecord
280
     1
 90
        1
330
A1FE
  0
DICTIONARY
  5
A22B
102
{ACAD_REACTORS
330
9F67
102
}
330
9F67
100
AcDbDictionary
281
     1
  3
CANNOSCALE
350
A230
  3
CMLEADERSTYLE
350
A22D
  3
CTABLESTYLE
350
A22C
  3
CVIEWDETAILSTYLE
350
A22E
  3
CVIEWSECTIONSTYLE
350
A22F
  3
DIMASSOC
350
A233
  3
INDEXCTL
350
A232
  3
SORTENTS
350
A231
  3
XCLIPFRAME
350
A234
  0
XRECORD
  5
A239
102
{ACAD_REACTORS
330
9F67
102
}
330
9F67
100
AcDbXrecord
280
     1
  1
DWGPROPS COOKIE
  2

  3

  4

  6

  7

  8
Yoshitsune
  9

300
=
301
=
302
=
303
=
304
=
305
=
306
=
307
=
308
=
309
=
 40
0.1591803009259259
 41
2451301.440277315
 42
2457192.690258565
  1

 90
        0
  0
XRECORD
  5
A21C
102
{ACAD_REACTORS
330
A21B
102
}
330
A21B
100
AcDbXrecord
280
     1
290
     1
  0
XRECORD
  5
A21E
102
{ACAD_REACTORS
330
A21D
102
}
330
A21D
100
AcDbXrecord
280
     1
290
     1
  0
XRECORD
  5
A220
102
{ACAD_REACTORS
330
A21F
102
}
330
A21F
100
AcDbXrecord
280
     1
290
     1
  0
XRECORD
  5
A222
102
{ACAD_REACTORS
330
A221
102
}
330
A221
100
AcDbXrecord
280
     1
290
     1
  0
XRECORD
  5
A224
102
{ACAD_REACTORS
330
A223
102
}
330
A223
100
AcDbXrecord
280
     1
290
     1
  0
XRECORD
  5
A226
102
{ACAD_REACTORS
330
A225
102
}
330
A225
100
AcDbXrecord
280
     1
290
     1
  0
XRECORD
  5
A228
102
{ACAD_REACTORS
330
A227
102
}
330
A227
100
AcDbXrecord
280
     1
290
     1
  0
XRECORD
  5
A22A
102
{ACAD_REACTORS
330
A229
102
}
330
A229
100
AcDbXrecord
280
     1
290
     1
  0
XRECORD
  5
A1C4
102
{ACAD_REACTORS
330
A1A8
102
}
330
A1A8
100
AcDbXrecord
280
     1
340
9F79
  0
XRECORD
  5
A1C3
102
{ACAD_REACTORS
330
A1A6
102
}
330
A1A6
100
AcDbXrecord
280
     1
340
9F75
  0
ACDBDETAILVIEWSTYLE
  5
A216
102
{ACAD_XDICTIONARY
360
A271
102
}
102
{ACAD_REACTORS
330
A215
102
}
330
A215
100
AcDbModelDocViewStyle
 70
     0
  3
Imperial24
290
     0
100
AcDbDetailViewStyle
 70
     0
 71
     0
 90
        3
 71
     1
340
9F6C
 40
0.24
340
0
 40
0.24
300

 40
0.36
280
     3
 71
     2
340
9F70
 90
       25
 71
     3
340
9F6C
 40
0.24
 90
        1
 40
0.75
 90
        1
300
%<\AcVar ViewType \f "%tc1">% %<\AcVar ViewDetailId>%\PSCALE %<\AcVar ViewScale \f "%sn">%
 71
     4
340
9F70
 90
       25
340
9F70
 90
       25
280
     0
  0
LAYOUT
  5
A217
102
{ACAD_XDICTIONARY
360
A273
102
}
102
{ACAD_REACTORS
330
9F74
102
}
330
9F74
100
AcDbPlotSettings
  1

  2
Canon LBP9100C
  4

  6

 40
0.0
 41
0.0
 42
0.0
 43
0.0
 44
0.0
 45
0.0
 46
0.0
 47
0.0
 48
0.0
 49
0.0
140
0.0
141
0.0
142
1.0
143
1.0
 70
  1712
 72
     0
 73
     0
 74
     0
  7

 75
     0
147
1.0
148
0.0
149
0.0
100
AcDbLayout
  1
Model
 70
     1
 71
     0
 10
0.0
 20
0.0
 11
12.0
 21
9.0
 12
0.0
 22
0.0
 32
0.0
 14
0.0
 24
0.0
 34
0.0
 15
0.0
 25
0.0
 35
0.0
146
0.0
 13
0.0
 23
0.0
 33
0.0
 16
1.0
 26
0.0
 36
0.0
 17
0.0
 27
1.0
 37
0.0
 76
     0
330
9F79
331
A1C2
  0
LAYOUT
  5
A218
102
{ACAD_XDICTIONARY
360
A275
102
}
102
{ACAD_REACTORS
330
9F74
102
}
330
9F74
100
AcDbPlotSettings
  1

  2
Canon LBP9100C
  4

  6

 40
0.0
 41
0.0
 42
0.0
 43
0.0
 44
0.0
 45
0.0
 46
0.0
 47
0.0
 48
0.0
 49
0.0
140
0.0
141
0.0
142
1.0
143
1.0
 70
   688
 72
     0
 73
     0
 74
     5
  7

 75
    16
147
1.0
148
0.0
149
0.0
100
AcDbLayout
  1
レイアウト1
 70
     0
 71
     1
 10
0.0
 20
0.0
 11
420.0
 21
297.0
 12
0.0
 22
0.0
 32
0.0
 14
1.000000000000000E+20
 24
1.000000000000000E+20
 34
1.000000000000000E+20
 15
-1.000000000000000E+20
 25
-1.000000000000000E+20
 35
-1.000000000000000E+20
146
0.0
 13
0.0
 23
0.0
 33
0.0
 16
1.0
 26
0.0
 36
0.0
 17
0.0
 27
1.0
 37
0.0
 76
     0
330
9F75
  0
MATERIAL
  5
A1D3
102
{ACAD_XDICTIONARY
360
A1D4
102
}
102
{ACAD_REACTORS
330
A1CA
102
}
330
A1CA
100
AcDbMaterial
  1
ByBlock
 72
     0
 43
0.0208333333333333
 43
0.0
 43
0.0
 43
0.0
 43
0.0
 43
0.0208333333333333
 43
0.0
 43
0.0
 43
0.0
 43
0.0
 43
1.0
 43
0.0
 43
0.0
 43
0.0
 43
0.0
 43
1.0
 77
     0
 47
0.0208333333333333
 47
0.0
 47
0.0
 47
0.0
 47
0.0
 47
0.0208333333333333
 47
0.0
 47
0.0
 47
0.0
 47
0.0
 47
1.0
 47
0.0
 47
0.0
 47
0.0
 47
0.0
 47
1.0
171
     0
 49
0.0208333333333333
 49
0.0
 49
0.0
 49
0.0
 49
0.0
 49
0.0208333333333333
 49
0.0
 49
0.0
 49
0.0
 49
0.0
 49
1.0
 49
0.0
 49
0.0
 49
0.0
 49
0.0
 49
1.0
175
     0
142
0.0208333333333333
142
0.0
142
0.0
142
0.0
142
0.0
142
0.0208333333333333
142
0.0
142
0.0
142
0.0
142
0.0
142
1.0
142
0.0
142
0.0
142
0.0
142
0.0
142
1.0
179
     0
144
0.0208333333333333
144
0.0
144
0.0
144
0.0
144
0.0
144
0.0208333333333333
144
0.0
144
0.0
144
0.0
144
0.0
144
1.0
144
0.0
144
0.0
144
0.0
144
0.0
144
1.0
147
0.0208333333333333
147
0.0
147
0.0
147
0.0
147
0.0
147
0.0208333333333333
147
0.0
147
0.0
147
0.0
147
0.0
147
1.0
147
0.0
147
0.0
147
0.0
147
0.0
147
1.0
  0
MATERIAL
  5
A1CB
102
{ACAD_XDICTIONARY
360
A1CC
102
}
102
{ACAD_REACTORS
330
A1CA
102
}
330
A1CA
100
AcDbMaterial
  1
ByLayer
 72
     0
 43
0.0208333333333333
 43
0.0
 43
0.0
 43
0.0
 43
0.0
 43
0.0208333333333333
 43
0.0
 43
0.0
 43
0.0
 43
0.0
 43
1.0
 43
0.0
 43
0.0
 43
0.0
 43
0.0
 43
1.0
 77
     0
 47
0.0208333333333333
 47
0.0
 47
0.0
 47
0.0
 47
0.0
 47
0.0208333333333333
 47
0.0
 47
0.0
 47
0.0
 47
0.0
 47
1.0
 47
0.0
 47
0.0
 47
0.0
 47
0.0
 47
1.0
171
     0
 49
0.0208333333333333
 49
0.0
 49
0.0
 49
0.0
 49
0.0
 49
0.0208333333333333
 49
0.0
 49
0.0
 49
0.0
 49
0.0
 49
1.0
 49
0.0
 49
0.0
 49
0.0
 49
0.0
 49
1.0
175
     0
142
0.0208333333333333
142
0.0
142
0.0
142
0.0
142
0.0
142
0.0208333333333333
142
0.0
142
0.0
142
0.0
142
0.0
142
1.0
142
0.0
142
0.0
142
0.0
142
0.0
142
1.0
179
     0
144
0.0208333333333333
144
0.0
144
0.0
144
0.0
144
0.0
144
0.0208333333333333
144
0.0
144
0.0
144
0.0
144
0.0
144
1.0
144
0.0
144
0.0
144
0.0
144
0.0
144
1.0
147
0.0208333333333333
147
0.0
147
0.0
147
0.0
147
0.0
147
0.0208333333333333
147
0.0
147
0.0
147
0.0
147
0.0
147
1.0
147
0.0
147
0.0
147
0.0
147
0.0
147
1.0
  0
MATERIAL
  5
A1DB
102
{ACAD_XDICTIONARY
360
A1DC
102
}
102
{ACAD_REACTORS
330
A1CA
102
}
330
A1CA
100
AcDbMaterial
  1
Global
 72
     0
 43
0.0208333333333333
 43
0.0
 43
0.0
 43
0.0
 43
0.0
 43
0.0208333333333333
 43
0.0
 43
0.0
 43
0.0
 43
0.0
 43
1.0
 43
0.0
 43
0.0
 43
0.0
 43
0.0
 43
1.0
 77
     0
 47
0.0208333333333333
 47
0.0
 47
0.0
 47
0.0
 47
0.0
 47
0.0208333333333333
 47
0.0
 47
0.0
 47
0.0
 47
0.0
 47
1.0
 47
0.0
 47
0.0
 47
0.0
 47
0.0
 47
1.0
171
     0
 49
0.0208333333333333
 49
0.0
 49
0.0
 49
0.0
 49
0.0
 49
0.0208333333333333
 49
0.0
 49
0.0
 49
0.0
 49
0.0
 49
1.0
 49
0.0
 49
0.0
 49
0.0
 49
0.0
 49
1.0
175
     0
142
0.0208333333333333
142
0.0
142
0.0
142
0.0
142
0.0
142
0.0208333333333333
142
0.0
142
0.0
142
0.0
142
0.0
142
1.0
142
0.0
142
0.0
142
0.0
142
0.0
142
1.0
179
     0
144
0.0208333333333333
144
0.0
144
0.0
144
0.0
144
0.0
144
0.0208333333333333
144
0.0
144
0.0
144
0.0
144
0.0
144
1.0
144
0.0
144
0.0
144
0.0
144
0.0
144
1.0
147
0.0208333333333333
147
0.0
147
0.0
147
0.0
147
0.0
147
0.0208333333333333
147
0.0
147
0.0
147
0.0
147
0.0
147
1.0
147
0.0
147
0.0
147
0.0
147
0.0
147
1.0
  0
MLEADERSTYLE
  5
A212
102
{ACAD_REACTORS
330
A211
102
}
330
A211
100
AcDbMLeaderStyle
170
     2
171
     1
172
     0
 90
        2
 40
0.0
 41
0.0
173
     1
 91
-1056964608
340
9F6E
 92
       -2
290
     1
 42
0.09
291
     1
 43
0.36
  3
Standard
 44
0.18
300

342
9F6C
174
     1
178
     6
175
     1
176
     0
 93
-1056964608
 45
0.18
292
     0
297
     0
 46
0.18
 94
-1056964608
 47
1.0
 49
1.0
140
1.0
293
     1
141
0.0
294
     1
177
     0
142
1.0
295
     0
296
     0
143
0.125
1001
ACAD_MLEADERVER
1070
     2
  0
MLINESTYLE
  5
9F72
102
{ACAD_REACTORS
330
9F71
102
}
330
9F71
100
AcDbMlineStyle
  2
STANDARD
 70
     0
  3

 62
   256
 51
90.0
 52
90.0
 71
     2
 49
0.5
 62
   256
  6
BYLAYER
 49
-0.5
 62
   256
  6
BYLAYER
  0
ACDBPLACEHOLDER
  5
A1C9
102
{ACAD_REACTORS
330
A1C8
102
}
330
A1C8
  0
SCALE
  5
A200
102
{ACAD_REACTORS
330
A1FF
102
}
330
A1FF
100
AcDbScale
 70
     0
300
1:1
140
1.0
141
1.0
290
     1
  0
SCALE
  5
A201
102
{ACAD_REACTORS
330
A1FF
102
}
330
A1FF
100
AcDbScale
 70
     0
300
1/128" = 1'-0"
140
0.0078125
141
12.0
290
     0
  0
SCALE
  5
A202
102
{ACAD_REACTORS
330
A1FF
102
}
330
A1FF
100
AcDbScale
 70
     0
300
1/64" = 1'-0"
140
0.015625
141
12.0
290
     0
  0
SCALE
  5
A203
102
{ACAD_REACTORS
330
A1FF
102
}
330
A1FF
100
AcDbScale
 70
     0
300
1/32" = 1'-0"
140
0.03125
141
12.0
290
     0
  0
SCALE
  5
A204
102
{ACAD_REACTORS
330
A1FF
102
}
330
A1FF
100
AcDbScale
 70
     0
300
1/16" = 1'-0"
140
0.0625
141
12.0
290
     0
  0
SCALE
  5
A205
102
{ACAD_REACTORS
330
A1FF
102
}
330
A1FF
100
AcDbScale
 70
     0
300
3/32" = 1'-0"
140
0.09375
141
12.0
290
     0
  0
SCALE
  5
A206
102
{ACAD_REACTORS
330
A1FF
102
}
330
A1FF
100
AcDbScale
 70
     0
300
1/8" = 1'-0"
140
0.125
141
12.0
290
     0
  0
SCALE
  5
A207
102
{ACAD_REACTORS
330
A1FF
102
}
330
A1FF
100
AcDbScale
 70
     0
300
3/16" = 1'-0"
140
0.1875
141
12.0
290
     0
  0
SCALE
  5
A208
102
{ACAD_REACTORS
330
A1FF
102
}
330
A1FF
100
AcDbScale
 70
     0
300
1/4" = 1'-0"
140
0.25
141
12.0
290
     0
  0
SCALE
  5
A209
102
{ACAD_REACTORS
330
A1FF
102
}
330
A1FF
100
AcDbScale
 70
     0
300
3/8" = 1'-0"
140
0.375
141
12.0
290
     0
  0
SCALE
  5
A20A
102
{ACAD_REACTORS
330
A1FF
102
}
330
A1FF
100
AcDbScale
 70
     0
300
1/2" = 1'-0"
140
0.5
141
12.0
290
     0
  0
SCALE
  5
A20B
102
{ACAD_REACTORS
330
A1FF
102
}
330
A1FF
100
AcDbScale
 70
     0
300
3/4" = 1'-0"
140
0.75
141
12.0
290
     0
  0
SCALE
  5
A20C
102
{ACAD_REACTORS
330
A1FF
102
}
330
A1FF
100
AcDbScale
 70
     0
300
1" = 1'-0"
140
1.0
141
12.0
290
     0
  0
SCALE
  5
A20D
102
{ACAD_REACTORS
330
A1FF
102
}
330
A1FF
100
AcDbScale
 70
     0
300
1-1/2" = 1'-0"
140
1.5
141
12.0
290
     0
  0
SCALE
  5
A20E
102
{ACAD_REACTORS
330
A1FF
102
}
330
A1FF
100
AcDbScale
 70
     0
300
3" = 1'-0"
140
3.0
141
12.0
290
     0
  0
SCALE
  5
A20F
102
{ACAD_REACTORS
330
A1FF
102
}
330
A1FF
100
AcDbScale
 70
     0
300
6" = 1'-0"
140
6.0
141
12.0
290
     0
  0
SCALE
  5
A210
102
{ACAD_REACTORS
330
A1FF
102
}
330
A1FF
100
AcDbScale
 70
     0
300
1'-0" = 1'-0"
140
12.0
141
12.0
290
     0
  0
ACDBSECTIONVIEWSTYLE
  5
A214
102
{ACAD_XDICTIONARY
360
A26F
102
}
102
{ACAD_REACTORS
330
A213
102
}
330
A213
100
AcDbModelDocViewStyle
 70
     0
  3
Imperial24
290
     0
100
AcDbSectionViewStyle
 70
     0
 71
     0
 90
       78
 71
     1
340
9F6C
 40
0.24
340
0
340
0
 40
0.24
300
I, O, Q, S, X, Z
 40
0.48
 90
        3
 40
0.18
 90
        1
 71
     2
340
9F70
 90
       25
340
9F70
 90
       50
 40
0.24
 40
0.0
 40
0.24
 71
     3
340
9F6C
 40
0.24
 90
        1
 40
0.75
 90
        1
300
%<\AcVar ViewType \f "%tc1">% %<\AcVar ViewSectionStartId>%-%<\AcVar ViewSectionEndId>%\PSCALE %<\AcVar ViewScale \f "%sn">%
 71
     4
300
ANSI31
 40
1.0
 90
        0
290
     0
290
     0
 90
        6
 40
0.0
 40
1.570796326794896
 40
0.2617993877991494
 40
1.308996938995747
 40
-0.2617993877991494
 40
1.832595714594046
  0
TABLESTYLE
  5
A1FE
102
{ACAD_XDICTIONARY
360
A236
102
}
102
{ACAD_REACTORS
330
A1FD
102
}
330
A1FD
100
AcDbTableStyle
  3
Standard
 70
     0
 71
     0
 40
0.06
 41
0.06
280
     0
281
     0
  7
STANDARD
140
0.18
170
     2
 62
     0
 63
     7
283
     0
274
    -2
284
     1
 64
     0
275
    -2
285
     1
 65
     0
276
    -2
286
     1
 66
     0
277
    -2
287
     1
 67
     0
278
    -2
288
     1
 68
     0
279
    -2
289
     1
 69
     0
  7
STANDARD
140
0.25
170
     5
 62
     0
 63
     7
283
     0
274
    -2
284
     1
 64
     0
275
    -2
285
     1
 65
     0
276
    -2
286
     1
 66
     0
277
    -2
287
     1
 67
     0
278
    -2
288
     1
 68
     0
279
    -2
289
     1
 69
     0
  7
STANDARD
140
0.18
170
     5
 62
     0
 63
     7
283
     0
274
    -2
284
     1
 64
     0
275
    -2
285
     1
 65
     0
276
    -2
286
     1
 66
     0
277
    -2
287
     1
 67
     0
278
    -2
288
     1
 68
     0
279
    -2
289
     1
 69
     0
  0
VISUALSTYLE
  5
A1E9
102
{ACAD_XDICTIONARY
360
A247
102
}
102
{ACAD_REACTORS
330
A1E3
102
}
330
A1E3
100
AcDbVisualStyle
  2
2dWireframe
 70
     4
 71
     0
 72
     2
 73
     0
 90
        0
 40
-0.6
 41
-30.0
 62
     5
 63
     7
 74
     1
 91
        4
 64
     7
 65
   257
 75
     1
175
     1
 42
1.0
 92
        0
 66
   257
 43
1.0
 76
     1
 77
     6
 78
     2
 67
     7
 79
     5
170
     0
171
     0
290
     0
174
     0
 93
        1
 44
0.0
173
     0
291
     0
 45
0.0
1001
ACAD
1000
AcDbSavedByObjectVersion
1070
     0
  0
VISUALSTYLE
  5
A1E8
102
{ACAD_XDICTIONARY
360
A245
102
}
102
{ACAD_REACTORS
330
A1E3
102
}
330
A1E3
100
AcDbVisualStyle
  2
Basic
 70
     7
 71
     1
 72
     0
 73
     1
 90
        0
 40
-0.6
 41
-30.0
 62
     5
 63
     7
 74
     0
 91
        4
 64
     7
 65
   257
 75
     1
175
     1
 42
1.0
 92
        8
 66
     7
 43
1.0
 76
     1
 77
     6
 78
     2
 67
     7
 79
     5
170
     0
171
     0
290
     0
174
     0
 93
        1
 44
0.0
173
     0
291
     1
 45
0.0
1001
ACAD
1000
AcDbSavedByObjectVersion
1070
     0
  0
VISUALSTYLE
  5
A1EF
102
{ACAD_XDICTIONARY
360
A253
102
}
102
{ACAD_REACTORS
330
A1E3
102
}
330
A1E3
100
AcDbVisualStyle
  2
Brighten
 70
    12
 71
     2
 72
     2
 73
     0
 90
        0
 40
-0.6
 41
-30.0
 62
     5
 63
     7
 74
     1
 91
        4
 64
     7
 65
   257
 75
     1
175
     1
 42
1.0
 92
        8
 66
     7
 43
1.0
 76
     1
 77
     6
 78
     2
 67
     7
 79
     5
170
     0
171
     0
290
     0
174
     0
 93
        1
 44
50.0
173
     0
291
     1
 45
0.0
1001
ACAD
1000
AcDbSavedByObjectVersion
1070
     0
  0
VISUALSTYLE
  5
A1F3
102
{ACAD_XDICTIONARY
360
A25B
102
}
102
{ACAD_REACTORS
330
A1E3
102
}
330
A1E3
100
AcDbVisualStyle
  2
ColorChange
 70
    16
 71
     2
 72
     2
 73
     3
 90
        0
 40
-0.6
 41
-30.0
 62
     5
 63
     8
 74
     1
 91
        4
 64
     7
 65
   257
 75
     1
175
     1
 42
1.0
 92
        8
 66
     8
 43
1.0
 76
     1
 77
     6
 78
     2
 67
     7
 79
     5
170
     0
171
     0
290
     0
174
     0
 93
        1
 44
0.0
173
     0
291
     1
 45
0.0
1001
ACAD
1000
AcDbSavedByObjectVersion
1070
     0
  0
VISUALSTYLE
  5
A1EC
102
{ACAD_XDICTIONARY
360
A24D
102
}
102
{ACAD_REACTORS
330
A1E3
102
}
330
A1E3
100
AcDbVisualStyle
  2
Conceptual
 70
     9
 71
     3
 72
     2
 73
     0
 90
        0
 40
-0.6
 41
-30.0
 62
     5
 63
     7
 74
     2
 91
        2
 64
     7
 65
   257
 75
     1
175
     1
 42
179.0
 92
        8
 66
     7
 43
1.0
 76
     1
 77
     6
 78
     2
 67
     7
 79
     3
170
     0
171
     0
290
     0
174
     0
 93
        1
 44
0.0
173
     0
291
     0
 45
0.0
1001
ACAD
1000
AcDbSavedByObjectVersion
1070
     0
  0
VISUALSTYLE
  5
A1EE
102
{ACAD_XDICTIONARY
360
A251
102
}
102
{ACAD_REACTORS
330
A1E3
102
}
330
A1E3
100
AcDbVisualStyle
  2
Dim
 70
    11
 71
     2
 72
     2
 73
     0
 90
        0
 40
-0.6
 41
-30.0
 62
     5
 63
     7
 74
     1
 91
        4
 64
     7
 65
   257
 75
     1
175
     1
 42
1.0
 92
        8
 66
     7
 43
1.0
 76
     1
 77
     6
 78
     2
 67
     7
 79
     5
170
     0
171
     0
290
     0
174
     0
 93
        1
 44
-50.0
173
     0
291
     1
 45
0.0
1001
ACAD
1000
AcDbSavedByObjectVersion
1070
     0
  0
VISUALSTYLE
  5
A1FB
102
{ACAD_XDICTIONARY
360
A26B
102
}
102
{ACAD_REACTORS
330
A1E3
102
}
330
A1E3
100
AcDbVisualStyle
  2
EdgeColorOff
 70
    22
 71
     2
 72
     2
 73
     0
 90
        0
 40
-0.6
 41
-30.0
 62
     5
 63
     7
 74
     1
 91
        4
 64
     7
 65
   257
 75
     1
175
     1
 42
1.0
 92
        8
 66
     7
 43
1.0
 76
     1
 77
     6
 78
     2
 67
     7
 79
     5
170
     0
171
     0
290
     0
174
     0
 93
        1
 44
0.0
173
     0
291
     1
 45
0.0
1001
ACAD
1000
AcDbSavedByObjectVersion
1070
     0
  0
VISUALSTYLE
  5
A1F2
102
{ACAD_XDICTIONARY
360
A259
102
}
102
{ACAD_REACTORS
330
A1E3
102
}
330
A1E3
100
AcDbVisualStyle
  2
Facepattern
 70
    15
 71
     2
 72
     2
 73
     0
 90
        0
 40
-0.6
 41
-30.0
 62
     5
 63
     7
 74
     1
 91
        4
 64
     7
 65
   257
 75
     1
175
     1
 42
1.0
 92
        8
 66
     7
 43
1.0
 76
     1
 77
     6
 78
     2
 67
     7
 79
     5
170
     0
171
     0
290
     0
174
     0
 93
        1
 44
0.0
173
     0
291
     1
 45
0.0
1001
ACAD
1000
AcDbSavedByObjectVersion
1070
     0
  0
VISUALSTYLE
  5
A1E4
102
{ACAD_XDICTIONARY
360
A23D
102
}
102
{ACAD_REACTORS
330
A1E3
102
}
330
A1E3
100
AcDbVisualStyle
  2
Flat
 70
     0
 71
     2
 72
     1
 73
     1
 90
        2
 40
-0.6
 41
30.0
 62
     5
 63
     7
 74
     0
 91
        0
 64
     7
 65
   257
 75
     1
175
     1
 42
1.0
 92
        8
 66
     7
 43
1.0
 76
     1
 77
     6
 78
     2
 67
     7
 79
     5
170
     0
171
     0
290
     0
174
     0
 93
       13
 44
0.0
173
     0
291
     1
 45
0.0
1001
ACAD
1000
AcDbSavedByObjectVersion
1070
     0
  0
VISUALSTYLE
  5
A1E5
102
{ACAD_XDICTIONARY
360
A23F
102
}
102
{ACAD_REACTORS
330
A1E3
102
}
330
A1E3
100
AcDbVisualStyle
  2
FlatWithEdges
 70
     1
 71
     2
 72
     1
 73
     1
 90
        2
 40
-0.6
 41
30.0
 62
     5
 63
     7
 74
     1
 91
        0
 64
     7
 65
   257
 75
     1
175
     1
 42
1.0
 92
        0
 66
   257
 43
1.0
 76
     1
 77
     6
 78
     2
 67
     7
 79
     5
170
     0
171
     0
290
     0
174
     0
 93
       13
 44
0.0
173
     0
291
     1
 45
0.0
1001
ACAD
1000
AcDbSavedByObjectVersion
1070
     0
  0
VISUALSTYLE
  5
A1E6
102
{ACAD_XDICTIONARY
360
A241
102
}
102
{ACAD_REACTORS
330
A1E3
102
}
330
A1E3
100
AcDbVisualStyle
  2
Gouraud
 70
     2
 71
     2
 72
     2
 73
     1
 90
        2
 40
-0.6
 41
30.0
 62
     5
 63
     7
 74
     0
 91
        0
 64
     7
 65
   257
 75
     1
175
     1
 42
1.0
 92
        0
 66
     7
 43
1.0
 76
     1
 77
     6
 78
     2
 67
     7
 79
     5
170
     0
171
     0
290
     0
174
     0
 93
       13
 44
0.0
173
     0
291
     1
 45
0.0
1001
ACAD
1000
AcDbSavedByObjectVersion
1070
     0
  0
VISUALSTYLE
  5
A1E7
102
{ACAD_XDICTIONARY
360
A243
102
}
102
{ACAD_REACTORS
330
A1E3
102
}
330
A1E3
100
AcDbVisualStyle
  2
GouraudWithEdges
 70
     3
 71
     2
 72
     2
 73
     1
 90
        2
 40
-0.6
 41
30.0
 62
     5
 63
     7
 74
     1
 91
        0
 64
     7
 65
   257
 75
     1
175
     1
 42
1.0
 92
        0
 66
   257
 43
1.0
 76
     1
 77
     6
 78
     2
 67
     7
 79
     5
170
     0
171
     0
290
     0
174
     0
 93
       13
 44
0.0
173
     0
291
     1
 45
0.0
1001
ACAD
1000
AcDbSavedByObjectVersion
1070
     0
  0
VISUALSTYLE
  5
A1EB
102
{ACAD_XDICTIONARY
360
A24B
102
}
102
{ACAD_REACTORS
330
A1E3
102
}
330
A1E3
100
AcDbVisualStyle
  2
Hidden
 70
     6
 71
     1
 72
     2
 73
     2
 90
        0
 40
-0.6
 41
-30.0
 62
     5
 63
     7
 74
     2
 91
        2
 64
     7
 65
   257
 75
     2
175
     1
 42
40.0
 92
        0
 66
   257
 43
1.0
 76
     1
 77
     6
 78
     2
 67
     7
 79
     3
170
     0
171
     0
290
     0
174
     0
 93
        1
 44
0.0
173
     0
291
     0
 45
0.0
1001
ACAD
1000
AcDbSavedByObjectVersion
1070
     0
  0
VISUALSTYLE
  5
A1F9
102
{ACAD_XDICTIONARY
360
A267
102
}
102
{ACAD_REACTORS
330
A1E3
102
}
330
A1E3
100
AcDbVisualStyle
  2
JitterOff
 70
    20
 71
     2
 72
     2
 73
     0
 90
        0
 40
-0.6
 41
-30.0
 62
     5
 63
     7
 74
     1
 91
        4
 64
     7
 65
   257
 75
     1
175
     1
 42
1.0
 92
       10
 66
     7
 43
1.0
 76
     1
 77
     6
 78
     2
 67
     7
 79
     5
170
     0
171
     0
290
     0
174
     0
 93
        1
 44
0.0
173
     0
291
     1
 45
0.0
1001
ACAD
1000
AcDbSavedByObjectVersion
1070
     0
  0
VISUALSTYLE
  5
A1F1
102
{ACAD_XDICTIONARY
360
A257
102
}
102
{ACAD_REACTORS
330
A1E3
102
}
330
A1E3
100
AcDbVisualStyle
  2
Linepattern
 70
    14
 71
     2
 72
     2
 73
     0
 90
        0
 40
-0.6
 41
-30.0
 62
     5
 63
     7
 74
     1
 91
        4
 64
     7
 65
   257
 75
     7
175
     7
 42
1.0
 92
        8
 66
     7
 43
1.0
 76
     1
 77
     6
 78
     2
 67
     7
 79
     5
170
     0
171
     0
290
     0
174
     0
 93
        1
 44
0.0
173
     0
291
     1
 45
0.0
1001
ACAD
1000
AcDbSavedByObjectVersion
1070
     0
  0
VISUALSTYLE
  5
A1FA
102
{ACAD_XDICTIONARY
360
A269
102
}
102
{ACAD_REACTORS
330
A1E3
102
}
330
A1E3
100
AcDbVisualStyle
  2
OverhangOff
 70
    21
 71
     2
 72
     2
 73
     0
 90
        0
 40
-0.6
 41
-30.0
 62
     5
 63
     7
 74
     1
 91
        4
 64
     7
 65
   257
 75
     1
175
     1
 42
1.0
 92
        9
 66
     7
 43
1.0
 76
     1
 77
     6
 78
     2
 67
     7
 79
     5
170
     0
171
     0
290
     0
174
     0
 93
        1
 44
0.0
173
     0
291
     1
 45
0.0
1001
ACAD
1000
AcDbSavedByObjectVersion
1070
     0
  0
VISUALSTYLE
  5
A1ED
102
{ACAD_XDICTIONARY
360
A24F
102
}
102
{ACAD_REACTORS
330
A1E3
102
}
330
A1E3
100
AcDbVisualStyle
  2
Realistic
 70
     8
 71
     2
 72
     3
 73
     0
 90
        2
 40
-0.6
 41
30.0
 62
     5
 63
     7
 74
     0
 91
        0
 64
     7
 65
   257
 75
     1
175
     1
 42
1.0
 92
        8
 66
   257
 43
1.0
 76
     1
 77
     6
 78
     2
 67
     7
 79
     3
170
     0
171
     0
290
     0
174
     0
 93
       13
 44
0.0
173
     0
291
     0
 45
0.0
1001
ACAD
1000
AcDbSavedByObjectVersion
1070
     0
  0
VISUALSTYLE
  5
A1F8
102
{ACAD_XDICTIONARY
360
A265
102
}
102
{ACAD_REACTORS
330
A1E3
102
}
330
A1E3
100
AcDbVisualStyle
  2
Shaded
 70
    27
 71
     2
 72
     2
 73
     1
 90
        2
 40
-0.6
 41
30.0
 62
     5
 63
     7
 74
     0
 91
        4
 64
     7
 65
   257
 75
     1
175
     1
 42
1.0
 92
        8
 66
   257
 43
1.0
 76
     1
 77
     6
 78
     2
 67
     8
 79
     3
170
     0
171
     0
290
     0
174
     0
 93
        5
 44
0.0
173
     0
291
     0
 45
0.0
1001
ACAD
1000
AcDbSavedByObjectVersion
1070
     0
  0
VISUALSTYLE
  5
A1F7
102
{ACAD_XDICTIONARY
360
A263
102
}
102
{ACAD_REACTORS
330
A1E3
102
}
330
A1E3
100
AcDbVisualStyle
  2
Shaded with edges
 70
    26
 71
     2
 72
     2
 73
     1
 90
        2
 40
-0.6
 41
30.0
 62
     5
 63
     7
 74
     1
 91
       10
 64
     7
 65
   257
 75
     2
175
     1
 42
1.0
 92
        8
 66
   257
 43
1.0
 76
     1
 77
     6
 78
     2
 67
     7
 79
     3
170
     0
171
     0
290
     0
174
     0
 93
        5
 44
0.0
173
     0
291
     0
 45
0.0
1001
ACAD
1000
AcDbSavedByObjectVersion
1070
     0
  0
VISUALSTYLE
  5
A1F4
102
{ACAD_XDICTIONARY
360
A25D
102
}
102
{ACAD_REACTORS
330
A1E3
102
}
330
A1E3
100
AcDbVisualStyle
  2
Shades of Gray
 70
    23
 71
     2
 72
     2
 73
     3
 90
        0
 40
-0.6
 41
-30.0
 62
     5
 63
     7
 74
     2
 91
        2
 64
     7
 65
     7
 75
     1
175
     1
 42
40.0
 92
        8
 66
     7
 43
1.0
 76
     1
 77
     6
 78
     2
 67
     7
 79
     3
170
     0
171
     0
290
     0
174
     0
 93
        1
 44
0.0
173
     0
291
     0
 45
0.0
1001
ACAD
1000
AcDbSavedByObjectVersion
1070
     0
  0
VISUALSTYLE
  5
A1F5
102
{ACAD_XDICTIONARY
360
A25F
102
}
102
{ACAD_REACTORS
330
A1E3
102
}
330
A1E3
100
AcDbVisualStyle
  2
Sketchy
 70
    24
 71
     1
 72
     2
 73
     2
 90
        0
 40
-0.6
 41
-30.0
 62
     5
 63
     7
 74
     2
 91
        2
 64
     7
 65
     7
 75
     1
175
     1
 42
40.0
 92
       11
 66
     7
 43
1.0
 76
     1
 77
     6
 78
     2
 67
     7
 79
     6
170
     0
171
     0
290
     0
174
     0
 93
        1
 44
0.0
173
     0
291
     0
 45
0.0
1001
ACAD
1000
AcDbSavedByObjectVersion
1070
     0
  0
VISUALSTYLE
  5
A1F0
102
{ACAD_XDICTIONARY
360
A255
102
}
102
{ACAD_REACTORS
330
A1E3
102
}
330
A1E3
100
AcDbVisualStyle
  2
Thicken
 70
    13
 71
     2
 72
     2
 73
     0
 90
        0
 40
-0.6
 41
-30.0
 62
     5
 63
     7
 74
     1
 91
        4
 64
     7
 65
   257
 75
     1
175
     1
 42
1.0
 92
       12
 66
     7
 43
1.0
 76
     1
 77
     6
 78
     2
 67
     7
 79
     5
170
     0
171
     0
290
     0
174
     0
 93
        1
 44
0.0
173
     0
291
     1
 45
0.0
1001
ACAD
1000
AcDbSavedByObjectVersion
1070
     0
  0
VISUALSTYLE
  5
A1EA
102
{ACAD_XDICTIONARY
360
A249
102
}
102
{ACAD_REACTORS
330
A1E3
102
}
330
A1E3
100
AcDbVisualStyle
  2
Wireframe
 70
     5
 71
     0
 72
     2
 73
     0
 90
        0
 40
-0.6
 41
-30.0
 62
     5
 63
     7
 74
     1
 91
        4
 64
     7
 65
   257
 75
     1
175
     1
 42
1.0
 92
        0
 66
   257
 43
1.0
 76
     1
 77
     6
 78
     2
 67
     7
 79
     3
170
     0
171
     0
290
     0
174
     0
 93
        1
 44
0.0
173
     0
291
     0
 45
0.0
1001
ACAD
1000
AcDbSavedByObjectVersion
1070
     0
  0
VISUALSTYLE
  5
A1F6
102
{ACAD_XDICTIONARY
360
A261
102
}
102
{ACAD_REACTORS
330
A1E3
102
}
330
A1E3
100
AcDbVisualStyle
  2
X-Ray
 70
    25
 71
     2
 72
     2
 73
     1
 90
        1
 40
0.5
 41
-30.0
 62
     5
 63
     7
 74
     1
 91
        0
 64
     7
 65
   257
 75
     1
175
     1
 42
1.0
 92
        8
 66
     7
 43
1.0
 76
     1
 77
     6
 78
     2
 67
     7
 79
     3
170
     0
171
     0
290
     0
174
     0
 93
       13
 44
0.0
173
     0
291
     0
 45
0.0
1001
ACAD
1000
AcDbSavedByObjectVersion
1070
     0
  0
DICTIONARYVAR
  5
A230
102
{ACAD_REACTORS
330
A22B
102
}
330
A22B
100
DictionaryVariables
280
     0
  1
1:1
  0
DICTIONARYVAR
  5
A22D
102
{ACAD_REACTORS
330
A22B
102
}
330
A22B
100
DictionaryVariables
280
     0
  1
STANDARD
  0
DICTIONARYVAR
  5
A22C
102
{ACAD_REACTORS
330
A22B
102
}
330
A22B
100
DictionaryVariables
280
     0
  1
STANDARD
  0
DICTIONARYVAR
  5
A22E
102
{ACAD_REACTORS
330
A22B
102
}
330
A22B
100
DictionaryVariables
280
     0
  1
Imperial24
  0
DICTIONARYVAR
  5
A22F
102
{ACAD_REACTORS
330
A22B
102
}
330
A22B
100
DictionaryVariables
280
     0
  1
Imperial24
  0
DICTIONARYVAR
  5
A233
102
{ACAD_REACTORS
330
A22B
102
}
330
A22B
100
DictionaryVariables
280
     0
  1
1
  0
DICTIONARYVAR
  5
A232
102
{ACAD_REACTORS
330
A22B
102
}
330
A22B
100
DictionaryVariables
280
     0
  1
0
  0
DICTIONARYVAR
  5
A231
102
{ACAD_REACTORS
330
A22B
102
}
330
A22B
100
DictionaryVariables
280
     0
  1
127
  0
DICTIONARYVAR
  5
A234
102
{ACAD_REACTORS
330
A22B
102
}
330
A22B
100
DictionaryVariables
280
     0
  1
2
  0
DICTIONARY
  5
A271
330
A216
100
AcDbDictionary
280
     1
281
     1
  3
ACAD_XREC_ROUNDTRIP
360
A272
  0
DICTIONARY
  5
A273
330
A217
100
AcDbDictionary
280
     1
281
     1
  3
ACAD_XREC_ROUNDTRIP
360
A274
  0
DICTIONARY
  5
A275
330
A218
100
AcDbDictionary
280
     1
281
     1
  3
ACAD_XREC_ROUNDTRIP
360
A276
  0
DICTIONARY
  5
A1D4
330
A1D3
100
AcDbDictionary
280
     1
281
     1
  3
ACAD_XREC_ROUNDTRIP
360
A23B
  3
BUMPTILE
360
A1D6
  3
DIFFUSETILE
360
A1D5
  3
OPACITYTILE
360
A1D9
  3
REFLECTIONTILE
360
A1D8
  3
REFRACTIONTILE
360
A1DA
  3
SPECULARTILE
360
A1D7
  0
DICTIONARY
  5
A1CC
330
A1CB
100
AcDbDictionary
280
     1
281
     1
  3
ACAD_XREC_ROUNDTRIP
360
A23A
  3
BUMPTILE
360
A1CE
  3
DIFFUSETILE
360
A1CD
  3
OPACITYTILE
360
A1D1
  3
REFLECTIONTILE
360
A1D0
  3
REFRACTIONTILE
360
A1D2
  3
SPECULARTILE
360
A1CF
  0
DICTIONARY
  5
A1DC
330
A1DB
100
AcDbDictionary
280
     1
281
     1
  3
ACAD_XREC_ROUNDTRIP
360
A23C
  3
BUMPTILE
360
A1DE
  3
DIFFUSETILE
360
A1DD
  3
OPACITYTILE
360
A1E1
  3
REFLECTIONTILE
360
A1E0
  3
REFRACTIONTILE
360
A1E2
  3
SPECULARTILE
360
A1DF
  0
DICTIONARY
  5
A26F
330
A214
100
AcDbDictionary
280
     1
281
     1
  3
ACAD_XREC_ROUNDTRIP
360
A270
  0
DICTIONARY
  5
A236
330
A1FE
100
AcDbDictionary
280
     1
281
     1
  3
ACAD_ROUNDTRIP_2008_TABLESTYLE_CELLSTYLEMAP
360
A237
  3
ACAD_XREC_ROUNDTRIP
360
A26D
  0
DICTIONARY
  5
A247
330
A1E9
100
AcDbDictionary
280
     1
281
     1
  3
ACAD_XREC_ROUNDTRIP
360
A248
  0
DICTIONARY
  5
A245
330
A1E8
100
AcDbDictionary
280
     1
281
     1
  3
ACAD_XREC_ROUNDTRIP
360
A246
  0
DICTIONARY
  5
A253
330
A1EF
100
AcDbDictionary
280
     1
281
     1
  3
ACAD_XREC_ROUNDTRIP
360
A254
  0
DICTIONARY
  5
A25B
330
A1F3
100
AcDbDictionary
280
     1
281
     1
  3
ACAD_XREC_ROUNDTRIP
360
A25C
  0
DICTIONARY
  5
A24D
330
A1EC
100
AcDbDictionary
280
     1
281
     1
  3
ACAD_XREC_ROUNDTRIP
360
A24E
  0
DICTIONARY
  5
A251
330
A1EE
100
AcDbDictionary
280
     1
281
     1
  3
ACAD_XREC_ROUNDTRIP
360
A252
  0
DICTIONARY
  5
A26B
330
A1FB
100
AcDbDictionary
280
     1
281
     1
  3
ACAD_XREC_ROUNDTRIP
360
A26C
  0
DICTIONARY
  5
A259
330
A1F2
100
AcDbDictionary
280
     1
281
     1
  3
ACAD_XREC_ROUNDTRIP
360
A25A
  0
DICTIONARY
  5
A23D
330
A1E4
100
AcDbDictionary
280
     1
281
     1
  3
ACAD_XREC_ROUNDTRIP
360
A23E
  0
DICTIONARY
  5
A23F
330
A1E5
100
AcDbDictionary
280
     1
281
     1
  3
ACAD_XREC_ROUNDTRIP
360
A240
  0
DICTIONARY
  5
A241
330
A1E6
100
AcDbDictionary
280
     1
281
     1
  3
ACAD_XREC_ROUNDTRIP
360
A242
  0
DICTIONARY
  5
A243
330
A1E7
100
AcDbDictionary
280
     1
281
     1
  3
ACAD_XREC_ROUNDTRIP
360
A244
  0
DICTIONARY
  5
A24B
330
A1EB
100
AcDbDictionary
280
     1
281
     1
  3
ACAD_XREC_ROUNDTRIP
360
A24C
  0
DICTIONARY
  5
A267
330
A1F9
100
AcDbDictionary
280
     1
281
     1
  3
ACAD_XREC_ROUNDTRIP
360
A268
  0
DICTIONARY
  5
A257
330
A1F1
100
AcDbDictionary
280
     1
281
     1
  3
ACAD_XREC_ROUNDTRIP
360
A258
  0
DICTIONARY
  5
A269
330
A1FA
100
AcDbDictionary
280
     1
281
     1
  3
ACAD_XREC_ROUNDTRIP
360
A26A
  0
DICTIONARY
  5
A24F
330
A1ED
100
AcDbDictionary
280
     1
281
     1
  3
ACAD_XREC_ROUNDTRIP
360
A250
  0
DICTIONARY
  5
A265
330
A1F8
100
AcDbDictionary
280
     1
281
     1
  3
ACAD_XREC_ROUNDTRIP
360
A266
  0
DICTIONARY
  5
A263
330
A1F7
100
AcDbDictionary
280
     1
281
     1
  3
ACAD_XREC_ROUNDTRIP
360
A264
  0
DICTIONARY
  5
A25D
330
A1F4
100
AcDbDictionary
280
     1
281
     1
  3
ACAD_XREC_ROUNDTRIP
360
A25E
  0
DICTIONARY
  5
A25F
330
A1F5
100
AcDbDictionary
280
     1
281
     1
  3
ACAD_XREC_ROUNDTRIP
360
A260
  0
DICTIONARY
  5
A255
330
A1F0
100
AcDbDictionary
280
     1
281
     1
  3
ACAD_XREC_ROUNDTRIP
360
A256
  0
DICTIONARY
  5
A249
330
A1EA
100
AcDbDictionary
280
     1
281
     1
  3
ACAD_XREC_ROUNDTRIP
360
A24A
  0
DICTIONARY
  5
A261
330
A1F6
100
AcDbDictionary
280
     1
281
     1
  3
ACAD_XREC_ROUNDTRIP
360
A262
  0
XRECORD
  5
A272
102
{ACAD_REACTORS
330
A271
102
}
330
A271
100
AcDbXrecord
280
     1
102
DISPLAYNAME
  1
Imperial24
102
FLAGS
 90
        0
  0
XRECORD
  5
A274
102
{ACAD_REACTORS
330
A273
102
}
330
A273
100
AcDbXrecord
280
     1
102
SHADEPLOT
 70
     0
102
SHADEPLOTRESLEVEL
 70
     2
102
SHADEPLOTCUSTOMDPI
 70
   300
  0
XRECORD
  5
A276
102
{ACAD_REACTORS
330
A275
102
}
330
A275
100
AcDbXrecord
280
     1
102
SHADEPLOT
 70
     0
102
SHADEPLOTRESLEVEL
 70
     2
102
SHADEPLOTCUSTOMDPI
 70
   300
  0
XRECORD
  5
A23B
102
{ACAD_REACTORS
330
A1D4
102
}
330
A1D4
100
AcDbXrecord
280
     1
102
MATERIAL
148
0.0
149
0.0
149
0.0
 93
        0
 94
      127
282
     0
 72
     0
 77
     0
171
     0
175
     0
179
     0
273
     0
  0
XRECORD
  5
A1D6
102
{ACAD_REACTORS
330
A1D4
102
}
330
A1D4
100
AcDbXrecord
280
     1
270
     1
271
     1
  0
XRECORD
  5
A1D5
102
{ACAD_REACTORS
330
A1D4
102
}
330
A1D4
100
AcDbXrecord
280
     1
270
     1
271
     1
  0
XRECORD
  5
A1D9
102
{ACAD_REACTORS
330
A1D4
102
}
330
A1D4
100
AcDbXrecord
280
     1
270
     1
271
     1
  0
XRECORD
  5
A1D8
102
{ACAD_REACTORS
330
A1D4
102
}
330
A1D4
100
AcDbXrecord
280
     1
270
     1
271
     1
  0
XRECORD
  5
A1DA
102
{ACAD_REACTORS
330
A1D4
102
}
330
A1D4
100
AcDbXrecord
280
     1
270
     1
271
     1
  0
XRECORD
  5
A1D7
102
{ACAD_REACTORS
330
A1D4
102
}
330
A1D4
100
AcDbXrecord
280
     1
270
     1
271
     1
  0
XRECORD
  5
A23A
102
{ACAD_REACTORS
330
A1CC
102
}
330
A1CC
100
AcDbXrecord
280
     1
102
MATERIAL
148
0.0
149
0.0
149
0.0
 93
        0
 94
      127
282
     0
 72
     0
 77
     0
171
     0
175
     0
179
     0
273
     0
  0
XRECORD
  5
A1CE
102
{ACAD_REACTORS
330
A1CC
102
}
330
A1CC
100
AcDbXrecord
280
     1
270
     1
271
     1
  0
XRECORD
  5
A1CD
102
{ACAD_REACTORS
330
A1CC
102
}
330
A1CC
100
AcDbXrecord
280
     1
270
     1
271
     1
  0
XRECORD
  5
A1D1
102
{ACAD_REACTORS
330
A1CC
102
}
330
A1CC
100
AcDbXrecord
280
     1
270
     1
271
     1
  0
XRECORD
  5
A1D0
102
{ACAD_REACTORS
330
A1CC
102
}
330
A1CC
100
AcDbXrecord
280
     1
270
     1
271
     1
  0
XRECORD
  5
A1D2
102
{ACAD_REACTORS
330
A1CC
102
}
330
A1CC
100
AcDbXrecord
280
     1
270
     1
271
     1
  0
XRECORD
  5
A1CF
102
{ACAD_REACTORS
330
A1CC
102
}
330
A1CC
100
AcDbXrecord
280
     1
270
     1
271
     1
  0
XRECORD
  5
A23C
102
{ACAD_REACTORS
330
A1DC
102
}
330
A1DC
100
AcDbXrecord
280
     1
102
MATERIAL
148
0.0
149
0.0
149
0.0
 93
        0
 94
      127
282
     0
 72
     0
 77
     0
171
     0
175
     0
179
     0
273
     0
  0
XRECORD
  5
A1DE
102
{ACAD_REACTORS
330
A1DC
102
}
330
A1DC
100
AcDbXrecord
280
     1
270
     1
271
     1
  0
XRECORD
  5
A1DD
102
{ACAD_REACTORS
330
A1DC
102
}
330
A1DC
100
AcDbXrecord
280
     1
270
     1
271
     1
  0
XRECORD
  5
A1E1
102
{ACAD_REACTORS
330
A1DC
102
}
330
A1DC
100
AcDbXrecord
280
     1
270
     1
271
     1
  0
XRECORD
  5
A1E0
102
{ACAD_REACTORS
330
A1DC
102
}
330
A1DC
100
AcDbXrecord
280
     1
270
     1
271
     1
  0
XRECORD
  5
A1E2
102
{ACAD_REACTORS
330
A1DC
102
}
330
A1DC
100
AcDbXrecord
280
     1
270
     1
271
     1
  0
XRECORD
  5
A1DF
102
{ACAD_REACTORS
330
A1DC
102
}
330
A1DC
100
AcDbXrecord
280
     1
270
     1
271
     1
  0
XRECORD
  5
A270
102
{ACAD_REACTORS
330
A26F
102
}
330
A26F
100
AcDbXrecord
280
     1
102
DISPLAYNAME
  1
Imperial24
102
FLAGS
 90
        0
  0
CELLSTYLEMAP
  5
A237
102
{ACAD_REACTORS
330
A236
102
}
330
A236
100
AcDbCellStyleMap
 90
        3
300
CELLSTYLE
  1
TABLEFORMAT_BEGIN
 90
        5
170
     1
 91
        0
 92
    32768
 62
   257
 93
        1
300
CONTENTFORMAT
  1
CONTENTFORMAT_BEGIN
 90
        0
 91
        0
 92
      512
 93
        0
300

 40
0.0
140
1.0
 94
        5
 62
     0
340
9F6C
144
0.25
309
CONTENTFORMAT_END
171
     0
 94
        0
309
TABLEFORMAT_END
  1
CELLSTYLE_BEGIN
 90
        1
 91
        1
300
_TITLE
309
CELLSTYLE_END
300
CELLSTYLE
  1
TABLEFORMAT_BEGIN
 90
        5
170
     1
 91
        0
 92
        0
 62
   257
 93
        1
300
CONTENTFORMAT
  1
CONTENTFORMAT_BEGIN
 90
        0
 91
        0
 92
      512
 93
        0
300

 40
0.0
140
1.0
 94
        5
 62
     0
340
9F6C
144
0.18
309
CONTENTFORMAT_END
171
     0
 94
        0
309
TABLEFORMAT_END
  1
CELLSTYLE_BEGIN
 90
        2
 91
        1
300
_HEADER
309
CELLSTYLE_END
300
CELLSTYLE
  1
TABLEFORMAT_BEGIN
 90
        5
170
     1
 91
        0
 92
        0
 62
   257
 93
        1
300
CONTENTFORMAT
  1
CONTENTFORMAT_BEGIN
 90
        0
 91
        0
 92
      512
 93
        0
300

 40
0.0
140
1.0
 94
        2
 62
     0
340
9F6C
144
0.18
309
CONTENTFORMAT_END
171
     0
 94
        0
309
TABLEFORMAT_END
  1
CELLSTYLE_BEGIN
 90
        3
 91
        2
300
_DATA
309
CELLSTYLE_END
  0
XRECORD
  5
A26D
102
{ACAD_REACTORS
330
A236
102
}
330
A236
100
AcDbXrecord
280
     1
102
ACAD_ROUNDTRIP_PRE2007_TABLESTYLE
 90
      512
 91
        0
  1

 92
      512
 93
        0
  2

 94
      512
 95
        0
  3

  0
XRECORD
  5
A248
102
{ACAD_REACTORS
330
A247
102
}
330
A247
100
AcDbXrecord
280
     1
102
RTVSPost2010Prop28
280
     1
102
RTVSPost2010PropOp28
 70
     1
102
RTVSPost2010Prop29
280
     1
102
RTVSPost2010PropOp29
 70
     1
102
RTVSPost2010Prop30
280
     0
102
RTVSPost2010PropOp30
 70
     1
102
RTVSPost2010Prop31
280
     0
102
RTVSPost2010PropOp31
 70
     1
102
RTVSPost2010Prop32
280
     0
102
RTVSPost2010PropOp32
 70
     1
102
RTVSPost2010Prop33
280
     0
102
RTVSPost2010PropOp33
 70
     1
102
RTVSPost2010Prop34
280
     0
102
RTVSPost2010PropOp34
 70
     1
102
RTVSPost2010Prop35
280
     0
102
RTVSPost2010PropOp35
 70
     1
102
RTVSPost2010Prop36
280
     0
102
RTVSPost2010PropOp36
 70
     1
102
RTVSPost2010Prop37
 90
       50
102
RTVSPost2010PropOp37
 70
     1
102
RTVSPost2010Prop38
140
0.0
102
RTVSPost2010PropOp38
 70
     1
102
RTVSPost2010Prop39
140
1.0
102
RTVSPost2010PropOp39
 70
     1
102
RTVSPost2010Prop40
 90
        0
102
RTVSPost2010PropOp40
 70
     1
102
RTVSPost2010Prop41ColorIndex
 90
       18
102
RTVSPost2010Prop41ColorRGB
 90
        0
102
RTVSPost2010PropOp41
 70
     1
102
RTVSPost2010Prop42
 90
       50
102
RTVSPost2010PropOp42
 70
     1
102
RTVSPost2010Prop43
 90
        3
102
RTVSPost2010PropOp43
 70
     1
102
RTVSPost2010Prop44ColorIndex
 90
        5
102
RTVSPost2010Prop44ColorRGB
 90
      255
102
RTVSPost2010PropOp44
 70
     1
102
RTVSPost2010Prop45
280
     0
102
RTVSPost2010PropOp45
 70
     1
102
RTVSPost2010Prop46
 90
       50
102
RTVSPost2010PropOp46
 70
     1
102
RTVSPost2010Prop47
 90
       50
102
RTVSPost2010PropOp47
 70
     1
102
RTVSPost2010Prop48
 90
       50
102
RTVSPost2010PropOp48
 70
     1
102
RTVSPost2010Prop49
280
     0
102
RTVSPost2010PropOp49
 70
     1
102
RTVSPost2010Prop50
 90
       50
102
RTVSPost2010PropOp50
 70
     1
102
RTVSPost2010Prop51ColorIndex
 90
      256
102
RTVSPost2010Prop51ColorRGB
 90
-16777216
102
RTVSPost2010PropOp51
 70
     0
102
RTVSPost2010Prop52
140
1.0
102
RTVSPost2010PropOp52
 70
     0
102
RTVSPost2010Prop53
 90
        2
102
RTVSPost2010PropOp53
 70
     1
102
RTVSPost2010Prop54
  1
strokes_ogs.tif
102
RTVSPost2010PropOp54
 70
     1
102
RTVSPost2010Prop55
280
     0
102
RTVSPost2010PropOp55
 70
     1
102
RTVSPost2010Prop56
140
1.0
102
RTVSPost2010PropOp56
 70
     1
102
RTVSPost2010Prop57
140
1.0
102
RTVSPost2010PropOp57
 70
     1
102
RTVSPropertyOp0
 70
     1
102
RTVSPropertyOp1
 70
     1
102
RTVSPropertyOp2
 70
     1
102
RTVSPropertyOp3
 70
     1
102
RTVSPropertyOp4
 70
     1
102
RTVSPropertyOp5
 70
     1
102
RTVSPropertyOp6
 70
     1
102
RTVSPropertyOp7
 70
     1
102
RTVSPropertyOp8
 70
     1
102
RTVSPropertyOp9
 70
     1
102
RTVSPropertyOp10
 70
     1
102
RTVSPropertyOp11
 70
     1
102
RTVSPropertyOp12
 70
     1
102
RTVSPropertyOp13
 70
     1
102
RTVSPropertyOp14
 70
     1
102
RTVSPropertyOp15
 70
     1
102
RTVSPropertyOp16
 70
     1
102
RTVSPropertyOp17
 70
     1
102
RTVSPropertyOp18
 70
     1
102
RTVSPropertyOp19
 70
     1
102
RTVSPropertyOp20
 70
     1
102
RTVSPropertyOp21
 70
     1
102
RTVSPropertyOp22
 70
     1
102
RTVSPropertyOp23
 70
     1
102
RTVSPropertyOp24
 70
     1
102
RTVSPropertyOp25
 70
     1
102
RTVSPropertyOp26
 70
     1
102
RTVSPropertyOp27
 70
     1
102
RTVSPropertyOp28
 70
     1
102
RTVSPropertyOp29
 70
     1
102
RTVSPropertyOp30
 70
     1
102
RTVSPropertyOp31
 70
     1
102
RTVSPropertyOp32
 70
     1
102
RTVSPropertyOp33
 70
     1
102
RTVSPropertyOp34
 70
     1
102
RTVSPropertyOp35
 70
     1
102
RTVSPropertyOp36
 70
     1
102
RTVSPropertyOp37
 70
     1
102
RTVSPropertyOp38
 70
     1
102
RTVSPropertyOp39
 70
     1
102
RTVSPropertyOp40
 70
     1
102
RTVSPropertyOp41
 70
     1
102
RTVSPropertyOp42
 70
     1
102
RTVSPropertyOp43
 70
     1
102
RTVSPropertyOp44
 70
     1
102
RTVSPropertyOp45
 70
     1
102
RTVSPropertyOp46
 70
     1
102
RTVSPropertyOp47
 70
     1
102
RTVSPropertyOp48
 70
     1
102
RTVSPropertyOp49
 70
     1
102
RTVSPropertyOp50
 70
     1
102
RTVSPropertyOp51
 70
     0
102
RTVSPropertyOp52
 70
     0
102
RTVSPropertyOp53
 70
     1
102
RTVSPropertyOp54
 70
     1
102
RTVSPropertyOp55
 70
     1
102
RTVSPropertyOp56
 70
     1
102
RTVSPropertyOp57
 70
     1
102
RTVSPropertyOp58
 70
     1
102
RTVSPropertyOp59
 70
     1
102
RTVSPropertyOp60
 70
     1
102
RTVSPropertyOp61
 70
     1
102
RTVSPropertyOp62
 70
     1
  0
XRECORD
  5
A246
102
{ACAD_REACTORS
330
A245
102
}
330
A245
100
AcDbXrecord
280
     1
102
RTVSPost2010Prop28
280
     0
102
RTVSPost2010PropOp28
 70
     1
102
RTVSPost2010Prop29
280
     1
102
RTVSPost2010PropOp29
 70
     1
102
RTVSPost2010Prop30
280
     1
102
RTVSPost2010PropOp30
 70
     1
102
RTVSPost2010Prop31
280
     0
102
RTVSPost2010PropOp31
 70
     1
102
RTVSPost2010Prop32
280
     0
102
RTVSPost2010PropOp32
 70
     1
102
RTVSPost2010Prop33
280
     0
102
RTVSPost2010PropOp33
 70
     1
102
RTVSPost2010Prop34
280
     0
102
RTVSPost2010PropOp34
 70
     1
102
RTVSPost2010Prop35
280
     0
102
RTVSPost2010PropOp35
 70
     1
102
RTVSPost2010Prop36
280
     0
102
RTVSPost2010PropOp36
 70
     1
102
RTVSPost2010Prop37
 90
       50
102
RTVSPost2010PropOp37
 70
     1
102
RTVSPost2010Prop38
140
0.0
102
RTVSPost2010PropOp38
 70
     1
102
RTVSPost2010Prop39
140
1.0
102
RTVSPost2010PropOp39
 70
     1
102
RTVSPost2010Prop40
 90
        0
102
RTVSPost2010PropOp40
 70
     1
102
RTVSPost2010Prop41ColorIndex
 90
       18
102
RTVSPost2010Prop41ColorRGB
 90
        0
102
RTVSPost2010PropOp41
 70
     1
102
RTVSPost2010Prop42
 90
       50
102
RTVSPost2010PropOp42
 70
     1
102
RTVSPost2010Prop43
 90
        3
102
RTVSPost2010PropOp43
 70
     1
102
RTVSPost2010Prop44ColorIndex
 90
        5
102
RTVSPost2010Prop44ColorRGB
 90
      255
102
RTVSPost2010PropOp44
 70
     1
102
RTVSPost2010Prop45
280
     0
102
RTVSPost2010PropOp45
 70
     1
102
RTVSPost2010Prop46
 90
       50
102
RTVSPost2010PropOp46
 70
     1
102
RTVSPost2010Prop47
 90
       50
102
RTVSPost2010PropOp47
 70
     1
102
RTVSPost2010Prop48
 90
       50
102
RTVSPost2010PropOp48
 70
     1
102
RTVSPost2010Prop49
280
     0
102
RTVSPost2010PropOp49
 70
     1
102
RTVSPost2010Prop50
 90
       50
102
RTVSPost2010PropOp50
 70
     1
102
RTVSPost2010Prop51ColorIndex
 90
      256
102
RTVSPost2010Prop51ColorRGB
 90
-16777216
102
RTVSPost2010PropOp51
 70
     0
102
RTVSPost2010Prop52
140
1.0
102
RTVSPost2010PropOp52
 70
     0
102
RTVSPost2010Prop53
 90
        2
102
RTVSPost2010PropOp53
 70
     1
102
RTVSPost2010Prop54
  1
strokes_ogs.tif
102
RTVSPost2010PropOp54
 70
     1
102
RTVSPost2010Prop55
280
     0
102
RTVSPost2010PropOp55
 70
     1
102
RTVSPost2010Prop56
140
1.0
102
RTVSPost2010PropOp56
 70
     1
102
RTVSPost2010Prop57
140
1.0
102
RTVSPost2010PropOp57
 70
     1
102
RTVSPropertyOp0
 70
     1
102
RTVSPropertyOp1
 70
     1
102
RTVSPropertyOp2
 70
     1
102
RTVSPropertyOp3
 70
     1
102
RTVSPropertyOp4
 70
     1
102
RTVSPropertyOp5
 70
     1
102
RTVSPropertyOp6
 70
     1
102
RTVSPropertyOp7
 70
     1
102
RTVSPropertyOp8
 70
     1
102
RTVSPropertyOp9
 70
     1
102
RTVSPropertyOp10
 70
     1
102
RTVSPropertyOp11
 70
     1
102
RTVSPropertyOp12
 70
     1
102
RTVSPropertyOp13
 70
     1
102
RTVSPropertyOp14
 70
     1
102
RTVSPropertyOp15
 70
     1
102
RTVSPropertyOp16
 70
     1
102
RTVSPropertyOp17
 70
     1
102
RTVSPropertyOp18
 70
     1
102
RTVSPropertyOp19
 70
     1
102
RTVSPropertyOp20
 70
     1
102
RTVSPropertyOp21
 70
     1
102
RTVSPropertyOp22
 70
     1
102
RTVSPropertyOp23
 70
     1
102
RTVSPropertyOp24
 70
     1
102
RTVSPropertyOp25
 70
     1
102
RTVSPropertyOp26
 70
     1
102
RTVSPropertyOp27
 70
     1
102
RTVSPropertyOp28
 70
     1
102
RTVSPropertyOp29
 70
     1
102
RTVSPropertyOp30
 70
     1
102
RTVSPropertyOp31
 70
     1
102
RTVSPropertyOp32
 70
     1
102
RTVSPropertyOp33
 70
     1
102
RTVSPropertyOp34
 70
     1
102
RTVSPropertyOp35
 70
     1
102
RTVSPropertyOp36
 70
     1
102
RTVSPropertyOp37
 70
     1
102
RTVSPropertyOp38
 70
     1
102
RTVSPropertyOp39
 70
     1
102
RTVSPropertyOp40
 70
     1
102
RTVSPropertyOp41
 70
     1
102
RTVSPropertyOp42
 70
     1
102
RTVSPropertyOp43
 70
     1
102
RTVSPropertyOp44
 70
     1
102
RTVSPropertyOp45
 70
     1
102
RTVSPropertyOp46
 70
     1
102
RTVSPropertyOp47
 70
     1
102
RTVSPropertyOp48
 70
     1
102
RTVSPropertyOp49
 70
     1
102
RTVSPropertyOp50
 70
     1
102
RTVSPropertyOp51
 70
     0
102
RTVSPropertyOp52
 70
     0
102
RTVSPropertyOp53
 70
     1
102
RTVSPropertyOp54
 70
     1
102
RTVSPropertyOp55
 70
     1
102
RTVSPropertyOp56
 70
     1
102
RTVSPropertyOp57
 70
     1
102
RTVSPropertyOp58
 70
     1
102
RTVSPropertyOp59
 70
     1
102
RTVSPropertyOp60
 70
     1
102
RTVSPropertyOp61
 70
     1
102
RTVSPropertyOp62
 70
     1
  0
XRECORD
  5
A254
102
{ACAD_REACTORS
330
A253
102
}
330
A253
100
AcDbXrecord
280
     1
102
RTVSPost2010Prop28
280
     0
102
RTVSPost2010PropOp28
 70
     1
102
RTVSPost2010Prop29
280
     1
102
RTVSPost2010PropOp29
 70
     1
102
RTVSPost2010Prop30
280
     1
102
RTVSPost2010PropOp30
 70
     1
102
RTVSPost2010Prop31
280
     0
102
RTVSPost2010PropOp31
 70
     1
102
RTVSPost2010Prop32
280
     0
102
RTVSPost2010PropOp32
 70
     1
102
RTVSPost2010Prop33
280
     0
102
RTVSPost2010PropOp33
 70
     1
102
RTVSPost2010Prop34
280
     0
102
RTVSPost2010PropOp34
 70
     1
102
RTVSPost2010Prop35
280
     0
102
RTVSPost2010PropOp35
 70
     1
102
RTVSPost2010Prop36
280
     0
102
RTVSPost2010PropOp36
 70
     1
102
RTVSPost2010Prop37
 90
       50
102
RTVSPost2010PropOp37
 70
     1
102
RTVSPost2010Prop38
140
0.0
102
RTVSPost2010PropOp38
 70
     1
102
RTVSPost2010Prop39
140
1.0
102
RTVSPost2010PropOp39
 70
     1
102
RTVSPost2010Prop40
 90
        0
102
RTVSPost2010PropOp40
 70
     1
102
RTVSPost2010Prop41ColorIndex
 90
       18
102
RTVSPost2010Prop41ColorRGB
 90
        0
102
RTVSPost2010PropOp41
 70
     1
102
RTVSPost2010Prop42
 90
       50
102
RTVSPost2010PropOp42
 70
     1
102
RTVSPost2010Prop43
 90
        3
102
RTVSPost2010PropOp43
 70
     1
102
RTVSPost2010Prop44ColorIndex
 90
        5
102
RTVSPost2010Prop44ColorRGB
 90
      255
102
RTVSPost2010PropOp44
 70
     1
102
RTVSPost2010Prop45
280
     0
102
RTVSPost2010PropOp45
 70
     1
102
RTVSPost2010Prop46
 90
       50
102
RTVSPost2010PropOp46
 70
     1
102
RTVSPost2010Prop47
 90
       50
102
RTVSPost2010PropOp47
 70
     1
102
RTVSPost2010Prop48
 90
       50
102
RTVSPost2010PropOp48
 70
     1
102
RTVSPost2010Prop49
280
     0
102
RTVSPost2010PropOp49
 70
     1
102
RTVSPost2010Prop50
 90
       50
102
RTVSPost2010PropOp50
 70
     1
102
RTVSPost2010Prop51ColorIndex
 90
      256
102
RTVSPost2010Prop51ColorRGB
 90
-16777216
102
RTVSPost2010PropOp51
 70
     0
102
RTVSPost2010Prop52
140
1.0
102
RTVSPost2010PropOp52
 70
     0
102
RTVSPost2010Prop53
 90
        2
102
RTVSPost2010PropOp53
 70
     1
102
RTVSPost2010Prop54
  1
strokes_ogs.tif
102
RTVSPost2010PropOp54
 70
     1
102
RTVSPost2010Prop55
280
     0
102
RTVSPost2010PropOp55
 70
     1
102
RTVSPost2010Prop56
140
1.0
102
RTVSPost2010PropOp56
 70
     1
102
RTVSPost2010Prop57
140
1.0
102
RTVSPost2010PropOp57
 70
     1
102
RTVSPropertyOp0
 70
     1
102
RTVSPropertyOp1
 70
     1
102
RTVSPropertyOp2
 70
     1
102
RTVSPropertyOp3
 70
     1
102
RTVSPropertyOp4
 70
     1
102
RTVSPropertyOp5
 70
     1
102
RTVSPropertyOp6
 70
     1
102
RTVSPropertyOp7
 70
     1
102
RTVSPropertyOp8
 70
     1
102
RTVSPropertyOp9
 70
     1
102
RTVSPropertyOp10
 70
     1
102
RTVSPropertyOp11
 70
     1
102
RTVSPropertyOp12
 70
     1
102
RTVSPropertyOp13
 70
     1
102
RTVSPropertyOp14
 70
     1
102
RTVSPropertyOp15
 70
     1
102
RTVSPropertyOp16
 70
     1
102
RTVSPropertyOp17
 70
     1
102
RTVSPropertyOp18
 70
     1
102
RTVSPropertyOp19
 70
     1
102
RTVSPropertyOp20
 70
     1
102
RTVSPropertyOp21
 70
     1
102
RTVSPropertyOp22
 70
     1
102
RTVSPropertyOp23
 70
     1
102
RTVSPropertyOp24
 70
     1
102
RTVSPropertyOp25
 70
     1
102
RTVSPropertyOp26
 70
     1
102
RTVSPropertyOp27
 70
     1
102
RTVSPropertyOp28
 70
     1
102
RTVSPropertyOp29
 70
     1
102
RTVSPropertyOp30
 70
     1
102
RTVSPropertyOp31
 70
     1
102
RTVSPropertyOp32
 70
     1
102
RTVSPropertyOp33
 70
     1
102
RTVSPropertyOp34
 70
     1
102
RTVSPropertyOp35
 70
     1
102
RTVSPropertyOp36
 70
     1
102
RTVSPropertyOp37
 70
     1
102
RTVSPropertyOp38
 70
     1
102
RTVSPropertyOp39
 70
     1
102
RTVSPropertyOp40
 70
     1
102
RTVSPropertyOp41
 70
     1
102
RTVSPropertyOp42
 70
     1
102
RTVSPropertyOp43
 70
     1
102
RTVSPropertyOp44
 70
     1
102
RTVSPropertyOp45
 70
     1
102
RTVSPropertyOp46
 70
     1
102
RTVSPropertyOp47
 70
     1
102
RTVSPropertyOp48
 70
     1
102
RTVSPropertyOp49
 70
     1
102
RTVSPropertyOp50
 70
     1
102
RTVSPropertyOp51
 70
     0
102
RTVSPropertyOp52
 70
     0
102
RTVSPropertyOp53
 70
     1
102
RTVSPropertyOp54
 70
     1
102
RTVSPropertyOp55
 70
     1
102
RTVSPropertyOp56
 70
     1
102
RTVSPropertyOp57
 70
     1
102
RTVSPropertyOp58
 70
     1
102
RTVSPropertyOp59
 70
     1
102
RTVSPropertyOp60
 70
     1
102
RTVSPropertyOp61
 70
     1
102
RTVSPropertyOp62
 70
     1
  0
XRECORD
  5
A25C
102
{ACAD_REACTORS
330
A25B
102
}
330
A25B
100
AcDbXrecord
280
     1
102
RTVSPost2010Prop28
280
     0
102
RTVSPost2010PropOp28
 70
     1
102
RTVSPost2010Prop29
280
     1
102
RTVSPost2010PropOp29
 70
     1
102
RTVSPost2010Prop30
280
     1
102
RTVSPost2010PropOp30
 70
     1
102
RTVSPost2010Prop31
280
     0
102
RTVSPost2010PropOp31
 70
     1
102
RTVSPost2010Prop32
280
     0
102
RTVSPost2010PropOp32
 70
     1
102
RTVSPost2010Prop33
280
     0
102
RTVSPost2010PropOp33
 70
     1
102
RTVSPost2010Prop34
280
     0
102
RTVSPost2010PropOp34
 70
     1
102
RTVSPost2010Prop35
280
     0
102
RTVSPost2010PropOp35
 70
     1
102
RTVSPost2010Prop36
280
     0
102
RTVSPost2010PropOp36
 70
     1
102
RTVSPost2010Prop37
 90
       50
102
RTVSPost2010PropOp37
 70
     1
102
RTVSPost2010Prop38
140
0.0
102
RTVSPost2010PropOp38
 70
     1
102
RTVSPost2010Prop39
140
1.0
102
RTVSPost2010PropOp39
 70
     1
102
RTVSPost2010Prop40
 90
        0
102
RTVSPost2010PropOp40
 70
     1
102
RTVSPost2010Prop41ColorIndex
 90
       18
102
RTVSPost2010Prop41ColorRGB
 90
        0
102
RTVSPost2010PropOp41
 70
     1
102
RTVSPost2010Prop42
 90
       50
102
RTVSPost2010PropOp42
 70
     1
102
RTVSPost2010Prop43
 90
        3
102
RTVSPost2010PropOp43
 70
     1
102
RTVSPost2010Prop44ColorIndex
 90
        5
102
RTVSPost2010Prop44ColorRGB
 90
      255
102
RTVSPost2010PropOp44
 70
     1
102
RTVSPost2010Prop45
280
     0
102
RTVSPost2010PropOp45
 70
     1
102
RTVSPost2010Prop46
 90
       50
102
RTVSPost2010PropOp46
 70
     1
102
RTVSPost2010Prop47
 90
       50
102
RTVSPost2010PropOp47
 70
     1
102
RTVSPost2010Prop48
 90
       50
102
RTVSPost2010PropOp48
 70
     1
102
RTVSPost2010Prop49
280
     0
102
RTVSPost2010PropOp49
 70
     1
102
RTVSPost2010Prop50
 90
       50
102
RTVSPost2010PropOp50
 70
     1
102
RTVSPost2010Prop51ColorIndex
 90
      256
102
RTVSPost2010Prop51ColorRGB
 90
-16777216
102
RTVSPost2010PropOp51
 70
     0
102
RTVSPost2010Prop52
140
1.0
102
RTVSPost2010PropOp52
 70
     0
102
RTVSPost2010Prop53
 90
        2
102
RTVSPost2010PropOp53
 70
     1
102
RTVSPost2010Prop54
  1
strokes_ogs.tif
102
RTVSPost2010PropOp54
 70
     1
102
RTVSPost2010Prop55
280
     0
102
RTVSPost2010PropOp55
 70
     1
102
RTVSPost2010Prop56
140
1.0
102
RTVSPost2010PropOp56
 70
     1
102
RTVSPost2010Prop57
140
1.0
102
RTVSPost2010PropOp57
 70
     1
102
RTVSPropertyOp0
 70
     1
102
RTVSPropertyOp1
 70
     1
102
RTVSPropertyOp2
 70
     1
102
RTVSPropertyOp3
 70
     1
102
RTVSPropertyOp4
 70
     1
102
RTVSPropertyOp5
 70
     1
102
RTVSPropertyOp6
 70
     1
102
RTVSPropertyOp7
 70
     1
102
RTVSPropertyOp8
 70
     1
102
RTVSPropertyOp9
 70
     1
102
RTVSPropertyOp10
 70
     1
102
RTVSPropertyOp11
 70
     1
102
RTVSPropertyOp12
 70
     1
102
RTVSPropertyOp13
 70
     1
102
RTVSPropertyOp14
 70
     1
102
RTVSPropertyOp15
 70
     1
102
RTVSPropertyOp16
 70
     1
102
RTVSPropertyOp17
 70
     1
102
RTVSPropertyOp18
 70
     1
102
RTVSPropertyOp19
 70
     1
102
RTVSPropertyOp20
 70
     1
102
RTVSPropertyOp21
 70
     1
102
RTVSPropertyOp22
 70
     1
102
RTVSPropertyOp23
 70
     1
102
RTVSPropertyOp24
 70
     1
102
RTVSPropertyOp25
 70
     1
102
RTVSPropertyOp26
 70
     1
102
RTVSPropertyOp27
 70
     1
102
RTVSPropertyOp28
 70
     1
102
RTVSPropertyOp29
 70
     1
102
RTVSPropertyOp30
 70
     1
102
RTVSPropertyOp31
 70
     1
102
RTVSPropertyOp32
 70
     1
102
RTVSPropertyOp33
 70
     1
102
RTVSPropertyOp34
 70
     1
102
RTVSPropertyOp35
 70
     1
102
RTVSPropertyOp36
 70
     1
102
RTVSPropertyOp37
 70
     1
102
RTVSPropertyOp38
 70
     1
102
RTVSPropertyOp39
 70
     1
102
RTVSPropertyOp40
 70
     1
102
RTVSPropertyOp41
 70
     1
102
RTVSPropertyOp42
 70
     1
102
RTVSPropertyOp43
 70
     1
102
RTVSPropertyOp44
 70
     1
102
RTVSPropertyOp45
 70
     1
102
RTVSPropertyOp46
 70
     1
102
RTVSPropertyOp47
 70
     1
102
RTVSPropertyOp48
 70
     1
102
RTVSPropertyOp49
 70
     1
102
RTVSPropertyOp50
 70
     1
102
RTVSPropertyOp51
 70
     0
102
RTVSPropertyOp52
 70
     0
102
RTVSPropertyOp53
 70
     1
102
RTVSPropertyOp54
 70
     1
102
RTVSPropertyOp55
 70
     1
102
RTVSPropertyOp56
 70
     1
102
RTVSPropertyOp57
 70
     1
102
RTVSPropertyOp58
 70
     1
102
RTVSPropertyOp59
 70
     1
102
RTVSPropertyOp60
 70
     1
102
RTVSPropertyOp61
 70
     1
102
RTVSPropertyOp62
 70
     1
  0
XRECORD
  5
A24E
102
{ACAD_REACTORS
330
A24D
102
}
330
A24D
100
AcDbXrecord
280
     1
102
RTVSPost2010Prop28
280
     0
102
RTVSPost2010PropOp28
 70
     1
102
RTVSPost2010Prop29
280
     1
102
RTVSPost2010PropOp29
 70
     1
102
RTVSPost2010Prop30
280
     1
102
RTVSPost2010PropOp30
 70
     1
102
RTVSPost2010Prop31
280
     0
102
RTVSPost2010PropOp31
 70
     1
102
RTVSPost2010Prop32
280
     0
102
RTVSPost2010PropOp32
 70
     1
102
RTVSPost2010Prop33
280
     0
102
RTVSPost2010PropOp33
 70
     1
102
RTVSPost2010Prop34
280
     0
102
RTVSPost2010PropOp34
 70
     1
102
RTVSPost2010Prop35
280
     0
102
RTVSPost2010PropOp35
 70
     1
102
RTVSPost2010Prop36
280
     0
102
RTVSPost2010PropOp36
 70
     1
102
RTVSPost2010Prop37
 90
       50
102
RTVSPost2010PropOp37
 70
     1
102
RTVSPost2010Prop38
140
0.0
102
RTVSPost2010PropOp38
 70
     1
102
RTVSPost2010Prop39
140
1.0
102
RTVSPost2010PropOp39
 70
     1
102
RTVSPost2010Prop40
 90
        0
102
RTVSPost2010PropOp40
 70
     1
102
RTVSPost2010Prop41ColorIndex
 90
       18
102
RTVSPost2010Prop41ColorRGB
 90
        0
102
RTVSPost2010PropOp41
 70
     1
102
RTVSPost2010Prop42
 90
       50
102
RTVSPost2010PropOp42
 70
     1
102
RTVSPost2010Prop43
 90
        3
102
RTVSPost2010PropOp43
 70
     1
102
RTVSPost2010Prop44ColorIndex
 90
        5
102
RTVSPost2010Prop44ColorRGB
 90
      255
102
RTVSPost2010PropOp44
 70
     1
102
RTVSPost2010Prop45
280
     0
102
RTVSPost2010PropOp45
 70
     1
102
RTVSPost2010Prop46
 90
       50
102
RTVSPost2010PropOp46
 70
     1
102
RTVSPost2010Prop47
 90
       50
102
RTVSPost2010PropOp47
 70
     1
102
RTVSPost2010Prop48
 90
       50
102
RTVSPost2010PropOp48
 70
     1
102
RTVSPost2010Prop49
280
     0
102
RTVSPost2010PropOp49
 70
     1
102
RTVSPost2010Prop50
 90
       50
102
RTVSPost2010PropOp50
 70
     1
102
RTVSPost2010Prop51ColorIndex
 90
      256
102
RTVSPost2010Prop51ColorRGB
 90
-16777216
102
RTVSPost2010PropOp51
 70
     0
102
RTVSPost2010Prop52
140
1.0
102
RTVSPost2010PropOp52
 70
     0
102
RTVSPost2010Prop53
 90
        2
102
RTVSPost2010PropOp53
 70
     1
102
RTVSPost2010Prop54
  1
strokes_ogs.tif
102
RTVSPost2010PropOp54
 70
     1
102
RTVSPost2010Prop55
280
     0
102
RTVSPost2010PropOp55
 70
     1
102
RTVSPost2010Prop56
140
1.0
102
RTVSPost2010PropOp56
 70
     1
102
RTVSPost2010Prop57
140
1.0
102
RTVSPost2010PropOp57
 70
     1
102
RTVSPropertyOp0
 70
     1
102
RTVSPropertyOp1
 70
     1
102
RTVSPropertyOp2
 70
     1
102
RTVSPropertyOp3
 70
     1
102
RTVSPropertyOp4
 70
     1
102
RTVSPropertyOp5
 70
     1
102
RTVSPropertyOp6
 70
     1
102
RTVSPropertyOp7
 70
     1
102
RTVSPropertyOp8
 70
     1
102
RTVSPropertyOp9
 70
     1
102
RTVSPropertyOp10
 70
     1
102
RTVSPropertyOp11
 70
     1
102
RTVSPropertyOp12
 70
     1
102
RTVSPropertyOp13
 70
     1
102
RTVSPropertyOp14
 70
     1
102
RTVSPropertyOp15
 70
     1
102
RTVSPropertyOp16
 70
     1
102
RTVSPropertyOp17
 70
     1
102
RTVSPropertyOp18
 70
     1
102
RTVSPropertyOp19
 70
     1
102
RTVSPropertyOp20
 70
     1
102
RTVSPropertyOp21
 70
     1
102
RTVSPropertyOp22
 70
     1
102
RTVSPropertyOp23
 70
     1
102
RTVSPropertyOp24
 70
     1
102
RTVSPropertyOp25
 70
     1
102
RTVSPropertyOp26
 70
     1
102
RTVSPropertyOp27
 70
     1
102
RTVSPropertyOp28
 70
     1
102
RTVSPropertyOp29
 70
     1
102
RTVSPropertyOp30
 70
     1
102
RTVSPropertyOp31
 70
     1
102
RTVSPropertyOp32
 70
     1
102
RTVSPropertyOp33
 70
     1
102
RTVSPropertyOp34
 70
     1
102
RTVSPropertyOp35
 70
     1
102
RTVSPropertyOp36
 70
     1
102
RTVSPropertyOp37
 70
     1
102
RTVSPropertyOp38
 70
     1
102
RTVSPropertyOp39
 70
     1
102
RTVSPropertyOp40
 70
     1
102
RTVSPropertyOp41
 70
     1
102
RTVSPropertyOp42
 70
     1
102
RTVSPropertyOp43
 70
     1
102
RTVSPropertyOp44
 70
     1
102
RTVSPropertyOp45
 70
     1
102
RTVSPropertyOp46
 70
     1
102
RTVSPropertyOp47
 70
     1
102
RTVSPropertyOp48
 70
     1
102
RTVSPropertyOp49
 70
     1
102
RTVSPropertyOp50
 70
     1
102
RTVSPropertyOp51
 70
     0
102
RTVSPropertyOp52
 70
     0
102
RTVSPropertyOp53
 70
     1
102
RTVSPropertyOp54
 70
     1
102
RTVSPropertyOp55
 70
     1
102
RTVSPropertyOp56
 70
     1
102
RTVSPropertyOp57
 70
     1
102
RTVSPropertyOp58
 70
     1
102
RTVSPropertyOp59
 70
     1
102
RTVSPropertyOp60
 70
     1
102
RTVSPropertyOp61
 70
     1
102
RTVSPropertyOp62
 70
     1
  0
XRECORD
  5
A252
102
{ACAD_REACTORS
330
A251
102
}
330
A251
100
AcDbXrecord
280
     1
102
RTVSPost2010Prop28
280
     0
102
RTVSPost2010PropOp28
 70
     1
102
RTVSPost2010Prop29
280
     1
102
RTVSPost2010PropOp29
 70
     1
102
RTVSPost2010Prop30
280
     1
102
RTVSPost2010PropOp30
 70
     1
102
RTVSPost2010Prop31
280
     0
102
RTVSPost2010PropOp31
 70
     1
102
RTVSPost2010Prop32
280
     0
102
RTVSPost2010PropOp32
 70
     1
102
RTVSPost2010Prop33
280
     0
102
RTVSPost2010PropOp33
 70
     1
102
RTVSPost2010Prop34
280
     0
102
RTVSPost2010PropOp34
 70
     1
102
RTVSPost2010Prop35
280
     0
102
RTVSPost2010PropOp35
 70
     1
102
RTVSPost2010Prop36
280
     0
102
RTVSPost2010PropOp36
 70
     1
102
RTVSPost2010Prop37
 90
       50
102
RTVSPost2010PropOp37
 70
     1
102
RTVSPost2010Prop38
140
0.0
102
RTVSPost2010PropOp38
 70
     1
102
RTVSPost2010Prop39
140
1.0
102
RTVSPost2010PropOp39
 70
     1
102
RTVSPost2010Prop40
 90
        0
102
RTVSPost2010PropOp40
 70
     1
102
RTVSPost2010Prop41ColorIndex
 90
       18
102
RTVSPost2010Prop41ColorRGB
 90
        0
102
RTVSPost2010PropOp41
 70
     1
102
RTVSPost2010Prop42
 90
       50
102
RTVSPost2010PropOp42
 70
     1
102
RTVSPost2010Prop43
 90
        3
102
RTVSPost2010PropOp43
 70
     1
102
RTVSPost2010Prop44ColorIndex
 90
        5
102
RTVSPost2010Prop44ColorRGB
 90
      255
102
RTVSPost2010PropOp44
 70
     1
102
RTVSPost2010Prop45
280
     0
102
RTVSPost2010PropOp45
 70
     1
102
RTVSPost2010Prop46
 90
       50
102
RTVSPost2010PropOp46
 70
     1
102
RTVSPost2010Prop47
 90
       50
102
RTVSPost2010PropOp47
 70
     1
102
RTVSPost2010Prop48
 90
       50
102
RTVSPost2010PropOp48
 70
     1
102
RTVSPost2010Prop49
280
     0
102
RTVSPost2010PropOp49
 70
     1
102
RTVSPost2010Prop50
 90
       50
102
RTVSPost2010PropOp50
 70
     1
102
RTVSPost2010Prop51ColorIndex
 90
      256
102
RTVSPost2010Prop51ColorRGB
 90
-16777216
102
RTVSPost2010PropOp51
 70
     0
102
RTVSPost2010Prop52
140
1.0
102
RTVSPost2010PropOp52
 70
     0
102
RTVSPost2010Prop53
 90
        2
102
RTVSPost2010PropOp53
 70
     1
102
RTVSPost2010Prop54
  1
strokes_ogs.tif
102
RTVSPost2010PropOp54
 70
     1
102
RTVSPost2010Prop55
280
     0
102
RTVSPost2010PropOp55
 70
     1
102
RTVSPost2010Prop56
140
1.0
102
RTVSPost2010PropOp56
 70
     1
102
RTVSPost2010Prop57
140
1.0
102
RTVSPost2010PropOp57
 70
     1
102
RTVSPropertyOp0
 70
     1
102
RTVSPropertyOp1
 70
     1
102
RTVSPropertyOp2
 70
     1
102
RTVSPropertyOp3
 70
     1
102
RTVSPropertyOp4
 70
     1
102
RTVSPropertyOp5
 70
     1
102
RTVSPropertyOp6
 70
     1
102
RTVSPropertyOp7
 70
     1
102
RTVSPropertyOp8
 70
     1
102
RTVSPropertyOp9
 70
     1
102
RTVSPropertyOp10
 70
     1
102
RTVSPropertyOp11
 70
     1
102
RTVSPropertyOp12
 70
     1
102
RTVSPropertyOp13
 70
     1
102
RTVSPropertyOp14
 70
     1
102
RTVSPropertyOp15
 70
     1
102
RTVSPropertyOp16
 70
     1
102
RTVSPropertyOp17
 70
     1
102
RTVSPropertyOp18
 70
     1
102
RTVSPropertyOp19
 70
     1
102
RTVSPropertyOp20
 70
     1
102
RTVSPropertyOp21
 70
     1
102
RTVSPropertyOp22
 70
     1
102
RTVSPropertyOp23
 70
     1
102
RTVSPropertyOp24
 70
     1
102
RTVSPropertyOp25
 70
     1
102
RTVSPropertyOp26
 70
     1
102
RTVSPropertyOp27
 70
     1
102
RTVSPropertyOp28
 70
     1
102
RTVSPropertyOp29
 70
     1
102
RTVSPropertyOp30
 70
     1
102
RTVSPropertyOp31
 70
     1
102
RTVSPropertyOp32
 70
     1
102
RTVSPropertyOp33
 70
     1
102
RTVSPropertyOp34
 70
     1
102
RTVSPropertyOp35
 70
     1
102
RTVSPropertyOp36
 70
     1
102
RTVSPropertyOp37
 70
     1
102
RTVSPropertyOp38
 70
     1
102
RTVSPropertyOp39
 70
     1
102
RTVSPropertyOp40
 70
     1
102
RTVSPropertyOp41
 70
     1
102
RTVSPropertyOp42
 70
     1
102
RTVSPropertyOp43
 70
     1
102
RTVSPropertyOp44
 70
     1
102
RTVSPropertyOp45
 70
     1
102
RTVSPropertyOp46
 70
     1
102
RTVSPropertyOp47
 70
     1
102
RTVSPropertyOp48
 70
     1
102
RTVSPropertyOp49
 70
     1
102
RTVSPropertyOp50
 70
     1
102
RTVSPropertyOp51
 70
     0
102
RTVSPropertyOp52
 70
     0
102
RTVSPropertyOp53
 70
     1
102
RTVSPropertyOp54
 70
     1
102
RTVSPropertyOp55
 70
     1
102
RTVSPropertyOp56
 70
     1
102
RTVSPropertyOp57
 70
     1
102
RTVSPropertyOp58
 70
     1
102
RTVSPropertyOp59
 70
     1
102
RTVSPropertyOp60
 70
     1
102
RTVSPropertyOp61
 70
     1
102
RTVSPropertyOp62
 70
     1
  0
XRECORD
  5
A26C
102
{ACAD_REACTORS
330
A26B
102
}
330
A26B
100
AcDbXrecord
280
     1
102
RTVSPost2010Prop28
280
     0
102
RTVSPost2010PropOp28
 70
     1
102
RTVSPost2010Prop29
280
     1
102
RTVSPost2010PropOp29
 70
     1
102
RTVSPost2010Prop30
280
     1
102
RTVSPost2010PropOp30
 70
     1
102
RTVSPost2010Prop31
280
     0
102
RTVSPost2010PropOp31
 70
     1
102
RTVSPost2010Prop32
280
     0
102
RTVSPost2010PropOp32
 70
     1
102
RTVSPost2010Prop33
280
     0
102
RTVSPost2010PropOp33
 70
     1
102
RTVSPost2010Prop34
280
     0
102
RTVSPost2010PropOp34
 70
     1
102
RTVSPost2010Prop35
280
     0
102
RTVSPost2010PropOp35
 70
     1
102
RTVSPost2010Prop36
280
     0
102
RTVSPost2010PropOp36
 70
     1
102
RTVSPost2010Prop37
 90
       50
102
RTVSPost2010PropOp37
 70
     0
102
RTVSPost2010Prop38
140
0.0
102
RTVSPost2010PropOp38
 70
     0
102
RTVSPost2010Prop39
140
1.0
102
RTVSPost2010PropOp39
 70
     0
102
RTVSPost2010Prop40
 90
        0
102
RTVSPost2010PropOp40
 70
     0
102
RTVSPost2010Prop41ColorIndex
 90
       18
102
RTVSPost2010Prop41ColorRGB
 90
        0
102
RTVSPost2010PropOp41
 70
     0
102
RTVSPost2010Prop42
 90
       50
102
RTVSPost2010PropOp42
 70
     0
102
RTVSPost2010Prop43
 90
        3
102
RTVSPost2010PropOp43
 70
     0
102
RTVSPost2010Prop44ColorIndex
 90
        5
102
RTVSPost2010Prop44ColorRGB
 90
      255
102
RTVSPost2010PropOp44
 70
     0
102
RTVSPost2010Prop45
280
     0
102
RTVSPost2010PropOp45
 70
     1
102
RTVSPost2010Prop46
 90
       50
102
RTVSPost2010PropOp46
 70
     0
102
RTVSPost2010Prop47
 90
       50
102
RTVSPost2010PropOp47
 70
     0
102
RTVSPost2010Prop48
 90
       50
102
RTVSPost2010PropOp48
 70
     0
102
RTVSPost2010Prop49
280
     0
102
RTVSPost2010PropOp49
 70
     1
102
RTVSPost2010Prop50
 90
       50
102
RTVSPost2010PropOp50
 70
     0
102
RTVSPost2010Prop51ColorIndex
 90
      256
102
RTVSPost2010Prop51ColorRGB
 90
-16777216
102
RTVSPost2010PropOp51
 70
     0
102
RTVSPost2010Prop52
140
1.0
102
RTVSPost2010PropOp52
 70
     0
102
RTVSPost2010Prop53
 90
        2
102
RTVSPost2010PropOp53
 70
     0
102
RTVSPost2010Prop54
  1
strokes_ogs.tif
102
RTVSPost2010PropOp54
 70
     0
102
RTVSPost2010Prop55
280
     0
102
RTVSPost2010PropOp55
 70
     1
102
RTVSPost2010Prop56
140
1.0
102
RTVSPost2010PropOp56
 70
     0
102
RTVSPost2010Prop57
140
1.0
102
RTVSPost2010PropOp57
 70
     0
102
RTVSPropertyOp0
 70
     0
102
RTVSPropertyOp1
 70
     0
102
RTVSPropertyOp2
 70
     0
102
RTVSPropertyOp3
 70
     0
102
RTVSPropertyOp4
 70
     0
102
RTVSPropertyOp5
 70
     0
102
RTVSPropertyOp6
 70
     0
102
RTVSPropertyOp7
 70
     0
102
RTVSPropertyOp8
 70
     0
102
RTVSPropertyOp9
 70
     0
102
RTVSPropertyOp10
 70
     0
102
RTVSPropertyOp11
 70
     0
102
RTVSPropertyOp12
 70
     0
102
RTVSPropertyOp13
 70
     0
102
RTVSPropertyOp14
 70
     2
102
RTVSPropertyOp15
 70
     0
102
RTVSPropertyOp16
 70
     0
102
RTVSPropertyOp17
 70
     0
102
RTVSPropertyOp18
 70
     0
102
RTVSPropertyOp19
 70
     0
102
RTVSPropertyOp20
 70
     0
102
RTVSPropertyOp21
 70
     0
102
RTVSPropertyOp22
 70
     0
102
RTVSPropertyOp23
 70
     0
102
RTVSPropertyOp24
 70
     0
102
RTVSPropertyOp25
 70
     0
102
RTVSPropertyOp26
 70
     0
102
RTVSPropertyOp27
 70
     0
102
RTVSPropertyOp28
 70
     1
102
RTVSPropertyOp29
 70
     1
102
RTVSPropertyOp30
 70
     1
102
RTVSPropertyOp31
 70
     1
102
RTVSPropertyOp32
 70
     1
102
RTVSPropertyOp33
 70
     1
102
RTVSPropertyOp34
 70
     1
102
RTVSPropertyOp35
 70
     1
102
RTVSPropertyOp36
 70
     1
102
RTVSPropertyOp37
 70
     0
102
RTVSPropertyOp38
 70
     0
102
RTVSPropertyOp39
 70
     0
102
RTVSPropertyOp40
 70
     0
102
RTVSPropertyOp41
 70
     0
102
RTVSPropertyOp42
 70
     0
102
RTVSPropertyOp43
 70
     0
102
RTVSPropertyOp44
 70
     0
102
RTVSPropertyOp45
 70
     1
102
RTVSPropertyOp46
 70
     0
102
RTVSPropertyOp47
 70
     0
102
RTVSPropertyOp48
 70
     0
102
RTVSPropertyOp49
 70
     1
102
RTVSPropertyOp50
 70
     0
102
RTVSPropertyOp51
 70
     0
102
RTVSPropertyOp52
 70
     0
102
RTVSPropertyOp53
 70
     0
102
RTVSPropertyOp54
 70
     0
102
RTVSPropertyOp55
 70
     1
102
RTVSPropertyOp56
 70
     0
102
RTVSPropertyOp57
 70
     0
102
RTVSPropertyOp58
 70
     0
102
RTVSPropertyOp59
 70
     0
102
RTVSPropertyOp60
 70
     0
102
RTVSPropertyOp61
 70
     0
102
RTVSPropertyOp62
 70
     0
  0
XRECORD
  5
A25A
102
{ACAD_REACTORS
330
A259
102
}
330
A259
100
AcDbXrecord
280
     1
102
RTVSPost2010Prop28
280
     0
102
RTVSPost2010PropOp28
 70
     1
102
RTVSPost2010Prop29
280
     1
102
RTVSPost2010PropOp29
 70
     1
102
RTVSPost2010Prop30
280
     1
102
RTVSPost2010PropOp30
 70
     1
102
RTVSPost2010Prop31
280
     0
102
RTVSPost2010PropOp31
 70
     1
102
RTVSPost2010Prop32
280
     0
102
RTVSPost2010PropOp32
 70
     1
102
RTVSPost2010Prop33
280
     0
102
RTVSPost2010PropOp33
 70
     1
102
RTVSPost2010Prop34
280
     0
102
RTVSPost2010PropOp34
 70
     1
102
RTVSPost2010Prop35
280
     0
102
RTVSPost2010PropOp35
 70
     1
102
RTVSPost2010Prop36
280
     0
102
RTVSPost2010PropOp36
 70
     1
102
RTVSPost2010Prop37
 90
       50
102
RTVSPost2010PropOp37
 70
     1
102
RTVSPost2010Prop38
140
0.0
102
RTVSPost2010PropOp38
 70
     1
102
RTVSPost2010Prop39
140
1.0
102
RTVSPost2010PropOp39
 70
     1
102
RTVSPost2010Prop40
 90
        0
102
RTVSPost2010PropOp40
 70
     1
102
RTVSPost2010Prop41ColorIndex
 90
       18
102
RTVSPost2010Prop41ColorRGB
 90
        0
102
RTVSPost2010PropOp41
 70
     1
102
RTVSPost2010Prop42
 90
       50
102
RTVSPost2010PropOp42
 70
     1
102
RTVSPost2010Prop43
 90
        3
102
RTVSPost2010PropOp43
 70
     1
102
RTVSPost2010Prop44ColorIndex
 90
        5
102
RTVSPost2010Prop44ColorRGB
 90
      255
102
RTVSPost2010PropOp44
 70
     1
102
RTVSPost2010Prop45
280
     0
102
RTVSPost2010PropOp45
 70
     1
102
RTVSPost2010Prop46
 90
       50
102
RTVSPost2010PropOp46
 70
     1
102
RTVSPost2010Prop47
 90
       50
102
RTVSPost2010PropOp47
 70
     1
102
RTVSPost2010Prop48
 90
       50
102
RTVSPost2010PropOp48
 70
     1
102
RTVSPost2010Prop49
280
     0
102
RTVSPost2010PropOp49
 70
     1
102
RTVSPost2010Prop50
 90
       50
102
RTVSPost2010PropOp50
 70
     1
102
RTVSPost2010Prop51ColorIndex
 90
      256
102
RTVSPost2010Prop51ColorRGB
 90
-16777216
102
RTVSPost2010PropOp51
 70
     0
102
RTVSPost2010Prop52
140
1.0
102
RTVSPost2010PropOp52
 70
     0
102
RTVSPost2010Prop53
 90
        2
102
RTVSPost2010PropOp53
 70
     1
102
RTVSPost2010Prop54
  1
strokes_ogs.tif
102
RTVSPost2010PropOp54
 70
     1
102
RTVSPost2010Prop55
280
     0
102
RTVSPost2010PropOp55
 70
     1
102
RTVSPost2010Prop56
140
1.0
102
RTVSPost2010PropOp56
 70
     1
102
RTVSPost2010Prop57
140
1.0
102
RTVSPost2010PropOp57
 70
     1
102
RTVSPropertyOp0
 70
     1
102
RTVSPropertyOp1
 70
     1
102
RTVSPropertyOp2
 70
     1
102
RTVSPropertyOp3
 70
     1
102
RTVSPropertyOp4
 70
     1
102
RTVSPropertyOp5
 70
     1
102
RTVSPropertyOp6
 70
     1
102
RTVSPropertyOp7
 70
     1
102
RTVSPropertyOp8
 70
     1
102
RTVSPropertyOp9
 70
     1
102
RTVSPropertyOp10
 70
     1
102
RTVSPropertyOp11
 70
     1
102
RTVSPropertyOp12
 70
     1
102
RTVSPropertyOp13
 70
     1
102
RTVSPropertyOp14
 70
     1
102
RTVSPropertyOp15
 70
     1
102
RTVSPropertyOp16
 70
     1
102
RTVSPropertyOp17
 70
     1
102
RTVSPropertyOp18
 70
     1
102
RTVSPropertyOp19
 70
     1
102
RTVSPropertyOp20
 70
     1
102
RTVSPropertyOp21
 70
     1
102
RTVSPropertyOp22
 70
     1
102
RTVSPropertyOp23
 70
     1
102
RTVSPropertyOp24
 70
     1
102
RTVSPropertyOp25
 70
     1
102
RTVSPropertyOp26
 70
     1
102
RTVSPropertyOp27
 70
     1
102
RTVSPropertyOp28
 70
     1
102
RTVSPropertyOp29
 70
     1
102
RTVSPropertyOp30
 70
     1
102
RTVSPropertyOp31
 70
     1
102
RTVSPropertyOp32
 70
     1
102
RTVSPropertyOp33
 70
     1
102
RTVSPropertyOp34
 70
     1
102
RTVSPropertyOp35
 70
     1
102
RTVSPropertyOp36
 70
     1
102
RTVSPropertyOp37
 70
     1
102
RTVSPropertyOp38
 70
     1
102
RTVSPropertyOp39
 70
     1
102
RTVSPropertyOp40
 70
     1
102
RTVSPropertyOp41
 70
     1
102
RTVSPropertyOp42
 70
     1
102
RTVSPropertyOp43
 70
     1
102
RTVSPropertyOp44
 70
     1
102
RTVSPropertyOp45
 70
     1
102
RTVSPropertyOp46
 70
     1
102
RTVSPropertyOp47
 70
     1
102
RTVSPropertyOp48
 70
     1
102
RTVSPropertyOp49
 70
     1
102
RTVSPropertyOp50
 70
     1
102
RTVSPropertyOp51
 70
     0
102
RTVSPropertyOp52
 70
     0
102
RTVSPropertyOp53
 70
     1
102
RTVSPropertyOp54
 70
     1
102
RTVSPropertyOp55
 70
     1
102
RTVSPropertyOp56
 70
     1
102
RTVSPropertyOp57
 70
     1
102
RTVSPropertyOp58
 70
     1
102
RTVSPropertyOp59
 70
     1
102
RTVSPropertyOp60
 70
     1
102
RTVSPropertyOp61
 70
     1
102
RTVSPropertyOp62
 70
     1
  0
XRECORD
  5
A23E
102
{ACAD_REACTORS
330
A23D
102
}
330
A23D
100
AcDbXrecord
280
     1
102
RTVSPost2010Prop28
280
     0
102
RTVSPost2010PropOp28
 70
     1
102
RTVSPost2010Prop29
280
     1
102
RTVSPost2010PropOp29
 70
     1
102
RTVSPost2010Prop30
280
     1
102
RTVSPost2010PropOp30
 70
     1
102
RTVSPost2010Prop31
280
     0
102
RTVSPost2010PropOp31
 70
     1
102
RTVSPost2010Prop32
280
     0
102
RTVSPost2010PropOp32
 70
     1
102
RTVSPost2010Prop33
280
     0
102
RTVSPost2010PropOp33
 70
     1
102
RTVSPost2010Prop34
280
     0
102
RTVSPost2010PropOp34
 70
     1
102
RTVSPost2010Prop35
280
     0
102
RTVSPost2010PropOp35
 70
     1
102
RTVSPost2010Prop36
280
     0
102
RTVSPost2010PropOp36
 70
     1
102
RTVSPost2010Prop37
 90
       50
102
RTVSPost2010PropOp37
 70
     1
102
RTVSPost2010Prop38
140
0.0
102
RTVSPost2010PropOp38
 70
     1
102
RTVSPost2010Prop39
140
1.0
102
RTVSPost2010PropOp39
 70
     1
102
RTVSPost2010Prop40
 90
        0
102
RTVSPost2010PropOp40
 70
     1
102
RTVSPost2010Prop41ColorIndex
 90
       18
102
RTVSPost2010Prop41ColorRGB
 90
        0
102
RTVSPost2010PropOp41
 70
     1
102
RTVSPost2010Prop42
 90
       50
102
RTVSPost2010PropOp42
 70
     1
102
RTVSPost2010Prop43
 90
        3
102
RTVSPost2010PropOp43
 70
     1
102
RTVSPost2010Prop44ColorIndex
 90
        5
102
RTVSPost2010Prop44ColorRGB
 90
      255
102
RTVSPost2010PropOp44
 70
     1
102
RTVSPost2010Prop45
280
     0
102
RTVSPost2010PropOp45
 70
     1
102
RTVSPost2010Prop46
 90
       50
102
RTVSPost2010PropOp46
 70
     1
102
RTVSPost2010Prop47
 90
       50
102
RTVSPost2010PropOp47
 70
     1
102
RTVSPost2010Prop48
 90
       50
102
RTVSPost2010PropOp48
 70
     1
102
RTVSPost2010Prop49
280
     0
102
RTVSPost2010PropOp49
 70
     1
102
RTVSPost2010Prop50
 90
       50
102
RTVSPost2010PropOp50
 70
     1
102
RTVSPost2010Prop51ColorIndex
 90
      256
102
RTVSPost2010Prop51ColorRGB
 90
-16777216
102
RTVSPost2010PropOp51
 70
     0
102
RTVSPost2010Prop52
140
1.0
102
RTVSPost2010PropOp52
 70
     0
102
RTVSPost2010Prop53
 90
        2
102
RTVSPost2010PropOp53
 70
     1
102
RTVSPost2010Prop54
  1
strokes_ogs.tif
102
RTVSPost2010PropOp54
 70
     1
102
RTVSPost2010Prop55
280
     0
102
RTVSPost2010PropOp55
 70
     1
102
RTVSPost2010Prop56
140
1.0
102
RTVSPost2010PropOp56
 70
     1
102
RTVSPost2010Prop57
140
1.0
102
RTVSPost2010PropOp57
 70
     1
102
RTVSPropertyOp0
 70
     1
102
RTVSPropertyOp1
 70
     1
102
RTVSPropertyOp2
 70
     1
102
RTVSPropertyOp3
 70
     1
102
RTVSPropertyOp4
 70
     1
102
RTVSPropertyOp5
 70
     1
102
RTVSPropertyOp6
 70
     1
102
RTVSPropertyOp7
 70
     1
102
RTVSPropertyOp8
 70
     1
102
RTVSPropertyOp9
 70
     1
102
RTVSPropertyOp10
 70
     1
102
RTVSPropertyOp11
 70
     1
102
RTVSPropertyOp12
 70
     1
102
RTVSPropertyOp13
 70
     1
102
RTVSPropertyOp14
 70
     1
102
RTVSPropertyOp15
 70
     1
102
RTVSPropertyOp16
 70
     1
102
RTVSPropertyOp17
 70
     1
102
RTVSPropertyOp18
 70
     1
102
RTVSPropertyOp19
 70
     1
102
RTVSPropertyOp20
 70
     1
102
RTVSPropertyOp21
 70
     1
102
RTVSPropertyOp22
 70
     1
102
RTVSPropertyOp23
 70
     1
102
RTVSPropertyOp24
 70
     1
102
RTVSPropertyOp25
 70
     1
102
RTVSPropertyOp26
 70
     1
102
RTVSPropertyOp27
 70
     1
102
RTVSPropertyOp28
 70
     1
102
RTVSPropertyOp29
 70
     1
102
RTVSPropertyOp30
 70
     1
102
RTVSPropertyOp31
 70
     1
102
RTVSPropertyOp32
 70
     1
102
RTVSPropertyOp33
 70
     1
102
RTVSPropertyOp34
 70
     1
102
RTVSPropertyOp35
 70
     1
102
RTVSPropertyOp36
 70
     1
102
RTVSPropertyOp37
 70
     1
102
RTVSPropertyOp38
 70
     1
102
RTVSPropertyOp39
 70
     1
102
RTVSPropertyOp40
 70
     1
102
RTVSPropertyOp41
 70
     1
102
RTVSPropertyOp42
 70
     1
102
RTVSPropertyOp43
 70
     1
102
RTVSPropertyOp44
 70
     1
102
RTVSPropertyOp45
 70
     1
102
RTVSPropertyOp46
 70
     1
102
RTVSPropertyOp47
 70
     1
102
RTVSPropertyOp48
 70
     1
102
RTVSPropertyOp49
 70
     1
102
RTVSPropertyOp50
 70
     1
102
RTVSPropertyOp51
 70
     0
102
RTVSPropertyOp52
 70
     0
102
RTVSPropertyOp53
 70
     1
102
RTVSPropertyOp54
 70
     1
102
RTVSPropertyOp55
 70
     1
102
RTVSPropertyOp56
 70
     1
102
RTVSPropertyOp57
 70
     1
102
RTVSPropertyOp58
 70
     1
102
RTVSPropertyOp59
 70
     1
102
RTVSPropertyOp60
 70
     1
102
RTVSPropertyOp61
 70
     1
102
RTVSPropertyOp62
 70
     1
  0
XRECORD
  5
A240
102
{ACAD_REACTORS
330
A23F
102
}
330
A23F
100
AcDbXrecord
280
     1
102
RTVSPost2010Prop28
280
     0
102
RTVSPost2010PropOp28
 70
     1
102
RTVSPost2010Prop29
280
     1
102
RTVSPost2010PropOp29
 70
     1
102
RTVSPost2010Prop30
280
     1
102
RTVSPost2010PropOp30
 70
     1
102
RTVSPost2010Prop31
280
     0
102
RTVSPost2010PropOp31
 70
     1
102
RTVSPost2010Prop32
280
     0
102
RTVSPost2010PropOp32
 70
     1
102
RTVSPost2010Prop33
280
     0
102
RTVSPost2010PropOp33
 70
     1
102
RTVSPost2010Prop34
280
     0
102
RTVSPost2010PropOp34
 70
     1
102
RTVSPost2010Prop35
280
     0
102
RTVSPost2010PropOp35
 70
     1
102
RTVSPost2010Prop36
280
     0
102
RTVSPost2010PropOp36
 70
     1
102
RTVSPost2010Prop37
 90
       50
102
RTVSPost2010PropOp37
 70
     1
102
RTVSPost2010Prop38
140
0.0
102
RTVSPost2010PropOp38
 70
     1
102
RTVSPost2010Prop39
140
1.0
102
RTVSPost2010PropOp39
 70
     1
102
RTVSPost2010Prop40
 90
        0
102
RTVSPost2010PropOp40
 70
     1
102
RTVSPost2010Prop41ColorIndex
 90
       18
102
RTVSPost2010Prop41ColorRGB
 90
        0
102
RTVSPost2010PropOp41
 70
     1
102
RTVSPost2010Prop42
 90
       50
102
RTVSPost2010PropOp42
 70
     1
102
RTVSPost2010Prop43
 90
        3
102
RTVSPost2010PropOp43
 70
     1
102
RTVSPost2010Prop44ColorIndex
 90
        5
102
RTVSPost2010Prop44ColorRGB
 90
      255
102
RTVSPost2010PropOp44
 70
     1
102
RTVSPost2010Prop45
280
     0
102
RTVSPost2010PropOp45
 70
     1
102
RTVSPost2010Prop46
 90
       50
102
RTVSPost2010PropOp46
 70
     1
102
RTVSPost2010Prop47
 90
       50
102
RTVSPost2010PropOp47
 70
     1
102
RTVSPost2010Prop48
 90
       50
102
RTVSPost2010PropOp48
 70
     1
102
RTVSPost2010Prop49
280
     0
102
RTVSPost2010PropOp49
 70
     1
102
RTVSPost2010Prop50
 90
       50
102
RTVSPost2010PropOp50
 70
     1
102
RTVSPost2010Prop51ColorIndex
 90
      256
102
RTVSPost2010Prop51ColorRGB
 90
-16777216
102
RTVSPost2010PropOp51
 70
     0
102
RTVSPost2010Prop52
140
1.0
102
RTVSPost2010PropOp52
 70
     0
102
RTVSPost2010Prop53
 90
        2
102
RTVSPost2010PropOp53
 70
     1
102
RTVSPost2010Prop54
  1
strokes_ogs.tif
102
RTVSPost2010PropOp54
 70
     1
102
RTVSPost2010Prop55
280
     0
102
RTVSPost2010PropOp55
 70
     1
102
RTVSPost2010Prop56
140
1.0
102
RTVSPost2010PropOp56
 70
     1
102
RTVSPost2010Prop57
140
1.0
102
RTVSPost2010PropOp57
 70
     1
102
RTVSPropertyOp0
 70
     1
102
RTVSPropertyOp1
 70
     1
102
RTVSPropertyOp2
 70
     1
102
RTVSPropertyOp3
 70
     1
102
RTVSPropertyOp4
 70
     1
102
RTVSPropertyOp5
 70
     1
102
RTVSPropertyOp6
 70
     1
102
RTVSPropertyOp7
 70
     1
102
RTVSPropertyOp8
 70
     1
102
RTVSPropertyOp9
 70
     1
102
RTVSPropertyOp10
 70
     1
102
RTVSPropertyOp11
 70
     1
102
RTVSPropertyOp12
 70
     1
102
RTVSPropertyOp13
 70
     1
102
RTVSPropertyOp14
 70
     1
102
RTVSPropertyOp15
 70
     1
102
RTVSPropertyOp16
 70
     1
102
RTVSPropertyOp17
 70
     1
102
RTVSPropertyOp18
 70
     1
102
RTVSPropertyOp19
 70
     1
102
RTVSPropertyOp20
 70
     1
102
RTVSPropertyOp21
 70
     1
102
RTVSPropertyOp22
 70
     1
102
RTVSPropertyOp23
 70
     1
102
RTVSPropertyOp24
 70
     1
102
RTVSPropertyOp25
 70
     1
102
RTVSPropertyOp26
 70
     1
102
RTVSPropertyOp27
 70
     1
102
RTVSPropertyOp28
 70
     1
102
RTVSPropertyOp29
 70
     1
102
RTVSPropertyOp30
 70
     1
102
RTVSPropertyOp31
 70
     1
102
RTVSPropertyOp32
 70
     1
102
RTVSPropertyOp33
 70
     1
102
RTVSPropertyOp34
 70
     1
102
RTVSPropertyOp35
 70
     1
102
RTVSPropertyOp36
 70
     1
102
RTVSPropertyOp37
 70
     1
102
RTVSPropertyOp38
 70
     1
102
RTVSPropertyOp39
 70
     1
102
RTVSPropertyOp40
 70
     1
102
RTVSPropertyOp41
 70
     1
102
RTVSPropertyOp42
 70
     1
102
RTVSPropertyOp43
 70
     1
102
RTVSPropertyOp44
 70
     1
102
RTVSPropertyOp45
 70
     1
102
RTVSPropertyOp46
 70
     1
102
RTVSPropertyOp47
 70
     1
102
RTVSPropertyOp48
 70
     1
102
RTVSPropertyOp49
 70
     1
102
RTVSPropertyOp50
 70
     1
102
RTVSPropertyOp51
 70
     0
102
RTVSPropertyOp52
 70
     0
102
RTVSPropertyOp53
 70
     1
102
RTVSPropertyOp54
 70
     1
102
RTVSPropertyOp55
 70
     1
102
RTVSPropertyOp56
 70
     1
102
RTVSPropertyOp57
 70
     1
102
RTVSPropertyOp58
 70
     1
102
RTVSPropertyOp59
 70
     1
102
RTVSPropertyOp60
 70
     1
102
RTVSPropertyOp61
 70
     1
102
RTVSPropertyOp62
 70
     1
  0
XRECORD
  5
A242
102
{ACAD_REACTORS
330
A241
102
}
330
A241
100
AcDbXrecord
280
     1
102
RTVSPost2010Prop28
280
     0
102
RTVSPost2010PropOp28
 70
     1
102
RTVSPost2010Prop29
280
     1
102
RTVSPost2010PropOp29
 70
     1
102
RTVSPost2010Prop30
280
     1
102
RTVSPost2010PropOp30
 70
     1
102
RTVSPost2010Prop31
280
     0
102
RTVSPost2010PropOp31
 70
     1
102
RTVSPost2010Prop32
280
     0
102
RTVSPost2010PropOp32
 70
     1
102
RTVSPost2010Prop33
280
     0
102
RTVSPost2010PropOp33
 70
     1
102
RTVSPost2010Prop34
280
     0
102
RTVSPost2010PropOp34
 70
     1
102
RTVSPost2010Prop35
280
     0
102
RTVSPost2010PropOp35
 70
     1
102
RTVSPost2010Prop36
280
     0
102
RTVSPost2010PropOp36
 70
     1
102
RTVSPost2010Prop37
 90
       50
102
RTVSPost2010PropOp37
 70
     1
102
RTVSPost2010Prop38
140
0.0
102
RTVSPost2010PropOp38
 70
     1
102
RTVSPost2010Prop39
140
1.0
102
RTVSPost2010PropOp39
 70
     1
102
RTVSPost2010Prop40
 90
        0
102
RTVSPost2010PropOp40
 70
     1
102
RTVSPost2010Prop41ColorIndex
 90
       18
102
RTVSPost2010Prop41ColorRGB
 90
        0
102
RTVSPost2010PropOp41
 70
     1
102
RTVSPost2010Prop42
 90
       50
102
RTVSPost2010PropOp42
 70
     1
102
RTVSPost2010Prop43
 90
        3
102
RTVSPost2010PropOp43
 70
     1
102
RTVSPost2010Prop44ColorIndex
 90
        5
102
RTVSPost2010Prop44ColorRGB
 90
      255
102
RTVSPost2010PropOp44
 70
     1
102
RTVSPost2010Prop45
280
     0
102
RTVSPost2010PropOp45
 70
     1
102
RTVSPost2010Prop46
 90
       50
102
RTVSPost2010PropOp46
 70
     1
102
RTVSPost2010Prop47
 90
       50
102
RTVSPost2010PropOp47
 70
     1
102
RTVSPost2010Prop48
 90
       50
102
RTVSPost2010PropOp48
 70
     1
102
RTVSPost2010Prop49
280
     0
102
RTVSPost2010PropOp49
 70
     1
102
RTVSPost2010Prop50
 90
       50
102
RTVSPost2010PropOp50
 70
     1
102
RTVSPost2010Prop51ColorIndex
 90
      256
102
RTVSPost2010Prop51ColorRGB
 90
-16777216
102
RTVSPost2010PropOp51
 70
     0
102
RTVSPost2010Prop52
140
1.0
102
RTVSPost2010PropOp52
 70
     0
102
RTVSPost2010Prop53
 90
        2
102
RTVSPost2010PropOp53
 70
     1
102
RTVSPost2010Prop54
  1
strokes_ogs.tif
102
RTVSPost2010PropOp54
 70
     1
102
RTVSPost2010Prop55
280
     0
102
RTVSPost2010PropOp55
 70
     1
102
RTVSPost2010Prop56
140
1.0
102
RTVSPost2010PropOp56
 70
     1
102
RTVSPost2010Prop57
140
1.0
102
RTVSPost2010PropOp57
 70
     1
102
RTVSPropertyOp0
 70
     1
102
RTVSPropertyOp1
 70
     1
102
RTVSPropertyOp2
 70
     1
102
RTVSPropertyOp3
 70
     1
102
RTVSPropertyOp4
 70
     1
102
RTVSPropertyOp5
 70
     1
102
RTVSPropertyOp6
 70
     1
102
RTVSPropertyOp7
 70
     1
102
RTVSPropertyOp8
 70
     1
102
RTVSPropertyOp9
 70
     1
102
RTVSPropertyOp10
 70
     1
102
RTVSPropertyOp11
 70
     1
102
RTVSPropertyOp12
 70
     1
102
RTVSPropertyOp13
 70
     1
102
RTVSPropertyOp14
 70
     1
102
RTVSPropertyOp15
 70
     1
102
RTVSPropertyOp16
 70
     1
102
RTVSPropertyOp17
 70
     1
102
RTVSPropertyOp18
 70
     1
102
RTVSPropertyOp19
 70
     1
102
RTVSPropertyOp20
 70
     1
102
RTVSPropertyOp21
 70
     1
102
RTVSPropertyOp22
 70
     1
102
RTVSPropertyOp23
 70
     1
102
RTVSPropertyOp24
 70
     1
102
RTVSPropertyOp25
 70
     1
102
RTVSPropertyOp26
 70
     1
102
RTVSPropertyOp27
 70
     1
102
RTVSPropertyOp28
 70
     1
102
RTVSPropertyOp29
 70
     1
102
RTVSPropertyOp30
 70
     1
102
RTVSPropertyOp31
 70
     1
102
RTVSPropertyOp32
 70
     1
102
RTVSPropertyOp33
 70
     1
102
RTVSPropertyOp34
 70
     1
102
RTVSPropertyOp35
 70
     1
102
RTVSPropertyOp36
 70
     1
102
RTVSPropertyOp37
 70
     1
102
RTVSPropertyOp38
 70
     1
102
RTVSPropertyOp39
 70
     1
102
RTVSPropertyOp40
 70
     1
102
RTVSPropertyOp41
 70
     1
102
RTVSPropertyOp42
 70
     1
102
RTVSPropertyOp43
 70
     1
102
RTVSPropertyOp44
 70
     1
102
RTVSPropertyOp45
 70
     1
102
RTVSPropertyOp46
 70
     1
102
RTVSPropertyOp47
 70
     1
102
RTVSPropertyOp48
 70
     1
102
RTVSPropertyOp49
 70
     1
102
RTVSPropertyOp50
 70
     1
102
RTVSPropertyOp51
 70
     0
102
RTVSPropertyOp52
 70
     0
102
RTVSPropertyOp53
 70
     1
102
RTVSPropertyOp54
 70
     1
102
RTVSPropertyOp55
 70
     1
102
RTVSPropertyOp56
 70
     1
102
RTVSPropertyOp57
 70
     1
102
RTVSPropertyOp58
 70
     1
102
RTVSPropertyOp59
 70
     1
102
RTVSPropertyOp60
 70
     1
102
RTVSPropertyOp61
 70
     1
102
RTVSPropertyOp62
 70
     1
  0
XRECORD
  5
A244
102
{ACAD_REACTORS
330
A243
102
}
330
A243
100
AcDbXrecord
280
     1
102
RTVSPost2010Prop28
280
     0
102
RTVSPost2010PropOp28
 70
     1
102
RTVSPost2010Prop29
280
     1
102
RTVSPost2010PropOp29
 70
     1
102
RTVSPost2010Prop30
280
     1
102
RTVSPost2010PropOp30
 70
     1
102
RTVSPost2010Prop31
280
     0
102
RTVSPost2010PropOp31
 70
     1
102
RTVSPost2010Prop32
280
     0
102
RTVSPost2010PropOp32
 70
     1
102
RTVSPost2010Prop33
280
     0
102
RTVSPost2010PropOp33
 70
     1
102
RTVSPost2010Prop34
280
     0
102
RTVSPost2010PropOp34
 70
     1
102
RTVSPost2010Prop35
280
     0
102
RTVSPost2010PropOp35
 70
     1
102
RTVSPost2010Prop36
280
     0
102
RTVSPost2010PropOp36
 70
     1
102
RTVSPost2010Prop37
 90
       50
102
RTVSPost2010PropOp37
 70
     1
102
RTVSPost2010Prop38
140
0.0
102
RTVSPost2010PropOp38
 70
     1
102
RTVSPost2010Prop39
140
1.0
102
RTVSPost2010PropOp39
 70
     1
102
RTVSPost2010Prop40
 90
        0
102
RTVSPost2010PropOp40
 70
     1
102
RTVSPost2010Prop41ColorIndex
 90
       18
102
RTVSPost2010Prop41ColorRGB
 90
        0
102
RTVSPost2010PropOp41
 70
     1
102
RTVSPost2010Prop42
 90
       50
102
RTVSPost2010PropOp42
 70
     1
102
RTVSPost2010Prop43
 90
        3
102
RTVSPost2010PropOp43
 70
     1
102
RTVSPost2010Prop44ColorIndex
 90
        5
102
RTVSPost2010Prop44ColorRGB
 90
      255
102
RTVSPost2010PropOp44
 70
     1
102
RTVSPost2010Prop45
280
     0
102
RTVSPost2010PropOp45
 70
     1
102
RTVSPost2010Prop46
 90
       50
102
RTVSPost2010PropOp46
 70
     1
102
RTVSPost2010Prop47
 90
       50
102
RTVSPost2010PropOp47
 70
     1
102
RTVSPost2010Prop48
 90
       50
102
RTVSPost2010PropOp48
 70
     1
102
RTVSPost2010Prop49
280
     0
102
RTVSPost2010PropOp49
 70
     1
102
RTVSPost2010Prop50
 90
       50
102
RTVSPost2010PropOp50
 70
     1
102
RTVSPost2010Prop51ColorIndex
 90
      256
102
RTVSPost2010Prop51ColorRGB
 90
-16777216
102
RTVSPost2010PropOp51
 70
     0
102
RTVSPost2010Prop52
140
1.0
102
RTVSPost2010PropOp52
 70
     0
102
RTVSPost2010Prop53
 90
        2
102
RTVSPost2010PropOp53
 70
     1
102
RTVSPost2010Prop54
  1
strokes_ogs.tif
102
RTVSPost2010PropOp54
 70
     1
102
RTVSPost2010Prop55
280
     0
102
RTVSPost2010PropOp55
 70
     1
102
RTVSPost2010Prop56
140
1.0
102
RTVSPost2010PropOp56
 70
     1
102
RTVSPost2010Prop57
140
1.0
102
RTVSPost2010PropOp57
 70
     1
102
RTVSPropertyOp0
 70
     1
102
RTVSPropertyOp1
 70
     1
102
RTVSPropertyOp2
 70
     1
102
RTVSPropertyOp3
 70
     1
102
RTVSPropertyOp4
 70
     1
102
RTVSPropertyOp5
 70
     1
102
RTVSPropertyOp6
 70
     1
102
RTVSPropertyOp7
 70
     1
102
RTVSPropertyOp8
 70
     1
102
RTVSPropertyOp9
 70
     1
102
RTVSPropertyOp10
 70
     1
102
RTVSPropertyOp11
 70
     1
102
RTVSPropertyOp12
 70
     1
102
RTVSPropertyOp13
 70
     1
102
RTVSPropertyOp14
 70
     1
102
RTVSPropertyOp15
 70
     1
102
RTVSPropertyOp16
 70
     1
102
RTVSPropertyOp17
 70
     1
102
RTVSPropertyOp18
 70
     1
102
RTVSPropertyOp19
 70
     1
102
RTVSPropertyOp20
 70
     1
102
RTVSPropertyOp21
 70
     1
102
RTVSPropertyOp22
 70
     1
102
RTVSPropertyOp23
 70
     1
102
RTVSPropertyOp24
 70
     1
102
RTVSPropertyOp25
 70
     1
102
RTVSPropertyOp26
 70
     1
102
RTVSPropertyOp27
 70
     1
102
RTVSPropertyOp28
 70
     1
102
RTVSPropertyOp29
 70
     1
102
RTVSPropertyOp30
 70
     1
102
RTVSPropertyOp31
 70
     1
102
RTVSPropertyOp32
 70
     1
102
RTVSPropertyOp33
 70
     1
102
RTVSPropertyOp34
 70
     1
102
RTVSPropertyOp35
 70
     1
102
RTVSPropertyOp36
 70
     1
102
RTVSPropertyOp37
 70
     1
102
RTVSPropertyOp38
 70
     1
102
RTVSPropertyOp39
 70
     1
102
RTVSPropertyOp40
 70
     1
102
RTVSPropertyOp41
 70
     1
102
RTVSPropertyOp42
 70
     1
102
RTVSPropertyOp43
 70
     1
102
RTVSPropertyOp44
 70
     1
102
RTVSPropertyOp45
 70
     1
102
RTVSPropertyOp46
 70
     1
102
RTVSPropertyOp47
 70
     1
102
RTVSPropertyOp48
 70
     1
102
RTVSPropertyOp49
 70
     1
102
RTVSPropertyOp50
 70
     1
102
RTVSPropertyOp51
 70
     0
102
RTVSPropertyOp52
 70
     0
102
RTVSPropertyOp53
 70
     1
102
RTVSPropertyOp54
 70
     1
102
RTVSPropertyOp55
 70
     1
102
RTVSPropertyOp56
 70
     1
102
RTVSPropertyOp57
 70
     1
102
RTVSPropertyOp58
 70
     1
102
RTVSPropertyOp59
 70
     1
102
RTVSPropertyOp60
 70
     1
102
RTVSPropertyOp61
 70
     1
102
RTVSPropertyOp62
 70
     1
  0
XRECORD
  5
A24C
102
{ACAD_REACTORS
330
A24B
102
}
330
A24B
100
AcDbXrecord
280
     1
102
RTVSPost2010Prop28
280
     0
102
RTVSPost2010PropOp28
 70
     1
102
RTVSPost2010Prop29
280
     1
102
RTVSPost2010PropOp29
 70
     1
102
RTVSPost2010Prop30
280
     1
102
RTVSPost2010PropOp30
 70
     1
102
RTVSPost2010Prop31
280
     0
102
RTVSPost2010PropOp31
 70
     1
102
RTVSPost2010Prop32
280
     0
102
RTVSPost2010PropOp32
 70
     1
102
RTVSPost2010Prop33
280
     0
102
RTVSPost2010PropOp33
 70
     1
102
RTVSPost2010Prop34
280
     0
102
RTVSPost2010PropOp34
 70
     1
102
RTVSPost2010Prop35
280
     0
102
RTVSPost2010PropOp35
 70
     1
102
RTVSPost2010Prop36
280
     0
102
RTVSPost2010PropOp36
 70
     1
102
RTVSPost2010Prop37
 90
       50
102
RTVSPost2010PropOp37
 70
     1
102
RTVSPost2010Prop38
140
0.0
102
RTVSPost2010PropOp38
 70
     1
102
RTVSPost2010Prop39
140
1.0
102
RTVSPost2010PropOp39
 70
     1
102
RTVSPost2010Prop40
 90
        0
102
RTVSPost2010PropOp40
 70
     1
102
RTVSPost2010Prop41ColorIndex
 90
       18
102
RTVSPost2010Prop41ColorRGB
 90
        0
102
RTVSPost2010PropOp41
 70
     1
102
RTVSPost2010Prop42
 90
       50
102
RTVSPost2010PropOp42
 70
     1
102
RTVSPost2010Prop43
 90
        3
102
RTVSPost2010PropOp43
 70
     1
102
RTVSPost2010Prop44ColorIndex
 90
        5
102
RTVSPost2010Prop44ColorRGB
 90
      255
102
RTVSPost2010PropOp44
 70
     1
102
RTVSPost2010Prop45
280
     0
102
RTVSPost2010PropOp45
 70
     1
102
RTVSPost2010Prop46
 90
       50
102
RTVSPost2010PropOp46
 70
     1
102
RTVSPost2010Prop47
 90
       50
102
RTVSPost2010PropOp47
 70
     1
102
RTVSPost2010Prop48
 90
       50
102
RTVSPost2010PropOp48
 70
     1
102
RTVSPost2010Prop49
280
     0
102
RTVSPost2010PropOp49
 70
     1
102
RTVSPost2010Prop50
 90
       50
102
RTVSPost2010PropOp50
 70
     1
102
RTVSPost2010Prop51ColorIndex
 90
      256
102
RTVSPost2010Prop51ColorRGB
 90
-16777216
102
RTVSPost2010PropOp51
 70
     0
102
RTVSPost2010Prop52
140
1.0
102
RTVSPost2010PropOp52
 70
     0
102
RTVSPost2010Prop53
 90
        2
102
RTVSPost2010PropOp53
 70
     1
102
RTVSPost2010Prop54
  1
strokes_ogs.tif
102
RTVSPost2010PropOp54
 70
     1
102
RTVSPost2010Prop55
280
     0
102
RTVSPost2010PropOp55
 70
     1
102
RTVSPost2010Prop56
140
1.0
102
RTVSPost2010PropOp56
 70
     1
102
RTVSPost2010Prop57
140
1.0
102
RTVSPost2010PropOp57
 70
     1
102
RTVSPropertyOp0
 70
     1
102
RTVSPropertyOp1
 70
     1
102
RTVSPropertyOp2
 70
     1
102
RTVSPropertyOp3
 70
     1
102
RTVSPropertyOp4
 70
     1
102
RTVSPropertyOp5
 70
     1
102
RTVSPropertyOp6
 70
     1
102
RTVSPropertyOp7
 70
     1
102
RTVSPropertyOp8
 70
     1
102
RTVSPropertyOp9
 70
     1
102
RTVSPropertyOp10
 70
     1
102
RTVSPropertyOp11
 70
     1
102
RTVSPropertyOp12
 70
     1
102
RTVSPropertyOp13
 70
     1
102
RTVSPropertyOp14
 70
     1
102
RTVSPropertyOp15
 70
     1
102
RTVSPropertyOp16
 70
     1
102
RTVSPropertyOp17
 70
     1
102
RTVSPropertyOp18
 70
     1
102
RTVSPropertyOp19
 70
     1
102
RTVSPropertyOp20
 70
     1
102
RTVSPropertyOp21
 70
     1
102
RTVSPropertyOp22
 70
     1
102
RTVSPropertyOp23
 70
     1
102
RTVSPropertyOp24
 70
     1
102
RTVSPropertyOp25
 70
     1
102
RTVSPropertyOp26
 70
     1
102
RTVSPropertyOp27
 70
     1
102
RTVSPropertyOp28
 70
     1
102
RTVSPropertyOp29
 70
     1
102
RTVSPropertyOp30
 70
     1
102
RTVSPropertyOp31
 70
     1
102
RTVSPropertyOp32
 70
     1
102
RTVSPropertyOp33
 70
     1
102
RTVSPropertyOp34
 70
     1
102
RTVSPropertyOp35
 70
     1
102
RTVSPropertyOp36
 70
     1
102
RTVSPropertyOp37
 70
     1
102
RTVSPropertyOp38
 70
     1
102
RTVSPropertyOp39
 70
     1
102
RTVSPropertyOp40
 70
     1
102
RTVSPropertyOp41
 70
     1
102
RTVSPropertyOp42
 70
     1
102
RTVSPropertyOp43
 70
     1
102
RTVSPropertyOp44
 70
     1
102
RTVSPropertyOp45
 70
     1
102
RTVSPropertyOp46
 70
     1
102
RTVSPropertyOp47
 70
     1
102
RTVSPropertyOp48
 70
     1
102
RTVSPropertyOp49
 70
     1
102
RTVSPropertyOp50
 70
     1
102
RTVSPropertyOp51
 70
     0
102
RTVSPropertyOp52
 70
     0
102
RTVSPropertyOp53
 70
     1
102
RTVSPropertyOp54
 70
     1
102
RTVSPropertyOp55
 70
     1
102
RTVSPropertyOp56
 70
     1
102
RTVSPropertyOp57
 70
     1
102
RTVSPropertyOp58
 70
     1
102
RTVSPropertyOp59
 70
     1
102
RTVSPropertyOp60
 70
     1
102
RTVSPropertyOp61
 70
     1
102
RTVSPropertyOp62
 70
     1
  0
XRECORD
  5
A268
102
{ACAD_REACTORS
330
A267
102
}
330
A267
100
AcDbXrecord
280
     1
102
RTVSPost2010Prop28
280
     0
102
RTVSPost2010PropOp28
 70
     1
102
RTVSPost2010Prop29
280
     1
102
RTVSPost2010PropOp29
 70
     1
102
RTVSPost2010Prop30
280
     1
102
RTVSPost2010PropOp30
 70
     1
102
RTVSPost2010Prop31
280
     0
102
RTVSPost2010PropOp31
 70
     1
102
RTVSPost2010Prop32
280
     0
102
RTVSPost2010PropOp32
 70
     1
102
RTVSPost2010Prop33
280
     0
102
RTVSPost2010PropOp33
 70
     1
102
RTVSPost2010Prop34
280
     0
102
RTVSPost2010PropOp34
 70
     1
102
RTVSPost2010Prop35
280
     0
102
RTVSPost2010PropOp35
 70
     1
102
RTVSPost2010Prop36
280
     0
102
RTVSPost2010PropOp36
 70
     1
102
RTVSPost2010Prop37
 90
       50
102
RTVSPost2010PropOp37
 70
     0
102
RTVSPost2010Prop38
140
0.0
102
RTVSPost2010PropOp38
 70
     0
102
RTVSPost2010Prop39
140
1.0
102
RTVSPost2010PropOp39
 70
     0
102
RTVSPost2010Prop40
 90
        0
102
RTVSPost2010PropOp40
 70
     0
102
RTVSPost2010Prop41ColorIndex
 90
       18
102
RTVSPost2010Prop41ColorRGB
 90
        0
102
RTVSPost2010PropOp41
 70
     0
102
RTVSPost2010Prop42
 90
       50
102
RTVSPost2010PropOp42
 70
     0
102
RTVSPost2010Prop43
 90
        3
102
RTVSPost2010PropOp43
 70
     0
102
RTVSPost2010Prop44ColorIndex
 90
        5
102
RTVSPost2010Prop44ColorRGB
 90
      255
102
RTVSPost2010PropOp44
 70
     0
102
RTVSPost2010Prop45
280
     0
102
RTVSPost2010PropOp45
 70
     1
102
RTVSPost2010Prop46
 90
       50
102
RTVSPost2010PropOp46
 70
     0
102
RTVSPost2010Prop47
 90
       50
102
RTVSPost2010PropOp47
 70
     0
102
RTVSPost2010Prop48
 90
       50
102
RTVSPost2010PropOp48
 70
     0
102
RTVSPost2010Prop49
280
     0
102
RTVSPost2010PropOp49
 70
     1
102
RTVSPost2010Prop50
 90
       50
102
RTVSPost2010PropOp50
 70
     0
102
RTVSPost2010Prop51ColorIndex
 90
      256
102
RTVSPost2010Prop51ColorRGB
 90
-16777216
102
RTVSPost2010PropOp51
 70
     0
102
RTVSPost2010Prop52
140
1.0
102
RTVSPost2010PropOp52
 70
     0
102
RTVSPost2010Prop53
 90
        2
102
RTVSPost2010PropOp53
 70
     0
102
RTVSPost2010Prop54
  1
strokes_ogs.tif
102
RTVSPost2010PropOp54
 70
     0
102
RTVSPost2010Prop55
280
     0
102
RTVSPost2010PropOp55
 70
     1
102
RTVSPost2010Prop56
140
1.0
102
RTVSPost2010PropOp56
 70
     0
102
RTVSPost2010Prop57
140
1.0
102
RTVSPost2010PropOp57
 70
     0
102
RTVSPropertyOp0
 70
     0
102
RTVSPropertyOp1
 70
     0
102
RTVSPropertyOp2
 70
     0
102
RTVSPropertyOp3
 70
     0
102
RTVSPropertyOp4
 70
     0
102
RTVSPropertyOp5
 70
     0
102
RTVSPropertyOp6
 70
     0
102
RTVSPropertyOp7
 70
     0
102
RTVSPropertyOp8
 70
     0
102
RTVSPropertyOp9
 70
     0
102
RTVSPropertyOp10
 70
     0
102
RTVSPropertyOp11
 70
     0
102
RTVSPropertyOp12
 70
     0
102
RTVSPropertyOp13
 70
     0
102
RTVSPropertyOp14
 70
     2
102
RTVSPropertyOp15
 70
     0
102
RTVSPropertyOp16
 70
     0
102
RTVSPropertyOp17
 70
     0
102
RTVSPropertyOp18
 70
     0
102
RTVSPropertyOp19
 70
     0
102
RTVSPropertyOp20
 70
     0
102
RTVSPropertyOp21
 70
     0
102
RTVSPropertyOp22
 70
     0
102
RTVSPropertyOp23
 70
     0
102
RTVSPropertyOp24
 70
     0
102
RTVSPropertyOp25
 70
     0
102
RTVSPropertyOp26
 70
     0
102
RTVSPropertyOp27
 70
     0
102
RTVSPropertyOp28
 70
     1
102
RTVSPropertyOp29
 70
     1
102
RTVSPropertyOp30
 70
     1
102
RTVSPropertyOp31
 70
     1
102
RTVSPropertyOp32
 70
     1
102
RTVSPropertyOp33
 70
     1
102
RTVSPropertyOp34
 70
     1
102
RTVSPropertyOp35
 70
     1
102
RTVSPropertyOp36
 70
     1
102
RTVSPropertyOp37
 70
     0
102
RTVSPropertyOp38
 70
     0
102
RTVSPropertyOp39
 70
     0
102
RTVSPropertyOp40
 70
     0
102
RTVSPropertyOp41
 70
     0
102
RTVSPropertyOp42
 70
     0
102
RTVSPropertyOp43
 70
     0
102
RTVSPropertyOp44
 70
     0
102
RTVSPropertyOp45
 70
     1
102
RTVSPropertyOp46
 70
     0
102
RTVSPropertyOp47
 70
     0
102
RTVSPropertyOp48
 70
     0
102
RTVSPropertyOp49
 70
     1
102
RTVSPropertyOp50
 70
     0
102
RTVSPropertyOp51
 70
     0
102
RTVSPropertyOp52
 70
     0
102
RTVSPropertyOp53
 70
     0
102
RTVSPropertyOp54
 70
     0
102
RTVSPropertyOp55
 70
     1
102
RTVSPropertyOp56
 70
     0
102
RTVSPropertyOp57
 70
     0
102
RTVSPropertyOp58
 70
     0
102
RTVSPropertyOp59
 70
     0
102
RTVSPropertyOp60
 70
     0
102
RTVSPropertyOp61
 70
     0
102
RTVSPropertyOp62
 70
     0
  0
XRECORD
  5
A258
102
{ACAD_REACTORS
330
A257
102
}
330
A257
100
AcDbXrecord
280
     1
102
RTVSPost2010Prop28
280
     0
102
RTVSPost2010PropOp28
 70
     1
102
RTVSPost2010Prop29
280
     1
102
RTVSPost2010PropOp29
 70
     1
102
RTVSPost2010Prop30
280
     1
102
RTVSPost2010PropOp30
 70
     1
102
RTVSPost2010Prop31
280
     0
102
RTVSPost2010PropOp31
 70
     1
102
RTVSPost2010Prop32
280
     0
102
RTVSPost2010PropOp32
 70
     1
102
RTVSPost2010Prop33
280
     0
102
RTVSPost2010PropOp33
 70
     1
102
RTVSPost2010Prop34
280
     0
102
RTVSPost2010PropOp34
 70
     1
102
RTVSPost2010Prop35
280
     0
102
RTVSPost2010PropOp35
 70
     1
102
RTVSPost2010Prop36
280
     0
102
RTVSPost2010PropOp36
 70
     1
102
RTVSPost2010Prop37
 90
       50
102
RTVSPost2010PropOp37
 70
     1
102
RTVSPost2010Prop38
140
0.0
102
RTVSPost2010PropOp38
 70
     1
102
RTVSPost2010Prop39
140
1.0
102
RTVSPost2010PropOp39
 70
     1
102
RTVSPost2010Prop40
 90
        0
102
RTVSPost2010PropOp40
 70
     1
102
RTVSPost2010Prop41ColorIndex
 90
       18
102
RTVSPost2010Prop41ColorRGB
 90
        0
102
RTVSPost2010PropOp41
 70
     1
102
RTVSPost2010Prop42
 90
       50
102
RTVSPost2010PropOp42
 70
     1
102
RTVSPost2010Prop43
 90
        3
102
RTVSPost2010PropOp43
 70
     1
102
RTVSPost2010Prop44ColorIndex
 90
        5
102
RTVSPost2010Prop44ColorRGB
 90
      255
102
RTVSPost2010PropOp44
 70
     1
102
RTVSPost2010Prop45
280
     0
102
RTVSPost2010PropOp45
 70
     1
102
RTVSPost2010Prop46
 90
       50
102
RTVSPost2010PropOp46
 70
     1
102
RTVSPost2010Prop47
 90
       50
102
RTVSPost2010PropOp47
 70
     1
102
RTVSPost2010Prop48
 90
       50
102
RTVSPost2010PropOp48
 70
     1
102
RTVSPost2010Prop49
280
     0
102
RTVSPost2010PropOp49
 70
     1
102
RTVSPost2010Prop50
 90
       50
102
RTVSPost2010PropOp50
 70
     1
102
RTVSPost2010Prop51ColorIndex
 90
      256
102
RTVSPost2010Prop51ColorRGB
 90
-16777216
102
RTVSPost2010PropOp51
 70
     0
102
RTVSPost2010Prop52
140
1.0
102
RTVSPost2010PropOp52
 70
     0
102
RTVSPost2010Prop53
 90
        2
102
RTVSPost2010PropOp53
 70
     1
102
RTVSPost2010Prop54
  1
strokes_ogs.tif
102
RTVSPost2010PropOp54
 70
     1
102
RTVSPost2010Prop55
280
     0
102
RTVSPost2010PropOp55
 70
     1
102
RTVSPost2010Prop56
140
1.0
102
RTVSPost2010PropOp56
 70
     1
102
RTVSPost2010Prop57
140
1.0
102
RTVSPost2010PropOp57
 70
     1
102
RTVSPropertyOp0
 70
     1
102
RTVSPropertyOp1
 70
     1
102
RTVSPropertyOp2
 70
     1
102
RTVSPropertyOp3
 70
     1
102
RTVSPropertyOp4
 70
     1
102
RTVSPropertyOp5
 70
     1
102
RTVSPropertyOp6
 70
     1
102
RTVSPropertyOp7
 70
     1
102
RTVSPropertyOp8
 70
     1
102
RTVSPropertyOp9
 70
     1
102
RTVSPropertyOp10
 70
     1
102
RTVSPropertyOp11
 70
     1
102
RTVSPropertyOp12
 70
     1
102
RTVSPropertyOp13
 70
     1
102
RTVSPropertyOp14
 70
     1
102
RTVSPropertyOp15
 70
     1
102
RTVSPropertyOp16
 70
     1
102
RTVSPropertyOp17
 70
     1
102
RTVSPropertyOp18
 70
     1
102
RTVSPropertyOp19
 70
     1
102
RTVSPropertyOp20
 70
     1
102
RTVSPropertyOp21
 70
     1
102
RTVSPropertyOp22
 70
     1
102
RTVSPropertyOp23
 70
     1
102
RTVSPropertyOp24
 70
     1
102
RTVSPropertyOp25
 70
     1
102
RTVSPropertyOp26
 70
     1
102
RTVSPropertyOp27
 70
     1
102
RTVSPropertyOp28
 70
     1
102
RTVSPropertyOp29
 70
     1
102
RTVSPropertyOp30
 70
     1
102
RTVSPropertyOp31
 70
     1
102
RTVSPropertyOp32
 70
     1
102
RTVSPropertyOp33
 70
     1
102
RTVSPropertyOp34
 70
     1
102
RTVSPropertyOp35
 70
     1
102
RTVSPropertyOp36
 70
     1
102
RTVSPropertyOp37
 70
     1
102
RTVSPropertyOp38
 70
     1
102
RTVSPropertyOp39
 70
     1
102
RTVSPropertyOp40
 70
     1
102
RTVSPropertyOp41
 70
     1
102
RTVSPropertyOp42
 70
     1
102
RTVSPropertyOp43
 70
     1
102
RTVSPropertyOp44
 70
     1
102
RTVSPropertyOp45
 70
     1
102
RTVSPropertyOp46
 70
     1
102
RTVSPropertyOp47
 70
     1
102
RTVSPropertyOp48
 70
     1
102
RTVSPropertyOp49
 70
     1
102
RTVSPropertyOp50
 70
     1
102
RTVSPropertyOp51
 70
     0
102
RTVSPropertyOp52
 70
     0
102
RTVSPropertyOp53
 70
     1
102
RTVSPropertyOp54
 70
     1
102
RTVSPropertyOp55
 70
     1
102
RTVSPropertyOp56
 70
     1
102
RTVSPropertyOp57
 70
     1
102
RTVSPropertyOp58
 70
     1
102
RTVSPropertyOp59
 70
     1
102
RTVSPropertyOp60
 70
     1
102
RTVSPropertyOp61
 70
     1
102
RTVSPropertyOp62
 70
     1
  0
XRECORD
  5
A26A
102
{ACAD_REACTORS
330
A269
102
}
330
A269
100
AcDbXrecord
280
     1
102
RTVSPost2010Prop28
280
     0
102
RTVSPost2010PropOp28
 70
     1
102
RTVSPost2010Prop29
280
     1
102
RTVSPost2010PropOp29
 70
     1
102
RTVSPost2010Prop30
280
     1
102
RTVSPost2010PropOp30
 70
     1
102
RTVSPost2010Prop31
280
     0
102
RTVSPost2010PropOp31
 70
     1
102
RTVSPost2010Prop32
280
     0
102
RTVSPost2010PropOp32
 70
     1
102
RTVSPost2010Prop33
280
     0
102
RTVSPost2010PropOp33
 70
     1
102
RTVSPost2010Prop34
280
     0
102
RTVSPost2010PropOp34
 70
     1
102
RTVSPost2010Prop35
280
     0
102
RTVSPost2010PropOp35
 70
     1
102
RTVSPost2010Prop36
280
     0
102
RTVSPost2010PropOp36
 70
     1
102
RTVSPost2010Prop37
 90
       50
102
RTVSPost2010PropOp37
 70
     0
102
RTVSPost2010Prop38
140
0.0
102
RTVSPost2010PropOp38
 70
     0
102
RTVSPost2010Prop39
140
1.0
102
RTVSPost2010PropOp39
 70
     0
102
RTVSPost2010Prop40
 90
        0
102
RTVSPost2010PropOp40
 70
     0
102
RTVSPost2010Prop41ColorIndex
 90
       18
102
RTVSPost2010Prop41ColorRGB
 90
        0
102
RTVSPost2010PropOp41
 70
     0
102
RTVSPost2010Prop42
 90
       50
102
RTVSPost2010PropOp42
 70
     0
102
RTVSPost2010Prop43
 90
        3
102
RTVSPost2010PropOp43
 70
     0
102
RTVSPost2010Prop44ColorIndex
 90
        5
102
RTVSPost2010Prop44ColorRGB
 90
      255
102
RTVSPost2010PropOp44
 70
     0
102
RTVSPost2010Prop45
280
     0
102
RTVSPost2010PropOp45
 70
     1
102
RTVSPost2010Prop46
 90
       50
102
RTVSPost2010PropOp46
 70
     0
102
RTVSPost2010Prop47
 90
       50
102
RTVSPost2010PropOp47
 70
     0
102
RTVSPost2010Prop48
 90
       50
102
RTVSPost2010PropOp48
 70
     0
102
RTVSPost2010Prop49
280
     0
102
RTVSPost2010PropOp49
 70
     1
102
RTVSPost2010Prop50
 90
       50
102
RTVSPost2010PropOp50
 70
     0
102
RTVSPost2010Prop51ColorIndex
 90
      256
102
RTVSPost2010Prop51ColorRGB
 90
-16777216
102
RTVSPost2010PropOp51
 70
     0
102
RTVSPost2010Prop52
140
1.0
102
RTVSPost2010PropOp52
 70
     0
102
RTVSPost2010Prop53
 90
        2
102
RTVSPost2010PropOp53
 70
     0
102
RTVSPost2010Prop54
  1
strokes_ogs.tif
102
RTVSPost2010PropOp54
 70
     0
102
RTVSPost2010Prop55
280
     0
102
RTVSPost2010PropOp55
 70
     1
102
RTVSPost2010Prop56
140
1.0
102
RTVSPost2010PropOp56
 70
     0
102
RTVSPost2010Prop57
140
1.0
102
RTVSPost2010PropOp57
 70
     0
102
RTVSPropertyOp0
 70
     0
102
RTVSPropertyOp1
 70
     0
102
RTVSPropertyOp2
 70
     0
102
RTVSPropertyOp3
 70
     0
102
RTVSPropertyOp4
 70
     0
102
RTVSPropertyOp5
 70
     0
102
RTVSPropertyOp6
 70
     0
102
RTVSPropertyOp7
 70
     0
102
RTVSPropertyOp8
 70
     0
102
RTVSPropertyOp9
 70
     0
102
RTVSPropertyOp10
 70
     0
102
RTVSPropertyOp11
 70
     0
102
RTVSPropertyOp12
 70
     0
102
RTVSPropertyOp13
 70
     0
102
RTVSPropertyOp14
 70
     2
102
RTVSPropertyOp15
 70
     0
102
RTVSPropertyOp16
 70
     0
102
RTVSPropertyOp17
 70
     0
102
RTVSPropertyOp18
 70
     0
102
RTVSPropertyOp19
 70
     0
102
RTVSPropertyOp20
 70
     0
102
RTVSPropertyOp21
 70
     0
102
RTVSPropertyOp22
 70
     0
102
RTVSPropertyOp23
 70
     0
102
RTVSPropertyOp24
 70
     0
102
RTVSPropertyOp25
 70
     0
102
RTVSPropertyOp26
 70
     0
102
RTVSPropertyOp27
 70
     0
102
RTVSPropertyOp28
 70
     1
102
RTVSPropertyOp29
 70
     1
102
RTVSPropertyOp30
 70
     1
102
RTVSPropertyOp31
 70
     1
102
RTVSPropertyOp32
 70
     1
102
RTVSPropertyOp33
 70
     1
102
RTVSPropertyOp34
 70
     1
102
RTVSPropertyOp35
 70
     1
102
RTVSPropertyOp36
 70
     1
102
RTVSPropertyOp37
 70
     0
102
RTVSPropertyOp38
 70
     0
102
RTVSPropertyOp39
 70
     0
102
RTVSPropertyOp40
 70
     0
102
RTVSPropertyOp41
 70
     0
102
RTVSPropertyOp42
 70
     0
102
RTVSPropertyOp43
 70
     0
102
RTVSPropertyOp44
 70
     0
102
RTVSPropertyOp45
 70
     1
102
RTVSPropertyOp46
 70
     0
102
RTVSPropertyOp47
 70
     0
102
RTVSPropertyOp48
 70
     0
102
RTVSPropertyOp49
 70
     1
102
RTVSPropertyOp50
 70
     0
102
RTVSPropertyOp51
 70
     0
102
RTVSPropertyOp52
 70
     0
102
RTVSPropertyOp53
 70
     0
102
RTVSPropertyOp54
 70
     0
102
RTVSPropertyOp55
 70
     1
102
RTVSPropertyOp56
 70
     0
102
RTVSPropertyOp57
 70
     0
102
RTVSPropertyOp58
 70
     0
102
RTVSPropertyOp59
 70
     0
102
RTVSPropertyOp60
 70
     0
102
RTVSPropertyOp61
 70
     0
102
RTVSPropertyOp62
 70
     0
  0
XRECORD
  5
A250
102
{ACAD_REACTORS
330
A24F
102
}
330
A24F
100
AcDbXrecord
280
     1
102
RTVSPost2010Prop28
280
     0
102
RTVSPost2010PropOp28
 70
     1
102
RTVSPost2010Prop29
280
     1
102
RTVSPost2010PropOp29
 70
     1
102
RTVSPost2010Prop30
280
     1
102
RTVSPost2010PropOp30
 70
     1
102
RTVSPost2010Prop31
280
     0
102
RTVSPost2010PropOp31
 70
     1
102
RTVSPost2010Prop32
280
     0
102
RTVSPost2010PropOp32
 70
     1
102
RTVSPost2010Prop33
280
     0
102
RTVSPost2010PropOp33
 70
     1
102
RTVSPost2010Prop34
280
     0
102
RTVSPost2010PropOp34
 70
     1
102
RTVSPost2010Prop35
280
     0
102
RTVSPost2010PropOp35
 70
     1
102
RTVSPost2010Prop36
280
     0
102
RTVSPost2010PropOp36
 70
     1
102
RTVSPost2010Prop37
 90
       50
102
RTVSPost2010PropOp37
 70
     1
102
RTVSPost2010Prop38
140
0.0
102
RTVSPost2010PropOp38
 70
     1
102
RTVSPost2010Prop39
140
1.0
102
RTVSPost2010PropOp39
 70
     1
102
RTVSPost2010Prop40
 90
        0
102
RTVSPost2010PropOp40
 70
     1
102
RTVSPost2010Prop41ColorIndex
 90
       18
102
RTVSPost2010Prop41ColorRGB
 90
        0
102
RTVSPost2010PropOp41
 70
     1
102
RTVSPost2010Prop42
 90
       50
102
RTVSPost2010PropOp42
 70
     1
102
RTVSPost2010Prop43
 90
        3
102
RTVSPost2010PropOp43
 70
     1
102
RTVSPost2010Prop44ColorIndex
 90
        5
102
RTVSPost2010Prop44ColorRGB
 90
      255
102
RTVSPost2010PropOp44
 70
     1
102
RTVSPost2010Prop45
280
     0
102
RTVSPost2010PropOp45
 70
     1
102
RTVSPost2010Prop46
 90
       50
102
RTVSPost2010PropOp46
 70
     1
102
RTVSPost2010Prop47
 90
       50
102
RTVSPost2010PropOp47
 70
     1
102
RTVSPost2010Prop48
 90
       50
102
RTVSPost2010PropOp48
 70
     1
102
RTVSPost2010Prop49
280
     0
102
RTVSPost2010PropOp49
 70
     1
102
RTVSPost2010Prop50
 90
       50
102
RTVSPost2010PropOp50
 70
     1
102
RTVSPost2010Prop51ColorIndex
 90
      256
102
RTVSPost2010Prop51ColorRGB
 90
-16777216
102
RTVSPost2010PropOp51
 70
     0
102
RTVSPost2010Prop52
140
1.0
102
RTVSPost2010PropOp52
 70
     0
102
RTVSPost2010Prop53
 90
        2
102
RTVSPost2010PropOp53
 70
     1
102
RTVSPost2010Prop54
  1
strokes_ogs.tif
102
RTVSPost2010PropOp54
 70
     1
102
RTVSPost2010Prop55
280
     0
102
RTVSPost2010PropOp55
 70
     1
102
RTVSPost2010Prop56
140
1.0
102
RTVSPost2010PropOp56
 70
     1
102
RTVSPost2010Prop57
140
1.0
102
RTVSPost2010PropOp57
 70
     1
102
RTVSPropertyOp0
 70
     1
102
RTVSPropertyOp1
 70
     1
102
RTVSPropertyOp2
 70
     1
102
RTVSPropertyOp3
 70
     1
102
RTVSPropertyOp4
 70
     1
102
RTVSPropertyOp5
 70
     1
102
RTVSPropertyOp6
 70
     1
102
RTVSPropertyOp7
 70
     1
102
RTVSPropertyOp8
 70
     1
102
RTVSPropertyOp9
 70
     1
102
RTVSPropertyOp10
 70
     1
102
RTVSPropertyOp11
 70
     1
102
RTVSPropertyOp12
 70
     1
102
RTVSPropertyOp13
 70
     1
102
RTVSPropertyOp14
 70
     1
102
RTVSPropertyOp15
 70
     1
102
RTVSPropertyOp16
 70
     1
102
RTVSPropertyOp17
 70
     1
102
RTVSPropertyOp18
 70
     1
102
RTVSPropertyOp19
 70
     1
102
RTVSPropertyOp20
 70
     1
102
RTVSPropertyOp21
 70
     1
102
RTVSPropertyOp22
 70
     1
102
RTVSPropertyOp23
 70
     1
102
RTVSPropertyOp24
 70
     1
102
RTVSPropertyOp25
 70
     1
102
RTVSPropertyOp26
 70
     1
102
RTVSPropertyOp27
 70
     1
102
RTVSPropertyOp28
 70
     1
102
RTVSPropertyOp29
 70
     1
102
RTVSPropertyOp30
 70
     1
102
RTVSPropertyOp31
 70
     1
102
RTVSPropertyOp32
 70
     1
102
RTVSPropertyOp33
 70
     1
102
RTVSPropertyOp34
 70
     1
102
RTVSPropertyOp35
 70
     1
102
RTVSPropertyOp36
 70
     1
102
RTVSPropertyOp37
 70
     1
102
RTVSPropertyOp38
 70
     1
102
RTVSPropertyOp39
 70
     1
102
RTVSPropertyOp40
 70
     1
102
RTVSPropertyOp41
 70
     1
102
RTVSPropertyOp42
 70
     1
102
RTVSPropertyOp43
 70
     1
102
RTVSPropertyOp44
 70
     1
102
RTVSPropertyOp45
 70
     1
102
RTVSPropertyOp46
 70
     1
102
RTVSPropertyOp47
 70
     1
102
RTVSPropertyOp48
 70
     1
102
RTVSPropertyOp49
 70
     1
102
RTVSPropertyOp50
 70
     1
102
RTVSPropertyOp51
 70
     0
102
RTVSPropertyOp52
 70
     0
102
RTVSPropertyOp53
 70
     1
102
RTVSPropertyOp54
 70
     1
102
RTVSPropertyOp55
 70
     1
102
RTVSPropertyOp56
 70
     1
102
RTVSPropertyOp57
 70
     1
102
RTVSPropertyOp58
 70
     1
102
RTVSPropertyOp59
 70
     1
102
RTVSPropertyOp60
 70
     1
102
RTVSPropertyOp61
 70
     1
102
RTVSPropertyOp62
 70
     1
  0
XRECORD
  5
A266
102
{ACAD_REACTORS
330
A265
102
}
330
A265
100
AcDbXrecord
280
     1
102
RTVSPost2010Prop28
280
     0
102
RTVSPost2010PropOp28
 70
     1
102
RTVSPost2010Prop29
280
     1
102
RTVSPost2010PropOp29
 70
     1
102
RTVSPost2010Prop30
280
     1
102
RTVSPost2010PropOp30
 70
     1
102
RTVSPost2010Prop31
280
     0
102
RTVSPost2010PropOp31
 70
     1
102
RTVSPost2010Prop32
280
     0
102
RTVSPost2010PropOp32
 70
     1
102
RTVSPost2010Prop33
280
     0
102
RTVSPost2010PropOp33
 70
     1
102
RTVSPost2010Prop34
280
     0
102
RTVSPost2010PropOp34
 70
     1
102
RTVSPost2010Prop35
280
     0
102
RTVSPost2010PropOp35
 70
     1
102
RTVSPost2010Prop36
280
     0
102
RTVSPost2010PropOp36
 70
     1
102
RTVSPost2010Prop37
 90
       50
102
RTVSPost2010PropOp37
 70
     1
102
RTVSPost2010Prop38
140
0.0
102
RTVSPost2010PropOp38
 70
     1
102
RTVSPost2010Prop39
140
1.0
102
RTVSPost2010PropOp39
 70
     1
102
RTVSPost2010Prop40
 90
        0
102
RTVSPost2010PropOp40
 70
     1
102
RTVSPost2010Prop41ColorIndex
 90
       18
102
RTVSPost2010Prop41ColorRGB
 90
        0
102
RTVSPost2010PropOp41
 70
     1
102
RTVSPost2010Prop42
 90
       50
102
RTVSPost2010PropOp42
 70
     1
102
RTVSPost2010Prop43
 90
        3
102
RTVSPost2010PropOp43
 70
     1
102
RTVSPost2010Prop44ColorIndex
 90
        5
102
RTVSPost2010Prop44ColorRGB
 90
      255
102
RTVSPost2010PropOp44
 70
     1
102
RTVSPost2010Prop45
280
     0
102
RTVSPost2010PropOp45
 70
     1
102
RTVSPost2010Prop46
 90
       50
102
RTVSPost2010PropOp46
 70
     1
102
RTVSPost2010Prop47
 90
       50
102
RTVSPost2010PropOp47
 70
     1
102
RTVSPost2010Prop48
 90
       50
102
RTVSPost2010PropOp48
 70
     1
102
RTVSPost2010Prop49
280
     0
102
RTVSPost2010PropOp49
 70
     1
102
RTVSPost2010Prop50
 90
       50
102
RTVSPost2010PropOp50
 70
     1
102
RTVSPost2010Prop51ColorIndex
 90
      256
102
RTVSPost2010Prop51ColorRGB
 90
-16777216
102
RTVSPost2010PropOp51
 70
     0
102
RTVSPost2010Prop52
140
1.0
102
RTVSPost2010PropOp52
 70
     0
102
RTVSPost2010Prop53
 90
        2
102
RTVSPost2010PropOp53
 70
     1
102
RTVSPost2010Prop54
  1
strokes_ogs.tif
102
RTVSPost2010PropOp54
 70
     1
102
RTVSPost2010Prop55
280
     0
102
RTVSPost2010PropOp55
 70
     1
102
RTVSPost2010Prop56
140
1.0
102
RTVSPost2010PropOp56
 70
     1
102
RTVSPost2010Prop57
140
1.0
102
RTVSPost2010PropOp57
 70
     1
102
RTVSPropertyOp0
 70
     1
102
RTVSPropertyOp1
 70
     1
102
RTVSPropertyOp2
 70
     1
102
RTVSPropertyOp3
 70
     1
102
RTVSPropertyOp4
 70
     1
102
RTVSPropertyOp5
 70
     1
102
RTVSPropertyOp6
 70
     1
102
RTVSPropertyOp7
 70
     1
102
RTVSPropertyOp8
 70
     1
102
RTVSPropertyOp9
 70
     1
102
RTVSPropertyOp10
 70
     1
102
RTVSPropertyOp11
 70
     1
102
RTVSPropertyOp12
 70
     1
102
RTVSPropertyOp13
 70
     1
102
RTVSPropertyOp14
 70
     1
102
RTVSPropertyOp15
 70
     1
102
RTVSPropertyOp16
 70
     1
102
RTVSPropertyOp17
 70
     1
102
RTVSPropertyOp18
 70
     1
102
RTVSPropertyOp19
 70
     1
102
RTVSPropertyOp20
 70
     1
102
RTVSPropertyOp21
 70
     1
102
RTVSPropertyOp22
 70
     1
102
RTVSPropertyOp23
 70
     1
102
RTVSPropertyOp24
 70
     1
102
RTVSPropertyOp25
 70
     1
102
RTVSPropertyOp26
 70
     1
102
RTVSPropertyOp27
 70
     1
102
RTVSPropertyOp28
 70
     1
102
RTVSPropertyOp29
 70
     1
102
RTVSPropertyOp30
 70
     1
102
RTVSPropertyOp31
 70
     1
102
RTVSPropertyOp32
 70
     1
102
RTVSPropertyOp33
 70
     1
102
RTVSPropertyOp34
 70
     1
102
RTVSPropertyOp35
 70
     1
102
RTVSPropertyOp36
 70
     1
102
RTVSPropertyOp37
 70
     1
102
RTVSPropertyOp38
 70
     1
102
RTVSPropertyOp39
 70
     1
102
RTVSPropertyOp40
 70
     1
102
RTVSPropertyOp41
 70
     1
102
RTVSPropertyOp42
 70
     1
102
RTVSPropertyOp43
 70
     1
102
RTVSPropertyOp44
 70
     1
102
RTVSPropertyOp45
 70
     1
102
RTVSPropertyOp46
 70
     1
102
RTVSPropertyOp47
 70
     1
102
RTVSPropertyOp48
 70
     1
102
RTVSPropertyOp49
 70
     1
102
RTVSPropertyOp50
 70
     1
102
RTVSPropertyOp51
 70
     0
102
RTVSPropertyOp52
 70
     0
102
RTVSPropertyOp53
 70
     1
102
RTVSPropertyOp54
 70
     1
102
RTVSPropertyOp55
 70
     1
102
RTVSPropertyOp56
 70
     1
102
RTVSPropertyOp57
 70
     1
102
RTVSPropertyOp58
 70
     1
102
RTVSPropertyOp59
 70
     1
102
RTVSPropertyOp60
 70
     1
102
RTVSPropertyOp61
 70
     1
102
RTVSPropertyOp62
 70
     1
  0
XRECORD
  5
A264
102
{ACAD_REACTORS
330
A263
102
}
330
A263
100
AcDbXrecord
280
     1
102
RTVSPost2010Prop28
280
     0
102
RTVSPost2010PropOp28
 70
     1
102
RTVSPost2010Prop29
280
     1
102
RTVSPost2010PropOp29
 70
     1
102
RTVSPost2010Prop30
280
     1
102
RTVSPost2010PropOp30
 70
     1
102
RTVSPost2010Prop31
280
     0
102
RTVSPost2010PropOp31
 70
     1
102
RTVSPost2010Prop32
280
     0
102
RTVSPost2010PropOp32
 70
     1
102
RTVSPost2010Prop33
280
     0
102
RTVSPost2010PropOp33
 70
     1
102
RTVSPost2010Prop34
280
     0
102
RTVSPost2010PropOp34
 70
     1
102
RTVSPost2010Prop35
280
     0
102
RTVSPost2010PropOp35
 70
     1
102
RTVSPost2010Prop36
280
     0
102
RTVSPost2010PropOp36
 70
     1
102
RTVSPost2010Prop37
 90
       50
102
RTVSPost2010PropOp37
 70
     1
102
RTVSPost2010Prop38
140
0.0
102
RTVSPost2010PropOp38
 70
     1
102
RTVSPost2010Prop39
140
1.0
102
RTVSPost2010PropOp39
 70
     1
102
RTVSPost2010Prop40
 90
        0
102
RTVSPost2010PropOp40
 70
     1
102
RTVSPost2010Prop41ColorIndex
 90
       18
102
RTVSPost2010Prop41ColorRGB
 90
        0
102
RTVSPost2010PropOp41
 70
     1
102
RTVSPost2010Prop42
 90
       50
102
RTVSPost2010PropOp42
 70
     1
102
RTVSPost2010Prop43
 90
        3
102
RTVSPost2010PropOp43
 70
     1
102
RTVSPost2010Prop44ColorIndex
 90
        5
102
RTVSPost2010Prop44ColorRGB
 90
      255
102
RTVSPost2010PropOp44
 70
     1
102
RTVSPost2010Prop45
280
     0
102
RTVSPost2010PropOp45
 70
     1
102
RTVSPost2010Prop46
 90
       50
102
RTVSPost2010PropOp46
 70
     1
102
RTVSPost2010Prop47
 90
       50
102
RTVSPost2010PropOp47
 70
     1
102
RTVSPost2010Prop48
 90
       50
102
RTVSPost2010PropOp48
 70
     1
102
RTVSPost2010Prop49
280
     0
102
RTVSPost2010PropOp49
 70
     1
102
RTVSPost2010Prop50
 90
       50
102
RTVSPost2010PropOp50
 70
     1
102
RTVSPost2010Prop51ColorIndex
 90
      256
102
RTVSPost2010Prop51ColorRGB
 90
-16777216
102
RTVSPost2010PropOp51
 70
     0
102
RTVSPost2010Prop52
140
1.0
102
RTVSPost2010PropOp52
 70
     0
102
RTVSPost2010Prop53
 90
        2
102
RTVSPost2010PropOp53
 70
     1
102
RTVSPost2010Prop54
  1
strokes_ogs.tif
102
RTVSPost2010PropOp54
 70
     1
102
RTVSPost2010Prop55
280
     0
102
RTVSPost2010PropOp55
 70
     1
102
RTVSPost2010Prop56
140
1.0
102
RTVSPost2010PropOp56
 70
     1
102
RTVSPost2010Prop57
140
1.0
102
RTVSPost2010PropOp57
 70
     1
102
RTVSPropertyOp0
 70
     1
102
RTVSPropertyOp1
 70
     1
102
RTVSPropertyOp2
 70
     1
102
RTVSPropertyOp3
 70
     1
102
RTVSPropertyOp4
 70
     1
102
RTVSPropertyOp5
 70
     1
102
RTVSPropertyOp6
 70
     1
102
RTVSPropertyOp7
 70
     1
102
RTVSPropertyOp8
 70
     1
102
RTVSPropertyOp9
 70
     1
102
RTVSPropertyOp10
 70
     1
102
RTVSPropertyOp11
 70
     1
102
RTVSPropertyOp12
 70
     1
102
RTVSPropertyOp13
 70
     1
102
RTVSPropertyOp14
 70
     1
102
RTVSPropertyOp15
 70
     1
102
RTVSPropertyOp16
 70
     1
102
RTVSPropertyOp17
 70
     1
102
RTVSPropertyOp18
 70
     1
102
RTVSPropertyOp19
 70
     1
102
RTVSPropertyOp20
 70
     1
102
RTVSPropertyOp21
 70
     1
102
RTVSPropertyOp22
 70
     1
102
RTVSPropertyOp23
 70
     1
102
RTVSPropertyOp24
 70
     1
102
RTVSPropertyOp25
 70
     1
102
RTVSPropertyOp26
 70
     1
102
RTVSPropertyOp27
 70
     1
102
RTVSPropertyOp28
 70
     1
102
RTVSPropertyOp29
 70
     1
102
RTVSPropertyOp30
 70
     1
102
RTVSPropertyOp31
 70
     1
102
RTVSPropertyOp32
 70
     1
102
RTVSPropertyOp33
 70
     1
102
RTVSPropertyOp34
 70
     1
102
RTVSPropertyOp35
 70
     1
102
RTVSPropertyOp36
 70
     1
102
RTVSPropertyOp37
 70
     1
102
RTVSPropertyOp38
 70
     1
102
RTVSPropertyOp39
 70
     1
102
RTVSPropertyOp40
 70
     1
102
RTVSPropertyOp41
 70
     1
102
RTVSPropertyOp42
 70
     1
102
RTVSPropertyOp43
 70
     1
102
RTVSPropertyOp44
 70
     1
102
RTVSPropertyOp45
 70
     1
102
RTVSPropertyOp46
 70
     1
102
RTVSPropertyOp47
 70
     1
102
RTVSPropertyOp48
 70
     1
102
RTVSPropertyOp49
 70
     1
102
RTVSPropertyOp50
 70
     1
102
RTVSPropertyOp51
 70
     0
102
RTVSPropertyOp52
 70
     0
102
RTVSPropertyOp53
 70
     1
102
RTVSPropertyOp54
 70
     1
102
RTVSPropertyOp55
 70
     1
102
RTVSPropertyOp56
 70
     1
102
RTVSPropertyOp57
 70
     1
102
RTVSPropertyOp58
 70
     1
102
RTVSPropertyOp59
 70
     1
102
RTVSPropertyOp60
 70
     1
102
RTVSPropertyOp61
 70
     1
102
RTVSPropertyOp62
 70
     1
  0
XRECORD
  5
A25E
102
{ACAD_REACTORS
330
A25D
102
}
330
A25D
100
AcDbXrecord
280
     1
102
RTVSPost2010Prop28
280
     0
102
RTVSPost2010PropOp28
 70
     1
102
RTVSPost2010Prop29
280
     1
102
RTVSPost2010PropOp29
 70
     1
102
RTVSPost2010Prop30
280
     1
102
RTVSPost2010PropOp30
 70
     1
102
RTVSPost2010Prop31
280
     0
102
RTVSPost2010PropOp31
 70
     1
102
RTVSPost2010Prop32
280
     0
102
RTVSPost2010PropOp32
 70
     1
102
RTVSPost2010Prop33
280
     0
102
RTVSPost2010PropOp33
 70
     1
102
RTVSPost2010Prop34
280
     0
102
RTVSPost2010PropOp34
 70
     1
102
RTVSPost2010Prop35
280
     0
102
RTVSPost2010PropOp35
 70
     1
102
RTVSPost2010Prop36
280
     0
102
RTVSPost2010PropOp36
 70
     1
102
RTVSPost2010Prop37
 90
       50
102
RTVSPost2010PropOp37
 70
     1
102
RTVSPost2010Prop38
140
0.0
102
RTVSPost2010PropOp38
 70
     1
102
RTVSPost2010Prop39
140
1.0
102
RTVSPost2010PropOp39
 70
     1
102
RTVSPost2010Prop40
 90
        0
102
RTVSPost2010PropOp40
 70
     1
102
RTVSPost2010Prop41ColorIndex
 90
       18
102
RTVSPost2010Prop41ColorRGB
 90
        0
102
RTVSPost2010PropOp41
 70
     1
102
RTVSPost2010Prop42
 90
       50
102
RTVSPost2010PropOp42
 70
     1
102
RTVSPost2010Prop43
 90
        3
102
RTVSPost2010PropOp43
 70
     1
102
RTVSPost2010Prop44ColorIndex
 90
        5
102
RTVSPost2010Prop44ColorRGB
 90
      255
102
RTVSPost2010PropOp44
 70
     1
102
RTVSPost2010Prop45
280
     0
102
RTVSPost2010PropOp45
 70
     1
102
RTVSPost2010Prop46
 90
       50
102
RTVSPost2010PropOp46
 70
     1
102
RTVSPost2010Prop47
 90
       50
102
RTVSPost2010PropOp47
 70
     1
102
RTVSPost2010Prop48
 90
       50
102
RTVSPost2010PropOp48
 70
     1
102
RTVSPost2010Prop49
280
     0
102
RTVSPost2010PropOp49
 70
     1
102
RTVSPost2010Prop50
 90
       50
102
RTVSPost2010PropOp50
 70
     1
102
RTVSPost2010Prop51ColorIndex
 90
      256
102
RTVSPost2010Prop51ColorRGB
 90
-16777216
102
RTVSPost2010PropOp51
 70
     0
102
RTVSPost2010Prop52
140
1.0
102
RTVSPost2010PropOp52
 70
     0
102
RTVSPost2010Prop53
 90
        2
102
RTVSPost2010PropOp53
 70
     1
102
RTVSPost2010Prop54
  1
strokes_ogs.tif
102
RTVSPost2010PropOp54
 70
     1
102
RTVSPost2010Prop55
280
     0
102
RTVSPost2010PropOp55
 70
     1
102
RTVSPost2010Prop56
140
1.0
102
RTVSPost2010PropOp56
 70
     1
102
RTVSPost2010Prop57
140
1.0
102
RTVSPost2010PropOp57
 70
     1
102
RTVSPropertyOp0
 70
     1
102
RTVSPropertyOp1
 70
     1
102
RTVSPropertyOp2
 70
     1
102
RTVSPropertyOp3
 70
     1
102
RTVSPropertyOp4
 70
     1
102
RTVSPropertyOp5
 70
     1
102
RTVSPropertyOp6
 70
     1
102
RTVSPropertyOp7
 70
     1
102
RTVSPropertyOp8
 70
     1
102
RTVSPropertyOp9
 70
     1
102
RTVSPropertyOp10
 70
     1
102
RTVSPropertyOp11
 70
     1
102
RTVSPropertyOp12
 70
     1
102
RTVSPropertyOp13
 70
     1
102
RTVSPropertyOp14
 70
     1
102
RTVSPropertyOp15
 70
     1
102
RTVSPropertyOp16
 70
     1
102
RTVSPropertyOp17
 70
     1
102
RTVSPropertyOp18
 70
     1
102
RTVSPropertyOp19
 70
     1
102
RTVSPropertyOp20
 70
     1
102
RTVSPropertyOp21
 70
     1
102
RTVSPropertyOp22
 70
     1
102
RTVSPropertyOp23
 70
     1
102
RTVSPropertyOp24
 70
     1
102
RTVSPropertyOp25
 70
     1
102
RTVSPropertyOp26
 70
     1
102
RTVSPropertyOp27
 70
     1
102
RTVSPropertyOp28
 70
     1
102
RTVSPropertyOp29
 70
     1
102
RTVSPropertyOp30
 70
     1
102
RTVSPropertyOp31
 70
     1
102
RTVSPropertyOp32
 70
     1
102
RTVSPropertyOp33
 70
     1
102
RTVSPropertyOp34
 70
     1
102
RTVSPropertyOp35
 70
     1
102
RTVSPropertyOp36
 70
     1
102
RTVSPropertyOp37
 70
     1
102
RTVSPropertyOp38
 70
     1
102
RTVSPropertyOp39
 70
     1
102
RTVSPropertyOp40
 70
     1
102
RTVSPropertyOp41
 70
     1
102
RTVSPropertyOp42
 70
     1
102
RTVSPropertyOp43
 70
     1
102
RTVSPropertyOp44
 70
     1
102
RTVSPropertyOp45
 70
     1
102
RTVSPropertyOp46
 70
     1
102
RTVSPropertyOp47
 70
     1
102
RTVSPropertyOp48
 70
     1
102
RTVSPropertyOp49
 70
     1
102
RTVSPropertyOp50
 70
     1
102
RTVSPropertyOp51
 70
     0
102
RTVSPropertyOp52
 70
     0
102
RTVSPropertyOp53
 70
     1
102
RTVSPropertyOp54
 70
     1
102
RTVSPropertyOp55
 70
     1
102
RTVSPropertyOp56
 70
     1
102
RTVSPropertyOp57
 70
     1
102
RTVSPropertyOp58
 70
     1
102
RTVSPropertyOp59
 70
     1
102
RTVSPropertyOp60
 70
     1
102
RTVSPropertyOp61
 70
     1
102
RTVSPropertyOp62
 70
     1
  0
XRECORD
  5
A260
102
{ACAD_REACTORS
330
A25F
102
}
330
A25F
100
AcDbXrecord
280
     1
102
RTVSPost2010Prop28
280
     0
102
RTVSPost2010PropOp28
 70
     1
102
RTVSPost2010Prop29
280
     1
102
RTVSPost2010PropOp29
 70
     1
102
RTVSPost2010Prop30
280
     1
102
RTVSPost2010PropOp30
 70
     1
102
RTVSPost2010Prop31
280
     0
102
RTVSPost2010PropOp31
 70
     1
102
RTVSPost2010Prop32
280
     0
102
RTVSPost2010PropOp32
 70
     1
102
RTVSPost2010Prop33
280
     0
102
RTVSPost2010PropOp33
 70
     1
102
RTVSPost2010Prop34
280
     0
102
RTVSPost2010PropOp34
 70
     1
102
RTVSPost2010Prop35
280
     0
102
RTVSPost2010PropOp35
 70
     1
102
RTVSPost2010Prop36
280
     0
102
RTVSPost2010PropOp36
 70
     1
102
RTVSPost2010Prop37
 90
       50
102
RTVSPost2010PropOp37
 70
     1
102
RTVSPost2010Prop38
140
0.0
102
RTVSPost2010PropOp38
 70
     1
102
RTVSPost2010Prop39
140
1.0
102
RTVSPost2010PropOp39
 70
     1
102
RTVSPost2010Prop40
 90
        0
102
RTVSPost2010PropOp40
 70
     1
102
RTVSPost2010Prop41ColorIndex
 90
       18
102
RTVSPost2010Prop41ColorRGB
 90
        0
102
RTVSPost2010PropOp41
 70
     1
102
RTVSPost2010Prop42
 90
       50
102
RTVSPost2010PropOp42
 70
     1
102
RTVSPost2010Prop43
 90
        3
102
RTVSPost2010PropOp43
 70
     1
102
RTVSPost2010Prop44ColorIndex
 90
        5
102
RTVSPost2010Prop44ColorRGB
 90
      255
102
RTVSPost2010PropOp44
 70
     1
102
RTVSPost2010Prop45
280
     0
102
RTVSPost2010PropOp45
 70
     1
102
RTVSPost2010Prop46
 90
       50
102
RTVSPost2010PropOp46
 70
     1
102
RTVSPost2010Prop47
 90
       50
102
RTVSPost2010PropOp47
 70
     1
102
RTVSPost2010Prop48
 90
       50
102
RTVSPost2010PropOp48
 70
     1
102
RTVSPost2010Prop49
280
     0
102
RTVSPost2010PropOp49
 70
     1
102
RTVSPost2010Prop50
 90
       50
102
RTVSPost2010PropOp50
 70
     1
102
RTVSPost2010Prop51ColorIndex
 90
      256
102
RTVSPost2010Prop51ColorRGB
 90
-16777216
102
RTVSPost2010PropOp51
 70
     0
102
RTVSPost2010Prop52
140
1.0
102
RTVSPost2010PropOp52
 70
     0
102
RTVSPost2010Prop53
 90
        2
102
RTVSPost2010PropOp53
 70
     1
102
RTVSPost2010Prop54
  1
strokes_ogs.tif
102
RTVSPost2010PropOp54
 70
     1
102
RTVSPost2010Prop55
280
     0
102
RTVSPost2010PropOp55
 70
     1
102
RTVSPost2010Prop56
140
1.0
102
RTVSPost2010PropOp56
 70
     1
102
RTVSPost2010Prop57
140
1.0
102
RTVSPost2010PropOp57
 70
     1
102
RTVSPropertyOp0
 70
     1
102
RTVSPropertyOp1
 70
     1
102
RTVSPropertyOp2
 70
     1
102
RTVSPropertyOp3
 70
     1
102
RTVSPropertyOp4
 70
     1
102
RTVSPropertyOp5
 70
     1
102
RTVSPropertyOp6
 70
     1
102
RTVSPropertyOp7
 70
     1
102
RTVSPropertyOp8
 70
     1
102
RTVSPropertyOp9
 70
     1
102
RTVSPropertyOp10
 70
     1
102
RTVSPropertyOp11
 70
     1
102
RTVSPropertyOp12
 70
     1
102
RTVSPropertyOp13
 70
     1
102
RTVSPropertyOp14
 70
     1
102
RTVSPropertyOp15
 70
     1
102
RTVSPropertyOp16
 70
     1
102
RTVSPropertyOp17
 70
     1
102
RTVSPropertyOp18
 70
     1
102
RTVSPropertyOp19
 70
     1
102
RTVSPropertyOp20
 70
     1
102
RTVSPropertyOp21
 70
     1
102
RTVSPropertyOp22
 70
     1
102
RTVSPropertyOp23
 70
     1
102
RTVSPropertyOp24
 70
     1
102
RTVSPropertyOp25
 70
     1
102
RTVSPropertyOp26
 70
     1
102
RTVSPropertyOp27
 70
     1
102
RTVSPropertyOp28
 70
     1
102
RTVSPropertyOp29
 70
     1
102
RTVSPropertyOp30
 70
     1
102
RTVSPropertyOp31
 70
     1
102
RTVSPropertyOp32
 70
     1
102
RTVSPropertyOp33
 70
     1
102
RTVSPropertyOp34
 70
     1
102
RTVSPropertyOp35
 70
     1
102
RTVSPropertyOp36
 70
     1
102
RTVSPropertyOp37
 70
     1
102
RTVSPropertyOp38
 70
     1
102
RTVSPropertyOp39
 70
     1
102
RTVSPropertyOp40
 70
     1
102
RTVSPropertyOp41
 70
     1
102
RTVSPropertyOp42
 70
     1
102
RTVSPropertyOp43
 70
     1
102
RTVSPropertyOp44
 70
     1
102
RTVSPropertyOp45
 70
     1
102
RTVSPropertyOp46
 70
     1
102
RTVSPropertyOp47
 70
     1
102
RTVSPropertyOp48
 70
     1
102
RTVSPropertyOp49
 70
     1
102
RTVSPropertyOp50
 70
     1
102
RTVSPropertyOp51
 70
     0
102
RTVSPropertyOp52
 70
     0
102
RTVSPropertyOp53
 70
     1
102
RTVSPropertyOp54
 70
     1
102
RTVSPropertyOp55
 70
     1
102
RTVSPropertyOp56
 70
     1
102
RTVSPropertyOp57
 70
     1
102
RTVSPropertyOp58
 70
     1
102
RTVSPropertyOp59
 70
     1
102
RTVSPropertyOp60
 70
     1
102
RTVSPropertyOp61
 70
     1
102
RTVSPropertyOp62
 70
     1
  0
XRECORD
  5
A256
102
{ACAD_REACTORS
330
A255
102
}
330
A255
100
AcDbXrecord
280
     1
102
RTVSPost2010Prop28
280
     0
102
RTVSPost2010PropOp28
 70
     1
102
RTVSPost2010Prop29
280
     1
102
RTVSPost2010PropOp29
 70
     1
102
RTVSPost2010Prop30
280
     1
102
RTVSPost2010PropOp30
 70
     1
102
RTVSPost2010Prop31
280
     0
102
RTVSPost2010PropOp31
 70
     1
102
RTVSPost2010Prop32
280
     0
102
RTVSPost2010PropOp32
 70
     1
102
RTVSPost2010Prop33
280
     0
102
RTVSPost2010PropOp33
 70
     1
102
RTVSPost2010Prop34
280
     0
102
RTVSPost2010PropOp34
 70
     1
102
RTVSPost2010Prop35
280
     0
102
RTVSPost2010PropOp35
 70
     1
102
RTVSPost2010Prop36
280
     0
102
RTVSPost2010PropOp36
 70
     1
102
RTVSPost2010Prop37
 90
       50
102
RTVSPost2010PropOp37
 70
     1
102
RTVSPost2010Prop38
140
0.0
102
RTVSPost2010PropOp38
 70
     1
102
RTVSPost2010Prop39
140
1.0
102
RTVSPost2010PropOp39
 70
     1
102
RTVSPost2010Prop40
 90
        0
102
RTVSPost2010PropOp40
 70
     1
102
RTVSPost2010Prop41ColorIndex
 90
       18
102
RTVSPost2010Prop41ColorRGB
 90
        0
102
RTVSPost2010PropOp41
 70
     1
102
RTVSPost2010Prop42
 90
       50
102
RTVSPost2010PropOp42
 70
     1
102
RTVSPost2010Prop43
 90
        3
102
RTVSPost2010PropOp43
 70
     1
102
RTVSPost2010Prop44ColorIndex
 90
        5
102
RTVSPost2010Prop44ColorRGB
 90
      255
102
RTVSPost2010PropOp44
 70
     1
102
RTVSPost2010Prop45
280
     0
102
RTVSPost2010PropOp45
 70
     1
102
RTVSPost2010Prop46
 90
       50
102
RTVSPost2010PropOp46
 70
     1
102
RTVSPost2010Prop47
 90
       50
102
RTVSPost2010PropOp47
 70
     1
102
RTVSPost2010Prop48
 90
       50
102
RTVSPost2010PropOp48
 70
     1
102
RTVSPost2010Prop49
280
     0
102
RTVSPost2010PropOp49
 70
     1
102
RTVSPost2010Prop50
 90
       50
102
RTVSPost2010PropOp50
 70
     1
102
RTVSPost2010Prop51ColorIndex
 90
      256
102
RTVSPost2010Prop51ColorRGB
 90
-16777216
102
RTVSPost2010PropOp51
 70
     0
102
RTVSPost2010Prop52
140
1.0
102
RTVSPost2010PropOp52
 70
     0
102
RTVSPost2010Prop53
 90
        2
102
RTVSPost2010PropOp53
 70
     1
102
RTVSPost2010Prop54
  1
strokes_ogs.tif
102
RTVSPost2010PropOp54
 70
     1
102
RTVSPost2010Prop55
280
     0
102
RTVSPost2010PropOp55
 70
     1
102
RTVSPost2010Prop56
140
1.0
102
RTVSPost2010PropOp56
 70
     1
102
RTVSPost2010Prop57
140
1.0
102
RTVSPost2010PropOp57
 70
     1
102
RTVSPropertyOp0
 70
     1
102
RTVSPropertyOp1
 70
     1
102
RTVSPropertyOp2
 70
     1
102
RTVSPropertyOp3
 70
     1
102
RTVSPropertyOp4
 70
     1
102
RTVSPropertyOp5
 70
     1
102
RTVSPropertyOp6
 70
     1
102
RTVSPropertyOp7
 70
     1
102
RTVSPropertyOp8
 70
     1
102
RTVSPropertyOp9
 70
     1
102
RTVSPropertyOp10
 70
     1
102
RTVSPropertyOp11
 70
     1
102
RTVSPropertyOp12
 70
     1
102
RTVSPropertyOp13
 70
     1
102
RTVSPropertyOp14
 70
     1
102
RTVSPropertyOp15
 70
     1
102
RTVSPropertyOp16
 70
     1
102
RTVSPropertyOp17
 70
     1
102
RTVSPropertyOp18
 70
     1
102
RTVSPropertyOp19
 70
     1
102
RTVSPropertyOp20
 70
     1
102
RTVSPropertyOp21
 70
     1
102
RTVSPropertyOp22
 70
     1
102
RTVSPropertyOp23
 70
     1
102
RTVSPropertyOp24
 70
     1
102
RTVSPropertyOp25
 70
     1
102
RTVSPropertyOp26
 70
     1
102
RTVSPropertyOp27
 70
     1
102
RTVSPropertyOp28
 70
     1
102
RTVSPropertyOp29
 70
     1
102
RTVSPropertyOp30
 70
     1
102
RTVSPropertyOp31
 70
     1
102
RTVSPropertyOp32
 70
     1
102
RTVSPropertyOp33
 70
     1
102
RTVSPropertyOp34
 70
     1
102
RTVSPropertyOp35
 70
     1
102
RTVSPropertyOp36
 70
     1
102
RTVSPropertyOp37
 70
     1
102
RTVSPropertyOp38
 70
     1
102
RTVSPropertyOp39
 70
     1
102
RTVSPropertyOp40
 70
     1
102
RTVSPropertyOp41
 70
     1
102
RTVSPropertyOp42
 70
     1
102
RTVSPropertyOp43
 70
     1
102
RTVSPropertyOp44
 70
     1
102
RTVSPropertyOp45
 70
     1
102
RTVSPropertyOp46
 70
     1
102
RTVSPropertyOp47
 70
     1
102
RTVSPropertyOp48
 70
     1
102
RTVSPropertyOp49
 70
     1
102
RTVSPropertyOp50
 70
     1
102
RTVSPropertyOp51
 70
     0
102
RTVSPropertyOp52
 70
     0
102
RTVSPropertyOp53
 70
     1
102
RTVSPropertyOp54
 70
     1
102
RTVSPropertyOp55
 70
     1
102
RTVSPropertyOp56
 70
     1
102
RTVSPropertyOp57
 70
     1
102
RTVSPropertyOp58
 70
     1
102
RTVSPropertyOp59
 70
     1
102
RTVSPropertyOp60
 70
     1
102
RTVSPropertyOp61
 70
     1
102
RTVSPropertyOp62
 70
     1
  0
XRECORD
  5
A24A
102
{ACAD_REACTORS
330
A249
102
}
330
A249
100
AcDbXrecord
280
     1
102
RTVSPost2010Prop28
280
     0
102
RTVSPost2010PropOp28
 70
     1
102
RTVSPost2010Prop29
280
     1
102
RTVSPost2010PropOp29
 70
     1
102
RTVSPost2010Prop30
280
     1
102
RTVSPost2010PropOp30
 70
     1
102
RTVSPost2010Prop31
280
     0
102
RTVSPost2010PropOp31
 70
     1
102
RTVSPost2010Prop32
280
     0
102
RTVSPost2010PropOp32
 70
     1
102
RTVSPost2010Prop33
280
     0
102
RTVSPost2010PropOp33
 70
     1
102
RTVSPost2010Prop34
280
     0
102
RTVSPost2010PropOp34
 70
     1
102
RTVSPost2010Prop35
280
     0
102
RTVSPost2010PropOp35
 70
     1
102
RTVSPost2010Prop36
280
     0
102
RTVSPost2010PropOp36
 70
     1
102
RTVSPost2010Prop37
 90
       50
102
RTVSPost2010PropOp37
 70
     1
102
RTVSPost2010Prop38
140
0.0
102
RTVSPost2010PropOp38
 70
     1
102
RTVSPost2010Prop39
140
1.0
102
RTVSPost2010PropOp39
 70
     1
102
RTVSPost2010Prop40
 90
        0
102
RTVSPost2010PropOp40
 70
     1
102
RTVSPost2010Prop41ColorIndex
 90
       18
102
RTVSPost2010Prop41ColorRGB
 90
        0
102
RTVSPost2010PropOp41
 70
     1
102
RTVSPost2010Prop42
 90
       50
102
RTVSPost2010PropOp42
 70
     1
102
RTVSPost2010Prop43
 90
        3
102
RTVSPost2010PropOp43
 70
     1
102
RTVSPost2010Prop44ColorIndex
 90
        5
102
RTVSPost2010Prop44ColorRGB
 90
      255
102
RTVSPost2010PropOp44
 70
     1
102
RTVSPost2010Prop45
280
     0
102
RTVSPost2010PropOp45
 70
     1
102
RTVSPost2010Prop46
 90
       50
102
RTVSPost2010PropOp46
 70
     1
102
RTVSPost2010Prop47
 90
       50
102
RTVSPost2010PropOp47
 70
     1
102
RTVSPost2010Prop48
 90
       50
102
RTVSPost2010PropOp48
 70
     1
102
RTVSPost2010Prop49
280
     0
102
RTVSPost2010PropOp49
 70
     1
102
RTVSPost2010Prop50
 90
       50
102
RTVSPost2010PropOp50
 70
     1
102
RTVSPost2010Prop51ColorIndex
 90
      256
102
RTVSPost2010Prop51ColorRGB
 90
-16777216
102
RTVSPost2010PropOp51
 70
     0
102
RTVSPost2010Prop52
140
1.0
102
RTVSPost2010PropOp52
 70
     0
102
RTVSPost2010Prop53
 90
        2
102
RTVSPost2010PropOp53
 70
     1
102
RTVSPost2010Prop54
  1
strokes_ogs.tif
102
RTVSPost2010PropOp54
 70
     1
102
RTVSPost2010Prop55
280
     0
102
RTVSPost2010PropOp55
 70
     1
102
RTVSPost2010Prop56
140
1.0
102
RTVSPost2010PropOp56
 70
     1
102
RTVSPost2010Prop57
140
1.0
102
RTVSPost2010PropOp57
 70
     1
102
RTVSPropertyOp0
 70
     1
102
RTVSPropertyOp1
 70
     1
102
RTVSPropertyOp2
 70
     1
102
RTVSPropertyOp3
 70
     1
102
RTVSPropertyOp4
 70
     1
102
RTVSPropertyOp5
 70
     1
102
RTVSPropertyOp6
 70
     1
102
RTVSPropertyOp7
 70
     1
102
RTVSPropertyOp8
 70
     1
102
RTVSPropertyOp9
 70
     1
102
RTVSPropertyOp10
 70
     1
102
RTVSPropertyOp11
 70
     1
102
RTVSPropertyOp12
 70
     1
102
RTVSPropertyOp13
 70
     1
102
RTVSPropertyOp14
 70
     1
102
RTVSPropertyOp15
 70
     1
102
RTVSPropertyOp16
 70
     1
102
RTVSPropertyOp17
 70
     1
102
RTVSPropertyOp18
 70
     1
102
RTVSPropertyOp19
 70
     1
102
RTVSPropertyOp20
 70
     1
102
RTVSPropertyOp21
 70
     1
102
RTVSPropertyOp22
 70
     1
102
RTVSPropertyOp23
 70
     1
102
RTVSPropertyOp24
 70
     1
102
RTVSPropertyOp25
 70
     1
102
RTVSPropertyOp26
 70
     1
102
RTVSPropertyOp27
 70
     1
102
RTVSPropertyOp28
 70
     1
102
RTVSPropertyOp29
 70
     1
102
RTVSPropertyOp30
 70
     1
102
RTVSPropertyOp31
 70
     1
102
RTVSPropertyOp32
 70
     1
102
RTVSPropertyOp33
 70
     1
102
RTVSPropertyOp34
 70
     1
102
RTVSPropertyOp35
 70
     1
102
RTVSPropertyOp36
 70
     1
102
RTVSPropertyOp37
 70
     1
102
RTVSPropertyOp38
 70
     1
102
RTVSPropertyOp39
 70
     1
102
RTVSPropertyOp40
 70
     1
102
RTVSPropertyOp41
 70
     1
102
RTVSPropertyOp42
 70
     1
102
RTVSPropertyOp43
 70
     1
102
RTVSPropertyOp44
 70
     1
102
RTVSPropertyOp45
 70
     1
102
RTVSPropertyOp46
 70
     1
102
RTVSPropertyOp47
 70
     1
102
RTVSPropertyOp48
 70
     1
102
RTVSPropertyOp49
 70
     1
102
RTVSPropertyOp50
 70
     1
102
RTVSPropertyOp51
 70
     0
102
RTVSPropertyOp52
 70
     0
102
RTVSPropertyOp53
 70
     1
102
RTVSPropertyOp54
 70
     1
102
RTVSPropertyOp55
 70
     1
102
RTVSPropertyOp56
 70
     1
102
RTVSPropertyOp57
 70
     1
102
RTVSPropertyOp58
 70
     1
102
RTVSPropertyOp59
 70
     1
102
RTVSPropertyOp60
 70
     1
102
RTVSPropertyOp61
 70
     1
102
RTVSPropertyOp62
 70
     1
  0
XRECORD
  5
A262
102
{ACAD_REACTORS
330
A261
102
}
330
A261
100
AcDbXrecord
280
     1
102
RTVSPost2010Prop28
280
     0
102
RTVSPost2010PropOp28
 70
     1
102
RTVSPost2010Prop29
280
     1
102
RTVSPost2010PropOp29
 70
     1
102
RTVSPost2010Prop30
280
     1
102
RTVSPost2010PropOp30
 70
     1
102
RTVSPost2010Prop31
280
     0
102
RTVSPost2010PropOp31
 70
     1
102
RTVSPost2010Prop32
280
     0
102
RTVSPost2010PropOp32
 70
     1
102
RTVSPost2010Prop33
280
     0
102
RTVSPost2010PropOp33
 70
     1
102
RTVSPost2010Prop34
280
     0
102
RTVSPost2010PropOp34
 70
     1
102
RTVSPost2010Prop35
280
     0
102
RTVSPost2010PropOp35
 70
     1
102
RTVSPost2010Prop36
280
     0
102
RTVSPost2010PropOp36
 70
     1
102
RTVSPost2010Prop37
 90
       50
102
RTVSPost2010PropOp37
 70
     1
102
RTVSPost2010Prop38
140
0.0
102
RTVSPost2010PropOp38
 70
     1
102
RTVSPost2010Prop39
140
1.0
102
RTVSPost2010PropOp39
 70
     1
102
RTVSPost2010Prop40
 90
        0
102
RTVSPost2010PropOp40
 70
     1
102
RTVSPost2010Prop41ColorIndex
 90
       18
102
RTVSPost2010Prop41ColorRGB
 90
        0
102
RTVSPost2010PropOp41
 70
     1
102
RTVSPost2010Prop42
 90
       50
102
RTVSPost2010PropOp42
 70
     1
102
RTVSPost2010Prop43
 90
        3
102
RTVSPost2010PropOp43
 70
     1
102
RTVSPost2010Prop44ColorIndex
 90
        5
102
RTVSPost2010Prop44ColorRGB
 90
      255
102
RTVSPost2010PropOp44
 70
     1
102
RTVSPost2010Prop45
280
     0
102
RTVSPost2010PropOp45
 70
     1
102
RTVSPost2010Prop46
 90
       50
102
RTVSPost2010PropOp46
 70
     1
102
RTVSPost2010Prop47
 90
       50
102
RTVSPost2010PropOp47
 70
     1
102
RTVSPost2010Prop48
 90
       50
102
RTVSPost2010PropOp48
 70
     1
102
RTVSPost2010Prop49
280
     0
102
RTVSPost2010PropOp49
 70
     1
102
RTVSPost2010Prop50
 90
       50
102
RTVSPost2010PropOp50
 70
     1
102
RTVSPost2010Prop51ColorIndex
 90
      256
102
RTVSPost2010Prop51ColorRGB
 90
-16777216
102
RTVSPost2010PropOp51
 70
     0
102
RTVSPost2010Prop52
140
1.0
102
RTVSPost2010PropOp52
 70
     0
102
RTVSPost2010Prop53
 90
        2
102
RTVSPost2010PropOp53
 70
     1
102
RTVSPost2010Prop54
  1
strokes_ogs.tif
102
RTVSPost2010PropOp54
 70
     1
102
RTVSPost2010Prop55
280
     0
102
RTVSPost2010PropOp55
 70
     1
102
RTVSPost2010Prop56
140
1.0
102
RTVSPost2010PropOp56
 70
     1
102
RTVSPost2010Prop57
140
1.0
102
RTVSPost2010PropOp57
 70
     1
102
RTVSPropertyOp0
 70
     1
102
RTVSPropertyOp1
 70
     1
102
RTVSPropertyOp2
 70
     1
102
RTVSPropertyOp3
 70
     1
102
RTVSPropertyOp4
 70
     1
102
RTVSPropertyOp5
 70
     1
102
RTVSPropertyOp6
 70
     1
102
RTVSPropertyOp7
 70
     1
102
RTVSPropertyOp8
 70
     1
102
RTVSPropertyOp9
 70
     1
102
RTVSPropertyOp10
 70
     1
102
RTVSPropertyOp11
 70
     1
102
RTVSPropertyOp12
 70
     1
102
RTVSPropertyOp13
 70
     1
102
RTVSPropertyOp14
 70
     1
102
RTVSPropertyOp15
 70
     1
102
RTVSPropertyOp16
 70
     1
102
RTVSPropertyOp17
 70
     1
102
RTVSPropertyOp18
 70
     1
102
RTVSPropertyOp19
 70
     1
102
RTVSPropertyOp20
 70
     1
102
RTVSPropertyOp21
 70
     1
102
RTVSPropertyOp22
 70
     1
102
RTVSPropertyOp23
 70
     1
102
RTVSPropertyOp24
 70
     1
102
RTVSPropertyOp25
 70
     1
102
RTVSPropertyOp26
 70
     1
102
RTVSPropertyOp27
 70
     1
102
RTVSPropertyOp28
 70
     1
102
RTVSPropertyOp29
 70
     1
102
RTVSPropertyOp30
 70
     1
102
RTVSPropertyOp31
 70
     1
102
RTVSPropertyOp32
 70
     1
102
RTVSPropertyOp33
 70
     1
102
RTVSPropertyOp34
 70
     1
102
RTVSPropertyOp35
 70
     1
102
RTVSPropertyOp36
 70
     1
102
RTVSPropertyOp37
 70
     1
102
RTVSPropertyOp38
 70
     1
102
RTVSPropertyOp39
 70
     1
102
RTVSPropertyOp40
 70
     1
102
RTVSPropertyOp41
 70
     1
102
RTVSPropertyOp42
 70
     1
102
RTVSPropertyOp43
 70
     1
102
RTVSPropertyOp44
 70
     1
102
RTVSPropertyOp45
 70
     1
102
RTVSPropertyOp46
 70
     1
102
RTVSPropertyOp47
 70
     1
102
RTVSPropertyOp48
 70
     1
102
RTVSPropertyOp49
 70
     1
102
RTVSPropertyOp50
 70
     1
102
RTVSPropertyOp51
 70
     0
102
RTVSPropertyOp52
 70
     0
102
RTVSPropertyOp53
 70
     1
102
RTVSPropertyOp54
 70
     1
102
RTVSPropertyOp55
 70
     1
102
RTVSPropertyOp56
 70
     1
102
RTVSPropertyOp57
 70
     1
102
RTVSPropertyOp58
 70
     1
102
RTVSPropertyOp59
 70
     1
102
RTVSPropertyOp60
 70
     1
102
RTVSPropertyOp61
 70
     1
102
RTVSPropertyOp62
 70
     1
  0
ENDSEC
  0
EOF
