  0
SECTION
  2
HEADER
  9
$ACADVER
  1
AC1015
  9
$ACADMAINTVER
 70
    20
  9
$DWGCODEPAGE
  3
ANSI_932
  9
$INSBASE
 10
0.0
 20
0.0
 30
0.0
  9
$EXTMIN
 10
10.0
 20
9.999999999999998
 30
0.0
  9
$EXTMAX
 10
359.553786
 20
258.8449409999999
 30
0.0
  9
$LIMMIN
 10
0.0
 20
0.0
  9
$LIMMAX
 10
396.0
 20
273.0
  9
$ORTHOMODE
 70
     0
  9
$REGENMODE
 70
     1
  9
$FILLMODE
 70
     1
  9
$QTEXTMODE
 70
     0
  9
$MIRRTEXT
 70
     1
  9
$LTSCALE
 40
20.0
  9
$ATTMODE
 70
     1
  9
$TEXTSIZE
 40
5.0
  9
$TRACEWID
 40
1.0
  9
$TEXTSTYLE
  7
STANDARD
  9
$CLAYER
  8
0
  9
$CELTYPE
  6
BYLAYER
  9
$CECOLOR
 62
   256
  9
$CELTSCALE
 40
1.0
  9
$DISPSILH
 70
     0
  9
$DIMSCALE
 40
1.0
  9
$DIMASZ
 40
2.5
  9
$DIMEXO
 40
1.0
  9
$DIMDLI
 40
10.0
  9
$DIMRND
 40
0.0
  9
$DIMDLE
 40
0.0
  9
$DIMEXE
 40
1.0
  9
$DIMTP
 40
0.0
  9
$DIMTM
 40
0.0
  9
$DIMTXT
 40
3.2
  9
$DIMCEN
 40
0.0
  9
$DIMTSZ
 40
0.0
  9
$DIMTOL
 70
     0
  9
$DIMLIM
 70
     0
  9
$DIMTIH
 70
     0
  9
$DIMTOH
 70
     0
  9
$DIMSE1
 70
     0
  9
$DIMSE2
 70
     0
  9
$DIMTAD
 70
     3
  9
$DIMZIN
 70
     8
  9
$DIMBLK
  1

  9
$DIMASO
 70
     1
  9
$DIMSHO
 70
     1
  9
$DIMPOST
  1

  9
$DIMAPOST
  1

  9
$DIMALT
 70
     0
  9
$DIMALTD
 70
     2
  9
$DIMALTF
 40
25.4
  9
$DIMLFAC
 40
1.0
  9
$DIMTOFL
 70
     1
  9
$DIMTVP
 40
0.0
  9
$DIMTIX
 70
     0
  9
$DIMSOXD
 70
     0
  9
$DIMSAH
 70
     1
  9
$DIMBLK1
  1

  9
$DIMBLK2
  1

  9
$DIMSTYLE
  2
STANDARD
  9
$DIMCLRD
 70
     0
  9
$DIMCLRE
 70
     0
  9
$DIMCLRT
 70
     0
  9
$DIMTFAC
 40
1.0
  9
$DIMGAP
 40
1.0
  9
$DIMJUST
 70
     0
  9
$DIMSD1
 70
     0
  9
$DIMSD2
 70
     0
  9
$DIMTOLJ
 70
     1
  9
$DIMTZIN
 70
     0
  9
$DIMALTZ
 70
     0
  9
$DIMALTTZ
 70
     0
  9
$DIMUPT
 70
     0
  9
$DIMDEC
 70
     4
  9
$DIMTDEC
 70
     4
  9
$DIMALTU
 70
     2
  9
$DIMALTTD
 70
     2
  9
$DIMTXSTY
  7
STANDARD
  9
$DIMAUNIT
 70
     0
  9
$DIMADEC
 70
     0
  9
$DIMALTRND
 40
0.0
  9
$DIMAZIN
 70
     0
  9
$DIMDSEP
 70
    46
  9
$DIMATFIT
 70
     3
  9
$DIMFRAC
 70
     0
  9
$DIMLDRBLK
  1

  9
$DIMLUNIT
 70
     2
  9
$DIMLWD
 70
    -2
  9
$DIMLWE
 70
    -2
  9
$DIMTMOVE
 70
     0
  9
$LUNITS
 70
     2
  9
$LUPREC
 70
     4
  9
$SKETCHINC
 40
1.0
  9
$FILLETRAD
 40
5.0
  9
$AUNITS
 70
     0
  9
$AUPREC
 70
     2
  9
$MENU
  1
.
  9
$ELEVATION
 40
0.0
  9
$PELEVATION
 40
0.0
  9
$THICKNESS
 40
0.0
  9
$LIMCHECK
 70
     0
  9
$CHAMFERA
 40
10.0
  9
$CHAMFERB
 40
10.0
  9
$CHAMFERC
 40
0.0
  9
$CHAMFERD
 40
0.0
  9
$SKPOLY
 70
     0
  9
$TDCREATE
 40
2451301.446321528
  9
$TDUCREATE
 40
2451301.071321528
  9
$TDUPDATE
 40
2457192.690267859
  9
$TDUUPDATE
 40
2457192.315267859
  9
$TDINDWG
 40
0.1581314468
  9
$TDUSRTIMER
 40
0.1581311227
  9
$USRTIMER
 70
     1
  9
$ANGBASE
 50
0.0
  9
$ANGDIR
 70
     0
  9
$PDMODE
 70
     0
  9
$PDSIZE
 40
0.0
  9
$PLINEWID
 40
0.0
  9
$SPLFRAME
 70
     0
  9
$SPLINETYPE
 70
     6
  9
$SPLINESEGS
 70
     8
  9
$HANDSEED
  5
9E5D
  9
$SURFTAB1
 70
     6
  9
$SURFTAB2
 70
     6
  9
$SURFTYPE
 70
     6
  9
$SURFU
 70
     6
  9
$SURFV
 70
     6
  9
$UCSBASE
  2

  9
$UCSNAME
  2

  9
$UCSORG
 10
0.0
 20
0.0
 30
0.0
  9
$UCSXDIR
 10
1.0
 20
0.0
 30
0.0
  9
$UCSYDIR
 10
0.0
 20
1.0
 30
0.0
  9
$UCSORTHOREF
  2

  9
$UCSORTHOVIEW
 70
     0
  9
$UCSORGTOP
 10
0.0
 20
0.0
 30
0.0
  9
$UCSORGBOTTOM
 10
0.0
 20
0.0
 30
0.0
  9
$UCSORGLEFT
 10
0.0
 20
0.0
 30
0.0
  9
$UCSORGRIGHT
 10
0.0
 20
0.0
 30
0.0
  9
$UCSORGFRONT
 10
0.0
 20
0.0
 30
0.0
  9
$UCSORGBACK
 10
0.0
 20
0.0
 30
0.0
  9
$PUCSBASE
  2

  9
$PUCSNAME
  2

  9
$PUCSORG
 10
0.0
 20
0.0
 30
0.0
  9
$PUCSXDIR
 10
1.0
 20
0.0
 30
0.0
  9
$PUCSYDIR
 10
0.0
 20
1.0
 30
0.0
  9
$PUCSORTHOREF
  2

  9
$PUCSORTHOVIEW
 70
     0
  9
$PUCSORGTOP
 10
0.0
 20
0.0
 30
0.0
  9
$PUCSORGBOTTOM
 10
0.0
 20
0.0
 30
0.0
  9
$PUCSORGLEFT
 10
0.0
 20
0.0
 30
0.0
  9
$PUCSORGRIGHT
 10
0.0
 20
0.0
 30
0.0
  9
$PUCSORGFRONT
 10
0.0
 20
0.0
 30
0.0
  9
$PUCSORGBACK
 10
0.0
 20
0.0
 30
0.0
  9
$USERI1
 70
     0
  9
$USERI2
 70
     0
  9
$USERI3
 70
     0
  9
$USERI4
 70
     0
  9
$USERI5
 70
     0
  9
$USERR1
 40
0.0
  9
$USERR2
 40
0.0
  9
$USERR3
 40
0.0
  9
$USERR4
 40
0.0
  9
$USERR5
 40
0.0
  9
$WORLDVIEW
 70
     1
  9
$SHADEDGE
 70
     3
  9
$SHADEDIF
 70
    70
  9
$TILEMODE
 70
     1
  9
$MAXACTVP
 70
    16
  9
$PINSBASE
 10
0.0
 20
0.0
 30
0.0
  9
$PLIMCHECK
 70
     0
  9
$PEXTMIN
 10
1.000000000000000E+20
 20
1.000000000000000E+20
 30
1.000000000000000E+20
  9
$PEXTMAX
 10
-1.000000000000000E+20
 20
-1.000000000000000E+20
 30
-1.000000000000000E+20
  9
$PLIMMIN
 10
0.0
 20
0.0
  9
$PLIMMAX
 10
420.0
 20
297.0
  9
$UNITMODE
 70
     0
  9
$VISRETAIN
 70
     0
  9
$PLINEGEN
 70
     0
  9
$PSLTSCALE
 70
     0
  9
$TREEDEPTH
 70
  3020
  9
$CMLSTYLE
  2
STANDARD
  9
$CMLJUST
 70
     0
  9
$CMLSCALE
 40
1.0
  9
$PROXYGRAPHICS
 70
     1
  9
$MEASUREMENT
 70
     0
  9
$CELWEIGHT
370
    -1
  9
$ENDCAPS
280
     0
  9
$JOINSTYLE
280
     0
  9
$LWDISPLAY
290
     0
  9
$INSUNITS
 70
     0
  9
$HYPERLINKBASE
  1

  9
$STYLESHEET
  1

  9
$XEDIT
290
     1
  9
$CEPSNTYPE
380
     0
  9
$PSTYLEMODE
290
     1
  9
$FINGERPRINTGUID
  2
{EB2FB7C0-D309-468F-86DF-902AF5D66AF8}
  9
$VERSIONGUID
  2
{FDB49230-27F9-43E6-B1E1-2A56DE3D91F9}
  9
$EXTNAMES
290
     1
  9
$PSVPSCALE
 40
0.0
  9
$OLESTARTUP
290
     0
  0
ENDSEC
  0
SECTION
  2
CLASSES
  0
CLASS
  1
ACDBDICTIONARYWDFLT
  2
AcDbDictionaryWithDefault
  3
ObjectDBX Classes
 90
        0
280
     0
281
     0
  0
CLASS
  1
ACDBPLACEHOLDER
  2
AcDbPlaceHolder
  3
ObjectDBX Classes
 90
        0
280
     0
281
     0
  0
CLASS
  1
LAYOUT
  2
AcDbLayout
  3
ObjectDBX Classes
 90
        0
280
     0
281
     0
  0
CLASS
  1
DICTIONARYVAR
  2
AcDbDictionaryVar
  3
ObjectDBX Classes
 90
        0
280
     0
281
     0
  0
CLASS
  1
MATERIAL
  2
AcDbMaterial
  3
ObjectDBX Classes
 90
     1153
280
     0
281
     0
  0
CLASS
  1
VISUALSTYLE
  2
AcDbVisualStyle
  3
ObjectDBX Classes
 90
     4095
280
     0
281
     0
  0
CLASS
  1
TABLESTYLE
  2
AcDbTableStyle
  3
ObjectDBX Classes
 90
     4095
280
     0
281
     0
  0
CLASS
  1
SCALE
  2
AcDbScale
  3
ObjectDBX Classes
 90
     1153
280
     0
281
     0
  0
CLASS
  1
MLEADERSTYLE
  2
AcDbMLeaderStyle
  3
ACDB_MLEADERSTYLE_CLASS
 90
     4095
280
     0
281
     0
  0
CLASS
  1
ACDBSECTIONVIEWSTYLE
  2
AcDbSectionViewStyle
  3
ObjectDBX Classes
 90
     1025
280
     0
281
     0
  0
CLASS
  1
ACDBDETAILVIEWSTYLE
  2
AcDbDetailViewStyle
  3
ObjectDBX Classes
 90
     1025
280
     0
281
     0
  0
CLASS
  1
CELLSTYLEMAP
  2
AcDbCellStyleMap
  3
ObjectDBX Classes
 90
     1152
280
     0
281
     0
  0
ENDSEC
  0
SECTION
  2
TABLES
  0
TABLE
  2
VPORT
  5
9B91
330
0
100
AcDbSymbolTable
 70
     1
  0
VPORT
  5
9DA8
330
9B91
100
AcDbSymbolTableRecord
100
AcDbViewportTableRecord
  2
*ACTIVE
 70
     0
 10
0.0
 20
0.0
 11
1.0
 21
1.0
 12
280.5664653163767
 22
134.4171759261715
 13
0.0
 23
0.0
 14
10.0
 24
10.0
 15
10.0
 25
10.0
 16
0.0
 26
0.0
 36
1.0
 17
0.0
 27
0.0
 37
0.0
 40
250.8205477782599
 41
2.35006605019815
 42
50.0
 43
0.0
 44
0.0
 50
0.0
 51
0.0
 71
     0
 72
   100
 73
     1
 74
     0
 75
     0
 76
     0
 77
     0
 78
     0
281
     0
 65
     1
110
0.0
120
0.0
130
0.0
111
1.0
121
0.0
131
0.0
112
0.0
122
1.0
132
0.0
 79
     0
146
0.0
1001
ACAD_NAV_VCDISPLAY
1070
     3
  0
ENDTAB
  0
TABLE
  2
LTYPE
  5
9B8E
330
0
100
AcDbSymbolTable
 70
     4
  0
LTYPE
  5
9B9C
330
9B8E
100
AcDbSymbolTableRecord
100
AcDbLinetypeTableRecord
  2
BYBLOCK
 70
     0
  3

 72
    65
 73
     0
 40
0.0
  0
LTYPE
  5
9B9D
330
9B8E
100
AcDbSymbolTableRecord
100
AcDbLinetypeTableRecord
  2
BYLAYER
 70
     0
  3

 72
    65
 73
     0
 40
0.0
  0
LTYPE
  5
9B9E
330
9B8E
100
AcDbSymbolTableRecord
100
AcDbLinetypeTableRecord
  2
CONTINUOUS
 70
     0
  3
Solid line
 72
    65
 73
     0
 40
0.0
  0
LTYPE
  5
9BAC
330
9B8E
100
AcDbSymbolTableRecord
100
AcDbLinetypeTableRecord
  2
DASHED
 70
     0
  3
__ __ __ __ __ __ __ __ __ __ __ __ __ __ __ __
 72
    65
 73
     2
 40
0.75
 49
0.5
 74
     0
 49
-0.25
 74
     0
  0
LTYPE
  5
9BAD
330
9B8E
100
AcDbSymbolTableRecord
100
AcDbLinetypeTableRecord
  2
CENTER
 70
     0
  3
____ _ ____ _ ____ _ ____ _ ____ _ ____ _ ____ 
 72
    65
 73
     4
 40
2.0
 49
1.25
 74
     0
 49
-0.25
 74
     0
 49
0.25
 74
     0
 49
-0.25
 74
     0
  0
LTYPE
  5
9BAE
330
9B8E
100
AcDbSymbolTableRecord
100
AcDbLinetypeTableRecord
  2
PHANTOM
 70
     0
  3
______  __  __  ______  __  __  ______  __  __ 
 72
    65
 73
     6
 40
2.5
 49
1.25
 74
     0
 49
-0.25
 74
     0
 49
0.25
 74
     0
 49
-0.25
 74
     0
 49
0.25
 74
     0
 49
-0.25
 74
     0
  0
ENDTAB
  0
TABLE
  2
LAYER
  5
9B8B
330
0
100
AcDbSymbolTable
 70
     8
  0
LAYER
  5
9B99
102
{ACAD_XDICTIONARY
360
9E01
102
}
330
9B8B
100
AcDbSymbolTableRecord
100
AcDbLayerTableRecord
  2
0
 70
     0
 62
     7
  6
CONTINUOUS
370
    -3
390
9DAF
  0
LAYER
  5
9BAF
102
{ACAD_XDICTIONARY
360
9E03
102
}
330
9B8B
100
AcDbSymbolTableRecord
100
AcDbLayerTableRecord
  2
4
 70
     0
 62
     1
  6
CENTER
370
    -3
390
9DAF
  0
LAYER
  5
9BB0
102
{ACAD_XDICTIONARY
360
9E05
102
}
330
9B8B
100
AcDbSymbolTableRecord
100
AcDbLayerTableRecord
  2
5
 70
     0
 62
     6
  6
PHANTOM
370
    -3
390
9DAF
  0
LAYER
  5
9BB1
102
{ACAD_XDICTIONARY
360
9E07
102
}
330
9B8B
100
AcDbSymbolTableRecord
100
AcDbLayerTableRecord
  2
1
 70
     0
 62
     7
  6
CONTINUOUS
370
    -3
390
9DAF
  0
LAYER
  5
9BB2
102
{ACAD_XDICTIONARY
360
9E09
102
}
330
9B8B
100
AcDbSymbolTableRecord
100
AcDbLayerTableRecord
  2
2
 70
     0
 62
     4
  6
CONTINUOUS
370
    -3
390
9DAF
  0
LAYER
  5
9BB3
102
{ACAD_XDICTIONARY
360
9E0B
102
}
330
9B8B
100
AcDbSymbolTableRecord
100
AcDbLayerTableRecord
  2
3
 70
     0
 62
     2
  6
DASHED
370
    -3
390
9DAF
  0
LAYER
  5
9BB4
102
{ACAD_XDICTIONARY
360
9E0D
102
}
330
9B8B
100
AcDbSymbolTableRecord
100
AcDbLayerTableRecord
  2
6
 70
     0
 62
     5
  6
CONTINUOUS
370
    -3
390
9DAF
  0
LAYER
  5
9BB5
102
{ACAD_XDICTIONARY
360
9E0F
102
}
330
9B8B
100
AcDbSymbolTableRecord
100
AcDbLayerTableRecord
  2
7
 70
     0
 62
     3
  6
CONTINUOUS
370
    -3
390
9DAF
  0
ENDTAB
  0
TABLE
  2
STYLE
  5
9B8C
330
0
100
AcDbSymbolTable
 70
     1
  0
STYLE
  5
9B9A
330
9B8C
100
AcDbSymbolTableRecord
100
AcDbTextStyleTableRecord
  2
STANDARD
 70
     0
 40
0.0
 41
1.0
 50
0.0
 71
     0
 42
5.0
  3
txt
  4

  0
ENDTAB
  0
TABLE
  2
VIEW
  5
9B8F
330
0
100
AcDbSymbolTable
 70
     0
  0
ENDTAB
  0
TABLE
  2
UCS
  5
9B90
330
0
100
AcDbSymbolTable
 70
     0
  0
ENDTAB
  0
TABLE
  2
APPID
  5
9B92
330
0
100
AcDbSymbolTable
 70
     3
  0
APPID
  5
9B9B
330
9B92
100
AcDbSymbolTableRecord
100
AcDbRegAppTableRecord
  2
ACAD
 70
     0
  0
APPID
  5
9E1B
330
9B92
100
AcDbSymbolTableRecord
100
AcDbRegAppTableRecord
  2
ACAD_NAV_VCDISPLAY
 70
     0
  0
APPID
  5
9E54
330
9B92
100
AcDbSymbolTableRecord
100
AcDbRegAppTableRecord
  2
ACAD_MLEADERVER
 70
     0
  0
ENDTAB
  0
TABLE
  2
DIMSTYLE
  5
9B93
330
0
100
AcDbSymbolTable
 70
     1
100
AcDbDimStyleTable
 71
     0
  0
DIMSTYLE
105
9BB7
330
9B93
100
AcDbSymbolTableRecord
100
AcDbDimStyleTableRecord
  2
STANDARD
 70
     0
 41
2.5
 42
1.0
 43
10.0
 44
1.0
 73
     0
 74
     0
 77
     3
 78
     8
140
3.2
141
0.0
147
1.0
172
     1
173
     1
284
     8
285
     8
286
     8
340
9B9A
  0
ENDTAB
  0
TABLE
  2
BLOCK_RECORD
  5
9B8A
330
0
100
AcDbSymbolTable
 70
     0
  0
BLOCK_RECORD
  5
9BA7
102
{ACAD_XDICTIONARY
360
9D8C
102
}
330
9B8A
100
AcDbSymbolTableRecord
100
AcDbBlockTableRecord
  2
*MODEL_SPACE
340
9DFD
  0
BLOCK_RECORD
  5
9BA3
102
{ACAD_XDICTIONARY
360
9D8A
102
}
330
9B8A
100
AcDbSymbolTableRecord
100
AcDbBlockTableRecord
  2
*PAPER_SPACE
340
9DFE
  0
ENDTAB
  0
ENDSEC
  0
SECTION
  2
BLOCKS
  0
BLOCK
  5
9BA8
330
9BA7
100
AcDbEntity
  8
0
100
AcDbBlockBegin
  2
*MODEL_SPACE
 70
     0
 10
0.0
 20
0.0
 30
0.0
  3
*MODEL_SPACE
  1

  0
ENDBLK
  5
9BA9
330
9BA7
100
AcDbEntity
  8
0
100
AcDbBlockEnd
  0
BLOCK
  5
9BA4
330
9BA3
100
AcDbEntity
 67
     1
  8
0
100
AcDbBlockBegin
  2
*PAPER_SPACE
 70
     0
 10
0.0
 20
0.0
 30
0.0
  3
*PAPER_SPACE
  1

  0
ENDBLK
  5
9BA5
330
9BA3
100
AcDbEntity
 67
     1
  8
0
100
AcDbBlockEnd
  0
ENDSEC
  0
SECTION
  2
ENTITIES
  0
TEXT
  5
9BBF
330
9BA7
100
AcDbEntity
  8
7
  6
Continuous
100
AcDbText
 10
10.0
 20
18.0
 30
0.0
 40
3.0
  1
TYPE No.TCA-420E-N40
100
AcDbText
  0
TEXT
  5
9BC0
330
9BA7
100
AcDbEntity
  8
7
  6
Continuous
100
AcDbText
 10
10.0
 20
26.0
 30
0.0
 40
3.0
  1
CODE No.9744
100
AcDbText
  0
TEXT
  5
9BC1
330
9BA7
100
AcDbEntity
  8
1
  6
Continuous
100
AcDbText
 10
10.0
 20
10.0
 30
0.0
 40
1.399999999999999
  1
LAYER
100
AcDbText
  0
TEXT
  5
9BC2
330
9BA7
100
AcDbEntity
  8
1
  6
Continuous
100
AcDbText
 10
17.97951099999998
 20
10.04873699999998
 30
0.0
 40
1.399999999999999
  1
1
100
AcDbText
  0
TEXT
  5
9BC3
330
9BA7
100
AcDbEntity
  8
7
  6
Continuous
100
AcDbText
 10
29.97951099999999
 20
10.04873699999998
 30
0.0
 40
1.399999999999999
  1
7
100
AcDbText
  0
TEXT
  5
9BC4
330
9BA7
100
AcDbEntity
  8
4
  6
CENTER
100
AcDbText
 10
23.97951099999999
 20
10.04873699999998
 30
0.0
 40
1.399999999999999
  1
4
100
AcDbText
  0
TEXT
  5
9BC5
330
9BA7
100
AcDbEntity
  8
3
  6
DASHED
100
AcDbText
 10
21.979511
 20
10.04873699999998
 30
0.0
 40
1.399999999999999
  1
3
100
AcDbText
  0
TEXT
  5
9BC6
330
9BA7
100
AcDbEntity
  8
2
  6
Continuous
100
AcDbText
 10
19.97951099999998
 20
10.04873699999998
 30
0.0
 40
1.399999999999999
  1
2
100
AcDbText
  0
TEXT
  5
9BC7
330
9BA7
100
AcDbEntity
  8
6
  6
Continuous
100
AcDbText
 10
27.979511
 20
10.04873699999998
 30
0.0
 40
1.399999999999999
  1
6
100
AcDbText
  0
TEXT
  5
9BC8
330
9BA7
100
AcDbEntity
  8
5
  6
PHANTOM
100
AcDbText
 10
25.97951099999999
 20
10.04873699999998
 30
0.0
 40
1.399999999999999
  1
5
100
AcDbText
  0
LINE
  5
9BC9
330
9BA7
100
AcDbEntity
  8
4
  6
CENTER
 48
0.5
100
AcDbLine
 10
98.55378600000001
 20
236.344941
 30
0.0
 11
174.053786
 21
236.344941
 31
0.0
  0
LINE
  5
9BCA
330
9BA7
100
AcDbEntity
  8
4
  6
CENTER
 48
0.5
100
AcDbLine
 10
143.5537859999998
 20
258.8449409999999
 30
0.0
 11
143.5537859999998
 21
213.844941
 31
0.0
  0
LINE
  5
9BCB
330
9BA7
100
AcDbEntity
  8
1
  6
Continuous
100
AcDbLine
 10
118.053786
 20
245.844941
 30
0.0
 11
118.053786
 21
226.844941
 31
0.0
  0
LINE
  5
9BCC
330
9BA7
100
AcDbEntity
  8
1
  6
Continuous
100
AcDbLine
 10
169.053786
 20
245.844941
 30
0.0
 11
169.053786
 21
226.844941
 31
0.0
  0
LINE
  5
9BCD
330
9BA7
100
AcDbEntity
  8
1
  6
Continuous
100
AcDbLine
 10
124.053786
 20
220.844941
 30
0.0
 11
163.053786
 21
220.844941
 31
0.0
  0
LINE
  5
9BCE
330
9BA7
100
AcDbEntity
  8
1
  6
Continuous
100
AcDbLine
 10
124.053786
 20
251.844941
 30
0.0
 11
163.053786
 21
251.844941
 31
0.0
  0
LINE
  5
9BCF
330
9BA7
100
AcDbEntity
  8
4
  6
CENTER
 48
0.5
100
AcDbLine
 10
167.553786
 20
246.3449409999999
 30
0.0
 11
159.553786
 21
246.3449409999999
 31
0.0
  0
LINE
  5
9BD0
330
9BA7
100
AcDbEntity
  8
4
  6
CENTER
 48
0.5
100
AcDbLine
 10
163.553786
 20
250.3449409999999
 30
0.0
 11
163.553786
 21
242.3449409999999
 31
0.0
  0
LINE
  5
9BD1
330
9BA7
100
AcDbEntity
  8
4
  6
CENTER
 48
0.5
100
AcDbLine
 10
167.553786
 20
226.344941
 30
0.0
 11
159.553786
 21
226.344941
 31
0.0
  0
LINE
  5
9BD2
330
9BA7
100
AcDbEntity
  8
4
  6
CENTER
 48
0.5
100
AcDbLine
 10
163.553786
 20
230.344941
 30
0.0
 11
163.553786
 21
222.344941
 31
0.0
  0
LINE
  5
9BD3
330
9BA7
100
AcDbEntity
  8
4
  6
CENTER
 48
0.5
100
AcDbLine
 10
127.553786
 20
226.344941
 30
0.0
 11
119.553786
 21
226.344941
 31
0.0
  0
LINE
  5
9BD4
330
9BA7
100
AcDbEntity
  8
4
  6
CENTER
 48
0.5
100
AcDbLine
 10
123.553786
 20
230.344941
 30
0.0
 11
123.553786
 21
222.344941
 31
0.0
  0
LINE
  5
9BD5
330
9BA7
100
AcDbEntity
  8
4
  6
CENTER
 48
0.5
100
AcDbLine
 10
127.553786
 20
246.3449409999999
 30
0.0
 11
119.553786
 21
246.3449409999999
 31
0.0
  0
LINE
  5
9BD6
330
9BA7
100
AcDbEntity
  8
4
  6
CENTER
 48
0.5
100
AcDbLine
 10
123.553786
 20
250.3449409999999
 30
0.0
 11
123.553786
 21
242.3449409999999
 31
0.0
  0
LINE
  5
9BD7
330
9BA7
100
AcDbEntity
  8
1
  6
Continuous
100
AcDbLine
 10
118.053786
 20
176.3449409999997
 30
0.0
 11
169.053786
 21
176.3449409999997
 31
0.0
  0
LINE
  5
9BD8
330
9BA7
100
AcDbEntity
  8
1
  6
Continuous
100
AcDbLine
 10
118.053786
 20
174.044942
 30
0.0
 11
169.053786
 21
174.044942
 31
0.0
  0
LINE
  5
9BD9
330
9BA7
100
AcDbEntity
  8
4
  6
CENTER
 48
0.5
100
AcDbLine
 10
143.5537859999998
 20
181.344941
 30
0.0
 11
143.5537859999998
 21
147.2927409999998
 31
0.0
  0
LINE
  5
9BDA
330
9BA7
100
AcDbEntity
  8
1
  6
Continuous
100
AcDbLine
 10
118.053786
 20
176.3449409999997
 30
0.0
 11
118.053786
 21
174.044942
 31
0.0
  0
LINE
  5
9BDB
330
9BA7
100
AcDbEntity
  8
1
  6
Continuous
100
AcDbLine
 10
169.053786
 20
176.3449409999997
 30
0.0
 11
169.053786
 21
174.044942
 31
0.0
  0
LINE
  5
9BDC
330
9BA7
100
AcDbEntity
  8
4
  6
CENTER
 48
0.5
100
AcDbLine
 10
123.553786
 20
179.344941
 30
0.0
 11
123.553786
 21
171.0449419999999
 31
0.0
  0
LINE
  5
9BDD
330
9BA7
100
AcDbEntity
  8
4
  6
CENTER
 48
0.5
100
AcDbLine
 10
163.553786
 20
179.344941
 30
0.0
 11
163.553786
 21
171.0449419999999
 31
0.0
  0
LINE
  5
9BDE
330
9BA7
100
AcDbEntity
  8
1
  6
Continuous
100
AcDbLine
 10
127.5474039999999
 20
168.4449419999999
 30
0.0
 11
158.0537859999997
 21
168.4449419999999
 31
0.0
  0
LINE
  5
9BDF
330
9BA7
100
AcDbEntity
  8
1
  6
Continuous
100
AcDbLine
 10
156.553786
 20
161.9449389999997
 30
0.0
 11
161.0537859999998
 21
161.9449389999997
 31
0.0
  0
LINE
  5
9BE0
330
9BA7
100
AcDbEntity
  8
4
  6
CENTER
 48
0.5
100
AcDbLine
 10
148.5537859999998
 20
138.344941
 30
0.0
 11
98.55378600000001
 21
138.344941
 31
0.0
  0
LINE
  5
9BE1
330
9BA7
100
AcDbEntity
  8
4
  6
CENTER
 48
0.5
100
AcDbLine
 10
123.553786
 20
163.344941
 30
0.0
 11
123.553786
 21
113.3449409999998
 31
0.0
  0
LINE
  5
9BE2
330
9BA7
100
AcDbEntity
  8
1
  6
Continuous
100
AcDbLine
 10
28.053786
 20
176.3449409999997
 30
0.0
 11
59.05378599999998
 21
176.3449409999997
 31
0.0
  0
LINE
  5
9BE3
330
9BA7
100
AcDbEntity
  8
1
  6
Continuous
100
AcDbLine
 10
28.053786
 20
174.044942
 30
0.0
 11
59.05378599999998
 21
174.044942
 31
0.0
  0
LINE
  5
9BE4
330
9BA7
100
AcDbEntity
  8
4
  6
CENTER
 48
0.5
100
AcDbLine
 10
43.55378599999998
 20
181.344941
 30
0.0
 11
43.55378599999998
 21
113.462823
 31
0.0
  0
LINE
  5
9BE5
330
9BA7
100
AcDbEntity
  8
1
  6
Continuous
100
AcDbLine
 10
29.053786
 20
168.4449419999999
 30
0.0
 11
58.053786
 21
168.4449419999999
 31
0.0
  0
LINE
  5
9BE6
330
9BA7
100
AcDbEntity
  8
1
  6
Continuous
100
AcDbLine
 10
59.05378599999998
 20
176.3449409999997
 30
0.0
 11
59.05378599999998
 21
174.044942
 31
0.0
  0
LINE
  5
9BE7
330
9BA7
100
AcDbEntity
  8
1
  6
Continuous
100
AcDbLine
 10
28.053786
 20
176.3449409999997
 30
0.0
 11
28.053786
 21
174.044942
 31
0.0
  0
LINE
  5
9BE8
330
9BA7
100
AcDbEntity
  8
4
  6
CENTER
 48
0.5
100
AcDbLine
 10
53.55378599999998
 20
179.344941
 30
0.0
 11
53.55378599999998
 21
171.0449419999999
 31
0.0
  0
LINE
  5
9BE9
330
9BA7
100
AcDbEntity
  8
4
  6
CENTER
 48
0.5
100
AcDbLine
 10
33.55378599999998
 20
179.344941
 30
0.0
 11
33.55378599999998
 21
171.0449419999999
 31
0.0
  0
LINE
  5
9BEA
330
9BA7
100
AcDbEntity
  8
1
  6
Continuous
100
AcDbLine
 10
54.05378599999998
 20
164.5674139999998
 30
0.0
 11
54.05378599999998
 21
132.344941
 31
0.0
  0
LINE
  5
9BEB
330
9BA7
100
AcDbEntity
  8
1
  6
Continuous
100
AcDbLine
 10
33.05378599999999
 20
164.5674139999998
 30
0.0
 11
33.05378599999999
 21
132.344941
 31
0.0
  0
LINE
  5
9BEC
330
9BA7
100
AcDbEntity
  8
1
  6
Continuous
100
AcDbLine
 10
31.453788
 20
132.344941
 30
0.0
 11
33.05378599999999
 21
132.344941
 31
0.0
  0
LINE
  5
9BED
330
9BA7
100
AcDbEntity
  8
1
  6
Continuous
100
AcDbLine
 10
54.05378599999998
 20
132.344941
 30
0.0
 11
55.653784
 21
132.344941
 31
0.0
  0
LINE
  5
9BEE
330
9BA7
100
AcDbEntity
  8
1
  6
Continuous
100
AcDbLine
 10
55.653784
 20
164.5674139999998
 30
0.0
 11
55.653784
 21
132.344941
 31
0.0
  0
LINE
  5
9BEF
330
9BA7
100
AcDbEntity
  8
1
  6
Continuous
100
AcDbLine
 10
54.05378599999998
 20
141.344941
 30
0.0
 11
53.55378599999998
 21
141.344941
 31
0.0
  0
LINE
  5
9BF0
330
9BA7
100
AcDbEntity
  8
1
  6
Continuous
100
AcDbLine
 10
54.05378599999998
 20
135.344941
 30
0.0
 11
53.55378599999998
 21
135.344941
 31
0.0
  0
LINE
  5
9BF1
330
9BA7
100
AcDbEntity
  8
4
  6
CENTER
 48
0.5
100
AcDbLine
 10
24.253791
 20
138.344941
 30
0.0
 11
63.053786
 21
138.344941
 31
0.0
  0
LINE
  5
9BF2
330
9BA7
100
AcDbEntity
  8
1
  6
Continuous
100
AcDbLine
 10
31.453788
 20
164.5674139999998
 30
0.0
 11
31.453788
 21
132.344941
 31
0.0
  0
LINE
  5
9BF3
330
9BA7
100
AcDbEntity
  8
1
  6
Continuous
100
AcDbLine
 10
33.05378599999999
 20
160.744943
 30
0.0
 11
54.05378599999998
 21
160.744943
 31
0.0
  0
LINE
  5
9BF4
330
9BA7
100
AcDbEntity
  8
1
  6
Continuous
100
AcDbLine
 10
33.065093
 20
164.7449429999998
 30
0.0
 11
54.04247900000001
 21
164.7449429999998
 31
0.0
  0
LINE
  5
9BF5
330
9BA7
100
AcDbEntity
  8
1
  6
Continuous
100
AcDbLine
 10
33.05378599999999
 20
162.244943
 30
0.0
 11
54.05378599999998
 21
162.244943
 31
0.0
  0
LINE
  5
9BF6
330
9BA7
100
AcDbEntity
  8
1
  6
Continuous
100
AcDbLine
 10
128.053786
 20
172.5449419999999
 30
0.0
 11
128.053786
 21
169.7449419999998
 31
0.0
  0
LINE
  5
9BF7
330
9BA7
100
AcDbEntity
  8
1
  6
Continuous
100
AcDbLine
 10
128.053786
 20
169.7449419999998
 30
0.0
 11
159.0537859999997
 21
169.7449419999998
 31
0.0
  0
LINE
  5
9BF8
330
9BA7
100
AcDbEntity
  8
1
  6
Continuous
100
AcDbLine
 10
128.053786
 20
172.5449419999999
 30
0.0
 11
159.0537859999997
 21
172.5449419999999
 31
0.0
  0
LINE
  5
9BF9
330
9BA7
100
AcDbEntity
  8
1
  6
Continuous
100
AcDbLine
 10
159.0537859999997
 20
172.5449419999999
 30
0.0
 11
159.0537859999997
 21
169.7449419999998
 31
0.0
  0
LINE
  5
9BFA
330
9BA7
100
AcDbEntity
  8
1
  6
Continuous
100
AcDbLine
 10
28.053786
 20
172.5449419999999
 30
0.0
 11
28.053786
 21
169.7449419999998
 31
0.0
  0
LINE
  5
9BFB
330
9BA7
100
AcDbEntity
  8
1
  6
Continuous
100
AcDbLine
 10
28.053786
 20
169.7449419999998
 30
0.0
 11
59.05378599999998
 21
169.7449419999998
 31
0.0
  0
LINE
  5
9BFC
330
9BA7
100
AcDbEntity
  8
1
  6
Continuous
100
AcDbLine
 10
28.053786
 20
172.5449419999999
 30
0.0
 11
59.05378599999998
 21
172.5449419999999
 31
0.0
  0
LINE
  5
9BFD
330
9BA7
100
AcDbEntity
  8
1
  6
Continuous
100
AcDbLine
 10
59.05378599999998
 20
172.5449419999999
 30
0.0
 11
59.05378599999998
 21
169.7449419999998
 31
0.0
  0
LINE
  5
9BFE
330
9BA7
100
AcDbEntity
  8
1
  6
Continuous
100
AcDbLine
 10
161.0537859999998
 20
165.4449409999998
 30
0.0
 11
161.0537859999998
 21
161.9449389999997
 31
0.0
  0
LINE
  5
9BFF
330
9BA7
100
AcDbEntity
  8
1
  6
Continuous
100
AcDbLine
 10
152.887728
 20
160.344941
 30
0.0
 11
154.104296
 21
160.344941
 31
0.0
  0
LINE
  5
9C00
330
9BA7
100
AcDbEntity
  8
1
  6
Continuous
100
AcDbLine
 10
128.816991
 20
134.4220589999999
 30
0.0
 11
152.892519
 21
160.3501
 31
0.0
  0
LINE
  5
9C01
330
9BA7
100
AcDbEntity
  8
1
  6
Continuous
100
AcDbLine
 10
120.753787
 20
166.730253
 30
0.0
 11
124.406079
 21
167.9387309999999
 31
0.0
  0
LINE
  5
9C02
330
9BA7
100
AcDbEntity
  8
1
  6
Continuous
100
AcDbLine
 10
120.753787
 20
166.730253
 30
0.0
 11
121.256398
 21
165.2112459999998
 31
0.0
  0
LINE
  5
9C03
330
9BA7
100
AcDbEntity
  8
1
  6
Continuous
100
AcDbLine
 10
121.256398
 20
165.2112459999998
 30
0.0
 11
122.053786
 21
165.4750869999998
 31
0.0
  0
LINE
  5
9C04
330
9BA7
100
AcDbEntity
  8
1
  6
Continuous
100
AcDbLine
 10
122.3622729999999
 20
167.2624719999998
 30
0.0
 11
117.648486
 21
139.950429
 31
0.0
  0
LINE
  5
9C05
330
9BA7
100
AcDbEntity
  8
1
  6
Continuous
100
AcDbLine
 10
128.553786
 20
164.6097189999998
 30
0.0
 11
128.553786
 21
141.2712219999999
 31
0.0
  0
LINE
  5
9C06
330
9BA7
100
AcDbEntity
  8
1
  6
Continuous
100
AcDbLine
 10
58.053786
 20
139.4449389999997
 30
0.0
 11
58.053786
 21
137.244943
 31
0.0
  0
LINE
  5
9C07
330
9BA7
100
AcDbEntity
  8
1
  6
Continuous
100
AcDbLine
 10
29.25379099999998
 20
141.165143
 30
0.0
 11
29.25379099999998
 21
135.5247389999999
 31
0.0
  0
LINE
  5
9C08
330
9BA7
100
AcDbEntity
  8
1
  6
Continuous
100
AcDbLine
 10
30.053794
 20
142.1449359999997
 30
0.0
 11
30.053794
 21
134.544942
 31
0.0
  0
LINE
  5
9C09
330
9BA7
100
AcDbEntity
  8
1
  6
Continuous
100
AcDbLine
 10
30.053794
 20
134.544946
 30
0.0
 11
31.453788
 21
135.322133
 31
0.0
  0
LINE
  5
9C0A
330
9BA7
100
AcDbEntity
  8
1
  6
Continuous
100
AcDbLine
 10
31.453795
 20
141.3221289999999
 30
0.0
 11
30.05380099999999
 21
142.14494
 31
0.0
  0
LINE
  5
9C0B
330
9BA7
100
AcDbEntity
  8
1
  6
Continuous
100
AcDbLine
 10
33.55378599999998
 20
141.344941
 30
0.0
 11
33.05378599999999
 21
141.344941
 31
0.0
  0
LINE
  5
9C0C
330
9BA7
100
AcDbEntity
  8
1
  6
Continuous
100
AcDbLine
 10
33.55378599999998
 20
135.344941
 30
0.0
 11
33.05378599999999
 21
135.344941
 31
0.0
  0
CIRCLE
  5
9C0D
330
9BA7
100
AcDbEntity
  8
1
  6
Continuous
100
AcDbCircle
 10
123.553786
 20
246.3449409999999
 30
0.0
 40
2.75
  0
CIRCLE
  5
9C0E
330
9BA7
100
AcDbEntity
  8
1
  6
Continuous
100
AcDbCircle
 10
123.553786
 20
226.344941
 30
0.0
 40
2.75
  0
CIRCLE
  5
9C0F
330
9BA7
100
AcDbEntity
  8
1
  6
Continuous
100
AcDbCircle
 10
163.553786
 20
226.344941
 30
0.0
 40
2.75
  0
CIRCLE
  5
9C10
330
9BA7
100
AcDbEntity
  8
1
  6
Continuous
100
AcDbCircle
 10
163.553786
 20
246.3449409999999
 30
0.0
 40
2.75
  0
CIRCLE
  5
9C11
330
9BA7
100
AcDbEntity
  8
1
  6
Continuous
100
AcDbCircle
 10
143.5537859999998
 20
236.344941
 30
0.0
 40
7.5
  0
CIRCLE
  5
9C12
330
9BA7
100
AcDbEntity
  8
1
  6
Continuous
100
AcDbCircle
 10
143.5537859999998
 20
236.344941
 30
0.0
 40
5.75
  0
ARC
  5
9C13
330
9BA7
100
AcDbEntity
  8
1
  6
Continuous
100
AcDbCircle
 10
154.104296
 20
162.8449409999998
 30
0.0
 40
2.5
100
AcDbArc
 50
270.00002
 51
338.8997499999998
  0
CIRCLE
  5
9C14
330
9BA7
100
AcDbEntity
  8
1
  6
Continuous
100
AcDbCircle
 10
123.553786
 20
138.344941
 30
0.0
 40
4.0
  0
ARC
  5
9C15
330
9BA7
100
AcDbEntity
  8
1
  6
Continuous
100
AcDbCircle
 10
127.5474039999999
 20
158.4449389999998
 30
0.0
 40
10.0
100
AcDbArc
 50
89.99998199999996
 51
108.30847
  0
ARC
  5
9C16
330
9BA7
100
AcDbEntity
  8
1
  6
Continuous
100
AcDbCircle
 10
34.453788
 20
164.5674139999998
 30
0.0
 40
3.0
100
AcDbArc
 50
79.48769899999998
 51
179.9999599999999
  0
ARC
  5
9C17
330
9BA7
100
AcDbEntity
  8
1
  6
Continuous
100
AcDbCircle
 10
52.65378399999999
 20
164.5674139999998
 30
0.0
 40
3.0
100
AcDbArc
 50
0.0
 51
100.5123199999997
  0
ARC
  5
9C18
330
9BA7
100
AcDbEntity
  8
1
  6
Continuous
100
AcDbCircle
 10
52.65378399999999
 20
164.5674139999998
 30
0.0
 40
1.399999999999999
100
AcDbArc
 50
0.0
 51
99.50020800000002
  0
ARC
  5
9C19
330
9BA7
100
AcDbEntity
  8
1
  6
Continuous
100
AcDbCircle
 10
34.453788
 20
164.5674139999998
 30
0.0
 40
1.399999999999999
100
AcDbArc
 50
80.49980999999998
 51
179.9999599999999
  0
ARC
  5
9C1A
330
9BA7
100
AcDbEntity
  8
1
  6
Continuous
100
AcDbCircle
 10
43.55378599999998
 20
164.7449429999998
 30
0.0
 40
2.0
100
AcDbArc
 50
0.0
 51
14.512996
  0
ARC
  5
9C1B
330
9BA7
100
AcDbEntity
  8
1
  6
Continuous
100
AcDbCircle
 10
47.55378599999999
 20
164.7449429999998
 30
0.0
 40
2.0
100
AcDbArc
 50
165.3448399999998
 51
179.9999599999999
  0
ARC
  5
9C1C
330
9BA7
100
AcDbEntity
  8
1
  6
Continuous
100
AcDbCircle
 10
49.55378599999999
 20
164.7449429999998
 30
0.0
 40
2.0
100
AcDbArc
 50
0.0
 51
30.780818
  0
ARC
  5
9C1D
330
9BA7
100
AcDbEntity
  8
1
  6
Continuous
100
AcDbCircle
 10
51.05378599999998
 20
164.7449429999998
 30
0.0
 40
2.0
100
AcDbArc
 50
0.0
 51
38.225372
  0
ARC
  5
9C1E
330
9BA7
100
AcDbEntity
  8
1
  6
Continuous
100
AcDbCircle
 10
47.55378599999999
 20
164.7449429999998
 30
0.0
 40
2.0
100
AcDbArc
 50
0.0
 51
23.09665499999999
  0
ARC
  5
9C1F
330
9BA7
100
AcDbEntity
  8
1
  6
Continuous
100
AcDbCircle
 10
43.55378599999998
 20
164.7449429999998
 30
0.0
 40
2.0
100
AcDbArc
 50
165.4870299999998
 51
179.9999599999999
  0
ARC
  5
9C20
330
9BA7
100
AcDbEntity
  8
1
  6
Continuous
100
AcDbCircle
 10
39.55378599999999
 20
164.7449429999998
 30
0.0
 40
2.0
100
AcDbArc
 50
0.0
 51
14.65517499999998
  0
ARC
  5
9C21
330
9BA7
100
AcDbEntity
  8
1
  6
Continuous
100
AcDbCircle
 10
37.55378599999997
 20
164.7449429999998
 30
0.0
 40
2.0
100
AcDbArc
 50
149.2192
 51
179.9999599999999
  0
ARC
  5
9C22
330
9BA7
100
AcDbEntity
  8
1
  6
Continuous
100
AcDbCircle
 10
36.05378599999997
 20
164.7449429999998
 30
0.0
 40
2.0
100
AcDbArc
 50
141.7746499999998
 51
179.9999599999999
  0
ARC
  5
9C23
330
9BA7
100
AcDbEntity
  8
1
  6
Continuous
100
AcDbCircle
 10
39.55378599999999
 20
164.7449429999998
 30
0.0
 40
2.0
100
AcDbArc
 50
156.90337
 51
179.9999599999999
  0
ARC
  5
9C24
330
9BA7
100
AcDbEntity
  8
1
  6
Continuous
100
AcDbCircle
 10
124.053786
 20
245.844941
 30
0.0
 40
6.0
100
AcDbArc
 50
89.99998199999996
 51
179.9999599999999
  0
ARC
  5
9C25
330
9BA7
100
AcDbEntity
  8
1
  6
Continuous
100
AcDbCircle
 10
163.053786
 20
245.844941
 30
0.0
 40
6.0
100
AcDbArc
 50
0.0
 51
89.99998199999996
  0
ARC
  5
9C26
330
9BA7
100
AcDbEntity
  8
1
  6
Continuous
100
AcDbCircle
 10
163.053786
 20
226.844941
 30
0.0
 40
6.0
100
AcDbArc
 50
270.00002
 51
0.0
  0
ARC
  5
9C27
330
9BA7
100
AcDbEntity
  8
1
  6
Continuous
100
AcDbCircle
 10
124.053786
 20
226.844941
 30
0.0
 40
6.0
100
AcDbArc
 50
179.9999799999999
 51
270.0000299999999
  0
ARC
  5
9C28
330
9BA7
100
AcDbEntity
  8
1
  6
Continuous
100
AcDbCircle
 10
143.5537859999998
 20
170.3294419999997
 30
0.0
 40
1.984499999999996
100
AcDbArc
 50
197.12951
 51
251.73359
  0
ARC
  5
9C29
330
9BA7
100
AcDbEntity
  8
1
  6
Continuous
100
AcDbCircle
 10
131.0537859999998
 20
170.3294419999997
 30
0.0
 40
1.984499999999996
100
AcDbArc
 50
197.12951
 51
251.7336299999999
  0
ARC
  5
9C2A
330
9BA7
100
AcDbEntity
  8
1
  6
Continuous
100
AcDbCircle
 10
130.5977179999999
 20
171.375152
 30
0.0
 40
2.799999999999998
100
AcDbArc
 50
107.5419899999999
 51
155.30536
  0
ARC
  5
9C2B
330
9BA7
100
AcDbEntity
  8
1
  6
Continuous
100
AcDbCircle
 10
139.4950429999999
 20
170.3294419999997
 30
0.0
 40
1.984499999999996
100
AcDbArc
 50
197.12951
 51
251.73359
  0
ARC
  5
9C2C
330
9BA7
100
AcDbEntity
  8
1
  6
Continuous
100
AcDbCircle
 10
135.8761279999999
 20
170.3294419999997
 30
0.0
 40
1.984499999999996
100
AcDbArc
 50
197.12951
 51
251.7336299999999
  0
ARC
  5
9C2D
330
9BA7
100
AcDbEntity
  8
1
  6
Continuous
100
AcDbCircle
 10
133.0892049999998
 20
170.3294419999997
 30
0.0
 40
1.984499999999996
100
AcDbArc
 50
197.12951
 51
251.7336299999999
  0
ARC
  5
9C2E
330
9BA7
100
AcDbEntity
  8
1
  6
Continuous
100
AcDbCircle
 10
131.436282
 20
170.3294419999997
 30
0.0
 40
1.984499999999996
100
AcDbArc
 50
197.12951
 51
251.7336299999999
  0
ARC
  5
9C2F
330
9BA7
100
AcDbEntity
  8
1
  6
Continuous
100
AcDbCircle
 10
143.5537859999998
 20
170.3294419999997
 30
0.0
 40
1.984499999999996
100
AcDbArc
 50
288.2663999999998
 51
342.87047
  0
ARC
  5
9C30
330
9BA7
100
AcDbEntity
  8
1
  6
Continuous
100
AcDbCircle
 10
156.053786
 20
170.3294419999997
 30
0.0
 40
1.984499999999996
100
AcDbArc
 50
288.2663999999998
 51
342.87047
  0
ARC
  5
9C31
330
9BA7
100
AcDbEntity
  8
1
  6
Continuous
100
AcDbCircle
 10
156.509856
 20
171.375152
 30
0.0
 40
2.799999999999998
100
AcDbArc
 50
24.69460399999999
 51
72.45797299999998
  0
ARC
  5
9C32
330
9BA7
100
AcDbEntity
  8
1
  6
Continuous
100
AcDbCircle
 10
147.6125289999997
 20
170.3294419999997
 30
0.0
 40
1.984499999999996
100
AcDbArc
 50
197.12951
 51
251.73359
  0
ARC
  5
9C33
330
9BA7
100
AcDbEntity
  8
1
  6
Continuous
100
AcDbCircle
 10
151.2314439999999
 20
170.3294419999997
 30
0.0
 40
1.984499999999996
100
AcDbArc
 50
204.2453499999997
 51
251.73359
  0
ARC
  5
9C34
330
9BA7
100
AcDbEntity
  8
1
  6
Continuous
100
AcDbCircle
 10
154.0183669999999
 20
170.3294419999997
 30
0.0
 40
1.984499999999996
100
AcDbArc
 50
225.39842
 51
251.73359
  0
ARC
  5
9C35
330
9BA7
100
AcDbEntity
  8
1
  6
Continuous
100
AcDbCircle
 10
155.6712899999999
 20
170.3294419999997
 30
0.0
 40
1.984499999999996
100
AcDbArc
 50
288.2663999999998
 51
342.8704799999998
  0
ARC
  5
9C36
330
9BA7
100
AcDbEntity
  8
1
  6
Continuous
100
AcDbCircle
 10
133.0892049999998
 20
170.3294419999997
 30
0.0
 40
1.984499999999996
100
AcDbArc
 50
288.2663499999998
 51
314.60156
  0
ARC
  5
9C37
330
9BA7
100
AcDbEntity
  8
1
  6
Continuous
100
AcDbCircle
 10
135.8761279999999
 20
170.3294419999997
 30
0.0
 40
1.984499999999996
100
AcDbArc
 50
288.2663999999998
 51
335.7546399999999
  0
ARC
  5
9C38
330
9BA7
100
AcDbEntity
  8
1
  6
Continuous
100
AcDbCircle
 10
139.4950429999999
 20
170.3294419999997
 30
0.0
 40
1.984499999999996
100
AcDbArc
 50
288.2663999999998
 51
342.8704799999998
  0
ARC
  5
9C39
330
9BA7
100
AcDbEntity
  8
1
  6
Continuous
100
AcDbCircle
 10
147.6125289999997
 20
170.3294419999997
 30
0.0
 40
1.984499999999996
100
AcDbArc
 50
288.2663999999998
 51
342.87047
  0
ARC
  5
9C3A
330
9BA7
100
AcDbEntity
  8
1
  6
Continuous
100
AcDbCircle
 10
151.2314439999999
 20
170.3294419999997
 30
0.0
 40
1.984499999999996
100
AcDbArc
 50
288.2663999999998
 51
342.87047
  0
ARC
  5
9C3B
330
9BA7
100
AcDbEntity
  8
1
  6
Continuous
100
AcDbCircle
 10
154.0183669999999
 20
170.3294419999997
 30
0.0
 40
1.984499999999996
100
AcDbArc
 50
288.2663999999998
 51
342.87047
  0
ARC
  5
9C3C
330
9BA7
100
AcDbEntity
  8
1
  6
Continuous
100
AcDbCircle
 10
43.55378599999998
 20
170.3294419999997
 30
0.0
 40
1.984499999999996
100
AcDbArc
 50
197.12951
 51
251.73369
  0
ARC
  5
9C3D
330
9BA7
100
AcDbEntity
  8
1
  6
Continuous
100
AcDbCircle
 10
31.05378599999999
 20
170.3294419999997
 30
0.0
 40
1.984499999999996
100
AcDbArc
 50
197.12951
 51
251.73369
  0
ARC
  5
9C3E
330
9BA7
100
AcDbEntity
  8
1
  6
Continuous
100
AcDbCircle
 10
30.59771599999999
 20
171.375152
 30
0.0
 40
2.799999999999998
100
AcDbArc
 50
107.5419899999999
 51
155.30536
  0
ARC
  5
9C3F
330
9BA7
100
AcDbEntity
  8
1
  6
Continuous
100
AcDbCircle
 10
39.49504000000001
 20
170.3294419999997
 30
0.0
 40
1.984499999999996
100
AcDbArc
 50
197.12951
 51
251.73369
  0
ARC
  5
9C40
330
9BA7
100
AcDbEntity
  8
1
  6
Continuous
100
AcDbCircle
 10
35.876128
 20
170.3294419999997
 30
0.0
 40
1.984499999999996
100
AcDbArc
 50
197.12951
 51
251.73369
  0
ARC
  5
9C41
330
9BA7
100
AcDbEntity
  8
1
  6
Continuous
100
AcDbCircle
 10
33.089202
 20
170.3294419999997
 30
0.0
 40
1.984499999999996
100
AcDbArc
 50
197.12951
 51
251.73369
  0
ARC
  5
9C42
330
9BA7
100
AcDbEntity
  8
1
  6
Continuous
100
AcDbCircle
 10
31.436278
 20
170.3294419999997
 30
0.0
 40
1.984499999999996
100
AcDbArc
 50
197.12951
 51
251.73369
  0
ARC
  5
9C43
330
9BA7
100
AcDbEntity
  8
1
  6
Continuous
100
AcDbCircle
 10
43.55378599999998
 20
170.3294419999997
 30
0.0
 40
1.984499999999996
100
AcDbArc
 50
288.2662899999999
 51
342.87047
  0
ARC
  5
9C44
330
9BA7
100
AcDbEntity
  8
1
  6
Continuous
100
AcDbCircle
 10
56.05378599999998
 20
170.3294419999997
 30
0.0
 40
1.984499999999996
100
AcDbArc
 50
288.2662899999999
 51
342.87047
  0
ARC
  5
9C45
330
9BA7
100
AcDbEntity
  8
1
  6
Continuous
100
AcDbCircle
 10
56.50985600000001
 20
171.375152
 30
0.0
 40
2.799999999999998
100
AcDbArc
 50
24.69460399999999
 51
72.45797299999998
  0
ARC
  5
9C46
330
9BA7
100
AcDbEntity
  8
1
  6
Continuous
100
AcDbCircle
 10
47.612532
 20
170.3294419999997
 30
0.0
 40
1.984499999999996
100
AcDbArc
 50
197.12951
 51
251.73369
  0
ARC
  5
9C47
330
9BA7
100
AcDbEntity
  8
1
  6
Continuous
100
AcDbCircle
 10
51.23144400000001
 20
170.3294419999997
 30
0.0
 40
1.984499999999996
100
AcDbArc
 50
204.2453499999997
 51
251.73369
  0
ARC
  5
9C48
330
9BA7
100
AcDbEntity
  8
1
  6
Continuous
100
AcDbCircle
 10
54.01837
 20
170.3294419999997
 30
0.0
 40
1.984499999999996
100
AcDbArc
 50
225.39842
 51
251.73369
  0
ARC
  5
9C49
330
9BA7
100
AcDbEntity
  8
1
  6
Continuous
100
AcDbCircle
 10
55.67129399999998
 20
170.3294419999997
 30
0.0
 40
1.984499999999996
100
AcDbArc
 50
288.2662899999999
 51
342.8704799999998
  0
ARC
  5
9C4A
330
9BA7
100
AcDbEntity
  8
1
  6
Continuous
100
AcDbCircle
 10
33.089202
 20
170.3294419999997
 30
0.0
 40
1.984499999999996
100
AcDbArc
 50
288.2662899999999
 51
314.60156
  0
ARC
  5
9C4B
330
9BA7
100
AcDbEntity
  8
1
  6
Continuous
100
AcDbCircle
 10
35.876128
 20
170.3294419999997
 30
0.0
 40
1.984499999999996
100
AcDbArc
 50
288.2662899999999
 51
335.7546399999999
  0
ARC
  5
9C4C
330
9BA7
100
AcDbEntity
  8
1
  6
Continuous
100
AcDbCircle
 10
39.49504000000001
 20
170.3294419999997
 30
0.0
 40
1.984499999999996
100
AcDbArc
 50
288.2662899999999
 51
342.8704799999998
  0
ARC
  5
9C4D
330
9BA7
100
AcDbEntity
  8
1
  6
Continuous
100
AcDbCircle
 10
47.612532
 20
170.3294419999997
 30
0.0
 40
1.984499999999996
100
AcDbArc
 50
288.2662899999999
 51
342.87047
  0
ARC
  5
9C4E
330
9BA7
100
AcDbEntity
  8
1
  6
Continuous
100
AcDbCircle
 10
51.23144400000001
 20
170.3294419999997
 30
0.0
 40
1.984499999999996
100
AcDbArc
 50
288.2662899999999
 51
342.87047
  0
ARC
  5
9C4F
330
9BA7
100
AcDbEntity
  8
1
  6
Continuous
100
AcDbCircle
 10
54.01837
 20
170.3294419999997
 30
0.0
 40
1.984499999999996
100
AcDbArc
 50
288.2662899999999
 51
342.87047
  0
ARC
  5
9C50
330
9BA7
100
AcDbEntity
  8
1
  6
Continuous
100
AcDbCircle
 10
158.0537859999997
 20
165.4449409999998
 30
0.0
 40
3.0
100
AcDbArc
 50
0.0
 51
89.99998199999996
  0
ARC
  5
9C51
330
9BA7
100
AcDbEntity
  8
1
  6
Continuous
100
AcDbCircle
 10
156.553786
 20
156.9449389999998
 30
0.0
 40
5.0
100
AcDbArc
 50
89.99998199999996
 51
137.12173
  0
ARC
  5
9C52
330
9BA7
100
AcDbEntity
  8
1
  6
Continuous
100
AcDbCircle
 10
124.053786
 20
138.8449409999997
 30
0.0
 40
6.5
100
AcDbArc
 50
170.2078
 51
317.12169
  0
ARC
  5
9C53
330
9BA7
100
AcDbEntity
  8
1
  6
Continuous
100
AcDbCircle
 10
46.275081
 20
152.3658369999999
 30
0.0
 40
20.327223
100
AcDbArc
 50
185.8518499999999
 51
213.155199
  0
ARC
  5
9C54
330
9BA7
100
AcDbEntity
  8
1
  6
Continuous
100
AcDbCircle
 10
43.55378599999998
 20
218.9456799999999
 30
0.0
 40
53.734432
100
AcDbArc
 50
260.49978
 51
279.50021
  0
ARC
  5
9C55
330
9BA7
100
AcDbEntity
  8
1
  6
Continuous
100
AcDbCircle
 10
43.55378599999998
 20
213.6076399999998
 30
0.0
 40
46.87738399999999
100
AcDbArc
 50
259.4876299999999
 51
280.5123299999999
  0
ARC
  5
9C56
330
9BA7
100
AcDbEntity
  8
1
  6
Continuous
100
AcDbCircle
 10
53.77253599999999
 20
138.344941
 30
0.0
 40
4.420304999999999
100
AcDbArc
 50
295.18817
 51
345.5904499999999
  0
ARC
  5
9C57
330
9BA7
100
AcDbEntity
  8
1
  6
Continuous
100
AcDbCircle
 10
53.77253599999999
 20
138.344941
 30
0.0
 40
4.420304999999999
100
AcDbArc
 50
14.40954599999999
 51
64.811829
  0
ARC
  5
9C58
330
9BA7
100
AcDbEntity
  8
1
  6
Continuous
100
AcDbCircle
 10
30.25379099999998
 20
141.165143
 30
0.0
 40
1.0
100
AcDbArc
 50
101.5367899999999
 51
179.9999599999999
  0
ARC
  5
9C59
330
9BA7
100
AcDbEntity
  8
1
  6
Continuous
100
AcDbCircle
 10
30.25379099999998
 20
135.5247389999999
 30
0.0
 40
1.0
100
AcDbArc
 50
179.9999799999999
 51
258.4632099999998
  0
ARC
  5
9C5A
330
9BA7
100
AcDbEntity
  8
1
  6
Continuous
100
AcDbCircle
 10
40.83635799999997
 20
152.3347129999999
 30
0.0
 40
20.320226
100
AcDbArc
 50
325.1149429999998
 51
354.2343609999999
  0
ARC
  5
9C5B
330
9BA7
100
AcDbEntity
  8
1
  6
Continuous
100
AcDbCircle
 10
143.5537859999998
 20
236.344941
 30
0.0
 40
17.5
100
AcDbArc
 50
62.33955
 51
117.66045
  0
ARC
  5
9C5C
330
9BA7
100
AcDbEntity
  8
1
  6
Continuous
100
AcDbCircle
 10
143.5537859999998
 20
236.344941
 30
0.0
 40
17.5
100
AcDbArc
 50
242.33955
 51
297.66045
  0
ARC
  5
9C5D
330
9BA7
100
AcDbEntity
  8
1
  6
Continuous
100
AcDbCircle
 10
120.733584
 20
45.044946
 30
0.0
 40
1.0
100
AcDbArc
 50
191.5367899999999
 51
269.9999599999998
  0
LINE
  5
9C5E
330
9BA7
100
AcDbEntity
  8
1
  6
Continuous
100
AcDbLine
 10
120.576598
 20
46.24495
 30
0.0
 11
119.753787
 21
44.84495599999998
 31
0.0
  0
LINE
  5
9C5F
330
9BA7
100
AcDbEntity
  8
1
  6
Continuous
100
AcDbLine
 10
119.7537909999997
 20
44.844949
 30
0.0
 11
127.353785
 21
44.844949
 31
0.0
  0
ARC
  5
9C60
330
9BA7
100
AcDbEntity
  8
1
  6
Continuous
100
AcDbCircle
 10
126.3739879999999
 20
45.044946
 30
0.0
 40
1.0
100
AcDbArc
 50
269.99998
 51
348.46321
  0
LINE
  5
9C61
330
9BA7
100
AcDbEntity
  8
1
  6
Continuous
100
AcDbLine
 10
127.353781
 20
44.844949
 30
0.0
 11
126.576594
 21
46.244943
 31
0.0
  0
LINE
  5
9C62
330
9BA7
100
AcDbEntity
  8
1
  6
Continuous
100
AcDbLine
 10
120.733584
 20
44.044946
 30
0.0
 11
126.3739879999999
 21
44.044946
 31
0.0
  0
ARC
  5
9C63
330
9BA7
100
AcDbEntity
  8
1
  6
Continuous
100
AcDbCircle
 10
123.553786
 20
68.56369100000001
 30
0.0
 40
4.420304999999999
100
AcDbArc
 50
104.4095459999998
 51
154.8118289999999
  0
LINE
  5
9C64
330
9BA7
100
AcDbEntity
  8
1
  6
Continuous
100
AcDbLine
 10
126.553786
 20
48.344941
 30
0.0
 11
126.553786
 21
47.84494099999998
 31
0.0
  0
LINE
  5
9C65
330
9BA7
100
AcDbEntity
  8
1
  6
Continuous
100
AcDbLine
 10
120.553786
 20
48.344941
 30
0.0
 11
120.553786
 21
47.84494099999998
 31
0.0
  0
ARC
  5
9C66
330
9BA7
100
AcDbEntity
  8
1
  6
Continuous
100
AcDbCircle
 10
123.553786
 20
68.56369100000001
 30
0.0
 40
4.420304999999999
100
AcDbArc
 50
25.18817
 51
75.59045000000002
  0
LINE
  5
9C67
330
9BA7
100
AcDbEntity
  8
1
  6
Continuous
100
AcDbLine
 10
122.4537879999999
 20
72.844941
 30
0.0
 11
124.653784
 21
72.844941
 31
0.0
  0
LINE
  5
9C68
330
9BA7
100
AcDbEntity
  8
1
  6
Continuous
100
AcDbLine
 10
126.553786
 20
68.84494100000001
 30
0.0
 11
126.553786
 21
68.344941
 31
0.0
  0
LINE
  5
9C69
330
9BA7
100
AcDbEntity
  8
1
  6
Continuous
100
AcDbLine
 10
120.553786
 20
68.84494100000001
 30
0.0
 11
120.553786
 21
68.344941
 31
0.0
  0
LINE
  5
9C6A
330
9BA7
100
AcDbEntity
  8
4
  6
CENTER
 48
0.5
100
AcDbLine
 10
123.553786
 20
254.8449409999999
 30
0.0
 11
123.553786
 21
217.844941
 31
0.0
  0
LINE
  5
9C6B
330
9BA7
100
AcDbEntity
  8
4
  6
CENTER
 48
0.5
100
AcDbLine
 10
98.55378600000001
 20
58.344941
 30
0.0
 11
174.053786
 21
58.344941
 31
0.0
  0
LINE
  5
9C6C
330
9BA7
100
AcDbEntity
  8
4
  6
CENTER
 48
0.5
100
AcDbLine
 10
143.5537859999998
 20
35.844941
 30
0.0
 11
143.5537859999998
 21
80.844941
 31
0.0
  0
LINE
  5
9C6D
330
9BA7
100
AcDbEntity
  8
4
  6
CENTER
 48
0.5
100
AcDbLine
 10
123.553786
 20
40.29835199999999
 30
0.0
 11
123.553786
 21
76.84494100000001
 31
0.0
  0
LINE
  5
9C6E
330
9BA7
100
AcDbEntity
  8
1
  6
Continuous
100
AcDbLine
 10
169.053786
 20
48.844941
 30
0.0
 11
169.053786
 21
67.844941
 31
0.0
  0
ARC
  5
9C6F
330
9BA7
100
AcDbEntity
  8
1
  6
Continuous
100
AcDbCircle
 10
143.5537859999998
 20
58.344941
 30
0.0
 40
17.5
100
AcDbArc
 50
229.464198
 51
130.5358019999999
  0
LINE
  5
9C70
330
9BA7
100
AcDbEntity
  8
1
  6
Continuous
100
AcDbLine
 10
124.053786
 20
73.84494100000002
 30
0.0
 11
135.4297479999999
 21
73.84494100000002
 31
0.0
  0
ARC
  5
9C71
330
9BA7
100
AcDbEntity
  8
1
  6
Continuous
100
AcDbCircle
 10
124.053786
 20
67.844941
 30
0.0
 40
6.0
100
AcDbArc
 50
89.99996999999996
 51
154.3207109999999
  0
LINE
  5
9C72
330
9BA7
100
AcDbEntity
  8
4
  6
CENTER
 48
0.5
100
AcDbLine
 10
127.553786
 20
68.344941
 30
0.0
 11
119.553786
 21
68.344941
 31
0.0
  0
LINE
  5
9C73
330
9BA7
100
AcDbEntity
  8
4
  6
CENTER
 48
0.5
100
AcDbLine
 10
123.553786
 20
64.34494100000001
 30
0.0
 11
123.553786
 21
72.344941
 31
0.0
  0
CIRCLE
  5
9C74
330
9BA7
100
AcDbEntity
  8
1
  6
Continuous
100
AcDbCircle
 10
163.553786
 20
68.344941
 30
0.0
 40
2.75
  0
ARC
  5
9C75
330
9BA7
100
AcDbEntity
  8
1
  6
Continuous
100
AcDbCircle
 10
163.053786
 20
67.844941
 30
0.0
 40
6.0
100
AcDbArc
 50
0.0
 51
89.99997999999996
  0
LINE
  5
9C76
330
9BA7
100
AcDbEntity
  8
4
  6
CENTER
 48
0.5
100
AcDbLine
 10
167.553786
 20
68.344941
 30
0.0
 11
159.553786
 21
68.344941
 31
0.0
  0
LINE
  5
9C77
330
9BA7
100
AcDbEntity
  8
4
  6
CENTER
 48
0.5
100
AcDbLine
 10
163.553786
 20
64.34494100000001
 30
0.0
 11
163.553786
 21
72.344941
 31
0.0
  0
LINE
  5
9C78
330
9BA7
100
AcDbEntity
  8
1
  6
Continuous
100
AcDbLine
 10
124.053786
 20
42.84494099999998
 30
0.0
 11
135.4297479999999
 21
42.84494099999998
 31
0.0
  0
ARC
  5
9C79
330
9BA7
100
AcDbEntity
  8
1
  6
Continuous
100
AcDbCircle
 10
124.053786
 20
48.844941
 30
0.0
 40
6.0
100
AcDbArc
 50
184.780192
 51
189.5940679999999
  0
LINE
  5
9C7A
330
9BA7
100
AcDbEntity
  8
4
  6
CENTER
 48
0.5
100
AcDbLine
 10
127.553786
 20
48.344941
 30
0.0
 11
119.553786
 21
48.344941
 31
0.0
  0
LINE
  5
9C7B
330
9BA7
100
AcDbEntity
  8
4
  6
CENTER
 48
0.5
100
AcDbLine
 10
123.553786
 20
44.344941
 30
0.0
 11
123.553786
 21
52.344941
 31
0.0
  0
CIRCLE
  5
9C7C
330
9BA7
100
AcDbEntity
  8
1
  6
Continuous
100
AcDbCircle
 10
163.553786
 20
48.344941
 30
0.0
 40
2.75
  0
ARC
  5
9C7D
330
9BA7
100
AcDbEntity
  8
1
  6
Continuous
100
AcDbCircle
 10
163.053786
 20
48.844941
 30
0.0
 40
6.0
100
AcDbArc
 50
270.0000179999999
 51
0.0
  0
LINE
  5
9C7E
330
9BA7
100
AcDbEntity
  8
4
  6
CENTER
 48
0.5
100
AcDbLine
 10
167.553786
 20
48.344941
 30
0.0
 11
159.553786
 21
48.344941
 31
0.0
  0
LINE
  5
9C7F
330
9BA7
100
AcDbEntity
  8
4
  6
CENTER
 48
0.5
100
AcDbLine
 10
163.553786
 20
44.344941
 30
0.0
 11
163.553786
 21
52.344941
 31
0.0
  0
LINE
  5
9C80
330
9BA7
100
AcDbEntity
  8
1
  6
Continuous
100
AcDbLine
 10
151.677825
 20
73.84494100000002
 30
0.0
 11
163.053786
 21
73.84494100000002
 31
0.0
  0
LINE
  5
9C81
330
9BA7
100
AcDbEntity
  8
1
  6
Continuous
100
AcDbLine
 10
151.677825
 20
42.84494099999998
 30
0.0
 11
163.053786
 21
42.84494099999998
 31
0.0
  0
LINE
  5
9C82
330
9BA7
100
AcDbEntity
  8
1
  6
Continuous
100
AcDbLine
 10
129.533801
 20
68.84494100000001
 30
0.0
 11
117.573046
 21
68.84494100000001
 31
0.0
  0
LINE
  5
9C83
330
9BA7
100
AcDbEntity
  8
1
  6
Continuous
100
AcDbLine
 10
128.9305169999997
 20
70.444941
 30
0.0
 11
117.573046
 21
70.444941
 31
0.0
  0
LINE
  5
9C84
330
9BA7
100
AcDbEntity
  8
1
  6
Continuous
100
AcDbLine
 10
117.573046
 20
70.444941
 30
0.0
 11
117.573046
 21
68.84494100000001
 31
0.0
  0
ARC
  5
9C85
330
9BA7
100
AcDbEntity
  8
1
  6
Continuous
100
AcDbCircle
 10
143.5537859999998
 20
58.344941
 30
0.0
 40
15.9
100
AcDbArc
 50
227.870178
 51
132.1298219999997
  0
LINE
  5
9C86
330
9BA7
100
AcDbEntity
  8
1
  6
Continuous
100
AcDbLine
 10
128.9305169999997
 20
46.24494099999998
 30
0.0
 11
117.573046
 21
46.24494099999998
 31
0.0
  0
LINE
  5
9C87
330
9BA7
100
AcDbEntity
  8
1
  6
Continuous
100
AcDbLine
 10
129.533801
 20
47.84494099999998
 30
0.0
 11
117.573046
 21
47.84494099999998
 31
0.0
  0
LINE
  5
9C88
330
9BA7
100
AcDbEntity
  8
1
  6
Continuous
100
AcDbLine
 10
117.573046
 20
46.24494099999998
 30
0.0
 11
117.573046
 21
47.84494099999998
 31
0.0
  0
ARC
  5
9C89
330
9BA7
100
AcDbEntity
  8
1
  6
Continuous
100
AcDbCircle
 10
124.053786
 20
67.844941
 30
0.0
 40
6.0
100
AcDbArc
 50
170.4059319999998
 51
175.219808
  0
ARC
  5
9C8A
330
9BA7
100
AcDbEntity
  8
1
  6
Continuous
100
AcDbCircle
 10
124.053786
 20
48.844941
 30
0.0
 40
6.0
100
AcDbArc
 50
205.6792889999999
 51
225.727622
  0
ARC
  5
9C8B
330
9BA7
100
AcDbEntity
  8
1
  6
Continuous
100
AcDbCircle
 10
143.5537859999998
 20
58.344941
 30
0.0
 40
13.000002
100
AcDbArc
 50
217.9798669999999
 51
142.0201329999999
  0
ARC
  5
9C8C
330
9BA7
100
AcDbEntity
  8
1
  6
Continuous
100
AcDbCircle
 10
143.5537859999998
 20
58.344941
 30
0.0
 40
10.25
100
AcDbArc
 50
231.30526
 51
128.69474
  0
ARC
  5
9C8D
330
9BA7
100
AcDbEntity
  8
1
  6
Continuous
100
AcDbCircle
 10
144.7861669999998
 20
57.112613
 30
0.0
 40
3.623304
100
AcDbArc
 50
271.752545
 51
358.2470069999998
  0
LINE
  5
9C8E
330
9BA7
100
AcDbEntity
  8
1
  6
Continuous
100
AcDbLine
 10
143.3157879999999
 20
53.987965
 30
0.0
 11
143.5538159999999
 21
54.094986
 31
0.0
  0
LINE
  5
9C8F
330
9BA7
100
AcDbEntity
  8
1
  6
Continuous
100
AcDbLine
 10
143.5537929999999
 20
54.094914
 30
0.0
 11
144.803785
 21
53.53289799999998
 31
0.0
  0
LINE
  5
9C90
330
9BA7
100
AcDbEntity
  8
1
  6
Continuous
100
AcDbLine
 10
143.5538159999999
 20
58.344971
 30
0.0
 11
147.803854
 21
58.344971
 31
0.0
  0
ARC
  5
9C91
330
9BA7
100
AcDbEntity
  8
1
  6
Continuous
100
AcDbCircle
 10
144.786211
 20
59.577365
 30
0.0
 40
3.623247999999998
100
AcDbArc
 50
1.753413
 51
88.24653899999999
  0
LINE
  5
9C92
330
9BA7
100
AcDbEntity
  8
1
  6
Continuous
100
AcDbLine
 10
144.8038119999999
 20
63.156983
 30
0.0
 11
143.337628
 21
62.497765
 31
0.0
  0
LINE
  5
9C93
330
9BA7
100
AcDbEntity
  8
1
  6
Continuous
100
AcDbLine
 10
147.8038119999999
 20
58.344971
 30
0.0
 11
148.365832
 21
59.594975
 31
0.0
  0
LINE
  5
9C94
330
9BA7
100
AcDbEntity
  8
1
  6
Continuous
100
AcDbLine
 10
148.36587
 20
57.09499
 30
0.0
 11
147.80385
 21
58.34498599999999
 31
0.0
  0
LINE
  5
9C95
330
9BA7
100
AcDbEntity
  8
1
  6
Continuous
100
AcDbLine
 10
144.8734359999999
 20
57.259335
 30
0.0
 11
145.861486
 21
55.547982
 31
0.0
  0
LINE
  5
9C96
330
9BA7
100
AcDbEntity
  8
1
  6
Continuous
100
AcDbLine
 10
144.822255
 20
54.947981
 30
0.0
 11
143.8342059999999
 21
56.65933100000001
 31
0.0
  0
ARC
  5
9C97
330
9BA7
100
AcDbEntity
  8
1
  6
Continuous
100
AcDbCircle
 10
143.5232139999999
 20
54.19798
 30
0.0
 40
1.5
100
AcDbArc
 50
334.5182299999998
 51
29.99995999999999
  0
ARC
  5
9C98
330
9BA7
100
AcDbEntity
  8
1
  6
Continuous
100
AcDbCircle
 10
147.1605169999999
 20
56.297978
 30
0.0
 40
1.5
100
AcDbArc
 50
210.0000089999999
 51
265.48158
  0
LINE
  5
9C99
330
9BA7
100
AcDbEntity
  8
1
  6
Continuous
100
AcDbLine
 10
145.1538139999998
 20
58.944977
 30
0.0
 11
147.1299149999999
 21
58.944977
 31
0.0
  0
LINE
  5
9C9A
330
9BA7
100
AcDbEntity
  8
1
  6
Continuous
100
AcDbLine
 10
147.1299149999999
 20
57.744976
 30
0.0
 11
145.153818
 21
57.744976
 31
0.0
  0
ARC
  5
9C9B
330
9BA7
100
AcDbEntity
  8
1
  6
Continuous
100
AcDbCircle
 10
147.1299149999999
 20
56.244973
 30
0.0
 40
1.5
100
AcDbArc
 50
34.51822999999999
 51
89.99996000000001
  0
ARC
  5
9C9C
330
9BA7
100
AcDbEntity
  8
1
  6
Continuous
100
AcDbCircle
 10
147.1299149999999
 20
60.44496899999999
 30
0.0
 40
1.5
100
AcDbArc
 50
270.0000089999999
 51
325.48158
  0
ARC
  5
9C9D
330
9BA7
100
AcDbEntity
  8
1
  6
Continuous
100
AcDbCircle
 10
142.9681699999999
 20
60.530613
 30
0.0
 40
1.0
100
AcDbArc
 50
305.8481929999998
 51
329.999982
  0
LINE
  5
9C9E
330
9BA7
100
AcDbEntity
  8
1
  6
Continuous
100
AcDbLine
 10
143.8341949999999
 20
60.030613
 30
0.0
 11
144.822245
 21
61.741967
 31
0.0
  0
LINE
  5
9C9F
330
9BA7
100
AcDbEntity
  8
1
  6
Continuous
100
AcDbLine
 10
145.861477
 20
61.14196599999999
 30
0.0
 11
144.8734279999999
 21
59.430616
 31
0.0
  0
ARC
  5
9CA0
330
9BA7
100
AcDbEntity
  8
1
  6
Continuous
100
AcDbCircle
 10
147.1605169999999
 20
60.391965
 30
0.0
 40
1.5
100
AcDbArc
 50
94.51823
 51
149.99996
  0
ARC
  5
9CA1
330
9BA7
100
AcDbEntity
  8
1
  6
Continuous
100
AcDbCircle
 10
143.5232139999999
 20
62.491963
 30
0.0
 40
1.5
100
AcDbArc
 50
330.0000089999998
 51
25.48157999999999
  0
LINE
  5
9CA2
330
9BA7
100
AcDbEntity
  8
1
  6
Continuous
100
AcDbLine
 10
143.553796
 20
58.344977
 30
0.0
 11
145.6788149999999
 21
62.02561800000001
 31
0.0
  0
LINE
  5
9CA3
330
9BA7
100
AcDbEntity
  8
1
  6
Continuous
100
AcDbLine
 10
143.5538219999999
 20
58.344951
 30
0.0
 11
145.678841
 21
54.66431
 31
0.0
  0
LINE
  5
9CA4
330
9BA7
100
AcDbEntity
  8
1
  6
Continuous
100
AcDbLine
 10
329.553786
 20
164.6097189999998
 30
0.0
 11
329.553786
 21
141.2712219999999
 31
0.0
  0
LINE
  5
9CA5
330
9BA7
100
AcDbEntity
  8
1
  6
Continuous
100
AcDbLine
 10
335.745299
 20
167.2624719999998
 30
0.0
 11
340.459086
 21
139.950429
 31
0.0
  0
LINE
  5
9CA6
330
9BA7
100
AcDbEntity
  8
1
  6
Continuous
100
AcDbLine
 10
297.0537859999998
 20
165.4449409999998
 30
0.0
 11
297.0537859999998
 21
161.9449389999997
 31
0.0
  0
LINE
  5
9CA7
330
9BA7
100
AcDbEntity
  8
4
  6
CENTER
 48
0.5
100
AcDbLine
 10
314.553786
 20
181.344941
 30
0.0
 11
314.553786
 21
147.2927409999998
 31
0.0
  0
LINE
  5
9CA8
330
9BA7
100
AcDbEntity
  8
4
  6
CENTER
 48
0.5
100
AcDbLine
 10
309.553786
 20
138.344941
 30
0.0
 11
359.553786
 21
138.344941
 31
0.0
  0
LINE
  5
9CA9
330
9BA7
100
AcDbEntity
  8
4
  6
CENTER
 48
0.5
100
AcDbLine
 10
334.553786
 20
163.344941
 30
0.0
 11
334.553786
 21
113.3449409999998
 31
0.0
  0
LINE
  5
9CAA
330
9BA7
100
AcDbEntity
  8
1
  6
Continuous
100
AcDbLine
 10
329.2905809999998
 20
134.4220589999999
 30
0.0
 11
305.2150539999999
 21
160.3501
 31
0.0
  0
CIRCLE
  5
9CAB
330
9BA7
100
AcDbEntity
  8
1
  6
Continuous
100
AcDbCircle
 10
334.553786
 20
138.344941
 30
0.0
 40
4.0
  0
CIRCLE
  5
9CAC
330
9BA7
100
AcDbEntity
  8
1
  6
Continuous
100
AcDbCircle
 10
334.553786
 20
138.344941
 30
0.0
 40
1.1
  0
ARC
  5
9CAD
330
9BA7
100
AcDbEntity
  8
1
  6
Continuous
100
AcDbCircle
 10
334.0537859999999
 20
138.8449409999997
 30
0.0
 40
6.5
100
AcDbArc
 50
222.87831
 51
9.792199999999999
  0
ARC
  5
9CAE
330
9BA7
100
AcDbEntity
  8
1
  6
Continuous
100
AcDbCircle
 10
301.553786
 20
156.9449389999998
 30
0.0
 40
5.0
100
AcDbArc
 50
42.87827
 51
90.00001800000005
  0
ARC
  5
9CAF
330
9BA7
100
AcDbEntity
  8
1
  6
Continuous
100
AcDbCircle
 10
304.0032759999998
 20
162.8449409999998
 30
0.0
 40
2.5
100
AcDbArc
 50
201.1002499999999
 51
269.99998
  0
LINE
  5
9CB0
330
9BA7
100
AcDbEntity
  8
1
  6
Continuous
100
AcDbLine
 10
305.2198439999999
 20
160.344941
 30
0.0
 11
304.0032759999998
 21
160.344941
 31
0.0
  0
LINE
  5
9CB1
330
9BA7
100
AcDbEntity
  8
1
  6
Continuous
100
AcDbLine
 10
301.553786
 20
161.9449389999997
 30
0.0
 11
297.0537859999998
 21
161.9449389999997
 31
0.0
  0
LINE
  5
9CB2
330
9BA7
100
AcDbEntity
  8
1
  6
Continuous
100
AcDbLine
 10
330.0537859999999
 20
172.5449419999999
 30
0.0
 11
299.0537859999998
 21
172.5449419999999
 31
0.0
  0
LINE
  5
9CB3
330
9BA7
100
AcDbEntity
  8
1
  6
Continuous
100
AcDbLine
 10
330.0537859999999
 20
169.7449419999998
 30
0.0
 11
299.0537859999998
 21
169.7449419999998
 31
0.0
  0
LINE
  5
9CB4
330
9BA7
100
AcDbEntity
  8
1
  6
Continuous
100
AcDbLine
 10
330.5601679999998
 20
168.4449419999999
 30
0.0
 11
300.053786
 21
168.4449419999999
 31
0.0
  0
LINE
  5
9CB5
330
9BA7
100
AcDbEntity
  8
1
  6
Continuous
100
AcDbLine
 10
340.053786
 20
174.044942
 30
0.0
 11
289.053786
 21
174.044942
 31
0.0
  0
LINE
  5
9CB6
330
9BA7
100
AcDbEntity
  8
1
  6
Continuous
100
AcDbLine
 10
340.053786
 20
176.3449409999997
 30
0.0
 11
289.053786
 21
176.3449409999997
 31
0.0
  0
LINE
  5
9CB7
330
9BA7
100
AcDbEntity
  8
1
  6
Continuous
100
AcDbLine
 10
337.353785
 20
166.730253
 30
0.0
 11
333.701493
 21
167.9387309999999
 31
0.0
  0
LINE
  5
9CB8
330
9BA7
100
AcDbEntity
  8
1
  6
Continuous
100
AcDbLine
 10
336.851174
 20
165.2112459999998
 30
0.0
 11
336.0537859999999
 21
165.4750869999998
 31
0.0
  0
LINE
  5
9CB9
330
9BA7
100
AcDbEntity
  8
1
  6
Continuous
100
AcDbLine
 10
337.353785
 20
166.730253
 30
0.0
 11
336.851174
 21
165.2112459999998
 31
0.0
  0
LINE
  5
9CBA
330
9BA7
100
AcDbEntity
  8
4
  6
CENTER
 48
0.5
100
AcDbLine
 10
334.553786
 20
179.344941
 30
0.0
 11
334.553786
 21
171.0449419999999
 31
0.0
  0
LINE
  5
9CBB
330
9BA7
100
AcDbEntity
  8
1
  6
Continuous
100
AcDbLine
 10
340.053786
 20
176.3449409999997
 30
0.0
 11
340.053786
 21
174.044942
 31
0.0
  0
ARC
  5
9CBC
330
9BA7
100
AcDbEntity
  8
1
  6
Continuous
100
AcDbCircle
 10
322.231444
 20
170.3294419999997
 30
0.0
 40
1.984499999999996
100
AcDbArc
 50
204.2453599999999
 51
251.7335999999999
  0
ARC
  5
9CBD
330
9BA7
100
AcDbEntity
  8
1
  6
Continuous
100
AcDbCircle
 10
325.018367
 20
170.3294419999997
 30
0.0
 40
1.984499999999996
100
AcDbArc
 50
225.3984399999999
 51
251.7336499999999
  0
ARC
  5
9CBE
330
9BA7
100
AcDbEntity
  8
1
  6
Continuous
100
AcDbCircle
 10
326.6712899999999
 20
170.3294419999997
 30
0.0
 40
1.984499999999996
100
AcDbArc
 50
288.26637
 51
342.87049
  0
ARC
  5
9CBF
330
9BA7
100
AcDbEntity
  8
1
  6
Continuous
100
AcDbCircle
 10
325.018367
 20
170.3294419999997
 30
0.0
 40
1.984499999999996
100
AcDbArc
 50
288.26637
 51
342.87049
  0
ARC
  5
9CC0
330
9BA7
100
AcDbEntity
  8
1
  6
Continuous
100
AcDbCircle
 10
322.231444
 20
170.3294419999997
 30
0.0
 40
1.984499999999996
100
AcDbArc
 50
288.26637
 51
342.87049
  0
ARC
  5
9CC1
330
9BA7
100
AcDbEntity
  8
1
  6
Continuous
100
AcDbCircle
 10
318.612529
 20
170.3294419999997
 30
0.0
 40
1.984499999999996
100
AcDbArc
 50
288.2664099999999
 51
342.87049
  0
ARC
  5
9CC2
330
9BA7
100
AcDbEntity
  8
1
  6
Continuous
100
AcDbCircle
 10
327.509854
 20
171.375152
 30
0.0
 40
2.799999999999998
100
AcDbArc
 50
24.69464
 51
72.45801
  0
ARC
  5
9CC3
330
9BA7
100
AcDbEntity
  8
1
  6
Continuous
100
AcDbCircle
 10
327.053786
 20
170.3294419999997
 30
0.0
 40
1.984499999999996
100
AcDbArc
 50
288.26637
 51
342.87049
  0
ARC
  5
9CC4
330
9BA7
100
AcDbEntity
  8
1
  6
Continuous
100
AcDbCircle
 10
330.5601679999998
 20
158.4449389999998
 30
0.0
 40
10.0
100
AcDbArc
 50
71.69153
 51
90.00001800000005
  0
LINE
  5
9CC5
330
9BA7
100
AcDbEntity
  8
1
  6
Continuous
100
AcDbLine
 10
330.0537859999999
 20
172.5449419999999
 30
0.0
 11
330.0537859999999
 21
169.7449419999998
 31
0.0
  0
ARC
  5
9CC6
330
9BA7
100
AcDbEntity
  8
1
  6
Continuous
100
AcDbCircle
 10
304.089205
 20
170.3294419999997
 30
0.0
 40
1.984499999999996
100
AcDbArc
 50
197.1295299999999
 51
251.7335999999999
  0
ARC
  5
9CC7
330
9BA7
100
AcDbEntity
  8
1
  6
Continuous
100
AcDbCircle
 10
306.8761279999999
 20
170.3294419999997
 30
0.0
 40
1.984499999999996
100
AcDbArc
 50
197.1295299999999
 51
251.7335999999999
  0
ARC
  5
9CC8
330
9BA7
100
AcDbEntity
  8
1
  6
Continuous
100
AcDbCircle
 10
310.495043
 20
170.3294419999997
 30
0.0
 40
1.984499999999996
100
AcDbArc
 50
197.1295299999999
 51
251.7335999999999
  0
ARC
  5
9CC9
330
9BA7
100
AcDbEntity
  8
1
  6
Continuous
100
AcDbCircle
 10
318.612529
 20
170.3294419999997
 30
0.0
 40
1.984499999999996
100
AcDbArc
 50
197.1295199999999
 51
251.7335999999999
  0
ARC
  5
9CCA
330
9BA7
100
AcDbEntity
  8
1
  6
Continuous
100
AcDbCircle
 10
304.089205
 20
170.3294419999997
 30
0.0
 40
1.984499999999996
100
AcDbArc
 50
288.2664099999999
 51
314.6015799999998
  0
ARC
  5
9CCB
330
9BA7
100
AcDbEntity
  8
1
  6
Continuous
100
AcDbCircle
 10
306.8761279999999
 20
170.3294419999997
 30
0.0
 40
1.984499999999996
100
AcDbArc
 50
288.2664099999999
 51
335.7546500000001
  0
ARC
  5
9CCC
330
9BA7
100
AcDbEntity
  8
1
  6
Continuous
100
AcDbCircle
 10
310.495043
 20
170.3294419999997
 30
0.0
 40
1.984499999999996
100
AcDbArc
 50
288.2664099999999
 51
342.87049
  0
ARC
  5
9CCD
330
9BA7
100
AcDbEntity
  8
1
  6
Continuous
100
AcDbCircle
 10
314.553786
 20
170.3294419999997
 30
0.0
 40
1.984499999999996
100
AcDbArc
 50
197.1295299999999
 51
251.7335999999999
  0
ARC
  5
9CCE
330
9BA7
100
AcDbEntity
  8
1
  6
Continuous
100
AcDbCircle
 10
314.553786
 20
170.3294419999997
 30
0.0
 40
1.984499999999996
100
AcDbArc
 50
288.2664099999999
 51
342.87049
  0
ARC
  5
9CCF
330
9BA7
100
AcDbEntity
  8
1
  6
Continuous
100
AcDbCircle
 10
300.053786
 20
165.4449409999998
 30
0.0
 40
3.0
100
AcDbArc
 50
90.00001800000005
 51
180.0
  0
ARC
  5
9CD0
330
9BA7
100
AcDbEntity
  8
1
  6
Continuous
100
AcDbCircle
 10
302.436282
 20
170.3294419999997
 30
0.0
 40
1.984499999999996
100
AcDbArc
 50
197.1295199999999
 51
251.7335999999999
  0
ARC
  5
9CD1
330
9BA7
100
AcDbEntity
  8
1
  6
Continuous
100
AcDbCircle
 10
301.5977159999998
 20
171.375152
 30
0.0
 40
2.799999999999998
100
AcDbArc
 50
107.542027
 51
155.3053959999997
  0
ARC
  5
9CD2
330
9BA7
100
AcDbEntity
  8
1
  6
Continuous
100
AcDbCircle
 10
302.053786
 20
170.3294419999997
 30
0.0
 40
1.984499999999996
100
AcDbArc
 50
197.1295299999999
 51
251.7335999999999
  0
LINE
  5
9CD3
330
9BA7
100
AcDbEntity
  8
1
  6
Continuous
100
AcDbLine
 10
299.0537859999998
 20
172.5449419999999
 30
0.0
 11
299.0537859999998
 21
169.7449419999998
 31
0.0
  0
LINE
  5
9CD4
330
9BA7
100
AcDbEntity
  8
4
  6
CENTER
 48
0.5
100
AcDbLine
 10
294.5537859999999
 20
179.344941
 30
0.0
 11
294.5537859999999
 21
171.0449419999999
 31
0.0
  0
LINE
  5
9CD5
330
9BA7
100
AcDbEntity
  8
1
  6
Continuous
100
AcDbLine
 10
289.053786
 20
176.3449409999997
 30
0.0
 11
289.053786
 21
174.044942
 31
0.0
  0
LINE
  5
9CD6
330
9BA7
100
AcDbEntity
  8
1
  6
Continuous
100
AcDbLine
 10
117.573046
 20
224.244941
 30
0.0
 11
117.573046
 21
225.844941
 31
0.0
  0
LINE
  5
9CD9
330
9BA7
100
AcDbEntity
  8
1
  6
Continuous
100
AcDbLine
 10
117.573046
 20
248.444941
 30
0.0
 11
117.573046
 21
246.844941
 31
0.0
  0
ARC
  5
9CDE
330
9BA7
100
AcDbEntity
  8
1
  6
Continuous
100
AcDbCircle
 10
120.733584
 20
249.6449359999997
 30
0.0
 40
1.0
100
AcDbArc
 50
112.0375909999999
 51
150.252336
  0
LINE
  5
9CDF
330
9BA7
100
AcDbEntity
  8
1
  6
Continuous
100
AcDbLine
 10
118.646384
 20
248.444941
 30
0.0
 11
117.573046
 21
248.444941
 31
0.0
  0
LINE
  5
9CE0
330
9BA7
100
AcDbEntity
  8
1
  6
Continuous
100
AcDbLine
 10
118.137707
 20
246.844941
 30
0.0
 11
117.573046
 21
246.844941
 31
0.0
  0
LINE
  5
9CE1
330
9BA7
100
AcDbEntity
  8
1
  6
Continuous
100
AcDbLine
 10
118.137707
 20
225.844941
 30
0.0
 11
117.573046
 21
225.844941
 31
0.0
  0
LINE
  5
9CE2
330
9BA7
100
AcDbEntity
  8
1
  6
Continuous
100
AcDbLine
 10
118.646384
 20
224.244941
 30
0.0
 11
117.573046
 21
224.244941
 31
0.0
  0
LINE
  5
9CE3
330
9BA7
100
AcDbEntity
  8
1
  6
Continuous
100
AcDbLine
 10
61.05378599999998
 20
165.4449419999999
 30
0.0
 11
61.05378599999998
 21
150.293351
 31
0.0
  0
LINE
  5
9CE4
330
9BA7
100
AcDbEntity
  8
1
  6
Continuous
100
AcDbLine
 10
26.05378599999999
 20
165.4449419999999
 30
0.0
 11
26.05378599999999
 21
150.2933429999998
 31
0.0
  0
ARC
  5
9CE5
330
9BA7
100
AcDbEntity
  8
1
  6
Continuous
100
AcDbCircle
 10
29.053786
 20
165.4449419999999
 30
0.0
 40
3.0
100
AcDbArc
 50
90.0
 51
180.0
  0
ARC
  5
9CE6
330
9BA7
100
AcDbEntity
  8
1
  6
Continuous
100
AcDbCircle
 10
58.053786
 20
165.4449419999999
 30
0.0
 40
3.0
100
AcDbArc
 50
0.0
 51
90.0
  0
LINE
  5
9CE7
330
9BA7
100
AcDbEntity
  8
1
  6
Continuous
100
AcDbLine
 10
246.5537859999999
 20
165.4449419999999
 30
0.0
 11
246.5537859999999
 21
150.2933429999998
 31
0.0
  0
LINE
  5
9CE8
330
9BA7
100
AcDbEntity
  8
1
  6
Continuous
100
AcDbLine
 10
211.5537859999998
 20
165.4449419999999
 30
0.0
 11
211.5537859999998
 21
150.293351
 31
0.0
  0
LINE
  5
9CE9
330
9BA7
100
AcDbEntity
  8
1
  6
Continuous
100
AcDbLine
 10
241.1537839999998
 20
136.2774919999999
 30
0.0
 11
241.1537839999998
 21
132.344941
 31
0.0
  0
LINE
  5
9CEA
330
9BA7
100
AcDbEntity
  8
1
  6
Continuous
100
AcDbLine
 10
216.953788
 20
136.2774919999999
 30
0.0
 11
216.953788
 21
132.344941
 31
0.0
  0
LINE
  5
9CEB
330
9BA7
100
AcDbEntity
  8
1
  6
Continuous
100
AcDbLine
 10
239.5537859999997
 20
160.344941
 30
0.0
 11
239.5537859999997
 21
132.344941
 31
0.0
  0
LINE
  5
9CEC
330
9BA7
100
AcDbEntity
  8
1
  6
Continuous
100
AcDbLine
 10
218.5537859999997
 20
160.344941
 30
0.0
 11
218.5537859999997
 21
132.344941
 31
0.0
  0
LINE
  5
9CED
330
9BA7
100
AcDbEntity
  8
4
  6
CENTER
 48
0.5
100
AcDbLine
 10
229.0537859999997
 20
181.344941
 30
0.0
 11
229.0537859999997
 21
113.462823
 31
0.0
  0
LINE
  5
9CEE
330
9BA7
100
AcDbEntity
  8
4
  6
CENTER
 48
0.5
100
AcDbLine
 10
248.353781
 20
138.344941
 30
0.0
 11
209.5537859999998
 21
138.344941
 31
0.0
  0
LINE
  5
9CEF
330
9BA7
100
AcDbEntity
  8
1
  6
Continuous
100
AcDbLine
 10
241.1537839999998
 20
132.344941
 30
0.0
 11
239.5537859999997
 21
132.344941
 31
0.0
  0
LINE
  5
9CF0
330
9BA7
100
AcDbEntity
  8
1
  6
Continuous
100
AcDbLine
 10
242.5537779999999
 20
138.330229
 30
0.0
 11
242.5537779999999
 21
134.544942
 31
0.0
  0
LINE
  5
9CF1
330
9BA7
100
AcDbEntity
  8
1
  6
Continuous
100
AcDbLine
 10
243.353781
 20
139.474183
 30
0.0
 11
243.353781
 21
135.5247389999999
 31
0.0
  0
ARC
  5
9CF2
330
9BA7
100
AcDbEntity
  8
1
  6
Continuous
100
AcDbCircle
 10
242.353781
 20
135.5247389999999
 30
0.0
 40
1.0
100
AcDbArc
 50
281.53679
 51
0.00002
  0
LINE
  5
9CF3
330
9BA7
100
AcDbEntity
  8
1
  6
Continuous
100
AcDbLine
 10
242.5537779999999
 20
134.544946
 30
0.0
 11
241.1537839999998
 21
135.322133
 31
0.0
  0
ARC
  5
9CF4
330
9BA7
100
AcDbEntity
  8
1
  6
Continuous
100
AcDbCircle
 10
218.8350359999998
 20
138.344941
 30
0.0
 40
4.420304999999999
100
AcDbArc
 50
194.4095499999999
 51
244.8118299999999
  0
LINE
  5
9CF5
330
9BA7
100
AcDbEntity
  8
1
  6
Continuous
100
AcDbLine
 10
239.0537859999998
 20
135.344941
 30
0.0
 11
239.5537859999997
 21
135.344941
 31
0.0
  0
LINE
  5
9CF6
330
9BA7
100
AcDbEntity
  8
1
  6
Continuous
100
AcDbLine
 10
218.5537859999997
 20
135.344941
 30
0.0
 11
219.0537859999998
 21
135.344941
 31
0.0
  0
LINE
  5
9CF7
330
9BA7
100
AcDbEntity
  8
1
  6
Continuous
100
AcDbLine
 10
218.5537859999997
 20
132.344941
 30
0.0
 11
216.953788
 21
132.344941
 31
0.0
  0
LINE
  5
9CF8
330
9BA7
100
AcDbEntity
  8
1
  6
Continuous
100
AcDbLine
 10
239.0537859999998
 20
141.344941
 30
0.0
 11
239.5537859999997
 21
141.344941
 31
0.0
  0
ARC
  5
9CF9
330
9BA7
100
AcDbEntity
  8
1
  6
Continuous
100
AcDbCircle
 10
218.8350359999998
 20
138.344941
 30
0.0
 40
4.420304999999999
100
AcDbArc
 50
162.406377
 51
165.5904539999999
  0
LINE
  5
9CFA
330
9BA7
100
AcDbEntity
  8
1
  6
Continuous
100
AcDbLine
 10
214.5537859999997
 20
139.4449389999997
 30
0.0
 11
214.5537859999997
 21
137.244943
 31
0.0
  0
LINE
  5
9CFB
330
9BA7
100
AcDbEntity
  8
1
  6
Continuous
100
AcDbLine
 10
218.5537859999997
 20
141.344941
 30
0.0
 11
219.0537859999998
 21
141.344941
 31
0.0
  0
LINE
  5
9CFC
330
9BA7
100
AcDbEntity
  8
1
  6
Continuous
100
AcDbLine
 10
243.5537859999997
 20
168.4449419999999
 30
0.0
 11
214.5537859999997
 21
168.4449419999999
 31
0.0
  0
ARC
  5
9CFD
330
9BA7
100
AcDbEntity
  8
1
  6
Continuous
100
AcDbCircle
 10
239.51837
 20
170.3294419999997
 30
0.0
 40
1.984499999999996
100
AcDbArc
 50
288.2663099999998
 51
342.87049
  0
LINE
  5
9CFE
330
9BA7
100
AcDbEntity
  8
1
  6
Continuous
100
AcDbLine
 10
244.5537859999999
 20
172.5449419999999
 30
0.0
 11
213.5537859999999
 21
172.5449419999999
 31
0.0
  0
LINE
  5
9CFF
330
9BA7
100
AcDbEntity
  8
1
  6
Continuous
100
AcDbLine
 10
244.5537859999999
 20
169.7449419999998
 30
0.0
 11
213.5537859999999
 21
169.7449419999998
 31
0.0
  0
LINE
  5
9D00
330
9BA7
100
AcDbEntity
  8
1
  6
Continuous
100
AcDbLine
 10
244.5537859999999
 20
174.044942
 30
0.0
 11
213.5537859999999
 21
174.044942
 31
0.0
  0
LINE
  5
9D01
330
9BA7
100
AcDbEntity
  8
1
  6
Continuous
100
AcDbLine
 10
244.5537859999999
 20
176.3449409999997
 30
0.0
 11
213.5537859999999
 21
176.3449409999997
 31
0.0
  0
ARC
  5
9D02
330
9BA7
100
AcDbEntity
  8
1
  6
Continuous
100
AcDbCircle
 10
243.5537859999997
 20
165.4449419999999
 30
0.0
 40
3.0
100
AcDbArc
 50
0.0
 51
90.0
  0
ARC
  5
9D03
330
9BA7
100
AcDbEntity
  8
1
  6
Continuous
100
AcDbCircle
 10
241.171294
 20
170.3294419999997
 30
0.0
 40
1.984499999999996
100
AcDbArc
 50
288.2663099999998
 51
342.87049
  0
ARC
  5
9D04
330
9BA7
100
AcDbEntity
  8
1
  6
Continuous
100
AcDbCircle
 10
242.009856
 20
171.375152
 30
0.0
 40
2.799999999999998
100
AcDbArc
 50
24.69464
 51
72.45801
  0
ARC
  5
9D05
330
9BA7
100
AcDbEntity
  8
1
  6
Continuous
100
AcDbCircle
 10
241.5537859999997
 20
170.3294419999997
 30
0.0
 40
1.984499999999996
100
AcDbArc
 50
288.2663099999998
 51
342.87049
  0
LINE
  5
9D06
330
9BA7
100
AcDbEntity
  8
1
  6
Continuous
100
AcDbLine
 10
244.5537859999999
 20
172.5449419999999
 30
0.0
 11
244.5537859999999
 21
169.7449419999998
 31
0.0
  0
LINE
  5
9D07
330
9BA7
100
AcDbEntity
  8
1
  6
Continuous
100
AcDbLine
 10
244.5537859999999
 20
176.3449409999997
 30
0.0
 11
244.5537859999999
 21
174.044942
 31
0.0
  0
LINE
  5
9D08
330
9BA7
100
AcDbEntity
  8
4
  6
CENTER
 48
0.5
100
AcDbLine
 10
239.0537859999998
 20
179.344941
 30
0.0
 11
239.0537859999998
 21
171.0449419999999
 31
0.0
  0
LINE
  5
9D09
330
9BA7
100
AcDbEntity
  8
4
  6
CENTER
 48
0.5
100
AcDbLine
 10
219.0537859999998
 20
179.344941
 30
0.0
 11
219.0537859999998
 21
171.0449419999999
 31
0.0
  0
ARC
  5
9D0A
330
9BA7
100
AcDbEntity
  8
1
  6
Continuous
100
AcDbCircle
 10
233.1125319999999
 20
170.3294419999997
 30
0.0
 40
1.984499999999996
100
AcDbArc
 50
197.1295199999999
 51
251.73371
  0
ARC
  5
9D0B
330
9BA7
100
AcDbEntity
  8
1
  6
Continuous
100
AcDbCircle
 10
236.7314439999999
 20
170.3294419999997
 30
0.0
 40
1.984499999999996
100
AcDbArc
 50
204.2453599999999
 51
251.73371
  0
ARC
  5
9D0C
330
9BA7
100
AcDbEntity
  8
1
  6
Continuous
100
AcDbCircle
 10
239.51837
 20
170.3294419999997
 30
0.0
 40
1.984499999999996
100
AcDbArc
 50
225.3984399999999
 51
251.73371
  0
ARC
  5
9D0D
330
9BA7
100
AcDbEntity
  8
1
  6
Continuous
100
AcDbCircle
 10
224.9950399999999
 20
170.3294419999997
 30
0.0
 40
1.984499999999996
100
AcDbArc
 50
288.2663099999998
 51
342.87049
  0
ARC
  5
9D0E
330
9BA7
100
AcDbEntity
  8
1
  6
Continuous
100
AcDbCircle
 10
229.0537859999997
 20
170.3294419999997
 30
0.0
 40
1.984499999999996
100
AcDbArc
 50
197.1295299999999
 51
251.73371
  0
ARC
  5
9D0F
330
9BA7
100
AcDbEntity
  8
1
  6
Continuous
100
AcDbCircle
 10
236.7314439999999
 20
170.3294419999997
 30
0.0
 40
1.984499999999996
100
AcDbArc
 50
288.2663099999998
 51
342.87049
  0
ARC
  5
9D10
330
9BA7
100
AcDbEntity
  8
1
  6
Continuous
100
AcDbCircle
 10
233.1125319999999
 20
170.3294419999997
 30
0.0
 40
1.984499999999996
100
AcDbArc
 50
288.2663099999998
 51
342.87049
  0
ARC
  5
9D11
330
9BA7
100
AcDbEntity
  8
1
  6
Continuous
100
AcDbCircle
 10
229.0537859999997
 20
170.3294419999997
 30
0.0
 40
1.984499999999996
100
AcDbArc
 50
288.2663099999998
 51
342.87049
  0
ARC
  5
9D12
330
9BA7
100
AcDbEntity
  8
1
  6
Continuous
100
AcDbCircle
 10
214.5537859999997
 20
165.4449419999999
 30
0.0
 40
3.0
100
AcDbArc
 50
90.0
 51
180.0
  0
ARC
  5
9D13
330
9BA7
100
AcDbEntity
  8
1
  6
Continuous
100
AcDbCircle
 10
218.589202
 20
170.3294419999997
 30
0.0
 40
1.984499999999996
100
AcDbArc
 50
197.1295299999999
 51
251.73371
  0
ARC
  5
9D14
330
9BA7
100
AcDbEntity
  8
1
  6
Continuous
100
AcDbCircle
 10
221.3761279999999
 20
170.3294419999997
 30
0.0
 40
1.984499999999996
100
AcDbArc
 50
197.1295299999999
 51
251.73371
  0
ARC
  5
9D15
330
9BA7
100
AcDbEntity
  8
1
  6
Continuous
100
AcDbCircle
 10
224.9950399999999
 20
170.3294419999997
 30
0.0
 40
1.984499999999996
100
AcDbArc
 50
197.1295299999999
 51
251.73371
  0
ARC
  5
9D16
330
9BA7
100
AcDbEntity
  8
1
  6
Continuous
100
AcDbCircle
 10
216.9362779999999
 20
170.3294419999997
 30
0.0
 40
1.984499999999996
100
AcDbArc
 50
197.1295199999999
 51
251.73371
  0
ARC
  5
9D17
330
9BA7
100
AcDbEntity
  8
1
  6
Continuous
100
AcDbCircle
 10
218.589202
 20
170.3294419999997
 30
0.0
 40
1.984499999999996
100
AcDbArc
 50
288.2663099999998
 51
314.6015799999998
  0
ARC
  5
9D18
330
9BA7
100
AcDbEntity
  8
1
  6
Continuous
100
AcDbCircle
 10
221.3761279999999
 20
170.3294419999997
 30
0.0
 40
1.984499999999996
100
AcDbArc
 50
288.2663099999998
 51
335.7546500000001
  0
ARC
  5
9D19
330
9BA7
100
AcDbEntity
  8
1
  6
Continuous
100
AcDbCircle
 10
216.0977159999999
 20
171.375152
 30
0.0
 40
2.799999999999998
100
AcDbArc
 50
107.542027
 51
155.3053959999997
  0
ARC
  5
9D1A
330
9BA7
100
AcDbEntity
  8
1
  6
Continuous
100
AcDbCircle
 10
216.5537859999997
 20
170.3294419999997
 30
0.0
 40
1.984499999999996
100
AcDbArc
 50
197.1295299999999
 51
251.73371
  0
LINE
  5
9D1B
330
9BA7
100
AcDbEntity
  8
1
  6
Continuous
100
AcDbLine
 10
213.5537859999999
 20
172.5449419999999
 30
0.0
 11
213.5537859999999
 21
169.7449419999998
 31
0.0
  0
LINE
  5
9D1C
330
9BA7
100
AcDbEntity
  8
1
  6
Continuous
100
AcDbLine
 10
213.5537859999999
 20
176.3449409999997
 30
0.0
 11
213.5537859999999
 21
174.044942
 31
0.0
  0
ARC
  5
9D1D
330
9BA7
100
AcDbEntity
  8
1
  6
Continuous
100
AcDbCircle
 10
231.441613
 20
150.2927899999999
 30
0.0
 40
19.88782699999998
100
AcDbArc
 50
145.669272
 51
222.142689
  0
ARC
  5
9D1E
330
9BA7
100
AcDbEntity
  8
1
  6
Continuous
100
AcDbCircle
 10
226.6659589999999
 20
150.2927899999999
 30
0.0
 40
19.88782699999998
100
AcDbArc
 50
317.8573109999998
 51
34.330728
  0
LINE
  5
9D1F
330
9BA7
100
AcDbEntity
  8
1
  6
Continuous
100
AcDbLine
 10
215.844122
 20
161.9449389999997
 30
0.0
 11
242.2634509999999
 21
161.9449389999997
 31
0.0
  0
ARC
  5
9D20
330
9BA7
100
AcDbEntity
  8
1
  6
Continuous
100
AcDbCircle
 10
226.6659589999999
 20
150.2927899999999
 30
0.0
 40
18.287827
100
AcDbArc
 50
317.857319
 51
39.579873
  0
ARC
  5
9D21
330
9BA7
100
AcDbEntity
  8
1
  6
Continuous
100
AcDbCircle
 10
231.441613
 20
150.2927899999999
 30
0.0
 40
18.287827
100
AcDbArc
 50
140.420127
 51
222.142681
  0
ARC
  5
9D22
330
9BA7
100
AcDbEntity
  8
1
  6
Continuous
100
AcDbCircle
 10
242.2634509999999
 20
160.9449389999998
 30
0.0
 40
1.0
100
AcDbArc
 50
34.330728
 51
90.0
  0
ARC
  5
9D23
330
9BA7
100
AcDbEntity
  8
1
  6
Continuous
100
AcDbCircle
 10
215.844122
 20
160.9449389999998
 30
0.0
 40
1.0
100
AcDbArc
 50
90.0
 51
145.669272
  0
ARC
  5
9D24
330
9BA7
100
AcDbEntity
  8
1
  6
Continuous
100
AcDbCircle
 10
215.953788
 20
136.2774919999999
 30
0.0
 40
1.0
100
AcDbArc
 50
0.0
 51
42.14268899999999
  0
ARC
  5
9D25
330
9BA7
100
AcDbEntity
  8
1
  6
Continuous
100
AcDbCircle
 10
215.9537859999999
 20
136.2774939999999
 30
0.0
 40
2.6
100
AcDbArc
 50
0.0
 51
42.142681
  0
ARC
  5
9D26
330
9BA7
100
AcDbEntity
  8
1
  6
Continuous
100
AcDbCircle
 10
242.1537839999998
 20
136.2774919999999
 30
0.0
 40
1.0
100
AcDbArc
 50
137.857311
 51
180.0
  0
ARC
  5
9D27
330
9BA7
100
AcDbEntity
  8
1
  6
Continuous
100
AcDbCircle
 10
242.1537859999999
 20
136.2774939999999
 30
0.0
 40
2.6
100
AcDbArc
 50
137.857319
 51
180.0
  0
ARC
  5
9D28
330
9BA7
100
AcDbEntity
  8
1
  6
Continuous
100
AcDbCircle
 10
128.9305169999997
 20
75.444941
 30
0.0
 40
5.0
100
AcDbArc
 50
270.0
 51
310.535802
  0
ARC
  5
9D29
330
9BA7
100
AcDbEntity
  8
1
  6
Continuous
100
AcDbCircle
 10
129.533801
 20
73.84494100000002
 30
0.0
 40
5.0
100
AcDbArc
 50
270.0
 51
312.1298219999999
  0
ARC
  5
9D2A
330
9BA7
100
AcDbEntity
  8
1
  6
Continuous
100
AcDbCircle
 10
128.9305169999997
 20
41.24494099999997
 30
0.0
 40
5.0
100
AcDbArc
 50
49.46419800000001
 51
90.0
  0
ARC
  5
9D2B
330
9BA7
100
AcDbEntity
  8
1
  6
Continuous
100
AcDbCircle
 10
129.533801
 20
42.84494099999998
 30
0.0
 40
5.0
100
AcDbArc
 50
47.870178
 51
90.0
  0
ARC
  5
9D2C
330
9BA7
100
AcDbEntity
  8
1
  6
Continuous
100
AcDbCircle
 10
124.053786
 20
48.844941
 30
0.0
 40
6.0
100
AcDbArc
 50
231.9824509999999
 51
270.0000179999999
  0
ARC
  5
9D2D
330
9BA7
100
AcDbEntity
  8
1
  6
Continuous
100
AcDbCircle
 10
239.6042959999999
 20
162.8449409999998
 30
0.0
 40
2.5
100
AcDbArc
 50
270.00002
 51
316.1905229999998
  0
LINE
  5
9D2E
330
9BA7
100
AcDbEntity
  8
1
  6
Continuous
100
AcDbLine
 10
238.3877279999999
 20
160.344941
 30
0.0
 11
239.6042959999999
 21
160.344941
 31
0.0
  0
LINE
  5
9D2F
330
9BA7
100
AcDbEntity
  8
1
  6
Continuous
100
AcDbLine
 10
239.5537859999997
 20
160.344941
 30
0.0
 11
217.9747819999998
 21
160.344941
 31
0.0
  0
ARC
  5
9D30
330
9BA7
100
AcDbEntity
  8
1
  6
Continuous
100
AcDbCircle
 10
218.5032759999999
 20
162.8449409999998
 30
0.0
 40
2.5
100
AcDbArc
 50
223.809477
 51
269.99998
  0
LINE
  5
9D33
330
9BA7
100
AcDbEntity
  8
1
  6
Continuous
100
AcDbLine
 10
118.053786
 20
228.344941
 30
0.0
 11
104.970511
 21
228.344941
 31
0.0
  0
LINE
  5
9D34
330
9BA7
100
AcDbEntity
  8
1
  6
Continuous
100
AcDbLine
 10
118.053786
 20
244.3449409999999
 30
0.0
 11
104.970511
 21
244.3449409999999
 31
0.0
  0
ARC
  5
9D35
330
9BA7
100
AcDbEntity
  8
1
  6
Continuous
100
AcDbCircle
 10
123.553786
 20
138.344941
 30
0.0
 40
15.5
100
AcDbArc
 50
103.35238
 51
22.221196
  0
ARC
  5
9D36
330
9BA7
100
AcDbEntity
  8
1
  6
Continuous
100
AcDbCircle
 10
123.553786
 20
138.344941
 30
0.0
 40
20.0
100
AcDbArc
 50
97.942849
 51
28.076805
  0
ARC
  5
9D37
330
9BA7
100
AcDbEntity
  8
1
  6
Continuous
100
AcDbCircle
 10
123.553786
 20
138.344941
 30
0.0
 40
12.5
100
AcDbArc
 50
202.6459899999999
 51
217.3540699999997
  0
LINE
  5
9D38
330
9BA7
100
AcDbEntity
  8
1
  6
Continuous
100
AcDbLine
 10
109.402098
 20
132.021984
 30
0.0
 11
117.7457909999999
 21
136.839214
 31
0.0
  0
LINE
  5
9D39
330
9BA7
100
AcDbEntity
  8
1
  6
Continuous
100
AcDbLine
 10
111.0020969999998
 20
129.250705
 30
0.0
 11
119.34579
 21
134.0679359999997
 31
0.0
  0
LINE
  5
9D3A
330
9BA7
100
AcDbEntity
  8
1
  6
Continuous
100
AcDbLine
 10
137.7054659999997
 20
132.021973
 30
0.0
 11
130.468255
 21
136.200381
 31
0.0
  0
ARC
  5
9D3B
330
9BA7
100
AcDbEntity
  8
1
  6
Continuous
100
AcDbCircle
 10
123.553786
 20
138.344941
 30
0.0
 40
12.5
100
AcDbArc
 50
322.6459999999998
 51
337.3540699999998
  0
LINE
  5
9D3C
330
9BA7
100
AcDbEntity
  8
1
  6
Continuous
100
AcDbLine
 10
136.105468
 20
129.2506989999999
 30
0.0
 11
128.1827989999999
 21
133.824856
 31
0.0
  0
ARC
  5
9D3D
330
9BA7
100
AcDbEntity
  8
1
  6
Continuous
100
AcDbCircle
 10
163.553786
 20
236.344941
 30
0.0
 40
60.0
100
AcDbArc
 50
173.184833
 51
186.813929
  0
LINE
  5
9D3E
330
9BA7
100
AcDbEntity
  8
1
  6
Continuous
100
AcDbLine
 10
117.556109
 20
226.7967999999999
 30
0.0
 11
117.4063529999999
 21
228.344941
 31
0.0
  0
ARC
  5
9D3F
330
9BA7
100
AcDbEntity
  8
1
  6
Continuous
100
AcDbCircle
 10
104.970511
 20
229.344941
 30
0.0
 40
1.0
100
AcDbArc
 50
186.813949
 51
270.00002
  0
ARC
  5
9D40
330
9BA7
100
AcDbEntity
  8
1
  6
Continuous
100
AcDbCircle
 10
118.053786
 20
226.844941
 30
0.0
 40
0.5
100
AcDbArc
 50
185.5252429999999
 51
270.00002
  0
LINE
  5
9D41
330
9BA7
100
AcDbEntity
  8
1
  6
Continuous
100
AcDbLine
 10
117.556109
 20
245.8930819999999
 30
0.0
 11
117.4063529999999
 21
244.3449409999999
 31
0.0
  0
ARC
  5
9D42
330
9BA7
100
AcDbEntity
  8
1
  6
Continuous
100
AcDbCircle
 10
104.970511
 20
243.344941
 30
0.0
 40
1.0
100
AcDbArc
 50
90.00005499999994
 51
173.186124
  0
ARC
  5
9D43
330
9BA7
100
AcDbEntity
  8
1
  6
Continuous
100
AcDbCircle
 10
118.053786
 20
245.844941
 30
0.0
 40
0.5
100
AcDbArc
 50
90.00005499999994
 51
174.4748299999999
  0
ARC
  5
9D44
330
9BA7
100
AcDbEntity
  8
1
  6
Continuous
100
AcDbCircle
 10
43.55378599999998
 20
98.344941
 30
0.0
 40
60.0
100
AcDbArc
 50
83.18483300000002
 51
96.813929
  0
ARC
  5
9D45
330
9BA7
100
AcDbEntity
  8
1
  6
Continuous
100
AcDbCircle
 10
43.55378599999998
 20
178.344941
 30
0.0
 40
60.0
100
AcDbArc
 50
263.1860699999999
 51
276.8151669999999
  0
LINE
  5
9D46
330
9BA7
100
AcDbEntity
  8
1
  6
Continuous
100
AcDbLine
 10
35.55378599999999
 20
119.7616659999999
 30
0.0
 11
35.55378599999999
 21
156.928216
 31
0.0
  0
ARC
  5
9D47
330
9BA7
100
AcDbEntity
  8
1
  6
Continuous
100
AcDbCircle
 10
36.55378599999997
 20
119.7616659999999
 30
0.0
 40
1.0
100
AcDbArc
 50
179.9999799999999
 51
263.1860399999998
  0
LINE
  5
9D48
330
9BA7
100
AcDbEntity
  8
1
  6
Continuous
100
AcDbLine
 10
34.005645
 20
144.3426189999998
 30
0.0
 11
35.55378599999999
 21
144.492375
 31
0.0
  0
ARC
  5
9D49
330
9BA7
100
AcDbEntity
  8
1
  6
Continuous
100
AcDbCircle
 10
34.05378599999998
 20
143.844941
 30
0.0
 40
0.5
100
AcDbArc
 50
95.52524299999999
 51
180.00002
  0
LINE
  5
9D4A
330
9BA7
100
AcDbEntity
  8
1
  6
Continuous
100
AcDbLine
 10
34.005645
 20
132.347264
 30
0.0
 11
35.55378599999999
 21
132.197508
 31
0.0
  0
ARC
  5
9D4B
330
9BA7
100
AcDbEntity
  8
1
  6
Continuous
100
AcDbCircle
 10
34.05378599999998
 20
132.844941
 30
0.0
 40
0.5
100
AcDbArc
 50
179.9999799999999
 51
264.47476
  0
LINE
  5
9D4C
330
9BA7
100
AcDbEntity
  8
1
  6
Continuous
100
AcDbLine
 10
33.55378599999998
 20
132.844941
 30
0.0
 11
33.55378599999998
 21
143.844941
 31
0.0
  0
ARC
  5
9D4D
330
9BA7
100
AcDbEntity
  8
1
  6
Continuous
100
AcDbCircle
 10
36.55378599999997
 20
156.928216
 30
0.0
 40
1.0
100
AcDbArc
 50
96.813949
 51
180.00002
  0
LINE
  5
9D4E
330
9BA7
100
AcDbEntity
  8
1
  6
Continuous
100
AcDbLine
 10
51.55378599999998
 20
119.7616659999999
 30
0.0
 11
51.55378599999998
 21
156.928216
 31
0.0
  0
ARC
  5
9D4F
330
9BA7
100
AcDbEntity
  8
1
  6
Continuous
100
AcDbCircle
 10
50.553786
 20
119.7616659999999
 30
0.0
 40
1.0
100
AcDbArc
 50
276.81388
 51
359.99995
  0
LINE
  5
9D50
330
9BA7
100
AcDbEntity
  8
1
  6
Continuous
100
AcDbLine
 10
53.101927
 20
144.3426189999998
 30
0.0
 11
51.55378599999998
 21
144.492375
 31
0.0
  0
ARC
  5
9D51
330
9BA7
100
AcDbEntity
  8
1
  6
Continuous
100
AcDbCircle
 10
53.053786
 20
143.844941
 30
0.0
 40
0.5
100
AcDbArc
 50
0.000055
 51
84.47483000000003
  0
LINE
  5
9D52
330
9BA7
100
AcDbEntity
  8
1
  6
Continuous
100
AcDbLine
 10
53.101927
 20
132.3472629999999
 30
0.0
 11
51.55378599999998
 21
132.197508
 31
0.0
  0
ARC
  5
9D53
330
9BA7
100
AcDbEntity
  8
1
  6
Continuous
100
AcDbCircle
 10
53.053786
 20
132.844941
 30
0.0
 40
0.5
100
AcDbArc
 50
275.52517
 51
359.99995
  0
LINE
  5
9D54
330
9BA7
100
AcDbEntity
  8
1
  6
Continuous
100
AcDbLine
 10
53.55378599999998
 20
132.844941
 30
0.0
 11
53.55378599999998
 21
143.844941
 31
0.0
  0
ARC
  5
9D55
330
9BA7
100
AcDbEntity
  8
1
  6
Continuous
100
AcDbCircle
 10
50.553786
 20
156.928216
 30
0.0
 40
1.0
100
AcDbArc
 50
0.000055
 51
83.18612399999997
  0
LINE
  5
9D56
330
9BA7
100
AcDbEntity
  8
1
  6
Continuous
100
AcDbLine
 10
142.1370609999998
 20
50.34494099999999
 30
0.0
 11
104.970511
 21
50.34494099999999
 31
0.0
  0
LINE
  5
9D57
330
9BA7
100
AcDbEntity
  8
1
  6
Continuous
100
AcDbLine
 10
142.1370609999998
 20
66.34494100000001
 30
0.0
 11
104.970511
 21
66.34494100000001
 31
0.0
  0
ARC
  5
9D58
330
9BA7
100
AcDbEntity
  8
1
  6
Continuous
100
AcDbCircle
 10
163.553786
 20
58.344941
 30
0.0
 40
60.0
100
AcDbArc
 50
173.184833
 51
186.813929
  0
ARC
  5
9D59
330
9BA7
100
AcDbEntity
  8
1
  6
Continuous
100
AcDbCircle
 10
104.970511
 20
51.344941
 30
0.0
 40
1.0
100
AcDbArc
 50
186.813949
 51
270.00002
  0
ARC
  5
9D5A
330
9BA7
100
AcDbEntity
  8
1
  6
Continuous
100
AcDbCircle
 10
104.970511
 20
65.344941
 30
0.0
 40
1.0
100
AcDbArc
 50
90.00005499999994
 51
173.186124
  0
LINE
  5
9D5B
330
9BA7
100
AcDbEntity
  8
1
  6
Continuous
100
AcDbLine
 10
129.053786
 20
48.344941
 30
0.0
 11
118.053786
 21
48.344941
 31
0.0
  0
LINE
  5
9D5C
330
9BA7
100
AcDbEntity
  8
1
  6
Continuous
100
AcDbLine
 10
117.556109
 20
48.7968
 30
0.0
 11
117.4063529999999
 21
50.34494099999999
 31
0.0
  0
ARC
  5
9D5D
330
9BA7
100
AcDbEntity
  8
1
  6
Continuous
100
AcDbCircle
 10
118.053786
 20
48.844941
 30
0.0
 40
0.5
100
AcDbArc
 50
185.5252429999999
 51
270.00002
  0
LINE
  5
9D5E
330
9BA7
100
AcDbEntity
  8
1
  6
Continuous
100
AcDbLine
 10
129.5514639999999
 20
48.7968
 30
0.0
 11
129.70122
 21
50.34494099999999
 31
0.0
  0
ARC
  5
9D5F
330
9BA7
100
AcDbEntity
  8
1
  6
Continuous
100
AcDbCircle
 10
129.053786
 20
48.844941
 30
0.0
 40
0.5
100
AcDbArc
 50
269.99998
 51
354.4747599999998
  0
LINE
  5
9D60
330
9BA7
100
AcDbEntity
  8
1
  6
Continuous
100
AcDbLine
 10
129.053786
 20
68.344941
 30
0.0
 11
118.053786
 21
68.344941
 31
0.0
  0
LINE
  5
9D61
330
9BA7
100
AcDbEntity
  8
1
  6
Continuous
100
AcDbLine
 10
117.556109
 20
67.89308199999999
 30
0.0
 11
117.4063529999999
 21
66.34494100000001
 31
0.0
  0
ARC
  5
9D62
330
9BA7
100
AcDbEntity
  8
1
  6
Continuous
100
AcDbCircle
 10
118.053786
 20
67.844941
 30
0.0
 40
0.5
100
AcDbArc
 50
90.00005499999994
 51
174.4748299999999
  0
LINE
  5
9D63
330
9BA7
100
AcDbEntity
  8
1
  6
Continuous
100
AcDbLine
 10
129.5514639999999
 20
67.89308199999999
 30
0.0
 11
129.70122
 21
66.34494100000001
 31
0.0
  0
ARC
  5
9D64
330
9BA7
100
AcDbEntity
  8
1
  6
Continuous
100
AcDbCircle
 10
129.053786
 20
67.844941
 30
0.0
 40
0.5
100
AcDbArc
 50
5.52517
 51
89.99995000000001
  0
ARC
  5
9D65
330
9BA7
100
AcDbEntity
  8
1
  6
Continuous
100
AcDbCircle
 10
83.55378599999998
 20
58.344941
 30
0.0
 40
60.0
100
AcDbArc
 50
353.1860699999999
 51
6.815166999999999
  0
ARC
  5
9D66
330
9BA7
100
AcDbEntity
  8
1
  6
Continuous
100
AcDbCircle
 10
142.1370609999998
 20
51.344941
 30
0.0
 40
1.0
100
AcDbArc
 50
269.99998
 51
353.1860399999998
  0
ARC
  5
9D67
330
9BA7
100
AcDbEntity
  8
1
  6
Continuous
100
AcDbCircle
 10
142.1370609999998
 20
65.344941
 30
0.0
 40
1.0
100
AcDbArc
 50
6.81388
 51
89.99995000000001
  0
ARC
  5
9D68
330
9BA7
100
AcDbEntity
  8
1
  6
Continuous
100
AcDbCircle
 10
229.0537859999997
 20
98.344941
 30
0.0
 40
60.0
100
AcDbArc
 50
83.18607
 51
96.81516700000001
  0
ARC
  5
9D69
330
9BA7
100
AcDbEntity
  8
1
  6
Continuous
100
AcDbCircle
 10
229.0537859999997
 20
178.344941
 30
0.0
 40
60.0
100
AcDbArc
 50
263.184833
 51
276.8139289999999
  0
LINE
  5
9D6A
330
9BA7
100
AcDbEntity
  8
1
  6
Continuous
100
AcDbLine
 10
239.0537859999998
 20
143.844941
 30
0.0
 11
239.0537859999998
 21
132.844941
 31
0.0
  0
LINE
  5
9D6B
330
9BA7
100
AcDbEntity
  8
1
  6
Continuous
100
AcDbLine
 10
237.0537859999997
 20
156.928216
 30
0.0
 11
237.0537859999997
 21
119.7616659999999
 31
0.0
  0
ARC
  5
9D6C
330
9BA7
100
AcDbEntity
  8
1
  6
Continuous
100
AcDbCircle
 10
236.0537859999999
 20
119.7616659999999
 30
0.0
 40
1.0
100
AcDbArc
 50
276.8139489999999
 51
0.00002
  0
ARC
  5
9D6D
330
9BA7
100
AcDbEntity
  8
1
  6
Continuous
100
AcDbCircle
 10
238.5537859999999
 20
132.844941
 30
0.0
 40
0.5
100
AcDbArc
 50
275.525243
 51
0.00002
  0
LINE
  5
9D6E
330
9BA7
100
AcDbEntity
  8
1
  6
Continuous
100
AcDbLine
 10
238.6019269999999
 20
132.347264
 30
0.0
 11
237.0537859999997
 21
132.197508
 31
0.0
  0
ARC
  5
9D6F
330
9BA7
100
AcDbEntity
  8
1
  6
Continuous
100
AcDbCircle
 10
238.5537859999999
 20
143.844941
 30
0.0
 40
0.5
100
AcDbArc
 50
359.9999799999998
 51
84.47475999999998
  0
LINE
  5
9D70
330
9BA7
100
AcDbEntity
  8
1
  6
Continuous
100
AcDbLine
 10
238.6019269999999
 20
144.3426189999998
 30
0.0
 11
237.0537859999997
 21
144.492375
 31
0.0
  0
ARC
  5
9D71
330
9BA7
100
AcDbEntity
  8
1
  6
Continuous
100
AcDbCircle
 10
236.0537859999999
 20
156.928216
 30
0.0
 40
1.0
100
AcDbArc
 50
359.9999799999998
 51
83.18604
  0
LINE
  5
9D72
330
9BA7
100
AcDbEntity
  8
1
  6
Continuous
100
AcDbLine
 10
219.0537859999998
 20
143.844941
 30
0.0
 11
219.0537859999998
 21
132.844941
 31
0.0
  0
LINE
  5
9D73
330
9BA7
100
AcDbEntity
  8
1
  6
Continuous
100
AcDbLine
 10
221.0537859999998
 20
156.928216
 30
0.0
 11
221.0537859999998
 21
119.7616659999999
 31
0.0
  0
ARC
  5
9D74
330
9BA7
100
AcDbEntity
  8
1
  6
Continuous
100
AcDbCircle
 10
222.0537859999998
 20
119.7616659999999
 30
0.0
 40
1.0
100
AcDbArc
 50
180.0000549999998
 51
263.186124
  0
ARC
  5
9D75
330
9BA7
100
AcDbEntity
  8
1
  6
Continuous
100
AcDbCircle
 10
219.5537859999999
 20
132.844941
 30
0.0
 40
0.5
100
AcDbArc
 50
180.0000549999998
 51
264.4748299999998
  0
LINE
  5
9D76
330
9BA7
100
AcDbEntity
  8
1
  6
Continuous
100
AcDbLine
 10
219.505645
 20
132.3472629999999
 30
0.0
 11
221.0537859999998
 21
132.197508
 31
0.0
  0
ARC
  5
9D77
330
9BA7
100
AcDbEntity
  8
1
  6
Continuous
100
AcDbCircle
 10
219.5537859999999
 20
143.844941
 30
0.0
 40
0.5
100
AcDbArc
 50
95.52516999999999
 51
179.99995
  0
LINE
  5
9D78
330
9BA7
100
AcDbEntity
  8
1
  6
Continuous
100
AcDbLine
 10
219.505645
 20
144.3426189999998
 30
0.0
 11
221.0537859999998
 21
144.492375
 31
0.0
  0
ARC
  5
9D79
330
9BA7
100
AcDbEntity
  8
1
  6
Continuous
100
AcDbCircle
 10
222.0537859999998
 20
156.928216
 30
0.0
 40
1.0
100
AcDbArc
 50
96.81388
 51
179.99995
  0
ARC
  5
9D7A
330
9BA7
100
AcDbEntity
  8
1
  6
Continuous
100
AcDbCircle
 10
334.553786
 20
138.344941
 30
0.0
 40
12.5
100
AcDbArc
 50
202.6459899999999
 51
217.3540699999997
  0
LINE
  5
9D7B
330
9BA7
100
AcDbEntity
  8
1
  6
Continuous
100
AcDbLine
 10
322.0020970000001
 20
129.250705
 30
0.0
 11
329.92477
 21
133.824859
 31
0.0
  0
LINE
  5
9D7C
330
9BA7
100
AcDbEntity
  8
1
  6
Continuous
100
AcDbLine
 10
320.402098
 20
132.021984
 30
0.0
 11
327.6393109999998
 21
136.2003879999997
 31
0.0
  0
LINE
  5
9D7D
330
9BA7
100
AcDbEntity
  8
1
  6
Continuous
100
AcDbLine
 10
347.1054679999999
 20
129.2506989999999
 30
0.0
 11
338.5755159999998
 21
134.1754699999997
 31
0.0
  0
ARC
  5
9D7E
330
9BA7
100
AcDbEntity
  8
1
  6
Continuous
100
AcDbCircle
 10
334.553786
 20
138.344941
 30
0.0
 40
12.5
100
AcDbArc
 50
322.6459999999998
 51
337.3540699999998
  0
LINE
  5
9D7F
330
9BA7
100
AcDbEntity
  8
1
  6
Continuous
100
AcDbLine
 10
348.705466
 20
132.021973
 30
0.0
 11
340.2560559999999
 21
136.9002439999997
 31
0.0
  0
ARC
  5
9D80
330
9BA7
100
AcDbEntity
  8
1
  6
Continuous
100
AcDbCircle
 10
334.553786
 20
138.344941
 30
0.0
 40
20.0
100
AcDbArc
 50
151.9231949999999
 51
82.057151
  0
ARC
  5
9D81
330
9BA7
100
AcDbEntity
  8
1
  6
Continuous
100
AcDbCircle
 10
334.553786
 20
138.344941
 30
0.0
 40
15.5
100
AcDbArc
 50
157.778804
 51
76.64761999999997
  0
ENDSEC
  0
SECTION
  2
OBJECTS
  0
DICTIONARY
  5
9B95
330
0
100
AcDbDictionary
281
     1
  3
ACAD_CIP_PREVIOUS_PRODUCT_INFO
350
9E00
  3
ACAD_COLOR
350
9DE2
  3
ACAD_DETAILVIEWSTYLE
350
9DFB
  3
ACAD_GROUP
350
9B96
  3
ACAD_LAYOUT
350
9BA2
  3
ACAD_MATERIAL
350
9DB0
  3
ACAD_MLEADERSTYLE
350
9DF7
  3
ACAD_MLINESTYLE
350
9B9F
  3
ACAD_PLOTSETTINGS
350
9BA1
  3
ACAD_PLOTSTYLENAME
350
9DAE
  3
ACAD_SCALELIST
350
9DE5
  3
ACAD_SECTIONVIEWSTYLE
350
9DF9
  3
ACAD_TABLESTYLE
350
9DE3
  3
ACAD_VISUALSTYLE
350
9DC9
  3
ACDB_RECOMPOSE_DATA
350
9E1E
  3
AcDbVariableDictionary
350
9E11
  3
DWGPROPS
350
9E1F
  0
DICTIONARY
  5
9E01
330
9B99
100
AcDbDictionary
280
     1
281
     1
  3
ADSK_XREC_LAYER_RECONCILED
360
9E02
  0
DICTIONARY
  5
9E03
330
9BAF
100
AcDbDictionary
280
     1
281
     1
  3
ADSK_XREC_LAYER_RECONCILED
360
9E04
  0
DICTIONARY
  5
9E05
330
9BB0
100
AcDbDictionary
280
     1
281
     1
  3
ADSK_XREC_LAYER_RECONCILED
360
9E06
  0
DICTIONARY
  5
9E07
330
9BB1
100
AcDbDictionary
280
     1
281
     1
  3
ADSK_XREC_LAYER_RECONCILED
360
9E08
  0
DICTIONARY
  5
9E09
330
9BB2
100
AcDbDictionary
280
     1
281
     1
  3
ADSK_XREC_LAYER_RECONCILED
360
9E0A
  0
DICTIONARY
  5
9E0B
330
9BB3
100
AcDbDictionary
280
     1
281
     1
  3
ADSK_XREC_LAYER_RECONCILED
360
9E0C
  0
DICTIONARY
  5
9E0D
330
9BB4
100
AcDbDictionary
280
     1
281
     1
  3
ADSK_XREC_LAYER_RECONCILED
360
9E0E
  0
DICTIONARY
  5
9E0F
330
9BB5
100
AcDbDictionary
280
     1
281
     1
  3
ADSK_XREC_LAYER_RECONCILED
360
9E10
  0
DICTIONARY
  5
9D8C
330
9BA7
100
AcDbDictionary
281
     1
  3
ACAD_LAYOUTSELFREF
350
9DAA
  0
DICTIONARY
  5
9D8A
330
9BA3
100
AcDbDictionary
281
     1
  3
ACAD_LAYOUTSELFREF
350
9DA9
  0
XRECORD
  5
9E00
102
{ACAD_REACTORS
330
9B95
102
}
330
9B95
100
AcDbXrecord
280
     1
300
ACDLT
300
2014
300
ACDLT_F_S
  0
DICTIONARY
  5
9DE2
102
{ACAD_REACTORS
330
9B95
102
}
330
9B95
100
AcDbDictionary
281
     1
  0
DICTIONARY
  5
9DFB
102
{ACAD_REACTORS
330
9B95
102
}
330
9B95
100
AcDbDictionary
281
     1
  3
Imperial24
350
9DFC
  0
DICTIONARY
  5
9B96
102
{ACAD_REACTORS
330
9B95
102
}
330
9B95
100
AcDbDictionary
281
     1
  0
DICTIONARY
  5
9BA2
102
{ACAD_REACTORS
330
9B95
102
}
330
9B95
100
AcDbDictionary
281
     1
  3
Model
350
9DFD
  3
レイアウト1
350
9DFE
  0
DICTIONARY
  5
9DB0
102
{ACAD_REACTORS
330
9B95
102
}
330
9B95
100
AcDbDictionary
281
     1
  3
ByBlock
350
9DB9
  3
ByLayer
350
9DB1
  3
Global
350
9DC1
  0
DICTIONARY
  5
9DF7
102
{ACAD_REACTORS
330
9B95
102
}
330
9B95
100
AcDbDictionary
281
     1
  3
Standard
350
9DF8
  0
DICTIONARY
  5
9B9F
102
{ACAD_REACTORS
330
9B95
102
}
330
9B95
100
AcDbDictionary
281
     1
  3
STANDARD
350
9BA0
  0
DICTIONARY
  5
9BA1
102
{ACAD_REACTORS
330
9B95
102
}
330
9B95
100
AcDbDictionary
281
     1
  0
ACDBDICTIONARYWDFLT
  5
9DAE
102
{ACAD_REACTORS
330
9B95
102
}
330
9B95
100
AcDbDictionary
281
     1
  3
Normal
350
9DAF
100
AcDbDictionaryWithDefault
340
9DAF
  0
DICTIONARY
  5
9DE5
102
{ACAD_REACTORS
330
9B95
102
}
330
9B95
100
AcDbDictionary
281
     1
  3
A0
350
9DE6
  3
A1
350
9DE7
  3
A2
350
9DE8
  3
A3
350
9DE9
  3
A4
350
9DEA
  3
A5
350
9DEB
  3
A6
350
9DEC
  3
A7
350
9DED
  3
A8
350
9DEE
  3
A9
350
9DEF
  3
B0
350
9DF0
  3
B1
350
9DF1
  3
B2
350
9DF2
  3
B3
350
9DF3
  3
B4
350
9DF4
  3
B5
350
9DF5
  3
B6
350
9DF6
  0
DICTIONARY
  5
9DF9
102
{ACAD_REACTORS
330
9B95
102
}
330
9B95
100
AcDbDictionary
281
     1
  3
Imperial24
350
9DFA
  0
DICTIONARY
  5
9DE3
102
{ACAD_REACTORS
330
9B95
102
}
330
9B95
100
AcDbDictionary
281
     1
  3
Standard
350
9DE4
  0
DICTIONARY
  5
9DC9
102
{ACAD_REACTORS
330
9B95
102
}
330
9B95
100
AcDbDictionary
281
     1
  3
2dWireframe
350
9DCF
  3
Basic
350
9DCE
  3
Brighten
350
9DD5
  3
ColorChange
350
9DD9
  3
Conceptual
350
9DD2
  3
Dim
350
9DD4
  3
EdgeColorOff
350
9DE1
  3
Facepattern
350
9DD8
  3
Flat
350
9DCA
  3
FlatWithEdges
350
9DCB
  3
Gouraud
350
9DCC
  3
GouraudWithEdges
350
9DCD
  3
Hidden
350
9DD1
  3
JitterOff
350
9DDF
  3
Linepattern
350
9DD7
  3
OverhangOff
350
9DE0
  3
Realistic
350
9DD3
  3
Shaded
350
9DDE
  3
Shaded with edges
350
9DDD
  3
Shades of Gray
350
9DDA
  3
Sketchy
350
9DDB
  3
Thicken
350
9DD6
  3
Wireframe
350
9DD0
  3
X-Ray
350
9DDC
  0
XRECORD
  5
9E1E
102
{ACAD_REACTORS
330
9B95
102
}
330
9B95
100
AcDbXrecord
280
     1
 90
        1
330
9DE4
  0
DICTIONARY
  5
9E11
102
{ACAD_REACTORS
330
9B95
102
}
330
9B95
100
AcDbDictionary
281
     1
  3
CANNOSCALE
350
9E16
  3
CMLEADERSTYLE
350
9E13
  3
CTABLESTYLE
350
9E12
  3
CVIEWDETAILSTYLE
350
9E14
  3
CVIEWSECTIONSTYLE
350
9E15
  3
DIMASSOC
350
9E19
  3
INDEXCTL
350
9E18
  3
SORTENTS
350
9E17
  3
XCLIPFRAME
350
9E1A
  0
XRECORD
  5
9E1F
102
{ACAD_REACTORS
330
9B95
102
}
330
9B95
100
AcDbXrecord
280
     1
  1
DWGPROPS COOKIE
  2

  3

  4

  6

  7

  8
Yoshitsune
  9

300
=
301
=
302
=
303
=
304
=
305
=
306
=
307
=
308
=
309
=
 40
0.1581307523148148
 41
2451301.446321528
 42
2457192.690267859
  1

 90
        0
  0
XRECORD
  5
9E02
102
{ACAD_REACTORS
330
9E01
102
}
330
9E01
100
AcDbXrecord
280
     1
290
     1
  0
XRECORD
  5
9E04
102
{ACAD_REACTORS
330
9E03
102
}
330
9E03
100
AcDbXrecord
280
     1
290
     1
  0
XRECORD
  5
9E06
102
{ACAD_REACTORS
330
9E05
102
}
330
9E05
100
AcDbXrecord
280
     1
290
     1
  0
XRECORD
  5
9E08
102
{ACAD_REACTORS
330
9E07
102
}
330
9E07
100
AcDbXrecord
280
     1
290
     1
  0
XRECORD
  5
9E0A
102
{ACAD_REACTORS
330
9E09
102
}
330
9E09
100
AcDbXrecord
280
     1
290
     1
  0
XRECORD
  5
9E0C
102
{ACAD_REACTORS
330
9E0B
102
}
330
9E0B
100
AcDbXrecord
280
     1
290
     1
  0
XRECORD
  5
9E0E
102
{ACAD_REACTORS
330
9E0D
102
}
330
9E0D
100
AcDbXrecord
280
     1
290
     1
  0
XRECORD
  5
9E10
102
{ACAD_REACTORS
330
9E0F
102
}
330
9E0F
100
AcDbXrecord
280
     1
290
     1
  0
XRECORD
  5
9DAA
102
{ACAD_REACTORS
330
9D8C
102
}
330
9D8C
100
AcDbXrecord
280
     1
340
9BA7
  0
XRECORD
  5
9DA9
102
{ACAD_REACTORS
330
9D8A
102
}
330
9D8A
100
AcDbXrecord
280
     1
340
9BA3
  0
ACDBDETAILVIEWSTYLE
  5
9DFC
102
{ACAD_XDICTIONARY
360
9E57
102
}
102
{ACAD_REACTORS
330
9DFB
102
}
330
9DFB
100
AcDbModelDocViewStyle
 70
     0
  3
Imperial24
290
     0
100
AcDbDetailViewStyle
 70
     0
 71
     0
 90
        3
 71
     1
340
9B9A
 40
0.24
340
0
 40
0.24
300

 40
0.36
280
     3
 71
     2
340
9B9E
 90
       25
 71
     3
340
9B9A
 40
0.24
 90
        1
 40
0.75
 90
        1
300
%<\AcVar ViewType \f "%tc1">% %<\AcVar ViewDetailId>%\PSCALE %<\AcVar ViewScale \f "%sn">%
 71
     4
340
9B9E
 90
       25
340
9B9E
 90
       25
280
     0
  0
LAYOUT
  5
9DFD
102
{ACAD_XDICTIONARY
360
9E59
102
}
102
{ACAD_REACTORS
330
9BA2
102
}
330
9BA2
100
AcDbPlotSettings
  1

  2
Canon LBP9100C
  4

  6

 40
0.0
 41
0.0
 42
0.0
 43
0.0
 44
0.0
 45
0.0
 46
0.0
 47
0.0
 48
0.0
 49
0.0
140
0.0
141
0.0
142
1.0
143
1.0
 70
  1712
 72
     0
 73
     0
 74
     0
  7

 75
     0
147
1.0
148
0.0
149
0.0
100
AcDbLayout
  1
Model
 70
     1
 71
     0
 10
0.0
 20
0.0
 11
12.0
 21
9.0
 12
0.0
 22
0.0
 32
0.0
 14
0.0
 24
0.0
 34
0.0
 15
0.0
 25
0.0
 35
0.0
146
0.0
 13
0.0
 23
0.0
 33
0.0
 16
1.0
 26
0.0
 36
0.0
 17
0.0
 27
1.0
 37
0.0
 76
     0
330
9BA7
331
9DA8
  0
LAYOUT
  5
9DFE
102
{ACAD_XDICTIONARY
360
9E5B
102
}
102
{ACAD_REACTORS
330
9BA2
102
}
330
9BA2
100
AcDbPlotSettings
  1

  2
Canon LBP9100C
  4

  6

 40
0.0
 41
0.0
 42
0.0
 43
0.0
 44
0.0
 45
0.0
 46
0.0
 47
0.0
 48
0.0
 49
0.0
140
0.0
141
0.0
142
1.0
143
1.0
 70
   688
 72
     0
 73
     0
 74
     5
  7

 75
    16
147
1.0
148
0.0
149
0.0
100
AcDbLayout
  1
レイアウト1
 70
     0
 71
     1
 10
0.0
 20
0.0
 11
420.0
 21
297.0
 12
0.0
 22
0.0
 32
0.0
 14
1.000000000000000E+20
 24
1.000000000000000E+20
 34
1.000000000000000E+20
 15
-1.000000000000000E+20
 25
-1.000000000000000E+20
 35
-1.000000000000000E+20
146
0.0
 13
0.0
 23
0.0
 33
0.0
 16
1.0
 26
0.0
 36
0.0
 17
0.0
 27
1.0
 37
0.0
 76
     0
330
9BA3
  0
MATERIAL
  5
9DB9
102
{ACAD_XDICTIONARY
360
9DBA
102
}
102
{ACAD_REACTORS
330
9DB0
102
}
330
9DB0
100
AcDbMaterial
  1
ByBlock
 72
     0
 43
0.0208333333333333
 43
0.0
 43
0.0
 43
0.0
 43
0.0
 43
0.0208333333333333
 43
0.0
 43
0.0
 43
0.0
 43
0.0
 43
1.0
 43
0.0
 43
0.0
 43
0.0
 43
0.0
 43
1.0
 77
     0
 47
0.0208333333333333
 47
0.0
 47
0.0
 47
0.0
 47
0.0
 47
0.0208333333333333
 47
0.0
 47
0.0
 47
0.0
 47
0.0
 47
1.0
 47
0.0
 47
0.0
 47
0.0
 47
0.0
 47
1.0
171
     0
 49
0.0208333333333333
 49
0.0
 49
0.0
 49
0.0
 49
0.0
 49
0.0208333333333333
 49
0.0
 49
0.0
 49
0.0
 49
0.0
 49
1.0
 49
0.0
 49
0.0
 49
0.0
 49
0.0
 49
1.0
175
     0
142
0.0208333333333333
142
0.0
142
0.0
142
0.0
142
0.0
142
0.0208333333333333
142
0.0
142
0.0
142
0.0
142
0.0
142
1.0
142
0.0
142
0.0
142
0.0
142
0.0
142
1.0
179
     0
144
0.0208333333333333
144
0.0
144
0.0
144
0.0
144
0.0
144
0.0208333333333333
144
0.0
144
0.0
144
0.0
144
0.0
144
1.0
144
0.0
144
0.0
144
0.0
144
0.0
144
1.0
147
0.0208333333333333
147
0.0
147
0.0
147
0.0
147
0.0
147
0.0208333333333333
147
0.0
147
0.0
147
0.0
147
0.0
147
1.0
147
0.0
147
0.0
147
0.0
147
0.0
147
1.0
  0
MATERIAL
  5
9DB1
102
{ACAD_XDICTIONARY
360
9DB2
102
}
102
{ACAD_REACTORS
330
9DB0
102
}
330
9DB0
100
AcDbMaterial
  1
ByLayer
 72
     0
 43
0.0208333333333333
 43
0.0
 43
0.0
 43
0.0
 43
0.0
 43
0.0208333333333333
 43
0.0
 43
0.0
 43
0.0
 43
0.0
 43
1.0
 43
0.0
 43
0.0
 43
0.0
 43
0.0
 43
1.0
 77
     0
 47
0.0208333333333333
 47
0.0
 47
0.0
 47
0.0
 47
0.0
 47
0.0208333333333333
 47
0.0
 47
0.0
 47
0.0
 47
0.0
 47
1.0
 47
0.0
 47
0.0
 47
0.0
 47
0.0
 47
1.0
171
     0
 49
0.0208333333333333
 49
0.0
 49
0.0
 49
0.0
 49
0.0
 49
0.0208333333333333
 49
0.0
 49
0.0
 49
0.0
 49
0.0
 49
1.0
 49
0.0
 49
0.0
 49
0.0
 49
0.0
 49
1.0
175
     0
142
0.0208333333333333
142
0.0
142
0.0
142
0.0
142
0.0
142
0.0208333333333333
142
0.0
142
0.0
142
0.0
142
0.0
142
1.0
142
0.0
142
0.0
142
0.0
142
0.0
142
1.0
179
     0
144
0.0208333333333333
144
0.0
144
0.0
144
0.0
144
0.0
144
0.0208333333333333
144
0.0
144
0.0
144
0.0
144
0.0
144
1.0
144
0.0
144
0.0
144
0.0
144
0.0
144
1.0
147
0.0208333333333333
147
0.0
147
0.0
147
0.0
147
0.0
147
0.0208333333333333
147
0.0
147
0.0
147
0.0
147
0.0
147
1.0
147
0.0
147
0.0
147
0.0
147
0.0
147
1.0
  0
MATERIAL
  5
9DC1
102
{ACAD_XDICTIONARY
360
9DC2
102
}
102
{ACAD_REACTORS
330
9DB0
102
}
330
9DB0
100
AcDbMaterial
  1
Global
 72
     0
 43
0.0208333333333333
 43
0.0
 43
0.0
 43
0.0
 43
0.0
 43
0.0208333333333333
 43
0.0
 43
0.0
 43
0.0
 43
0.0
 43
1.0
 43
0.0
 43
0.0
 43
0.0
 43
0.0
 43
1.0
 77
     0
 47
0.0208333333333333
 47
0.0
 47
0.0
 47
0.0
 47
0.0
 47
0.0208333333333333
 47
0.0
 47
0.0
 47
0.0
 47
0.0
 47
1.0
 47
0.0
 47
0.0
 47
0.0
 47
0.0
 47
1.0
171
     0
 49
0.0208333333333333
 49
0.0
 49
0.0
 49
0.0
 49
0.0
 49
0.0208333333333333
 49
0.0
 49
0.0
 49
0.0
 49
0.0
 49
1.0
 49
0.0
 49
0.0
 49
0.0
 49
0.0
 49
1.0
175
     0
142
0.0208333333333333
142
0.0
142
0.0
142
0.0
142
0.0
142
0.0208333333333333
142
0.0
142
0.0
142
0.0
142
0.0
142
1.0
142
0.0
142
0.0
142
0.0
142
0.0
142
1.0
179
     0
144
0.0208333333333333
144
0.0
144
0.0
144
0.0
144
0.0
144
0.0208333333333333
144
0.0
144
0.0
144
0.0
144
0.0
144
1.0
144
0.0
144
0.0
144
0.0
144
0.0
144
1.0
147
0.0208333333333333
147
0.0
147
0.0
147
0.0
147
0.0
147
0.0208333333333333
147
0.0
147
0.0
147
0.0
147
0.0
147
1.0
147
0.0
147
0.0
147
0.0
147
0.0
147
1.0
  0
MLEADERSTYLE
  5
9DF8
102
{ACAD_REACTORS
330
9DF7
102
}
330
9DF7
100
AcDbMLeaderStyle
170
     2
171
     1
172
     0
 90
        2
 40
0.0
 41
0.0
173
     1
 91
-1056964608
340
9B9C
 92
       -2
290
     1
 42
0.09
291
     1
 43
0.36
  3
Standard
 44
0.18
300

342
9B9A
174
     1
178
     6
175
     1
176
     0
 93
-1056964608
 45
0.18
292
     0
297
     0
 46
0.18
 94
-1056964608
 47
1.0
 49
1.0
140
1.0
293
     1
141
0.0
294
     1
177
     0
142
1.0
295
     0
296
     0
143
0.125
1001
ACAD_MLEADERVER
1070
     2
  0
MLINESTYLE
  5
9BA0
102
{ACAD_REACTORS
330
9B9F
102
}
330
9B9F
100
AcDbMlineStyle
  2
STANDARD
 70
     0
  3

 62
   256
 51
90.0
 52
90.0
 71
     2
 49
0.5
 62
   256
  6
BYLAYER
 49
-0.5
 62
   256
  6
BYLAYER
  0
ACDBPLACEHOLDER
  5
9DAF
102
{ACAD_REACTORS
330
9DAE
102
}
330
9DAE
  0
SCALE
  5
9DE6
102
{ACAD_REACTORS
330
9DE5
102
}
330
9DE5
100
AcDbScale
 70
     0
300
1:1
140
1.0
141
1.0
290
     1
  0
SCALE
  5
9DE7
102
{ACAD_REACTORS
330
9DE5
102
}
330
9DE5
100
AcDbScale
 70
     0
300
1/128" = 1'-0"
140
0.0078125
141
12.0
290
     0
  0
SCALE
  5
9DE8
102
{ACAD_REACTORS
330
9DE5
102
}
330
9DE5
100
AcDbScale
 70
     0
300
1/64" = 1'-0"
140
0.015625
141
12.0
290
     0
  0
SCALE
  5
9DE9
102
{ACAD_REACTORS
330
9DE5
102
}
330
9DE5
100
AcDbScale
 70
     0
300
1/32" = 1'-0"
140
0.03125
141
12.0
290
     0
  0
SCALE
  5
9DEA
102
{ACAD_REACTORS
330
9DE5
102
}
330
9DE5
100
AcDbScale
 70
     0
300
1/16" = 1'-0"
140
0.0625
141
12.0
290
     0
  0
SCALE
  5
9DEB
102
{ACAD_REACTORS
330
9DE5
102
}
330
9DE5
100
AcDbScale
 70
     0
300
3/32" = 1'-0"
140
0.09375
141
12.0
290
     0
  0
SCALE
  5
9DEC
102
{ACAD_REACTORS
330
9DE5
102
}
330
9DE5
100
AcDbScale
 70
     0
300
1/8" = 1'-0"
140
0.125
141
12.0
290
     0
  0
SCALE
  5
9DED
102
{ACAD_REACTORS
330
9DE5
102
}
330
9DE5
100
AcDbScale
 70
     0
300
3/16" = 1'-0"
140
0.1875
141
12.0
290
     0
  0
SCALE
  5
9DEE
102
{ACAD_REACTORS
330
9DE5
102
}
330
9DE5
100
AcDbScale
 70
     0
300
1/4" = 1'-0"
140
0.25
141
12.0
290
     0
  0
SCALE
  5
9DEF
102
{ACAD_REACTORS
330
9DE5
102
}
330
9DE5
100
AcDbScale
 70
     0
300
3/8" = 1'-0"
140
0.375
141
12.0
290
     0
  0
SCALE
  5
9DF0
102
{ACAD_REACTORS
330
9DE5
102
}
330
9DE5
100
AcDbScale
 70
     0
300
1/2" = 1'-0"
140
0.5
141
12.0
290
     0
  0
SCALE
  5
9DF1
102
{ACAD_REACTORS
330
9DE5
102
}
330
9DE5
100
AcDbScale
 70
     0
300
3/4" = 1'-0"
140
0.75
141
12.0
290
     0
  0
SCALE
  5
9DF2
102
{ACAD_REACTORS
330
9DE5
102
}
330
9DE5
100
AcDbScale
 70
     0
300
1" = 1'-0"
140
1.0
141
12.0
290
     0
  0
SCALE
  5
9DF3
102
{ACAD_REACTORS
330
9DE5
102
}
330
9DE5
100
AcDbScale
 70
     0
300
1-1/2" = 1'-0"
140
1.5
141
12.0
290
     0
  0
SCALE
  5
9DF4
102
{ACAD_REACTORS
330
9DE5
102
}
330
9DE5
100
AcDbScale
 70
     0
300
3" = 1'-0"
140
3.0
141
12.0
290
     0
  0
SCALE
  5
9DF5
102
{ACAD_REACTORS
330
9DE5
102
}
330
9DE5
100
AcDbScale
 70
     0
300
6" = 1'-0"
140
6.0
141
12.0
290
     0
  0
SCALE
  5
9DF6
102
{ACAD_REACTORS
330
9DE5
102
}
330
9DE5
100
AcDbScale
 70
     0
300
1'-0" = 1'-0"
140
12.0
141
12.0
290
     0
  0
ACDBSECTIONVIEWSTYLE
  5
9DFA
102
{ACAD_XDICTIONARY
360
9E55
102
}
102
{ACAD_REACTORS
330
9DF9
102
}
330
9DF9
100
AcDbModelDocViewStyle
 70
     0
  3
Imperial24
290
     0
100
AcDbSectionViewStyle
 70
     0
 71
     0
 90
       78
 71
     1
340
9B9A
 40
0.24
340
0
340
0
 40
0.24
300
I, O, Q, S, X, Z
 40
0.48
 90
        3
 40
0.18
 90
        1
 71
     2
340
9B9E
 90
       25
340
9B9E
 90
       50
 40
0.24
 40
0.0
 40
0.24
 71
     3
340
9B9A
 40
0.24
 90
        1
 40
0.75
 90
        1
300
%<\AcVar ViewType \f "%tc1">% %<\AcVar ViewSectionStartId>%-%<\AcVar ViewSectionEndId>%\PSCALE %<\AcVar ViewScale \f "%sn">%
 71
     4
300
ANSI31
 40
1.0
 90
        0
290
     0
290
     0
 90
        6
 40
0.0
 40
1.570796326794896
 40
0.2617993877991494
 40
1.308996938995747
 40
-0.2617993877991494
 40
1.832595714594046
  0
TABLESTYLE
  5
9DE4
102
{ACAD_XDICTIONARY
360
9E1C
102
}
102
{ACAD_REACTORS
330
9DE3
102
}
330
9DE3
100
AcDbTableStyle
  3
Standard
 70
     0
 71
     0
 40
0.06
 41
0.06
280
     0
281
     0
  7
STANDARD
140
0.18
170
     2
 62
     0
 63
     7
283
     0
274
    -2
284
     1
 64
     0
275
    -2
285
     1
 65
     0
276
    -2
286
     1
 66
     0
277
    -2
287
     1
 67
     0
278
    -2
288
     1
 68
     0
279
    -2
289
     1
 69
     0
  7
STANDARD
140
0.25
170
     5
 62
     0
 63
     7
283
     0
274
    -2
284
     1
 64
     0
275
    -2
285
     1
 65
     0
276
    -2
286
     1
 66
     0
277
    -2
287
     1
 67
     0
278
    -2
288
     1
 68
     0
279
    -2
289
     1
 69
     0
  7
STANDARD
140
0.18
170
     5
 62
     0
 63
     7
283
     0
274
    -2
284
     1
 64
     0
275
    -2
285
     1
 65
     0
276
    -2
286
     1
 66
     0
277
    -2
287
     1
 67
     0
278
    -2
288
     1
 68
     0
279
    -2
289
     1
 69
     0
  0
VISUALSTYLE
  5
9DCF
102
{ACAD_XDICTIONARY
360
9E2D
102
}
102
{ACAD_REACTORS
330
9DC9
102
}
330
9DC9
100
AcDbVisualStyle
  2
2dWireframe
 70
     4
 71
     0
 72
     2
 73
     0
 90
        0
 40
-0.6
 41
-30.0
 62
     5
 63
     7
 74
     1
 91
        4
 64
     7
 65
   257
 75
     1
175
     1
 42
1.0
 92
        0
 66
   257
 43
1.0
 76
     1
 77
     6
 78
     2
 67
     7
 79
     5
170
     0
171
     0
290
     0
174
     0
 93
        1
 44
0.0
173
     0
291
     0
 45
0.0
1001
ACAD
1000
AcDbSavedByObjectVersion
1070
     0
  0
VISUALSTYLE
  5
9DCE
102
{ACAD_XDICTIONARY
360
9E2B
102
}
102
{ACAD_REACTORS
330
9DC9
102
}
330
9DC9
100
AcDbVisualStyle
  2
Basic
 70
     7
 71
     1
 72
     0
 73
     1
 90
        0
 40
-0.6
 41
-30.0
 62
     5
 63
     7
 74
     0
 91
        4
 64
     7
 65
   257
 75
     1
175
     1
 42
1.0
 92
        8
 66
     7
 43
1.0
 76
     1
 77
     6
 78
     2
 67
     7
 79
     5
170
     0
171
     0
290
     0
174
     0
 93
        1
 44
0.0
173
     0
291
     1
 45
0.0
1001
ACAD
1000
AcDbSavedByObjectVersion
1070
     0
  0
VISUALSTYLE
  5
9DD5
102
{ACAD_XDICTIONARY
360
9E39
102
}
102
{ACAD_REACTORS
330
9DC9
102
}
330
9DC9
100
AcDbVisualStyle
  2
Brighten
 70
    12
 71
     2
 72
     2
 73
     0
 90
        0
 40
-0.6
 41
-30.0
 62
     5
 63
     7
 74
     1
 91
        4
 64
     7
 65
   257
 75
     1
175
     1
 42
1.0
 92
        8
 66
     7
 43
1.0
 76
     1
 77
     6
 78
     2
 67
     7
 79
     5
170
     0
171
     0
290
     0
174
     0
 93
        1
 44
50.0
173
     0
291
     1
 45
0.0
1001
ACAD
1000
AcDbSavedByObjectVersion
1070
     0
  0
VISUALSTYLE
  5
9DD9
102
{ACAD_XDICTIONARY
360
9E41
102
}
102
{ACAD_REACTORS
330
9DC9
102
}
330
9DC9
100
AcDbVisualStyle
  2
ColorChange
 70
    16
 71
     2
 72
     2
 73
     3
 90
        0
 40
-0.6
 41
-30.0
 62
     5
 63
     8
 74
     1
 91
        4
 64
     7
 65
   257
 75
     1
175
     1
 42
1.0
 92
        8
 66
     8
 43
1.0
 76
     1
 77
     6
 78
     2
 67
     7
 79
     5
170
     0
171
     0
290
     0
174
     0
 93
        1
 44
0.0
173
     0
291
     1
 45
0.0
1001
ACAD
1000
AcDbSavedByObjectVersion
1070
     0
  0
VISUALSTYLE
  5
9DD2
102
{ACAD_XDICTIONARY
360
9E33
102
}
102
{ACAD_REACTORS
330
9DC9
102
}
330
9DC9
100
AcDbVisualStyle
  2
Conceptual
 70
     9
 71
     3
 72
     2
 73
     0
 90
        0
 40
-0.6
 41
-30.0
 62
     5
 63
     7
 74
     2
 91
        2
 64
     7
 65
   257
 75
     1
175
     1
 42
179.0
 92
        8
 66
     7
 43
1.0
 76
     1
 77
     6
 78
     2
 67
     7
 79
     3
170
     0
171
     0
290
     0
174
     0
 93
        1
 44
0.0
173
     0
291
     0
 45
0.0
1001
ACAD
1000
AcDbSavedByObjectVersion
1070
     0
  0
VISUALSTYLE
  5
9DD4
102
{ACAD_XDICTIONARY
360
9E37
102
}
102
{ACAD_REACTORS
330
9DC9
102
}
330
9DC9
100
AcDbVisualStyle
  2
Dim
 70
    11
 71
     2
 72
     2
 73
     0
 90
        0
 40
-0.6
 41
-30.0
 62
     5
 63
     7
 74
     1
 91
        4
 64
     7
 65
   257
 75
     1
175
     1
 42
1.0
 92
        8
 66
     7
 43
1.0
 76
     1
 77
     6
 78
     2
 67
     7
 79
     5
170
     0
171
     0
290
     0
174
     0
 93
        1
 44
-50.0
173
     0
291
     1
 45
0.0
1001
ACAD
1000
AcDbSavedByObjectVersion
1070
     0
  0
VISUALSTYLE
  5
9DE1
102
{ACAD_XDICTIONARY
360
9E51
102
}
102
{ACAD_REACTORS
330
9DC9
102
}
330
9DC9
100
AcDbVisualStyle
  2
EdgeColorOff
 70
    22
 71
     2
 72
     2
 73
     0
 90
        0
 40
-0.6
 41
-30.0
 62
     5
 63
     7
 74
     1
 91
        4
 64
     7
 65
   257
 75
     1
175
     1
 42
1.0
 92
        8
 66
     7
 43
1.0
 76
     1
 77
     6
 78
     2
 67
     7
 79
     5
170
     0
171
     0
290
     0
174
     0
 93
        1
 44
0.0
173
     0
291
     1
 45
0.0
1001
ACAD
1000
AcDbSavedByObjectVersion
1070
     0
  0
VISUALSTYLE
  5
9DD8
102
{ACAD_XDICTIONARY
360
9E3F
102
}
102
{ACAD_REACTORS
330
9DC9
102
}
330
9DC9
100
AcDbVisualStyle
  2
Facepattern
 70
    15
 71
     2
 72
     2
 73
     0
 90
        0
 40
-0.6
 41
-30.0
 62
     5
 63
     7
 74
     1
 91
        4
 64
     7
 65
   257
 75
     1
175
     1
 42
1.0
 92
        8
 66
     7
 43
1.0
 76
     1
 77
     6
 78
     2
 67
     7
 79
     5
170
     0
171
     0
290
     0
174
     0
 93
        1
 44
0.0
173
     0
291
     1
 45
0.0
1001
ACAD
1000
AcDbSavedByObjectVersion
1070
     0
  0
VISUALSTYLE
  5
9DCA
102
{ACAD_XDICTIONARY
360
9E23
102
}
102
{ACAD_REACTORS
330
9DC9
102
}
330
9DC9
100
AcDbVisualStyle
  2
Flat
 70
     0
 71
     2
 72
     1
 73
     1
 90
        2
 40
-0.6
 41
30.0
 62
     5
 63
     7
 74
     0
 91
        0
 64
     7
 65
   257
 75
     1
175
     1
 42
1.0
 92
        8
 66
     7
 43
1.0
 76
     1
 77
     6
 78
     2
 67
     7
 79
     5
170
     0
171
     0
290
     0
174
     0
 93
       13
 44
0.0
173
     0
291
     1
 45
0.0
1001
ACAD
1000
AcDbSavedByObjectVersion
1070
     0
  0
VISUALSTYLE
  5
9DCB
102
{ACAD_XDICTIONARY
360
9E25
102
}
102
{ACAD_REACTORS
330
9DC9
102
}
330
9DC9
100
AcDbVisualStyle
  2
FlatWithEdges
 70
     1
 71
     2
 72
     1
 73
     1
 90
        2
 40
-0.6
 41
30.0
 62
     5
 63
     7
 74
     1
 91
        0
 64
     7
 65
   257
 75
     1
175
     1
 42
1.0
 92
        0
 66
   257
 43
1.0
 76
     1
 77
     6
 78
     2
 67
     7
 79
     5
170
     0
171
     0
290
     0
174
     0
 93
       13
 44
0.0
173
     0
291
     1
 45
0.0
1001
ACAD
1000
AcDbSavedByObjectVersion
1070
     0
  0
VISUALSTYLE
  5
9DCC
102
{ACAD_XDICTIONARY
360
9E27
102
}
102
{ACAD_REACTORS
330
9DC9
102
}
330
9DC9
100
AcDbVisualStyle
  2
Gouraud
 70
     2
 71
     2
 72
     2
 73
     1
 90
        2
 40
-0.6
 41
30.0
 62
     5
 63
     7
 74
     0
 91
        0
 64
     7
 65
   257
 75
     1
175
     1
 42
1.0
 92
        0
 66
     7
 43
1.0
 76
     1
 77
     6
 78
     2
 67
     7
 79
     5
170
     0
171
     0
290
     0
174
     0
 93
       13
 44
0.0
173
     0
291
     1
 45
0.0
1001
ACAD
1000
AcDbSavedByObjectVersion
1070
     0
  0
VISUALSTYLE
  5
9DCD
102
{ACAD_XDICTIONARY
360
9E29
102
}
102
{ACAD_REACTORS
330
9DC9
102
}
330
9DC9
100
AcDbVisualStyle
  2
GouraudWithEdges
 70
     3
 71
     2
 72
     2
 73
     1
 90
        2
 40
-0.6
 41
30.0
 62
     5
 63
     7
 74
     1
 91
        0
 64
     7
 65
   257
 75
     1
175
     1
 42
1.0
 92
        0
 66
   257
 43
1.0
 76
     1
 77
     6
 78
     2
 67
     7
 79
     5
170
     0
171
     0
290
     0
174
     0
 93
       13
 44
0.0
173
     0
291
     1
 45
0.0
1001
ACAD
1000
AcDbSavedByObjectVersion
1070
     0
  0
VISUALSTYLE
  5
9DD1
102
{ACAD_XDICTIONARY
360
9E31
102
}
102
{ACAD_REACTORS
330
9DC9
102
}
330
9DC9
100
AcDbVisualStyle
  2
Hidden
 70
     6
 71
     1
 72
     2
 73
     2
 90
        0
 40
-0.6
 41
-30.0
 62
     5
 63
     7
 74
     2
 91
        2
 64
     7
 65
   257
 75
     2
175
     1
 42
40.0
 92
        0
 66
   257
 43
1.0
 76
     1
 77
     6
 78
     2
 67
     7
 79
     3
170
     0
171
     0
290
     0
174
     0
 93
        1
 44
0.0
173
     0
291
     0
 45
0.0
1001
ACAD
1000
AcDbSavedByObjectVersion
1070
     0
  0
VISUALSTYLE
  5
9DDF
102
{ACAD_XDICTIONARY
360
9E4D
102
}
102
{ACAD_REACTORS
330
9DC9
102
}
330
9DC9
100
AcDbVisualStyle
  2
JitterOff
 70
    20
 71
     2
 72
     2
 73
     0
 90
        0
 40
-0.6
 41
-30.0
 62
     5
 63
     7
 74
     1
 91
        4
 64
     7
 65
   257
 75
     1
175
     1
 42
1.0
 92
       10
 66
     7
 43
1.0
 76
     1
 77
     6
 78
     2
 67
     7
 79
     5
170
     0
171
     0
290
     0
174
     0
 93
        1
 44
0.0
173
     0
291
     1
 45
0.0
1001
ACAD
1000
AcDbSavedByObjectVersion
1070
     0
  0
VISUALSTYLE
  5
9DD7
102
{ACAD_XDICTIONARY
360
9E3D
102
}
102
{ACAD_REACTORS
330
9DC9
102
}
330
9DC9
100
AcDbVisualStyle
  2
Linepattern
 70
    14
 71
     2
 72
     2
 73
     0
 90
        0
 40
-0.6
 41
-30.0
 62
     5
 63
     7
 74
     1
 91
        4
 64
     7
 65
   257
 75
     7
175
     7
 42
1.0
 92
        8
 66
     7
 43
1.0
 76
     1
 77
     6
 78
     2
 67
     7
 79
     5
170
     0
171
     0
290
     0
174
     0
 93
        1
 44
0.0
173
     0
291
     1
 45
0.0
1001
ACAD
1000
AcDbSavedByObjectVersion
1070
     0
  0
VISUALSTYLE
  5
9DE0
102
{ACAD_XDICTIONARY
360
9E4F
102
}
102
{ACAD_REACTORS
330
9DC9
102
}
330
9DC9
100
AcDbVisualStyle
  2
OverhangOff
 70
    21
 71
     2
 72
     2
 73
     0
 90
        0
 40
-0.6
 41
-30.0
 62
     5
 63
     7
 74
     1
 91
        4
 64
     7
 65
   257
 75
     1
175
     1
 42
1.0
 92
        9
 66
     7
 43
1.0
 76
     1
 77
     6
 78
     2
 67
     7
 79
     5
170
     0
171
     0
290
     0
174
     0
 93
        1
 44
0.0
173
     0
291
     1
 45
0.0
1001
ACAD
1000
AcDbSavedByObjectVersion
1070
     0
  0
VISUALSTYLE
  5
9DD3
102
{ACAD_XDICTIONARY
360
9E35
102
}
102
{ACAD_REACTORS
330
9DC9
102
}
330
9DC9
100
AcDbVisualStyle
  2
Realistic
 70
     8
 71
     2
 72
     3
 73
     0
 90
        2
 40
-0.6
 41
30.0
 62
     5
 63
     7
 74
     0
 91
        0
 64
     7
 65
   257
 75
     1
175
     1
 42
1.0
 92
        8
 66
   257
 43
1.0
 76
     1
 77
     6
 78
     2
 67
     7
 79
     3
170
     0
171
     0
290
     0
174
     0
 93
       13
 44
0.0
173
     0
291
     0
 45
0.0
1001
ACAD
1000
AcDbSavedByObjectVersion
1070
     0
  0
VISUALSTYLE
  5
9DDE
102
{ACAD_XDICTIONARY
360
9E4B
102
}
102
{ACAD_REACTORS
330
9DC9
102
}
330
9DC9
100
AcDbVisualStyle
  2
Shaded
 70
    27
 71
     2
 72
     2
 73
     1
 90
        2
 40
-0.6
 41
30.0
 62
     5
 63
     7
 74
     0
 91
        4
 64
     7
 65
   257
 75
     1
175
     1
 42
1.0
 92
        8
 66
   257
 43
1.0
 76
     1
 77
     6
 78
     2
 67
     8
 79
     3
170
     0
171
     0
290
     0
174
     0
 93
        5
 44
0.0
173
     0
291
     0
 45
0.0
1001
ACAD
1000
AcDbSavedByObjectVersion
1070
     0
  0
VISUALSTYLE
  5
9DDD
102
{ACAD_XDICTIONARY
360
9E49
102
}
102
{ACAD_REACTORS
330
9DC9
102
}
330
9DC9
100
AcDbVisualStyle
  2
Shaded with edges
 70
    26
 71
     2
 72
     2
 73
     1
 90
        2
 40
-0.6
 41
30.0
 62
     5
 63
     7
 74
     1
 91
       10
 64
     7
 65
   257
 75
     2
175
     1
 42
1.0
 92
        8
 66
   257
 43
1.0
 76
     1
 77
     6
 78
     2
 67
     7
 79
     3
170
     0
171
     0
290
     0
174
     0
 93
        5
 44
0.0
173
     0
291
     0
 45
0.0
1001
ACAD
1000
AcDbSavedByObjectVersion
1070
     0
  0
VISUALSTYLE
  5
9DDA
102
{ACAD_XDICTIONARY
360
9E43
102
}
102
{ACAD_REACTORS
330
9DC9
102
}
330
9DC9
100
AcDbVisualStyle
  2
Shades of Gray
 70
    23
 71
     2
 72
     2
 73
     3
 90
        0
 40
-0.6
 41
-30.0
 62
     5
 63
     7
 74
     2
 91
        2
 64
     7
 65
     7
 75
     1
175
     1
 42
40.0
 92
        8
 66
     7
 43
1.0
 76
     1
 77
     6
 78
     2
 67
     7
 79
     3
170
     0
171
     0
290
     0
174
     0
 93
        1
 44
0.0
173
     0
291
     0
 45
0.0
1001
ACAD
1000
AcDbSavedByObjectVersion
1070
     0
  0
VISUALSTYLE
  5
9DDB
102
{ACAD_XDICTIONARY
360
9E45
102
}
102
{ACAD_REACTORS
330
9DC9
102
}
330
9DC9
100
AcDbVisualStyle
  2
Sketchy
 70
    24
 71
     1
 72
     2
 73
     2
 90
        0
 40
-0.6
 41
-30.0
 62
     5
 63
     7
 74
     2
 91
        2
 64
     7
 65
     7
 75
     1
175
     1
 42
40.0
 92
       11
 66
     7
 43
1.0
 76
     1
 77
     6
 78
     2
 67
     7
 79
     6
170
     0
171
     0
290
     0
174
     0
 93
        1
 44
0.0
173
     0
291
     0
 45
0.0
1001
ACAD
1000
AcDbSavedByObjectVersion
1070
     0
  0
VISUALSTYLE
  5
9DD6
102
{ACAD_XDICTIONARY
360
9E3B
102
}
102
{ACAD_REACTORS
330
9DC9
102
}
330
9DC9
100
AcDbVisualStyle
  2
Thicken
 70
    13
 71
     2
 72
     2
 73
     0
 90
        0
 40
-0.6
 41
-30.0
 62
     5
 63
     7
 74
     1
 91
        4
 64
     7
 65
   257
 75
     1
175
     1
 42
1.0
 92
       12
 66
     7
 43
1.0
 76
     1
 77
     6
 78
     2
 67
     7
 79
     5
170
     0
171
     0
290
     0
174
     0
 93
        1
 44
0.0
173
     0
291
     1
 45
0.0
1001
ACAD
1000
AcDbSavedByObjectVersion
1070
     0
  0
VISUALSTYLE
  5
9DD0
102
{ACAD_XDICTIONARY
360
9E2F
102
}
102
{ACAD_REACTORS
330
9DC9
102
}
330
9DC9
100
AcDbVisualStyle
  2
Wireframe
 70
     5
 71
     0
 72
     2
 73
     0
 90
        0
 40
-0.6
 41
-30.0
 62
     5
 63
     7
 74
     1
 91
        4
 64
     7
 65
   257
 75
     1
175
     1
 42
1.0
 92
        0
 66
   257
 43
1.0
 76
     1
 77
     6
 78
     2
 67
     7
 79
     3
170
     0
171
     0
290
     0
174
     0
 93
        1
 44
0.0
173
     0
291
     0
 45
0.0
1001
ACAD
1000
AcDbSavedByObjectVersion
1070
     0
  0
VISUALSTYLE
  5
9DDC
102
{ACAD_XDICTIONARY
360
9E47
102
}
102
{ACAD_REACTORS
330
9DC9
102
}
330
9DC9
100
AcDbVisualStyle
  2
X-Ray
 70
    25
 71
     2
 72
     2
 73
     1
 90
        1
 40
0.5
 41
-30.0
 62
     5
 63
     7
 74
     1
 91
        0
 64
     7
 65
   257
 75
     1
175
     1
 42
1.0
 92
        8
 66
     7
 43
1.0
 76
     1
 77
     6
 78
     2
 67
     7
 79
     3
170
     0
171
     0
290
     0
174
     0
 93
       13
 44
0.0
173
     0
291
     0
 45
0.0
1001
ACAD
1000
AcDbSavedByObjectVersion
1070
     0
  0
DICTIONARYVAR
  5
9E16
102
{ACAD_REACTORS
330
9E11
102
}
330
9E11
100
DictionaryVariables
280
     0
  1
1:1
  0
DICTIONARYVAR
  5
9E13
102
{ACAD_REACTORS
330
9E11
102
}
330
9E11
100
DictionaryVariables
280
     0
  1
STANDARD
  0
DICTIONARYVAR
  5
9E12
102
{ACAD_REACTORS
330
9E11
102
}
330
9E11
100
DictionaryVariables
280
     0
  1
STANDARD
  0
DICTIONARYVAR
  5
9E14
102
{ACAD_REACTORS
330
9E11
102
}
330
9E11
100
DictionaryVariables
280
     0
  1
Imperial24
  0
DICTIONARYVAR
  5
9E15
102
{ACAD_REACTORS
330
9E11
102
}
330
9E11
100
DictionaryVariables
280
     0
  1
Imperial24
  0
DICTIONARYVAR
  5
9E19
102
{ACAD_REACTORS
330
9E11
102
}
330
9E11
100
DictionaryVariables
280
     0
  1
1
  0
DICTIONARYVAR
  5
9E18
102
{ACAD_REACTORS
330
9E11
102
}
330
9E11
100
DictionaryVariables
280
     0
  1
0
  0
DICTIONARYVAR
  5
9E17
102
{ACAD_REACTORS
330
9E11
102
}
330
9E11
100
DictionaryVariables
280
     0
  1
127
  0
DICTIONARYVAR
  5
9E1A
102
{ACAD_REACTORS
330
9E11
102
}
330
9E11
100
DictionaryVariables
280
     0
  1
2
  0
DICTIONARY
  5
9E57
330
9DFC
100
AcDbDictionary
280
     1
281
     1
  3
ACAD_XREC_ROUNDTRIP
360
9E58
  0
DICTIONARY
  5
9E59
330
9DFD
100
AcDbDictionary
280
     1
281
     1
  3
ACAD_XREC_ROUNDTRIP
360
9E5A
  0
DICTIONARY
  5
9E5B
330
9DFE
100
AcDbDictionary
280
     1
281
     1
  3
ACAD_XREC_ROUNDTRIP
360
9E5C
  0
DICTIONARY
  5
9DBA
330
9DB9
100
AcDbDictionary
280
     1
281
     1
  3
ACAD_XREC_ROUNDTRIP
360
9E21
  3
BUMPTILE
360
9DBC
  3
DIFFUSETILE
360
9DBB
  3
OPACITYTILE
360
9DBF
  3
REFLECTIONTILE
360
9DBE
  3
REFRACTIONTILE
360
9DC0
  3
SPECULARTILE
360
9DBD
  0
DICTIONARY
  5
9DB2
330
9DB1
100
AcDbDictionary
280
     1
281
     1
  3
ACAD_XREC_ROUNDTRIP
360
9E20
  3
BUMPTILE
360
9DB4
  3
DIFFUSETILE
360
9DB3
  3
OPACITYTILE
360
9DB7
  3
REFLECTIONTILE
360
9DB6
  3
REFRACTIONTILE
360
9DB8
  3
SPECULARTILE
360
9DB5
  0
DICTIONARY
  5
9DC2
330
9DC1
100
AcDbDictionary
280
     1
281
     1
  3
ACAD_XREC_ROUNDTRIP
360
9E22
  3
BUMPTILE
360
9DC4
  3
DIFFUSETILE
360
9DC3
  3
OPACITYTILE
360
9DC7
  3
REFLECTIONTILE
360
9DC6
  3
REFRACTIONTILE
360
9DC8
  3
SPECULARTILE
360
9DC5
  0
DICTIONARY
  5
9E55
330
9DFA
100
AcDbDictionary
280
     1
281
     1
  3
ACAD_XREC_ROUNDTRIP
360
9E56
  0
DICTIONARY
  5
9E1C
330
9DE4
100
AcDbDictionary
280
     1
281
     1
  3
ACAD_ROUNDTRIP_2008_TABLESTYLE_CELLSTYLEMAP
360
9E1D
  3
ACAD_XREC_ROUNDTRIP
360
9E53
  0
DICTIONARY
  5
9E2D
330
9DCF
100
AcDbDictionary
280
     1
281
     1
  3
ACAD_XREC_ROUNDTRIP
360
9E2E
  0
DICTIONARY
  5
9E2B
330
9DCE
100
AcDbDictionary
280
     1
281
     1
  3
ACAD_XREC_ROUNDTRIP
360
9E2C
  0
DICTIONARY
  5
9E39
330
9DD5
100
AcDbDictionary
280
     1
281
     1
  3
ACAD_XREC_ROUNDTRIP
360
9E3A
  0
DICTIONARY
  5
9E41
330
9DD9
100
AcDbDictionary
280
     1
281
     1
  3
ACAD_XREC_ROUNDTRIP
360
9E42
  0
DICTIONARY
  5
9E33
330
9DD2
100
AcDbDictionary
280
     1
281
     1
  3
ACAD_XREC_ROUNDTRIP
360
9E34
  0
DICTIONARY
  5
9E37
330
9DD4
100
AcDbDictionary
280
     1
281
     1
  3
ACAD_XREC_ROUNDTRIP
360
9E38
  0
DICTIONARY
  5
9E51
330
9DE1
100
AcDbDictionary
280
     1
281
     1
  3
ACAD_XREC_ROUNDTRIP
360
9E52
  0
DICTIONARY
  5
9E3F
330
9DD8
100
AcDbDictionary
280
     1
281
     1
  3
ACAD_XREC_ROUNDTRIP
360
9E40
  0
DICTIONARY
  5
9E23
330
9DCA
100
AcDbDictionary
280
     1
281
     1
  3
ACAD_XREC_ROUNDTRIP
360
9E24
  0
DICTIONARY
  5
9E25
330
9DCB
100
AcDbDictionary
280
     1
281
     1
  3
ACAD_XREC_ROUNDTRIP
360
9E26
  0
DICTIONARY
  5
9E27
330
9DCC
100
AcDbDictionary
280
     1
281
     1
  3
ACAD_XREC_ROUNDTRIP
360
9E28
  0
DICTIONARY
  5
9E29
330
9DCD
100
AcDbDictionary
280
     1
281
     1
  3
ACAD_XREC_ROUNDTRIP
360
9E2A
  0
DICTIONARY
  5
9E31
330
9DD1
100
AcDbDictionary
280
     1
281
     1
  3
ACAD_XREC_ROUNDTRIP
360
9E32
  0
DICTIONARY
  5
9E4D
330
9DDF
100
AcDbDictionary
280
     1
281
     1
  3
ACAD_XREC_ROUNDTRIP
360
9E4E
  0
DICTIONARY
  5
9E3D
330
9DD7
100
AcDbDictionary
280
     1
281
     1
  3
ACAD_XREC_ROUNDTRIP
360
9E3E
  0
DICTIONARY
  5
9E4F
330
9DE0
100
AcDbDictionary
280
     1
281
     1
  3
ACAD_XREC_ROUNDTRIP
360
9E50
  0
DICTIONARY
  5
9E35
330
9DD3
100
AcDbDictionary
280
     1
281
     1
  3
ACAD_XREC_ROUNDTRIP
360
9E36
  0
DICTIONARY
  5
9E4B
330
9DDE
100
AcDbDictionary
280
     1
281
     1
  3
ACAD_XREC_ROUNDTRIP
360
9E4C
  0
DICTIONARY
  5
9E49
330
9DDD
100
AcDbDictionary
280
     1
281
     1
  3
ACAD_XREC_ROUNDTRIP
360
9E4A
  0
DICTIONARY
  5
9E43
330
9DDA
100
AcDbDictionary
280
     1
281
     1
  3
ACAD_XREC_ROUNDTRIP
360
9E44
  0
DICTIONARY
  5
9E45
330
9DDB
100
AcDbDictionary
280
     1
281
     1
  3
ACAD_XREC_ROUNDTRIP
360
9E46
  0
DICTIONARY
  5
9E3B
330
9DD6
100
AcDbDictionary
280
     1
281
     1
  3
ACAD_XREC_ROUNDTRIP
360
9E3C
  0
DICTIONARY
  5
9E2F
330
9DD0
100
AcDbDictionary
280
     1
281
     1
  3
ACAD_XREC_ROUNDTRIP
360
9E30
  0
DICTIONARY
  5
9E47
330
9DDC
100
AcDbDictionary
280
     1
281
     1
  3
ACAD_XREC_ROUNDTRIP
360
9E48
  0
XRECORD
  5
9E58
102
{ACAD_REACTORS
330
9E57
102
}
330
9E57
100
AcDbXrecord
280
     1
102
DISPLAYNAME
  1
Imperial24
102
FLAGS
 90
        0
  0
XRECORD
  5
9E5A
102
{ACAD_REACTORS
330
9E59
102
}
330
9E59
100
AcDbXrecord
280
     1
102
SHADEPLOT
 70
     0
102
SHADEPLOTRESLEVEL
 70
     2
102
SHADEPLOTCUSTOMDPI
 70
   300
  0
XRECORD
  5
9E5C
102
{ACAD_REACTORS
330
9E5B
102
}
330
9E5B
100
AcDbXrecord
280
     1
102
SHADEPLOT
 70
     0
102
SHADEPLOTRESLEVEL
 70
     2
102
SHADEPLOTCUSTOMDPI
 70
   300
  0
XRECORD
  5
9E21
102
{ACAD_REACTORS
330
9DBA
102
}
330
9DBA
100
AcDbXrecord
280
     1
102
MATERIAL
148
0.0
149
0.0
149
0.0
 93
        0
 94
      127
282
     0
 72
     0
 77
     0
171
     0
175
     0
179
     0
273
     0
  0
XRECORD
  5
9DBC
102
{ACAD_REACTORS
330
9DBA
102
}
330
9DBA
100
AcDbXrecord
280
     1
270
     1
271
     1
  0
XRECORD
  5
9DBB
102
{ACAD_REACTORS
330
9DBA
102
}
330
9DBA
100
AcDbXrecord
280
     1
270
     1
271
     1
  0
XRECORD
  5
9DBF
102
{ACAD_REACTORS
330
9DBA
102
}
330
9DBA
100
AcDbXrecord
280
     1
270
     1
271
     1
  0
XRECORD
  5
9DBE
102
{ACAD_REACTORS
330
9DBA
102
}
330
9DBA
100
AcDbXrecord
280
     1
270
     1
271
     1
  0
XRECORD
  5
9DC0
102
{ACAD_REACTORS
330
9DBA
102
}
330
9DBA
100
AcDbXrecord
280
     1
270
     1
271
     1
  0
XRECORD
  5
9DBD
102
{ACAD_REACTORS
330
9DBA
102
}
330
9DBA
100
AcDbXrecord
280
     1
270
     1
271
     1
  0
XRECORD
  5
9E20
102
{ACAD_REACTORS
330
9DB2
102
}
330
9DB2
100
AcDbXrecord
280
     1
102
MATERIAL
148
0.0
149
0.0
149
0.0
 93
        0
 94
      127
282
     0
 72
     0
 77
     0
171
     0
175
     0
179
     0
273
     0
  0
XRECORD
  5
9DB4
102
{ACAD_REACTORS
330
9DB2
102
}
330
9DB2
100
AcDbXrecord
280
     1
270
     1
271
     1
  0
XRECORD
  5
9DB3
102
{ACAD_REACTORS
330
9DB2
102
}
330
9DB2
100
AcDbXrecord
280
     1
270
     1
271
     1
  0
XRECORD
  5
9DB7
102
{ACAD_REACTORS
330
9DB2
102
}
330
9DB2
100
AcDbXrecord
280
     1
270
     1
271
     1
  0
XRECORD
  5
9DB6
102
{ACAD_REACTORS
330
9DB2
102
}
330
9DB2
100
AcDbXrecord
280
     1
270
     1
271
     1
  0
XRECORD
  5
9DB8
102
{ACAD_REACTORS
330
9DB2
102
}
330
9DB2
100
AcDbXrecord
280
     1
270
     1
271
     1
  0
XRECORD
  5
9DB5
102
{ACAD_REACTORS
330
9DB2
102
}
330
9DB2
100
AcDbXrecord
280
     1
270
     1
271
     1
  0
XRECORD
  5
9E22
102
{ACAD_REACTORS
330
9DC2
102
}
330
9DC2
100
AcDbXrecord
280
     1
102
MATERIAL
148
0.0
149
0.0
149
0.0
 93
        0
 94
      127
282
     0
 72
     0
 77
     0
171
     0
175
     0
179
     0
273
     0
  0
XRECORD
  5
9DC4
102
{ACAD_REACTORS
330
9DC2
102
}
330
9DC2
100
AcDbXrecord
280
     1
270
     1
271
     1
  0
XRECORD
  5
9DC3
102
{ACAD_REACTORS
330
9DC2
102
}
330
9DC2
100
AcDbXrecord
280
     1
270
     1
271
     1
  0
XRECORD
  5
9DC7
102
{ACAD_REACTORS
330
9DC2
102
}
330
9DC2
100
AcDbXrecord
280
     1
270
     1
271
     1
  0
XRECORD
  5
9DC6
102
{ACAD_REACTORS
330
9DC2
102
}
330
9DC2
100
AcDbXrecord
280
     1
270
     1
271
     1
  0
XRECORD
  5
9DC8
102
{ACAD_REACTORS
330
9DC2
102
}
330
9DC2
100
AcDbXrecord
280
     1
270
     1
271
     1
  0
XRECORD
  5
9DC5
102
{ACAD_REACTORS
330
9DC2
102
}
330
9DC2
100
AcDbXrecord
280
     1
270
     1
271
     1
  0
XRECORD
  5
9E56
102
{ACAD_REACTORS
330
9E55
102
}
330
9E55
100
AcDbXrecord
280
     1
102
DISPLAYNAME
  1
Imperial24
102
FLAGS
 90
        0
  0
CELLSTYLEMAP
  5
9E1D
102
{ACAD_REACTORS
330
9E1C
102
}
330
9E1C
100
AcDbCellStyleMap
 90
        3
300
CELLSTYLE
  1
TABLEFORMAT_BEGIN
 90
        5
170
     1
 91
        0
 92
    32768
 62
   257
 93
        1
300
CONTENTFORMAT
  1
CONTENTFORMAT_BEGIN
 90
        0
 91
        0
 92
      512
 93
        0
300

 40
0.0
140
1.0
 94
        5
 62
     0
340
9B9A
144
0.25
309
CONTENTFORMAT_END
171
     0
 94
        0
309
TABLEFORMAT_END
  1
CELLSTYLE_BEGIN
 90
        1
 91
        1
300
_TITLE
309
CELLSTYLE_END
300
CELLSTYLE
  1
TABLEFORMAT_BEGIN
 90
        5
170
     1
 91
        0
 92
        0
 62
   257
 93
        1
300
CONTENTFORMAT
  1
CONTENTFORMAT_BEGIN
 90
        0
 91
        0
 92
      512
 93
        0
300

 40
0.0
140
1.0
 94
        5
 62
     0
340
9B9A
144
0.18
309
CONTENTFORMAT_END
171
     0
 94
        0
309
TABLEFORMAT_END
  1
CELLSTYLE_BEGIN
 90
        2
 91
        1
300
_HEADER
309
CELLSTYLE_END
300
CELLSTYLE
  1
TABLEFORMAT_BEGIN
 90
        5
170
     1
 91
        0
 92
        0
 62
   257
 93
        1
300
CONTENTFORMAT
  1
CONTENTFORMAT_BEGIN
 90
        0
 91
        0
 92
      512
 93
        0
300

 40
0.0
140
1.0
 94
        2
 62
     0
340
9B9A
144
0.18
309
CONTENTFORMAT_END
171
     0
 94
        0
309
TABLEFORMAT_END
  1
CELLSTYLE_BEGIN
 90
        3
 91
        2
300
_DATA
309
CELLSTYLE_END
  0
XRECORD
  5
9E53
102
{ACAD_REACTORS
330
9E1C
102
}
330
9E1C
100
AcDbXrecord
280
     1
102
ACAD_ROUNDTRIP_PRE2007_TABLESTYLE
 90
      512
 91
        0
  1

 92
      512
 93
        0
  2

 94
      512
 95
        0
  3

  0
XRECORD
  5
9E2E
102
{ACAD_REACTORS
330
9E2D
102
}
330
9E2D
100
AcDbXrecord
280
     1
102
RTVSPost2010Prop28
280
     1
102
RTVSPost2010PropOp28
 70
     1
102
RTVSPost2010Prop29
280
     1
102
RTVSPost2010PropOp29
 70
     1
102
RTVSPost2010Prop30
280
     0
102
RTVSPost2010PropOp30
 70
     1
102
RTVSPost2010Prop31
280
     0
102
RTVSPost2010PropOp31
 70
     1
102
RTVSPost2010Prop32
280
     0
102
RTVSPost2010PropOp32
 70
     1
102
RTVSPost2010Prop33
280
     0
102
RTVSPost2010PropOp33
 70
     1
102
RTVSPost2010Prop34
280
     0
102
RTVSPost2010PropOp34
 70
     1
102
RTVSPost2010Prop35
280
     0
102
RTVSPost2010PropOp35
 70
     1
102
RTVSPost2010Prop36
280
     0
102
RTVSPost2010PropOp36
 70
     1
102
RTVSPost2010Prop37
 90
       50
102
RTVSPost2010PropOp37
 70
     1
102
RTVSPost2010Prop38
140
0.0
102
RTVSPost2010PropOp38
 70
     1
102
RTVSPost2010Prop39
140
1.0
102
RTVSPost2010PropOp39
 70
     1
102
RTVSPost2010Prop40
 90
        0
102
RTVSPost2010PropOp40
 70
     1
102
RTVSPost2010Prop41ColorIndex
 90
       18
102
RTVSPost2010Prop41ColorRGB
 90
        0
102
RTVSPost2010PropOp41
 70
     1
102
RTVSPost2010Prop42
 90
       50
102
RTVSPost2010PropOp42
 70
     1
102
RTVSPost2010Prop43
 90
        3
102
RTVSPost2010PropOp43
 70
     1
102
RTVSPost2010Prop44ColorIndex
 90
        5
102
RTVSPost2010Prop44ColorRGB
 90
      255
102
RTVSPost2010PropOp44
 70
     1
102
RTVSPost2010Prop45
280
     0
102
RTVSPost2010PropOp45
 70
     1
102
RTVSPost2010Prop46
 90
       50
102
RTVSPost2010PropOp46
 70
     1
102
RTVSPost2010Prop47
 90
       50
102
RTVSPost2010PropOp47
 70
     1
102
RTVSPost2010Prop48
 90
       50
102
RTVSPost2010PropOp48
 70
     1
102
RTVSPost2010Prop49
280
     0
102
RTVSPost2010PropOp49
 70
     1
102
RTVSPost2010Prop50
 90
       50
102
RTVSPost2010PropOp50
 70
     1
102
RTVSPost2010Prop51ColorIndex
 90
      256
102
RTVSPost2010Prop51ColorRGB
 90
-16777216
102
RTVSPost2010PropOp51
 70
     0
102
RTVSPost2010Prop52
140
1.0
102
RTVSPost2010PropOp52
 70
     0
102
RTVSPost2010Prop53
 90
        2
102
RTVSPost2010PropOp53
 70
     1
102
RTVSPost2010Prop54
  1
strokes_ogs.tif
102
RTVSPost2010PropOp54
 70
     1
102
RTVSPost2010Prop55
280
     0
102
RTVSPost2010PropOp55
 70
     1
102
RTVSPost2010Prop56
140
1.0
102
RTVSPost2010PropOp56
 70
     1
102
RTVSPost2010Prop57
140
1.0
102
RTVSPost2010PropOp57
 70
     1
102
RTVSPropertyOp0
 70
     1
102
RTVSPropertyOp1
 70
     1
102
RTVSPropertyOp2
 70
     1
102
RTVSPropertyOp3
 70
     1
102
RTVSPropertyOp4
 70
     1
102
RTVSPropertyOp5
 70
     1
102
RTVSPropertyOp6
 70
     1
102
RTVSPropertyOp7
 70
     1
102
RTVSPropertyOp8
 70
     1
102
RTVSPropertyOp9
 70
     1
102
RTVSPropertyOp10
 70
     1
102
RTVSPropertyOp11
 70
     1
102
RTVSPropertyOp12
 70
     1
102
RTVSPropertyOp13
 70
     1
102
RTVSPropertyOp14
 70
     1
102
RTVSPropertyOp15
 70
     1
102
RTVSPropertyOp16
 70
     1
102
RTVSPropertyOp17
 70
     1
102
RTVSPropertyOp18
 70
     1
102
RTVSPropertyOp19
 70
     1
102
RTVSPropertyOp20
 70
     1
102
RTVSPropertyOp21
 70
     1
102
RTVSPropertyOp22
 70
     1
102
RTVSPropertyOp23
 70
     1
102
RTVSPropertyOp24
 70
     1
102
RTVSPropertyOp25
 70
     1
102
RTVSPropertyOp26
 70
     1
102
RTVSPropertyOp27
 70
     1
102
RTVSPropertyOp28
 70
     1
102
RTVSPropertyOp29
 70
     1
102
RTVSPropertyOp30
 70
     1
102
RTVSPropertyOp31
 70
     1
102
RTVSPropertyOp32
 70
     1
102
RTVSPropertyOp33
 70
     1
102
RTVSPropertyOp34
 70
     1
102
RTVSPropertyOp35
 70
     1
102
RTVSPropertyOp36
 70
     1
102
RTVSPropertyOp37
 70
     1
102
RTVSPropertyOp38
 70
     1
102
RTVSPropertyOp39
 70
     1
102
RTVSPropertyOp40
 70
     1
102
RTVSPropertyOp41
 70
     1
102
RTVSPropertyOp42
 70
     1
102
RTVSPropertyOp43
 70
     1
102
RTVSPropertyOp44
 70
     1
102
RTVSPropertyOp45
 70
     1
102
RTVSPropertyOp46
 70
     1
102
RTVSPropertyOp47
 70
     1
102
RTVSPropertyOp48
 70
     1
102
RTVSPropertyOp49
 70
     1
102
RTVSPropertyOp50
 70
     1
102
RTVSPropertyOp51
 70
     0
102
RTVSPropertyOp52
 70
     0
102
RTVSPropertyOp53
 70
     1
102
RTVSPropertyOp54
 70
     1
102
RTVSPropertyOp55
 70
     1
102
RTVSPropertyOp56
 70
     1
102
RTVSPropertyOp57
 70
     1
102
RTVSPropertyOp58
 70
     1
102
RTVSPropertyOp59
 70
     1
102
RTVSPropertyOp60
 70
     1
102
RTVSPropertyOp61
 70
     1
102
RTVSPropertyOp62
 70
     1
  0
XRECORD
  5
9E2C
102
{ACAD_REACTORS
330
9E2B
102
}
330
9E2B
100
AcDbXrecord
280
     1
102
RTVSPost2010Prop28
280
     0
102
RTVSPost2010PropOp28
 70
     1
102
RTVSPost2010Prop29
280
     1
102
RTVSPost2010PropOp29
 70
     1
102
RTVSPost2010Prop30
280
     1
102
RTVSPost2010PropOp30
 70
     1
102
RTVSPost2010Prop31
280
     0
102
RTVSPost2010PropOp31
 70
     1
102
RTVSPost2010Prop32
280
     0
102
RTVSPost2010PropOp32
 70
     1
102
RTVSPost2010Prop33
280
     0
102
RTVSPost2010PropOp33
 70
     1
102
RTVSPost2010Prop34
280
     0
102
RTVSPost2010PropOp34
 70
     1
102
RTVSPost2010Prop35
280
     0
102
RTVSPost2010PropOp35
 70
     1
102
RTVSPost2010Prop36
280
     0
102
RTVSPost2010PropOp36
 70
     1
102
RTVSPost2010Prop37
 90
       50
102
RTVSPost2010PropOp37
 70
     1
102
RTVSPost2010Prop38
140
0.0
102
RTVSPost2010PropOp38
 70
     1
102
RTVSPost2010Prop39
140
1.0
102
RTVSPost2010PropOp39
 70
     1
102
RTVSPost2010Prop40
 90
        0
102
RTVSPost2010PropOp40
 70
     1
102
RTVSPost2010Prop41ColorIndex
 90
       18
102
RTVSPost2010Prop41ColorRGB
 90
        0
102
RTVSPost2010PropOp41
 70
     1
102
RTVSPost2010Prop42
 90
       50
102
RTVSPost2010PropOp42
 70
     1
102
RTVSPost2010Prop43
 90
        3
102
RTVSPost2010PropOp43
 70
     1
102
RTVSPost2010Prop44ColorIndex
 90
        5
102
RTVSPost2010Prop44ColorRGB
 90
      255
102
RTVSPost2010PropOp44
 70
     1
102
RTVSPost2010Prop45
280
     0
102
RTVSPost2010PropOp45
 70
     1
102
RTVSPost2010Prop46
 90
       50
102
RTVSPost2010PropOp46
 70
     1
102
RTVSPost2010Prop47
 90
       50
102
RTVSPost2010PropOp47
 70
     1
102
RTVSPost2010Prop48
 90
       50
102
RTVSPost2010PropOp48
 70
     1
102
RTVSPost2010Prop49
280
     0
102
RTVSPost2010PropOp49
 70
     1
102
RTVSPost2010Prop50
 90
       50
102
RTVSPost2010PropOp50
 70
     1
102
RTVSPost2010Prop51ColorIndex
 90
      256
102
RTVSPost2010Prop51ColorRGB
 90
-16777216
102
RTVSPost2010PropOp51
 70
     0
102
RTVSPost2010Prop52
140
1.0
102
RTVSPost2010PropOp52
 70
     0
102
RTVSPost2010Prop53
 90
        2
102
RTVSPost2010PropOp53
 70
     1
102
RTVSPost2010Prop54
  1
strokes_ogs.tif
102
RTVSPost2010PropOp54
 70
     1
102
RTVSPost2010Prop55
280
     0
102
RTVSPost2010PropOp55
 70
     1
102
RTVSPost2010Prop56
140
1.0
102
RTVSPost2010PropOp56
 70
     1
102
RTVSPost2010Prop57
140
1.0
102
RTVSPost2010PropOp57
 70
     1
102
RTVSPropertyOp0
 70
     1
102
RTVSPropertyOp1
 70
     1
102
RTVSPropertyOp2
 70
     1
102
RTVSPropertyOp3
 70
     1
102
RTVSPropertyOp4
 70
     1
102
RTVSPropertyOp5
 70
     1
102
RTVSPropertyOp6
 70
     1
102
RTVSPropertyOp7
 70
     1
102
RTVSPropertyOp8
 70
     1
102
RTVSPropertyOp9
 70
     1
102
RTVSPropertyOp10
 70
     1
102
RTVSPropertyOp11
 70
     1
102
RTVSPropertyOp12
 70
     1
102
RTVSPropertyOp13
 70
     1
102
RTVSPropertyOp14
 70
     1
102
RTVSPropertyOp15
 70
     1
102
RTVSPropertyOp16
 70
     1
102
RTVSPropertyOp17
 70
     1
102
RTVSPropertyOp18
 70
     1
102
RTVSPropertyOp19
 70
     1
102
RTVSPropertyOp20
 70
     1
102
RTVSPropertyOp21
 70
     1
102
RTVSPropertyOp22
 70
     1
102
RTVSPropertyOp23
 70
     1
102
RTVSPropertyOp24
 70
     1
102
RTVSPropertyOp25
 70
     1
102
RTVSPropertyOp26
 70
     1
102
RTVSPropertyOp27
 70
     1
102
RTVSPropertyOp28
 70
     1
102
RTVSPropertyOp29
 70
     1
102
RTVSPropertyOp30
 70
     1
102
RTVSPropertyOp31
 70
     1
102
RTVSPropertyOp32
 70
     1
102
RTVSPropertyOp33
 70
     1
102
RTVSPropertyOp34
 70
     1
102
RTVSPropertyOp35
 70
     1
102
RTVSPropertyOp36
 70
     1
102
RTVSPropertyOp37
 70
     1
102
RTVSPropertyOp38
 70
     1
102
RTVSPropertyOp39
 70
     1
102
RTVSPropertyOp40
 70
     1
102
RTVSPropertyOp41
 70
     1
102
RTVSPropertyOp42
 70
     1
102
RTVSPropertyOp43
 70
     1
102
RTVSPropertyOp44
 70
     1
102
RTVSPropertyOp45
 70
     1
102
RTVSPropertyOp46
 70
     1
102
RTVSPropertyOp47
 70
     1
102
RTVSPropertyOp48
 70
     1
102
RTVSPropertyOp49
 70
     1
102
RTVSPropertyOp50
 70
     1
102
RTVSPropertyOp51
 70
     0
102
RTVSPropertyOp52
 70
     0
102
RTVSPropertyOp53
 70
     1
102
RTVSPropertyOp54
 70
     1
102
RTVSPropertyOp55
 70
     1
102
RTVSPropertyOp56
 70
     1
102
RTVSPropertyOp57
 70
     1
102
RTVSPropertyOp58
 70
     1
102
RTVSPropertyOp59
 70
     1
102
RTVSPropertyOp60
 70
     1
102
RTVSPropertyOp61
 70
     1
102
RTVSPropertyOp62
 70
     1
  0
XRECORD
  5
9E3A
102
{ACAD_REACTORS
330
9E39
102
}
330
9E39
100
AcDbXrecord
280
     1
102
RTVSPost2010Prop28
280
     0
102
RTVSPost2010PropOp28
 70
     1
102
RTVSPost2010Prop29
280
     1
102
RTVSPost2010PropOp29
 70
     1
102
RTVSPost2010Prop30
280
     1
102
RTVSPost2010PropOp30
 70
     1
102
RTVSPost2010Prop31
280
     0
102
RTVSPost2010PropOp31
 70
     1
102
RTVSPost2010Prop32
280
     0
102
RTVSPost2010PropOp32
 70
     1
102
RTVSPost2010Prop33
280
     0
102
RTVSPost2010PropOp33
 70
     1
102
RTVSPost2010Prop34
280
     0
102
RTVSPost2010PropOp34
 70
     1
102
RTVSPost2010Prop35
280
     0
102
RTVSPost2010PropOp35
 70
     1
102
RTVSPost2010Prop36
280
     0
102
RTVSPost2010PropOp36
 70
     1
102
RTVSPost2010Prop37
 90
       50
102
RTVSPost2010PropOp37
 70
     1
102
RTVSPost2010Prop38
140
0.0
102
RTVSPost2010PropOp38
 70
     1
102
RTVSPost2010Prop39
140
1.0
102
RTVSPost2010PropOp39
 70
     1
102
RTVSPost2010Prop40
 90
        0
102
RTVSPost2010PropOp40
 70
     1
102
RTVSPost2010Prop41ColorIndex
 90
       18
102
RTVSPost2010Prop41ColorRGB
 90
        0
102
RTVSPost2010PropOp41
 70
     1
102
RTVSPost2010Prop42
 90
       50
102
RTVSPost2010PropOp42
 70
     1
102
RTVSPost2010Prop43
 90
        3
102
RTVSPost2010PropOp43
 70
     1
102
RTVSPost2010Prop44ColorIndex
 90
        5
102
RTVSPost2010Prop44ColorRGB
 90
      255
102
RTVSPost2010PropOp44
 70
     1
102
RTVSPost2010Prop45
280
     0
102
RTVSPost2010PropOp45
 70
     1
102
RTVSPost2010Prop46
 90
       50
102
RTVSPost2010PropOp46
 70
     1
102
RTVSPost2010Prop47
 90
       50
102
RTVSPost2010PropOp47
 70
     1
102
RTVSPost2010Prop48
 90
       50
102
RTVSPost2010PropOp48
 70
     1
102
RTVSPost2010Prop49
280
     0
102
RTVSPost2010PropOp49
 70
     1
102
RTVSPost2010Prop50
 90
       50
102
RTVSPost2010PropOp50
 70
     1
102
RTVSPost2010Prop51ColorIndex
 90
      256
102
RTVSPost2010Prop51ColorRGB
 90
-16777216
102
RTVSPost2010PropOp51
 70
     0
102
RTVSPost2010Prop52
140
1.0
102
RTVSPost2010PropOp52
 70
     0
102
RTVSPost2010Prop53
 90
        2
102
RTVSPost2010PropOp53
 70
     1
102
RTVSPost2010Prop54
  1
strokes_ogs.tif
102
RTVSPost2010PropOp54
 70
     1
102
RTVSPost2010Prop55
280
     0
102
RTVSPost2010PropOp55
 70
     1
102
RTVSPost2010Prop56
140
1.0
102
RTVSPost2010PropOp56
 70
     1
102
RTVSPost2010Prop57
140
1.0
102
RTVSPost2010PropOp57
 70
     1
102
RTVSPropertyOp0
 70
     1
102
RTVSPropertyOp1
 70
     1
102
RTVSPropertyOp2
 70
     1
102
RTVSPropertyOp3
 70
     1
102
RTVSPropertyOp4
 70
     1
102
RTVSPropertyOp5
 70
     1
102
RTVSPropertyOp6
 70
     1
102
RTVSPropertyOp7
 70
     1
102
RTVSPropertyOp8
 70
     1
102
RTVSPropertyOp9
 70
     1
102
RTVSPropertyOp10
 70
     1
102
RTVSPropertyOp11
 70
     1
102
RTVSPropertyOp12
 70
     1
102
RTVSPropertyOp13
 70
     1
102
RTVSPropertyOp14
 70
     1
102
RTVSPropertyOp15
 70
     1
102
RTVSPropertyOp16
 70
     1
102
RTVSPropertyOp17
 70
     1
102
RTVSPropertyOp18
 70
     1
102
RTVSPropertyOp19
 70
     1
102
RTVSPropertyOp20
 70
     1
102
RTVSPropertyOp21
 70
     1
102
RTVSPropertyOp22
 70
     1
102
RTVSPropertyOp23
 70
     1
102
RTVSPropertyOp24
 70
     1
102
RTVSPropertyOp25
 70
     1
102
RTVSPropertyOp26
 70
     1
102
RTVSPropertyOp27
 70
     1
102
RTVSPropertyOp28
 70
     1
102
RTVSPropertyOp29
 70
     1
102
RTVSPropertyOp30
 70
     1
102
RTVSPropertyOp31
 70
     1
102
RTVSPropertyOp32
 70
     1
102
RTVSPropertyOp33
 70
     1
102
RTVSPropertyOp34
 70
     1
102
RTVSPropertyOp35
 70
     1
102
RTVSPropertyOp36
 70
     1
102
RTVSPropertyOp37
 70
     1
102
RTVSPropertyOp38
 70
     1
102
RTVSPropertyOp39
 70
     1
102
RTVSPropertyOp40
 70
     1
102
RTVSPropertyOp41
 70
     1
102
RTVSPropertyOp42
 70
     1
102
RTVSPropertyOp43
 70
     1
102
RTVSPropertyOp44
 70
     1
102
RTVSPropertyOp45
 70
     1
102
RTVSPropertyOp46
 70
     1
102
RTVSPropertyOp47
 70
     1
102
RTVSPropertyOp48
 70
     1
102
RTVSPropertyOp49
 70
     1
102
RTVSPropertyOp50
 70
     1
102
RTVSPropertyOp51
 70
     0
102
RTVSPropertyOp52
 70
     0
102
RTVSPropertyOp53
 70
     1
102
RTVSPropertyOp54
 70
     1
102
RTVSPropertyOp55
 70
     1
102
RTVSPropertyOp56
 70
     1
102
RTVSPropertyOp57
 70
     1
102
RTVSPropertyOp58
 70
     1
102
RTVSPropertyOp59
 70
     1
102
RTVSPropertyOp60
 70
     1
102
RTVSPropertyOp61
 70
     1
102
RTVSPropertyOp62
 70
     1
  0
XRECORD
  5
9E42
102
{ACAD_REACTORS
330
9E41
102
}
330
9E41
100
AcDbXrecord
280
     1
102
RTVSPost2010Prop28
280
     0
102
RTVSPost2010PropOp28
 70
     1
102
RTVSPost2010Prop29
280
     1
102
RTVSPost2010PropOp29
 70
     1
102
RTVSPost2010Prop30
280
     1
102
RTVSPost2010PropOp30
 70
     1
102
RTVSPost2010Prop31
280
     0
102
RTVSPost2010PropOp31
 70
     1
102
RTVSPost2010Prop32
280
     0
102
RTVSPost2010PropOp32
 70
     1
102
RTVSPost2010Prop33
280
     0
102
RTVSPost2010PropOp33
 70
     1
102
RTVSPost2010Prop34
280
     0
102
RTVSPost2010PropOp34
 70
     1
102
RTVSPost2010Prop35
280
     0
102
RTVSPost2010PropOp35
 70
     1
102
RTVSPost2010Prop36
280
     0
102
RTVSPost2010PropOp36
 70
     1
102
RTVSPost2010Prop37
 90
       50
102
RTVSPost2010PropOp37
 70
     1
102
RTVSPost2010Prop38
140
0.0
102
RTVSPost2010PropOp38
 70
     1
102
RTVSPost2010Prop39
140
1.0
102
RTVSPost2010PropOp39
 70
     1
102
RTVSPost2010Prop40
 90
        0
102
RTVSPost2010PropOp40
 70
     1
102
RTVSPost2010Prop41ColorIndex
 90
       18
102
RTVSPost2010Prop41ColorRGB
 90
        0
102
RTVSPost2010PropOp41
 70
     1
102
RTVSPost2010Prop42
 90
       50
102
RTVSPost2010PropOp42
 70
     1
102
RTVSPost2010Prop43
 90
        3
102
RTVSPost2010PropOp43
 70
     1
102
RTVSPost2010Prop44ColorIndex
 90
        5
102
RTVSPost2010Prop44ColorRGB
 90
      255
102
RTVSPost2010PropOp44
 70
     1
102
RTVSPost2010Prop45
280
     0
102
RTVSPost2010PropOp45
 70
     1
102
RTVSPost2010Prop46
 90
       50
102
RTVSPost2010PropOp46
 70
     1
102
RTVSPost2010Prop47
 90
       50
102
RTVSPost2010PropOp47
 70
     1
102
RTVSPost2010Prop48
 90
       50
102
RTVSPost2010PropOp48
 70
     1
102
RTVSPost2010Prop49
280
     0
102
RTVSPost2010PropOp49
 70
     1
102
RTVSPost2010Prop50
 90
       50
102
RTVSPost2010PropOp50
 70
     1
102
RTVSPost2010Prop51ColorIndex
 90
      256
102
RTVSPost2010Prop51ColorRGB
 90
-16777216
102
RTVSPost2010PropOp51
 70
     0
102
RTVSPost2010Prop52
140
1.0
102
RTVSPost2010PropOp52
 70
     0
102
RTVSPost2010Prop53
 90
        2
102
RTVSPost2010PropOp53
 70
     1
102
RTVSPost2010Prop54
  1
strokes_ogs.tif
102
RTVSPost2010PropOp54
 70
     1
102
RTVSPost2010Prop55
280
     0
102
RTVSPost2010PropOp55
 70
     1
102
RTVSPost2010Prop56
140
1.0
102
RTVSPost2010PropOp56
 70
     1
102
RTVSPost2010Prop57
140
1.0
102
RTVSPost2010PropOp57
 70
     1
102
RTVSPropertyOp0
 70
     1
102
RTVSPropertyOp1
 70
     1
102
RTVSPropertyOp2
 70
     1
102
RTVSPropertyOp3
 70
     1
102
RTVSPropertyOp4
 70
     1
102
RTVSPropertyOp5
 70
     1
102
RTVSPropertyOp6
 70
     1
102
RTVSPropertyOp7
 70
     1
102
RTVSPropertyOp8
 70
     1
102
RTVSPropertyOp9
 70
     1
102
RTVSPropertyOp10
 70
     1
102
RTVSPropertyOp11
 70
     1
102
RTVSPropertyOp12
 70
     1
102
RTVSPropertyOp13
 70
     1
102
RTVSPropertyOp14
 70
     1
102
RTVSPropertyOp15
 70
     1
102
RTVSPropertyOp16
 70
     1
102
RTVSPropertyOp17
 70
     1
102
RTVSPropertyOp18
 70
     1
102
RTVSPropertyOp19
 70
     1
102
RTVSPropertyOp20
 70
     1
102
RTVSPropertyOp21
 70
     1
102
RTVSPropertyOp22
 70
     1
102
RTVSPropertyOp23
 70
     1
102
RTVSPropertyOp24
 70
     1
102
RTVSPropertyOp25
 70
     1
102
RTVSPropertyOp26
 70
     1
102
RTVSPropertyOp27
 70
     1
102
RTVSPropertyOp28
 70
     1
102
RTVSPropertyOp29
 70
     1
102
RTVSPropertyOp30
 70
     1
102
RTVSPropertyOp31
 70
     1
102
RTVSPropertyOp32
 70
     1
102
RTVSPropertyOp33
 70
     1
102
RTVSPropertyOp34
 70
     1
102
RTVSPropertyOp35
 70
     1
102
RTVSPropertyOp36
 70
     1
102
RTVSPropertyOp37
 70
     1
102
RTVSPropertyOp38
 70
     1
102
RTVSPropertyOp39
 70
     1
102
RTVSPropertyOp40
 70
     1
102
RTVSPropertyOp41
 70
     1
102
RTVSPropertyOp42
 70
     1
102
RTVSPropertyOp43
 70
     1
102
RTVSPropertyOp44
 70
     1
102
RTVSPropertyOp45
 70
     1
102
RTVSPropertyOp46
 70
     1
102
RTVSPropertyOp47
 70
     1
102
RTVSPropertyOp48
 70
     1
102
RTVSPropertyOp49
 70
     1
102
RTVSPropertyOp50
 70
     1
102
RTVSPropertyOp51
 70
     0
102
RTVSPropertyOp52
 70
     0
102
RTVSPropertyOp53
 70
     1
102
RTVSPropertyOp54
 70
     1
102
RTVSPropertyOp55
 70
     1
102
RTVSPropertyOp56
 70
     1
102
RTVSPropertyOp57
 70
     1
102
RTVSPropertyOp58
 70
     1
102
RTVSPropertyOp59
 70
     1
102
RTVSPropertyOp60
 70
     1
102
RTVSPropertyOp61
 70
     1
102
RTVSPropertyOp62
 70
     1
  0
XRECORD
  5
9E34
102
{ACAD_REACTORS
330
9E33
102
}
330
9E33
100
AcDbXrecord
280
     1
102
RTVSPost2010Prop28
280
     0
102
RTVSPost2010PropOp28
 70
     1
102
RTVSPost2010Prop29
280
     1
102
RTVSPost2010PropOp29
 70
     1
102
RTVSPost2010Prop30
280
     1
102
RTVSPost2010PropOp30
 70
     1
102
RTVSPost2010Prop31
280
     0
102
RTVSPost2010PropOp31
 70
     1
102
RTVSPost2010Prop32
280
     0
102
RTVSPost2010PropOp32
 70
     1
102
RTVSPost2010Prop33
280
     0
102
RTVSPost2010PropOp33
 70
     1
102
RTVSPost2010Prop34
280
     0
102
RTVSPost2010PropOp34
 70
     1
102
RTVSPost2010Prop35
280
     0
102
RTVSPost2010PropOp35
 70
     1
102
RTVSPost2010Prop36
280
     0
102
RTVSPost2010PropOp36
 70
     1
102
RTVSPost2010Prop37
 90
       50
102
RTVSPost2010PropOp37
 70
     1
102
RTVSPost2010Prop38
140
0.0
102
RTVSPost2010PropOp38
 70
     1
102
RTVSPost2010Prop39
140
1.0
102
RTVSPost2010PropOp39
 70
     1
102
RTVSPost2010Prop40
 90
        0
102
RTVSPost2010PropOp40
 70
     1
102
RTVSPost2010Prop41ColorIndex
 90
       18
102
RTVSPost2010Prop41ColorRGB
 90
        0
102
RTVSPost2010PropOp41
 70
     1
102
RTVSPost2010Prop42
 90
       50
102
RTVSPost2010PropOp42
 70
     1
102
RTVSPost2010Prop43
 90
        3
102
RTVSPost2010PropOp43
 70
     1
102
RTVSPost2010Prop44ColorIndex
 90
        5
102
RTVSPost2010Prop44ColorRGB
 90
      255
102
RTVSPost2010PropOp44
 70
     1
102
RTVSPost2010Prop45
280
     0
102
RTVSPost2010PropOp45
 70
     1
102
RTVSPost2010Prop46
 90
       50
102
RTVSPost2010PropOp46
 70
     1
102
RTVSPost2010Prop47
 90
       50
102
RTVSPost2010PropOp47
 70
     1
102
RTVSPost2010Prop48
 90
       50
102
RTVSPost2010PropOp48
 70
     1
102
RTVSPost2010Prop49
280
     0
102
RTVSPost2010PropOp49
 70
     1
102
RTVSPost2010Prop50
 90
       50
102
RTVSPost2010PropOp50
 70
     1
102
RTVSPost2010Prop51ColorIndex
 90
      256
102
RTVSPost2010Prop51ColorRGB
 90
-16777216
102
RTVSPost2010PropOp51
 70
     0
102
RTVSPost2010Prop52
140
1.0
102
RTVSPost2010PropOp52
 70
     0
102
RTVSPost2010Prop53
 90
        2
102
RTVSPost2010PropOp53
 70
     1
102
RTVSPost2010Prop54
  1
strokes_ogs.tif
102
RTVSPost2010PropOp54
 70
     1
102
RTVSPost2010Prop55
280
     0
102
RTVSPost2010PropOp55
 70
     1
102
RTVSPost2010Prop56
140
1.0
102
RTVSPost2010PropOp56
 70
     1
102
RTVSPost2010Prop57
140
1.0
102
RTVSPost2010PropOp57
 70
     1
102
RTVSPropertyOp0
 70
     1
102
RTVSPropertyOp1
 70
     1
102
RTVSPropertyOp2
 70
     1
102
RTVSPropertyOp3
 70
     1
102
RTVSPropertyOp4
 70
     1
102
RTVSPropertyOp5
 70
     1
102
RTVSPropertyOp6
 70
     1
102
RTVSPropertyOp7
 70
     1
102
RTVSPropertyOp8
 70
     1
102
RTVSPropertyOp9
 70
     1
102
RTVSPropertyOp10
 70
     1
102
RTVSPropertyOp11
 70
     1
102
RTVSPropertyOp12
 70
     1
102
RTVSPropertyOp13
 70
     1
102
RTVSPropertyOp14
 70
     1
102
RTVSPropertyOp15
 70
     1
102
RTVSPropertyOp16
 70
     1
102
RTVSPropertyOp17
 70
     1
102
RTVSPropertyOp18
 70
     1
102
RTVSPropertyOp19
 70
     1
102
RTVSPropertyOp20
 70
     1
102
RTVSPropertyOp21
 70
     1
102
RTVSPropertyOp22
 70
     1
102
RTVSPropertyOp23
 70
     1
102
RTVSPropertyOp24
 70
     1
102
RTVSPropertyOp25
 70
     1
102
RTVSPropertyOp26
 70
     1
102
RTVSPropertyOp27
 70
     1
102
RTVSPropertyOp28
 70
     1
102
RTVSPropertyOp29
 70
     1
102
RTVSPropertyOp30
 70
     1
102
RTVSPropertyOp31
 70
     1
102
RTVSPropertyOp32
 70
     1
102
RTVSPropertyOp33
 70
     1
102
RTVSPropertyOp34
 70
     1
102
RTVSPropertyOp35
 70
     1
102
RTVSPropertyOp36
 70
     1
102
RTVSPropertyOp37
 70
     1
102
RTVSPropertyOp38
 70
     1
102
RTVSPropertyOp39
 70
     1
102
RTVSPropertyOp40
 70
     1
102
RTVSPropertyOp41
 70
     1
102
RTVSPropertyOp42
 70
     1
102
RTVSPropertyOp43
 70
     1
102
RTVSPropertyOp44
 70
     1
102
RTVSPropertyOp45
 70
     1
102
RTVSPropertyOp46
 70
     1
102
RTVSPropertyOp47
 70
     1
102
RTVSPropertyOp48
 70
     1
102
RTVSPropertyOp49
 70
     1
102
RTVSPropertyOp50
 70
     1
102
RTVSPropertyOp51
 70
     0
102
RTVSPropertyOp52
 70
     0
102
RTVSPropertyOp53
 70
     1
102
RTVSPropertyOp54
 70
     1
102
RTVSPropertyOp55
 70
     1
102
RTVSPropertyOp56
 70
     1
102
RTVSPropertyOp57
 70
     1
102
RTVSPropertyOp58
 70
     1
102
RTVSPropertyOp59
 70
     1
102
RTVSPropertyOp60
 70
     1
102
RTVSPropertyOp61
 70
     1
102
RTVSPropertyOp62
 70
     1
  0
XRECORD
  5
9E38
102
{ACAD_REACTORS
330
9E37
102
}
330
9E37
100
AcDbXrecord
280
     1
102
RTVSPost2010Prop28
280
     0
102
RTVSPost2010PropOp28
 70
     1
102
RTVSPost2010Prop29
280
     1
102
RTVSPost2010PropOp29
 70
     1
102
RTVSPost2010Prop30
280
     1
102
RTVSPost2010PropOp30
 70
     1
102
RTVSPost2010Prop31
280
     0
102
RTVSPost2010PropOp31
 70
     1
102
RTVSPost2010Prop32
280
     0
102
RTVSPost2010PropOp32
 70
     1
102
RTVSPost2010Prop33
280
     0
102
RTVSPost2010PropOp33
 70
     1
102
RTVSPost2010Prop34
280
     0
102
RTVSPost2010PropOp34
 70
     1
102
RTVSPost2010Prop35
280
     0
102
RTVSPost2010PropOp35
 70
     1
102
RTVSPost2010Prop36
280
     0
102
RTVSPost2010PropOp36
 70
     1
102
RTVSPost2010Prop37
 90
       50
102
RTVSPost2010PropOp37
 70
     1
102
RTVSPost2010Prop38
140
0.0
102
RTVSPost2010PropOp38
 70
     1
102
RTVSPost2010Prop39
140
1.0
102
RTVSPost2010PropOp39
 70
     1
102
RTVSPost2010Prop40
 90
        0
102
RTVSPost2010PropOp40
 70
     1
102
RTVSPost2010Prop41ColorIndex
 90
       18
102
RTVSPost2010Prop41ColorRGB
 90
        0
102
RTVSPost2010PropOp41
 70
     1
102
RTVSPost2010Prop42
 90
       50
102
RTVSPost2010PropOp42
 70
     1
102
RTVSPost2010Prop43
 90
        3
102
RTVSPost2010PropOp43
 70
     1
102
RTVSPost2010Prop44ColorIndex
 90
        5
102
RTVSPost2010Prop44ColorRGB
 90
      255
102
RTVSPost2010PropOp44
 70
     1
102
RTVSPost2010Prop45
280
     0
102
RTVSPost2010PropOp45
 70
     1
102
RTVSPost2010Prop46
 90
       50
102
RTVSPost2010PropOp46
 70
     1
102
RTVSPost2010Prop47
 90
       50
102
RTVSPost2010PropOp47
 70
     1
102
RTVSPost2010Prop48
 90
       50
102
RTVSPost2010PropOp48
 70
     1
102
RTVSPost2010Prop49
280
     0
102
RTVSPost2010PropOp49
 70
     1
102
RTVSPost2010Prop50
 90
       50
102
RTVSPost2010PropOp50
 70
     1
102
RTVSPost2010Prop51ColorIndex
 90
      256
102
RTVSPost2010Prop51ColorRGB
 90
-16777216
102
RTVSPost2010PropOp51
 70
     0
102
RTVSPost2010Prop52
140
1.0
102
RTVSPost2010PropOp52
 70
     0
102
RTVSPost2010Prop53
 90
        2
102
RTVSPost2010PropOp53
 70
     1
102
RTVSPost2010Prop54
  1
strokes_ogs.tif
102
RTVSPost2010PropOp54
 70
     1
102
RTVSPost2010Prop55
280
     0
102
RTVSPost2010PropOp55
 70
     1
102
RTVSPost2010Prop56
140
1.0
102
RTVSPost2010PropOp56
 70
     1
102
RTVSPost2010Prop57
140
1.0
102
RTVSPost2010PropOp57
 70
     1
102
RTVSPropertyOp0
 70
     1
102
RTVSPropertyOp1
 70
     1
102
RTVSPropertyOp2
 70
     1
102
RTVSPropertyOp3
 70
     1
102
RTVSPropertyOp4
 70
     1
102
RTVSPropertyOp5
 70
     1
102
RTVSPropertyOp6
 70
     1
102
RTVSPropertyOp7
 70
     1
102
RTVSPropertyOp8
 70
     1
102
RTVSPropertyOp9
 70
     1
102
RTVSPropertyOp10
 70
     1
102
RTVSPropertyOp11
 70
     1
102
RTVSPropertyOp12
 70
     1
102
RTVSPropertyOp13
 70
     1
102
RTVSPropertyOp14
 70
     1
102
RTVSPropertyOp15
 70
     1
102
RTVSPropertyOp16
 70
     1
102
RTVSPropertyOp17
 70
     1
102
RTVSPropertyOp18
 70
     1
102
RTVSPropertyOp19
 70
     1
102
RTVSPropertyOp20
 70
     1
102
RTVSPropertyOp21
 70
     1
102
RTVSPropertyOp22
 70
     1
102
RTVSPropertyOp23
 70
     1
102
RTVSPropertyOp24
 70
     1
102
RTVSPropertyOp25
 70
     1
102
RTVSPropertyOp26
 70
     1
102
RTVSPropertyOp27
 70
     1
102
RTVSPropertyOp28
 70
     1
102
RTVSPropertyOp29
 70
     1
102
RTVSPropertyOp30
 70
     1
102
RTVSPropertyOp31
 70
     1
102
RTVSPropertyOp32
 70
     1
102
RTVSPropertyOp33
 70
     1
102
RTVSPropertyOp34
 70
     1
102
RTVSPropertyOp35
 70
     1
102
RTVSPropertyOp36
 70
     1
102
RTVSPropertyOp37
 70
     1
102
RTVSPropertyOp38
 70
     1
102
RTVSPropertyOp39
 70
     1
102
RTVSPropertyOp40
 70
     1
102
RTVSPropertyOp41
 70
     1
102
RTVSPropertyOp42
 70
     1
102
RTVSPropertyOp43
 70
     1
102
RTVSPropertyOp44
 70
     1
102
RTVSPropertyOp45
 70
     1
102
RTVSPropertyOp46
 70
     1
102
RTVSPropertyOp47
 70
     1
102
RTVSPropertyOp48
 70
     1
102
RTVSPropertyOp49
 70
     1
102
RTVSPropertyOp50
 70
     1
102
RTVSPropertyOp51
 70
     0
102
RTVSPropertyOp52
 70
     0
102
RTVSPropertyOp53
 70
     1
102
RTVSPropertyOp54
 70
     1
102
RTVSPropertyOp55
 70
     1
102
RTVSPropertyOp56
 70
     1
102
RTVSPropertyOp57
 70
     1
102
RTVSPropertyOp58
 70
     1
102
RTVSPropertyOp59
 70
     1
102
RTVSPropertyOp60
 70
     1
102
RTVSPropertyOp61
 70
     1
102
RTVSPropertyOp62
 70
     1
  0
XRECORD
  5
9E52
102
{ACAD_REACTORS
330
9E51
102
}
330
9E51
100
AcDbXrecord
280
     1
102
RTVSPost2010Prop28
280
     0
102
RTVSPost2010PropOp28
 70
     1
102
RTVSPost2010Prop29
280
     1
102
RTVSPost2010PropOp29
 70
     1
102
RTVSPost2010Prop30
280
     1
102
RTVSPost2010PropOp30
 70
     1
102
RTVSPost2010Prop31
280
     0
102
RTVSPost2010PropOp31
 70
     1
102
RTVSPost2010Prop32
280
     0
102
RTVSPost2010PropOp32
 70
     1
102
RTVSPost2010Prop33
280
     0
102
RTVSPost2010PropOp33
 70
     1
102
RTVSPost2010Prop34
280
     0
102
RTVSPost2010PropOp34
 70
     1
102
RTVSPost2010Prop35
280
     0
102
RTVSPost2010PropOp35
 70
     1
102
RTVSPost2010Prop36
280
     0
102
RTVSPost2010PropOp36
 70
     1
102
RTVSPost2010Prop37
 90
       50
102
RTVSPost2010PropOp37
 70
     0
102
RTVSPost2010Prop38
140
0.0
102
RTVSPost2010PropOp38
 70
     0
102
RTVSPost2010Prop39
140
1.0
102
RTVSPost2010PropOp39
 70
     0
102
RTVSPost2010Prop40
 90
        0
102
RTVSPost2010PropOp40
 70
     0
102
RTVSPost2010Prop41ColorIndex
 90
       18
102
RTVSPost2010Prop41ColorRGB
 90
        0
102
RTVSPost2010PropOp41
 70
     0
102
RTVSPost2010Prop42
 90
       50
102
RTVSPost2010PropOp42
 70
     0
102
RTVSPost2010Prop43
 90
        3
102
RTVSPost2010PropOp43
 70
     0
102
RTVSPost2010Prop44ColorIndex
 90
        5
102
RTVSPost2010Prop44ColorRGB
 90
      255
102
RTVSPost2010PropOp44
 70
     0
102
RTVSPost2010Prop45
280
     0
102
RTVSPost2010PropOp45
 70
     1
102
RTVSPost2010Prop46
 90
       50
102
RTVSPost2010PropOp46
 70
     0
102
RTVSPost2010Prop47
 90
       50
102
RTVSPost2010PropOp47
 70
     0
102
RTVSPost2010Prop48
 90
       50
102
RTVSPost2010PropOp48
 70
     0
102
RTVSPost2010Prop49
280
     0
102
RTVSPost2010PropOp49
 70
     1
102
RTVSPost2010Prop50
 90
       50
102
RTVSPost2010PropOp50
 70
     0
102
RTVSPost2010Prop51ColorIndex
 90
      256
102
RTVSPost2010Prop51ColorRGB
 90
-16777216
102
RTVSPost2010PropOp51
 70
     0
102
RTVSPost2010Prop52
140
1.0
102
RTVSPost2010PropOp52
 70
     0
102
RTVSPost2010Prop53
 90
        2
102
RTVSPost2010PropOp53
 70
     0
102
RTVSPost2010Prop54
  1
strokes_ogs.tif
102
RTVSPost2010PropOp54
 70
     0
102
RTVSPost2010Prop55
280
     0
102
RTVSPost2010PropOp55
 70
     1
102
RTVSPost2010Prop56
140
1.0
102
RTVSPost2010PropOp56
 70
     0
102
RTVSPost2010Prop57
140
1.0
102
RTVSPost2010PropOp57
 70
     0
102
RTVSPropertyOp0
 70
     0
102
RTVSPropertyOp1
 70
     0
102
RTVSPropertyOp2
 70
     0
102
RTVSPropertyOp3
 70
     0
102
RTVSPropertyOp4
 70
     0
102
RTVSPropertyOp5
 70
     0
102
RTVSPropertyOp6
 70
     0
102
RTVSPropertyOp7
 70
     0
102
RTVSPropertyOp8
 70
     0
102
RTVSPropertyOp9
 70
     0
102
RTVSPropertyOp10
 70
     0
102
RTVSPropertyOp11
 70
     0
102
RTVSPropertyOp12
 70
     0
102
RTVSPropertyOp13
 70
     0
102
RTVSPropertyOp14
 70
     2
102
RTVSPropertyOp15
 70
     0
102
RTVSPropertyOp16
 70
     0
102
RTVSPropertyOp17
 70
     0
102
RTVSPropertyOp18
 70
     0
102
RTVSPropertyOp19
 70
     0
102
RTVSPropertyOp20
 70
     0
102
RTVSPropertyOp21
 70
     0
102
RTVSPropertyOp22
 70
     0
102
RTVSPropertyOp23
 70
     0
102
RTVSPropertyOp24
 70
     0
102
RTVSPropertyOp25
 70
     0
102
RTVSPropertyOp26
 70
     0
102
RTVSPropertyOp27
 70
     0
102
RTVSPropertyOp28
 70
     1
102
RTVSPropertyOp29
 70
     1
102
RTVSPropertyOp30
 70
     1
102
RTVSPropertyOp31
 70
     1
102
RTVSPropertyOp32
 70
     1
102
RTVSPropertyOp33
 70
     1
102
RTVSPropertyOp34
 70
     1
102
RTVSPropertyOp35
 70
     1
102
RTVSPropertyOp36
 70
     1
102
RTVSPropertyOp37
 70
     0
102
RTVSPropertyOp38
 70
     0
102
RTVSPropertyOp39
 70
     0
102
RTVSPropertyOp40
 70
     0
102
RTVSPropertyOp41
 70
     0
102
RTVSPropertyOp42
 70
     0
102
RTVSPropertyOp43
 70
     0
102
RTVSPropertyOp44
 70
     0
102
RTVSPropertyOp45
 70
     1
102
RTVSPropertyOp46
 70
     0
102
RTVSPropertyOp47
 70
     0
102
RTVSPropertyOp48
 70
     0
102
RTVSPropertyOp49
 70
     1
102
RTVSPropertyOp50
 70
     0
102
RTVSPropertyOp51
 70
     0
102
RTVSPropertyOp52
 70
     0
102
RTVSPropertyOp53
 70
     0
102
RTVSPropertyOp54
 70
     0
102
RTVSPropertyOp55
 70
     1
102
RTVSPropertyOp56
 70
     0
102
RTVSPropertyOp57
 70
     0
102
RTVSPropertyOp58
 70
     0
102
RTVSPropertyOp59
 70
     0
102
RTVSPropertyOp60
 70
     0
102
RTVSPropertyOp61
 70
     0
102
RTVSPropertyOp62
 70
     0
  0
XRECORD
  5
9E40
102
{ACAD_REACTORS
330
9E3F
102
}
330
9E3F
100
AcDbXrecord
280
     1
102
RTVSPost2010Prop28
280
     0
102
RTVSPost2010PropOp28
 70
     1
102
RTVSPost2010Prop29
280
     1
102
RTVSPost2010PropOp29
 70
     1
102
RTVSPost2010Prop30
280
     1
102
RTVSPost2010PropOp30
 70
     1
102
RTVSPost2010Prop31
280
     0
102
RTVSPost2010PropOp31
 70
     1
102
RTVSPost2010Prop32
280
     0
102
RTVSPost2010PropOp32
 70
     1
102
RTVSPost2010Prop33
280
     0
102
RTVSPost2010PropOp33
 70
     1
102
RTVSPost2010Prop34
280
     0
102
RTVSPost2010PropOp34
 70
     1
102
RTVSPost2010Prop35
280
     0
102
RTVSPost2010PropOp35
 70
     1
102
RTVSPost2010Prop36
280
     0
102
RTVSPost2010PropOp36
 70
     1
102
RTVSPost2010Prop37
 90
       50
102
RTVSPost2010PropOp37
 70
     1
102
RTVSPost2010Prop38
140
0.0
102
RTVSPost2010PropOp38
 70
     1
102
RTVSPost2010Prop39
140
1.0
102
RTVSPost2010PropOp39
 70
     1
102
RTVSPost2010Prop40
 90
        0
102
RTVSPost2010PropOp40
 70
     1
102
RTVSPost2010Prop41ColorIndex
 90
       18
102
RTVSPost2010Prop41ColorRGB
 90
        0
102
RTVSPost2010PropOp41
 70
     1
102
RTVSPost2010Prop42
 90
       50
102
RTVSPost2010PropOp42
 70
     1
102
RTVSPost2010Prop43
 90
        3
102
RTVSPost2010PropOp43
 70
     1
102
RTVSPost2010Prop44ColorIndex
 90
        5
102
RTVSPost2010Prop44ColorRGB
 90
      255
102
RTVSPost2010PropOp44
 70
     1
102
RTVSPost2010Prop45
280
     0
102
RTVSPost2010PropOp45
 70
     1
102
RTVSPost2010Prop46
 90
       50
102
RTVSPost2010PropOp46
 70
     1
102
RTVSPost2010Prop47
 90
       50
102
RTVSPost2010PropOp47
 70
     1
102
RTVSPost2010Prop48
 90
       50
102
RTVSPost2010PropOp48
 70
     1
102
RTVSPost2010Prop49
280
     0
102
RTVSPost2010PropOp49
 70
     1
102
RTVSPost2010Prop50
 90
       50
102
RTVSPost2010PropOp50
 70
     1
102
RTVSPost2010Prop51ColorIndex
 90
      256
102
RTVSPost2010Prop51ColorRGB
 90
-16777216
102
RTVSPost2010PropOp51
 70
     0
102
RTVSPost2010Prop52
140
1.0
102
RTVSPost2010PropOp52
 70
     0
102
RTVSPost2010Prop53
 90
        2
102
RTVSPost2010PropOp53
 70
     1
102
RTVSPost2010Prop54
  1
strokes_ogs.tif
102
RTVSPost2010PropOp54
 70
     1
102
RTVSPost2010Prop55
280
     0
102
RTVSPost2010PropOp55
 70
     1
102
RTVSPost2010Prop56
140
1.0
102
RTVSPost2010PropOp56
 70
     1
102
RTVSPost2010Prop57
140
1.0
102
RTVSPost2010PropOp57
 70
     1
102
RTVSPropertyOp0
 70
     1
102
RTVSPropertyOp1
 70
     1
102
RTVSPropertyOp2
 70
     1
102
RTVSPropertyOp3
 70
     1
102
RTVSPropertyOp4
 70
     1
102
RTVSPropertyOp5
 70
     1
102
RTVSPropertyOp6
 70
     1
102
RTVSPropertyOp7
 70
     1
102
RTVSPropertyOp8
 70
     1
102
RTVSPropertyOp9
 70
     1
102
RTVSPropertyOp10
 70
     1
102
RTVSPropertyOp11
 70
     1
102
RTVSPropertyOp12
 70
     1
102
RTVSPropertyOp13
 70
     1
102
RTVSPropertyOp14
 70
     1
102
RTVSPropertyOp15
 70
     1
102
RTVSPropertyOp16
 70
     1
102
RTVSPropertyOp17
 70
     1
102
RTVSPropertyOp18
 70
     1
102
RTVSPropertyOp19
 70
     1
102
RTVSPropertyOp20
 70
     1
102
RTVSPropertyOp21
 70
     1
102
RTVSPropertyOp22
 70
     1
102
RTVSPropertyOp23
 70
     1
102
RTVSPropertyOp24
 70
     1
102
RTVSPropertyOp25
 70
     1
102
RTVSPropertyOp26
 70
     1
102
RTVSPropertyOp27
 70
     1
102
RTVSPropertyOp28
 70
     1
102
RTVSPropertyOp29
 70
     1
102
RTVSPropertyOp30
 70
     1
102
RTVSPropertyOp31
 70
     1
102
RTVSPropertyOp32
 70
     1
102
RTVSPropertyOp33
 70
     1
102
RTVSPropertyOp34
 70
     1
102
RTVSPropertyOp35
 70
     1
102
RTVSPropertyOp36
 70
     1
102
RTVSPropertyOp37
 70
     1
102
RTVSPropertyOp38
 70
     1
102
RTVSPropertyOp39
 70
     1
102
RTVSPropertyOp40
 70
     1
102
RTVSPropertyOp41
 70
     1
102
RTVSPropertyOp42
 70
     1
102
RTVSPropertyOp43
 70
     1
102
RTVSPropertyOp44
 70
     1
102
RTVSPropertyOp45
 70
     1
102
RTVSPropertyOp46
 70
     1
102
RTVSPropertyOp47
 70
     1
102
RTVSPropertyOp48
 70
     1
102
RTVSPropertyOp49
 70
     1
102
RTVSPropertyOp50
 70
     1
102
RTVSPropertyOp51
 70
     0
102
RTVSPropertyOp52
 70
     0
102
RTVSPropertyOp53
 70
     1
102
RTVSPropertyOp54
 70
     1
102
RTVSPropertyOp55
 70
     1
102
RTVSPropertyOp56
 70
     1
102
RTVSPropertyOp57
 70
     1
102
RTVSPropertyOp58
 70
     1
102
RTVSPropertyOp59
 70
     1
102
RTVSPropertyOp60
 70
     1
102
RTVSPropertyOp61
 70
     1
102
RTVSPropertyOp62
 70
     1
  0
XRECORD
  5
9E24
102
{ACAD_REACTORS
330
9E23
102
}
330
9E23
100
AcDbXrecord
280
     1
102
RTVSPost2010Prop28
280
     0
102
RTVSPost2010PropOp28
 70
     1
102
RTVSPost2010Prop29
280
     1
102
RTVSPost2010PropOp29
 70
     1
102
RTVSPost2010Prop30
280
     1
102
RTVSPost2010PropOp30
 70
     1
102
RTVSPost2010Prop31
280
     0
102
RTVSPost2010PropOp31
 70
     1
102
RTVSPost2010Prop32
280
     0
102
RTVSPost2010PropOp32
 70
     1
102
RTVSPost2010Prop33
280
     0
102
RTVSPost2010PropOp33
 70
     1
102
RTVSPost2010Prop34
280
     0
102
RTVSPost2010PropOp34
 70
     1
102
RTVSPost2010Prop35
280
     0
102
RTVSPost2010PropOp35
 70
     1
102
RTVSPost2010Prop36
280
     0
102
RTVSPost2010PropOp36
 70
     1
102
RTVSPost2010Prop37
 90
       50
102
RTVSPost2010PropOp37
 70
     1
102
RTVSPost2010Prop38
140
0.0
102
RTVSPost2010PropOp38
 70
     1
102
RTVSPost2010Prop39
140
1.0
102
RTVSPost2010PropOp39
 70
     1
102
RTVSPost2010Prop40
 90
        0
102
RTVSPost2010PropOp40
 70
     1
102
RTVSPost2010Prop41ColorIndex
 90
       18
102
RTVSPost2010Prop41ColorRGB
 90
        0
102
RTVSPost2010PropOp41
 70
     1
102
RTVSPost2010Prop42
 90
       50
102
RTVSPost2010PropOp42
 70
     1
102
RTVSPost2010Prop43
 90
        3
102
RTVSPost2010PropOp43
 70
     1
102
RTVSPost2010Prop44ColorIndex
 90
        5
102
RTVSPost2010Prop44ColorRGB
 90
      255
102
RTVSPost2010PropOp44
 70
     1
102
RTVSPost2010Prop45
280
     0
102
RTVSPost2010PropOp45
 70
     1
102
RTVSPost2010Prop46
 90
       50
102
RTVSPost2010PropOp46
 70
     1
102
RTVSPost2010Prop47
 90
       50
102
RTVSPost2010PropOp47
 70
     1
102
RTVSPost2010Prop48
 90
       50
102
RTVSPost2010PropOp48
 70
     1
102
RTVSPost2010Prop49
280
     0
102
RTVSPost2010PropOp49
 70
     1
102
RTVSPost2010Prop50
 90
       50
102
RTVSPost2010PropOp50
 70
     1
102
RTVSPost2010Prop51ColorIndex
 90
      256
102
RTVSPost2010Prop51ColorRGB
 90
-16777216
102
RTVSPost2010PropOp51
 70
     0
102
RTVSPost2010Prop52
140
1.0
102
RTVSPost2010PropOp52
 70
     0
102
RTVSPost2010Prop53
 90
        2
102
RTVSPost2010PropOp53
 70
     1
102
RTVSPost2010Prop54
  1
strokes_ogs.tif
102
RTVSPost2010PropOp54
 70
     1
102
RTVSPost2010Prop55
280
     0
102
RTVSPost2010PropOp55
 70
     1
102
RTVSPost2010Prop56
140
1.0
102
RTVSPost2010PropOp56
 70
     1
102
RTVSPost2010Prop57
140
1.0
102
RTVSPost2010PropOp57
 70
     1
102
RTVSPropertyOp0
 70
     1
102
RTVSPropertyOp1
 70
     1
102
RTVSPropertyOp2
 70
     1
102
RTVSPropertyOp3
 70
     1
102
RTVSPropertyOp4
 70
     1
102
RTVSPropertyOp5
 70
     1
102
RTVSPropertyOp6
 70
     1
102
RTVSPropertyOp7
 70
     1
102
RTVSPropertyOp8
 70
     1
102
RTVSPropertyOp9
 70
     1
102
RTVSPropertyOp10
 70
     1
102
RTVSPropertyOp11
 70
     1
102
RTVSPropertyOp12
 70
     1
102
RTVSPropertyOp13
 70
     1
102
RTVSPropertyOp14
 70
     1
102
RTVSPropertyOp15
 70
     1
102
RTVSPropertyOp16
 70
     1
102
RTVSPropertyOp17
 70
     1
102
RTVSPropertyOp18
 70
     1
102
RTVSPropertyOp19
 70
     1
102
RTVSPropertyOp20
 70
     1
102
RTVSPropertyOp21
 70
     1
102
RTVSPropertyOp22
 70
     1
102
RTVSPropertyOp23
 70
     1
102
RTVSPropertyOp24
 70
     1
102
RTVSPropertyOp25
 70
     1
102
RTVSPropertyOp26
 70
     1
102
RTVSPropertyOp27
 70
     1
102
RTVSPropertyOp28
 70
     1
102
RTVSPropertyOp29
 70
     1
102
RTVSPropertyOp30
 70
     1
102
RTVSPropertyOp31
 70
     1
102
RTVSPropertyOp32
 70
     1
102
RTVSPropertyOp33
 70
     1
102
RTVSPropertyOp34
 70
     1
102
RTVSPropertyOp35
 70
     1
102
RTVSPropertyOp36
 70
     1
102
RTVSPropertyOp37
 70
     1
102
RTVSPropertyOp38
 70
     1
102
RTVSPropertyOp39
 70
     1
102
RTVSPropertyOp40
 70
     1
102
RTVSPropertyOp41
 70
     1
102
RTVSPropertyOp42
 70
     1
102
RTVSPropertyOp43
 70
     1
102
RTVSPropertyOp44
 70
     1
102
RTVSPropertyOp45
 70
     1
102
RTVSPropertyOp46
 70
     1
102
RTVSPropertyOp47
 70
     1
102
RTVSPropertyOp48
 70
     1
102
RTVSPropertyOp49
 70
     1
102
RTVSPropertyOp50
 70
     1
102
RTVSPropertyOp51
 70
     0
102
RTVSPropertyOp52
 70
     0
102
RTVSPropertyOp53
 70
     1
102
RTVSPropertyOp54
 70
     1
102
RTVSPropertyOp55
 70
     1
102
RTVSPropertyOp56
 70
     1
102
RTVSPropertyOp57
 70
     1
102
RTVSPropertyOp58
 70
     1
102
RTVSPropertyOp59
 70
     1
102
RTVSPropertyOp60
 70
     1
102
RTVSPropertyOp61
 70
     1
102
RTVSPropertyOp62
 70
     1
  0
XRECORD
  5
9E26
102
{ACAD_REACTORS
330
9E25
102
}
330
9E25
100
AcDbXrecord
280
     1
102
RTVSPost2010Prop28
280
     0
102
RTVSPost2010PropOp28
 70
     1
102
RTVSPost2010Prop29
280
     1
102
RTVSPost2010PropOp29
 70
     1
102
RTVSPost2010Prop30
280
     1
102
RTVSPost2010PropOp30
 70
     1
102
RTVSPost2010Prop31
280
     0
102
RTVSPost2010PropOp31
 70
     1
102
RTVSPost2010Prop32
280
     0
102
RTVSPost2010PropOp32
 70
     1
102
RTVSPost2010Prop33
280
     0
102
RTVSPost2010PropOp33
 70
     1
102
RTVSPost2010Prop34
280
     0
102
RTVSPost2010PropOp34
 70
     1
102
RTVSPost2010Prop35
280
     0
102
RTVSPost2010PropOp35
 70
     1
102
RTVSPost2010Prop36
280
     0
102
RTVSPost2010PropOp36
 70
     1
102
RTVSPost2010Prop37
 90
       50
102
RTVSPost2010PropOp37
 70
     1
102
RTVSPost2010Prop38
140
0.0
102
RTVSPost2010PropOp38
 70
     1
102
RTVSPost2010Prop39
140
1.0
102
RTVSPost2010PropOp39
 70
     1
102
RTVSPost2010Prop40
 90
        0
102
RTVSPost2010PropOp40
 70
     1
102
RTVSPost2010Prop41ColorIndex
 90
       18
102
RTVSPost2010Prop41ColorRGB
 90
        0
102
RTVSPost2010PropOp41
 70
     1
102
RTVSPost2010Prop42
 90
       50
102
RTVSPost2010PropOp42
 70
     1
102
RTVSPost2010Prop43
 90
        3
102
RTVSPost2010PropOp43
 70
     1
102
RTVSPost2010Prop44ColorIndex
 90
        5
102
RTVSPost2010Prop44ColorRGB
 90
      255
102
RTVSPost2010PropOp44
 70
     1
102
RTVSPost2010Prop45
280
     0
102
RTVSPost2010PropOp45
 70
     1
102
RTVSPost2010Prop46
 90
       50
102
RTVSPost2010PropOp46
 70
     1
102
RTVSPost2010Prop47
 90
       50
102
RTVSPost2010PropOp47
 70
     1
102
RTVSPost2010Prop48
 90
       50
102
RTVSPost2010PropOp48
 70
     1
102
RTVSPost2010Prop49
280
     0
102
RTVSPost2010PropOp49
 70
     1
102
RTVSPost2010Prop50
 90
       50
102
RTVSPost2010PropOp50
 70
     1
102
RTVSPost2010Prop51ColorIndex
 90
      256
102
RTVSPost2010Prop51ColorRGB
 90
-16777216
102
RTVSPost2010PropOp51
 70
     0
102
RTVSPost2010Prop52
140
1.0
102
RTVSPost2010PropOp52
 70
     0
102
RTVSPost2010Prop53
 90
        2
102
RTVSPost2010PropOp53
 70
     1
102
RTVSPost2010Prop54
  1
strokes_ogs.tif
102
RTVSPost2010PropOp54
 70
     1
102
RTVSPost2010Prop55
280
     0
102
RTVSPost2010PropOp55
 70
     1
102
RTVSPost2010Prop56
140
1.0
102
RTVSPost2010PropOp56
 70
     1
102
RTVSPost2010Prop57
140
1.0
102
RTVSPost2010PropOp57
 70
     1
102
RTVSPropertyOp0
 70
     1
102
RTVSPropertyOp1
 70
     1
102
RTVSPropertyOp2
 70
     1
102
RTVSPropertyOp3
 70
     1
102
RTVSPropertyOp4
 70
     1
102
RTVSPropertyOp5
 70
     1
102
RTVSPropertyOp6
 70
     1
102
RTVSPropertyOp7
 70
     1
102
RTVSPropertyOp8
 70
     1
102
RTVSPropertyOp9
 70
     1
102
RTVSPropertyOp10
 70
     1
102
RTVSPropertyOp11
 70
     1
102
RTVSPropertyOp12
 70
     1
102
RTVSPropertyOp13
 70
     1
102
RTVSPropertyOp14
 70
     1
102
RTVSPropertyOp15
 70
     1
102
RTVSPropertyOp16
 70
     1
102
RTVSPropertyOp17
 70
     1
102
RTVSPropertyOp18
 70
     1
102
RTVSPropertyOp19
 70
     1
102
RTVSPropertyOp20
 70
     1
102
RTVSPropertyOp21
 70
     1
102
RTVSPropertyOp22
 70
     1
102
RTVSPropertyOp23
 70
     1
102
RTVSPropertyOp24
 70
     1
102
RTVSPropertyOp25
 70
     1
102
RTVSPropertyOp26
 70
     1
102
RTVSPropertyOp27
 70
     1
102
RTVSPropertyOp28
 70
     1
102
RTVSPropertyOp29
 70
     1
102
RTVSPropertyOp30
 70
     1
102
RTVSPropertyOp31
 70
     1
102
RTVSPropertyOp32
 70
     1
102
RTVSPropertyOp33
 70
     1
102
RTVSPropertyOp34
 70
     1
102
RTVSPropertyOp35
 70
     1
102
RTVSPropertyOp36
 70
     1
102
RTVSPropertyOp37
 70
     1
102
RTVSPropertyOp38
 70
     1
102
RTVSPropertyOp39
 70
     1
102
RTVSPropertyOp40
 70
     1
102
RTVSPropertyOp41
 70
     1
102
RTVSPropertyOp42
 70
     1
102
RTVSPropertyOp43
 70
     1
102
RTVSPropertyOp44
 70
     1
102
RTVSPropertyOp45
 70
     1
102
RTVSPropertyOp46
 70
     1
102
RTVSPropertyOp47
 70
     1
102
RTVSPropertyOp48
 70
     1
102
RTVSPropertyOp49
 70
     1
102
RTVSPropertyOp50
 70
     1
102
RTVSPropertyOp51
 70
     0
102
RTVSPropertyOp52
 70
     0
102
RTVSPropertyOp53
 70
     1
102
RTVSPropertyOp54
 70
     1
102
RTVSPropertyOp55
 70
     1
102
RTVSPropertyOp56
 70
     1
102
RTVSPropertyOp57
 70
     1
102
RTVSPropertyOp58
 70
     1
102
RTVSPropertyOp59
 70
     1
102
RTVSPropertyOp60
 70
     1
102
RTVSPropertyOp61
 70
     1
102
RTVSPropertyOp62
 70
     1
  0
XRECORD
  5
9E28
102
{ACAD_REACTORS
330
9E27
102
}
330
9E27
100
AcDbXrecord
280
     1
102
RTVSPost2010Prop28
280
     0
102
RTVSPost2010PropOp28
 70
     1
102
RTVSPost2010Prop29
280
     1
102
RTVSPost2010PropOp29
 70
     1
102
RTVSPost2010Prop30
280
     1
102
RTVSPost2010PropOp30
 70
     1
102
RTVSPost2010Prop31
280
     0
102
RTVSPost2010PropOp31
 70
     1
102
RTVSPost2010Prop32
280
     0
102
RTVSPost2010PropOp32
 70
     1
102
RTVSPost2010Prop33
280
     0
102
RTVSPost2010PropOp33
 70
     1
102
RTVSPost2010Prop34
280
     0
102
RTVSPost2010PropOp34
 70
     1
102
RTVSPost2010Prop35
280
     0
102
RTVSPost2010PropOp35
 70
     1
102
RTVSPost2010Prop36
280
     0
102
RTVSPost2010PropOp36
 70
     1
102
RTVSPost2010Prop37
 90
       50
102
RTVSPost2010PropOp37
 70
     1
102
RTVSPost2010Prop38
140
0.0
102
RTVSPost2010PropOp38
 70
     1
102
RTVSPost2010Prop39
140
1.0
102
RTVSPost2010PropOp39
 70
     1
102
RTVSPost2010Prop40
 90
        0
102
RTVSPost2010PropOp40
 70
     1
102
RTVSPost2010Prop41ColorIndex
 90
       18
102
RTVSPost2010Prop41ColorRGB
 90
        0
102
RTVSPost2010PropOp41
 70
     1
102
RTVSPost2010Prop42
 90
       50
102
RTVSPost2010PropOp42
 70
     1
102
RTVSPost2010Prop43
 90
        3
102
RTVSPost2010PropOp43
 70
     1
102
RTVSPost2010Prop44ColorIndex
 90
        5
102
RTVSPost2010Prop44ColorRGB
 90
      255
102
RTVSPost2010PropOp44
 70
     1
102
RTVSPost2010Prop45
280
     0
102
RTVSPost2010PropOp45
 70
     1
102
RTVSPost2010Prop46
 90
       50
102
RTVSPost2010PropOp46
 70
     1
102
RTVSPost2010Prop47
 90
       50
102
RTVSPost2010PropOp47
 70
     1
102
RTVSPost2010Prop48
 90
       50
102
RTVSPost2010PropOp48
 70
     1
102
RTVSPost2010Prop49
280
     0
102
RTVSPost2010PropOp49
 70
     1
102
RTVSPost2010Prop50
 90
       50
102
RTVSPost2010PropOp50
 70
     1
102
RTVSPost2010Prop51ColorIndex
 90
      256
102
RTVSPost2010Prop51ColorRGB
 90
-16777216
102
RTVSPost2010PropOp51
 70
     0
102
RTVSPost2010Prop52
140
1.0
102
RTVSPost2010PropOp52
 70
     0
102
RTVSPost2010Prop53
 90
        2
102
RTVSPost2010PropOp53
 70
     1
102
RTVSPost2010Prop54
  1
strokes_ogs.tif
102
RTVSPost2010PropOp54
 70
     1
102
RTVSPost2010Prop55
280
     0
102
RTVSPost2010PropOp55
 70
     1
102
RTVSPost2010Prop56
140
1.0
102
RTVSPost2010PropOp56
 70
     1
102
RTVSPost2010Prop57
140
1.0
102
RTVSPost2010PropOp57
 70
     1
102
RTVSPropertyOp0
 70
     1
102
RTVSPropertyOp1
 70
     1
102
RTVSPropertyOp2
 70
     1
102
RTVSPropertyOp3
 70
     1
102
RTVSPropertyOp4
 70
     1
102
RTVSPropertyOp5
 70
     1
102
RTVSPropertyOp6
 70
     1
102
RTVSPropertyOp7
 70
     1
102
RTVSPropertyOp8
 70
     1
102
RTVSPropertyOp9
 70
     1
102
RTVSPropertyOp10
 70
     1
102
RTVSPropertyOp11
 70
     1
102
RTVSPropertyOp12
 70
     1
102
RTVSPropertyOp13
 70
     1
102
RTVSPropertyOp14
 70
     1
102
RTVSPropertyOp15
 70
     1
102
RTVSPropertyOp16
 70
     1
102
RTVSPropertyOp17
 70
     1
102
RTVSPropertyOp18
 70
     1
102
RTVSPropertyOp19
 70
     1
102
RTVSPropertyOp20
 70
     1
102
RTVSPropertyOp21
 70
     1
102
RTVSPropertyOp22
 70
     1
102
RTVSPropertyOp23
 70
     1
102
RTVSPropertyOp24
 70
     1
102
RTVSPropertyOp25
 70
     1
102
RTVSPropertyOp26
 70
     1
102
RTVSPropertyOp27
 70
     1
102
RTVSPropertyOp28
 70
     1
102
RTVSPropertyOp29
 70
     1
102
RTVSPropertyOp30
 70
     1
102
RTVSPropertyOp31
 70
     1
102
RTVSPropertyOp32
 70
     1
102
RTVSPropertyOp33
 70
     1
102
RTVSPropertyOp34
 70
     1
102
RTVSPropertyOp35
 70
     1
102
RTVSPropertyOp36
 70
     1
102
RTVSPropertyOp37
 70
     1
102
RTVSPropertyOp38
 70
     1
102
RTVSPropertyOp39
 70
     1
102
RTVSPropertyOp40
 70
     1
102
RTVSPropertyOp41
 70
     1
102
RTVSPropertyOp42
 70
     1
102
RTVSPropertyOp43
 70
     1
102
RTVSPropertyOp44
 70
     1
102
RTVSPropertyOp45
 70
     1
102
RTVSPropertyOp46
 70
     1
102
RTVSPropertyOp47
 70
     1
102
RTVSPropertyOp48
 70
     1
102
RTVSPropertyOp49
 70
     1
102
RTVSPropertyOp50
 70
     1
102
RTVSPropertyOp51
 70
     0
102
RTVSPropertyOp52
 70
     0
102
RTVSPropertyOp53
 70
     1
102
RTVSPropertyOp54
 70
     1
102
RTVSPropertyOp55
 70
     1
102
RTVSPropertyOp56
 70
     1
102
RTVSPropertyOp57
 70
     1
102
RTVSPropertyOp58
 70
     1
102
RTVSPropertyOp59
 70
     1
102
RTVSPropertyOp60
 70
     1
102
RTVSPropertyOp61
 70
     1
102
RTVSPropertyOp62
 70
     1
  0
XRECORD
  5
9E2A
102
{ACAD_REACTORS
330
9E29
102
}
330
9E29
100
AcDbXrecord
280
     1
102
RTVSPost2010Prop28
280
     0
102
RTVSPost2010PropOp28
 70
     1
102
RTVSPost2010Prop29
280
     1
102
RTVSPost2010PropOp29
 70
     1
102
RTVSPost2010Prop30
280
     1
102
RTVSPost2010PropOp30
 70
     1
102
RTVSPost2010Prop31
280
     0
102
RTVSPost2010PropOp31
 70
     1
102
RTVSPost2010Prop32
280
     0
102
RTVSPost2010PropOp32
 70
     1
102
RTVSPost2010Prop33
280
     0
102
RTVSPost2010PropOp33
 70
     1
102
RTVSPost2010Prop34
280
     0
102
RTVSPost2010PropOp34
 70
     1
102
RTVSPost2010Prop35
280
     0
102
RTVSPost2010PropOp35
 70
     1
102
RTVSPost2010Prop36
280
     0
102
RTVSPost2010PropOp36
 70
     1
102
RTVSPost2010Prop37
 90
       50
102
RTVSPost2010PropOp37
 70
     1
102
RTVSPost2010Prop38
140
0.0
102
RTVSPost2010PropOp38
 70
     1
102
RTVSPost2010Prop39
140
1.0
102
RTVSPost2010PropOp39
 70
     1
102
RTVSPost2010Prop40
 90
        0
102
RTVSPost2010PropOp40
 70
     1
102
RTVSPost2010Prop41ColorIndex
 90
       18
102
RTVSPost2010Prop41ColorRGB
 90
        0
102
RTVSPost2010PropOp41
 70
     1
102
RTVSPost2010Prop42
 90
       50
102
RTVSPost2010PropOp42
 70
     1
102
RTVSPost2010Prop43
 90
        3
102
RTVSPost2010PropOp43
 70
     1
102
RTVSPost2010Prop44ColorIndex
 90
        5
102
RTVSPost2010Prop44ColorRGB
 90
      255
102
RTVSPost2010PropOp44
 70
     1
102
RTVSPost2010Prop45
280
     0
102
RTVSPost2010PropOp45
 70
     1
102
RTVSPost2010Prop46
 90
       50
102
RTVSPost2010PropOp46
 70
     1
102
RTVSPost2010Prop47
 90
       50
102
RTVSPost2010PropOp47
 70
     1
102
RTVSPost2010Prop48
 90
       50
102
RTVSPost2010PropOp48
 70
     1
102
RTVSPost2010Prop49
280
     0
102
RTVSPost2010PropOp49
 70
     1
102
RTVSPost2010Prop50
 90
       50
102
RTVSPost2010PropOp50
 70
     1
102
RTVSPost2010Prop51ColorIndex
 90
      256
102
RTVSPost2010Prop51ColorRGB
 90
-16777216
102
RTVSPost2010PropOp51
 70
     0
102
RTVSPost2010Prop52
140
1.0
102
RTVSPost2010PropOp52
 70
     0
102
RTVSPost2010Prop53
 90
        2
102
RTVSPost2010PropOp53
 70
     1
102
RTVSPost2010Prop54
  1
strokes_ogs.tif
102
RTVSPost2010PropOp54
 70
     1
102
RTVSPost2010Prop55
280
     0
102
RTVSPost2010PropOp55
 70
     1
102
RTVSPost2010Prop56
140
1.0
102
RTVSPost2010PropOp56
 70
     1
102
RTVSPost2010Prop57
140
1.0
102
RTVSPost2010PropOp57
 70
     1
102
RTVSPropertyOp0
 70
     1
102
RTVSPropertyOp1
 70
     1
102
RTVSPropertyOp2
 70
     1
102
RTVSPropertyOp3
 70
     1
102
RTVSPropertyOp4
 70
     1
102
RTVSPropertyOp5
 70
     1
102
RTVSPropertyOp6
 70
     1
102
RTVSPropertyOp7
 70
     1
102
RTVSPropertyOp8
 70
     1
102
RTVSPropertyOp9
 70
     1
102
RTVSPropertyOp10
 70
     1
102
RTVSPropertyOp11
 70
     1
102
RTVSPropertyOp12
 70
     1
102
RTVSPropertyOp13
 70
     1
102
RTVSPropertyOp14
 70
     1
102
RTVSPropertyOp15
 70
     1
102
RTVSPropertyOp16
 70
     1
102
RTVSPropertyOp17
 70
     1
102
RTVSPropertyOp18
 70
     1
102
RTVSPropertyOp19
 70
     1
102
RTVSPropertyOp20
 70
     1
102
RTVSPropertyOp21
 70
     1
102
RTVSPropertyOp22
 70
     1
102
RTVSPropertyOp23
 70
     1
102
RTVSPropertyOp24
 70
     1
102
RTVSPropertyOp25
 70
     1
102
RTVSPropertyOp26
 70
     1
102
RTVSPropertyOp27
 70
     1
102
RTVSPropertyOp28
 70
     1
102
RTVSPropertyOp29
 70
     1
102
RTVSPropertyOp30
 70
     1
102
RTVSPropertyOp31
 70
     1
102
RTVSPropertyOp32
 70
     1
102
RTVSPropertyOp33
 70
     1
102
RTVSPropertyOp34
 70
     1
102
RTVSPropertyOp35
 70
     1
102
RTVSPropertyOp36
 70
     1
102
RTVSPropertyOp37
 70
     1
102
RTVSPropertyOp38
 70
     1
102
RTVSPropertyOp39
 70
     1
102
RTVSPropertyOp40
 70
     1
102
RTVSPropertyOp41
 70
     1
102
RTVSPropertyOp42
 70
     1
102
RTVSPropertyOp43
 70
     1
102
RTVSPropertyOp44
 70
     1
102
RTVSPropertyOp45
 70
     1
102
RTVSPropertyOp46
 70
     1
102
RTVSPropertyOp47
 70
     1
102
RTVSPropertyOp48
 70
     1
102
RTVSPropertyOp49
 70
     1
102
RTVSPropertyOp50
 70
     1
102
RTVSPropertyOp51
 70
     0
102
RTVSPropertyOp52
 70
     0
102
RTVSPropertyOp53
 70
     1
102
RTVSPropertyOp54
 70
     1
102
RTVSPropertyOp55
 70
     1
102
RTVSPropertyOp56
 70
     1
102
RTVSPropertyOp57
 70
     1
102
RTVSPropertyOp58
 70
     1
102
RTVSPropertyOp59
 70
     1
102
RTVSPropertyOp60
 70
     1
102
RTVSPropertyOp61
 70
     1
102
RTVSPropertyOp62
 70
     1
  0
XRECORD
  5
9E32
102
{ACAD_REACTORS
330
9E31
102
}
330
9E31
100
AcDbXrecord
280
     1
102
RTVSPost2010Prop28
280
     0
102
RTVSPost2010PropOp28
 70
     1
102
RTVSPost2010Prop29
280
     1
102
RTVSPost2010PropOp29
 70
     1
102
RTVSPost2010Prop30
280
     1
102
RTVSPost2010PropOp30
 70
     1
102
RTVSPost2010Prop31
280
     0
102
RTVSPost2010PropOp31
 70
     1
102
RTVSPost2010Prop32
280
     0
102
RTVSPost2010PropOp32
 70
     1
102
RTVSPost2010Prop33
280
     0
102
RTVSPost2010PropOp33
 70
     1
102
RTVSPost2010Prop34
280
     0
102
RTVSPost2010PropOp34
 70
     1
102
RTVSPost2010Prop35
280
     0
102
RTVSPost2010PropOp35
 70
     1
102
RTVSPost2010Prop36
280
     0
102
RTVSPost2010PropOp36
 70
     1
102
RTVSPost2010Prop37
 90
       50
102
RTVSPost2010PropOp37
 70
     1
102
RTVSPost2010Prop38
140
0.0
102
RTVSPost2010PropOp38
 70
     1
102
RTVSPost2010Prop39
140
1.0
102
RTVSPost2010PropOp39
 70
     1
102
RTVSPost2010Prop40
 90
        0
102
RTVSPost2010PropOp40
 70
     1
102
RTVSPost2010Prop41ColorIndex
 90
       18
102
RTVSPost2010Prop41ColorRGB
 90
        0
102
RTVSPost2010PropOp41
 70
     1
102
RTVSPost2010Prop42
 90
       50
102
RTVSPost2010PropOp42
 70
     1
102
RTVSPost2010Prop43
 90
        3
102
RTVSPost2010PropOp43
 70
     1
102
RTVSPost2010Prop44ColorIndex
 90
        5
102
RTVSPost2010Prop44ColorRGB
 90
      255
102
RTVSPost2010PropOp44
 70
     1
102
RTVSPost2010Prop45
280
     0
102
RTVSPost2010PropOp45
 70
     1
102
RTVSPost2010Prop46
 90
       50
102
RTVSPost2010PropOp46
 70
     1
102
RTVSPost2010Prop47
 90
       50
102
RTVSPost2010PropOp47
 70
     1
102
RTVSPost2010Prop48
 90
       50
102
RTVSPost2010PropOp48
 70
     1
102
RTVSPost2010Prop49
280
     0
102
RTVSPost2010PropOp49
 70
     1
102
RTVSPost2010Prop50
 90
       50
102
RTVSPost2010PropOp50
 70
     1
102
RTVSPost2010Prop51ColorIndex
 90
      256
102
RTVSPost2010Prop51ColorRGB
 90
-16777216
102
RTVSPost2010PropOp51
 70
     0
102
RTVSPost2010Prop52
140
1.0
102
RTVSPost2010PropOp52
 70
     0
102
RTVSPost2010Prop53
 90
        2
102
RTVSPost2010PropOp53
 70
     1
102
RTVSPost2010Prop54
  1
strokes_ogs.tif
102
RTVSPost2010PropOp54
 70
     1
102
RTVSPost2010Prop55
280
     0
102
RTVSPost2010PropOp55
 70
     1
102
RTVSPost2010Prop56
140
1.0
102
RTVSPost2010PropOp56
 70
     1
102
RTVSPost2010Prop57
140
1.0
102
RTVSPost2010PropOp57
 70
     1
102
RTVSPropertyOp0
 70
     1
102
RTVSPropertyOp1
 70
     1
102
RTVSPropertyOp2
 70
     1
102
RTVSPropertyOp3
 70
     1
102
RTVSPropertyOp4
 70
     1
102
RTVSPropertyOp5
 70
     1
102
RTVSPropertyOp6
 70
     1
102
RTVSPropertyOp7
 70
     1
102
RTVSPropertyOp8
 70
     1
102
RTVSPropertyOp9
 70
     1
102
RTVSPropertyOp10
 70
     1
102
RTVSPropertyOp11
 70
     1
102
RTVSPropertyOp12
 70
     1
102
RTVSPropertyOp13
 70
     1
102
RTVSPropertyOp14
 70
     1
102
RTVSPropertyOp15
 70
     1
102
RTVSPropertyOp16
 70
     1
102
RTVSPropertyOp17
 70
     1
102
RTVSPropertyOp18
 70
     1
102
RTVSPropertyOp19
 70
     1
102
RTVSPropertyOp20
 70
     1
102
RTVSPropertyOp21
 70
     1
102
RTVSPropertyOp22
 70
     1
102
RTVSPropertyOp23
 70
     1
102
RTVSPropertyOp24
 70
     1
102
RTVSPropertyOp25
 70
     1
102
RTVSPropertyOp26
 70
     1
102
RTVSPropertyOp27
 70
     1
102
RTVSPropertyOp28
 70
     1
102
RTVSPropertyOp29
 70
     1
102
RTVSPropertyOp30
 70
     1
102
RTVSPropertyOp31
 70
     1
102
RTVSPropertyOp32
 70
     1
102
RTVSPropertyOp33
 70
     1
102
RTVSPropertyOp34
 70
     1
102
RTVSPropertyOp35
 70
     1
102
RTVSPropertyOp36
 70
     1
102
RTVSPropertyOp37
 70
     1
102
RTVSPropertyOp38
 70
     1
102
RTVSPropertyOp39
 70
     1
102
RTVSPropertyOp40
 70
     1
102
RTVSPropertyOp41
 70
     1
102
RTVSPropertyOp42
 70
     1
102
RTVSPropertyOp43
 70
     1
102
RTVSPropertyOp44
 70
     1
102
RTVSPropertyOp45
 70
     1
102
RTVSPropertyOp46
 70
     1
102
RTVSPropertyOp47
 70
     1
102
RTVSPropertyOp48
 70
     1
102
RTVSPropertyOp49
 70
     1
102
RTVSPropertyOp50
 70
     1
102
RTVSPropertyOp51
 70
     0
102
RTVSPropertyOp52
 70
     0
102
RTVSPropertyOp53
 70
     1
102
RTVSPropertyOp54
 70
     1
102
RTVSPropertyOp55
 70
     1
102
RTVSPropertyOp56
 70
     1
102
RTVSPropertyOp57
 70
     1
102
RTVSPropertyOp58
 70
     1
102
RTVSPropertyOp59
 70
     1
102
RTVSPropertyOp60
 70
     1
102
RTVSPropertyOp61
 70
     1
102
RTVSPropertyOp62
 70
     1
  0
XRECORD
  5
9E4E
102
{ACAD_REACTORS
330
9E4D
102
}
330
9E4D
100
AcDbXrecord
280
     1
102
RTVSPost2010Prop28
280
     0
102
RTVSPost2010PropOp28
 70
     1
102
RTVSPost2010Prop29
280
     1
102
RTVSPost2010PropOp29
 70
     1
102
RTVSPost2010Prop30
280
     1
102
RTVSPost2010PropOp30
 70
     1
102
RTVSPost2010Prop31
280
     0
102
RTVSPost2010PropOp31
 70
     1
102
RTVSPost2010Prop32
280
     0
102
RTVSPost2010PropOp32
 70
     1
102
RTVSPost2010Prop33
280
     0
102
RTVSPost2010PropOp33
 70
     1
102
RTVSPost2010Prop34
280
     0
102
RTVSPost2010PropOp34
 70
     1
102
RTVSPost2010Prop35
280
     0
102
RTVSPost2010PropOp35
 70
     1
102
RTVSPost2010Prop36
280
     0
102
RTVSPost2010PropOp36
 70
     1
102
RTVSPost2010Prop37
 90
       50
102
RTVSPost2010PropOp37
 70
     0
102
RTVSPost2010Prop38
140
0.0
102
RTVSPost2010PropOp38
 70
     0
102
RTVSPost2010Prop39
140
1.0
102
RTVSPost2010PropOp39
 70
     0
102
RTVSPost2010Prop40
 90
        0
102
RTVSPost2010PropOp40
 70
     0
102
RTVSPost2010Prop41ColorIndex
 90
       18
102
RTVSPost2010Prop41ColorRGB
 90
        0
102
RTVSPost2010PropOp41
 70
     0
102
RTVSPost2010Prop42
 90
       50
102
RTVSPost2010PropOp42
 70
     0
102
RTVSPost2010Prop43
 90
        3
102
RTVSPost2010PropOp43
 70
     0
102
RTVSPost2010Prop44ColorIndex
 90
        5
102
RTVSPost2010Prop44ColorRGB
 90
      255
102
RTVSPost2010PropOp44
 70
     0
102
RTVSPost2010Prop45
280
     0
102
RTVSPost2010PropOp45
 70
     1
102
RTVSPost2010Prop46
 90
       50
102
RTVSPost2010PropOp46
 70
     0
102
RTVSPost2010Prop47
 90
       50
102
RTVSPost2010PropOp47
 70
     0
102
RTVSPost2010Prop48
 90
       50
102
RTVSPost2010PropOp48
 70
     0
102
RTVSPost2010Prop49
280
     0
102
RTVSPost2010PropOp49
 70
     1
102
RTVSPost2010Prop50
 90
       50
102
RTVSPost2010PropOp50
 70
     0
102
RTVSPost2010Prop51ColorIndex
 90
      256
102
RTVSPost2010Prop51ColorRGB
 90
-16777216
102
RTVSPost2010PropOp51
 70
     0
102
RTVSPost2010Prop52
140
1.0
102
RTVSPost2010PropOp52
 70
     0
102
RTVSPost2010Prop53
 90
        2
102
RTVSPost2010PropOp53
 70
     0
102
RTVSPost2010Prop54
  1
strokes_ogs.tif
102
RTVSPost2010PropOp54
 70
     0
102
RTVSPost2010Prop55
280
     0
102
RTVSPost2010PropOp55
 70
     1
102
RTVSPost2010Prop56
140
1.0
102
RTVSPost2010PropOp56
 70
     0
102
RTVSPost2010Prop57
140
1.0
102
RTVSPost2010PropOp57
 70
     0
102
RTVSPropertyOp0
 70
     0
102
RTVSPropertyOp1
 70
     0
102
RTVSPropertyOp2
 70
     0
102
RTVSPropertyOp3
 70
     0
102
RTVSPropertyOp4
 70
     0
102
RTVSPropertyOp5
 70
     0
102
RTVSPropertyOp6
 70
     0
102
RTVSPropertyOp7
 70
     0
102
RTVSPropertyOp8
 70
     0
102
RTVSPropertyOp9
 70
     0
102
RTVSPropertyOp10
 70
     0
102
RTVSPropertyOp11
 70
     0
102
RTVSPropertyOp12
 70
     0
102
RTVSPropertyOp13
 70
     0
102
RTVSPropertyOp14
 70
     2
102
RTVSPropertyOp15
 70
     0
102
RTVSPropertyOp16
 70
     0
102
RTVSPropertyOp17
 70
     0
102
RTVSPropertyOp18
 70
     0
102
RTVSPropertyOp19
 70
     0
102
RTVSPropertyOp20
 70
     0
102
RTVSPropertyOp21
 70
     0
102
RTVSPropertyOp22
 70
     0
102
RTVSPropertyOp23
 70
     0
102
RTVSPropertyOp24
 70
     0
102
RTVSPropertyOp25
 70
     0
102
RTVSPropertyOp26
 70
     0
102
RTVSPropertyOp27
 70
     0
102
RTVSPropertyOp28
 70
     1
102
RTVSPropertyOp29
 70
     1
102
RTVSPropertyOp30
 70
     1
102
RTVSPropertyOp31
 70
     1
102
RTVSPropertyOp32
 70
     1
102
RTVSPropertyOp33
 70
     1
102
RTVSPropertyOp34
 70
     1
102
RTVSPropertyOp35
 70
     1
102
RTVSPropertyOp36
 70
     1
102
RTVSPropertyOp37
 70
     0
102
RTVSPropertyOp38
 70
     0
102
RTVSPropertyOp39
 70
     0
102
RTVSPropertyOp40
 70
     0
102
RTVSPropertyOp41
 70
     0
102
RTVSPropertyOp42
 70
     0
102
RTVSPropertyOp43
 70
     0
102
RTVSPropertyOp44
 70
     0
102
RTVSPropertyOp45
 70
     1
102
RTVSPropertyOp46
 70
     0
102
RTVSPropertyOp47
 70
     0
102
RTVSPropertyOp48
 70
     0
102
RTVSPropertyOp49
 70
     1
102
RTVSPropertyOp50
 70
     0
102
RTVSPropertyOp51
 70
     0
102
RTVSPropertyOp52
 70
     0
102
RTVSPropertyOp53
 70
     0
102
RTVSPropertyOp54
 70
     0
102
RTVSPropertyOp55
 70
     1
102
RTVSPropertyOp56
 70
     0
102
RTVSPropertyOp57
 70
     0
102
RTVSPropertyOp58
 70
     0
102
RTVSPropertyOp59
 70
     0
102
RTVSPropertyOp60
 70
     0
102
RTVSPropertyOp61
 70
     0
102
RTVSPropertyOp62
 70
     0
  0
XRECORD
  5
9E3E
102
{ACAD_REACTORS
330
9E3D
102
}
330
9E3D
100
AcDbXrecord
280
     1
102
RTVSPost2010Prop28
280
     0
102
RTVSPost2010PropOp28
 70
     1
102
RTVSPost2010Prop29
280
     1
102
RTVSPost2010PropOp29
 70
     1
102
RTVSPost2010Prop30
280
     1
102
RTVSPost2010PropOp30
 70
     1
102
RTVSPost2010Prop31
280
     0
102
RTVSPost2010PropOp31
 70
     1
102
RTVSPost2010Prop32
280
     0
102
RTVSPost2010PropOp32
 70
     1
102
RTVSPost2010Prop33
280
     0
102
RTVSPost2010PropOp33
 70
     1
102
RTVSPost2010Prop34
280
     0
102
RTVSPost2010PropOp34
 70
     1
102
RTVSPost2010Prop35
280
     0
102
RTVSPost2010PropOp35
 70
     1
102
RTVSPost2010Prop36
280
     0
102
RTVSPost2010PropOp36
 70
     1
102
RTVSPost2010Prop37
 90
       50
102
RTVSPost2010PropOp37
 70
     1
102
RTVSPost2010Prop38
140
0.0
102
RTVSPost2010PropOp38
 70
     1
102
RTVSPost2010Prop39
140
1.0
102
RTVSPost2010PropOp39
 70
     1
102
RTVSPost2010Prop40
 90
        0
102
RTVSPost2010PropOp40
 70
     1
102
RTVSPost2010Prop41ColorIndex
 90
       18
102
RTVSPost2010Prop41ColorRGB
 90
        0
102
RTVSPost2010PropOp41
 70
     1
102
RTVSPost2010Prop42
 90
       50
102
RTVSPost2010PropOp42
 70
     1
102
RTVSPost2010Prop43
 90
        3
102
RTVSPost2010PropOp43
 70
     1
102
RTVSPost2010Prop44ColorIndex
 90
        5
102
RTVSPost2010Prop44ColorRGB
 90
      255
102
RTVSPost2010PropOp44
 70
     1
102
RTVSPost2010Prop45
280
     0
102
RTVSPost2010PropOp45
 70
     1
102
RTVSPost2010Prop46
 90
       50
102
RTVSPost2010PropOp46
 70
     1
102
RTVSPost2010Prop47
 90
       50
102
RTVSPost2010PropOp47
 70
     1
102
RTVSPost2010Prop48
 90
       50
102
RTVSPost2010PropOp48
 70
     1
102
RTVSPost2010Prop49
280
     0
102
RTVSPost2010PropOp49
 70
     1
102
RTVSPost2010Prop50
 90
       50
102
RTVSPost2010PropOp50
 70
     1
102
RTVSPost2010Prop51ColorIndex
 90
      256
102
RTVSPost2010Prop51ColorRGB
 90
-16777216
102
RTVSPost2010PropOp51
 70
     0
102
RTVSPost2010Prop52
140
1.0
102
RTVSPost2010PropOp52
 70
     0
102
RTVSPost2010Prop53
 90
        2
102
RTVSPost2010PropOp53
 70
     1
102
RTVSPost2010Prop54
  1
strokes_ogs.tif
102
RTVSPost2010PropOp54
 70
     1
102
RTVSPost2010Prop55
280
     0
102
RTVSPost2010PropOp55
 70
     1
102
RTVSPost2010Prop56
140
1.0
102
RTVSPost2010PropOp56
 70
     1
102
RTVSPost2010Prop57
140
1.0
102
RTVSPost2010PropOp57
 70
     1
102
RTVSPropertyOp0
 70
     1
102
RTVSPropertyOp1
 70
     1
102
RTVSPropertyOp2
 70
     1
102
RTVSPropertyOp3
 70
     1
102
RTVSPropertyOp4
 70
     1
102
RTVSPropertyOp5
 70
     1
102
RTVSPropertyOp6
 70
     1
102
RTVSPropertyOp7
 70
     1
102
RTVSPropertyOp8
 70
     1
102
RTVSPropertyOp9
 70
     1
102
RTVSPropertyOp10
 70
     1
102
RTVSPropertyOp11
 70
     1
102
RTVSPropertyOp12
 70
     1
102
RTVSPropertyOp13
 70
     1
102
RTVSPropertyOp14
 70
     1
102
RTVSPropertyOp15
 70
     1
102
RTVSPropertyOp16
 70
     1
102
RTVSPropertyOp17
 70
     1
102
RTVSPropertyOp18
 70
     1
102
RTVSPropertyOp19
 70
     1
102
RTVSPropertyOp20
 70
     1
102
RTVSPropertyOp21
 70
     1
102
RTVSPropertyOp22
 70
     1
102
RTVSPropertyOp23
 70
     1
102
RTVSPropertyOp24
 70
     1
102
RTVSPropertyOp25
 70
     1
102
RTVSPropertyOp26
 70
     1
102
RTVSPropertyOp27
 70
     1
102
RTVSPropertyOp28
 70
     1
102
RTVSPropertyOp29
 70
     1
102
RTVSPropertyOp30
 70
     1
102
RTVSPropertyOp31
 70
     1
102
RTVSPropertyOp32
 70
     1
102
RTVSPropertyOp33
 70
     1
102
RTVSPropertyOp34
 70
     1
102
RTVSPropertyOp35
 70
     1
102
RTVSPropertyOp36
 70
     1
102
RTVSPropertyOp37
 70
     1
102
RTVSPropertyOp38
 70
     1
102
RTVSPropertyOp39
 70
     1
102
RTVSPropertyOp40
 70
     1
102
RTVSPropertyOp41
 70
     1
102
RTVSPropertyOp42
 70
     1
102
RTVSPropertyOp43
 70
     1
102
RTVSPropertyOp44
 70
     1
102
RTVSPropertyOp45
 70
     1
102
RTVSPropertyOp46
 70
     1
102
RTVSPropertyOp47
 70
     1
102
RTVSPropertyOp48
 70
     1
102
RTVSPropertyOp49
 70
     1
102
RTVSPropertyOp50
 70
     1
102
RTVSPropertyOp51
 70
     0
102
RTVSPropertyOp52
 70
     0
102
RTVSPropertyOp53
 70
     1
102
RTVSPropertyOp54
 70
     1
102
RTVSPropertyOp55
 70
     1
102
RTVSPropertyOp56
 70
     1
102
RTVSPropertyOp57
 70
     1
102
RTVSPropertyOp58
 70
     1
102
RTVSPropertyOp59
 70
     1
102
RTVSPropertyOp60
 70
     1
102
RTVSPropertyOp61
 70
     1
102
RTVSPropertyOp62
 70
     1
  0
XRECORD
  5
9E50
102
{ACAD_REACTORS
330
9E4F
102
}
330
9E4F
100
AcDbXrecord
280
     1
102
RTVSPost2010Prop28
280
     0
102
RTVSPost2010PropOp28
 70
     1
102
RTVSPost2010Prop29
280
     1
102
RTVSPost2010PropOp29
 70
     1
102
RTVSPost2010Prop30
280
     1
102
RTVSPost2010PropOp30
 70
     1
102
RTVSPost2010Prop31
280
     0
102
RTVSPost2010PropOp31
 70
     1
102
RTVSPost2010Prop32
280
     0
102
RTVSPost2010PropOp32
 70
     1
102
RTVSPost2010Prop33
280
     0
102
RTVSPost2010PropOp33
 70
     1
102
RTVSPost2010Prop34
280
     0
102
RTVSPost2010PropOp34
 70
     1
102
RTVSPost2010Prop35
280
     0
102
RTVSPost2010PropOp35
 70
     1
102
RTVSPost2010Prop36
280
     0
102
RTVSPost2010PropOp36
 70
     1
102
RTVSPost2010Prop37
 90
       50
102
RTVSPost2010PropOp37
 70
     0
102
RTVSPost2010Prop38
140
0.0
102
RTVSPost2010PropOp38
 70
     0
102
RTVSPost2010Prop39
140
1.0
102
RTVSPost2010PropOp39
 70
     0
102
RTVSPost2010Prop40
 90
        0
102
RTVSPost2010PropOp40
 70
     0
102
RTVSPost2010Prop41ColorIndex
 90
       18
102
RTVSPost2010Prop41ColorRGB
 90
        0
102
RTVSPost2010PropOp41
 70
     0
102
RTVSPost2010Prop42
 90
       50
102
RTVSPost2010PropOp42
 70
     0
102
RTVSPost2010Prop43
 90
        3
102
RTVSPost2010PropOp43
 70
     0
102
RTVSPost2010Prop44ColorIndex
 90
        5
102
RTVSPost2010Prop44ColorRGB
 90
      255
102
RTVSPost2010PropOp44
 70
     0
102
RTVSPost2010Prop45
280
     0
102
RTVSPost2010PropOp45
 70
     1
102
RTVSPost2010Prop46
 90
       50
102
RTVSPost2010PropOp46
 70
     0
102
RTVSPost2010Prop47
 90
       50
102
RTVSPost2010PropOp47
 70
     0
102
RTVSPost2010Prop48
 90
       50
102
RTVSPost2010PropOp48
 70
     0
102
RTVSPost2010Prop49
280
     0
102
RTVSPost2010PropOp49
 70
     1
102
RTVSPost2010Prop50
 90
       50
102
RTVSPost2010PropOp50
 70
     0
102
RTVSPost2010Prop51ColorIndex
 90
      256
102
RTVSPost2010Prop51ColorRGB
 90
-16777216
102
RTVSPost2010PropOp51
 70
     0
102
RTVSPost2010Prop52
140
1.0
102
RTVSPost2010PropOp52
 70
     0
102
RTVSPost2010Prop53
 90
        2
102
RTVSPost2010PropOp53
 70
     0
102
RTVSPost2010Prop54
  1
strokes_ogs.tif
102
RTVSPost2010PropOp54
 70
     0
102
RTVSPost2010Prop55
280
     0
102
RTVSPost2010PropOp55
 70
     1
102
RTVSPost2010Prop56
140
1.0
102
RTVSPost2010PropOp56
 70
     0
102
RTVSPost2010Prop57
140
1.0
102
RTVSPost2010PropOp57
 70
     0
102
RTVSPropertyOp0
 70
     0
102
RTVSPropertyOp1
 70
     0
102
RTVSPropertyOp2
 70
     0
102
RTVSPropertyOp3
 70
     0
102
RTVSPropertyOp4
 70
     0
102
RTVSPropertyOp5
 70
     0
102
RTVSPropertyOp6
 70
     0
102
RTVSPropertyOp7
 70
     0
102
RTVSPropertyOp8
 70
     0
102
RTVSPropertyOp9
 70
     0
102
RTVSPropertyOp10
 70
     0
102
RTVSPropertyOp11
 70
     0
102
RTVSPropertyOp12
 70
     0
102
RTVSPropertyOp13
 70
     0
102
RTVSPropertyOp14
 70
     2
102
RTVSPropertyOp15
 70
     0
102
RTVSPropertyOp16
 70
     0
102
RTVSPropertyOp17
 70
     0
102
RTVSPropertyOp18
 70
     0
102
RTVSPropertyOp19
 70
     0
102
RTVSPropertyOp20
 70
     0
102
RTVSPropertyOp21
 70
     0
102
RTVSPropertyOp22
 70
     0
102
RTVSPropertyOp23
 70
     0
102
RTVSPropertyOp24
 70
     0
102
RTVSPropertyOp25
 70
     0
102
RTVSPropertyOp26
 70
     0
102
RTVSPropertyOp27
 70
     0
102
RTVSPropertyOp28
 70
     1
102
RTVSPropertyOp29
 70
     1
102
RTVSPropertyOp30
 70
     1
102
RTVSPropertyOp31
 70
     1
102
RTVSPropertyOp32
 70
     1
102
RTVSPropertyOp33
 70
     1
102
RTVSPropertyOp34
 70
     1
102
RTVSPropertyOp35
 70
     1
102
RTVSPropertyOp36
 70
     1
102
RTVSPropertyOp37
 70
     0
102
RTVSPropertyOp38
 70
     0
102
RTVSPropertyOp39
 70
     0
102
RTVSPropertyOp40
 70
     0
102
RTVSPropertyOp41
 70
     0
102
RTVSPropertyOp42
 70
     0
102
RTVSPropertyOp43
 70
     0
102
RTVSPropertyOp44
 70
     0
102
RTVSPropertyOp45
 70
     1
102
RTVSPropertyOp46
 70
     0
102
RTVSPropertyOp47
 70
     0
102
RTVSPropertyOp48
 70
     0
102
RTVSPropertyOp49
 70
     1
102
RTVSPropertyOp50
 70
     0
102
RTVSPropertyOp51
 70
     0
102
RTVSPropertyOp52
 70
     0
102
RTVSPropertyOp53
 70
     0
102
RTVSPropertyOp54
 70
     0
102
RTVSPropertyOp55
 70
     1
102
RTVSPropertyOp56
 70
     0
102
RTVSPropertyOp57
 70
     0
102
RTVSPropertyOp58
 70
     0
102
RTVSPropertyOp59
 70
     0
102
RTVSPropertyOp60
 70
     0
102
RTVSPropertyOp61
 70
     0
102
RTVSPropertyOp62
 70
     0
  0
XRECORD
  5
9E36
102
{ACAD_REACTORS
330
9E35
102
}
330
9E35
100
AcDbXrecord
280
     1
102
RTVSPost2010Prop28
280
     0
102
RTVSPost2010PropOp28
 70
     1
102
RTVSPost2010Prop29
280
     1
102
RTVSPost2010PropOp29
 70
     1
102
RTVSPost2010Prop30
280
     1
102
RTVSPost2010PropOp30
 70
     1
102
RTVSPost2010Prop31
280
     0
102
RTVSPost2010PropOp31
 70
     1
102
RTVSPost2010Prop32
280
     0
102
RTVSPost2010PropOp32
 70
     1
102
RTVSPost2010Prop33
280
     0
102
RTVSPost2010PropOp33
 70
     1
102
RTVSPost2010Prop34
280
     0
102
RTVSPost2010PropOp34
 70
     1
102
RTVSPost2010Prop35
280
     0
102
RTVSPost2010PropOp35
 70
     1
102
RTVSPost2010Prop36
280
     0
102
RTVSPost2010PropOp36
 70
     1
102
RTVSPost2010Prop37
 90
       50
102
RTVSPost2010PropOp37
 70
     1
102
RTVSPost2010Prop38
140
0.0
102
RTVSPost2010PropOp38
 70
     1
102
RTVSPost2010Prop39
140
1.0
102
RTVSPost2010PropOp39
 70
     1
102
RTVSPost2010Prop40
 90
        0
102
RTVSPost2010PropOp40
 70
     1
102
RTVSPost2010Prop41ColorIndex
 90
       18
102
RTVSPost2010Prop41ColorRGB
 90
        0
102
RTVSPost2010PropOp41
 70
     1
102
RTVSPost2010Prop42
 90
       50
102
RTVSPost2010PropOp42
 70
     1
102
RTVSPost2010Prop43
 90
        3
102
RTVSPost2010PropOp43
 70
     1
102
RTVSPost2010Prop44ColorIndex
 90
        5
102
RTVSPost2010Prop44ColorRGB
 90
      255
102
RTVSPost2010PropOp44
 70
     1
102
RTVSPost2010Prop45
280
     0
102
RTVSPost2010PropOp45
 70
     1
102
RTVSPost2010Prop46
 90
       50
102
RTVSPost2010PropOp46
 70
     1
102
RTVSPost2010Prop47
 90
       50
102
RTVSPost2010PropOp47
 70
     1
102
RTVSPost2010Prop48
 90
       50
102
RTVSPost2010PropOp48
 70
     1
102
RTVSPost2010Prop49
280
     0
102
RTVSPost2010PropOp49
 70
     1
102
RTVSPost2010Prop50
 90
       50
102
RTVSPost2010PropOp50
 70
     1
102
RTVSPost2010Prop51ColorIndex
 90
      256
102
RTVSPost2010Prop51ColorRGB
 90
-16777216
102
RTVSPost2010PropOp51
 70
     0
102
RTVSPost2010Prop52
140
1.0
102
RTVSPost2010PropOp52
 70
     0
102
RTVSPost2010Prop53
 90
        2
102
RTVSPost2010PropOp53
 70
     1
102
RTVSPost2010Prop54
  1
strokes_ogs.tif
102
RTVSPost2010PropOp54
 70
     1
102
RTVSPost2010Prop55
280
     0
102
RTVSPost2010PropOp55
 70
     1
102
RTVSPost2010Prop56
140
1.0
102
RTVSPost2010PropOp56
 70
     1
102
RTVSPost2010Prop57
140
1.0
102
RTVSPost2010PropOp57
 70
     1
102
RTVSPropertyOp0
 70
     1
102
RTVSPropertyOp1
 70
     1
102
RTVSPropertyOp2
 70
     1
102
RTVSPropertyOp3
 70
     1
102
RTVSPropertyOp4
 70
     1
102
RTVSPropertyOp5
 70
     1
102
RTVSPropertyOp6
 70
     1
102
RTVSPropertyOp7
 70
     1
102
RTVSPropertyOp8
 70
     1
102
RTVSPropertyOp9
 70
     1
102
RTVSPropertyOp10
 70
     1
102
RTVSPropertyOp11
 70
     1
102
RTVSPropertyOp12
 70
     1
102
RTVSPropertyOp13
 70
     1
102
RTVSPropertyOp14
 70
     1
102
RTVSPropertyOp15
 70
     1
102
RTVSPropertyOp16
 70
     1
102
RTVSPropertyOp17
 70
     1
102
RTVSPropertyOp18
 70
     1
102
RTVSPropertyOp19
 70
     1
102
RTVSPropertyOp20
 70
     1
102
RTVSPropertyOp21
 70
     1
102
RTVSPropertyOp22
 70
     1
102
RTVSPropertyOp23
 70
     1
102
RTVSPropertyOp24
 70
     1
102
RTVSPropertyOp25
 70
     1
102
RTVSPropertyOp26
 70
     1
102
RTVSPropertyOp27
 70
     1
102
RTVSPropertyOp28
 70
     1
102
RTVSPropertyOp29
 70
     1
102
RTVSPropertyOp30
 70
     1
102
RTVSPropertyOp31
 70
     1
102
RTVSPropertyOp32
 70
     1
102
RTVSPropertyOp33
 70
     1
102
RTVSPropertyOp34
 70
     1
102
RTVSPropertyOp35
 70
     1
102
RTVSPropertyOp36
 70
     1
102
RTVSPropertyOp37
 70
     1
102
RTVSPropertyOp38
 70
     1
102
RTVSPropertyOp39
 70
     1
102
RTVSPropertyOp40
 70
     1
102
RTVSPropertyOp41
 70
     1
102
RTVSPropertyOp42
 70
     1
102
RTVSPropertyOp43
 70
     1
102
RTVSPropertyOp44
 70
     1
102
RTVSPropertyOp45
 70
     1
102
RTVSPropertyOp46
 70
     1
102
RTVSPropertyOp47
 70
     1
102
RTVSPropertyOp48
 70
     1
102
RTVSPropertyOp49
 70
     1
102
RTVSPropertyOp50
 70
     1
102
RTVSPropertyOp51
 70
     0
102
RTVSPropertyOp52
 70
     0
102
RTVSPropertyOp53
 70
     1
102
RTVSPropertyOp54
 70
     1
102
RTVSPropertyOp55
 70
     1
102
RTVSPropertyOp56
 70
     1
102
RTVSPropertyOp57
 70
     1
102
RTVSPropertyOp58
 70
     1
102
RTVSPropertyOp59
 70
     1
102
RTVSPropertyOp60
 70
     1
102
RTVSPropertyOp61
 70
     1
102
RTVSPropertyOp62
 70
     1
  0
XRECORD
  5
9E4C
102
{ACAD_REACTORS
330
9E4B
102
}
330
9E4B
100
AcDbXrecord
280
     1
102
RTVSPost2010Prop28
280
     0
102
RTVSPost2010PropOp28
 70
     1
102
RTVSPost2010Prop29
280
     1
102
RTVSPost2010PropOp29
 70
     1
102
RTVSPost2010Prop30
280
     1
102
RTVSPost2010PropOp30
 70
     1
102
RTVSPost2010Prop31
280
     0
102
RTVSPost2010PropOp31
 70
     1
102
RTVSPost2010Prop32
280
     0
102
RTVSPost2010PropOp32
 70
     1
102
RTVSPost2010Prop33
280
     0
102
RTVSPost2010PropOp33
 70
     1
102
RTVSPost2010Prop34
280
     0
102
RTVSPost2010PropOp34
 70
     1
102
RTVSPost2010Prop35
280
     0
102
RTVSPost2010PropOp35
 70
     1
102
RTVSPost2010Prop36
280
     0
102
RTVSPost2010PropOp36
 70
     1
102
RTVSPost2010Prop37
 90
       50
102
RTVSPost2010PropOp37
 70
     1
102
RTVSPost2010Prop38
140
0.0
102
RTVSPost2010PropOp38
 70
     1
102
RTVSPost2010Prop39
140
1.0
102
RTVSPost2010PropOp39
 70
     1
102
RTVSPost2010Prop40
 90
        0
102
RTVSPost2010PropOp40
 70
     1
102
RTVSPost2010Prop41ColorIndex
 90
       18
102
RTVSPost2010Prop41ColorRGB
 90
        0
102
RTVSPost2010PropOp41
 70
     1
102
RTVSPost2010Prop42
 90
       50
102
RTVSPost2010PropOp42
 70
     1
102
RTVSPost2010Prop43
 90
        3
102
RTVSPost2010PropOp43
 70
     1
102
RTVSPost2010Prop44ColorIndex
 90
        5
102
RTVSPost2010Prop44ColorRGB
 90
      255
102
RTVSPost2010PropOp44
 70
     1
102
RTVSPost2010Prop45
280
     0
102
RTVSPost2010PropOp45
 70
     1
102
RTVSPost2010Prop46
 90
       50
102
RTVSPost2010PropOp46
 70
     1
102
RTVSPost2010Prop47
 90
       50
102
RTVSPost2010PropOp47
 70
     1
102
RTVSPost2010Prop48
 90
       50
102
RTVSPost2010PropOp48
 70
     1
102
RTVSPost2010Prop49
280
     0
102
RTVSPost2010PropOp49
 70
     1
102
RTVSPost2010Prop50
 90
       50
102
RTVSPost2010PropOp50
 70
     1
102
RTVSPost2010Prop51ColorIndex
 90
      256
102
RTVSPost2010Prop51ColorRGB
 90
-16777216
102
RTVSPost2010PropOp51
 70
     0
102
RTVSPost2010Prop52
140
1.0
102
RTVSPost2010PropOp52
 70
     0
102
RTVSPost2010Prop53
 90
        2
102
RTVSPost2010PropOp53
 70
     1
102
RTVSPost2010Prop54
  1
strokes_ogs.tif
102
RTVSPost2010PropOp54
 70
     1
102
RTVSPost2010Prop55
280
     0
102
RTVSPost2010PropOp55
 70
     1
102
RTVSPost2010Prop56
140
1.0
102
RTVSPost2010PropOp56
 70
     1
102
RTVSPost2010Prop57
140
1.0
102
RTVSPost2010PropOp57
 70
     1
102
RTVSPropertyOp0
 70
     1
102
RTVSPropertyOp1
 70
     1
102
RTVSPropertyOp2
 70
     1
102
RTVSPropertyOp3
 70
     1
102
RTVSPropertyOp4
 70
     1
102
RTVSPropertyOp5
 70
     1
102
RTVSPropertyOp6
 70
     1
102
RTVSPropertyOp7
 70
     1
102
RTVSPropertyOp8
 70
     1
102
RTVSPropertyOp9
 70
     1
102
RTVSPropertyOp10
 70
     1
102
RTVSPropertyOp11
 70
     1
102
RTVSPropertyOp12
 70
     1
102
RTVSPropertyOp13
 70
     1
102
RTVSPropertyOp14
 70
     1
102
RTVSPropertyOp15
 70
     1
102
RTVSPropertyOp16
 70
     1
102
RTVSPropertyOp17
 70
     1
102
RTVSPropertyOp18
 70
     1
102
RTVSPropertyOp19
 70
     1
102
RTVSPropertyOp20
 70
     1
102
RTVSPropertyOp21
 70
     1
102
RTVSPropertyOp22
 70
     1
102
RTVSPropertyOp23
 70
     1
102
RTVSPropertyOp24
 70
     1
102
RTVSPropertyOp25
 70
     1
102
RTVSPropertyOp26
 70
     1
102
RTVSPropertyOp27
 70
     1
102
RTVSPropertyOp28
 70
     1
102
RTVSPropertyOp29
 70
     1
102
RTVSPropertyOp30
 70
     1
102
RTVSPropertyOp31
 70
     1
102
RTVSPropertyOp32
 70
     1
102
RTVSPropertyOp33
 70
     1
102
RTVSPropertyOp34
 70
     1
102
RTVSPropertyOp35
 70
     1
102
RTVSPropertyOp36
 70
     1
102
RTVSPropertyOp37
 70
     1
102
RTVSPropertyOp38
 70
     1
102
RTVSPropertyOp39
 70
     1
102
RTVSPropertyOp40
 70
     1
102
RTVSPropertyOp41
 70
     1
102
RTVSPropertyOp42
 70
     1
102
RTVSPropertyOp43
 70
     1
102
RTVSPropertyOp44
 70
     1
102
RTVSPropertyOp45
 70
     1
102
RTVSPropertyOp46
 70
     1
102
RTVSPropertyOp47
 70
     1
102
RTVSPropertyOp48
 70
     1
102
RTVSPropertyOp49
 70
     1
102
RTVSPropertyOp50
 70
     1
102
RTVSPropertyOp51
 70
     0
102
RTVSPropertyOp52
 70
     0
102
RTVSPropertyOp53
 70
     1
102
RTVSPropertyOp54
 70
     1
102
RTVSPropertyOp55
 70
     1
102
RTVSPropertyOp56
 70
     1
102
RTVSPropertyOp57
 70
     1
102
RTVSPropertyOp58
 70
     1
102
RTVSPropertyOp59
 70
     1
102
RTVSPropertyOp60
 70
     1
102
RTVSPropertyOp61
 70
     1
102
RTVSPropertyOp62
 70
     1
  0
XRECORD
  5
9E4A
102
{ACAD_REACTORS
330
9E49
102
}
330
9E49
100
AcDbXrecord
280
     1
102
RTVSPost2010Prop28
280
     0
102
RTVSPost2010PropOp28
 70
     1
102
RTVSPost2010Prop29
280
     1
102
RTVSPost2010PropOp29
 70
     1
102
RTVSPost2010Prop30
280
     1
102
RTVSPost2010PropOp30
 70
     1
102
RTVSPost2010Prop31
280
     0
102
RTVSPost2010PropOp31
 70
     1
102
RTVSPost2010Prop32
280
     0
102
RTVSPost2010PropOp32
 70
     1
102
RTVSPost2010Prop33
280
     0
102
RTVSPost2010PropOp33
 70
     1
102
RTVSPost2010Prop34
280
     0
102
RTVSPost2010PropOp34
 70
     1
102
RTVSPost2010Prop35
280
     0
102
RTVSPost2010PropOp35
 70
     1
102
RTVSPost2010Prop36
280
     0
102
RTVSPost2010PropOp36
 70
     1
102
RTVSPost2010Prop37
 90
       50
102
RTVSPost2010PropOp37
 70
     1
102
RTVSPost2010Prop38
140
0.0
102
RTVSPost2010PropOp38
 70
     1
102
RTVSPost2010Prop39
140
1.0
102
RTVSPost2010PropOp39
 70
     1
102
RTVSPost2010Prop40
 90
        0
102
RTVSPost2010PropOp40
 70
     1
102
RTVSPost2010Prop41ColorIndex
 90
       18
102
RTVSPost2010Prop41ColorRGB
 90
        0
102
RTVSPost2010PropOp41
 70
     1
102
RTVSPost2010Prop42
 90
       50
102
RTVSPost2010PropOp42
 70
     1
102
RTVSPost2010Prop43
 90
        3
102
RTVSPost2010PropOp43
 70
     1
102
RTVSPost2010Prop44ColorIndex
 90
        5
102
RTVSPost2010Prop44ColorRGB
 90
      255
102
RTVSPost2010PropOp44
 70
     1
102
RTVSPost2010Prop45
280
     0
102
RTVSPost2010PropOp45
 70
     1
102
RTVSPost2010Prop46
 90
       50
102
RTVSPost2010PropOp46
 70
     1
102
RTVSPost2010Prop47
 90
       50
102
RTVSPost2010PropOp47
 70
     1
102
RTVSPost2010Prop48
 90
       50
102
RTVSPost2010PropOp48
 70
     1
102
RTVSPost2010Prop49
280
     0
102
RTVSPost2010PropOp49
 70
     1
102
RTVSPost2010Prop50
 90
       50
102
RTVSPost2010PropOp50
 70
     1
102
RTVSPost2010Prop51ColorIndex
 90
      256
102
RTVSPost2010Prop51ColorRGB
 90
-16777216
102
RTVSPost2010PropOp51
 70
     0
102
RTVSPost2010Prop52
140
1.0
102
RTVSPost2010PropOp52
 70
     0
102
RTVSPost2010Prop53
 90
        2
102
RTVSPost2010PropOp53
 70
     1
102
RTVSPost2010Prop54
  1
strokes_ogs.tif
102
RTVSPost2010PropOp54
 70
     1
102
RTVSPost2010Prop55
280
     0
102
RTVSPost2010PropOp55
 70
     1
102
RTVSPost2010Prop56
140
1.0
102
RTVSPost2010PropOp56
 70
     1
102
RTVSPost2010Prop57
140
1.0
102
RTVSPost2010PropOp57
 70
     1
102
RTVSPropertyOp0
 70
     1
102
RTVSPropertyOp1
 70
     1
102
RTVSPropertyOp2
 70
     1
102
RTVSPropertyOp3
 70
     1
102
RTVSPropertyOp4
 70
     1
102
RTVSPropertyOp5
 70
     1
102
RTVSPropertyOp6
 70
     1
102
RTVSPropertyOp7
 70
     1
102
RTVSPropertyOp8
 70
     1
102
RTVSPropertyOp9
 70
     1
102
RTVSPropertyOp10
 70
     1
102
RTVSPropertyOp11
 70
     1
102
RTVSPropertyOp12
 70
     1
102
RTVSPropertyOp13
 70
     1
102
RTVSPropertyOp14
 70
     1
102
RTVSPropertyOp15
 70
     1
102
RTVSPropertyOp16
 70
     1
102
RTVSPropertyOp17
 70
     1
102
RTVSPropertyOp18
 70
     1
102
RTVSPropertyOp19
 70
     1
102
RTVSPropertyOp20
 70
     1
102
RTVSPropertyOp21
 70
     1
102
RTVSPropertyOp22
 70
     1
102
RTVSPropertyOp23
 70
     1
102
RTVSPropertyOp24
 70
     1
102
RTVSPropertyOp25
 70
     1
102
RTVSPropertyOp26
 70
     1
102
RTVSPropertyOp27
 70
     1
102
RTVSPropertyOp28
 70
     1
102
RTVSPropertyOp29
 70
     1
102
RTVSPropertyOp30
 70
     1
102
RTVSPropertyOp31
 70
     1
102
RTVSPropertyOp32
 70
     1
102
RTVSPropertyOp33
 70
     1
102
RTVSPropertyOp34
 70
     1
102
RTVSPropertyOp35
 70
     1
102
RTVSPropertyOp36
 70
     1
102
RTVSPropertyOp37
 70
     1
102
RTVSPropertyOp38
 70
     1
102
RTVSPropertyOp39
 70
     1
102
RTVSPropertyOp40
 70
     1
102
RTVSPropertyOp41
 70
     1
102
RTVSPropertyOp42
 70
     1
102
RTVSPropertyOp43
 70
     1
102
RTVSPropertyOp44
 70
     1
102
RTVSPropertyOp45
 70
     1
102
RTVSPropertyOp46
 70
     1
102
RTVSPropertyOp47
 70
     1
102
RTVSPropertyOp48
 70
     1
102
RTVSPropertyOp49
 70
     1
102
RTVSPropertyOp50
 70
     1
102
RTVSPropertyOp51
 70
     0
102
RTVSPropertyOp52
 70
     0
102
RTVSPropertyOp53
 70
     1
102
RTVSPropertyOp54
 70
     1
102
RTVSPropertyOp55
 70
     1
102
RTVSPropertyOp56
 70
     1
102
RTVSPropertyOp57
 70
     1
102
RTVSPropertyOp58
 70
     1
102
RTVSPropertyOp59
 70
     1
102
RTVSPropertyOp60
 70
     1
102
RTVSPropertyOp61
 70
     1
102
RTVSPropertyOp62
 70
     1
  0
XRECORD
  5
9E44
102
{ACAD_REACTORS
330
9E43
102
}
330
9E43
100
AcDbXrecord
280
     1
102
RTVSPost2010Prop28
280
     0
102
RTVSPost2010PropOp28
 70
     1
102
RTVSPost2010Prop29
280
     1
102
RTVSPost2010PropOp29
 70
     1
102
RTVSPost2010Prop30
280
     1
102
RTVSPost2010PropOp30
 70
     1
102
RTVSPost2010Prop31
280
     0
102
RTVSPost2010PropOp31
 70
     1
102
RTVSPost2010Prop32
280
     0
102
RTVSPost2010PropOp32
 70
     1
102
RTVSPost2010Prop33
280
     0
102
RTVSPost2010PropOp33
 70
     1
102
RTVSPost2010Prop34
280
     0
102
RTVSPost2010PropOp34
 70
     1
102
RTVSPost2010Prop35
280
     0
102
RTVSPost2010PropOp35
 70
     1
102
RTVSPost2010Prop36
280
     0
102
RTVSPost2010PropOp36
 70
     1
102
RTVSPost2010Prop37
 90
       50
102
RTVSPost2010PropOp37
 70
     1
102
RTVSPost2010Prop38
140
0.0
102
RTVSPost2010PropOp38
 70
     1
102
RTVSPost2010Prop39
140
1.0
102
RTVSPost2010PropOp39
 70
     1
102
RTVSPost2010Prop40
 90
        0
102
RTVSPost2010PropOp40
 70
     1
102
RTVSPost2010Prop41ColorIndex
 90
       18
102
RTVSPost2010Prop41ColorRGB
 90
        0
102
RTVSPost2010PropOp41
 70
     1
102
RTVSPost2010Prop42
 90
       50
102
RTVSPost2010PropOp42
 70
     1
102
RTVSPost2010Prop43
 90
        3
102
RTVSPost2010PropOp43
 70
     1
102
RTVSPost2010Prop44ColorIndex
 90
        5
102
RTVSPost2010Prop44ColorRGB
 90
      255
102
RTVSPost2010PropOp44
 70
     1
102
RTVSPost2010Prop45
280
     0
102
RTVSPost2010PropOp45
 70
     1
102
RTVSPost2010Prop46
 90
       50
102
RTVSPost2010PropOp46
 70
     1
102
RTVSPost2010Prop47
 90
       50
102
RTVSPost2010PropOp47
 70
     1
102
RTVSPost2010Prop48
 90
       50
102
RTVSPost2010PropOp48
 70
     1
102
RTVSPost2010Prop49
280
     0
102
RTVSPost2010PropOp49
 70
     1
102
RTVSPost2010Prop50
 90
       50
102
RTVSPost2010PropOp50
 70
     1
102
RTVSPost2010Prop51ColorIndex
 90
      256
102
RTVSPost2010Prop51ColorRGB
 90
-16777216
102
RTVSPost2010PropOp51
 70
     0
102
RTVSPost2010Prop52
140
1.0
102
RTVSPost2010PropOp52
 70
     0
102
RTVSPost2010Prop53
 90
        2
102
RTVSPost2010PropOp53
 70
     1
102
RTVSPost2010Prop54
  1
strokes_ogs.tif
102
RTVSPost2010PropOp54
 70
     1
102
RTVSPost2010Prop55
280
     0
102
RTVSPost2010PropOp55
 70
     1
102
RTVSPost2010Prop56
140
1.0
102
RTVSPost2010PropOp56
 70
     1
102
RTVSPost2010Prop57
140
1.0
102
RTVSPost2010PropOp57
 70
     1
102
RTVSPropertyOp0
 70
     1
102
RTVSPropertyOp1
 70
     1
102
RTVSPropertyOp2
 70
     1
102
RTVSPropertyOp3
 70
     1
102
RTVSPropertyOp4
 70
     1
102
RTVSPropertyOp5
 70
     1
102
RTVSPropertyOp6
 70
     1
102
RTVSPropertyOp7
 70
     1
102
RTVSPropertyOp8
 70
     1
102
RTVSPropertyOp9
 70
     1
102
RTVSPropertyOp10
 70
     1
102
RTVSPropertyOp11
 70
     1
102
RTVSPropertyOp12
 70
     1
102
RTVSPropertyOp13
 70
     1
102
RTVSPropertyOp14
 70
     1
102
RTVSPropertyOp15
 70
     1
102
RTVSPropertyOp16
 70
     1
102
RTVSPropertyOp17
 70
     1
102
RTVSPropertyOp18
 70
     1
102
RTVSPropertyOp19
 70
     1
102
RTVSPropertyOp20
 70
     1
102
RTVSPropertyOp21
 70
     1
102
RTVSPropertyOp22
 70
     1
102
RTVSPropertyOp23
 70
     1
102
RTVSPropertyOp24
 70
     1
102
RTVSPropertyOp25
 70
     1
102
RTVSPropertyOp26
 70
     1
102
RTVSPropertyOp27
 70
     1
102
RTVSPropertyOp28
 70
     1
102
RTVSPropertyOp29
 70
     1
102
RTVSPropertyOp30
 70
     1
102
RTVSPropertyOp31
 70
     1
102
RTVSPropertyOp32
 70
     1
102
RTVSPropertyOp33
 70
     1
102
RTVSPropertyOp34
 70
     1
102
RTVSPropertyOp35
 70
     1
102
RTVSPropertyOp36
 70
     1
102
RTVSPropertyOp37
 70
     1
102
RTVSPropertyOp38
 70
     1
102
RTVSPropertyOp39
 70
     1
102
RTVSPropertyOp40
 70
     1
102
RTVSPropertyOp41
 70
     1
102
RTVSPropertyOp42
 70
     1
102
RTVSPropertyOp43
 70
     1
102
RTVSPropertyOp44
 70
     1
102
RTVSPropertyOp45
 70
     1
102
RTVSPropertyOp46
 70
     1
102
RTVSPropertyOp47
 70
     1
102
RTVSPropertyOp48
 70
     1
102
RTVSPropertyOp49
 70
     1
102
RTVSPropertyOp50
 70
     1
102
RTVSPropertyOp51
 70
     0
102
RTVSPropertyOp52
 70
     0
102
RTVSPropertyOp53
 70
     1
102
RTVSPropertyOp54
 70
     1
102
RTVSPropertyOp55
 70
     1
102
RTVSPropertyOp56
 70
     1
102
RTVSPropertyOp57
 70
     1
102
RTVSPropertyOp58
 70
     1
102
RTVSPropertyOp59
 70
     1
102
RTVSPropertyOp60
 70
     1
102
RTVSPropertyOp61
 70
     1
102
RTVSPropertyOp62
 70
     1
  0
XRECORD
  5
9E46
102
{ACAD_REACTORS
330
9E45
102
}
330
9E45
100
AcDbXrecord
280
     1
102
RTVSPost2010Prop28
280
     0
102
RTVSPost2010PropOp28
 70
     1
102
RTVSPost2010Prop29
280
     1
102
RTVSPost2010PropOp29
 70
     1
102
RTVSPost2010Prop30
280
     1
102
RTVSPost2010PropOp30
 70
     1
102
RTVSPost2010Prop31
280
     0
102
RTVSPost2010PropOp31
 70
     1
102
RTVSPost2010Prop32
280
     0
102
RTVSPost2010PropOp32
 70
     1
102
RTVSPost2010Prop33
280
     0
102
RTVSPost2010PropOp33
 70
     1
102
RTVSPost2010Prop34
280
     0
102
RTVSPost2010PropOp34
 70
     1
102
RTVSPost2010Prop35
280
     0
102
RTVSPost2010PropOp35
 70
     1
102
RTVSPost2010Prop36
280
     0
102
RTVSPost2010PropOp36
 70
     1
102
RTVSPost2010Prop37
 90
       50
102
RTVSPost2010PropOp37
 70
     1
102
RTVSPost2010Prop38
140
0.0
102
RTVSPost2010PropOp38
 70
     1
102
RTVSPost2010Prop39
140
1.0
102
RTVSPost2010PropOp39
 70
     1
102
RTVSPost2010Prop40
 90
        0
102
RTVSPost2010PropOp40
 70
     1
102
RTVSPost2010Prop41ColorIndex
 90
       18
102
RTVSPost2010Prop41ColorRGB
 90
        0
102
RTVSPost2010PropOp41
 70
     1
102
RTVSPost2010Prop42
 90
       50
102
RTVSPost2010PropOp42
 70
     1
102
RTVSPost2010Prop43
 90
        3
102
RTVSPost2010PropOp43
 70
     1
102
RTVSPost2010Prop44ColorIndex
 90
        5
102
RTVSPost2010Prop44ColorRGB
 90
      255
102
RTVSPost2010PropOp44
 70
     1
102
RTVSPost2010Prop45
280
     0
102
RTVSPost2010PropOp45
 70
     1
102
RTVSPost2010Prop46
 90
       50
102
RTVSPost2010PropOp46
 70
     1
102
RTVSPost2010Prop47
 90
       50
102
RTVSPost2010PropOp47
 70
     1
102
RTVSPost2010Prop48
 90
       50
102
RTVSPost2010PropOp48
 70
     1
102
RTVSPost2010Prop49
280
     0
102
RTVSPost2010PropOp49
 70
     1
102
RTVSPost2010Prop50
 90
       50
102
RTVSPost2010PropOp50
 70
     1
102
RTVSPost2010Prop51ColorIndex
 90
      256
102
RTVSPost2010Prop51ColorRGB
 90
-16777216
102
RTVSPost2010PropOp51
 70
     0
102
RTVSPost2010Prop52
140
1.0
102
RTVSPost2010PropOp52
 70
     0
102
RTVSPost2010Prop53
 90
        2
102
RTVSPost2010PropOp53
 70
     1
102
RTVSPost2010Prop54
  1
strokes_ogs.tif
102
RTVSPost2010PropOp54
 70
     1
102
RTVSPost2010Prop55
280
     0
102
RTVSPost2010PropOp55
 70
     1
102
RTVSPost2010Prop56
140
1.0
102
RTVSPost2010PropOp56
 70
     1
102
RTVSPost2010Prop57
140
1.0
102
RTVSPost2010PropOp57
 70
     1
102
RTVSPropertyOp0
 70
     1
102
RTVSPropertyOp1
 70
     1
102
RTVSPropertyOp2
 70
     1
102
RTVSPropertyOp3
 70
     1
102
RTVSPropertyOp4
 70
     1
102
RTVSPropertyOp5
 70
     1
102
RTVSPropertyOp6
 70
     1
102
RTVSPropertyOp7
 70
     1
102
RTVSPropertyOp8
 70
     1
102
RTVSPropertyOp9
 70
     1
102
RTVSPropertyOp10
 70
     1
102
RTVSPropertyOp11
 70
     1
102
RTVSPropertyOp12
 70
     1
102
RTVSPropertyOp13
 70
     1
102
RTVSPropertyOp14
 70
     1
102
RTVSPropertyOp15
 70
     1
102
RTVSPropertyOp16
 70
     1
102
RTVSPropertyOp17
 70
     1
102
RTVSPropertyOp18
 70
     1
102
RTVSPropertyOp19
 70
     1
102
RTVSPropertyOp20
 70
     1
102
RTVSPropertyOp21
 70
     1
102
RTVSPropertyOp22
 70
     1
102
RTVSPropertyOp23
 70
     1
102
RTVSPropertyOp24
 70
     1
102
RTVSPropertyOp25
 70
     1
102
RTVSPropertyOp26
 70
     1
102
RTVSPropertyOp27
 70
     1
102
RTVSPropertyOp28
 70
     1
102
RTVSPropertyOp29
 70
     1
102
RTVSPropertyOp30
 70
     1
102
RTVSPropertyOp31
 70
     1
102
RTVSPropertyOp32
 70
     1
102
RTVSPropertyOp33
 70
     1
102
RTVSPropertyOp34
 70
     1
102
RTVSPropertyOp35
 70
     1
102
RTVSPropertyOp36
 70
     1
102
RTVSPropertyOp37
 70
     1
102
RTVSPropertyOp38
 70
     1
102
RTVSPropertyOp39
 70
     1
102
RTVSPropertyOp40
 70
     1
102
RTVSPropertyOp41
 70
     1
102
RTVSPropertyOp42
 70
     1
102
RTVSPropertyOp43
 70
     1
102
RTVSPropertyOp44
 70
     1
102
RTVSPropertyOp45
 70
     1
102
RTVSPropertyOp46
 70
     1
102
RTVSPropertyOp47
 70
     1
102
RTVSPropertyOp48
 70
     1
102
RTVSPropertyOp49
 70
     1
102
RTVSPropertyOp50
 70
     1
102
RTVSPropertyOp51
 70
     0
102
RTVSPropertyOp52
 70
     0
102
RTVSPropertyOp53
 70
     1
102
RTVSPropertyOp54
 70
     1
102
RTVSPropertyOp55
 70
     1
102
RTVSPropertyOp56
 70
     1
102
RTVSPropertyOp57
 70
     1
102
RTVSPropertyOp58
 70
     1
102
RTVSPropertyOp59
 70
     1
102
RTVSPropertyOp60
 70
     1
102
RTVSPropertyOp61
 70
     1
102
RTVSPropertyOp62
 70
     1
  0
XRECORD
  5
9E3C
102
{ACAD_REACTORS
330
9E3B
102
}
330
9E3B
100
AcDbXrecord
280
     1
102
RTVSPost2010Prop28
280
     0
102
RTVSPost2010PropOp28
 70
     1
102
RTVSPost2010Prop29
280
     1
102
RTVSPost2010PropOp29
 70
     1
102
RTVSPost2010Prop30
280
     1
102
RTVSPost2010PropOp30
 70
     1
102
RTVSPost2010Prop31
280
     0
102
RTVSPost2010PropOp31
 70
     1
102
RTVSPost2010Prop32
280
     0
102
RTVSPost2010PropOp32
 70
     1
102
RTVSPost2010Prop33
280
     0
102
RTVSPost2010PropOp33
 70
     1
102
RTVSPost2010Prop34
280
     0
102
RTVSPost2010PropOp34
 70
     1
102
RTVSPost2010Prop35
280
     0
102
RTVSPost2010PropOp35
 70
     1
102
RTVSPost2010Prop36
280
     0
102
RTVSPost2010PropOp36
 70
     1
102
RTVSPost2010Prop37
 90
       50
102
RTVSPost2010PropOp37
 70
     1
102
RTVSPost2010Prop38
140
0.0
102
RTVSPost2010PropOp38
 70
     1
102
RTVSPost2010Prop39
140
1.0
102
RTVSPost2010PropOp39
 70
     1
102
RTVSPost2010Prop40
 90
        0
102
RTVSPost2010PropOp40
 70
     1
102
RTVSPost2010Prop41ColorIndex
 90
       18
102
RTVSPost2010Prop41ColorRGB
 90
        0
102
RTVSPost2010PropOp41
 70
     1
102
RTVSPost2010Prop42
 90
       50
102
RTVSPost2010PropOp42
 70
     1
102
RTVSPost2010Prop43
 90
        3
102
RTVSPost2010PropOp43
 70
     1
102
RTVSPost2010Prop44ColorIndex
 90
        5
102
RTVSPost2010Prop44ColorRGB
 90
      255
102
RTVSPost2010PropOp44
 70
     1
102
RTVSPost2010Prop45
280
     0
102
RTVSPost2010PropOp45
 70
     1
102
RTVSPost2010Prop46
 90
       50
102
RTVSPost2010PropOp46
 70
     1
102
RTVSPost2010Prop47
 90
       50
102
RTVSPost2010PropOp47
 70
     1
102
RTVSPost2010Prop48
 90
       50
102
RTVSPost2010PropOp48
 70
     1
102
RTVSPost2010Prop49
280
     0
102
RTVSPost2010PropOp49
 70
     1
102
RTVSPost2010Prop50
 90
       50
102
RTVSPost2010PropOp50
 70
     1
102
RTVSPost2010Prop51ColorIndex
 90
      256
102
RTVSPost2010Prop51ColorRGB
 90
-16777216
102
RTVSPost2010PropOp51
 70
     0
102
RTVSPost2010Prop52
140
1.0
102
RTVSPost2010PropOp52
 70
     0
102
RTVSPost2010Prop53
 90
        2
102
RTVSPost2010PropOp53
 70
     1
102
RTVSPost2010Prop54
  1
strokes_ogs.tif
102
RTVSPost2010PropOp54
 70
     1
102
RTVSPost2010Prop55
280
     0
102
RTVSPost2010PropOp55
 70
     1
102
RTVSPost2010Prop56
140
1.0
102
RTVSPost2010PropOp56
 70
     1
102
RTVSPost2010Prop57
140
1.0
102
RTVSPost2010PropOp57
 70
     1
102
RTVSPropertyOp0
 70
     1
102
RTVSPropertyOp1
 70
     1
102
RTVSPropertyOp2
 70
     1
102
RTVSPropertyOp3
 70
     1
102
RTVSPropertyOp4
 70
     1
102
RTVSPropertyOp5
 70
     1
102
RTVSPropertyOp6
 70
     1
102
RTVSPropertyOp7
 70
     1
102
RTVSPropertyOp8
 70
     1
102
RTVSPropertyOp9
 70
     1
102
RTVSPropertyOp10
 70
     1
102
RTVSPropertyOp11
 70
     1
102
RTVSPropertyOp12
 70
     1
102
RTVSPropertyOp13
 70
     1
102
RTVSPropertyOp14
 70
     1
102
RTVSPropertyOp15
 70
     1
102
RTVSPropertyOp16
 70
     1
102
RTVSPropertyOp17
 70
     1
102
RTVSPropertyOp18
 70
     1
102
RTVSPropertyOp19
 70
     1
102
RTVSPropertyOp20
 70
     1
102
RTVSPropertyOp21
 70
     1
102
RTVSPropertyOp22
 70
     1
102
RTVSPropertyOp23
 70
     1
102
RTVSPropertyOp24
 70
     1
102
RTVSPropertyOp25
 70
     1
102
RTVSPropertyOp26
 70
     1
102
RTVSPropertyOp27
 70
     1
102
RTVSPropertyOp28
 70
     1
102
RTVSPropertyOp29
 70
     1
102
RTVSPropertyOp30
 70
     1
102
RTVSPropertyOp31
 70
     1
102
RTVSPropertyOp32
 70
     1
102
RTVSPropertyOp33
 70
     1
102
RTVSPropertyOp34
 70
     1
102
RTVSPropertyOp35
 70
     1
102
RTVSPropertyOp36
 70
     1
102
RTVSPropertyOp37
 70
     1
102
RTVSPropertyOp38
 70
     1
102
RTVSPropertyOp39
 70
     1
102
RTVSPropertyOp40
 70
     1
102
RTVSPropertyOp41
 70
     1
102
RTVSPropertyOp42
 70
     1
102
RTVSPropertyOp43
 70
     1
102
RTVSPropertyOp44
 70
     1
102
RTVSPropertyOp45
 70
     1
102
RTVSPropertyOp46
 70
     1
102
RTVSPropertyOp47
 70
     1
102
RTVSPropertyOp48
 70
     1
102
RTVSPropertyOp49
 70
     1
102
RTVSPropertyOp50
 70
     1
102
RTVSPropertyOp51
 70
     0
102
RTVSPropertyOp52
 70
     0
102
RTVSPropertyOp53
 70
     1
102
RTVSPropertyOp54
 70
     1
102
RTVSPropertyOp55
 70
     1
102
RTVSPropertyOp56
 70
     1
102
RTVSPropertyOp57
 70
     1
102
RTVSPropertyOp58
 70
     1
102
RTVSPropertyOp59
 70
     1
102
RTVSPropertyOp60
 70
     1
102
RTVSPropertyOp61
 70
     1
102
RTVSPropertyOp62
 70
     1
  0
XRECORD
  5
9E30
102
{ACAD_REACTORS
330
9E2F
102
}
330
9E2F
100
AcDbXrecord
280
     1
102
RTVSPost2010Prop28
280
     0
102
RTVSPost2010PropOp28
 70
     1
102
RTVSPost2010Prop29
280
     1
102
RTVSPost2010PropOp29
 70
     1
102
RTVSPost2010Prop30
280
     1
102
RTVSPost2010PropOp30
 70
     1
102
RTVSPost2010Prop31
280
     0
102
RTVSPost2010PropOp31
 70
     1
102
RTVSPost2010Prop32
280
     0
102
RTVSPost2010PropOp32
 70
     1
102
RTVSPost2010Prop33
280
     0
102
RTVSPost2010PropOp33
 70
     1
102
RTVSPost2010Prop34
280
     0
102
RTVSPost2010PropOp34
 70
     1
102
RTVSPost2010Prop35
280
     0
102
RTVSPost2010PropOp35
 70
     1
102
RTVSPost2010Prop36
280
     0
102
RTVSPost2010PropOp36
 70
     1
102
RTVSPost2010Prop37
 90
       50
102
RTVSPost2010PropOp37
 70
     1
102
RTVSPost2010Prop38
140
0.0
102
RTVSPost2010PropOp38
 70
     1
102
RTVSPost2010Prop39
140
1.0
102
RTVSPost2010PropOp39
 70
     1
102
RTVSPost2010Prop40
 90
        0
102
RTVSPost2010PropOp40
 70
     1
102
RTVSPost2010Prop41ColorIndex
 90
       18
102
RTVSPost2010Prop41ColorRGB
 90
        0
102
RTVSPost2010PropOp41
 70
     1
102
RTVSPost2010Prop42
 90
       50
102
RTVSPost2010PropOp42
 70
     1
102
RTVSPost2010Prop43
 90
        3
102
RTVSPost2010PropOp43
 70
     1
102
RTVSPost2010Prop44ColorIndex
 90
        5
102
RTVSPost2010Prop44ColorRGB
 90
      255
102
RTVSPost2010PropOp44
 70
     1
102
RTVSPost2010Prop45
280
     0
102
RTVSPost2010PropOp45
 70
     1
102
RTVSPost2010Prop46
 90
       50
102
RTVSPost2010PropOp46
 70
     1
102
RTVSPost2010Prop47
 90
       50
102
RTVSPost2010PropOp47
 70
     1
102
RTVSPost2010Prop48
 90
       50
102
RTVSPost2010PropOp48
 70
     1
102
RTVSPost2010Prop49
280
     0
102
RTVSPost2010PropOp49
 70
     1
102
RTVSPost2010Prop50
 90
       50
102
RTVSPost2010PropOp50
 70
     1
102
RTVSPost2010Prop51ColorIndex
 90
      256
102
RTVSPost2010Prop51ColorRGB
 90
-16777216
102
RTVSPost2010PropOp51
 70
     0
102
RTVSPost2010Prop52
140
1.0
102
RTVSPost2010PropOp52
 70
     0
102
RTVSPost2010Prop53
 90
        2
102
RTVSPost2010PropOp53
 70
     1
102
RTVSPost2010Prop54
  1
strokes_ogs.tif
102
RTVSPost2010PropOp54
 70
     1
102
RTVSPost2010Prop55
280
     0
102
RTVSPost2010PropOp55
 70
     1
102
RTVSPost2010Prop56
140
1.0
102
RTVSPost2010PropOp56
 70
     1
102
RTVSPost2010Prop57
140
1.0
102
RTVSPost2010PropOp57
 70
     1
102
RTVSPropertyOp0
 70
     1
102
RTVSPropertyOp1
 70
     1
102
RTVSPropertyOp2
 70
     1
102
RTVSPropertyOp3
 70
     1
102
RTVSPropertyOp4
 70
     1
102
RTVSPropertyOp5
 70
     1
102
RTVSPropertyOp6
 70
     1
102
RTVSPropertyOp7
 70
     1
102
RTVSPropertyOp8
 70
     1
102
RTVSPropertyOp9
 70
     1
102
RTVSPropertyOp10
 70
     1
102
RTVSPropertyOp11
 70
     1
102
RTVSPropertyOp12
 70
     1
102
RTVSPropertyOp13
 70
     1
102
RTVSPropertyOp14
 70
     1
102
RTVSPropertyOp15
 70
     1
102
RTVSPropertyOp16
 70
     1
102
RTVSPropertyOp17
 70
     1
102
RTVSPropertyOp18
 70
     1
102
RTVSPropertyOp19
 70
     1
102
RTVSPropertyOp20
 70
     1
102
RTVSPropertyOp21
 70
     1
102
RTVSPropertyOp22
 70
     1
102
RTVSPropertyOp23
 70
     1
102
RTVSPropertyOp24
 70
     1
102
RTVSPropertyOp25
 70
     1
102
RTVSPropertyOp26
 70
     1
102
RTVSPropertyOp27
 70
     1
102
RTVSPropertyOp28
 70
     1
102
RTVSPropertyOp29
 70
     1
102
RTVSPropertyOp30
 70
     1
102
RTVSPropertyOp31
 70
     1
102
RTVSPropertyOp32
 70
     1
102
RTVSPropertyOp33
 70
     1
102
RTVSPropertyOp34
 70
     1
102
RTVSPropertyOp35
 70
     1
102
RTVSPropertyOp36
 70
     1
102
RTVSPropertyOp37
 70
     1
102
RTVSPropertyOp38
 70
     1
102
RTVSPropertyOp39
 70
     1
102
RTVSPropertyOp40
 70
     1
102
RTVSPropertyOp41
 70
     1
102
RTVSPropertyOp42
 70
     1
102
RTVSPropertyOp43
 70
     1
102
RTVSPropertyOp44
 70
     1
102
RTVSPropertyOp45
 70
     1
102
RTVSPropertyOp46
 70
     1
102
RTVSPropertyOp47
 70
     1
102
RTVSPropertyOp48
 70
     1
102
RTVSPropertyOp49
 70
     1
102
RTVSPropertyOp50
 70
     1
102
RTVSPropertyOp51
 70
     0
102
RTVSPropertyOp52
 70
     0
102
RTVSPropertyOp53
 70
     1
102
RTVSPropertyOp54
 70
     1
102
RTVSPropertyOp55
 70
     1
102
RTVSPropertyOp56
 70
     1
102
RTVSPropertyOp57
 70
     1
102
RTVSPropertyOp58
 70
     1
102
RTVSPropertyOp59
 70
     1
102
RTVSPropertyOp60
 70
     1
102
RTVSPropertyOp61
 70
     1
102
RTVSPropertyOp62
 70
     1
  0
XRECORD
  5
9E48
102
{ACAD_REACTORS
330
9E47
102
}
330
9E47
100
AcDbXrecord
280
     1
102
RTVSPost2010Prop28
280
     0
102
RTVSPost2010PropOp28
 70
     1
102
RTVSPost2010Prop29
280
     1
102
RTVSPost2010PropOp29
 70
     1
102
RTVSPost2010Prop30
280
     1
102
RTVSPost2010PropOp30
 70
     1
102
RTVSPost2010Prop31
280
     0
102
RTVSPost2010PropOp31
 70
     1
102
RTVSPost2010Prop32
280
     0
102
RTVSPost2010PropOp32
 70
     1
102
RTVSPost2010Prop33
280
     0
102
RTVSPost2010PropOp33
 70
     1
102
RTVSPost2010Prop34
280
     0
102
RTVSPost2010PropOp34
 70
     1
102
RTVSPost2010Prop35
280
     0
102
RTVSPost2010PropOp35
 70
     1
102
RTVSPost2010Prop36
280
     0
102
RTVSPost2010PropOp36
 70
     1
102
RTVSPost2010Prop37
 90
       50
102
RTVSPost2010PropOp37
 70
     1
102
RTVSPost2010Prop38
140
0.0
102
RTVSPost2010PropOp38
 70
     1
102
RTVSPost2010Prop39
140
1.0
102
RTVSPost2010PropOp39
 70
     1
102
RTVSPost2010Prop40
 90
        0
102
RTVSPost2010PropOp40
 70
     1
102
RTVSPost2010Prop41ColorIndex
 90
       18
102
RTVSPost2010Prop41ColorRGB
 90
        0
102
RTVSPost2010PropOp41
 70
     1
102
RTVSPost2010Prop42
 90
       50
102
RTVSPost2010PropOp42
 70
     1
102
RTVSPost2010Prop43
 90
        3
102
RTVSPost2010PropOp43
 70
     1
102
RTVSPost2010Prop44ColorIndex
 90
        5
102
RTVSPost2010Prop44ColorRGB
 90
      255
102
RTVSPost2010PropOp44
 70
     1
102
RTVSPost2010Prop45
280
     0
102
RTVSPost2010PropOp45
 70
     1
102
RTVSPost2010Prop46
 90
       50
102
RTVSPost2010PropOp46
 70
     1
102
RTVSPost2010Prop47
 90
       50
102
RTVSPost2010PropOp47
 70
     1
102
RTVSPost2010Prop48
 90
       50
102
RTVSPost2010PropOp48
 70
     1
102
RTVSPost2010Prop49
280
     0
102
RTVSPost2010PropOp49
 70
     1
102
RTVSPost2010Prop50
 90
       50
102
RTVSPost2010PropOp50
 70
     1
102
RTVSPost2010Prop51ColorIndex
 90
      256
102
RTVSPost2010Prop51ColorRGB
 90
-16777216
102
RTVSPost2010PropOp51
 70
     0
102
RTVSPost2010Prop52
140
1.0
102
RTVSPost2010PropOp52
 70
     0
102
RTVSPost2010Prop53
 90
        2
102
RTVSPost2010PropOp53
 70
     1
102
RTVSPost2010Prop54
  1
strokes_ogs.tif
102
RTVSPost2010PropOp54
 70
     1
102
RTVSPost2010Prop55
280
     0
102
RTVSPost2010PropOp55
 70
     1
102
RTVSPost2010Prop56
140
1.0
102
RTVSPost2010PropOp56
 70
     1
102
RTVSPost2010Prop57
140
1.0
102
RTVSPost2010PropOp57
 70
     1
102
RTVSPropertyOp0
 70
     1
102
RTVSPropertyOp1
 70
     1
102
RTVSPropertyOp2
 70
     1
102
RTVSPropertyOp3
 70
     1
102
RTVSPropertyOp4
 70
     1
102
RTVSPropertyOp5
 70
     1
102
RTVSPropertyOp6
 70
     1
102
RTVSPropertyOp7
 70
     1
102
RTVSPropertyOp8
 70
     1
102
RTVSPropertyOp9
 70
     1
102
RTVSPropertyOp10
 70
     1
102
RTVSPropertyOp11
 70
     1
102
RTVSPropertyOp12
 70
     1
102
RTVSPropertyOp13
 70
     1
102
RTVSPropertyOp14
 70
     1
102
RTVSPropertyOp15
 70
     1
102
RTVSPropertyOp16
 70
     1
102
RTVSPropertyOp17
 70
     1
102
RTVSPropertyOp18
 70
     1
102
RTVSPropertyOp19
 70
     1
102
RTVSPropertyOp20
 70
     1
102
RTVSPropertyOp21
 70
     1
102
RTVSPropertyOp22
 70
     1
102
RTVSPropertyOp23
 70
     1
102
RTVSPropertyOp24
 70
     1
102
RTVSPropertyOp25
 70
     1
102
RTVSPropertyOp26
 70
     1
102
RTVSPropertyOp27
 70
     1
102
RTVSPropertyOp28
 70
     1
102
RTVSPropertyOp29
 70
     1
102
RTVSPropertyOp30
 70
     1
102
RTVSPropertyOp31
 70
     1
102
RTVSPropertyOp32
 70
     1
102
RTVSPropertyOp33
 70
     1
102
RTVSPropertyOp34
 70
     1
102
RTVSPropertyOp35
 70
     1
102
RTVSPropertyOp36
 70
     1
102
RTVSPropertyOp37
 70
     1
102
RTVSPropertyOp38
 70
     1
102
RTVSPropertyOp39
 70
     1
102
RTVSPropertyOp40
 70
     1
102
RTVSPropertyOp41
 70
     1
102
RTVSPropertyOp42
 70
     1
102
RTVSPropertyOp43
 70
     1
102
RTVSPropertyOp44
 70
     1
102
RTVSPropertyOp45
 70
     1
102
RTVSPropertyOp46
 70
     1
102
RTVSPropertyOp47
 70
     1
102
RTVSPropertyOp48
 70
     1
102
RTVSPropertyOp49
 70
     1
102
RTVSPropertyOp50
 70
     1
102
RTVSPropertyOp51
 70
     0
102
RTVSPropertyOp52
 70
     0
102
RTVSPropertyOp53
 70
     1
102
RTVSPropertyOp54
 70
     1
102
RTVSPropertyOp55
 70
     1
102
RTVSPropertyOp56
 70
     1
102
RTVSPropertyOp57
 70
     1
102
RTVSPropertyOp58
 70
     1
102
RTVSPropertyOp59
 70
     1
102
RTVSPropertyOp60
 70
     1
102
RTVSPropertyOp61
 70
     1
102
RTVSPropertyOp62
 70
     1
  0
ENDSEC
  0
EOF
