  0
SECTION
  2
HEADER
  9
$ACADVER
  1
AC1015
  9
$ACADMAINTVER
 70
    20
  9
$DWGCODEPAGE
  3
ANSI_932
  9
$INSBASE
 10
0.0
 20
0.0
 30
0.0
  9
$EXTMIN
 10
10.0
 20
9.999999999999998
 30
0.0
  9
$EXTMAX
 10
406.533949
 20
283.200895
 30
0.0
  9
$LIMMIN
 10
0.0
 20
0.0
  9
$LIMMAX
 10
495.0
 20
341.25
  9
$ORTHOMODE
 70
     0
  9
$REGENMODE
 70
     1
  9
$FILLMODE
 70
     1
  9
$QTEXTMODE
 70
     0
  9
$MIRRTEXT
 70
     1
  9
$LTSCALE
 40
20.0
  9
$ATTMODE
 70
     1
  9
$TEXTSIZE
 40
5.0
  9
$TRACEWID
 40
1.0
  9
$TEXTSTYLE
  7
STANDARD
  9
$CLAYER
  8
0
  9
$CELTYPE
  6
BYLAYER
  9
$CECOLOR
 62
   256
  9
$CELTSCALE
 40
1.0
  9
$DISPSILH
 70
     0
  9
$DIMSCALE
 40
1.0
  9
$DIMASZ
 40
2.5
  9
$DIMEXO
 40
1.0
  9
$DIMDLI
 40
10.0
  9
$DIMRND
 40
0.0
  9
$DIMDLE
 40
0.0
  9
$DIMEXE
 40
1.0
  9
$DIMTP
 40
0.0
  9
$DIMTM
 40
0.0
  9
$DIMTXT
 40
3.2
  9
$DIMCEN
 40
0.0
  9
$DIMTSZ
 40
0.0
  9
$DIMTOL
 70
     0
  9
$DIMLIM
 70
     0
  9
$DIMTIH
 70
     0
  9
$DIMTOH
 70
     0
  9
$DIMSE1
 70
     0
  9
$DIMSE2
 70
     0
  9
$DIMTAD
 70
     3
  9
$DIMZIN
 70
     8
  9
$DIMBLK
  1

  9
$DIMASO
 70
     1
  9
$DIMSHO
 70
     1
  9
$DIMPOST
  1

  9
$DIMAPOST
  1

  9
$DIMALT
 70
     0
  9
$DIMALTD
 70
     2
  9
$DIMALTF
 40
25.4
  9
$DIMLFAC
 40
1.0
  9
$DIMTOFL
 70
     1
  9
$DIMTVP
 40
0.0
  9
$DIMTIX
 70
     0
  9
$DIMSOXD
 70
     0
  9
$DIMSAH
 70
     1
  9
$DIMBLK1
  1

  9
$DIMBLK2
  1

  9
$DIMSTYLE
  2
STANDARD
  9
$DIMCLRD
 70
     0
  9
$DIMCLRE
 70
     0
  9
$DIMCLRT
 70
     0
  9
$DIMTFAC
 40
1.0
  9
$DIMGAP
 40
1.0
  9
$DIMJUST
 70
     0
  9
$DIMSD1
 70
     0
  9
$DIMSD2
 70
     0
  9
$DIMTOLJ
 70
     1
  9
$DIMTZIN
 70
     0
  9
$DIMALTZ
 70
     0
  9
$DIMALTTZ
 70
     0
  9
$DIMUPT
 70
     0
  9
$DIMDEC
 70
     4
  9
$DIMTDEC
 70
     4
  9
$DIMALTU
 70
     2
  9
$DIMALTTD
 70
     2
  9
$DIMTXSTY
  7
STANDARD
  9
$DIMAUNIT
 70
     0
  9
$DIMADEC
 70
     0
  9
$DIMALTRND
 40
0.0
  9
$DIMAZIN
 70
     0
  9
$DIMDSEP
 70
    46
  9
$DIMATFIT
 70
     3
  9
$DIMFRAC
 70
     0
  9
$DIMLDRBLK
  1

  9
$DIMLUNIT
 70
     2
  9
$DIMLWD
 70
    -2
  9
$DIMLWE
 70
    -2
  9
$DIMTMOVE
 70
     0
  9
$LUNITS
 70
     2
  9
$LUPREC
 70
     4
  9
$SKETCHINC
 40
1.0
  9
$FILLETRAD
 40
6.0
  9
$AUNITS
 70
     0
  9
$AUPREC
 70
     2
  9
$MENU
  1
.
  9
$ELEVATION
 40
0.0
  9
$PELEVATION
 40
0.0
  9
$THICKNESS
 40
0.0
  9
$LIMCHECK
 70
     0
  9
$CHAMFERA
 40
10.0
  9
$CHAMFERB
 40
10.0
  9
$CHAMFERC
 40
0.0
  9
$CHAMFERD
 40
0.0
  9
$SKPOLY
 70
     0
  9
$TDCREATE
 40
2451301.446732407
  9
$TDUCREATE
 40
2451301.071732407
  9
$TDUPDATE
 40
2457192.690279433
  9
$TDUUPDATE
 40
2457192.315279433
  9
$TDINDWG
 40
0.1563611690
  9
$TDUSRTIMER
 40
0.1563606713
  9
$USRTIMER
 70
     1
  9
$ANGBASE
 50
0.0
  9
$ANGDIR
 70
     0
  9
$PDMODE
 70
     0
  9
$PDSIZE
 40
0.0
  9
$PLINEWID
 40
0.0
  9
$SPLFRAME
 70
     0
  9
$SPLINETYPE
 70
     6
  9
$SPLINESEGS
 70
     8
  9
$HANDSEED
  5
A10F
  9
$SURFTAB1
 70
     6
  9
$SURFTAB2
 70
     6
  9
$SURFTYPE
 70
     6
  9
$SURFU
 70
     6
  9
$SURFV
 70
     6
  9
$UCSBASE
  2

  9
$UCSNAME
  2

  9
$UCSORG
 10
0.0
 20
0.0
 30
0.0
  9
$UCSXDIR
 10
1.0
 20
0.0
 30
0.0
  9
$UCSYDIR
 10
0.0
 20
1.0
 30
0.0
  9
$UCSORTHOREF
  2

  9
$UCSORTHOVIEW
 70
     0
  9
$UCSORGTOP
 10
0.0
 20
0.0
 30
0.0
  9
$UCSORGBOTTOM
 10
0.0
 20
0.0
 30
0.0
  9
$UCSORGLEFT
 10
0.0
 20
0.0
 30
0.0
  9
$UCSORGRIGHT
 10
0.0
 20
0.0
 30
0.0
  9
$UCSORGFRONT
 10
0.0
 20
0.0
 30
0.0
  9
$UCSORGBACK
 10
0.0
 20
0.0
 30
0.0
  9
$PUCSBASE
  2

  9
$PUCSNAME
  2

  9
$PUCSORG
 10
0.0
 20
0.0
 30
0.0
  9
$PUCSXDIR
 10
1.0
 20
0.0
 30
0.0
  9
$PUCSYDIR
 10
0.0
 20
1.0
 30
0.0
  9
$PUCSORTHOREF
  2

  9
$PUCSORTHOVIEW
 70
     0
  9
$PUCSORGTOP
 10
0.0
 20
0.0
 30
0.0
  9
$PUCSORGBOTTOM
 10
0.0
 20
0.0
 30
0.0
  9
$PUCSORGLEFT
 10
0.0
 20
0.0
 30
0.0
  9
$PUCSORGRIGHT
 10
0.0
 20
0.0
 30
0.0
  9
$PUCSORGFRONT
 10
0.0
 20
0.0
 30
0.0
  9
$PUCSORGBACK
 10
0.0
 20
0.0
 30
0.0
  9
$USERI1
 70
     0
  9
$USERI2
 70
     0
  9
$USERI3
 70
     0
  9
$USERI4
 70
     0
  9
$USERI5
 70
     0
  9
$USERR1
 40
0.0
  9
$USERR2
 40
0.0
  9
$USERR3
 40
0.0
  9
$USERR4
 40
0.0
  9
$USERR5
 40
0.0
  9
$WORLDVIEW
 70
     1
  9
$SHADEDGE
 70
     3
  9
$SHADEDIF
 70
    70
  9
$TILEMODE
 70
     1
  9
$MAXACTVP
 70
    16
  9
$PINSBASE
 10
0.0
 20
0.0
 30
0.0
  9
$PLIMCHECK
 70
     0
  9
$PEXTMIN
 10
1.000000000000000E+20
 20
1.000000000000000E+20
 30
1.000000000000000E+20
  9
$PEXTMAX
 10
-1.000000000000000E+20
 20
-1.000000000000000E+20
 30
-1.000000000000000E+20
  9
$PLIMMIN
 10
0.0
 20
0.0
  9
$PLIMMAX
 10
420.0
 20
297.0
  9
$UNITMODE
 70
     0
  9
$VISRETAIN
 70
     0
  9
$PLINEGEN
 70
     0
  9
$PSLTSCALE
 70
     0
  9
$TREEDEPTH
 70
  3020
  9
$CMLSTYLE
  2
STANDARD
  9
$CMLJUST
 70
     0
  9
$CMLSCALE
 40
1.0
  9
$PROXYGRAPHICS
 70
     1
  9
$MEASUREMENT
 70
     0
  9
$CELWEIGHT
370
    -1
  9
$ENDCAPS
280
     0
  9
$JOINSTYLE
280
     0
  9
$LWDISPLAY
290
     0
  9
$INSUNITS
 70
     0
  9
$HYPERLINKBASE
  1

  9
$STYLESHEET
  1

  9
$XEDIT
290
     1
  9
$CEPSNTYPE
380
     0
  9
$PSTYLEMODE
290
     1
  9
$FINGERPRINTGUID
  2
{07D82CE8-F538-4E54-8AE1-845FAD3213C5}
  9
$VERSIONGUID
  2
{F82F50CE-54D7-4F56-AEC9-89D0D09E6A37}
  9
$EXTNAMES
290
     1
  9
$PSVPSCALE
 40
0.0
  9
$OLESTARTUP
290
     0
  0
ENDSEC
  0
SECTION
  2
CLASSES
  0
CLASS
  1
ACDBDICTIONARYWDFLT
  2
AcDbDictionaryWithDefault
  3
ObjectDBX Classes
 90
        0
280
     0
281
     0
  0
CLASS
  1
ACDBPLACEHOLDER
  2
AcDbPlaceHolder
  3
ObjectDBX Classes
 90
        0
280
     0
281
     0
  0
CLASS
  1
LAYOUT
  2
AcDbLayout
  3
ObjectDBX Classes
 90
        0
280
     0
281
     0
  0
CLASS
  1
DICTIONARYVAR
  2
AcDbDictionaryVar
  3
ObjectDBX Classes
 90
        0
280
     0
281
     0
  0
CLASS
  1
MATERIAL
  2
AcDbMaterial
  3
ObjectDBX Classes
 90
     1153
280
     0
281
     0
  0
CLASS
  1
VISUALSTYLE
  2
AcDbVisualStyle
  3
ObjectDBX Classes
 90
     4095
280
     0
281
     0
  0
CLASS
  1
TABLESTYLE
  2
AcDbTableStyle
  3
ObjectDBX Classes
 90
     4095
280
     0
281
     0
  0
CLASS
  1
SCALE
  2
AcDbScale
  3
ObjectDBX Classes
 90
     1153
280
     0
281
     0
  0
CLASS
  1
MLEADERSTYLE
  2
AcDbMLeaderStyle
  3
ACDB_MLEADERSTYLE_CLASS
 90
     4095
280
     0
281
     0
  0
CLASS
  1
ACDBSECTIONVIEWSTYLE
  2
AcDbSectionViewStyle
  3
ObjectDBX Classes
 90
     1025
280
     0
281
     0
  0
CLASS
  1
ACDBDETAILVIEWSTYLE
  2
AcDbDetailViewStyle
  3
ObjectDBX Classes
 90
     1025
280
     0
281
     0
  0
CLASS
  1
CELLSTYLEMAP
  2
AcDbCellStyleMap
  3
ObjectDBX Classes
 90
     1152
280
     0
281
     0
  0
ENDSEC
  0
SECTION
  2
TABLES
  0
TABLE
  2
VPORT
  5
9E5F
330
0
100
AcDbSymbolTable
 70
     1
  0
VPORT
  5
A05A
330
9E5F
100
AcDbSymbolTableRecord
100
AcDbViewportTableRecord
  2
*ACTIVE
 70
     0
 10
0.0
 20
0.0
 11
1.0
 21
1.0
 12
313.4405314458347
 22
146.5944107091861
 13
0.0
 23
0.0
 14
10.0
 24
10.0
 15
10.0
 25
10.0
 16
0.0
 26
0.0
 36
1.0
 17
0.0
 27
0.0
 37
0.0
 40
275.3714876882438
 41
2.35006605019815
 42
50.0
 43
0.0
 44
0.0
 50
0.0
 51
0.0
 71
     0
 72
   100
 73
     1
 74
     0
 75
     0
 76
     0
 77
     0
 78
     0
281
     0
 65
     1
110
0.0
120
0.0
130
0.0
111
1.0
121
0.0
131
0.0
112
0.0
122
1.0
132
0.0
 79
     0
146
0.0
1001
ACAD_NAV_VCDISPLAY
1070
     3
  0
ENDTAB
  0
TABLE
  2
LTYPE
  5
9E5C
330
0
100
AcDbSymbolTable
 70
     4
  0
LTYPE
  5
9E6A
330
9E5C
100
AcDbSymbolTableRecord
100
AcDbLinetypeTableRecord
  2
BYBLOCK
 70
     0
  3

 72
    65
 73
     0
 40
0.0
  0
LTYPE
  5
9E6B
330
9E5C
100
AcDbSymbolTableRecord
100
AcDbLinetypeTableRecord
  2
BYLAYER
 70
     0
  3

 72
    65
 73
     0
 40
0.0
  0
LTYPE
  5
9E6C
330
9E5C
100
AcDbSymbolTableRecord
100
AcDbLinetypeTableRecord
  2
CONTINUOUS
 70
     0
  3
Solid line
 72
    65
 73
     0
 40
0.0
  0
LTYPE
  5
9E7A
330
9E5C
100
AcDbSymbolTableRecord
100
AcDbLinetypeTableRecord
  2
DASHED
 70
     0
  3
__ __ __ __ __ __ __ __ __ __ __ __ __ __ __ __
 72
    65
 73
     2
 40
0.75
 49
0.5
 74
     0
 49
-0.25
 74
     0
  0
LTYPE
  5
9E7B
330
9E5C
100
AcDbSymbolTableRecord
100
AcDbLinetypeTableRecord
  2
CENTER
 70
     0
  3
____ _ ____ _ ____ _ ____ _ ____ _ ____ _ ____ 
 72
    65
 73
     4
 40
2.0
 49
1.25
 74
     0
 49
-0.25
 74
     0
 49
0.25
 74
     0
 49
-0.25
 74
     0
  0
LTYPE
  5
9E7C
330
9E5C
100
AcDbSymbolTableRecord
100
AcDbLinetypeTableRecord
  2
PHANTOM
 70
     0
  3
______  __  __  ______  __  __  ______  __  __ 
 72
    65
 73
     6
 40
2.5
 49
1.25
 74
     0
 49
-0.25
 74
     0
 49
0.25
 74
     0
 49
-0.25
 74
     0
 49
0.25
 74
     0
 49
-0.25
 74
     0
  0
ENDTAB
  0
TABLE
  2
LAYER
  5
9E59
330
0
100
AcDbSymbolTable
 70
     8
  0
LAYER
  5
9E67
102
{ACAD_XDICTIONARY
360
A0B3
102
}
330
9E59
100
AcDbSymbolTableRecord
100
AcDbLayerTableRecord
  2
0
 70
     0
 62
     7
  6
CONTINUOUS
370
    -3
390
A061
  0
LAYER
  5
9E7D
102
{ACAD_XDICTIONARY
360
A0B5
102
}
330
9E59
100
AcDbSymbolTableRecord
100
AcDbLayerTableRecord
  2
4
 70
     0
 62
     1
  6
CENTER
370
    -3
390
A061
  0
LAYER
  5
9E7E
102
{ACAD_XDICTIONARY
360
A0B7
102
}
330
9E59
100
AcDbSymbolTableRecord
100
AcDbLayerTableRecord
  2
5
 70
     0
 62
     6
  6
PHANTOM
370
    -3
390
A061
  0
LAYER
  5
9E7F
102
{ACAD_XDICTIONARY
360
A0B9
102
}
330
9E59
100
AcDbSymbolTableRecord
100
AcDbLayerTableRecord
  2
1
 70
     0
 62
     7
  6
CONTINUOUS
370
    -3
390
A061
  0
LAYER
  5
9E80
102
{ACAD_XDICTIONARY
360
A0BB
102
}
330
9E59
100
AcDbSymbolTableRecord
100
AcDbLayerTableRecord
  2
2
 70
     0
 62
     4
  6
CONTINUOUS
370
    -3
390
A061
  0
LAYER
  5
9E81
102
{ACAD_XDICTIONARY
360
A0BD
102
}
330
9E59
100
AcDbSymbolTableRecord
100
AcDbLayerTableRecord
  2
3
 70
     0
 62
     2
  6
DASHED
370
    -3
390
A061
  0
LAYER
  5
9E82
102
{ACAD_XDICTIONARY
360
A0BF
102
}
330
9E59
100
AcDbSymbolTableRecord
100
AcDbLayerTableRecord
  2
6
 70
     0
 62
     5
  6
CONTINUOUS
370
    -3
390
A061
  0
LAYER
  5
9E83
102
{ACAD_XDICTIONARY
360
A0C1
102
}
330
9E59
100
AcDbSymbolTableRecord
100
AcDbLayerTableRecord
  2
7
 70
     0
 62
     3
  6
CONTINUOUS
370
    -3
390
A061
  0
ENDTAB
  0
TABLE
  2
STYLE
  5
9E5A
330
0
100
AcDbSymbolTable
 70
     1
  0
STYLE
  5
9E68
330
9E5A
100
AcDbSymbolTableRecord
100
AcDbTextStyleTableRecord
  2
STANDARD
 70
     0
 40
0.0
 41
1.0
 50
0.0
 71
     0
 42
5.0
  3
txt
  4

  0
ENDTAB
  0
TABLE
  2
VIEW
  5
9E5D
330
0
100
AcDbSymbolTable
 70
     0
  0
ENDTAB
  0
TABLE
  2
UCS
  5
9E5E
330
0
100
AcDbSymbolTable
 70
     0
  0
ENDTAB
  0
TABLE
  2
APPID
  5
9E60
330
0
100
AcDbSymbolTable
 70
     3
  0
APPID
  5
9E69
330
9E60
100
AcDbSymbolTableRecord
100
AcDbRegAppTableRecord
  2
ACAD
 70
     0
  0
APPID
  5
A0CD
330
9E60
100
AcDbSymbolTableRecord
100
AcDbRegAppTableRecord
  2
ACAD_NAV_VCDISPLAY
 70
     0
  0
APPID
  5
A106
330
9E60
100
AcDbSymbolTableRecord
100
AcDbRegAppTableRecord
  2
ACAD_MLEADERVER
 70
     0
  0
ENDTAB
  0
TABLE
  2
DIMSTYLE
  5
9E61
330
0
100
AcDbSymbolTable
 70
     1
100
AcDbDimStyleTable
 71
     0
  0
DIMSTYLE
105
9E85
330
9E61
100
AcDbSymbolTableRecord
100
AcDbDimStyleTableRecord
  2
STANDARD
 70
     0
 41
2.5
 42
1.0
 43
10.0
 44
1.0
 73
     0
 74
     0
 77
     3
 78
     8
140
3.2
141
0.0
147
1.0
172
     1
173
     1
284
     8
285
     8
286
     8
340
9E68
  0
ENDTAB
  0
TABLE
  2
BLOCK_RECORD
  5
9E58
330
0
100
AcDbSymbolTable
 70
     0
  0
BLOCK_RECORD
  5
9E75
102
{ACAD_XDICTIONARY
360
A03E
102
}
330
9E58
100
AcDbSymbolTableRecord
100
AcDbBlockTableRecord
  2
*MODEL_SPACE
340
A0AF
  0
BLOCK_RECORD
  5
9E71
102
{ACAD_XDICTIONARY
360
A03C
102
}
330
9E58
100
AcDbSymbolTableRecord
100
AcDbBlockTableRecord
  2
*PAPER_SPACE
340
A0B0
  0
ENDTAB
  0
ENDSEC
  0
SECTION
  2
BLOCKS
  0
BLOCK
  5
9E76
330
9E75
100
AcDbEntity
  8
0
100
AcDbBlockBegin
  2
*MODEL_SPACE
 70
     0
 10
0.0
 20
0.0
 30
0.0
  3
*MODEL_SPACE
  1

  0
ENDBLK
  5
9E77
330
9E75
100
AcDbEntity
  8
0
100
AcDbBlockEnd
  0
BLOCK
  5
9E72
330
9E71
100
AcDbEntity
 67
     1
  8
0
100
AcDbBlockBegin
  2
*PAPER_SPACE
 70
     0
 10
0.0
 20
0.0
 30
0.0
  3
*PAPER_SPACE
  1

  0
ENDBLK
  5
9E73
330
9E71
100
AcDbEntity
 67
     1
  8
0
100
AcDbBlockEnd
  0
ENDSEC
  0
SECTION
  2
ENTITIES
  0
TEXT
  5
9E8D
330
9E75
100
AcDbEntity
  8
7
  6
Continuous
100
AcDbText
 10
10.0
 20
18.0
 30
0.0
 40
3.0
  1
TYPE No.TCA-420E-N50
100
AcDbText
  0
TEXT
  5
9E8E
330
9E75
100
AcDbEntity
  8
7
  6
Continuous
100
AcDbText
 10
10.0
 20
26.0
 30
0.0
 40
3.0
  1
CODE No.9745
100
AcDbText
  0
TEXT
  5
9E8F
330
9E75
100
AcDbEntity
  8
1
  6
Continuous
100
AcDbText
 10
10.0
 20
10.0
 30
0.0
 40
1.399999999999999
  1
LAYER
100
AcDbText
  0
TEXT
  5
9E90
330
9E75
100
AcDbEntity
  8
1
  6
Continuous
100
AcDbText
 10
17.97951099999998
 20
10.04873699999998
 30
0.0
 40
1.399999999999999
  1
1
100
AcDbText
  0
TEXT
  5
9E91
330
9E75
100
AcDbEntity
  8
7
  6
Continuous
100
AcDbText
 10
29.97951099999999
 20
10.04873699999998
 30
0.0
 40
1.399999999999999
  1
7
100
AcDbText
  0
TEXT
  5
9E92
330
9E75
100
AcDbEntity
  8
4
  6
CENTER
100
AcDbText
 10
23.97951099999999
 20
10.04873699999998
 30
0.0
 40
1.399999999999999
  1
4
100
AcDbText
  0
TEXT
  5
9E93
330
9E75
100
AcDbEntity
  8
3
  6
DASHED
100
AcDbText
 10
21.979511
 20
10.04873699999998
 30
0.0
 40
1.399999999999999
  1
3
100
AcDbText
  0
TEXT
  5
9E94
330
9E75
100
AcDbEntity
  8
2
  6
Continuous
100
AcDbText
 10
19.97951099999998
 20
10.04873699999998
 30
0.0
 40
1.399999999999999
  1
2
100
AcDbText
  0
TEXT
  5
9E95
330
9E75
100
AcDbEntity
  8
6
  6
Continuous
100
AcDbText
 10
27.979511
 20
10.04873699999998
 30
0.0
 40
1.399999999999999
  1
6
100
AcDbText
  0
TEXT
  5
9E96
330
9E75
100
AcDbEntity
  8
5
  6
PHANTOM
100
AcDbText
 10
25.97951099999999
 20
10.04873699999998
 30
0.0
 40
1.399999999999999
  1
5
100
AcDbText
  0
LINE
  5
9E97
330
9E75
100
AcDbEntity
  8
4
  6
CENTER
 48
0.5
100
AcDbLine
 10
49.033949
 20
198.700895
 30
0.0
 11
49.033949
 21
123.7008949999997
 31
0.0
  0
LINE
  5
9E98
330
9E75
100
AcDbEntity
  8
4
  6
CENTER
 48
0.5
100
AcDbLine
 10
27.533964
 20
153.700895
 30
0.0
 11
71.83393000000002
 21
153.700895
 31
0.0
  0
LINE
  5
9E99
330
9E75
100
AcDbEntity
  8
1
  6
Continuous
100
AcDbLine
 10
36.033949
 20
150.4508949999998
 30
0.0
 11
37.033949
 21
150.4508949999998
 31
0.0
  0
LINE
  5
9E9A
330
9E75
100
AcDbEntity
  8
1
  6
Continuous
100
AcDbLine
 10
36.033949
 20
156.950895
 30
0.0
 11
37.033949
 21
156.950895
 31
0.0
  0
LINE
  5
9E9B
330
9E75
100
AcDbEntity
  8
1
  6
Continuous
100
AcDbLine
 10
37.75704000000001
 20
180.393352
 30
0.0
 11
60.31085799999999
 21
180.393352
 31
0.0
  0
LINE
  5
9E9C
330
9E75
100
AcDbEntity
  8
1
  6
Continuous
100
AcDbLine
 10
37.20402299999999
 20
181.627127
 30
0.0
 11
37.75703200000001
 21
180.393347
 31
0.0
  0
LINE
  5
9E9D
330
9E75
100
AcDbEntity
  8
1
  6
Continuous
100
AcDbLine
 10
60.863852
 20
181.627135
 30
0.0
 11
60.310835
 21
180.3933539999999
 31
0.0
  0
LINE
  5
9E9E
330
9E75
100
AcDbEntity
  8
4
  6
CENTER
 48
0.5
100
AcDbLine
 10
158.533949
 20
198.700895
 30
0.0
 11
158.533949
 21
163.967531
 31
0.0
  0
LINE
  5
9E9F
330
9E75
100
AcDbEntity
  8
4
  6
CENTER
 48
0.5
100
AcDbLine
 10
191.533949
 20
271.2008949999999
 30
0.0
 11
181.533949
 21
271.2008949999999
 31
0.0
  0
LINE
  5
9EA0
330
9E75
100
AcDbEntity
  8
4
  6
CENTER
 48
0.5
100
AcDbLine
 10
186.533949
 20
276.200895
 30
0.0
 11
186.533949
 21
266.200895
 31
0.0
  0
LINE
  5
9EA1
330
9E75
100
AcDbEntity
  8
4
  6
CENTER
 48
0.5
100
AcDbLine
 10
158.533949
 20
283.200895
 30
0.0
 11
158.533949
 21
231.200895
 31
0.0
  0
LINE
  5
9EA2
330
9E75
100
AcDbEntity
  8
4
  6
CENTER
 48
0.5
100
AcDbLine
 10
196.1618629999999
 20
257.200895
 30
0.0
 11
107.5339489999997
 21
257.200895
 31
0.0
  0
LINE
  5
9EA3
330
9E75
100
AcDbEntity
  8
4
  6
CENTER
 48
0.5
100
AcDbLine
 10
191.533949
 20
243.2008909999999
 30
0.0
 11
181.533949
 21
243.2008909999999
 31
0.0
  0
LINE
  5
9EA4
330
9E75
100
AcDbEntity
  8
4
  6
CENTER
 48
0.5
100
AcDbLine
 10
186.533949
 20
238.200895
 30
0.0
 11
186.533949
 21
248.200895
 31
0.0
  0
LINE
  5
9EA5
330
9E75
100
AcDbEntity
  8
1
  6
Continuous
100
AcDbLine
 10
130.533949
 20
278.200895
 30
0.0
 11
186.533949
 21
278.200895
 31
0.0
  0
LINE
  5
9EA6
330
9E75
100
AcDbEntity
  8
4
  6
CENTER
 48
0.5
100
AcDbLine
 10
125.5339489999997
 20
271.2008949999999
 30
0.0
 11
135.533945
 21
271.2008949999999
 31
0.0
  0
LINE
  5
9EA7
330
9E75
100
AcDbEntity
  8
4
  6
CENTER
 48
0.5
100
AcDbLine
 10
130.533949
 20
276.200895
 30
0.0
 11
130.533949
 21
266.200887
 31
0.0
  0
LINE
  5
9EA8
330
9E75
100
AcDbEntity
  8
1
  6
Continuous
100
AcDbLine
 10
130.5339529999999
 20
236.200895
 30
0.0
 11
186.533949
 21
236.200895
 31
0.0
  0
LINE
  5
9EA9
330
9E75
100
AcDbEntity
  8
4
  6
CENTER
 48
0.5
100
AcDbLine
 10
125.5339489999997
 20
243.2008909999999
 30
0.0
 11
135.533949
 21
243.2008909999999
 31
0.0
  0
LINE
  5
9EAA
330
9E75
100
AcDbEntity
  8
4
  6
CENTER
 48
0.5
100
AcDbLine
 10
130.533949
 20
238.200891
 30
0.0
 11
130.533949
 21
248.200887
 31
0.0
  0
LINE
  5
9EAB
330
9E75
100
AcDbEntity
  8
1
  6
Continuous
100
AcDbLine
 10
28.033949
 20
193.700895
 30
0.0
 11
70.03394899999999
 21
193.700895
 31
0.0
  0
LINE
  5
9EAC
330
9E75
100
AcDbEntity
  8
1
  6
Continuous
100
AcDbLine
 10
28.033949
 20
191.7008949999998
 30
0.0
 11
70.03394899999999
 21
191.7008949999998
 31
0.0
  0
LINE
  5
9EAD
330
9E75
100
AcDbEntity
  8
1
  6
Continuous
100
AcDbLine
 10
32.23394600000001
 20
188.400892
 30
0.0
 11
65.833952
 21
188.400892
 31
0.0
  0
LINE
  5
9EAE
330
9E75
100
AcDbEntity
  8
1
  6
Continuous
100
AcDbLine
 10
29.97637800000001
 20
190.26119
 30
0.0
 11
29.77474
 21
191.2964839999999
 31
0.0
  0
LINE
  5
9EAF
330
9E75
100
AcDbEntity
  8
1
  6
Continuous
100
AcDbLine
 10
68.091513
 20
190.261174
 30
0.0
 11
68.293154
 21
191.296469
 31
0.0
  0
LINE
  5
9EB0
330
9E75
100
AcDbEntity
  8
1
  6
Continuous
100
AcDbLine
 10
123.5339489999997
 20
193.700895
 30
0.0
 11
193.533949
 21
193.700895
 31
0.0
  0
LINE
  5
9EB1
330
9E75
100
AcDbEntity
  8
1
  6
Continuous
100
AcDbLine
 10
123.5339489999997
 20
191.7009
 30
0.0
 11
123.5339489999997
 21
193.7008999999999
 31
0.0
  0
LINE
  5
9EB2
330
9E75
100
AcDbEntity
  8
1
  6
Continuous
100
AcDbLine
 10
123.5339489999997
 20
191.7008949999998
 30
0.0
 11
193.533949
 21
191.7008949999998
 31
0.0
  0
LINE
  5
9EB3
330
9E75
100
AcDbEntity
  8
1
  6
Continuous
100
AcDbLine
 10
141.733948
 20
188.400892
 30
0.0
 11
175.333952
 21
188.400892
 31
0.0
  0
LINE
  5
9EB4
330
9E75
100
AcDbEntity
  8
1
  6
Continuous
100
AcDbLine
 10
139.476378
 20
190.261191
 30
0.0
 11
139.274735
 21
191.2964849999999
 31
0.0
  0
LINE
  5
9EB5
330
9E75
100
AcDbEntity
  8
1
  6
Continuous
100
AcDbLine
 10
193.533949
 20
191.7008889999999
 30
0.0
 11
193.533949
 21
193.700895
 31
0.0
  0
LINE
  5
9EB6
330
9E75
100
AcDbEntity
  8
1
  6
Continuous
100
AcDbLine
 10
177.591505
 20
190.261174
 30
0.0
 11
177.79315
 21
191.2964679999998
 31
0.0
  0
LINE
  5
9EB7
330
9E75
100
AcDbEntity
  8
4
  6
CENTER
 48
0.5
100
AcDbLine
 10
130.533949
 20
186.7008949999998
 30
0.0
 11
130.533949
 21
198.700895
 31
0.0
  0
LINE
  5
9EB8
330
9E75
100
AcDbEntity
  8
4
  6
CENTER
 48
0.5
100
AcDbLine
 10
186.533949
 20
186.7008949999998
 30
0.0
 11
186.533949
 21
198.700895
 31
0.0
  0
LINE
  5
9EB9
330
9E75
100
AcDbEntity
  8
1
  6
Continuous
100
AcDbLine
 10
28.033949
 20
193.700895
 30
0.0
 11
28.033949
 21
191.7008949999998
 31
0.0
  0
LINE
  5
9EBA
330
9E75
100
AcDbEntity
  8
1
  6
Continuous
100
AcDbLine
 10
70.03394899999999
 20
193.700895
 30
0.0
 11
70.03394899999999
 21
191.7008949999998
 31
0.0
  0
LINE
  5
9EBB
330
9E75
100
AcDbEntity
  8
4
  6
CENTER
 48
0.5
100
AcDbLine
 10
35.03394899999999
 20
198.700895
 30
0.0
 11
35.03394899999999
 21
186.7008949999998
 31
0.0
  0
LINE
  5
9EBC
330
9E75
100
AcDbEntity
  8
4
  6
CENTER
 48
0.5
100
AcDbLine
 10
63.033949
 20
198.700895
 30
0.0
 11
63.033949
 21
186.7008949999998
 31
0.0
  0
LINE
  5
9EBD
330
9E75
100
AcDbEntity
  8
1
  6
Continuous
100
AcDbLine
 10
33.033949
 20
187.6608939999999
 30
0.0
 11
65.03394899999999
 21
187.6608939999999
 31
0.0
  0
LINE
  5
9EBE
330
9E75
100
AcDbEntity
  8
1
  6
Continuous
100
AcDbLine
 10
36.033949
 20
146.7527859999998
 30
0.0
 11
36.033949
 21
181.70426
 31
0.0
  0
LINE
  5
9EBF
330
9E75
100
AcDbEntity
  8
1
  6
Continuous
100
AcDbLine
 10
34.033964
 20
146.75279
 30
0.0
 11
36.03396399999999
 21
146.75279
 31
0.0
  0
LINE
  5
9EC0
330
9E75
100
AcDbEntity
  8
1
  6
Continuous
100
AcDbLine
 10
34.033964
 20
146.75279
 30
0.0
 11
34.033964
 21
181.7042589999998
 31
0.0
  0
LINE
  5
9EC1
330
9E75
100
AcDbEntity
  8
1
  6
Continuous
100
AcDbLine
 10
62.033949
 20
146.7527859999998
 30
0.0
 11
62.033949
 21
181.70426
 31
0.0
  0
LINE
  5
9EC2
330
9E75
100
AcDbEntity
  8
1
  6
Continuous
100
AcDbLine
 10
64.033934
 20
146.75279
 30
0.0
 11
62.03393399999999
 21
146.75279
 31
0.0
  0
LINE
  5
9EC3
330
9E75
100
AcDbEntity
  8
1
  6
Continuous
100
AcDbLine
 10
64.033934
 20
146.75279
 30
0.0
 11
64.033934
 21
181.7042589999998
 31
0.0
  0
LINE
  5
9EC4
330
9E75
100
AcDbEntity
  8
1
  6
Continuous
100
AcDbLine
 10
64.033934
 20
148.950895
 30
0.0
 11
64.333937
 21
148.950895
 31
0.0
  0
LINE
  5
9EC5
330
9E75
100
AcDbEntity
  8
1
  6
Continuous
100
AcDbLine
 10
64.033934
 20
158.450895
 30
0.0
 11
64.333937
 21
158.450895
 31
0.0
  0
LINE
  5
9EC6
330
9E75
100
AcDbEntity
  8
1
  6
Continuous
100
AcDbLine
 10
64.333937
 20
148.950895
 30
0.0
 11
64.333937
 21
158.450895
 31
0.0
  0
LINE
  5
9EC7
330
9E75
100
AcDbEntity
  8
1
  6
Continuous
100
AcDbLine
 10
32.53396399999999
 20
150.200895
 30
0.0
 11
32.53396399999999
 21
157.2008969999999
 31
0.0
  0
LINE
  5
9EC8
330
9E75
100
AcDbEntity
  8
1
  6
Continuous
100
AcDbLine
 10
33.53396399999999
 20
149.100897
 30
0.0
 11
33.53396399999999
 21
158.300892
 31
0.0
  0
LINE
  5
9EC9
330
9E75
100
AcDbEntity
  8
1
  6
Continuous
100
AcDbLine
 10
33.533957
 20
149.100897
 30
0.0
 11
34.033957
 21
150.4508989999999
 31
0.0
  0
LINE
  5
9ECA
330
9E75
100
AcDbEntity
  8
1
  6
Continuous
100
AcDbLine
 10
34.033964
 20
156.950895
 30
0.0
 11
33.53396399999999
 21
158.3008949999999
 31
0.0
  0
LINE
  5
9ECB
330
9E75
100
AcDbEntity
  8
1
  6
Continuous
100
AcDbLine
 10
131.7812419999998
 20
181.255969
 30
0.0
 11
134.2432599999999
 21
181.690089
 31
0.0
  0
LINE
  5
9ECC
330
9E75
100
AcDbEntity
  8
1
  6
Continuous
100
AcDbLine
 10
131.433941
 20
183.2255849999999
 30
0.0
 11
142.678883
 21
185.208371
 31
0.0
  0
LINE
  5
9ECD
330
9E75
100
AcDbEntity
  8
1
  6
Continuous
100
AcDbLine
 10
131.433945
 20
183.22558
 30
0.0
 11
131.7812419999998
 21
181.2559639999999
 31
0.0
  0
LINE
  5
9ECE
330
9E75
100
AcDbEntity
  8
1
  6
Continuous
100
AcDbLine
 10
139.383951
 20
184.6273789999999
 30
0.0
 11
140.136604
 21
186.057825
 31
0.0
  0
LINE
  5
9ECF
330
9E75
100
AcDbEntity
  8
1
  6
Continuous
100
AcDbLine
 10
142.7915209999999
 20
187.6608939999999
 30
0.0
 11
174.2763809999999
 21
187.6608939999999
 31
0.0
  0
LINE
  5
9ED0
330
9E75
100
AcDbEntity
  8
1
  6
Continuous
100
AcDbLine
 10
133.8959659999999
 20
183.659701
 30
0.0
 11
134.259974
 21
181.595299
 31
0.0
  0
LINE
  5
9ED1
330
9E75
100
AcDbEntity
  8
1
  6
Continuous
100
AcDbLine
 10
145.533949
 20
183.9415149999999
 30
0.0
 11
145.533949
 21
157.5930209999999
 31
0.0
  0
LINE
  5
9ED2
330
9E75
100
AcDbEntity
  8
4
  6
CENTER
 48
0.5
100
AcDbLine
 10
167.5339489999998
 20
153.700895
 30
0.0
 11
107.5339489999997
 21
153.700895
 31
0.0
  0
LINE
  5
9ED3
330
9E75
100
AcDbEntity
  8
4
  6
CENTER
 48
0.5
100
AcDbLine
 10
137.5339489999997
 20
181.200895
 30
0.0
 11
137.5339489999997
 21
123.7008949999997
 31
0.0
  0
LINE
  5
9ED4
330
9E75
100
AcDbEntity
  8
1
  6
Continuous
100
AcDbLine
 10
134.2658919999997
 20
181.2857539999999
 30
0.0
 11
130.5988879999999
 21
154.552168
 31
0.0
  0
LINE
  5
9ED5
330
9E75
100
AcDbEntity
  8
1
  6
Continuous
100
AcDbLine
 10
162.7856509999998
 20
175.94998
 30
0.0
 11
143.1603149999999
 21
149.4362849999999
 31
0.0
  0
LINE
  5
9ED6
330
9E75
100
AcDbEntity
  8
1
  6
Continuous
100
AcDbLine
 10
168.883993
 20
179.115304
 30
0.0
 11
177.533949
 21
179.4173679999999
 31
0.0
  0
LINE
  5
9ED7
330
9E75
100
AcDbEntity
  8
1
  6
Continuous
100
AcDbLine
 10
61.033949
 20
156.950895
 30
0.0
 11
62.033949
 21
156.950895
 31
0.0
  0
LINE
  5
9ED8
330
9E75
100
AcDbEntity
  8
1
  6
Continuous
100
AcDbLine
 10
61.033949
 20
150.4508949999998
 30
0.0
 11
62.033949
 21
150.4508949999998
 31
0.0
  0
ARC
  5
9ED9
330
9E75
100
AcDbEntity
  8
1
  6
Continuous
100
AcDbCircle
 10
186.533949
 20
271.2008949999999
 30
0.0
 40
7.0
100
AcDbArc
 50
340.76692
 51
89.99996800000003
  0
ARC
  5
9EDA
330
9E75
100
AcDbEntity
  8
1
  6
Continuous
100
AcDbCircle
 10
186.533949
 20
243.200895
 30
0.0
 40
7.0
100
AcDbArc
 50
270.0
 51
19.233055
  0
ARC
  5
9EDB
330
9E75
100
AcDbEntity
  8
1
  6
Continuous
100
AcDbCircle
 10
226.6618589999999
 20
257.2009029999999
 30
0.0
 40
35.49999600000001
100
AcDbArc
 50
160.7508329999998
 51
199.23307
  0
ARC
  5
9EDC
330
9E75
100
AcDbEntity
  8
1
  6
Continuous
100
AcDbCircle
 10
130.533949
 20
271.200887
 30
0.0
 40
7.0
100
AcDbArc
 50
89.99998199999996
 51
199.23301
  0
ARC
  5
9EDD
330
9E75
100
AcDbEntity
  8
1
  6
Continuous
100
AcDbCircle
 10
130.5339529999999
 20
243.200895
 30
0.0
 40
7.0
100
AcDbArc
 50
160.76689
 51
269.99995
  0
ARC
  5
9EDE
330
9E75
100
AcDbEntity
  8
1
  6
Continuous
100
AcDbCircle
 10
90.40603500000001
 20
257.200887
 30
0.0
 40
35.49999600000001
100
AcDbArc
 50
340.7668799999999
 51
19.241066
  0
CIRCLE
  5
9EDF
330
9E75
100
AcDbEntity
  8
1
  6
Continuous
100
AcDbCircle
 10
158.533949
 20
257.200895
 30
0.0
 40
17.25
  0
CIRCLE
  5
9EE0
330
9E75
100
AcDbEntity
  8
1
  6
Continuous
100
AcDbCircle
 10
158.533949
 20
257.200895
 30
0.0
 40
15.75
  0
CIRCLE
  5
9EE1
330
9E75
100
AcDbEntity
  8
1
  6
Continuous
100
AcDbCircle
 10
158.533949
 20
257.200895
 30
0.0
 40
8.3
  0
CIRCLE
  5
9EE2
330
9E75
100
AcDbEntity
  8
1
  6
Continuous
100
AcDbCircle
 10
158.533949
 20
257.200895
 30
0.0
 40
6.75
  0
ARC
  5
9EE3
330
9E75
100
AcDbEntity
  8
1
  6
Continuous
100
AcDbCircle
 10
29.283949
 20
191.2008979999999
 30
0.0
 40
0.5
100
AcDbArc
 50
11.021507
 51
90.00000900000001
  0
ARC
  5
9EE4
330
9E75
100
AcDbEntity
  8
1
  6
Continuous
100
AcDbCircle
 10
32.219526
 20
191.200859
 30
0.0
 40
2.799999999999998
100
AcDbArc
 50
270.00002
 51
271.65221
  0
ARC
  5
9EE5
330
9E75
100
AcDbEntity
  8
1
  6
Continuous
100
AcDbCircle
 10
32.23394600000001
 20
190.7008969999999
 30
0.0
 40
2.299999999999998
100
AcDbArc
 50
191.02148
 51
269.9999899999999
  0
ARC
  5
9EE6
330
9E75
100
AcDbEntity
  8
1
  6
Continuous
100
AcDbCircle
 10
68.78394899999999
 20
191.2008909999999
 30
0.0
 40
0.5
100
AcDbArc
 50
89.999955
 51
168.97846
  0
ARC
  5
9EE7
330
9E75
100
AcDbEntity
  8
1
  6
Continuous
100
AcDbCircle
 10
65.833952
 20
190.7008919999999
 30
0.0
 40
2.299999999999998
100
AcDbArc
 50
270.00002
 51
348.9785299999998
  0
ARC
  5
9EE8
330
9E75
100
AcDbEntity
  8
1
  6
Continuous
100
AcDbCircle
 10
52.95457299999998
 20
188.745394
 30
0.0
 40
1.984499999999996
100
AcDbArc
 50
189.9969899999999
 51
213.12621
  0
ARC
  5
9EE9
330
9E75
100
AcDbEntity
  8
1
  6
Continuous
100
AcDbCircle
 10
49.033949
 20
188.745394
 30
0.0
 40
1.984499999999996
100
AcDbArc
 50
326.8737799999998
 51
350.00299
  0
ARC
  5
9EEA
330
9E75
100
AcDbEntity
  8
1
  6
Continuous
100
AcDbCircle
 10
56.495268
 20
188.745394
 30
0.0
 40
1.984499999999996
100
AcDbArc
 50
206.86325
 51
213.12621
  0
ARC
  5
9EEB
330
9E75
100
AcDbEntity
  8
1
  6
Continuous
100
AcDbCircle
 10
59.312933
 20
188.745394
 30
0.0
 40
1.984499999999996
100
AcDbArc
 50
326.8737799999998
 51
350.00299
  0
ARC
  5
9EEC
330
9E75
100
AcDbEntity
  8
1
  6
Continuous
100
AcDbCircle
 10
61.134535
 20
188.745394
 30
0.0
 40
1.984499999999996
100
AcDbArc
 50
326.8737799999998
 51
350.00299
  0
ARC
  5
9EED
330
9E75
100
AcDbEntity
  8
1
  6
Continuous
100
AcDbCircle
 10
61.783949
 20
188.745394
 30
0.0
 40
1.984499999999996
100
AcDbArc
 50
326.8737799999998
 51
350.00299
  0
ARC
  5
9EEE
330
9E75
100
AcDbEntity
  8
1
  6
Continuous
100
AcDbCircle
 10
45.113325
 20
188.745394
 30
0.0
 40
1.984499999999996
100
AcDbArc
 50
189.99704
 51
213.12621
  0
ARC
  5
9EEF
330
9E75
100
AcDbEntity
  8
1
  6
Continuous
100
AcDbCircle
 10
49.033949
 20
188.745394
 30
0.0
 40
1.984499999999996
100
AcDbArc
 50
189.9970599999999
 51
213.12621
  0
ARC
  5
9EF0
330
9E75
100
AcDbEntity
  8
1
  6
Continuous
100
AcDbCircle
 10
41.57262999999999
 20
188.745394
 30
0.0
 40
1.984499999999996
100
AcDbArc
 50
189.9970599999999
 51
213.12621
  0
ARC
  5
9EF1
330
9E75
100
AcDbEntity
  8
1
  6
Continuous
100
AcDbCircle
 10
38.754965
 20
188.745394
 30
0.0
 40
1.984499999999996
100
AcDbArc
 50
189.9970599999999
 51
213.12621
  0
ARC
  5
9EF2
330
9E75
100
AcDbEntity
  8
1
  6
Continuous
100
AcDbCircle
 10
36.933363
 20
188.745394
 30
0.0
 40
1.984499999999996
100
AcDbArc
 50
189.9970599999999
 51
213.12621
  0
ARC
  5
9EF3
330
9E75
100
AcDbEntity
  8
1
  6
Continuous
100
AcDbCircle
 10
36.28394899999999
 20
188.745394
 30
0.0
 40
1.984499999999996
100
AcDbArc
 50
189.9970599999999
 51
213.12621
  0
ARC
  5
9EF4
330
9E75
100
AcDbEntity
  8
1
  6
Continuous
100
AcDbCircle
 10
138.783949
 20
191.2008979999999
 30
0.0
 40
0.5
100
AcDbArc
 50
11.021507
 51
90.00000900000001
  0
ARC
  5
9EF5
330
9E75
100
AcDbEntity
  8
1
  6
Continuous
100
AcDbCircle
 10
141.7195259999997
 20
191.200859
 30
0.0
 40
2.799999999999998
100
AcDbArc
 50
270.00002
 51
271.65221
  0
ARC
  5
9EF6
330
9E75
100
AcDbEntity
  8
1
  6
Continuous
100
AcDbCircle
 10
141.733948
 20
190.7008969999999
 30
0.0
 40
2.299999999999998
100
AcDbArc
 50
191.02148
 51
269.9999899999999
  0
ARC
  5
9EF7
330
9E75
100
AcDbEntity
  8
1
  6
Continuous
100
AcDbCircle
 10
178.283949
 20
191.2008909999999
 30
0.0
 40
0.5
100
AcDbArc
 50
89.999955
 51
168.97846
  0
ARC
  5
9EF8
330
9E75
100
AcDbEntity
  8
1
  6
Continuous
100
AcDbCircle
 10
175.333952
 20
190.7008919999999
 30
0.0
 40
2.299999999999998
100
AcDbArc
 50
270.00002
 51
348.9785299999998
  0
ARC
  5
9EF9
330
9E75
100
AcDbEntity
  8
1
  6
Continuous
100
AcDbCircle
 10
162.454573
 20
188.745394
 30
0.0
 40
1.984499999999996
100
AcDbArc
 50
189.9969899999999
 51
213.12621
  0
ARC
  5
9EFA
330
9E75
100
AcDbEntity
  8
1
  6
Continuous
100
AcDbCircle
 10
158.533949
 20
188.745394
 30
0.0
 40
1.984499999999996
100
AcDbArc
 50
326.8737699999998
 51
350.00299
  0
ARC
  5
9EFB
330
9E75
100
AcDbEntity
  8
1
  6
Continuous
100
AcDbCircle
 10
165.9952679999999
 20
188.745394
 30
0.0
 40
1.984499999999996
100
AcDbArc
 50
206.86325
 51
213.12621
  0
ARC
  5
9EFC
330
9E75
100
AcDbEntity
  8
1
  6
Continuous
100
AcDbCircle
 10
168.8129329999999
 20
188.745394
 30
0.0
 40
1.984499999999996
100
AcDbArc
 50
326.8737699999998
 51
350.00299
  0
ARC
  5
9EFD
330
9E75
100
AcDbEntity
  8
1
  6
Continuous
100
AcDbCircle
 10
170.634535
 20
188.745394
 30
0.0
 40
1.984499999999996
100
AcDbArc
 50
326.8737699999998
 51
350.00299
  0
ARC
  5
9EFE
330
9E75
100
AcDbEntity
  8
1
  6
Continuous
100
AcDbCircle
 10
171.283949
 20
188.745394
 30
0.0
 40
1.984499999999996
100
AcDbArc
 50
326.8737699999998
 51
350.00299
  0
ARC
  5
9EFF
330
9E75
100
AcDbEntity
  8
1
  6
Continuous
100
AcDbCircle
 10
154.613325
 20
188.745394
 30
0.0
 40
1.984499999999996
100
AcDbArc
 50
189.99704
 51
213.12621
  0
ARC
  5
9F00
330
9E75
100
AcDbEntity
  8
1
  6
Continuous
100
AcDbCircle
 10
158.533949
 20
188.745394
 30
0.0
 40
1.984499999999996
100
AcDbArc
 50
189.9970599999999
 51
213.12621
  0
ARC
  5
9F01
330
9E75
100
AcDbEntity
  8
1
  6
Continuous
100
AcDbCircle
 10
151.0726299999998
 20
188.745394
 30
0.0
 40
1.984499999999996
100
AcDbArc
 50
189.9970599999999
 51
213.12621
  0
ARC
  5
9F02
330
9E75
100
AcDbEntity
  8
1
  6
Continuous
100
AcDbCircle
 10
148.2549649999999
 20
188.745394
 30
0.0
 40
1.984499999999996
100
AcDbArc
 50
189.9970599999999
 51
213.12621
  0
ARC
  5
9F03
330
9E75
100
AcDbEntity
  8
1
  6
Continuous
100
AcDbCircle
 10
146.4333629999998
 20
188.745394
 30
0.0
 40
1.984499999999996
100
AcDbArc
 50
189.9970599999999
 51
213.12621
  0
ARC
  5
9F04
330
9E75
100
AcDbEntity
  8
1
  6
Continuous
100
AcDbCircle
 10
145.783949
 20
188.745394
 30
0.0
 40
1.984499999999996
100
AcDbArc
 50
189.9970599999999
 51
213.12621
  0
ARC
  5
9F05
330
9E75
100
AcDbEntity
  8
1
  6
Continuous
100
AcDbCircle
 10
49.033949
 20
369.9722249999999
 30
0.0
 40
188.71625
100
AcDbArc
 50
266.04995
 51
273.9500299999999
  0
ARC
  5
9F06
330
9E75
100
AcDbEntity
  8
1
  6
Continuous
100
AcDbCircle
 10
36.033949
 20
181.7042589999998
 30
0.0
 40
2.0
100
AcDbArc
 50
112.0263899999999
 51
179.9999899999999
  0
ARC
  5
9F07
330
9E75
100
AcDbEntity
  8
1
  6
Continuous
100
AcDbCircle
 10
49.033949
 20
467.502895
 30
0.0
 40
284.27734
100
AcDbArc
 50
267.2275899999998
 51
272.7723899999999
  0
ARC
  5
9F08
330
9E75
100
AcDbEntity
  8
1
  6
Continuous
100
AcDbCircle
 10
49.033949
 20
277.2391489999999
 30
0.0
 40
92.611763
100
AcDbArc
 50
261.46176
 51
278.53822
  0
ARC
  5
9F09
330
9E75
100
AcDbEntity
  8
1
  6
Continuous
100
AcDbCircle
 10
61.97495100000001
 20
170.79731
 30
0.0
 40
32.0
100
AcDbArc
 50
183.47975
 51
204.29943
  0
ARC
  5
9F0A
330
9E75
100
AcDbEntity
  8
1
  6
Continuous
100
AcDbCircle
 10
36.09294699999999
 20
170.79731
 30
0.0
 40
32.0
100
AcDbArc
 50
335.74236
 51
356.5202499999998
  0
ARC
  5
9F0B
330
9E75
100
AcDbEntity
  8
1
  6
Continuous
100
AcDbCircle
 10
62.033949
 20
181.7042589999998
 30
0.0
 40
2.0
100
AcDbArc
 50
359.99997
 51
67.97357099999999
  0
ARC
  5
9F0C
330
9E75
100
AcDbEntity
  8
1
  6
Continuous
100
AcDbCircle
 10
61.071425
 20
153.700895
 30
0.0
 40
5.762504999999999
100
AcDbArc
 50
304.48304
 51
55.51696899999999
  0
ARC
  5
9F0D
330
9E75
100
AcDbEntity
  8
1
  6
Continuous
100
AcDbCircle
 10
35.18456900000001
 20
155.795801
 30
0.0
 40
3.0
100
AcDbArc
 50
123.38087
 51
152.0717699999998
  0
ARC
  5
9F0E
330
9E75
100
AcDbEntity
  8
1
  6
Continuous
100
AcDbCircle
 10
35.18456900000001
 20
151.6059929999999
 30
0.0
 40
3.0
100
AcDbArc
 50
207.9282599999999
 51
236.6191499999999
  0
ARC
  5
9F0F
330
9E75
100
AcDbEntity
  8
1
  6
Continuous
100
AcDbCircle
 10
45.113325
 20
188.745394
 30
0.0
 40
1.984499999999996
100
AcDbArc
 50
326.8737799999998
 51
350.0030499999998
  0
ARC
  5
9F10
330
9E75
100
AcDbEntity
  8
1
  6
Continuous
100
AcDbCircle
 10
41.57262999999999
 20
188.745394
 30
0.0
 40
1.984499999999996
100
AcDbArc
 50
326.8737799999998
 51
333.1367799999998
  0
ARC
  5
9F11
330
9E75
100
AcDbEntity
  8
1
  6
Continuous
100
AcDbCircle
 10
52.95457299999998
 20
188.745394
 30
0.0
 40
1.984499999999996
100
AcDbArc
 50
326.8737799999998
 51
350.00299
  0
ARC
  5
9F12
330
9E75
100
AcDbEntity
  8
1
  6
Continuous
100
AcDbCircle
 10
56.495268
 20
188.745394
 30
0.0
 40
1.984499999999996
100
AcDbArc
 50
326.8737799999998
 51
350.00299
  0
ARC
  5
9F13
330
9E75
100
AcDbEntity
  8
1
  6
Continuous
100
AcDbCircle
 10
154.613325
 20
188.745394
 30
0.0
 40
1.984499999999996
100
AcDbArc
 50
326.8737699999998
 51
350.0030499999998
  0
ARC
  5
9F14
330
9E75
100
AcDbEntity
  8
1
  6
Continuous
100
AcDbCircle
 10
137.5339489999997
 20
153.600897
 30
0.0
 40
7.0
100
AcDbArc
 50
172.1895899999999
 51
323.4912799999999
  0
ARC
  5
9F15
330
9E75
100
AcDbEntity
  8
1
  6
Continuous
100
AcDbCircle
 10
142.7915209999999
 20
184.6608939999999
 30
0.0
 40
3.0
100
AcDbArc
 50
89.99998199999996
 51
152.24815
  0
ARC
  5
9F16
330
9E75
100
AcDbEntity
  8
1
  6
Continuous
100
AcDbCircle
 10
174.2763809999999
 20
184.6608939999999
 30
0.0
 40
3.0
100
AcDbArc
 50
6.796801999999997
 51
89.99998199999996
  0
ARC
  5
9F17
330
9E75
100
AcDbEntity
  8
1
  6
Continuous
100
AcDbCircle
 10
133.2751679999997
 20
181.42165
 30
0.0
 40
1.0
100
AcDbArc
 50
352.1895799999999
 51
10.0
  0
CIRCLE
  5
9F18
330
9E75
100
AcDbEntity
  8
1
  6
Continuous
100
AcDbCircle
 10
137.5339489999997
 20
153.700895
 30
0.0
 40
4.75
  0
ARC
  5
9F19
330
9E75
100
AcDbEntity
  8
1
  6
Continuous
100
AcDbCircle
 10
162.454573
 20
188.745394
 30
0.0
 40
1.984499999999996
100
AcDbArc
 50
326.8737699999998
 51
350.00299
  0
ARC
  5
9F1A
330
9E75
100
AcDbEntity
  8
1
  6
Continuous
100
AcDbCircle
 10
165.9952679999999
 20
188.745394
 30
0.0
 40
1.984499999999996
100
AcDbArc
 50
326.8737699999998
 51
350.00299
  0
ARC
  5
9F1B
330
9E75
100
AcDbEntity
  8
1
  6
Continuous
100
AcDbCircle
 10
151.0726299999998
 20
188.745394
 30
0.0
 40
1.984499999999996
100
AcDbArc
 50
326.8737699999998
 51
333.1367799999998
  0
ARC
  5
9F1C
330
9E75
100
AcDbEntity
  8
1
  6
Continuous
100
AcDbCircle
 10
169.1631909999999
 20
171.120178
 30
0.0
 40
8.0
100
AcDbArc
 50
92.00003199999995
 51
143.32582
  0
LINE
  5
9F1D
330
9E75
100
AcDbEntity
  8
1
  6
Continuous
100
AcDbLine
 10
68.03394899999999
 20
184.6608939999999
 30
0.0
 11
68.03394899999999
 21
168.8550449999999
 31
0.0
  0
LINE
  5
9F1E
330
9E75
100
AcDbEntity
  8
1
  6
Continuous
100
AcDbLine
 10
30.03394899999999
 20
184.6608939999999
 30
0.0
 11
30.03394899999999
 21
168.8550449999999
 31
0.0
  0
ARC
  5
9F1F
330
9E75
100
AcDbEntity
  8
1
  6
Continuous
100
AcDbCircle
 10
65.03394899999999
 20
184.6608939999999
 30
0.0
 40
3.0
100
AcDbArc
 50
0.0
 51
90.0
  0
ARC
  5
9F20
330
9E75
100
AcDbEntity
  8
1
  6
Continuous
100
AcDbCircle
 10
33.033949
 20
184.6608939999999
 30
0.0
 40
3.0
100
AcDbArc
 50
90.0
 51
180.0
  0
LINE
  5
9F21
330
9E75
100
AcDbEntity
  8
1
  6
Continuous
100
AcDbLine
 10
177.2552969999999
 20
185.01594
 30
0.0
 11
177.533949
 21
179.4173679999999
 31
0.0
  0
LINE
  5
9F22
330
9E75
100
AcDbEntity
  8
4
  6
CENTER
 48
0.5
100
AcDbLine
 10
137.5339489999997
 20
281.200895
 30
0.0
 11
137.5339489999997
 21
233.200895
 31
0.0
  0
LINE
  5
9F23
330
9E75
100
AcDbEntity
  8
1
  6
Continuous
100
AcDbLine
 10
130.5339529999999
 20
86.20089499999997
 30
0.0
 11
186.533949
 21
86.20089499999997
 31
0.0
  0
LINE
  5
9F24
330
9E75
100
AcDbEntity
  8
1
  6
Continuous
100
AcDbLine
 10
130.533949
 20
44.200895
 30
0.0
 11
186.533949
 21
44.200895
 31
0.0
  0
LINE
  5
9F25
330
9E75
100
AcDbEntity
  8
4
  6
CENTER
 48
0.5
100
AcDbLine
 10
196.1618629999999
 20
65.20089499999999
 30
0.0
 11
107.5339489999997
 21
65.20089499999999
 31
0.0
  0
LINE
  5
9F26
330
9E75
100
AcDbEntity
  8
4
  6
CENTER
 48
0.5
100
AcDbLine
 10
137.5339489999997
 20
41.200895
 30
0.0
 11
137.5339489999997
 21
89.20089499999996
 31
0.0
  0
ARC
  5
9F27
330
9E75
100
AcDbEntity
  8
1
  6
Continuous
100
AcDbCircle
 10
90.40603500000001
 20
65.20090299999999
 30
0.0
 40
35.49999600000001
100
AcDbArc
 50
340.758934
 51
342.79599
  0
LINE
  5
9F28
330
9E75
100
AcDbEntity
  8
4
  6
CENTER
 48
0.5
100
AcDbLine
 10
158.533949
 20
39.200895
 30
0.0
 11
158.533949
 21
91.20089499999997
 31
0.0
  0
ARC
  5
9F29
330
9E75
100
AcDbEntity
  8
1
  6
Continuous
100
AcDbCircle
 10
130.5339529999999
 20
79.20089499999997
 30
0.0
 40
7.0
100
AcDbArc
 50
90.00004999999999
 51
199.23311
  0
LINE
  5
9F2A
330
9E75
100
AcDbEntity
  8
4
  6
CENTER
 48
0.5
100
AcDbLine
 10
125.5339489999997
 20
79.20089899999998
 30
0.0
 11
135.533949
 21
79.20089899999998
 31
0.0
  0
LINE
  5
9F2B
330
9E75
100
AcDbEntity
  8
4
  6
CENTER
 48
0.5
100
AcDbLine
 10
130.533949
 20
84.20089899999998
 30
0.0
 11
130.533949
 21
74.20090299999998
 31
0.0
  0
ARC
  5
9F2C
330
9E75
100
AcDbEntity
  8
1
  6
Continuous
100
AcDbCircle
 10
130.533949
 20
51.20090300000001
 30
0.0
 40
7.0
100
AcDbArc
 50
160.7669899999999
 51
270.0000179999999
  0
LINE
  5
9F2D
330
9E75
100
AcDbEntity
  8
4
  6
CENTER
 48
0.5
100
AcDbLine
 10
130.533949
 20
46.200895
 30
0.0
 11
130.533949
 21
56.20090300000001
 31
0.0
  0
LINE
  5
9F2E
330
9E75
100
AcDbEntity
  8
4
  6
CENTER
 48
0.5
100
AcDbLine
 10
125.5339489999997
 20
51.200895
 30
0.0
 11
135.533945
 21
51.200895
 31
0.0
  0
ARC
  5
9F2F
330
9E75
100
AcDbEntity
  8
1
  6
Continuous
100
AcDbCircle
 10
226.6618589999999
 20
65.20088699999999
 30
0.0
 40
35.49999600000001
100
AcDbArc
 50
160.7669299999997
 51
199.2491669999998
  0
ARC
  5
9F30
330
9E75
100
AcDbEntity
  8
1
  6
Continuous
100
AcDbCircle
 10
186.533949
 20
79.20089499999997
 30
0.0
 40
7.0
100
AcDbArc
 50
340.766945
 51
90.0
  0
LINE
  5
9F31
330
9E75
100
AcDbEntity
  8
4
  6
CENTER
 48
0.5
100
AcDbLine
 10
191.533949
 20
79.20089899999998
 30
0.0
 11
181.533949
 21
79.20089899999998
 31
0.0
  0
LINE
  5
9F32
330
9E75
100
AcDbEntity
  8
4
  6
CENTER
 48
0.5
100
AcDbLine
 10
186.533949
 20
84.20089500000001
 30
0.0
 11
186.533949
 21
74.20089499999997
 31
0.0
  0
ARC
  5
9F33
330
9E75
100
AcDbEntity
  8
1
  6
Continuous
100
AcDbCircle
 10
186.533949
 20
51.200895
 30
0.0
 40
7.0
100
AcDbArc
 50
270.000032
 51
19.23307999999997
  0
LINE
  5
9F34
330
9E75
100
AcDbEntity
  8
4
  6
CENTER
 48
0.5
100
AcDbLine
 10
186.533949
 20
46.200895
 30
0.0
 11
186.533949
 21
56.20089499999998
 31
0.0
  0
LINE
  5
9F35
330
9E75
100
AcDbEntity
  8
4
  6
CENTER
 48
0.5
100
AcDbLine
 10
191.533949
 20
51.200895
 30
0.0
 11
181.533949
 21
51.200895
 31
0.0
  0
LINE
  5
9F36
330
9E75
100
AcDbEntity
  8
4
  6
CENTER
 48
0.5
100
AcDbLine
 10
257.033949
 20
198.700895
 30
0.0
 11
257.033949
 21
123.7008949999997
 31
0.0
  0
LINE
  5
9F37
330
9E75
100
AcDbEntity
  8
1
  6
Continuous
100
AcDbLine
 10
242.033964
 20
146.75279
 30
0.0
 11
244.033964
 21
146.75279
 31
0.0
  0
LINE
  5
9F38
330
9E75
100
AcDbEntity
  8
1
  6
Continuous
100
AcDbLine
 10
273.0339489999999
 20
187.6608939999999
 30
0.0
 11
241.0339490000001
 21
187.6608939999999
 31
0.0
  0
LINE
  5
9F39
330
9E75
100
AcDbEntity
  8
1
  6
Continuous
100
AcDbLine
 10
273.833952
 20
188.400892
 30
0.0
 11
240.2339449999999
 21
188.400892
 31
0.0
  0
LINE
  5
9F3A
330
9E75
100
AcDbEntity
  8
1
  6
Continuous
100
AcDbLine
 10
278.033949
 20
191.7008949999998
 30
0.0
 11
236.033949
 21
191.7008949999998
 31
0.0
  0
LINE
  5
9F3B
330
9E75
100
AcDbEntity
  8
1
  6
Continuous
100
AcDbLine
 10
278.033949
 20
193.700895
 30
0.0
 11
236.033949
 21
193.700895
 31
0.0
  0
LINE
  5
9F3C
330
9E75
100
AcDbEntity
  8
4
  6
CENTER
 48
0.5
100
AcDbLine
 10
278.5339339999998
 20
153.700895
 30
0.0
 11
234.2339669999998
 21
153.700895
 31
0.0
  0
LINE
  5
9F3D
330
9E75
100
AcDbEntity
  8
1
  6
Continuous
100
AcDbLine
 10
276.033949
 20
184.6608939999999
 30
0.0
 11
276.033949
 21
168.8550449999999
 31
0.0
  0
LINE
  5
9F3E
330
9E75
100
AcDbEntity
  8
1
  6
Continuous
100
AcDbLine
 10
244.0339489999999
 20
146.7527859999998
 30
0.0
 11
244.0339489999999
 21
179.4173679999999
 31
0.0
  0
LINE
  5
9F3F
330
9E75
100
AcDbEntity
  8
1
  6
Continuous
100
AcDbLine
 10
272.0339339999998
 20
146.75279
 30
0.0
 11
272.0339339999998
 21
154.3455789999998
 31
0.0
  0
LINE
  5
9F40
330
9E75
100
AcDbEntity
  8
1
  6
Continuous
100
AcDbLine
 10
270.033949
 20
146.7527859999998
 30
0.0
 11
270.033949
 21
179.4173679999999
 31
0.0
  0
ARC
  5
9F41
330
9E75
100
AcDbEntity
  8
1
  6
Continuous
100
AcDbCircle
 10
270.883329
 20
155.795801
 30
0.0
 40
3.0
100
AcDbArc
 50
27.92823
 51
32.723196
  0
LINE
  5
9F42
330
9E75
100
AcDbEntity
  8
1
  6
Continuous
100
AcDbLine
 10
272.533934
 20
149.100897
 30
0.0
 11
272.533934
 21
155.547931
 31
0.0
  0
ARC
  5
9F43
330
9E75
100
AcDbEntity
  8
1
  6
Continuous
100
AcDbCircle
 10
270.883329
 20
151.6059929999999
 30
0.0
 40
3.0
100
AcDbArc
 50
303.38085
 51
332.0717399999998
  0
LINE
  5
9F44
330
9E75
100
AcDbEntity
  8
1
  6
Continuous
100
AcDbLine
 10
272.533941
 20
149.100897
 30
0.0
 11
272.033941
 21
150.4508989999999
 31
0.0
  0
LINE
  5
9F45
330
9E75
100
AcDbEntity
  8
1
  6
Continuous
100
AcDbLine
 10
273.5339339999999
 20
150.200895
 30
0.0
 11
273.5339339999999
 21
157.717159
 31
0.0
  0
LINE
  5
9F46
330
9E75
100
AcDbEntity
  8
1
  6
Continuous
100
AcDbLine
 10
272.0339339999998
 20
146.75279
 30
0.0
 11
270.0339339999998
 21
146.75279
 31
0.0
  0
LINE
  5
9F47
330
9E75
100
AcDbEntity
  8
1
  6
Continuous
100
AcDbLine
 10
270.033949
 20
156.950895
 30
0.0
 11
269.0339489999999
 21
156.950895
 31
0.0
  0
LINE
  5
9F48
330
9E75
100
AcDbEntity
  8
1
  6
Continuous
100
AcDbLine
 10
270.033949
 20
150.4508949999998
 30
0.0
 11
269.0339489999999
 21
150.4508949999998
 31
0.0
  0
LINE
  5
9F49
330
9E75
100
AcDbEntity
  8
1
  6
Continuous
100
AcDbLine
 10
245.0339490000001
 20
150.4508949999998
 30
0.0
 11
244.0339489999999
 21
150.4508949999998
 31
0.0
  0
LINE
  5
9F4A
330
9E75
100
AcDbEntity
  8
1
  6
Continuous
100
AcDbLine
 10
245.0339490000001
 20
156.950895
 30
0.0
 11
244.0339489999999
 21
156.950895
 31
0.0
  0
ARC
  5
9F4B
330
9E75
100
AcDbEntity
  8
1
  6
Continuous
100
AcDbCircle
 10
273.0339489999999
 20
184.6608939999999
 30
0.0
 40
3.0
100
AcDbArc
 50
0.0
 51
90.0
  0
ARC
  5
9F4C
330
9E75
100
AcDbEntity
  8
1
  6
Continuous
100
AcDbCircle
 10
273.833952
 20
190.7008969999999
 30
0.0
 40
2.299999999999998
100
AcDbArc
 50
270.00001
 51
348.97852
  0
ARC
  5
9F4D
330
9E75
100
AcDbEntity
  8
1
  6
Continuous
100
AcDbCircle
 10
276.783949
 20
191.2008979999999
 30
0.0
 40
0.5
100
AcDbArc
 50
89.99999100000001
 51
168.9784929999999
  0
LINE
  5
9F4E
330
9E75
100
AcDbEntity
  8
1
  6
Continuous
100
AcDbLine
 10
278.033949
 20
193.700895
 30
0.0
 11
278.033949
 21
191.7008949999998
 31
0.0
  0
LINE
  5
9F4F
330
9E75
100
AcDbEntity
  8
1
  6
Continuous
100
AcDbLine
 10
276.0915199999999
 20
190.26119
 30
0.0
 11
276.293158
 21
191.2964839999999
 31
0.0
  0
ARC
  5
9F50
330
9E75
100
AcDbEntity
  8
1
  6
Continuous
100
AcDbCircle
 10
264.495268
 20
188.745394
 30
0.0
 40
1.984499999999996
100
AcDbArc
 50
206.8632199999999
 51
213.12622
  0
ARC
  5
9F51
330
9E75
100
AcDbEntity
  8
1
  6
Continuous
100
AcDbCircle
 10
260.9545729999999
 20
188.745394
 30
0.0
 40
1.984499999999996
100
AcDbArc
 50
189.99695
 51
213.12622
  0
ARC
  5
9F52
330
9E75
100
AcDbEntity
  8
1
  6
Continuous
100
AcDbCircle
 10
269.783949
 20
188.745394
 30
0.0
 40
1.984499999999996
100
AcDbArc
 50
326.87379
 51
350.0029399999998
  0
ARC
  5
9F53
330
9E75
100
AcDbEntity
  8
1
  6
Continuous
100
AcDbCircle
 10
269.134535
 20
188.745394
 30
0.0
 40
1.984499999999996
100
AcDbArc
 50
326.87379
 51
350.0029399999998
  0
ARC
  5
9F54
330
9E75
100
AcDbEntity
  8
1
  6
Continuous
100
AcDbCircle
 10
267.312933
 20
188.745394
 30
0.0
 40
1.984499999999996
100
AcDbArc
 50
326.87379
 51
350.0029399999998
  0
ARC
  5
9F55
330
9E75
100
AcDbEntity
  8
1
  6
Continuous
100
AcDbCircle
 10
264.495268
 20
188.745394
 30
0.0
 40
1.984499999999996
100
AcDbArc
 50
326.87379
 51
350.0029399999998
  0
ARC
  5
9F56
330
9E75
100
AcDbEntity
  8
1
  6
Continuous
100
AcDbCircle
 10
257.033949
 20
188.745394
 30
0.0
 40
1.984499999999996
100
AcDbArc
 50
326.87379
 51
350.0029399999998
  0
ARC
  5
9F57
330
9E75
100
AcDbEntity
  8
1
  6
Continuous
100
AcDbCircle
 10
260.9545729999999
 20
188.745394
 30
0.0
 40
1.984499999999996
100
AcDbArc
 50
326.87379
 51
350.0029599999999
  0
ARC
  5
9F58
330
9E75
100
AcDbEntity
  8
1
  6
Continuous
100
AcDbCircle
 10
273.848372
 20
191.200859
 30
0.0
 40
2.799999999999998
100
AcDbArc
 50
268.3477899999999
 51
269.99998
  0
LINE
  5
9F59
330
9E75
100
AcDbEntity
  8
4
  6
CENTER
 48
0.5
100
AcDbLine
 10
271.0339489999999
 20
198.700895
 30
0.0
 11
271.0339489999999
 21
186.7008949999998
 31
0.0
  0
ARC
  5
9F5A
330
9E75
100
AcDbEntity
  8
1
  6
Continuous
100
AcDbCircle
 10
249.5726299999998
 20
188.745394
 30
0.0
 40
1.984499999999996
100
AcDbArc
 50
189.99701
 51
213.12622
  0
ARC
  5
9F5B
330
9E75
100
AcDbEntity
  8
1
  6
Continuous
100
AcDbCircle
 10
253.1133249999999
 20
188.745394
 30
0.0
 40
1.984499999999996
100
AcDbArc
 50
189.99701
 51
213.12622
  0
ARC
  5
9F5C
330
9E75
100
AcDbEntity
  8
1
  6
Continuous
100
AcDbCircle
 10
244.283949
 20
188.745394
 30
0.0
 40
1.984499999999996
100
AcDbArc
 50
189.99701
 51
213.12622
  0
ARC
  5
9F5D
330
9E75
100
AcDbEntity
  8
1
  6
Continuous
100
AcDbCircle
 10
244.9333629999999
 20
188.745394
 30
0.0
 40
1.984499999999996
100
AcDbArc
 50
189.99701
 51
213.12622
  0
ARC
  5
9F5E
330
9E75
100
AcDbEntity
  8
1
  6
Continuous
100
AcDbCircle
 10
246.754965
 20
188.745394
 30
0.0
 40
1.984499999999996
100
AcDbArc
 50
189.99701
 51
213.12622
  0
ARC
  5
9F5F
330
9E75
100
AcDbEntity
  8
1
  6
Continuous
100
AcDbCircle
 10
249.5726299999998
 20
188.745394
 30
0.0
 40
1.984499999999996
100
AcDbArc
 50
326.87379
 51
333.13675
  0
ARC
  5
9F60
330
9E75
100
AcDbEntity
  8
1
  6
Continuous
100
AcDbCircle
 10
257.033949
 20
188.745394
 30
0.0
 40
1.984499999999996
100
AcDbArc
 50
189.99701
 51
213.12622
  0
ARC
  5
9F61
330
9E75
100
AcDbEntity
  8
1
  6
Continuous
100
AcDbCircle
 10
253.1133249999999
 20
188.745394
 30
0.0
 40
1.984499999999996
100
AcDbArc
 50
326.87379
 51
350.00301
  0
LINE
  5
9F62
330
9E75
100
AcDbEntity
  8
4
  6
CENTER
 48
0.5
100
AcDbLine
 10
243.0339490000001
 20
198.700895
 30
0.0
 11
243.0339490000001
 21
186.7008949999998
 31
0.0
  0
LINE
  5
9F63
330
9E75
100
AcDbEntity
  8
1
  6
Continuous
100
AcDbLine
 10
242.033964
 20
146.75279
 30
0.0
 11
242.033964
 21
154.3455789999998
 31
0.0
  0
ARC
  5
9F64
330
9E75
100
AcDbEntity
  8
1
  6
Continuous
100
AcDbCircle
 10
244.996473
 20
153.700895
 30
0.0
 40
5.762504999999999
100
AcDbArc
 50
139.1432849999999
 51
235.5169599999999
  0
LINE
  5
9F65
330
9E75
100
AcDbEntity
  8
1
  6
Continuous
100
AcDbLine
 10
241.7339609999999
 20
148.950895
 30
0.0
 11
241.7339609999999
 21
155.159526
 31
0.0
  0
LINE
  5
9F66
330
9E75
100
AcDbEntity
  8
1
  6
Continuous
100
AcDbLine
 10
242.033964
 20
148.950895
 30
0.0
 11
241.7339609999999
 21
148.950895
 31
0.0
  0
ARC
  5
9F67
330
9E75
100
AcDbEntity
  8
1
  6
Continuous
100
AcDbCircle
 10
241.0339490000001
 20
184.6608939999999
 30
0.0
 40
3.0
100
AcDbArc
 50
90.0
 51
180.0
  0
ARC
  5
9F68
330
9E75
100
AcDbEntity
  8
1
  6
Continuous
100
AcDbCircle
 10
240.2339459999998
 20
190.7008919999999
 30
0.0
 40
2.299999999999998
100
AcDbArc
 50
191.02147
 51
269.99998
  0
ARC
  5
9F69
330
9E75
100
AcDbEntity
  8
1
  6
Continuous
100
AcDbCircle
 10
237.283949
 20
191.2008909999999
 30
0.0
 40
0.5
100
AcDbArc
 50
11.02154
 51
90.00004500000001
  0
LINE
  5
9F6A
330
9E75
100
AcDbEntity
  8
1
  6
Continuous
100
AcDbLine
 10
236.033949
 20
193.700895
 30
0.0
 11
236.033949
 21
191.7008949999998
 31
0.0
  0
LINE
  5
9F6B
330
9E75
100
AcDbEntity
  8
1
  6
Continuous
100
AcDbLine
 10
237.9763849999999
 20
190.261174
 30
0.0
 11
237.7747439999999
 21
191.296469
 31
0.0
  0
LINE
  5
9F6C
330
9E75
100
AcDbEntity
  8
1
  6
Continuous
100
AcDbLine
 10
240.1250649999997
 20
179.4173679999999
 30
0.0
 11
273.942832
 21
179.4173679999999
 31
0.0
  0
LINE
  5
9F6D
330
9E75
100
AcDbEntity
  8
1
  6
Continuous
100
AcDbLine
 10
238.033949
 20
184.6608939999999
 30
0.0
 11
238.033949
 21
168.8550449999999
 31
0.0
  0
LINE
  5
9F6E
330
9E75
100
AcDbEntity
  8
1
  6
Continuous
100
AcDbLine
 10
142.283949
 20
80.500883
 30
0.0
 11
132.783949
 21
80.500883
 31
0.0
  0
ARC
  5
9F6F
330
9E75
100
AcDbEntity
  8
1
  6
Continuous
100
AcDbCircle
 10
137.5339489999997
 20
77.238371
 30
0.0
 40
5.762504999999999
100
AcDbArc
 50
34.48304
 51
145.5169689999999
  0
LINE
  5
9F70
330
9E75
100
AcDbEntity
  8
1
  6
Continuous
100
AcDbLine
 10
142.133947
 20
49.70091
 30
0.0
 11
133.4170969999999
 21
49.70091
 31
0.0
  0
LINE
  5
9F71
330
9E75
100
AcDbEntity
  8
1
  6
Continuous
100
AcDbLine
 10
141.033949
 20
48.70091
 30
0.0
 11
134.0339469999999
 21
48.70091
 31
0.0
  0
LINE
  5
9F72
330
9E75
100
AcDbEntity
  8
1
  6
Continuous
100
AcDbLine
 10
134.283949
 20
50.20091
 30
0.0
 11
133.5200179999999
 21
49.917972
 31
0.0
  0
ARC
  5
9F73
330
9E75
100
AcDbEntity
  8
1
  6
Continuous
100
AcDbCircle
 10
135.439043
 20
51.351515
 30
0.0
 40
3.0
100
AcDbArc
 50
221.8665059999999
 51
242.0717699999999
  0
LINE
  5
9F74
330
9E75
100
AcDbEntity
  8
1
  6
Continuous
100
AcDbLine
 10
134.283949
 20
52.200895
 30
0.0
 11
134.283949
 21
53.20089499999999
 31
0.0
  0
LINE
  5
9F75
330
9E75
100
AcDbEntity
  8
1
  6
Continuous
100
AcDbLine
 10
132.783949
 20
80.20087999999999
 30
0.0
 11
132.783949
 21
80.500883
 31
0.0
  0
LINE
  5
9F76
330
9E75
100
AcDbEntity
  8
1
  6
Continuous
100
AcDbLine
 10
134.283949
 20
77.20089499999997
 30
0.0
 11
134.283949
 21
78.20089499999998
 31
0.0
  0
LINE
  5
9F77
330
9E75
100
AcDbEntity
  8
1
  6
Continuous
100
AcDbLine
 10
140.783949
 20
52.200895
 30
0.0
 11
140.783949
 21
53.20089499999999
 31
0.0
  0
ARC
  5
9F78
330
9E75
100
AcDbEntity
  8
1
  6
Continuous
100
AcDbCircle
 10
139.6288509999999
 20
51.351515
 30
0.0
 40
3.0
100
AcDbArc
 50
297.92826
 51
326.61915
  0
LINE
  5
9F79
330
9E75
100
AcDbEntity
  8
1
  6
Continuous
100
AcDbLine
 10
142.133947
 20
49.70090299999998
 30
0.0
 11
140.7839449999999
 21
50.20090299999999
 31
0.0
  0
LINE
  5
9F7A
330
9E75
100
AcDbEntity
  8
1
  6
Continuous
100
AcDbLine
 10
140.783949
 20
77.20089499999997
 30
0.0
 11
140.783949
 21
78.20089499999998
 31
0.0
  0
LINE
  5
9F7B
330
9E75
100
AcDbEntity
  8
1
  6
Continuous
100
AcDbLine
 10
142.283949
 20
80.20087999999999
 30
0.0
 11
142.283949
 21
80.500883
 31
0.0
  0
LINE
  5
9F7C
330
9E75
100
AcDbEntity
  8
1
  6
Continuous
100
AcDbLine
 10
145.5724449999999
 20
78.20088
 30
0.0
 11
130.534663
 21
78.20088
 31
0.0
  0
LINE
  5
9F7D
330
9E75
100
AcDbEntity
  8
1
  6
Continuous
100
AcDbLine
 10
145.5724449999999
 20
80.20087999999999
 30
0.0
 11
130.534663
 21
80.20087999999999
 31
0.0
  0
ARC
  5
9F7E
330
9E75
100
AcDbEntity
  8
1
  6
Continuous
100
AcDbCircle
 10
90.40603500000001
 20
65.20090299999999
 30
0.0
 40
35.49999600000001
100
AcDbArc
 50
17.20398299999999
 51
19.23312
  0
LINE
  5
9F7F
330
9E75
100
AcDbEntity
  8
1
  6
Continuous
100
AcDbLine
 10
130.534663
 20
80.20087999999999
 30
0.0
 11
130.534663
 21
78.20088
 31
0.0
  0
LINE
  5
9F80
330
9E75
100
AcDbEntity
  8
1
  6
Continuous
100
AcDbLine
 10
145.5724449999999
 20
52.20091
 30
0.0
 11
130.534663
 21
52.20091
 31
0.0
  0
LINE
  5
9F81
330
9E75
100
AcDbEntity
  8
1
  6
Continuous
100
AcDbLine
 10
145.5724449999999
 20
50.20091
 30
0.0
 11
130.534663
 21
50.20091
 31
0.0
  0
LINE
  5
9F82
330
9E75
100
AcDbEntity
  8
1
  6
Continuous
100
AcDbLine
 10
130.534663
 20
52.20091
 30
0.0
 11
130.534663
 21
50.20091
 31
0.0
  0
ARC
  5
9F83
330
9E75
100
AcDbEntity
  8
1
  6
Continuous
100
AcDbCircle
 10
158.533949
 20
65.20089499999999
 30
0.0
 40
19.0
100
AcDbArc
 50
235.7944209999997
 51
124.3012189999999
  0
ARC
  5
9F84
330
9E75
100
AcDbEntity
  8
1
  6
Continuous
100
AcDbCircle
 10
158.533949
 20
65.20089499999999
 30
0.0
 40
17.0
100
AcDbArc
 50
235.698781
 51
124.3012189999999
  0
ARC
  5
9F85
330
9E75
100
AcDbEntity
  8
1
  6
Continuous
100
AcDbCircle
 10
178.3590309999999
 20
65.20089499999999
 30
0.0
 40
46.925087
100
AcDbArc
 50
163.916557
 51
165.1833469999999
  0
ARC
  5
9F86
330
9E75
100
AcDbEntity
  8
1
  6
Continuous
100
AcDbCircle
 10
178.3590309999999
 20
65.20089499999999
 30
0.0
 40
46.925087
100
AcDbArc
 50
194.816653
 51
196.083443
  0
ARC
  5
9F87
330
9E75
100
AcDbEntity
  8
1
  6
Continuous
100
AcDbCircle
 10
158.533949
 20
65.20089499999999
 30
0.0
 40
19.75
100
AcDbArc
 50
229.4269879999999
 51
130.156391
  0
LINE
  5
9F88
330
9E75
100
AcDbEntity
  8
4
  6
CENTER
 48
0.5
100
AcDbLine
 10
376.533949
 20
181.200895
 30
0.0
 11
376.533949
 21
123.7008949999997
 31
0.0
  0
LINE
  5
9F89
330
9E75
100
AcDbEntity
  8
4
  6
CENTER
 48
0.5
100
AcDbLine
 10
346.533949
 20
153.700895
 30
0.0
 11
406.533949
 21
153.700895
 31
0.0
  0
ARC
  5
9F8A
330
9E75
100
AcDbEntity
  8
1
  6
Continuous
100
AcDbCircle
 10
339.791517
 20
184.6608939999999
 30
0.0
 40
3.0
100
AcDbArc
 50
90.00001800000005
 51
173.2031979999999
  0
LINE
  5
9F8B
330
9E75
100
AcDbEntity
  8
1
  6
Continuous
100
AcDbLine
 10
345.1839049999999
 20
179.115304
 30
0.0
 11
336.533949
 21
179.4173679999999
 31
0.0
  0
LINE
  5
9F8C
330
9E75
100
AcDbEntity
  8
1
  6
Continuous
100
AcDbLine
 10
372.33395
 20
188.400892
 30
0.0
 11
338.733945
 21
188.400892
 31
0.0
  0
LINE
  5
9F8D
330
9E75
100
AcDbEntity
  8
1
  6
Continuous
100
AcDbLine
 10
390.533949
 20
191.7008949999998
 30
0.0
 11
320.533949
 21
191.7008949999998
 31
0.0
  0
LINE
  5
9F8E
330
9E75
100
AcDbEntity
  8
1
  6
Continuous
100
AcDbLine
 10
390.533949
 20
193.700895
 30
0.0
 11
320.533949
 21
193.700895
 31
0.0
  0
LINE
  5
9F8F
330
9E75
100
AcDbEntity
  8
1
  6
Continuous
100
AcDbLine
 10
379.802006
 20
181.2857539999999
 30
0.0
 11
383.46901
 21
154.552168
 31
0.0
  0
LINE
  5
9F90
330
9E75
100
AcDbEntity
  8
1
  6
Continuous
100
AcDbLine
 10
368.533949
 20
183.9415149999999
 30
0.0
 11
368.533949
 21
157.5930209999999
 31
0.0
  0
LINE
  5
9F91
330
9E75
100
AcDbEntity
  8
4
  6
CENTER
 48
0.5
100
AcDbLine
 10
355.533949
 20
198.700895
 30
0.0
 11
355.533949
 21
163.967531
 31
0.0
  0
ARC
  5
9F92
330
9E75
100
AcDbEntity
  8
1
  6
Continuous
100
AcDbCircle
 10
376.533949
 20
153.600897
 30
0.0
 40
7.0
100
AcDbArc
 50
216.50872
 51
7.810410000000001
  0
CIRCLE
  5
9F93
330
9E75
100
AcDbEntity
  8
1
  6
Continuous
100
AcDbCircle
 10
376.533949
 20
153.700895
 30
0.0
 40
4.75
  0
LINE
  5
9F94
330
9E75
100
AcDbEntity
  8
1
  6
Continuous
100
AcDbLine
 10
351.2822459999999
 20
175.94998
 30
0.0
 11
370.9075829999999
 21
149.4362849999999
 31
0.0
  0
ARC
  5
9F95
330
9E75
100
AcDbEntity
  8
1
  6
Continuous
100
AcDbCircle
 10
344.9047069999999
 20
171.120178
 30
0.0
 40
8.0
100
AcDbArc
 50
36.67418
 51
87.99996799999998
  0
LINE
  5
9F96
330
9E75
100
AcDbEntity
  8
1
  6
Continuous
100
AcDbLine
 10
371.276377
 20
187.6608939999999
 30
0.0
 11
339.791517
 21
187.6608939999999
 31
0.0
  0
LINE
  5
9F97
330
9E75
100
AcDbEntity
  8
1
  6
Continuous
100
AcDbLine
 10
390.533949
 20
191.7009
 30
0.0
 11
390.533949
 21
193.7008999999999
 31
0.0
  0
ARC
  5
9F98
330
9E75
100
AcDbEntity
  8
1
  6
Continuous
100
AcDbCircle
 10
380.79273
 20
181.42165
 30
0.0
 40
1.0
100
AcDbArc
 50
170.0
 51
187.8104199999999
  0
ARC
  5
9F99
330
9E75
100
AcDbEntity
  8
1
  6
Continuous
100
AcDbCircle
 10
371.276377
 20
184.6608939999999
 30
0.0
 40
3.0
100
AcDbArc
 50
27.75185
 51
90.00001800000005
  0
ARC
  5
9F9A
330
9E75
100
AcDbEntity
  8
1
  6
Continuous
100
AcDbCircle
 10
372.33395
 20
190.7008969999999
 30
0.0
 40
2.299999999999998
100
AcDbArc
 50
270.00001
 51
348.97852
  0
ARC
  5
9F9B
330
9E75
100
AcDbEntity
  8
1
  6
Continuous
100
AcDbCircle
 10
372.3483719999999
 20
191.200859
 30
0.0
 40
2.799999999999998
100
AcDbArc
 50
268.3477899999999
 51
269.99998
  0
ARC
  5
9F9C
330
9E75
100
AcDbEntity
  8
1
  6
Continuous
100
AcDbCircle
 10
375.2839489999999
 20
191.2008979999999
 30
0.0
 40
0.5
100
AcDbArc
 50
89.99999100000001
 51
168.9784929999999
  0
LINE
  5
9F9D
330
9E75
100
AcDbEntity
  8
1
  6
Continuous
100
AcDbLine
 10
380.1719319999999
 20
183.659701
 30
0.0
 11
379.807924
 21
181.595299
 31
0.0
  0
LINE
  5
9F9E
330
9E75
100
AcDbEntity
  8
1
  6
Continuous
100
AcDbLine
 10
374.6839469999999
 20
184.6273789999999
 30
0.0
 11
373.931294
 21
186.057825
 31
0.0
  0
LINE
  5
9F9F
330
9E75
100
AcDbEntity
  8
1
  6
Continuous
100
AcDbLine
 10
382.6339529999998
 20
183.22558
 30
0.0
 11
382.2866559999998
 21
181.2559639999999
 31
0.0
  0
LINE
  5
9FA0
330
9E75
100
AcDbEntity
  8
1
  6
Continuous
100
AcDbLine
 10
382.633957
 20
183.2255849999999
 30
0.0
 11
371.3890149999999
 21
185.208371
 31
0.0
  0
LINE
  5
9FA1
330
9E75
100
AcDbEntity
  8
1
  6
Continuous
100
AcDbLine
 10
382.2866559999998
 20
181.255969
 30
0.0
 11
379.824638
 21
181.690089
 31
0.0
  0
LINE
  5
9FA2
330
9E75
100
AcDbEntity
  8
4
  6
CENTER
 48
0.5
100
AcDbLine
 10
383.5339489999999
 20
186.7008949999998
 30
0.0
 11
383.5339489999999
 21
198.700895
 31
0.0
  0
LINE
  5
9FA3
330
9E75
100
AcDbEntity
  8
1
  6
Continuous
100
AcDbLine
 10
374.59152
 20
190.261191
 30
0.0
 11
374.793163
 21
191.2964849999999
 31
0.0
  0
ARC
  5
9FA4
330
9E75
100
AcDbEntity
  8
1
  6
Continuous
100
AcDbCircle
 10
362.995268
 20
188.745394
 30
0.0
 40
1.984499999999996
100
AcDbArc
 50
206.8632199999999
 51
213.1262299999999
  0
ARC
  5
9FA5
330
9E75
100
AcDbEntity
  8
1
  6
Continuous
100
AcDbCircle
 10
359.454573
 20
188.745394
 30
0.0
 40
1.984499999999996
100
AcDbArc
 50
189.99695
 51
213.1262299999999
  0
ARC
  5
9FA6
330
9E75
100
AcDbEntity
  8
1
  6
Continuous
100
AcDbCircle
 10
368.283949
 20
188.745394
 30
0.0
 40
1.984499999999996
100
AcDbArc
 50
326.87379
 51
350.0029399999998
  0
ARC
  5
9FA7
330
9E75
100
AcDbEntity
  8
1
  6
Continuous
100
AcDbCircle
 10
367.634535
 20
188.745394
 30
0.0
 40
1.984499999999996
100
AcDbArc
 50
326.87379
 51
350.0029399999998
  0
ARC
  5
9FA8
330
9E75
100
AcDbEntity
  8
1
  6
Continuous
100
AcDbCircle
 10
365.8129329999999
 20
188.745394
 30
0.0
 40
1.984499999999996
100
AcDbArc
 50
326.87379
 51
350.0029399999998
  0
ARC
  5
9FA9
330
9E75
100
AcDbEntity
  8
1
  6
Continuous
100
AcDbCircle
 10
362.995268
 20
188.745394
 30
0.0
 40
1.984499999999996
100
AcDbArc
 50
326.87379
 51
350.0029399999998
  0
ARC
  5
9FAA
330
9E75
100
AcDbEntity
  8
1
  6
Continuous
100
AcDbCircle
 10
355.533949
 20
188.745394
 30
0.0
 40
1.984499999999996
100
AcDbArc
 50
326.87379
 51
350.0029399999998
  0
ARC
  5
9FAB
330
9E75
100
AcDbEntity
  8
1
  6
Continuous
100
AcDbCircle
 10
359.454573
 20
188.745394
 30
0.0
 40
1.984499999999996
100
AcDbArc
 50
326.87379
 51
350.0029599999999
  0
ARC
  5
9FAC
330
9E75
100
AcDbEntity
  8
1
  6
Continuous
100
AcDbCircle
 10
348.07263
 20
188.745394
 30
0.0
 40
1.984499999999996
100
AcDbArc
 50
189.99701
 51
213.1262299999999
  0
ARC
  5
9FAD
330
9E75
100
AcDbEntity
  8
1
  6
Continuous
100
AcDbCircle
 10
351.6133249999999
 20
188.745394
 30
0.0
 40
1.984499999999996
100
AcDbArc
 50
189.99701
 51
213.1262299999999
  0
ARC
  5
9FAE
330
9E75
100
AcDbEntity
  8
1
  6
Continuous
100
AcDbCircle
 10
342.783949
 20
188.745394
 30
0.0
 40
1.984499999999996
100
AcDbArc
 50
189.99701
 51
213.1262299999999
  0
ARC
  5
9FAF
330
9E75
100
AcDbEntity
  8
1
  6
Continuous
100
AcDbCircle
 10
343.4333629999998
 20
188.745394
 30
0.0
 40
1.984499999999996
100
AcDbArc
 50
189.99701
 51
213.1262299999999
  0
ARC
  5
9FB0
330
9E75
100
AcDbEntity
  8
1
  6
Continuous
100
AcDbCircle
 10
345.2549649999999
 20
188.745394
 30
0.0
 40
1.984499999999996
100
AcDbArc
 50
189.99701
 51
213.1262299999999
  0
ARC
  5
9FB1
330
9E75
100
AcDbEntity
  8
1
  6
Continuous
100
AcDbCircle
 10
348.07263
 20
188.745394
 30
0.0
 40
1.984499999999996
100
AcDbArc
 50
326.87379
 51
333.13675
  0
ARC
  5
9FB2
330
9E75
100
AcDbEntity
  8
1
  6
Continuous
100
AcDbCircle
 10
355.533949
 20
188.745394
 30
0.0
 40
1.984499999999996
100
AcDbArc
 50
189.99701
 51
213.1262299999999
  0
ARC
  5
9FB3
330
9E75
100
AcDbEntity
  8
1
  6
Continuous
100
AcDbCircle
 10
351.6133249999999
 20
188.745394
 30
0.0
 40
1.984499999999996
100
AcDbArc
 50
326.87379
 51
350.00301
  0
LINE
  5
9FB4
330
9E75
100
AcDbEntity
  8
1
  6
Continuous
100
AcDbLine
 10
336.8125999999998
 20
185.01594
 30
0.0
 11
336.533949
 21
179.4173679999999
 31
0.0
  0
ARC
  5
9FB5
330
9E75
100
AcDbEntity
  8
1
  6
Continuous
100
AcDbCircle
 10
338.733946
 20
190.7008919999999
 30
0.0
 40
2.299999999999998
100
AcDbArc
 50
191.02147
 51
269.99998
  0
ARC
  5
9FB6
330
9E75
100
AcDbEntity
  8
1
  6
Continuous
100
AcDbCircle
 10
335.7839489999999
 20
191.2008909999999
 30
0.0
 40
0.5
100
AcDbArc
 50
11.02154
 51
90.00004500000001
  0
LINE
  5
9FB7
330
9E75
100
AcDbEntity
  8
4
  6
CENTER
 48
0.5
100
AcDbLine
 10
327.533949
 20
186.7008949999998
 30
0.0
 11
327.533949
 21
198.700895
 31
0.0
  0
LINE
  5
9FB8
330
9E75
100
AcDbEntity
  8
1
  6
Continuous
100
AcDbLine
 10
336.4763929999998
 20
190.261174
 30
0.0
 11
336.2747479999999
 21
191.2964679999998
 31
0.0
  0
LINE
  5
9FB9
330
9E75
100
AcDbEntity
  8
1
  6
Continuous
100
AcDbLine
 10
320.533949
 20
191.7008889999999
 30
0.0
 11
320.533949
 21
193.700895
 31
0.0
  0
ARC
  5
9FBA
330
9E75
100
AcDbEntity
  8
1
  6
Continuous
100
AcDbCircle
 10
158.533949
 20
65.20089499999999
 30
0.0
 40
13.5
100
AcDbArc
 50
231.057559
 51
128.942441
  0
ARC
  5
9FBB
330
9E75
100
AcDbEntity
  8
1
  6
Continuous
100
AcDbCircle
 10
158.533949
 20
65.20089499999999
 30
0.0
 40
10.5
100
AcDbArc
 50
281.8918919999998
 51
78.108108
  0
ARC
  5
9FBC
330
9E75
100
AcDbEntity
  8
1
  6
Continuous
100
AcDbCircle
 10
159.766274
 20
63.968593
 30
0.0
 40
3.623304
100
AcDbArc
 50
316.5091669999998
 51
358.2470069999998
  0
ARC
  5
9FBD
330
9E75
100
AcDbEntity
  8
1
  6
Continuous
100
AcDbCircle
 10
159.7663169999998
 20
66.43334399999999
 30
0.0
 40
3.623247999999998
100
AcDbArc
 50
1.753413
 51
43.491106
  0
LINE
  5
9FBE
330
9E75
100
AcDbEntity
  8
1
  6
Continuous
100
AcDbLine
 10
162.7839189999999
 20
65.200951
 30
0.0
 11
163.3459389999998
 21
66.450955
 31
0.0
  0
LINE
  5
9FBF
330
9E75
100
AcDbEntity
  8
1
  6
Continuous
100
AcDbLine
 10
163.3459769999998
 20
63.95096999999999
 30
0.0
 11
162.7839569999999
 21
65.20096600000001
 31
0.0
  0
ARC
  5
9FC0
330
9E75
100
AcDbEntity
  8
1
  6
Continuous
100
AcDbCircle
 10
162.1100219999999
 20
63.100953
 30
0.0
 40
1.5
100
AcDbArc
 50
34.51822999999999
 51
73.756776
  0
ARC
  5
9FC1
330
9E75
100
AcDbEntity
  8
1
  6
Continuous
100
AcDbCircle
 10
162.1100219999999
 20
67.300949
 30
0.0
 40
1.5
100
AcDbArc
 50
286.2431649999998
 51
325.48158
  0
CIRCLE
  5
9FC2
330
9E75
100
AcDbEntity
  8
1
  6
Continuous
100
AcDbCircle
 10
376.533949
 20
153.700895
 30
0.0
 40
2.049999999999998
  0
ARC
  5
9FD1
330
9E75
100
AcDbEntity
  8
1
  6
Continuous
100
AcDbCircle
 10
270.477794
 20
170.205959
 30
0.0
 40
32.44384500000001
100
AcDbArc
 50
164.8619749999998
 51
208.309821
  0
ARC
  5
9FD2
330
9E75
100
AcDbEntity
  8
1
  6
Continuous
100
AcDbCircle
 10
243.5901029999999
 20
170.205959
 30
0.0
 40
32.44384500000001
100
AcDbArc
 50
331.690179
 51
15.138025
  0
ARC
  5
9FD3
330
9E75
100
AcDbEntity
  8
1
  6
Continuous
100
AcDbCircle
 10
243.5901029999999
 20
170.205959
 30
0.0
 40
30.443845
100
AcDbArc
 50
331.690233
 51
17.61205799999998
  0
ARC
  5
9FD4
330
9E75
100
AcDbEntity
  8
1
  6
Continuous
100
AcDbCircle
 10
270.477794
 20
170.205959
 30
0.0
 40
30.443845
100
AcDbArc
 50
162.3879419999999
 51
208.3097669999999
  0
ARC
  5
9FD5
330
9E75
100
AcDbEntity
  8
1
  6
Continuous
100
AcDbCircle
 10
273.942832
 20
178.4173679999999
 30
0.0
 40
1.0
100
AcDbArc
 50
15.138025
 51
90.0
  0
ARC
  5
9FD6
330
9E75
100
AcDbEntity
  8
1
  6
Continuous
100
AcDbCircle
 10
240.1250649999997
 20
178.4173679999999
 30
0.0
 40
1.0
100
AcDbArc
 50
90.0
 51
164.8619749999998
  0
ARC
  5
9FD7
330
9E75
100
AcDbEntity
  8
1
  6
Continuous
100
AcDbCircle
 10
241.033964
 20
154.3455789999998
 30
0.0
 40
1.0
100
AcDbArc
 50
0.0
 51
28.30982099999999
  0
ARC
  5
9FD8
330
9E75
100
AcDbEntity
  8
1
  6
Continuous
100
AcDbCircle
 10
241.0339490000001
 20
154.3456069999997
 30
0.0
 40
3.0
100
AcDbArc
 50
0.0
 51
28.30976699999999
  0
ARC
  5
9FD9
330
9E75
100
AcDbEntity
  8
1
  6
Continuous
100
AcDbCircle
 10
273.033934
 20
154.3455789999998
 30
0.0
 40
1.0
100
AcDbArc
 50
151.690179
 51
180.0
  0
ARC
  5
9FDA
330
9E75
100
AcDbEntity
  8
1
  6
Continuous
100
AcDbCircle
 10
273.0339489999999
 20
154.3456069999997
 30
0.0
 40
3.0
100
AcDbArc
 50
151.690233
 51
180.0
  0
ARC
  5
9FDB
330
9E75
100
AcDbEntity
  8
1
  6
Continuous
100
AcDbCircle
 10
145.5724449999999
 20
84.20087999999998
 30
0.0
 40
4.0
100
AcDbArc
 50
270.0
 51
304.301219
  0
ARC
  5
9FDC
330
9E75
100
AcDbEntity
  8
1
  6
Continuous
100
AcDbCircle
 10
145.5724449999999
 20
84.20087999999998
 30
0.0
 40
6.0
100
AcDbArc
 50
270.0
 51
304.301219
  0
ARC
  5
9FDD
330
9E75
100
AcDbEntity
  8
1
  6
Continuous
100
AcDbCircle
 10
145.5724449999999
 20
46.20091
 30
0.0
 40
4.0
100
AcDbArc
 50
55.698781
 51
90.0
  0
ARC
  5
9FDE
330
9E75
100
AcDbEntity
  8
1
  6
Continuous
100
AcDbCircle
 10
145.5724449999999
 20
46.20091
 30
0.0
 40
6.0
100
AcDbArc
 50
55.698781
 51
90.0
  0
CIRCLE
  5
9FDF
330
9E75
100
AcDbEntity
  8
1
  6
Continuous
100
AcDbCircle
 10
186.533949
 20
243.2008909999999
 30
0.0
 40
3.25
  0
CIRCLE
  5
9FE0
330
9E75
100
AcDbEntity
  8
1
  6
Continuous
100
AcDbCircle
 10
186.533949
 20
271.2008949999999
 30
0.0
 40
3.25
  0
CIRCLE
  5
9FE1
330
9E75
100
AcDbEntity
  8
1
  6
Continuous
100
AcDbCircle
 10
130.533949
 20
271.2008949999999
 30
0.0
 40
3.25
  0
CIRCLE
  5
9FE2
330
9E75
100
AcDbEntity
  8
1
  6
Continuous
100
AcDbCircle
 10
130.533949
 20
243.2008909999999
 30
0.0
 40
3.25
  0
CIRCLE
  5
9FE3
330
9E75
100
AcDbEntity
  8
1
  6
Continuous
100
AcDbCircle
 10
186.533949
 20
79.20089899999998
 30
0.0
 40
3.25
  0
CIRCLE
  5
9FE4
330
9E75
100
AcDbEntity
  8
1
  6
Continuous
100
AcDbCircle
 10
186.533949
 20
51.200891
 30
0.0
 40
3.25
  0
ARC
  5
9FE5
330
9E75
100
AcDbEntity
  8
1
  6
Continuous
100
AcDbCircle
 10
130.6858939999999
 20
79.306832
 30
0.0
 40
3.25
100
AcDbArc
 50
35.344481
 51
274.0687799999999
  0
ARC
  5
9FE6
330
9E75
100
AcDbEntity
  8
1
  6
Continuous
100
AcDbCircle
 10
130.5796729999999
 20
51.307025
 30
0.0
 40
3.25
100
AcDbArc
 50
84.68365799999999
 51
340.102212
  0
LINE
  5
9FE7
330
9E75
100
AcDbEntity
  8
1
  6
Continuous
100
AcDbLine
 10
115.292547
 20
246.700895
 30
0.0
 11
124.317683
 21
246.700895
 31
0.0
  0
LINE
  5
9FE8
330
9E75
100
AcDbEntity
  8
1
  6
Continuous
100
AcDbLine
 10
115.292547
 20
267.700895
 30
0.0
 11
124.3176779999999
 21
267.700895
 31
0.0
  0
ARC
  5
9FE9
330
9E75
100
AcDbEntity
  8
1
  6
Continuous
100
AcDbCircle
 10
137.5339489999997
 20
153.700895
 30
0.0
 40
25.0
100
AcDbArc
 50
98.41733300000001
 51
37.08901199999999
  0
ARC
  5
9FEA
330
9E75
100
AcDbEntity
  8
1
  6
Continuous
100
AcDbCircle
 10
137.5339489999997
 20
153.700895
 30
0.0
 40
20.450001
100
AcDbArc
 50
102.16601
 51
33.29683699999999
  0
LINE
  5
9FEB
330
9E75
100
AcDbEntity
  8
1
  6
Continuous
100
AcDbLine
 10
154.446463
 20
142.2043919999999
 30
0.0
 11
142.764565
 21
148.948945
 31
0.0
  0
LINE
  5
9FF2
330
9E75
100
AcDbEntity
  8
1
  6
Continuous
100
AcDbLine
 10
119.121431
 20
144.802478
 30
0.0
 11
130.8362409999997
 21
151.566024
 31
0.0
  0
LINE
  5
9FF3
330
9E75
100
AcDbEntity
  8
1
  6
Continuous
100
AcDbLine
 10
120.621431
 20
142.204403
 30
0.0
 11
132.3033309999999
 21
148.948947
 31
0.0
  0
LINE
  5
9FF4
330
9E75
100
AcDbEntity
  8
1
  6
Continuous
100
AcDbLine
 10
155.9464549999999
 20
144.802471
 30
0.0
 11
144.5855149999998
 21
151.3617199999998
 31
0.0
  0
ARC
  5
9FF5
330
9E75
100
AcDbEntity
  8
1
  6
Continuous
100
AcDbCircle
 10
162.5339489999998
 20
257.200895
 30
0.0
 40
50.0
100
AcDbArc
 50
169.7981879999999
 51
190.1999899999999
  0
ARC
  5
9FF6
330
9E75
100
AcDbEntity
  8
1
  6
Continuous
100
AcDbCircle
 10
115.292547
 20
248.700895
 30
0.0
 40
2.0
100
AcDbArc
 50
190.1999299999999
 51
270.00002
  0
ARC
  5
9FF7
330
9E75
100
AcDbEntity
  8
1
  6
Continuous
100
AcDbCircle
 10
115.292547
 20
265.700895
 30
0.0
 40
2.0
100
AcDbArc
 50
90.00005499999994
 51
169.80014
  0
ARC
  5
9FF8
330
9E75
100
AcDbEntity
  8
1
  6
Continuous
100
AcDbCircle
 10
49.033949
 20
128.700895
 30
0.0
 40
50.0
100
AcDbArc
 50
79.79818799999998
 51
100.1999899999999
  0
ARC
  5
9FF9
330
9E75
100
AcDbEntity
  8
1
  6
Continuous
100
AcDbCircle
 10
49.033949
 20
178.700895
 30
0.0
 40
50.0
100
AcDbArc
 50
259.8000099999998
 51
280.2018119999999
  0
LINE
  5
9FFA
330
9E75
100
AcDbEntity
  8
1
  6
Continuous
100
AcDbLine
 10
38.53394899999999
 20
175.9422969999999
 30
0.0
 11
38.53394899999999
 21
131.4594909999997
 31
0.0
  0
LINE
  5
9FFB
330
9E75
100
AcDbEntity
  8
1
  6
Continuous
100
AcDbLine
 10
37.033949
 20
159.700895
 30
0.0
 11
37.033949
 21
147.700894
 31
0.0
  0
ARC
  5
9FFC
330
9E75
100
AcDbEntity
  8
1
  6
Continuous
100
AcDbCircle
 10
37.53394899999999
 20
147.700895
 30
0.0
 40
0.5
100
AcDbArc
 50
179.9999799999999
 51
269.99997
  0
LINE
  5
9FFD
330
9E75
100
AcDbEntity
  8
1
  6
Continuous
100
AcDbLine
 10
37.448698
 20
147.2082139999999
 30
0.0
 11
38.53394899999999
 21
147.0204339999999
 31
0.0
  0
ARC
  5
9FFE
330
9E75
100
AcDbEntity
  8
1
  6
Continuous
100
AcDbCircle
 10
40.53394899999999
 20
131.4594929999999
 30
0.0
 40
2.0
100
AcDbArc
 50
179.9999799999999
 51
259.80007
  0
ARC
  5
9FFF
330
9E75
100
AcDbEntity
  8
1
  6
Continuous
100
AcDbCircle
 10
37.53394899999999
 20
159.700895
 30
0.0
 40
0.5
100
AcDbArc
 50
90.000037
 51
180.00002
  0
LINE
  5
A000
330
9E75
100
AcDbEntity
  8
1
  6
Continuous
100
AcDbLine
 10
37.448698
 20
160.193575
 30
0.0
 11
38.53394899999999
 21
160.381355
 31
0.0
  0
ARC
  5
A001
330
9E75
100
AcDbEntity
  8
1
  6
Continuous
100
AcDbCircle
 10
40.53394899999999
 20
175.9422969999999
 30
0.0
 40
2.0
100
AcDbArc
 50
100.19993
 51
180.00002
  0
LINE
  5
A002
330
9E75
100
AcDbEntity
  8
1
  6
Continuous
100
AcDbLine
 10
59.533949
 20
175.9422969999999
 30
0.0
 11
59.533949
 21
131.4594909999997
 31
0.0
  0
LINE
  5
A003
330
9E75
100
AcDbEntity
  8
1
  6
Continuous
100
AcDbLine
 10
61.033949
 20
159.700895
 30
0.0
 11
61.033949
 21
147.700894
 31
0.0
  0
ARC
  5
A004
330
9E75
100
AcDbEntity
  8
1
  6
Continuous
100
AcDbCircle
 10
60.533949
 20
147.700895
 30
0.0
 40
0.5
100
AcDbArc
 50
269.9999599999998
 51
359.99995
  0
LINE
  5
A005
330
9E75
100
AcDbEntity
  8
1
  6
Continuous
100
AcDbLine
 10
60.6192
 20
147.208215
 30
0.0
 11
59.53394499999999
 21
147.0204349999999
 31
0.0
  0
ARC
  5
A006
330
9E75
100
AcDbEntity
  8
1
  6
Continuous
100
AcDbCircle
 10
57.53394899999999
 20
131.4594929999999
 30
0.0
 40
2.0
100
AcDbArc
 50
280.19986
 51
359.99995
  0
ARC
  5
A007
330
9E75
100
AcDbEntity
  8
1
  6
Continuous
100
AcDbCircle
 10
60.533949
 20
159.700895
 30
0.0
 40
0.5
100
AcDbArc
 50
0.000055
 51
90.000037
  0
LINE
  5
A008
330
9E75
100
AcDbEntity
  8
1
  6
Continuous
100
AcDbLine
 10
60.6192
 20
160.193574
 30
0.0
 11
59.53394499999999
 21
160.3813539999999
 31
0.0
  0
ARC
  5
A009
330
9E75
100
AcDbEntity
  8
1
  6
Continuous
100
AcDbCircle
 10
57.53394899999999
 20
175.9422969999999
 30
0.0
 40
2.0
100
AcDbArc
 50
0.000055
 51
79.80014
  0
LINE
  5
A00A
330
9E75
100
AcDbEntity
  8
1
  6
Continuous
100
AcDbLine
 10
267.533949
 20
175.9422969999999
 30
0.0
 11
267.533949
 21
131.4594909999997
 31
0.0
  0
LINE
  5
A00B
330
9E75
100
AcDbEntity
  8
1
  6
Continuous
100
AcDbLine
 10
246.533949
 20
175.9422969999999
 30
0.0
 11
246.533949
 21
131.4594909999997
 31
0.0
  0
ARC
  5
A00C
330
9E75
100
AcDbEntity
  8
1
  6
Continuous
100
AcDbCircle
 10
257.033949
 20
178.700895
 30
0.0
 40
50.0
100
AcDbArc
 50
259.8000099999998
 51
280.2018119999999
  0
LINE
  5
A00D
330
9E75
100
AcDbEntity
  8
1
  6
Continuous
100
AcDbLine
 10
245.0339490000001
 20
159.700895
 30
0.0
 11
245.0339490000001
 21
147.700894
 31
0.0
  0
ARC
  5
A00E
330
9E75
100
AcDbEntity
  8
1
  6
Continuous
100
AcDbCircle
 10
248.533949
 20
131.4594929999999
 30
0.0
 40
2.0
100
AcDbArc
 50
179.9999799999999
 51
259.80007
  0
LINE
  5
A00F
330
9E75
100
AcDbEntity
  8
1
  6
Continuous
100
AcDbLine
 10
245.4486979999999
 20
147.2082139999999
 30
0.0
 11
246.533949
 21
147.0204339999999
 31
0.0
  0
ARC
  5
A010
330
9E75
100
AcDbEntity
  8
1
  6
Continuous
100
AcDbCircle
 10
245.533949
 20
147.700895
 30
0.0
 40
0.5
100
AcDbArc
 50
179.9999799999999
 51
269.99997
  0
LINE
  5
A011
330
9E75
100
AcDbEntity
  8
1
  6
Continuous
100
AcDbLine
 10
245.4486979999999
 20
160.193575
 30
0.0
 11
246.533949
 21
160.381355
 31
0.0
  0
ARC
  5
A012
330
9E75
100
AcDbEntity
  8
1
  6
Continuous
100
AcDbCircle
 10
245.533949
 20
159.700895
 30
0.0
 40
0.5
100
AcDbArc
 50
90.000037
 51
180.00002
  0
LINE
  5
A013
330
9E75
100
AcDbEntity
  8
1
  6
Continuous
100
AcDbLine
 10
269.0339489999999
 20
159.700895
 30
0.0
 11
269.0339489999999
 21
147.700894
 31
0.0
  0
ARC
  5
A014
330
9E75
100
AcDbEntity
  8
1
  6
Continuous
100
AcDbCircle
 10
265.533949
 20
131.4594929999999
 30
0.0
 40
2.0
100
AcDbArc
 50
280.19986
 51
359.99995
  0
LINE
  5
A015
330
9E75
100
AcDbEntity
  8
1
  6
Continuous
100
AcDbLine
 10
268.6191999999999
 20
147.208215
 30
0.0
 11
267.533945
 21
147.0204349999999
 31
0.0
  0
ARC
  5
A016
330
9E75
100
AcDbEntity
  8
1
  6
Continuous
100
AcDbCircle
 10
268.533949
 20
147.700895
 30
0.0
 40
0.5
100
AcDbArc
 50
269.9999599999998
 51
359.99995
  0
LINE
  5
A017
330
9E75
100
AcDbEntity
  8
1
  6
Continuous
100
AcDbLine
 10
268.6191999999999
 20
160.193574
 30
0.0
 11
267.533945
 21
160.3813539999999
 31
0.0
  0
ARC
  5
A018
330
9E75
100
AcDbEntity
  8
1
  6
Continuous
100
AcDbCircle
 10
268.533949
 20
159.700895
 30
0.0
 40
0.5
100
AcDbArc
 50
0.000055
 51
90.000037
  0
ARC
  5
A019
330
9E75
100
AcDbEntity
  8
1
  6
Continuous
100
AcDbCircle
 10
257.033949
 20
128.700895
 30
0.0
 40
50.0
100
AcDbArc
 50
79.79818799999998
 51
100.1999899999999
  0
ARC
  5
A01A
330
9E75
100
AcDbEntity
  8
1
  6
Continuous
100
AcDbCircle
 10
248.533949
 20
175.9422969999999
 30
0.0
 40
2.0
100
AcDbArc
 50
100.19993
 51
180.00002
  0
ARC
  5
A01B
330
9E75
100
AcDbEntity
  8
1
  6
Continuous
100
AcDbCircle
 10
265.533949
 20
175.9422969999999
 30
0.0
 40
2.0
100
AcDbArc
 50
0.000055
 51
79.80014
  0
ARC
  5
A01C
330
9E75
100
AcDbEntity
  8
1
  6
Continuous
100
AcDbCircle
 10
162.5339489999998
 20
65.20089499999999
 30
0.0
 40
50.0
100
AcDbArc
 50
169.7981879999999
 51
190.1999899999999
  0
ARC
  5
A01D
330
9E75
100
AcDbEntity
  8
1
  6
Continuous
100
AcDbCircle
 10
112.5339489999997
 20
65.20089499999999
 30
0.0
 40
50.0
100
AcDbArc
 50
349.80001
 51
10.201812
  0
LINE
  5
A01E
330
9E75
100
AcDbEntity
  8
1
  6
Continuous
100
AcDbLine
 10
115.292547
 20
54.700895
 30
0.0
 11
159.7753519999999
 21
54.700895
 31
0.0
  0
ARC
  5
A01F
330
9E75
100
AcDbEntity
  8
1
  6
Continuous
100
AcDbCircle
 10
115.292547
 20
56.70089499999999
 30
0.0
 40
2.0
100
AcDbArc
 50
190.1999299999999
 51
270.00002
  0
LINE
  5
A020
330
9E75
100
AcDbEntity
  8
1
  6
Continuous
100
AcDbLine
 10
131.533949
 20
53.20089499999999
 30
0.0
 11
143.533949
 21
53.20089499999999
 31
0.0
  0
LINE
  5
A021
330
9E75
100
AcDbEntity
  8
1
  6
Continuous
100
AcDbLine
 10
131.0412679999997
 20
53.61564399999998
 30
0.0
 11
130.853488
 21
54.700895
 31
0.0
  0
ARC
  5
A022
330
9E75
100
AcDbEntity
  8
1
  6
Continuous
100
AcDbCircle
 10
131.533949
 20
53.70089499999998
 30
0.0
 40
0.5
100
AcDbArc
 50
180.000037
 51
270.00002
  0
LINE
  5
A023
330
9E75
100
AcDbEntity
  8
1
  6
Continuous
100
AcDbLine
 10
144.026629
 20
53.61564399999998
 30
0.0
 11
144.214409
 21
54.700895
 31
0.0
  0
ARC
  5
A024
330
9E75
100
AcDbEntity
  8
1
  6
Continuous
100
AcDbCircle
 10
143.533949
 20
53.70089499999998
 30
0.0
 40
0.5
100
AcDbArc
 50
269.99998
 51
359.99997
  0
ARC
  5
A025
330
9E75
100
AcDbEntity
  8
1
  6
Continuous
100
AcDbCircle
 10
159.7753509999997
 20
56.70089499999999
 30
0.0
 40
2.0
100
AcDbArc
 50
269.99998
 51
349.8000699999999
  0
LINE
  5
A026
330
9E75
100
AcDbEntity
  8
1
  6
Continuous
100
AcDbLine
 10
115.292547
 20
75.70089499999998
 30
0.0
 11
159.7753519999999
 21
75.70089499999998
 31
0.0
  0
ARC
  5
A027
330
9E75
100
AcDbEntity
  8
1
  6
Continuous
100
AcDbCircle
 10
115.292547
 20
73.70089499999997
 30
0.0
 40
2.0
100
AcDbArc
 50
90.00005499999994
 51
169.80014
  0
LINE
  5
A028
330
9E75
100
AcDbEntity
  8
1
  6
Continuous
100
AcDbLine
 10
131.533949
 20
77.20089499999997
 30
0.0
 11
143.533949
 21
77.20089499999997
 31
0.0
  0
LINE
  5
A029
330
9E75
100
AcDbEntity
  8
1
  6
Continuous
100
AcDbLine
 10
131.0412689999997
 20
76.786146
 30
0.0
 11
130.853489
 21
75.700891
 31
0.0
  0
ARC
  5
A02A
330
9E75
100
AcDbEntity
  8
1
  6
Continuous
100
AcDbCircle
 10
131.533949
 20
76.70089499999997
 30
0.0
 40
0.5
100
AcDbArc
 50
90.00005499999994
 51
180.000037
  0
LINE
  5
A02B
330
9E75
100
AcDbEntity
  8
1
  6
Continuous
100
AcDbLine
 10
144.0266279999999
 20
76.786146
 30
0.0
 11
144.214408
 21
75.700891
 31
0.0
  0
ARC
  5
A02C
330
9E75
100
AcDbEntity
  8
1
  6
Continuous
100
AcDbCircle
 10
143.533949
 20
76.70089499999997
 30
0.0
 40
0.5
100
AcDbArc
 50
359.9999599999999
 51
89.99995000000001
  0
ARC
  5
A02D
330
9E75
100
AcDbEntity
  8
1
  6
Continuous
100
AcDbCircle
 10
159.7753509999997
 20
73.70089499999997
 30
0.0
 40
2.0
100
AcDbArc
 50
10.19986
 51
89.99995000000001
  0
ARC
  5
A02E
330
9E75
100
AcDbEntity
  8
1
  6
Continuous
100
AcDbCircle
 10
376.533949
 20
153.700895
 30
0.0
 40
25.0
100
AcDbArc
 50
142.9109879999998
 51
81.582667
  0
ARC
  5
A02F
330
9E75
100
AcDbEntity
  8
1
  6
Continuous
100
AcDbCircle
 10
376.533949
 20
153.700895
 30
0.0
 40
20.450001
100
AcDbArc
 50
146.7031629999999
 51
77.83399
  0
LINE
  5
A030
330
9E75
100
AcDbEntity
  8
1
  6
Continuous
100
AcDbLine
 10
393.4464629999998
 20
142.2043919999999
 30
0.0
 11
381.764565
 21
148.948945
 31
0.0
  0
LINE
  5
A031
330
9E75
100
AcDbEntity
  8
1
  6
Continuous
100
AcDbLine
 10
394.9464549999999
 20
144.802471
 30
0.0
 11
383.2316559999999
 21
151.566021
 31
0.0
  0
LINE
  5
A032
330
9E75
100
AcDbEntity
  8
1
  6
Continuous
100
AcDbLine
 10
358.121431
 20
144.802478
 30
0.0
 11
369.4823809999999
 21
151.361723
 31
0.0
  0
LINE
  5
A033
330
9E75
100
AcDbEntity
  8
1
  6
Continuous
100
AcDbLine
 10
359.6214309999999
 20
142.204403
 30
0.0
 11
371.303331
 21
148.948947
 31
0.0
  0
ENDSEC
  0
SECTION
  2
OBJECTS
  0
DICTIONARY
  5
9E63
330
0
100
AcDbDictionary
281
     1
  3
ACAD_CIP_PREVIOUS_PRODUCT_INFO
350
A0B2
  3
ACAD_COLOR
350
A094
  3
ACAD_DETAILVIEWSTYLE
350
A0AD
  3
ACAD_GROUP
350
9E64
  3
ACAD_LAYOUT
350
9E70
  3
ACAD_MATERIAL
350
A062
  3
ACAD_MLEADERSTYLE
350
A0A9
  3
ACAD_MLINESTYLE
350
9E6D
  3
ACAD_PLOTSETTINGS
350
9E6F
  3
ACAD_PLOTSTYLENAME
350
A060
  3
ACAD_SCALELIST
350
A097
  3
ACAD_SECTIONVIEWSTYLE
350
A0AB
  3
ACAD_TABLESTYLE
350
A095
  3
ACAD_VISUALSTYLE
350
A07B
  3
ACDB_RECOMPOSE_DATA
350
A0D0
  3
AcDbVariableDictionary
350
A0C3
  3
DWGPROPS
350
A0D1
  0
DICTIONARY
  5
A0B3
330
9E67
100
AcDbDictionary
280
     1
281
     1
  3
ADSK_XREC_LAYER_RECONCILED
360
A0B4
  0
DICTIONARY
  5
A0B5
330
9E7D
100
AcDbDictionary
280
     1
281
     1
  3
ADSK_XREC_LAYER_RECONCILED
360
A0B6
  0
DICTIONARY
  5
A0B7
330
9E7E
100
AcDbDictionary
280
     1
281
     1
  3
ADSK_XREC_LAYER_RECONCILED
360
A0B8
  0
DICTIONARY
  5
A0B9
330
9E7F
100
AcDbDictionary
280
     1
281
     1
  3
ADSK_XREC_LAYER_RECONCILED
360
A0BA
  0
DICTIONARY
  5
A0BB
330
9E80
100
AcDbDictionary
280
     1
281
     1
  3
ADSK_XREC_LAYER_RECONCILED
360
A0BC
  0
DICTIONARY
  5
A0BD
330
9E81
100
AcDbDictionary
280
     1
281
     1
  3
ADSK_XREC_LAYER_RECONCILED
360
A0BE
  0
DICTIONARY
  5
A0BF
330
9E82
100
AcDbDictionary
280
     1
281
     1
  3
ADSK_XREC_LAYER_RECONCILED
360
A0C0
  0
DICTIONARY
  5
A0C1
330
9E83
100
AcDbDictionary
280
     1
281
     1
  3
ADSK_XREC_LAYER_RECONCILED
360
A0C2
  0
DICTIONARY
  5
A03E
330
9E75
100
AcDbDictionary
281
     1
  3
ACAD_LAYOUTSELFREF
350
A05C
  0
DICTIONARY
  5
A03C
330
9E71
100
AcDbDictionary
281
     1
  3
ACAD_LAYOUTSELFREF
350
A05B
  0
XRECORD
  5
A0B2
102
{ACAD_REACTORS
330
9E63
102
}
330
9E63
100
AcDbXrecord
280
     1
300
ACDLT
300
2014
300
ACDLT_F_S
  0
DICTIONARY
  5
A094
102
{ACAD_REACTORS
330
9E63
102
}
330
9E63
100
AcDbDictionary
281
     1
  0
DICTIONARY
  5
A0AD
102
{ACAD_REACTORS
330
9E63
102
}
330
9E63
100
AcDbDictionary
281
     1
  3
Imperial24
350
A0AE
  0
DICTIONARY
  5
9E64
102
{ACAD_REACTORS
330
9E63
102
}
330
9E63
100
AcDbDictionary
281
     1
  0
DICTIONARY
  5
9E70
102
{ACAD_REACTORS
330
9E63
102
}
330
9E63
100
AcDbDictionary
281
     1
  3
Model
350
A0AF
  3
レイアウト1
350
A0B0
  0
DICTIONARY
  5
A062
102
{ACAD_REACTORS
330
9E63
102
}
330
9E63
100
AcDbDictionary
281
     1
  3
ByBlock
350
A06B
  3
ByLayer
350
A063
  3
Global
350
A073
  0
DICTIONARY
  5
A0A9
102
{ACAD_REACTORS
330
9E63
102
}
330
9E63
100
AcDbDictionary
281
     1
  3
Standard
350
A0AA
  0
DICTIONARY
  5
9E6D
102
{ACAD_REACTORS
330
9E63
102
}
330
9E63
100
AcDbDictionary
281
     1
  3
STANDARD
350
9E6E
  0
DICTIONARY
  5
9E6F
102
{ACAD_REACTORS
330
9E63
102
}
330
9E63
100
AcDbDictionary
281
     1
  0
ACDBDICTIONARYWDFLT
  5
A060
102
{ACAD_REACTORS
330
9E63
102
}
330
9E63
100
AcDbDictionary
281
     1
  3
Normal
350
A061
100
AcDbDictionaryWithDefault
340
A061
  0
DICTIONARY
  5
A097
102
{ACAD_REACTORS
330
9E63
102
}
330
9E63
100
AcDbDictionary
281
     1
  3
A0
350
A098
  3
A1
350
A099
  3
A2
350
A09A
  3
A3
350
A09B
  3
A4
350
A09C
  3
A5
350
A09D
  3
A6
350
A09E
  3
A7
350
A09F
  3
A8
350
A0A0
  3
A9
350
A0A1
  3
B0
350
A0A2
  3
B1
350
A0A3
  3
B2
350
A0A4
  3
B3
350
A0A5
  3
B4
350
A0A6
  3
B5
350
A0A7
  3
B6
350
A0A8
  0
DICTIONARY
  5
A0AB
102
{ACAD_REACTORS
330
9E63
102
}
330
9E63
100
AcDbDictionary
281
     1
  3
Imperial24
350
A0AC
  0
DICTIONARY
  5
A095
102
{ACAD_REACTORS
330
9E63
102
}
330
9E63
100
AcDbDictionary
281
     1
  3
Standard
350
A096
  0
DICTIONARY
  5
A07B
102
{ACAD_REACTORS
330
9E63
102
}
330
9E63
100
AcDbDictionary
281
     1
  3
2dWireframe
350
A081
  3
Basic
350
A080
  3
Brighten
350
A087
  3
ColorChange
350
A08B
  3
Conceptual
350
A084
  3
Dim
350
A086
  3
EdgeColorOff
350
A093
  3
Facepattern
350
A08A
  3
Flat
350
A07C
  3
FlatWithEdges
350
A07D
  3
Gouraud
350
A07E
  3
GouraudWithEdges
350
A07F
  3
Hidden
350
A083
  3
JitterOff
350
A091
  3
Linepattern
350
A089
  3
OverhangOff
350
A092
  3
Realistic
350
A085
  3
Shaded
350
A090
  3
Shaded with edges
350
A08F
  3
Shades of Gray
350
A08C
  3
Sketchy
350
A08D
  3
Thicken
350
A088
  3
Wireframe
350
A082
  3
X-Ray
350
A08E
  0
XRECORD
  5
A0D0
102
{ACAD_REACTORS
330
9E63
102
}
330
9E63
100
AcDbXrecord
280
     1
 90
        1
330
A096
  0
DICTIONARY
  5
A0C3
102
{ACAD_REACTORS
330
9E63
102
}
330
9E63
100
AcDbDictionary
281
     1
  3
CANNOSCALE
350
A0C8
  3
CMLEADERSTYLE
350
A0C5
  3
CTABLESTYLE
350
A0C4
  3
CVIEWDETAILSTYLE
350
A0C6
  3
CVIEWSECTIONSTYLE
350
A0C7
  3
DIMASSOC
350
A0CB
  3
INDEXCTL
350
A0CA
  3
SORTENTS
350
A0C9
  3
XCLIPFRAME
350
A0CC
  0
XRECORD
  5
A0D1
102
{ACAD_REACTORS
330
9E63
102
}
330
9E63
100
AcDbXrecord
280
     1
  1
DWGPROPS COOKIE
  2

  3

  4

  6

  7

  8
Yoshitsune
  9

300
=
301
=
302
=
303
=
304
=
305
=
306
=
307
=
308
=
309
=
 40
0.1563604976851852
 41
2451301.446732407
 42
2457192.690279433
  1

 90
        0
  0
XRECORD
  5
A0B4
102
{ACAD_REACTORS
330
A0B3
102
}
330
A0B3
100
AcDbXrecord
280
     1
290
     1
  0
XRECORD
  5
A0B6
102
{ACAD_REACTORS
330
A0B5
102
}
330
A0B5
100
AcDbXrecord
280
     1
290
     1
  0
XRECORD
  5
A0B8
102
{ACAD_REACTORS
330
A0B7
102
}
330
A0B7
100
AcDbXrecord
280
     1
290
     1
  0
XRECORD
  5
A0BA
102
{ACAD_REACTORS
330
A0B9
102
}
330
A0B9
100
AcDbXrecord
280
     1
290
     1
  0
XRECORD
  5
A0BC
102
{ACAD_REACTORS
330
A0BB
102
}
330
A0BB
100
AcDbXrecord
280
     1
290
     1
  0
XRECORD
  5
A0BE
102
{ACAD_REACTORS
330
A0BD
102
}
330
A0BD
100
AcDbXrecord
280
     1
290
     1
  0
XRECORD
  5
A0C0
102
{ACAD_REACTORS
330
A0BF
102
}
330
A0BF
100
AcDbXrecord
280
     1
290
     1
  0
XRECORD
  5
A0C2
102
{ACAD_REACTORS
330
A0C1
102
}
330
A0C1
100
AcDbXrecord
280
     1
290
     1
  0
XRECORD
  5
A05C
102
{ACAD_REACTORS
330
A03E
102
}
330
A03E
100
AcDbXrecord
280
     1
340
9E75
  0
XRECORD
  5
A05B
102
{ACAD_REACTORS
330
A03C
102
}
330
A03C
100
AcDbXrecord
280
     1
340
9E71
  0
ACDBDETAILVIEWSTYLE
  5
A0AE
102
{ACAD_XDICTIONARY
360
A109
102
}
102
{ACAD_REACTORS
330
A0AD
102
}
330
A0AD
100
AcDbModelDocViewStyle
 70
     0
  3
Imperial24
290
     0
100
AcDbDetailViewStyle
 70
     0
 71
     0
 90
        3
 71
     1
340
9E68
 40
0.24
340
0
 40
0.24
300

 40
0.36
280
     3
 71
     2
340
9E6C
 90
       25
 71
     3
340
9E68
 40
0.24
 90
        1
 40
0.75
 90
        1
300
%<\AcVar ViewType \f "%tc1">% %<\AcVar ViewDetailId>%\PSCALE %<\AcVar ViewScale \f "%sn">%
 71
     4
340
9E6C
 90
       25
340
9E6C
 90
       25
280
     0
  0
LAYOUT
  5
A0AF
102
{ACAD_XDICTIONARY
360
A10B
102
}
102
{ACAD_REACTORS
330
9E70
102
}
330
9E70
100
AcDbPlotSettings
  1

  2
Canon LBP9100C
  4

  6

 40
0.0
 41
0.0
 42
0.0
 43
0.0
 44
0.0
 45
0.0
 46
0.0
 47
0.0
 48
0.0
 49
0.0
140
0.0
141
0.0
142
1.0
143
1.0
 70
  1712
 72
     0
 73
     0
 74
     0
  7

 75
     0
147
1.0
148
0.0
149
0.0
100
AcDbLayout
  1
Model
 70
     1
 71
     0
 10
0.0
 20
0.0
 11
12.0
 21
9.0
 12
0.0
 22
0.0
 32
0.0
 14
0.0
 24
0.0
 34
0.0
 15
0.0
 25
0.0
 35
0.0
146
0.0
 13
0.0
 23
0.0
 33
0.0
 16
1.0
 26
0.0
 36
0.0
 17
0.0
 27
1.0
 37
0.0
 76
     0
330
9E75
331
A05A
  0
LAYOUT
  5
A0B0
102
{ACAD_XDICTIONARY
360
A10D
102
}
102
{ACAD_REACTORS
330
9E70
102
}
330
9E70
100
AcDbPlotSettings
  1

  2
Canon LBP9100C
  4

  6

 40
0.0
 41
0.0
 42
0.0
 43
0.0
 44
0.0
 45
0.0
 46
0.0
 47
0.0
 48
0.0
 49
0.0
140
0.0
141
0.0
142
1.0
143
1.0
 70
   688
 72
     0
 73
     0
 74
     5
  7

 75
    16
147
1.0
148
0.0
149
0.0
100
AcDbLayout
  1
レイアウト1
 70
     0
 71
     1
 10
0.0
 20
0.0
 11
420.0
 21
297.0
 12
0.0
 22
0.0
 32
0.0
 14
1.000000000000000E+20
 24
1.000000000000000E+20
 34
1.000000000000000E+20
 15
-1.000000000000000E+20
 25
-1.000000000000000E+20
 35
-1.000000000000000E+20
146
0.0
 13
0.0
 23
0.0
 33
0.0
 16
1.0
 26
0.0
 36
0.0
 17
0.0
 27
1.0
 37
0.0
 76
     0
330
9E71
  0
MATERIAL
  5
A06B
102
{ACAD_XDICTIONARY
360
A06C
102
}
102
{ACAD_REACTORS
330
A062
102
}
330
A062
100
AcDbMaterial
  1
ByBlock
 72
     0
 43
0.0208333333333333
 43
0.0
 43
0.0
 43
0.0
 43
0.0
 43
0.0208333333333333
 43
0.0
 43
0.0
 43
0.0
 43
0.0
 43
1.0
 43
0.0
 43
0.0
 43
0.0
 43
0.0
 43
1.0
 77
     0
 47
0.0208333333333333
 47
0.0
 47
0.0
 47
0.0
 47
0.0
 47
0.0208333333333333
 47
0.0
 47
0.0
 47
0.0
 47
0.0
 47
1.0
 47
0.0
 47
0.0
 47
0.0
 47
0.0
 47
1.0
171
     0
 49
0.0208333333333333
 49
0.0
 49
0.0
 49
0.0
 49
0.0
 49
0.0208333333333333
 49
0.0
 49
0.0
 49
0.0
 49
0.0
 49
1.0
 49
0.0
 49
0.0
 49
0.0
 49
0.0
 49
1.0
175
     0
142
0.0208333333333333
142
0.0
142
0.0
142
0.0
142
0.0
142
0.0208333333333333
142
0.0
142
0.0
142
0.0
142
0.0
142
1.0
142
0.0
142
0.0
142
0.0
142
0.0
142
1.0
179
     0
144
0.0208333333333333
144
0.0
144
0.0
144
0.0
144
0.0
144
0.0208333333333333
144
0.0
144
0.0
144
0.0
144
0.0
144
1.0
144
0.0
144
0.0
144
0.0
144
0.0
144
1.0
147
0.0208333333333333
147
0.0
147
0.0
147
0.0
147
0.0
147
0.0208333333333333
147
0.0
147
0.0
147
0.0
147
0.0
147
1.0
147
0.0
147
0.0
147
0.0
147
0.0
147
1.0
  0
MATERIAL
  5
A063
102
{ACAD_XDICTIONARY
360
A064
102
}
102
{ACAD_REACTORS
330
A062
102
}
330
A062
100
AcDbMaterial
  1
ByLayer
 72
     0
 43
0.0208333333333333
 43
0.0
 43
0.0
 43
0.0
 43
0.0
 43
0.0208333333333333
 43
0.0
 43
0.0
 43
0.0
 43
0.0
 43
1.0
 43
0.0
 43
0.0
 43
0.0
 43
0.0
 43
1.0
 77
     0
 47
0.0208333333333333
 47
0.0
 47
0.0
 47
0.0
 47
0.0
 47
0.0208333333333333
 47
0.0
 47
0.0
 47
0.0
 47
0.0
 47
1.0
 47
0.0
 47
0.0
 47
0.0
 47
0.0
 47
1.0
171
     0
 49
0.0208333333333333
 49
0.0
 49
0.0
 49
0.0
 49
0.0
 49
0.0208333333333333
 49
0.0
 49
0.0
 49
0.0
 49
0.0
 49
1.0
 49
0.0
 49
0.0
 49
0.0
 49
0.0
 49
1.0
175
     0
142
0.0208333333333333
142
0.0
142
0.0
142
0.0
142
0.0
142
0.0208333333333333
142
0.0
142
0.0
142
0.0
142
0.0
142
1.0
142
0.0
142
0.0
142
0.0
142
0.0
142
1.0
179
     0
144
0.0208333333333333
144
0.0
144
0.0
144
0.0
144
0.0
144
0.0208333333333333
144
0.0
144
0.0
144
0.0
144
0.0
144
1.0
144
0.0
144
0.0
144
0.0
144
0.0
144
1.0
147
0.0208333333333333
147
0.0
147
0.0
147
0.0
147
0.0
147
0.0208333333333333
147
0.0
147
0.0
147
0.0
147
0.0
147
1.0
147
0.0
147
0.0
147
0.0
147
0.0
147
1.0
  0
MATERIAL
  5
A073
102
{ACAD_XDICTIONARY
360
A074
102
}
102
{ACAD_REACTORS
330
A062
102
}
330
A062
100
AcDbMaterial
  1
Global
 72
     0
 43
0.0208333333333333
 43
0.0
 43
0.0
 43
0.0
 43
0.0
 43
0.0208333333333333
 43
0.0
 43
0.0
 43
0.0
 43
0.0
 43
1.0
 43
0.0
 43
0.0
 43
0.0
 43
0.0
 43
1.0
 77
     0
 47
0.0208333333333333
 47
0.0
 47
0.0
 47
0.0
 47
0.0
 47
0.0208333333333333
 47
0.0
 47
0.0
 47
0.0
 47
0.0
 47
1.0
 47
0.0
 47
0.0
 47
0.0
 47
0.0
 47
1.0
171
     0
 49
0.0208333333333333
 49
0.0
 49
0.0
 49
0.0
 49
0.0
 49
0.0208333333333333
 49
0.0
 49
0.0
 49
0.0
 49
0.0
 49
1.0
 49
0.0
 49
0.0
 49
0.0
 49
0.0
 49
1.0
175
     0
142
0.0208333333333333
142
0.0
142
0.0
142
0.0
142
0.0
142
0.0208333333333333
142
0.0
142
0.0
142
0.0
142
0.0
142
1.0
142
0.0
142
0.0
142
0.0
142
0.0
142
1.0
179
     0
144
0.0208333333333333
144
0.0
144
0.0
144
0.0
144
0.0
144
0.0208333333333333
144
0.0
144
0.0
144
0.0
144
0.0
144
1.0
144
0.0
144
0.0
144
0.0
144
0.0
144
1.0
147
0.0208333333333333
147
0.0
147
0.0
147
0.0
147
0.0
147
0.0208333333333333
147
0.0
147
0.0
147
0.0
147
0.0
147
1.0
147
0.0
147
0.0
147
0.0
147
0.0
147
1.0
  0
MLEADERSTYLE
  5
A0AA
102
{ACAD_REACTORS
330
A0A9
102
}
330
A0A9
100
AcDbMLeaderStyle
170
     2
171
     1
172
     0
 90
        2
 40
0.0
 41
0.0
173
     1
 91
-1056964608
340
9E6A
 92
       -2
290
     1
 42
0.09
291
     1
 43
0.36
  3
Standard
 44
0.18
300

342
9E68
174
     1
178
     6
175
     1
176
     0
 93
-1056964608
 45
0.18
292
     0
297
     0
 46
0.18
 94
-1056964608
 47
1.0
 49
1.0
140
1.0
293
     1
141
0.0
294
     1
177
     0
142
1.0
295
     0
296
     0
143
0.125
1001
ACAD_MLEADERVER
1070
     2
  0
MLINESTYLE
  5
9E6E
102
{ACAD_REACTORS
330
9E6D
102
}
330
9E6D
100
AcDbMlineStyle
  2
STANDARD
 70
     0
  3

 62
   256
 51
90.0
 52
90.0
 71
     2
 49
0.5
 62
   256
  6
BYLAYER
 49
-0.5
 62
   256
  6
BYLAYER
  0
ACDBPLACEHOLDER
  5
A061
102
{ACAD_REACTORS
330
A060
102
}
330
A060
  0
SCALE
  5
A098
102
{ACAD_REACTORS
330
A097
102
}
330
A097
100
AcDbScale
 70
     0
300
1:1
140
1.0
141
1.0
290
     1
  0
SCALE
  5
A099
102
{ACAD_REACTORS
330
A097
102
}
330
A097
100
AcDbScale
 70
     0
300
1/128" = 1'-0"
140
0.0078125
141
12.0
290
     0
  0
SCALE
  5
A09A
102
{ACAD_REACTORS
330
A097
102
}
330
A097
100
AcDbScale
 70
     0
300
1/64" = 1'-0"
140
0.015625
141
12.0
290
     0
  0
SCALE
  5
A09B
102
{ACAD_REACTORS
330
A097
102
}
330
A097
100
AcDbScale
 70
     0
300
1/32" = 1'-0"
140
0.03125
141
12.0
290
     0
  0
SCALE
  5
A09C
102
{ACAD_REACTORS
330
A097
102
}
330
A097
100
AcDbScale
 70
     0
300
1/16" = 1'-0"
140
0.0625
141
12.0
290
     0
  0
SCALE
  5
A09D
102
{ACAD_REACTORS
330
A097
102
}
330
A097
100
AcDbScale
 70
     0
300
3/32" = 1'-0"
140
0.09375
141
12.0
290
     0
  0
SCALE
  5
A09E
102
{ACAD_REACTORS
330
A097
102
}
330
A097
100
AcDbScale
 70
     0
300
1/8" = 1'-0"
140
0.125
141
12.0
290
     0
  0
SCALE
  5
A09F
102
{ACAD_REACTORS
330
A097
102
}
330
A097
100
AcDbScale
 70
     0
300
3/16" = 1'-0"
140
0.1875
141
12.0
290
     0
  0
SCALE
  5
A0A0
102
{ACAD_REACTORS
330
A097
102
}
330
A097
100
AcDbScale
 70
     0
300
1/4" = 1'-0"
140
0.25
141
12.0
290
     0
  0
SCALE
  5
A0A1
102
{ACAD_REACTORS
330
A097
102
}
330
A097
100
AcDbScale
 70
     0
300
3/8" = 1'-0"
140
0.375
141
12.0
290
     0
  0
SCALE
  5
A0A2
102
{ACAD_REACTORS
330
A097
102
}
330
A097
100
AcDbScale
 70
     0
300
1/2" = 1'-0"
140
0.5
141
12.0
290
     0
  0
SCALE
  5
A0A3
102
{ACAD_REACTORS
330
A097
102
}
330
A097
100
AcDbScale
 70
     0
300
3/4" = 1'-0"
140
0.75
141
12.0
290
     0
  0
SCALE
  5
A0A4
102
{ACAD_REACTORS
330
A097
102
}
330
A097
100
AcDbScale
 70
     0
300
1" = 1'-0"
140
1.0
141
12.0
290
     0
  0
SCALE
  5
A0A5
102
{ACAD_REACTORS
330
A097
102
}
330
A097
100
AcDbScale
 70
     0
300
1-1/2" = 1'-0"
140
1.5
141
12.0
290
     0
  0
SCALE
  5
A0A6
102
{ACAD_REACTORS
330
A097
102
}
330
A097
100
AcDbScale
 70
     0
300
3" = 1'-0"
140
3.0
141
12.0
290
     0
  0
SCALE
  5
A0A7
102
{ACAD_REACTORS
330
A097
102
}
330
A097
100
AcDbScale
 70
     0
300
6" = 1'-0"
140
6.0
141
12.0
290
     0
  0
SCALE
  5
A0A8
102
{ACAD_REACTORS
330
A097
102
}
330
A097
100
AcDbScale
 70
     0
300
1'-0" = 1'-0"
140
12.0
141
12.0
290
     0
  0
ACDBSECTIONVIEWSTYLE
  5
A0AC
102
{ACAD_XDICTIONARY
360
A107
102
}
102
{ACAD_REACTORS
330
A0AB
102
}
330
A0AB
100
AcDbModelDocViewStyle
 70
     0
  3
Imperial24
290
     0
100
AcDbSectionViewStyle
 70
     0
 71
     0
 90
       78
 71
     1
340
9E68
 40
0.24
340
0
340
0
 40
0.24
300
I, O, Q, S, X, Z
 40
0.48
 90
        3
 40
0.18
 90
        1
 71
     2
340
9E6C
 90
       25
340
9E6C
 90
       50
 40
0.24
 40
0.0
 40
0.24
 71
     3
340
9E68
 40
0.24
 90
        1
 40
0.75
 90
        1
300
%<\AcVar ViewType \f "%tc1">% %<\AcVar ViewSectionStartId>%-%<\AcVar ViewSectionEndId>%\PSCALE %<\AcVar ViewScale \f "%sn">%
 71
     4
300
ANSI31
 40
1.0
 90
        0
290
     0
290
     0
 90
        6
 40
0.0
 40
1.570796326794896
 40
0.2617993877991494
 40
1.308996938995747
 40
-0.2617993877991494
 40
1.832595714594046
  0
TABLESTYLE
  5
A096
102
{ACAD_XDICTIONARY
360
A0CE
102
}
102
{ACAD_REACTORS
330
A095
102
}
330
A095
100
AcDbTableStyle
  3
Standard
 70
     0
 71
     0
 40
0.06
 41
0.06
280
     0
281
     0
  7
STANDARD
140
0.18
170
     2
 62
     0
 63
     7
283
     0
274
    -2
284
     1
 64
     0
275
    -2
285
     1
 65
     0
276
    -2
286
     1
 66
     0
277
    -2
287
     1
 67
     0
278
    -2
288
     1
 68
     0
279
    -2
289
     1
 69
     0
  7
STANDARD
140
0.25
170
     5
 62
     0
 63
     7
283
     0
274
    -2
284
     1
 64
     0
275
    -2
285
     1
 65
     0
276
    -2
286
     1
 66
     0
277
    -2
287
     1
 67
     0
278
    -2
288
     1
 68
     0
279
    -2
289
     1
 69
     0
  7
STANDARD
140
0.18
170
     5
 62
     0
 63
     7
283
     0
274
    -2
284
     1
 64
     0
275
    -2
285
     1
 65
     0
276
    -2
286
     1
 66
     0
277
    -2
287
     1
 67
     0
278
    -2
288
     1
 68
     0
279
    -2
289
     1
 69
     0
  0
VISUALSTYLE
  5
A081
102
{ACAD_XDICTIONARY
360
A0DF
102
}
102
{ACAD_REACTORS
330
A07B
102
}
330
A07B
100
AcDbVisualStyle
  2
2dWireframe
 70
     4
 71
     0
 72
     2
 73
     0
 90
        0
 40
-0.6
 41
-30.0
 62
     5
 63
     7
 74
     1
 91
        4
 64
     7
 65
   257
 75
     1
175
     1
 42
1.0
 92
        0
 66
   257
 43
1.0
 76
     1
 77
     6
 78
     2
 67
     7
 79
     5
170
     0
171
     0
290
     0
174
     0
 93
        1
 44
0.0
173
     0
291
     0
 45
0.0
1001
ACAD
1000
AcDbSavedByObjectVersion
1070
     0
  0
VISUALSTYLE
  5
A080
102
{ACAD_XDICTIONARY
360
A0DD
102
}
102
{ACAD_REACTORS
330
A07B
102
}
330
A07B
100
AcDbVisualStyle
  2
Basic
 70
     7
 71
     1
 72
     0
 73
     1
 90
        0
 40
-0.6
 41
-30.0
 62
     5
 63
     7
 74
     0
 91
        4
 64
     7
 65
   257
 75
     1
175
     1
 42
1.0
 92
        8
 66
     7
 43
1.0
 76
     1
 77
     6
 78
     2
 67
     7
 79
     5
170
     0
171
     0
290
     0
174
     0
 93
        1
 44
0.0
173
     0
291
     1
 45
0.0
1001
ACAD
1000
AcDbSavedByObjectVersion
1070
     0
  0
VISUALSTYLE
  5
A087
102
{ACAD_XDICTIONARY
360
A0EB
102
}
102
{ACAD_REACTORS
330
A07B
102
}
330
A07B
100
AcDbVisualStyle
  2
Brighten
 70
    12
 71
     2
 72
     2
 73
     0
 90
        0
 40
-0.6
 41
-30.0
 62
     5
 63
     7
 74
     1
 91
        4
 64
     7
 65
   257
 75
     1
175
     1
 42
1.0
 92
        8
 66
     7
 43
1.0
 76
     1
 77
     6
 78
     2
 67
     7
 79
     5
170
     0
171
     0
290
     0
174
     0
 93
        1
 44
50.0
173
     0
291
     1
 45
0.0
1001
ACAD
1000
AcDbSavedByObjectVersion
1070
     0
  0
VISUALSTYLE
  5
A08B
102
{ACAD_XDICTIONARY
360
A0F3
102
}
102
{ACAD_REACTORS
330
A07B
102
}
330
A07B
100
AcDbVisualStyle
  2
ColorChange
 70
    16
 71
     2
 72
     2
 73
     3
 90
        0
 40
-0.6
 41
-30.0
 62
     5
 63
     8
 74
     1
 91
        4
 64
     7
 65
   257
 75
     1
175
     1
 42
1.0
 92
        8
 66
     8
 43
1.0
 76
     1
 77
     6
 78
     2
 67
     7
 79
     5
170
     0
171
     0
290
     0
174
     0
 93
        1
 44
0.0
173
     0
291
     1
 45
0.0
1001
ACAD
1000
AcDbSavedByObjectVersion
1070
     0
  0
VISUALSTYLE
  5
A084
102
{ACAD_XDICTIONARY
360
A0E5
102
}
102
{ACAD_REACTORS
330
A07B
102
}
330
A07B
100
AcDbVisualStyle
  2
Conceptual
 70
     9
 71
     3
 72
     2
 73
     0
 90
        0
 40
-0.6
 41
-30.0
 62
     5
 63
     7
 74
     2
 91
        2
 64
     7
 65
   257
 75
     1
175
     1
 42
179.0
 92
        8
 66
     7
 43
1.0
 76
     1
 77
     6
 78
     2
 67
     7
 79
     3
170
     0
171
     0
290
     0
174
     0
 93
        1
 44
0.0
173
     0
291
     0
 45
0.0
1001
ACAD
1000
AcDbSavedByObjectVersion
1070
     0
  0
VISUALSTYLE
  5
A086
102
{ACAD_XDICTIONARY
360
A0E9
102
}
102
{ACAD_REACTORS
330
A07B
102
}
330
A07B
100
AcDbVisualStyle
  2
Dim
 70
    11
 71
     2
 72
     2
 73
     0
 90
        0
 40
-0.6
 41
-30.0
 62
     5
 63
     7
 74
     1
 91
        4
 64
     7
 65
   257
 75
     1
175
     1
 42
1.0
 92
        8
 66
     7
 43
1.0
 76
     1
 77
     6
 78
     2
 67
     7
 79
     5
170
     0
171
     0
290
     0
174
     0
 93
        1
 44
-50.0
173
     0
291
     1
 45
0.0
1001
ACAD
1000
AcDbSavedByObjectVersion
1070
     0
  0
VISUALSTYLE
  5
A093
102
{ACAD_XDICTIONARY
360
A103
102
}
102
{ACAD_REACTORS
330
A07B
102
}
330
A07B
100
AcDbVisualStyle
  2
EdgeColorOff
 70
    22
 71
     2
 72
     2
 73
     0
 90
        0
 40
-0.6
 41
-30.0
 62
     5
 63
     7
 74
     1
 91
        4
 64
     7
 65
   257
 75
     1
175
     1
 42
1.0
 92
        8
 66
     7
 43
1.0
 76
     1
 77
     6
 78
     2
 67
     7
 79
     5
170
     0
171
     0
290
     0
174
     0
 93
        1
 44
0.0
173
     0
291
     1
 45
0.0
1001
ACAD
1000
AcDbSavedByObjectVersion
1070
     0
  0
VISUALSTYLE
  5
A08A
102
{ACAD_XDICTIONARY
360
A0F1
102
}
102
{ACAD_REACTORS
330
A07B
102
}
330
A07B
100
AcDbVisualStyle
  2
Facepattern
 70
    15
 71
     2
 72
     2
 73
     0
 90
        0
 40
-0.6
 41
-30.0
 62
     5
 63
     7
 74
     1
 91
        4
 64
     7
 65
   257
 75
     1
175
     1
 42
1.0
 92
        8
 66
     7
 43
1.0
 76
     1
 77
     6
 78
     2
 67
     7
 79
     5
170
     0
171
     0
290
     0
174
     0
 93
        1
 44
0.0
173
     0
291
     1
 45
0.0
1001
ACAD
1000
AcDbSavedByObjectVersion
1070
     0
  0
VISUALSTYLE
  5
A07C
102
{ACAD_XDICTIONARY
360
A0D5
102
}
102
{ACAD_REACTORS
330
A07B
102
}
330
A07B
100
AcDbVisualStyle
  2
Flat
 70
     0
 71
     2
 72
     1
 73
     1
 90
        2
 40
-0.6
 41
30.0
 62
     5
 63
     7
 74
     0
 91
        0
 64
     7
 65
   257
 75
     1
175
     1
 42
1.0
 92
        8
 66
     7
 43
1.0
 76
     1
 77
     6
 78
     2
 67
     7
 79
     5
170
     0
171
     0
290
     0
174
     0
 93
       13
 44
0.0
173
     0
291
     1
 45
0.0
1001
ACAD
1000
AcDbSavedByObjectVersion
1070
     0
  0
VISUALSTYLE
  5
A07D
102
{ACAD_XDICTIONARY
360
A0D7
102
}
102
{ACAD_REACTORS
330
A07B
102
}
330
A07B
100
AcDbVisualStyle
  2
FlatWithEdges
 70
     1
 71
     2
 72
     1
 73
     1
 90
        2
 40
-0.6
 41
30.0
 62
     5
 63
     7
 74
     1
 91
        0
 64
     7
 65
   257
 75
     1
175
     1
 42
1.0
 92
        0
 66
   257
 43
1.0
 76
     1
 77
     6
 78
     2
 67
     7
 79
     5
170
     0
171
     0
290
     0
174
     0
 93
       13
 44
0.0
173
     0
291
     1
 45
0.0
1001
ACAD
1000
AcDbSavedByObjectVersion
1070
     0
  0
VISUALSTYLE
  5
A07E
102
{ACAD_XDICTIONARY
360
A0D9
102
}
102
{ACAD_REACTORS
330
A07B
102
}
330
A07B
100
AcDbVisualStyle
  2
Gouraud
 70
     2
 71
     2
 72
     2
 73
     1
 90
        2
 40
-0.6
 41
30.0
 62
     5
 63
     7
 74
     0
 91
        0
 64
     7
 65
   257
 75
     1
175
     1
 42
1.0
 92
        0
 66
     7
 43
1.0
 76
     1
 77
     6
 78
     2
 67
     7
 79
     5
170
     0
171
     0
290
     0
174
     0
 93
       13
 44
0.0
173
     0
291
     1
 45
0.0
1001
ACAD
1000
AcDbSavedByObjectVersion
1070
     0
  0
VISUALSTYLE
  5
A07F
102
{ACAD_XDICTIONARY
360
A0DB
102
}
102
{ACAD_REACTORS
330
A07B
102
}
330
A07B
100
AcDbVisualStyle
  2
GouraudWithEdges
 70
     3
 71
     2
 72
     2
 73
     1
 90
        2
 40
-0.6
 41
30.0
 62
     5
 63
     7
 74
     1
 91
        0
 64
     7
 65
   257
 75
     1
175
     1
 42
1.0
 92
        0
 66
   257
 43
1.0
 76
     1
 77
     6
 78
     2
 67
     7
 79
     5
170
     0
171
     0
290
     0
174
     0
 93
       13
 44
0.0
173
     0
291
     1
 45
0.0
1001
ACAD
1000
AcDbSavedByObjectVersion
1070
     0
  0
VISUALSTYLE
  5
A083
102
{ACAD_XDICTIONARY
360
A0E3
102
}
102
{ACAD_REACTORS
330
A07B
102
}
330
A07B
100
AcDbVisualStyle
  2
Hidden
 70
     6
 71
     1
 72
     2
 73
     2
 90
        0
 40
-0.6
 41
-30.0
 62
     5
 63
     7
 74
     2
 91
        2
 64
     7
 65
   257
 75
     2
175
     1
 42
40.0
 92
        0
 66
   257
 43
1.0
 76
     1
 77
     6
 78
     2
 67
     7
 79
     3
170
     0
171
     0
290
     0
174
     0
 93
        1
 44
0.0
173
     0
291
     0
 45
0.0
1001
ACAD
1000
AcDbSavedByObjectVersion
1070
     0
  0
VISUALSTYLE
  5
A091
102
{ACAD_XDICTIONARY
360
A0FF
102
}
102
{ACAD_REACTORS
330
A07B
102
}
330
A07B
100
AcDbVisualStyle
  2
JitterOff
 70
    20
 71
     2
 72
     2
 73
     0
 90
        0
 40
-0.6
 41
-30.0
 62
     5
 63
     7
 74
     1
 91
        4
 64
     7
 65
   257
 75
     1
175
     1
 42
1.0
 92
       10
 66
     7
 43
1.0
 76
     1
 77
     6
 78
     2
 67
     7
 79
     5
170
     0
171
     0
290
     0
174
     0
 93
        1
 44
0.0
173
     0
291
     1
 45
0.0
1001
ACAD
1000
AcDbSavedByObjectVersion
1070
     0
  0
VISUALSTYLE
  5
A089
102
{ACAD_XDICTIONARY
360
A0EF
102
}
102
{ACAD_REACTORS
330
A07B
102
}
330
A07B
100
AcDbVisualStyle
  2
Linepattern
 70
    14
 71
     2
 72
     2
 73
     0
 90
        0
 40
-0.6
 41
-30.0
 62
     5
 63
     7
 74
     1
 91
        4
 64
     7
 65
   257
 75
     7
175
     7
 42
1.0
 92
        8
 66
     7
 43
1.0
 76
     1
 77
     6
 78
     2
 67
     7
 79
     5
170
     0
171
     0
290
     0
174
     0
 93
        1
 44
0.0
173
     0
291
     1
 45
0.0
1001
ACAD
1000
AcDbSavedByObjectVersion
1070
     0
  0
VISUALSTYLE
  5
A092
102
{ACAD_XDICTIONARY
360
A101
102
}
102
{ACAD_REACTORS
330
A07B
102
}
330
A07B
100
AcDbVisualStyle
  2
OverhangOff
 70
    21
 71
     2
 72
     2
 73
     0
 90
        0
 40
-0.6
 41
-30.0
 62
     5
 63
     7
 74
     1
 91
        4
 64
     7
 65
   257
 75
     1
175
     1
 42
1.0
 92
        9
 66
     7
 43
1.0
 76
     1
 77
     6
 78
     2
 67
     7
 79
     5
170
     0
171
     0
290
     0
174
     0
 93
        1
 44
0.0
173
     0
291
     1
 45
0.0
1001
ACAD
1000
AcDbSavedByObjectVersion
1070
     0
  0
VISUALSTYLE
  5
A085
102
{ACAD_XDICTIONARY
360
A0E7
102
}
102
{ACAD_REACTORS
330
A07B
102
}
330
A07B
100
AcDbVisualStyle
  2
Realistic
 70
     8
 71
     2
 72
     3
 73
     0
 90
        2
 40
-0.6
 41
30.0
 62
     5
 63
     7
 74
     0
 91
        0
 64
     7
 65
   257
 75
     1
175
     1
 42
1.0
 92
        8
 66
   257
 43
1.0
 76
     1
 77
     6
 78
     2
 67
     7
 79
     3
170
     0
171
     0
290
     0
174
     0
 93
       13
 44
0.0
173
     0
291
     0
 45
0.0
1001
ACAD
1000
AcDbSavedByObjectVersion
1070
     0
  0
VISUALSTYLE
  5
A090
102
{ACAD_XDICTIONARY
360
A0FD
102
}
102
{ACAD_REACTORS
330
A07B
102
}
330
A07B
100
AcDbVisualStyle
  2
Shaded
 70
    27
 71
     2
 72
     2
 73
     1
 90
        2
 40
-0.6
 41
30.0
 62
     5
 63
     7
 74
     0
 91
        4
 64
     7
 65
   257
 75
     1
175
     1
 42
1.0
 92
        8
 66
   257
 43
1.0
 76
     1
 77
     6
 78
     2
 67
     8
 79
     3
170
     0
171
     0
290
     0
174
     0
 93
        5
 44
0.0
173
     0
291
     0
 45
0.0
1001
ACAD
1000
AcDbSavedByObjectVersion
1070
     0
  0
VISUALSTYLE
  5
A08F
102
{ACAD_XDICTIONARY
360
A0FB
102
}
102
{ACAD_REACTORS
330
A07B
102
}
330
A07B
100
AcDbVisualStyle
  2
Shaded with edges
 70
    26
 71
     2
 72
     2
 73
     1
 90
        2
 40
-0.6
 41
30.0
 62
     5
 63
     7
 74
     1
 91
       10
 64
     7
 65
   257
 75
     2
175
     1
 42
1.0
 92
        8
 66
   257
 43
1.0
 76
     1
 77
     6
 78
     2
 67
     7
 79
     3
170
     0
171
     0
290
     0
174
     0
 93
        5
 44
0.0
173
     0
291
     0
 45
0.0
1001
ACAD
1000
AcDbSavedByObjectVersion
1070
     0
  0
VISUALSTYLE
  5
A08C
102
{ACAD_XDICTIONARY
360
A0F5
102
}
102
{ACAD_REACTORS
330
A07B
102
}
330
A07B
100
AcDbVisualStyle
  2
Shades of Gray
 70
    23
 71
     2
 72
     2
 73
     3
 90
        0
 40
-0.6
 41
-30.0
 62
     5
 63
     7
 74
     2
 91
        2
 64
     7
 65
     7
 75
     1
175
     1
 42
40.0
 92
        8
 66
     7
 43
1.0
 76
     1
 77
     6
 78
     2
 67
     7
 79
     3
170
     0
171
     0
290
     0
174
     0
 93
        1
 44
0.0
173
     0
291
     0
 45
0.0
1001
ACAD
1000
AcDbSavedByObjectVersion
1070
     0
  0
VISUALSTYLE
  5
A08D
102
{ACAD_XDICTIONARY
360
A0F7
102
}
102
{ACAD_REACTORS
330
A07B
102
}
330
A07B
100
AcDbVisualStyle
  2
Sketchy
 70
    24
 71
     1
 72
     2
 73
     2
 90
        0
 40
-0.6
 41
-30.0
 62
     5
 63
     7
 74
     2
 91
        2
 64
     7
 65
     7
 75
     1
175
     1
 42
40.0
 92
       11
 66
     7
 43
1.0
 76
     1
 77
     6
 78
     2
 67
     7
 79
     6
170
     0
171
     0
290
     0
174
     0
 93
        1
 44
0.0
173
     0
291
     0
 45
0.0
1001
ACAD
1000
AcDbSavedByObjectVersion
1070
     0
  0
VISUALSTYLE
  5
A088
102
{ACAD_XDICTIONARY
360
A0ED
102
}
102
{ACAD_REACTORS
330
A07B
102
}
330
A07B
100
AcDbVisualStyle
  2
Thicken
 70
    13
 71
     2
 72
     2
 73
     0
 90
        0
 40
-0.6
 41
-30.0
 62
     5
 63
     7
 74
     1
 91
        4
 64
     7
 65
   257
 75
     1
175
     1
 42
1.0
 92
       12
 66
     7
 43
1.0
 76
     1
 77
     6
 78
     2
 67
     7
 79
     5
170
     0
171
     0
290
     0
174
     0
 93
        1
 44
0.0
173
     0
291
     1
 45
0.0
1001
ACAD
1000
AcDbSavedByObjectVersion
1070
     0
  0
VISUALSTYLE
  5
A082
102
{ACAD_XDICTIONARY
360
A0E1
102
}
102
{ACAD_REACTORS
330
A07B
102
}
330
A07B
100
AcDbVisualStyle
  2
Wireframe
 70
     5
 71
     0
 72
     2
 73
     0
 90
        0
 40
-0.6
 41
-30.0
 62
     5
 63
     7
 74
     1
 91
        4
 64
     7
 65
   257
 75
     1
175
     1
 42
1.0
 92
        0
 66
   257
 43
1.0
 76
     1
 77
     6
 78
     2
 67
     7
 79
     3
170
     0
171
     0
290
     0
174
     0
 93
        1
 44
0.0
173
     0
291
     0
 45
0.0
1001
ACAD
1000
AcDbSavedByObjectVersion
1070
     0
  0
VISUALSTYLE
  5
A08E
102
{ACAD_XDICTIONARY
360
A0F9
102
}
102
{ACAD_REACTORS
330
A07B
102
}
330
A07B
100
AcDbVisualStyle
  2
X-Ray
 70
    25
 71
     2
 72
     2
 73
     1
 90
        1
 40
0.5
 41
-30.0
 62
     5
 63
     7
 74
     1
 91
        0
 64
     7
 65
   257
 75
     1
175
     1
 42
1.0
 92
        8
 66
     7
 43
1.0
 76
     1
 77
     6
 78
     2
 67
     7
 79
     3
170
     0
171
     0
290
     0
174
     0
 93
       13
 44
0.0
173
     0
291
     0
 45
0.0
1001
ACAD
1000
AcDbSavedByObjectVersion
1070
     0
  0
DICTIONARYVAR
  5
A0C8
102
{ACAD_REACTORS
330
A0C3
102
}
330
A0C3
100
DictionaryVariables
280
     0
  1
1:1
  0
DICTIONARYVAR
  5
A0C5
102
{ACAD_REACTORS
330
A0C3
102
}
330
A0C3
100
DictionaryVariables
280
     0
  1
STANDARD
  0
DICTIONARYVAR
  5
A0C4
102
{ACAD_REACTORS
330
A0C3
102
}
330
A0C3
100
DictionaryVariables
280
     0
  1
STANDARD
  0
DICTIONARYVAR
  5
A0C6
102
{ACAD_REACTORS
330
A0C3
102
}
330
A0C3
100
DictionaryVariables
280
     0
  1
Imperial24
  0
DICTIONARYVAR
  5
A0C7
102
{ACAD_REACTORS
330
A0C3
102
}
330
A0C3
100
DictionaryVariables
280
     0
  1
Imperial24
  0
DICTIONARYVAR
  5
A0CB
102
{ACAD_REACTORS
330
A0C3
102
}
330
A0C3
100
DictionaryVariables
280
     0
  1
1
  0
DICTIONARYVAR
  5
A0CA
102
{ACAD_REACTORS
330
A0C3
102
}
330
A0C3
100
DictionaryVariables
280
     0
  1
0
  0
DICTIONARYVAR
  5
A0C9
102
{ACAD_REACTORS
330
A0C3
102
}
330
A0C3
100
DictionaryVariables
280
     0
  1
127
  0
DICTIONARYVAR
  5
A0CC
102
{ACAD_REACTORS
330
A0C3
102
}
330
A0C3
100
DictionaryVariables
280
     0
  1
2
  0
DICTIONARY
  5
A109
330
A0AE
100
AcDbDictionary
280
     1
281
     1
  3
ACAD_XREC_ROUNDTRIP
360
A10A
  0
DICTIONARY
  5
A10B
330
A0AF
100
AcDbDictionary
280
     1
281
     1
  3
ACAD_XREC_ROUNDTRIP
360
A10C
  0
DICTIONARY
  5
A10D
330
A0B0
100
AcDbDictionary
280
     1
281
     1
  3
ACAD_XREC_ROUNDTRIP
360
A10E
  0
DICTIONARY
  5
A06C
330
A06B
100
AcDbDictionary
280
     1
281
     1
  3
ACAD_XREC_ROUNDTRIP
360
A0D3
  3
BUMPTILE
360
A06E
  3
DIFFUSETILE
360
A06D
  3
OPACITYTILE
360
A071
  3
REFLECTIONTILE
360
A070
  3
REFRACTIONTILE
360
A072
  3
SPECULARTILE
360
A06F
  0
DICTIONARY
  5
A064
330
A063
100
AcDbDictionary
280
     1
281
     1
  3
ACAD_XREC_ROUNDTRIP
360
A0D2
  3
BUMPTILE
360
A066
  3
DIFFUSETILE
360
A065
  3
OPACITYTILE
360
A069
  3
REFLECTIONTILE
360
A068
  3
REFRACTIONTILE
360
A06A
  3
SPECULARTILE
360
A067
  0
DICTIONARY
  5
A074
330
A073
100
AcDbDictionary
280
     1
281
     1
  3
ACAD_XREC_ROUNDTRIP
360
A0D4
  3
BUMPTILE
360
A076
  3
DIFFUSETILE
360
A075
  3
OPACITYTILE
360
A079
  3
REFLECTIONTILE
360
A078
  3
REFRACTIONTILE
360
A07A
  3
SPECULARTILE
360
A077
  0
DICTIONARY
  5
A107
330
A0AC
100
AcDbDictionary
280
     1
281
     1
  3
ACAD_XREC_ROUNDTRIP
360
A108
  0
DICTIONARY
  5
A0CE
330
A096
100
AcDbDictionary
280
     1
281
     1
  3
ACAD_ROUNDTRIP_2008_TABLESTYLE_CELLSTYLEMAP
360
A0CF
  3
ACAD_XREC_ROUNDTRIP
360
A105
  0
DICTIONARY
  5
A0DF
330
A081
100
AcDbDictionary
280
     1
281
     1
  3
ACAD_XREC_ROUNDTRIP
360
A0E0
  0
DICTIONARY
  5
A0DD
330
A080
100
AcDbDictionary
280
     1
281
     1
  3
ACAD_XREC_ROUNDTRIP
360
A0DE
  0
DICTIONARY
  5
A0EB
330
A087
100
AcDbDictionary
280
     1
281
     1
  3
ACAD_XREC_ROUNDTRIP
360
A0EC
  0
DICTIONARY
  5
A0F3
330
A08B
100
AcDbDictionary
280
     1
281
     1
  3
ACAD_XREC_ROUNDTRIP
360
A0F4
  0
DICTIONARY
  5
A0E5
330
A084
100
AcDbDictionary
280
     1
281
     1
  3
ACAD_XREC_ROUNDTRIP
360
A0E6
  0
DICTIONARY
  5
A0E9
330
A086
100
AcDbDictionary
280
     1
281
     1
  3
ACAD_XREC_ROUNDTRIP
360
A0EA
  0
DICTIONARY
  5
A103
330
A093
100
AcDbDictionary
280
     1
281
     1
  3
ACAD_XREC_ROUNDTRIP
360
A104
  0
DICTIONARY
  5
A0F1
330
A08A
100
AcDbDictionary
280
     1
281
     1
  3
ACAD_XREC_ROUNDTRIP
360
A0F2
  0
DICTIONARY
  5
A0D5
330
A07C
100
AcDbDictionary
280
     1
281
     1
  3
ACAD_XREC_ROUNDTRIP
360
A0D6
  0
DICTIONARY
  5
A0D7
330
A07D
100
AcDbDictionary
280
     1
281
     1
  3
ACAD_XREC_ROUNDTRIP
360
A0D8
  0
DICTIONARY
  5
A0D9
330
A07E
100
AcDbDictionary
280
     1
281
     1
  3
ACAD_XREC_ROUNDTRIP
360
A0DA
  0
DICTIONARY
  5
A0DB
330
A07F
100
AcDbDictionary
280
     1
281
     1
  3
ACAD_XREC_ROUNDTRIP
360
A0DC
  0
DICTIONARY
  5
A0E3
330
A083
100
AcDbDictionary
280
     1
281
     1
  3
ACAD_XREC_ROUNDTRIP
360
A0E4
  0
DICTIONARY
  5
A0FF
330
A091
100
AcDbDictionary
280
     1
281
     1
  3
ACAD_XREC_ROUNDTRIP
360
A100
  0
DICTIONARY
  5
A0EF
330
A089
100
AcDbDictionary
280
     1
281
     1
  3
ACAD_XREC_ROUNDTRIP
360
A0F0
  0
DICTIONARY
  5
A101
330
A092
100
AcDbDictionary
280
     1
281
     1
  3
ACAD_XREC_ROUNDTRIP
360
A102
  0
DICTIONARY
  5
A0E7
330
A085
100
AcDbDictionary
280
     1
281
     1
  3
ACAD_XREC_ROUNDTRIP
360
A0E8
  0
DICTIONARY
  5
A0FD
330
A090
100
AcDbDictionary
280
     1
281
     1
  3
ACAD_XREC_ROUNDTRIP
360
A0FE
  0
DICTIONARY
  5
A0FB
330
A08F
100
AcDbDictionary
280
     1
281
     1
  3
ACAD_XREC_ROUNDTRIP
360
A0FC
  0
DICTIONARY
  5
A0F5
330
A08C
100
AcDbDictionary
280
     1
281
     1
  3
ACAD_XREC_ROUNDTRIP
360
A0F6
  0
DICTIONARY
  5
A0F7
330
A08D
100
AcDbDictionary
280
     1
281
     1
  3
ACAD_XREC_ROUNDTRIP
360
A0F8
  0
DICTIONARY
  5
A0ED
330
A088
100
AcDbDictionary
280
     1
281
     1
  3
ACAD_XREC_ROUNDTRIP
360
A0EE
  0
DICTIONARY
  5
A0E1
330
A082
100
AcDbDictionary
280
     1
281
     1
  3
ACAD_XREC_ROUNDTRIP
360
A0E2
  0
DICTIONARY
  5
A0F9
330
A08E
100
AcDbDictionary
280
     1
281
     1
  3
ACAD_XREC_ROUNDTRIP
360
A0FA
  0
XRECORD
  5
A10A
102
{ACAD_REACTORS
330
A109
102
}
330
A109
100
AcDbXrecord
280
     1
102
DISPLAYNAME
  1
Imperial24
102
FLAGS
 90
        0
  0
XRECORD
  5
A10C
102
{ACAD_REACTORS
330
A10B
102
}
330
A10B
100
AcDbXrecord
280
     1
102
SHADEPLOT
 70
     0
102
SHADEPLOTRESLEVEL
 70
     2
102
SHADEPLOTCUSTOMDPI
 70
   300
  0
XRECORD
  5
A10E
102
{ACAD_REACTORS
330
A10D
102
}
330
A10D
100
AcDbXrecord
280
     1
102
SHADEPLOT
 70
     0
102
SHADEPLOTRESLEVEL
 70
     2
102
SHADEPLOTCUSTOMDPI
 70
   300
  0
XRECORD
  5
A0D3
102
{ACAD_REACTORS
330
A06C
102
}
330
A06C
100
AcDbXrecord
280
     1
102
MATERIAL
148
0.0
149
0.0
149
0.0
 93
        0
 94
      127
282
     0
 72
     0
 77
     0
171
     0
175
     0
179
     0
273
     0
  0
XRECORD
  5
A06E
102
{ACAD_REACTORS
330
A06C
102
}
330
A06C
100
AcDbXrecord
280
     1
270
     1
271
     1
  0
XRECORD
  5
A06D
102
{ACAD_REACTORS
330
A06C
102
}
330
A06C
100
AcDbXrecord
280
     1
270
     1
271
     1
  0
XRECORD
  5
A071
102
{ACAD_REACTORS
330
A06C
102
}
330
A06C
100
AcDbXrecord
280
     1
270
     1
271
     1
  0
XRECORD
  5
A070
102
{ACAD_REACTORS
330
A06C
102
}
330
A06C
100
AcDbXrecord
280
     1
270
     1
271
     1
  0
XRECORD
  5
A072
102
{ACAD_REACTORS
330
A06C
102
}
330
A06C
100
AcDbXrecord
280
     1
270
     1
271
     1
  0
XRECORD
  5
A06F
102
{ACAD_REACTORS
330
A06C
102
}
330
A06C
100
AcDbXrecord
280
     1
270
     1
271
     1
  0
XRECORD
  5
A0D2
102
{ACAD_REACTORS
330
A064
102
}
330
A064
100
AcDbXrecord
280
     1
102
MATERIAL
148
0.0
149
0.0
149
0.0
 93
        0
 94
      127
282
     0
 72
     0
 77
     0
171
     0
175
     0
179
     0
273
     0
  0
XRECORD
  5
A066
102
{ACAD_REACTORS
330
A064
102
}
330
A064
100
AcDbXrecord
280
     1
270
     1
271
     1
  0
XRECORD
  5
A065
102
{ACAD_REACTORS
330
A064
102
}
330
A064
100
AcDbXrecord
280
     1
270
     1
271
     1
  0
XRECORD
  5
A069
102
{ACAD_REACTORS
330
A064
102
}
330
A064
100
AcDbXrecord
280
     1
270
     1
271
     1
  0
XRECORD
  5
A068
102
{ACAD_REACTORS
330
A064
102
}
330
A064
100
AcDbXrecord
280
     1
270
     1
271
     1
  0
XRECORD
  5
A06A
102
{ACAD_REACTORS
330
A064
102
}
330
A064
100
AcDbXrecord
280
     1
270
     1
271
     1
  0
XRECORD
  5
A067
102
{ACAD_REACTORS
330
A064
102
}
330
A064
100
AcDbXrecord
280
     1
270
     1
271
     1
  0
XRECORD
  5
A0D4
102
{ACAD_REACTORS
330
A074
102
}
330
A074
100
AcDbXrecord
280
     1
102
MATERIAL
148
0.0
149
0.0
149
0.0
 93
        0
 94
      127
282
     0
 72
     0
 77
     0
171
     0
175
     0
179
     0
273
     0
  0
XRECORD
  5
A076
102
{ACAD_REACTORS
330
A074
102
}
330
A074
100
AcDbXrecord
280
     1
270
     1
271
     1
  0
XRECORD
  5
A075
102
{ACAD_REACTORS
330
A074
102
}
330
A074
100
AcDbXrecord
280
     1
270
     1
271
     1
  0
XRECORD
  5
A079
102
{ACAD_REACTORS
330
A074
102
}
330
A074
100
AcDbXrecord
280
     1
270
     1
271
     1
  0
XRECORD
  5
A078
102
{ACAD_REACTORS
330
A074
102
}
330
A074
100
AcDbXrecord
280
     1
270
     1
271
     1
  0
XRECORD
  5
A07A
102
{ACAD_REACTORS
330
A074
102
}
330
A074
100
AcDbXrecord
280
     1
270
     1
271
     1
  0
XRECORD
  5
A077
102
{ACAD_REACTORS
330
A074
102
}
330
A074
100
AcDbXrecord
280
     1
270
     1
271
     1
  0
XRECORD
  5
A108
102
{ACAD_REACTORS
330
A107
102
}
330
A107
100
AcDbXrecord
280
     1
102
DISPLAYNAME
  1
Imperial24
102
FLAGS
 90
        0
  0
CELLSTYLEMAP
  5
A0CF
102
{ACAD_REACTORS
330
A0CE
102
}
330
A0CE
100
AcDbCellStyleMap
 90
        3
300
CELLSTYLE
  1
TABLEFORMAT_BEGIN
 90
        5
170
     1
 91
        0
 92
    32768
 62
   257
 93
        1
300
CONTENTFORMAT
  1
CONTENTFORMAT_BEGIN
 90
        0
 91
        0
 92
      512
 93
        0
300

 40
0.0
140
1.0
 94
        5
 62
     0
340
9E68
144
0.25
309
CONTENTFORMAT_END
171
     0
 94
        0
309
TABLEFORMAT_END
  1
CELLSTYLE_BEGIN
 90
        1
 91
        1
300
_TITLE
309
CELLSTYLE_END
300
CELLSTYLE
  1
TABLEFORMAT_BEGIN
 90
        5
170
     1
 91
        0
 92
        0
 62
   257
 93
        1
300
CONTENTFORMAT
  1
CONTENTFORMAT_BEGIN
 90
        0
 91
        0
 92
      512
 93
        0
300

 40
0.0
140
1.0
 94
        5
 62
     0
340
9E68
144
0.18
309
CONTENTFORMAT_END
171
     0
 94
        0
309
TABLEFORMAT_END
  1
CELLSTYLE_BEGIN
 90
        2
 91
        1
300
_HEADER
309
CELLSTYLE_END
300
CELLSTYLE
  1
TABLEFORMAT_BEGIN
 90
        5
170
     1
 91
        0
 92
        0
 62
   257
 93
        1
300
CONTENTFORMAT
  1
CONTENTFORMAT_BEGIN
 90
        0
 91
        0
 92
      512
 93
        0
300

 40
0.0
140
1.0
 94
        2
 62
     0
340
9E68
144
0.18
309
CONTENTFORMAT_END
171
     0
 94
        0
309
TABLEFORMAT_END
  1
CELLSTYLE_BEGIN
 90
        3
 91
        2
300
_DATA
309
CELLSTYLE_END
  0
XRECORD
  5
A105
102
{ACAD_REACTORS
330
A0CE
102
}
330
A0CE
100
AcDbXrecord
280
     1
102
ACAD_ROUNDTRIP_PRE2007_TABLESTYLE
 90
      512
 91
        0
  1

 92
      512
 93
        0
  2

 94
      512
 95
        0
  3

  0
XRECORD
  5
A0E0
102
{ACAD_REACTORS
330
A0DF
102
}
330
A0DF
100
AcDbXrecord
280
     1
102
RTVSPost2010Prop28
280
     1
102
RTVSPost2010PropOp28
 70
     1
102
RTVSPost2010Prop29
280
     1
102
RTVSPost2010PropOp29
 70
     1
102
RTVSPost2010Prop30
280
     0
102
RTVSPost2010PropOp30
 70
     1
102
RTVSPost2010Prop31
280
     0
102
RTVSPost2010PropOp31
 70
     1
102
RTVSPost2010Prop32
280
     0
102
RTVSPost2010PropOp32
 70
     1
102
RTVSPost2010Prop33
280
     0
102
RTVSPost2010PropOp33
 70
     1
102
RTVSPost2010Prop34
280
     0
102
RTVSPost2010PropOp34
 70
     1
102
RTVSPost2010Prop35
280
     0
102
RTVSPost2010PropOp35
 70
     1
102
RTVSPost2010Prop36
280
     0
102
RTVSPost2010PropOp36
 70
     1
102
RTVSPost2010Prop37
 90
       50
102
RTVSPost2010PropOp37
 70
     1
102
RTVSPost2010Prop38
140
0.0
102
RTVSPost2010PropOp38
 70
     1
102
RTVSPost2010Prop39
140
1.0
102
RTVSPost2010PropOp39
 70
     1
102
RTVSPost2010Prop40
 90
        0
102
RTVSPost2010PropOp40
 70
     1
102
RTVSPost2010Prop41ColorIndex
 90
       18
102
RTVSPost2010Prop41ColorRGB
 90
        0
102
RTVSPost2010PropOp41
 70
     1
102
RTVSPost2010Prop42
 90
       50
102
RTVSPost2010PropOp42
 70
     1
102
RTVSPost2010Prop43
 90
        3
102
RTVSPost2010PropOp43
 70
     1
102
RTVSPost2010Prop44ColorIndex
 90
        5
102
RTVSPost2010Prop44ColorRGB
 90
      255
102
RTVSPost2010PropOp44
 70
     1
102
RTVSPost2010Prop45
280
     0
102
RTVSPost2010PropOp45
 70
     1
102
RTVSPost2010Prop46
 90
       50
102
RTVSPost2010PropOp46
 70
     1
102
RTVSPost2010Prop47
 90
       50
102
RTVSPost2010PropOp47
 70
     1
102
RTVSPost2010Prop48
 90
       50
102
RTVSPost2010PropOp48
 70
     1
102
RTVSPost2010Prop49
280
     0
102
RTVSPost2010PropOp49
 70
     1
102
RTVSPost2010Prop50
 90
       50
102
RTVSPost2010PropOp50
 70
     1
102
RTVSPost2010Prop51ColorIndex
 90
      256
102
RTVSPost2010Prop51ColorRGB
 90
-16777216
102
RTVSPost2010PropOp51
 70
     0
102
RTVSPost2010Prop52
140
1.0
102
RTVSPost2010PropOp52
 70
     0
102
RTVSPost2010Prop53
 90
        2
102
RTVSPost2010PropOp53
 70
     1
102
RTVSPost2010Prop54
  1
strokes_ogs.tif
102
RTVSPost2010PropOp54
 70
     1
102
RTVSPost2010Prop55
280
     0
102
RTVSPost2010PropOp55
 70
     1
102
RTVSPost2010Prop56
140
1.0
102
RTVSPost2010PropOp56
 70
     1
102
RTVSPost2010Prop57
140
1.0
102
RTVSPost2010PropOp57
 70
     1
102
RTVSPropertyOp0
 70
     1
102
RTVSPropertyOp1
 70
     1
102
RTVSPropertyOp2
 70
     1
102
RTVSPropertyOp3
 70
     1
102
RTVSPropertyOp4
 70
     1
102
RTVSPropertyOp5
 70
     1
102
RTVSPropertyOp6
 70
     1
102
RTVSPropertyOp7
 70
     1
102
RTVSPropertyOp8
 70
     1
102
RTVSPropertyOp9
 70
     1
102
RTVSPropertyOp10
 70
     1
102
RTVSPropertyOp11
 70
     1
102
RTVSPropertyOp12
 70
     1
102
RTVSPropertyOp13
 70
     1
102
RTVSPropertyOp14
 70
     1
102
RTVSPropertyOp15
 70
     1
102
RTVSPropertyOp16
 70
     1
102
RTVSPropertyOp17
 70
     1
102
RTVSPropertyOp18
 70
     1
102
RTVSPropertyOp19
 70
     1
102
RTVSPropertyOp20
 70
     1
102
RTVSPropertyOp21
 70
     1
102
RTVSPropertyOp22
 70
     1
102
RTVSPropertyOp23
 70
     1
102
RTVSPropertyOp24
 70
     1
102
RTVSPropertyOp25
 70
     1
102
RTVSPropertyOp26
 70
     1
102
RTVSPropertyOp27
 70
     1
102
RTVSPropertyOp28
 70
     1
102
RTVSPropertyOp29
 70
     1
102
RTVSPropertyOp30
 70
     1
102
RTVSPropertyOp31
 70
     1
102
RTVSPropertyOp32
 70
     1
102
RTVSPropertyOp33
 70
     1
102
RTVSPropertyOp34
 70
     1
102
RTVSPropertyOp35
 70
     1
102
RTVSPropertyOp36
 70
     1
102
RTVSPropertyOp37
 70
     1
102
RTVSPropertyOp38
 70
     1
102
RTVSPropertyOp39
 70
     1
102
RTVSPropertyOp40
 70
     1
102
RTVSPropertyOp41
 70
     1
102
RTVSPropertyOp42
 70
     1
102
RTVSPropertyOp43
 70
     1
102
RTVSPropertyOp44
 70
     1
102
RTVSPropertyOp45
 70
     1
102
RTVSPropertyOp46
 70
     1
102
RTVSPropertyOp47
 70
     1
102
RTVSPropertyOp48
 70
     1
102
RTVSPropertyOp49
 70
     1
102
RTVSPropertyOp50
 70
     1
102
RTVSPropertyOp51
 70
     0
102
RTVSPropertyOp52
 70
     0
102
RTVSPropertyOp53
 70
     1
102
RTVSPropertyOp54
 70
     1
102
RTVSPropertyOp55
 70
     1
102
RTVSPropertyOp56
 70
     1
102
RTVSPropertyOp57
 70
     1
102
RTVSPropertyOp58
 70
     1
102
RTVSPropertyOp59
 70
     1
102
RTVSPropertyOp60
 70
     1
102
RTVSPropertyOp61
 70
     1
102
RTVSPropertyOp62
 70
     1
  0
XRECORD
  5
A0DE
102
{ACAD_REACTORS
330
A0DD
102
}
330
A0DD
100
AcDbXrecord
280
     1
102
RTVSPost2010Prop28
280
     0
102
RTVSPost2010PropOp28
 70
     1
102
RTVSPost2010Prop29
280
     1
102
RTVSPost2010PropOp29
 70
     1
102
RTVSPost2010Prop30
280
     1
102
RTVSPost2010PropOp30
 70
     1
102
RTVSPost2010Prop31
280
     0
102
RTVSPost2010PropOp31
 70
     1
102
RTVSPost2010Prop32
280
     0
102
RTVSPost2010PropOp32
 70
     1
102
RTVSPost2010Prop33
280
     0
102
RTVSPost2010PropOp33
 70
     1
102
RTVSPost2010Prop34
280
     0
102
RTVSPost2010PropOp34
 70
     1
102
RTVSPost2010Prop35
280
     0
102
RTVSPost2010PropOp35
 70
     1
102
RTVSPost2010Prop36
280
     0
102
RTVSPost2010PropOp36
 70
     1
102
RTVSPost2010Prop37
 90
       50
102
RTVSPost2010PropOp37
 70
     1
102
RTVSPost2010Prop38
140
0.0
102
RTVSPost2010PropOp38
 70
     1
102
RTVSPost2010Prop39
140
1.0
102
RTVSPost2010PropOp39
 70
     1
102
RTVSPost2010Prop40
 90
        0
102
RTVSPost2010PropOp40
 70
     1
102
RTVSPost2010Prop41ColorIndex
 90
       18
102
RTVSPost2010Prop41ColorRGB
 90
        0
102
RTVSPost2010PropOp41
 70
     1
102
RTVSPost2010Prop42
 90
       50
102
RTVSPost2010PropOp42
 70
     1
102
RTVSPost2010Prop43
 90
        3
102
RTVSPost2010PropOp43
 70
     1
102
RTVSPost2010Prop44ColorIndex
 90
        5
102
RTVSPost2010Prop44ColorRGB
 90
      255
102
RTVSPost2010PropOp44
 70
     1
102
RTVSPost2010Prop45
280
     0
102
RTVSPost2010PropOp45
 70
     1
102
RTVSPost2010Prop46
 90
       50
102
RTVSPost2010PropOp46
 70
     1
102
RTVSPost2010Prop47
 90
       50
102
RTVSPost2010PropOp47
 70
     1
102
RTVSPost2010Prop48
 90
       50
102
RTVSPost2010PropOp48
 70
     1
102
RTVSPost2010Prop49
280
     0
102
RTVSPost2010PropOp49
 70
     1
102
RTVSPost2010Prop50
 90
       50
102
RTVSPost2010PropOp50
 70
     1
102
RTVSPost2010Prop51ColorIndex
 90
      256
102
RTVSPost2010Prop51ColorRGB
 90
-16777216
102
RTVSPost2010PropOp51
 70
     0
102
RTVSPost2010Prop52
140
1.0
102
RTVSPost2010PropOp52
 70
     0
102
RTVSPost2010Prop53
 90
        2
102
RTVSPost2010PropOp53
 70
     1
102
RTVSPost2010Prop54
  1
strokes_ogs.tif
102
RTVSPost2010PropOp54
 70
     1
102
RTVSPost2010Prop55
280
     0
102
RTVSPost2010PropOp55
 70
     1
102
RTVSPost2010Prop56
140
1.0
102
RTVSPost2010PropOp56
 70
     1
102
RTVSPost2010Prop57
140
1.0
102
RTVSPost2010PropOp57
 70
     1
102
RTVSPropertyOp0
 70
     1
102
RTVSPropertyOp1
 70
     1
102
RTVSPropertyOp2
 70
     1
102
RTVSPropertyOp3
 70
     1
102
RTVSPropertyOp4
 70
     1
102
RTVSPropertyOp5
 70
     1
102
RTVSPropertyOp6
 70
     1
102
RTVSPropertyOp7
 70
     1
102
RTVSPropertyOp8
 70
     1
102
RTVSPropertyOp9
 70
     1
102
RTVSPropertyOp10
 70
     1
102
RTVSPropertyOp11
 70
     1
102
RTVSPropertyOp12
 70
     1
102
RTVSPropertyOp13
 70
     1
102
RTVSPropertyOp14
 70
     1
102
RTVSPropertyOp15
 70
     1
102
RTVSPropertyOp16
 70
     1
102
RTVSPropertyOp17
 70
     1
102
RTVSPropertyOp18
 70
     1
102
RTVSPropertyOp19
 70
     1
102
RTVSPropertyOp20
 70
     1
102
RTVSPropertyOp21
 70
     1
102
RTVSPropertyOp22
 70
     1
102
RTVSPropertyOp23
 70
     1
102
RTVSPropertyOp24
 70
     1
102
RTVSPropertyOp25
 70
     1
102
RTVSPropertyOp26
 70
     1
102
RTVSPropertyOp27
 70
     1
102
RTVSPropertyOp28
 70
     1
102
RTVSPropertyOp29
 70
     1
102
RTVSPropertyOp30
 70
     1
102
RTVSPropertyOp31
 70
     1
102
RTVSPropertyOp32
 70
     1
102
RTVSPropertyOp33
 70
     1
102
RTVSPropertyOp34
 70
     1
102
RTVSPropertyOp35
 70
     1
102
RTVSPropertyOp36
 70
     1
102
RTVSPropertyOp37
 70
     1
102
RTVSPropertyOp38
 70
     1
102
RTVSPropertyOp39
 70
     1
102
RTVSPropertyOp40
 70
     1
102
RTVSPropertyOp41
 70
     1
102
RTVSPropertyOp42
 70
     1
102
RTVSPropertyOp43
 70
     1
102
RTVSPropertyOp44
 70
     1
102
RTVSPropertyOp45
 70
     1
102
RTVSPropertyOp46
 70
     1
102
RTVSPropertyOp47
 70
     1
102
RTVSPropertyOp48
 70
     1
102
RTVSPropertyOp49
 70
     1
102
RTVSPropertyOp50
 70
     1
102
RTVSPropertyOp51
 70
     0
102
RTVSPropertyOp52
 70
     0
102
RTVSPropertyOp53
 70
     1
102
RTVSPropertyOp54
 70
     1
102
RTVSPropertyOp55
 70
     1
102
RTVSPropertyOp56
 70
     1
102
RTVSPropertyOp57
 70
     1
102
RTVSPropertyOp58
 70
     1
102
RTVSPropertyOp59
 70
     1
102
RTVSPropertyOp60
 70
     1
102
RTVSPropertyOp61
 70
     1
102
RTVSPropertyOp62
 70
     1
  0
XRECORD
  5
A0EC
102
{ACAD_REACTORS
330
A0EB
102
}
330
A0EB
100
AcDbXrecord
280
     1
102
RTVSPost2010Prop28
280
     0
102
RTVSPost2010PropOp28
 70
     1
102
RTVSPost2010Prop29
280
     1
102
RTVSPost2010PropOp29
 70
     1
102
RTVSPost2010Prop30
280
     1
102
RTVSPost2010PropOp30
 70
     1
102
RTVSPost2010Prop31
280
     0
102
RTVSPost2010PropOp31
 70
     1
102
RTVSPost2010Prop32
280
     0
102
RTVSPost2010PropOp32
 70
     1
102
RTVSPost2010Prop33
280
     0
102
RTVSPost2010PropOp33
 70
     1
102
RTVSPost2010Prop34
280
     0
102
RTVSPost2010PropOp34
 70
     1
102
RTVSPost2010Prop35
280
     0
102
RTVSPost2010PropOp35
 70
     1
102
RTVSPost2010Prop36
280
     0
102
RTVSPost2010PropOp36
 70
     1
102
RTVSPost2010Prop37
 90
       50
102
RTVSPost2010PropOp37
 70
     1
102
RTVSPost2010Prop38
140
0.0
102
RTVSPost2010PropOp38
 70
     1
102
RTVSPost2010Prop39
140
1.0
102
RTVSPost2010PropOp39
 70
     1
102
RTVSPost2010Prop40
 90
        0
102
RTVSPost2010PropOp40
 70
     1
102
RTVSPost2010Prop41ColorIndex
 90
       18
102
RTVSPost2010Prop41ColorRGB
 90
        0
102
RTVSPost2010PropOp41
 70
     1
102
RTVSPost2010Prop42
 90
       50
102
RTVSPost2010PropOp42
 70
     1
102
RTVSPost2010Prop43
 90
        3
102
RTVSPost2010PropOp43
 70
     1
102
RTVSPost2010Prop44ColorIndex
 90
        5
102
RTVSPost2010Prop44ColorRGB
 90
      255
102
RTVSPost2010PropOp44
 70
     1
102
RTVSPost2010Prop45
280
     0
102
RTVSPost2010PropOp45
 70
     1
102
RTVSPost2010Prop46
 90
       50
102
RTVSPost2010PropOp46
 70
     1
102
RTVSPost2010Prop47
 90
       50
102
RTVSPost2010PropOp47
 70
     1
102
RTVSPost2010Prop48
 90
       50
102
RTVSPost2010PropOp48
 70
     1
102
RTVSPost2010Prop49
280
     0
102
RTVSPost2010PropOp49
 70
     1
102
RTVSPost2010Prop50
 90
       50
102
RTVSPost2010PropOp50
 70
     1
102
RTVSPost2010Prop51ColorIndex
 90
      256
102
RTVSPost2010Prop51ColorRGB
 90
-16777216
102
RTVSPost2010PropOp51
 70
     0
102
RTVSPost2010Prop52
140
1.0
102
RTVSPost2010PropOp52
 70
     0
102
RTVSPost2010Prop53
 90
        2
102
RTVSPost2010PropOp53
 70
     1
102
RTVSPost2010Prop54
  1
strokes_ogs.tif
102
RTVSPost2010PropOp54
 70
     1
102
RTVSPost2010Prop55
280
     0
102
RTVSPost2010PropOp55
 70
     1
102
RTVSPost2010Prop56
140
1.0
102
RTVSPost2010PropOp56
 70
     1
102
RTVSPost2010Prop57
140
1.0
102
RTVSPost2010PropOp57
 70
     1
102
RTVSPropertyOp0
 70
     1
102
RTVSPropertyOp1
 70
     1
102
RTVSPropertyOp2
 70
     1
102
RTVSPropertyOp3
 70
     1
102
RTVSPropertyOp4
 70
     1
102
RTVSPropertyOp5
 70
     1
102
RTVSPropertyOp6
 70
     1
102
RTVSPropertyOp7
 70
     1
102
RTVSPropertyOp8
 70
     1
102
RTVSPropertyOp9
 70
     1
102
RTVSPropertyOp10
 70
     1
102
RTVSPropertyOp11
 70
     1
102
RTVSPropertyOp12
 70
     1
102
RTVSPropertyOp13
 70
     1
102
RTVSPropertyOp14
 70
     1
102
RTVSPropertyOp15
 70
     1
102
RTVSPropertyOp16
 70
     1
102
RTVSPropertyOp17
 70
     1
102
RTVSPropertyOp18
 70
     1
102
RTVSPropertyOp19
 70
     1
102
RTVSPropertyOp20
 70
     1
102
RTVSPropertyOp21
 70
     1
102
RTVSPropertyOp22
 70
     1
102
RTVSPropertyOp23
 70
     1
102
RTVSPropertyOp24
 70
     1
102
RTVSPropertyOp25
 70
     1
102
RTVSPropertyOp26
 70
     1
102
RTVSPropertyOp27
 70
     1
102
RTVSPropertyOp28
 70
     1
102
RTVSPropertyOp29
 70
     1
102
RTVSPropertyOp30
 70
     1
102
RTVSPropertyOp31
 70
     1
102
RTVSPropertyOp32
 70
     1
102
RTVSPropertyOp33
 70
     1
102
RTVSPropertyOp34
 70
     1
102
RTVSPropertyOp35
 70
     1
102
RTVSPropertyOp36
 70
     1
102
RTVSPropertyOp37
 70
     1
102
RTVSPropertyOp38
 70
     1
102
RTVSPropertyOp39
 70
     1
102
RTVSPropertyOp40
 70
     1
102
RTVSPropertyOp41
 70
     1
102
RTVSPropertyOp42
 70
     1
102
RTVSPropertyOp43
 70
     1
102
RTVSPropertyOp44
 70
     1
102
RTVSPropertyOp45
 70
     1
102
RTVSPropertyOp46
 70
     1
102
RTVSPropertyOp47
 70
     1
102
RTVSPropertyOp48
 70
     1
102
RTVSPropertyOp49
 70
     1
102
RTVSPropertyOp50
 70
     1
102
RTVSPropertyOp51
 70
     0
102
RTVSPropertyOp52
 70
     0
102
RTVSPropertyOp53
 70
     1
102
RTVSPropertyOp54
 70
     1
102
RTVSPropertyOp55
 70
     1
102
RTVSPropertyOp56
 70
     1
102
RTVSPropertyOp57
 70
     1
102
RTVSPropertyOp58
 70
     1
102
RTVSPropertyOp59
 70
     1
102
RTVSPropertyOp60
 70
     1
102
RTVSPropertyOp61
 70
     1
102
RTVSPropertyOp62
 70
     1
  0
XRECORD
  5
A0F4
102
{ACAD_REACTORS
330
A0F3
102
}
330
A0F3
100
AcDbXrecord
280
     1
102
RTVSPost2010Prop28
280
     0
102
RTVSPost2010PropOp28
 70
     1
102
RTVSPost2010Prop29
280
     1
102
RTVSPost2010PropOp29
 70
     1
102
RTVSPost2010Prop30
280
     1
102
RTVSPost2010PropOp30
 70
     1
102
RTVSPost2010Prop31
280
     0
102
RTVSPost2010PropOp31
 70
     1
102
RTVSPost2010Prop32
280
     0
102
RTVSPost2010PropOp32
 70
     1
102
RTVSPost2010Prop33
280
     0
102
RTVSPost2010PropOp33
 70
     1
102
RTVSPost2010Prop34
280
     0
102
RTVSPost2010PropOp34
 70
     1
102
RTVSPost2010Prop35
280
     0
102
RTVSPost2010PropOp35
 70
     1
102
RTVSPost2010Prop36
280
     0
102
RTVSPost2010PropOp36
 70
     1
102
RTVSPost2010Prop37
 90
       50
102
RTVSPost2010PropOp37
 70
     1
102
RTVSPost2010Prop38
140
0.0
102
RTVSPost2010PropOp38
 70
     1
102
RTVSPost2010Prop39
140
1.0
102
RTVSPost2010PropOp39
 70
     1
102
RTVSPost2010Prop40
 90
        0
102
RTVSPost2010PropOp40
 70
     1
102
RTVSPost2010Prop41ColorIndex
 90
       18
102
RTVSPost2010Prop41ColorRGB
 90
        0
102
RTVSPost2010PropOp41
 70
     1
102
RTVSPost2010Prop42
 90
       50
102
RTVSPost2010PropOp42
 70
     1
102
RTVSPost2010Prop43
 90
        3
102
RTVSPost2010PropOp43
 70
     1
102
RTVSPost2010Prop44ColorIndex
 90
        5
102
RTVSPost2010Prop44ColorRGB
 90
      255
102
RTVSPost2010PropOp44
 70
     1
102
RTVSPost2010Prop45
280
     0
102
RTVSPost2010PropOp45
 70
     1
102
RTVSPost2010Prop46
 90
       50
102
RTVSPost2010PropOp46
 70
     1
102
RTVSPost2010Prop47
 90
       50
102
RTVSPost2010PropOp47
 70
     1
102
RTVSPost2010Prop48
 90
       50
102
RTVSPost2010PropOp48
 70
     1
102
RTVSPost2010Prop49
280
     0
102
RTVSPost2010PropOp49
 70
     1
102
RTVSPost2010Prop50
 90
       50
102
RTVSPost2010PropOp50
 70
     1
102
RTVSPost2010Prop51ColorIndex
 90
      256
102
RTVSPost2010Prop51ColorRGB
 90
-16777216
102
RTVSPost2010PropOp51
 70
     0
102
RTVSPost2010Prop52
140
1.0
102
RTVSPost2010PropOp52
 70
     0
102
RTVSPost2010Prop53
 90
        2
102
RTVSPost2010PropOp53
 70
     1
102
RTVSPost2010Prop54
  1
strokes_ogs.tif
102
RTVSPost2010PropOp54
 70
     1
102
RTVSPost2010Prop55
280
     0
102
RTVSPost2010PropOp55
 70
     1
102
RTVSPost2010Prop56
140
1.0
102
RTVSPost2010PropOp56
 70
     1
102
RTVSPost2010Prop57
140
1.0
102
RTVSPost2010PropOp57
 70
     1
102
RTVSPropertyOp0
 70
     1
102
RTVSPropertyOp1
 70
     1
102
RTVSPropertyOp2
 70
     1
102
RTVSPropertyOp3
 70
     1
102
RTVSPropertyOp4
 70
     1
102
RTVSPropertyOp5
 70
     1
102
RTVSPropertyOp6
 70
     1
102
RTVSPropertyOp7
 70
     1
102
RTVSPropertyOp8
 70
     1
102
RTVSPropertyOp9
 70
     1
102
RTVSPropertyOp10
 70
     1
102
RTVSPropertyOp11
 70
     1
102
RTVSPropertyOp12
 70
     1
102
RTVSPropertyOp13
 70
     1
102
RTVSPropertyOp14
 70
     1
102
RTVSPropertyOp15
 70
     1
102
RTVSPropertyOp16
 70
     1
102
RTVSPropertyOp17
 70
     1
102
RTVSPropertyOp18
 70
     1
102
RTVSPropertyOp19
 70
     1
102
RTVSPropertyOp20
 70
     1
102
RTVSPropertyOp21
 70
     1
102
RTVSPropertyOp22
 70
     1
102
RTVSPropertyOp23
 70
     1
102
RTVSPropertyOp24
 70
     1
102
RTVSPropertyOp25
 70
     1
102
RTVSPropertyOp26
 70
     1
102
RTVSPropertyOp27
 70
     1
102
RTVSPropertyOp28
 70
     1
102
RTVSPropertyOp29
 70
     1
102
RTVSPropertyOp30
 70
     1
102
RTVSPropertyOp31
 70
     1
102
RTVSPropertyOp32
 70
     1
102
RTVSPropertyOp33
 70
     1
102
RTVSPropertyOp34
 70
     1
102
RTVSPropertyOp35
 70
     1
102
RTVSPropertyOp36
 70
     1
102
RTVSPropertyOp37
 70
     1
102
RTVSPropertyOp38
 70
     1
102
RTVSPropertyOp39
 70
     1
102
RTVSPropertyOp40
 70
     1
102
RTVSPropertyOp41
 70
     1
102
RTVSPropertyOp42
 70
     1
102
RTVSPropertyOp43
 70
     1
102
RTVSPropertyOp44
 70
     1
102
RTVSPropertyOp45
 70
     1
102
RTVSPropertyOp46
 70
     1
102
RTVSPropertyOp47
 70
     1
102
RTVSPropertyOp48
 70
     1
102
RTVSPropertyOp49
 70
     1
102
RTVSPropertyOp50
 70
     1
102
RTVSPropertyOp51
 70
     0
102
RTVSPropertyOp52
 70
     0
102
RTVSPropertyOp53
 70
     1
102
RTVSPropertyOp54
 70
     1
102
RTVSPropertyOp55
 70
     1
102
RTVSPropertyOp56
 70
     1
102
RTVSPropertyOp57
 70
     1
102
RTVSPropertyOp58
 70
     1
102
RTVSPropertyOp59
 70
     1
102
RTVSPropertyOp60
 70
     1
102
RTVSPropertyOp61
 70
     1
102
RTVSPropertyOp62
 70
     1
  0
XRECORD
  5
A0E6
102
{ACAD_REACTORS
330
A0E5
102
}
330
A0E5
100
AcDbXrecord
280
     1
102
RTVSPost2010Prop28
280
     0
102
RTVSPost2010PropOp28
 70
     1
102
RTVSPost2010Prop29
280
     1
102
RTVSPost2010PropOp29
 70
     1
102
RTVSPost2010Prop30
280
     1
102
RTVSPost2010PropOp30
 70
     1
102
RTVSPost2010Prop31
280
     0
102
RTVSPost2010PropOp31
 70
     1
102
RTVSPost2010Prop32
280
     0
102
RTVSPost2010PropOp32
 70
     1
102
RTVSPost2010Prop33
280
     0
102
RTVSPost2010PropOp33
 70
     1
102
RTVSPost2010Prop34
280
     0
102
RTVSPost2010PropOp34
 70
     1
102
RTVSPost2010Prop35
280
     0
102
RTVSPost2010PropOp35
 70
     1
102
RTVSPost2010Prop36
280
     0
102
RTVSPost2010PropOp36
 70
     1
102
RTVSPost2010Prop37
 90
       50
102
RTVSPost2010PropOp37
 70
     1
102
RTVSPost2010Prop38
140
0.0
102
RTVSPost2010PropOp38
 70
     1
102
RTVSPost2010Prop39
140
1.0
102
RTVSPost2010PropOp39
 70
     1
102
RTVSPost2010Prop40
 90
        0
102
RTVSPost2010PropOp40
 70
     1
102
RTVSPost2010Prop41ColorIndex
 90
       18
102
RTVSPost2010Prop41ColorRGB
 90
        0
102
RTVSPost2010PropOp41
 70
     1
102
RTVSPost2010Prop42
 90
       50
102
RTVSPost2010PropOp42
 70
     1
102
RTVSPost2010Prop43
 90
        3
102
RTVSPost2010PropOp43
 70
     1
102
RTVSPost2010Prop44ColorIndex
 90
        5
102
RTVSPost2010Prop44ColorRGB
 90
      255
102
RTVSPost2010PropOp44
 70
     1
102
RTVSPost2010Prop45
280
     0
102
RTVSPost2010PropOp45
 70
     1
102
RTVSPost2010Prop46
 90
       50
102
RTVSPost2010PropOp46
 70
     1
102
RTVSPost2010Prop47
 90
       50
102
RTVSPost2010PropOp47
 70
     1
102
RTVSPost2010Prop48
 90
       50
102
RTVSPost2010PropOp48
 70
     1
102
RTVSPost2010Prop49
280
     0
102
RTVSPost2010PropOp49
 70
     1
102
RTVSPost2010Prop50
 90
       50
102
RTVSPost2010PropOp50
 70
     1
102
RTVSPost2010Prop51ColorIndex
 90
      256
102
RTVSPost2010Prop51ColorRGB
 90
-16777216
102
RTVSPost2010PropOp51
 70
     0
102
RTVSPost2010Prop52
140
1.0
102
RTVSPost2010PropOp52
 70
     0
102
RTVSPost2010Prop53
 90
        2
102
RTVSPost2010PropOp53
 70
     1
102
RTVSPost2010Prop54
  1
strokes_ogs.tif
102
RTVSPost2010PropOp54
 70
     1
102
RTVSPost2010Prop55
280
     0
102
RTVSPost2010PropOp55
 70
     1
102
RTVSPost2010Prop56
140
1.0
102
RTVSPost2010PropOp56
 70
     1
102
RTVSPost2010Prop57
140
1.0
102
RTVSPost2010PropOp57
 70
     1
102
RTVSPropertyOp0
 70
     1
102
RTVSPropertyOp1
 70
     1
102
RTVSPropertyOp2
 70
     1
102
RTVSPropertyOp3
 70
     1
102
RTVSPropertyOp4
 70
     1
102
RTVSPropertyOp5
 70
     1
102
RTVSPropertyOp6
 70
     1
102
RTVSPropertyOp7
 70
     1
102
RTVSPropertyOp8
 70
     1
102
RTVSPropertyOp9
 70
     1
102
RTVSPropertyOp10
 70
     1
102
RTVSPropertyOp11
 70
     1
102
RTVSPropertyOp12
 70
     1
102
RTVSPropertyOp13
 70
     1
102
RTVSPropertyOp14
 70
     1
102
RTVSPropertyOp15
 70
     1
102
RTVSPropertyOp16
 70
     1
102
RTVSPropertyOp17
 70
     1
102
RTVSPropertyOp18
 70
     1
102
RTVSPropertyOp19
 70
     1
102
RTVSPropertyOp20
 70
     1
102
RTVSPropertyOp21
 70
     1
102
RTVSPropertyOp22
 70
     1
102
RTVSPropertyOp23
 70
     1
102
RTVSPropertyOp24
 70
     1
102
RTVSPropertyOp25
 70
     1
102
RTVSPropertyOp26
 70
     1
102
RTVSPropertyOp27
 70
     1
102
RTVSPropertyOp28
 70
     1
102
RTVSPropertyOp29
 70
     1
102
RTVSPropertyOp30
 70
     1
102
RTVSPropertyOp31
 70
     1
102
RTVSPropertyOp32
 70
     1
102
RTVSPropertyOp33
 70
     1
102
RTVSPropertyOp34
 70
     1
102
RTVSPropertyOp35
 70
     1
102
RTVSPropertyOp36
 70
     1
102
RTVSPropertyOp37
 70
     1
102
RTVSPropertyOp38
 70
     1
102
RTVSPropertyOp39
 70
     1
102
RTVSPropertyOp40
 70
     1
102
RTVSPropertyOp41
 70
     1
102
RTVSPropertyOp42
 70
     1
102
RTVSPropertyOp43
 70
     1
102
RTVSPropertyOp44
 70
     1
102
RTVSPropertyOp45
 70
     1
102
RTVSPropertyOp46
 70
     1
102
RTVSPropertyOp47
 70
     1
102
RTVSPropertyOp48
 70
     1
102
RTVSPropertyOp49
 70
     1
102
RTVSPropertyOp50
 70
     1
102
RTVSPropertyOp51
 70
     0
102
RTVSPropertyOp52
 70
     0
102
RTVSPropertyOp53
 70
     1
102
RTVSPropertyOp54
 70
     1
102
RTVSPropertyOp55
 70
     1
102
RTVSPropertyOp56
 70
     1
102
RTVSPropertyOp57
 70
     1
102
RTVSPropertyOp58
 70
     1
102
RTVSPropertyOp59
 70
     1
102
RTVSPropertyOp60
 70
     1
102
RTVSPropertyOp61
 70
     1
102
RTVSPropertyOp62
 70
     1
  0
XRECORD
  5
A0EA
102
{ACAD_REACTORS
330
A0E9
102
}
330
A0E9
100
AcDbXrecord
280
     1
102
RTVSPost2010Prop28
280
     0
102
RTVSPost2010PropOp28
 70
     1
102
RTVSPost2010Prop29
280
     1
102
RTVSPost2010PropOp29
 70
     1
102
RTVSPost2010Prop30
280
     1
102
RTVSPost2010PropOp30
 70
     1
102
RTVSPost2010Prop31
280
     0
102
RTVSPost2010PropOp31
 70
     1
102
RTVSPost2010Prop32
280
     0
102
RTVSPost2010PropOp32
 70
     1
102
RTVSPost2010Prop33
280
     0
102
RTVSPost2010PropOp33
 70
     1
102
RTVSPost2010Prop34
280
     0
102
RTVSPost2010PropOp34
 70
     1
102
RTVSPost2010Prop35
280
     0
102
RTVSPost2010PropOp35
 70
     1
102
RTVSPost2010Prop36
280
     0
102
RTVSPost2010PropOp36
 70
     1
102
RTVSPost2010Prop37
 90
       50
102
RTVSPost2010PropOp37
 70
     1
102
RTVSPost2010Prop38
140
0.0
102
RTVSPost2010PropOp38
 70
     1
102
RTVSPost2010Prop39
140
1.0
102
RTVSPost2010PropOp39
 70
     1
102
RTVSPost2010Prop40
 90
        0
102
RTVSPost2010PropOp40
 70
     1
102
RTVSPost2010Prop41ColorIndex
 90
       18
102
RTVSPost2010Prop41ColorRGB
 90
        0
102
RTVSPost2010PropOp41
 70
     1
102
RTVSPost2010Prop42
 90
       50
102
RTVSPost2010PropOp42
 70
     1
102
RTVSPost2010Prop43
 90
        3
102
RTVSPost2010PropOp43
 70
     1
102
RTVSPost2010Prop44ColorIndex
 90
        5
102
RTVSPost2010Prop44ColorRGB
 90
      255
102
RTVSPost2010PropOp44
 70
     1
102
RTVSPost2010Prop45
280
     0
102
RTVSPost2010PropOp45
 70
     1
102
RTVSPost2010Prop46
 90
       50
102
RTVSPost2010PropOp46
 70
     1
102
RTVSPost2010Prop47
 90
       50
102
RTVSPost2010PropOp47
 70
     1
102
RTVSPost2010Prop48
 90
       50
102
RTVSPost2010PropOp48
 70
     1
102
RTVSPost2010Prop49
280
     0
102
RTVSPost2010PropOp49
 70
     1
102
RTVSPost2010Prop50
 90
       50
102
RTVSPost2010PropOp50
 70
     1
102
RTVSPost2010Prop51ColorIndex
 90
      256
102
RTVSPost2010Prop51ColorRGB
 90
-16777216
102
RTVSPost2010PropOp51
 70
     0
102
RTVSPost2010Prop52
140
1.0
102
RTVSPost2010PropOp52
 70
     0
102
RTVSPost2010Prop53
 90
        2
102
RTVSPost2010PropOp53
 70
     1
102
RTVSPost2010Prop54
  1
strokes_ogs.tif
102
RTVSPost2010PropOp54
 70
     1
102
RTVSPost2010Prop55
280
     0
102
RTVSPost2010PropOp55
 70
     1
102
RTVSPost2010Prop56
140
1.0
102
RTVSPost2010PropOp56
 70
     1
102
RTVSPost2010Prop57
140
1.0
102
RTVSPost2010PropOp57
 70
     1
102
RTVSPropertyOp0
 70
     1
102
RTVSPropertyOp1
 70
     1
102
RTVSPropertyOp2
 70
     1
102
RTVSPropertyOp3
 70
     1
102
RTVSPropertyOp4
 70
     1
102
RTVSPropertyOp5
 70
     1
102
RTVSPropertyOp6
 70
     1
102
RTVSPropertyOp7
 70
     1
102
RTVSPropertyOp8
 70
     1
102
RTVSPropertyOp9
 70
     1
102
RTVSPropertyOp10
 70
     1
102
RTVSPropertyOp11
 70
     1
102
RTVSPropertyOp12
 70
     1
102
RTVSPropertyOp13
 70
     1
102
RTVSPropertyOp14
 70
     1
102
RTVSPropertyOp15
 70
     1
102
RTVSPropertyOp16
 70
     1
102
RTVSPropertyOp17
 70
     1
102
RTVSPropertyOp18
 70
     1
102
RTVSPropertyOp19
 70
     1
102
RTVSPropertyOp20
 70
     1
102
RTVSPropertyOp21
 70
     1
102
RTVSPropertyOp22
 70
     1
102
RTVSPropertyOp23
 70
     1
102
RTVSPropertyOp24
 70
     1
102
RTVSPropertyOp25
 70
     1
102
RTVSPropertyOp26
 70
     1
102
RTVSPropertyOp27
 70
     1
102
RTVSPropertyOp28
 70
     1
102
RTVSPropertyOp29
 70
     1
102
RTVSPropertyOp30
 70
     1
102
RTVSPropertyOp31
 70
     1
102
RTVSPropertyOp32
 70
     1
102
RTVSPropertyOp33
 70
     1
102
RTVSPropertyOp34
 70
     1
102
RTVSPropertyOp35
 70
     1
102
RTVSPropertyOp36
 70
     1
102
RTVSPropertyOp37
 70
     1
102
RTVSPropertyOp38
 70
     1
102
RTVSPropertyOp39
 70
     1
102
RTVSPropertyOp40
 70
     1
102
RTVSPropertyOp41
 70
     1
102
RTVSPropertyOp42
 70
     1
102
RTVSPropertyOp43
 70
     1
102
RTVSPropertyOp44
 70
     1
102
RTVSPropertyOp45
 70
     1
102
RTVSPropertyOp46
 70
     1
102
RTVSPropertyOp47
 70
     1
102
RTVSPropertyOp48
 70
     1
102
RTVSPropertyOp49
 70
     1
102
RTVSPropertyOp50
 70
     1
102
RTVSPropertyOp51
 70
     0
102
RTVSPropertyOp52
 70
     0
102
RTVSPropertyOp53
 70
     1
102
RTVSPropertyOp54
 70
     1
102
RTVSPropertyOp55
 70
     1
102
RTVSPropertyOp56
 70
     1
102
RTVSPropertyOp57
 70
     1
102
RTVSPropertyOp58
 70
     1
102
RTVSPropertyOp59
 70
     1
102
RTVSPropertyOp60
 70
     1
102
RTVSPropertyOp61
 70
     1
102
RTVSPropertyOp62
 70
     1
  0
XRECORD
  5
A104
102
{ACAD_REACTORS
330
A103
102
}
330
A103
100
AcDbXrecord
280
     1
102
RTVSPost2010Prop28
280
     0
102
RTVSPost2010PropOp28
 70
     1
102
RTVSPost2010Prop29
280
     1
102
RTVSPost2010PropOp29
 70
     1
102
RTVSPost2010Prop30
280
     1
102
RTVSPost2010PropOp30
 70
     1
102
RTVSPost2010Prop31
280
     0
102
RTVSPost2010PropOp31
 70
     1
102
RTVSPost2010Prop32
280
     0
102
RTVSPost2010PropOp32
 70
     1
102
RTVSPost2010Prop33
280
     0
102
RTVSPost2010PropOp33
 70
     1
102
RTVSPost2010Prop34
280
     0
102
RTVSPost2010PropOp34
 70
     1
102
RTVSPost2010Prop35
280
     0
102
RTVSPost2010PropOp35
 70
     1
102
RTVSPost2010Prop36
280
     0
102
RTVSPost2010PropOp36
 70
     1
102
RTVSPost2010Prop37
 90
       50
102
RTVSPost2010PropOp37
 70
     0
102
RTVSPost2010Prop38
140
0.0
102
RTVSPost2010PropOp38
 70
     0
102
RTVSPost2010Prop39
140
1.0
102
RTVSPost2010PropOp39
 70
     0
102
RTVSPost2010Prop40
 90
        0
102
RTVSPost2010PropOp40
 70
     0
102
RTVSPost2010Prop41ColorIndex
 90
       18
102
RTVSPost2010Prop41ColorRGB
 90
        0
102
RTVSPost2010PropOp41
 70
     0
102
RTVSPost2010Prop42
 90
       50
102
RTVSPost2010PropOp42
 70
     0
102
RTVSPost2010Prop43
 90
        3
102
RTVSPost2010PropOp43
 70
     0
102
RTVSPost2010Prop44ColorIndex
 90
        5
102
RTVSPost2010Prop44ColorRGB
 90
      255
102
RTVSPost2010PropOp44
 70
     0
102
RTVSPost2010Prop45
280
     0
102
RTVSPost2010PropOp45
 70
     1
102
RTVSPost2010Prop46
 90
       50
102
RTVSPost2010PropOp46
 70
     0
102
RTVSPost2010Prop47
 90
       50
102
RTVSPost2010PropOp47
 70
     0
102
RTVSPost2010Prop48
 90
       50
102
RTVSPost2010PropOp48
 70
     0
102
RTVSPost2010Prop49
280
     0
102
RTVSPost2010PropOp49
 70
     1
102
RTVSPost2010Prop50
 90
       50
102
RTVSPost2010PropOp50
 70
     0
102
RTVSPost2010Prop51ColorIndex
 90
      256
102
RTVSPost2010Prop51ColorRGB
 90
-16777216
102
RTVSPost2010PropOp51
 70
     0
102
RTVSPost2010Prop52
140
1.0
102
RTVSPost2010PropOp52
 70
     0
102
RTVSPost2010Prop53
 90
        2
102
RTVSPost2010PropOp53
 70
     0
102
RTVSPost2010Prop54
  1
strokes_ogs.tif
102
RTVSPost2010PropOp54
 70
     0
102
RTVSPost2010Prop55
280
     0
102
RTVSPost2010PropOp55
 70
     1
102
RTVSPost2010Prop56
140
1.0
102
RTVSPost2010PropOp56
 70
     0
102
RTVSPost2010Prop57
140
1.0
102
RTVSPost2010PropOp57
 70
     0
102
RTVSPropertyOp0
 70
     0
102
RTVSPropertyOp1
 70
     0
102
RTVSPropertyOp2
 70
     0
102
RTVSPropertyOp3
 70
     0
102
RTVSPropertyOp4
 70
     0
102
RTVSPropertyOp5
 70
     0
102
RTVSPropertyOp6
 70
     0
102
RTVSPropertyOp7
 70
     0
102
RTVSPropertyOp8
 70
     0
102
RTVSPropertyOp9
 70
     0
102
RTVSPropertyOp10
 70
     0
102
RTVSPropertyOp11
 70
     0
102
RTVSPropertyOp12
 70
     0
102
RTVSPropertyOp13
 70
     0
102
RTVSPropertyOp14
 70
     2
102
RTVSPropertyOp15
 70
     0
102
RTVSPropertyOp16
 70
     0
102
RTVSPropertyOp17
 70
     0
102
RTVSPropertyOp18
 70
     0
102
RTVSPropertyOp19
 70
     0
102
RTVSPropertyOp20
 70
     0
102
RTVSPropertyOp21
 70
     0
102
RTVSPropertyOp22
 70
     0
102
RTVSPropertyOp23
 70
     0
102
RTVSPropertyOp24
 70
     0
102
RTVSPropertyOp25
 70
     0
102
RTVSPropertyOp26
 70
     0
102
RTVSPropertyOp27
 70
     0
102
RTVSPropertyOp28
 70
     1
102
RTVSPropertyOp29
 70
     1
102
RTVSPropertyOp30
 70
     1
102
RTVSPropertyOp31
 70
     1
102
RTVSPropertyOp32
 70
     1
102
RTVSPropertyOp33
 70
     1
102
RTVSPropertyOp34
 70
     1
102
RTVSPropertyOp35
 70
     1
102
RTVSPropertyOp36
 70
     1
102
RTVSPropertyOp37
 70
     0
102
RTVSPropertyOp38
 70
     0
102
RTVSPropertyOp39
 70
     0
102
RTVSPropertyOp40
 70
     0
102
RTVSPropertyOp41
 70
     0
102
RTVSPropertyOp42
 70
     0
102
RTVSPropertyOp43
 70
     0
102
RTVSPropertyOp44
 70
     0
102
RTVSPropertyOp45
 70
     1
102
RTVSPropertyOp46
 70
     0
102
RTVSPropertyOp47
 70
     0
102
RTVSPropertyOp48
 70
     0
102
RTVSPropertyOp49
 70
     1
102
RTVSPropertyOp50
 70
     0
102
RTVSPropertyOp51
 70
     0
102
RTVSPropertyOp52
 70
     0
102
RTVSPropertyOp53
 70
     0
102
RTVSPropertyOp54
 70
     0
102
RTVSPropertyOp55
 70
     1
102
RTVSPropertyOp56
 70
     0
102
RTVSPropertyOp57
 70
     0
102
RTVSPropertyOp58
 70
     0
102
RTVSPropertyOp59
 70
     0
102
RTVSPropertyOp60
 70
     0
102
RTVSPropertyOp61
 70
     0
102
RTVSPropertyOp62
 70
     0
  0
XRECORD
  5
A0F2
102
{ACAD_REACTORS
330
A0F1
102
}
330
A0F1
100
AcDbXrecord
280
     1
102
RTVSPost2010Prop28
280
     0
102
RTVSPost2010PropOp28
 70
     1
102
RTVSPost2010Prop29
280
     1
102
RTVSPost2010PropOp29
 70
     1
102
RTVSPost2010Prop30
280
     1
102
RTVSPost2010PropOp30
 70
     1
102
RTVSPost2010Prop31
280
     0
102
RTVSPost2010PropOp31
 70
     1
102
RTVSPost2010Prop32
280
     0
102
RTVSPost2010PropOp32
 70
     1
102
RTVSPost2010Prop33
280
     0
102
RTVSPost2010PropOp33
 70
     1
102
RTVSPost2010Prop34
280
     0
102
RTVSPost2010PropOp34
 70
     1
102
RTVSPost2010Prop35
280
     0
102
RTVSPost2010PropOp35
 70
     1
102
RTVSPost2010Prop36
280
     0
102
RTVSPost2010PropOp36
 70
     1
102
RTVSPost2010Prop37
 90
       50
102
RTVSPost2010PropOp37
 70
     1
102
RTVSPost2010Prop38
140
0.0
102
RTVSPost2010PropOp38
 70
     1
102
RTVSPost2010Prop39
140
1.0
102
RTVSPost2010PropOp39
 70
     1
102
RTVSPost2010Prop40
 90
        0
102
RTVSPost2010PropOp40
 70
     1
102
RTVSPost2010Prop41ColorIndex
 90
       18
102
RTVSPost2010Prop41ColorRGB
 90
        0
102
RTVSPost2010PropOp41
 70
     1
102
RTVSPost2010Prop42
 90
       50
102
RTVSPost2010PropOp42
 70
     1
102
RTVSPost2010Prop43
 90
        3
102
RTVSPost2010PropOp43
 70
     1
102
RTVSPost2010Prop44ColorIndex
 90
        5
102
RTVSPost2010Prop44ColorRGB
 90
      255
102
RTVSPost2010PropOp44
 70
     1
102
RTVSPost2010Prop45
280
     0
102
RTVSPost2010PropOp45
 70
     1
102
RTVSPost2010Prop46
 90
       50
102
RTVSPost2010PropOp46
 70
     1
102
RTVSPost2010Prop47
 90
       50
102
RTVSPost2010PropOp47
 70
     1
102
RTVSPost2010Prop48
 90
       50
102
RTVSPost2010PropOp48
 70
     1
102
RTVSPost2010Prop49
280
     0
102
RTVSPost2010PropOp49
 70
     1
102
RTVSPost2010Prop50
 90
       50
102
RTVSPost2010PropOp50
 70
     1
102
RTVSPost2010Prop51ColorIndex
 90
      256
102
RTVSPost2010Prop51ColorRGB
 90
-16777216
102
RTVSPost2010PropOp51
 70
     0
102
RTVSPost2010Prop52
140
1.0
102
RTVSPost2010PropOp52
 70
     0
102
RTVSPost2010Prop53
 90
        2
102
RTVSPost2010PropOp53
 70
     1
102
RTVSPost2010Prop54
  1
strokes_ogs.tif
102
RTVSPost2010PropOp54
 70
     1
102
RTVSPost2010Prop55
280
     0
102
RTVSPost2010PropOp55
 70
     1
102
RTVSPost2010Prop56
140
1.0
102
RTVSPost2010PropOp56
 70
     1
102
RTVSPost2010Prop57
140
1.0
102
RTVSPost2010PropOp57
 70
     1
102
RTVSPropertyOp0
 70
     1
102
RTVSPropertyOp1
 70
     1
102
RTVSPropertyOp2
 70
     1
102
RTVSPropertyOp3
 70
     1
102
RTVSPropertyOp4
 70
     1
102
RTVSPropertyOp5
 70
     1
102
RTVSPropertyOp6
 70
     1
102
RTVSPropertyOp7
 70
     1
102
RTVSPropertyOp8
 70
     1
102
RTVSPropertyOp9
 70
     1
102
RTVSPropertyOp10
 70
     1
102
RTVSPropertyOp11
 70
     1
102
RTVSPropertyOp12
 70
     1
102
RTVSPropertyOp13
 70
     1
102
RTVSPropertyOp14
 70
     1
102
RTVSPropertyOp15
 70
     1
102
RTVSPropertyOp16
 70
     1
102
RTVSPropertyOp17
 70
     1
102
RTVSPropertyOp18
 70
     1
102
RTVSPropertyOp19
 70
     1
102
RTVSPropertyOp20
 70
     1
102
RTVSPropertyOp21
 70
     1
102
RTVSPropertyOp22
 70
     1
102
RTVSPropertyOp23
 70
     1
102
RTVSPropertyOp24
 70
     1
102
RTVSPropertyOp25
 70
     1
102
RTVSPropertyOp26
 70
     1
102
RTVSPropertyOp27
 70
     1
102
RTVSPropertyOp28
 70
     1
102
RTVSPropertyOp29
 70
     1
102
RTVSPropertyOp30
 70
     1
102
RTVSPropertyOp31
 70
     1
102
RTVSPropertyOp32
 70
     1
102
RTVSPropertyOp33
 70
     1
102
RTVSPropertyOp34
 70
     1
102
RTVSPropertyOp35
 70
     1
102
RTVSPropertyOp36
 70
     1
102
RTVSPropertyOp37
 70
     1
102
RTVSPropertyOp38
 70
     1
102
RTVSPropertyOp39
 70
     1
102
RTVSPropertyOp40
 70
     1
102
RTVSPropertyOp41
 70
     1
102
RTVSPropertyOp42
 70
     1
102
RTVSPropertyOp43
 70
     1
102
RTVSPropertyOp44
 70
     1
102
RTVSPropertyOp45
 70
     1
102
RTVSPropertyOp46
 70
     1
102
RTVSPropertyOp47
 70
     1
102
RTVSPropertyOp48
 70
     1
102
RTVSPropertyOp49
 70
     1
102
RTVSPropertyOp50
 70
     1
102
RTVSPropertyOp51
 70
     0
102
RTVSPropertyOp52
 70
     0
102
RTVSPropertyOp53
 70
     1
102
RTVSPropertyOp54
 70
     1
102
RTVSPropertyOp55
 70
     1
102
RTVSPropertyOp56
 70
     1
102
RTVSPropertyOp57
 70
     1
102
RTVSPropertyOp58
 70
     1
102
RTVSPropertyOp59
 70
     1
102
RTVSPropertyOp60
 70
     1
102
RTVSPropertyOp61
 70
     1
102
RTVSPropertyOp62
 70
     1
  0
XRECORD
  5
A0D6
102
{ACAD_REACTORS
330
A0D5
102
}
330
A0D5
100
AcDbXrecord
280
     1
102
RTVSPost2010Prop28
280
     0
102
RTVSPost2010PropOp28
 70
     1
102
RTVSPost2010Prop29
280
     1
102
RTVSPost2010PropOp29
 70
     1
102
RTVSPost2010Prop30
280
     1
102
RTVSPost2010PropOp30
 70
     1
102
RTVSPost2010Prop31
280
     0
102
RTVSPost2010PropOp31
 70
     1
102
RTVSPost2010Prop32
280
     0
102
RTVSPost2010PropOp32
 70
     1
102
RTVSPost2010Prop33
280
     0
102
RTVSPost2010PropOp33
 70
     1
102
RTVSPost2010Prop34
280
     0
102
RTVSPost2010PropOp34
 70
     1
102
RTVSPost2010Prop35
280
     0
102
RTVSPost2010PropOp35
 70
     1
102
RTVSPost2010Prop36
280
     0
102
RTVSPost2010PropOp36
 70
     1
102
RTVSPost2010Prop37
 90
       50
102
RTVSPost2010PropOp37
 70
     1
102
RTVSPost2010Prop38
140
0.0
102
RTVSPost2010PropOp38
 70
     1
102
RTVSPost2010Prop39
140
1.0
102
RTVSPost2010PropOp39
 70
     1
102
RTVSPost2010Prop40
 90
        0
102
RTVSPost2010PropOp40
 70
     1
102
RTVSPost2010Prop41ColorIndex
 90
       18
102
RTVSPost2010Prop41ColorRGB
 90
        0
102
RTVSPost2010PropOp41
 70
     1
102
RTVSPost2010Prop42
 90
       50
102
RTVSPost2010PropOp42
 70
     1
102
RTVSPost2010Prop43
 90
        3
102
RTVSPost2010PropOp43
 70
     1
102
RTVSPost2010Prop44ColorIndex
 90
        5
102
RTVSPost2010Prop44ColorRGB
 90
      255
102
RTVSPost2010PropOp44
 70
     1
102
RTVSPost2010Prop45
280
     0
102
RTVSPost2010PropOp45
 70
     1
102
RTVSPost2010Prop46
 90
       50
102
RTVSPost2010PropOp46
 70
     1
102
RTVSPost2010Prop47
 90
       50
102
RTVSPost2010PropOp47
 70
     1
102
RTVSPost2010Prop48
 90
       50
102
RTVSPost2010PropOp48
 70
     1
102
RTVSPost2010Prop49
280
     0
102
RTVSPost2010PropOp49
 70
     1
102
RTVSPost2010Prop50
 90
       50
102
RTVSPost2010PropOp50
 70
     1
102
RTVSPost2010Prop51ColorIndex
 90
      256
102
RTVSPost2010Prop51ColorRGB
 90
-16777216
102
RTVSPost2010PropOp51
 70
     0
102
RTVSPost2010Prop52
140
1.0
102
RTVSPost2010PropOp52
 70
     0
102
RTVSPost2010Prop53
 90
        2
102
RTVSPost2010PropOp53
 70
     1
102
RTVSPost2010Prop54
  1
strokes_ogs.tif
102
RTVSPost2010PropOp54
 70
     1
102
RTVSPost2010Prop55
280
     0
102
RTVSPost2010PropOp55
 70
     1
102
RTVSPost2010Prop56
140
1.0
102
RTVSPost2010PropOp56
 70
     1
102
RTVSPost2010Prop57
140
1.0
102
RTVSPost2010PropOp57
 70
     1
102
RTVSPropertyOp0
 70
     1
102
RTVSPropertyOp1
 70
     1
102
RTVSPropertyOp2
 70
     1
102
RTVSPropertyOp3
 70
     1
102
RTVSPropertyOp4
 70
     1
102
RTVSPropertyOp5
 70
     1
102
RTVSPropertyOp6
 70
     1
102
RTVSPropertyOp7
 70
     1
102
RTVSPropertyOp8
 70
     1
102
RTVSPropertyOp9
 70
     1
102
RTVSPropertyOp10
 70
     1
102
RTVSPropertyOp11
 70
     1
102
RTVSPropertyOp12
 70
     1
102
RTVSPropertyOp13
 70
     1
102
RTVSPropertyOp14
 70
     1
102
RTVSPropertyOp15
 70
     1
102
RTVSPropertyOp16
 70
     1
102
RTVSPropertyOp17
 70
     1
102
RTVSPropertyOp18
 70
     1
102
RTVSPropertyOp19
 70
     1
102
RTVSPropertyOp20
 70
     1
102
RTVSPropertyOp21
 70
     1
102
RTVSPropertyOp22
 70
     1
102
RTVSPropertyOp23
 70
     1
102
RTVSPropertyOp24
 70
     1
102
RTVSPropertyOp25
 70
     1
102
RTVSPropertyOp26
 70
     1
102
RTVSPropertyOp27
 70
     1
102
RTVSPropertyOp28
 70
     1
102
RTVSPropertyOp29
 70
     1
102
RTVSPropertyOp30
 70
     1
102
RTVSPropertyOp31
 70
     1
102
RTVSPropertyOp32
 70
     1
102
RTVSPropertyOp33
 70
     1
102
RTVSPropertyOp34
 70
     1
102
RTVSPropertyOp35
 70
     1
102
RTVSPropertyOp36
 70
     1
102
RTVSPropertyOp37
 70
     1
102
RTVSPropertyOp38
 70
     1
102
RTVSPropertyOp39
 70
     1
102
RTVSPropertyOp40
 70
     1
102
RTVSPropertyOp41
 70
     1
102
RTVSPropertyOp42
 70
     1
102
RTVSPropertyOp43
 70
     1
102
RTVSPropertyOp44
 70
     1
102
RTVSPropertyOp45
 70
     1
102
RTVSPropertyOp46
 70
     1
102
RTVSPropertyOp47
 70
     1
102
RTVSPropertyOp48
 70
     1
102
RTVSPropertyOp49
 70
     1
102
RTVSPropertyOp50
 70
     1
102
RTVSPropertyOp51
 70
     0
102
RTVSPropertyOp52
 70
     0
102
RTVSPropertyOp53
 70
     1
102
RTVSPropertyOp54
 70
     1
102
RTVSPropertyOp55
 70
     1
102
RTVSPropertyOp56
 70
     1
102
RTVSPropertyOp57
 70
     1
102
RTVSPropertyOp58
 70
     1
102
RTVSPropertyOp59
 70
     1
102
RTVSPropertyOp60
 70
     1
102
RTVSPropertyOp61
 70
     1
102
RTVSPropertyOp62
 70
     1
  0
XRECORD
  5
A0D8
102
{ACAD_REACTORS
330
A0D7
102
}
330
A0D7
100
AcDbXrecord
280
     1
102
RTVSPost2010Prop28
280
     0
102
RTVSPost2010PropOp28
 70
     1
102
RTVSPost2010Prop29
280
     1
102
RTVSPost2010PropOp29
 70
     1
102
RTVSPost2010Prop30
280
     1
102
RTVSPost2010PropOp30
 70
     1
102
RTVSPost2010Prop31
280
     0
102
RTVSPost2010PropOp31
 70
     1
102
RTVSPost2010Prop32
280
     0
102
RTVSPost2010PropOp32
 70
     1
102
RTVSPost2010Prop33
280
     0
102
RTVSPost2010PropOp33
 70
     1
102
RTVSPost2010Prop34
280
     0
102
RTVSPost2010PropOp34
 70
     1
102
RTVSPost2010Prop35
280
     0
102
RTVSPost2010PropOp35
 70
     1
102
RTVSPost2010Prop36
280
     0
102
RTVSPost2010PropOp36
 70
     1
102
RTVSPost2010Prop37
 90
       50
102
RTVSPost2010PropOp37
 70
     1
102
RTVSPost2010Prop38
140
0.0
102
RTVSPost2010PropOp38
 70
     1
102
RTVSPost2010Prop39
140
1.0
102
RTVSPost2010PropOp39
 70
     1
102
RTVSPost2010Prop40
 90
        0
102
RTVSPost2010PropOp40
 70
     1
102
RTVSPost2010Prop41ColorIndex
 90
       18
102
RTVSPost2010Prop41ColorRGB
 90
        0
102
RTVSPost2010PropOp41
 70
     1
102
RTVSPost2010Prop42
 90
       50
102
RTVSPost2010PropOp42
 70
     1
102
RTVSPost2010Prop43
 90
        3
102
RTVSPost2010PropOp43
 70
     1
102
RTVSPost2010Prop44ColorIndex
 90
        5
102
RTVSPost2010Prop44ColorRGB
 90
      255
102
RTVSPost2010PropOp44
 70
     1
102
RTVSPost2010Prop45
280
     0
102
RTVSPost2010PropOp45
 70
     1
102
RTVSPost2010Prop46
 90
       50
102
RTVSPost2010PropOp46
 70
     1
102
RTVSPost2010Prop47
 90
       50
102
RTVSPost2010PropOp47
 70
     1
102
RTVSPost2010Prop48
 90
       50
102
RTVSPost2010PropOp48
 70
     1
102
RTVSPost2010Prop49
280
     0
102
RTVSPost2010PropOp49
 70
     1
102
RTVSPost2010Prop50
 90
       50
102
RTVSPost2010PropOp50
 70
     1
102
RTVSPost2010Prop51ColorIndex
 90
      256
102
RTVSPost2010Prop51ColorRGB
 90
-16777216
102
RTVSPost2010PropOp51
 70
     0
102
RTVSPost2010Prop52
140
1.0
102
RTVSPost2010PropOp52
 70
     0
102
RTVSPost2010Prop53
 90
        2
102
RTVSPost2010PropOp53
 70
     1
102
RTVSPost2010Prop54
  1
strokes_ogs.tif
102
RTVSPost2010PropOp54
 70
     1
102
RTVSPost2010Prop55
280
     0
102
RTVSPost2010PropOp55
 70
     1
102
RTVSPost2010Prop56
140
1.0
102
RTVSPost2010PropOp56
 70
     1
102
RTVSPost2010Prop57
140
1.0
102
RTVSPost2010PropOp57
 70
     1
102
RTVSPropertyOp0
 70
     1
102
RTVSPropertyOp1
 70
     1
102
RTVSPropertyOp2
 70
     1
102
RTVSPropertyOp3
 70
     1
102
RTVSPropertyOp4
 70
     1
102
RTVSPropertyOp5
 70
     1
102
RTVSPropertyOp6
 70
     1
102
RTVSPropertyOp7
 70
     1
102
RTVSPropertyOp8
 70
     1
102
RTVSPropertyOp9
 70
     1
102
RTVSPropertyOp10
 70
     1
102
RTVSPropertyOp11
 70
     1
102
RTVSPropertyOp12
 70
     1
102
RTVSPropertyOp13
 70
     1
102
RTVSPropertyOp14
 70
     1
102
RTVSPropertyOp15
 70
     1
102
RTVSPropertyOp16
 70
     1
102
RTVSPropertyOp17
 70
     1
102
RTVSPropertyOp18
 70
     1
102
RTVSPropertyOp19
 70
     1
102
RTVSPropertyOp20
 70
     1
102
RTVSPropertyOp21
 70
     1
102
RTVSPropertyOp22
 70
     1
102
RTVSPropertyOp23
 70
     1
102
RTVSPropertyOp24
 70
     1
102
RTVSPropertyOp25
 70
     1
102
RTVSPropertyOp26
 70
     1
102
RTVSPropertyOp27
 70
     1
102
RTVSPropertyOp28
 70
     1
102
RTVSPropertyOp29
 70
     1
102
RTVSPropertyOp30
 70
     1
102
RTVSPropertyOp31
 70
     1
102
RTVSPropertyOp32
 70
     1
102
RTVSPropertyOp33
 70
     1
102
RTVSPropertyOp34
 70
     1
102
RTVSPropertyOp35
 70
     1
102
RTVSPropertyOp36
 70
     1
102
RTVSPropertyOp37
 70
     1
102
RTVSPropertyOp38
 70
     1
102
RTVSPropertyOp39
 70
     1
102
RTVSPropertyOp40
 70
     1
102
RTVSPropertyOp41
 70
     1
102
RTVSPropertyOp42
 70
     1
102
RTVSPropertyOp43
 70
     1
102
RTVSPropertyOp44
 70
     1
102
RTVSPropertyOp45
 70
     1
102
RTVSPropertyOp46
 70
     1
102
RTVSPropertyOp47
 70
     1
102
RTVSPropertyOp48
 70
     1
102
RTVSPropertyOp49
 70
     1
102
RTVSPropertyOp50
 70
     1
102
RTVSPropertyOp51
 70
     0
102
RTVSPropertyOp52
 70
     0
102
RTVSPropertyOp53
 70
     1
102
RTVSPropertyOp54
 70
     1
102
RTVSPropertyOp55
 70
     1
102
RTVSPropertyOp56
 70
     1
102
RTVSPropertyOp57
 70
     1
102
RTVSPropertyOp58
 70
     1
102
RTVSPropertyOp59
 70
     1
102
RTVSPropertyOp60
 70
     1
102
RTVSPropertyOp61
 70
     1
102
RTVSPropertyOp62
 70
     1
  0
XRECORD
  5
A0DA
102
{ACAD_REACTORS
330
A0D9
102
}
330
A0D9
100
AcDbXrecord
280
     1
102
RTVSPost2010Prop28
280
     0
102
RTVSPost2010PropOp28
 70
     1
102
RTVSPost2010Prop29
280
     1
102
RTVSPost2010PropOp29
 70
     1
102
RTVSPost2010Prop30
280
     1
102
RTVSPost2010PropOp30
 70
     1
102
RTVSPost2010Prop31
280
     0
102
RTVSPost2010PropOp31
 70
     1
102
RTVSPost2010Prop32
280
     0
102
RTVSPost2010PropOp32
 70
     1
102
RTVSPost2010Prop33
280
     0
102
RTVSPost2010PropOp33
 70
     1
102
RTVSPost2010Prop34
280
     0
102
RTVSPost2010PropOp34
 70
     1
102
RTVSPost2010Prop35
280
     0
102
RTVSPost2010PropOp35
 70
     1
102
RTVSPost2010Prop36
280
     0
102
RTVSPost2010PropOp36
 70
     1
102
RTVSPost2010Prop37
 90
       50
102
RTVSPost2010PropOp37
 70
     1
102
RTVSPost2010Prop38
140
0.0
102
RTVSPost2010PropOp38
 70
     1
102
RTVSPost2010Prop39
140
1.0
102
RTVSPost2010PropOp39
 70
     1
102
RTVSPost2010Prop40
 90
        0
102
RTVSPost2010PropOp40
 70
     1
102
RTVSPost2010Prop41ColorIndex
 90
       18
102
RTVSPost2010Prop41ColorRGB
 90
        0
102
RTVSPost2010PropOp41
 70
     1
102
RTVSPost2010Prop42
 90
       50
102
RTVSPost2010PropOp42
 70
     1
102
RTVSPost2010Prop43
 90
        3
102
RTVSPost2010PropOp43
 70
     1
102
RTVSPost2010Prop44ColorIndex
 90
        5
102
RTVSPost2010Prop44ColorRGB
 90
      255
102
RTVSPost2010PropOp44
 70
     1
102
RTVSPost2010Prop45
280
     0
102
RTVSPost2010PropOp45
 70
     1
102
RTVSPost2010Prop46
 90
       50
102
RTVSPost2010PropOp46
 70
     1
102
RTVSPost2010Prop47
 90
       50
102
RTVSPost2010PropOp47
 70
     1
102
RTVSPost2010Prop48
 90
       50
102
RTVSPost2010PropOp48
 70
     1
102
RTVSPost2010Prop49
280
     0
102
RTVSPost2010PropOp49
 70
     1
102
RTVSPost2010Prop50
 90
       50
102
RTVSPost2010PropOp50
 70
     1
102
RTVSPost2010Prop51ColorIndex
 90
      256
102
RTVSPost2010Prop51ColorRGB
 90
-16777216
102
RTVSPost2010PropOp51
 70
     0
102
RTVSPost2010Prop52
140
1.0
102
RTVSPost2010PropOp52
 70
     0
102
RTVSPost2010Prop53
 90
        2
102
RTVSPost2010PropOp53
 70
     1
102
RTVSPost2010Prop54
  1
strokes_ogs.tif
102
RTVSPost2010PropOp54
 70
     1
102
RTVSPost2010Prop55
280
     0
102
RTVSPost2010PropOp55
 70
     1
102
RTVSPost2010Prop56
140
1.0
102
RTVSPost2010PropOp56
 70
     1
102
RTVSPost2010Prop57
140
1.0
102
RTVSPost2010PropOp57
 70
     1
102
RTVSPropertyOp0
 70
     1
102
RTVSPropertyOp1
 70
     1
102
RTVSPropertyOp2
 70
     1
102
RTVSPropertyOp3
 70
     1
102
RTVSPropertyOp4
 70
     1
102
RTVSPropertyOp5
 70
     1
102
RTVSPropertyOp6
 70
     1
102
RTVSPropertyOp7
 70
     1
102
RTVSPropertyOp8
 70
     1
102
RTVSPropertyOp9
 70
     1
102
RTVSPropertyOp10
 70
     1
102
RTVSPropertyOp11
 70
     1
102
RTVSPropertyOp12
 70
     1
102
RTVSPropertyOp13
 70
     1
102
RTVSPropertyOp14
 70
     1
102
RTVSPropertyOp15
 70
     1
102
RTVSPropertyOp16
 70
     1
102
RTVSPropertyOp17
 70
     1
102
RTVSPropertyOp18
 70
     1
102
RTVSPropertyOp19
 70
     1
102
RTVSPropertyOp20
 70
     1
102
RTVSPropertyOp21
 70
     1
102
RTVSPropertyOp22
 70
     1
102
RTVSPropertyOp23
 70
     1
102
RTVSPropertyOp24
 70
     1
102
RTVSPropertyOp25
 70
     1
102
RTVSPropertyOp26
 70
     1
102
RTVSPropertyOp27
 70
     1
102
RTVSPropertyOp28
 70
     1
102
RTVSPropertyOp29
 70
     1
102
RTVSPropertyOp30
 70
     1
102
RTVSPropertyOp31
 70
     1
102
RTVSPropertyOp32
 70
     1
102
RTVSPropertyOp33
 70
     1
102
RTVSPropertyOp34
 70
     1
102
RTVSPropertyOp35
 70
     1
102
RTVSPropertyOp36
 70
     1
102
RTVSPropertyOp37
 70
     1
102
RTVSPropertyOp38
 70
     1
102
RTVSPropertyOp39
 70
     1
102
RTVSPropertyOp40
 70
     1
102
RTVSPropertyOp41
 70
     1
102
RTVSPropertyOp42
 70
     1
102
RTVSPropertyOp43
 70
     1
102
RTVSPropertyOp44
 70
     1
102
RTVSPropertyOp45
 70
     1
102
RTVSPropertyOp46
 70
     1
102
RTVSPropertyOp47
 70
     1
102
RTVSPropertyOp48
 70
     1
102
RTVSPropertyOp49
 70
     1
102
RTVSPropertyOp50
 70
     1
102
RTVSPropertyOp51
 70
     0
102
RTVSPropertyOp52
 70
     0
102
RTVSPropertyOp53
 70
     1
102
RTVSPropertyOp54
 70
     1
102
RTVSPropertyOp55
 70
     1
102
RTVSPropertyOp56
 70
     1
102
RTVSPropertyOp57
 70
     1
102
RTVSPropertyOp58
 70
     1
102
RTVSPropertyOp59
 70
     1
102
RTVSPropertyOp60
 70
     1
102
RTVSPropertyOp61
 70
     1
102
RTVSPropertyOp62
 70
     1
  0
XRECORD
  5
A0DC
102
{ACAD_REACTORS
330
A0DB
102
}
330
A0DB
100
AcDbXrecord
280
     1
102
RTVSPost2010Prop28
280
     0
102
RTVSPost2010PropOp28
 70
     1
102
RTVSPost2010Prop29
280
     1
102
RTVSPost2010PropOp29
 70
     1
102
RTVSPost2010Prop30
280
     1
102
RTVSPost2010PropOp30
 70
     1
102
RTVSPost2010Prop31
280
     0
102
RTVSPost2010PropOp31
 70
     1
102
RTVSPost2010Prop32
280
     0
102
RTVSPost2010PropOp32
 70
     1
102
RTVSPost2010Prop33
280
     0
102
RTVSPost2010PropOp33
 70
     1
102
RTVSPost2010Prop34
280
     0
102
RTVSPost2010PropOp34
 70
     1
102
RTVSPost2010Prop35
280
     0
102
RTVSPost2010PropOp35
 70
     1
102
RTVSPost2010Prop36
280
     0
102
RTVSPost2010PropOp36
 70
     1
102
RTVSPost2010Prop37
 90
       50
102
RTVSPost2010PropOp37
 70
     1
102
RTVSPost2010Prop38
140
0.0
102
RTVSPost2010PropOp38
 70
     1
102
RTVSPost2010Prop39
140
1.0
102
RTVSPost2010PropOp39
 70
     1
102
RTVSPost2010Prop40
 90
        0
102
RTVSPost2010PropOp40
 70
     1
102
RTVSPost2010Prop41ColorIndex
 90
       18
102
RTVSPost2010Prop41ColorRGB
 90
        0
102
RTVSPost2010PropOp41
 70
     1
102
RTVSPost2010Prop42
 90
       50
102
RTVSPost2010PropOp42
 70
     1
102
RTVSPost2010Prop43
 90
        3
102
RTVSPost2010PropOp43
 70
     1
102
RTVSPost2010Prop44ColorIndex
 90
        5
102
RTVSPost2010Prop44ColorRGB
 90
      255
102
RTVSPost2010PropOp44
 70
     1
102
RTVSPost2010Prop45
280
     0
102
RTVSPost2010PropOp45
 70
     1
102
RTVSPost2010Prop46
 90
       50
102
RTVSPost2010PropOp46
 70
     1
102
RTVSPost2010Prop47
 90
       50
102
RTVSPost2010PropOp47
 70
     1
102
RTVSPost2010Prop48
 90
       50
102
RTVSPost2010PropOp48
 70
     1
102
RTVSPost2010Prop49
280
     0
102
RTVSPost2010PropOp49
 70
     1
102
RTVSPost2010Prop50
 90
       50
102
RTVSPost2010PropOp50
 70
     1
102
RTVSPost2010Prop51ColorIndex
 90
      256
102
RTVSPost2010Prop51ColorRGB
 90
-16777216
102
RTVSPost2010PropOp51
 70
     0
102
RTVSPost2010Prop52
140
1.0
102
RTVSPost2010PropOp52
 70
     0
102
RTVSPost2010Prop53
 90
        2
102
RTVSPost2010PropOp53
 70
     1
102
RTVSPost2010Prop54
  1
strokes_ogs.tif
102
RTVSPost2010PropOp54
 70
     1
102
RTVSPost2010Prop55
280
     0
102
RTVSPost2010PropOp55
 70
     1
102
RTVSPost2010Prop56
140
1.0
102
RTVSPost2010PropOp56
 70
     1
102
RTVSPost2010Prop57
140
1.0
102
RTVSPost2010PropOp57
 70
     1
102
RTVSPropertyOp0
 70
     1
102
RTVSPropertyOp1
 70
     1
102
RTVSPropertyOp2
 70
     1
102
RTVSPropertyOp3
 70
     1
102
RTVSPropertyOp4
 70
     1
102
RTVSPropertyOp5
 70
     1
102
RTVSPropertyOp6
 70
     1
102
RTVSPropertyOp7
 70
     1
102
RTVSPropertyOp8
 70
     1
102
RTVSPropertyOp9
 70
     1
102
RTVSPropertyOp10
 70
     1
102
RTVSPropertyOp11
 70
     1
102
RTVSPropertyOp12
 70
     1
102
RTVSPropertyOp13
 70
     1
102
RTVSPropertyOp14
 70
     1
102
RTVSPropertyOp15
 70
     1
102
RTVSPropertyOp16
 70
     1
102
RTVSPropertyOp17
 70
     1
102
RTVSPropertyOp18
 70
     1
102
RTVSPropertyOp19
 70
     1
102
RTVSPropertyOp20
 70
     1
102
RTVSPropertyOp21
 70
     1
102
RTVSPropertyOp22
 70
     1
102
RTVSPropertyOp23
 70
     1
102
RTVSPropertyOp24
 70
     1
102
RTVSPropertyOp25
 70
     1
102
RTVSPropertyOp26
 70
     1
102
RTVSPropertyOp27
 70
     1
102
RTVSPropertyOp28
 70
     1
102
RTVSPropertyOp29
 70
     1
102
RTVSPropertyOp30
 70
     1
102
RTVSPropertyOp31
 70
     1
102
RTVSPropertyOp32
 70
     1
102
RTVSPropertyOp33
 70
     1
102
RTVSPropertyOp34
 70
     1
102
RTVSPropertyOp35
 70
     1
102
RTVSPropertyOp36
 70
     1
102
RTVSPropertyOp37
 70
     1
102
RTVSPropertyOp38
 70
     1
102
RTVSPropertyOp39
 70
     1
102
RTVSPropertyOp40
 70
     1
102
RTVSPropertyOp41
 70
     1
102
RTVSPropertyOp42
 70
     1
102
RTVSPropertyOp43
 70
     1
102
RTVSPropertyOp44
 70
     1
102
RTVSPropertyOp45
 70
     1
102
RTVSPropertyOp46
 70
     1
102
RTVSPropertyOp47
 70
     1
102
RTVSPropertyOp48
 70
     1
102
RTVSPropertyOp49
 70
     1
102
RTVSPropertyOp50
 70
     1
102
RTVSPropertyOp51
 70
     0
102
RTVSPropertyOp52
 70
     0
102
RTVSPropertyOp53
 70
     1
102
RTVSPropertyOp54
 70
     1
102
RTVSPropertyOp55
 70
     1
102
RTVSPropertyOp56
 70
     1
102
RTVSPropertyOp57
 70
     1
102
RTVSPropertyOp58
 70
     1
102
RTVSPropertyOp59
 70
     1
102
RTVSPropertyOp60
 70
     1
102
RTVSPropertyOp61
 70
     1
102
RTVSPropertyOp62
 70
     1
  0
XRECORD
  5
A0E4
102
{ACAD_REACTORS
330
A0E3
102
}
330
A0E3
100
AcDbXrecord
280
     1
102
RTVSPost2010Prop28
280
     0
102
RTVSPost2010PropOp28
 70
     1
102
RTVSPost2010Prop29
280
     1
102
RTVSPost2010PropOp29
 70
     1
102
RTVSPost2010Prop30
280
     1
102
RTVSPost2010PropOp30
 70
     1
102
RTVSPost2010Prop31
280
     0
102
RTVSPost2010PropOp31
 70
     1
102
RTVSPost2010Prop32
280
     0
102
RTVSPost2010PropOp32
 70
     1
102
RTVSPost2010Prop33
280
     0
102
RTVSPost2010PropOp33
 70
     1
102
RTVSPost2010Prop34
280
     0
102
RTVSPost2010PropOp34
 70
     1
102
RTVSPost2010Prop35
280
     0
102
RTVSPost2010PropOp35
 70
     1
102
RTVSPost2010Prop36
280
     0
102
RTVSPost2010PropOp36
 70
     1
102
RTVSPost2010Prop37
 90
       50
102
RTVSPost2010PropOp37
 70
     1
102
RTVSPost2010Prop38
140
0.0
102
RTVSPost2010PropOp38
 70
     1
102
RTVSPost2010Prop39
140
1.0
102
RTVSPost2010PropOp39
 70
     1
102
RTVSPost2010Prop40
 90
        0
102
RTVSPost2010PropOp40
 70
     1
102
RTVSPost2010Prop41ColorIndex
 90
       18
102
RTVSPost2010Prop41ColorRGB
 90
        0
102
RTVSPost2010PropOp41
 70
     1
102
RTVSPost2010Prop42
 90
       50
102
RTVSPost2010PropOp42
 70
     1
102
RTVSPost2010Prop43
 90
        3
102
RTVSPost2010PropOp43
 70
     1
102
RTVSPost2010Prop44ColorIndex
 90
        5
102
RTVSPost2010Prop44ColorRGB
 90
      255
102
RTVSPost2010PropOp44
 70
     1
102
RTVSPost2010Prop45
280
     0
102
RTVSPost2010PropOp45
 70
     1
102
RTVSPost2010Prop46
 90
       50
102
RTVSPost2010PropOp46
 70
     1
102
RTVSPost2010Prop47
 90
       50
102
RTVSPost2010PropOp47
 70
     1
102
RTVSPost2010Prop48
 90
       50
102
RTVSPost2010PropOp48
 70
     1
102
RTVSPost2010Prop49
280
     0
102
RTVSPost2010PropOp49
 70
     1
102
RTVSPost2010Prop50
 90
       50
102
RTVSPost2010PropOp50
 70
     1
102
RTVSPost2010Prop51ColorIndex
 90
      256
102
RTVSPost2010Prop51ColorRGB
 90
-16777216
102
RTVSPost2010PropOp51
 70
     0
102
RTVSPost2010Prop52
140
1.0
102
RTVSPost2010PropOp52
 70
     0
102
RTVSPost2010Prop53
 90
        2
102
RTVSPost2010PropOp53
 70
     1
102
RTVSPost2010Prop54
  1
strokes_ogs.tif
102
RTVSPost2010PropOp54
 70
     1
102
RTVSPost2010Prop55
280
     0
102
RTVSPost2010PropOp55
 70
     1
102
RTVSPost2010Prop56
140
1.0
102
RTVSPost2010PropOp56
 70
     1
102
RTVSPost2010Prop57
140
1.0
102
RTVSPost2010PropOp57
 70
     1
102
RTVSPropertyOp0
 70
     1
102
RTVSPropertyOp1
 70
     1
102
RTVSPropertyOp2
 70
     1
102
RTVSPropertyOp3
 70
     1
102
RTVSPropertyOp4
 70
     1
102
RTVSPropertyOp5
 70
     1
102
RTVSPropertyOp6
 70
     1
102
RTVSPropertyOp7
 70
     1
102
RTVSPropertyOp8
 70
     1
102
RTVSPropertyOp9
 70
     1
102
RTVSPropertyOp10
 70
     1
102
RTVSPropertyOp11
 70
     1
102
RTVSPropertyOp12
 70
     1
102
RTVSPropertyOp13
 70
     1
102
RTVSPropertyOp14
 70
     1
102
RTVSPropertyOp15
 70
     1
102
RTVSPropertyOp16
 70
     1
102
RTVSPropertyOp17
 70
     1
102
RTVSPropertyOp18
 70
     1
102
RTVSPropertyOp19
 70
     1
102
RTVSPropertyOp20
 70
     1
102
RTVSPropertyOp21
 70
     1
102
RTVSPropertyOp22
 70
     1
102
RTVSPropertyOp23
 70
     1
102
RTVSPropertyOp24
 70
     1
102
RTVSPropertyOp25
 70
     1
102
RTVSPropertyOp26
 70
     1
102
RTVSPropertyOp27
 70
     1
102
RTVSPropertyOp28
 70
     1
102
RTVSPropertyOp29
 70
     1
102
RTVSPropertyOp30
 70
     1
102
RTVSPropertyOp31
 70
     1
102
RTVSPropertyOp32
 70
     1
102
RTVSPropertyOp33
 70
     1
102
RTVSPropertyOp34
 70
     1
102
RTVSPropertyOp35
 70
     1
102
RTVSPropertyOp36
 70
     1
102
RTVSPropertyOp37
 70
     1
102
RTVSPropertyOp38
 70
     1
102
RTVSPropertyOp39
 70
     1
102
RTVSPropertyOp40
 70
     1
102
RTVSPropertyOp41
 70
     1
102
RTVSPropertyOp42
 70
     1
102
RTVSPropertyOp43
 70
     1
102
RTVSPropertyOp44
 70
     1
102
RTVSPropertyOp45
 70
     1
102
RTVSPropertyOp46
 70
     1
102
RTVSPropertyOp47
 70
     1
102
RTVSPropertyOp48
 70
     1
102
RTVSPropertyOp49
 70
     1
102
RTVSPropertyOp50
 70
     1
102
RTVSPropertyOp51
 70
     0
102
RTVSPropertyOp52
 70
     0
102
RTVSPropertyOp53
 70
     1
102
RTVSPropertyOp54
 70
     1
102
RTVSPropertyOp55
 70
     1
102
RTVSPropertyOp56
 70
     1
102
RTVSPropertyOp57
 70
     1
102
RTVSPropertyOp58
 70
     1
102
RTVSPropertyOp59
 70
     1
102
RTVSPropertyOp60
 70
     1
102
RTVSPropertyOp61
 70
     1
102
RTVSPropertyOp62
 70
     1
  0
XRECORD
  5
A100
102
{ACAD_REACTORS
330
A0FF
102
}
330
A0FF
100
AcDbXrecord
280
     1
102
RTVSPost2010Prop28
280
     0
102
RTVSPost2010PropOp28
 70
     1
102
RTVSPost2010Prop29
280
     1
102
RTVSPost2010PropOp29
 70
     1
102
RTVSPost2010Prop30
280
     1
102
RTVSPost2010PropOp30
 70
     1
102
RTVSPost2010Prop31
280
     0
102
RTVSPost2010PropOp31
 70
     1
102
RTVSPost2010Prop32
280
     0
102
RTVSPost2010PropOp32
 70
     1
102
RTVSPost2010Prop33
280
     0
102
RTVSPost2010PropOp33
 70
     1
102
RTVSPost2010Prop34
280
     0
102
RTVSPost2010PropOp34
 70
     1
102
RTVSPost2010Prop35
280
     0
102
RTVSPost2010PropOp35
 70
     1
102
RTVSPost2010Prop36
280
     0
102
RTVSPost2010PropOp36
 70
     1
102
RTVSPost2010Prop37
 90
       50
102
RTVSPost2010PropOp37
 70
     0
102
RTVSPost2010Prop38
140
0.0
102
RTVSPost2010PropOp38
 70
     0
102
RTVSPost2010Prop39
140
1.0
102
RTVSPost2010PropOp39
 70
     0
102
RTVSPost2010Prop40
 90
        0
102
RTVSPost2010PropOp40
 70
     0
102
RTVSPost2010Prop41ColorIndex
 90
       18
102
RTVSPost2010Prop41ColorRGB
 90
        0
102
RTVSPost2010PropOp41
 70
     0
102
RTVSPost2010Prop42
 90
       50
102
RTVSPost2010PropOp42
 70
     0
102
RTVSPost2010Prop43
 90
        3
102
RTVSPost2010PropOp43
 70
     0
102
RTVSPost2010Prop44ColorIndex
 90
        5
102
RTVSPost2010Prop44ColorRGB
 90
      255
102
RTVSPost2010PropOp44
 70
     0
102
RTVSPost2010Prop45
280
     0
102
RTVSPost2010PropOp45
 70
     1
102
RTVSPost2010Prop46
 90
       50
102
RTVSPost2010PropOp46
 70
     0
102
RTVSPost2010Prop47
 90
       50
102
RTVSPost2010PropOp47
 70
     0
102
RTVSPost2010Prop48
 90
       50
102
RTVSPost2010PropOp48
 70
     0
102
RTVSPost2010Prop49
280
     0
102
RTVSPost2010PropOp49
 70
     1
102
RTVSPost2010Prop50
 90
       50
102
RTVSPost2010PropOp50
 70
     0
102
RTVSPost2010Prop51ColorIndex
 90
      256
102
RTVSPost2010Prop51ColorRGB
 90
-16777216
102
RTVSPost2010PropOp51
 70
     0
102
RTVSPost2010Prop52
140
1.0
102
RTVSPost2010PropOp52
 70
     0
102
RTVSPost2010Prop53
 90
        2
102
RTVSPost2010PropOp53
 70
     0
102
RTVSPost2010Prop54
  1
strokes_ogs.tif
102
RTVSPost2010PropOp54
 70
     0
102
RTVSPost2010Prop55
280
     0
102
RTVSPost2010PropOp55
 70
     1
102
RTVSPost2010Prop56
140
1.0
102
RTVSPost2010PropOp56
 70
     0
102
RTVSPost2010Prop57
140
1.0
102
RTVSPost2010PropOp57
 70
     0
102
RTVSPropertyOp0
 70
     0
102
RTVSPropertyOp1
 70
     0
102
RTVSPropertyOp2
 70
     0
102
RTVSPropertyOp3
 70
     0
102
RTVSPropertyOp4
 70
     0
102
RTVSPropertyOp5
 70
     0
102
RTVSPropertyOp6
 70
     0
102
RTVSPropertyOp7
 70
     0
102
RTVSPropertyOp8
 70
     0
102
RTVSPropertyOp9
 70
     0
102
RTVSPropertyOp10
 70
     0
102
RTVSPropertyOp11
 70
     0
102
RTVSPropertyOp12
 70
     0
102
RTVSPropertyOp13
 70
     0
102
RTVSPropertyOp14
 70
     2
102
RTVSPropertyOp15
 70
     0
102
RTVSPropertyOp16
 70
     0
102
RTVSPropertyOp17
 70
     0
102
RTVSPropertyOp18
 70
     0
102
RTVSPropertyOp19
 70
     0
102
RTVSPropertyOp20
 70
     0
102
RTVSPropertyOp21
 70
     0
102
RTVSPropertyOp22
 70
     0
102
RTVSPropertyOp23
 70
     0
102
RTVSPropertyOp24
 70
     0
102
RTVSPropertyOp25
 70
     0
102
RTVSPropertyOp26
 70
     0
102
RTVSPropertyOp27
 70
     0
102
RTVSPropertyOp28
 70
     1
102
RTVSPropertyOp29
 70
     1
102
RTVSPropertyOp30
 70
     1
102
RTVSPropertyOp31
 70
     1
102
RTVSPropertyOp32
 70
     1
102
RTVSPropertyOp33
 70
     1
102
RTVSPropertyOp34
 70
     1
102
RTVSPropertyOp35
 70
     1
102
RTVSPropertyOp36
 70
     1
102
RTVSPropertyOp37
 70
     0
102
RTVSPropertyOp38
 70
     0
102
RTVSPropertyOp39
 70
     0
102
RTVSPropertyOp40
 70
     0
102
RTVSPropertyOp41
 70
     0
102
RTVSPropertyOp42
 70
     0
102
RTVSPropertyOp43
 70
     0
102
RTVSPropertyOp44
 70
     0
102
RTVSPropertyOp45
 70
     1
102
RTVSPropertyOp46
 70
     0
102
RTVSPropertyOp47
 70
     0
102
RTVSPropertyOp48
 70
     0
102
RTVSPropertyOp49
 70
     1
102
RTVSPropertyOp50
 70
     0
102
RTVSPropertyOp51
 70
     0
102
RTVSPropertyOp52
 70
     0
102
RTVSPropertyOp53
 70
     0
102
RTVSPropertyOp54
 70
     0
102
RTVSPropertyOp55
 70
     1
102
RTVSPropertyOp56
 70
     0
102
RTVSPropertyOp57
 70
     0
102
RTVSPropertyOp58
 70
     0
102
RTVSPropertyOp59
 70
     0
102
RTVSPropertyOp60
 70
     0
102
RTVSPropertyOp61
 70
     0
102
RTVSPropertyOp62
 70
     0
  0
XRECORD
  5
A0F0
102
{ACAD_REACTORS
330
A0EF
102
}
330
A0EF
100
AcDbXrecord
280
     1
102
RTVSPost2010Prop28
280
     0
102
RTVSPost2010PropOp28
 70
     1
102
RTVSPost2010Prop29
280
     1
102
RTVSPost2010PropOp29
 70
     1
102
RTVSPost2010Prop30
280
     1
102
RTVSPost2010PropOp30
 70
     1
102
RTVSPost2010Prop31
280
     0
102
RTVSPost2010PropOp31
 70
     1
102
RTVSPost2010Prop32
280
     0
102
RTVSPost2010PropOp32
 70
     1
102
RTVSPost2010Prop33
280
     0
102
RTVSPost2010PropOp33
 70
     1
102
RTVSPost2010Prop34
280
     0
102
RTVSPost2010PropOp34
 70
     1
102
RTVSPost2010Prop35
280
     0
102
RTVSPost2010PropOp35
 70
     1
102
RTVSPost2010Prop36
280
     0
102
RTVSPost2010PropOp36
 70
     1
102
RTVSPost2010Prop37
 90
       50
102
RTVSPost2010PropOp37
 70
     1
102
RTVSPost2010Prop38
140
0.0
102
RTVSPost2010PropOp38
 70
     1
102
RTVSPost2010Prop39
140
1.0
102
RTVSPost2010PropOp39
 70
     1
102
RTVSPost2010Prop40
 90
        0
102
RTVSPost2010PropOp40
 70
     1
102
RTVSPost2010Prop41ColorIndex
 90
       18
102
RTVSPost2010Prop41ColorRGB
 90
        0
102
RTVSPost2010PropOp41
 70
     1
102
RTVSPost2010Prop42
 90
       50
102
RTVSPost2010PropOp42
 70
     1
102
RTVSPost2010Prop43
 90
        3
102
RTVSPost2010PropOp43
 70
     1
102
RTVSPost2010Prop44ColorIndex
 90
        5
102
RTVSPost2010Prop44ColorRGB
 90
      255
102
RTVSPost2010PropOp44
 70
     1
102
RTVSPost2010Prop45
280
     0
102
RTVSPost2010PropOp45
 70
     1
102
RTVSPost2010Prop46
 90
       50
102
RTVSPost2010PropOp46
 70
     1
102
RTVSPost2010Prop47
 90
       50
102
RTVSPost2010PropOp47
 70
     1
102
RTVSPost2010Prop48
 90
       50
102
RTVSPost2010PropOp48
 70
     1
102
RTVSPost2010Prop49
280
     0
102
RTVSPost2010PropOp49
 70
     1
102
RTVSPost2010Prop50
 90
       50
102
RTVSPost2010PropOp50
 70
     1
102
RTVSPost2010Prop51ColorIndex
 90
      256
102
RTVSPost2010Prop51ColorRGB
 90
-16777216
102
RTVSPost2010PropOp51
 70
     0
102
RTVSPost2010Prop52
140
1.0
102
RTVSPost2010PropOp52
 70
     0
102
RTVSPost2010Prop53
 90
        2
102
RTVSPost2010PropOp53
 70
     1
102
RTVSPost2010Prop54
  1
strokes_ogs.tif
102
RTVSPost2010PropOp54
 70
     1
102
RTVSPost2010Prop55
280
     0
102
RTVSPost2010PropOp55
 70
     1
102
RTVSPost2010Prop56
140
1.0
102
RTVSPost2010PropOp56
 70
     1
102
RTVSPost2010Prop57
140
1.0
102
RTVSPost2010PropOp57
 70
     1
102
RTVSPropertyOp0
 70
     1
102
RTVSPropertyOp1
 70
     1
102
RTVSPropertyOp2
 70
     1
102
RTVSPropertyOp3
 70
     1
102
RTVSPropertyOp4
 70
     1
102
RTVSPropertyOp5
 70
     1
102
RTVSPropertyOp6
 70
     1
102
RTVSPropertyOp7
 70
     1
102
RTVSPropertyOp8
 70
     1
102
RTVSPropertyOp9
 70
     1
102
RTVSPropertyOp10
 70
     1
102
RTVSPropertyOp11
 70
     1
102
RTVSPropertyOp12
 70
     1
102
RTVSPropertyOp13
 70
     1
102
RTVSPropertyOp14
 70
     1
102
RTVSPropertyOp15
 70
     1
102
RTVSPropertyOp16
 70
     1
102
RTVSPropertyOp17
 70
     1
102
RTVSPropertyOp18
 70
     1
102
RTVSPropertyOp19
 70
     1
102
RTVSPropertyOp20
 70
     1
102
RTVSPropertyOp21
 70
     1
102
RTVSPropertyOp22
 70
     1
102
RTVSPropertyOp23
 70
     1
102
RTVSPropertyOp24
 70
     1
102
RTVSPropertyOp25
 70
     1
102
RTVSPropertyOp26
 70
     1
102
RTVSPropertyOp27
 70
     1
102
RTVSPropertyOp28
 70
     1
102
RTVSPropertyOp29
 70
     1
102
RTVSPropertyOp30
 70
     1
102
RTVSPropertyOp31
 70
     1
102
RTVSPropertyOp32
 70
     1
102
RTVSPropertyOp33
 70
     1
102
RTVSPropertyOp34
 70
     1
102
RTVSPropertyOp35
 70
     1
102
RTVSPropertyOp36
 70
     1
102
RTVSPropertyOp37
 70
     1
102
RTVSPropertyOp38
 70
     1
102
RTVSPropertyOp39
 70
     1
102
RTVSPropertyOp40
 70
     1
102
RTVSPropertyOp41
 70
     1
102
RTVSPropertyOp42
 70
     1
102
RTVSPropertyOp43
 70
     1
102
RTVSPropertyOp44
 70
     1
102
RTVSPropertyOp45
 70
     1
102
RTVSPropertyOp46
 70
     1
102
RTVSPropertyOp47
 70
     1
102
RTVSPropertyOp48
 70
     1
102
RTVSPropertyOp49
 70
     1
102
RTVSPropertyOp50
 70
     1
102
RTVSPropertyOp51
 70
     0
102
RTVSPropertyOp52
 70
     0
102
RTVSPropertyOp53
 70
     1
102
RTVSPropertyOp54
 70
     1
102
RTVSPropertyOp55
 70
     1
102
RTVSPropertyOp56
 70
     1
102
RTVSPropertyOp57
 70
     1
102
RTVSPropertyOp58
 70
     1
102
RTVSPropertyOp59
 70
     1
102
RTVSPropertyOp60
 70
     1
102
RTVSPropertyOp61
 70
     1
102
RTVSPropertyOp62
 70
     1
  0
XRECORD
  5
A102
102
{ACAD_REACTORS
330
A101
102
}
330
A101
100
AcDbXrecord
280
     1
102
RTVSPost2010Prop28
280
     0
102
RTVSPost2010PropOp28
 70
     1
102
RTVSPost2010Prop29
280
     1
102
RTVSPost2010PropOp29
 70
     1
102
RTVSPost2010Prop30
280
     1
102
RTVSPost2010PropOp30
 70
     1
102
RTVSPost2010Prop31
280
     0
102
RTVSPost2010PropOp31
 70
     1
102
RTVSPost2010Prop32
280
     0
102
RTVSPost2010PropOp32
 70
     1
102
RTVSPost2010Prop33
280
     0
102
RTVSPost2010PropOp33
 70
     1
102
RTVSPost2010Prop34
280
     0
102
RTVSPost2010PropOp34
 70
     1
102
RTVSPost2010Prop35
280
     0
102
RTVSPost2010PropOp35
 70
     1
102
RTVSPost2010Prop36
280
     0
102
RTVSPost2010PropOp36
 70
     1
102
RTVSPost2010Prop37
 90
       50
102
RTVSPost2010PropOp37
 70
     0
102
RTVSPost2010Prop38
140
0.0
102
RTVSPost2010PropOp38
 70
     0
102
RTVSPost2010Prop39
140
1.0
102
RTVSPost2010PropOp39
 70
     0
102
RTVSPost2010Prop40
 90
        0
102
RTVSPost2010PropOp40
 70
     0
102
RTVSPost2010Prop41ColorIndex
 90
       18
102
RTVSPost2010Prop41ColorRGB
 90
        0
102
RTVSPost2010PropOp41
 70
     0
102
RTVSPost2010Prop42
 90
       50
102
RTVSPost2010PropOp42
 70
     0
102
RTVSPost2010Prop43
 90
        3
102
RTVSPost2010PropOp43
 70
     0
102
RTVSPost2010Prop44ColorIndex
 90
        5
102
RTVSPost2010Prop44ColorRGB
 90
      255
102
RTVSPost2010PropOp44
 70
     0
102
RTVSPost2010Prop45
280
     0
102
RTVSPost2010PropOp45
 70
     1
102
RTVSPost2010Prop46
 90
       50
102
RTVSPost2010PropOp46
 70
     0
102
RTVSPost2010Prop47
 90
       50
102
RTVSPost2010PropOp47
 70
     0
102
RTVSPost2010Prop48
 90
       50
102
RTVSPost2010PropOp48
 70
     0
102
RTVSPost2010Prop49
280
     0
102
RTVSPost2010PropOp49
 70
     1
102
RTVSPost2010Prop50
 90
       50
102
RTVSPost2010PropOp50
 70
     0
102
RTVSPost2010Prop51ColorIndex
 90
      256
102
RTVSPost2010Prop51ColorRGB
 90
-16777216
102
RTVSPost2010PropOp51
 70
     0
102
RTVSPost2010Prop52
140
1.0
102
RTVSPost2010PropOp52
 70
     0
102
RTVSPost2010Prop53
 90
        2
102
RTVSPost2010PropOp53
 70
     0
102
RTVSPost2010Prop54
  1
strokes_ogs.tif
102
RTVSPost2010PropOp54
 70
     0
102
RTVSPost2010Prop55
280
     0
102
RTVSPost2010PropOp55
 70
     1
102
RTVSPost2010Prop56
140
1.0
102
RTVSPost2010PropOp56
 70
     0
102
RTVSPost2010Prop57
140
1.0
102
RTVSPost2010PropOp57
 70
     0
102
RTVSPropertyOp0
 70
     0
102
RTVSPropertyOp1
 70
     0
102
RTVSPropertyOp2
 70
     0
102
RTVSPropertyOp3
 70
     0
102
RTVSPropertyOp4
 70
     0
102
RTVSPropertyOp5
 70
     0
102
RTVSPropertyOp6
 70
     0
102
RTVSPropertyOp7
 70
     0
102
RTVSPropertyOp8
 70
     0
102
RTVSPropertyOp9
 70
     0
102
RTVSPropertyOp10
 70
     0
102
RTVSPropertyOp11
 70
     0
102
RTVSPropertyOp12
 70
     0
102
RTVSPropertyOp13
 70
     0
102
RTVSPropertyOp14
 70
     2
102
RTVSPropertyOp15
 70
     0
102
RTVSPropertyOp16
 70
     0
102
RTVSPropertyOp17
 70
     0
102
RTVSPropertyOp18
 70
     0
102
RTVSPropertyOp19
 70
     0
102
RTVSPropertyOp20
 70
     0
102
RTVSPropertyOp21
 70
     0
102
RTVSPropertyOp22
 70
     0
102
RTVSPropertyOp23
 70
     0
102
RTVSPropertyOp24
 70
     0
102
RTVSPropertyOp25
 70
     0
102
RTVSPropertyOp26
 70
     0
102
RTVSPropertyOp27
 70
     0
102
RTVSPropertyOp28
 70
     1
102
RTVSPropertyOp29
 70
     1
102
RTVSPropertyOp30
 70
     1
102
RTVSPropertyOp31
 70
     1
102
RTVSPropertyOp32
 70
     1
102
RTVSPropertyOp33
 70
     1
102
RTVSPropertyOp34
 70
     1
102
RTVSPropertyOp35
 70
     1
102
RTVSPropertyOp36
 70
     1
102
RTVSPropertyOp37
 70
     0
102
RTVSPropertyOp38
 70
     0
102
RTVSPropertyOp39
 70
     0
102
RTVSPropertyOp40
 70
     0
102
RTVSPropertyOp41
 70
     0
102
RTVSPropertyOp42
 70
     0
102
RTVSPropertyOp43
 70
     0
102
RTVSPropertyOp44
 70
     0
102
RTVSPropertyOp45
 70
     1
102
RTVSPropertyOp46
 70
     0
102
RTVSPropertyOp47
 70
     0
102
RTVSPropertyOp48
 70
     0
102
RTVSPropertyOp49
 70
     1
102
RTVSPropertyOp50
 70
     0
102
RTVSPropertyOp51
 70
     0
102
RTVSPropertyOp52
 70
     0
102
RTVSPropertyOp53
 70
     0
102
RTVSPropertyOp54
 70
     0
102
RTVSPropertyOp55
 70
     1
102
RTVSPropertyOp56
 70
     0
102
RTVSPropertyOp57
 70
     0
102
RTVSPropertyOp58
 70
     0
102
RTVSPropertyOp59
 70
     0
102
RTVSPropertyOp60
 70
     0
102
RTVSPropertyOp61
 70
     0
102
RTVSPropertyOp62
 70
     0
  0
XRECORD
  5
A0E8
102
{ACAD_REACTORS
330
A0E7
102
}
330
A0E7
100
AcDbXrecord
280
     1
102
RTVSPost2010Prop28
280
     0
102
RTVSPost2010PropOp28
 70
     1
102
RTVSPost2010Prop29
280
     1
102
RTVSPost2010PropOp29
 70
     1
102
RTVSPost2010Prop30
280
     1
102
RTVSPost2010PropOp30
 70
     1
102
RTVSPost2010Prop31
280
     0
102
RTVSPost2010PropOp31
 70
     1
102
RTVSPost2010Prop32
280
     0
102
RTVSPost2010PropOp32
 70
     1
102
RTVSPost2010Prop33
280
     0
102
RTVSPost2010PropOp33
 70
     1
102
RTVSPost2010Prop34
280
     0
102
RTVSPost2010PropOp34
 70
     1
102
RTVSPost2010Prop35
280
     0
102
RTVSPost2010PropOp35
 70
     1
102
RTVSPost2010Prop36
280
     0
102
RTVSPost2010PropOp36
 70
     1
102
RTVSPost2010Prop37
 90
       50
102
RTVSPost2010PropOp37
 70
     1
102
RTVSPost2010Prop38
140
0.0
102
RTVSPost2010PropOp38
 70
     1
102
RTVSPost2010Prop39
140
1.0
102
RTVSPost2010PropOp39
 70
     1
102
RTVSPost2010Prop40
 90
        0
102
RTVSPost2010PropOp40
 70
     1
102
RTVSPost2010Prop41ColorIndex
 90
       18
102
RTVSPost2010Prop41ColorRGB
 90
        0
102
RTVSPost2010PropOp41
 70
     1
102
RTVSPost2010Prop42
 90
       50
102
RTVSPost2010PropOp42
 70
     1
102
RTVSPost2010Prop43
 90
        3
102
RTVSPost2010PropOp43
 70
     1
102
RTVSPost2010Prop44ColorIndex
 90
        5
102
RTVSPost2010Prop44ColorRGB
 90
      255
102
RTVSPost2010PropOp44
 70
     1
102
RTVSPost2010Prop45
280
     0
102
RTVSPost2010PropOp45
 70
     1
102
RTVSPost2010Prop46
 90
       50
102
RTVSPost2010PropOp46
 70
     1
102
RTVSPost2010Prop47
 90
       50
102
RTVSPost2010PropOp47
 70
     1
102
RTVSPost2010Prop48
 90
       50
102
RTVSPost2010PropOp48
 70
     1
102
RTVSPost2010Prop49
280
     0
102
RTVSPost2010PropOp49
 70
     1
102
RTVSPost2010Prop50
 90
       50
102
RTVSPost2010PropOp50
 70
     1
102
RTVSPost2010Prop51ColorIndex
 90
      256
102
RTVSPost2010Prop51ColorRGB
 90
-16777216
102
RTVSPost2010PropOp51
 70
     0
102
RTVSPost2010Prop52
140
1.0
102
RTVSPost2010PropOp52
 70
     0
102
RTVSPost2010Prop53
 90
        2
102
RTVSPost2010PropOp53
 70
     1
102
RTVSPost2010Prop54
  1
strokes_ogs.tif
102
RTVSPost2010PropOp54
 70
     1
102
RTVSPost2010Prop55
280
     0
102
RTVSPost2010PropOp55
 70
     1
102
RTVSPost2010Prop56
140
1.0
102
RTVSPost2010PropOp56
 70
     1
102
RTVSPost2010Prop57
140
1.0
102
RTVSPost2010PropOp57
 70
     1
102
RTVSPropertyOp0
 70
     1
102
RTVSPropertyOp1
 70
     1
102
RTVSPropertyOp2
 70
     1
102
RTVSPropertyOp3
 70
     1
102
RTVSPropertyOp4
 70
     1
102
RTVSPropertyOp5
 70
     1
102
RTVSPropertyOp6
 70
     1
102
RTVSPropertyOp7
 70
     1
102
RTVSPropertyOp8
 70
     1
102
RTVSPropertyOp9
 70
     1
102
RTVSPropertyOp10
 70
     1
102
RTVSPropertyOp11
 70
     1
102
RTVSPropertyOp12
 70
     1
102
RTVSPropertyOp13
 70
     1
102
RTVSPropertyOp14
 70
     1
102
RTVSPropertyOp15
 70
     1
102
RTVSPropertyOp16
 70
     1
102
RTVSPropertyOp17
 70
     1
102
RTVSPropertyOp18
 70
     1
102
RTVSPropertyOp19
 70
     1
102
RTVSPropertyOp20
 70
     1
102
RTVSPropertyOp21
 70
     1
102
RTVSPropertyOp22
 70
     1
102
RTVSPropertyOp23
 70
     1
102
RTVSPropertyOp24
 70
     1
102
RTVSPropertyOp25
 70
     1
102
RTVSPropertyOp26
 70
     1
102
RTVSPropertyOp27
 70
     1
102
RTVSPropertyOp28
 70
     1
102
RTVSPropertyOp29
 70
     1
102
RTVSPropertyOp30
 70
     1
102
RTVSPropertyOp31
 70
     1
102
RTVSPropertyOp32
 70
     1
102
RTVSPropertyOp33
 70
     1
102
RTVSPropertyOp34
 70
     1
102
RTVSPropertyOp35
 70
     1
102
RTVSPropertyOp36
 70
     1
102
RTVSPropertyOp37
 70
     1
102
RTVSPropertyOp38
 70
     1
102
RTVSPropertyOp39
 70
     1
102
RTVSPropertyOp40
 70
     1
102
RTVSPropertyOp41
 70
     1
102
RTVSPropertyOp42
 70
     1
102
RTVSPropertyOp43
 70
     1
102
RTVSPropertyOp44
 70
     1
102
RTVSPropertyOp45
 70
     1
102
RTVSPropertyOp46
 70
     1
102
RTVSPropertyOp47
 70
     1
102
RTVSPropertyOp48
 70
     1
102
RTVSPropertyOp49
 70
     1
102
RTVSPropertyOp50
 70
     1
102
RTVSPropertyOp51
 70
     0
102
RTVSPropertyOp52
 70
     0
102
RTVSPropertyOp53
 70
     1
102
RTVSPropertyOp54
 70
     1
102
RTVSPropertyOp55
 70
     1
102
RTVSPropertyOp56
 70
     1
102
RTVSPropertyOp57
 70
     1
102
RTVSPropertyOp58
 70
     1
102
RTVSPropertyOp59
 70
     1
102
RTVSPropertyOp60
 70
     1
102
RTVSPropertyOp61
 70
     1
102
RTVSPropertyOp62
 70
     1
  0
XRECORD
  5
A0FE
102
{ACAD_REACTORS
330
A0FD
102
}
330
A0FD
100
AcDbXrecord
280
     1
102
RTVSPost2010Prop28
280
     0
102
RTVSPost2010PropOp28
 70
     1
102
RTVSPost2010Prop29
280
     1
102
RTVSPost2010PropOp29
 70
     1
102
RTVSPost2010Prop30
280
     1
102
RTVSPost2010PropOp30
 70
     1
102
RTVSPost2010Prop31
280
     0
102
RTVSPost2010PropOp31
 70
     1
102
RTVSPost2010Prop32
280
     0
102
RTVSPost2010PropOp32
 70
     1
102
RTVSPost2010Prop33
280
     0
102
RTVSPost2010PropOp33
 70
     1
102
RTVSPost2010Prop34
280
     0
102
RTVSPost2010PropOp34
 70
     1
102
RTVSPost2010Prop35
280
     0
102
RTVSPost2010PropOp35
 70
     1
102
RTVSPost2010Prop36
280
     0
102
RTVSPost2010PropOp36
 70
     1
102
RTVSPost2010Prop37
 90
       50
102
RTVSPost2010PropOp37
 70
     1
102
RTVSPost2010Prop38
140
0.0
102
RTVSPost2010PropOp38
 70
     1
102
RTVSPost2010Prop39
140
1.0
102
RTVSPost2010PropOp39
 70
     1
102
RTVSPost2010Prop40
 90
        0
102
RTVSPost2010PropOp40
 70
     1
102
RTVSPost2010Prop41ColorIndex
 90
       18
102
RTVSPost2010Prop41ColorRGB
 90
        0
102
RTVSPost2010PropOp41
 70
     1
102
RTVSPost2010Prop42
 90
       50
102
RTVSPost2010PropOp42
 70
     1
102
RTVSPost2010Prop43
 90
        3
102
RTVSPost2010PropOp43
 70
     1
102
RTVSPost2010Prop44ColorIndex
 90
        5
102
RTVSPost2010Prop44ColorRGB
 90
      255
102
RTVSPost2010PropOp44
 70
     1
102
RTVSPost2010Prop45
280
     0
102
RTVSPost2010PropOp45
 70
     1
102
RTVSPost2010Prop46
 90
       50
102
RTVSPost2010PropOp46
 70
     1
102
RTVSPost2010Prop47
 90
       50
102
RTVSPost2010PropOp47
 70
     1
102
RTVSPost2010Prop48
 90
       50
102
RTVSPost2010PropOp48
 70
     1
102
RTVSPost2010Prop49
280
     0
102
RTVSPost2010PropOp49
 70
     1
102
RTVSPost2010Prop50
 90
       50
102
RTVSPost2010PropOp50
 70
     1
102
RTVSPost2010Prop51ColorIndex
 90
      256
102
RTVSPost2010Prop51ColorRGB
 90
-16777216
102
RTVSPost2010PropOp51
 70
     0
102
RTVSPost2010Prop52
140
1.0
102
RTVSPost2010PropOp52
 70
     0
102
RTVSPost2010Prop53
 90
        2
102
RTVSPost2010PropOp53
 70
     1
102
RTVSPost2010Prop54
  1
strokes_ogs.tif
102
RTVSPost2010PropOp54
 70
     1
102
RTVSPost2010Prop55
280
     0
102
RTVSPost2010PropOp55
 70
     1
102
RTVSPost2010Prop56
140
1.0
102
RTVSPost2010PropOp56
 70
     1
102
RTVSPost2010Prop57
140
1.0
102
RTVSPost2010PropOp57
 70
     1
102
RTVSPropertyOp0
 70
     1
102
RTVSPropertyOp1
 70
     1
102
RTVSPropertyOp2
 70
     1
102
RTVSPropertyOp3
 70
     1
102
RTVSPropertyOp4
 70
     1
102
RTVSPropertyOp5
 70
     1
102
RTVSPropertyOp6
 70
     1
102
RTVSPropertyOp7
 70
     1
102
RTVSPropertyOp8
 70
     1
102
RTVSPropertyOp9
 70
     1
102
RTVSPropertyOp10
 70
     1
102
RTVSPropertyOp11
 70
     1
102
RTVSPropertyOp12
 70
     1
102
RTVSPropertyOp13
 70
     1
102
RTVSPropertyOp14
 70
     1
102
RTVSPropertyOp15
 70
     1
102
RTVSPropertyOp16
 70
     1
102
RTVSPropertyOp17
 70
     1
102
RTVSPropertyOp18
 70
     1
102
RTVSPropertyOp19
 70
     1
102
RTVSPropertyOp20
 70
     1
102
RTVSPropertyOp21
 70
     1
102
RTVSPropertyOp22
 70
     1
102
RTVSPropertyOp23
 70
     1
102
RTVSPropertyOp24
 70
     1
102
RTVSPropertyOp25
 70
     1
102
RTVSPropertyOp26
 70
     1
102
RTVSPropertyOp27
 70
     1
102
RTVSPropertyOp28
 70
     1
102
RTVSPropertyOp29
 70
     1
102
RTVSPropertyOp30
 70
     1
102
RTVSPropertyOp31
 70
     1
102
RTVSPropertyOp32
 70
     1
102
RTVSPropertyOp33
 70
     1
102
RTVSPropertyOp34
 70
     1
102
RTVSPropertyOp35
 70
     1
102
RTVSPropertyOp36
 70
     1
102
RTVSPropertyOp37
 70
     1
102
RTVSPropertyOp38
 70
     1
102
RTVSPropertyOp39
 70
     1
102
RTVSPropertyOp40
 70
     1
102
RTVSPropertyOp41
 70
     1
102
RTVSPropertyOp42
 70
     1
102
RTVSPropertyOp43
 70
     1
102
RTVSPropertyOp44
 70
     1
102
RTVSPropertyOp45
 70
     1
102
RTVSPropertyOp46
 70
     1
102
RTVSPropertyOp47
 70
     1
102
RTVSPropertyOp48
 70
     1
102
RTVSPropertyOp49
 70
     1
102
RTVSPropertyOp50
 70
     1
102
RTVSPropertyOp51
 70
     0
102
RTVSPropertyOp52
 70
     0
102
RTVSPropertyOp53
 70
     1
102
RTVSPropertyOp54
 70
     1
102
RTVSPropertyOp55
 70
     1
102
RTVSPropertyOp56
 70
     1
102
RTVSPropertyOp57
 70
     1
102
RTVSPropertyOp58
 70
     1
102
RTVSPropertyOp59
 70
     1
102
RTVSPropertyOp60
 70
     1
102
RTVSPropertyOp61
 70
     1
102
RTVSPropertyOp62
 70
     1
  0
XRECORD
  5
A0FC
102
{ACAD_REACTORS
330
A0FB
102
}
330
A0FB
100
AcDbXrecord
280
     1
102
RTVSPost2010Prop28
280
     0
102
RTVSPost2010PropOp28
 70
     1
102
RTVSPost2010Prop29
280
     1
102
RTVSPost2010PropOp29
 70
     1
102
RTVSPost2010Prop30
280
     1
102
RTVSPost2010PropOp30
 70
     1
102
RTVSPost2010Prop31
280
     0
102
RTVSPost2010PropOp31
 70
     1
102
RTVSPost2010Prop32
280
     0
102
RTVSPost2010PropOp32
 70
     1
102
RTVSPost2010Prop33
280
     0
102
RTVSPost2010PropOp33
 70
     1
102
RTVSPost2010Prop34
280
     0
102
RTVSPost2010PropOp34
 70
     1
102
RTVSPost2010Prop35
280
     0
102
RTVSPost2010PropOp35
 70
     1
102
RTVSPost2010Prop36
280
     0
102
RTVSPost2010PropOp36
 70
     1
102
RTVSPost2010Prop37
 90
       50
102
RTVSPost2010PropOp37
 70
     1
102
RTVSPost2010Prop38
140
0.0
102
RTVSPost2010PropOp38
 70
     1
102
RTVSPost2010Prop39
140
1.0
102
RTVSPost2010PropOp39
 70
     1
102
RTVSPost2010Prop40
 90
        0
102
RTVSPost2010PropOp40
 70
     1
102
RTVSPost2010Prop41ColorIndex
 90
       18
102
RTVSPost2010Prop41ColorRGB
 90
        0
102
RTVSPost2010PropOp41
 70
     1
102
RTVSPost2010Prop42
 90
       50
102
RTVSPost2010PropOp42
 70
     1
102
RTVSPost2010Prop43
 90
        3
102
RTVSPost2010PropOp43
 70
     1
102
RTVSPost2010Prop44ColorIndex
 90
        5
102
RTVSPost2010Prop44ColorRGB
 90
      255
102
RTVSPost2010PropOp44
 70
     1
102
RTVSPost2010Prop45
280
     0
102
RTVSPost2010PropOp45
 70
     1
102
RTVSPost2010Prop46
 90
       50
102
RTVSPost2010PropOp46
 70
     1
102
RTVSPost2010Prop47
 90
       50
102
RTVSPost2010PropOp47
 70
     1
102
RTVSPost2010Prop48
 90
       50
102
RTVSPost2010PropOp48
 70
     1
102
RTVSPost2010Prop49
280
     0
102
RTVSPost2010PropOp49
 70
     1
102
RTVSPost2010Prop50
 90
       50
102
RTVSPost2010PropOp50
 70
     1
102
RTVSPost2010Prop51ColorIndex
 90
      256
102
RTVSPost2010Prop51ColorRGB
 90
-16777216
102
RTVSPost2010PropOp51
 70
     0
102
RTVSPost2010Prop52
140
1.0
102
RTVSPost2010PropOp52
 70
     0
102
RTVSPost2010Prop53
 90
        2
102
RTVSPost2010PropOp53
 70
     1
102
RTVSPost2010Prop54
  1
strokes_ogs.tif
102
RTVSPost2010PropOp54
 70
     1
102
RTVSPost2010Prop55
280
     0
102
RTVSPost2010PropOp55
 70
     1
102
RTVSPost2010Prop56
140
1.0
102
RTVSPost2010PropOp56
 70
     1
102
RTVSPost2010Prop57
140
1.0
102
RTVSPost2010PropOp57
 70
     1
102
RTVSPropertyOp0
 70
     1
102
RTVSPropertyOp1
 70
     1
102
RTVSPropertyOp2
 70
     1
102
RTVSPropertyOp3
 70
     1
102
RTVSPropertyOp4
 70
     1
102
RTVSPropertyOp5
 70
     1
102
RTVSPropertyOp6
 70
     1
102
RTVSPropertyOp7
 70
     1
102
RTVSPropertyOp8
 70
     1
102
RTVSPropertyOp9
 70
     1
102
RTVSPropertyOp10
 70
     1
102
RTVSPropertyOp11
 70
     1
102
RTVSPropertyOp12
 70
     1
102
RTVSPropertyOp13
 70
     1
102
RTVSPropertyOp14
 70
     1
102
RTVSPropertyOp15
 70
     1
102
RTVSPropertyOp16
 70
     1
102
RTVSPropertyOp17
 70
     1
102
RTVSPropertyOp18
 70
     1
102
RTVSPropertyOp19
 70
     1
102
RTVSPropertyOp20
 70
     1
102
RTVSPropertyOp21
 70
     1
102
RTVSPropertyOp22
 70
     1
102
RTVSPropertyOp23
 70
     1
102
RTVSPropertyOp24
 70
     1
102
RTVSPropertyOp25
 70
     1
102
RTVSPropertyOp26
 70
     1
102
RTVSPropertyOp27
 70
     1
102
RTVSPropertyOp28
 70
     1
102
RTVSPropertyOp29
 70
     1
102
RTVSPropertyOp30
 70
     1
102
RTVSPropertyOp31
 70
     1
102
RTVSPropertyOp32
 70
     1
102
RTVSPropertyOp33
 70
     1
102
RTVSPropertyOp34
 70
     1
102
RTVSPropertyOp35
 70
     1
102
RTVSPropertyOp36
 70
     1
102
RTVSPropertyOp37
 70
     1
102
RTVSPropertyOp38
 70
     1
102
RTVSPropertyOp39
 70
     1
102
RTVSPropertyOp40
 70
     1
102
RTVSPropertyOp41
 70
     1
102
RTVSPropertyOp42
 70
     1
102
RTVSPropertyOp43
 70
     1
102
RTVSPropertyOp44
 70
     1
102
RTVSPropertyOp45
 70
     1
102
RTVSPropertyOp46
 70
     1
102
RTVSPropertyOp47
 70
     1
102
RTVSPropertyOp48
 70
     1
102
RTVSPropertyOp49
 70
     1
102
RTVSPropertyOp50
 70
     1
102
RTVSPropertyOp51
 70
     0
102
RTVSPropertyOp52
 70
     0
102
RTVSPropertyOp53
 70
     1
102
RTVSPropertyOp54
 70
     1
102
RTVSPropertyOp55
 70
     1
102
RTVSPropertyOp56
 70
     1
102
RTVSPropertyOp57
 70
     1
102
RTVSPropertyOp58
 70
     1
102
RTVSPropertyOp59
 70
     1
102
RTVSPropertyOp60
 70
     1
102
RTVSPropertyOp61
 70
     1
102
RTVSPropertyOp62
 70
     1
  0
XRECORD
  5
A0F6
102
{ACAD_REACTORS
330
A0F5
102
}
330
A0F5
100
AcDbXrecord
280
     1
102
RTVSPost2010Prop28
280
     0
102
RTVSPost2010PropOp28
 70
     1
102
RTVSPost2010Prop29
280
     1
102
RTVSPost2010PropOp29
 70
     1
102
RTVSPost2010Prop30
280
     1
102
RTVSPost2010PropOp30
 70
     1
102
RTVSPost2010Prop31
280
     0
102
RTVSPost2010PropOp31
 70
     1
102
RTVSPost2010Prop32
280
     0
102
RTVSPost2010PropOp32
 70
     1
102
RTVSPost2010Prop33
280
     0
102
RTVSPost2010PropOp33
 70
     1
102
RTVSPost2010Prop34
280
     0
102
RTVSPost2010PropOp34
 70
     1
102
RTVSPost2010Prop35
280
     0
102
RTVSPost2010PropOp35
 70
     1
102
RTVSPost2010Prop36
280
     0
102
RTVSPost2010PropOp36
 70
     1
102
RTVSPost2010Prop37
 90
       50
102
RTVSPost2010PropOp37
 70
     1
102
RTVSPost2010Prop38
140
0.0
102
RTVSPost2010PropOp38
 70
     1
102
RTVSPost2010Prop39
140
1.0
102
RTVSPost2010PropOp39
 70
     1
102
RTVSPost2010Prop40
 90
        0
102
RTVSPost2010PropOp40
 70
     1
102
RTVSPost2010Prop41ColorIndex
 90
       18
102
RTVSPost2010Prop41ColorRGB
 90
        0
102
RTVSPost2010PropOp41
 70
     1
102
RTVSPost2010Prop42
 90
       50
102
RTVSPost2010PropOp42
 70
     1
102
RTVSPost2010Prop43
 90
        3
102
RTVSPost2010PropOp43
 70
     1
102
RTVSPost2010Prop44ColorIndex
 90
        5
102
RTVSPost2010Prop44ColorRGB
 90
      255
102
RTVSPost2010PropOp44
 70
     1
102
RTVSPost2010Prop45
280
     0
102
RTVSPost2010PropOp45
 70
     1
102
RTVSPost2010Prop46
 90
       50
102
RTVSPost2010PropOp46
 70
     1
102
RTVSPost2010Prop47
 90
       50
102
RTVSPost2010PropOp47
 70
     1
102
RTVSPost2010Prop48
 90
       50
102
RTVSPost2010PropOp48
 70
     1
102
RTVSPost2010Prop49
280
     0
102
RTVSPost2010PropOp49
 70
     1
102
RTVSPost2010Prop50
 90
       50
102
RTVSPost2010PropOp50
 70
     1
102
RTVSPost2010Prop51ColorIndex
 90
      256
102
RTVSPost2010Prop51ColorRGB
 90
-16777216
102
RTVSPost2010PropOp51
 70
     0
102
RTVSPost2010Prop52
140
1.0
102
RTVSPost2010PropOp52
 70
     0
102
RTVSPost2010Prop53
 90
        2
102
RTVSPost2010PropOp53
 70
     1
102
RTVSPost2010Prop54
  1
strokes_ogs.tif
102
RTVSPost2010PropOp54
 70
     1
102
RTVSPost2010Prop55
280
     0
102
RTVSPost2010PropOp55
 70
     1
102
RTVSPost2010Prop56
140
1.0
102
RTVSPost2010PropOp56
 70
     1
102
RTVSPost2010Prop57
140
1.0
102
RTVSPost2010PropOp57
 70
     1
102
RTVSPropertyOp0
 70
     1
102
RTVSPropertyOp1
 70
     1
102
RTVSPropertyOp2
 70
     1
102
RTVSPropertyOp3
 70
     1
102
RTVSPropertyOp4
 70
     1
102
RTVSPropertyOp5
 70
     1
102
RTVSPropertyOp6
 70
     1
102
RTVSPropertyOp7
 70
     1
102
RTVSPropertyOp8
 70
     1
102
RTVSPropertyOp9
 70
     1
102
RTVSPropertyOp10
 70
     1
102
RTVSPropertyOp11
 70
     1
102
RTVSPropertyOp12
 70
     1
102
RTVSPropertyOp13
 70
     1
102
RTVSPropertyOp14
 70
     1
102
RTVSPropertyOp15
 70
     1
102
RTVSPropertyOp16
 70
     1
102
RTVSPropertyOp17
 70
     1
102
RTVSPropertyOp18
 70
     1
102
RTVSPropertyOp19
 70
     1
102
RTVSPropertyOp20
 70
     1
102
RTVSPropertyOp21
 70
     1
102
RTVSPropertyOp22
 70
     1
102
RTVSPropertyOp23
 70
     1
102
RTVSPropertyOp24
 70
     1
102
RTVSPropertyOp25
 70
     1
102
RTVSPropertyOp26
 70
     1
102
RTVSPropertyOp27
 70
     1
102
RTVSPropertyOp28
 70
     1
102
RTVSPropertyOp29
 70
     1
102
RTVSPropertyOp30
 70
     1
102
RTVSPropertyOp31
 70
     1
102
RTVSPropertyOp32
 70
     1
102
RTVSPropertyOp33
 70
     1
102
RTVSPropertyOp34
 70
     1
102
RTVSPropertyOp35
 70
     1
102
RTVSPropertyOp36
 70
     1
102
RTVSPropertyOp37
 70
     1
102
RTVSPropertyOp38
 70
     1
102
RTVSPropertyOp39
 70
     1
102
RTVSPropertyOp40
 70
     1
102
RTVSPropertyOp41
 70
     1
102
RTVSPropertyOp42
 70
     1
102
RTVSPropertyOp43
 70
     1
102
RTVSPropertyOp44
 70
     1
102
RTVSPropertyOp45
 70
     1
102
RTVSPropertyOp46
 70
     1
102
RTVSPropertyOp47
 70
     1
102
RTVSPropertyOp48
 70
     1
102
RTVSPropertyOp49
 70
     1
102
RTVSPropertyOp50
 70
     1
102
RTVSPropertyOp51
 70
     0
102
RTVSPropertyOp52
 70
     0
102
RTVSPropertyOp53
 70
     1
102
RTVSPropertyOp54
 70
     1
102
RTVSPropertyOp55
 70
     1
102
RTVSPropertyOp56
 70
     1
102
RTVSPropertyOp57
 70
     1
102
RTVSPropertyOp58
 70
     1
102
RTVSPropertyOp59
 70
     1
102
RTVSPropertyOp60
 70
     1
102
RTVSPropertyOp61
 70
     1
102
RTVSPropertyOp62
 70
     1
  0
XRECORD
  5
A0F8
102
{ACAD_REACTORS
330
A0F7
102
}
330
A0F7
100
AcDbXrecord
280
     1
102
RTVSPost2010Prop28
280
     0
102
RTVSPost2010PropOp28
 70
     1
102
RTVSPost2010Prop29
280
     1
102
RTVSPost2010PropOp29
 70
     1
102
RTVSPost2010Prop30
280
     1
102
RTVSPost2010PropOp30
 70
     1
102
RTVSPost2010Prop31
280
     0
102
RTVSPost2010PropOp31
 70
     1
102
RTVSPost2010Prop32
280
     0
102
RTVSPost2010PropOp32
 70
     1
102
RTVSPost2010Prop33
280
     0
102
RTVSPost2010PropOp33
 70
     1
102
RTVSPost2010Prop34
280
     0
102
RTVSPost2010PropOp34
 70
     1
102
RTVSPost2010Prop35
280
     0
102
RTVSPost2010PropOp35
 70
     1
102
RTVSPost2010Prop36
280
     0
102
RTVSPost2010PropOp36
 70
     1
102
RTVSPost2010Prop37
 90
       50
102
RTVSPost2010PropOp37
 70
     1
102
RTVSPost2010Prop38
140
0.0
102
RTVSPost2010PropOp38
 70
     1
102
RTVSPost2010Prop39
140
1.0
102
RTVSPost2010PropOp39
 70
     1
102
RTVSPost2010Prop40
 90
        0
102
RTVSPost2010PropOp40
 70
     1
102
RTVSPost2010Prop41ColorIndex
 90
       18
102
RTVSPost2010Prop41ColorRGB
 90
        0
102
RTVSPost2010PropOp41
 70
     1
102
RTVSPost2010Prop42
 90
       50
102
RTVSPost2010PropOp42
 70
     1
102
RTVSPost2010Prop43
 90
        3
102
RTVSPost2010PropOp43
 70
     1
102
RTVSPost2010Prop44ColorIndex
 90
        5
102
RTVSPost2010Prop44ColorRGB
 90
      255
102
RTVSPost2010PropOp44
 70
     1
102
RTVSPost2010Prop45
280
     0
102
RTVSPost2010PropOp45
 70
     1
102
RTVSPost2010Prop46
 90
       50
102
RTVSPost2010PropOp46
 70
     1
102
RTVSPost2010Prop47
 90
       50
102
RTVSPost2010PropOp47
 70
     1
102
RTVSPost2010Prop48
 90
       50
102
RTVSPost2010PropOp48
 70
     1
102
RTVSPost2010Prop49
280
     0
102
RTVSPost2010PropOp49
 70
     1
102
RTVSPost2010Prop50
 90
       50
102
RTVSPost2010PropOp50
 70
     1
102
RTVSPost2010Prop51ColorIndex
 90
      256
102
RTVSPost2010Prop51ColorRGB
 90
-16777216
102
RTVSPost2010PropOp51
 70
     0
102
RTVSPost2010Prop52
140
1.0
102
RTVSPost2010PropOp52
 70
     0
102
RTVSPost2010Prop53
 90
        2
102
RTVSPost2010PropOp53
 70
     1
102
RTVSPost2010Prop54
  1
strokes_ogs.tif
102
RTVSPost2010PropOp54
 70
     1
102
RTVSPost2010Prop55
280
     0
102
RTVSPost2010PropOp55
 70
     1
102
RTVSPost2010Prop56
140
1.0
102
RTVSPost2010PropOp56
 70
     1
102
RTVSPost2010Prop57
140
1.0
102
RTVSPost2010PropOp57
 70
     1
102
RTVSPropertyOp0
 70
     1
102
RTVSPropertyOp1
 70
     1
102
RTVSPropertyOp2
 70
     1
102
RTVSPropertyOp3
 70
     1
102
RTVSPropertyOp4
 70
     1
102
RTVSPropertyOp5
 70
     1
102
RTVSPropertyOp6
 70
     1
102
RTVSPropertyOp7
 70
     1
102
RTVSPropertyOp8
 70
     1
102
RTVSPropertyOp9
 70
     1
102
RTVSPropertyOp10
 70
     1
102
RTVSPropertyOp11
 70
     1
102
RTVSPropertyOp12
 70
     1
102
RTVSPropertyOp13
 70
     1
102
RTVSPropertyOp14
 70
     1
102
RTVSPropertyOp15
 70
     1
102
RTVSPropertyOp16
 70
     1
102
RTVSPropertyOp17
 70
     1
102
RTVSPropertyOp18
 70
     1
102
RTVSPropertyOp19
 70
     1
102
RTVSPropertyOp20
 70
     1
102
RTVSPropertyOp21
 70
     1
102
RTVSPropertyOp22
 70
     1
102
RTVSPropertyOp23
 70
     1
102
RTVSPropertyOp24
 70
     1
102
RTVSPropertyOp25
 70
     1
102
RTVSPropertyOp26
 70
     1
102
RTVSPropertyOp27
 70
     1
102
RTVSPropertyOp28
 70
     1
102
RTVSPropertyOp29
 70
     1
102
RTVSPropertyOp30
 70
     1
102
RTVSPropertyOp31
 70
     1
102
RTVSPropertyOp32
 70
     1
102
RTVSPropertyOp33
 70
     1
102
RTVSPropertyOp34
 70
     1
102
RTVSPropertyOp35
 70
     1
102
RTVSPropertyOp36
 70
     1
102
RTVSPropertyOp37
 70
     1
102
RTVSPropertyOp38
 70
     1
102
RTVSPropertyOp39
 70
     1
102
RTVSPropertyOp40
 70
     1
102
RTVSPropertyOp41
 70
     1
102
RTVSPropertyOp42
 70
     1
102
RTVSPropertyOp43
 70
     1
102
RTVSPropertyOp44
 70
     1
102
RTVSPropertyOp45
 70
     1
102
RTVSPropertyOp46
 70
     1
102
RTVSPropertyOp47
 70
     1
102
RTVSPropertyOp48
 70
     1
102
RTVSPropertyOp49
 70
     1
102
RTVSPropertyOp50
 70
     1
102
RTVSPropertyOp51
 70
     0
102
RTVSPropertyOp52
 70
     0
102
RTVSPropertyOp53
 70
     1
102
RTVSPropertyOp54
 70
     1
102
RTVSPropertyOp55
 70
     1
102
RTVSPropertyOp56
 70
     1
102
RTVSPropertyOp57
 70
     1
102
RTVSPropertyOp58
 70
     1
102
RTVSPropertyOp59
 70
     1
102
RTVSPropertyOp60
 70
     1
102
RTVSPropertyOp61
 70
     1
102
RTVSPropertyOp62
 70
     1
  0
XRECORD
  5
A0EE
102
{ACAD_REACTORS
330
A0ED
102
}
330
A0ED
100
AcDbXrecord
280
     1
102
RTVSPost2010Prop28
280
     0
102
RTVSPost2010PropOp28
 70
     1
102
RTVSPost2010Prop29
280
     1
102
RTVSPost2010PropOp29
 70
     1
102
RTVSPost2010Prop30
280
     1
102
RTVSPost2010PropOp30
 70
     1
102
RTVSPost2010Prop31
280
     0
102
RTVSPost2010PropOp31
 70
     1
102
RTVSPost2010Prop32
280
     0
102
RTVSPost2010PropOp32
 70
     1
102
RTVSPost2010Prop33
280
     0
102
RTVSPost2010PropOp33
 70
     1
102
RTVSPost2010Prop34
280
     0
102
RTVSPost2010PropOp34
 70
     1
102
RTVSPost2010Prop35
280
     0
102
RTVSPost2010PropOp35
 70
     1
102
RTVSPost2010Prop36
280
     0
102
RTVSPost2010PropOp36
 70
     1
102
RTVSPost2010Prop37
 90
       50
102
RTVSPost2010PropOp37
 70
     1
102
RTVSPost2010Prop38
140
0.0
102
RTVSPost2010PropOp38
 70
     1
102
RTVSPost2010Prop39
140
1.0
102
RTVSPost2010PropOp39
 70
     1
102
RTVSPost2010Prop40
 90
        0
102
RTVSPost2010PropOp40
 70
     1
102
RTVSPost2010Prop41ColorIndex
 90
       18
102
RTVSPost2010Prop41ColorRGB
 90
        0
102
RTVSPost2010PropOp41
 70
     1
102
RTVSPost2010Prop42
 90
       50
102
RTVSPost2010PropOp42
 70
     1
102
RTVSPost2010Prop43
 90
        3
102
RTVSPost2010PropOp43
 70
     1
102
RTVSPost2010Prop44ColorIndex
 90
        5
102
RTVSPost2010Prop44ColorRGB
 90
      255
102
RTVSPost2010PropOp44
 70
     1
102
RTVSPost2010Prop45
280
     0
102
RTVSPost2010PropOp45
 70
     1
102
RTVSPost2010Prop46
 90
       50
102
RTVSPost2010PropOp46
 70
     1
102
RTVSPost2010Prop47
 90
       50
102
RTVSPost2010PropOp47
 70
     1
102
RTVSPost2010Prop48
 90
       50
102
RTVSPost2010PropOp48
 70
     1
102
RTVSPost2010Prop49
280
     0
102
RTVSPost2010PropOp49
 70
     1
102
RTVSPost2010Prop50
 90
       50
102
RTVSPost2010PropOp50
 70
     1
102
RTVSPost2010Prop51ColorIndex
 90
      256
102
RTVSPost2010Prop51ColorRGB
 90
-16777216
102
RTVSPost2010PropOp51
 70
     0
102
RTVSPost2010Prop52
140
1.0
102
RTVSPost2010PropOp52
 70
     0
102
RTVSPost2010Prop53
 90
        2
102
RTVSPost2010PropOp53
 70
     1
102
RTVSPost2010Prop54
  1
strokes_ogs.tif
102
RTVSPost2010PropOp54
 70
     1
102
RTVSPost2010Prop55
280
     0
102
RTVSPost2010PropOp55
 70
     1
102
RTVSPost2010Prop56
140
1.0
102
RTVSPost2010PropOp56
 70
     1
102
RTVSPost2010Prop57
140
1.0
102
RTVSPost2010PropOp57
 70
     1
102
RTVSPropertyOp0
 70
     1
102
RTVSPropertyOp1
 70
     1
102
RTVSPropertyOp2
 70
     1
102
RTVSPropertyOp3
 70
     1
102
RTVSPropertyOp4
 70
     1
102
RTVSPropertyOp5
 70
     1
102
RTVSPropertyOp6
 70
     1
102
RTVSPropertyOp7
 70
     1
102
RTVSPropertyOp8
 70
     1
102
RTVSPropertyOp9
 70
     1
102
RTVSPropertyOp10
 70
     1
102
RTVSPropertyOp11
 70
     1
102
RTVSPropertyOp12
 70
     1
102
RTVSPropertyOp13
 70
     1
102
RTVSPropertyOp14
 70
     1
102
RTVSPropertyOp15
 70
     1
102
RTVSPropertyOp16
 70
     1
102
RTVSPropertyOp17
 70
     1
102
RTVSPropertyOp18
 70
     1
102
RTVSPropertyOp19
 70
     1
102
RTVSPropertyOp20
 70
     1
102
RTVSPropertyOp21
 70
     1
102
RTVSPropertyOp22
 70
     1
102
RTVSPropertyOp23
 70
     1
102
RTVSPropertyOp24
 70
     1
102
RTVSPropertyOp25
 70
     1
102
RTVSPropertyOp26
 70
     1
102
RTVSPropertyOp27
 70
     1
102
RTVSPropertyOp28
 70
     1
102
RTVSPropertyOp29
 70
     1
102
RTVSPropertyOp30
 70
     1
102
RTVSPropertyOp31
 70
     1
102
RTVSPropertyOp32
 70
     1
102
RTVSPropertyOp33
 70
     1
102
RTVSPropertyOp34
 70
     1
102
RTVSPropertyOp35
 70
     1
102
RTVSPropertyOp36
 70
     1
102
RTVSPropertyOp37
 70
     1
102
RTVSPropertyOp38
 70
     1
102
RTVSPropertyOp39
 70
     1
102
RTVSPropertyOp40
 70
     1
102
RTVSPropertyOp41
 70
     1
102
RTVSPropertyOp42
 70
     1
102
RTVSPropertyOp43
 70
     1
102
RTVSPropertyOp44
 70
     1
102
RTVSPropertyOp45
 70
     1
102
RTVSPropertyOp46
 70
     1
102
RTVSPropertyOp47
 70
     1
102
RTVSPropertyOp48
 70
     1
102
RTVSPropertyOp49
 70
     1
102
RTVSPropertyOp50
 70
     1
102
RTVSPropertyOp51
 70
     0
102
RTVSPropertyOp52
 70
     0
102
RTVSPropertyOp53
 70
     1
102
RTVSPropertyOp54
 70
     1
102
RTVSPropertyOp55
 70
     1
102
RTVSPropertyOp56
 70
     1
102
RTVSPropertyOp57
 70
     1
102
RTVSPropertyOp58
 70
     1
102
RTVSPropertyOp59
 70
     1
102
RTVSPropertyOp60
 70
     1
102
RTVSPropertyOp61
 70
     1
102
RTVSPropertyOp62
 70
     1
  0
XRECORD
  5
A0E2
102
{ACAD_REACTORS
330
A0E1
102
}
330
A0E1
100
AcDbXrecord
280
     1
102
RTVSPost2010Prop28
280
     0
102
RTVSPost2010PropOp28
 70
     1
102
RTVSPost2010Prop29
280
     1
102
RTVSPost2010PropOp29
 70
     1
102
RTVSPost2010Prop30
280
     1
102
RTVSPost2010PropOp30
 70
     1
102
RTVSPost2010Prop31
280
     0
102
RTVSPost2010PropOp31
 70
     1
102
RTVSPost2010Prop32
280
     0
102
RTVSPost2010PropOp32
 70
     1
102
RTVSPost2010Prop33
280
     0
102
RTVSPost2010PropOp33
 70
     1
102
RTVSPost2010Prop34
280
     0
102
RTVSPost2010PropOp34
 70
     1
102
RTVSPost2010Prop35
280
     0
102
RTVSPost2010PropOp35
 70
     1
102
RTVSPost2010Prop36
280
     0
102
RTVSPost2010PropOp36
 70
     1
102
RTVSPost2010Prop37
 90
       50
102
RTVSPost2010PropOp37
 70
     1
102
RTVSPost2010Prop38
140
0.0
102
RTVSPost2010PropOp38
 70
     1
102
RTVSPost2010Prop39
140
1.0
102
RTVSPost2010PropOp39
 70
     1
102
RTVSPost2010Prop40
 90
        0
102
RTVSPost2010PropOp40
 70
     1
102
RTVSPost2010Prop41ColorIndex
 90
       18
102
RTVSPost2010Prop41ColorRGB
 90
        0
102
RTVSPost2010PropOp41
 70
     1
102
RTVSPost2010Prop42
 90
       50
102
RTVSPost2010PropOp42
 70
     1
102
RTVSPost2010Prop43
 90
        3
102
RTVSPost2010PropOp43
 70
     1
102
RTVSPost2010Prop44ColorIndex
 90
        5
102
RTVSPost2010Prop44ColorRGB
 90
      255
102
RTVSPost2010PropOp44
 70
     1
102
RTVSPost2010Prop45
280
     0
102
RTVSPost2010PropOp45
 70
     1
102
RTVSPost2010Prop46
 90
       50
102
RTVSPost2010PropOp46
 70
     1
102
RTVSPost2010Prop47
 90
       50
102
RTVSPost2010PropOp47
 70
     1
102
RTVSPost2010Prop48
 90
       50
102
RTVSPost2010PropOp48
 70
     1
102
RTVSPost2010Prop49
280
     0
102
RTVSPost2010PropOp49
 70
     1
102
RTVSPost2010Prop50
 90
       50
102
RTVSPost2010PropOp50
 70
     1
102
RTVSPost2010Prop51ColorIndex
 90
      256
102
RTVSPost2010Prop51ColorRGB
 90
-16777216
102
RTVSPost2010PropOp51
 70
     0
102
RTVSPost2010Prop52
140
1.0
102
RTVSPost2010PropOp52
 70
     0
102
RTVSPost2010Prop53
 90
        2
102
RTVSPost2010PropOp53
 70
     1
102
RTVSPost2010Prop54
  1
strokes_ogs.tif
102
RTVSPost2010PropOp54
 70
     1
102
RTVSPost2010Prop55
280
     0
102
RTVSPost2010PropOp55
 70
     1
102
RTVSPost2010Prop56
140
1.0
102
RTVSPost2010PropOp56
 70
     1
102
RTVSPost2010Prop57
140
1.0
102
RTVSPost2010PropOp57
 70
     1
102
RTVSPropertyOp0
 70
     1
102
RTVSPropertyOp1
 70
     1
102
RTVSPropertyOp2
 70
     1
102
RTVSPropertyOp3
 70
     1
102
RTVSPropertyOp4
 70
     1
102
RTVSPropertyOp5
 70
     1
102
RTVSPropertyOp6
 70
     1
102
RTVSPropertyOp7
 70
     1
102
RTVSPropertyOp8
 70
     1
102
RTVSPropertyOp9
 70
     1
102
RTVSPropertyOp10
 70
     1
102
RTVSPropertyOp11
 70
     1
102
RTVSPropertyOp12
 70
     1
102
RTVSPropertyOp13
 70
     1
102
RTVSPropertyOp14
 70
     1
102
RTVSPropertyOp15
 70
     1
102
RTVSPropertyOp16
 70
     1
102
RTVSPropertyOp17
 70
     1
102
RTVSPropertyOp18
 70
     1
102
RTVSPropertyOp19
 70
     1
102
RTVSPropertyOp20
 70
     1
102
RTVSPropertyOp21
 70
     1
102
RTVSPropertyOp22
 70
     1
102
RTVSPropertyOp23
 70
     1
102
RTVSPropertyOp24
 70
     1
102
RTVSPropertyOp25
 70
     1
102
RTVSPropertyOp26
 70
     1
102
RTVSPropertyOp27
 70
     1
102
RTVSPropertyOp28
 70
     1
102
RTVSPropertyOp29
 70
     1
102
RTVSPropertyOp30
 70
     1
102
RTVSPropertyOp31
 70
     1
102
RTVSPropertyOp32
 70
     1
102
RTVSPropertyOp33
 70
     1
102
RTVSPropertyOp34
 70
     1
102
RTVSPropertyOp35
 70
     1
102
RTVSPropertyOp36
 70
     1
102
RTVSPropertyOp37
 70
     1
102
RTVSPropertyOp38
 70
     1
102
RTVSPropertyOp39
 70
     1
102
RTVSPropertyOp40
 70
     1
102
RTVSPropertyOp41
 70
     1
102
RTVSPropertyOp42
 70
     1
102
RTVSPropertyOp43
 70
     1
102
RTVSPropertyOp44
 70
     1
102
RTVSPropertyOp45
 70
     1
102
RTVSPropertyOp46
 70
     1
102
RTVSPropertyOp47
 70
     1
102
RTVSPropertyOp48
 70
     1
102
RTVSPropertyOp49
 70
     1
102
RTVSPropertyOp50
 70
     1
102
RTVSPropertyOp51
 70
     0
102
RTVSPropertyOp52
 70
     0
102
RTVSPropertyOp53
 70
     1
102
RTVSPropertyOp54
 70
     1
102
RTVSPropertyOp55
 70
     1
102
RTVSPropertyOp56
 70
     1
102
RTVSPropertyOp57
 70
     1
102
RTVSPropertyOp58
 70
     1
102
RTVSPropertyOp59
 70
     1
102
RTVSPropertyOp60
 70
     1
102
RTVSPropertyOp61
 70
     1
102
RTVSPropertyOp62
 70
     1
  0
XRECORD
  5
A0FA
102
{ACAD_REACTORS
330
A0F9
102
}
330
A0F9
100
AcDbXrecord
280
     1
102
RTVSPost2010Prop28
280
     0
102
RTVSPost2010PropOp28
 70
     1
102
RTVSPost2010Prop29
280
     1
102
RTVSPost2010PropOp29
 70
     1
102
RTVSPost2010Prop30
280
     1
102
RTVSPost2010PropOp30
 70
     1
102
RTVSPost2010Prop31
280
     0
102
RTVSPost2010PropOp31
 70
     1
102
RTVSPost2010Prop32
280
     0
102
RTVSPost2010PropOp32
 70
     1
102
RTVSPost2010Prop33
280
     0
102
RTVSPost2010PropOp33
 70
     1
102
RTVSPost2010Prop34
280
     0
102
RTVSPost2010PropOp34
 70
     1
102
RTVSPost2010Prop35
280
     0
102
RTVSPost2010PropOp35
 70
     1
102
RTVSPost2010Prop36
280
     0
102
RTVSPost2010PropOp36
 70
     1
102
RTVSPost2010Prop37
 90
       50
102
RTVSPost2010PropOp37
 70
     1
102
RTVSPost2010Prop38
140
0.0
102
RTVSPost2010PropOp38
 70
     1
102
RTVSPost2010Prop39
140
1.0
102
RTVSPost2010PropOp39
 70
     1
102
RTVSPost2010Prop40
 90
        0
102
RTVSPost2010PropOp40
 70
     1
102
RTVSPost2010Prop41ColorIndex
 90
       18
102
RTVSPost2010Prop41ColorRGB
 90
        0
102
RTVSPost2010PropOp41
 70
     1
102
RTVSPost2010Prop42
 90
       50
102
RTVSPost2010PropOp42
 70
     1
102
RTVSPost2010Prop43
 90
        3
102
RTVSPost2010PropOp43
 70
     1
102
RTVSPost2010Prop44ColorIndex
 90
        5
102
RTVSPost2010Prop44ColorRGB
 90
      255
102
RTVSPost2010PropOp44
 70
     1
102
RTVSPost2010Prop45
280
     0
102
RTVSPost2010PropOp45
 70
     1
102
RTVSPost2010Prop46
 90
       50
102
RTVSPost2010PropOp46
 70
     1
102
RTVSPost2010Prop47
 90
       50
102
RTVSPost2010PropOp47
 70
     1
102
RTVSPost2010Prop48
 90
       50
102
RTVSPost2010PropOp48
 70
     1
102
RTVSPost2010Prop49
280
     0
102
RTVSPost2010PropOp49
 70
     1
102
RTVSPost2010Prop50
 90
       50
102
RTVSPost2010PropOp50
 70
     1
102
RTVSPost2010Prop51ColorIndex
 90
      256
102
RTVSPost2010Prop51ColorRGB
 90
-16777216
102
RTVSPost2010PropOp51
 70
     0
102
RTVSPost2010Prop52
140
1.0
102
RTVSPost2010PropOp52
 70
     0
102
RTVSPost2010Prop53
 90
        2
102
RTVSPost2010PropOp53
 70
     1
102
RTVSPost2010Prop54
  1
strokes_ogs.tif
102
RTVSPost2010PropOp54
 70
     1
102
RTVSPost2010Prop55
280
     0
102
RTVSPost2010PropOp55
 70
     1
102
RTVSPost2010Prop56
140
1.0
102
RTVSPost2010PropOp56
 70
     1
102
RTVSPost2010Prop57
140
1.0
102
RTVSPost2010PropOp57
 70
     1
102
RTVSPropertyOp0
 70
     1
102
RTVSPropertyOp1
 70
     1
102
RTVSPropertyOp2
 70
     1
102
RTVSPropertyOp3
 70
     1
102
RTVSPropertyOp4
 70
     1
102
RTVSPropertyOp5
 70
     1
102
RTVSPropertyOp6
 70
     1
102
RTVSPropertyOp7
 70
     1
102
RTVSPropertyOp8
 70
     1
102
RTVSPropertyOp9
 70
     1
102
RTVSPropertyOp10
 70
     1
102
RTVSPropertyOp11
 70
     1
102
RTVSPropertyOp12
 70
     1
102
RTVSPropertyOp13
 70
     1
102
RTVSPropertyOp14
 70
     1
102
RTVSPropertyOp15
 70
     1
102
RTVSPropertyOp16
 70
     1
102
RTVSPropertyOp17
 70
     1
102
RTVSPropertyOp18
 70
     1
102
RTVSPropertyOp19
 70
     1
102
RTVSPropertyOp20
 70
     1
102
RTVSPropertyOp21
 70
     1
102
RTVSPropertyOp22
 70
     1
102
RTVSPropertyOp23
 70
     1
102
RTVSPropertyOp24
 70
     1
102
RTVSPropertyOp25
 70
     1
102
RTVSPropertyOp26
 70
     1
102
RTVSPropertyOp27
 70
     1
102
RTVSPropertyOp28
 70
     1
102
RTVSPropertyOp29
 70
     1
102
RTVSPropertyOp30
 70
     1
102
RTVSPropertyOp31
 70
     1
102
RTVSPropertyOp32
 70
     1
102
RTVSPropertyOp33
 70
     1
102
RTVSPropertyOp34
 70
     1
102
RTVSPropertyOp35
 70
     1
102
RTVSPropertyOp36
 70
     1
102
RTVSPropertyOp37
 70
     1
102
RTVSPropertyOp38
 70
     1
102
RTVSPropertyOp39
 70
     1
102
RTVSPropertyOp40
 70
     1
102
RTVSPropertyOp41
 70
     1
102
RTVSPropertyOp42
 70
     1
102
RTVSPropertyOp43
 70
     1
102
RTVSPropertyOp44
 70
     1
102
RTVSPropertyOp45
 70
     1
102
RTVSPropertyOp46
 70
     1
102
RTVSPropertyOp47
 70
     1
102
RTVSPropertyOp48
 70
     1
102
RTVSPropertyOp49
 70
     1
102
RTVSPropertyOp50
 70
     1
102
RTVSPropertyOp51
 70
     0
102
RTVSPropertyOp52
 70
     0
102
RTVSPropertyOp53
 70
     1
102
RTVSPropertyOp54
 70
     1
102
RTVSPropertyOp55
 70
     1
102
RTVSPropertyOp56
 70
     1
102
RTVSPropertyOp57
 70
     1
102
RTVSPropertyOp58
 70
     1
102
RTVSPropertyOp59
 70
     1
102
RTVSPropertyOp60
 70
     1
102
RTVSPropertyOp61
 70
     1
102
RTVSPropertyOp62
 70
     1
  0
ENDSEC
  0
EOF
