  0
SECTION
  2
HEADER
  9
$ACADVER
  1
AC1015
  9
$ACADMAINTVER
 70
    20
  9
$DWGCODEPAGE
  3
ANSI_932
  9
$INSBASE
 10
0.0
 20
0.0
 30
0.0
  9
$EXTMIN
 10
10.0
 20
9.999999999999998
 30
0.0
  9
$EXTMAX
 10
427.559921
 20
297.0734499999998
 30
0.0
  9
$LIMMIN
 10
0.0
 20
0.0
  9
$LIMMAX
 10
495.0
 20
341.25
  9
$ORTHOMODE
 70
     0
  9
$REGENMODE
 70
     1
  9
$FILLMODE
 70
     1
  9
$QTEXTMODE
 70
     0
  9
$MIRRTEXT
 70
     1
  9
$LTSCALE
 40
20.0
  9
$ATTMODE
 70
     1
  9
$TEXTSIZE
 40
5.0
  9
$TRACEWID
 40
1.0
  9
$TEXTSTYLE
  7
STANDARD
  9
$CLAYER
  8
0
  9
$CELTYPE
  6
BYLAYER
  9
$CECOLOR
 62
   256
  9
$CELTSCALE
 40
1.0
  9
$DISPSILH
 70
     0
  9
$DIMSCALE
 40
1.0
  9
$DIMASZ
 40
2.5
  9
$DIMEXO
 40
1.0
  9
$DIMDLI
 40
10.0
  9
$DIMRND
 40
0.0
  9
$DIMDLE
 40
0.0
  9
$DIMEXE
 40
1.0
  9
$DIMTP
 40
0.0
  9
$DIMTM
 40
0.0
  9
$DIMTXT
 40
3.2
  9
$DIMCEN
 40
0.0
  9
$DIMTSZ
 40
0.0
  9
$DIMTOL
 70
     0
  9
$DIMLIM
 70
     0
  9
$DIMTIH
 70
     0
  9
$DIMTOH
 70
     0
  9
$DIMSE1
 70
     0
  9
$DIMSE2
 70
     0
  9
$DIMTAD
 70
     3
  9
$DIMZIN
 70
     8
  9
$DIMBLK
  1

  9
$DIMASO
 70
     1
  9
$DIMSHO
 70
     1
  9
$DIMPOST
  1

  9
$DIMAPOST
  1

  9
$DIMALT
 70
     0
  9
$DIMALTD
 70
     2
  9
$DIMALTF
 40
25.4
  9
$DIMLFAC
 40
1.0
  9
$DIMTOFL
 70
     1
  9
$DIMTVP
 40
0.0
  9
$DIMTIX
 70
     0
  9
$DIMSOXD
 70
     0
  9
$DIMSAH
 70
     1
  9
$DIMBLK1
  1

  9
$DIMBLK2
  1

  9
$DIMSTYLE
  2
STANDARD
  9
$DIMCLRD
 70
     0
  9
$DIMCLRE
 70
     0
  9
$DIMCLRT
 70
     0
  9
$DIMTFAC
 40
1.0
  9
$DIMGAP
 40
1.0
  9
$DIMJUST
 70
     0
  9
$DIMSD1
 70
     0
  9
$DIMSD2
 70
     0
  9
$DIMTOLJ
 70
     1
  9
$DIMTZIN
 70
     0
  9
$DIMALTZ
 70
     0
  9
$DIMALTTZ
 70
     0
  9
$DIMUPT
 70
     0
  9
$DIMDEC
 70
     4
  9
$DIMTDEC
 70
     4
  9
$DIMALTU
 70
     2
  9
$DIMALTTD
 70
     2
  9
$DIMTXSTY
  7
STANDARD
  9
$DIMAUNIT
 70
     0
  9
$DIMADEC
 70
     0
  9
$DIMALTRND
 40
0.0
  9
$DIMAZIN
 70
     0
  9
$DIMDSEP
 70
    46
  9
$DIMATFIT
 70
     3
  9
$DIMFRAC
 70
     0
  9
$DIMLDRBLK
  1

  9
$DIMLUNIT
 70
     2
  9
$DIMLWD
 70
    -2
  9
$DIMLWE
 70
    -2
  9
$DIMTMOVE
 70
     0
  9
$LUNITS
 70
     2
  9
$LUPREC
 70
     4
  9
$SKETCHINC
 40
1.0
  9
$FILLETRAD
 40
6.0
  9
$AUNITS
 70
     0
  9
$AUPREC
 70
     2
  9
$MENU
  1
.
  9
$ELEVATION
 40
0.0
  9
$PELEVATION
 40
0.0
  9
$THICKNESS
 40
0.0
  9
$LIMCHECK
 70
     0
  9
$CHAMFERA
 40
10.0
  9
$CHAMFERB
 40
10.0
  9
$CHAMFERC
 40
0.0
  9
$CHAMFERD
 40
0.0
  9
$SKPOLY
 70
     0
  9
$TDCREATE
 40
2451301.447129167
  9
$TDUCREATE
 40
2451301.072129167
  9
$TDUPDATE
 40
2457192.690288773
  9
$TDUUPDATE
 40
2457192.315288773
  9
$TDINDWG
 40
0.1549553935
  9
$TDUSRTIMER
 40
0.1549553819
  9
$USRTIMER
 70
     1
  9
$ANGBASE
 50
0.0
  9
$ANGDIR
 70
     0
  9
$PDMODE
 70
     0
  9
$PDSIZE
 40
0.0
  9
$PLINEWID
 40
0.0
  9
$SPLFRAME
 70
     0
  9
$SPLINETYPE
 70
     6
  9
$SPLINESEGS
 70
     8
  9
$HANDSEED
  5
A20E
  9
$SURFTAB1
 70
     6
  9
$SURFTAB2
 70
     6
  9
$SURFTYPE
 70
     6
  9
$SURFU
 70
     6
  9
$SURFV
 70
     6
  9
$UCSBASE
  2

  9
$UCSNAME
  2

  9
$UCSORG
 10
0.0
 20
0.0
 30
0.0
  9
$UCSXDIR
 10
1.0
 20
0.0
 30
0.0
  9
$UCSYDIR
 10
0.0
 20
1.0
 30
0.0
  9
$UCSORTHOREF
  2

  9
$UCSORTHOVIEW
 70
     0
  9
$UCSORGTOP
 10
0.0
 20
0.0
 30
0.0
  9
$UCSORGBOTTOM
 10
0.0
 20
0.0
 30
0.0
  9
$UCSORGLEFT
 10
0.0
 20
0.0
 30
0.0
  9
$UCSORGRIGHT
 10
0.0
 20
0.0
 30
0.0
  9
$UCSORGFRONT
 10
0.0
 20
0.0
 30
0.0
  9
$UCSORGBACK
 10
0.0
 20
0.0
 30
0.0
  9
$PUCSBASE
  2

  9
$PUCSNAME
  2

  9
$PUCSORG
 10
0.0
 20
0.0
 30
0.0
  9
$PUCSXDIR
 10
1.0
 20
0.0
 30
0.0
  9
$PUCSYDIR
 10
0.0
 20
1.0
 30
0.0
  9
$PUCSORTHOREF
  2

  9
$PUCSORTHOVIEW
 70
     0
  9
$PUCSORGTOP
 10
0.0
 20
0.0
 30
0.0
  9
$PUCSORGBOTTOM
 10
0.0
 20
0.0
 30
0.0
  9
$PUCSORGLEFT
 10
0.0
 20
0.0
 30
0.0
  9
$PUCSORGRIGHT
 10
0.0
 20
0.0
 30
0.0
  9
$PUCSORGFRONT
 10
0.0
 20
0.0
 30
0.0
  9
$PUCSORGBACK
 10
0.0
 20
0.0
 30
0.0
  9
$USERI1
 70
     0
  9
$USERI2
 70
     0
  9
$USERI3
 70
     0
  9
$USERI4
 70
     0
  9
$USERI5
 70
     0
  9
$USERR1
 40
0.0
  9
$USERR2
 40
0.0
  9
$USERR3
 40
0.0
  9
$USERR4
 40
0.0
  9
$USERR5
 40
0.0
  9
$WORLDVIEW
 70
     1
  9
$SHADEDGE
 70
     3
  9
$SHADEDIF
 70
    70
  9
$TILEMODE
 70
     1
  9
$MAXACTVP
 70
    16
  9
$PINSBASE
 10
0.0
 20
0.0
 30
0.0
  9
$PLIMCHECK
 70
     0
  9
$PEXTMIN
 10
1.000000000000000E+20
 20
1.000000000000000E+20
 30
1.000000000000000E+20
  9
$PEXTMAX
 10
-1.000000000000000E+20
 20
-1.000000000000000E+20
 30
-1.000000000000000E+20
  9
$PLIMMIN
 10
0.0
 20
0.0
  9
$PLIMMAX
 10
420.0
 20
297.0
  9
$UNITMODE
 70
     0
  9
$VISRETAIN
 70
     0
  9
$PLINEGEN
 70
     0
  9
$PSLTSCALE
 70
     0
  9
$TREEDEPTH
 70
  3020
  9
$CMLSTYLE
  2
STANDARD
  9
$CMLJUST
 70
     0
  9
$CMLSCALE
 40
1.0
  9
$PROXYGRAPHICS
 70
     1
  9
$MEASUREMENT
 70
     0
  9
$CELWEIGHT
370
    -1
  9
$ENDCAPS
280
     0
  9
$JOINSTYLE
280
     0
  9
$LWDISPLAY
290
     0
  9
$INSUNITS
 70
     0
  9
$HYPERLINKBASE
  1

  9
$STYLESHEET
  1

  9
$XEDIT
290
     1
  9
$CEPSNTYPE
380
     0
  9
$PSTYLEMODE
290
     1
  9
$FINGERPRINTGUID
  2
{839B9E4A-D7B6-4228-9AA9-7BFBA17240C8}
  9
$VERSIONGUID
  2
{9CEF99E3-F3B6-4F5E-AAF8-9643B21F3FF5}
  9
$EXTNAMES
290
     1
  9
$PSVPSCALE
 40
0.0
  9
$OLESTARTUP
290
     0
  0
ENDSEC
  0
SECTION
  2
CLASSES
  0
CLASS
  1
ACDBDICTIONARYWDFLT
  2
AcDbDictionaryWithDefault
  3
ObjectDBX Classes
 90
        0
280
     0
281
     0
  0
CLASS
  1
ACDBPLACEHOLDER
  2
AcDbPlaceHolder
  3
ObjectDBX Classes
 90
        0
280
     0
281
     0
  0
CLASS
  1
LAYOUT
  2
AcDbLayout
  3
ObjectDBX Classes
 90
        0
280
     0
281
     0
  0
CLASS
  1
DICTIONARYVAR
  2
AcDbDictionaryVar
  3
ObjectDBX Classes
 90
        0
280
     0
281
     0
  0
CLASS
  1
MATERIAL
  2
AcDbMaterial
  3
ObjectDBX Classes
 90
     1153
280
     0
281
     0
  0
CLASS
  1
VISUALSTYLE
  2
AcDbVisualStyle
  3
ObjectDBX Classes
 90
     4095
280
     0
281
     0
  0
CLASS
  1
TABLESTYLE
  2
AcDbTableStyle
  3
ObjectDBX Classes
 90
     4095
280
     0
281
     0
  0
CLASS
  1
SCALE
  2
AcDbScale
  3
ObjectDBX Classes
 90
     1153
280
     0
281
     0
  0
CLASS
  1
MLEADERSTYLE
  2
AcDbMLeaderStyle
  3
ACDB_MLEADERSTYLE_CLASS
 90
     4095
280
     0
281
     0
  0
CLASS
  1
ACDBSECTIONVIEWSTYLE
  2
AcDbSectionViewStyle
  3
ObjectDBX Classes
 90
     1025
280
     0
281
     0
  0
CLASS
  1
ACDBDETAILVIEWSTYLE
  2
AcDbDetailViewStyle
  3
ObjectDBX Classes
 90
     1025
280
     0
281
     0
  0
CLASS
  1
CELLSTYLEMAP
  2
AcDbCellStyleMap
  3
ObjectDBX Classes
 90
     1152
280
     0
281
     0
  0
ENDSEC
  0
SECTION
  2
TABLES
  0
TABLE
  2
VPORT
  5
9F27
330
0
100
AcDbSymbolTable
 70
     1
  0
VPORT
  5
A159
330
9F27
100
AcDbSymbolTableRecord
100
AcDbViewportTableRecord
  2
*ACTIVE
 70
     0
 10
0.0
 20
0.0
 11
1.0
 21
1.0
 12
329.2805155451008
 22
153.5328205225614
 13
0.0
 23
0.0
 14
10.0
 24
10.0
 15
10.0
 25
10.0
 16
0.0
 26
0.0
 36
1.0
 17
0.0
 27
0.0
 37
0.0
 40
289.3578611541528
 41
2.35006605019815
 42
50.0
 43
0.0
 44
0.0
 50
0.0
 51
0.0
 71
     0
 72
   100
 73
     1
 74
     0
 75
     0
 76
     0
 77
     0
 78
     0
281
     0
 65
     1
110
0.0
120
0.0
130
0.0
111
1.0
121
0.0
131
0.0
112
0.0
122
1.0
132
0.0
 79
     0
146
0.0
1001
ACAD_NAV_VCDISPLAY
1070
     3
  0
ENDTAB
  0
TABLE
  2
LTYPE
  5
9F24
330
0
100
AcDbSymbolTable
 70
     4
  0
LTYPE
  5
9F32
330
9F24
100
AcDbSymbolTableRecord
100
AcDbLinetypeTableRecord
  2
BYBLOCK
 70
     0
  3

 72
    65
 73
     0
 40
0.0
  0
LTYPE
  5
9F33
330
9F24
100
AcDbSymbolTableRecord
100
AcDbLinetypeTableRecord
  2
BYLAYER
 70
     0
  3

 72
    65
 73
     0
 40
0.0
  0
LTYPE
  5
9F34
330
9F24
100
AcDbSymbolTableRecord
100
AcDbLinetypeTableRecord
  2
CONTINUOUS
 70
     0
  3
Solid line
 72
    65
 73
     0
 40
0.0
  0
LTYPE
  5
9F42
330
9F24
100
AcDbSymbolTableRecord
100
AcDbLinetypeTableRecord
  2
DASHED
 70
     0
  3
__ __ __ __ __ __ __ __ __ __ __ __ __ __ __ __
 72
    65
 73
     2
 40
0.75
 49
0.5
 74
     0
 49
-0.25
 74
     0
  0
LTYPE
  5
9F43
330
9F24
100
AcDbSymbolTableRecord
100
AcDbLinetypeTableRecord
  2
CENTER
 70
     0
  3
____ _ ____ _ ____ _ ____ _ ____ _ ____ _ ____ 
 72
    65
 73
     4
 40
2.0
 49
1.25
 74
     0
 49
-0.25
 74
     0
 49
0.25
 74
     0
 49
-0.25
 74
     0
  0
LTYPE
  5
9F44
330
9F24
100
AcDbSymbolTableRecord
100
AcDbLinetypeTableRecord
  2
PHANTOM
 70
     0
  3
______  __  __  ______  __  __  ______  __  __ 
 72
    65
 73
     6
 40
2.5
 49
1.25
 74
     0
 49
-0.25
 74
     0
 49
0.25
 74
     0
 49
-0.25
 74
     0
 49
0.25
 74
     0
 49
-0.25
 74
     0
  0
ENDTAB
  0
TABLE
  2
LAYER
  5
9F21
330
0
100
AcDbSymbolTable
 70
     8
  0
LAYER
  5
9F2F
102
{ACAD_XDICTIONARY
360
A1B2
102
}
330
9F21
100
AcDbSymbolTableRecord
100
AcDbLayerTableRecord
  2
0
 70
     0
 62
     7
  6
CONTINUOUS
370
    -3
390
A160
  0
LAYER
  5
9F45
102
{ACAD_XDICTIONARY
360
A1B4
102
}
330
9F21
100
AcDbSymbolTableRecord
100
AcDbLayerTableRecord
  2
4
 70
     0
 62
     1
  6
CENTER
370
    -3
390
A160
  0
LAYER
  5
9F46
102
{ACAD_XDICTIONARY
360
A1B6
102
}
330
9F21
100
AcDbSymbolTableRecord
100
AcDbLayerTableRecord
  2
5
 70
     0
 62
     6
  6
PHANTOM
370
    -3
390
A160
  0
LAYER
  5
9F47
102
{ACAD_XDICTIONARY
360
A1B8
102
}
330
9F21
100
AcDbSymbolTableRecord
100
AcDbLayerTableRecord
  2
1
 70
     0
 62
     7
  6
CONTINUOUS
370
    -3
390
A160
  0
LAYER
  5
9F48
102
{ACAD_XDICTIONARY
360
A1BA
102
}
330
9F21
100
AcDbSymbolTableRecord
100
AcDbLayerTableRecord
  2
2
 70
     0
 62
     4
  6
CONTINUOUS
370
    -3
390
A160
  0
LAYER
  5
9F49
102
{ACAD_XDICTIONARY
360
A1BC
102
}
330
9F21
100
AcDbSymbolTableRecord
100
AcDbLayerTableRecord
  2
3
 70
     0
 62
     2
  6
DASHED
370
    -3
390
A160
  0
LAYER
  5
9F4A
102
{ACAD_XDICTIONARY
360
A1BE
102
}
330
9F21
100
AcDbSymbolTableRecord
100
AcDbLayerTableRecord
  2
6
 70
     0
 62
     5
  6
CONTINUOUS
370
    -3
390
A160
  0
LAYER
  5
9F4B
102
{ACAD_XDICTIONARY
360
A1C0
102
}
330
9F21
100
AcDbSymbolTableRecord
100
AcDbLayerTableRecord
  2
7
 70
     0
 62
     3
  6
CONTINUOUS
370
    -3
390
A160
  0
ENDTAB
  0
TABLE
  2
STYLE
  5
9F22
330
0
100
AcDbSymbolTable
 70
     1
  0
STYLE
  5
9F30
330
9F22
100
AcDbSymbolTableRecord
100
AcDbTextStyleTableRecord
  2
STANDARD
 70
     0
 40
0.0
 41
1.0
 50
0.0
 71
     0
 42
5.0
  3
txt
  4

  0
ENDTAB
  0
TABLE
  2
VIEW
  5
9F25
330
0
100
AcDbSymbolTable
 70
     0
  0
ENDTAB
  0
TABLE
  2
UCS
  5
9F26
330
0
100
AcDbSymbolTable
 70
     0
  0
ENDTAB
  0
TABLE
  2
APPID
  5
9F28
330
0
100
AcDbSymbolTable
 70
     3
  0
APPID
  5
9F31
330
9F28
100
AcDbSymbolTableRecord
100
AcDbRegAppTableRecord
  2
ACAD
 70
     0
  0
APPID
  5
A1CC
330
9F28
100
AcDbSymbolTableRecord
100
AcDbRegAppTableRecord
  2
ACAD_NAV_VCDISPLAY
 70
     0
  0
APPID
  5
A205
330
9F28
100
AcDbSymbolTableRecord
100
AcDbRegAppTableRecord
  2
ACAD_MLEADERVER
 70
     0
  0
ENDTAB
  0
TABLE
  2
DIMSTYLE
  5
9F29
330
0
100
AcDbSymbolTable
 70
     1
100
AcDbDimStyleTable
 71
     0
  0
DIMSTYLE
105
9F4D
330
9F29
100
AcDbSymbolTableRecord
100
AcDbDimStyleTableRecord
  2
STANDARD
 70
     0
 41
2.5
 42
1.0
 43
10.0
 44
1.0
 73
     0
 74
     0
 77
     3
 78
     8
140
3.2
141
0.0
147
1.0
172
     1
173
     1
284
     8
285
     8
286
     8
340
9F30
  0
ENDTAB
  0
TABLE
  2
BLOCK_RECORD
  5
9F20
330
0
100
AcDbSymbolTable
 70
     0
  0
BLOCK_RECORD
  5
9F3D
102
{ACAD_XDICTIONARY
360
A13F
102
}
330
9F20
100
AcDbSymbolTableRecord
100
AcDbBlockTableRecord
  2
*MODEL_SPACE
340
A1AE
  0
BLOCK_RECORD
  5
9F39
102
{ACAD_XDICTIONARY
360
A13D
102
}
330
9F20
100
AcDbSymbolTableRecord
100
AcDbBlockTableRecord
  2
*PAPER_SPACE
340
A1AF
  0
ENDTAB
  0
ENDSEC
  0
SECTION
  2
BLOCKS
  0
BLOCK
  5
9F3E
330
9F3D
100
AcDbEntity
  8
0
100
AcDbBlockBegin
  2
*MODEL_SPACE
 70
     0
 10
0.0
 20
0.0
 30
0.0
  3
*MODEL_SPACE
  1

  0
ENDBLK
  5
9F3F
330
9F3D
100
AcDbEntity
  8
0
100
AcDbBlockEnd
  0
BLOCK
  5
9F3A
330
9F39
100
AcDbEntity
 67
     1
  8
0
100
AcDbBlockBegin
  2
*PAPER_SPACE
 70
     0
 10
0.0
 20
0.0
 30
0.0
  3
*PAPER_SPACE
  1

  0
ENDBLK
  5
9F3B
330
9F39
100
AcDbEntity
 67
     1
  8
0
100
AcDbBlockEnd
  0
ENDSEC
  0
SECTION
  2
ENTITIES
  0
TEXT
  5
9F55
330
9F3D
100
AcDbEntity
  8
7
  6
Continuous
100
AcDbText
 10
10.0
 20
18.0
 30
0.0
 40
3.0
  1
TYPE No.TCA-420E-N65
100
AcDbText
  0
TEXT
  5
9F56
330
9F3D
100
AcDbEntity
  8
7
  6
Continuous
100
AcDbText
 10
10.0
 20
26.0
 30
0.0
 40
3.0
  1
CODE No.9746
100
AcDbText
  0
TEXT
  5
9F57
330
9F3D
100
AcDbEntity
  8
1
  6
Continuous
100
AcDbText
 10
10.0
 20
10.0
 30
0.0
 40
1.399999999999999
  1
LAYER
100
AcDbText
  0
TEXT
  5
9F58
330
9F3D
100
AcDbEntity
  8
1
  6
Continuous
100
AcDbText
 10
17.97951099999998
 20
10.04873699999998
 30
0.0
 40
1.399999999999999
  1
1
100
AcDbText
  0
TEXT
  5
9F59
330
9F3D
100
AcDbEntity
  8
7
  6
Continuous
100
AcDbText
 10
29.97951099999999
 20
10.04873699999998
 30
0.0
 40
1.399999999999999
  1
7
100
AcDbText
  0
TEXT
  5
9F5A
330
9F3D
100
AcDbEntity
  8
4
  6
CENTER
100
AcDbText
 10
23.97951099999999
 20
10.04873699999998
 30
0.0
 40
1.399999999999999
  1
4
100
AcDbText
  0
TEXT
  5
9F5B
330
9F3D
100
AcDbEntity
  8
3
  6
DASHED
100
AcDbText
 10
21.979511
 20
10.04873699999998
 30
0.0
 40
1.399999999999999
  1
3
100
AcDbText
  0
TEXT
  5
9F5C
330
9F3D
100
AcDbEntity
  8
2
  6
Continuous
100
AcDbText
 10
19.97951099999998
 20
10.04873699999998
 30
0.0
 40
1.399999999999999
  1
2
100
AcDbText
  0
TEXT
  5
9F5D
330
9F3D
100
AcDbEntity
  8
6
  6
Continuous
100
AcDbText
 10
27.979511
 20
10.04873699999998
 30
0.0
 40
1.399999999999999
  1
6
100
AcDbText
  0
TEXT
  5
9F5E
330
9F3D
100
AcDbEntity
  8
5
  6
PHANTOM
100
AcDbText
 10
25.97951099999999
 20
10.04873699999998
 30
0.0
 40
1.399999999999999
  1
5
100
AcDbText
  0
LINE
  5
9F5F
330
9F3D
100
AcDbEntity
  8
4
  6
CENTER
 48
0.8
100
AcDbLine
 10
202.0599209999998
 20
285.0734499999998
 30
0.0
 11
192.0599209999998
 21
285.0734499999998
 31
0.0
  0
LINE
  5
9F60
330
9F3D
100
AcDbEntity
  8
4
  6
CENTER
 48
0.8
100
AcDbLine
 10
197.0599209999998
 20
290.07345
 30
0.0
 11
197.0599209999998
 21
280.0734499999999
 31
0.0
  0
LINE
  5
9F61
330
9F3D
100
AcDbEntity
  8
4
  6
CENTER
 48
0.8
100
AcDbLine
 10
169.059921
 20
297.0734499999998
 30
0.0
 11
169.059921
 21
245.07345
 31
0.0
  0
LINE
  5
9F62
330
9F3D
100
AcDbEntity
  8
4
  6
CENTER
 48
0.8
100
AcDbLine
 10
206.687835
 20
271.07345
 30
0.0
 11
107.559921
 21
271.07345
 31
0.0
  0
LINE
  5
9F63
330
9F3D
100
AcDbEntity
  8
4
  6
CENTER
 48
0.8
100
AcDbLine
 10
202.0599209999998
 20
257.073446
 30
0.0
 11
192.0599209999998
 21
257.073446
 31
0.0
  0
LINE
  5
9F64
330
9F3D
100
AcDbEntity
  8
4
  6
CENTER
 48
0.8
100
AcDbLine
 10
197.0599209999998
 20
252.07345
 30
0.0
 11
197.0599209999998
 21
262.0734499999999
 31
0.0
  0
LINE
  5
9F65
330
9F3D
100
AcDbEntity
  8
1
  6
Continuous
100
AcDbLine
 10
141.0599209999998
 20
292.07345
 30
0.0
 11
197.0599209999998
 21
292.07345
 31
0.0
  0
LINE
  5
9F66
330
9F3D
100
AcDbEntity
  8
4
  6
CENTER
 48
0.8
100
AcDbLine
 10
136.0599209999998
 20
285.0734499999998
 30
0.0
 11
146.0599169999998
 21
285.0734499999998
 31
0.0
  0
LINE
  5
9F67
330
9F3D
100
AcDbEntity
  8
4
  6
CENTER
 48
0.8
100
AcDbLine
 10
141.0599209999998
 20
290.07345
 30
0.0
 11
141.0599209999998
 21
280.0734419999999
 31
0.0
  0
LINE
  5
9F68
330
9F3D
100
AcDbEntity
  8
1
  6
Continuous
100
AcDbLine
 10
141.0599249999999
 20
250.07345
 30
0.0
 11
197.0599209999998
 21
250.07345
 31
0.0
  0
LINE
  5
9F69
330
9F3D
100
AcDbEntity
  8
4
  6
CENTER
 48
0.8
100
AcDbLine
 10
136.0599209999998
 20
257.073446
 30
0.0
 11
146.0599209999998
 21
257.073446
 31
0.0
  0
LINE
  5
9F6A
330
9F3D
100
AcDbEntity
  8
4
  6
CENTER
 48
0.8
100
AcDbLine
 10
141.0599209999998
 20
252.0734459999999
 30
0.0
 11
141.0599209999998
 21
262.073442
 31
0.0
  0
LINE
  5
9F6B
330
9F3D
100
AcDbEntity
  8
1
  6
Continuous
100
AcDbLine
 10
28.55992099999999
 20
207.57345
 30
0.0
 11
70.559921
 21
207.57345
 31
0.0
  0
LINE
  5
9F6C
330
9F3D
100
AcDbEntity
  8
1
  6
Continuous
100
AcDbLine
 10
28.55992099999999
 20
205.57345
 30
0.0
 11
70.559921
 21
205.57345
 31
0.0
  0
LINE
  5
9F6D
330
9F3D
100
AcDbEntity
  8
1
  6
Continuous
100
AcDbLine
 10
32.75991799999999
 20
202.273447
 30
0.0
 11
66.359925
 21
202.273447
 31
0.0
  0
LINE
  5
9F6E
330
9F3D
100
AcDbEntity
  8
1
  6
Continuous
100
AcDbLine
 10
30.50239499999999
 20
204.133747
 30
0.0
 11
30.300758
 21
205.1690409999999
 31
0.0
  0
LINE
  5
9F6F
330
9F3D
100
AcDbEntity
  8
1
  6
Continuous
100
AcDbLine
 10
68.6175
 20
204.133735
 30
0.0
 11
68.81914499999999
 21
205.1690289999998
 31
0.0
  0
LINE
  5
9F70
330
9F3D
100
AcDbEntity
  8
1
  6
Continuous
100
AcDbLine
 10
134.059921
 20
207.57345
 30
0.0
 11
204.0599209999998
 21
207.57345
 31
0.0
  0
LINE
  5
9F71
330
9F3D
100
AcDbEntity
  8
1
  6
Continuous
100
AcDbLine
 10
134.059921
 20
205.5734579999999
 30
0.0
 11
134.059921
 21
207.5734579999999
 31
0.0
  0
LINE
  5
9F72
330
9F3D
100
AcDbEntity
  8
1
  6
Continuous
100
AcDbLine
 10
134.059921
 20
205.57345
 30
0.0
 11
204.0599209999998
 21
205.57345
 31
0.0
  0
LINE
  5
9F73
330
9F3D
100
AcDbEntity
  8
1
  6
Continuous
100
AcDbLine
 10
152.259918
 20
202.273447
 30
0.0
 11
185.859925
 21
202.273447
 31
0.0
  0
LINE
  5
9F74
330
9F3D
100
AcDbEntity
  8
1
  6
Continuous
100
AcDbLine
 10
150.00235
 20
204.133742
 30
0.0
 11
149.8007069999998
 21
205.169037
 31
0.0
  0
LINE
  5
9F75
330
9F3D
100
AcDbEntity
  8
1
  6
Continuous
100
AcDbLine
 10
204.0599209999998
 20
205.5734419999998
 30
0.0
 11
204.0599209999998
 21
207.57345
 31
0.0
  0
LINE
  5
9F76
330
9F3D
100
AcDbEntity
  8
1
  6
Continuous
100
AcDbLine
 10
188.117477
 20
204.133734
 30
0.0
 11
188.319122
 21
205.1690279999998
 31
0.0
  0
LINE
  5
9F77
330
9F3D
100
AcDbEntity
  8
4
  6
CENTER
 48
0.8
100
AcDbLine
 10
141.0599209999998
 20
200.5734499999999
 30
0.0
 11
141.0599209999998
 21
212.57345
 31
0.0
  0
LINE
  5
9F78
330
9F3D
100
AcDbEntity
  8
4
  6
CENTER
 48
0.8
100
AcDbLine
 10
197.0599209999998
 20
200.5734499999999
 30
0.0
 11
197.0599209999998
 21
212.57345
 31
0.0
  0
LINE
  5
9F79
330
9F3D
100
AcDbEntity
  8
1
  6
Continuous
100
AcDbLine
 10
28.55992099999999
 20
207.57345
 30
0.0
 11
28.55992099999999
 21
205.57345
 31
0.0
  0
LINE
  5
9F7A
330
9F3D
100
AcDbEntity
  8
1
  6
Continuous
100
AcDbLine
 10
70.559921
 20
207.57345
 30
0.0
 11
70.559921
 21
205.57345
 31
0.0
  0
LINE
  5
9F7B
330
9F3D
100
AcDbEntity
  8
4
  6
CENTER
 48
0.8
100
AcDbLine
 10
35.559921
 20
212.57345
 30
0.0
 11
35.559921
 21
200.5734499999999
 31
0.0
  0
LINE
  5
9F7C
330
9F3D
100
AcDbEntity
  8
4
  6
CENTER
 48
0.8
100
AcDbLine
 10
63.55992099999999
 20
212.57345
 30
0.0
 11
63.55992099999999
 21
200.5734499999999
 31
0.0
  0
LINE
  5
9F7D
330
9F3D
100
AcDbEntity
  8
4
  6
CENTER
 48
0.8
100
AcDbLine
 10
49.559921
 20
212.57345
 30
0.0
 11
49.559921
 21
120.5734459999999
 31
0.0
  0
LINE
  5
9F7E
330
9F3D
100
AcDbEntity
  8
4
  6
CENTER
 48
0.8
100
AcDbLine
 10
169.059921
 20
212.57345
 30
0.0
 11
169.059921
 21
178.1804979999997
 31
0.0
  0
LINE
  5
9F7F
330
9F3D
100
AcDbEntity
  8
1
  6
Continuous
100
AcDbLine
 10
153.059921
 20
201.4734489999999
 30
0.0
 11
185.059921
 21
201.4734489999999
 31
0.0
  0
LINE
  5
9F80
330
9F3D
100
AcDbEntity
  8
1
  6
Continuous
100
AcDbLine
 10
179.409973
 20
194.027858
 30
0.0
 11
188.0599209999997
 21
194.32992
 31
0.0
  0
LINE
  5
9F81
330
9F3D
100
AcDbEntity
  8
1
  6
Continuous
100
AcDbLine
 10
136.85992
 20
196.275405
 30
0.0
 11
154.3383629999999
 21
199.3573259999998
 31
0.0
  0
LINE
  5
9F82
330
9F3D
100
AcDbEntity
  8
1
  6
Continuous
100
AcDbLine
 10
137.2072139999999
 20
194.3057889999998
 30
0.0
 11
139.964681
 21
194.792005
 31
0.0
  0
LINE
  5
9F83
330
9F3D
100
AcDbEntity
  8
1
  6
Continuous
100
AcDbLine
 10
136.859926
 20
196.275404
 30
0.0
 11
137.2072219999997
 21
194.305787
 31
0.0
  0
LINE
  5
9F84
330
9F3D
100
AcDbEntity
  8
1
  6
Continuous
100
AcDbLine
 10
156.6599189999998
 20
198.7967629999999
 30
0.0
 11
156.6599189999998
 21
166.391594
 31
0.0
  0
LINE
  5
9F85
330
9F3D
100
AcDbEntity
  8
4
  6
CENTER
 48
0.8
100
AcDbLine
 10
182.559921
 20
158.0734459999999
 30
0.0
 11
107.559921
 21
158.0734459999999
 31
0.0
  0
LINE
  5
9F86
330
9F3D
100
AcDbEntity
  8
4
  6
CENTER
 48
0.8
100
AcDbLine
 10
145.059921
 20
191.4662649999999
 30
0.0
 11
145.059921
 21
120.5734459999999
 31
0.0
  0
LINE
  5
9F87
330
9F3D
100
AcDbEntity
  8
1
  6
Continuous
100
AcDbLine
 10
139.789701
 20
196.7920039999999
 30
0.0
 11
139.964679
 21
194.792005
 31
0.0
  0
LINE
  5
9F88
330
9F3D
100
AcDbEntity
  8
1
  6
Continuous
100
AcDbLine
 10
33.559921
 20
201.4734489999999
 30
0.0
 11
65.559921
 21
201.4734489999999
 31
0.0
  0
LINE
  5
9F89
330
9F3D
100
AcDbEntity
  8
4
  6
CENTER
 48
0.8
100
AcDbLine
 10
22.961853
 20
158.0734459999999
 30
0.0
 11
72.057996
 21
158.0734459999999
 31
0.0
  0
LINE
  5
9F8A
330
9F3D
100
AcDbEntity
  8
1
  6
Continuous
100
AcDbLine
 10
34.57045
 20
149.5734459999999
 30
0.0
 11
36.57045699999999
 21
149.5734459999999
 31
0.0
  0
LINE
  5
9F8B
330
9F3D
100
AcDbEntity
  8
1
  6
Continuous
100
AcDbLine
 10
64.549392
 20
149.5734459999999
 30
0.0
 11
62.549385
 21
149.5734459999999
 31
0.0
  0
LINE
  5
9F8C
330
9F3D
100
AcDbEntity
  8
1
  6
Continuous
100
AcDbLine
 10
36.558571
 20
161.3234459999999
 30
0.0
 11
37.559921
 21
161.3234459999999
 31
0.0
  0
LINE
  5
9F8D
330
9F3D
100
AcDbEntity
  8
1
  6
Continuous
100
AcDbLine
 10
36.56514699999997
 20
154.8234459999999
 30
0.0
 11
37.559921
 21
154.8234459999999
 31
0.0
  0
LINE
  5
9F8E
330
9F3D
100
AcDbEntity
  8
1
  6
Continuous
100
AcDbLine
 10
64.56335
 20
163.373445
 30
0.0
 11
65.061329
 21
163.373445
 31
0.0
  0
LINE
  5
9F8F
330
9F3D
100
AcDbEntity
  8
1
  6
Continuous
100
AcDbLine
 10
34.16185
 20
163.6734449999998
 30
0.0
 11
30.961853
 21
163.6734449999998
 31
0.0
  0
LINE
  5
9F90
330
9F3D
100
AcDbEntity
  8
1
  6
Continuous
100
AcDbLine
 10
34.16185
 20
161.0734459999999
 30
0.0
 11
30.961853
 21
161.0734459999999
 31
0.0
  0
LINE
  5
9F91
330
9F3D
100
AcDbEntity
  8
1
  6
Continuous
100
AcDbLine
 10
29.961853
 20
161.873449
 30
0.0
 11
29.961853
 21
154.273451
 31
0.0
  0
LINE
  5
9F92
330
9F3D
100
AcDbEntity
  8
1
  6
Continuous
100
AcDbLine
 10
34.16185
 20
152.473448
 30
0.0
 11
30.961853
 21
152.473448
 31
0.0
  0
LINE
  5
9F93
330
9F3D
100
AcDbEntity
  8
1
  6
Continuous
100
AcDbLine
 10
34.085052
 20
155.0734459999999
 30
0.0
 11
30.961853
 21
155.0734459999999
 31
0.0
  0
LINE
  5
9F94
330
9F3D
100
AcDbEntity
  8
1
  6
Continuous
100
AcDbLine
 10
28.961853
 20
161.0734459999999
 30
0.0
 11
29.961853
 21
161.0734459999999
 31
0.0
  0
LINE
  5
9F95
330
9F3D
100
AcDbEntity
  8
1
  6
Continuous
100
AcDbLine
 10
28.961853
 20
155.0734459999999
 30
0.0
 11
29.961853
 21
155.0734459999999
 31
0.0
  0
LINE
  5
9F96
330
9F3D
100
AcDbEntity
  8
1
  6
Continuous
100
AcDbLine
 10
27.961853
 20
160.0734459999999
 30
0.0
 11
27.961853
 21
156.0734459999999
 31
0.0
  0
LINE
  5
9F97
330
9F3D
100
AcDbEntity
  8
1
  6
Continuous
100
AcDbLine
 10
29.961853
 20
154.273371
 30
0.0
 11
30.961853
 21
152.473448
 31
0.0
  0
LINE
  5
9F98
330
9F3D
100
AcDbEntity
  8
1
  6
Continuous
100
AcDbLine
 10
29.961853
 20
161.8734719999999
 30
0.0
 11
30.961853
 21
163.673441
 31
0.0
  0
LINE
  5
9F99
330
9F3D
100
AcDbEntity
  8
1
  6
Continuous
100
AcDbLine
 10
61.55992099999998
 20
161.3234459999999
 30
0.0
 11
62.561268
 21
161.3234459999999
 31
0.0
  0
LINE
  5
9F9A
330
9F3D
100
AcDbEntity
  8
1
  6
Continuous
100
AcDbLine
 10
61.55992099999998
 20
154.8234459999999
 30
0.0
 11
62.554695
 21
154.8234459999999
 31
0.0
  0
LINE
  5
9F9B
330
9F3D
100
AcDbEntity
  8
1
  6
Continuous
100
AcDbLine
 10
139.964679
 20
194.792005
 30
0.0
 11
137.180879
 21
157.6337569999997
 31
0.0
  0
LINE
  5
9F9C
330
9F3D
100
AcDbEntity
  8
1
  6
Continuous
100
AcDbLine
 10
172.7965799999997
 20
190.0938039999997
 30
0.0
 11
151.1235389999999
 21
153.2692889999998
 31
0.0
  0
ARC
  5
9F9D
330
9F3D
100
AcDbEntity
  8
1
  6
Continuous
100
AcDbCircle
 10
197.0599209999998
 20
285.0734499999998
 30
0.0
 40
7.0
100
AcDbArc
 50
340.76692
 51
89.99996800000003
  0
CIRCLE
  5
9F9E
330
9F3D
100
AcDbEntity
  8
1
  6
Continuous
100
AcDbCircle
 10
197.0599209999998
 20
285.0734499999998
 30
0.0
 40
3.25
  0
ARC
  5
9F9F
330
9F3D
100
AcDbEntity
  8
1
  6
Continuous
100
AcDbCircle
 10
197.0599209999998
 20
257.0734499999999
 30
0.0
 40
7.0
100
AcDbArc
 50
270.0
 51
19.233055
  0
ARC
  5
9FA0
330
9F3D
100
AcDbEntity
  8
1
  6
Continuous
100
AcDbCircle
 10
237.187831
 20
271.073458
 30
0.0
 40
35.49999600000001
100
AcDbArc
 50
160.7508329999998
 51
199.23307
  0
CIRCLE
  5
9FA1
330
9F3D
100
AcDbEntity
  8
1
  6
Continuous
100
AcDbCircle
 10
197.0599209999998
 20
257.0734499999999
 30
0.0
 40
3.25
  0
ARC
  5
9FA2
330
9F3D
100
AcDbEntity
  8
1
  6
Continuous
100
AcDbCircle
 10
141.0599209999998
 20
285.073442
 30
0.0
 40
7.0
100
AcDbArc
 50
89.99998199999996
 51
199.23301
  0
CIRCLE
  5
9FA3
330
9F3D
100
AcDbEntity
  8
1
  6
Continuous
100
AcDbCircle
 10
141.0599209999998
 20
285.0734499999998
 30
0.0
 40
3.25
  0
ARC
  5
9FA4
330
9F3D
100
AcDbEntity
  8
1
  6
Continuous
100
AcDbCircle
 10
141.0599249999999
 20
257.0734499999999
 30
0.0
 40
7.0
100
AcDbArc
 50
160.76689
 51
269.99995
  0
ARC
  5
9FA5
330
9F3D
100
AcDbEntity
  8
1
  6
Continuous
100
AcDbCircle
 10
100.932007
 20
271.073442
 30
0.0
 40
35.49999600000001
100
AcDbArc
 50
340.7668799999999
 51
19.241066
  0
CIRCLE
  5
9FA6
330
9F3D
100
AcDbEntity
  8
1
  6
Continuous
100
AcDbCircle
 10
141.0599209999998
 20
257.0734419999999
 30
0.0
 40
3.25
  0
CIRCLE
  5
9FA7
330
9F3D
100
AcDbEntity
  8
1
  6
Continuous
100
AcDbCircle
 10
169.059921
 20
271.07345
 30
0.0
 40
17.25
  0
CIRCLE
  5
9FA8
330
9F3D
100
AcDbEntity
  8
1
  6
Continuous
100
AcDbCircle
 10
169.059921
 20
271.07345
 30
0.0
 40
15.75
  0
CIRCLE
  5
9FA9
330
9F3D
100
AcDbEntity
  8
1
  6
Continuous
100
AcDbCircle
 10
169.059921
 20
271.07345
 30
0.0
 40
8.3
  0
CIRCLE
  5
9FAA
330
9F3D
100
AcDbEntity
  8
1
  6
Continuous
100
AcDbCircle
 10
169.059921
 20
271.07345
 30
0.0
 40
6.75
  0
ARC
  5
9FAB
330
9F3D
100
AcDbEntity
  8
1
  6
Continuous
100
AcDbCircle
 10
161.598602
 20
202.6179519999999
 30
0.0
 40
1.984499999999996
100
AcDbArc
 50
324.7797499999998
 51
333.1367799999998
  0
ARC
  5
9FAC
330
9F3D
100
AcDbEntity
  8
1
  6
Continuous
100
AcDbCircle
 10
29.80992099999999
 20
205.0734499999999
 30
0.0
 40
0.5
100
AcDbArc
 50
11.021507
 51
90.00000900000001
  0
ARC
  5
9FAD
330
9F3D
100
AcDbEntity
  8
1
  6
Continuous
100
AcDbCircle
 10
32.74549799999999
 20
205.0734119999999
 30
0.0
 40
2.799999999999998
100
AcDbArc
 50
270.00002
 51
271.65221
  0
ARC
  5
9FAE
330
9F3D
100
AcDbEntity
  8
1
  6
Continuous
100
AcDbCircle
 10
32.75991799999999
 20
204.57345
 30
0.0
 40
2.299999999999998
100
AcDbArc
 50
191.02148
 51
269.9999899999999
  0
ARC
  5
9FAF
330
9F3D
100
AcDbEntity
  8
1
  6
Continuous
100
AcDbCircle
 10
69.309921
 20
205.0734499999999
 30
0.0
 40
0.5
100
AcDbArc
 50
89.999955
 51
168.97846
  0
ARC
  5
9FB0
330
9F3D
100
AcDbEntity
  8
1
  6
Continuous
100
AcDbCircle
 10
66.35992399999999
 20
204.57345
 30
0.0
 40
2.299999999999998
100
AcDbArc
 50
270.00002
 51
348.9785299999998
  0
ARC
  5
9FB1
330
9F3D
100
AcDbEntity
  8
1
  6
Continuous
100
AcDbCircle
 10
53.48054499999999
 20
202.6179519999999
 30
0.0
 40
1.984499999999996
100
AcDbArc
 50
189.9969899999999
 51
215.2202999999999
  0
ARC
  5
9FB2
330
9F3D
100
AcDbEntity
  8
1
  6
Continuous
100
AcDbCircle
 10
49.559921
 20
202.6179519999999
 30
0.0
 40
1.984499999999996
100
AcDbArc
 50
324.7796799999998
 51
350.00299
  0
ARC
  5
9FB3
330
9F3D
100
AcDbEntity
  8
1
  6
Continuous
100
AcDbCircle
 10
57.02124
 20
202.6179519999999
 30
0.0
 40
1.984499999999996
100
AcDbArc
 50
206.86325
 51
215.2202999999999
  0
ARC
  5
9FB4
330
9F3D
100
AcDbEntity
  8
1
  6
Continuous
100
AcDbCircle
 10
59.83890500000001
 20
202.6179519999999
 30
0.0
 40
1.984499999999996
100
AcDbArc
 50
324.77981
 51
350.00299
  0
ARC
  5
9FB5
330
9F3D
100
AcDbEntity
  8
1
  6
Continuous
100
AcDbCircle
 10
61.66050699999999
 20
202.6179519999999
 30
0.0
 40
1.984499999999996
100
AcDbArc
 50
324.7797499999998
 51
350.00299
  0
ARC
  5
9FB6
330
9F3D
100
AcDbEntity
  8
1
  6
Continuous
100
AcDbCircle
 10
62.30992099999999
 20
202.6179519999999
 30
0.0
 40
1.984499999999996
100
AcDbArc
 50
324.7797499999998
 51
350.00299
  0
ARC
  5
9FB7
330
9F3D
100
AcDbEntity
  8
1
  6
Continuous
100
AcDbCircle
 10
45.639297
 20
202.6179519999999
 30
0.0
 40
1.984499999999996
100
AcDbArc
 50
189.99704
 51
215.2202999999999
  0
ARC
  5
9FB8
330
9F3D
100
AcDbEntity
  8
1
  6
Continuous
100
AcDbCircle
 10
49.559921
 20
202.6179519999999
 30
0.0
 40
1.984499999999996
100
AcDbArc
 50
189.9970599999999
 51
215.2202999999999
  0
ARC
  5
9FB9
330
9F3D
100
AcDbEntity
  8
1
  6
Continuous
100
AcDbCircle
 10
42.098602
 20
202.6179519999999
 30
0.0
 40
1.984499999999996
100
AcDbArc
 50
189.9970599999999
 51
215.2202999999999
  0
ARC
  5
9FBA
330
9F3D
100
AcDbEntity
  8
1
  6
Continuous
100
AcDbCircle
 10
39.280929
 20
202.6179519999999
 30
0.0
 40
1.984499999999996
100
AcDbArc
 50
189.9970599999999
 51
215.2202999999999
  0
ARC
  5
9FBB
330
9F3D
100
AcDbEntity
  8
1
  6
Continuous
100
AcDbCircle
 10
37.45933499999999
 20
202.6179519999999
 30
0.0
 40
1.984499999999996
100
AcDbArc
 50
189.9970599999999
 51
215.2202999999999
  0
ARC
  5
9FBC
330
9F3D
100
AcDbEntity
  8
1
  6
Continuous
100
AcDbCircle
 10
36.809921
 20
202.6179519999999
 30
0.0
 40
1.984499999999996
100
AcDbArc
 50
189.9970599999999
 51
215.2202999999999
  0
ARC
  5
9FBD
330
9F3D
100
AcDbEntity
  8
1
  6
Continuous
100
AcDbCircle
 10
149.309921
 20
205.0734499999999
 30
0.0
 40
0.5
100
AcDbArc
 50
11.021507
 51
90.00000900000001
  0
ARC
  5
9FBE
330
9F3D
100
AcDbEntity
  8
1
  6
Continuous
100
AcDbCircle
 10
152.245498
 20
205.0734119999999
 30
0.0
 40
2.799999999999998
100
AcDbArc
 50
270.00002
 51
271.65221
  0
ARC
  5
9FBF
330
9F3D
100
AcDbEntity
  8
1
  6
Continuous
100
AcDbCircle
 10
152.259918
 20
204.57345
 30
0.0
 40
2.299999999999998
100
AcDbArc
 50
191.02148
 51
269.9999899999999
  0
ARC
  5
9FC0
330
9F3D
100
AcDbEntity
  8
1
  6
Continuous
100
AcDbCircle
 10
185.859924
 20
204.57345
 30
0.0
 40
2.299999999999998
100
AcDbArc
 50
270.00002
 51
348.9785299999998
  0
ARC
  5
9FC1
330
9F3D
100
AcDbEntity
  8
1
  6
Continuous
100
AcDbCircle
 10
172.980545
 20
202.6179519999999
 30
0.0
 40
1.984499999999996
100
AcDbArc
 50
189.9969899999999
 51
215.2202299999999
  0
ARC
  5
9FC2
330
9F3D
100
AcDbEntity
  8
1
  6
Continuous
100
AcDbCircle
 10
169.059921
 20
202.6179519999999
 30
0.0
 40
1.984499999999996
100
AcDbArc
 50
324.7797499999998
 51
350.00299
  0
ARC
  5
9FC3
330
9F3D
100
AcDbEntity
  8
1
  6
Continuous
100
AcDbCircle
 10
176.5212399999998
 20
202.6179519999999
 30
0.0
 40
1.984499999999996
100
AcDbArc
 50
206.86325
 51
215.2202299999999
  0
ARC
  5
9FC4
330
9F3D
100
AcDbEntity
  8
1
  6
Continuous
100
AcDbCircle
 10
179.338905
 20
202.6179519999999
 30
0.0
 40
1.984499999999996
100
AcDbArc
 50
324.7797499999998
 51
350.00299
  0
ARC
  5
9FC5
330
9F3D
100
AcDbEntity
  8
1
  6
Continuous
100
AcDbCircle
 10
181.1605069999997
 20
202.6179519999999
 30
0.0
 40
1.984499999999996
100
AcDbArc
 50
324.7797499999998
 51
350.00299
  0
ARC
  5
9FC6
330
9F3D
100
AcDbEntity
  8
1
  6
Continuous
100
AcDbCircle
 10
181.8099209999997
 20
202.6179519999999
 30
0.0
 40
1.984499999999996
100
AcDbArc
 50
324.7796799999998
 51
350.00299
  0
ARC
  5
9FC7
330
9F3D
100
AcDbEntity
  8
1
  6
Continuous
100
AcDbCircle
 10
165.139297
 20
202.6179519999999
 30
0.0
 40
1.984499999999996
100
AcDbArc
 50
189.99704
 51
215.2202299999999
  0
ARC
  5
9FC8
330
9F3D
100
AcDbEntity
  8
1
  6
Continuous
100
AcDbCircle
 10
169.059921
 20
202.6179519999999
 30
0.0
 40
1.984499999999996
100
AcDbArc
 50
189.9970599999999
 51
215.2202299999999
  0
ARC
  5
9FC9
330
9F3D
100
AcDbEntity
  8
1
  6
Continuous
100
AcDbCircle
 10
161.598602
 20
202.6179519999999
 30
0.0
 40
1.984499999999996
100
AcDbArc
 50
189.9970599999999
 51
215.2202299999999
  0
ARC
  5
9FCA
330
9F3D
100
AcDbEntity
  8
1
  6
Continuous
100
AcDbCircle
 10
158.7809369999999
 20
202.6179519999999
 30
0.0
 40
1.984499999999996
100
AcDbArc
 50
189.9970599999999
 51
215.2202299999999
  0
ARC
  5
9FCB
330
9F3D
100
AcDbEntity
  8
1
  6
Continuous
100
AcDbCircle
 10
156.959335
 20
202.6179519999999
 30
0.0
 40
1.984499999999996
100
AcDbArc
 50
189.99707
 51
215.2202299999999
  0
ARC
  5
9FCC
330
9F3D
100
AcDbEntity
  8
1
  6
Continuous
100
AcDbCircle
 10
156.309921
 20
202.6179519999999
 30
0.0
 40
1.984499999999996
100
AcDbArc
 50
189.9970599999999
 51
215.2202299999999
  0
ARC
  5
9FCD
330
9F3D
100
AcDbEntity
  8
1
  6
Continuous
100
AcDbCircle
 10
172.980545
 20
202.6179519999999
 30
0.0
 40
1.984499999999996
100
AcDbArc
 50
324.7797499999998
 51
350.00299
  0
ARC
  5
9FCE
330
9F3D
100
AcDbEntity
  8
1
  6
Continuous
100
AcDbCircle
 10
176.5212399999998
 20
202.6179519999999
 30
0.0
 40
1.984499999999996
100
AcDbArc
 50
324.7797499999998
 51
350.00299
  0
ARC
  5
9FCF
330
9F3D
100
AcDbEntity
  8
1
  6
Continuous
100
AcDbCircle
 10
45.639297
 20
202.6179519999999
 30
0.0
 40
1.984499999999996
100
AcDbArc
 50
324.7796799999998
 51
350.0030499999998
  0
ARC
  5
9FD0
330
9F3D
100
AcDbEntity
  8
1
  6
Continuous
100
AcDbCircle
 10
42.098602
 20
202.6179519999999
 30
0.0
 40
1.984499999999996
100
AcDbArc
 50
324.7796799999998
 51
333.1367799999998
  0
ARC
  5
9FD1
330
9F3D
100
AcDbEntity
  8
1
  6
Continuous
100
AcDbCircle
 10
53.48054499999999
 20
202.6179519999999
 30
0.0
 40
1.984499999999996
100
AcDbArc
 50
324.7796799999998
 51
350.00299
  0
ARC
  5
9FD2
330
9F3D
100
AcDbEntity
  8
1
  6
Continuous
100
AcDbCircle
 10
57.02124
 20
202.6179519999999
 30
0.0
 40
1.984499999999996
100
AcDbArc
 50
324.7796799999998
 51
350.00299
  0
ARC
  5
9FD3
330
9F3D
100
AcDbEntity
  8
1
  6
Continuous
100
AcDbCircle
 10
165.139297
 20
202.6179519999999
 30
0.0
 40
1.984499999999996
100
AcDbArc
 50
324.7797499999998
 51
350.0030499999998
  0
ARC
  5
9FD4
330
9F3D
100
AcDbEntity
  8
1
  6
Continuous
100
AcDbCircle
 10
179.6891629999999
 20
186.032733
 30
0.0
 40
8.0
100
AcDbArc
 50
92.00003199999995
 51
149.52109
  0
ARC
  5
9FD5
330
9F3D
100
AcDbEntity
  8
1
  6
Continuous
100
AcDbCircle
 10
144.659919
 20
157.0734459999999
 30
0.0
 40
7.5
100
AcDbArc
 50
175.71555
 51
329.5210799999998
  0
CIRCLE
  5
9FD6
330
9F3D
100
AcDbEntity
  8
1
  6
Continuous
100
AcDbCircle
 10
145.059921
 20
158.0734459999999
 30
0.0
 40
5.4
  0
ARC
  5
9FD7
330
9F3D
100
AcDbEntity
  8
1
  6
Continuous
100
AcDbCircle
 10
84.49803499999999
 20
182.7341529999999
 30
0.0
 40
54.0
100
AcDbArc
 50
182.743332
 51
200.669454
  0
ARC
  5
9FD8
330
9F3D
100
AcDbEntity
  8
1
  6
Continuous
100
AcDbCircle
 10
49.559921
 20
356.27345
 30
0.0
 40
162.0
100
AcDbArc
 50
265.512
 51
274.4879879999999
  0
ARC
  5
9FD9
330
9F3D
100
AcDbEntity
  8
1
  6
Continuous
100
AcDbCircle
 10
36.859932
 20
194.471099
 30
0.0
 40
0.3
100
AcDbArc
 50
85.51197399999997
 51
164.7781929999998
  0
ARC
  5
9FDA
330
9F3D
100
AcDbEntity
  8
1
  6
Continuous
100
AcDbCircle
 10
49.559921
 20
358.2753999999998
 30
0.0
 40
162.0
100
AcDbArc
 50
265.1518299999997
 51
274.8481579999999
  0
ARC
  5
9FDB
330
9F3D
100
AcDbEntity
  8
1
  6
Continuous
100
AcDbCircle
 10
62.25991
 20
194.471099
 30
0.0
 40
0.3
100
AcDbArc
 50
15.221807
 51
94.48798999999999
  0
ARC
  5
9FDC
330
9F3D
100
AcDbEntity
  8
1
  6
Continuous
100
AcDbCircle
 10
49.559921
 20
298.67345
 30
0.0
 40
100.0
100
AcDbArc
 50
262.53039
 51
277.4695899999999
  0
ARC
  5
9FDD
330
9F3D
100
AcDbEntity
  8
1
  6
Continuous
100
AcDbCircle
 10
36.024132
 20
195.363111
 30
0.0
 40
1.5
100
AcDbArc
 50
95.95749199999996
 51
165.7245169999999
  0
ARC
  5
9FDE
330
9F3D
100
AcDbEntity
  8
1
  6
Continuous
100
AcDbCircle
 10
63.09571
 20
195.363111
 30
0.0
 40
1.5
100
AcDbArc
 50
14.27548299999999
 51
84.042472
  0
ARC
  5
9FDF
330
9F3D
100
AcDbEntity
  8
1
  6
Continuous
100
AcDbCircle
 10
14.621811
 20
182.7341529999999
 30
0.0
 40
54.0
100
AcDbArc
 50
338.98996
 51
357.256579
  0
ARC
  5
9FE0
330
9F3D
100
AcDbEntity
  8
1
  6
Continuous
100
AcDbCircle
 10
65.061329
 20
161.373445
 30
0.0
 40
2.0
100
AcDbArc
 50
359.9420799999998
 51
89.99998199999996
  0
ARC
  5
9FE1
330
9F3D
100
AcDbEntity
  8
1
  6
Continuous
100
AcDbCircle
 10
32.24935099999999
 20
153.7734429999999
 30
0.0
 40
2.3125
100
AcDbArc
 50
325.79449
 51
34.20541
  0
ARC
  5
9FE2
330
9F3D
100
AcDbEntity
  8
1
  6
Continuous
100
AcDbCircle
 10
23.111851
 20
158.0734459999999
 30
0.0
 40
11.450001
100
AcDbArc
 50
344.8107199999999
 51
15.189285
  0
ARC
  5
9FE3
330
9F3D
100
AcDbEntity
  8
1
  6
Continuous
100
AcDbCircle
 10
32.24935099999999
 20
162.3734489999999
 30
0.0
 40
2.3125
100
AcDbArc
 50
325.79455
 51
34.205461
  0
ARC
  5
9FE4
330
9F3D
100
AcDbEntity
  8
1
  6
Continuous
100
AcDbCircle
 10
32.87435099999999
 20
162.3734489999999
 30
0.0
 40
2.312498999999998
100
AcDbArc
 50
145.7945499999999
 51
214.2054299999998
  0
ARC
  5
9FE5
330
9F3D
100
AcDbEntity
  8
1
  6
Continuous
100
AcDbCircle
 10
42.011848
 20
158.0734459999999
 30
0.0
 40
11.44999799999999
100
AcDbArc
 50
164.81073
 51
195.1892499999999
  0
ARC
  5
9FE6
330
9F3D
100
AcDbEntity
  8
1
  6
Continuous
100
AcDbCircle
 10
32.87435099999999
 20
153.7734509999999
 30
0.0
 40
2.312498999999998
100
AcDbArc
 50
145.7945499999999
 51
214.2054299999998
  0
LINE
  5
9FE7
330
9F3D
100
AcDbEntity
  8
1
  6
Continuous
100
AcDbLine
 10
141.0599249999999
 20
83.07344999999996
 30
0.0
 11
197.0599209999998
 21
83.07344999999996
 31
0.0
  0
LINE
  5
9FE8
330
9F3D
100
AcDbEntity
  8
1
  6
Continuous
100
AcDbLine
 10
141.0599209999998
 20
41.07345
 30
0.0
 11
142.46185
 21
41.07345
 31
0.0
  0
LINE
  5
9FE9
330
9F3D
100
AcDbEntity
  8
4
  6
CENTER
 48
0.8
100
AcDbLine
 10
206.687835
 20
62.07345
 30
0.0
 11
107.559921
 21
62.07345
 31
0.0
  0
ARC
  5
9FEA
330
9F3D
100
AcDbEntity
  8
1
  6
Continuous
100
AcDbCircle
 10
100.932007
 20
62.07345799999998
 30
0.0
 40
35.49999600000001
100
AcDbArc
 50
340.758934
 51
340.970123
  0
LINE
  5
9FEB
330
9F3D
100
AcDbEntity
  8
4
  6
CENTER
 48
0.8
100
AcDbLine
 10
169.059921
 20
36.07345
 30
0.0
 11
169.059921
 21
88.07344999999996
 31
0.0
  0
ARC
  5
9FEC
330
9F3D
100
AcDbEntity
  8
1
  6
Continuous
100
AcDbCircle
 10
141.0599249999999
 20
76.07344999999998
 30
0.0
 40
7.0
100
AcDbArc
 50
90.00004999999999
 51
199.23311
  0
LINE
  5
9FED
330
9F3D
100
AcDbEntity
  8
4
  6
CENTER
 48
0.8
100
AcDbLine
 10
136.0599209999998
 20
76.07345399999998
 30
0.0
 11
146.0599209999998
 21
76.07345399999998
 31
0.0
  0
ARC
  5
9FEE
330
9F3D
100
AcDbEntity
  8
1
  6
Continuous
100
AcDbCircle
 10
141.0599209999998
 20
76.073458
 30
0.0
 40
3.25
100
AcDbArc
 50
95.19845500000004
 51
162.274912
  0
LINE
  5
9FEF
330
9F3D
100
AcDbEntity
  8
4
  6
CENTER
 48
0.8
100
AcDbLine
 10
141.0599209999998
 20
81.07345399999998
 30
0.0
 11
141.0599209999998
 21
71.073458
 31
0.0
  0
ARC
  5
9FF0
330
9F3D
100
AcDbEntity
  8
1
  6
Continuous
100
AcDbCircle
 10
141.0599209999998
 20
48.07345
 30
0.0
 40
3.25
100
AcDbArc
 50
142.020125
 51
161.8844629999999
  0
ARC
  5
9FF1
330
9F3D
100
AcDbEntity
  8
1
  6
Continuous
100
AcDbCircle
 10
141.0599209999998
 20
48.073458
 30
0.0
 40
7.0
100
AcDbArc
 50
160.7669899999999
 51
270.0000179999999
  0
LINE
  5
9FF2
330
9F3D
100
AcDbEntity
  8
4
  6
CENTER
 48
0.8
100
AcDbLine
 10
141.0599209999998
 20
43.07345
 30
0.0
 11
141.0599209999998
 21
53.073458
 31
0.0
  0
LINE
  5
9FF3
330
9F3D
100
AcDbEntity
  8
4
  6
CENTER
 48
0.8
100
AcDbLine
 10
136.0599209999998
 20
48.07345
 30
0.0
 11
146.0599169999998
 21
48.07345
 31
0.0
  0
ARC
  5
9FF4
330
9F3D
100
AcDbEntity
  8
1
  6
Continuous
100
AcDbCircle
 10
237.187831
 20
62.07344200000001
 30
0.0
 40
35.49999600000001
100
AcDbArc
 50
160.7669299999997
 51
199.2491669999998
  0
ARC
  5
9FF5
330
9F3D
100
AcDbEntity
  8
1
  6
Continuous
100
AcDbCircle
 10
197.0599209999998
 20
76.07344999999998
 30
0.0
 40
7.0
100
AcDbArc
 50
340.766945
 51
90.0
  0
LINE
  5
9FF6
330
9F3D
100
AcDbEntity
  8
4
  6
CENTER
 48
0.8
100
AcDbLine
 10
202.0599209999998
 20
76.07345399999998
 30
0.0
 11
192.0599209999998
 21
76.07345399999998
 31
0.0
  0
CIRCLE
  5
9FF7
330
9F3D
100
AcDbEntity
  8
1
  6
Continuous
100
AcDbCircle
 10
197.0599209999998
 20
76.07344999999998
 30
0.0
 40
3.25
  0
LINE
  5
9FF8
330
9F3D
100
AcDbEntity
  8
4
  6
CENTER
 48
0.8
100
AcDbLine
 10
197.0599209999998
 20
81.07344999999998
 30
0.0
 11
197.0599209999998
 21
71.07344999999998
 31
0.0
  0
CIRCLE
  5
9FF9
330
9F3D
100
AcDbEntity
  8
1
  6
Continuous
100
AcDbCircle
 10
197.0599209999998
 20
48.07345
 30
0.0
 40
3.25
  0
ARC
  5
9FFA
330
9F3D
100
AcDbEntity
  8
1
  6
Continuous
100
AcDbCircle
 10
197.0599209999998
 20
48.07345
 30
0.0
 40
7.0
100
AcDbArc
 50
270.000032
 51
19.23307999999997
  0
LINE
  5
9FFB
330
9F3D
100
AcDbEntity
  8
4
  6
CENTER
 48
0.8
100
AcDbLine
 10
197.0599209999998
 20
43.07345
 30
0.0
 11
197.0599209999998
 21
53.07345
 31
0.0
  0
LINE
  5
9FFC
330
9F3D
100
AcDbEntity
  8
4
  6
CENTER
 48
0.8
100
AcDbLine
 10
202.0599209999998
 20
48.07345
 30
0.0
 11
192.0599209999998
 21
48.07345
 31
0.0
  0
LINE
  5
9FFD
330
9F3D
100
AcDbEntity
  8
1
  6
Continuous
100
AcDbLine
 10
30.559921
 20
198.4734489999999
 30
0.0
 11
30.559921
 21
180.149611
 31
0.0
  0
LINE
  5
9FFE
330
9F3D
100
AcDbEntity
  8
1
  6
Continuous
100
AcDbLine
 10
68.559921
 20
198.4734489999999
 30
0.0
 11
68.559921
 21
180.149527
 31
0.0
  0
ARC
  5
9FFF
330
9F3D
100
AcDbEntity
  8
1
  6
Continuous
100
AcDbCircle
 10
65.559921
 20
198.4734489999999
 30
0.0
 40
3.0
100
AcDbArc
 50
0.0
 51
90.0
  0
ARC
  5
A000
330
9F3D
100
AcDbEntity
  8
1
  6
Continuous
100
AcDbCircle
 10
33.559921
 20
198.4734489999999
 30
0.0
 40
3.0
100
AcDbArc
 50
90.0
 51
180.0
  0
LINE
  5
A001
330
9F3D
100
AcDbEntity
  8
1
  6
Continuous
100
AcDbLine
 10
34.57045
 20
149.5734459999999
 30
0.0
 11
34.57045
 21
195.732987
 31
0.0
  0
LINE
  5
A002
330
9F3D
100
AcDbEntity
  8
1
  6
Continuous
100
AcDbLine
 10
36.57045699999999
 20
149.5734459999999
 30
0.0
 11
36.57045699999999
 21
194.5498659999999
 31
0.0
  0
LINE
  5
A003
330
9F3D
100
AcDbEntity
  8
1
  6
Continuous
100
AcDbLine
 10
62.549385
 20
149.5734459999999
 30
0.0
 11
62.549385
 21
194.5498659999999
 31
0.0
  0
LINE
  5
A004
330
9F3D
100
AcDbEntity
  8
1
  6
Continuous
100
AcDbLine
 10
64.549392
 20
149.5734459999999
 30
0.0
 11
64.549392
 21
195.732987
 31
0.0
  0
LINE
  5
A005
330
9F3D
100
AcDbEntity
  8
1
  6
Continuous
100
AcDbLine
 10
188.0599209999997
 20
198.4734489999999
 30
0.0
 11
188.0599209999997
 21
194.32992
 31
0.0
  0
ARC
  5
A006
330
9F3D
100
AcDbEntity
  8
1
  6
Continuous
100
AcDbCircle
 10
188.809921
 20
205.0734499999999
 30
0.0
 40
0.5
100
AcDbArc
 50
89.99999100000001
 51
168.9784929999999
  0
ARC
  5
A007
330
9F3D
100
AcDbEntity
  8
1
  6
Continuous
100
AcDbCircle
 10
185.059921
 20
198.4734489999999
 30
0.0
 40
3.0
100
AcDbArc
 50
0.0
 51
90.0
  0
ARC
  5
A008
330
9F3D
100
AcDbEntity
  8
1
  6
Continuous
100
AcDbCircle
 10
153.059921
 20
198.4734489999999
 30
0.0
 40
3.0
100
AcDbArc
 50
90.0
 51
180.0
  0
LINE
  5
A009
330
9F3D
100
AcDbEntity
  8
4
  6
CENTER
 48
0.8
100
AcDbLine
 10
145.059921
 20
36.07345
 30
0.0
 11
145.059921
 21
88.07344999999996
 31
0.0
  0
LINE
  5
A00A
330
9F3D
100
AcDbEntity
  8
1
  6
Continuous
100
AcDbLine
 10
156.083019
 20
47.083979
 30
0.0
 11
137.213819
 21
47.083979
 31
0.0
  0
LINE
  5
A00B
330
9F3D
100
AcDbEntity
  8
1
  6
Continuous
100
AcDbLine
 10
156.083009
 20
49.08398599999999
 30
0.0
 11
137.213819
 21
49.08398599999999
 31
0.0
  0
LINE
  5
A00C
330
9F3D
100
AcDbEntity
  8
1
  6
Continuous
100
AcDbLine
 10
141.809921
 20
49.0721
 30
0.0
 11
141.809921
 21
50.07345
 31
0.0
  0
LINE
  5
A00D
330
9F3D
100
AcDbEntity
  8
1
  6
Continuous
100
AcDbLine
 10
148.3099209999998
 20
49.078676
 30
0.0
 11
148.3099209999998
 21
50.07345
 31
0.0
  0
LINE
  5
A00E
330
9F3D
100
AcDbEntity
  8
1
  6
Continuous
100
AcDbLine
 10
156.083009
 20
75.06291400000002
 30
0.0
 11
137.213819
 21
75.06291400000002
 31
0.0
  0
LINE
  5
A00F
330
9F3D
100
AcDbEntity
  8
1
  6
Continuous
100
AcDbLine
 10
156.083019
 20
77.062921
 30
0.0
 11
137.213819
 21
77.062921
 31
0.0
  0
LINE
  5
A010
330
9F3D
100
AcDbEntity
  8
1
  6
Continuous
100
AcDbLine
 10
141.809921
 20
74.07344999999998
 30
0.0
 11
141.809921
 21
75.06291400000002
 31
0.0
  0
LINE
  5
A011
330
9F3D
100
AcDbEntity
  8
1
  6
Continuous
100
AcDbLine
 10
139.7599219999999
 20
77.076879
 30
0.0
 11
139.7599219999999
 21
77.57485799999997
 31
0.0
  0
ARC
  5
A012
330
9F3D
100
AcDbEntity
  8
1
  6
Continuous
100
AcDbCircle
 10
141.7599219999999
 20
77.57485799999997
 30
0.0
 40
2.0
100
AcDbArc
 50
85.22653100000002
 51
179.999982
  0
LINE
  5
A013
330
9F3D
100
AcDbEntity
  8
1
  6
Continuous
100
AcDbLine
 10
148.3099209999998
 20
74.07344999999998
 30
0.0
 11
148.3099209999998
 21
75.068224
 31
0.0
  0
ARC
  5
A014
330
9F3D
100
AcDbEntity
  8
1
  6
Continuous
100
AcDbCircle
 10
100.932007
 20
62.07345799999998
 30
0.0
 40
35.49999600000001
100
AcDbArc
 50
19.029859
 51
19.23312
  0
LINE
  5
A015
330
9F3D
100
AcDbEntity
  8
1
  6
Continuous
100
AcDbLine
 10
137.213819
 20
77.062921
 30
0.0
 11
137.213819
 21
75.06291400000002
 31
0.0
  0
LINE
  5
A016
330
9F3D
100
AcDbEntity
  8
1
  6
Continuous
100
AcDbLine
 10
137.213819
 20
49.08398599999999
 30
0.0
 11
137.213819
 21
47.083979
 31
0.0
  0
ARC
  5
A017
330
9F3D
100
AcDbEntity
  8
1
  6
Continuous
100
AcDbCircle
 10
176.8940369999999
 20
62.11728299999999
 30
0.0
 40
40.03413499999999
100
AcDbArc
 50
161.1334629999998
 51
162.623505
  0
ARC
  5
A018
330
9F3D
100
AcDbEntity
  8
1
  6
Continuous
100
AcDbCircle
 10
176.8940369999999
 20
62.11728299999999
 30
0.0
 40
40.03413499999999
100
AcDbArc
 50
197.5080089999999
 51
198.9991789999996
  0
ARC
  5
A019
330
9F3D
100
AcDbEntity
  8
1
  6
Continuous
100
AcDbCircle
 10
141.0599209999998
 20
48.07345
 30
0.0
 40
3.25
100
AcDbArc
 50
197.725236
 51
252.079786
  0
LINE
  5
A01A
330
9F3D
100
AcDbEntity
  8
1
  6
Continuous
100
AcDbLine
 10
147.6579919999998
 20
41.07345
 30
0.0
 11
197.0599209999998
 21
41.07345
 31
0.0
  0
ARC
  5
A01B
330
9F3D
100
AcDbEntity
  8
1
  6
Continuous
100
AcDbCircle
 10
169.059921
 20
62.07345
 30
0.0
 40
19.0
100
AcDbArc
 50
235.6523319999999
 51
124.3476679999999
  0
ARC
  5
A01C
330
9F3D
100
AcDbEntity
  8
1
  6
Continuous
100
AcDbCircle
 10
169.059921
 20
62.07345
 30
0.0
 40
17.0
100
AcDbArc
 50
235.652301
 51
124.347699
  0
ARC
  5
A01D
330
9F3D
100
AcDbEntity
  8
1
  6
Continuous
100
AcDbCircle
 10
169.059921
 20
62.07345
 30
0.0
 40
13.0
100
AcDbArc
 50
233.8710729999998
 51
126.128927
  0
ARC
  5
A01E
330
9F3D
100
AcDbEntity
  8
1
  6
Continuous
100
AcDbCircle
 10
169.059921
 20
62.07345
 30
0.0
 40
10.5
100
AcDbArc
 50
320.7495269999999
 51
39.250473
  0
LINE
  5
A01F
330
9F3D
100
AcDbEntity
  8
4
  6
CENTER
 48
0.8
100
AcDbLine
 10
145.059921
 20
297.0734499999998
 30
0.0
 11
145.059921
 21
245.07345
 31
0.0
  0
LINE
  5
A023
330
9F3D
100
AcDbEntity
  8
1
  6
Continuous
100
AcDbLine
 10
145.059921
 20
42.965727
 30
0.0
 11
145.059921
 21
47.083979
 31
0.0
  0
LINE
  5
A024
330
9F3D
100
AcDbEntity
  8
1
  6
Continuous
100
AcDbLine
 10
150.059921
 20
46.593231
 30
0.0
 11
150.059921
 21
42.965727
 31
0.0
  0
LINE
  5
A025
330
9F3D
100
AcDbEntity
  8
1
  6
Continuous
100
AcDbLine
 10
142.559921
 20
42.47497899999999
 30
0.0
 11
147.559921
 21
42.47497899999999
 31
0.0
  0
LINE
  5
A026
330
9F3D
100
AcDbEntity
  8
1
  6
Continuous
100
AcDbLine
 10
140.059921
 20
46.593231
 30
0.0
 11
140.059921
 21
42.965727
 31
0.0
  0
ARC
  5
A027
330
9F3D
100
AcDbEntity
  8
1
  6
Continuous
100
AcDbCircle
 10
142.559921
 20
49.088187
 30
0.0
 40
6.613208
100
AcDbArc
 50
247.7882049999999
 51
292.211795
  0
ARC
  5
A028
330
9F3D
100
AcDbEntity
  8
1
  6
Continuous
100
AcDbCircle
 10
147.559921
 20
49.088187
 30
0.0
 40
6.613208
100
AcDbArc
 50
247.7882049999999
 51
292.211795
  0
LINE
  5
A029
330
9F3D
100
AcDbEntity
  8
1
  6
Continuous
100
AcDbLine
 10
385.059921
 20
155.360197
 30
0.0
 11
385.059921
 21
160.786695
 31
0.0
  0
CIRCLE
  5
A02A
330
9F3D
100
AcDbEntity
  8
1
  6
Continuous
100
AcDbCircle
 10
390.0599209999999
 20
158.0734459999999
 30
0.0
 40
3.0
  0
CIRCLE
  5
A02B
330
9F3D
100
AcDbEntity
  8
2
  6
Continuous
100
AcDbCircle
 10
390.0599209999999
 20
158.0734459999999
 30
0.0
 40
2.458499999999999
  0
CIRCLE
  5
A02C
330
9F3D
100
AcDbEntity
  8
1
  6
Continuous
100
AcDbCircle
 10
390.0599209999999
 20
158.0734459999999
 30
0.0
 40
2.0
  0
LINE
  5
A02D
330
9F3D
100
AcDbEntity
  8
2
  6
Continuous
100
AcDbLine
 10
28.420353
 20
160.531946
 30
0.0
 11
29.961853
 21
160.531946
 31
0.0
  0
LINE
  5
A02E
330
9F3D
100
AcDbEntity
  8
2
  6
Continuous
100
AcDbLine
 10
28.420353
 20
155.614946
 30
0.0
 11
29.961853
 21
155.614946
 31
0.0
  0
LINE
  5
A02F
330
9F3D
100
AcDbEntity
  8
1
  6
Continuous
100
AcDbLine
 10
28.961853
 20
161.0734459999999
 30
0.0
 11
28.961853
 21
155.0734459999999
 31
0.0
  0
LINE
  5
A030
330
9F3D
100
AcDbEntity
  8
1
  6
Continuous
100
AcDbLine
 10
27.961853
 20
160.0734459999999
 30
0.0
 11
28.961853
 21
161.0734459999999
 31
0.0
  0
LINE
  5
A031
330
9F3D
100
AcDbEntity
  8
1
  6
Continuous
100
AcDbLine
 10
27.961853
 20
156.0734459999999
 30
0.0
 11
28.961853
 21
155.0734459999999
 31
0.0
  0
CIRCLE
  5
A032
330
9F3D
100
AcDbEntity
  8
1
  6
Continuous
100
AcDbCircle
 10
390.0599209999999
 20
158.0734459999999
 30
0.0
 40
3.799999999999998
  0
LINE
  5
A033
330
9F3D
100
AcDbEntity
  8
1
  6
Continuous
100
AcDbLine
 10
385.059921
 20
160.786695
 30
0.0
 11
390.0599209999999
 21
163.6734459999999
 31
0.0
  0
LINE
  5
A034
330
9F3D
100
AcDbEntity
  8
1
  6
Continuous
100
AcDbLine
 10
385.059921
 20
155.360197
 30
0.0
 11
390.0599209999999
 21
152.4734459999999
 31
0.0
  0
LINE
  5
A035
330
9F3D
100
AcDbEntity
  8
1
  6
Continuous
100
AcDbLine
 10
395.059921
 20
155.360197
 30
0.0
 11
395.059921
 21
160.786695
 31
0.0
  0
LINE
  5
A036
330
9F3D
100
AcDbEntity
  8
1
  6
Continuous
100
AcDbLine
 10
395.059921
 20
160.786695
 30
0.0
 11
390.0599209999999
 21
163.6734459999999
 31
0.0
  0
LINE
  5
A037
330
9F3D
100
AcDbEntity
  8
1
  6
Continuous
100
AcDbLine
 10
395.059921
 20
155.360197
 30
0.0
 11
390.0599209999999
 21
152.4734459999999
 31
0.0
  0
ARC
  5
A038
330
9F3D
100
AcDbEntity
  8
1
  6
Continuous
100
AcDbCircle
 10
147.559921
 20
40.470771
 30
0.0
 40
6.613208
100
AcDbArc
 50
67.78820500000001
 51
112.211795
  0
ARC
  5
A039
330
9F3D
100
AcDbEntity
  8
1
  6
Continuous
100
AcDbCircle
 10
142.559921
 20
40.470771
 30
0.0
 40
6.613208
100
AcDbArc
 50
67.78820500000001
 51
112.211795
  0
LINE
  5
A041
330
9F3D
100
AcDbEntity
  8
1
  6
Continuous
100
AcDbLine
 10
143.059921
 20
40.47539699999999
 30
0.0
 11
147.059921
 21
40.47539699999999
 31
0.0
  0
LINE
  5
A042
330
9F3D
100
AcDbEntity
  8
1
  6
Continuous
100
AcDbLine
 10
142.0599209999998
 20
41.47539699999999
 30
0.0
 11
148.059921
 21
41.47539699999999
 31
0.0
  0
LINE
  5
A043
330
9F3D
100
AcDbEntity
  8
1
  6
Continuous
100
AcDbLine
 10
147.059921
 20
40.47539699999999
 30
0.0
 11
148.059921
 21
41.47539699999999
 31
0.0
  0
LINE
  5
A044
330
9F3D
100
AcDbEntity
  8
1
  6
Continuous
100
AcDbLine
 10
148.059921
 20
41.47539699999999
 30
0.0
 11
148.059921
 21
42.47539699999999
 31
0.0
  0
LINE
  5
A045
330
9F3D
100
AcDbEntity
  8
2
  6
Continuous
100
AcDbLine
 10
147.5184209999999
 20
40.93389699999996
 30
0.0
 11
147.5184209999999
 21
42.47539699999999
 31
0.0
  0
LINE
  5
A046
330
9F3D
100
AcDbEntity
  8
1
  6
Continuous
100
AcDbLine
 10
143.059921
 20
40.47539699999999
 30
0.0
 11
142.0599209999998
 21
41.47539699999999
 31
0.0
  0
LINE
  5
A047
330
9F3D
100
AcDbEntity
  8
1
  6
Continuous
100
AcDbLine
 10
142.0599209999998
 20
41.47539699999999
 30
0.0
 11
142.0599209999998
 21
42.47539699999999
 31
0.0
  0
LINE
  5
A048
330
9F3D
100
AcDbEntity
  8
2
  6
Continuous
100
AcDbLine
 10
142.6014209999999
 20
40.93389699999996
 30
0.0
 11
142.6014209999999
 21
42.47539699999999
 31
0.0
  0
LINE
  5
A049
330
9F3D
100
AcDbEntity
  8
1
  6
Continuous
100
AcDbLine
 10
67.05485300000001
 20
161.534262
 30
0.0
 11
67.05485300000001
 21
154.61263
 31
0.0
  0
ARC
  5
A04A
330
9F3D
100
AcDbEntity
  8
1
  6
Continuous
100
AcDbCircle
 10
65.061329
 20
154.7734469999998
 30
0.0
 40
2.0
100
AcDbArc
 50
270.0000179999999
 51
0.05792
  0
LINE
  5
A04B
330
9F3D
100
AcDbEntity
  8
1
  6
Continuous
100
AcDbLine
 10
64.56335
 20
152.773447
 30
0.0
 11
65.061329
 21
152.773447
 31
0.0
  0
LINE
  5
A04C
330
9F3D
100
AcDbEntity
  8
1
  6
Continuous
100
AcDbLine
 10
148.519892
 20
79.56845
 30
0.0
 11
141.59995
 21
79.56845
 31
0.0
  0
ARC
  5
A04D
330
9F3D
100
AcDbEntity
  8
1
  6
Continuous
100
AcDbCircle
 10
148.35992
 20
77.57485799999997
 30
0.0
 40
2.0
100
AcDbArc
 50
0.000018
 51
94.77346899999997
  0
LINE
  5
A04E
330
9F3D
100
AcDbEntity
  8
1
  6
Continuous
100
AcDbLine
 10
150.35992
 20
77.076879
 30
0.0
 11
150.35992
 21
77.57485799999997
 31
0.0
  0
LINE
  5
A04F
330
9F3D
100
AcDbEntity
  8
4
  6
CENTER
 48
0.8
100
AcDbLine
 10
267.5599209999999
 20
212.57345
 30
0.0
 11
267.5599209999999
 21
120.5734459999999
 31
0.0
  0
LINE
  5
A050
330
9F3D
100
AcDbEntity
  8
4
  6
CENTER
 48
0.8
100
AcDbLine
 10
294.1579889999998
 20
158.0734459999999
 30
0.0
 11
245.061846
 21
158.0734459999999
 31
0.0
  0
LINE
  5
A051
330
9F3D
100
AcDbEntity
  8
1
  6
Continuous
100
AcDbLine
 10
283.5599209999998
 20
201.4734489999999
 30
0.0
 11
251.5599209999999
 21
201.4734489999999
 31
0.0
  0
LINE
  5
A052
330
9F3D
100
AcDbEntity
  8
1
  6
Continuous
100
AcDbLine
 10
252.5704499999999
 20
149.5734459999999
 30
0.0
 11
254.5704569999998
 21
149.5734459999999
 31
0.0
  0
LINE
  5
A053
330
9F3D
100
AcDbEntity
  8
1
  6
Continuous
100
AcDbLine
 10
284.3599239999998
 20
202.273447
 30
0.0
 11
250.759917
 21
202.273447
 31
0.0
  0
LINE
  5
A054
330
9F3D
100
AcDbEntity
  8
1
  6
Continuous
100
AcDbLine
 10
288.5599209999998
 20
205.57345
 30
0.0
 11
246.559921
 21
205.57345
 31
0.0
  0
LINE
  5
A055
330
9F3D
100
AcDbEntity
  8
1
  6
Continuous
100
AcDbLine
 10
288.5599209999998
 20
207.57345
 30
0.0
 11
246.559921
 21
207.57345
 31
0.0
  0
LINE
  5
A056
330
9F3D
100
AcDbEntity
  8
1
  6
Continuous
100
AcDbLine
 10
280.5493849999999
 20
149.5734459999999
 30
0.0
 11
280.5493849999999
 21
194.32992
 31
0.0
  0
LINE
  5
A057
330
9F3D
100
AcDbEntity
  8
1
  6
Continuous
100
AcDbLine
 10
254.5704569999998
 20
149.5734459999999
 30
0.0
 11
254.5704569999998
 21
194.32992
 31
0.0
  0
LINE
  5
A058
330
9F3D
100
AcDbEntity
  8
1
  6
Continuous
100
AcDbLine
 10
282.5493919999999
 20
149.5734459999999
 30
0.0
 11
282.5493919999999
 21
164.120295
 31
0.0
  0
LINE
  5
A059
330
9F3D
100
AcDbEntity
  8
1
  6
Continuous
100
AcDbLine
 10
283.0347899999998
 20
155.0734459999999
 30
0.0
 11
286.1579889999998
 21
155.0734459999999
 31
0.0
  0
LINE
  5
A05A
330
9F3D
100
AcDbEntity
  8
1
  6
Continuous
100
AcDbLine
 10
282.957992
 20
152.473448
 30
0.0
 11
286.1579889999998
 21
152.473448
 31
0.0
  0
LINE
  5
A05B
330
9F3D
100
AcDbEntity
  8
1
  6
Continuous
100
AcDbLine
 10
282.957992
 20
161.0734459999999
 30
0.0
 11
286.1579889999998
 21
161.0734459999999
 31
0.0
  0
LINE
  5
A05C
330
9F3D
100
AcDbEntity
  8
1
  6
Continuous
100
AcDbLine
 10
282.957992
 20
163.6734449999998
 30
0.0
 11
286.1579889999998
 21
163.6734449999998
 31
0.0
  0
ARC
  5
A05D
330
9F3D
100
AcDbEntity
  8
1
  6
Continuous
100
AcDbCircle
 10
284.245491
 20
162.3734489999999
 30
0.0
 40
2.312498999999998
100
AcDbArc
 50
325.79457
 51
34.20545
  0
LINE
  5
A05E
330
9F3D
100
AcDbEntity
  8
1
  6
Continuous
100
AcDbLine
 10
287.1579889999998
 20
161.8734719999999
 30
0.0
 11
286.1579889999998
 21
163.673441
 31
0.0
  0
LINE
  5
A05F
330
9F3D
100
AcDbEntity
  8
2
  6
Continuous
100
AcDbLine
 10
288.699489
 20
155.614946
 30
0.0
 11
287.1579889999998
 21
155.614946
 31
0.0
  0
LINE
  5
A060
330
9F3D
100
AcDbEntity
  8
2
  6
Continuous
100
AcDbLine
 10
288.699489
 20
160.531946
 30
0.0
 11
287.1579889999998
 21
160.531946
 31
0.0
  0
LINE
  5
A061
330
9F3D
100
AcDbEntity
  8
1
  6
Continuous
100
AcDbLine
 10
288.1579889999999
 20
155.0734459999999
 30
0.0
 11
287.1579889999998
 21
155.0734459999999
 31
0.0
  0
LINE
  5
A062
330
9F3D
100
AcDbEntity
  8
1
  6
Continuous
100
AcDbLine
 10
288.1579889999999
 20
161.0734459999999
 30
0.0
 11
287.1579889999998
 21
161.0734459999999
 31
0.0
  0
LINE
  5
A063
330
9F3D
100
AcDbEntity
  8
1
  6
Continuous
100
AcDbLine
 10
289.157989
 20
156.0734459999999
 30
0.0
 11
288.1579889999999
 21
155.0734459999999
 31
0.0
  0
LINE
  5
A064
330
9F3D
100
AcDbEntity
  8
1
  6
Continuous
100
AcDbLine
 10
289.157989
 20
160.0734459999999
 30
0.0
 11
288.1579889999999
 21
161.0734459999999
 31
0.0
  0
LINE
  5
A065
330
9F3D
100
AcDbEntity
  8
1
  6
Continuous
100
AcDbLine
 10
288.1579889999999
 20
161.0734459999999
 30
0.0
 11
288.1579889999999
 21
155.0734459999999
 31
0.0
  0
LINE
  5
A066
330
9F3D
100
AcDbEntity
  8
1
  6
Continuous
100
AcDbLine
 10
289.157989
 20
160.0734459999999
 30
0.0
 11
289.157989
 21
156.0734459999999
 31
0.0
  0
ARC
  5
A067
330
9F3D
100
AcDbEntity
  8
1
  6
Continuous
100
AcDbCircle
 10
284.245491
 20
153.7734509999999
 30
0.0
 40
2.312498999999998
100
AcDbArc
 50
325.79457
 51
34.20545
  0
ARC
  5
A068
330
9F3D
100
AcDbEntity
  8
1
  6
Continuous
100
AcDbCircle
 10
275.107994
 20
158.0734459999999
 30
0.0
 40
11.44999799999999
100
AcDbArc
 50
344.8107499999999
 51
15.18927
  0
LINE
  5
A069
330
9F3D
100
AcDbEntity
  8
1
  6
Continuous
100
AcDbLine
 10
287.1579889999998
 20
154.273371
 30
0.0
 11
286.1579889999998
 21
152.473448
 31
0.0
  0
LINE
  5
A06A
330
9F3D
100
AcDbEntity
  8
1
  6
Continuous
100
AcDbLine
 10
287.1579889999998
 20
161.873449
 30
0.0
 11
287.1579889999998
 21
154.273451
 31
0.0
  0
ARC
  5
A06B
330
9F3D
100
AcDbEntity
  8
1
  6
Continuous
100
AcDbCircle
 10
284.870491
 20
162.3734489999999
 30
0.0
 40
2.3125
100
AcDbArc
 50
145.7945389999999
 51
214.2054499999999
  0
ARC
  5
A06C
330
9F3D
100
AcDbEntity
  8
1
  6
Continuous
100
AcDbCircle
 10
294.007991
 20
158.0734459999999
 30
0.0
 40
11.450001
100
AcDbArc
 50
164.8107149999999
 51
195.1892799999999
  0
ARC
  5
A06D
330
9F3D
100
AcDbEntity
  8
1
  6
Continuous
100
AcDbCircle
 10
284.870491
 20
153.7734429999999
 30
0.0
 40
2.3125
100
AcDbArc
 50
145.79459
 51
214.2055099999998
  0
LINE
  5
A06E
330
9F3D
100
AcDbEntity
  8
1
  6
Continuous
100
AcDbLine
 10
280.5546949999999
 20
154.8234459999999
 30
0.0
 11
279.5599209999999
 21
154.8234459999999
 31
0.0
  0
LINE
  5
A06F
330
9F3D
100
AcDbEntity
  8
1
  6
Continuous
100
AcDbLine
 10
280.5612709999999
 20
161.3234459999999
 30
0.0
 11
279.5599209999999
 21
161.3234459999999
 31
0.0
  0
LINE
  5
A070
330
9F3D
100
AcDbEntity
  8
1
  6
Continuous
100
AcDbLine
 10
282.5493919999999
 20
149.5734459999999
 30
0.0
 11
280.5493849999999
 21
149.5734459999999
 31
0.0
  0
LINE
  5
A071
330
9F3D
100
AcDbEntity
  8
1
  6
Continuous
100
AcDbLine
 10
255.559921
 20
154.8234459999999
 30
0.0
 11
254.565147
 21
154.8234459999999
 31
0.0
  0
LINE
  5
A072
330
9F3D
100
AcDbEntity
  8
1
  6
Continuous
100
AcDbLine
 10
255.559921
 20
161.3234459999999
 30
0.0
 11
254.5585739999999
 21
161.3234459999999
 31
0.0
  0
ARC
  5
A073
330
9F3D
100
AcDbEntity
  8
1
  6
Continuous
100
AcDbCircle
 10
283.5599209999998
 20
198.4734489999999
 30
0.0
 40
3.0
100
AcDbArc
 50
0.0
 51
90.0
  0
ARC
  5
A074
330
9F3D
100
AcDbEntity
  8
1
  6
Continuous
100
AcDbCircle
 10
284.3599239999998
 20
204.57345
 30
0.0
 40
2.299999999999998
100
AcDbArc
 50
270.00001
 51
348.97852
  0
LINE
  5
A075
330
9F3D
100
AcDbEntity
  8
1
  6
Continuous
100
AcDbLine
 10
288.5599209999998
 20
207.57345
 30
0.0
 11
288.5599209999998
 21
205.57345
 31
0.0
  0
ARC
  5
A076
330
9F3D
100
AcDbEntity
  8
1
  6
Continuous
100
AcDbCircle
 10
287.3099209999998
 20
205.0734499999999
 30
0.0
 40
0.5
100
AcDbArc
 50
89.99999100000001
 51
168.9784929999999
  0
LINE
  5
A077
330
9F3D
100
AcDbEntity
  8
1
  6
Continuous
100
AcDbLine
 10
286.617447
 20
204.133747
 30
0.0
 11
286.819084
 21
205.1690409999999
 31
0.0
  0
LINE
  5
A078
330
9F3D
100
AcDbEntity
  8
4
  6
CENTER
 48
0.8
100
AcDbLine
 10
253.5599209999999
 20
212.57345
 30
0.0
 11
253.5599209999999
 21
200.5734499999999
 31
0.0
  0
LINE
  5
A079
330
9F3D
100
AcDbEntity
  8
4
  6
CENTER
 48
0.8
100
AcDbLine
 10
281.5599209999998
 20
212.57345
 30
0.0
 11
281.5599209999998
 21
200.5734499999999
 31
0.0
  0
ARC
  5
A07A
330
9F3D
100
AcDbEntity
  8
1
  6
Continuous
100
AcDbCircle
 10
267.5599209999999
 20
202.6179519999999
 30
0.0
 40
1.984499999999996
100
AcDbArc
 50
324.7796999999998
 51
350.0029399999998
  0
ARC
  5
A07B
330
9F3D
100
AcDbEntity
  8
1
  6
Continuous
100
AcDbCircle
 10
275.0212399999999
 20
202.6179519999999
 30
0.0
 40
1.984499999999996
100
AcDbArc
 50
206.8632199999999
 51
215.2203199999999
  0
ARC
  5
A07C
330
9F3D
100
AcDbEntity
  8
1
  6
Continuous
100
AcDbCircle
 10
271.480545
 20
202.6179519999999
 30
0.0
 40
1.984499999999996
100
AcDbArc
 50
189.99695
 51
215.2203199999999
  0
ARC
  5
A07D
330
9F3D
100
AcDbEntity
  8
1
  6
Continuous
100
AcDbCircle
 10
280.3099209999999
 20
202.6179519999999
 30
0.0
 40
1.984499999999996
100
AcDbArc
 50
324.7796999999998
 51
350.0029399999998
  0
ARC
  5
A07E
330
9F3D
100
AcDbEntity
  8
1
  6
Continuous
100
AcDbCircle
 10
279.660507
 20
202.6179519999999
 30
0.0
 40
1.984499999999996
100
AcDbArc
 50
324.7796999999998
 51
350.0029399999998
  0
ARC
  5
A07F
330
9F3D
100
AcDbEntity
  8
1
  6
Continuous
100
AcDbCircle
 10
277.8389129999998
 20
202.6179519999999
 30
0.0
 40
1.984499999999996
100
AcDbArc
 50
324.7796999999998
 51
350.0029399999998
  0
ARC
  5
A080
330
9F3D
100
AcDbEntity
  8
1
  6
Continuous
100
AcDbCircle
 10
275.0212399999999
 20
202.6179519999999
 30
0.0
 40
1.984499999999996
100
AcDbArc
 50
324.7796999999998
 51
350.0029399999998
  0
ARC
  5
A081
330
9F3D
100
AcDbEntity
  8
1
  6
Continuous
100
AcDbCircle
 10
271.480545
 20
202.6179519999999
 30
0.0
 40
1.984499999999996
100
AcDbArc
 50
324.7796999999998
 51
350.0029599999999
  0
ARC
  5
A082
330
9F3D
100
AcDbEntity
  8
1
  6
Continuous
100
AcDbCircle
 10
284.374344
 20
205.0734119999999
 30
0.0
 40
2.799999999999998
100
AcDbArc
 50
268.3477899999999
 51
269.99998
  0
ARC
  5
A083
330
9F3D
100
AcDbEntity
  8
1
  6
Continuous
100
AcDbCircle
 10
260.098602
 20
202.6179519999999
 30
0.0
 40
1.984499999999996
100
AcDbArc
 50
189.99701
 51
215.2203199999999
  0
ARC
  5
A084
330
9F3D
100
AcDbEntity
  8
1
  6
Continuous
100
AcDbCircle
 10
263.639297
 20
202.6179519999999
 30
0.0
 40
1.984499999999996
100
AcDbArc
 50
189.99701
 51
215.2203199999999
  0
ARC
  5
A085
330
9F3D
100
AcDbEntity
  8
1
  6
Continuous
100
AcDbCircle
 10
255.459335
 20
202.6179519999999
 30
0.0
 40
1.984499999999996
100
AcDbArc
 50
189.99701
 51
215.22025
  0
ARC
  5
A086
330
9F3D
100
AcDbEntity
  8
1
  6
Continuous
100
AcDbCircle
 10
257.2809369999998
 20
202.6179519999999
 30
0.0
 40
1.984499999999996
100
AcDbArc
 50
189.99701
 51
215.22019
  0
ARC
  5
A087
330
9F3D
100
AcDbEntity
  8
1
  6
Continuous
100
AcDbCircle
 10
260.098602
 20
202.6179519999999
 30
0.0
 40
1.984499999999996
100
AcDbArc
 50
324.7796999999998
 51
333.13675
  0
ARC
  5
A088
330
9F3D
100
AcDbEntity
  8
1
  6
Continuous
100
AcDbCircle
 10
267.5599209999999
 20
202.6179519999999
 30
0.0
 40
1.984499999999996
100
AcDbArc
 50
189.99701
 51
215.2203199999999
  0
ARC
  5
A089
330
9F3D
100
AcDbEntity
  8
1
  6
Continuous
100
AcDbCircle
 10
263.639297
 20
202.6179519999999
 30
0.0
 40
1.984499999999996
100
AcDbArc
 50
324.7796999999998
 51
350.00301
  0
LINE
  5
A08A
330
9F3D
100
AcDbEntity
  8
1
  6
Continuous
100
AcDbLine
 10
252.5704499999999
 20
149.5734459999999
 30
0.0
 11
252.5704499999999
 21
164.120295
 31
0.0
  0
LINE
  5
A08B
330
9F3D
100
AcDbEntity
  8
1
  6
Continuous
100
AcDbLine
 10
248.559921
 20
198.4734489999999
 30
0.0
 11
248.559921
 21
183.744873
 31
0.0
  0
ARC
  5
A08C
330
9F3D
100
AcDbEntity
  8
1
  6
Continuous
100
AcDbCircle
 10
252.0585129999997
 20
161.373445
 30
0.0
 40
2.0
100
AcDbArc
 50
90.00001800000005
 51
180.0579199999999
  0
LINE
  5
A08D
330
9F3D
100
AcDbEntity
  8
1
  6
Continuous
100
AcDbLine
 10
250.064989
 20
161.534262
 30
0.0
 11
250.064989
 21
154.61263
 31
0.0
  0
LINE
  5
A08E
330
9F3D
100
AcDbEntity
  8
1
  6
Continuous
100
AcDbLine
 10
252.5564919999999
 20
152.773447
 30
0.0
 11
252.0585129999997
 21
152.773447
 31
0.0
  0
ARC
  5
A08F
330
9F3D
100
AcDbEntity
  8
1
  6
Continuous
100
AcDbCircle
 10
252.0585129999997
 20
154.7734469999998
 30
0.0
 40
2.0
100
AcDbArc
 50
179.94208
 51
269.9999819999998
  0
LINE
  5
A090
330
9F3D
100
AcDbEntity
  8
1
  6
Continuous
100
AcDbLine
 10
252.5564919999999
 20
163.373445
 30
0.0
 11
252.0585129999997
 21
163.373445
 31
0.0
  0
LINE
  5
A091
330
9F3D
100
AcDbEntity
  8
1
  6
Continuous
100
AcDbLine
 10
246.559921
 20
207.57345
 30
0.0
 11
246.559921
 21
205.57345
 31
0.0
  0
ARC
  5
A092
330
9F3D
100
AcDbEntity
  8
1
  6
Continuous
100
AcDbCircle
 10
251.5599209999999
 20
198.4734489999999
 30
0.0
 40
3.0
100
AcDbArc
 50
90.0
 51
180.0
  0
ARC
  5
A093
330
9F3D
100
AcDbEntity
  8
1
  6
Continuous
100
AcDbCircle
 10
254.809921
 20
202.6179519999999
 30
0.0
 40
1.984499999999996
100
AcDbArc
 50
189.99701
 51
215.22025
  0
ARC
  5
A094
330
9F3D
100
AcDbEntity
  8
1
  6
Continuous
100
AcDbCircle
 10
250.759918
 20
204.57345
 30
0.0
 40
2.299999999999998
100
AcDbArc
 50
191.02147
 51
269.99998
  0
ARC
  5
A095
330
9F3D
100
AcDbEntity
  8
1
  6
Continuous
100
AcDbCircle
 10
247.8099209999998
 20
205.0734499999999
 30
0.0
 40
0.5
100
AcDbArc
 50
11.02154
 51
90.00004500000001
  0
LINE
  5
A096
330
9F3D
100
AcDbEntity
  8
1
  6
Continuous
100
AcDbLine
 10
248.502342
 20
204.133735
 30
0.0
 11
248.300697
 21
205.1690289999998
 31
0.0
  0
LINE
  5
A097
330
9F3D
100
AcDbEntity
  8
1
  6
Continuous
100
AcDbLine
 10
251.3335839999998
 20
194.32992
 30
0.0
 11
283.7862579999998
 21
194.32992
 31
0.0
  0
LINE
  5
A098
330
9F3D
100
AcDbEntity
  8
1
  6
Continuous
100
AcDbLine
 10
286.5599209999998
 20
198.4734489999999
 30
0.0
 11
286.5599209999998
 21
183.744873
 31
0.0
  0
LINE
  5
A099
330
9F3D
100
AcDbEntity
  8
1
  6
Continuous
100
AcDbLine
 10
143.059921
 20
292.671503
 30
0.0
 11
147.059921
 21
292.671503
 31
0.0
  0
LINE
  5
A09A
330
9F3D
100
AcDbEntity
  8
1
  6
Continuous
100
AcDbLine
 10
147.059921
 20
292.671503
 30
0.0
 11
147.657974
 21
292.07345
 31
0.0
  0
LINE
  5
A09B
330
9F3D
100
AcDbEntity
  8
1
  6
Continuous
100
AcDbLine
 10
143.059921
 20
292.671503
 30
0.0
 11
142.4618679999998
 21
292.07345
 31
0.0
  0
LINE
  5
A09C
330
9F3D
100
AcDbEntity
  8
4
  6
CENTER
 48
0.8
100
AcDbLine
 10
390.0599209999999
 20
191.4662649999999
 30
0.0
 11
390.0599209999999
 21
120.5734459999999
 31
0.0
  0
LINE
  5
A09D
330
9F3D
100
AcDbEntity
  8
4
  6
CENTER
 48
0.8
100
AcDbLine
 10
352.5599209999999
 20
158.0734459999999
 30
0.0
 11
427.559921
 21
158.0734459999999
 31
0.0
  0
LINE
  5
A09E
330
9F3D
100
AcDbEntity
  8
1
  6
Continuous
100
AcDbLine
 10
382.0599209999999
 20
201.4734489999999
 30
0.0
 11
350.0599209999998
 21
201.4734489999999
 31
0.0
  0
LINE
  5
A09F
330
9F3D
100
AcDbEntity
  8
1
  6
Continuous
100
AcDbLine
 10
355.7098689999999
 20
194.027858
 30
0.0
 11
347.0599209999999
 21
194.32992
 31
0.0
  0
LINE
  5
A0A0
330
9F3D
100
AcDbEntity
  8
1
  6
Continuous
100
AcDbLine
 10
382.8599239999999
 20
202.273447
 30
0.0
 11
349.2599169999999
 21
202.273447
 31
0.0
  0
LINE
  5
A0A1
330
9F3D
100
AcDbEntity
  8
1
  6
Continuous
100
AcDbLine
 10
401.0599209999998
 20
205.57345
 30
0.0
 11
331.0599209999998
 21
205.57345
 31
0.0
  0
LINE
  5
A0A2
330
9F3D
100
AcDbEntity
  8
1
  6
Continuous
100
AcDbLine
 10
401.0599209999998
 20
207.57345
 30
0.0
 11
331.0599209999998
 21
207.57345
 31
0.0
  0
LINE
  5
A0A3
330
9F3D
100
AcDbEntity
  8
1
  6
Continuous
100
AcDbLine
 10
362.323262
 20
190.0938039999997
 30
0.0
 11
383.9963029999998
 21
153.2692889999998
 31
0.0
  0
LINE
  5
A0A4
330
9F3D
100
AcDbEntity
  8
1
  6
Continuous
100
AcDbLine
 10
395.155163
 20
194.792005
 30
0.0
 11
397.938963
 21
157.6337569999997
 31
0.0
  0
LINE
  5
A0A5
330
9F3D
100
AcDbEntity
  8
1
  6
Continuous
100
AcDbLine
 10
378.4599229999998
 20
198.7967629999999
 30
0.0
 11
378.4599229999998
 21
166.391594
 31
0.0
  0
LINE
  5
A0A6
330
9F3D
100
AcDbEntity
  8
4
  6
CENTER
 48
0.8
100
AcDbLine
 10
366.0599209999999
 20
212.57345
 30
0.0
 11
366.0599209999999
 21
178.1804979999997
 31
0.0
  0
ARC
  5
A0A7
330
9F3D
100
AcDbEntity
  8
1
  6
Continuous
100
AcDbCircle
 10
390.459923
 20
157.0734459999999
 30
0.0
 40
7.5
100
AcDbArc
 50
210.47892
 51
4.284449999999996
  0
LINE
  5
A0A8
330
9F3D
100
AcDbEntity
  8
1
  6
Continuous
100
AcDbLine
 10
398.259922
 20
196.275405
 30
0.0
 11
380.781479
 21
199.3573259999998
 31
0.0
  0
LINE
  5
A0A9
330
9F3D
100
AcDbEntity
  8
4
  6
CENTER
 48
0.8
100
AcDbLine
 10
394.0599209999999
 20
200.5734499999999
 30
0.0
 11
394.0599209999999
 21
212.57345
 31
0.0
  0
LINE
  5
A0AA
330
9F3D
100
AcDbEntity
  8
1
  6
Continuous
100
AcDbLine
 10
401.0599209999998
 20
205.5734579999999
 30
0.0
 11
401.0599209999998
 21
207.5734579999999
 31
0.0
  0
LINE
  5
A0AB
330
9F3D
100
AcDbEntity
  8
1
  6
Continuous
100
AcDbLine
 10
398.2599159999999
 20
196.275404
 30
0.0
 11
397.9126199999998
 21
194.305787
 31
0.0
  0
ARC
  5
A0AC
330
9F3D
100
AcDbEntity
  8
1
  6
Continuous
100
AcDbCircle
 10
382.0599209999999
 20
198.4734489999999
 30
0.0
 40
3.0
100
AcDbArc
 50
0.0
 51
90.0
  0
ARC
  5
A0AD
330
9F3D
100
AcDbEntity
  8
1
  6
Continuous
100
AcDbCircle
 10
382.8599239999999
 20
204.57345
 30
0.0
 40
2.299999999999998
100
AcDbArc
 50
270.00001
 51
348.97852
  0
ARC
  5
A0AE
330
9F3D
100
AcDbEntity
  8
1
  6
Continuous
100
AcDbCircle
 10
382.874344
 20
205.0734119999999
 30
0.0
 40
2.799999999999998
100
AcDbArc
 50
268.3477899999999
 51
269.99998
  0
ARC
  5
A0AF
330
9F3D
100
AcDbEntity
  8
1
  6
Continuous
100
AcDbCircle
 10
385.8099209999999
 20
205.0734499999999
 30
0.0
 40
0.5
100
AcDbArc
 50
89.99999100000001
 51
168.9784929999999
  0
LINE
  5
A0B0
330
9F3D
100
AcDbEntity
  8
1
  6
Continuous
100
AcDbLine
 10
395.330141
 20
196.7920039999999
 30
0.0
 11
395.155163
 21
194.792005
 31
0.0
  0
LINE
  5
A0B1
330
9F3D
100
AcDbEntity
  8
1
  6
Continuous
100
AcDbLine
 10
397.912628
 20
194.3057889999998
 30
0.0
 11
395.1551609999999
 21
194.792005
 31
0.0
  0
LINE
  5
A0B2
330
9F3D
100
AcDbEntity
  8
1
  6
Continuous
100
AcDbLine
 10
385.1174919999999
 20
204.133742
 30
0.0
 11
385.319135
 21
205.169037
 31
0.0
  0
ARC
  5
A0B3
330
9F3D
100
AcDbEntity
  8
1
  6
Continuous
100
AcDbCircle
 10
369.9805449999999
 20
202.6179519999999
 30
0.0
 40
1.984499999999996
100
AcDbArc
 50
189.99695
 51
215.22025
  0
ARC
  5
A0B4
330
9F3D
100
AcDbEntity
  8
1
  6
Continuous
100
AcDbCircle
 10
378.8099209999999
 20
202.6179519999999
 30
0.0
 40
1.984499999999996
100
AcDbArc
 50
324.77977
 51
350.0029399999998
  0
ARC
  5
A0B5
330
9F3D
100
AcDbEntity
  8
1
  6
Continuous
100
AcDbCircle
 10
378.1605069999998
 20
202.6179519999999
 30
0.0
 40
1.984499999999996
100
AcDbArc
 50
324.77977
 51
350.00293
  0
ARC
  5
A0B6
330
9F3D
100
AcDbEntity
  8
1
  6
Continuous
100
AcDbCircle
 10
376.3389049999998
 20
202.6179519999999
 30
0.0
 40
1.984499999999996
100
AcDbArc
 50
324.77977
 51
350.0029399999998
  0
ARC
  5
A0B7
330
9F3D
100
AcDbEntity
  8
1
  6
Continuous
100
AcDbCircle
 10
373.5212399999999
 20
202.6179519999999
 30
0.0
 40
1.984499999999996
100
AcDbArc
 50
324.77977
 51
350.0029399999998
  0
ARC
  5
A0B8
330
9F3D
100
AcDbEntity
  8
1
  6
Continuous
100
AcDbCircle
 10
366.0599209999999
 20
202.6179519999999
 30
0.0
 40
1.984499999999996
100
AcDbArc
 50
324.77977
 51
350.0029399999998
  0
ARC
  5
A0B9
330
9F3D
100
AcDbEntity
  8
1
  6
Continuous
100
AcDbCircle
 10
369.9805449999999
 20
202.6179519999999
 30
0.0
 40
1.984499999999996
100
AcDbArc
 50
324.77977
 51
350.0029599999999
  0
ARC
  5
A0BA
330
9F3D
100
AcDbEntity
  8
1
  6
Continuous
100
AcDbCircle
 10
373.5212399999999
 20
202.6179519999999
 30
0.0
 40
1.984499999999996
100
AcDbArc
 50
206.8632199999999
 51
215.22025
  0
ARC
  5
A0BB
330
9F3D
100
AcDbEntity
  8
1
  6
Continuous
100
AcDbCircle
 10
355.430679
 20
186.032733
 30
0.0
 40
8.0
100
AcDbArc
 50
30.47891
 51
87.99996799999998
  0
ARC
  5
A0BC
330
9F3D
100
AcDbEntity
  8
1
  6
Continuous
100
AcDbCircle
 10
358.598602
 20
202.6179519999999
 30
0.0
 40
1.984499999999996
100
AcDbArc
 50
189.99701
 51
215.22025
  0
ARC
  5
A0BD
330
9F3D
100
AcDbEntity
  8
1
  6
Continuous
100
AcDbCircle
 10
362.139297
 20
202.6179519999999
 30
0.0
 40
1.984499999999996
100
AcDbArc
 50
189.99701
 51
215.22025
  0
ARC
  5
A0BE
330
9F3D
100
AcDbEntity
  8
1
  6
Continuous
100
AcDbCircle
 10
353.3099209999999
 20
202.6179519999999
 30
0.0
 40
1.984499999999996
100
AcDbArc
 50
189.99701
 51
215.2203199999999
  0
ARC
  5
A0BF
330
9F3D
100
AcDbEntity
  8
1
  6
Continuous
100
AcDbCircle
 10
353.959335
 20
202.6179519999999
 30
0.0
 40
1.984499999999996
100
AcDbArc
 50
189.99701
 51
215.22025
  0
ARC
  5
A0C0
330
9F3D
100
AcDbEntity
  8
1
  6
Continuous
100
AcDbCircle
 10
355.780937
 20
202.6179519999999
 30
0.0
 40
1.984499999999996
100
AcDbArc
 50
189.99701
 51
215.22025
  0
ARC
  5
A0C1
330
9F3D
100
AcDbEntity
  8
1
  6
Continuous
100
AcDbCircle
 10
358.598602
 20
202.6179519999999
 30
0.0
 40
1.984499999999996
100
AcDbArc
 50
324.77977
 51
333.13675
  0
ARC
  5
A0C2
330
9F3D
100
AcDbEntity
  8
1
  6
Continuous
100
AcDbCircle
 10
366.0599209999999
 20
202.6179519999999
 30
0.0
 40
1.984499999999996
100
AcDbArc
 50
189.99701
 51
215.22025
  0
ARC
  5
A0C3
330
9F3D
100
AcDbEntity
  8
1
  6
Continuous
100
AcDbCircle
 10
362.139297
 20
202.6179519999999
 30
0.0
 40
1.984499999999996
100
AcDbArc
 50
324.77977
 51
350.00301
  0
LINE
  5
A0C4
330
9F3D
100
AcDbEntity
  8
4
  6
CENTER
 48
0.8
100
AcDbLine
 10
338.0599209999998
 20
200.5734499999999
 30
0.0
 11
338.0599209999998
 21
212.57345
 31
0.0
  0
LINE
  5
A0C5
330
9F3D
100
AcDbEntity
  8
1
  6
Continuous
100
AcDbLine
 10
331.0599209999998
 20
205.5734419999998
 30
0.0
 11
331.0599209999998
 21
207.57345
 31
0.0
  0
ARC
  5
A0C6
330
9F3D
100
AcDbEntity
  8
1
  6
Continuous
100
AcDbCircle
 10
350.0599209999998
 20
198.4734489999999
 30
0.0
 40
3.0
100
AcDbArc
 50
90.0
 51
180.0
  0
LINE
  5
A0C7
330
9F3D
100
AcDbEntity
  8
1
  6
Continuous
100
AcDbLine
 10
347.0599209999999
 20
198.4734489999999
 30
0.0
 11
347.0599209999999
 21
194.32992
 31
0.0
  0
ARC
  5
A0C8
330
9F3D
100
AcDbEntity
  8
1
  6
Continuous
100
AcDbCircle
 10
346.3099209999999
 20
205.0734499999999
 30
0.0
 40
0.5
100
AcDbArc
 50
11.021507
 51
90.00000900000001
  0
ARC
  5
A0C9
330
9F3D
100
AcDbEntity
  8
1
  6
Continuous
100
AcDbCircle
 10
349.259918
 20
204.57345
 30
0.0
 40
2.299999999999998
100
AcDbArc
 50
191.02147
 51
269.99998
  0
LINE
  5
A0CA
330
9F3D
100
AcDbEntity
  8
1
  6
Continuous
100
AcDbLine
 10
347.0023649999998
 20
204.133734
 30
0.0
 11
346.80072
 21
205.1690279999998
 31
0.0
  0
ARC
  5
A0CB
330
9F3D
100
AcDbEntity
  8
1
  6
Continuous
100
AcDbCircle
 10
298.5793049999998
 20
183.744873
 30
0.0
 40
50.019384
100
AcDbArc
 50
169.701121
 51
203.100145
  0
ARC
  5
A0CC
330
9F3D
100
AcDbEntity
  8
1
  6
Continuous
100
AcDbCircle
 10
236.5405379999999
 20
183.744873
 30
0.0
 40
50.019384
100
AcDbArc
 50
336.899855
 51
10.298879
  0
ARC
  5
A0CD
330
9F3D
100
AcDbEntity
  8
1
  6
Continuous
100
AcDbCircle
 10
236.5405379999999
 20
183.744873
 30
0.0
 40
48.019384
100
AcDbArc
 50
336.899855
 51
12.734456
  0
ARC
  5
A0CE
330
9F3D
100
AcDbEntity
  8
1
  6
Continuous
100
AcDbCircle
 10
298.5793049999998
 20
183.744873
 30
0.0
 40
48.019384
100
AcDbArc
 50
167.2655439999997
 51
203.100145
  0
ARC
  5
A0CF
330
9F3D
100
AcDbEntity
  8
1
  6
Continuous
100
AcDbCircle
 10
283.7862579999998
 20
192.3299199999999
 30
0.0
 40
2.0
100
AcDbArc
 50
10.298879
 51
90.0
  0
ARC
  5
A0D0
330
9F3D
100
AcDbEntity
  8
1
  6
Continuous
100
AcDbCircle
 10
251.3335839999998
 20
192.3299199999999
 30
0.0
 40
2.0
100
AcDbArc
 50
90.0
 51
169.701121
  0
ARC
  5
A0D1
330
9F3D
100
AcDbEntity
  8
1
  6
Continuous
100
AcDbCircle
 10
156.083019
 20
81.062921
 30
0.0
 40
4.0
100
AcDbArc
 50
270.0
 51
304.3476679999999
  0
ARC
  5
A0D2
330
9F3D
100
AcDbEntity
  8
1
  6
Continuous
100
AcDbCircle
 10
156.083009
 20
81.06291400000001
 30
0.0
 40
6.0
100
AcDbArc
 50
270.0
 51
304.3476989999998
  0
ARC
  5
A0D3
330
9F3D
100
AcDbEntity
  8
1
  6
Continuous
100
AcDbCircle
 10
156.083009
 20
43.08398599999999
 30
0.0
 40
6.0
100
AcDbArc
 50
55.652301
 51
90.0
  0
ARC
  5
A0D4
330
9F3D
100
AcDbEntity
  8
1
  6
Continuous
100
AcDbCircle
 10
156.083019
 20
43.083979
 30
0.0
 40
4.0
100
AcDbArc
 50
55.65233199999998
 51
90.0
  0
LINE
  5
A0D5
330
9F3D
100
AcDbEntity
  8
1
  6
Continuous
100
AcDbLine
 10
175.3634679999999
 20
51.57345
 30
0.0
 11
114.756374
 21
51.57345
 31
0.0
  0
LINE
  5
A0D6
330
9F3D
100
AcDbEntity
  8
1
  6
Continuous
100
AcDbLine
 10
175.3634679999999
 20
72.57344999999998
 30
0.0
 11
114.756374
 21
72.57344999999998
 31
0.0
  0
ARC
  5
A0D7
330
9F3D
100
AcDbEntity
  8
1
  6
Continuous
100
AcDbCircle
 10
145.059921
 20
158.0734459999999
 30
0.0
 40
32.5
100
AcDbArc
 50
99.64599900000001
 51
45.884135
  0
ARC
  5
A0D8
330
9F3D
100
AcDbEntity
  8
1
  6
Continuous
100
AcDbCircle
 10
145.059921
 20
158.0734459999999
 30
0.0
 40
27.0
100
AcDbArc
 50
102.560593
 51
43.03419799999999
  0
ARC
  5
A0D9
330
9F3D
100
AcDbEntity
  8
1
  6
Continuous
100
AcDbCircle
 10
127.8476899999999
 20
142.073786
 30
0.0
 40
3.5
100
AcDbArc
 50
119.9999999999999
 51
222.9090699999999
  0
LINE
  5
A0DA
330
9F3D
100
AcDbEntity
  8
1
  6
Continuous
100
AcDbLine
 10
124.3476899999997
 20
148.1359649999999
 30
0.0
 11
133.9037209999997
 21
153.6531379999999
 31
0.0
  0
LINE
  5
A0DB
330
9F3D
100
AcDbEntity
  8
1
  6
Continuous
100
AcDbLine
 10
152.605972
 20
73.62447199999998
 30
0.0
 11
152.7137699999999
 21
72.57344599999997
 31
0.0
  0
LINE
  5
A0DC
330
9F3D
100
AcDbEntity
  8
1
  6
Continuous
100
AcDbLine
 10
137.5138699999999
 20
73.62447199999998
 30
0.0
 11
137.4060719999999
 21
72.57344599999997
 31
0.0
  0
ARC
  5
A0DD
330
9F3D
100
AcDbEntity
  8
1
  6
Continuous
100
AcDbCircle
 10
117.559921
 20
62.07345
 30
0.0
 40
60.0
100
AcDbArc
 50
351.1500459999999
 51
8.850930999999997
  0
ARC
  5
A0DE
330
9F3D
100
AcDbEntity
  8
1
  6
Continuous
100
AcDbCircle
 10
175.3634679999999
 20
53.07345
 30
0.0
 40
1.5
100
AcDbArc
 50
269.99998
 51
351.15018
  0
ARC
  5
A0DF
330
9F3D
100
AcDbEntity
  8
1
  6
Continuous
100
AcDbCircle
 10
175.3634679999999
 20
71.07344999999998
 30
0.0
 40
1.5
100
AcDbArc
 50
8.849759999999998
 51
89.99995000000001
  0
LINE
  5
A0E0
330
9F3D
100
AcDbEntity
  8
1
  6
Continuous
100
AcDbLine
 10
152.1085799999999
 20
50.07345
 30
0.0
 11
138.011262
 21
50.07345
 31
0.0
  0
ARC
  5
A0E1
330
9F3D
100
AcDbEntity
  8
1
  6
Continuous
100
AcDbCircle
 10
152.1085799999999
 20
50.57345
 30
0.0
 40
0.5
100
AcDbArc
 50
269.99998
 51
354.14352
  0
LINE
  5
A0E2
330
9F3D
100
AcDbEntity
  8
1
  6
Continuous
100
AcDbLine
 10
152.605971
 20
50.52241699999999
 30
0.0
 11
152.7137689999999
 21
51.57345
 31
0.0
  0
ARC
  5
A0E3
330
9F3D
100
AcDbEntity
  8
1
  6
Continuous
100
AcDbCircle
 10
138.011262
 20
50.57345
 30
0.0
 40
0.5
100
AcDbArc
 50
185.8564659999999
 51
270.00002
  0
LINE
  5
A0E4
330
9F3D
100
AcDbEntity
  8
1
  6
Continuous
100
AcDbLine
 10
137.5138709999999
 20
50.52241699999999
 30
0.0
 11
137.4060729999999
 21
51.57345
 31
0.0
  0
LINE
  5
A0E5
330
9F3D
100
AcDbEntity
  8
1
  6
Continuous
100
AcDbLine
 10
152.1085799999999
 20
74.07344999999998
 30
0.0
 11
138.011262
 21
74.07344999999998
 31
0.0
  0
ARC
  5
A0E6
330
9F3D
100
AcDbEntity
  8
1
  6
Continuous
100
AcDbCircle
 10
152.1085799999999
 20
73.57344999999998
 30
0.0
 40
0.5
100
AcDbArc
 50
5.85639
 51
89.99995000000001
  0
ARC
  5
A0E7
330
9F3D
100
AcDbEntity
  8
1
  6
Continuous
100
AcDbCircle
 10
138.011262
 20
73.57344999999998
 30
0.0
 40
0.5
100
AcDbArc
 50
90.00005499999994
 51
174.1436069999998
  0
ARC
  5
A0E8
330
9F3D
100
AcDbEntity
  8
1
  6
Continuous
100
AcDbCircle
 10
122.597694
 20
151.167055
 30
0.0
 40
3.5
100
AcDbArc
 50
197.0909699999999
 51
299.9999799999999
  0
LINE
  5
A0E9
330
9F3D
100
AcDbEntity
  8
1
  6
Continuous
100
AcDbLine
 10
156.6222149999999
 20
154.862049
 30
0.0
 11
153.217782
 21
156.8276029999998
 31
0.0
  0
ARC
  5
A0EA
330
9F3D
100
AcDbEntity
  8
1
  6
Continuous
100
AcDbCircle
 10
145.059921
 20
158.0734459999999
 30
0.0
 40
12.0
100
AcDbArc
 50
315.5225199999998
 51
344.4775499999999
  0
LINE
  5
A0EB
330
9F3D
100
AcDbEntity
  8
1
  6
Continuous
100
AcDbLine
 10
164.0221399999998
 20
145.1048669999998
 30
0.0
 11
154.466118
 21
150.6220439999998
 31
0.0
  0
LINE
  5
A0EC
330
9F3D
100
AcDbEntity
  8
1
  6
Continuous
100
AcDbLine
 10
165.7721399999998
 20
148.135959
 30
0.0
 11
156.2161179999999
 21
153.6531359999998
 31
0.0
  0
LINE
  5
A0ED
330
9F3D
100
AcDbEntity
  8
1
  6
Continuous
100
AcDbLine
 10
126.0976899999999
 20
145.1048759999999
 30
0.0
 11
135.6537169999997
 21
150.622049
 31
0.0
  0
LINE
  5
A0EE
330
9F3D
100
AcDbEntity
  8
1
  6
Continuous
100
AcDbLine
 10
136.4976159999999
 20
149.6658959999997
 30
0.0
 11
139.654232
 21
151.4883679999998
 31
0.0
  0
LINE
  5
A0EF
330
9F3D
100
AcDbEntity
  8
1
  6
Continuous
100
AcDbLine
 10
133.4976159999999
 20
154.862049
 30
0.0
 11
137.1605409999999
 21
156.9768399999998
 31
0.0
  0
ARC
  5
A0F0
330
9F3D
100
AcDbEntity
  8
1
  6
Continuous
100
AcDbCircle
 10
145.059921
 20
158.0734459999999
 30
0.0
 40
12.0
100
AcDbArc
 50
195.5225199999999
 51
224.4775399999999
  0
LINE
  5
A0F1
330
9F3D
100
AcDbEntity
  8
1
  6
Continuous
100
AcDbLine
 10
153.6222229999999
 20
149.6658919999999
 30
0.0
 11
149.9684649999998
 21
151.775395
 31
0.0
  0
ARC
  5
A0F2
330
9F3D
100
AcDbEntity
  8
1
  6
Continuous
100
AcDbCircle
 10
162.2721399999998
 20
142.073779
 30
0.0
 40
3.5
100
AcDbArc
 50
317.09098
 51
59.999988
  0
ARC
  5
A0F3
330
9F3D
100
AcDbEntity
  8
1
  6
Continuous
100
AcDbCircle
 10
167.5221479999999
 20
151.1670419999999
 30
0.0
 40
3.5
100
AcDbArc
 50
240.00002
 51
342.9090899999998
  0
ARC
  5
A0F4
330
9F3D
100
AcDbEntity
  8
1
  6
Continuous
100
AcDbCircle
 10
114.756374
 20
53.07345
 30
0.0
 40
1.5
100
AcDbArc
 50
188.8498309999999
 51
270.00002
  0
ARC
  5
A0F5
330
9F3D
100
AcDbEntity
  8
1
  6
Continuous
100
AcDbCircle
 10
114.756374
 20
71.07344999999998
 30
0.0
 40
1.5
100
AcDbArc
 50
90.00005499999994
 51
171.1502429999999
  0
ARC
  5
A0F6
330
9F3D
100
AcDbEntity
  8
1
  6
Continuous
100
AcDbCircle
 10
172.559921
 20
62.07345
 30
0.0
 40
60.0
100
AcDbArc
 50
171.1490689999999
 51
188.8499539999999
  0
ARC
  5
A0F7
330
9F3D
100
AcDbEntity
  8
1
  6
Continuous
100
AcDbCircle
 10
49.559921
 20
130.5734459999999
 30
0.0
 40
60.0
100
AcDbArc
 50
81.14906899999999
 51
98.84995400000001
  0
ARC
  5
A0F8
330
9F3D
100
AcDbEntity
  8
1
  6
Continuous
100
AcDbCircle
 10
49.559921
 20
185.5734459999999
 30
0.0
 40
60.0
100
AcDbArc
 50
261.1500459999999
 51
278.850931
  0
LINE
  5
A0F9
330
9F3D
100
AcDbEntity
  8
1
  6
Continuous
100
AcDbLine
 10
39.059921
 20
127.7698989999999
 30
0.0
 11
39.059921
 21
188.3769929999999
 31
0.0
  0
ARC
  5
A0FA
330
9F3D
100
AcDbEntity
  8
1
  6
Continuous
100
AcDbCircle
 10
40.559921
 20
127.7698989999999
 30
0.0
 40
1.5
100
AcDbArc
 50
179.9999799999999
 51
261.1501799999999
  0
ARC
  5
A0FB
330
9F3D
100
AcDbEntity
  8
1
  6
Continuous
100
AcDbCircle
 10
38.059921
 20
165.122105
 30
0.0
 40
0.5
100
AcDbArc
 50
95.856466
 51
180.00002
  0
LINE
  5
A0FC
330
9F3D
100
AcDbEntity
  8
1
  6
Continuous
100
AcDbLine
 10
38.008888
 20
165.619496
 30
0.0
 11
39.059921
 21
165.727294
 31
0.0
  0
ARC
  5
A0FD
330
9F3D
100
AcDbEntity
  8
1
  6
Continuous
100
AcDbCircle
 10
38.059921
 20
151.024787
 30
0.0
 40
0.5
100
AcDbArc
 50
179.9999799999999
 51
264.14352
  0
LINE
  5
A0FE
330
9F3D
100
AcDbEntity
  8
1
  6
Continuous
100
AcDbLine
 10
38.008888
 20
150.527396
 30
0.0
 11
39.059921
 21
150.419598
 31
0.0
  0
LINE
  5
A0FF
330
9F3D
100
AcDbEntity
  8
1
  6
Continuous
100
AcDbLine
 10
37.559921
 20
151.024787
 30
0.0
 11
37.559921
 21
165.122105
 31
0.0
  0
ARC
  5
A100
330
9F3D
100
AcDbEntity
  8
1
  6
Continuous
100
AcDbCircle
 10
40.559921
 20
188.3769929999999
 30
0.0
 40
1.5
100
AcDbArc
 50
98.84983100000004
 51
180.00002
  0
LINE
  5
A101
330
9F3D
100
AcDbEntity
  8
1
  6
Continuous
100
AcDbLine
 10
60.059921
 20
127.7698989999999
 30
0.0
 11
60.059921
 21
188.3769929999999
 31
0.0
  0
ARC
  5
A102
330
9F3D
100
AcDbEntity
  8
1
  6
Continuous
100
AcDbCircle
 10
58.55992099999999
 20
127.7698989999999
 30
0.0
 40
1.5
100
AcDbArc
 50
278.8497599999999
 51
359.99995
  0
LINE
  5
A103
330
9F3D
100
AcDbEntity
  8
1
  6
Continuous
100
AcDbLine
 10
61.11094300000001
 20
165.619497
 30
0.0
 11
60.059917
 21
165.727295
 31
0.0
  0
ARC
  5
A104
330
9F3D
100
AcDbEntity
  8
1
  6
Continuous
100
AcDbCircle
 10
61.05992099999999
 20
165.122105
 30
0.0
 40
0.5
100
AcDbArc
 50
0.000055
 51
84.14360700000001
  0
LINE
  5
A105
330
9F3D
100
AcDbEntity
  8
1
  6
Continuous
100
AcDbLine
 10
61.11094300000001
 20
150.5273949999998
 30
0.0
 11
60.059917
 21
150.419597
 31
0.0
  0
ARC
  5
A106
330
9F3D
100
AcDbEntity
  8
1
  6
Continuous
100
AcDbCircle
 10
61.05992099999999
 20
151.024787
 30
0.0
 40
0.5
100
AcDbArc
 50
275.8563899999999
 51
359.99995
  0
LINE
  5
A107
330
9F3D
100
AcDbEntity
  8
1
  6
Continuous
100
AcDbLine
 10
61.55992099999998
 20
151.024787
 30
0.0
 11
61.55992099999998
 21
165.122105
 31
0.0
  0
ARC
  5
A108
330
9F3D
100
AcDbEntity
  8
1
  6
Continuous
100
AcDbCircle
 10
58.55992099999999
 20
188.3769929999999
 30
0.0
 40
1.5
100
AcDbArc
 50
0.000055
 51
81.15024299999998
  0
LINE
  5
A109
330
9F3D
100
AcDbEntity
  8
1
  6
Continuous
100
AcDbLine
 10
278.0599209999999
 20
127.7698989999999
 30
0.0
 11
278.0599209999999
 21
188.3769929999999
 31
0.0
  0
LINE
  5
A10A
330
9F3D
100
AcDbEntity
  8
1
  6
Continuous
100
AcDbLine
 10
257.0599209999999
 20
127.7698989999999
 30
0.0
 11
257.0599209999999
 21
188.3769929999999
 31
0.0
  0
ARC
  5
A10B
330
9F3D
100
AcDbEntity
  8
1
  6
Continuous
100
AcDbCircle
 10
267.5599209999999
 20
185.5734459999999
 30
0.0
 40
60.0
100
AcDbArc
 50
261.1500459999999
 51
278.850931
  0
ARC
  5
A10C
330
9F3D
100
AcDbEntity
  8
1
  6
Continuous
100
AcDbCircle
 10
258.5599209999999
 20
127.7698989999999
 30
0.0
 40
1.5
100
AcDbArc
 50
179.9999799999999
 51
261.1501799999999
  0
ARC
  5
A10D
330
9F3D
100
AcDbEntity
  8
1
  6
Continuous
100
AcDbCircle
 10
276.5599209999999
 20
127.7698989999999
 30
0.0
 40
1.5
100
AcDbArc
 50
278.8497599999999
 51
359.99995
  0
LINE
  5
A10E
330
9F3D
100
AcDbEntity
  8
1
  6
Continuous
100
AcDbLine
 10
255.559921
 20
151.024787
 30
0.0
 11
255.559921
 21
165.122105
 31
0.0
  0
LINE
  5
A10F
330
9F3D
100
AcDbEntity
  8
1
  6
Continuous
100
AcDbLine
 10
256.008888
 20
150.527396
 30
0.0
 11
257.0599209999999
 21
150.419598
 31
0.0
  0
ARC
  5
A110
330
9F3D
100
AcDbEntity
  8
1
  6
Continuous
100
AcDbCircle
 10
256.0599209999999
 20
151.024787
 30
0.0
 40
0.5
100
AcDbArc
 50
179.9999799999999
 51
264.14352
  0
LINE
  5
A111
330
9F3D
100
AcDbEntity
  8
1
  6
Continuous
100
AcDbLine
 10
256.008888
 20
165.619496
 30
0.0
 11
257.0599209999999
 21
165.727294
 31
0.0
  0
ARC
  5
A112
330
9F3D
100
AcDbEntity
  8
1
  6
Continuous
100
AcDbCircle
 10
256.0599209999999
 20
165.122105
 30
0.0
 40
0.5
100
AcDbArc
 50
95.856466
 51
180.00002
  0
LINE
  5
A113
330
9F3D
100
AcDbEntity
  8
1
  6
Continuous
100
AcDbLine
 10
279.5599209999999
 20
151.024787
 30
0.0
 11
279.5599209999999
 21
165.122105
 31
0.0
  0
ARC
  5
A114
330
9F3D
100
AcDbEntity
  8
1
  6
Continuous
100
AcDbCircle
 10
279.0599209999999
 20
151.024787
 30
0.0
 40
0.5
100
AcDbArc
 50
275.8563899999999
 51
359.99995
  0
LINE
  5
A115
330
9F3D
100
AcDbEntity
  8
1
  6
Continuous
100
AcDbLine
 10
279.110943
 20
150.5273949999998
 30
0.0
 11
278.0599169999999
 21
150.419597
 31
0.0
  0
ARC
  5
A116
330
9F3D
100
AcDbEntity
  8
1
  6
Continuous
100
AcDbCircle
 10
279.0599209999999
 20
165.122105
 30
0.0
 40
0.5
100
AcDbArc
 50
0.000055
 51
84.14360700000001
  0
LINE
  5
A117
330
9F3D
100
AcDbEntity
  8
1
  6
Continuous
100
AcDbLine
 10
279.110943
 20
165.619497
 30
0.0
 11
278.0599169999999
 21
165.727295
 31
0.0
  0
ARC
  5
A118
330
9F3D
100
AcDbEntity
  8
1
  6
Continuous
100
AcDbCircle
 10
267.5599209999999
 20
130.5734459999999
 30
0.0
 40
60.0
100
AcDbArc
 50
81.14906899999999
 51
98.84995400000001
  0
ARC
  5
A119
330
9F3D
100
AcDbEntity
  8
1
  6
Continuous
100
AcDbCircle
 10
258.5599209999999
 20
188.3769929999999
 30
0.0
 40
1.5
100
AcDbArc
 50
98.84983100000004
 51
180.00002
  0
ARC
  5
A11A
330
9F3D
100
AcDbEntity
  8
1
  6
Continuous
100
AcDbCircle
 10
276.5599209999999
 20
188.3769929999999
 30
0.0
 40
1.5
100
AcDbArc
 50
0.000055
 51
81.15024299999998
  0
ARC
  5
A11B
330
9F3D
100
AcDbEntity
  8
1
  6
Continuous
100
AcDbCircle
 10
100.9320109999999
 20
62.07344200000001
 30
0.0
 40
35.49999600000001
100
AcDbArc
 50
340.750833
 51
342.7960169999999
  0
ARC
  5
A11C
330
9F3D
100
AcDbEntity
  8
1
  6
Continuous
100
AcDbCircle
 10
100.9320109999999
 20
62.07344200000001
 30
0.0
 40
35.49999600000001
100
AcDbArc
 50
17.20401
 51
19.23307
  0
ARC
  5
A11D
330
9F3D
100
AcDbEntity
  8
1
  6
Continuous
100
AcDbCircle
 10
141.0599209999998
 20
76.073458
 30
0.0
 40
3.25
100
AcDbArc
 50
198.1156849999999
 51
217.980054
  0
LINE
  5
A11E
330
9F3D
100
AcDbEntity
  8
1
  6
Continuous
100
AcDbLine
 10
134.843655
 20
260.57345
 30
0.0
 11
114.756374
 21
260.57345
 31
0.0
  0
LINE
  5
A11F
330
9F3D
100
AcDbEntity
  8
1
  6
Continuous
100
AcDbLine
 10
134.84365
 20
281.5734499999998
 30
0.0
 11
114.756374
 21
281.5734499999998
 31
0.0
  0
ARC
  5
A120
330
9F3D
100
AcDbEntity
  8
1
  6
Continuous
100
AcDbCircle
 10
172.559921
 20
271.07345
 30
0.0
 40
60.0
100
AcDbArc
 50
171.1490689999999
 51
188.8499539999999
  0
ARC
  5
A121
330
9F3D
100
AcDbEntity
  8
1
  6
Continuous
100
AcDbCircle
 10
114.756374
 20
262.0734499999999
 30
0.0
 40
1.5
100
AcDbArc
 50
188.8498309999999
 51
270.00002
  0
ARC
  5
A122
330
9F3D
100
AcDbEntity
  8
1
  6
Continuous
100
AcDbCircle
 10
114.756374
 20
280.0734499999999
 30
0.0
 40
1.5
100
AcDbArc
 50
90.00005499999994
 51
171.1502429999999
  0
ARC
  5
A125
330
9F3D
100
AcDbEntity
  8
1
  6
Continuous
100
AcDbCircle
 10
390.0599209999999
 20
158.0734459999999
 30
0.0
 40
32.5
100
AcDbArc
 50
134.1158649999999
 51
80.35400099999998
  0
ARC
  5
A126
330
9F3D
100
AcDbEntity
  8
1
  6
Continuous
100
AcDbCircle
 10
390.0599209999999
 20
158.0734459999999
 30
0.0
 40
27.0
100
AcDbArc
 50
136.9658019999999
 51
77.43940699999997
  0
LINE
  5
A127
330
9F3D
100
AcDbEntity
  8
1
  6
Continuous
100
AcDbLine
 10
410.7721399999999
 20
148.135959
 30
0.0
 11
401.2161179999996
 21
153.6531359999998
 31
0.0
  0
LINE
  5
A128
330
9F3D
100
AcDbEntity
  8
1
  6
Continuous
100
AcDbLine
 10
409.0221399999999
 20
145.1048669999998
 30
0.0
 11
399.4661179999998
 21
150.6220439999998
 31
0.0
  0
ARC
  5
A129
330
9F3D
100
AcDbEntity
  8
1
  6
Continuous
100
AcDbCircle
 10
390.0599209999999
 20
158.0734459999999
 30
0.0
 40
12.0
100
AcDbArc
 50
315.5225199999998
 51
344.4775499999999
  0
LINE
  5
A12A
330
9F3D
100
AcDbEntity
  8
1
  6
Continuous
100
AcDbLine
 10
401.6222149999999
 20
154.862049
 30
0.0
 11
397.9593009999999
 21
156.976838
 31
0.0
  0
ARC
  5
A12B
330
9F3D
100
AcDbEntity
  8
1
  6
Continuous
100
AcDbCircle
 10
412.522148
 20
151.1670419999999
 30
0.0
 40
3.5
100
AcDbArc
 50
240.00002
 51
342.9090899999998
  0
ARC
  5
A12C
330
9F3D
100
AcDbEntity
  8
1
  6
Continuous
100
AcDbCircle
 10
407.2721399999998
 20
142.073779
 30
0.0
 40
3.5
100
AcDbArc
 50
317.09098
 51
59.999988
  0
LINE
  5
A12D
330
9F3D
100
AcDbEntity
  8
1
  6
Continuous
100
AcDbLine
 10
398.622223
 20
149.6658919999999
 30
0.0
 11
395.46561
 21
151.4883669999998
 31
0.0
  0
LINE
  5
A12E
330
9F3D
100
AcDbEntity
  8
1
  6
Continuous
100
AcDbLine
 10
371.0976899999999
 20
145.1048759999999
 30
0.0
 11
380.653717
 21
150.622049
 31
0.0
  0
LINE
  5
A12F
330
9F3D
100
AcDbEntity
  8
1
  6
Continuous
100
AcDbLine
 10
369.34769
 20
148.1359649999999
 30
0.0
 11
378.903721
 21
153.6531379999999
 31
0.0
  0
ARC
  5
A130
330
9F3D
100
AcDbEntity
  8
1
  6
Continuous
100
AcDbCircle
 10
372.8476899999998
 20
142.073786
 30
0.0
 40
3.5
100
AcDbArc
 50
119.9999999999999
 51
222.9090699999999
  0
ARC
  5
A131
330
9F3D
100
AcDbEntity
  8
1
  6
Continuous
100
AcDbCircle
 10
367.5976939999998
 20
151.167055
 30
0.0
 40
3.5
100
AcDbArc
 50
197.0909699999999
 51
299.9999799999999
  0
ARC
  5
A132
330
9F3D
100
AcDbEntity
  8
1
  6
Continuous
100
AcDbCircle
 10
390.0599209999999
 20
158.0734459999999
 30
0.0
 40
12.0
100
AcDbArc
 50
195.5225199999999
 51
224.4775399999999
  0
LINE
  5
A133
330
9F3D
100
AcDbEntity
  8
1
  6
Continuous
100
AcDbLine
 10
378.4976159999998
 20
154.862049
 30
0.0
 11
381.902059
 21
156.827605
 31
0.0
  0
LINE
  5
A134
330
9F3D
100
AcDbEntity
  8
1
  6
Continuous
100
AcDbLine
 10
381.497616
 20
149.6658959999997
 30
0.0
 11
385.151377
 21
151.775395
 31
0.0
  0
ENDSEC
  0
SECTION
  2
OBJECTS
  0
DICTIONARY
  5
9F2B
330
0
100
AcDbDictionary
281
     1
  3
ACAD_CIP_PREVIOUS_PRODUCT_INFO
350
A1B1
  3
ACAD_COLOR
350
A193
  3
ACAD_DETAILVIEWSTYLE
350
A1AC
  3
ACAD_GROUP
350
9F2C
  3
ACAD_LAYOUT
350
9F38
  3
ACAD_MATERIAL
350
A161
  3
ACAD_MLEADERSTYLE
350
A1A8
  3
ACAD_MLINESTYLE
350
9F35
  3
ACAD_PLOTSETTINGS
350
9F37
  3
ACAD_PLOTSTYLENAME
350
A15F
  3
ACAD_SCALELIST
350
A196
  3
ACAD_SECTIONVIEWSTYLE
350
A1AA
  3
ACAD_TABLESTYLE
350
A194
  3
ACAD_VISUALSTYLE
350
A17A
  3
ACDB_RECOMPOSE_DATA
350
A1CF
  3
AcDbVariableDictionary
350
A1C2
  3
DWGPROPS
350
A1D0
  0
DICTIONARY
  5
A1B2
330
9F2F
100
AcDbDictionary
280
     1
281
     1
  3
ADSK_XREC_LAYER_RECONCILED
360
A1B3
  0
DICTIONARY
  5
A1B4
330
9F45
100
AcDbDictionary
280
     1
281
     1
  3
ADSK_XREC_LAYER_RECONCILED
360
A1B5
  0
DICTIONARY
  5
A1B6
330
9F46
100
AcDbDictionary
280
     1
281
     1
  3
ADSK_XREC_LAYER_RECONCILED
360
A1B7
  0
DICTIONARY
  5
A1B8
330
9F47
100
AcDbDictionary
280
     1
281
     1
  3
ADSK_XREC_LAYER_RECONCILED
360
A1B9
  0
DICTIONARY
  5
A1BA
330
9F48
100
AcDbDictionary
280
     1
281
     1
  3
ADSK_XREC_LAYER_RECONCILED
360
A1BB
  0
DICTIONARY
  5
A1BC
330
9F49
100
AcDbDictionary
280
     1
281
     1
  3
ADSK_XREC_LAYER_RECONCILED
360
A1BD
  0
DICTIONARY
  5
A1BE
330
9F4A
100
AcDbDictionary
280
     1
281
     1
  3
ADSK_XREC_LAYER_RECONCILED
360
A1BF
  0
DICTIONARY
  5
A1C0
330
9F4B
100
AcDbDictionary
280
     1
281
     1
  3
ADSK_XREC_LAYER_RECONCILED
360
A1C1
  0
DICTIONARY
  5
A13F
330
9F3D
100
AcDbDictionary
281
     1
  3
ACAD_LAYOUTSELFREF
350
A15B
  0
DICTIONARY
  5
A13D
330
9F39
100
AcDbDictionary
281
     1
  3
ACAD_LAYOUTSELFREF
350
A15A
  0
XRECORD
  5
A1B1
102
{ACAD_REACTORS
330
9F2B
102
}
330
9F2B
100
AcDbXrecord
280
     1
300
ACDLT
300
2014
300
ACDLT_F_S
  0
DICTIONARY
  5
A193
102
{ACAD_REACTORS
330
9F2B
102
}
330
9F2B
100
AcDbDictionary
281
     1
  0
DICTIONARY
  5
A1AC
102
{ACAD_REACTORS
330
9F2B
102
}
330
9F2B
100
AcDbDictionary
281
     1
  3
Imperial24
350
A1AD
  0
DICTIONARY
  5
9F2C
102
{ACAD_REACTORS
330
9F2B
102
}
330
9F2B
100
AcDbDictionary
281
     1
  0
DICTIONARY
  5
9F38
102
{ACAD_REACTORS
330
9F2B
102
}
330
9F2B
100
AcDbDictionary
281
     1
  3
Model
350
A1AE
  3
レイアウト1
350
A1AF
  0
DICTIONARY
  5
A161
102
{ACAD_REACTORS
330
9F2B
102
}
330
9F2B
100
AcDbDictionary
281
     1
  3
ByBlock
350
A16A
  3
ByLayer
350
A162
  3
Global
350
A172
  0
DICTIONARY
  5
A1A8
102
{ACAD_REACTORS
330
9F2B
102
}
330
9F2B
100
AcDbDictionary
281
     1
  3
Standard
350
A1A9
  0
DICTIONARY
  5
9F35
102
{ACAD_REACTORS
330
9F2B
102
}
330
9F2B
100
AcDbDictionary
281
     1
  3
STANDARD
350
9F36
  0
DICTIONARY
  5
9F37
102
{ACAD_REACTORS
330
9F2B
102
}
330
9F2B
100
AcDbDictionary
281
     1
  0
ACDBDICTIONARYWDFLT
  5
A15F
102
{ACAD_REACTORS
330
9F2B
102
}
330
9F2B
100
AcDbDictionary
281
     1
  3
Normal
350
A160
100
AcDbDictionaryWithDefault
340
A160
  0
DICTIONARY
  5
A196
102
{ACAD_REACTORS
330
9F2B
102
}
330
9F2B
100
AcDbDictionary
281
     1
  3
A0
350
A197
  3
A1
350
A198
  3
A2
350
A199
  3
A3
350
A19A
  3
A4
350
A19B
  3
A5
350
A19C
  3
A6
350
A19D
  3
A7
350
A19E
  3
A8
350
A19F
  3
A9
350
A1A0
  3
B0
350
A1A1
  3
B1
350
A1A2
  3
B2
350
A1A3
  3
B3
350
A1A4
  3
B4
350
A1A5
  3
B5
350
A1A6
  3
B6
350
A1A7
  0
DICTIONARY
  5
A1AA
102
{ACAD_REACTORS
330
9F2B
102
}
330
9F2B
100
AcDbDictionary
281
     1
  3
Imperial24
350
A1AB
  0
DICTIONARY
  5
A194
102
{ACAD_REACTORS
330
9F2B
102
}
330
9F2B
100
AcDbDictionary
281
     1
  3
Standard
350
A195
  0
DICTIONARY
  5
A17A
102
{ACAD_REACTORS
330
9F2B
102
}
330
9F2B
100
AcDbDictionary
281
     1
  3
2dWireframe
350
A180
  3
Basic
350
A17F
  3
Brighten
350
A186
  3
ColorChange
350
A18A
  3
Conceptual
350
A183
  3
Dim
350
A185
  3
EdgeColorOff
350
A192
  3
Facepattern
350
A189
  3
Flat
350
A17B
  3
FlatWithEdges
350
A17C
  3
Gouraud
350
A17D
  3
GouraudWithEdges
350
A17E
  3
Hidden
350
A182
  3
JitterOff
350
A190
  3
Linepattern
350
A188
  3
OverhangOff
350
A191
  3
Realistic
350
A184
  3
Shaded
350
A18F
  3
Shaded with edges
350
A18E
  3
Shades of Gray
350
A18B
  3
Sketchy
350
A18C
  3
Thicken
350
A187
  3
Wireframe
350
A181
  3
X-Ray
350
A18D
  0
XRECORD
  5
A1CF
102
{ACAD_REACTORS
330
9F2B
102
}
330
9F2B
100
AcDbXrecord
280
     1
 90
        1
330
A195
  0
DICTIONARY
  5
A1C2
102
{ACAD_REACTORS
330
9F2B
102
}
330
9F2B
100
AcDbDictionary
281
     1
  3
CANNOSCALE
350
A1C7
  3
CMLEADERSTYLE
350
A1C4
  3
CTABLESTYLE
350
A1C3
  3
CVIEWDETAILSTYLE
350
A1C5
  3
CVIEWSECTIONSTYLE
350
A1C6
  3
DIMASSOC
350
A1CA
  3
INDEXCTL
350
A1C9
  3
SORTENTS
350
A1C8
  3
XCLIPFRAME
350
A1CB
  0
XRECORD
  5
A1D0
102
{ACAD_REACTORS
330
9F2B
102
}
330
9F2B
100
AcDbXrecord
280
     1
  1
DWGPROPS COOKIE
  2

  3

  4

  6

  7

  8
Yoshitsune
  9

300
=
301
=
302
=
303
=
304
=
305
=
306
=
307
=
308
=
309
=
 40
0.1549547106481481
 41
2451301.447129167
 42
2457192.690288773
  1

 90
        0
  0
XRECORD
  5
A1B3
102
{ACAD_REACTORS
330
A1B2
102
}
330
A1B2
100
AcDbXrecord
280
     1
290
     1
  0
XRECORD
  5
A1B5
102
{ACAD_REACTORS
330
A1B4
102
}
330
A1B4
100
AcDbXrecord
280
     1
290
     1
  0
XRECORD
  5
A1B7
102
{ACAD_REACTORS
330
A1B6
102
}
330
A1B6
100
AcDbXrecord
280
     1
290
     1
  0
XRECORD
  5
A1B9
102
{ACAD_REACTORS
330
A1B8
102
}
330
A1B8
100
AcDbXrecord
280
     1
290
     1
  0
XRECORD
  5
A1BB
102
{ACAD_REACTORS
330
A1BA
102
}
330
A1BA
100
AcDbXrecord
280
     1
290
     1
  0
XRECORD
  5
A1BD
102
{ACAD_REACTORS
330
A1BC
102
}
330
A1BC
100
AcDbXrecord
280
     1
290
     1
  0
XRECORD
  5
A1BF
102
{ACAD_REACTORS
330
A1BE
102
}
330
A1BE
100
AcDbXrecord
280
     1
290
     1
  0
XRECORD
  5
A1C1
102
{ACAD_REACTORS
330
A1C0
102
}
330
A1C0
100
AcDbXrecord
280
     1
290
     1
  0
XRECORD
  5
A15B
102
{ACAD_REACTORS
330
A13F
102
}
330
A13F
100
AcDbXrecord
280
     1
340
9F3D
  0
XRECORD
  5
A15A
102
{ACAD_REACTORS
330
A13D
102
}
330
A13D
100
AcDbXrecord
280
     1
340
9F39
  0
ACDBDETAILVIEWSTYLE
  5
A1AD
102
{ACAD_XDICTIONARY
360
A208
102
}
102
{ACAD_REACTORS
330
A1AC
102
}
330
A1AC
100
AcDbModelDocViewStyle
 70
     0
  3
Imperial24
290
     0
100
AcDbDetailViewStyle
 70
     0
 71
     0
 90
        3
 71
     1
340
9F30
 40
0.24
340
0
 40
0.24
300

 40
0.36
280
     3
 71
     2
340
9F34
 90
       25
 71
     3
340
9F30
 40
0.24
 90
        1
 40
0.75
 90
        1
300
%<\AcVar ViewType \f "%tc1">% %<\AcVar ViewDetailId>%\PSCALE %<\AcVar ViewScale \f "%sn">%
 71
     4
340
9F34
 90
       25
340
9F34
 90
       25
280
     0
  0
LAYOUT
  5
A1AE
102
{ACAD_XDICTIONARY
360
A20A
102
}
102
{ACAD_REACTORS
330
9F38
102
}
330
9F38
100
AcDbPlotSettings
  1

  2
Canon LBP9100C
  4

  6

 40
0.0
 41
0.0
 42
0.0
 43
0.0
 44
0.0
 45
0.0
 46
0.0
 47
0.0
 48
0.0
 49
0.0
140
0.0
141
0.0
142
1.0
143
1.0
 70
  1712
 72
     0
 73
     0
 74
     0
  7

 75
     0
147
1.0
148
0.0
149
0.0
100
AcDbLayout
  1
Model
 70
     1
 71
     0
 10
0.0
 20
0.0
 11
12.0
 21
9.0
 12
0.0
 22
0.0
 32
0.0
 14
0.0
 24
0.0
 34
0.0
 15
0.0
 25
0.0
 35
0.0
146
0.0
 13
0.0
 23
0.0
 33
0.0
 16
1.0
 26
0.0
 36
0.0
 17
0.0
 27
1.0
 37
0.0
 76
     0
330
9F3D
331
A159
  0
LAYOUT
  5
A1AF
102
{ACAD_XDICTIONARY
360
A20C
102
}
102
{ACAD_REACTORS
330
9F38
102
}
330
9F38
100
AcDbPlotSettings
  1

  2
Canon LBP9100C
  4

  6

 40
0.0
 41
0.0
 42
0.0
 43
0.0
 44
0.0
 45
0.0
 46
0.0
 47
0.0
 48
0.0
 49
0.0
140
0.0
141
0.0
142
1.0
143
1.0
 70
   688
 72
     0
 73
     0
 74
     5
  7

 75
    16
147
1.0
148
0.0
149
0.0
100
AcDbLayout
  1
レイアウト1
 70
     0
 71
     1
 10
0.0
 20
0.0
 11
420.0
 21
297.0
 12
0.0
 22
0.0
 32
0.0
 14
1.000000000000000E+20
 24
1.000000000000000E+20
 34
1.000000000000000E+20
 15
-1.000000000000000E+20
 25
-1.000000000000000E+20
 35
-1.000000000000000E+20
146
0.0
 13
0.0
 23
0.0
 33
0.0
 16
1.0
 26
0.0
 36
0.0
 17
0.0
 27
1.0
 37
0.0
 76
     0
330
9F39
  0
MATERIAL
  5
A16A
102
{ACAD_XDICTIONARY
360
A16B
102
}
102
{ACAD_REACTORS
330
A161
102
}
330
A161
100
AcDbMaterial
  1
ByBlock
 72
     0
 43
0.0208333333333333
 43
0.0
 43
0.0
 43
0.0
 43
0.0
 43
0.0208333333333333
 43
0.0
 43
0.0
 43
0.0
 43
0.0
 43
1.0
 43
0.0
 43
0.0
 43
0.0
 43
0.0
 43
1.0
 77
     0
 47
0.0208333333333333
 47
0.0
 47
0.0
 47
0.0
 47
0.0
 47
0.0208333333333333
 47
0.0
 47
0.0
 47
0.0
 47
0.0
 47
1.0
 47
0.0
 47
0.0
 47
0.0
 47
0.0
 47
1.0
171
     0
 49
0.0208333333333333
 49
0.0
 49
0.0
 49
0.0
 49
0.0
 49
0.0208333333333333
 49
0.0
 49
0.0
 49
0.0
 49
0.0
 49
1.0
 49
0.0
 49
0.0
 49
0.0
 49
0.0
 49
1.0
175
     0
142
0.0208333333333333
142
0.0
142
0.0
142
0.0
142
0.0
142
0.0208333333333333
142
0.0
142
0.0
142
0.0
142
0.0
142
1.0
142
0.0
142
0.0
142
0.0
142
0.0
142
1.0
179
     0
144
0.0208333333333333
144
0.0
144
0.0
144
0.0
144
0.0
144
0.0208333333333333
144
0.0
144
0.0
144
0.0
144
0.0
144
1.0
144
0.0
144
0.0
144
0.0
144
0.0
144
1.0
147
0.0208333333333333
147
0.0
147
0.0
147
0.0
147
0.0
147
0.0208333333333333
147
0.0
147
0.0
147
0.0
147
0.0
147
1.0
147
0.0
147
0.0
147
0.0
147
0.0
147
1.0
  0
MATERIAL
  5
A162
102
{ACAD_XDICTIONARY
360
A163
102
}
102
{ACAD_REACTORS
330
A161
102
}
330
A161
100
AcDbMaterial
  1
ByLayer
 72
     0
 43
0.0208333333333333
 43
0.0
 43
0.0
 43
0.0
 43
0.0
 43
0.0208333333333333
 43
0.0
 43
0.0
 43
0.0
 43
0.0
 43
1.0
 43
0.0
 43
0.0
 43
0.0
 43
0.0
 43
1.0
 77
     0
 47
0.0208333333333333
 47
0.0
 47
0.0
 47
0.0
 47
0.0
 47
0.0208333333333333
 47
0.0
 47
0.0
 47
0.0
 47
0.0
 47
1.0
 47
0.0
 47
0.0
 47
0.0
 47
0.0
 47
1.0
171
     0
 49
0.0208333333333333
 49
0.0
 49
0.0
 49
0.0
 49
0.0
 49
0.0208333333333333
 49
0.0
 49
0.0
 49
0.0
 49
0.0
 49
1.0
 49
0.0
 49
0.0
 49
0.0
 49
0.0
 49
1.0
175
     0
142
0.0208333333333333
142
0.0
142
0.0
142
0.0
142
0.0
142
0.0208333333333333
142
0.0
142
0.0
142
0.0
142
0.0
142
1.0
142
0.0
142
0.0
142
0.0
142
0.0
142
1.0
179
     0
144
0.0208333333333333
144
0.0
144
0.0
144
0.0
144
0.0
144
0.0208333333333333
144
0.0
144
0.0
144
0.0
144
0.0
144
1.0
144
0.0
144
0.0
144
0.0
144
0.0
144
1.0
147
0.0208333333333333
147
0.0
147
0.0
147
0.0
147
0.0
147
0.0208333333333333
147
0.0
147
0.0
147
0.0
147
0.0
147
1.0
147
0.0
147
0.0
147
0.0
147
0.0
147
1.0
  0
MATERIAL
  5
A172
102
{ACAD_XDICTIONARY
360
A173
102
}
102
{ACAD_REACTORS
330
A161
102
}
330
A161
100
AcDbMaterial
  1
Global
 72
     0
 43
0.0208333333333333
 43
0.0
 43
0.0
 43
0.0
 43
0.0
 43
0.0208333333333333
 43
0.0
 43
0.0
 43
0.0
 43
0.0
 43
1.0
 43
0.0
 43
0.0
 43
0.0
 43
0.0
 43
1.0
 77
     0
 47
0.0208333333333333
 47
0.0
 47
0.0
 47
0.0
 47
0.0
 47
0.0208333333333333
 47
0.0
 47
0.0
 47
0.0
 47
0.0
 47
1.0
 47
0.0
 47
0.0
 47
0.0
 47
0.0
 47
1.0
171
     0
 49
0.0208333333333333
 49
0.0
 49
0.0
 49
0.0
 49
0.0
 49
0.0208333333333333
 49
0.0
 49
0.0
 49
0.0
 49
0.0
 49
1.0
 49
0.0
 49
0.0
 49
0.0
 49
0.0
 49
1.0
175
     0
142
0.0208333333333333
142
0.0
142
0.0
142
0.0
142
0.0
142
0.0208333333333333
142
0.0
142
0.0
142
0.0
142
0.0
142
1.0
142
0.0
142
0.0
142
0.0
142
0.0
142
1.0
179
     0
144
0.0208333333333333
144
0.0
144
0.0
144
0.0
144
0.0
144
0.0208333333333333
144
0.0
144
0.0
144
0.0
144
0.0
144
1.0
144
0.0
144
0.0
144
0.0
144
0.0
144
1.0
147
0.0208333333333333
147
0.0
147
0.0
147
0.0
147
0.0
147
0.0208333333333333
147
0.0
147
0.0
147
0.0
147
0.0
147
1.0
147
0.0
147
0.0
147
0.0
147
0.0
147
1.0
  0
MLEADERSTYLE
  5
A1A9
102
{ACAD_REACTORS
330
A1A8
102
}
330
A1A8
100
AcDbMLeaderStyle
170
     2
171
     1
172
     0
 90
        2
 40
0.0
 41
0.0
173
     1
 91
-1056964608
340
9F32
 92
       -2
290
     1
 42
0.09
291
     1
 43
0.36
  3
Standard
 44
0.18
300

342
9F30
174
     1
178
     6
175
     1
176
     0
 93
-1056964608
 45
0.18
292
     0
297
     0
 46
0.18
 94
-1056964608
 47
1.0
 49
1.0
140
1.0
293
     1
141
0.0
294
     1
177
     0
142
1.0
295
     0
296
     0
143
0.125
1001
ACAD_MLEADERVER
1070
     2
  0
MLINESTYLE
  5
9F36
102
{ACAD_REACTORS
330
9F35
102
}
330
9F35
100
AcDbMlineStyle
  2
STANDARD
 70
     0
  3

 62
   256
 51
90.0
 52
90.0
 71
     2
 49
0.5
 62
   256
  6
BYLAYER
 49
-0.5
 62
   256
  6
BYLAYER
  0
ACDBPLACEHOLDER
  5
A160
102
{ACAD_REACTORS
330
A15F
102
}
330
A15F
  0
SCALE
  5
A197
102
{ACAD_REACTORS
330
A196
102
}
330
A196
100
AcDbScale
 70
     0
300
1:1
140
1.0
141
1.0
290
     1
  0
SCALE
  5
A198
102
{ACAD_REACTORS
330
A196
102
}
330
A196
100
AcDbScale
 70
     0
300
1/128" = 1'-0"
140
0.0078125
141
12.0
290
     0
  0
SCALE
  5
A199
102
{ACAD_REACTORS
330
A196
102
}
330
A196
100
AcDbScale
 70
     0
300
1/64" = 1'-0"
140
0.015625
141
12.0
290
     0
  0
SCALE
  5
A19A
102
{ACAD_REACTORS
330
A196
102
}
330
A196
100
AcDbScale
 70
     0
300
1/32" = 1'-0"
140
0.03125
141
12.0
290
     0
  0
SCALE
  5
A19B
102
{ACAD_REACTORS
330
A196
102
}
330
A196
100
AcDbScale
 70
     0
300
1/16" = 1'-0"
140
0.0625
141
12.0
290
     0
  0
SCALE
  5
A19C
102
{ACAD_REACTORS
330
A196
102
}
330
A196
100
AcDbScale
 70
     0
300
3/32" = 1'-0"
140
0.09375
141
12.0
290
     0
  0
SCALE
  5
A19D
102
{ACAD_REACTORS
330
A196
102
}
330
A196
100
AcDbScale
 70
     0
300
1/8" = 1'-0"
140
0.125
141
12.0
290
     0
  0
SCALE
  5
A19E
102
{ACAD_REACTORS
330
A196
102
}
330
A196
100
AcDbScale
 70
     0
300
3/16" = 1'-0"
140
0.1875
141
12.0
290
     0
  0
SCALE
  5
A19F
102
{ACAD_REACTORS
330
A196
102
}
330
A196
100
AcDbScale
 70
     0
300
1/4" = 1'-0"
140
0.25
141
12.0
290
     0
  0
SCALE
  5
A1A0
102
{ACAD_REACTORS
330
A196
102
}
330
A196
100
AcDbScale
 70
     0
300
3/8" = 1'-0"
140
0.375
141
12.0
290
     0
  0
SCALE
  5
A1A1
102
{ACAD_REACTORS
330
A196
102
}
330
A196
100
AcDbScale
 70
     0
300
1/2" = 1'-0"
140
0.5
141
12.0
290
     0
  0
SCALE
  5
A1A2
102
{ACAD_REACTORS
330
A196
102
}
330
A196
100
AcDbScale
 70
     0
300
3/4" = 1'-0"
140
0.75
141
12.0
290
     0
  0
SCALE
  5
A1A3
102
{ACAD_REACTORS
330
A196
102
}
330
A196
100
AcDbScale
 70
     0
300
1" = 1'-0"
140
1.0
141
12.0
290
     0
  0
SCALE
  5
A1A4
102
{ACAD_REACTORS
330
A196
102
}
330
A196
100
AcDbScale
 70
     0
300
1-1/2" = 1'-0"
140
1.5
141
12.0
290
     0
  0
SCALE
  5
A1A5
102
{ACAD_REACTORS
330
A196
102
}
330
A196
100
AcDbScale
 70
     0
300
3" = 1'-0"
140
3.0
141
12.0
290
     0
  0
SCALE
  5
A1A6
102
{ACAD_REACTORS
330
A196
102
}
330
A196
100
AcDbScale
 70
     0
300
6" = 1'-0"
140
6.0
141
12.0
290
     0
  0
SCALE
  5
A1A7
102
{ACAD_REACTORS
330
A196
102
}
330
A196
100
AcDbScale
 70
     0
300
1'-0" = 1'-0"
140
12.0
141
12.0
290
     0
  0
ACDBSECTIONVIEWSTYLE
  5
A1AB
102
{ACAD_XDICTIONARY
360
A206
102
}
102
{ACAD_REACTORS
330
A1AA
102
}
330
A1AA
100
AcDbModelDocViewStyle
 70
     0
  3
Imperial24
290
     0
100
AcDbSectionViewStyle
 70
     0
 71
     0
 90
       78
 71
     1
340
9F30
 40
0.24
340
0
340
0
 40
0.24
300
I, O, Q, S, X, Z
 40
0.48
 90
        3
 40
0.18
 90
        1
 71
     2
340
9F34
 90
       25
340
9F34
 90
       50
 40
0.24
 40
0.0
 40
0.24
 71
     3
340
9F30
 40
0.24
 90
        1
 40
0.75
 90
        1
300
%<\AcVar ViewType \f "%tc1">% %<\AcVar ViewSectionStartId>%-%<\AcVar ViewSectionEndId>%\PSCALE %<\AcVar ViewScale \f "%sn">%
 71
     4
300
ANSI31
 40
1.0
 90
        0
290
     0
290
     0
 90
        6
 40
0.0
 40
1.570796326794896
 40
0.2617993877991494
 40
1.308996938995747
 40
-0.2617993877991494
 40
1.832595714594046
  0
TABLESTYLE
  5
A195
102
{ACAD_XDICTIONARY
360
A1CD
102
}
102
{ACAD_REACTORS
330
A194
102
}
330
A194
100
AcDbTableStyle
  3
Standard
 70
     0
 71
     0
 40
0.06
 41
0.06
280
     0
281
     0
  7
STANDARD
140
0.18
170
     2
 62
     0
 63
     7
283
     0
274
    -2
284
     1
 64
     0
275
    -2
285
     1
 65
     0
276
    -2
286
     1
 66
     0
277
    -2
287
     1
 67
     0
278
    -2
288
     1
 68
     0
279
    -2
289
     1
 69
     0
  7
STANDARD
140
0.25
170
     5
 62
     0
 63
     7
283
     0
274
    -2
284
     1
 64
     0
275
    -2
285
     1
 65
     0
276
    -2
286
     1
 66
     0
277
    -2
287
     1
 67
     0
278
    -2
288
     1
 68
     0
279
    -2
289
     1
 69
     0
  7
STANDARD
140
0.18
170
     5
 62
     0
 63
     7
283
     0
274
    -2
284
     1
 64
     0
275
    -2
285
     1
 65
     0
276
    -2
286
     1
 66
     0
277
    -2
287
     1
 67
     0
278
    -2
288
     1
 68
     0
279
    -2
289
     1
 69
     0
  0
VISUALSTYLE
  5
A180
102
{ACAD_XDICTIONARY
360
A1DE
102
}
102
{ACAD_REACTORS
330
A17A
102
}
330
A17A
100
AcDbVisualStyle
  2
2dWireframe
 70
     4
 71
     0
 72
     2
 73
     0
 90
        0
 40
-0.6
 41
-30.0
 62
     5
 63
     7
 74
     1
 91
        4
 64
     7
 65
   257
 75
     1
175
     1
 42
1.0
 92
        0
 66
   257
 43
1.0
 76
     1
 77
     6
 78
     2
 67
     7
 79
     5
170
     0
171
     0
290
     0
174
     0
 93
        1
 44
0.0
173
     0
291
     0
 45
0.0
1001
ACAD
1000
AcDbSavedByObjectVersion
1070
     0
  0
VISUALSTYLE
  5
A17F
102
{ACAD_XDICTIONARY
360
A1DC
102
}
102
{ACAD_REACTORS
330
A17A
102
}
330
A17A
100
AcDbVisualStyle
  2
Basic
 70
     7
 71
     1
 72
     0
 73
     1
 90
        0
 40
-0.6
 41
-30.0
 62
     5
 63
     7
 74
     0
 91
        4
 64
     7
 65
   257
 75
     1
175
     1
 42
1.0
 92
        8
 66
     7
 43
1.0
 76
     1
 77
     6
 78
     2
 67
     7
 79
     5
170
     0
171
     0
290
     0
174
     0
 93
        1
 44
0.0
173
     0
291
     1
 45
0.0
1001
ACAD
1000
AcDbSavedByObjectVersion
1070
     0
  0
VISUALSTYLE
  5
A186
102
{ACAD_XDICTIONARY
360
A1EA
102
}
102
{ACAD_REACTORS
330
A17A
102
}
330
A17A
100
AcDbVisualStyle
  2
Brighten
 70
    12
 71
     2
 72
     2
 73
     0
 90
        0
 40
-0.6
 41
-30.0
 62
     5
 63
     7
 74
     1
 91
        4
 64
     7
 65
   257
 75
     1
175
     1
 42
1.0
 92
        8
 66
     7
 43
1.0
 76
     1
 77
     6
 78
     2
 67
     7
 79
     5
170
     0
171
     0
290
     0
174
     0
 93
        1
 44
50.0
173
     0
291
     1
 45
0.0
1001
ACAD
1000
AcDbSavedByObjectVersion
1070
     0
  0
VISUALSTYLE
  5
A18A
102
{ACAD_XDICTIONARY
360
A1F2
102
}
102
{ACAD_REACTORS
330
A17A
102
}
330
A17A
100
AcDbVisualStyle
  2
ColorChange
 70
    16
 71
     2
 72
     2
 73
     3
 90
        0
 40
-0.6
 41
-30.0
 62
     5
 63
     8
 74
     1
 91
        4
 64
     7
 65
   257
 75
     1
175
     1
 42
1.0
 92
        8
 66
     8
 43
1.0
 76
     1
 77
     6
 78
     2
 67
     7
 79
     5
170
     0
171
     0
290
     0
174
     0
 93
        1
 44
0.0
173
     0
291
     1
 45
0.0
1001
ACAD
1000
AcDbSavedByObjectVersion
1070
     0
  0
VISUALSTYLE
  5
A183
102
{ACAD_XDICTIONARY
360
A1E4
102
}
102
{ACAD_REACTORS
330
A17A
102
}
330
A17A
100
AcDbVisualStyle
  2
Conceptual
 70
     9
 71
     3
 72
     2
 73
     0
 90
        0
 40
-0.6
 41
-30.0
 62
     5
 63
     7
 74
     2
 91
        2
 64
     7
 65
   257
 75
     1
175
     1
 42
179.0
 92
        8
 66
     7
 43
1.0
 76
     1
 77
     6
 78
     2
 67
     7
 79
     3
170
     0
171
     0
290
     0
174
     0
 93
        1
 44
0.0
173
     0
291
     0
 45
0.0
1001
ACAD
1000
AcDbSavedByObjectVersion
1070
     0
  0
VISUALSTYLE
  5
A185
102
{ACAD_XDICTIONARY
360
A1E8
102
}
102
{ACAD_REACTORS
330
A17A
102
}
330
A17A
100
AcDbVisualStyle
  2
Dim
 70
    11
 71
     2
 72
     2
 73
     0
 90
        0
 40
-0.6
 41
-30.0
 62
     5
 63
     7
 74
     1
 91
        4
 64
     7
 65
   257
 75
     1
175
     1
 42
1.0
 92
        8
 66
     7
 43
1.0
 76
     1
 77
     6
 78
     2
 67
     7
 79
     5
170
     0
171
     0
290
     0
174
     0
 93
        1
 44
-50.0
173
     0
291
     1
 45
0.0
1001
ACAD
1000
AcDbSavedByObjectVersion
1070
     0
  0
VISUALSTYLE
  5
A192
102
{ACAD_XDICTIONARY
360
A202
102
}
102
{ACAD_REACTORS
330
A17A
102
}
330
A17A
100
AcDbVisualStyle
  2
EdgeColorOff
 70
    22
 71
     2
 72
     2
 73
     0
 90
        0
 40
-0.6
 41
-30.0
 62
     5
 63
     7
 74
     1
 91
        4
 64
     7
 65
   257
 75
     1
175
     1
 42
1.0
 92
        8
 66
     7
 43
1.0
 76
     1
 77
     6
 78
     2
 67
     7
 79
     5
170
     0
171
     0
290
     0
174
     0
 93
        1
 44
0.0
173
     0
291
     1
 45
0.0
1001
ACAD
1000
AcDbSavedByObjectVersion
1070
     0
  0
VISUALSTYLE
  5
A189
102
{ACAD_XDICTIONARY
360
A1F0
102
}
102
{ACAD_REACTORS
330
A17A
102
}
330
A17A
100
AcDbVisualStyle
  2
Facepattern
 70
    15
 71
     2
 72
     2
 73
     0
 90
        0
 40
-0.6
 41
-30.0
 62
     5
 63
     7
 74
     1
 91
        4
 64
     7
 65
   257
 75
     1
175
     1
 42
1.0
 92
        8
 66
     7
 43
1.0
 76
     1
 77
     6
 78
     2
 67
     7
 79
     5
170
     0
171
     0
290
     0
174
     0
 93
        1
 44
0.0
173
     0
291
     1
 45
0.0
1001
ACAD
1000
AcDbSavedByObjectVersion
1070
     0
  0
VISUALSTYLE
  5
A17B
102
{ACAD_XDICTIONARY
360
A1D4
102
}
102
{ACAD_REACTORS
330
A17A
102
}
330
A17A
100
AcDbVisualStyle
  2
Flat
 70
     0
 71
     2
 72
     1
 73
     1
 90
        2
 40
-0.6
 41
30.0
 62
     5
 63
     7
 74
     0
 91
        0
 64
     7
 65
   257
 75
     1
175
     1
 42
1.0
 92
        8
 66
     7
 43
1.0
 76
     1
 77
     6
 78
     2
 67
     7
 79
     5
170
     0
171
     0
290
     0
174
     0
 93
       13
 44
0.0
173
     0
291
     1
 45
0.0
1001
ACAD
1000
AcDbSavedByObjectVersion
1070
     0
  0
VISUALSTYLE
  5
A17C
102
{ACAD_XDICTIONARY
360
A1D6
102
}
102
{ACAD_REACTORS
330
A17A
102
}
330
A17A
100
AcDbVisualStyle
  2
FlatWithEdges
 70
     1
 71
     2
 72
     1
 73
     1
 90
        2
 40
-0.6
 41
30.0
 62
     5
 63
     7
 74
     1
 91
        0
 64
     7
 65
   257
 75
     1
175
     1
 42
1.0
 92
        0
 66
   257
 43
1.0
 76
     1
 77
     6
 78
     2
 67
     7
 79
     5
170
     0
171
     0
290
     0
174
     0
 93
       13
 44
0.0
173
     0
291
     1
 45
0.0
1001
ACAD
1000
AcDbSavedByObjectVersion
1070
     0
  0
VISUALSTYLE
  5
A17D
102
{ACAD_XDICTIONARY
360
A1D8
102
}
102
{ACAD_REACTORS
330
A17A
102
}
330
A17A
100
AcDbVisualStyle
  2
Gouraud
 70
     2
 71
     2
 72
     2
 73
     1
 90
        2
 40
-0.6
 41
30.0
 62
     5
 63
     7
 74
     0
 91
        0
 64
     7
 65
   257
 75
     1
175
     1
 42
1.0
 92
        0
 66
     7
 43
1.0
 76
     1
 77
     6
 78
     2
 67
     7
 79
     5
170
     0
171
     0
290
     0
174
     0
 93
       13
 44
0.0
173
     0
291
     1
 45
0.0
1001
ACAD
1000
AcDbSavedByObjectVersion
1070
     0
  0
VISUALSTYLE
  5
A17E
102
{ACAD_XDICTIONARY
360
A1DA
102
}
102
{ACAD_REACTORS
330
A17A
102
}
330
A17A
100
AcDbVisualStyle
  2
GouraudWithEdges
 70
     3
 71
     2
 72
     2
 73
     1
 90
        2
 40
-0.6
 41
30.0
 62
     5
 63
     7
 74
     1
 91
        0
 64
     7
 65
   257
 75
     1
175
     1
 42
1.0
 92
        0
 66
   257
 43
1.0
 76
     1
 77
     6
 78
     2
 67
     7
 79
     5
170
     0
171
     0
290
     0
174
     0
 93
       13
 44
0.0
173
     0
291
     1
 45
0.0
1001
ACAD
1000
AcDbSavedByObjectVersion
1070
     0
  0
VISUALSTYLE
  5
A182
102
{ACAD_XDICTIONARY
360
A1E2
102
}
102
{ACAD_REACTORS
330
A17A
102
}
330
A17A
100
AcDbVisualStyle
  2
Hidden
 70
     6
 71
     1
 72
     2
 73
     2
 90
        0
 40
-0.6
 41
-30.0
 62
     5
 63
     7
 74
     2
 91
        2
 64
     7
 65
   257
 75
     2
175
     1
 42
40.0
 92
        0
 66
   257
 43
1.0
 76
     1
 77
     6
 78
     2
 67
     7
 79
     3
170
     0
171
     0
290
     0
174
     0
 93
        1
 44
0.0
173
     0
291
     0
 45
0.0
1001
ACAD
1000
AcDbSavedByObjectVersion
1070
     0
  0
VISUALSTYLE
  5
A190
102
{ACAD_XDICTIONARY
360
A1FE
102
}
102
{ACAD_REACTORS
330
A17A
102
}
330
A17A
100
AcDbVisualStyle
  2
JitterOff
 70
    20
 71
     2
 72
     2
 73
     0
 90
        0
 40
-0.6
 41
-30.0
 62
     5
 63
     7
 74
     1
 91
        4
 64
     7
 65
   257
 75
     1
175
     1
 42
1.0
 92
       10
 66
     7
 43
1.0
 76
     1
 77
     6
 78
     2
 67
     7
 79
     5
170
     0
171
     0
290
     0
174
     0
 93
        1
 44
0.0
173
     0
291
     1
 45
0.0
1001
ACAD
1000
AcDbSavedByObjectVersion
1070
     0
  0
VISUALSTYLE
  5
A188
102
{ACAD_XDICTIONARY
360
A1EE
102
}
102
{ACAD_REACTORS
330
A17A
102
}
330
A17A
100
AcDbVisualStyle
  2
Linepattern
 70
    14
 71
     2
 72
     2
 73
     0
 90
        0
 40
-0.6
 41
-30.0
 62
     5
 63
     7
 74
     1
 91
        4
 64
     7
 65
   257
 75
     7
175
     7
 42
1.0
 92
        8
 66
     7
 43
1.0
 76
     1
 77
     6
 78
     2
 67
     7
 79
     5
170
     0
171
     0
290
     0
174
     0
 93
        1
 44
0.0
173
     0
291
     1
 45
0.0
1001
ACAD
1000
AcDbSavedByObjectVersion
1070
     0
  0
VISUALSTYLE
  5
A191
102
{ACAD_XDICTIONARY
360
A200
102
}
102
{ACAD_REACTORS
330
A17A
102
}
330
A17A
100
AcDbVisualStyle
  2
OverhangOff
 70
    21
 71
     2
 72
     2
 73
     0
 90
        0
 40
-0.6
 41
-30.0
 62
     5
 63
     7
 74
     1
 91
        4
 64
     7
 65
   257
 75
     1
175
     1
 42
1.0
 92
        9
 66
     7
 43
1.0
 76
     1
 77
     6
 78
     2
 67
     7
 79
     5
170
     0
171
     0
290
     0
174
     0
 93
        1
 44
0.0
173
     0
291
     1
 45
0.0
1001
ACAD
1000
AcDbSavedByObjectVersion
1070
     0
  0
VISUALSTYLE
  5
A184
102
{ACAD_XDICTIONARY
360
A1E6
102
}
102
{ACAD_REACTORS
330
A17A
102
}
330
A17A
100
AcDbVisualStyle
  2
Realistic
 70
     8
 71
     2
 72
     3
 73
     0
 90
        2
 40
-0.6
 41
30.0
 62
     5
 63
     7
 74
     0
 91
        0
 64
     7
 65
   257
 75
     1
175
     1
 42
1.0
 92
        8
 66
   257
 43
1.0
 76
     1
 77
     6
 78
     2
 67
     7
 79
     3
170
     0
171
     0
290
     0
174
     0
 93
       13
 44
0.0
173
     0
291
     0
 45
0.0
1001
ACAD
1000
AcDbSavedByObjectVersion
1070
     0
  0
VISUALSTYLE
  5
A18F
102
{ACAD_XDICTIONARY
360
A1FC
102
}
102
{ACAD_REACTORS
330
A17A
102
}
330
A17A
100
AcDbVisualStyle
  2
Shaded
 70
    27
 71
     2
 72
     2
 73
     1
 90
        2
 40
-0.6
 41
30.0
 62
     5
 63
     7
 74
     0
 91
        4
 64
     7
 65
   257
 75
     1
175
     1
 42
1.0
 92
        8
 66
   257
 43
1.0
 76
     1
 77
     6
 78
     2
 67
     8
 79
     3
170
     0
171
     0
290
     0
174
     0
 93
        5
 44
0.0
173
     0
291
     0
 45
0.0
1001
ACAD
1000
AcDbSavedByObjectVersion
1070
     0
  0
VISUALSTYLE
  5
A18E
102
{ACAD_XDICTIONARY
360
A1FA
102
}
102
{ACAD_REACTORS
330
A17A
102
}
330
A17A
100
AcDbVisualStyle
  2
Shaded with edges
 70
    26
 71
     2
 72
     2
 73
     1
 90
        2
 40
-0.6
 41
30.0
 62
     5
 63
     7
 74
     1
 91
       10
 64
     7
 65
   257
 75
     2
175
     1
 42
1.0
 92
        8
 66
   257
 43
1.0
 76
     1
 77
     6
 78
     2
 67
     7
 79
     3
170
     0
171
     0
290
     0
174
     0
 93
        5
 44
0.0
173
     0
291
     0
 45
0.0
1001
ACAD
1000
AcDbSavedByObjectVersion
1070
     0
  0
VISUALSTYLE
  5
A18B
102
{ACAD_XDICTIONARY
360
A1F4
102
}
102
{ACAD_REACTORS
330
A17A
102
}
330
A17A
100
AcDbVisualStyle
  2
Shades of Gray
 70
    23
 71
     2
 72
     2
 73
     3
 90
        0
 40
-0.6
 41
-30.0
 62
     5
 63
     7
 74
     2
 91
        2
 64
     7
 65
     7
 75
     1
175
     1
 42
40.0
 92
        8
 66
     7
 43
1.0
 76
     1
 77
     6
 78
     2
 67
     7
 79
     3
170
     0
171
     0
290
     0
174
     0
 93
        1
 44
0.0
173
     0
291
     0
 45
0.0
1001
ACAD
1000
AcDbSavedByObjectVersion
1070
     0
  0
VISUALSTYLE
  5
A18C
102
{ACAD_XDICTIONARY
360
A1F6
102
}
102
{ACAD_REACTORS
330
A17A
102
}
330
A17A
100
AcDbVisualStyle
  2
Sketchy
 70
    24
 71
     1
 72
     2
 73
     2
 90
        0
 40
-0.6
 41
-30.0
 62
     5
 63
     7
 74
     2
 91
        2
 64
     7
 65
     7
 75
     1
175
     1
 42
40.0
 92
       11
 66
     7
 43
1.0
 76
     1
 77
     6
 78
     2
 67
     7
 79
     6
170
     0
171
     0
290
     0
174
     0
 93
        1
 44
0.0
173
     0
291
     0
 45
0.0
1001
ACAD
1000
AcDbSavedByObjectVersion
1070
     0
  0
VISUALSTYLE
  5
A187
102
{ACAD_XDICTIONARY
360
A1EC
102
}
102
{ACAD_REACTORS
330
A17A
102
}
330
A17A
100
AcDbVisualStyle
  2
Thicken
 70
    13
 71
     2
 72
     2
 73
     0
 90
        0
 40
-0.6
 41
-30.0
 62
     5
 63
     7
 74
     1
 91
        4
 64
     7
 65
   257
 75
     1
175
     1
 42
1.0
 92
       12
 66
     7
 43
1.0
 76
     1
 77
     6
 78
     2
 67
     7
 79
     5
170
     0
171
     0
290
     0
174
     0
 93
        1
 44
0.0
173
     0
291
     1
 45
0.0
1001
ACAD
1000
AcDbSavedByObjectVersion
1070
     0
  0
VISUALSTYLE
  5
A181
102
{ACAD_XDICTIONARY
360
A1E0
102
}
102
{ACAD_REACTORS
330
A17A
102
}
330
A17A
100
AcDbVisualStyle
  2
Wireframe
 70
     5
 71
     0
 72
     2
 73
     0
 90
        0
 40
-0.6
 41
-30.0
 62
     5
 63
     7
 74
     1
 91
        4
 64
     7
 65
   257
 75
     1
175
     1
 42
1.0
 92
        0
 66
   257
 43
1.0
 76
     1
 77
     6
 78
     2
 67
     7
 79
     3
170
     0
171
     0
290
     0
174
     0
 93
        1
 44
0.0
173
     0
291
     0
 45
0.0
1001
ACAD
1000
AcDbSavedByObjectVersion
1070
     0
  0
VISUALSTYLE
  5
A18D
102
{ACAD_XDICTIONARY
360
A1F8
102
}
102
{ACAD_REACTORS
330
A17A
102
}
330
A17A
100
AcDbVisualStyle
  2
X-Ray
 70
    25
 71
     2
 72
     2
 73
     1
 90
        1
 40
0.5
 41
-30.0
 62
     5
 63
     7
 74
     1
 91
        0
 64
     7
 65
   257
 75
     1
175
     1
 42
1.0
 92
        8
 66
     7
 43
1.0
 76
     1
 77
     6
 78
     2
 67
     7
 79
     3
170
     0
171
     0
290
     0
174
     0
 93
       13
 44
0.0
173
     0
291
     0
 45
0.0
1001
ACAD
1000
AcDbSavedByObjectVersion
1070
     0
  0
DICTIONARYVAR
  5
A1C7
102
{ACAD_REACTORS
330
A1C2
102
}
330
A1C2
100
DictionaryVariables
280
     0
  1
1:1
  0
DICTIONARYVAR
  5
A1C4
102
{ACAD_REACTORS
330
A1C2
102
}
330
A1C2
100
DictionaryVariables
280
     0
  1
STANDARD
  0
DICTIONARYVAR
  5
A1C3
102
{ACAD_REACTORS
330
A1C2
102
}
330
A1C2
100
DictionaryVariables
280
     0
  1
STANDARD
  0
DICTIONARYVAR
  5
A1C5
102
{ACAD_REACTORS
330
A1C2
102
}
330
A1C2
100
DictionaryVariables
280
     0
  1
Imperial24
  0
DICTIONARYVAR
  5
A1C6
102
{ACAD_REACTORS
330
A1C2
102
}
330
A1C2
100
DictionaryVariables
280
     0
  1
Imperial24
  0
DICTIONARYVAR
  5
A1CA
102
{ACAD_REACTORS
330
A1C2
102
}
330
A1C2
100
DictionaryVariables
280
     0
  1
1
  0
DICTIONARYVAR
  5
A1C9
102
{ACAD_REACTORS
330
A1C2
102
}
330
A1C2
100
DictionaryVariables
280
     0
  1
0
  0
DICTIONARYVAR
  5
A1C8
102
{ACAD_REACTORS
330
A1C2
102
}
330
A1C2
100
DictionaryVariables
280
     0
  1
127
  0
DICTIONARYVAR
  5
A1CB
102
{ACAD_REACTORS
330
A1C2
102
}
330
A1C2
100
DictionaryVariables
280
     0
  1
2
  0
DICTIONARY
  5
A208
330
A1AD
100
AcDbDictionary
280
     1
281
     1
  3
ACAD_XREC_ROUNDTRIP
360
A209
  0
DICTIONARY
  5
A20A
330
A1AE
100
AcDbDictionary
280
     1
281
     1
  3
ACAD_XREC_ROUNDTRIP
360
A20B
  0
DICTIONARY
  5
A20C
330
A1AF
100
AcDbDictionary
280
     1
281
     1
  3
ACAD_XREC_ROUNDTRIP
360
A20D
  0
DICTIONARY
  5
A16B
330
A16A
100
AcDbDictionary
280
     1
281
     1
  3
ACAD_XREC_ROUNDTRIP
360
A1D2
  3
BUMPTILE
360
A16D
  3
DIFFUSETILE
360
A16C
  3
OPACITYTILE
360
A170
  3
REFLECTIONTILE
360
A16F
  3
REFRACTIONTILE
360
A171
  3
SPECULARTILE
360
A16E
  0
DICTIONARY
  5
A163
330
A162
100
AcDbDictionary
280
     1
281
     1
  3
ACAD_XREC_ROUNDTRIP
360
A1D1
  3
BUMPTILE
360
A165
  3
DIFFUSETILE
360
A164
  3
OPACITYTILE
360
A168
  3
REFLECTIONTILE
360
A167
  3
REFRACTIONTILE
360
A169
  3
SPECULARTILE
360
A166
  0
DICTIONARY
  5
A173
330
A172
100
AcDbDictionary
280
     1
281
     1
  3
ACAD_XREC_ROUNDTRIP
360
A1D3
  3
BUMPTILE
360
A175
  3
DIFFUSETILE
360
A174
  3
OPACITYTILE
360
A178
  3
REFLECTIONTILE
360
A177
  3
REFRACTIONTILE
360
A179
  3
SPECULARTILE
360
A176
  0
DICTIONARY
  5
A206
330
A1AB
100
AcDbDictionary
280
     1
281
     1
  3
ACAD_XREC_ROUNDTRIP
360
A207
  0
DICTIONARY
  5
A1CD
330
A195
100
AcDbDictionary
280
     1
281
     1
  3
ACAD_ROUNDTRIP_2008_TABLESTYLE_CELLSTYLEMAP
360
A1CE
  3
ACAD_XREC_ROUNDTRIP
360
A204
  0
DICTIONARY
  5
A1DE
330
A180
100
AcDbDictionary
280
     1
281
     1
  3
ACAD_XREC_ROUNDTRIP
360
A1DF
  0
DICTIONARY
  5
A1DC
330
A17F
100
AcDbDictionary
280
     1
281
     1
  3
ACAD_XREC_ROUNDTRIP
360
A1DD
  0
DICTIONARY
  5
A1EA
330
A186
100
AcDbDictionary
280
     1
281
     1
  3
ACAD_XREC_ROUNDTRIP
360
A1EB
  0
DICTIONARY
  5
A1F2
330
A18A
100
AcDbDictionary
280
     1
281
     1
  3
ACAD_XREC_ROUNDTRIP
360
A1F3
  0
DICTIONARY
  5
A1E4
330
A183
100
AcDbDictionary
280
     1
281
     1
  3
ACAD_XREC_ROUNDTRIP
360
A1E5
  0
DICTIONARY
  5
A1E8
330
A185
100
AcDbDictionary
280
     1
281
     1
  3
ACAD_XREC_ROUNDTRIP
360
A1E9
  0
DICTIONARY
  5
A202
330
A192
100
AcDbDictionary
280
     1
281
     1
  3
ACAD_XREC_ROUNDTRIP
360
A203
  0
DICTIONARY
  5
A1F0
330
A189
100
AcDbDictionary
280
     1
281
     1
  3
ACAD_XREC_ROUNDTRIP
360
A1F1
  0
DICTIONARY
  5
A1D4
330
A17B
100
AcDbDictionary
280
     1
281
     1
  3
ACAD_XREC_ROUNDTRIP
360
A1D5
  0
DICTIONARY
  5
A1D6
330
A17C
100
AcDbDictionary
280
     1
281
     1
  3
ACAD_XREC_ROUNDTRIP
360
A1D7
  0
DICTIONARY
  5
A1D8
330
A17D
100
AcDbDictionary
280
     1
281
     1
  3
ACAD_XREC_ROUNDTRIP
360
A1D9
  0
DICTIONARY
  5
A1DA
330
A17E
100
AcDbDictionary
280
     1
281
     1
  3
ACAD_XREC_ROUNDTRIP
360
A1DB
  0
DICTIONARY
  5
A1E2
330
A182
100
AcDbDictionary
280
     1
281
     1
  3
ACAD_XREC_ROUNDTRIP
360
A1E3
  0
DICTIONARY
  5
A1FE
330
A190
100
AcDbDictionary
280
     1
281
     1
  3
ACAD_XREC_ROUNDTRIP
360
A1FF
  0
DICTIONARY
  5
A1EE
330
A188
100
AcDbDictionary
280
     1
281
     1
  3
ACAD_XREC_ROUNDTRIP
360
A1EF
  0
DICTIONARY
  5
A200
330
A191
100
AcDbDictionary
280
     1
281
     1
  3
ACAD_XREC_ROUNDTRIP
360
A201
  0
DICTIONARY
  5
A1E6
330
A184
100
AcDbDictionary
280
     1
281
     1
  3
ACAD_XREC_ROUNDTRIP
360
A1E7
  0
DICTIONARY
  5
A1FC
330
A18F
100
AcDbDictionary
280
     1
281
     1
  3
ACAD_XREC_ROUNDTRIP
360
A1FD
  0
DICTIONARY
  5
A1FA
330
A18E
100
AcDbDictionary
280
     1
281
     1
  3
ACAD_XREC_ROUNDTRIP
360
A1FB
  0
DICTIONARY
  5
A1F4
330
A18B
100
AcDbDictionary
280
     1
281
     1
  3
ACAD_XREC_ROUNDTRIP
360
A1F5
  0
DICTIONARY
  5
A1F6
330
A18C
100
AcDbDictionary
280
     1
281
     1
  3
ACAD_XREC_ROUNDTRIP
360
A1F7
  0
DICTIONARY
  5
A1EC
330
A187
100
AcDbDictionary
280
     1
281
     1
  3
ACAD_XREC_ROUNDTRIP
360
A1ED
  0
DICTIONARY
  5
A1E0
330
A181
100
AcDbDictionary
280
     1
281
     1
  3
ACAD_XREC_ROUNDTRIP
360
A1E1
  0
DICTIONARY
  5
A1F8
330
A18D
100
AcDbDictionary
280
     1
281
     1
  3
ACAD_XREC_ROUNDTRIP
360
A1F9
  0
XRECORD
  5
A209
102
{ACAD_REACTORS
330
A208
102
}
330
A208
100
AcDbXrecord
280
     1
102
DISPLAYNAME
  1
Imperial24
102
FLAGS
 90
        0
  0
XRECORD
  5
A20B
102
{ACAD_REACTORS
330
A20A
102
}
330
A20A
100
AcDbXrecord
280
     1
102
SHADEPLOT
 70
     0
102
SHADEPLOTRESLEVEL
 70
     2
102
SHADEPLOTCUSTOMDPI
 70
   300
  0
XRECORD
  5
A20D
102
{ACAD_REACTORS
330
A20C
102
}
330
A20C
100
AcDbXrecord
280
     1
102
SHADEPLOT
 70
     0
102
SHADEPLOTRESLEVEL
 70
     2
102
SHADEPLOTCUSTOMDPI
 70
   300
  0
XRECORD
  5
A1D2
102
{ACAD_REACTORS
330
A16B
102
}
330
A16B
100
AcDbXrecord
280
     1
102
MATERIAL
148
0.0
149
0.0
149
0.0
 93
        0
 94
      127
282
     0
 72
     0
 77
     0
171
     0
175
     0
179
     0
273
     0
  0
XRECORD
  5
A16D
102
{ACAD_REACTORS
330
A16B
102
}
330
A16B
100
AcDbXrecord
280
     1
270
     1
271
     1
  0
XRECORD
  5
A16C
102
{ACAD_REACTORS
330
A16B
102
}
330
A16B
100
AcDbXrecord
280
     1
270
     1
271
     1
  0
XRECORD
  5
A170
102
{ACAD_REACTORS
330
A16B
102
}
330
A16B
100
AcDbXrecord
280
     1
270
     1
271
     1
  0
XRECORD
  5
A16F
102
{ACAD_REACTORS
330
A16B
102
}
330
A16B
100
AcDbXrecord
280
     1
270
     1
271
     1
  0
XRECORD
  5
A171
102
{ACAD_REACTORS
330
A16B
102
}
330
A16B
100
AcDbXrecord
280
     1
270
     1
271
     1
  0
XRECORD
  5
A16E
102
{ACAD_REACTORS
330
A16B
102
}
330
A16B
100
AcDbXrecord
280
     1
270
     1
271
     1
  0
XRECORD
  5
A1D1
102
{ACAD_REACTORS
330
A163
102
}
330
A163
100
AcDbXrecord
280
     1
102
MATERIAL
148
0.0
149
0.0
149
0.0
 93
        0
 94
      127
282
     0
 72
     0
 77
     0
171
     0
175
     0
179
     0
273
     0
  0
XRECORD
  5
A165
102
{ACAD_REACTORS
330
A163
102
}
330
A163
100
AcDbXrecord
280
     1
270
     1
271
     1
  0
XRECORD
  5
A164
102
{ACAD_REACTORS
330
A163
102
}
330
A163
100
AcDbXrecord
280
     1
270
     1
271
     1
  0
XRECORD
  5
A168
102
{ACAD_REACTORS
330
A163
102
}
330
A163
100
AcDbXrecord
280
     1
270
     1
271
     1
  0
XRECORD
  5
A167
102
{ACAD_REACTORS
330
A163
102
}
330
A163
100
AcDbXrecord
280
     1
270
     1
271
     1
  0
XRECORD
  5
A169
102
{ACAD_REACTORS
330
A163
102
}
330
A163
100
AcDbXrecord
280
     1
270
     1
271
     1
  0
XRECORD
  5
A166
102
{ACAD_REACTORS
330
A163
102
}
330
A163
100
AcDbXrecord
280
     1
270
     1
271
     1
  0
XRECORD
  5
A1D3
102
{ACAD_REACTORS
330
A173
102
}
330
A173
100
AcDbXrecord
280
     1
102
MATERIAL
148
0.0
149
0.0
149
0.0
 93
        0
 94
      127
282
     0
 72
     0
 77
     0
171
     0
175
     0
179
     0
273
     0
  0
XRECORD
  5
A175
102
{ACAD_REACTORS
330
A173
102
}
330
A173
100
AcDbXrecord
280
     1
270
     1
271
     1
  0
XRECORD
  5
A174
102
{ACAD_REACTORS
330
A173
102
}
330
A173
100
AcDbXrecord
280
     1
270
     1
271
     1
  0
XRECORD
  5
A178
102
{ACAD_REACTORS
330
A173
102
}
330
A173
100
AcDbXrecord
280
     1
270
     1
271
     1
  0
XRECORD
  5
A177
102
{ACAD_REACTORS
330
A173
102
}
330
A173
100
AcDbXrecord
280
     1
270
     1
271
     1
  0
XRECORD
  5
A179
102
{ACAD_REACTORS
330
A173
102
}
330
A173
100
AcDbXrecord
280
     1
270
     1
271
     1
  0
XRECORD
  5
A176
102
{ACAD_REACTORS
330
A173
102
}
330
A173
100
AcDbXrecord
280
     1
270
     1
271
     1
  0
XRECORD
  5
A207
102
{ACAD_REACTORS
330
A206
102
}
330
A206
100
AcDbXrecord
280
     1
102
DISPLAYNAME
  1
Imperial24
102
FLAGS
 90
        0
  0
CELLSTYLEMAP
  5
A1CE
102
{ACAD_REACTORS
330
A1CD
102
}
330
A1CD
100
AcDbCellStyleMap
 90
        3
300
CELLSTYLE
  1
TABLEFORMAT_BEGIN
 90
        5
170
     1
 91
        0
 92
    32768
 62
   257
 93
        1
300
CONTENTFORMAT
  1
CONTENTFORMAT_BEGIN
 90
        0
 91
        0
 92
      512
 93
        0
300

 40
0.0
140
1.0
 94
        5
 62
     0
340
9F30
144
0.25
309
CONTENTFORMAT_END
171
     0
 94
        0
309
TABLEFORMAT_END
  1
CELLSTYLE_BEGIN
 90
        1
 91
        1
300
_TITLE
309
CELLSTYLE_END
300
CELLSTYLE
  1
TABLEFORMAT_BEGIN
 90
        5
170
     1
 91
        0
 92
        0
 62
   257
 93
        1
300
CONTENTFORMAT
  1
CONTENTFORMAT_BEGIN
 90
        0
 91
        0
 92
      512
 93
        0
300

 40
0.0
140
1.0
 94
        5
 62
     0
340
9F30
144
0.18
309
CONTENTFORMAT_END
171
     0
 94
        0
309
TABLEFORMAT_END
  1
CELLSTYLE_BEGIN
 90
        2
 91
        1
300
_HEADER
309
CELLSTYLE_END
300
CELLSTYLE
  1
TABLEFORMAT_BEGIN
 90
        5
170
     1
 91
        0
 92
        0
 62
   257
 93
        1
300
CONTENTFORMAT
  1
CONTENTFORMAT_BEGIN
 90
        0
 91
        0
 92
      512
 93
        0
300

 40
0.0
140
1.0
 94
        2
 62
     0
340
9F30
144
0.18
309
CONTENTFORMAT_END
171
     0
 94
        0
309
TABLEFORMAT_END
  1
CELLSTYLE_BEGIN
 90
        3
 91
        2
300
_DATA
309
CELLSTYLE_END
  0
XRECORD
  5
A204
102
{ACAD_REACTORS
330
A1CD
102
}
330
A1CD
100
AcDbXrecord
280
     1
102
ACAD_ROUNDTRIP_PRE2007_TABLESTYLE
 90
      512
 91
        0
  1

 92
      512
 93
        0
  2

 94
      512
 95
        0
  3

  0
XRECORD
  5
A1DF
102
{ACAD_REACTORS
330
A1DE
102
}
330
A1DE
100
AcDbXrecord
280
     1
102
RTVSPost2010Prop28
280
     1
102
RTVSPost2010PropOp28
 70
     1
102
RTVSPost2010Prop29
280
     1
102
RTVSPost2010PropOp29
 70
     1
102
RTVSPost2010Prop30
280
     0
102
RTVSPost2010PropOp30
 70
     1
102
RTVSPost2010Prop31
280
     0
102
RTVSPost2010PropOp31
 70
     1
102
RTVSPost2010Prop32
280
     0
102
RTVSPost2010PropOp32
 70
     1
102
RTVSPost2010Prop33
280
     0
102
RTVSPost2010PropOp33
 70
     1
102
RTVSPost2010Prop34
280
     0
102
RTVSPost2010PropOp34
 70
     1
102
RTVSPost2010Prop35
280
     0
102
RTVSPost2010PropOp35
 70
     1
102
RTVSPost2010Prop36
280
     0
102
RTVSPost2010PropOp36
 70
     1
102
RTVSPost2010Prop37
 90
       50
102
RTVSPost2010PropOp37
 70
     1
102
RTVSPost2010Prop38
140
0.0
102
RTVSPost2010PropOp38
 70
     1
102
RTVSPost2010Prop39
140
1.0
102
RTVSPost2010PropOp39
 70
     1
102
RTVSPost2010Prop40
 90
        0
102
RTVSPost2010PropOp40
 70
     1
102
RTVSPost2010Prop41ColorIndex
 90
       18
102
RTVSPost2010Prop41ColorRGB
 90
        0
102
RTVSPost2010PropOp41
 70
     1
102
RTVSPost2010Prop42
 90
       50
102
RTVSPost2010PropOp42
 70
     1
102
RTVSPost2010Prop43
 90
        3
102
RTVSPost2010PropOp43
 70
     1
102
RTVSPost2010Prop44ColorIndex
 90
        5
102
RTVSPost2010Prop44ColorRGB
 90
      255
102
RTVSPost2010PropOp44
 70
     1
102
RTVSPost2010Prop45
280
     0
102
RTVSPost2010PropOp45
 70
     1
102
RTVSPost2010Prop46
 90
       50
102
RTVSPost2010PropOp46
 70
     1
102
RTVSPost2010Prop47
 90
       50
102
RTVSPost2010PropOp47
 70
     1
102
RTVSPost2010Prop48
 90
       50
102
RTVSPost2010PropOp48
 70
     1
102
RTVSPost2010Prop49
280
     0
102
RTVSPost2010PropOp49
 70
     1
102
RTVSPost2010Prop50
 90
       50
102
RTVSPost2010PropOp50
 70
     1
102
RTVSPost2010Prop51ColorIndex
 90
      256
102
RTVSPost2010Prop51ColorRGB
 90
-16777216
102
RTVSPost2010PropOp51
 70
     0
102
RTVSPost2010Prop52
140
1.0
102
RTVSPost2010PropOp52
 70
     0
102
RTVSPost2010Prop53
 90
        2
102
RTVSPost2010PropOp53
 70
     1
102
RTVSPost2010Prop54
  1
strokes_ogs.tif
102
RTVSPost2010PropOp54
 70
     1
102
RTVSPost2010Prop55
280
     0
102
RTVSPost2010PropOp55
 70
     1
102
RTVSPost2010Prop56
140
1.0
102
RTVSPost2010PropOp56
 70
     1
102
RTVSPost2010Prop57
140
1.0
102
RTVSPost2010PropOp57
 70
     1
102
RTVSPropertyOp0
 70
     1
102
RTVSPropertyOp1
 70
     1
102
RTVSPropertyOp2
 70
     1
102
RTVSPropertyOp3
 70
     1
102
RTVSPropertyOp4
 70
     1
102
RTVSPropertyOp5
 70
     1
102
RTVSPropertyOp6
 70
     1
102
RTVSPropertyOp7
 70
     1
102
RTVSPropertyOp8
 70
     1
102
RTVSPropertyOp9
 70
     1
102
RTVSPropertyOp10
 70
     1
102
RTVSPropertyOp11
 70
     1
102
RTVSPropertyOp12
 70
     1
102
RTVSPropertyOp13
 70
     1
102
RTVSPropertyOp14
 70
     1
102
RTVSPropertyOp15
 70
     1
102
RTVSPropertyOp16
 70
     1
102
RTVSPropertyOp17
 70
     1
102
RTVSPropertyOp18
 70
     1
102
RTVSPropertyOp19
 70
     1
102
RTVSPropertyOp20
 70
     1
102
RTVSPropertyOp21
 70
     1
102
RTVSPropertyOp22
 70
     1
102
RTVSPropertyOp23
 70
     1
102
RTVSPropertyOp24
 70
     1
102
RTVSPropertyOp25
 70
     1
102
RTVSPropertyOp26
 70
     1
102
RTVSPropertyOp27
 70
     1
102
RTVSPropertyOp28
 70
     1
102
RTVSPropertyOp29
 70
     1
102
RTVSPropertyOp30
 70
     1
102
RTVSPropertyOp31
 70
     1
102
RTVSPropertyOp32
 70
     1
102
RTVSPropertyOp33
 70
     1
102
RTVSPropertyOp34
 70
     1
102
RTVSPropertyOp35
 70
     1
102
RTVSPropertyOp36
 70
     1
102
RTVSPropertyOp37
 70
     1
102
RTVSPropertyOp38
 70
     1
102
RTVSPropertyOp39
 70
     1
102
RTVSPropertyOp40
 70
     1
102
RTVSPropertyOp41
 70
     1
102
RTVSPropertyOp42
 70
     1
102
RTVSPropertyOp43
 70
     1
102
RTVSPropertyOp44
 70
     1
102
RTVSPropertyOp45
 70
     1
102
RTVSPropertyOp46
 70
     1
102
RTVSPropertyOp47
 70
     1
102
RTVSPropertyOp48
 70
     1
102
RTVSPropertyOp49
 70
     1
102
RTVSPropertyOp50
 70
     1
102
RTVSPropertyOp51
 70
     0
102
RTVSPropertyOp52
 70
     0
102
RTVSPropertyOp53
 70
     1
102
RTVSPropertyOp54
 70
     1
102
RTVSPropertyOp55
 70
     1
102
RTVSPropertyOp56
 70
     1
102
RTVSPropertyOp57
 70
     1
102
RTVSPropertyOp58
 70
     1
102
RTVSPropertyOp59
 70
     1
102
RTVSPropertyOp60
 70
     1
102
RTVSPropertyOp61
 70
     1
102
RTVSPropertyOp62
 70
     1
  0
XRECORD
  5
A1DD
102
{ACAD_REACTORS
330
A1DC
102
}
330
A1DC
100
AcDbXrecord
280
     1
102
RTVSPost2010Prop28
280
     0
102
RTVSPost2010PropOp28
 70
     1
102
RTVSPost2010Prop29
280
     1
102
RTVSPost2010PropOp29
 70
     1
102
RTVSPost2010Prop30
280
     1
102
RTVSPost2010PropOp30
 70
     1
102
RTVSPost2010Prop31
280
     0
102
RTVSPost2010PropOp31
 70
     1
102
RTVSPost2010Prop32
280
     0
102
RTVSPost2010PropOp32
 70
     1
102
RTVSPost2010Prop33
280
     0
102
RTVSPost2010PropOp33
 70
     1
102
RTVSPost2010Prop34
280
     0
102
RTVSPost2010PropOp34
 70
     1
102
RTVSPost2010Prop35
280
     0
102
RTVSPost2010PropOp35
 70
     1
102
RTVSPost2010Prop36
280
     0
102
RTVSPost2010PropOp36
 70
     1
102
RTVSPost2010Prop37
 90
       50
102
RTVSPost2010PropOp37
 70
     1
102
RTVSPost2010Prop38
140
0.0
102
RTVSPost2010PropOp38
 70
     1
102
RTVSPost2010Prop39
140
1.0
102
RTVSPost2010PropOp39
 70
     1
102
RTVSPost2010Prop40
 90
        0
102
RTVSPost2010PropOp40
 70
     1
102
RTVSPost2010Prop41ColorIndex
 90
       18
102
RTVSPost2010Prop41ColorRGB
 90
        0
102
RTVSPost2010PropOp41
 70
     1
102
RTVSPost2010Prop42
 90
       50
102
RTVSPost2010PropOp42
 70
     1
102
RTVSPost2010Prop43
 90
        3
102
RTVSPost2010PropOp43
 70
     1
102
RTVSPost2010Prop44ColorIndex
 90
        5
102
RTVSPost2010Prop44ColorRGB
 90
      255
102
RTVSPost2010PropOp44
 70
     1
102
RTVSPost2010Prop45
280
     0
102
RTVSPost2010PropOp45
 70
     1
102
RTVSPost2010Prop46
 90
       50
102
RTVSPost2010PropOp46
 70
     1
102
RTVSPost2010Prop47
 90
       50
102
RTVSPost2010PropOp47
 70
     1
102
RTVSPost2010Prop48
 90
       50
102
RTVSPost2010PropOp48
 70
     1
102
RTVSPost2010Prop49
280
     0
102
RTVSPost2010PropOp49
 70
     1
102
RTVSPost2010Prop50
 90
       50
102
RTVSPost2010PropOp50
 70
     1
102
RTVSPost2010Prop51ColorIndex
 90
      256
102
RTVSPost2010Prop51ColorRGB
 90
-16777216
102
RTVSPost2010PropOp51
 70
     0
102
RTVSPost2010Prop52
140
1.0
102
RTVSPost2010PropOp52
 70
     0
102
RTVSPost2010Prop53
 90
        2
102
RTVSPost2010PropOp53
 70
     1
102
RTVSPost2010Prop54
  1
strokes_ogs.tif
102
RTVSPost2010PropOp54
 70
     1
102
RTVSPost2010Prop55
280
     0
102
RTVSPost2010PropOp55
 70
     1
102
RTVSPost2010Prop56
140
1.0
102
RTVSPost2010PropOp56
 70
     1
102
RTVSPost2010Prop57
140
1.0
102
RTVSPost2010PropOp57
 70
     1
102
RTVSPropertyOp0
 70
     1
102
RTVSPropertyOp1
 70
     1
102
RTVSPropertyOp2
 70
     1
102
RTVSPropertyOp3
 70
     1
102
RTVSPropertyOp4
 70
     1
102
RTVSPropertyOp5
 70
     1
102
RTVSPropertyOp6
 70
     1
102
RTVSPropertyOp7
 70
     1
102
RTVSPropertyOp8
 70
     1
102
RTVSPropertyOp9
 70
     1
102
RTVSPropertyOp10
 70
     1
102
RTVSPropertyOp11
 70
     1
102
RTVSPropertyOp12
 70
     1
102
RTVSPropertyOp13
 70
     1
102
RTVSPropertyOp14
 70
     1
102
RTVSPropertyOp15
 70
     1
102
RTVSPropertyOp16
 70
     1
102
RTVSPropertyOp17
 70
     1
102
RTVSPropertyOp18
 70
     1
102
RTVSPropertyOp19
 70
     1
102
RTVSPropertyOp20
 70
     1
102
RTVSPropertyOp21
 70
     1
102
RTVSPropertyOp22
 70
     1
102
RTVSPropertyOp23
 70
     1
102
RTVSPropertyOp24
 70
     1
102
RTVSPropertyOp25
 70
     1
102
RTVSPropertyOp26
 70
     1
102
RTVSPropertyOp27
 70
     1
102
RTVSPropertyOp28
 70
     1
102
RTVSPropertyOp29
 70
     1
102
RTVSPropertyOp30
 70
     1
102
RTVSPropertyOp31
 70
     1
102
RTVSPropertyOp32
 70
     1
102
RTVSPropertyOp33
 70
     1
102
RTVSPropertyOp34
 70
     1
102
RTVSPropertyOp35
 70
     1
102
RTVSPropertyOp36
 70
     1
102
RTVSPropertyOp37
 70
     1
102
RTVSPropertyOp38
 70
     1
102
RTVSPropertyOp39
 70
     1
102
RTVSPropertyOp40
 70
     1
102
RTVSPropertyOp41
 70
     1
102
RTVSPropertyOp42
 70
     1
102
RTVSPropertyOp43
 70
     1
102
RTVSPropertyOp44
 70
     1
102
RTVSPropertyOp45
 70
     1
102
RTVSPropertyOp46
 70
     1
102
RTVSPropertyOp47
 70
     1
102
RTVSPropertyOp48
 70
     1
102
RTVSPropertyOp49
 70
     1
102
RTVSPropertyOp50
 70
     1
102
RTVSPropertyOp51
 70
     0
102
RTVSPropertyOp52
 70
     0
102
RTVSPropertyOp53
 70
     1
102
RTVSPropertyOp54
 70
     1
102
RTVSPropertyOp55
 70
     1
102
RTVSPropertyOp56
 70
     1
102
RTVSPropertyOp57
 70
     1
102
RTVSPropertyOp58
 70
     1
102
RTVSPropertyOp59
 70
     1
102
RTVSPropertyOp60
 70
     1
102
RTVSPropertyOp61
 70
     1
102
RTVSPropertyOp62
 70
     1
  0
XRECORD
  5
A1EB
102
{ACAD_REACTORS
330
A1EA
102
}
330
A1EA
100
AcDbXrecord
280
     1
102
RTVSPost2010Prop28
280
     0
102
RTVSPost2010PropOp28
 70
     1
102
RTVSPost2010Prop29
280
     1
102
RTVSPost2010PropOp29
 70
     1
102
RTVSPost2010Prop30
280
     1
102
RTVSPost2010PropOp30
 70
     1
102
RTVSPost2010Prop31
280
     0
102
RTVSPost2010PropOp31
 70
     1
102
RTVSPost2010Prop32
280
     0
102
RTVSPost2010PropOp32
 70
     1
102
RTVSPost2010Prop33
280
     0
102
RTVSPost2010PropOp33
 70
     1
102
RTVSPost2010Prop34
280
     0
102
RTVSPost2010PropOp34
 70
     1
102
RTVSPost2010Prop35
280
     0
102
RTVSPost2010PropOp35
 70
     1
102
RTVSPost2010Prop36
280
     0
102
RTVSPost2010PropOp36
 70
     1
102
RTVSPost2010Prop37
 90
       50
102
RTVSPost2010PropOp37
 70
     1
102
RTVSPost2010Prop38
140
0.0
102
RTVSPost2010PropOp38
 70
     1
102
RTVSPost2010Prop39
140
1.0
102
RTVSPost2010PropOp39
 70
     1
102
RTVSPost2010Prop40
 90
        0
102
RTVSPost2010PropOp40
 70
     1
102
RTVSPost2010Prop41ColorIndex
 90
       18
102
RTVSPost2010Prop41ColorRGB
 90
        0
102
RTVSPost2010PropOp41
 70
     1
102
RTVSPost2010Prop42
 90
       50
102
RTVSPost2010PropOp42
 70
     1
102
RTVSPost2010Prop43
 90
        3
102
RTVSPost2010PropOp43
 70
     1
102
RTVSPost2010Prop44ColorIndex
 90
        5
102
RTVSPost2010Prop44ColorRGB
 90
      255
102
RTVSPost2010PropOp44
 70
     1
102
RTVSPost2010Prop45
280
     0
102
RTVSPost2010PropOp45
 70
     1
102
RTVSPost2010Prop46
 90
       50
102
RTVSPost2010PropOp46
 70
     1
102
RTVSPost2010Prop47
 90
       50
102
RTVSPost2010PropOp47
 70
     1
102
RTVSPost2010Prop48
 90
       50
102
RTVSPost2010PropOp48
 70
     1
102
RTVSPost2010Prop49
280
     0
102
RTVSPost2010PropOp49
 70
     1
102
RTVSPost2010Prop50
 90
       50
102
RTVSPost2010PropOp50
 70
     1
102
RTVSPost2010Prop51ColorIndex
 90
      256
102
RTVSPost2010Prop51ColorRGB
 90
-16777216
102
RTVSPost2010PropOp51
 70
     0
102
RTVSPost2010Prop52
140
1.0
102
RTVSPost2010PropOp52
 70
     0
102
RTVSPost2010Prop53
 90
        2
102
RTVSPost2010PropOp53
 70
     1
102
RTVSPost2010Prop54
  1
strokes_ogs.tif
102
RTVSPost2010PropOp54
 70
     1
102
RTVSPost2010Prop55
280
     0
102
RTVSPost2010PropOp55
 70
     1
102
RTVSPost2010Prop56
140
1.0
102
RTVSPost2010PropOp56
 70
     1
102
RTVSPost2010Prop57
140
1.0
102
RTVSPost2010PropOp57
 70
     1
102
RTVSPropertyOp0
 70
     1
102
RTVSPropertyOp1
 70
     1
102
RTVSPropertyOp2
 70
     1
102
RTVSPropertyOp3
 70
     1
102
RTVSPropertyOp4
 70
     1
102
RTVSPropertyOp5
 70
     1
102
RTVSPropertyOp6
 70
     1
102
RTVSPropertyOp7
 70
     1
102
RTVSPropertyOp8
 70
     1
102
RTVSPropertyOp9
 70
     1
102
RTVSPropertyOp10
 70
     1
102
RTVSPropertyOp11
 70
     1
102
RTVSPropertyOp12
 70
     1
102
RTVSPropertyOp13
 70
     1
102
RTVSPropertyOp14
 70
     1
102
RTVSPropertyOp15
 70
     1
102
RTVSPropertyOp16
 70
     1
102
RTVSPropertyOp17
 70
     1
102
RTVSPropertyOp18
 70
     1
102
RTVSPropertyOp19
 70
     1
102
RTVSPropertyOp20
 70
     1
102
RTVSPropertyOp21
 70
     1
102
RTVSPropertyOp22
 70
     1
102
RTVSPropertyOp23
 70
     1
102
RTVSPropertyOp24
 70
     1
102
RTVSPropertyOp25
 70
     1
102
RTVSPropertyOp26
 70
     1
102
RTVSPropertyOp27
 70
     1
102
RTVSPropertyOp28
 70
     1
102
RTVSPropertyOp29
 70
     1
102
RTVSPropertyOp30
 70
     1
102
RTVSPropertyOp31
 70
     1
102
RTVSPropertyOp32
 70
     1
102
RTVSPropertyOp33
 70
     1
102
RTVSPropertyOp34
 70
     1
102
RTVSPropertyOp35
 70
     1
102
RTVSPropertyOp36
 70
     1
102
RTVSPropertyOp37
 70
     1
102
RTVSPropertyOp38
 70
     1
102
RTVSPropertyOp39
 70
     1
102
RTVSPropertyOp40
 70
     1
102
RTVSPropertyOp41
 70
     1
102
RTVSPropertyOp42
 70
     1
102
RTVSPropertyOp43
 70
     1
102
RTVSPropertyOp44
 70
     1
102
RTVSPropertyOp45
 70
     1
102
RTVSPropertyOp46
 70
     1
102
RTVSPropertyOp47
 70
     1
102
RTVSPropertyOp48
 70
     1
102
RTVSPropertyOp49
 70
     1
102
RTVSPropertyOp50
 70
     1
102
RTVSPropertyOp51
 70
     0
102
RTVSPropertyOp52
 70
     0
102
RTVSPropertyOp53
 70
     1
102
RTVSPropertyOp54
 70
     1
102
RTVSPropertyOp55
 70
     1
102
RTVSPropertyOp56
 70
     1
102
RTVSPropertyOp57
 70
     1
102
RTVSPropertyOp58
 70
     1
102
RTVSPropertyOp59
 70
     1
102
RTVSPropertyOp60
 70
     1
102
RTVSPropertyOp61
 70
     1
102
RTVSPropertyOp62
 70
     1
  0
XRECORD
  5
A1F3
102
{ACAD_REACTORS
330
A1F2
102
}
330
A1F2
100
AcDbXrecord
280
     1
102
RTVSPost2010Prop28
280
     0
102
RTVSPost2010PropOp28
 70
     1
102
RTVSPost2010Prop29
280
     1
102
RTVSPost2010PropOp29
 70
     1
102
RTVSPost2010Prop30
280
     1
102
RTVSPost2010PropOp30
 70
     1
102
RTVSPost2010Prop31
280
     0
102
RTVSPost2010PropOp31
 70
     1
102
RTVSPost2010Prop32
280
     0
102
RTVSPost2010PropOp32
 70
     1
102
RTVSPost2010Prop33
280
     0
102
RTVSPost2010PropOp33
 70
     1
102
RTVSPost2010Prop34
280
     0
102
RTVSPost2010PropOp34
 70
     1
102
RTVSPost2010Prop35
280
     0
102
RTVSPost2010PropOp35
 70
     1
102
RTVSPost2010Prop36
280
     0
102
RTVSPost2010PropOp36
 70
     1
102
RTVSPost2010Prop37
 90
       50
102
RTVSPost2010PropOp37
 70
     1
102
RTVSPost2010Prop38
140
0.0
102
RTVSPost2010PropOp38
 70
     1
102
RTVSPost2010Prop39
140
1.0
102
RTVSPost2010PropOp39
 70
     1
102
RTVSPost2010Prop40
 90
        0
102
RTVSPost2010PropOp40
 70
     1
102
RTVSPost2010Prop41ColorIndex
 90
       18
102
RTVSPost2010Prop41ColorRGB
 90
        0
102
RTVSPost2010PropOp41
 70
     1
102
RTVSPost2010Prop42
 90
       50
102
RTVSPost2010PropOp42
 70
     1
102
RTVSPost2010Prop43
 90
        3
102
RTVSPost2010PropOp43
 70
     1
102
RTVSPost2010Prop44ColorIndex
 90
        5
102
RTVSPost2010Prop44ColorRGB
 90
      255
102
RTVSPost2010PropOp44
 70
     1
102
RTVSPost2010Prop45
280
     0
102
RTVSPost2010PropOp45
 70
     1
102
RTVSPost2010Prop46
 90
       50
102
RTVSPost2010PropOp46
 70
     1
102
RTVSPost2010Prop47
 90
       50
102
RTVSPost2010PropOp47
 70
     1
102
RTVSPost2010Prop48
 90
       50
102
RTVSPost2010PropOp48
 70
     1
102
RTVSPost2010Prop49
280
     0
102
RTVSPost2010PropOp49
 70
     1
102
RTVSPost2010Prop50
 90
       50
102
RTVSPost2010PropOp50
 70
     1
102
RTVSPost2010Prop51ColorIndex
 90
      256
102
RTVSPost2010Prop51ColorRGB
 90
-16777216
102
RTVSPost2010PropOp51
 70
     0
102
RTVSPost2010Prop52
140
1.0
102
RTVSPost2010PropOp52
 70
     0
102
RTVSPost2010Prop53
 90
        2
102
RTVSPost2010PropOp53
 70
     1
102
RTVSPost2010Prop54
  1
strokes_ogs.tif
102
RTVSPost2010PropOp54
 70
     1
102
RTVSPost2010Prop55
280
     0
102
RTVSPost2010PropOp55
 70
     1
102
RTVSPost2010Prop56
140
1.0
102
RTVSPost2010PropOp56
 70
     1
102
RTVSPost2010Prop57
140
1.0
102
RTVSPost2010PropOp57
 70
     1
102
RTVSPropertyOp0
 70
     1
102
RTVSPropertyOp1
 70
     1
102
RTVSPropertyOp2
 70
     1
102
RTVSPropertyOp3
 70
     1
102
RTVSPropertyOp4
 70
     1
102
RTVSPropertyOp5
 70
     1
102
RTVSPropertyOp6
 70
     1
102
RTVSPropertyOp7
 70
     1
102
RTVSPropertyOp8
 70
     1
102
RTVSPropertyOp9
 70
     1
102
RTVSPropertyOp10
 70
     1
102
RTVSPropertyOp11
 70
     1
102
RTVSPropertyOp12
 70
     1
102
RTVSPropertyOp13
 70
     1
102
RTVSPropertyOp14
 70
     1
102
RTVSPropertyOp15
 70
     1
102
RTVSPropertyOp16
 70
     1
102
RTVSPropertyOp17
 70
     1
102
RTVSPropertyOp18
 70
     1
102
RTVSPropertyOp19
 70
     1
102
RTVSPropertyOp20
 70
     1
102
RTVSPropertyOp21
 70
     1
102
RTVSPropertyOp22
 70
     1
102
RTVSPropertyOp23
 70
     1
102
RTVSPropertyOp24
 70
     1
102
RTVSPropertyOp25
 70
     1
102
RTVSPropertyOp26
 70
     1
102
RTVSPropertyOp27
 70
     1
102
RTVSPropertyOp28
 70
     1
102
RTVSPropertyOp29
 70
     1
102
RTVSPropertyOp30
 70
     1
102
RTVSPropertyOp31
 70
     1
102
RTVSPropertyOp32
 70
     1
102
RTVSPropertyOp33
 70
     1
102
RTVSPropertyOp34
 70
     1
102
RTVSPropertyOp35
 70
     1
102
RTVSPropertyOp36
 70
     1
102
RTVSPropertyOp37
 70
     1
102
RTVSPropertyOp38
 70
     1
102
RTVSPropertyOp39
 70
     1
102
RTVSPropertyOp40
 70
     1
102
RTVSPropertyOp41
 70
     1
102
RTVSPropertyOp42
 70
     1
102
RTVSPropertyOp43
 70
     1
102
RTVSPropertyOp44
 70
     1
102
RTVSPropertyOp45
 70
     1
102
RTVSPropertyOp46
 70
     1
102
RTVSPropertyOp47
 70
     1
102
RTVSPropertyOp48
 70
     1
102
RTVSPropertyOp49
 70
     1
102
RTVSPropertyOp50
 70
     1
102
RTVSPropertyOp51
 70
     0
102
RTVSPropertyOp52
 70
     0
102
RTVSPropertyOp53
 70
     1
102
RTVSPropertyOp54
 70
     1
102
RTVSPropertyOp55
 70
     1
102
RTVSPropertyOp56
 70
     1
102
RTVSPropertyOp57
 70
     1
102
RTVSPropertyOp58
 70
     1
102
RTVSPropertyOp59
 70
     1
102
RTVSPropertyOp60
 70
     1
102
RTVSPropertyOp61
 70
     1
102
RTVSPropertyOp62
 70
     1
  0
XRECORD
  5
A1E5
102
{ACAD_REACTORS
330
A1E4
102
}
330
A1E4
100
AcDbXrecord
280
     1
102
RTVSPost2010Prop28
280
     0
102
RTVSPost2010PropOp28
 70
     1
102
RTVSPost2010Prop29
280
     1
102
RTVSPost2010PropOp29
 70
     1
102
RTVSPost2010Prop30
280
     1
102
RTVSPost2010PropOp30
 70
     1
102
RTVSPost2010Prop31
280
     0
102
RTVSPost2010PropOp31
 70
     1
102
RTVSPost2010Prop32
280
     0
102
RTVSPost2010PropOp32
 70
     1
102
RTVSPost2010Prop33
280
     0
102
RTVSPost2010PropOp33
 70
     1
102
RTVSPost2010Prop34
280
     0
102
RTVSPost2010PropOp34
 70
     1
102
RTVSPost2010Prop35
280
     0
102
RTVSPost2010PropOp35
 70
     1
102
RTVSPost2010Prop36
280
     0
102
RTVSPost2010PropOp36
 70
     1
102
RTVSPost2010Prop37
 90
       50
102
RTVSPost2010PropOp37
 70
     1
102
RTVSPost2010Prop38
140
0.0
102
RTVSPost2010PropOp38
 70
     1
102
RTVSPost2010Prop39
140
1.0
102
RTVSPost2010PropOp39
 70
     1
102
RTVSPost2010Prop40
 90
        0
102
RTVSPost2010PropOp40
 70
     1
102
RTVSPost2010Prop41ColorIndex
 90
       18
102
RTVSPost2010Prop41ColorRGB
 90
        0
102
RTVSPost2010PropOp41
 70
     1
102
RTVSPost2010Prop42
 90
       50
102
RTVSPost2010PropOp42
 70
     1
102
RTVSPost2010Prop43
 90
        3
102
RTVSPost2010PropOp43
 70
     1
102
RTVSPost2010Prop44ColorIndex
 90
        5
102
RTVSPost2010Prop44ColorRGB
 90
      255
102
RTVSPost2010PropOp44
 70
     1
102
RTVSPost2010Prop45
280
     0
102
RTVSPost2010PropOp45
 70
     1
102
RTVSPost2010Prop46
 90
       50
102
RTVSPost2010PropOp46
 70
     1
102
RTVSPost2010Prop47
 90
       50
102
RTVSPost2010PropOp47
 70
     1
102
RTVSPost2010Prop48
 90
       50
102
RTVSPost2010PropOp48
 70
     1
102
RTVSPost2010Prop49
280
     0
102
RTVSPost2010PropOp49
 70
     1
102
RTVSPost2010Prop50
 90
       50
102
RTVSPost2010PropOp50
 70
     1
102
RTVSPost2010Prop51ColorIndex
 90
      256
102
RTVSPost2010Prop51ColorRGB
 90
-16777216
102
RTVSPost2010PropOp51
 70
     0
102
RTVSPost2010Prop52
140
1.0
102
RTVSPost2010PropOp52
 70
     0
102
RTVSPost2010Prop53
 90
        2
102
RTVSPost2010PropOp53
 70
     1
102
RTVSPost2010Prop54
  1
strokes_ogs.tif
102
RTVSPost2010PropOp54
 70
     1
102
RTVSPost2010Prop55
280
     0
102
RTVSPost2010PropOp55
 70
     1
102
RTVSPost2010Prop56
140
1.0
102
RTVSPost2010PropOp56
 70
     1
102
RTVSPost2010Prop57
140
1.0
102
RTVSPost2010PropOp57
 70
     1
102
RTVSPropertyOp0
 70
     1
102
RTVSPropertyOp1
 70
     1
102
RTVSPropertyOp2
 70
     1
102
RTVSPropertyOp3
 70
     1
102
RTVSPropertyOp4
 70
     1
102
RTVSPropertyOp5
 70
     1
102
RTVSPropertyOp6
 70
     1
102
RTVSPropertyOp7
 70
     1
102
RTVSPropertyOp8
 70
     1
102
RTVSPropertyOp9
 70
     1
102
RTVSPropertyOp10
 70
     1
102
RTVSPropertyOp11
 70
     1
102
RTVSPropertyOp12
 70
     1
102
RTVSPropertyOp13
 70
     1
102
RTVSPropertyOp14
 70
     1
102
RTVSPropertyOp15
 70
     1
102
RTVSPropertyOp16
 70
     1
102
RTVSPropertyOp17
 70
     1
102
RTVSPropertyOp18
 70
     1
102
RTVSPropertyOp19
 70
     1
102
RTVSPropertyOp20
 70
     1
102
RTVSPropertyOp21
 70
     1
102
RTVSPropertyOp22
 70
     1
102
RTVSPropertyOp23
 70
     1
102
RTVSPropertyOp24
 70
     1
102
RTVSPropertyOp25
 70
     1
102
RTVSPropertyOp26
 70
     1
102
RTVSPropertyOp27
 70
     1
102
RTVSPropertyOp28
 70
     1
102
RTVSPropertyOp29
 70
     1
102
RTVSPropertyOp30
 70
     1
102
RTVSPropertyOp31
 70
     1
102
RTVSPropertyOp32
 70
     1
102
RTVSPropertyOp33
 70
     1
102
RTVSPropertyOp34
 70
     1
102
RTVSPropertyOp35
 70
     1
102
RTVSPropertyOp36
 70
     1
102
RTVSPropertyOp37
 70
     1
102
RTVSPropertyOp38
 70
     1
102
RTVSPropertyOp39
 70
     1
102
RTVSPropertyOp40
 70
     1
102
RTVSPropertyOp41
 70
     1
102
RTVSPropertyOp42
 70
     1
102
RTVSPropertyOp43
 70
     1
102
RTVSPropertyOp44
 70
     1
102
RTVSPropertyOp45
 70
     1
102
RTVSPropertyOp46
 70
     1
102
RTVSPropertyOp47
 70
     1
102
RTVSPropertyOp48
 70
     1
102
RTVSPropertyOp49
 70
     1
102
RTVSPropertyOp50
 70
     1
102
RTVSPropertyOp51
 70
     0
102
RTVSPropertyOp52
 70
     0
102
RTVSPropertyOp53
 70
     1
102
RTVSPropertyOp54
 70
     1
102
RTVSPropertyOp55
 70
     1
102
RTVSPropertyOp56
 70
     1
102
RTVSPropertyOp57
 70
     1
102
RTVSPropertyOp58
 70
     1
102
RTVSPropertyOp59
 70
     1
102
RTVSPropertyOp60
 70
     1
102
RTVSPropertyOp61
 70
     1
102
RTVSPropertyOp62
 70
     1
  0
XRECORD
  5
A1E9
102
{ACAD_REACTORS
330
A1E8
102
}
330
A1E8
100
AcDbXrecord
280
     1
102
RTVSPost2010Prop28
280
     0
102
RTVSPost2010PropOp28
 70
     1
102
RTVSPost2010Prop29
280
     1
102
RTVSPost2010PropOp29
 70
     1
102
RTVSPost2010Prop30
280
     1
102
RTVSPost2010PropOp30
 70
     1
102
RTVSPost2010Prop31
280
     0
102
RTVSPost2010PropOp31
 70
     1
102
RTVSPost2010Prop32
280
     0
102
RTVSPost2010PropOp32
 70
     1
102
RTVSPost2010Prop33
280
     0
102
RTVSPost2010PropOp33
 70
     1
102
RTVSPost2010Prop34
280
     0
102
RTVSPost2010PropOp34
 70
     1
102
RTVSPost2010Prop35
280
     0
102
RTVSPost2010PropOp35
 70
     1
102
RTVSPost2010Prop36
280
     0
102
RTVSPost2010PropOp36
 70
     1
102
RTVSPost2010Prop37
 90
       50
102
RTVSPost2010PropOp37
 70
     1
102
RTVSPost2010Prop38
140
0.0
102
RTVSPost2010PropOp38
 70
     1
102
RTVSPost2010Prop39
140
1.0
102
RTVSPost2010PropOp39
 70
     1
102
RTVSPost2010Prop40
 90
        0
102
RTVSPost2010PropOp40
 70
     1
102
RTVSPost2010Prop41ColorIndex
 90
       18
102
RTVSPost2010Prop41ColorRGB
 90
        0
102
RTVSPost2010PropOp41
 70
     1
102
RTVSPost2010Prop42
 90
       50
102
RTVSPost2010PropOp42
 70
     1
102
RTVSPost2010Prop43
 90
        3
102
RTVSPost2010PropOp43
 70
     1
102
RTVSPost2010Prop44ColorIndex
 90
        5
102
RTVSPost2010Prop44ColorRGB
 90
      255
102
RTVSPost2010PropOp44
 70
     1
102
RTVSPost2010Prop45
280
     0
102
RTVSPost2010PropOp45
 70
     1
102
RTVSPost2010Prop46
 90
       50
102
RTVSPost2010PropOp46
 70
     1
102
RTVSPost2010Prop47
 90
       50
102
RTVSPost2010PropOp47
 70
     1
102
RTVSPost2010Prop48
 90
       50
102
RTVSPost2010PropOp48
 70
     1
102
RTVSPost2010Prop49
280
     0
102
RTVSPost2010PropOp49
 70
     1
102
RTVSPost2010Prop50
 90
       50
102
RTVSPost2010PropOp50
 70
     1
102
RTVSPost2010Prop51ColorIndex
 90
      256
102
RTVSPost2010Prop51ColorRGB
 90
-16777216
102
RTVSPost2010PropOp51
 70
     0
102
RTVSPost2010Prop52
140
1.0
102
RTVSPost2010PropOp52
 70
     0
102
RTVSPost2010Prop53
 90
        2
102
RTVSPost2010PropOp53
 70
     1
102
RTVSPost2010Prop54
  1
strokes_ogs.tif
102
RTVSPost2010PropOp54
 70
     1
102
RTVSPost2010Prop55
280
     0
102
RTVSPost2010PropOp55
 70
     1
102
RTVSPost2010Prop56
140
1.0
102
RTVSPost2010PropOp56
 70
     1
102
RTVSPost2010Prop57
140
1.0
102
RTVSPost2010PropOp57
 70
     1
102
RTVSPropertyOp0
 70
     1
102
RTVSPropertyOp1
 70
     1
102
RTVSPropertyOp2
 70
     1
102
RTVSPropertyOp3
 70
     1
102
RTVSPropertyOp4
 70
     1
102
RTVSPropertyOp5
 70
     1
102
RTVSPropertyOp6
 70
     1
102
RTVSPropertyOp7
 70
     1
102
RTVSPropertyOp8
 70
     1
102
RTVSPropertyOp9
 70
     1
102
RTVSPropertyOp10
 70
     1
102
RTVSPropertyOp11
 70
     1
102
RTVSPropertyOp12
 70
     1
102
RTVSPropertyOp13
 70
     1
102
RTVSPropertyOp14
 70
     1
102
RTVSPropertyOp15
 70
     1
102
RTVSPropertyOp16
 70
     1
102
RTVSPropertyOp17
 70
     1
102
RTVSPropertyOp18
 70
     1
102
RTVSPropertyOp19
 70
     1
102
RTVSPropertyOp20
 70
     1
102
RTVSPropertyOp21
 70
     1
102
RTVSPropertyOp22
 70
     1
102
RTVSPropertyOp23
 70
     1
102
RTVSPropertyOp24
 70
     1
102
RTVSPropertyOp25
 70
     1
102
RTVSPropertyOp26
 70
     1
102
RTVSPropertyOp27
 70
     1
102
RTVSPropertyOp28
 70
     1
102
RTVSPropertyOp29
 70
     1
102
RTVSPropertyOp30
 70
     1
102
RTVSPropertyOp31
 70
     1
102
RTVSPropertyOp32
 70
     1
102
RTVSPropertyOp33
 70
     1
102
RTVSPropertyOp34
 70
     1
102
RTVSPropertyOp35
 70
     1
102
RTVSPropertyOp36
 70
     1
102
RTVSPropertyOp37
 70
     1
102
RTVSPropertyOp38
 70
     1
102
RTVSPropertyOp39
 70
     1
102
RTVSPropertyOp40
 70
     1
102
RTVSPropertyOp41
 70
     1
102
RTVSPropertyOp42
 70
     1
102
RTVSPropertyOp43
 70
     1
102
RTVSPropertyOp44
 70
     1
102
RTVSPropertyOp45
 70
     1
102
RTVSPropertyOp46
 70
     1
102
RTVSPropertyOp47
 70
     1
102
RTVSPropertyOp48
 70
     1
102
RTVSPropertyOp49
 70
     1
102
RTVSPropertyOp50
 70
     1
102
RTVSPropertyOp51
 70
     0
102
RTVSPropertyOp52
 70
     0
102
RTVSPropertyOp53
 70
     1
102
RTVSPropertyOp54
 70
     1
102
RTVSPropertyOp55
 70
     1
102
RTVSPropertyOp56
 70
     1
102
RTVSPropertyOp57
 70
     1
102
RTVSPropertyOp58
 70
     1
102
RTVSPropertyOp59
 70
     1
102
RTVSPropertyOp60
 70
     1
102
RTVSPropertyOp61
 70
     1
102
RTVSPropertyOp62
 70
     1
  0
XRECORD
  5
A203
102
{ACAD_REACTORS
330
A202
102
}
330
A202
100
AcDbXrecord
280
     1
102
RTVSPost2010Prop28
280
     0
102
RTVSPost2010PropOp28
 70
     1
102
RTVSPost2010Prop29
280
     1
102
RTVSPost2010PropOp29
 70
     1
102
RTVSPost2010Prop30
280
     1
102
RTVSPost2010PropOp30
 70
     1
102
RTVSPost2010Prop31
280
     0
102
RTVSPost2010PropOp31
 70
     1
102
RTVSPost2010Prop32
280
     0
102
RTVSPost2010PropOp32
 70
     1
102
RTVSPost2010Prop33
280
     0
102
RTVSPost2010PropOp33
 70
     1
102
RTVSPost2010Prop34
280
     0
102
RTVSPost2010PropOp34
 70
     1
102
RTVSPost2010Prop35
280
     0
102
RTVSPost2010PropOp35
 70
     1
102
RTVSPost2010Prop36
280
     0
102
RTVSPost2010PropOp36
 70
     1
102
RTVSPost2010Prop37
 90
       50
102
RTVSPost2010PropOp37
 70
     0
102
RTVSPost2010Prop38
140
0.0
102
RTVSPost2010PropOp38
 70
     0
102
RTVSPost2010Prop39
140
1.0
102
RTVSPost2010PropOp39
 70
     0
102
RTVSPost2010Prop40
 90
        0
102
RTVSPost2010PropOp40
 70
     0
102
RTVSPost2010Prop41ColorIndex
 90
       18
102
RTVSPost2010Prop41ColorRGB
 90
        0
102
RTVSPost2010PropOp41
 70
     0
102
RTVSPost2010Prop42
 90
       50
102
RTVSPost2010PropOp42
 70
     0
102
RTVSPost2010Prop43
 90
        3
102
RTVSPost2010PropOp43
 70
     0
102
RTVSPost2010Prop44ColorIndex
 90
        5
102
RTVSPost2010Prop44ColorRGB
 90
      255
102
RTVSPost2010PropOp44
 70
     0
102
RTVSPost2010Prop45
280
     0
102
RTVSPost2010PropOp45
 70
     1
102
RTVSPost2010Prop46
 90
       50
102
RTVSPost2010PropOp46
 70
     0
102
RTVSPost2010Prop47
 90
       50
102
RTVSPost2010PropOp47
 70
     0
102
RTVSPost2010Prop48
 90
       50
102
RTVSPost2010PropOp48
 70
     0
102
RTVSPost2010Prop49
280
     0
102
RTVSPost2010PropOp49
 70
     1
102
RTVSPost2010Prop50
 90
       50
102
RTVSPost2010PropOp50
 70
     0
102
RTVSPost2010Prop51ColorIndex
 90
      256
102
RTVSPost2010Prop51ColorRGB
 90
-16777216
102
RTVSPost2010PropOp51
 70
     0
102
RTVSPost2010Prop52
140
1.0
102
RTVSPost2010PropOp52
 70
     0
102
RTVSPost2010Prop53
 90
        2
102
RTVSPost2010PropOp53
 70
     0
102
RTVSPost2010Prop54
  1
strokes_ogs.tif
102
RTVSPost2010PropOp54
 70
     0
102
RTVSPost2010Prop55
280
     0
102
RTVSPost2010PropOp55
 70
     1
102
RTVSPost2010Prop56
140
1.0
102
RTVSPost2010PropOp56
 70
     0
102
RTVSPost2010Prop57
140
1.0
102
RTVSPost2010PropOp57
 70
     0
102
RTVSPropertyOp0
 70
     0
102
RTVSPropertyOp1
 70
     0
102
RTVSPropertyOp2
 70
     0
102
RTVSPropertyOp3
 70
     0
102
RTVSPropertyOp4
 70
     0
102
RTVSPropertyOp5
 70
     0
102
RTVSPropertyOp6
 70
     0
102
RTVSPropertyOp7
 70
     0
102
RTVSPropertyOp8
 70
     0
102
RTVSPropertyOp9
 70
     0
102
RTVSPropertyOp10
 70
     0
102
RTVSPropertyOp11
 70
     0
102
RTVSPropertyOp12
 70
     0
102
RTVSPropertyOp13
 70
     0
102
RTVSPropertyOp14
 70
     2
102
RTVSPropertyOp15
 70
     0
102
RTVSPropertyOp16
 70
     0
102
RTVSPropertyOp17
 70
     0
102
RTVSPropertyOp18
 70
     0
102
RTVSPropertyOp19
 70
     0
102
RTVSPropertyOp20
 70
     0
102
RTVSPropertyOp21
 70
     0
102
RTVSPropertyOp22
 70
     0
102
RTVSPropertyOp23
 70
     0
102
RTVSPropertyOp24
 70
     0
102
RTVSPropertyOp25
 70
     0
102
RTVSPropertyOp26
 70
     0
102
RTVSPropertyOp27
 70
     0
102
RTVSPropertyOp28
 70
     1
102
RTVSPropertyOp29
 70
     1
102
RTVSPropertyOp30
 70
     1
102
RTVSPropertyOp31
 70
     1
102
RTVSPropertyOp32
 70
     1
102
RTVSPropertyOp33
 70
     1
102
RTVSPropertyOp34
 70
     1
102
RTVSPropertyOp35
 70
     1
102
RTVSPropertyOp36
 70
     1
102
RTVSPropertyOp37
 70
     0
102
RTVSPropertyOp38
 70
     0
102
RTVSPropertyOp39
 70
     0
102
RTVSPropertyOp40
 70
     0
102
RTVSPropertyOp41
 70
     0
102
RTVSPropertyOp42
 70
     0
102
RTVSPropertyOp43
 70
     0
102
RTVSPropertyOp44
 70
     0
102
RTVSPropertyOp45
 70
     1
102
RTVSPropertyOp46
 70
     0
102
RTVSPropertyOp47
 70
     0
102
RTVSPropertyOp48
 70
     0
102
RTVSPropertyOp49
 70
     1
102
RTVSPropertyOp50
 70
     0
102
RTVSPropertyOp51
 70
     0
102
RTVSPropertyOp52
 70
     0
102
RTVSPropertyOp53
 70
     0
102
RTVSPropertyOp54
 70
     0
102
RTVSPropertyOp55
 70
     1
102
RTVSPropertyOp56
 70
     0
102
RTVSPropertyOp57
 70
     0
102
RTVSPropertyOp58
 70
     0
102
RTVSPropertyOp59
 70
     0
102
RTVSPropertyOp60
 70
     0
102
RTVSPropertyOp61
 70
     0
102
RTVSPropertyOp62
 70
     0
  0
XRECORD
  5
A1F1
102
{ACAD_REACTORS
330
A1F0
102
}
330
A1F0
100
AcDbXrecord
280
     1
102
RTVSPost2010Prop28
280
     0
102
RTVSPost2010PropOp28
 70
     1
102
RTVSPost2010Prop29
280
     1
102
RTVSPost2010PropOp29
 70
     1
102
RTVSPost2010Prop30
280
     1
102
RTVSPost2010PropOp30
 70
     1
102
RTVSPost2010Prop31
280
     0
102
RTVSPost2010PropOp31
 70
     1
102
RTVSPost2010Prop32
280
     0
102
RTVSPost2010PropOp32
 70
     1
102
RTVSPost2010Prop33
280
     0
102
RTVSPost2010PropOp33
 70
     1
102
RTVSPost2010Prop34
280
     0
102
RTVSPost2010PropOp34
 70
     1
102
RTVSPost2010Prop35
280
     0
102
RTVSPost2010PropOp35
 70
     1
102
RTVSPost2010Prop36
280
     0
102
RTVSPost2010PropOp36
 70
     1
102
RTVSPost2010Prop37
 90
       50
102
RTVSPost2010PropOp37
 70
     1
102
RTVSPost2010Prop38
140
0.0
102
RTVSPost2010PropOp38
 70
     1
102
RTVSPost2010Prop39
140
1.0
102
RTVSPost2010PropOp39
 70
     1
102
RTVSPost2010Prop40
 90
        0
102
RTVSPost2010PropOp40
 70
     1
102
RTVSPost2010Prop41ColorIndex
 90
       18
102
RTVSPost2010Prop41ColorRGB
 90
        0
102
RTVSPost2010PropOp41
 70
     1
102
RTVSPost2010Prop42
 90
       50
102
RTVSPost2010PropOp42
 70
     1
102
RTVSPost2010Prop43
 90
        3
102
RTVSPost2010PropOp43
 70
     1
102
RTVSPost2010Prop44ColorIndex
 90
        5
102
RTVSPost2010Prop44ColorRGB
 90
      255
102
RTVSPost2010PropOp44
 70
     1
102
RTVSPost2010Prop45
280
     0
102
RTVSPost2010PropOp45
 70
     1
102
RTVSPost2010Prop46
 90
       50
102
RTVSPost2010PropOp46
 70
     1
102
RTVSPost2010Prop47
 90
       50
102
RTVSPost2010PropOp47
 70
     1
102
RTVSPost2010Prop48
 90
       50
102
RTVSPost2010PropOp48
 70
     1
102
RTVSPost2010Prop49
280
     0
102
RTVSPost2010PropOp49
 70
     1
102
RTVSPost2010Prop50
 90
       50
102
RTVSPost2010PropOp50
 70
     1
102
RTVSPost2010Prop51ColorIndex
 90
      256
102
RTVSPost2010Prop51ColorRGB
 90
-16777216
102
RTVSPost2010PropOp51
 70
     0
102
RTVSPost2010Prop52
140
1.0
102
RTVSPost2010PropOp52
 70
     0
102
RTVSPost2010Prop53
 90
        2
102
RTVSPost2010PropOp53
 70
     1
102
RTVSPost2010Prop54
  1
strokes_ogs.tif
102
RTVSPost2010PropOp54
 70
     1
102
RTVSPost2010Prop55
280
     0
102
RTVSPost2010PropOp55
 70
     1
102
RTVSPost2010Prop56
140
1.0
102
RTVSPost2010PropOp56
 70
     1
102
RTVSPost2010Prop57
140
1.0
102
RTVSPost2010PropOp57
 70
     1
102
RTVSPropertyOp0
 70
     1
102
RTVSPropertyOp1
 70
     1
102
RTVSPropertyOp2
 70
     1
102
RTVSPropertyOp3
 70
     1
102
RTVSPropertyOp4
 70
     1
102
RTVSPropertyOp5
 70
     1
102
RTVSPropertyOp6
 70
     1
102
RTVSPropertyOp7
 70
     1
102
RTVSPropertyOp8
 70
     1
102
RTVSPropertyOp9
 70
     1
102
RTVSPropertyOp10
 70
     1
102
RTVSPropertyOp11
 70
     1
102
RTVSPropertyOp12
 70
     1
102
RTVSPropertyOp13
 70
     1
102
RTVSPropertyOp14
 70
     1
102
RTVSPropertyOp15
 70
     1
102
RTVSPropertyOp16
 70
     1
102
RTVSPropertyOp17
 70
     1
102
RTVSPropertyOp18
 70
     1
102
RTVSPropertyOp19
 70
     1
102
RTVSPropertyOp20
 70
     1
102
RTVSPropertyOp21
 70
     1
102
RTVSPropertyOp22
 70
     1
102
RTVSPropertyOp23
 70
     1
102
RTVSPropertyOp24
 70
     1
102
RTVSPropertyOp25
 70
     1
102
RTVSPropertyOp26
 70
     1
102
RTVSPropertyOp27
 70
     1
102
RTVSPropertyOp28
 70
     1
102
RTVSPropertyOp29
 70
     1
102
RTVSPropertyOp30
 70
     1
102
RTVSPropertyOp31
 70
     1
102
RTVSPropertyOp32
 70
     1
102
RTVSPropertyOp33
 70
     1
102
RTVSPropertyOp34
 70
     1
102
RTVSPropertyOp35
 70
     1
102
RTVSPropertyOp36
 70
     1
102
RTVSPropertyOp37
 70
     1
102
RTVSPropertyOp38
 70
     1
102
RTVSPropertyOp39
 70
     1
102
RTVSPropertyOp40
 70
     1
102
RTVSPropertyOp41
 70
     1
102
RTVSPropertyOp42
 70
     1
102
RTVSPropertyOp43
 70
     1
102
RTVSPropertyOp44
 70
     1
102
RTVSPropertyOp45
 70
     1
102
RTVSPropertyOp46
 70
     1
102
RTVSPropertyOp47
 70
     1
102
RTVSPropertyOp48
 70
     1
102
RTVSPropertyOp49
 70
     1
102
RTVSPropertyOp50
 70
     1
102
RTVSPropertyOp51
 70
     0
102
RTVSPropertyOp52
 70
     0
102
RTVSPropertyOp53
 70
     1
102
RTVSPropertyOp54
 70
     1
102
RTVSPropertyOp55
 70
     1
102
RTVSPropertyOp56
 70
     1
102
RTVSPropertyOp57
 70
     1
102
RTVSPropertyOp58
 70
     1
102
RTVSPropertyOp59
 70
     1
102
RTVSPropertyOp60
 70
     1
102
RTVSPropertyOp61
 70
     1
102
RTVSPropertyOp62
 70
     1
  0
XRECORD
  5
A1D5
102
{ACAD_REACTORS
330
A1D4
102
}
330
A1D4
100
AcDbXrecord
280
     1
102
RTVSPost2010Prop28
280
     0
102
RTVSPost2010PropOp28
 70
     1
102
RTVSPost2010Prop29
280
     1
102
RTVSPost2010PropOp29
 70
     1
102
RTVSPost2010Prop30
280
     1
102
RTVSPost2010PropOp30
 70
     1
102
RTVSPost2010Prop31
280
     0
102
RTVSPost2010PropOp31
 70
     1
102
RTVSPost2010Prop32
280
     0
102
RTVSPost2010PropOp32
 70
     1
102
RTVSPost2010Prop33
280
     0
102
RTVSPost2010PropOp33
 70
     1
102
RTVSPost2010Prop34
280
     0
102
RTVSPost2010PropOp34
 70
     1
102
RTVSPost2010Prop35
280
     0
102
RTVSPost2010PropOp35
 70
     1
102
RTVSPost2010Prop36
280
     0
102
RTVSPost2010PropOp36
 70
     1
102
RTVSPost2010Prop37
 90
       50
102
RTVSPost2010PropOp37
 70
     1
102
RTVSPost2010Prop38
140
0.0
102
RTVSPost2010PropOp38
 70
     1
102
RTVSPost2010Prop39
140
1.0
102
RTVSPost2010PropOp39
 70
     1
102
RTVSPost2010Prop40
 90
        0
102
RTVSPost2010PropOp40
 70
     1
102
RTVSPost2010Prop41ColorIndex
 90
       18
102
RTVSPost2010Prop41ColorRGB
 90
        0
102
RTVSPost2010PropOp41
 70
     1
102
RTVSPost2010Prop42
 90
       50
102
RTVSPost2010PropOp42
 70
     1
102
RTVSPost2010Prop43
 90
        3
102
RTVSPost2010PropOp43
 70
     1
102
RTVSPost2010Prop44ColorIndex
 90
        5
102
RTVSPost2010Prop44ColorRGB
 90
      255
102
RTVSPost2010PropOp44
 70
     1
102
RTVSPost2010Prop45
280
     0
102
RTVSPost2010PropOp45
 70
     1
102
RTVSPost2010Prop46
 90
       50
102
RTVSPost2010PropOp46
 70
     1
102
RTVSPost2010Prop47
 90
       50
102
RTVSPost2010PropOp47
 70
     1
102
RTVSPost2010Prop48
 90
       50
102
RTVSPost2010PropOp48
 70
     1
102
RTVSPost2010Prop49
280
     0
102
RTVSPost2010PropOp49
 70
     1
102
RTVSPost2010Prop50
 90
       50
102
RTVSPost2010PropOp50
 70
     1
102
RTVSPost2010Prop51ColorIndex
 90
      256
102
RTVSPost2010Prop51ColorRGB
 90
-16777216
102
RTVSPost2010PropOp51
 70
     0
102
RTVSPost2010Prop52
140
1.0
102
RTVSPost2010PropOp52
 70
     0
102
RTVSPost2010Prop53
 90
        2
102
RTVSPost2010PropOp53
 70
     1
102
RTVSPost2010Prop54
  1
strokes_ogs.tif
102
RTVSPost2010PropOp54
 70
     1
102
RTVSPost2010Prop55
280
     0
102
RTVSPost2010PropOp55
 70
     1
102
RTVSPost2010Prop56
140
1.0
102
RTVSPost2010PropOp56
 70
     1
102
RTVSPost2010Prop57
140
1.0
102
RTVSPost2010PropOp57
 70
     1
102
RTVSPropertyOp0
 70
     1
102
RTVSPropertyOp1
 70
     1
102
RTVSPropertyOp2
 70
     1
102
RTVSPropertyOp3
 70
     1
102
RTVSPropertyOp4
 70
     1
102
RTVSPropertyOp5
 70
     1
102
RTVSPropertyOp6
 70
     1
102
RTVSPropertyOp7
 70
     1
102
RTVSPropertyOp8
 70
     1
102
RTVSPropertyOp9
 70
     1
102
RTVSPropertyOp10
 70
     1
102
RTVSPropertyOp11
 70
     1
102
RTVSPropertyOp12
 70
     1
102
RTVSPropertyOp13
 70
     1
102
RTVSPropertyOp14
 70
     1
102
RTVSPropertyOp15
 70
     1
102
RTVSPropertyOp16
 70
     1
102
RTVSPropertyOp17
 70
     1
102
RTVSPropertyOp18
 70
     1
102
RTVSPropertyOp19
 70
     1
102
RTVSPropertyOp20
 70
     1
102
RTVSPropertyOp21
 70
     1
102
RTVSPropertyOp22
 70
     1
102
RTVSPropertyOp23
 70
     1
102
RTVSPropertyOp24
 70
     1
102
RTVSPropertyOp25
 70
     1
102
RTVSPropertyOp26
 70
     1
102
RTVSPropertyOp27
 70
     1
102
RTVSPropertyOp28
 70
     1
102
RTVSPropertyOp29
 70
     1
102
RTVSPropertyOp30
 70
     1
102
RTVSPropertyOp31
 70
     1
102
RTVSPropertyOp32
 70
     1
102
RTVSPropertyOp33
 70
     1
102
RTVSPropertyOp34
 70
     1
102
RTVSPropertyOp35
 70
     1
102
RTVSPropertyOp36
 70
     1
102
RTVSPropertyOp37
 70
     1
102
RTVSPropertyOp38
 70
     1
102
RTVSPropertyOp39
 70
     1
102
RTVSPropertyOp40
 70
     1
102
RTVSPropertyOp41
 70
     1
102
RTVSPropertyOp42
 70
     1
102
RTVSPropertyOp43
 70
     1
102
RTVSPropertyOp44
 70
     1
102
RTVSPropertyOp45
 70
     1
102
RTVSPropertyOp46
 70
     1
102
RTVSPropertyOp47
 70
     1
102
RTVSPropertyOp48
 70
     1
102
RTVSPropertyOp49
 70
     1
102
RTVSPropertyOp50
 70
     1
102
RTVSPropertyOp51
 70
     0
102
RTVSPropertyOp52
 70
     0
102
RTVSPropertyOp53
 70
     1
102
RTVSPropertyOp54
 70
     1
102
RTVSPropertyOp55
 70
     1
102
RTVSPropertyOp56
 70
     1
102
RTVSPropertyOp57
 70
     1
102
RTVSPropertyOp58
 70
     1
102
RTVSPropertyOp59
 70
     1
102
RTVSPropertyOp60
 70
     1
102
RTVSPropertyOp61
 70
     1
102
RTVSPropertyOp62
 70
     1
  0
XRECORD
  5
A1D7
102
{ACAD_REACTORS
330
A1D6
102
}
330
A1D6
100
AcDbXrecord
280
     1
102
RTVSPost2010Prop28
280
     0
102
RTVSPost2010PropOp28
 70
     1
102
RTVSPost2010Prop29
280
     1
102
RTVSPost2010PropOp29
 70
     1
102
RTVSPost2010Prop30
280
     1
102
RTVSPost2010PropOp30
 70
     1
102
RTVSPost2010Prop31
280
     0
102
RTVSPost2010PropOp31
 70
     1
102
RTVSPost2010Prop32
280
     0
102
RTVSPost2010PropOp32
 70
     1
102
RTVSPost2010Prop33
280
     0
102
RTVSPost2010PropOp33
 70
     1
102
RTVSPost2010Prop34
280
     0
102
RTVSPost2010PropOp34
 70
     1
102
RTVSPost2010Prop35
280
     0
102
RTVSPost2010PropOp35
 70
     1
102
RTVSPost2010Prop36
280
     0
102
RTVSPost2010PropOp36
 70
     1
102
RTVSPost2010Prop37
 90
       50
102
RTVSPost2010PropOp37
 70
     1
102
RTVSPost2010Prop38
140
0.0
102
RTVSPost2010PropOp38
 70
     1
102
RTVSPost2010Prop39
140
1.0
102
RTVSPost2010PropOp39
 70
     1
102
RTVSPost2010Prop40
 90
        0
102
RTVSPost2010PropOp40
 70
     1
102
RTVSPost2010Prop41ColorIndex
 90
       18
102
RTVSPost2010Prop41ColorRGB
 90
        0
102
RTVSPost2010PropOp41
 70
     1
102
RTVSPost2010Prop42
 90
       50
102
RTVSPost2010PropOp42
 70
     1
102
RTVSPost2010Prop43
 90
        3
102
RTVSPost2010PropOp43
 70
     1
102
RTVSPost2010Prop44ColorIndex
 90
        5
102
RTVSPost2010Prop44ColorRGB
 90
      255
102
RTVSPost2010PropOp44
 70
     1
102
RTVSPost2010Prop45
280
     0
102
RTVSPost2010PropOp45
 70
     1
102
RTVSPost2010Prop46
 90
       50
102
RTVSPost2010PropOp46
 70
     1
102
RTVSPost2010Prop47
 90
       50
102
RTVSPost2010PropOp47
 70
     1
102
RTVSPost2010Prop48
 90
       50
102
RTVSPost2010PropOp48
 70
     1
102
RTVSPost2010Prop49
280
     0
102
RTVSPost2010PropOp49
 70
     1
102
RTVSPost2010Prop50
 90
       50
102
RTVSPost2010PropOp50
 70
     1
102
RTVSPost2010Prop51ColorIndex
 90
      256
102
RTVSPost2010Prop51ColorRGB
 90
-16777216
102
RTVSPost2010PropOp51
 70
     0
102
RTVSPost2010Prop52
140
1.0
102
RTVSPost2010PropOp52
 70
     0
102
RTVSPost2010Prop53
 90
        2
102
RTVSPost2010PropOp53
 70
     1
102
RTVSPost2010Prop54
  1
strokes_ogs.tif
102
RTVSPost2010PropOp54
 70
     1
102
RTVSPost2010Prop55
280
     0
102
RTVSPost2010PropOp55
 70
     1
102
RTVSPost2010Prop56
140
1.0
102
RTVSPost2010PropOp56
 70
     1
102
RTVSPost2010Prop57
140
1.0
102
RTVSPost2010PropOp57
 70
     1
102
RTVSPropertyOp0
 70
     1
102
RTVSPropertyOp1
 70
     1
102
RTVSPropertyOp2
 70
     1
102
RTVSPropertyOp3
 70
     1
102
RTVSPropertyOp4
 70
     1
102
RTVSPropertyOp5
 70
     1
102
RTVSPropertyOp6
 70
     1
102
RTVSPropertyOp7
 70
     1
102
RTVSPropertyOp8
 70
     1
102
RTVSPropertyOp9
 70
     1
102
RTVSPropertyOp10
 70
     1
102
RTVSPropertyOp11
 70
     1
102
RTVSPropertyOp12
 70
     1
102
RTVSPropertyOp13
 70
     1
102
RTVSPropertyOp14
 70
     1
102
RTVSPropertyOp15
 70
     1
102
RTVSPropertyOp16
 70
     1
102
RTVSPropertyOp17
 70
     1
102
RTVSPropertyOp18
 70
     1
102
RTVSPropertyOp19
 70
     1
102
RTVSPropertyOp20
 70
     1
102
RTVSPropertyOp21
 70
     1
102
RTVSPropertyOp22
 70
     1
102
RTVSPropertyOp23
 70
     1
102
RTVSPropertyOp24
 70
     1
102
RTVSPropertyOp25
 70
     1
102
RTVSPropertyOp26
 70
     1
102
RTVSPropertyOp27
 70
     1
102
RTVSPropertyOp28
 70
     1
102
RTVSPropertyOp29
 70
     1
102
RTVSPropertyOp30
 70
     1
102
RTVSPropertyOp31
 70
     1
102
RTVSPropertyOp32
 70
     1
102
RTVSPropertyOp33
 70
     1
102
RTVSPropertyOp34
 70
     1
102
RTVSPropertyOp35
 70
     1
102
RTVSPropertyOp36
 70
     1
102
RTVSPropertyOp37
 70
     1
102
RTVSPropertyOp38
 70
     1
102
RTVSPropertyOp39
 70
     1
102
RTVSPropertyOp40
 70
     1
102
RTVSPropertyOp41
 70
     1
102
RTVSPropertyOp42
 70
     1
102
RTVSPropertyOp43
 70
     1
102
RTVSPropertyOp44
 70
     1
102
RTVSPropertyOp45
 70
     1
102
RTVSPropertyOp46
 70
     1
102
RTVSPropertyOp47
 70
     1
102
RTVSPropertyOp48
 70
     1
102
RTVSPropertyOp49
 70
     1
102
RTVSPropertyOp50
 70
     1
102
RTVSPropertyOp51
 70
     0
102
RTVSPropertyOp52
 70
     0
102
RTVSPropertyOp53
 70
     1
102
RTVSPropertyOp54
 70
     1
102
RTVSPropertyOp55
 70
     1
102
RTVSPropertyOp56
 70
     1
102
RTVSPropertyOp57
 70
     1
102
RTVSPropertyOp58
 70
     1
102
RTVSPropertyOp59
 70
     1
102
RTVSPropertyOp60
 70
     1
102
RTVSPropertyOp61
 70
     1
102
RTVSPropertyOp62
 70
     1
  0
XRECORD
  5
A1D9
102
{ACAD_REACTORS
330
A1D8
102
}
330
A1D8
100
AcDbXrecord
280
     1
102
RTVSPost2010Prop28
280
     0
102
RTVSPost2010PropOp28
 70
     1
102
RTVSPost2010Prop29
280
     1
102
RTVSPost2010PropOp29
 70
     1
102
RTVSPost2010Prop30
280
     1
102
RTVSPost2010PropOp30
 70
     1
102
RTVSPost2010Prop31
280
     0
102
RTVSPost2010PropOp31
 70
     1
102
RTVSPost2010Prop32
280
     0
102
RTVSPost2010PropOp32
 70
     1
102
RTVSPost2010Prop33
280
     0
102
RTVSPost2010PropOp33
 70
     1
102
RTVSPost2010Prop34
280
     0
102
RTVSPost2010PropOp34
 70
     1
102
RTVSPost2010Prop35
280
     0
102
RTVSPost2010PropOp35
 70
     1
102
RTVSPost2010Prop36
280
     0
102
RTVSPost2010PropOp36
 70
     1
102
RTVSPost2010Prop37
 90
       50
102
RTVSPost2010PropOp37
 70
     1
102
RTVSPost2010Prop38
140
0.0
102
RTVSPost2010PropOp38
 70
     1
102
RTVSPost2010Prop39
140
1.0
102
RTVSPost2010PropOp39
 70
     1
102
RTVSPost2010Prop40
 90
        0
102
RTVSPost2010PropOp40
 70
     1
102
RTVSPost2010Prop41ColorIndex
 90
       18
102
RTVSPost2010Prop41ColorRGB
 90
        0
102
RTVSPost2010PropOp41
 70
     1
102
RTVSPost2010Prop42
 90
       50
102
RTVSPost2010PropOp42
 70
     1
102
RTVSPost2010Prop43
 90
        3
102
RTVSPost2010PropOp43
 70
     1
102
RTVSPost2010Prop44ColorIndex
 90
        5
102
RTVSPost2010Prop44ColorRGB
 90
      255
102
RTVSPost2010PropOp44
 70
     1
102
RTVSPost2010Prop45
280
     0
102
RTVSPost2010PropOp45
 70
     1
102
RTVSPost2010Prop46
 90
       50
102
RTVSPost2010PropOp46
 70
     1
102
RTVSPost2010Prop47
 90
       50
102
RTVSPost2010PropOp47
 70
     1
102
RTVSPost2010Prop48
 90
       50
102
RTVSPost2010PropOp48
 70
     1
102
RTVSPost2010Prop49
280
     0
102
RTVSPost2010PropOp49
 70
     1
102
RTVSPost2010Prop50
 90
       50
102
RTVSPost2010PropOp50
 70
     1
102
RTVSPost2010Prop51ColorIndex
 90
      256
102
RTVSPost2010Prop51ColorRGB
 90
-16777216
102
RTVSPost2010PropOp51
 70
     0
102
RTVSPost2010Prop52
140
1.0
102
RTVSPost2010PropOp52
 70
     0
102
RTVSPost2010Prop53
 90
        2
102
RTVSPost2010PropOp53
 70
     1
102
RTVSPost2010Prop54
  1
strokes_ogs.tif
102
RTVSPost2010PropOp54
 70
     1
102
RTVSPost2010Prop55
280
     0
102
RTVSPost2010PropOp55
 70
     1
102
RTVSPost2010Prop56
140
1.0
102
RTVSPost2010PropOp56
 70
     1
102
RTVSPost2010Prop57
140
1.0
102
RTVSPost2010PropOp57
 70
     1
102
RTVSPropertyOp0
 70
     1
102
RTVSPropertyOp1
 70
     1
102
RTVSPropertyOp2
 70
     1
102
RTVSPropertyOp3
 70
     1
102
RTVSPropertyOp4
 70
     1
102
RTVSPropertyOp5
 70
     1
102
RTVSPropertyOp6
 70
     1
102
RTVSPropertyOp7
 70
     1
102
RTVSPropertyOp8
 70
     1
102
RTVSPropertyOp9
 70
     1
102
RTVSPropertyOp10
 70
     1
102
RTVSPropertyOp11
 70
     1
102
RTVSPropertyOp12
 70
     1
102
RTVSPropertyOp13
 70
     1
102
RTVSPropertyOp14
 70
     1
102
RTVSPropertyOp15
 70
     1
102
RTVSPropertyOp16
 70
     1
102
RTVSPropertyOp17
 70
     1
102
RTVSPropertyOp18
 70
     1
102
RTVSPropertyOp19
 70
     1
102
RTVSPropertyOp20
 70
     1
102
RTVSPropertyOp21
 70
     1
102
RTVSPropertyOp22
 70
     1
102
RTVSPropertyOp23
 70
     1
102
RTVSPropertyOp24
 70
     1
102
RTVSPropertyOp25
 70
     1
102
RTVSPropertyOp26
 70
     1
102
RTVSPropertyOp27
 70
     1
102
RTVSPropertyOp28
 70
     1
102
RTVSPropertyOp29
 70
     1
102
RTVSPropertyOp30
 70
     1
102
RTVSPropertyOp31
 70
     1
102
RTVSPropertyOp32
 70
     1
102
RTVSPropertyOp33
 70
     1
102
RTVSPropertyOp34
 70
     1
102
RTVSPropertyOp35
 70
     1
102
RTVSPropertyOp36
 70
     1
102
RTVSPropertyOp37
 70
     1
102
RTVSPropertyOp38
 70
     1
102
RTVSPropertyOp39
 70
     1
102
RTVSPropertyOp40
 70
     1
102
RTVSPropertyOp41
 70
     1
102
RTVSPropertyOp42
 70
     1
102
RTVSPropertyOp43
 70
     1
102
RTVSPropertyOp44
 70
     1
102
RTVSPropertyOp45
 70
     1
102
RTVSPropertyOp46
 70
     1
102
RTVSPropertyOp47
 70
     1
102
RTVSPropertyOp48
 70
     1
102
RTVSPropertyOp49
 70
     1
102
RTVSPropertyOp50
 70
     1
102
RTVSPropertyOp51
 70
     0
102
RTVSPropertyOp52
 70
     0
102
RTVSPropertyOp53
 70
     1
102
RTVSPropertyOp54
 70
     1
102
RTVSPropertyOp55
 70
     1
102
RTVSPropertyOp56
 70
     1
102
RTVSPropertyOp57
 70
     1
102
RTVSPropertyOp58
 70
     1
102
RTVSPropertyOp59
 70
     1
102
RTVSPropertyOp60
 70
     1
102
RTVSPropertyOp61
 70
     1
102
RTVSPropertyOp62
 70
     1
  0
XRECORD
  5
A1DB
102
{ACAD_REACTORS
330
A1DA
102
}
330
A1DA
100
AcDbXrecord
280
     1
102
RTVSPost2010Prop28
280
     0
102
RTVSPost2010PropOp28
 70
     1
102
RTVSPost2010Prop29
280
     1
102
RTVSPost2010PropOp29
 70
     1
102
RTVSPost2010Prop30
280
     1
102
RTVSPost2010PropOp30
 70
     1
102
RTVSPost2010Prop31
280
     0
102
RTVSPost2010PropOp31
 70
     1
102
RTVSPost2010Prop32
280
     0
102
RTVSPost2010PropOp32
 70
     1
102
RTVSPost2010Prop33
280
     0
102
RTVSPost2010PropOp33
 70
     1
102
RTVSPost2010Prop34
280
     0
102
RTVSPost2010PropOp34
 70
     1
102
RTVSPost2010Prop35
280
     0
102
RTVSPost2010PropOp35
 70
     1
102
RTVSPost2010Prop36
280
     0
102
RTVSPost2010PropOp36
 70
     1
102
RTVSPost2010Prop37
 90
       50
102
RTVSPost2010PropOp37
 70
     1
102
RTVSPost2010Prop38
140
0.0
102
RTVSPost2010PropOp38
 70
     1
102
RTVSPost2010Prop39
140
1.0
102
RTVSPost2010PropOp39
 70
     1
102
RTVSPost2010Prop40
 90
        0
102
RTVSPost2010PropOp40
 70
     1
102
RTVSPost2010Prop41ColorIndex
 90
       18
102
RTVSPost2010Prop41ColorRGB
 90
        0
102
RTVSPost2010PropOp41
 70
     1
102
RTVSPost2010Prop42
 90
       50
102
RTVSPost2010PropOp42
 70
     1
102
RTVSPost2010Prop43
 90
        3
102
RTVSPost2010PropOp43
 70
     1
102
RTVSPost2010Prop44ColorIndex
 90
        5
102
RTVSPost2010Prop44ColorRGB
 90
      255
102
RTVSPost2010PropOp44
 70
     1
102
RTVSPost2010Prop45
280
     0
102
RTVSPost2010PropOp45
 70
     1
102
RTVSPost2010Prop46
 90
       50
102
RTVSPost2010PropOp46
 70
     1
102
RTVSPost2010Prop47
 90
       50
102
RTVSPost2010PropOp47
 70
     1
102
RTVSPost2010Prop48
 90
       50
102
RTVSPost2010PropOp48
 70
     1
102
RTVSPost2010Prop49
280
     0
102
RTVSPost2010PropOp49
 70
     1
102
RTVSPost2010Prop50
 90
       50
102
RTVSPost2010PropOp50
 70
     1
102
RTVSPost2010Prop51ColorIndex
 90
      256
102
RTVSPost2010Prop51ColorRGB
 90
-16777216
102
RTVSPost2010PropOp51
 70
     0
102
RTVSPost2010Prop52
140
1.0
102
RTVSPost2010PropOp52
 70
     0
102
RTVSPost2010Prop53
 90
        2
102
RTVSPost2010PropOp53
 70
     1
102
RTVSPost2010Prop54
  1
strokes_ogs.tif
102
RTVSPost2010PropOp54
 70
     1
102
RTVSPost2010Prop55
280
     0
102
RTVSPost2010PropOp55
 70
     1
102
RTVSPost2010Prop56
140
1.0
102
RTVSPost2010PropOp56
 70
     1
102
RTVSPost2010Prop57
140
1.0
102
RTVSPost2010PropOp57
 70
     1
102
RTVSPropertyOp0
 70
     1
102
RTVSPropertyOp1
 70
     1
102
RTVSPropertyOp2
 70
     1
102
RTVSPropertyOp3
 70
     1
102
RTVSPropertyOp4
 70
     1
102
RTVSPropertyOp5
 70
     1
102
RTVSPropertyOp6
 70
     1
102
RTVSPropertyOp7
 70
     1
102
RTVSPropertyOp8
 70
     1
102
RTVSPropertyOp9
 70
     1
102
RTVSPropertyOp10
 70
     1
102
RTVSPropertyOp11
 70
     1
102
RTVSPropertyOp12
 70
     1
102
RTVSPropertyOp13
 70
     1
102
RTVSPropertyOp14
 70
     1
102
RTVSPropertyOp15
 70
     1
102
RTVSPropertyOp16
 70
     1
102
RTVSPropertyOp17
 70
     1
102
RTVSPropertyOp18
 70
     1
102
RTVSPropertyOp19
 70
     1
102
RTVSPropertyOp20
 70
     1
102
RTVSPropertyOp21
 70
     1
102
RTVSPropertyOp22
 70
     1
102
RTVSPropertyOp23
 70
     1
102
RTVSPropertyOp24
 70
     1
102
RTVSPropertyOp25
 70
     1
102
RTVSPropertyOp26
 70
     1
102
RTVSPropertyOp27
 70
     1
102
RTVSPropertyOp28
 70
     1
102
RTVSPropertyOp29
 70
     1
102
RTVSPropertyOp30
 70
     1
102
RTVSPropertyOp31
 70
     1
102
RTVSPropertyOp32
 70
     1
102
RTVSPropertyOp33
 70
     1
102
RTVSPropertyOp34
 70
     1
102
RTVSPropertyOp35
 70
     1
102
RTVSPropertyOp36
 70
     1
102
RTVSPropertyOp37
 70
     1
102
RTVSPropertyOp38
 70
     1
102
RTVSPropertyOp39
 70
     1
102
RTVSPropertyOp40
 70
     1
102
RTVSPropertyOp41
 70
     1
102
RTVSPropertyOp42
 70
     1
102
RTVSPropertyOp43
 70
     1
102
RTVSPropertyOp44
 70
     1
102
RTVSPropertyOp45
 70
     1
102
RTVSPropertyOp46
 70
     1
102
RTVSPropertyOp47
 70
     1
102
RTVSPropertyOp48
 70
     1
102
RTVSPropertyOp49
 70
     1
102
RTVSPropertyOp50
 70
     1
102
RTVSPropertyOp51
 70
     0
102
RTVSPropertyOp52
 70
     0
102
RTVSPropertyOp53
 70
     1
102
RTVSPropertyOp54
 70
     1
102
RTVSPropertyOp55
 70
     1
102
RTVSPropertyOp56
 70
     1
102
RTVSPropertyOp57
 70
     1
102
RTVSPropertyOp58
 70
     1
102
RTVSPropertyOp59
 70
     1
102
RTVSPropertyOp60
 70
     1
102
RTVSPropertyOp61
 70
     1
102
RTVSPropertyOp62
 70
     1
  0
XRECORD
  5
A1E3
102
{ACAD_REACTORS
330
A1E2
102
}
330
A1E2
100
AcDbXrecord
280
     1
102
RTVSPost2010Prop28
280
     0
102
RTVSPost2010PropOp28
 70
     1
102
RTVSPost2010Prop29
280
     1
102
RTVSPost2010PropOp29
 70
     1
102
RTVSPost2010Prop30
280
     1
102
RTVSPost2010PropOp30
 70
     1
102
RTVSPost2010Prop31
280
     0
102
RTVSPost2010PropOp31
 70
     1
102
RTVSPost2010Prop32
280
     0
102
RTVSPost2010PropOp32
 70
     1
102
RTVSPost2010Prop33
280
     0
102
RTVSPost2010PropOp33
 70
     1
102
RTVSPost2010Prop34
280
     0
102
RTVSPost2010PropOp34
 70
     1
102
RTVSPost2010Prop35
280
     0
102
RTVSPost2010PropOp35
 70
     1
102
RTVSPost2010Prop36
280
     0
102
RTVSPost2010PropOp36
 70
     1
102
RTVSPost2010Prop37
 90
       50
102
RTVSPost2010PropOp37
 70
     1
102
RTVSPost2010Prop38
140
0.0
102
RTVSPost2010PropOp38
 70
     1
102
RTVSPost2010Prop39
140
1.0
102
RTVSPost2010PropOp39
 70
     1
102
RTVSPost2010Prop40
 90
        0
102
RTVSPost2010PropOp40
 70
     1
102
RTVSPost2010Prop41ColorIndex
 90
       18
102
RTVSPost2010Prop41ColorRGB
 90
        0
102
RTVSPost2010PropOp41
 70
     1
102
RTVSPost2010Prop42
 90
       50
102
RTVSPost2010PropOp42
 70
     1
102
RTVSPost2010Prop43
 90
        3
102
RTVSPost2010PropOp43
 70
     1
102
RTVSPost2010Prop44ColorIndex
 90
        5
102
RTVSPost2010Prop44ColorRGB
 90
      255
102
RTVSPost2010PropOp44
 70
     1
102
RTVSPost2010Prop45
280
     0
102
RTVSPost2010PropOp45
 70
     1
102
RTVSPost2010Prop46
 90
       50
102
RTVSPost2010PropOp46
 70
     1
102
RTVSPost2010Prop47
 90
       50
102
RTVSPost2010PropOp47
 70
     1
102
RTVSPost2010Prop48
 90
       50
102
RTVSPost2010PropOp48
 70
     1
102
RTVSPost2010Prop49
280
     0
102
RTVSPost2010PropOp49
 70
     1
102
RTVSPost2010Prop50
 90
       50
102
RTVSPost2010PropOp50
 70
     1
102
RTVSPost2010Prop51ColorIndex
 90
      256
102
RTVSPost2010Prop51ColorRGB
 90
-16777216
102
RTVSPost2010PropOp51
 70
     0
102
RTVSPost2010Prop52
140
1.0
102
RTVSPost2010PropOp52
 70
     0
102
RTVSPost2010Prop53
 90
        2
102
RTVSPost2010PropOp53
 70
     1
102
RTVSPost2010Prop54
  1
strokes_ogs.tif
102
RTVSPost2010PropOp54
 70
     1
102
RTVSPost2010Prop55
280
     0
102
RTVSPost2010PropOp55
 70
     1
102
RTVSPost2010Prop56
140
1.0
102
RTVSPost2010PropOp56
 70
     1
102
RTVSPost2010Prop57
140
1.0
102
RTVSPost2010PropOp57
 70
     1
102
RTVSPropertyOp0
 70
     1
102
RTVSPropertyOp1
 70
     1
102
RTVSPropertyOp2
 70
     1
102
RTVSPropertyOp3
 70
     1
102
RTVSPropertyOp4
 70
     1
102
RTVSPropertyOp5
 70
     1
102
RTVSPropertyOp6
 70
     1
102
RTVSPropertyOp7
 70
     1
102
RTVSPropertyOp8
 70
     1
102
RTVSPropertyOp9
 70
     1
102
RTVSPropertyOp10
 70
     1
102
RTVSPropertyOp11
 70
     1
102
RTVSPropertyOp12
 70
     1
102
RTVSPropertyOp13
 70
     1
102
RTVSPropertyOp14
 70
     1
102
RTVSPropertyOp15
 70
     1
102
RTVSPropertyOp16
 70
     1
102
RTVSPropertyOp17
 70
     1
102
RTVSPropertyOp18
 70
     1
102
RTVSPropertyOp19
 70
     1
102
RTVSPropertyOp20
 70
     1
102
RTVSPropertyOp21
 70
     1
102
RTVSPropertyOp22
 70
     1
102
RTVSPropertyOp23
 70
     1
102
RTVSPropertyOp24
 70
     1
102
RTVSPropertyOp25
 70
     1
102
RTVSPropertyOp26
 70
     1
102
RTVSPropertyOp27
 70
     1
102
RTVSPropertyOp28
 70
     1
102
RTVSPropertyOp29
 70
     1
102
RTVSPropertyOp30
 70
     1
102
RTVSPropertyOp31
 70
     1
102
RTVSPropertyOp32
 70
     1
102
RTVSPropertyOp33
 70
     1
102
RTVSPropertyOp34
 70
     1
102
RTVSPropertyOp35
 70
     1
102
RTVSPropertyOp36
 70
     1
102
RTVSPropertyOp37
 70
     1
102
RTVSPropertyOp38
 70
     1
102
RTVSPropertyOp39
 70
     1
102
RTVSPropertyOp40
 70
     1
102
RTVSPropertyOp41
 70
     1
102
RTVSPropertyOp42
 70
     1
102
RTVSPropertyOp43
 70
     1
102
RTVSPropertyOp44
 70
     1
102
RTVSPropertyOp45
 70
     1
102
RTVSPropertyOp46
 70
     1
102
RTVSPropertyOp47
 70
     1
102
RTVSPropertyOp48
 70
     1
102
RTVSPropertyOp49
 70
     1
102
RTVSPropertyOp50
 70
     1
102
RTVSPropertyOp51
 70
     0
102
RTVSPropertyOp52
 70
     0
102
RTVSPropertyOp53
 70
     1
102
RTVSPropertyOp54
 70
     1
102
RTVSPropertyOp55
 70
     1
102
RTVSPropertyOp56
 70
     1
102
RTVSPropertyOp57
 70
     1
102
RTVSPropertyOp58
 70
     1
102
RTVSPropertyOp59
 70
     1
102
RTVSPropertyOp60
 70
     1
102
RTVSPropertyOp61
 70
     1
102
RTVSPropertyOp62
 70
     1
  0
XRECORD
  5
A1FF
102
{ACAD_REACTORS
330
A1FE
102
}
330
A1FE
100
AcDbXrecord
280
     1
102
RTVSPost2010Prop28
280
     0
102
RTVSPost2010PropOp28
 70
     1
102
RTVSPost2010Prop29
280
     1
102
RTVSPost2010PropOp29
 70
     1
102
RTVSPost2010Prop30
280
     1
102
RTVSPost2010PropOp30
 70
     1
102
RTVSPost2010Prop31
280
     0
102
RTVSPost2010PropOp31
 70
     1
102
RTVSPost2010Prop32
280
     0
102
RTVSPost2010PropOp32
 70
     1
102
RTVSPost2010Prop33
280
     0
102
RTVSPost2010PropOp33
 70
     1
102
RTVSPost2010Prop34
280
     0
102
RTVSPost2010PropOp34
 70
     1
102
RTVSPost2010Prop35
280
     0
102
RTVSPost2010PropOp35
 70
     1
102
RTVSPost2010Prop36
280
     0
102
RTVSPost2010PropOp36
 70
     1
102
RTVSPost2010Prop37
 90
       50
102
RTVSPost2010PropOp37
 70
     0
102
RTVSPost2010Prop38
140
0.0
102
RTVSPost2010PropOp38
 70
     0
102
RTVSPost2010Prop39
140
1.0
102
RTVSPost2010PropOp39
 70
     0
102
RTVSPost2010Prop40
 90
        0
102
RTVSPost2010PropOp40
 70
     0
102
RTVSPost2010Prop41ColorIndex
 90
       18
102
RTVSPost2010Prop41ColorRGB
 90
        0
102
RTVSPost2010PropOp41
 70
     0
102
RTVSPost2010Prop42
 90
       50
102
RTVSPost2010PropOp42
 70
     0
102
RTVSPost2010Prop43
 90
        3
102
RTVSPost2010PropOp43
 70
     0
102
RTVSPost2010Prop44ColorIndex
 90
        5
102
RTVSPost2010Prop44ColorRGB
 90
      255
102
RTVSPost2010PropOp44
 70
     0
102
RTVSPost2010Prop45
280
     0
102
RTVSPost2010PropOp45
 70
     1
102
RTVSPost2010Prop46
 90
       50
102
RTVSPost2010PropOp46
 70
     0
102
RTVSPost2010Prop47
 90
       50
102
RTVSPost2010PropOp47
 70
     0
102
RTVSPost2010Prop48
 90
       50
102
RTVSPost2010PropOp48
 70
     0
102
RTVSPost2010Prop49
280
     0
102
RTVSPost2010PropOp49
 70
     1
102
RTVSPost2010Prop50
 90
       50
102
RTVSPost2010PropOp50
 70
     0
102
RTVSPost2010Prop51ColorIndex
 90
      256
102
RTVSPost2010Prop51ColorRGB
 90
-16777216
102
RTVSPost2010PropOp51
 70
     0
102
RTVSPost2010Prop52
140
1.0
102
RTVSPost2010PropOp52
 70
     0
102
RTVSPost2010Prop53
 90
        2
102
RTVSPost2010PropOp53
 70
     0
102
RTVSPost2010Prop54
  1
strokes_ogs.tif
102
RTVSPost2010PropOp54
 70
     0
102
RTVSPost2010Prop55
280
     0
102
RTVSPost2010PropOp55
 70
     1
102
RTVSPost2010Prop56
140
1.0
102
RTVSPost2010PropOp56
 70
     0
102
RTVSPost2010Prop57
140
1.0
102
RTVSPost2010PropOp57
 70
     0
102
RTVSPropertyOp0
 70
     0
102
RTVSPropertyOp1
 70
     0
102
RTVSPropertyOp2
 70
     0
102
RTVSPropertyOp3
 70
     0
102
RTVSPropertyOp4
 70
     0
102
RTVSPropertyOp5
 70
     0
102
RTVSPropertyOp6
 70
     0
102
RTVSPropertyOp7
 70
     0
102
RTVSPropertyOp8
 70
     0
102
RTVSPropertyOp9
 70
     0
102
RTVSPropertyOp10
 70
     0
102
RTVSPropertyOp11
 70
     0
102
RTVSPropertyOp12
 70
     0
102
RTVSPropertyOp13
 70
     0
102
RTVSPropertyOp14
 70
     2
102
RTVSPropertyOp15
 70
     0
102
RTVSPropertyOp16
 70
     0
102
RTVSPropertyOp17
 70
     0
102
RTVSPropertyOp18
 70
     0
102
RTVSPropertyOp19
 70
     0
102
RTVSPropertyOp20
 70
     0
102
RTVSPropertyOp21
 70
     0
102
RTVSPropertyOp22
 70
     0
102
RTVSPropertyOp23
 70
     0
102
RTVSPropertyOp24
 70
     0
102
RTVSPropertyOp25
 70
     0
102
RTVSPropertyOp26
 70
     0
102
RTVSPropertyOp27
 70
     0
102
RTVSPropertyOp28
 70
     1
102
RTVSPropertyOp29
 70
     1
102
RTVSPropertyOp30
 70
     1
102
RTVSPropertyOp31
 70
     1
102
RTVSPropertyOp32
 70
     1
102
RTVSPropertyOp33
 70
     1
102
RTVSPropertyOp34
 70
     1
102
RTVSPropertyOp35
 70
     1
102
RTVSPropertyOp36
 70
     1
102
RTVSPropertyOp37
 70
     0
102
RTVSPropertyOp38
 70
     0
102
RTVSPropertyOp39
 70
     0
102
RTVSPropertyOp40
 70
     0
102
RTVSPropertyOp41
 70
     0
102
RTVSPropertyOp42
 70
     0
102
RTVSPropertyOp43
 70
     0
102
RTVSPropertyOp44
 70
     0
102
RTVSPropertyOp45
 70
     1
102
RTVSPropertyOp46
 70
     0
102
RTVSPropertyOp47
 70
     0
102
RTVSPropertyOp48
 70
     0
102
RTVSPropertyOp49
 70
     1
102
RTVSPropertyOp50
 70
     0
102
RTVSPropertyOp51
 70
     0
102
RTVSPropertyOp52
 70
     0
102
RTVSPropertyOp53
 70
     0
102
RTVSPropertyOp54
 70
     0
102
RTVSPropertyOp55
 70
     1
102
RTVSPropertyOp56
 70
     0
102
RTVSPropertyOp57
 70
     0
102
RTVSPropertyOp58
 70
     0
102
RTVSPropertyOp59
 70
     0
102
RTVSPropertyOp60
 70
     0
102
RTVSPropertyOp61
 70
     0
102
RTVSPropertyOp62
 70
     0
  0
XRECORD
  5
A1EF
102
{ACAD_REACTORS
330
A1EE
102
}
330
A1EE
100
AcDbXrecord
280
     1
102
RTVSPost2010Prop28
280
     0
102
RTVSPost2010PropOp28
 70
     1
102
RTVSPost2010Prop29
280
     1
102
RTVSPost2010PropOp29
 70
     1
102
RTVSPost2010Prop30
280
     1
102
RTVSPost2010PropOp30
 70
     1
102
RTVSPost2010Prop31
280
     0
102
RTVSPost2010PropOp31
 70
     1
102
RTVSPost2010Prop32
280
     0
102
RTVSPost2010PropOp32
 70
     1
102
RTVSPost2010Prop33
280
     0
102
RTVSPost2010PropOp33
 70
     1
102
RTVSPost2010Prop34
280
     0
102
RTVSPost2010PropOp34
 70
     1
102
RTVSPost2010Prop35
280
     0
102
RTVSPost2010PropOp35
 70
     1
102
RTVSPost2010Prop36
280
     0
102
RTVSPost2010PropOp36
 70
     1
102
RTVSPost2010Prop37
 90
       50
102
RTVSPost2010PropOp37
 70
     1
102
RTVSPost2010Prop38
140
0.0
102
RTVSPost2010PropOp38
 70
     1
102
RTVSPost2010Prop39
140
1.0
102
RTVSPost2010PropOp39
 70
     1
102
RTVSPost2010Prop40
 90
        0
102
RTVSPost2010PropOp40
 70
     1
102
RTVSPost2010Prop41ColorIndex
 90
       18
102
RTVSPost2010Prop41ColorRGB
 90
        0
102
RTVSPost2010PropOp41
 70
     1
102
RTVSPost2010Prop42
 90
       50
102
RTVSPost2010PropOp42
 70
     1
102
RTVSPost2010Prop43
 90
        3
102
RTVSPost2010PropOp43
 70
     1
102
RTVSPost2010Prop44ColorIndex
 90
        5
102
RTVSPost2010Prop44ColorRGB
 90
      255
102
RTVSPost2010PropOp44
 70
     1
102
RTVSPost2010Prop45
280
     0
102
RTVSPost2010PropOp45
 70
     1
102
RTVSPost2010Prop46
 90
       50
102
RTVSPost2010PropOp46
 70
     1
102
RTVSPost2010Prop47
 90
       50
102
RTVSPost2010PropOp47
 70
     1
102
RTVSPost2010Prop48
 90
       50
102
RTVSPost2010PropOp48
 70
     1
102
RTVSPost2010Prop49
280
     0
102
RTVSPost2010PropOp49
 70
     1
102
RTVSPost2010Prop50
 90
       50
102
RTVSPost2010PropOp50
 70
     1
102
RTVSPost2010Prop51ColorIndex
 90
      256
102
RTVSPost2010Prop51ColorRGB
 90
-16777216
102
RTVSPost2010PropOp51
 70
     0
102
RTVSPost2010Prop52
140
1.0
102
RTVSPost2010PropOp52
 70
     0
102
RTVSPost2010Prop53
 90
        2
102
RTVSPost2010PropOp53
 70
     1
102
RTVSPost2010Prop54
  1
strokes_ogs.tif
102
RTVSPost2010PropOp54
 70
     1
102
RTVSPost2010Prop55
280
     0
102
RTVSPost2010PropOp55
 70
     1
102
RTVSPost2010Prop56
140
1.0
102
RTVSPost2010PropOp56
 70
     1
102
RTVSPost2010Prop57
140
1.0
102
RTVSPost2010PropOp57
 70
     1
102
RTVSPropertyOp0
 70
     1
102
RTVSPropertyOp1
 70
     1
102
RTVSPropertyOp2
 70
     1
102
RTVSPropertyOp3
 70
     1
102
RTVSPropertyOp4
 70
     1
102
RTVSPropertyOp5
 70
     1
102
RTVSPropertyOp6
 70
     1
102
RTVSPropertyOp7
 70
     1
102
RTVSPropertyOp8
 70
     1
102
RTVSPropertyOp9
 70
     1
102
RTVSPropertyOp10
 70
     1
102
RTVSPropertyOp11
 70
     1
102
RTVSPropertyOp12
 70
     1
102
RTVSPropertyOp13
 70
     1
102
RTVSPropertyOp14
 70
     1
102
RTVSPropertyOp15
 70
     1
102
RTVSPropertyOp16
 70
     1
102
RTVSPropertyOp17
 70
     1
102
RTVSPropertyOp18
 70
     1
102
RTVSPropertyOp19
 70
     1
102
RTVSPropertyOp20
 70
     1
102
RTVSPropertyOp21
 70
     1
102
RTVSPropertyOp22
 70
     1
102
RTVSPropertyOp23
 70
     1
102
RTVSPropertyOp24
 70
     1
102
RTVSPropertyOp25
 70
     1
102
RTVSPropertyOp26
 70
     1
102
RTVSPropertyOp27
 70
     1
102
RTVSPropertyOp28
 70
     1
102
RTVSPropertyOp29
 70
     1
102
RTVSPropertyOp30
 70
     1
102
RTVSPropertyOp31
 70
     1
102
RTVSPropertyOp32
 70
     1
102
RTVSPropertyOp33
 70
     1
102
RTVSPropertyOp34
 70
     1
102
RTVSPropertyOp35
 70
     1
102
RTVSPropertyOp36
 70
     1
102
RTVSPropertyOp37
 70
     1
102
RTVSPropertyOp38
 70
     1
102
RTVSPropertyOp39
 70
     1
102
RTVSPropertyOp40
 70
     1
102
RTVSPropertyOp41
 70
     1
102
RTVSPropertyOp42
 70
     1
102
RTVSPropertyOp43
 70
     1
102
RTVSPropertyOp44
 70
     1
102
RTVSPropertyOp45
 70
     1
102
RTVSPropertyOp46
 70
     1
102
RTVSPropertyOp47
 70
     1
102
RTVSPropertyOp48
 70
     1
102
RTVSPropertyOp49
 70
     1
102
RTVSPropertyOp50
 70
     1
102
RTVSPropertyOp51
 70
     0
102
RTVSPropertyOp52
 70
     0
102
RTVSPropertyOp53
 70
     1
102
RTVSPropertyOp54
 70
     1
102
RTVSPropertyOp55
 70
     1
102
RTVSPropertyOp56
 70
     1
102
RTVSPropertyOp57
 70
     1
102
RTVSPropertyOp58
 70
     1
102
RTVSPropertyOp59
 70
     1
102
RTVSPropertyOp60
 70
     1
102
RTVSPropertyOp61
 70
     1
102
RTVSPropertyOp62
 70
     1
  0
XRECORD
  5
A201
102
{ACAD_REACTORS
330
A200
102
}
330
A200
100
AcDbXrecord
280
     1
102
RTVSPost2010Prop28
280
     0
102
RTVSPost2010PropOp28
 70
     1
102
RTVSPost2010Prop29
280
     1
102
RTVSPost2010PropOp29
 70
     1
102
RTVSPost2010Prop30
280
     1
102
RTVSPost2010PropOp30
 70
     1
102
RTVSPost2010Prop31
280
     0
102
RTVSPost2010PropOp31
 70
     1
102
RTVSPost2010Prop32
280
     0
102
RTVSPost2010PropOp32
 70
     1
102
RTVSPost2010Prop33
280
     0
102
RTVSPost2010PropOp33
 70
     1
102
RTVSPost2010Prop34
280
     0
102
RTVSPost2010PropOp34
 70
     1
102
RTVSPost2010Prop35
280
     0
102
RTVSPost2010PropOp35
 70
     1
102
RTVSPost2010Prop36
280
     0
102
RTVSPost2010PropOp36
 70
     1
102
RTVSPost2010Prop37
 90
       50
102
RTVSPost2010PropOp37
 70
     0
102
RTVSPost2010Prop38
140
0.0
102
RTVSPost2010PropOp38
 70
     0
102
RTVSPost2010Prop39
140
1.0
102
RTVSPost2010PropOp39
 70
     0
102
RTVSPost2010Prop40
 90
        0
102
RTVSPost2010PropOp40
 70
     0
102
RTVSPost2010Prop41ColorIndex
 90
       18
102
RTVSPost2010Prop41ColorRGB
 90
        0
102
RTVSPost2010PropOp41
 70
     0
102
RTVSPost2010Prop42
 90
       50
102
RTVSPost2010PropOp42
 70
     0
102
RTVSPost2010Prop43
 90
        3
102
RTVSPost2010PropOp43
 70
     0
102
RTVSPost2010Prop44ColorIndex
 90
        5
102
RTVSPost2010Prop44ColorRGB
 90
      255
102
RTVSPost2010PropOp44
 70
     0
102
RTVSPost2010Prop45
280
     0
102
RTVSPost2010PropOp45
 70
     1
102
RTVSPost2010Prop46
 90
       50
102
RTVSPost2010PropOp46
 70
     0
102
RTVSPost2010Prop47
 90
       50
102
RTVSPost2010PropOp47
 70
     0
102
RTVSPost2010Prop48
 90
       50
102
RTVSPost2010PropOp48
 70
     0
102
RTVSPost2010Prop49
280
     0
102
RTVSPost2010PropOp49
 70
     1
102
RTVSPost2010Prop50
 90
       50
102
RTVSPost2010PropOp50
 70
     0
102
RTVSPost2010Prop51ColorIndex
 90
      256
102
RTVSPost2010Prop51ColorRGB
 90
-16777216
102
RTVSPost2010PropOp51
 70
     0
102
RTVSPost2010Prop52
140
1.0
102
RTVSPost2010PropOp52
 70
     0
102
RTVSPost2010Prop53
 90
        2
102
RTVSPost2010PropOp53
 70
     0
102
RTVSPost2010Prop54
  1
strokes_ogs.tif
102
RTVSPost2010PropOp54
 70
     0
102
RTVSPost2010Prop55
280
     0
102
RTVSPost2010PropOp55
 70
     1
102
RTVSPost2010Prop56
140
1.0
102
RTVSPost2010PropOp56
 70
     0
102
RTVSPost2010Prop57
140
1.0
102
RTVSPost2010PropOp57
 70
     0
102
RTVSPropertyOp0
 70
     0
102
RTVSPropertyOp1
 70
     0
102
RTVSPropertyOp2
 70
     0
102
RTVSPropertyOp3
 70
     0
102
RTVSPropertyOp4
 70
     0
102
RTVSPropertyOp5
 70
     0
102
RTVSPropertyOp6
 70
     0
102
RTVSPropertyOp7
 70
     0
102
RTVSPropertyOp8
 70
     0
102
RTVSPropertyOp9
 70
     0
102
RTVSPropertyOp10
 70
     0
102
RTVSPropertyOp11
 70
     0
102
RTVSPropertyOp12
 70
     0
102
RTVSPropertyOp13
 70
     0
102
RTVSPropertyOp14
 70
     2
102
RTVSPropertyOp15
 70
     0
102
RTVSPropertyOp16
 70
     0
102
RTVSPropertyOp17
 70
     0
102
RTVSPropertyOp18
 70
     0
102
RTVSPropertyOp19
 70
     0
102
RTVSPropertyOp20
 70
     0
102
RTVSPropertyOp21
 70
     0
102
RTVSPropertyOp22
 70
     0
102
RTVSPropertyOp23
 70
     0
102
RTVSPropertyOp24
 70
     0
102
RTVSPropertyOp25
 70
     0
102
RTVSPropertyOp26
 70
     0
102
RTVSPropertyOp27
 70
     0
102
RTVSPropertyOp28
 70
     1
102
RTVSPropertyOp29
 70
     1
102
RTVSPropertyOp30
 70
     1
102
RTVSPropertyOp31
 70
     1
102
RTVSPropertyOp32
 70
     1
102
RTVSPropertyOp33
 70
     1
102
RTVSPropertyOp34
 70
     1
102
RTVSPropertyOp35
 70
     1
102
RTVSPropertyOp36
 70
     1
102
RTVSPropertyOp37
 70
     0
102
RTVSPropertyOp38
 70
     0
102
RTVSPropertyOp39
 70
     0
102
RTVSPropertyOp40
 70
     0
102
RTVSPropertyOp41
 70
     0
102
RTVSPropertyOp42
 70
     0
102
RTVSPropertyOp43
 70
     0
102
RTVSPropertyOp44
 70
     0
102
RTVSPropertyOp45
 70
     1
102
RTVSPropertyOp46
 70
     0
102
RTVSPropertyOp47
 70
     0
102
RTVSPropertyOp48
 70
     0
102
RTVSPropertyOp49
 70
     1
102
RTVSPropertyOp50
 70
     0
102
RTVSPropertyOp51
 70
     0
102
RTVSPropertyOp52
 70
     0
102
RTVSPropertyOp53
 70
     0
102
RTVSPropertyOp54
 70
     0
102
RTVSPropertyOp55
 70
     1
102
RTVSPropertyOp56
 70
     0
102
RTVSPropertyOp57
 70
     0
102
RTVSPropertyOp58
 70
     0
102
RTVSPropertyOp59
 70
     0
102
RTVSPropertyOp60
 70
     0
102
RTVSPropertyOp61
 70
     0
102
RTVSPropertyOp62
 70
     0
  0
XRECORD
  5
A1E7
102
{ACAD_REACTORS
330
A1E6
102
}
330
A1E6
100
AcDbXrecord
280
     1
102
RTVSPost2010Prop28
280
     0
102
RTVSPost2010PropOp28
 70
     1
102
RTVSPost2010Prop29
280
     1
102
RTVSPost2010PropOp29
 70
     1
102
RTVSPost2010Prop30
280
     1
102
RTVSPost2010PropOp30
 70
     1
102
RTVSPost2010Prop31
280
     0
102
RTVSPost2010PropOp31
 70
     1
102
RTVSPost2010Prop32
280
     0
102
RTVSPost2010PropOp32
 70
     1
102
RTVSPost2010Prop33
280
     0
102
RTVSPost2010PropOp33
 70
     1
102
RTVSPost2010Prop34
280
     0
102
RTVSPost2010PropOp34
 70
     1
102
RTVSPost2010Prop35
280
     0
102
RTVSPost2010PropOp35
 70
     1
102
RTVSPost2010Prop36
280
     0
102
RTVSPost2010PropOp36
 70
     1
102
RTVSPost2010Prop37
 90
       50
102
RTVSPost2010PropOp37
 70
     1
102
RTVSPost2010Prop38
140
0.0
102
RTVSPost2010PropOp38
 70
     1
102
RTVSPost2010Prop39
140
1.0
102
RTVSPost2010PropOp39
 70
     1
102
RTVSPost2010Prop40
 90
        0
102
RTVSPost2010PropOp40
 70
     1
102
RTVSPost2010Prop41ColorIndex
 90
       18
102
RTVSPost2010Prop41ColorRGB
 90
        0
102
RTVSPost2010PropOp41
 70
     1
102
RTVSPost2010Prop42
 90
       50
102
RTVSPost2010PropOp42
 70
     1
102
RTVSPost2010Prop43
 90
        3
102
RTVSPost2010PropOp43
 70
     1
102
RTVSPost2010Prop44ColorIndex
 90
        5
102
RTVSPost2010Prop44ColorRGB
 90
      255
102
RTVSPost2010PropOp44
 70
     1
102
RTVSPost2010Prop45
280
     0
102
RTVSPost2010PropOp45
 70
     1
102
RTVSPost2010Prop46
 90
       50
102
RTVSPost2010PropOp46
 70
     1
102
RTVSPost2010Prop47
 90
       50
102
RTVSPost2010PropOp47
 70
     1
102
RTVSPost2010Prop48
 90
       50
102
RTVSPost2010PropOp48
 70
     1
102
RTVSPost2010Prop49
280
     0
102
RTVSPost2010PropOp49
 70
     1
102
RTVSPost2010Prop50
 90
       50
102
RTVSPost2010PropOp50
 70
     1
102
RTVSPost2010Prop51ColorIndex
 90
      256
102
RTVSPost2010Prop51ColorRGB
 90
-16777216
102
RTVSPost2010PropOp51
 70
     0
102
RTVSPost2010Prop52
140
1.0
102
RTVSPost2010PropOp52
 70
     0
102
RTVSPost2010Prop53
 90
        2
102
RTVSPost2010PropOp53
 70
     1
102
RTVSPost2010Prop54
  1
strokes_ogs.tif
102
RTVSPost2010PropOp54
 70
     1
102
RTVSPost2010Prop55
280
     0
102
RTVSPost2010PropOp55
 70
     1
102
RTVSPost2010Prop56
140
1.0
102
RTVSPost2010PropOp56
 70
     1
102
RTVSPost2010Prop57
140
1.0
102
RTVSPost2010PropOp57
 70
     1
102
RTVSPropertyOp0
 70
     1
102
RTVSPropertyOp1
 70
     1
102
RTVSPropertyOp2
 70
     1
102
RTVSPropertyOp3
 70
     1
102
RTVSPropertyOp4
 70
     1
102
RTVSPropertyOp5
 70
     1
102
RTVSPropertyOp6
 70
     1
102
RTVSPropertyOp7
 70
     1
102
RTVSPropertyOp8
 70
     1
102
RTVSPropertyOp9
 70
     1
102
RTVSPropertyOp10
 70
     1
102
RTVSPropertyOp11
 70
     1
102
RTVSPropertyOp12
 70
     1
102
RTVSPropertyOp13
 70
     1
102
RTVSPropertyOp14
 70
     1
102
RTVSPropertyOp15
 70
     1
102
RTVSPropertyOp16
 70
     1
102
RTVSPropertyOp17
 70
     1
102
RTVSPropertyOp18
 70
     1
102
RTVSPropertyOp19
 70
     1
102
RTVSPropertyOp20
 70
     1
102
RTVSPropertyOp21
 70
     1
102
RTVSPropertyOp22
 70
     1
102
RTVSPropertyOp23
 70
     1
102
RTVSPropertyOp24
 70
     1
102
RTVSPropertyOp25
 70
     1
102
RTVSPropertyOp26
 70
     1
102
RTVSPropertyOp27
 70
     1
102
RTVSPropertyOp28
 70
     1
102
RTVSPropertyOp29
 70
     1
102
RTVSPropertyOp30
 70
     1
102
RTVSPropertyOp31
 70
     1
102
RTVSPropertyOp32
 70
     1
102
RTVSPropertyOp33
 70
     1
102
RTVSPropertyOp34
 70
     1
102
RTVSPropertyOp35
 70
     1
102
RTVSPropertyOp36
 70
     1
102
RTVSPropertyOp37
 70
     1
102
RTVSPropertyOp38
 70
     1
102
RTVSPropertyOp39
 70
     1
102
RTVSPropertyOp40
 70
     1
102
RTVSPropertyOp41
 70
     1
102
RTVSPropertyOp42
 70
     1
102
RTVSPropertyOp43
 70
     1
102
RTVSPropertyOp44
 70
     1
102
RTVSPropertyOp45
 70
     1
102
RTVSPropertyOp46
 70
     1
102
RTVSPropertyOp47
 70
     1
102
RTVSPropertyOp48
 70
     1
102
RTVSPropertyOp49
 70
     1
102
RTVSPropertyOp50
 70
     1
102
RTVSPropertyOp51
 70
     0
102
RTVSPropertyOp52
 70
     0
102
RTVSPropertyOp53
 70
     1
102
RTVSPropertyOp54
 70
     1
102
RTVSPropertyOp55
 70
     1
102
RTVSPropertyOp56
 70
     1
102
RTVSPropertyOp57
 70
     1
102
RTVSPropertyOp58
 70
     1
102
RTVSPropertyOp59
 70
     1
102
RTVSPropertyOp60
 70
     1
102
RTVSPropertyOp61
 70
     1
102
RTVSPropertyOp62
 70
     1
  0
XRECORD
  5
A1FD
102
{ACAD_REACTORS
330
A1FC
102
}
330
A1FC
100
AcDbXrecord
280
     1
102
RTVSPost2010Prop28
280
     0
102
RTVSPost2010PropOp28
 70
     1
102
RTVSPost2010Prop29
280
     1
102
RTVSPost2010PropOp29
 70
     1
102
RTVSPost2010Prop30
280
     1
102
RTVSPost2010PropOp30
 70
     1
102
RTVSPost2010Prop31
280
     0
102
RTVSPost2010PropOp31
 70
     1
102
RTVSPost2010Prop32
280
     0
102
RTVSPost2010PropOp32
 70
     1
102
RTVSPost2010Prop33
280
     0
102
RTVSPost2010PropOp33
 70
     1
102
RTVSPost2010Prop34
280
     0
102
RTVSPost2010PropOp34
 70
     1
102
RTVSPost2010Prop35
280
     0
102
RTVSPost2010PropOp35
 70
     1
102
RTVSPost2010Prop36
280
     0
102
RTVSPost2010PropOp36
 70
     1
102
RTVSPost2010Prop37
 90
       50
102
RTVSPost2010PropOp37
 70
     1
102
RTVSPost2010Prop38
140
0.0
102
RTVSPost2010PropOp38
 70
     1
102
RTVSPost2010Prop39
140
1.0
102
RTVSPost2010PropOp39
 70
     1
102
RTVSPost2010Prop40
 90
        0
102
RTVSPost2010PropOp40
 70
     1
102
RTVSPost2010Prop41ColorIndex
 90
       18
102
RTVSPost2010Prop41ColorRGB
 90
        0
102
RTVSPost2010PropOp41
 70
     1
102
RTVSPost2010Prop42
 90
       50
102
RTVSPost2010PropOp42
 70
     1
102
RTVSPost2010Prop43
 90
        3
102
RTVSPost2010PropOp43
 70
     1
102
RTVSPost2010Prop44ColorIndex
 90
        5
102
RTVSPost2010Prop44ColorRGB
 90
      255
102
RTVSPost2010PropOp44
 70
     1
102
RTVSPost2010Prop45
280
     0
102
RTVSPost2010PropOp45
 70
     1
102
RTVSPost2010Prop46
 90
       50
102
RTVSPost2010PropOp46
 70
     1
102
RTVSPost2010Prop47
 90
       50
102
RTVSPost2010PropOp47
 70
     1
102
RTVSPost2010Prop48
 90
       50
102
RTVSPost2010PropOp48
 70
     1
102
RTVSPost2010Prop49
280
     0
102
RTVSPost2010PropOp49
 70
     1
102
RTVSPost2010Prop50
 90
       50
102
RTVSPost2010PropOp50
 70
     1
102
RTVSPost2010Prop51ColorIndex
 90
      256
102
RTVSPost2010Prop51ColorRGB
 90
-16777216
102
RTVSPost2010PropOp51
 70
     0
102
RTVSPost2010Prop52
140
1.0
102
RTVSPost2010PropOp52
 70
     0
102
RTVSPost2010Prop53
 90
        2
102
RTVSPost2010PropOp53
 70
     1
102
RTVSPost2010Prop54
  1
strokes_ogs.tif
102
RTVSPost2010PropOp54
 70
     1
102
RTVSPost2010Prop55
280
     0
102
RTVSPost2010PropOp55
 70
     1
102
RTVSPost2010Prop56
140
1.0
102
RTVSPost2010PropOp56
 70
     1
102
RTVSPost2010Prop57
140
1.0
102
RTVSPost2010PropOp57
 70
     1
102
RTVSPropertyOp0
 70
     1
102
RTVSPropertyOp1
 70
     1
102
RTVSPropertyOp2
 70
     1
102
RTVSPropertyOp3
 70
     1
102
RTVSPropertyOp4
 70
     1
102
RTVSPropertyOp5
 70
     1
102
RTVSPropertyOp6
 70
     1
102
RTVSPropertyOp7
 70
     1
102
RTVSPropertyOp8
 70
     1
102
RTVSPropertyOp9
 70
     1
102
RTVSPropertyOp10
 70
     1
102
RTVSPropertyOp11
 70
     1
102
RTVSPropertyOp12
 70
     1
102
RTVSPropertyOp13
 70
     1
102
RTVSPropertyOp14
 70
     1
102
RTVSPropertyOp15
 70
     1
102
RTVSPropertyOp16
 70
     1
102
RTVSPropertyOp17
 70
     1
102
RTVSPropertyOp18
 70
     1
102
RTVSPropertyOp19
 70
     1
102
RTVSPropertyOp20
 70
     1
102
RTVSPropertyOp21
 70
     1
102
RTVSPropertyOp22
 70
     1
102
RTVSPropertyOp23
 70
     1
102
RTVSPropertyOp24
 70
     1
102
RTVSPropertyOp25
 70
     1
102
RTVSPropertyOp26
 70
     1
102
RTVSPropertyOp27
 70
     1
102
RTVSPropertyOp28
 70
     1
102
RTVSPropertyOp29
 70
     1
102
RTVSPropertyOp30
 70
     1
102
RTVSPropertyOp31
 70
     1
102
RTVSPropertyOp32
 70
     1
102
RTVSPropertyOp33
 70
     1
102
RTVSPropertyOp34
 70
     1
102
RTVSPropertyOp35
 70
     1
102
RTVSPropertyOp36
 70
     1
102
RTVSPropertyOp37
 70
     1
102
RTVSPropertyOp38
 70
     1
102
RTVSPropertyOp39
 70
     1
102
RTVSPropertyOp40
 70
     1
102
RTVSPropertyOp41
 70
     1
102
RTVSPropertyOp42
 70
     1
102
RTVSPropertyOp43
 70
     1
102
RTVSPropertyOp44
 70
     1
102
RTVSPropertyOp45
 70
     1
102
RTVSPropertyOp46
 70
     1
102
RTVSPropertyOp47
 70
     1
102
RTVSPropertyOp48
 70
     1
102
RTVSPropertyOp49
 70
     1
102
RTVSPropertyOp50
 70
     1
102
RTVSPropertyOp51
 70
     0
102
RTVSPropertyOp52
 70
     0
102
RTVSPropertyOp53
 70
     1
102
RTVSPropertyOp54
 70
     1
102
RTVSPropertyOp55
 70
     1
102
RTVSPropertyOp56
 70
     1
102
RTVSPropertyOp57
 70
     1
102
RTVSPropertyOp58
 70
     1
102
RTVSPropertyOp59
 70
     1
102
RTVSPropertyOp60
 70
     1
102
RTVSPropertyOp61
 70
     1
102
RTVSPropertyOp62
 70
     1
  0
XRECORD
  5
A1FB
102
{ACAD_REACTORS
330
A1FA
102
}
330
A1FA
100
AcDbXrecord
280
     1
102
RTVSPost2010Prop28
280
     0
102
RTVSPost2010PropOp28
 70
     1
102
RTVSPost2010Prop29
280
     1
102
RTVSPost2010PropOp29
 70
     1
102
RTVSPost2010Prop30
280
     1
102
RTVSPost2010PropOp30
 70
     1
102
RTVSPost2010Prop31
280
     0
102
RTVSPost2010PropOp31
 70
     1
102
RTVSPost2010Prop32
280
     0
102
RTVSPost2010PropOp32
 70
     1
102
RTVSPost2010Prop33
280
     0
102
RTVSPost2010PropOp33
 70
     1
102
RTVSPost2010Prop34
280
     0
102
RTVSPost2010PropOp34
 70
     1
102
RTVSPost2010Prop35
280
     0
102
RTVSPost2010PropOp35
 70
     1
102
RTVSPost2010Prop36
280
     0
102
RTVSPost2010PropOp36
 70
     1
102
RTVSPost2010Prop37
 90
       50
102
RTVSPost2010PropOp37
 70
     1
102
RTVSPost2010Prop38
140
0.0
102
RTVSPost2010PropOp38
 70
     1
102
RTVSPost2010Prop39
140
1.0
102
RTVSPost2010PropOp39
 70
     1
102
RTVSPost2010Prop40
 90
        0
102
RTVSPost2010PropOp40
 70
     1
102
RTVSPost2010Prop41ColorIndex
 90
       18
102
RTVSPost2010Prop41ColorRGB
 90
        0
102
RTVSPost2010PropOp41
 70
     1
102
RTVSPost2010Prop42
 90
       50
102
RTVSPost2010PropOp42
 70
     1
102
RTVSPost2010Prop43
 90
        3
102
RTVSPost2010PropOp43
 70
     1
102
RTVSPost2010Prop44ColorIndex
 90
        5
102
RTVSPost2010Prop44ColorRGB
 90
      255
102
RTVSPost2010PropOp44
 70
     1
102
RTVSPost2010Prop45
280
     0
102
RTVSPost2010PropOp45
 70
     1
102
RTVSPost2010Prop46
 90
       50
102
RTVSPost2010PropOp46
 70
     1
102
RTVSPost2010Prop47
 90
       50
102
RTVSPost2010PropOp47
 70
     1
102
RTVSPost2010Prop48
 90
       50
102
RTVSPost2010PropOp48
 70
     1
102
RTVSPost2010Prop49
280
     0
102
RTVSPost2010PropOp49
 70
     1
102
RTVSPost2010Prop50
 90
       50
102
RTVSPost2010PropOp50
 70
     1
102
RTVSPost2010Prop51ColorIndex
 90
      256
102
RTVSPost2010Prop51ColorRGB
 90
-16777216
102
RTVSPost2010PropOp51
 70
     0
102
RTVSPost2010Prop52
140
1.0
102
RTVSPost2010PropOp52
 70
     0
102
RTVSPost2010Prop53
 90
        2
102
RTVSPost2010PropOp53
 70
     1
102
RTVSPost2010Prop54
  1
strokes_ogs.tif
102
RTVSPost2010PropOp54
 70
     1
102
RTVSPost2010Prop55
280
     0
102
RTVSPost2010PropOp55
 70
     1
102
RTVSPost2010Prop56
140
1.0
102
RTVSPost2010PropOp56
 70
     1
102
RTVSPost2010Prop57
140
1.0
102
RTVSPost2010PropOp57
 70
     1
102
RTVSPropertyOp0
 70
     1
102
RTVSPropertyOp1
 70
     1
102
RTVSPropertyOp2
 70
     1
102
RTVSPropertyOp3
 70
     1
102
RTVSPropertyOp4
 70
     1
102
RTVSPropertyOp5
 70
     1
102
RTVSPropertyOp6
 70
     1
102
RTVSPropertyOp7
 70
     1
102
RTVSPropertyOp8
 70
     1
102
RTVSPropertyOp9
 70
     1
102
RTVSPropertyOp10
 70
     1
102
RTVSPropertyOp11
 70
     1
102
RTVSPropertyOp12
 70
     1
102
RTVSPropertyOp13
 70
     1
102
RTVSPropertyOp14
 70
     1
102
RTVSPropertyOp15
 70
     1
102
RTVSPropertyOp16
 70
     1
102
RTVSPropertyOp17
 70
     1
102
RTVSPropertyOp18
 70
     1
102
RTVSPropertyOp19
 70
     1
102
RTVSPropertyOp20
 70
     1
102
RTVSPropertyOp21
 70
     1
102
RTVSPropertyOp22
 70
     1
102
RTVSPropertyOp23
 70
     1
102
RTVSPropertyOp24
 70
     1
102
RTVSPropertyOp25
 70
     1
102
RTVSPropertyOp26
 70
     1
102
RTVSPropertyOp27
 70
     1
102
RTVSPropertyOp28
 70
     1
102
RTVSPropertyOp29
 70
     1
102
RTVSPropertyOp30
 70
     1
102
RTVSPropertyOp31
 70
     1
102
RTVSPropertyOp32
 70
     1
102
RTVSPropertyOp33
 70
     1
102
RTVSPropertyOp34
 70
     1
102
RTVSPropertyOp35
 70
     1
102
RTVSPropertyOp36
 70
     1
102
RTVSPropertyOp37
 70
     1
102
RTVSPropertyOp38
 70
     1
102
RTVSPropertyOp39
 70
     1
102
RTVSPropertyOp40
 70
     1
102
RTVSPropertyOp41
 70
     1
102
RTVSPropertyOp42
 70
     1
102
RTVSPropertyOp43
 70
     1
102
RTVSPropertyOp44
 70
     1
102
RTVSPropertyOp45
 70
     1
102
RTVSPropertyOp46
 70
     1
102
RTVSPropertyOp47
 70
     1
102
RTVSPropertyOp48
 70
     1
102
RTVSPropertyOp49
 70
     1
102
RTVSPropertyOp50
 70
     1
102
RTVSPropertyOp51
 70
     0
102
RTVSPropertyOp52
 70
     0
102
RTVSPropertyOp53
 70
     1
102
RTVSPropertyOp54
 70
     1
102
RTVSPropertyOp55
 70
     1
102
RTVSPropertyOp56
 70
     1
102
RTVSPropertyOp57
 70
     1
102
RTVSPropertyOp58
 70
     1
102
RTVSPropertyOp59
 70
     1
102
RTVSPropertyOp60
 70
     1
102
RTVSPropertyOp61
 70
     1
102
RTVSPropertyOp62
 70
     1
  0
XRECORD
  5
A1F5
102
{ACAD_REACTORS
330
A1F4
102
}
330
A1F4
100
AcDbXrecord
280
     1
102
RTVSPost2010Prop28
280
     0
102
RTVSPost2010PropOp28
 70
     1
102
RTVSPost2010Prop29
280
     1
102
RTVSPost2010PropOp29
 70
     1
102
RTVSPost2010Prop30
280
     1
102
RTVSPost2010PropOp30
 70
     1
102
RTVSPost2010Prop31
280
     0
102
RTVSPost2010PropOp31
 70
     1
102
RTVSPost2010Prop32
280
     0
102
RTVSPost2010PropOp32
 70
     1
102
RTVSPost2010Prop33
280
     0
102
RTVSPost2010PropOp33
 70
     1
102
RTVSPost2010Prop34
280
     0
102
RTVSPost2010PropOp34
 70
     1
102
RTVSPost2010Prop35
280
     0
102
RTVSPost2010PropOp35
 70
     1
102
RTVSPost2010Prop36
280
     0
102
RTVSPost2010PropOp36
 70
     1
102
RTVSPost2010Prop37
 90
       50
102
RTVSPost2010PropOp37
 70
     1
102
RTVSPost2010Prop38
140
0.0
102
RTVSPost2010PropOp38
 70
     1
102
RTVSPost2010Prop39
140
1.0
102
RTVSPost2010PropOp39
 70
     1
102
RTVSPost2010Prop40
 90
        0
102
RTVSPost2010PropOp40
 70
     1
102
RTVSPost2010Prop41ColorIndex
 90
       18
102
RTVSPost2010Prop41ColorRGB
 90
        0
102
RTVSPost2010PropOp41
 70
     1
102
RTVSPost2010Prop42
 90
       50
102
RTVSPost2010PropOp42
 70
     1
102
RTVSPost2010Prop43
 90
        3
102
RTVSPost2010PropOp43
 70
     1
102
RTVSPost2010Prop44ColorIndex
 90
        5
102
RTVSPost2010Prop44ColorRGB
 90
      255
102
RTVSPost2010PropOp44
 70
     1
102
RTVSPost2010Prop45
280
     0
102
RTVSPost2010PropOp45
 70
     1
102
RTVSPost2010Prop46
 90
       50
102
RTVSPost2010PropOp46
 70
     1
102
RTVSPost2010Prop47
 90
       50
102
RTVSPost2010PropOp47
 70
     1
102
RTVSPost2010Prop48
 90
       50
102
RTVSPost2010PropOp48
 70
     1
102
RTVSPost2010Prop49
280
     0
102
RTVSPost2010PropOp49
 70
     1
102
RTVSPost2010Prop50
 90
       50
102
RTVSPost2010PropOp50
 70
     1
102
RTVSPost2010Prop51ColorIndex
 90
      256
102
RTVSPost2010Prop51ColorRGB
 90
-16777216
102
RTVSPost2010PropOp51
 70
     0
102
RTVSPost2010Prop52
140
1.0
102
RTVSPost2010PropOp52
 70
     0
102
RTVSPost2010Prop53
 90
        2
102
RTVSPost2010PropOp53
 70
     1
102
RTVSPost2010Prop54
  1
strokes_ogs.tif
102
RTVSPost2010PropOp54
 70
     1
102
RTVSPost2010Prop55
280
     0
102
RTVSPost2010PropOp55
 70
     1
102
RTVSPost2010Prop56
140
1.0
102
RTVSPost2010PropOp56
 70
     1
102
RTVSPost2010Prop57
140
1.0
102
RTVSPost2010PropOp57
 70
     1
102
RTVSPropertyOp0
 70
     1
102
RTVSPropertyOp1
 70
     1
102
RTVSPropertyOp2
 70
     1
102
RTVSPropertyOp3
 70
     1
102
RTVSPropertyOp4
 70
     1
102
RTVSPropertyOp5
 70
     1
102
RTVSPropertyOp6
 70
     1
102
RTVSPropertyOp7
 70
     1
102
RTVSPropertyOp8
 70
     1
102
RTVSPropertyOp9
 70
     1
102
RTVSPropertyOp10
 70
     1
102
RTVSPropertyOp11
 70
     1
102
RTVSPropertyOp12
 70
     1
102
RTVSPropertyOp13
 70
     1
102
RTVSPropertyOp14
 70
     1
102
RTVSPropertyOp15
 70
     1
102
RTVSPropertyOp16
 70
     1
102
RTVSPropertyOp17
 70
     1
102
RTVSPropertyOp18
 70
     1
102
RTVSPropertyOp19
 70
     1
102
RTVSPropertyOp20
 70
     1
102
RTVSPropertyOp21
 70
     1
102
RTVSPropertyOp22
 70
     1
102
RTVSPropertyOp23
 70
     1
102
RTVSPropertyOp24
 70
     1
102
RTVSPropertyOp25
 70
     1
102
RTVSPropertyOp26
 70
     1
102
RTVSPropertyOp27
 70
     1
102
RTVSPropertyOp28
 70
     1
102
RTVSPropertyOp29
 70
     1
102
RTVSPropertyOp30
 70
     1
102
RTVSPropertyOp31
 70
     1
102
RTVSPropertyOp32
 70
     1
102
RTVSPropertyOp33
 70
     1
102
RTVSPropertyOp34
 70
     1
102
RTVSPropertyOp35
 70
     1
102
RTVSPropertyOp36
 70
     1
102
RTVSPropertyOp37
 70
     1
102
RTVSPropertyOp38
 70
     1
102
RTVSPropertyOp39
 70
     1
102
RTVSPropertyOp40
 70
     1
102
RTVSPropertyOp41
 70
     1
102
RTVSPropertyOp42
 70
     1
102
RTVSPropertyOp43
 70
     1
102
RTVSPropertyOp44
 70
     1
102
RTVSPropertyOp45
 70
     1
102
RTVSPropertyOp46
 70
     1
102
RTVSPropertyOp47
 70
     1
102
RTVSPropertyOp48
 70
     1
102
RTVSPropertyOp49
 70
     1
102
RTVSPropertyOp50
 70
     1
102
RTVSPropertyOp51
 70
     0
102
RTVSPropertyOp52
 70
     0
102
RTVSPropertyOp53
 70
     1
102
RTVSPropertyOp54
 70
     1
102
RTVSPropertyOp55
 70
     1
102
RTVSPropertyOp56
 70
     1
102
RTVSPropertyOp57
 70
     1
102
RTVSPropertyOp58
 70
     1
102
RTVSPropertyOp59
 70
     1
102
RTVSPropertyOp60
 70
     1
102
RTVSPropertyOp61
 70
     1
102
RTVSPropertyOp62
 70
     1
  0
XRECORD
  5
A1F7
102
{ACAD_REACTORS
330
A1F6
102
}
330
A1F6
100
AcDbXrecord
280
     1
102
RTVSPost2010Prop28
280
     0
102
RTVSPost2010PropOp28
 70
     1
102
RTVSPost2010Prop29
280
     1
102
RTVSPost2010PropOp29
 70
     1
102
RTVSPost2010Prop30
280
     1
102
RTVSPost2010PropOp30
 70
     1
102
RTVSPost2010Prop31
280
     0
102
RTVSPost2010PropOp31
 70
     1
102
RTVSPost2010Prop32
280
     0
102
RTVSPost2010PropOp32
 70
     1
102
RTVSPost2010Prop33
280
     0
102
RTVSPost2010PropOp33
 70
     1
102
RTVSPost2010Prop34
280
     0
102
RTVSPost2010PropOp34
 70
     1
102
RTVSPost2010Prop35
280
     0
102
RTVSPost2010PropOp35
 70
     1
102
RTVSPost2010Prop36
280
     0
102
RTVSPost2010PropOp36
 70
     1
102
RTVSPost2010Prop37
 90
       50
102
RTVSPost2010PropOp37
 70
     1
102
RTVSPost2010Prop38
140
0.0
102
RTVSPost2010PropOp38
 70
     1
102
RTVSPost2010Prop39
140
1.0
102
RTVSPost2010PropOp39
 70
     1
102
RTVSPost2010Prop40
 90
        0
102
RTVSPost2010PropOp40
 70
     1
102
RTVSPost2010Prop41ColorIndex
 90
       18
102
RTVSPost2010Prop41ColorRGB
 90
        0
102
RTVSPost2010PropOp41
 70
     1
102
RTVSPost2010Prop42
 90
       50
102
RTVSPost2010PropOp42
 70
     1
102
RTVSPost2010Prop43
 90
        3
102
RTVSPost2010PropOp43
 70
     1
102
RTVSPost2010Prop44ColorIndex
 90
        5
102
RTVSPost2010Prop44ColorRGB
 90
      255
102
RTVSPost2010PropOp44
 70
     1
102
RTVSPost2010Prop45
280
     0
102
RTVSPost2010PropOp45
 70
     1
102
RTVSPost2010Prop46
 90
       50
102
RTVSPost2010PropOp46
 70
     1
102
RTVSPost2010Prop47
 90
       50
102
RTVSPost2010PropOp47
 70
     1
102
RTVSPost2010Prop48
 90
       50
102
RTVSPost2010PropOp48
 70
     1
102
RTVSPost2010Prop49
280
     0
102
RTVSPost2010PropOp49
 70
     1
102
RTVSPost2010Prop50
 90
       50
102
RTVSPost2010PropOp50
 70
     1
102
RTVSPost2010Prop51ColorIndex
 90
      256
102
RTVSPost2010Prop51ColorRGB
 90
-16777216
102
RTVSPost2010PropOp51
 70
     0
102
RTVSPost2010Prop52
140
1.0
102
RTVSPost2010PropOp52
 70
     0
102
RTVSPost2010Prop53
 90
        2
102
RTVSPost2010PropOp53
 70
     1
102
RTVSPost2010Prop54
  1
strokes_ogs.tif
102
RTVSPost2010PropOp54
 70
     1
102
RTVSPost2010Prop55
280
     0
102
RTVSPost2010PropOp55
 70
     1
102
RTVSPost2010Prop56
140
1.0
102
RTVSPost2010PropOp56
 70
     1
102
RTVSPost2010Prop57
140
1.0
102
RTVSPost2010PropOp57
 70
     1
102
RTVSPropertyOp0
 70
     1
102
RTVSPropertyOp1
 70
     1
102
RTVSPropertyOp2
 70
     1
102
RTVSPropertyOp3
 70
     1
102
RTVSPropertyOp4
 70
     1
102
RTVSPropertyOp5
 70
     1
102
RTVSPropertyOp6
 70
     1
102
RTVSPropertyOp7
 70
     1
102
RTVSPropertyOp8
 70
     1
102
RTVSPropertyOp9
 70
     1
102
RTVSPropertyOp10
 70
     1
102
RTVSPropertyOp11
 70
     1
102
RTVSPropertyOp12
 70
     1
102
RTVSPropertyOp13
 70
     1
102
RTVSPropertyOp14
 70
     1
102
RTVSPropertyOp15
 70
     1
102
RTVSPropertyOp16
 70
     1
102
RTVSPropertyOp17
 70
     1
102
RTVSPropertyOp18
 70
     1
102
RTVSPropertyOp19
 70
     1
102
RTVSPropertyOp20
 70
     1
102
RTVSPropertyOp21
 70
     1
102
RTVSPropertyOp22
 70
     1
102
RTVSPropertyOp23
 70
     1
102
RTVSPropertyOp24
 70
     1
102
RTVSPropertyOp25
 70
     1
102
RTVSPropertyOp26
 70
     1
102
RTVSPropertyOp27
 70
     1
102
RTVSPropertyOp28
 70
     1
102
RTVSPropertyOp29
 70
     1
102
RTVSPropertyOp30
 70
     1
102
RTVSPropertyOp31
 70
     1
102
RTVSPropertyOp32
 70
     1
102
RTVSPropertyOp33
 70
     1
102
RTVSPropertyOp34
 70
     1
102
RTVSPropertyOp35
 70
     1
102
RTVSPropertyOp36
 70
     1
102
RTVSPropertyOp37
 70
     1
102
RTVSPropertyOp38
 70
     1
102
RTVSPropertyOp39
 70
     1
102
RTVSPropertyOp40
 70
     1
102
RTVSPropertyOp41
 70
     1
102
RTVSPropertyOp42
 70
     1
102
RTVSPropertyOp43
 70
     1
102
RTVSPropertyOp44
 70
     1
102
RTVSPropertyOp45
 70
     1
102
RTVSPropertyOp46
 70
     1
102
RTVSPropertyOp47
 70
     1
102
RTVSPropertyOp48
 70
     1
102
RTVSPropertyOp49
 70
     1
102
RTVSPropertyOp50
 70
     1
102
RTVSPropertyOp51
 70
     0
102
RTVSPropertyOp52
 70
     0
102
RTVSPropertyOp53
 70
     1
102
RTVSPropertyOp54
 70
     1
102
RTVSPropertyOp55
 70
     1
102
RTVSPropertyOp56
 70
     1
102
RTVSPropertyOp57
 70
     1
102
RTVSPropertyOp58
 70
     1
102
RTVSPropertyOp59
 70
     1
102
RTVSPropertyOp60
 70
     1
102
RTVSPropertyOp61
 70
     1
102
RTVSPropertyOp62
 70
     1
  0
XRECORD
  5
A1ED
102
{ACAD_REACTORS
330
A1EC
102
}
330
A1EC
100
AcDbXrecord
280
     1
102
RTVSPost2010Prop28
280
     0
102
RTVSPost2010PropOp28
 70
     1
102
RTVSPost2010Prop29
280
     1
102
RTVSPost2010PropOp29
 70
     1
102
RTVSPost2010Prop30
280
     1
102
RTVSPost2010PropOp30
 70
     1
102
RTVSPost2010Prop31
280
     0
102
RTVSPost2010PropOp31
 70
     1
102
RTVSPost2010Prop32
280
     0
102
RTVSPost2010PropOp32
 70
     1
102
RTVSPost2010Prop33
280
     0
102
RTVSPost2010PropOp33
 70
     1
102
RTVSPost2010Prop34
280
     0
102
RTVSPost2010PropOp34
 70
     1
102
RTVSPost2010Prop35
280
     0
102
RTVSPost2010PropOp35
 70
     1
102
RTVSPost2010Prop36
280
     0
102
RTVSPost2010PropOp36
 70
     1
102
RTVSPost2010Prop37
 90
       50
102
RTVSPost2010PropOp37
 70
     1
102
RTVSPost2010Prop38
140
0.0
102
RTVSPost2010PropOp38
 70
     1
102
RTVSPost2010Prop39
140
1.0
102
RTVSPost2010PropOp39
 70
     1
102
RTVSPost2010Prop40
 90
        0
102
RTVSPost2010PropOp40
 70
     1
102
RTVSPost2010Prop41ColorIndex
 90
       18
102
RTVSPost2010Prop41ColorRGB
 90
        0
102
RTVSPost2010PropOp41
 70
     1
102
RTVSPost2010Prop42
 90
       50
102
RTVSPost2010PropOp42
 70
     1
102
RTVSPost2010Prop43
 90
        3
102
RTVSPost2010PropOp43
 70
     1
102
RTVSPost2010Prop44ColorIndex
 90
        5
102
RTVSPost2010Prop44ColorRGB
 90
      255
102
RTVSPost2010PropOp44
 70
     1
102
RTVSPost2010Prop45
280
     0
102
RTVSPost2010PropOp45
 70
     1
102
RTVSPost2010Prop46
 90
       50
102
RTVSPost2010PropOp46
 70
     1
102
RTVSPost2010Prop47
 90
       50
102
RTVSPost2010PropOp47
 70
     1
102
RTVSPost2010Prop48
 90
       50
102
RTVSPost2010PropOp48
 70
     1
102
RTVSPost2010Prop49
280
     0
102
RTVSPost2010PropOp49
 70
     1
102
RTVSPost2010Prop50
 90
       50
102
RTVSPost2010PropOp50
 70
     1
102
RTVSPost2010Prop51ColorIndex
 90
      256
102
RTVSPost2010Prop51ColorRGB
 90
-16777216
102
RTVSPost2010PropOp51
 70
     0
102
RTVSPost2010Prop52
140
1.0
102
RTVSPost2010PropOp52
 70
     0
102
RTVSPost2010Prop53
 90
        2
102
RTVSPost2010PropOp53
 70
     1
102
RTVSPost2010Prop54
  1
strokes_ogs.tif
102
RTVSPost2010PropOp54
 70
     1
102
RTVSPost2010Prop55
280
     0
102
RTVSPost2010PropOp55
 70
     1
102
RTVSPost2010Prop56
140
1.0
102
RTVSPost2010PropOp56
 70
     1
102
RTVSPost2010Prop57
140
1.0
102
RTVSPost2010PropOp57
 70
     1
102
RTVSPropertyOp0
 70
     1
102
RTVSPropertyOp1
 70
     1
102
RTVSPropertyOp2
 70
     1
102
RTVSPropertyOp3
 70
     1
102
RTVSPropertyOp4
 70
     1
102
RTVSPropertyOp5
 70
     1
102
RTVSPropertyOp6
 70
     1
102
RTVSPropertyOp7
 70
     1
102
RTVSPropertyOp8
 70
     1
102
RTVSPropertyOp9
 70
     1
102
RTVSPropertyOp10
 70
     1
102
RTVSPropertyOp11
 70
     1
102
RTVSPropertyOp12
 70
     1
102
RTVSPropertyOp13
 70
     1
102
RTVSPropertyOp14
 70
     1
102
RTVSPropertyOp15
 70
     1
102
RTVSPropertyOp16
 70
     1
102
RTVSPropertyOp17
 70
     1
102
RTVSPropertyOp18
 70
     1
102
RTVSPropertyOp19
 70
     1
102
RTVSPropertyOp20
 70
     1
102
RTVSPropertyOp21
 70
     1
102
RTVSPropertyOp22
 70
     1
102
RTVSPropertyOp23
 70
     1
102
RTVSPropertyOp24
 70
     1
102
RTVSPropertyOp25
 70
     1
102
RTVSPropertyOp26
 70
     1
102
RTVSPropertyOp27
 70
     1
102
RTVSPropertyOp28
 70
     1
102
RTVSPropertyOp29
 70
     1
102
RTVSPropertyOp30
 70
     1
102
RTVSPropertyOp31
 70
     1
102
RTVSPropertyOp32
 70
     1
102
RTVSPropertyOp33
 70
     1
102
RTVSPropertyOp34
 70
     1
102
RTVSPropertyOp35
 70
     1
102
RTVSPropertyOp36
 70
     1
102
RTVSPropertyOp37
 70
     1
102
RTVSPropertyOp38
 70
     1
102
RTVSPropertyOp39
 70
     1
102
RTVSPropertyOp40
 70
     1
102
RTVSPropertyOp41
 70
     1
102
RTVSPropertyOp42
 70
     1
102
RTVSPropertyOp43
 70
     1
102
RTVSPropertyOp44
 70
     1
102
RTVSPropertyOp45
 70
     1
102
RTVSPropertyOp46
 70
     1
102
RTVSPropertyOp47
 70
     1
102
RTVSPropertyOp48
 70
     1
102
RTVSPropertyOp49
 70
     1
102
RTVSPropertyOp50
 70
     1
102
RTVSPropertyOp51
 70
     0
102
RTVSPropertyOp52
 70
     0
102
RTVSPropertyOp53
 70
     1
102
RTVSPropertyOp54
 70
     1
102
RTVSPropertyOp55
 70
     1
102
RTVSPropertyOp56
 70
     1
102
RTVSPropertyOp57
 70
     1
102
RTVSPropertyOp58
 70
     1
102
RTVSPropertyOp59
 70
     1
102
RTVSPropertyOp60
 70
     1
102
RTVSPropertyOp61
 70
     1
102
RTVSPropertyOp62
 70
     1
  0
XRECORD
  5
A1E1
102
{ACAD_REACTORS
330
A1E0
102
}
330
A1E0
100
AcDbXrecord
280
     1
102
RTVSPost2010Prop28
280
     0
102
RTVSPost2010PropOp28
 70
     1
102
RTVSPost2010Prop29
280
     1
102
RTVSPost2010PropOp29
 70
     1
102
RTVSPost2010Prop30
280
     1
102
RTVSPost2010PropOp30
 70
     1
102
RTVSPost2010Prop31
280
     0
102
RTVSPost2010PropOp31
 70
     1
102
RTVSPost2010Prop32
280
     0
102
RTVSPost2010PropOp32
 70
     1
102
RTVSPost2010Prop33
280
     0
102
RTVSPost2010PropOp33
 70
     1
102
RTVSPost2010Prop34
280
     0
102
RTVSPost2010PropOp34
 70
     1
102
RTVSPost2010Prop35
280
     0
102
RTVSPost2010PropOp35
 70
     1
102
RTVSPost2010Prop36
280
     0
102
RTVSPost2010PropOp36
 70
     1
102
RTVSPost2010Prop37
 90
       50
102
RTVSPost2010PropOp37
 70
     1
102
RTVSPost2010Prop38
140
0.0
102
RTVSPost2010PropOp38
 70
     1
102
RTVSPost2010Prop39
140
1.0
102
RTVSPost2010PropOp39
 70
     1
102
RTVSPost2010Prop40
 90
        0
102
RTVSPost2010PropOp40
 70
     1
102
RTVSPost2010Prop41ColorIndex
 90
       18
102
RTVSPost2010Prop41ColorRGB
 90
        0
102
RTVSPost2010PropOp41
 70
     1
102
RTVSPost2010Prop42
 90
       50
102
RTVSPost2010PropOp42
 70
     1
102
RTVSPost2010Prop43
 90
        3
102
RTVSPost2010PropOp43
 70
     1
102
RTVSPost2010Prop44ColorIndex
 90
        5
102
RTVSPost2010Prop44ColorRGB
 90
      255
102
RTVSPost2010PropOp44
 70
     1
102
RTVSPost2010Prop45
280
     0
102
RTVSPost2010PropOp45
 70
     1
102
RTVSPost2010Prop46
 90
       50
102
RTVSPost2010PropOp46
 70
     1
102
RTVSPost2010Prop47
 90
       50
102
RTVSPost2010PropOp47
 70
     1
102
RTVSPost2010Prop48
 90
       50
102
RTVSPost2010PropOp48
 70
     1
102
RTVSPost2010Prop49
280
     0
102
RTVSPost2010PropOp49
 70
     1
102
RTVSPost2010Prop50
 90
       50
102
RTVSPost2010PropOp50
 70
     1
102
RTVSPost2010Prop51ColorIndex
 90
      256
102
RTVSPost2010Prop51ColorRGB
 90
-16777216
102
RTVSPost2010PropOp51
 70
     0
102
RTVSPost2010Prop52
140
1.0
102
RTVSPost2010PropOp52
 70
     0
102
RTVSPost2010Prop53
 90
        2
102
RTVSPost2010PropOp53
 70
     1
102
RTVSPost2010Prop54
  1
strokes_ogs.tif
102
RTVSPost2010PropOp54
 70
     1
102
RTVSPost2010Prop55
280
     0
102
RTVSPost2010PropOp55
 70
     1
102
RTVSPost2010Prop56
140
1.0
102
RTVSPost2010PropOp56
 70
     1
102
RTVSPost2010Prop57
140
1.0
102
RTVSPost2010PropOp57
 70
     1
102
RTVSPropertyOp0
 70
     1
102
RTVSPropertyOp1
 70
     1
102
RTVSPropertyOp2
 70
     1
102
RTVSPropertyOp3
 70
     1
102
RTVSPropertyOp4
 70
     1
102
RTVSPropertyOp5
 70
     1
102
RTVSPropertyOp6
 70
     1
102
RTVSPropertyOp7
 70
     1
102
RTVSPropertyOp8
 70
     1
102
RTVSPropertyOp9
 70
     1
102
RTVSPropertyOp10
 70
     1
102
RTVSPropertyOp11
 70
     1
102
RTVSPropertyOp12
 70
     1
102
RTVSPropertyOp13
 70
     1
102
RTVSPropertyOp14
 70
     1
102
RTVSPropertyOp15
 70
     1
102
RTVSPropertyOp16
 70
     1
102
RTVSPropertyOp17
 70
     1
102
RTVSPropertyOp18
 70
     1
102
RTVSPropertyOp19
 70
     1
102
RTVSPropertyOp20
 70
     1
102
RTVSPropertyOp21
 70
     1
102
RTVSPropertyOp22
 70
     1
102
RTVSPropertyOp23
 70
     1
102
RTVSPropertyOp24
 70
     1
102
RTVSPropertyOp25
 70
     1
102
RTVSPropertyOp26
 70
     1
102
RTVSPropertyOp27
 70
     1
102
RTVSPropertyOp28
 70
     1
102
RTVSPropertyOp29
 70
     1
102
RTVSPropertyOp30
 70
     1
102
RTVSPropertyOp31
 70
     1
102
RTVSPropertyOp32
 70
     1
102
RTVSPropertyOp33
 70
     1
102
RTVSPropertyOp34
 70
     1
102
RTVSPropertyOp35
 70
     1
102
RTVSPropertyOp36
 70
     1
102
RTVSPropertyOp37
 70
     1
102
RTVSPropertyOp38
 70
     1
102
RTVSPropertyOp39
 70
     1
102
RTVSPropertyOp40
 70
     1
102
RTVSPropertyOp41
 70
     1
102
RTVSPropertyOp42
 70
     1
102
RTVSPropertyOp43
 70
     1
102
RTVSPropertyOp44
 70
     1
102
RTVSPropertyOp45
 70
     1
102
RTVSPropertyOp46
 70
     1
102
RTVSPropertyOp47
 70
     1
102
RTVSPropertyOp48
 70
     1
102
RTVSPropertyOp49
 70
     1
102
RTVSPropertyOp50
 70
     1
102
RTVSPropertyOp51
 70
     0
102
RTVSPropertyOp52
 70
     0
102
RTVSPropertyOp53
 70
     1
102
RTVSPropertyOp54
 70
     1
102
RTVSPropertyOp55
 70
     1
102
RTVSPropertyOp56
 70
     1
102
RTVSPropertyOp57
 70
     1
102
RTVSPropertyOp58
 70
     1
102
RTVSPropertyOp59
 70
     1
102
RTVSPropertyOp60
 70
     1
102
RTVSPropertyOp61
 70
     1
102
RTVSPropertyOp62
 70
     1
  0
XRECORD
  5
A1F9
102
{ACAD_REACTORS
330
A1F8
102
}
330
A1F8
100
AcDbXrecord
280
     1
102
RTVSPost2010Prop28
280
     0
102
RTVSPost2010PropOp28
 70
     1
102
RTVSPost2010Prop29
280
     1
102
RTVSPost2010PropOp29
 70
     1
102
RTVSPost2010Prop30
280
     1
102
RTVSPost2010PropOp30
 70
     1
102
RTVSPost2010Prop31
280
     0
102
RTVSPost2010PropOp31
 70
     1
102
RTVSPost2010Prop32
280
     0
102
RTVSPost2010PropOp32
 70
     1
102
RTVSPost2010Prop33
280
     0
102
RTVSPost2010PropOp33
 70
     1
102
RTVSPost2010Prop34
280
     0
102
RTVSPost2010PropOp34
 70
     1
102
RTVSPost2010Prop35
280
     0
102
RTVSPost2010PropOp35
 70
     1
102
RTVSPost2010Prop36
280
     0
102
RTVSPost2010PropOp36
 70
     1
102
RTVSPost2010Prop37
 90
       50
102
RTVSPost2010PropOp37
 70
     1
102
RTVSPost2010Prop38
140
0.0
102
RTVSPost2010PropOp38
 70
     1
102
RTVSPost2010Prop39
140
1.0
102
RTVSPost2010PropOp39
 70
     1
102
RTVSPost2010Prop40
 90
        0
102
RTVSPost2010PropOp40
 70
     1
102
RTVSPost2010Prop41ColorIndex
 90
       18
102
RTVSPost2010Prop41ColorRGB
 90
        0
102
RTVSPost2010PropOp41
 70
     1
102
RTVSPost2010Prop42
 90
       50
102
RTVSPost2010PropOp42
 70
     1
102
RTVSPost2010Prop43
 90
        3
102
RTVSPost2010PropOp43
 70
     1
102
RTVSPost2010Prop44ColorIndex
 90
        5
102
RTVSPost2010Prop44ColorRGB
 90
      255
102
RTVSPost2010PropOp44
 70
     1
102
RTVSPost2010Prop45
280
     0
102
RTVSPost2010PropOp45
 70
     1
102
RTVSPost2010Prop46
 90
       50
102
RTVSPost2010PropOp46
 70
     1
102
RTVSPost2010Prop47
 90
       50
102
RTVSPost2010PropOp47
 70
     1
102
RTVSPost2010Prop48
 90
       50
102
RTVSPost2010PropOp48
 70
     1
102
RTVSPost2010Prop49
280
     0
102
RTVSPost2010PropOp49
 70
     1
102
RTVSPost2010Prop50
 90
       50
102
RTVSPost2010PropOp50
 70
     1
102
RTVSPost2010Prop51ColorIndex
 90
      256
102
RTVSPost2010Prop51ColorRGB
 90
-16777216
102
RTVSPost2010PropOp51
 70
     0
102
RTVSPost2010Prop52
140
1.0
102
RTVSPost2010PropOp52
 70
     0
102
RTVSPost2010Prop53
 90
        2
102
RTVSPost2010PropOp53
 70
     1
102
RTVSPost2010Prop54
  1
strokes_ogs.tif
102
RTVSPost2010PropOp54
 70
     1
102
RTVSPost2010Prop55
280
     0
102
RTVSPost2010PropOp55
 70
     1
102
RTVSPost2010Prop56
140
1.0
102
RTVSPost2010PropOp56
 70
     1
102
RTVSPost2010Prop57
140
1.0
102
RTVSPost2010PropOp57
 70
     1
102
RTVSPropertyOp0
 70
     1
102
RTVSPropertyOp1
 70
     1
102
RTVSPropertyOp2
 70
     1
102
RTVSPropertyOp3
 70
     1
102
RTVSPropertyOp4
 70
     1
102
RTVSPropertyOp5
 70
     1
102
RTVSPropertyOp6
 70
     1
102
RTVSPropertyOp7
 70
     1
102
RTVSPropertyOp8
 70
     1
102
RTVSPropertyOp9
 70
     1
102
RTVSPropertyOp10
 70
     1
102
RTVSPropertyOp11
 70
     1
102
RTVSPropertyOp12
 70
     1
102
RTVSPropertyOp13
 70
     1
102
RTVSPropertyOp14
 70
     1
102
RTVSPropertyOp15
 70
     1
102
RTVSPropertyOp16
 70
     1
102
RTVSPropertyOp17
 70
     1
102
RTVSPropertyOp18
 70
     1
102
RTVSPropertyOp19
 70
     1
102
RTVSPropertyOp20
 70
     1
102
RTVSPropertyOp21
 70
     1
102
RTVSPropertyOp22
 70
     1
102
RTVSPropertyOp23
 70
     1
102
RTVSPropertyOp24
 70
     1
102
RTVSPropertyOp25
 70
     1
102
RTVSPropertyOp26
 70
     1
102
RTVSPropertyOp27
 70
     1
102
RTVSPropertyOp28
 70
     1
102
RTVSPropertyOp29
 70
     1
102
RTVSPropertyOp30
 70
     1
102
RTVSPropertyOp31
 70
     1
102
RTVSPropertyOp32
 70
     1
102
RTVSPropertyOp33
 70
     1
102
RTVSPropertyOp34
 70
     1
102
RTVSPropertyOp35
 70
     1
102
RTVSPropertyOp36
 70
     1
102
RTVSPropertyOp37
 70
     1
102
RTVSPropertyOp38
 70
     1
102
RTVSPropertyOp39
 70
     1
102
RTVSPropertyOp40
 70
     1
102
RTVSPropertyOp41
 70
     1
102
RTVSPropertyOp42
 70
     1
102
RTVSPropertyOp43
 70
     1
102
RTVSPropertyOp44
 70
     1
102
RTVSPropertyOp45
 70
     1
102
RTVSPropertyOp46
 70
     1
102
RTVSPropertyOp47
 70
     1
102
RTVSPropertyOp48
 70
     1
102
RTVSPropertyOp49
 70
     1
102
RTVSPropertyOp50
 70
     1
102
RTVSPropertyOp51
 70
     0
102
RTVSPropertyOp52
 70
     0
102
RTVSPropertyOp53
 70
     1
102
RTVSPropertyOp54
 70
     1
102
RTVSPropertyOp55
 70
     1
102
RTVSPropertyOp56
 70
     1
102
RTVSPropertyOp57
 70
     1
102
RTVSPropertyOp58
 70
     1
102
RTVSPropertyOp59
 70
     1
102
RTVSPropertyOp60
 70
     1
102
RTVSPropertyOp61
 70
     1
102
RTVSPropertyOp62
 70
     1
  0
ENDSEC
  0
EOF
