  0
SECTION
  2
HEADER
  9
$ACADVER
  1
AC1015
  9
$ACADMAINTVER
 70
    20
  9
$DWGCODEPAGE
  3
ANSI_932
  9
$INSBASE
 10
0.0
 20
0.0
 30
0.0
  9
$EXTMIN
 10
10.0
 20
9.999999999999998
 30
0.0
  9
$EXTMAX
 10
448.3529459999998
 20
313.7797109999999
 30
0.0
  9
$LIMMIN
 10
0.0
 20
0.0
  9
$LIMMAX
 10
543.47
 20
374.6649239999999
  9
$ORTHOMODE
 70
     0
  9
$REGENMODE
 70
     1
  9
$FILLMODE
 70
     1
  9
$QTEXTMODE
 70
     0
  9
$MIRRTEXT
 70
     1
  9
$LTSCALE
 40
20.0
  9
$ATTMODE
 70
     1
  9
$TEXTSIZE
 40
5.0
  9
$TRACEWID
 40
1.0
  9
$TEXTSTYLE
  7
STANDARD
  9
$CLAYER
  8
0
  9
$CELTYPE
  6
BYLAYER
  9
$CECOLOR
 62
   256
  9
$CELTSCALE
 40
1.0
  9
$DISPSILH
 70
     0
  9
$DIMSCALE
 40
1.0
  9
$DIMASZ
 40
2.5
  9
$DIMEXO
 40
1.0
  9
$DIMDLI
 40
10.0
  9
$DIMRND
 40
0.0
  9
$DIMDLE
 40
0.0
  9
$DIMEXE
 40
1.0
  9
$DIMTP
 40
0.0
  9
$DIMTM
 40
0.0
  9
$DIMTXT
 40
3.2
  9
$DIMCEN
 40
0.0
  9
$DIMTSZ
 40
0.0
  9
$DIMTOL
 70
     0
  9
$DIMLIM
 70
     0
  9
$DIMTIH
 70
     0
  9
$DIMTOH
 70
     0
  9
$DIMSE1
 70
     0
  9
$DIMSE2
 70
     0
  9
$DIMTAD
 70
     3
  9
$DIMZIN
 70
     8
  9
$DIMBLK
  1

  9
$DIMASO
 70
     1
  9
$DIMSHO
 70
     1
  9
$DIMPOST
  1

  9
$DIMAPOST
  1

  9
$DIMALT
 70
     0
  9
$DIMALTD
 70
     2
  9
$DIMALTF
 40
25.4
  9
$DIMLFAC
 40
1.0
  9
$DIMTOFL
 70
     1
  9
$DIMTVP
 40
0.0
  9
$DIMTIX
 70
     0
  9
$DIMSOXD
 70
     0
  9
$DIMSAH
 70
     1
  9
$DIMBLK1
  1

  9
$DIMBLK2
  1

  9
$DIMSTYLE
  2
STANDARD
  9
$DIMCLRD
 70
     0
  9
$DIMCLRE
 70
     0
  9
$DIMCLRT
 70
     0
  9
$DIMTFAC
 40
1.0
  9
$DIMGAP
 40
1.0
  9
$DIMJUST
 70
     0
  9
$DIMSD1
 70
     0
  9
$DIMSD2
 70
     0
  9
$DIMTOLJ
 70
     1
  9
$DIMTZIN
 70
     0
  9
$DIMALTZ
 70
     0
  9
$DIMALTTZ
 70
     0
  9
$DIMUPT
 70
     0
  9
$DIMDEC
 70
     4
  9
$DIMTDEC
 70
     4
  9
$DIMALTU
 70
     2
  9
$DIMALTTD
 70
     2
  9
$DIMTXSTY
  7
STANDARD
  9
$DIMAUNIT
 70
     0
  9
$DIMADEC
 70
     0
  9
$DIMALTRND
 40
0.0
  9
$DIMAZIN
 70
     0
  9
$DIMDSEP
 70
    46
  9
$DIMATFIT
 70
     3
  9
$DIMFRAC
 70
     0
  9
$DIMLDRBLK
  1

  9
$DIMLUNIT
 70
     2
  9
$DIMLWD
 70
    -2
  9
$DIMLWE
 70
    -2
  9
$DIMTMOVE
 70
     0
  9
$LUNITS
 70
     2
  9
$LUPREC
 70
     4
  9
$SKETCHINC
 40
1.0
  9
$FILLETRAD
 40
6.0
  9
$AUNITS
 70
     0
  9
$AUPREC
 70
     2
  9
$MENU
  1
.
  9
$ELEVATION
 40
0.0
  9
$PELEVATION
 40
0.0
  9
$THICKNESS
 40
0.0
  9
$LIMCHECK
 70
     0
  9
$CHAMFERA
 40
10.0
  9
$CHAMFERB
 40
10.0
  9
$CHAMFERC
 40
0.0
  9
$CHAMFERD
 40
0.0
  9
$SKPOLY
 70
     0
  9
$TDCREATE
 40
2451301.447514468
  9
$TDUCREATE
 40
2451301.072514468
  9
$TDUPDATE
 40
2457192.690298090
  9
$TDUUPDATE
 40
2457192.315298090
  9
$TDINDWG
 40
0.1540297106
  9
$TDUSRTIMER
 40
0.1540292245
  9
$USRTIMER
 70
     1
  9
$ANGBASE
 50
0.0
  9
$ANGDIR
 70
     0
  9
$PDMODE
 70
     0
  9
$PDSIZE
 40
0.0
  9
$PLINEWID
 40
0.0
  9
$SPLFRAME
 70
     0
  9
$SPLINETYPE
 70
     6
  9
$SPLINESEGS
 70
     8
  9
$HANDSEED
  5
9C74
  9
$SURFTAB1
 70
     6
  9
$SURFTAB2
 70
     6
  9
$SURFTYPE
 70
     6
  9
$SURFU
 70
     6
  9
$SURFV
 70
     6
  9
$UCSBASE
  2

  9
$UCSNAME
  2

  9
$UCSORG
 10
0.0
 20
0.0
 30
0.0
  9
$UCSXDIR
 10
1.0
 20
0.0
 30
0.0
  9
$UCSYDIR
 10
0.0
 20
1.0
 30
0.0
  9
$UCSORTHOREF
  2

  9
$UCSORTHOVIEW
 70
     0
  9
$UCSORGTOP
 10
0.0
 20
0.0
 30
0.0
  9
$UCSORGBOTTOM
 10
0.0
 20
0.0
 30
0.0
  9
$UCSORGLEFT
 10
0.0
 20
0.0
 30
0.0
  9
$UCSORGRIGHT
 10
0.0
 20
0.0
 30
0.0
  9
$UCSORGFRONT
 10
0.0
 20
0.0
 30
0.0
  9
$UCSORGBACK
 10
0.0
 20
0.0
 30
0.0
  9
$PUCSBASE
  2

  9
$PUCSNAME
  2

  9
$PUCSORG
 10
0.0
 20
0.0
 30
0.0
  9
$PUCSXDIR
 10
1.0
 20
0.0
 30
0.0
  9
$PUCSYDIR
 10
0.0
 20
1.0
 30
0.0
  9
$PUCSORTHOREF
  2

  9
$PUCSORTHOVIEW
 70
     0
  9
$PUCSORGTOP
 10
0.0
 20
0.0
 30
0.0
  9
$PUCSORGBOTTOM
 10
0.0
 20
0.0
 30
0.0
  9
$PUCSORGLEFT
 10
0.0
 20
0.0
 30
0.0
  9
$PUCSORGRIGHT
 10
0.0
 20
0.0
 30
0.0
  9
$PUCSORGFRONT
 10
0.0
 20
0.0
 30
0.0
  9
$PUCSORGBACK
 10
0.0
 20
0.0
 30
0.0
  9
$USERI1
 70
     0
  9
$USERI2
 70
     0
  9
$USERI3
 70
     0
  9
$USERI4
 70
     0
  9
$USERI5
 70
     0
  9
$USERR1
 40
0.0
  9
$USERR2
 40
0.0
  9
$USERR3
 40
0.0
  9
$USERR4
 40
0.0
  9
$USERR5
 40
0.0
  9
$WORLDVIEW
 70
     1
  9
$SHADEDGE
 70
     3
  9
$SHADEDIF
 70
    70
  9
$TILEMODE
 70
     1
  9
$MAXACTVP
 70
    16
  9
$PINSBASE
 10
0.0
 20
0.0
 30
0.0
  9
$PLIMCHECK
 70
     0
  9
$PEXTMIN
 10
1.000000000000000E+20
 20
1.000000000000000E+20
 30
1.000000000000000E+20
  9
$PEXTMAX
 10
-1.000000000000000E+20
 20
-1.000000000000000E+20
 30
-1.000000000000000E+20
  9
$PLIMMIN
 10
0.0
 20
0.0
  9
$PLIMMAX
 10
420.0
 20
297.0
  9
$UNITMODE
 70
     0
  9
$VISRETAIN
 70
     0
  9
$PLINEGEN
 70
     0
  9
$PSLTSCALE
 70
     0
  9
$TREEDEPTH
 70
  3020
  9
$CMLSTYLE
  2
STANDARD
  9
$CMLJUST
 70
     0
  9
$CMLSCALE
 40
1.0
  9
$PROXYGRAPHICS
 70
     1
  9
$MEASUREMENT
 70
     0
  9
$CELWEIGHT
370
    -1
  9
$ENDCAPS
280
     0
  9
$JOINSTYLE
280
     0
  9
$LWDISPLAY
290
     0
  9
$INSUNITS
 70
     0
  9
$HYPERLINKBASE
  1

  9
$STYLESHEET
  1

  9
$XEDIT
290
     1
  9
$CEPSNTYPE
380
     0
  9
$PSTYLEMODE
290
     1
  9
$FINGERPRINTGUID
  2
{824640FC-AD67-4293-A36A-522343CF2899}
  9
$VERSIONGUID
  2
{5535C04C-7499-447E-88C1-2DF320E383F1}
  9
$EXTNAMES
290
     1
  9
$PSVPSCALE
 40
0.0
  9
$OLESTARTUP
290
     0
  0
ENDSEC
  0
SECTION
  2
CLASSES
  0
CLASS
  1
ACDBDICTIONARYWDFLT
  2
AcDbDictionaryWithDefault
  3
ObjectDBX Classes
 90
        0
280
     0
281
     0
  0
CLASS
  1
ACDBPLACEHOLDER
  2
AcDbPlaceHolder
  3
ObjectDBX Classes
 90
        0
280
     0
281
     0
  0
CLASS
  1
LAYOUT
  2
AcDbLayout
  3
ObjectDBX Classes
 90
        0
280
     0
281
     0
  0
CLASS
  1
DICTIONARYVAR
  2
AcDbDictionaryVar
  3
ObjectDBX Classes
 90
        0
280
     0
281
     0
  0
CLASS
  1
MATERIAL
  2
AcDbMaterial
  3
ObjectDBX Classes
 90
     1153
280
     0
281
     0
  0
CLASS
  1
VISUALSTYLE
  2
AcDbVisualStyle
  3
ObjectDBX Classes
 90
     4095
280
     0
281
     0
  0
CLASS
  1
TABLESTYLE
  2
AcDbTableStyle
  3
ObjectDBX Classes
 90
     4095
280
     0
281
     0
  0
CLASS
  1
SCALE
  2
AcDbScale
  3
ObjectDBX Classes
 90
     1153
280
     0
281
     0
  0
CLASS
  1
MLEADERSTYLE
  2
AcDbMLeaderStyle
  3
ACDB_MLEADERSTYLE_CLASS
 90
     4095
280
     0
281
     0
  0
CLASS
  1
ACDBSECTIONVIEWSTYLE
  2
AcDbSectionViewStyle
  3
ObjectDBX Classes
 90
     1025
280
     0
281
     0
  0
CLASS
  1
ACDBDETAILVIEWSTYLE
  2
AcDbDetailViewStyle
  3
ObjectDBX Classes
 90
     1025
280
     0
281
     0
  0
CLASS
  1
CELLSTYLEMAP
  2
AcDbCellStyleMap
  3
ObjectDBX Classes
 90
     1152
280
     0
281
     0
  0
ENDSEC
  0
SECTION
  2
TABLES
  0
TABLE
  2
VPORT
  5
9982
330
0
100
AcDbSymbolTable
 70
     1
  0
VPORT
  5
9BBF
330
9982
100
AcDbSymbolTableRecord
100
AcDbViewportTableRecord
  2
*ACTIVE
 70
     0
 10
0.0
 20
0.0
 11
1.0
 21
1.0
 12
346.1042326627104
 22
161.8921107949888
 13
0.0
 23
0.0
 14
10.0
 24
10.0
 15
10.0
 25
10.0
 16
0.0
 26
0.0
 36
1.0
 17
0.0
 27
0.0
 37
0.0
 40
306.1962257557958
 41
2.35006605019815
 42
50.0
 43
0.0
 44
0.0
 50
0.0
 51
0.0
 71
     0
 72
   100
 73
     1
 74
     0
 75
     0
 76
     0
 77
     0
 78
     0
281
     0
 65
     1
110
0.0
120
0.0
130
0.0
111
1.0
121
0.0
131
0.0
112
0.0
122
1.0
132
0.0
 79
     0
146
0.0
1001
ACAD_NAV_VCDISPLAY
1070
     3
  0
ENDTAB
  0
TABLE
  2
LTYPE
  5
997F
330
0
100
AcDbSymbolTable
 70
     4
  0
LTYPE
  5
998D
330
997F
100
AcDbSymbolTableRecord
100
AcDbLinetypeTableRecord
  2
BYBLOCK
 70
     0
  3

 72
    65
 73
     0
 40
0.0
  0
LTYPE
  5
998E
330
997F
100
AcDbSymbolTableRecord
100
AcDbLinetypeTableRecord
  2
BYLAYER
 70
     0
  3

 72
    65
 73
     0
 40
0.0
  0
LTYPE
  5
998F
330
997F
100
AcDbSymbolTableRecord
100
AcDbLinetypeTableRecord
  2
CONTINUOUS
 70
     0
  3
Solid line
 72
    65
 73
     0
 40
0.0
  0
LTYPE
  5
999D
330
997F
100
AcDbSymbolTableRecord
100
AcDbLinetypeTableRecord
  2
DASHED
 70
     0
  3
__ __ __ __ __ __ __ __ __ __ __ __ __ __ __ __
 72
    65
 73
     2
 40
0.75
 49
0.5
 74
     0
 49
-0.25
 74
     0
  0
LTYPE
  5
999E
330
997F
100
AcDbSymbolTableRecord
100
AcDbLinetypeTableRecord
  2
CENTER
 70
     0
  3
____ _ ____ _ ____ _ ____ _ ____ _ ____ _ ____ 
 72
    65
 73
     4
 40
2.0
 49
1.25
 74
     0
 49
-0.25
 74
     0
 49
0.25
 74
     0
 49
-0.25
 74
     0
  0
LTYPE
  5
999F
330
997F
100
AcDbSymbolTableRecord
100
AcDbLinetypeTableRecord
  2
PHANTOM
 70
     0
  3
______  __  __  ______  __  __  ______  __  __ 
 72
    65
 73
     6
 40
2.5
 49
1.25
 74
     0
 49
-0.25
 74
     0
 49
0.25
 74
     0
 49
-0.25
 74
     0
 49
0.25
 74
     0
 49
-0.25
 74
     0
  0
ENDTAB
  0
TABLE
  2
LAYER
  5
997C
330
0
100
AcDbSymbolTable
 70
     8
  0
LAYER
  5
998A
102
{ACAD_XDICTIONARY
360
9C18
102
}
330
997C
100
AcDbSymbolTableRecord
100
AcDbLayerTableRecord
  2
0
 70
     0
 62
     7
  6
CONTINUOUS
370
    -3
390
9BC6
  0
LAYER
  5
99A0
102
{ACAD_XDICTIONARY
360
9C1A
102
}
330
997C
100
AcDbSymbolTableRecord
100
AcDbLayerTableRecord
  2
4
 70
     0
 62
     1
  6
CENTER
370
    -3
390
9BC6
  0
LAYER
  5
99A1
102
{ACAD_XDICTIONARY
360
9C1C
102
}
330
997C
100
AcDbSymbolTableRecord
100
AcDbLayerTableRecord
  2
5
 70
     0
 62
     6
  6
PHANTOM
370
    -3
390
9BC6
  0
LAYER
  5
99A2
102
{ACAD_XDICTIONARY
360
9C1E
102
}
330
997C
100
AcDbSymbolTableRecord
100
AcDbLayerTableRecord
  2
1
 70
     0
 62
     7
  6
CONTINUOUS
370
    -3
390
9BC6
  0
LAYER
  5
99A3
102
{ACAD_XDICTIONARY
360
9C20
102
}
330
997C
100
AcDbSymbolTableRecord
100
AcDbLayerTableRecord
  2
2
 70
     0
 62
     4
  6
CONTINUOUS
370
    -3
390
9BC6
  0
LAYER
  5
99A4
102
{ACAD_XDICTIONARY
360
9C22
102
}
330
997C
100
AcDbSymbolTableRecord
100
AcDbLayerTableRecord
  2
3
 70
     0
 62
     2
  6
DASHED
370
    -3
390
9BC6
  0
LAYER
  5
99A5
102
{ACAD_XDICTIONARY
360
9C24
102
}
330
997C
100
AcDbSymbolTableRecord
100
AcDbLayerTableRecord
  2
6
 70
     0
 62
     5
  6
CONTINUOUS
370
    -3
390
9BC6
  0
LAYER
  5
99A6
102
{ACAD_XDICTIONARY
360
9C26
102
}
330
997C
100
AcDbSymbolTableRecord
100
AcDbLayerTableRecord
  2
7
 70
     0
 62
     3
  6
CONTINUOUS
370
    -3
390
9BC6
  0
ENDTAB
  0
TABLE
  2
STYLE
  5
997D
330
0
100
AcDbSymbolTable
 70
     1
  0
STYLE
  5
998B
330
997D
100
AcDbSymbolTableRecord
100
AcDbTextStyleTableRecord
  2
STANDARD
 70
     0
 40
0.0
 41
1.0
 50
0.0
 71
     0
 42
5.0
  3
txt
  4

  0
ENDTAB
  0
TABLE
  2
VIEW
  5
9980
330
0
100
AcDbSymbolTable
 70
     0
  0
ENDTAB
  0
TABLE
  2
UCS
  5
9981
330
0
100
AcDbSymbolTable
 70
     0
  0
ENDTAB
  0
TABLE
  2
APPID
  5
9983
330
0
100
AcDbSymbolTable
 70
     3
  0
APPID
  5
998C
330
9983
100
AcDbSymbolTableRecord
100
AcDbRegAppTableRecord
  2
ACAD
 70
     0
  0
APPID
  5
9C32
330
9983
100
AcDbSymbolTableRecord
100
AcDbRegAppTableRecord
  2
ACAD_NAV_VCDISPLAY
 70
     0
  0
APPID
  5
9C6B
330
9983
100
AcDbSymbolTableRecord
100
AcDbRegAppTableRecord
  2
ACAD_MLEADERVER
 70
     0
  0
ENDTAB
  0
TABLE
  2
DIMSTYLE
  5
9984
330
0
100
AcDbSymbolTable
 70
     1
100
AcDbDimStyleTable
 71
     0
  0
DIMSTYLE
105
99A8
330
9984
100
AcDbSymbolTableRecord
100
AcDbDimStyleTableRecord
  2
STANDARD
 70
     0
 41
2.5
 42
1.0
 43
10.0
 44
1.0
 73
     0
 74
     0
 77
     3
 78
     8
140
3.2
141
0.0
147
1.0
172
     1
173
     1
284
     8
285
     8
286
     8
340
998B
  0
ENDTAB
  0
TABLE
  2
BLOCK_RECORD
  5
997B
330
0
100
AcDbSymbolTable
 70
     0
  0
BLOCK_RECORD
  5
9998
102
{ACAD_XDICTIONARY
360
9BA5
102
}
330
997B
100
AcDbSymbolTableRecord
100
AcDbBlockTableRecord
  2
*MODEL_SPACE
340
9C14
  0
BLOCK_RECORD
  5
9994
102
{ACAD_XDICTIONARY
360
9BA3
102
}
330
997B
100
AcDbSymbolTableRecord
100
AcDbBlockTableRecord
  2
*PAPER_SPACE
340
9C15
  0
ENDTAB
  0
ENDSEC
  0
SECTION
  2
BLOCKS
  0
BLOCK
  5
9999
330
9998
100
AcDbEntity
  8
0
100
AcDbBlockBegin
  2
*MODEL_SPACE
 70
     0
 10
0.0
 20
0.0
 30
0.0
  3
*MODEL_SPACE
  1

  0
ENDBLK
  5
999A
330
9998
100
AcDbEntity
  8
0
100
AcDbBlockEnd
  0
BLOCK
  5
9995
330
9994
100
AcDbEntity
 67
     1
  8
0
100
AcDbBlockBegin
  2
*PAPER_SPACE
 70
     0
 10
0.0
 20
0.0
 30
0.0
  3
*PAPER_SPACE
  1

  0
ENDBLK
  5
9996
330
9994
100
AcDbEntity
 67
     1
  8
0
100
AcDbBlockEnd
  0
ENDSEC
  0
SECTION
  2
ENTITIES
  0
TEXT
  5
99B0
330
9998
100
AcDbEntity
  8
7
  6
Continuous
100
AcDbText
 10
10.0
 20
18.0
 30
0.0
 40
3.0
  1
TYPE No.TCA-420E-N75
100
AcDbText
  0
TEXT
  5
99B1
330
9998
100
AcDbEntity
  8
7
  6
Continuous
100
AcDbText
 10
10.0
 20
26.0
 30
0.0
 40
3.0
  1
CODE No.9747
100
AcDbText
  0
TEXT
  5
99B2
330
9998
100
AcDbEntity
  8
1
  6
Continuous
100
AcDbText
 10
10.0
 20
10.0
 30
0.0
 40
1.399999999999999
  1
LAYER
100
AcDbText
  0
TEXT
  5
99B3
330
9998
100
AcDbEntity
  8
1
  6
Continuous
100
AcDbText
 10
17.97951099999998
 20
10.04873699999998
 30
0.0
 40
1.399999999999999
  1
1
100
AcDbText
  0
TEXT
  5
99B4
330
9998
100
AcDbEntity
  8
7
  6
Continuous
100
AcDbText
 10
29.97951099999999
 20
10.04873699999998
 30
0.0
 40
1.399999999999999
  1
7
100
AcDbText
  0
TEXT
  5
99B5
330
9998
100
AcDbEntity
  8
4
  6
CENTER
100
AcDbText
 10
23.97951099999999
 20
10.04873699999998
 30
0.0
 40
1.399999999999999
  1
4
100
AcDbText
  0
TEXT
  5
99B6
330
9998
100
AcDbEntity
  8
3
  6
DASHED
100
AcDbText
 10
21.979511
 20
10.04873699999998
 30
0.0
 40
1.399999999999999
  1
3
100
AcDbText
  0
TEXT
  5
99B7
330
9998
100
AcDbEntity
  8
2
  6
Continuous
100
AcDbText
 10
19.97951099999998
 20
10.04873699999998
 30
0.0
 40
1.399999999999999
  1
2
100
AcDbText
  0
TEXT
  5
99B8
330
9998
100
AcDbEntity
  8
6
  6
Continuous
100
AcDbText
 10
27.979511
 20
10.04873699999998
 30
0.0
 40
1.399999999999999
  1
6
100
AcDbText
  0
TEXT
  5
99B9
330
9998
100
AcDbEntity
  8
5
  6
PHANTOM
100
AcDbText
 10
25.97951099999999
 20
10.04873699999998
 30
0.0
 40
1.399999999999999
  1
5
100
AcDbText
  0
LINE
  5
99BA
330
9998
100
AcDbEntity
  8
4
  6
CENTER
 48
0.8
100
AcDbLine
 10
179.852946
 20
229.2797109999999
 30
0.0
 11
179.852946
 21
187.4330389999999
 31
0.0
  0
LINE
  5
99BB
330
9998
100
AcDbEntity
  8
4
  6
CENTER
 48
0.8
100
AcDbLine
 10
108.352946
 20
169.7797109999999
 30
0.0
 11
193.352946
 21
169.7797109999999
 31
0.0
  0
LINE
  5
99BC
330
9998
100
AcDbEntity
  8
4
  6
CENTER
 48
0.8
100
AcDbLine
 10
150.852946
 20
207.831686
 30
0.0
 11
150.852946
 21
127.279711
 31
0.0
  0
LINE
  5
99BD
330
9998
100
AcDbEntity
  8
4
  6
CENTER
 48
0.8
100
AcDbLine
 10
49.852946
 20
229.433043
 30
0.0
 11
49.852946
 21
127.279711
 31
0.0
  0
LINE
  5
99BE
330
9998
100
AcDbEntity
  8
4
  6
CENTER
 48
0.8
100
AcDbLine
 10
23.25294599999998
 20
169.7797109999999
 30
0.0
 11
72.35103200000001
 21
169.7797109999999
 31
0.0
  0
LINE
  5
99BF
330
9998
100
AcDbEntity
  8
1
  6
Continuous
100
AcDbLine
 10
36.85294600000001
 20
166.529711
 30
0.0
 11
37.852946
 21
166.529711
 31
0.0
  0
LINE
  5
99C0
330
9998
100
AcDbEntity
  8
1
  6
Continuous
100
AcDbLine
 10
36.85294600000001
 20
173.0297109999999
 30
0.0
 11
37.852946
 21
173.0297109999999
 31
0.0
  0
LINE
  5
99C1
330
9998
100
AcDbEntity
  8
1
  6
Continuous
100
AcDbLine
 10
34.45294599999999
 20
175.3797089999999
 30
0.0
 11
31.252946
 21
175.3797089999999
 31
0.0
  0
LINE
  5
99C2
330
9998
100
AcDbEntity
  8
1
  6
Continuous
100
AcDbLine
 10
34.45294599999999
 20
172.779711
 30
0.0
 11
31.252946
 21
172.779711
 31
0.0
  0
LINE
  5
99C3
330
9998
100
AcDbEntity
  8
1
  6
Continuous
100
AcDbLine
 10
30.252946
 20
173.579714
 30
0.0
 11
30.252946
 21
165.979716
 31
0.0
  0
LINE
  5
99C4
330
9998
100
AcDbEntity
  8
1
  6
Continuous
100
AcDbLine
 10
34.45294599999999
 20
164.179713
 30
0.0
 11
31.252946
 21
164.179713
 31
0.0
  0
LINE
  5
99C5
330
9998
100
AcDbEntity
  8
1
  6
Continuous
100
AcDbLine
 10
34.37614599999999
 20
166.7797109999999
 30
0.0
 11
31.252946
 21
166.7797109999999
 31
0.0
  0
LINE
  5
99C6
330
9998
100
AcDbEntity
  8
1
  6
Continuous
100
AcDbLine
 10
30.25293599999999
 20
165.9796279999999
 30
0.0
 11
31.252936
 21
164.179705
 31
0.0
  0
LINE
  5
99C7
330
9998
100
AcDbEntity
  8
1
  6
Continuous
100
AcDbLine
 10
30.25293599999999
 20
173.5797449999997
 30
0.0
 11
31.252936
 21
175.379717
 31
0.0
  0
LINE
  5
99C8
330
9998
100
AcDbEntity
  8
4
  6
CENTER
 48
0.8
100
AcDbLine
 10
212.852946
 20
301.7797109999999
 30
0.0
 11
202.852946
 21
301.7797109999999
 31
0.0
  0
LINE
  5
99C9
330
9998
100
AcDbEntity
  8
4
  6
CENTER
 48
0.8
100
AcDbLine
 10
207.8529459999999
 20
306.7797109999998
 30
0.0
 11
207.8529459999999
 21
296.7797109999997
 31
0.0
  0
LINE
  5
99CA
330
9998
100
AcDbEntity
  8
4
  6
CENTER
 48
0.8
100
AcDbLine
 10
179.852946
 20
313.7797109999999
 30
0.0
 11
179.852946
 21
261.7797109999999
 31
0.0
  0
LINE
  5
99CB
330
9998
100
AcDbEntity
  8
4
  6
CENTER
 48
0.8
100
AcDbLine
 10
217.4808599999999
 20
287.7797109999999
 30
0.0
 11
108.352946
 21
287.7797109999999
 31
0.0
  0
LINE
  5
99CC
330
9998
100
AcDbEntity
  8
4
  6
CENTER
 48
0.8
100
AcDbLine
 10
212.852946
 20
273.7797069999999
 30
0.0
 11
202.852946
 21
273.7797069999999
 31
0.0
  0
LINE
  5
99CD
330
9998
100
AcDbEntity
  8
4
  6
CENTER
 48
0.8
100
AcDbLine
 10
207.8529459999999
 20
268.7797109999999
 30
0.0
 11
207.8529459999999
 21
278.7797109999999
 31
0.0
  0
LINE
  5
99CE
330
9998
100
AcDbEntity
  8
1
  6
Continuous
100
AcDbLine
 10
151.852946
 20
308.7797109999999
 30
0.0
 11
207.8529459999999
 21
308.7797109999999
 31
0.0
  0
LINE
  5
99CF
330
9998
100
AcDbEntity
  8
4
  6
CENTER
 48
0.8
100
AcDbLine
 10
146.852946
 20
301.7797109999999
 30
0.0
 11
156.8529419999999
 21
301.7797109999999
 31
0.0
  0
LINE
  5
99D0
330
9998
100
AcDbEntity
  8
4
  6
CENTER
 48
0.8
100
AcDbLine
 10
151.852946
 20
306.7797109999998
 30
0.0
 11
151.852946
 21
296.7797029999998
 31
0.0
  0
LINE
  5
99D1
330
9998
100
AcDbEntity
  8
1
  6
Continuous
100
AcDbLine
 10
151.8529499999999
 20
266.7797109999999
 30
0.0
 11
207.8529459999999
 21
266.7797109999999
 31
0.0
  0
LINE
  5
99D2
330
9998
100
AcDbEntity
  8
4
  6
CENTER
 48
0.8
100
AcDbLine
 10
146.852946
 20
273.7797069999999
 30
0.0
 11
156.852946
 21
273.7797069999999
 31
0.0
  0
LINE
  5
99D3
330
9998
100
AcDbEntity
  8
4
  6
CENTER
 48
0.8
100
AcDbLine
 10
151.852946
 20
268.7797069999999
 30
0.0
 11
151.852946
 21
278.7797029999999
 31
0.0
  0
LINE
  5
99D4
330
9998
100
AcDbEntity
  8
1
  6
Continuous
100
AcDbLine
 10
28.85294599999999
 20
224.279711
 30
0.0
 11
70.852946
 21
224.279711
 31
0.0
  0
LINE
  5
99D5
330
9998
100
AcDbEntity
  8
1
  6
Continuous
100
AcDbLine
 10
28.85294599999999
 20
222.279711
 30
0.0
 11
70.852946
 21
222.279711
 31
0.0
  0
LINE
  5
99D6
330
9998
100
AcDbEntity
  8
1
  6
Continuous
100
AcDbLine
 10
33.05294599999999
 20
218.9797079999999
 30
0.0
 11
66.65295
 21
218.9797079999999
 31
0.0
  0
LINE
  5
99D7
330
9998
100
AcDbEntity
  8
1
  6
Continuous
100
AcDbLine
 10
30.795486
 20
220.840016
 30
0.0
 11
30.593846
 21
221.87531
 31
0.0
  0
LINE
  5
99D8
330
9998
100
AcDbEntity
  8
1
  6
Continuous
100
AcDbLine
 10
68.91054
 20
220.839993
 30
0.0
 11
69.112185
 21
221.8752869999999
 31
0.0
  0
LINE
  5
99D9
330
9998
100
AcDbEntity
  8
1
  6
Continuous
100
AcDbLine
 10
144.852946
 20
224.279711
 30
0.0
 11
214.852946
 21
224.279711
 31
0.0
  0
LINE
  5
99DA
330
9998
100
AcDbEntity
  8
1
  6
Continuous
100
AcDbLine
 10
144.852946
 20
222.279718
 30
0.0
 11
144.852946
 21
224.279718
 31
0.0
  0
LINE
  5
99DB
330
9998
100
AcDbEntity
  8
1
  6
Continuous
100
AcDbLine
 10
144.852946
 20
222.279711
 30
0.0
 11
214.852946
 21
222.279711
 31
0.0
  0
LINE
  5
99DC
330
9998
100
AcDbEntity
  8
1
  6
Continuous
100
AcDbLine
 10
163.0529429999999
 20
218.9797079999999
 30
0.0
 11
196.65295
 21
218.9797079999999
 31
0.0
  0
LINE
  5
99DD
330
9998
100
AcDbEntity
  8
1
  6
Continuous
100
AcDbLine
 10
160.7953699999999
 20
220.8400039999999
 30
0.0
 11
160.593727
 21
221.875298
 31
0.0
  0
LINE
  5
99DE
330
9998
100
AcDbEntity
  8
1
  6
Continuous
100
AcDbLine
 10
214.852946
 20
222.2797029999999
 30
0.0
 11
214.852946
 21
224.279711
 31
0.0
  0
LINE
  5
99DF
330
9998
100
AcDbEntity
  8
1
  6
Continuous
100
AcDbLine
 10
198.910498
 20
220.8399959999999
 30
0.0
 11
199.1121429999998
 21
221.8752899999997
 31
0.0
  0
LINE
  5
99E0
330
9998
100
AcDbEntity
  8
4
  6
CENTER
 48
0.8
100
AcDbLine
 10
151.852946
 20
217.2797109999999
 30
0.0
 11
151.852946
 21
229.2797109999999
 31
0.0
  0
LINE
  5
99E1
330
9998
100
AcDbEntity
  8
4
  6
CENTER
 48
0.8
100
AcDbLine
 10
207.8529459999999
 20
217.2797109999999
 30
0.0
 11
207.8529459999999
 21
229.2797109999999
 31
0.0
  0
LINE
  5
99E2
330
9998
100
AcDbEntity
  8
1
  6
Continuous
100
AcDbLine
 10
28.85294599999999
 20
224.279711
 30
0.0
 11
28.85294599999999
 21
222.279711
 31
0.0
  0
LINE
  5
99E3
330
9998
100
AcDbEntity
  8
1
  6
Continuous
100
AcDbLine
 10
70.852946
 20
224.279711
 30
0.0
 11
70.852946
 21
222.279711
 31
0.0
  0
LINE
  5
99E4
330
9998
100
AcDbEntity
  8
4
  6
CENTER
 48
0.8
100
AcDbLine
 10
35.852946
 20
229.2797109999999
 30
0.0
 11
35.852946
 21
217.2797109999999
 31
0.0
  0
LINE
  5
99E5
330
9998
100
AcDbEntity
  8
4
  6
CENTER
 48
0.8
100
AcDbLine
 10
63.85294599999999
 20
229.2797109999999
 30
0.0
 11
63.85294599999999
 21
217.2797109999999
 31
0.0
  0
LINE
  5
99E6
330
9998
100
AcDbEntity
  8
1
  6
Continuous
100
AcDbLine
 10
163.8529459999998
 20
218.17971
 30
0.0
 11
195.852946
 21
218.17971
 31
0.0
  0
LINE
  5
99E7
330
9998
100
AcDbEntity
  8
1
  6
Continuous
100
AcDbLine
 10
143.352946
 20
212.22346
 30
0.0
 11
163.665803
 21
215.8051649999999
 31
0.0
  0
LINE
  5
99E8
330
9998
100
AcDbEntity
  8
1
  6
Continuous
100
AcDbLine
 10
143.7002379999998
 20
210.253844
 30
0.0
 11
147.0215419999999
 21
210.8394799999999
 31
0.0
  0
LINE
  5
99E9
330
9998
100
AcDbEntity
  8
1
  6
Continuous
100
AcDbLine
 10
195.1760779999999
 20
209.7501199999999
 30
0.0
 11
198.852946
 21
210.1473069999999
 31
0.0
  0
LINE
  5
99EA
330
9998
100
AcDbEntity
  8
1
  6
Continuous
100
AcDbLine
 10
143.352947
 20
212.2234579999999
 30
0.0
 11
143.700244
 21
210.253841
 31
0.0
  0
LINE
  5
99EB
330
9998
100
AcDbEntity
  8
1
  6
Continuous
100
AcDbLine
 10
166.852946
 20
215.279736
 30
0.0
 11
166.852946
 21
180.212679
 31
0.0
  0
LINE
  5
99EC
330
9998
100
AcDbEntity
  8
1
  6
Continuous
100
AcDbLine
 10
146.6742469999998
 20
212.809095
 30
0.0
 11
147.0215429999998
 21
210.8394799999999
 31
0.0
  0
LINE
  5
99ED
330
9998
100
AcDbEntity
  8
1
  6
Continuous
100
AcDbLine
 10
33.852946
 20
218.17971
 30
0.0
 11
65.852946
 21
218.17971
 31
0.0
  0
LINE
  5
99EE
330
9998
100
AcDbEntity
  8
1
  6
Continuous
100
AcDbLine
 10
34.852946
 20
160.8797089999999
 30
0.0
 11
36.85294600000001
 21
160.8797089999999
 31
0.0
  0
LINE
  5
99EF
330
9998
100
AcDbEntity
  8
1
  6
Continuous
100
AcDbLine
 10
36.85294600000001
 20
210.5394759999998
 30
0.0
 11
36.85294600000001
 21
160.8797089999999
 31
0.0
  0
LINE
  5
99F0
330
9998
100
AcDbEntity
  8
1
  6
Continuous
100
AcDbLine
 10
34.852946
 20
211.379646
 30
0.0
 11
34.852946
 21
160.8797089999999
 31
0.0
  0
LINE
  5
99F1
330
9998
100
AcDbEntity
  8
1
  6
Continuous
100
AcDbLine
 10
64.852946
 20
211.379646
 30
0.0
 11
64.852946
 21
160.8797089999999
 31
0.0
  0
LINE
  5
99F2
330
9998
100
AcDbEntity
  8
1
  6
Continuous
100
AcDbLine
 10
62.852946
 20
210.5394759999998
 30
0.0
 11
62.852946
 21
160.8797089999999
 31
0.0
  0
LINE
  5
99F3
330
9998
100
AcDbEntity
  8
1
  6
Continuous
100
AcDbLine
 10
64.852946
 20
160.8797089999999
 30
0.0
 11
62.852946
 21
160.8797089999999
 31
0.0
  0
LINE
  5
99F4
330
9998
100
AcDbEntity
  8
1
  6
Continuous
100
AcDbLine
 10
67.354365
 20
173.077696
 30
0.0
 11
67.347689
 21
166.477698
 31
0.0
  0
LINE
  5
99F5
330
9998
100
AcDbEntity
  8
1
  6
Continuous
100
AcDbLine
 10
64.845652
 20
164.479708
 30
0.0
 11
65.34768199999999
 21
164.479708
 31
0.0
  0
LINE
  5
99F6
330
9998
100
AcDbEntity
  8
1
  6
Continuous
100
AcDbLine
 10
64.856379
 20
175.0797099999997
 30
0.0
 11
65.35434999999999
 21
175.0797099999997
 31
0.0
  0
LINE
  5
99F7
330
9998
100
AcDbEntity
  8
1
  6
Continuous
100
AcDbLine
 10
61.85294599999998
 20
173.0297109999999
 30
0.0
 11
62.852946
 21
173.0297109999999
 31
0.0
  0
LINE
  5
99F8
330
9998
100
AcDbEntity
  8
1
  6
Continuous
100
AcDbLine
 10
61.85294599999998
 20
166.529711
 30
0.0
 11
62.852946
 21
166.529711
 31
0.0
  0
LINE
  5
99F9
330
9998
100
AcDbEntity
  8
1
  6
Continuous
100
AcDbLine
 10
147.0215409999999
 20
210.839493
 30
0.0
 11
143.1843869999999
 21
169.065737
 31
0.0
  0
LINE
  5
99FA
330
9998
100
AcDbEntity
  8
1
  6
Continuous
100
AcDbLine
 10
156.5894609999998
 20
163.796286
 30
0.0
 11
189.705554
 21
206.688705
 31
0.0
  0
ARC
  5
99FB
330
9998
100
AcDbEntity
  8
1
  6
Continuous
100
AcDbCircle
 10
32.540446
 20
165.4797079999999
 30
0.0
 40
2.3125
100
AcDbArc
 50
325.79449
 51
34.20541
  0
ARC
  5
99FC
330
9998
100
AcDbEntity
  8
1
  6
Continuous
100
AcDbCircle
 10
23.402946
 20
169.7797109999999
 30
0.0
 40
11.450001
100
AcDbArc
 50
344.8107199999999
 51
15.189285
  0
ARC
  5
99FD
330
9998
100
AcDbEntity
  8
1
  6
Continuous
100
AcDbCircle
 10
32.540446
 20
174.0797139999999
 30
0.0
 40
2.3125
100
AcDbArc
 50
325.79455
 51
34.205461
  0
ARC
  5
99FE
330
9998
100
AcDbEntity
  8
1
  6
Continuous
100
AcDbCircle
 10
33.165446
 20
174.0797139999999
 30
0.0
 40
2.312498999999998
100
AcDbArc
 50
145.7945499999999
 51
214.2054299999998
  0
ARC
  5
99FF
330
9998
100
AcDbEntity
  8
1
  6
Continuous
100
AcDbCircle
 10
42.30294599999999
 20
169.7797109999999
 30
0.0
 40
11.44999799999999
100
AcDbArc
 50
164.81073
 51
195.1892499999999
  0
ARC
  5
9A00
330
9998
100
AcDbEntity
  8
1
  6
Continuous
100
AcDbCircle
 10
33.165446
 20
165.479716
 30
0.0
 40
2.312498999999998
100
AcDbArc
 50
145.7945499999999
 51
214.2054299999998
  0
ARC
  5
9A01
330
9998
100
AcDbEntity
  8
1
  6
Continuous
100
AcDbCircle
 10
207.8529459999999
 20
301.7797109999999
 30
0.0
 40
7.0
100
AcDbArc
 50
340.76692
 51
89.99996800000003
  0
CIRCLE
  5
9A02
330
9998
100
AcDbEntity
  8
1
  6
Continuous
100
AcDbCircle
 10
207.8529459999999
 20
301.7797109999999
 30
0.0
 40
3.25
  0
ARC
  5
9A03
330
9998
100
AcDbEntity
  8
1
  6
Continuous
100
AcDbCircle
 10
207.8529459999999
 20
273.7797109999998
 30
0.0
 40
7.0
100
AcDbArc
 50
270.0
 51
19.233055
  0
ARC
  5
9A04
330
9998
100
AcDbEntity
  8
1
  6
Continuous
100
AcDbCircle
 10
247.9808559999999
 20
287.7797189999999
 30
0.0
 40
35.49999600000001
100
AcDbArc
 50
160.7508329999998
 51
199.23307
  0
CIRCLE
  5
9A05
330
9998
100
AcDbEntity
  8
1
  6
Continuous
100
AcDbCircle
 10
207.8529459999999
 20
273.7797109999998
 30
0.0
 40
3.25
  0
ARC
  5
9A06
330
9998
100
AcDbEntity
  8
1
  6
Continuous
100
AcDbCircle
 10
151.852946
 20
301.779703
 30
0.0
 40
7.0
100
AcDbArc
 50
89.99998199999996
 51
199.23301
  0
CIRCLE
  5
9A07
330
9998
100
AcDbEntity
  8
1
  6
Continuous
100
AcDbCircle
 10
151.852946
 20
301.7797109999999
 30
0.0
 40
3.25
  0
ARC
  5
9A08
330
9998
100
AcDbEntity
  8
1
  6
Continuous
100
AcDbCircle
 10
151.8529499999999
 20
273.7797109999998
 30
0.0
 40
7.0
100
AcDbArc
 50
160.76689
 51
269.99995
  0
ARC
  5
9A09
330
9998
100
AcDbEntity
  8
1
  6
Continuous
100
AcDbCircle
 10
111.725032
 20
287.7797029999998
 30
0.0
 40
35.49999600000001
100
AcDbArc
 50
340.7668799999999
 51
19.241066
  0
CIRCLE
  5
9A0A
330
9998
100
AcDbEntity
  8
1
  6
Continuous
100
AcDbCircle
 10
151.852946
 20
273.7797029999999
 30
0.0
 40
3.25
  0
CIRCLE
  5
9A0B
330
9998
100
AcDbEntity
  8
1
  6
Continuous
100
AcDbCircle
 10
179.852946
 20
287.7797109999999
 30
0.0
 40
17.25
  0
CIRCLE
  5
9A0C
330
9998
100
AcDbEntity
  8
1
  6
Continuous
100
AcDbCircle
 10
179.852946
 20
287.7797109999999
 30
0.0
 40
15.75
  0
CIRCLE
  5
9A0D
330
9998
100
AcDbEntity
  8
1
  6
Continuous
100
AcDbCircle
 10
179.852946
 20
287.7797109999999
 30
0.0
 40
8.3
  0
CIRCLE
  5
9A0E
330
9998
100
AcDbEntity
  8
1
  6
Continuous
100
AcDbCircle
 10
179.852946
 20
287.7797109999999
 30
0.0
 40
6.75
  0
ARC
  5
9A0F
330
9998
100
AcDbEntity
  8
1
  6
Continuous
100
AcDbCircle
 10
57.314265
 20
219.3242129999999
 30
0.0
 40
1.984499999999996
100
AcDbArc
 50
324.7796799999998
 51
350.00299
  0
ARC
  5
9A10
330
9998
100
AcDbEntity
  8
1
  6
Continuous
100
AcDbCircle
 10
45.932322
 20
219.3242129999999
 30
0.0
 40
1.984499999999996
100
AcDbArc
 50
324.7796799999998
 51
350.0030499999998
  0
ARC
  5
9A11
330
9998
100
AcDbEntity
  8
1
  6
Continuous
100
AcDbCircle
 10
175.9323219999999
 20
219.3242129999999
 30
0.0
 40
1.984499999999996
100
AcDbArc
 50
324.7797499999998
 51
350.0030499999998
  0
ARC
  5
9A12
330
9998
100
AcDbEntity
  8
1
  6
Continuous
100
AcDbCircle
 10
53.77356999999999
 20
219.3242129999999
 30
0.0
 40
1.984499999999996
100
AcDbArc
 50
324.7796799999998
 51
350.00299
  0
ARC
  5
9A13
330
9998
100
AcDbEntity
  8
1
  6
Continuous
100
AcDbCircle
 10
42.391626
 20
219.3242129999999
 30
0.0
 40
1.984499999999996
100
AcDbArc
 50
324.7796799999998
 51
333.1367799999998
  0
ARC
  5
9A14
330
9998
100
AcDbEntity
  8
1
  6
Continuous
100
AcDbCircle
 10
172.391627
 20
219.3242129999999
 30
0.0
 40
1.984499999999996
100
AcDbArc
 50
324.7797499999998
 51
333.1367799999998
  0
ARC
  5
9A15
330
9998
100
AcDbEntity
  8
1
  6
Continuous
100
AcDbCircle
 10
30.10294599999999
 20
221.7797109999999
 30
0.0
 40
0.5
100
AcDbArc
 50
11.021507
 51
90.00000900000001
  0
ARC
  5
9A16
330
9998
100
AcDbEntity
  8
1
  6
Continuous
100
AcDbCircle
 10
33.03852599999999
 20
221.7796729999998
 30
0.0
 40
2.799999999999998
100
AcDbArc
 50
270.00002
 51
271.65221
  0
ARC
  5
9A17
330
9998
100
AcDbEntity
  8
1
  6
Continuous
100
AcDbCircle
 10
33.05294599999999
 20
221.2797109999999
 30
0.0
 40
2.299999999999998
100
AcDbArc
 50
191.02148
 51
269.9999899999999
  0
ARC
  5
9A18
330
9998
100
AcDbEntity
  8
1
  6
Continuous
100
AcDbCircle
 10
69.602946
 20
221.7797109999999
 30
0.0
 40
0.5
100
AcDbArc
 50
89.999955
 51
168.97846
  0
ARC
  5
9A19
330
9998
100
AcDbEntity
  8
1
  6
Continuous
100
AcDbCircle
 10
66.65294899999999
 20
221.2797109999999
 30
0.0
 40
2.299999999999998
100
AcDbArc
 50
270.00002
 51
348.9785299999998
  0
ARC
  5
9A1A
330
9998
100
AcDbEntity
  8
1
  6
Continuous
100
AcDbCircle
 10
53.77356999999999
 20
219.3242129999999
 30
0.0
 40
1.984499999999996
100
AcDbArc
 50
189.9969899999999
 51
215.2202999999999
  0
ARC
  5
9A1B
330
9998
100
AcDbEntity
  8
1
  6
Continuous
100
AcDbCircle
 10
49.852946
 20
219.3242129999999
 30
0.0
 40
1.984499999999996
100
AcDbArc
 50
324.7796799999998
 51
350.00299
  0
ARC
  5
9A1C
330
9998
100
AcDbEntity
  8
1
  6
Continuous
100
AcDbCircle
 10
57.314265
 20
219.3242129999999
 30
0.0
 40
1.984499999999996
100
AcDbArc
 50
206.86325
 51
215.2202999999999
  0
ARC
  5
9A1D
330
9998
100
AcDbEntity
  8
1
  6
Continuous
100
AcDbCircle
 10
60.13193000000001
 20
219.3242129999999
 30
0.0
 40
1.984499999999996
100
AcDbArc
 50
324.77981
 51
350.00299
  0
ARC
  5
9A1E
330
9998
100
AcDbEntity
  8
1
  6
Continuous
100
AcDbCircle
 10
61.95353199999999
 20
219.3242129999999
 30
0.0
 40
1.984499999999996
100
AcDbArc
 50
324.7797499999998
 51
350.00299
  0
ARC
  5
9A1F
330
9998
100
AcDbEntity
  8
1
  6
Continuous
100
AcDbCircle
 10
62.60294599999999
 20
219.3242129999999
 30
0.0
 40
1.984499999999996
100
AcDbArc
 50
324.7797499999998
 51
350.00299
  0
ARC
  5
9A20
330
9998
100
AcDbEntity
  8
1
  6
Continuous
100
AcDbCircle
 10
45.932322
 20
219.3242129999999
 30
0.0
 40
1.984499999999996
100
AcDbArc
 50
189.99704
 51
215.2202999999999
  0
ARC
  5
9A21
330
9998
100
AcDbEntity
  8
1
  6
Continuous
100
AcDbCircle
 10
49.852946
 20
219.3242129999999
 30
0.0
 40
1.984499999999996
100
AcDbArc
 50
189.9970599999999
 51
215.2202999999999
  0
ARC
  5
9A22
330
9998
100
AcDbEntity
  8
1
  6
Continuous
100
AcDbCircle
 10
42.391626
 20
219.3242129999999
 30
0.0
 40
1.984499999999996
100
AcDbArc
 50
189.9970599999999
 51
215.2202999999999
  0
ARC
  5
9A23
330
9998
100
AcDbEntity
  8
1
  6
Continuous
100
AcDbCircle
 10
39.573956
 20
219.3242129999999
 30
0.0
 40
1.984499999999996
100
AcDbArc
 50
189.9970599999999
 51
215.2202999999999
  0
ARC
  5
9A24
330
9998
100
AcDbEntity
  8
1
  6
Continuous
100
AcDbCircle
 10
37.752356
 20
219.3242129999999
 30
0.0
 40
1.984499999999996
100
AcDbArc
 50
189.9970599999999
 51
215.2202999999999
  0
ARC
  5
9A25
330
9998
100
AcDbEntity
  8
1
  6
Continuous
100
AcDbCircle
 10
37.102946
 20
219.3242129999999
 30
0.0
 40
1.984499999999996
100
AcDbArc
 50
189.9970599999999
 51
215.2202999999999
  0
ARC
  5
9A26
330
9998
100
AcDbEntity
  8
1
  6
Continuous
100
AcDbCircle
 10
160.102946
 20
221.7797109999999
 30
0.0
 40
0.5
100
AcDbArc
 50
11.021507
 51
90.00000900000001
  0
ARC
  5
9A27
330
9998
100
AcDbEntity
  8
1
  6
Continuous
100
AcDbCircle
 10
163.0385229999999
 20
221.7796729999998
 30
0.0
 40
2.799999999999998
100
AcDbArc
 50
270.00002
 51
271.65221
  0
ARC
  5
9A28
330
9998
100
AcDbEntity
  8
1
  6
Continuous
100
AcDbCircle
 10
163.0529429999999
 20
221.2797109999999
 30
0.0
 40
2.299999999999998
100
AcDbArc
 50
191.02148
 51
269.9999899999999
  0
ARC
  5
9A29
330
9998
100
AcDbEntity
  8
1
  6
Continuous
100
AcDbCircle
 10
199.602946
 20
221.7797109999999
 30
0.0
 40
0.5
100
AcDbArc
 50
89.999955
 51
168.97846
  0
ARC
  5
9A2A
330
9998
100
AcDbEntity
  8
1
  6
Continuous
100
AcDbCircle
 10
196.652949
 20
221.2797109999999
 30
0.0
 40
2.299999999999998
100
AcDbArc
 50
270.00002
 51
348.9785299999998
  0
ARC
  5
9A2B
330
9998
100
AcDbEntity
  8
1
  6
Continuous
100
AcDbCircle
 10
183.7735699999998
 20
219.3242129999999
 30
0.0
 40
1.984499999999996
100
AcDbArc
 50
189.9969899999999
 51
215.2202299999999
  0
ARC
  5
9A2C
330
9998
100
AcDbEntity
  8
1
  6
Continuous
100
AcDbCircle
 10
179.852946
 20
219.3242129999999
 30
0.0
 40
1.984499999999996
100
AcDbArc
 50
324.7797499999998
 51
350.00299
  0
ARC
  5
9A2D
330
9998
100
AcDbEntity
  8
1
  6
Continuous
100
AcDbCircle
 10
187.3142649999999
 20
219.3242129999999
 30
0.0
 40
1.984499999999996
100
AcDbArc
 50
206.86325
 51
215.2202299999999
  0
ARC
  5
9A2E
330
9998
100
AcDbEntity
  8
1
  6
Continuous
100
AcDbCircle
 10
190.13193
 20
219.3242129999999
 30
0.0
 40
1.984499999999996
100
AcDbArc
 50
324.7797499999998
 51
350.00299
  0
ARC
  5
9A2F
330
9998
100
AcDbEntity
  8
1
  6
Continuous
100
AcDbCircle
 10
191.9535319999999
 20
219.3242129999999
 30
0.0
 40
1.984499999999996
100
AcDbArc
 50
324.7797499999998
 51
350.00299
  0
ARC
  5
9A30
330
9998
100
AcDbEntity
  8
1
  6
Continuous
100
AcDbCircle
 10
192.602946
 20
219.3242129999999
 30
0.0
 40
1.984499999999996
100
AcDbArc
 50
324.7796799999998
 51
350.00299
  0
ARC
  5
9A31
330
9998
100
AcDbEntity
  8
1
  6
Continuous
100
AcDbCircle
 10
175.9323219999999
 20
219.3242129999999
 30
0.0
 40
1.984499999999996
100
AcDbArc
 50
189.99704
 51
215.2202299999999
  0
ARC
  5
9A32
330
9998
100
AcDbEntity
  8
1
  6
Continuous
100
AcDbCircle
 10
179.852946
 20
219.3242129999999
 30
0.0
 40
1.984499999999996
100
AcDbArc
 50
189.9970599999999
 51
215.2202299999999
  0
ARC
  5
9A33
330
9998
100
AcDbEntity
  8
1
  6
Continuous
100
AcDbCircle
 10
172.391627
 20
219.3242129999999
 30
0.0
 40
1.984499999999996
100
AcDbArc
 50
189.9970599999999
 51
215.2202299999999
  0
ARC
  5
9A34
330
9998
100
AcDbEntity
  8
1
  6
Continuous
100
AcDbCircle
 10
169.5739619999999
 20
219.3242129999999
 30
0.0
 40
1.984499999999996
100
AcDbArc
 50
189.9970599999999
 51
215.2202299999999
  0
ARC
  5
9A35
330
9998
100
AcDbEntity
  8
1
  6
Continuous
100
AcDbCircle
 10
167.75236
 20
219.3242129999999
 30
0.0
 40
1.984499999999996
100
AcDbArc
 50
189.99707
 51
215.2202299999999
  0
ARC
  5
9A36
330
9998
100
AcDbEntity
  8
1
  6
Continuous
100
AcDbCircle
 10
167.1029459999997
 20
219.3242129999999
 30
0.0
 40
1.984499999999996
100
AcDbArc
 50
189.9970599999999
 51
215.2202299999999
  0
ARC
  5
9A37
330
9998
100
AcDbEntity
  8
1
  6
Continuous
100
AcDbCircle
 10
183.7735699999998
 20
219.3242129999999
 30
0.0
 40
1.984499999999996
100
AcDbArc
 50
324.7797499999998
 51
350.00299
  0
ARC
  5
9A38
330
9998
100
AcDbEntity
  8
1
  6
Continuous
100
AcDbCircle
 10
187.3142649999999
 20
219.3242129999999
 30
0.0
 40
1.984499999999996
100
AcDbArc
 50
324.7797499999998
 51
350.00299
  0
ARC
  5
9A39
330
9998
100
AcDbEntity
  8
1
  6
Continuous
100
AcDbCircle
 10
196.0352659999998
 20
201.796391
 30
0.0
 40
8.0
100
AcDbArc
 50
96.16536199999998
 51
142.32923
  0
ARC
  5
9A3A
330
9998
100
AcDbEntity
  8
1
  6
Continuous
100
AcDbCircle
 10
150.6529459999998
 20
168.3797089999998
 30
0.0
 40
7.5
100
AcDbArc
 50
174.7517799999999
 51
322.32922
  0
CIRCLE
  5
9A3B
330
9998
100
AcDbEntity
  8
1
  6
Continuous
100
AcDbCircle
 10
150.852946
 20
169.7797109999999
 30
0.0
 40
5.299999999999998
  0
ARC
  5
9A3C
330
9998
100
AcDbEntity
  8
1
  6
Continuous
100
AcDbCircle
 10
49.852946
 20
349.9214609999999
 30
0.0
 40
137.69801
100
AcDbArc
 50
264.43445
 51
275.5655299999999
  0
ARC
  5
9A3D
330
9998
100
AcDbEntity
  8
1
  6
Continuous
100
AcDbCircle
 10
63.352946
 20
211.379646
 30
0.0
 40
1.5
100
AcDbArc
 50
0.0
 51
95.56557500000003
  0
ARC
  5
9A3E
330
9998
100
AcDbEntity
  8
1
  6
Continuous
100
AcDbCircle
 10
36.352946
 20
211.379646
 30
0.0
 40
1.5
100
AcDbArc
 50
84.43444300000001
 51
179.9999599999999
  0
ARC
  5
9A3F
330
9998
100
AcDbEntity
  8
1
  6
Continuous
100
AcDbCircle
 10
49.852946
 20
315.3797089999998
 30
0.0
 40
100.0
100
AcDbArc
 50
262.53039
 51
277.4695899999999
  0
ARC
  5
9A40
330
9998
100
AcDbEntity
  8
1
  6
Continuous
100
AcDbCircle
 10
65.85132900000001
 20
193.780977
 30
0.0
 40
35.0
100
AcDbArc
 50
179.4492899999999
 51
207.66612
  0
ARC
  5
9A41
330
9998
100
AcDbEntity
  8
1
  6
Continuous
100
AcDbCircle
 10
33.85456599999999
 20
193.780977
 30
0.0
 40
35.0
100
AcDbArc
 50
332.33384
 51
0.5506770000000003
  0
ARC
  5
9A42
330
9998
100
AcDbEntity
  8
1
  6
Continuous
100
AcDbCircle
 10
62.552943
 20
210.5394759999998
 30
0.0
 40
0.3
100
AcDbArc
 50
0.0
 51
95.28068799999999
  0
ARC
  5
9A43
330
9998
100
AcDbEntity
  8
1
  6
Continuous
100
AcDbCircle
 10
37.152946
 20
210.5394759999998
 30
0.0
 40
0.3
100
AcDbArc
 50
84.71933100000002
 51
179.9999599999999
  0
ARC
  5
9A44
330
9998
100
AcDbEntity
  8
1
  6
Continuous
100
AcDbCircle
 10
49.852946
 20
347.9518609999999
 30
0.0
 40
137.69801
100
AcDbArc
 50
264.7195599999998
 51
275.28041
  0
ARC
  5
9A45
330
9998
100
AcDbEntity
  8
1
  6
Continuous
100
AcDbCircle
 10
65.34768199999999
 20
166.479712
 30
0.0
 40
2.0
100
AcDbArc
 50
270.00002
 51
359.9420799999998
  0
ARC
  5
9A46
330
9998
100
AcDbEntity
  8
1
  6
Continuous
100
AcDbCircle
 10
65.35434999999999
 20
173.07971
 30
0.0
 40
2.0
100
AcDbArc
 50
359.9420799999998
 51
89.99998199999996
  0
LINE
  5
9A47
330
9998
100
AcDbEntity
  8
1
  6
Continuous
100
AcDbLine
 10
30.852946
 20
215.17971
 30
0.0
 11
30.852946
 21
193.4445429999999
 31
0.0
  0
LINE
  5
9A48
330
9998
100
AcDbEntity
  8
1
  6
Continuous
100
AcDbLine
 10
68.852946
 20
215.17971
 30
0.0
 11
68.852946
 21
193.444232
 31
0.0
  0
ARC
  5
9A49
330
9998
100
AcDbEntity
  8
1
  6
Continuous
100
AcDbCircle
 10
65.852946
 20
215.17971
 30
0.0
 40
3.0
100
AcDbArc
 50
0.0
 51
90.0
  0
ARC
  5
9A4A
330
9998
100
AcDbEntity
  8
1
  6
Continuous
100
AcDbCircle
 10
33.852946
 20
215.17971
 30
0.0
 40
3.0
100
AcDbArc
 50
90.0
 51
180.0
  0
LINE
  5
9A4B
330
9998
100
AcDbEntity
  8
1
  6
Continuous
100
AcDbLine
 10
198.852946
 20
215.17971
 30
0.0
 11
198.852946
 21
210.1473069999999
 31
0.0
  0
ARC
  5
9A4C
330
9998
100
AcDbEntity
  8
1
  6
Continuous
100
AcDbCircle
 10
195.852946
 20
215.17971
 30
0.0
 40
3.0
100
AcDbArc
 50
0.0
 51
90.0
  0
ARC
  5
9A4D
330
9998
100
AcDbEntity
  8
1
  6
Continuous
100
AcDbCircle
 10
163.8529459999998
 20
215.17971
 30
0.0
 40
3.0
100
AcDbArc
 50
90.0
 51
177.517007
  0
LINE
  5
9A4E
330
9998
100
AcDbEntity
  8
4
  6
CENTER
 48
0.8
100
AcDbLine
 10
278.352946
 20
229.433043
 30
0.0
 11
278.352946
 21
127.279711
 31
0.0
  0
LINE
  5
9A4F
330
9998
100
AcDbEntity
  8
1
  6
Continuous
100
AcDbLine
 10
294.3529459999998
 20
218.17971
 30
0.0
 11
262.3529459999999
 21
218.17971
 31
0.0
  0
ARC
  5
9A50
330
9998
100
AcDbEntity
  8
1
  6
Continuous
100
AcDbCircle
 10
266.25236
 20
219.3242129999999
 30
0.0
 40
1.984499999999996
100
AcDbArc
 50
189.99701
 51
215.22025
  0
LINE
  5
9A51
330
9998
100
AcDbEntity
  8
1
  6
Continuous
100
AcDbLine
 10
263.3529459999999
 20
160.8797089999999
 30
0.0
 11
265.3529459999999
 21
160.8797089999999
 31
0.0
  0
LINE
  5
9A52
330
9998
100
AcDbEntity
  8
1
  6
Continuous
100
AcDbLine
 10
295.1529459999998
 20
218.9797079999999
 30
0.0
 11
261.552943
 21
218.9797079999999
 31
0.0
  0
LINE
  5
9A53
330
9998
100
AcDbEntity
  8
1
  6
Continuous
100
AcDbLine
 10
299.3529459999998
 20
222.279711
 30
0.0
 11
257.3529459999999
 21
222.279711
 31
0.0
  0
LINE
  5
9A54
330
9998
100
AcDbEntity
  8
1
  6
Continuous
100
AcDbLine
 10
299.3529459999998
 20
224.279711
 30
0.0
 11
257.3529459999999
 21
224.279711
 31
0.0
  0
LINE
  5
9A55
330
9998
100
AcDbEntity
  8
4
  6
CENTER
 48
0.8
100
AcDbLine
 10
304.952946
 20
169.7797109999999
 30
0.0
 11
255.8548609999999
 21
169.7797109999999
 31
0.0
  0
LINE
  5
9A56
330
9998
100
AcDbEntity
  8
1
  6
Continuous
100
AcDbLine
 10
265.3529459999999
 20
208.356925
 30
0.0
 11
265.3529459999999
 21
160.8797089999999
 31
0.0
  0
LINE
  5
9A57
330
9998
100
AcDbEntity
  8
1
  6
Continuous
100
AcDbLine
 10
293.3529459999998
 20
178.6890629999998
 30
0.0
 11
293.3529459999998
 21
160.8797089999999
 31
0.0
  0
LINE
  5
9A58
330
9998
100
AcDbEntity
  8
1
  6
Continuous
100
AcDbLine
 10
291.3529459999998
 20
208.356925
 30
0.0
 11
291.3529459999998
 21
160.8797089999999
 31
0.0
  0
LINE
  5
9A59
330
9998
100
AcDbEntity
  8
1
  6
Continuous
100
AcDbLine
 10
293.829746
 20
166.7797109999999
 30
0.0
 11
296.952946
 21
166.7797109999999
 31
0.0
  0
LINE
  5
9A5A
330
9998
100
AcDbEntity
  8
1
  6
Continuous
100
AcDbLine
 10
293.752946
 20
164.179713
 30
0.0
 11
296.952946
 21
164.179713
 31
0.0
  0
LINE
  5
9A5B
330
9998
100
AcDbEntity
  8
1
  6
Continuous
100
AcDbLine
 10
293.752946
 20
172.779711
 30
0.0
 11
296.952946
 21
172.779711
 31
0.0
  0
LINE
  5
9A5C
330
9998
100
AcDbEntity
  8
1
  6
Continuous
100
AcDbLine
 10
293.752946
 20
175.3797089999999
 30
0.0
 11
296.952946
 21
175.3797089999999
 31
0.0
  0
ARC
  5
9A5D
330
9998
100
AcDbEntity
  8
1
  6
Continuous
100
AcDbCircle
 10
295.0404459999998
 20
165.479716
 30
0.0
 40
2.312498999999998
100
AcDbArc
 50
325.79457
 51
34.20545
  0
LINE
  5
9A5E
330
9998
100
AcDbEntity
  8
1
  6
Continuous
100
AcDbLine
 10
297.952946
 20
173.579714
 30
0.0
 11
297.952946
 21
165.979716
 31
0.0
  0
LINE
  5
9A5F
330
9998
100
AcDbEntity
  8
1
  6
Continuous
100
AcDbLine
 10
297.9529559999998
 20
165.9796279999999
 30
0.0
 11
296.9529559999998
 21
164.179705
 31
0.0
  0
ARC
  5
9A60
330
9998
100
AcDbEntity
  8
1
  6
Continuous
100
AcDbCircle
 10
285.902946
 20
169.7797109999999
 30
0.0
 40
11.44999799999999
100
AcDbArc
 50
344.8107499999999
 51
15.18927
  0
ARC
  5
9A61
330
9998
100
AcDbEntity
  8
1
  6
Continuous
100
AcDbCircle
 10
295.0404459999998
 20
174.0797139999999
 30
0.0
 40
2.312498999999998
100
AcDbArc
 50
325.79457
 51
34.20545
  0
LINE
  5
9A62
330
9998
100
AcDbEntity
  8
1
  6
Continuous
100
AcDbLine
 10
297.9529559999998
 20
173.5797449999997
 30
0.0
 11
296.9529559999998
 21
175.379717
 31
0.0
  0
ARC
  5
9A63
330
9998
100
AcDbEntity
  8
1
  6
Continuous
100
AcDbCircle
 10
295.6654459999998
 20
165.4797079999999
 30
0.0
 40
2.3125
100
AcDbArc
 50
145.79459
 51
214.2055099999998
  0
LINE
  5
9A64
330
9998
100
AcDbEntity
  8
1
  6
Continuous
100
AcDbLine
 10
293.3529459999998
 20
160.8797089999999
 30
0.0
 11
291.3529459999998
 21
160.8797089999999
 31
0.0
  0
ARC
  5
9A65
330
9998
100
AcDbEntity
  8
1
  6
Continuous
100
AcDbCircle
 10
295.6654459999998
 20
174.0797139999999
 30
0.0
 40
2.3125
100
AcDbArc
 50
145.7945389999999
 51
214.2054499999999
  0
ARC
  5
9A66
330
9998
100
AcDbEntity
  8
1
  6
Continuous
100
AcDbCircle
 10
304.802946
 20
169.7797109999999
 30
0.0
 40
11.450001
100
AcDbArc
 50
164.8107149999999
 51
195.1892799999999
  0
LINE
  5
9A67
330
9998
100
AcDbEntity
  8
1
  6
Continuous
100
AcDbLine
 10
291.3529459999998
 20
173.0297109999999
 30
0.0
 11
290.3529459999998
 21
173.0297109999999
 31
0.0
  0
LINE
  5
9A68
330
9998
100
AcDbEntity
  8
1
  6
Continuous
100
AcDbLine
 10
291.3529459999998
 20
166.529711
 30
0.0
 11
290.3529459999998
 21
166.529711
 31
0.0
  0
LINE
  5
9A69
330
9998
100
AcDbEntity
  8
1
  6
Continuous
100
AcDbLine
 10
266.3529459999999
 20
166.529711
 30
0.0
 11
265.3529459999999
 21
166.529711
 31
0.0
  0
LINE
  5
9A6A
330
9998
100
AcDbEntity
  8
1
  6
Continuous
100
AcDbLine
 10
266.3529459999999
 20
173.0297109999999
 30
0.0
 11
265.3529459999999
 21
173.0297109999999
 31
0.0
  0
ARC
  5
9A6B
330
9998
100
AcDbEntity
  8
1
  6
Continuous
100
AcDbCircle
 10
294.3529459999998
 20
215.17971
 30
0.0
 40
3.0
100
AcDbArc
 50
0.0
 51
90.0
  0
ARC
  5
9A6C
330
9998
100
AcDbEntity
  8
1
  6
Continuous
100
AcDbCircle
 10
295.1529459999998
 20
221.2797109999999
 30
0.0
 40
2.299999999999998
100
AcDbArc
 50
270.00001
 51
348.97852
  0
LINE
  5
9A6D
330
9998
100
AcDbEntity
  8
1
  6
Continuous
100
AcDbLine
 10
297.3529459999998
 20
215.17971
 30
0.0
 11
297.3529459999998
 21
193.4445429999999
 31
0.0
  0
ARC
  5
9A6E
330
9998
100
AcDbEntity
  8
1
  6
Continuous
100
AcDbCircle
 10
298.1029459999998
 20
221.7797109999999
 30
0.0
 40
0.5
100
AcDbArc
 50
89.99999100000001
 51
168.9784929999999
  0
LINE
  5
9A6F
330
9998
100
AcDbEntity
  8
1
  6
Continuous
100
AcDbLine
 10
299.3529459999998
 20
224.279711
 30
0.0
 11
299.3529459999998
 21
222.279711
 31
0.0
  0
LINE
  5
9A70
330
9998
100
AcDbEntity
  8
1
  6
Continuous
100
AcDbLine
 10
297.410406
 20
220.840016
 30
0.0
 11
297.612046
 21
221.87531
 31
0.0
  0
ARC
  5
9A71
330
9998
100
AcDbEntity
  8
1
  6
Continuous
100
AcDbCircle
 10
278.352946
 20
219.3242129999999
 30
0.0
 40
1.984499999999996
100
AcDbArc
 50
324.7796999999998
 51
350.0029399999998
  0
ARC
  5
9A72
330
9998
100
AcDbEntity
  8
1
  6
Continuous
100
AcDbCircle
 10
282.2735699999999
 20
219.3242129999999
 30
0.0
 40
1.984499999999996
100
AcDbArc
 50
189.99695
 51
215.2203199999999
  0
ARC
  5
9A73
330
9998
100
AcDbEntity
  8
1
  6
Continuous
100
AcDbCircle
 10
291.1029459999998
 20
219.3242129999999
 30
0.0
 40
1.984499999999996
100
AcDbArc
 50
324.7796999999998
 51
350.0029399999998
  0
ARC
  5
9A74
330
9998
100
AcDbEntity
  8
1
  6
Continuous
100
AcDbCircle
 10
290.453536
 20
219.3242129999999
 30
0.0
 40
1.984499999999996
100
AcDbArc
 50
324.7796999999998
 51
350.0029399999998
  0
ARC
  5
9A75
330
9998
100
AcDbEntity
  8
1
  6
Continuous
100
AcDbCircle
 10
288.6319359999999
 20
219.3242129999999
 30
0.0
 40
1.984499999999996
100
AcDbArc
 50
324.7796999999998
 51
350.0029399999998
  0
ARC
  5
9A76
330
9998
100
AcDbEntity
  8
1
  6
Continuous
100
AcDbCircle
 10
285.814266
 20
219.3242129999999
 30
0.0
 40
1.984499999999996
100
AcDbArc
 50
324.7796999999998
 51
350.0029399999998
  0
ARC
  5
9A77
330
9998
100
AcDbEntity
  8
1
  6
Continuous
100
AcDbCircle
 10
282.2735699999999
 20
219.3242129999999
 30
0.0
 40
1.984499999999996
100
AcDbArc
 50
324.7796999999998
 51
350.0029599999999
  0
ARC
  5
9A78
330
9998
100
AcDbEntity
  8
1
  6
Continuous
100
AcDbCircle
 10
295.167366
 20
221.7796729999998
 30
0.0
 40
2.799999999999998
100
AcDbArc
 50
268.3477899999999
 51
269.99998
  0
ARC
  5
9A79
330
9998
100
AcDbEntity
  8
1
  6
Continuous
100
AcDbCircle
 10
285.814266
 20
219.3242129999999
 30
0.0
 40
1.984499999999996
100
AcDbArc
 50
206.8632199999999
 51
215.2203199999999
  0
LINE
  5
9A7A
330
9998
100
AcDbEntity
  8
4
  6
CENTER
 48
0.8
100
AcDbLine
 10
292.3529459999998
 20
229.2797109999999
 30
0.0
 11
292.3529459999998
 21
217.2797109999999
 31
0.0
  0
ARC
  5
9A7B
330
9998
100
AcDbEntity
  8
1
  6
Continuous
100
AcDbCircle
 10
268.073962
 20
219.3242129999999
 30
0.0
 40
1.984499999999996
100
AcDbArc
 50
189.99701
 51
215.22019
  0
ARC
  5
9A7C
330
9998
100
AcDbEntity
  8
1
  6
Continuous
100
AcDbCircle
 10
270.891627
 20
219.3242129999999
 30
0.0
 40
1.984499999999996
100
AcDbArc
 50
324.7796999999998
 51
333.13675
  0
ARC
  5
9A7D
330
9998
100
AcDbEntity
  8
1
  6
Continuous
100
AcDbCircle
 10
278.352946
 20
219.3242129999999
 30
0.0
 40
1.984499999999996
100
AcDbArc
 50
189.99701
 51
215.2203199999999
  0
ARC
  5
9A7E
330
9998
100
AcDbEntity
  8
1
  6
Continuous
100
AcDbCircle
 10
274.432322
 20
219.3242129999999
 30
0.0
 40
1.984499999999996
100
AcDbArc
 50
324.7796999999998
 51
350.00301
  0
ARC
  5
9A7F
330
9998
100
AcDbEntity
  8
1
  6
Continuous
100
AcDbCircle
 10
274.432322
 20
219.3242129999999
 30
0.0
 40
1.984499999999996
100
AcDbArc
 50
189.99701
 51
215.2203199999999
  0
ARC
  5
9A80
330
9998
100
AcDbEntity
  8
1
  6
Continuous
100
AcDbCircle
 10
270.891627
 20
219.3242129999999
 30
0.0
 40
1.984499999999996
100
AcDbArc
 50
189.99701
 51
215.2203199999999
  0
LINE
  5
9A81
330
9998
100
AcDbEntity
  8
1
  6
Continuous
100
AcDbLine
 10
263.3529459999999
 20
178.6890629999998
 30
0.0
 11
263.3529459999999
 21
160.8797089999999
 31
0.0
  0
ARC
  5
9A82
330
9998
100
AcDbEntity
  8
1
  6
Continuous
100
AcDbCircle
 10
262.85821
 20
166.479712
 30
0.0
 40
2.0
100
AcDbArc
 50
180.0579199999999
 51
269.99998
  0
LINE
  5
9A83
330
9998
100
AcDbEntity
  8
1
  6
Continuous
100
AcDbLine
 10
263.36024
 20
164.479708
 30
0.0
 11
262.85821
 21
164.479708
 31
0.0
  0
ARC
  5
9A84
330
9998
100
AcDbEntity
  8
1
  6
Continuous
100
AcDbCircle
 10
262.8515419999998
 20
173.07971
 30
0.0
 40
2.0
100
AcDbArc
 50
90.00001800000005
 51
180.0579199999999
  0
LINE
  5
9A85
330
9998
100
AcDbEntity
  8
1
  6
Continuous
100
AcDbLine
 10
263.349513
 20
175.0797099999997
 30
0.0
 11
262.8515419999998
 21
175.0797099999997
 31
0.0
  0
LINE
  5
9A86
330
9998
100
AcDbEntity
  8
1
  6
Continuous
100
AcDbLine
 10
260.8515269999999
 20
173.077696
 30
0.0
 11
260.8582029999999
 21
166.477698
 31
0.0
  0
LINE
  5
9A87
330
9998
100
AcDbEntity
  8
1
  6
Continuous
100
AcDbLine
 10
259.3529459999999
 20
215.17971
 30
0.0
 11
259.3529459999999
 21
193.444232
 31
0.0
  0
ARC
  5
9A88
330
9998
100
AcDbEntity
  8
1
  6
Continuous
100
AcDbCircle
 10
262.3529459999999
 20
215.17971
 30
0.0
 40
3.0
100
AcDbArc
 50
90.0
 51
180.0
  0
ARC
  5
9A89
330
9998
100
AcDbEntity
  8
1
  6
Continuous
100
AcDbCircle
 10
265.6029459999999
 20
219.3242129999999
 30
0.0
 40
1.984499999999996
100
AcDbArc
 50
189.99701
 51
215.22025
  0
ARC
  5
9A8A
330
9998
100
AcDbEntity
  8
1
  6
Continuous
100
AcDbCircle
 10
261.552943
 20
221.2797109999999
 30
0.0
 40
2.299999999999998
100
AcDbArc
 50
191.02147
 51
269.99998
  0
ARC
  5
9A8B
330
9998
100
AcDbEntity
  8
1
  6
Continuous
100
AcDbCircle
 10
258.6029459999999
 20
221.7797109999999
 30
0.0
 40
0.5
100
AcDbArc
 50
11.02154
 51
90.00004500000001
  0
LINE
  5
9A8C
330
9998
100
AcDbEntity
  8
4
  6
CENTER
 48
0.8
100
AcDbLine
 10
264.3529459999999
 20
229.2797109999999
 30
0.0
 11
264.3529459999999
 21
217.2797109999999
 31
0.0
  0
LINE
  5
9A8D
330
9998
100
AcDbEntity
  8
1
  6
Continuous
100
AcDbLine
 10
257.3529459999999
 20
224.279711
 30
0.0
 11
257.3529459999999
 21
222.279711
 31
0.0
  0
LINE
  5
9A8E
330
9998
100
AcDbEntity
  8
1
  6
Continuous
100
AcDbLine
 10
259.295352
 20
220.839993
 30
0.0
 11
259.0937069999998
 21
221.8752869999999
 31
0.0
  0
ARC
  5
9A8F
330
9998
100
AcDbEntity
  8
1
  6
Continuous
100
AcDbCircle
 10
289.3790849999998
 20
193.927472
 30
0.0
 40
30.026139
100
AcDbArc
 50
149.5106899999998
 51
209.416028
  0
ARC
  5
9A90
330
9998
100
AcDbEntity
  8
1
  6
Continuous
100
AcDbCircle
 10
267.326808
 20
193.927472
 30
0.0
 40
30.026139
100
AcDbArc
 50
330.583972
 51
30.48931
  0
LINE
  5
9A91
330
9998
100
AcDbEntity
  8
1
  6
Continuous
100
AcDbLine
 10
265.228293
 20
210.1473069999999
 30
0.0
 11
291.4775999999998
 21
210.1473069999999
 31
0.0
  0
ARC
  5
9A92
330
9998
100
AcDbEntity
  8
1
  6
Continuous
100
AcDbCircle
 10
262.3529459999999
 20
178.6890629999998
 30
0.0
 40
1.0
100
AcDbArc
 50
0.0
 51
29.416028
  0
ARC
  5
9A93
330
9998
100
AcDbEntity
  8
1
  6
Continuous
100
AcDbCircle
 10
294.3529459999998
 20
178.6890629999998
 30
0.0
 40
1.0
100
AcDbArc
 50
150.583972
 51
180.0
  0
ARC
  5
9A94
330
9998
100
AcDbEntity
  8
1
  6
Continuous
100
AcDbCircle
 10
267.326808
 20
193.927472
 30
0.0
 40
28.026139
100
AcDbArc
 50
330.583972
 51
35.361938
  0
ARC
  5
9A95
330
9998
100
AcDbEntity
  8
1
  6
Continuous
100
AcDbCircle
 10
289.3790849999998
 20
193.927472
 30
0.0
 40
28.026139
100
AcDbArc
 50
144.638062
 51
209.416028
  0
ARC
  5
9A96
330
9998
100
AcDbEntity
  8
1
  6
Continuous
100
AcDbCircle
 10
291.4775999999998
 20
208.147307
 30
0.0
 40
2.0
100
AcDbArc
 50
30.48931
 51
90.0
  0
ARC
  5
9A97
330
9998
100
AcDbEntity
  8
1
  6
Continuous
100
AcDbCircle
 10
265.228293
 20
208.147307
 30
0.0
 40
2.0
100
AcDbArc
 50
90.0
 51
149.5106899999998
  0
ARC
  5
9A98
330
9998
100
AcDbEntity
  8
1
  6
Continuous
100
AcDbCircle
 10
294.3529459999998
 20
178.6890629999998
 30
0.0
 40
3.0
100
AcDbArc
 50
150.583972
 51
180.0
  0
ARC
  5
9A99
330
9998
100
AcDbEntity
  8
1
  6
Continuous
100
AcDbCircle
 10
262.3529459999999
 20
178.6890629999998
 30
0.0
 40
3.0
100
AcDbArc
 50
0.0
 51
29.416028
  0
LINE
  5
9A9A
330
9998
100
AcDbEntity
  8
4
  6
CENTER
 48
0.8
100
AcDbLine
 10
179.852946
 20
42.779711
 30
0.0
 11
179.852946
 21
94.77971100000001
 31
0.0
  0
LINE
  5
9A9B
330
9998
100
AcDbEntity
  8
1
  6
Continuous
100
AcDbLine
 10
151.8529499999999
 20
89.77971099999995
 30
0.0
 11
207.8529459999999
 21
89.77971099999995
 31
0.0
  0
LINE
  5
9A9C
330
9998
100
AcDbEntity
  8
1
  6
Continuous
100
AcDbLine
 10
153.4615279999998
 20
47.779711
 30
0.0
 11
207.8529459999999
 21
47.779711
 31
0.0
  0
LINE
  5
9A9D
330
9998
100
AcDbEntity
  8
4
  6
CENTER
 48
0.8
100
AcDbLine
 10
217.4808599999999
 20
68.77971099999999
 30
0.0
 11
108.352946
 21
68.77971099999999
 31
0.0
  0
ARC
  5
9A9E
330
9998
100
AcDbEntity
  8
1
  6
Continuous
100
AcDbCircle
 10
151.8529499999999
 20
82.779711
 30
0.0
 40
7.0
100
AcDbArc
 50
90.00004999999999
 51
171.7867889999999
  0
LINE
  5
9A9F
330
9998
100
AcDbEntity
  8
4
  6
CENTER
 48
0.8
100
AcDbLine
 10
151.852946
 20
87.77971499999997
 30
0.0
 11
151.852946
 21
77.779719
 31
0.0
  0
ARC
  5
9AA0
330
9998
100
AcDbEntity
  8
1
  6
Continuous
100
AcDbCircle
 10
151.852946
 20
54.779711
 30
0.0
 40
3.25
100
AcDbArc
 50
17.920214
 51
37.979875
  0
LINE
  5
9AA1
330
9998
100
AcDbEntity
  8
4
  6
CENTER
 48
0.8
100
AcDbLine
 10
146.852946
 20
82.77971499999997
 30
0.0
 11
156.852946
 21
82.77971499999997
 31
0.0
  0
LINE
  5
9AA2
330
9998
100
AcDbEntity
  8
4
  6
CENTER
 48
0.8
100
AcDbLine
 10
146.852946
 20
54.779711
 30
0.0
 11
156.8529419999999
 21
54.779711
 31
0.0
  0
ARC
  5
9AA3
330
9998
100
AcDbEntity
  8
1
  6
Continuous
100
AcDbCircle
 10
151.852946
 20
54.779719
 30
0.0
 40
7.0
100
AcDbArc
 50
163.3985189999999
 51
171.786855
  0
LINE
  5
9AA4
330
9998
100
AcDbEntity
  8
4
  6
CENTER
 48
0.8
100
AcDbLine
 10
151.852946
 20
49.779711
 30
0.0
 11
151.852946
 21
59.779719
 31
0.0
  0
ARC
  5
9AA5
330
9998
100
AcDbEntity
  8
1
  6
Continuous
100
AcDbCircle
 10
207.8529459999999
 20
82.779711
 30
0.0
 40
7.0
100
AcDbArc
 50
340.766945
 51
90.0
  0
LINE
  5
9AA6
330
9998
100
AcDbEntity
  8
4
  6
CENTER
 48
0.8
100
AcDbLine
 10
207.8529459999999
 20
87.779711
 30
0.0
 11
207.8529459999999
 21
77.77971099999998
 31
0.0
  0
ARC
  5
9AA7
330
9998
100
AcDbEntity
  8
1
  6
Continuous
100
AcDbCircle
 10
247.9808559999999
 20
68.779703
 30
0.0
 40
35.49999600000001
100
AcDbArc
 50
160.7669299999997
 51
199.2491669999998
  0
CIRCLE
  5
9AA8
330
9998
100
AcDbEntity
  8
1
  6
Continuous
100
AcDbCircle
 10
207.8529459999999
 20
82.779711
 30
0.0
 40
3.25
  0
LINE
  5
9AA9
330
9998
100
AcDbEntity
  8
4
  6
CENTER
 48
0.8
100
AcDbLine
 10
212.852946
 20
82.77971499999997
 30
0.0
 11
202.852946
 21
82.77971499999997
 31
0.0
  0
CIRCLE
  5
9AAA
330
9998
100
AcDbEntity
  8
1
  6
Continuous
100
AcDbCircle
 10
207.8529459999999
 20
54.779711
 30
0.0
 40
3.25
  0
ARC
  5
9AAB
330
9998
100
AcDbEntity
  8
1
  6
Continuous
100
AcDbCircle
 10
207.8529459999999
 20
54.779711
 30
0.0
 40
7.0
100
AcDbArc
 50
270.000032
 51
19.23307999999997
  0
LINE
  5
9AAC
330
9998
100
AcDbEntity
  8
4
  6
CENTER
 48
0.8
100
AcDbLine
 10
207.8529459999999
 20
49.779711
 30
0.0
 11
207.8529459999999
 21
59.779711
 31
0.0
  0
LINE
  5
9AAD
330
9998
100
AcDbEntity
  8
4
  6
CENTER
 48
0.8
100
AcDbLine
 10
212.852946
 20
54.779711
 30
0.0
 11
202.852946
 21
54.779711
 31
0.0
  0
LINE
  5
9AAE
330
9998
100
AcDbEntity
  8
1
  6
Continuous
100
AcDbLine
 10
143.1529459999999
 20
274.7797109999999
 30
0.0
 11
144.9247469999999
 21
274.7797109999999
 31
0.0
  0
LINE
  5
9AAF
330
9998
100
AcDbEntity
  8
1
  6
Continuous
100
AcDbLine
 10
143.1529459999999
 20
302.7797109999998
 30
0.0
 11
144.924744
 21
302.7797109999998
 31
0.0
  0
LINE
  5
9AB0
330
9998
100
AcDbEntity
  8
1
  6
Continuous
100
AcDbLine
 10
143.1529459999999
 20
300.7797109999998
 30
0.0
 11
144.9247419999998
 21
300.7797109999998
 31
0.0
  0
LINE
  5
9AB1
330
9998
100
AcDbEntity
  8
1
  6
Continuous
100
AcDbLine
 10
143.1529459999999
 20
272.7797109999999
 30
0.0
 11
144.9247469999999
 21
272.7797109999999
 31
0.0
  0
LINE
  5
9AB2
330
9998
100
AcDbEntity
  8
4
  6
CENTER
 48
0.8
100
AcDbLine
 10
150.852946
 20
42.779711
 30
0.0
 11
150.852946
 21
94.77971100000001
 31
0.0
  0
LINE
  5
9AB3
330
9998
100
AcDbEntity
  8
1
  6
Continuous
100
AcDbLine
 10
147.5549609999999
 20
86.28113
 30
0.0
 11
154.1549589999999
 21
86.274454
 31
0.0
  0
LINE
  5
9AB4
330
9998
100
AcDbEntity
  8
1
  6
Continuous
100
AcDbLine
 10
143.2499699999999
 20
81.77971099999998
 30
0.0
 11
166.8914649999998
 21
81.77971099999998
 31
0.0
  0
LINE
  5
9AB5
330
9998
100
AcDbEntity
  8
1
  6
Continuous
100
AcDbLine
 10
143.2499699999999
 20
83.77971099999998
 30
0.0
 11
166.8914649999998
 21
83.77971099999998
 31
0.0
  0
LINE
  5
9AB6
330
9998
100
AcDbEntity
  8
1
  6
Continuous
100
AcDbLine
 10
143.2499699999999
 20
53.77971099999999
 30
0.0
 11
166.852946
 21
53.77971099999999
 31
0.0
  0
LINE
  5
9AB7
330
9998
100
AcDbEntity
  8
1
  6
Continuous
100
AcDbLine
 10
143.2499699999999
 20
55.779711
 30
0.0
 11
166.852946
 21
55.779711
 31
0.0
  0
ARC
  5
9AB8
330
9998
100
AcDbEntity
  8
1
  6
Continuous
100
AcDbCircle
 10
147.5529469999998
 20
84.28111499999998
 30
0.0
 40
2.0
100
AcDbArc
 50
89.94208
 51
179.999982
  0
LINE
  5
9AB9
330
9998
100
AcDbEntity
  8
1
  6
Continuous
100
AcDbLine
 10
147.602946
 20
55.779711
 30
0.0
 11
147.602946
 21
56.779711
 31
0.0
  0
LINE
  5
9ABA
330
9998
100
AcDbEntity
  8
1
  6
Continuous
100
AcDbLine
 10
147.602946
 20
80.77971099999997
 30
0.0
 11
147.602946
 21
81.77971099999998
 31
0.0
  0
LINE
  5
9ABB
330
9998
100
AcDbEntity
  8
1
  6
Continuous
100
AcDbLine
 10
145.5529469999999
 20
83.78314399999998
 30
0.0
 11
145.5529469999999
 21
84.28111499999998
 31
0.0
  0
ARC
  5
9ABC
330
9998
100
AcDbEntity
  8
1
  6
Continuous
100
AcDbCircle
 10
154.1529449999998
 20
84.27444699999998
 30
0.0
 40
2.0
100
AcDbArc
 50
0.00002
 51
89.94208
  0
LINE
  5
9ABD
330
9998
100
AcDbEntity
  8
1
  6
Continuous
100
AcDbLine
 10
154.102946
 20
55.779711
 30
0.0
 11
154.102946
 21
56.779711
 31
0.0
  0
LINE
  5
9ABE
330
9998
100
AcDbEntity
  8
1
  6
Continuous
100
AcDbLine
 10
154.102946
 20
80.77971099999997
 30
0.0
 11
154.102946
 21
81.77971099999998
 31
0.0
  0
LINE
  5
9ABF
330
9998
100
AcDbEntity
  8
1
  6
Continuous
100
AcDbLine
 10
156.152949
 20
83.772417
 30
0.0
 11
156.152949
 21
84.27444699999998
 31
0.0
  0
ARC
  5
9AC0
330
9998
100
AcDbEntity
  8
1
  6
Continuous
100
AcDbCircle
 10
179.852946
 20
68.77971099999999
 30
0.0
 40
19.0
100
AcDbArc
 50
235.6988470000001
 51
124.301153
  0
ARC
  5
9AC1
330
9998
100
AcDbEntity
  8
1
  6
Continuous
100
AcDbCircle
 10
179.852946
 20
68.77971099999999
 30
0.0
 40
17.0
100
AcDbArc
 50
235.6988470000001
 51
124.301153
  0
LINE
  5
9AC2
330
9998
100
AcDbEntity
  8
1
  6
Continuous
100
AcDbLine
 10
143.2499699999999
 20
83.77971099999998
 30
0.0
 11
143.2499699999999
 21
81.77971099999998
 31
0.0
  0
LINE
  5
9AC3
330
9998
100
AcDbEntity
  8
1
  6
Continuous
100
AcDbLine
 10
143.2499699999999
 20
55.779711
 30
0.0
 11
143.2499699999999
 21
53.77971099999999
 31
0.0
  0
ARC
  5
9AC4
330
9998
100
AcDbEntity
  8
1
  6
Continuous
100
AcDbCircle
 10
166.8914649999998
 20
87.779711
 30
0.0
 40
4.0
100
AcDbArc
 50
270.0
 51
304.301153
  0
ARC
  5
9AC5
330
9998
100
AcDbEntity
  8
1
  6
Continuous
100
AcDbCircle
 10
166.8914649999998
 20
87.779711
 30
0.0
 40
6.0
100
AcDbArc
 50
270.0
 51
304.301153
  0
ARC
  5
9AC6
330
9998
100
AcDbEntity
  8
1
  6
Continuous
100
AcDbCircle
 10
166.8914649999998
 20
49.779711
 30
0.0
 40
4.0
100
AcDbArc
 50
55.69884700000001
 51
90.0
  0
ARC
  5
9AC7
330
9998
100
AcDbEntity
  8
1
  6
Continuous
100
AcDbCircle
 10
166.8914649999998
 20
49.779711
 30
0.0
 40
6.0
100
AcDbArc
 50
55.69884700000001
 51
90.0
  0
ARC
  5
9AC8
330
9998
100
AcDbEntity
  8
1
  6
Continuous
100
AcDbCircle
 10
179.852946
 20
68.77971099999999
 30
0.0
 40
13.0
100
AcDbArc
 50
233.8710729999998
 51
126.128927
  0
ARC
  5
9AC9
330
9998
100
AcDbEntity
  8
1
  6
Continuous
100
AcDbCircle
 10
179.852946
 20
68.77971099999999
 30
0.0
 40
10.0
100
AcDbArc
 50
324.7425259999999
 51
35.257474
  0
ARC
  5
9ACA
330
9998
100
AcDbEntity
  8
1
  6
Continuous
100
AcDbCircle
 10
179.852946
 20
68.77971099999999
 30
0.0
 40
19.75
100
AcDbArc
 50
229.4270539999999
 51
130.572946
  0
LINE
  5
9ACB
330
9998
100
AcDbEntity
  8
4
  6
CENTER
 48
0.8
100
AcDbLine
 10
150.852946
 20
313.7797109999999
 30
0.0
 11
150.852946
 21
261.7797109999999
 31
0.0
  0
LINE
  5
9ACE
330
9998
100
AcDbEntity
  8
1
  6
Continuous
100
AcDbLine
 10
143.1529459999999
 20
272.7797109999999
 30
0.0
 11
143.1529459999999
 21
274.7797109999999
 31
0.0
  0
LINE
  5
9ACF
330
9998
100
AcDbEntity
  8
1
  6
Continuous
100
AcDbLine
 10
143.1529459999999
 20
300.7797109999998
 30
0.0
 11
143.1529459999999
 21
302.7797109999998
 31
0.0
  0
ARC
  5
9AD0
330
9998
100
AcDbEntity
  8
1
  6
Continuous
100
AcDbCircle
 10
178.885863
 20
287.7797109999999
 30
0.0
 40
35.53291699999999
100
AcDbArc
 50
161.003928
 51
198.9960849999999
  0
ARC
  5
9AD1
330
9998
100
AcDbEntity
  8
1
  6
Continuous
100
AcDbCircle
 10
178.885863
 20
68.77971099999999
 30
0.0
 40
35.53291699999999
100
AcDbArc
 50
158.539609
 51
160.262278
  0
ARC
  5
9AD2
330
9998
100
AcDbEntity
  8
1
  6
Continuous
100
AcDbCircle
 10
178.885863
 20
68.77971099999999
 30
0.0
 40
35.53291699999999
100
AcDbArc
 50
199.7377219999999
 51
201.4603909999999
  0
ARC
  5
9AD3
330
9998
100
AcDbEntity
  8
1
  6
Continuous
100
AcDbCircle
 10
151.8529499999999
 20
82.779711
 30
0.0
 40
7.0
100
AcDbArc
 50
188.213211
 51
196.60155
  0
LINE
  5
9AD4
330
9998
100
AcDbEntity
  8
4
  6
CENTER
 48
0.8
100
AcDbLine
 10
405.8529459999999
 20
207.831686
 30
0.0
 11
405.8529459999999
 21
127.279711
 31
0.0
  0
LINE
  5
9AD5
330
9998
100
AcDbEntity
  8
4
  6
CENTER
 48
0.8
100
AcDbLine
 10
448.3529459999998
 20
169.7797109999999
 30
0.0
 11
363.3529459999999
 21
169.7797109999999
 31
0.0
  0
LINE
  5
9AD6
330
9998
100
AcDbEntity
  8
1
  6
Continuous
100
AcDbLine
 10
400.116431
 20
163.796286
 30
0.0
 11
367.000339
 21
206.688705
 31
0.0
  0
LINE
  5
9AD7
330
9998
100
AcDbEntity
  8
1
  6
Continuous
100
AcDbLine
 10
392.852946
 20
218.17971
 30
0.0
 11
360.8529459999999
 21
218.17971
 31
0.0
  0
LINE
  5
9AD8
330
9998
100
AcDbEntity
  8
1
  6
Continuous
100
AcDbLine
 10
393.6529489999998
 20
218.9797079999999
 30
0.0
 11
360.052943
 21
218.9797079999999
 31
0.0
  0
LINE
  5
9AD9
330
9998
100
AcDbEntity
  8
1
  6
Continuous
100
AcDbLine
 10
411.8529459999998
 20
222.279711
 30
0.0
 11
341.8529459999998
 21
222.279711
 31
0.0
  0
LINE
  5
9ADA
330
9998
100
AcDbEntity
  8
1
  6
Continuous
100
AcDbLine
 10
411.8529459999998
 20
224.279711
 30
0.0
 11
341.8529459999998
 21
224.279711
 31
0.0
  0
LINE
  5
9ADB
330
9998
100
AcDbEntity
  8
1
  6
Continuous
100
AcDbLine
 10
409.684352
 20
210.839493
 30
0.0
 11
413.521506
 21
169.065737
 31
0.0
  0
LINE
  5
9ADC
330
9998
100
AcDbEntity
  8
1
  6
Continuous
100
AcDbLine
 10
389.8529459999999
 20
215.279736
 30
0.0
 11
389.8529459999999
 21
180.212679
 31
0.0
  0
LINE
  5
9ADD
330
9998
100
AcDbEntity
  8
4
  6
CENTER
 48
0.8
100
AcDbLine
 10
376.8529459999998
 20
229.2797109999999
 30
0.0
 11
376.8529459999998
 21
187.4330389999999
 31
0.0
  0
ARC
  5
9ADE
330
9998
100
AcDbEntity
  8
1
  6
Continuous
100
AcDbCircle
 10
406.052947
 20
168.3797089999998
 30
0.0
 40
7.5
100
AcDbArc
 50
217.6707799999999
 51
5.248219999999998
  0
LINE
  5
9ADF
330
9998
100
AcDbEntity
  8
1
  6
Continuous
100
AcDbLine
 10
413.352947
 20
212.22346
 30
0.0
 11
393.0400890000001
 21
215.8051649999999
 31
0.0
  0
LINE
  5
9AE0
330
9998
100
AcDbEntity
  8
1
  6
Continuous
100
AcDbLine
 10
410.031646
 20
212.809095
 30
0.0
 11
409.684349
 21
210.8394799999999
 31
0.0
  0
LINE
  5
9AE1
330
9998
100
AcDbEntity
  8
1
  6
Continuous
100
AcDbLine
 10
413.352946
 20
212.2234579999999
 30
0.0
 11
413.005649
 21
210.253841
 31
0.0
  0
LINE
  5
9AE2
330
9998
100
AcDbEntity
  8
1
  6
Continuous
100
AcDbLine
 10
413.0056549999998
 20
210.253844
 30
0.0
 11
409.684351
 21
210.8394799999999
 31
0.0
  0
LINE
  5
9AE3
330
9998
100
AcDbEntity
  8
4
  6
CENTER
 48
0.8
100
AcDbLine
 10
404.852946
 20
217.2797109999999
 30
0.0
 11
404.852946
 21
229.2797109999999
 31
0.0
  0
LINE
  5
9AE4
330
9998
100
AcDbEntity
  8
1
  6
Continuous
100
AcDbLine
 10
411.8529459999998
 20
222.279718
 30
0.0
 11
411.8529459999998
 21
224.279718
 31
0.0
  0
ARC
  5
9AE5
330
9998
100
AcDbEntity
  8
1
  6
Continuous
100
AcDbCircle
 10
392.852946
 20
215.17971
 30
0.0
 40
3.0
100
AcDbArc
 50
2.482993
 51
90.0
  0
ARC
  5
9AE6
330
9998
100
AcDbEntity
  8
1
  6
Continuous
100
AcDbCircle
 10
389.6029459999999
 20
219.3242129999999
 30
0.0
 40
1.984499999999996
100
AcDbArc
 50
324.77977
 51
350.0029399999998
  0
ARC
  5
9AE7
330
9998
100
AcDbEntity
  8
1
  6
Continuous
100
AcDbCircle
 10
388.953532
 20
219.3242129999999
 30
0.0
 40
1.984499999999996
100
AcDbArc
 50
324.77977
 51
350.00293
  0
ARC
  5
9AE8
330
9998
100
AcDbEntity
  8
1
  6
Continuous
100
AcDbCircle
 10
387.1319299999998
 20
219.3242129999999
 30
0.0
 40
1.984499999999996
100
AcDbArc
 50
324.77977
 51
350.0029399999998
  0
ARC
  5
9AE9
330
9998
100
AcDbEntity
  8
1
  6
Continuous
100
AcDbCircle
 10
393.6529489999998
 20
221.2797109999999
 30
0.0
 40
2.299999999999998
100
AcDbArc
 50
270.00001
 51
348.97852
  0
ARC
  5
9AEA
330
9998
100
AcDbEntity
  8
1
  6
Continuous
100
AcDbCircle
 10
393.667369
 20
221.7796729999998
 30
0.0
 40
2.799999999999998
100
AcDbArc
 50
268.3477899999999
 51
269.99998
  0
ARC
  5
9AEB
330
9998
100
AcDbEntity
  8
1
  6
Continuous
100
AcDbCircle
 10
396.6029459999999
 20
221.7797109999999
 30
0.0
 40
0.5
100
AcDbArc
 50
89.99999100000001
 51
168.9784929999999
  0
LINE
  5
9AEC
330
9998
100
AcDbEntity
  8
1
  6
Continuous
100
AcDbLine
 10
395.910522
 20
220.8400039999999
 30
0.0
 11
396.1121649999999
 21
221.875298
 31
0.0
  0
ARC
  5
9AED
330
9998
100
AcDbEntity
  8
1
  6
Continuous
100
AcDbCircle
 10
384.3142649999998
 20
219.3242129999999
 30
0.0
 40
1.984499999999996
100
AcDbArc
 50
324.77977
 51
350.0029399999998
  0
ARC
  5
9AEE
330
9998
100
AcDbEntity
  8
1
  6
Continuous
100
AcDbCircle
 10
376.8529459999998
 20
219.3242129999999
 30
0.0
 40
1.984499999999996
100
AcDbArc
 50
324.77977
 51
350.0029399999998
  0
ARC
  5
9AEF
330
9998
100
AcDbEntity
  8
1
  6
Continuous
100
AcDbCircle
 10
380.77357
 20
219.3242129999999
 30
0.0
 40
1.984499999999996
100
AcDbArc
 50
324.77977
 51
350.0029599999999
  0
ARC
  5
9AF0
330
9998
100
AcDbEntity
  8
1
  6
Continuous
100
AcDbCircle
 10
376.8529459999998
 20
219.3242129999999
 30
0.0
 40
1.984499999999996
100
AcDbArc
 50
189.99701
 51
215.22025
  0
ARC
  5
9AF1
330
9998
100
AcDbEntity
  8
1
  6
Continuous
100
AcDbCircle
 10
372.9323219999998
 20
219.3242129999999
 30
0.0
 40
1.984499999999996
100
AcDbArc
 50
324.77977
 51
350.00301
  0
ARC
  5
9AF2
330
9998
100
AcDbEntity
  8
1
  6
Continuous
100
AcDbCircle
 10
384.3142649999998
 20
219.3242129999999
 30
0.0
 40
1.984499999999996
100
AcDbArc
 50
206.8632199999999
 51
215.22025
  0
ARC
  5
9AF3
330
9998
100
AcDbEntity
  8
1
  6
Continuous
100
AcDbCircle
 10
380.77357
 20
219.3242129999999
 30
0.0
 40
1.984499999999996
100
AcDbArc
 50
189.99695
 51
215.22025
  0
LINE
  5
9AF4
330
9998
100
AcDbEntity
  8
1
  6
Continuous
100
AcDbLine
 10
361.529814
 20
209.7501199999999
 30
0.0
 11
357.8529459999999
 21
210.1473069999999
 31
0.0
  0
ARC
  5
9AF5
330
9998
100
AcDbEntity
  8
1
  6
Continuous
100
AcDbCircle
 10
360.6706259999999
 20
201.796391
 30
0.0
 40
8.0
100
AcDbArc
 50
37.67077
 51
83.83463799999999
  0
LINE
  5
9AF6
330
9998
100
AcDbEntity
  8
1
  6
Continuous
100
AcDbLine
 10
357.8529459999999
 20
215.17971
 30
0.0
 11
357.8529459999999
 21
210.1473069999999
 31
0.0
  0
ARC
  5
9AF7
330
9998
100
AcDbEntity
  8
1
  6
Continuous
100
AcDbCircle
 10
360.8529459999999
 20
215.17971
 30
0.0
 40
3.0
100
AcDbArc
 50
90.0
 51
180.0
  0
ARC
  5
9AF8
330
9998
100
AcDbEntity
  8
1
  6
Continuous
100
AcDbCircle
 10
369.391627
 20
219.3242129999999
 30
0.0
 40
1.984499999999996
100
AcDbArc
 50
189.99701
 51
215.22025
  0
ARC
  5
9AF9
330
9998
100
AcDbEntity
  8
1
  6
Continuous
100
AcDbCircle
 10
372.9323219999998
 20
219.3242129999999
 30
0.0
 40
1.984499999999996
100
AcDbArc
 50
189.99701
 51
215.22025
  0
ARC
  5
9AFA
330
9998
100
AcDbEntity
  8
1
  6
Continuous
100
AcDbCircle
 10
364.1029459999999
 20
219.3242129999999
 30
0.0
 40
1.984499999999996
100
AcDbArc
 50
189.99701
 51
215.2203199999999
  0
ARC
  5
9AFB
330
9998
100
AcDbEntity
  8
1
  6
Continuous
100
AcDbCircle
 10
364.7523599999999
 20
219.3242129999999
 30
0.0
 40
1.984499999999996
100
AcDbArc
 50
189.99701
 51
215.22025
  0
ARC
  5
9AFC
330
9998
100
AcDbEntity
  8
1
  6
Continuous
100
AcDbCircle
 10
366.573962
 20
219.3242129999999
 30
0.0
 40
1.984499999999996
100
AcDbArc
 50
189.99701
 51
215.22025
  0
ARC
  5
9AFD
330
9998
100
AcDbEntity
  8
1
  6
Continuous
100
AcDbCircle
 10
369.391627
 20
219.3242129999999
 30
0.0
 40
1.984499999999996
100
AcDbArc
 50
324.77977
 51
333.13675
  0
ARC
  5
9AFE
330
9998
100
AcDbEntity
  8
1
  6
Continuous
100
AcDbCircle
 10
360.052943
 20
221.2797109999999
 30
0.0
 40
2.299999999999998
100
AcDbArc
 50
191.02147
 51
269.99998
  0
ARC
  5
9AFF
330
9998
100
AcDbEntity
  8
1
  6
Continuous
100
AcDbCircle
 10
357.1029459999999
 20
221.7797109999999
 30
0.0
 40
0.5
100
AcDbArc
 50
11.02154
 51
90.00004500000001
  0
LINE
  5
9B00
330
9998
100
AcDbEntity
  8
1
  6
Continuous
100
AcDbLine
 10
357.7953939999999
 20
220.8399959999999
 30
0.0
 11
357.593749
 21
221.8752899999997
 31
0.0
  0
LINE
  5
9B01
330
9998
100
AcDbEntity
  8
4
  6
CENTER
 48
0.8
100
AcDbLine
 10
348.8529459999999
 20
217.2797109999999
 30
0.0
 11
348.8529459999999
 21
229.2797109999999
 31
0.0
  0
LINE
  5
9B02
330
9998
100
AcDbEntity
  8
1
  6
Continuous
100
AcDbLine
 10
341.8529459999998
 20
222.2797029999999
 30
0.0
 11
341.8529459999998
 21
224.279711
 31
0.0
  0
LINE
  5
9B03
330
9998
100
AcDbEntity
  8
1
  6
Continuous
100
AcDbLine
 10
298.9529459999999
 20
172.779711
 30
0.0
 11
297.952946
 21
172.779711
 31
0.0
  0
LINE
  5
9B04
330
9998
100
AcDbEntity
  8
1
  6
Continuous
100
AcDbLine
 10
298.9529459999999
 20
166.7797109999999
 30
0.0
 11
297.952946
 21
166.7797109999999
 31
0.0
  0
LINE
  5
9B05
330
9998
100
AcDbEntity
  8
1
  6
Continuous
100
AcDbLine
 10
299.952946
 20
171.779711
 30
0.0
 11
299.952946
 21
167.779711
 31
0.0
  0
LINE
  5
9B06
330
9998
100
AcDbEntity
  8
2
  6
Continuous
100
AcDbLine
 10
299.4944459999998
 20
172.238211
 30
0.0
 11
297.952946
 21
172.238211
 31
0.0
  0
LINE
  5
9B07
330
9998
100
AcDbEntity
  8
2
  6
Continuous
100
AcDbLine
 10
299.4944459999998
 20
167.321211
 30
0.0
 11
297.952946
 21
167.321211
 31
0.0
  0
LINE
  5
9B08
330
9998
100
AcDbEntity
  8
1
  6
Continuous
100
AcDbLine
 10
298.9529459999999
 20
172.779711
 30
0.0
 11
298.9529459999999
 21
166.7797109999999
 31
0.0
  0
LINE
  5
9B09
330
9998
100
AcDbEntity
  8
1
  6
Continuous
100
AcDbLine
 10
299.952946
 20
171.779711
 30
0.0
 11
298.9529459999999
 21
172.779711
 31
0.0
  0
LINE
  5
9B0A
330
9998
100
AcDbEntity
  8
1
  6
Continuous
100
AcDbLine
 10
299.952946
 20
167.779711
 30
0.0
 11
298.9529459999999
 21
166.7797109999999
 31
0.0
  0
LINE
  5
9B0B
330
9998
100
AcDbEntity
  8
1
  6
Continuous
100
AcDbLine
 10
400.852946
 20
172.492959
 30
0.0
 11
405.8529459999999
 21
175.3797109999999
 31
0.0
  0
LINE
  5
9B0C
330
9998
100
AcDbEntity
  8
1
  6
Continuous
100
AcDbLine
 10
410.8529459999998
 20
172.492959
 30
0.0
 11
405.8529459999999
 21
175.3797109999999
 31
0.0
  0
LINE
  5
9B0D
330
9998
100
AcDbEntity
  8
1
  6
Continuous
100
AcDbLine
 10
410.8529459999998
 20
167.066462
 30
0.0
 11
410.8529459999998
 21
172.492959
 31
0.0
  0
LINE
  5
9B0E
330
9998
100
AcDbEntity
  8
1
  6
Continuous
100
AcDbLine
 10
400.852946
 20
167.066462
 30
0.0
 11
405.8529459999999
 21
164.1797109999999
 31
0.0
  0
CIRCLE
  5
9B0F
330
9998
100
AcDbEntity
  8
1
  6
Continuous
100
AcDbCircle
 10
405.8529459999999
 20
169.7797109999999
 30
0.0
 40
2.0
  0
CIRCLE
  5
9B10
330
9998
100
AcDbEntity
  8
2
  6
Continuous
100
AcDbCircle
 10
405.8529459999999
 20
169.7797109999999
 30
0.0
 40
2.458499999999999
  0
LINE
  5
9B11
330
9998
100
AcDbEntity
  8
1
  6
Continuous
100
AcDbLine
 10
400.852946
 20
167.066462
 30
0.0
 11
400.852946
 21
172.492959
 31
0.0
  0
LINE
  5
9B12
330
9998
100
AcDbEntity
  8
1
  6
Continuous
100
AcDbLine
 10
410.8529459999998
 20
167.066462
 30
0.0
 11
405.8529459999999
 21
164.1797109999999
 31
0.0
  0
CIRCLE
  5
9B13
330
9998
100
AcDbEntity
  8
1
  6
Continuous
100
AcDbCircle
 10
405.8529459999999
 20
169.7797109999999
 30
0.0
 40
3.799999999999998
  0
CIRCLE
  5
9B14
330
9998
100
AcDbEntity
  8
1
  6
Continuous
100
AcDbCircle
 10
405.8529459999999
 20
169.7797109999999
 30
0.0
 40
3.0
  0
LINE
  5
9B15
330
9998
100
AcDbEntity
  8
1
  6
Continuous
100
AcDbLine
 10
28.252946
 20
167.779711
 30
0.0
 11
29.252946
 21
166.7797109999999
 31
0.0
  0
LINE
  5
9B16
330
9998
100
AcDbEntity
  8
1
  6
Continuous
100
AcDbLine
 10
28.252946
 20
171.779711
 30
0.0
 11
29.252946
 21
172.779711
 31
0.0
  0
LINE
  5
9B17
330
9998
100
AcDbEntity
  8
1
  6
Continuous
100
AcDbLine
 10
29.252946
 20
172.779711
 30
0.0
 11
29.252946
 21
166.7797109999999
 31
0.0
  0
LINE
  5
9B18
330
9998
100
AcDbEntity
  8
1
  6
Continuous
100
AcDbLine
 10
28.252946
 20
171.779711
 30
0.0
 11
28.252946
 21
167.779711
 31
0.0
  0
LINE
  5
9B19
330
9998
100
AcDbEntity
  8
2
  6
Continuous
100
AcDbLine
 10
28.711446
 20
167.321211
 30
0.0
 11
30.252946
 21
167.321211
 31
0.0
  0
LINE
  5
9B1A
330
9998
100
AcDbEntity
  8
1
  6
Continuous
100
AcDbLine
 10
29.252946
 20
166.7797109999999
 30
0.0
 11
30.252946
 21
166.7797109999999
 31
0.0
  0
LINE
  5
9B1B
330
9998
100
AcDbEntity
  8
2
  6
Continuous
100
AcDbLine
 10
28.711446
 20
172.238211
 30
0.0
 11
30.252946
 21
172.238211
 31
0.0
  0
LINE
  5
9B1C
330
9998
100
AcDbEntity
  8
1
  6
Continuous
100
AcDbLine
 10
29.252946
 20
172.779711
 30
0.0
 11
30.252946
 21
172.779711
 31
0.0
  0
LINE
  5
9B1D
330
9998
100
AcDbEntity
  8
1
  6
Continuous
100
AcDbLine
 10
148.3529459999997
 20
49.170711
 30
0.0
 11
153.352946
 21
49.170711
 31
0.0
  0
LINE
  5
9B1E
330
9998
100
AcDbEntity
  8
1
  6
Continuous
100
AcDbLine
 10
148.852946
 20
47.171129
 30
0.0
 11
152.852946
 21
47.171129
 31
0.0
  0
LINE
  5
9B1F
330
9998
100
AcDbEntity
  8
1
  6
Continuous
100
AcDbLine
 10
147.852946
 20
48.171129
 30
0.0
 11
153.852946
 21
48.171129
 31
0.0
  0
ARC
  5
9B20
330
9998
100
AcDbEntity
  8
1
  6
Continuous
100
AcDbCircle
 10
153.352946
 20
47.166503
 30
0.0
 40
6.613208
100
AcDbArc
 50
67.78820500000001
 51
112.211795
  0
ARC
  5
9B21
330
9998
100
AcDbEntity
  8
1
  6
Continuous
100
AcDbCircle
 10
153.352946
 20
55.78391899999999
 30
0.0
 40
6.613208
100
AcDbArc
 50
247.7882049999999
 51
292.211795
  0
ARC
  5
9B22
330
9998
100
AcDbEntity
  8
1
  6
Continuous
100
AcDbCircle
 10
148.3529459999997
 20
47.166503
 30
0.0
 40
6.613208
100
AcDbArc
 50
67.78820500000001
 51
112.211795
  0
ARC
  5
9B23
330
9998
100
AcDbEntity
  8
1
  6
Continuous
100
AcDbCircle
 10
148.3529459999997
 20
55.78391899999999
 30
0.0
 40
6.613208
100
AcDbArc
 50
247.7882049999999
 51
292.211795
  0
LINE
  5
9B24
330
9998
100
AcDbEntity
  8
1
  6
Continuous
100
AcDbLine
 10
148.852946
 20
47.171129
 30
0.0
 11
147.852946
 21
48.171129
 31
0.0
  0
LINE
  5
9B25
330
9998
100
AcDbEntity
  8
1
  6
Continuous
100
AcDbLine
 10
147.852946
 20
48.171129
 30
0.0
 11
147.852946
 21
49.171129
 31
0.0
  0
LINE
  5
9B26
330
9998
100
AcDbEntity
  8
2
  6
Continuous
100
AcDbLine
 10
148.3944459999999
 20
47.629629
 30
0.0
 11
148.3944459999999
 21
49.171129
 31
0.0
  0
LINE
  5
9B27
330
9998
100
AcDbEntity
  8
1
  6
Continuous
100
AcDbLine
 10
150.852946
 20
49.661459
 30
0.0
 11
150.852946
 21
53.77971099999999
 31
0.0
  0
LINE
  5
9B28
330
9998
100
AcDbEntity
  8
1
  6
Continuous
100
AcDbLine
 10
145.852946
 20
53.288963
 30
0.0
 11
145.852946
 21
49.661459
 31
0.0
  0
LINE
  5
9B29
330
9998
100
AcDbEntity
  8
1
  6
Continuous
100
AcDbLine
 10
155.852946
 20
53.288963
 30
0.0
 11
155.852946
 21
49.661459
 31
0.0
  0
LINE
  5
9B2A
330
9998
100
AcDbEntity
  8
1
  6
Continuous
100
AcDbLine
 10
152.852946
 20
47.171129
 30
0.0
 11
153.852946
 21
48.171129
 31
0.0
  0
LINE
  5
9B2B
330
9998
100
AcDbEntity
  8
1
  6
Continuous
100
AcDbLine
 10
153.852946
 20
48.171129
 30
0.0
 11
153.852946
 21
49.171129
 31
0.0
  0
LINE
  5
9B2C
330
9998
100
AcDbEntity
  8
2
  6
Continuous
100
AcDbLine
 10
153.311446
 20
47.629629
 30
0.0
 11
153.311446
 21
49.171129
 31
0.0
  0
LINE
  5
9B2E
330
9998
100
AcDbEntity
  8
2
  6
Continuous
100
AcDbLine
 10
153.311446
 20
308.929792
 30
0.0
 11
153.311446
 21
308.7797109999999
 31
0.0
  0
LINE
  5
9B2F
330
9998
100
AcDbEntity
  8
1
  6
Continuous
100
AcDbLine
 10
152.852946
 20
309.3882919999998
 30
0.0
 11
153.4615279999998
 21
308.7797109999999
 31
0.0
  0
LINE
  5
9B30
330
9998
100
AcDbEntity
  8
1
  6
Continuous
100
AcDbLine
 10
145.852946
 20
305.3852539999998
 30
0.0
 11
145.852946
 21
306.897963
 31
0.0
  0
LINE
  5
9B32
330
9998
100
AcDbEntity
  8
2
  6
Continuous
100
AcDbLine
 10
148.3944459999999
 20
308.929792
 30
0.0
 11
148.3944459999999
 21
307.865652
 31
0.0
  0
LINE
  5
9B33
330
9998
100
AcDbEntity
  8
1
  6
Continuous
100
AcDbLine
 10
147.852946
 20
308.3882919999998
 30
0.0
 11
147.852946
 21
307.524265
 31
0.0
  0
LINE
  5
9B34
330
9998
100
AcDbEntity
  8
1
  6
Continuous
100
AcDbLine
 10
148.852946
 20
309.3882919999998
 30
0.0
 11
147.852946
 21
308.3882919999998
 31
0.0
  0
ARC
  5
9B35
330
9998
100
AcDbEntity
  8
1
  6
Continuous
100
AcDbCircle
 10
148.3529459999997
 20
300.7755029999997
 30
0.0
 40
6.613208
100
AcDbArc
 50
96.45560200000002
 51
112.211795
  0
LINE
  5
9B37
330
9998
100
AcDbEntity
  8
1
  6
Continuous
100
AcDbLine
 10
147.852946
 20
308.3882919999998
 30
0.0
 11
149.545016
 21
308.3882919999998
 31
0.0
  0
LINE
  5
9B38
330
9998
100
AcDbEntity
  8
1
  6
Continuous
100
AcDbLine
 10
148.852946
 20
309.3882919999998
 30
0.0
 11
152.852946
 21
309.3882919999998
 31
0.0
  0
ARC
  5
9B39
330
9998
100
AcDbEntity
  8
1
  6
Continuous
100
AcDbCircle
 10
151.8529499999999
 20
54.779711
 30
0.0
 40
7.0
100
AcDbArc
 50
188.213211
 51
211.0026589999999
  0
LINE
  5
9B3A
330
9998
100
AcDbEntity
  8
1
  6
Continuous
100
AcDbLine
 10
143.8529459999998
 20
275.7797109999998
 30
0.0
 11
145.1447459999999
 21
275.7797109999998
 31
0.0
  0
LINE
  5
9B3B
330
9998
100
AcDbEntity
  8
1
  6
Continuous
100
AcDbLine
 10
143.8529459999998
 20
299.7797109999999
 30
0.0
 11
145.1447399999999
 21
299.7797109999999
 31
0.0
  0
LINE
  5
9B3C
330
9998
100
AcDbEntity
  8
1
  6
Continuous
100
AcDbLine
 10
115.4467569999999
 20
277.2797109999999
 30
0.0
 11
144.9397559999999
 21
277.2797109999999
 31
0.0
  0
LINE
  5
9B3D
330
9998
100
AcDbEntity
  8
1
  6
Continuous
100
AcDbLine
 10
115.4467569999999
 20
298.2797109999999
 30
0.0
 11
144.9397559999999
 21
298.2797109999999
 31
0.0
  0
ARC
  5
9B3E
330
9998
100
AcDbEntity
  8
1
  6
Continuous
100
AcDbCircle
 10
150.852946
 20
169.7797109999999
 30
0.0
 40
12.0
100
AcDbArc
 50
315.5225199999998
 51
344.4775499999999
  0
LINE
  5
9B3F
330
9998
100
AcDbEntity
  8
1
  6
Continuous
100
AcDbLine
 10
175.4584299999999
 20
157.594454
 30
0.0
 11
162.009158
 21
165.3594009999999
 31
0.0
  0
ARC
  5
9B40
330
9998
100
AcDbEntity
  8
1
  6
Continuous
100
AcDbCircle
 10
150.852946
 20
169.7797109999999
 30
0.0
 40
12.0
100
AcDbArc
 50
195.5225199999999
 51
224.4775399999999
  0
LINE
  5
9B41
330
9998
100
AcDbEntity
  8
1
  6
Continuous
100
AcDbLine
 10
126.2474659999997
 20
157.594462
 30
0.0
 11
139.6967459999999
 21
165.3594029999998
 31
0.0
  0
ARC
  5
9B42
330
9998
100
AcDbEntity
  8
1
  6
Continuous
100
AcDbCircle
 10
150.852946
 20
169.7797109999999
 30
0.0
 40
37.5
100
AcDbArc
 50
96.39964800000001
 51
39.702777
  0
ARC
  5
9B43
330
9998
100
AcDbEntity
  8
1
  6
Continuous
100
AcDbCircle
 10
150.852946
 20
169.7797109999999
 30
0.0
 40
31.4
100
AcDbArc
 50
98.70432
 51
37.19629499999999
  0
LINE
  5
9B44
330
9998
100
AcDbEntity
  8
1
  6
Continuous
100
AcDbLine
 10
127.9974659999999
 20
154.5633719999998
 30
0.0
 11
141.446742
 21
162.3283139999998
 31
0.0
  0
LINE
  5
9B45
330
9998
100
AcDbEntity
  8
1
  6
Continuous
100
AcDbLine
 10
142.2906409999999
 20
161.3721609999998
 30
0.0
 11
145.310605
 21
163.115737
 31
0.0
  0
LINE
  5
9B46
330
9998
100
AcDbEntity
  8
1
  6
Continuous
100
AcDbLine
 10
173.7084219999999
 20
154.5633639999998
 30
0.0
 11
160.25915
 21
162.328311
 31
0.0
  0
LINE
  5
9B47
330
9998
100
AcDbEntity
  8
1
  6
Continuous
100
AcDbLine
 10
159.4152629999999
 20
161.37216
 30
0.0
 11
156.137802
 21
163.264404
 31
0.0
  0
ARC
  5
9B48
330
9998
100
AcDbEntity
  8
1
  6
Continuous
100
AcDbCircle
 10
124.497466
 20
160.62555
 30
0.0
 40
3.5
100
AcDbArc
 50
199.1539399999999
 51
299.9999799999999
  0
ARC
  5
9B49
330
9998
100
AcDbEntity
  8
1
  6
Continuous
100
AcDbCircle
 10
129.747462
 20
151.532284
 30
0.0
 40
3.5
100
AcDbArc
 50
119.9999999999999
 51
220.8461799999998
  0
ARC
  5
9B4A
330
9998
100
AcDbEntity
  8
1
  6
Continuous
100
AcDbCircle
 10
177.2084219999999
 20
160.6255339999998
 30
0.0
 40
3.5
100
AcDbArc
 50
240.00002
 51
340.8461799999999
  0
ARC
  5
9B4B
330
9998
100
AcDbEntity
  8
1
  6
Continuous
100
AcDbCircle
 10
171.958415
 20
151.532273
 30
0.0
 40
3.5
100
AcDbArc
 50
319.1539399999998
 51
59.999988
  0
ARC
  5
9B4C
330
9998
100
AcDbEntity
  8
1
  6
Continuous
100
AcDbCircle
 10
183.352946
 20
287.7797109999999
 30
0.0
 40
70.0
100
AcDbArc
 50
172.4502599999999
 51
187.5497589999999
  0
ARC
  5
9B4D
330
9998
100
AcDbEntity
  8
1
  6
Continuous
100
AcDbCircle
 10
143.8529459999998
 20
276.2797109999999
 30
0.0
 40
0.5
100
AcDbArc
 50
186.1525
 51
270.00002
  0
LINE
  5
9B4E
330
9998
100
AcDbEntity
  8
1
  6
Continuous
100
AcDbLine
 10
143.242253
 20
277.2797029999999
 30
0.0
 11
143.3558229999998
 21
276.2261219999999
 31
0.0
  0
ARC
  5
9B4F
330
9998
100
AcDbEntity
  8
1
  6
Continuous
100
AcDbCircle
 10
115.4467569999999
 20
278.7797109999999
 30
0.0
 40
1.5
100
AcDbArc
 50
187.549779
 51
270.00002
  0
ARC
  5
9B50
330
9998
100
AcDbEntity
  8
1
  6
Continuous
100
AcDbCircle
 10
143.8529459999998
 20
299.2797109999999
 30
0.0
 40
0.5
100
AcDbArc
 50
90.00005499999994
 51
173.8476279999999
  0
LINE
  5
9B51
330
9998
100
AcDbEntity
  8
1
  6
Continuous
100
AcDbLine
 10
143.242253
 20
298.2797189999999
 30
0.0
 11
143.355825
 21
299.3333069999998
 31
0.0
  0
ARC
  5
9B52
330
9998
100
AcDbEntity
  8
1
  6
Continuous
100
AcDbCircle
 10
115.4467569999999
 20
296.7797109999997
 30
0.0
 40
1.5
100
AcDbArc
 50
90.0
 51
172.4502389999999
  0
LINE
  5
9B53
330
9998
100
AcDbEntity
  8
1
  6
Continuous
100
AcDbLine
 10
139.2906409999999
 20
166.5683139999998
 30
0.0
 11
143.1650239999999
 21
168.8051909999998
 31
0.0
  0
LINE
  5
9B54
330
9998
100
AcDbEntity
  8
1
  6
Continuous
100
AcDbLine
 10
162.4152549999998
 20
166.5683129999998
 30
0.0
 11
159.8660139999998
 21
168.040122
 31
0.0
  0
ARC
  5
9B55
330
9998
100
AcDbEntity
  8
1
  6
Continuous
100
AcDbCircle
 10
49.852946
 20
137.279711
 30
0.0
 40
70.0
100
AcDbArc
 50
82.45026000000001
 51
97.54975900000005
  0
ARC
  5
9B56
330
9998
100
AcDbEntity
  8
1
  6
Continuous
100
AcDbCircle
 10
49.852946
 20
202.2797109999999
 30
0.0
 40
70.0
100
AcDbArc
 50
262.45024
 51
277.5497399999998
  0
LINE
  5
9B57
330
9998
100
AcDbEntity
  8
1
  6
Continuous
100
AcDbLine
 10
39.352946
 20
205.1858999999998
 30
0.0
 11
39.352946
 21
134.373522
 31
0.0
  0
ARC
  5
9B58
330
9998
100
AcDbEntity
  8
1
  6
Continuous
100
AcDbCircle
 10
40.852946
 20
134.373522
 30
0.0
 40
1.5
100
AcDbArc
 50
179.9999799999999
 51
262.45021
  0
ARC
  5
9B59
330
9998
100
AcDbEntity
  8
1
  6
Continuous
100
AcDbCircle
 10
38.352946
 20
176.779711
 30
0.0
 40
0.5
100
AcDbArc
 50
96.15250000000003
 51
180.00002
  0
LINE
  5
9B5A
330
9998
100
AcDbEntity
  8
1
  6
Continuous
100
AcDbLine
 10
39.352938
 20
177.3904049999999
 30
0.0
 11
38.299357
 21
177.276834
 31
0.0
  0
ARC
  5
9B5B
330
9998
100
AcDbEntity
  8
1
  6
Continuous
100
AcDbCircle
 10
38.352946
 20
162.7797109999999
 30
0.0
 40
0.5
100
AcDbArc
 50
179.9999799999999
 51
263.8475
  0
LINE
  5
9B5C
330
9998
100
AcDbEntity
  8
1
  6
Continuous
100
AcDbLine
 10
39.352938
 20
162.1690169999999
 30
0.0
 11
38.299357
 21
162.2825879999998
 31
0.0
  0
LINE
  5
9B5D
330
9998
100
AcDbEntity
  8
1
  6
Continuous
100
AcDbLine
 10
37.852946
 20
176.779711
 30
0.0
 11
37.852946
 21
162.7797109999999
 31
0.0
  0
ARC
  5
9B5E
330
9998
100
AcDbEntity
  8
1
  6
Continuous
100
AcDbCircle
 10
40.852946
 20
205.1858999999998
 30
0.0
 40
1.5
100
AcDbArc
 50
97.549779
 51
180.00002
  0
LINE
  5
9B5F
330
9998
100
AcDbEntity
  8
1
  6
Continuous
100
AcDbLine
 10
60.352946
 20
205.1858999999998
 30
0.0
 11
60.352946
 21
134.373522
 31
0.0
  0
ARC
  5
9B60
330
9998
100
AcDbEntity
  8
1
  6
Continuous
100
AcDbCircle
 10
58.85294599999999
 20
134.373522
 30
0.0
 40
1.5
100
AcDbArc
 50
277.54976
 51
0.0
  0
ARC
  5
9B61
330
9998
100
AcDbEntity
  8
1
  6
Continuous
100
AcDbCircle
 10
61.35294599999999
 20
176.779711
 30
0.0
 40
0.5
100
AcDbArc
 50
0.000055
 51
83.847628
  0
LINE
  5
9B62
330
9998
100
AcDbEntity
  8
1
  6
Continuous
100
AcDbLine
 10
60.35295399999998
 20
177.3904039999999
 30
0.0
 11
61.406542
 21
177.276832
 31
0.0
  0
ARC
  5
9B63
330
9998
100
AcDbEntity
  8
1
  6
Continuous
100
AcDbCircle
 10
61.35294599999999
 20
162.7797109999999
 30
0.0
 40
0.5
100
AcDbArc
 50
276.15237
 51
359.99995
  0
LINE
  5
9B64
330
9998
100
AcDbEntity
  8
1
  6
Continuous
100
AcDbLine
 10
60.35295399999998
 20
162.1690179999999
 30
0.0
 11
61.406542
 21
162.28259
 31
0.0
  0
LINE
  5
9B65
330
9998
100
AcDbEntity
  8
1
  6
Continuous
100
AcDbLine
 10
61.85294599999998
 20
176.779711
 30
0.0
 11
61.85294599999998
 21
162.7797109999999
 31
0.0
  0
ARC
  5
9B66
330
9998
100
AcDbEntity
  8
1
  6
Continuous
100
AcDbCircle
 10
58.85294599999999
 20
205.1858999999998
 30
0.0
 40
1.5
100
AcDbArc
 50
0.0
 51
82.45023899999997
  0
LINE
  5
9B67
330
9998
100
AcDbEntity
  8
1
  6
Continuous
100
AcDbLine
 10
288.8529459999998
 20
205.1858999999998
 30
0.0
 11
288.8529459999998
 21
134.373522
 31
0.0
  0
LINE
  5
9B68
330
9998
100
AcDbEntity
  8
1
  6
Continuous
100
AcDbLine
 10
267.8529459999999
 20
205.1858999999998
 30
0.0
 11
267.8529459999999
 21
134.373522
 31
0.0
  0
ARC
  5
9B69
330
9998
100
AcDbEntity
  8
1
  6
Continuous
100
AcDbCircle
 10
278.352946
 20
202.2797109999999
 30
0.0
 40
70.0
100
AcDbArc
 50
262.45024
 51
277.5497399999998
  0
ARC
  5
9B6A
330
9998
100
AcDbEntity
  8
1
  6
Continuous
100
AcDbCircle
 10
269.3529459999999
 20
134.373522
 30
0.0
 40
1.5
100
AcDbArc
 50
179.9999799999999
 51
262.45021
  0
ARC
  5
9B6B
330
9998
100
AcDbEntity
  8
1
  6
Continuous
100
AcDbCircle
 10
287.3529459999998
 20
134.373522
 30
0.0
 40
1.5
100
AcDbArc
 50
277.54976
 51
0.0
  0
LINE
  5
9B6C
330
9998
100
AcDbEntity
  8
1
  6
Continuous
100
AcDbLine
 10
266.3529459999999
 20
176.779711
 30
0.0
 11
266.3529459999999
 21
162.7797109999999
 31
0.0
  0
LINE
  5
9B6D
330
9998
100
AcDbEntity
  8
1
  6
Continuous
100
AcDbLine
 10
267.852938
 20
162.1690169999999
 30
0.0
 11
266.7993569999998
 21
162.2825879999998
 31
0.0
  0
ARC
  5
9B6E
330
9998
100
AcDbEntity
  8
1
  6
Continuous
100
AcDbCircle
 10
266.8529459999999
 20
162.7797109999999
 30
0.0
 40
0.5
100
AcDbArc
 50
179.9999799999999
 51
263.8475
  0
LINE
  5
9B6F
330
9998
100
AcDbEntity
  8
1
  6
Continuous
100
AcDbLine
 10
267.852938
 20
177.3904049999999
 30
0.0
 11
266.7993569999998
 21
177.276834
 31
0.0
  0
ARC
  5
9B70
330
9998
100
AcDbEntity
  8
1
  6
Continuous
100
AcDbCircle
 10
266.8529459999999
 20
176.779711
 30
0.0
 40
0.5
100
AcDbArc
 50
96.15250000000003
 51
180.00002
  0
LINE
  5
9B71
330
9998
100
AcDbEntity
  8
1
  6
Continuous
100
AcDbLine
 10
290.3529459999998
 20
176.779711
 30
0.0
 11
290.3529459999998
 21
162.7797109999999
 31
0.0
  0
LINE
  5
9B72
330
9998
100
AcDbEntity
  8
1
  6
Continuous
100
AcDbLine
 10
288.852954
 20
162.1690179999999
 30
0.0
 11
289.9065419999999
 21
162.28259
 31
0.0
  0
ARC
  5
9B73
330
9998
100
AcDbEntity
  8
1
  6
Continuous
100
AcDbCircle
 10
289.8529459999998
 20
162.7797109999999
 30
0.0
 40
0.5
100
AcDbArc
 50
276.15237
 51
359.99995
  0
LINE
  5
9B74
330
9998
100
AcDbEntity
  8
1
  6
Continuous
100
AcDbLine
 10
288.852954
 20
177.3904039999999
 30
0.0
 11
289.9065419999999
 21
177.276832
 31
0.0
  0
ARC
  5
9B75
330
9998
100
AcDbEntity
  8
1
  6
Continuous
100
AcDbCircle
 10
289.8529459999998
 20
176.779711
 30
0.0
 40
0.5
100
AcDbArc
 50
0.000055
 51
83.847628
  0
ARC
  5
9B76
330
9998
100
AcDbEntity
  8
1
  6
Continuous
100
AcDbCircle
 10
278.352946
 20
137.279711
 30
0.0
 40
70.0
100
AcDbArc
 50
82.45026000000001
 51
97.54975900000005
  0
ARC
  5
9B77
330
9998
100
AcDbEntity
  8
1
  6
Continuous
100
AcDbCircle
 10
269.3529459999999
 20
205.1858999999998
 30
0.0
 40
1.5
100
AcDbArc
 50
97.549779
 51
180.00002
  0
ARC
  5
9B78
330
9998
100
AcDbEntity
  8
1
  6
Continuous
100
AcDbCircle
 10
287.3529459999998
 20
205.1858999999998
 30
0.0
 40
1.5
100
AcDbArc
 50
0.0
 51
82.45023899999997
  0
ARC
  5
9B79
330
9998
100
AcDbEntity
  8
1
  6
Continuous
100
AcDbCircle
 10
118.352946
 20
68.77971099999999
 30
0.0
 40
70.0
100
AcDbArc
 50
352.45024
 51
7.549739999999999
  0
ARC
  5
9B7A
330
9998
100
AcDbEntity
  8
1
  6
Continuous
100
AcDbCircle
 10
183.352946
 20
68.77971099999999
 30
0.0
 40
70.0
100
AcDbArc
 50
172.4502599999999
 51
187.5497589999999
  0
LINE
  5
9B7B
330
9998
100
AcDbEntity
  8
1
  6
Continuous
100
AcDbLine
 10
143.8529459999998
 20
56.779711
 30
0.0
 11
157.852946
 21
56.779711
 31
0.0
  0
LINE
  5
9B7C
330
9998
100
AcDbEntity
  8
1
  6
Continuous
100
AcDbLine
 10
115.4467569999999
 20
58.279711
 30
0.0
 11
186.2591349999999
 21
58.279711
 31
0.0
  0
ARC
  5
9B7D
330
9998
100
AcDbEntity
  8
1
  6
Continuous
100
AcDbCircle
 10
115.4467569999999
 20
59.779711
 30
0.0
 40
1.5
100
AcDbArc
 50
187.549779
 51
270.00002
  0
ARC
  5
9B7E
330
9998
100
AcDbEntity
  8
1
  6
Continuous
100
AcDbCircle
 10
143.8529459999998
 20
57.279711
 30
0.0
 40
0.5
100
AcDbArc
 50
186.1525
 51
270.00002
  0
LINE
  5
9B7F
330
9998
100
AcDbEntity
  8
1
  6
Continuous
100
AcDbLine
 10
143.242253
 20
58.279703
 30
0.0
 11
143.3558229999998
 21
57.226122
 31
0.0
  0
ARC
  5
9B80
330
9998
100
AcDbEntity
  8
1
  6
Continuous
100
AcDbCircle
 10
157.852946
 20
57.279711
 30
0.0
 40
0.5
100
AcDbArc
 50
269.99998
 51
353.8475
  0
LINE
  5
9B81
330
9998
100
AcDbEntity
  8
1
  6
Continuous
100
AcDbLine
 10
158.4636399999999
 20
58.279703
 30
0.0
 11
158.3500699999999
 21
57.226122
 31
0.0
  0
ARC
  5
9B82
330
9998
100
AcDbEntity
  8
1
  6
Continuous
100
AcDbCircle
 10
186.2591349999999
 20
59.779711
 30
0.0
 40
1.5
100
AcDbArc
 50
269.99998
 51
352.45021
  0
LINE
  5
9B83
330
9998
100
AcDbEntity
  8
1
  6
Continuous
100
AcDbLine
 10
143.8529459999998
 20
80.77971099999997
 30
0.0
 11
157.852946
 21
80.77971099999997
 31
0.0
  0
LINE
  5
9B84
330
9998
100
AcDbEntity
  8
1
  6
Continuous
100
AcDbLine
 10
115.4467569999999
 20
79.27971099999997
 30
0.0
 11
186.2591349999999
 21
79.27971099999997
 31
0.0
  0
ARC
  5
9B85
330
9998
100
AcDbEntity
  8
1
  6
Continuous
100
AcDbCircle
 10
115.4467569999999
 20
77.77971099999998
 30
0.0
 40
1.5
100
AcDbArc
 50
90.0
 51
172.4502389999999
  0
ARC
  5
9B86
330
9998
100
AcDbEntity
  8
1
  6
Continuous
100
AcDbCircle
 10
143.8529459999998
 20
80.279711
 30
0.0
 40
0.5
100
AcDbArc
 50
90.00005499999994
 51
173.8476279999999
  0
LINE
  5
9B87
330
9998
100
AcDbEntity
  8
1
  6
Continuous
100
AcDbLine
 10
143.242253
 20
79.279719
 30
0.0
 11
143.355825
 21
80.33330699999998
 31
0.0
  0
ARC
  5
9B88
330
9998
100
AcDbEntity
  8
1
  6
Continuous
100
AcDbCircle
 10
157.852946
 20
80.279711
 30
0.0
 40
0.5
100
AcDbArc
 50
6.152369999999998
 51
89.99995000000001
  0
LINE
  5
9B89
330
9998
100
AcDbEntity
  8
1
  6
Continuous
100
AcDbLine
 10
158.463639
 20
79.279719
 30
0.0
 11
158.350068
 21
80.33330699999998
 31
0.0
  0
ARC
  5
9B8A
330
9998
100
AcDbEntity
  8
1
  6
Continuous
100
AcDbCircle
 10
186.2591349999999
 20
77.77971099999998
 30
0.0
 40
1.5
100
AcDbArc
 50
7.549760000000001
 51
90.0
  0
ARC
  5
9B8B
330
9998
100
AcDbEntity
  8
1
  6
Continuous
100
AcDbCircle
 10
405.8529459999999
 20
169.7797109999999
 30
0.0
 40
37.5
100
AcDbArc
 50
140.297223
 51
83.60035200000002
  0
ARC
  5
9B8C
330
9998
100
AcDbEntity
  8
1
  6
Continuous
100
AcDbCircle
 10
405.8529459999999
 20
169.7797109999999
 30
0.0
 40
31.4
100
AcDbArc
 50
142.803705
 51
81.29568
  0
ARC
  5
9B8D
330
9998
100
AcDbEntity
  8
1
  6
Continuous
100
AcDbCircle
 10
426.958415
 20
151.532273
 30
0.0
 40
3.5
100
AcDbArc
 50
319.1539399999998
 51
59.999988
  0
ARC
  5
9B8E
330
9998
100
AcDbEntity
  8
1
  6
Continuous
100
AcDbCircle
 10
432.2084219999998
 20
160.6255339999998
 30
0.0
 40
3.5
100
AcDbArc
 50
240.00002
 51
340.8461799999999
  0
LINE
  5
9B8F
330
9998
100
AcDbEntity
  8
1
  6
Continuous
100
AcDbLine
 10
430.45843
 20
157.594454
 30
0.0
 11
417.009158
 21
165.3594009999999
 31
0.0
  0
LINE
  5
9B90
330
9998
100
AcDbEntity
  8
1
  6
Continuous
100
AcDbLine
 10
428.7084219999998
 20
154.5633639999998
 30
0.0
 11
415.2591499999998
 21
162.328311
 31
0.0
  0
ARC
  5
9B91
330
9998
100
AcDbEntity
  8
1
  6
Continuous
100
AcDbCircle
 10
405.8529459999999
 20
169.7797109999999
 30
0.0
 40
12.0
100
AcDbArc
 50
315.5225199999998
 51
344.4775499999999
  0
LINE
  5
9B92
330
9998
100
AcDbEntity
  8
1
  6
Continuous
100
AcDbLine
 10
417.415255
 20
166.5683129999998
 30
0.0
 11
413.540868
 21
168.805197
 31
0.0
  0
LINE
  5
9B93
330
9998
100
AcDbEntity
  8
1
  6
Continuous
100
AcDbLine
 10
414.4152629999998
 20
161.37216
 30
0.0
 11
411.395292
 21
163.1157419999999
 31
0.0
  0
ARC
  5
9B94
330
9998
100
AcDbEntity
  8
1
  6
Continuous
100
AcDbCircle
 10
384.7474619999999
 20
151.532284
 30
0.0
 40
3.5
100
AcDbArc
 50
119.9999999999999
 51
220.8461799999998
  0
LINE
  5
9B95
330
9998
100
AcDbEntity
  8
1
  6
Continuous
100
AcDbLine
 10
381.2474659999999
 20
157.594462
 30
0.0
 11
394.696746
 21
165.3594029999998
 31
0.0
  0
ARC
  5
9B96
330
9998
100
AcDbEntity
  8
1
  6
Continuous
100
AcDbCircle
 10
379.4974659999998
 20
160.62555
 30
0.0
 40
3.5
100
AcDbArc
 50
199.1539399999999
 51
299.9999799999999
  0
LINE
  5
9B97
330
9998
100
AcDbEntity
  8
1
  6
Continuous
100
AcDbLine
 10
382.9974659999999
 20
154.5633719999998
 30
0.0
 11
396.4467419999999
 21
162.3283139999998
 31
0.0
  0
LINE
  5
9B98
330
9998
100
AcDbEntity
  8
1
  6
Continuous
100
AcDbLine
 10
394.2906409999998
 20
166.5683139999998
 30
0.0
 11
396.839881
 21
168.0401189999997
 31
0.0
  0
ARC
  5
9B99
330
9998
100
AcDbEntity
  8
1
  6
Continuous
100
AcDbCircle
 10
405.8529459999999
 20
169.7797109999999
 30
0.0
 40
12.0
100
AcDbArc
 50
195.5225199999999
 51
224.4775399999999
  0
LINE
  5
9B9A
330
9998
100
AcDbEntity
  8
1
  6
Continuous
100
AcDbLine
 10
397.290641
 20
161.3721609999998
 30
0.0
 11
400.568095
 21
163.264399
 31
0.0
  0
ENDSEC
  0
SECTION
  2
OBJECTS
  0
DICTIONARY
  5
9986
330
0
100
AcDbDictionary
281
     1
  3
ACAD_CIP_PREVIOUS_PRODUCT_INFO
350
9C17
  3
ACAD_COLOR
350
9BF9
  3
ACAD_DETAILVIEWSTYLE
350
9C12
  3
ACAD_GROUP
350
9987
  3
ACAD_LAYOUT
350
9993
  3
ACAD_MATERIAL
350
9BC7
  3
ACAD_MLEADERSTYLE
350
9C0E
  3
ACAD_MLINESTYLE
350
9990
  3
ACAD_PLOTSETTINGS
350
9992
  3
ACAD_PLOTSTYLENAME
350
9BC5
  3
ACAD_SCALELIST
350
9BFC
  3
ACAD_SECTIONVIEWSTYLE
350
9C10
  3
ACAD_TABLESTYLE
350
9BFA
  3
ACAD_VISUALSTYLE
350
9BE0
  3
ACDB_RECOMPOSE_DATA
350
9C35
  3
AcDbVariableDictionary
350
9C28
  3
DWGPROPS
350
9C36
  0
DICTIONARY
  5
9C18
330
998A
100
AcDbDictionary
280
     1
281
     1
  3
ADSK_XREC_LAYER_RECONCILED
360
9C19
  0
DICTIONARY
  5
9C1A
330
99A0
100
AcDbDictionary
280
     1
281
     1
  3
ADSK_XREC_LAYER_RECONCILED
360
9C1B
  0
DICTIONARY
  5
9C1C
330
99A1
100
AcDbDictionary
280
     1
281
     1
  3
ADSK_XREC_LAYER_RECONCILED
360
9C1D
  0
DICTIONARY
  5
9C1E
330
99A2
100
AcDbDictionary
280
     1
281
     1
  3
ADSK_XREC_LAYER_RECONCILED
360
9C1F
  0
DICTIONARY
  5
9C20
330
99A3
100
AcDbDictionary
280
     1
281
     1
  3
ADSK_XREC_LAYER_RECONCILED
360
9C21
  0
DICTIONARY
  5
9C22
330
99A4
100
AcDbDictionary
280
     1
281
     1
  3
ADSK_XREC_LAYER_RECONCILED
360
9C23
  0
DICTIONARY
  5
9C24
330
99A5
100
AcDbDictionary
280
     1
281
     1
  3
ADSK_XREC_LAYER_RECONCILED
360
9C25
  0
DICTIONARY
  5
9C26
330
99A6
100
AcDbDictionary
280
     1
281
     1
  3
ADSK_XREC_LAYER_RECONCILED
360
9C27
  0
DICTIONARY
  5
9BA5
330
9998
100
AcDbDictionary
281
     1
  3
ACAD_LAYOUTSELFREF
350
9BC1
  0
DICTIONARY
  5
9BA3
330
9994
100
AcDbDictionary
281
     1
  3
ACAD_LAYOUTSELFREF
350
9BC0
  0
XRECORD
  5
9C17
102
{ACAD_REACTORS
330
9986
102
}
330
9986
100
AcDbXrecord
280
     1
300
ACDLT
300
2014
300
ACDLT_F_S
  0
DICTIONARY
  5
9BF9
102
{ACAD_REACTORS
330
9986
102
}
330
9986
100
AcDbDictionary
281
     1
  0
DICTIONARY
  5
9C12
102
{ACAD_REACTORS
330
9986
102
}
330
9986
100
AcDbDictionary
281
     1
  3
Imperial24
350
9C13
  0
DICTIONARY
  5
9987
102
{ACAD_REACTORS
330
9986
102
}
330
9986
100
AcDbDictionary
281
     1
  0
DICTIONARY
  5
9993
102
{ACAD_REACTORS
330
9986
102
}
330
9986
100
AcDbDictionary
281
     1
  3
Model
350
9C14
  3
レイアウト1
350
9C15
  0
DICTIONARY
  5
9BC7
102
{ACAD_REACTORS
330
9986
102
}
330
9986
100
AcDbDictionary
281
     1
  3
ByBlock
350
9BD0
  3
ByLayer
350
9BC8
  3
Global
350
9BD8
  0
DICTIONARY
  5
9C0E
102
{ACAD_REACTORS
330
9986
102
}
330
9986
100
AcDbDictionary
281
     1
  3
Standard
350
9C0F
  0
DICTIONARY
  5
9990
102
{ACAD_REACTORS
330
9986
102
}
330
9986
100
AcDbDictionary
281
     1
  3
STANDARD
350
9991
  0
DICTIONARY
  5
9992
102
{ACAD_REACTORS
330
9986
102
}
330
9986
100
AcDbDictionary
281
     1
  0
ACDBDICTIONARYWDFLT
  5
9BC5
102
{ACAD_REACTORS
330
9986
102
}
330
9986
100
AcDbDictionary
281
     1
  3
Normal
350
9BC6
100
AcDbDictionaryWithDefault
340
9BC6
  0
DICTIONARY
  5
9BFC
102
{ACAD_REACTORS
330
9986
102
}
330
9986
100
AcDbDictionary
281
     1
  3
A0
350
9BFD
  3
A1
350
9BFE
  3
A2
350
9BFF
  3
A3
350
9C00
  3
A4
350
9C01
  3
A5
350
9C02
  3
A6
350
9C03
  3
A7
350
9C04
  3
A8
350
9C05
  3
A9
350
9C06
  3
B0
350
9C07
  3
B1
350
9C08
  3
B2
350
9C09
  3
B3
350
9C0A
  3
B4
350
9C0B
  3
B5
350
9C0C
  3
B6
350
9C0D
  0
DICTIONARY
  5
9C10
102
{ACAD_REACTORS
330
9986
102
}
330
9986
100
AcDbDictionary
281
     1
  3
Imperial24
350
9C11
  0
DICTIONARY
  5
9BFA
102
{ACAD_REACTORS
330
9986
102
}
330
9986
100
AcDbDictionary
281
     1
  3
Standard
350
9BFB
  0
DICTIONARY
  5
9BE0
102
{ACAD_REACTORS
330
9986
102
}
330
9986
100
AcDbDictionary
281
     1
  3
2dWireframe
350
9BE6
  3
Basic
350
9BE5
  3
Brighten
350
9BEC
  3
ColorChange
350
9BF0
  3
Conceptual
350
9BE9
  3
Dim
350
9BEB
  3
EdgeColorOff
350
9BF8
  3
Facepattern
350
9BEF
  3
Flat
350
9BE1
  3
FlatWithEdges
350
9BE2
  3
Gouraud
350
9BE3
  3
GouraudWithEdges
350
9BE4
  3
Hidden
350
9BE8
  3
JitterOff
350
9BF6
  3
Linepattern
350
9BEE
  3
OverhangOff
350
9BF7
  3
Realistic
350
9BEA
  3
Shaded
350
9BF5
  3
Shaded with edges
350
9BF4
  3
Shades of Gray
350
9BF1
  3
Sketchy
350
9BF2
  3
Thicken
350
9BED
  3
Wireframe
350
9BE7
  3
X-Ray
350
9BF3
  0
XRECORD
  5
9C35
102
{ACAD_REACTORS
330
9986
102
}
330
9986
100
AcDbXrecord
280
     1
 90
        1
330
9BFB
  0
DICTIONARY
  5
9C28
102
{ACAD_REACTORS
330
9986
102
}
330
9986
100
AcDbDictionary
281
     1
  3
CANNOSCALE
350
9C2D
  3
CMLEADERSTYLE
350
9C2A
  3
CTABLESTYLE
350
9C29
  3
CVIEWDETAILSTYLE
350
9C2B
  3
CVIEWSECTIONSTYLE
350
9C2C
  3
DIMASSOC
350
9C30
  3
INDEXCTL
350
9C2F
  3
SORTENTS
350
9C2E
  3
XCLIPFRAME
350
9C31
  0
XRECORD
  5
9C36
102
{ACAD_REACTORS
330
9986
102
}
330
9986
100
AcDbXrecord
280
     1
  1
DWGPROPS COOKIE
  2

  3

  4

  6

  7

  8
Yoshitsune
  9

300
=
301
=
302
=
303
=
304
=
305
=
306
=
307
=
308
=
309
=
 40
0.1540290393518518
 41
2451301.447514468
 42
2457192.69029809
  1

 90
        0
  0
XRECORD
  5
9C19
102
{ACAD_REACTORS
330
9C18
102
}
330
9C18
100
AcDbXrecord
280
     1
290
     1
  0
XRECORD
  5
9C1B
102
{ACAD_REACTORS
330
9C1A
102
}
330
9C1A
100
AcDbXrecord
280
     1
290
     1
  0
XRECORD
  5
9C1D
102
{ACAD_REACTORS
330
9C1C
102
}
330
9C1C
100
AcDbXrecord
280
     1
290
     1
  0
XRECORD
  5
9C1F
102
{ACAD_REACTORS
330
9C1E
102
}
330
9C1E
100
AcDbXrecord
280
     1
290
     1
  0
XRECORD
  5
9C21
102
{ACAD_REACTORS
330
9C20
102
}
330
9C20
100
AcDbXrecord
280
     1
290
     1
  0
XRECORD
  5
9C23
102
{ACAD_REACTORS
330
9C22
102
}
330
9C22
100
AcDbXrecord
280
     1
290
     1
  0
XRECORD
  5
9C25
102
{ACAD_REACTORS
330
9C24
102
}
330
9C24
100
AcDbXrecord
280
     1
290
     1
  0
XRECORD
  5
9C27
102
{ACAD_REACTORS
330
9C26
102
}
330
9C26
100
AcDbXrecord
280
     1
290
     1
  0
XRECORD
  5
9BC1
102
{ACAD_REACTORS
330
9BA5
102
}
330
9BA5
100
AcDbXrecord
280
     1
340
9998
  0
XRECORD
  5
9BC0
102
{ACAD_REACTORS
330
9BA3
102
}
330
9BA3
100
AcDbXrecord
280
     1
340
9994
  0
ACDBDETAILVIEWSTYLE
  5
9C13
102
{ACAD_XDICTIONARY
360
9C6E
102
}
102
{ACAD_REACTORS
330
9C12
102
}
330
9C12
100
AcDbModelDocViewStyle
 70
     0
  3
Imperial24
290
     0
100
AcDbDetailViewStyle
 70
     0
 71
     0
 90
        3
 71
     1
340
998B
 40
0.24
340
0
 40
0.24
300

 40
0.36
280
     3
 71
     2
340
998F
 90
       25
 71
     3
340
998B
 40
0.24
 90
        1
 40
0.75
 90
        1
300
%<\AcVar ViewType \f "%tc1">% %<\AcVar ViewDetailId>%\PSCALE %<\AcVar ViewScale \f "%sn">%
 71
     4
340
998F
 90
       25
340
998F
 90
       25
280
     0
  0
LAYOUT
  5
9C14
102
{ACAD_XDICTIONARY
360
9C70
102
}
102
{ACAD_REACTORS
330
9993
102
}
330
9993
100
AcDbPlotSettings
  1

  2
Canon LBP9100C
  4

  6

 40
0.0
 41
0.0
 42
0.0
 43
0.0
 44
0.0
 45
0.0
 46
0.0
 47
0.0
 48
0.0
 49
0.0
140
0.0
141
0.0
142
1.0
143
1.0
 70
  1712
 72
     0
 73
     0
 74
     0
  7

 75
     0
147
1.0
148
0.0
149
0.0
100
AcDbLayout
  1
Model
 70
     1
 71
     0
 10
0.0
 20
0.0
 11
12.0
 21
9.0
 12
0.0
 22
0.0
 32
0.0
 14
0.0
 24
0.0
 34
0.0
 15
0.0
 25
0.0
 35
0.0
146
0.0
 13
0.0
 23
0.0
 33
0.0
 16
1.0
 26
0.0
 36
0.0
 17
0.0
 27
1.0
 37
0.0
 76
     0
330
9998
331
9BBF
  0
LAYOUT
  5
9C15
102
{ACAD_XDICTIONARY
360
9C72
102
}
102
{ACAD_REACTORS
330
9993
102
}
330
9993
100
AcDbPlotSettings
  1

  2
Canon LBP9100C
  4

  6

 40
0.0
 41
0.0
 42
0.0
 43
0.0
 44
0.0
 45
0.0
 46
0.0
 47
0.0
 48
0.0
 49
0.0
140
0.0
141
0.0
142
1.0
143
1.0
 70
   688
 72
     0
 73
     0
 74
     5
  7

 75
    16
147
1.0
148
0.0
149
0.0
100
AcDbLayout
  1
レイアウト1
 70
     0
 71
     1
 10
0.0
 20
0.0
 11
420.0
 21
297.0
 12
0.0
 22
0.0
 32
0.0
 14
1.000000000000000E+20
 24
1.000000000000000E+20
 34
1.000000000000000E+20
 15
-1.000000000000000E+20
 25
-1.000000000000000E+20
 35
-1.000000000000000E+20
146
0.0
 13
0.0
 23
0.0
 33
0.0
 16
1.0
 26
0.0
 36
0.0
 17
0.0
 27
1.0
 37
0.0
 76
     0
330
9994
  0
MATERIAL
  5
9BD0
102
{ACAD_XDICTIONARY
360
9BD1
102
}
102
{ACAD_REACTORS
330
9BC7
102
}
330
9BC7
100
AcDbMaterial
  1
ByBlock
 72
     0
 43
0.0208333333333333
 43
0.0
 43
0.0
 43
0.0
 43
0.0
 43
0.0208333333333333
 43
0.0
 43
0.0
 43
0.0
 43
0.0
 43
1.0
 43
0.0
 43
0.0
 43
0.0
 43
0.0
 43
1.0
 77
     0
 47
0.0208333333333333
 47
0.0
 47
0.0
 47
0.0
 47
0.0
 47
0.0208333333333333
 47
0.0
 47
0.0
 47
0.0
 47
0.0
 47
1.0
 47
0.0
 47
0.0
 47
0.0
 47
0.0
 47
1.0
171
     0
 49
0.0208333333333333
 49
0.0
 49
0.0
 49
0.0
 49
0.0
 49
0.0208333333333333
 49
0.0
 49
0.0
 49
0.0
 49
0.0
 49
1.0
 49
0.0
 49
0.0
 49
0.0
 49
0.0
 49
1.0
175
     0
142
0.0208333333333333
142
0.0
142
0.0
142
0.0
142
0.0
142
0.0208333333333333
142
0.0
142
0.0
142
0.0
142
0.0
142
1.0
142
0.0
142
0.0
142
0.0
142
0.0
142
1.0
179
     0
144
0.0208333333333333
144
0.0
144
0.0
144
0.0
144
0.0
144
0.0208333333333333
144
0.0
144
0.0
144
0.0
144
0.0
144
1.0
144
0.0
144
0.0
144
0.0
144
0.0
144
1.0
147
0.0208333333333333
147
0.0
147
0.0
147
0.0
147
0.0
147
0.0208333333333333
147
0.0
147
0.0
147
0.0
147
0.0
147
1.0
147
0.0
147
0.0
147
0.0
147
0.0
147
1.0
  0
MATERIAL
  5
9BC8
102
{ACAD_XDICTIONARY
360
9BC9
102
}
102
{ACAD_REACTORS
330
9BC7
102
}
330
9BC7
100
AcDbMaterial
  1
ByLayer
 72
     0
 43
0.0208333333333333
 43
0.0
 43
0.0
 43
0.0
 43
0.0
 43
0.0208333333333333
 43
0.0
 43
0.0
 43
0.0
 43
0.0
 43
1.0
 43
0.0
 43
0.0
 43
0.0
 43
0.0
 43
1.0
 77
     0
 47
0.0208333333333333
 47
0.0
 47
0.0
 47
0.0
 47
0.0
 47
0.0208333333333333
 47
0.0
 47
0.0
 47
0.0
 47
0.0
 47
1.0
 47
0.0
 47
0.0
 47
0.0
 47
0.0
 47
1.0
171
     0
 49
0.0208333333333333
 49
0.0
 49
0.0
 49
0.0
 49
0.0
 49
0.0208333333333333
 49
0.0
 49
0.0
 49
0.0
 49
0.0
 49
1.0
 49
0.0
 49
0.0
 49
0.0
 49
0.0
 49
1.0
175
     0
142
0.0208333333333333
142
0.0
142
0.0
142
0.0
142
0.0
142
0.0208333333333333
142
0.0
142
0.0
142
0.0
142
0.0
142
1.0
142
0.0
142
0.0
142
0.0
142
0.0
142
1.0
179
     0
144
0.0208333333333333
144
0.0
144
0.0
144
0.0
144
0.0
144
0.0208333333333333
144
0.0
144
0.0
144
0.0
144
0.0
144
1.0
144
0.0
144
0.0
144
0.0
144
0.0
144
1.0
147
0.0208333333333333
147
0.0
147
0.0
147
0.0
147
0.0
147
0.0208333333333333
147
0.0
147
0.0
147
0.0
147
0.0
147
1.0
147
0.0
147
0.0
147
0.0
147
0.0
147
1.0
  0
MATERIAL
  5
9BD8
102
{ACAD_XDICTIONARY
360
9BD9
102
}
102
{ACAD_REACTORS
330
9BC7
102
}
330
9BC7
100
AcDbMaterial
  1
Global
 72
     0
 43
0.0208333333333333
 43
0.0
 43
0.0
 43
0.0
 43
0.0
 43
0.0208333333333333
 43
0.0
 43
0.0
 43
0.0
 43
0.0
 43
1.0
 43
0.0
 43
0.0
 43
0.0
 43
0.0
 43
1.0
 77
     0
 47
0.0208333333333333
 47
0.0
 47
0.0
 47
0.0
 47
0.0
 47
0.0208333333333333
 47
0.0
 47
0.0
 47
0.0
 47
0.0
 47
1.0
 47
0.0
 47
0.0
 47
0.0
 47
0.0
 47
1.0
171
     0
 49
0.0208333333333333
 49
0.0
 49
0.0
 49
0.0
 49
0.0
 49
0.0208333333333333
 49
0.0
 49
0.0
 49
0.0
 49
0.0
 49
1.0
 49
0.0
 49
0.0
 49
0.0
 49
0.0
 49
1.0
175
     0
142
0.0208333333333333
142
0.0
142
0.0
142
0.0
142
0.0
142
0.0208333333333333
142
0.0
142
0.0
142
0.0
142
0.0
142
1.0
142
0.0
142
0.0
142
0.0
142
0.0
142
1.0
179
     0
144
0.0208333333333333
144
0.0
144
0.0
144
0.0
144
0.0
144
0.0208333333333333
144
0.0
144
0.0
144
0.0
144
0.0
144
1.0
144
0.0
144
0.0
144
0.0
144
0.0
144
1.0
147
0.0208333333333333
147
0.0
147
0.0
147
0.0
147
0.0
147
0.0208333333333333
147
0.0
147
0.0
147
0.0
147
0.0
147
1.0
147
0.0
147
0.0
147
0.0
147
0.0
147
1.0
  0
MLEADERSTYLE
  5
9C0F
102
{ACAD_REACTORS
330
9C0E
102
}
330
9C0E
100
AcDbMLeaderStyle
170
     2
171
     1
172
     0
 90
        2
 40
0.0
 41
0.0
173
     1
 91
-1056964608
340
998D
 92
       -2
290
     1
 42
0.09
291
     1
 43
0.36
  3
Standard
 44
0.18
300

342
998B
174
     1
178
     6
175
     1
176
     0
 93
-1056964608
 45
0.18
292
     0
297
     0
 46
0.18
 94
-1056964608
 47
1.0
 49
1.0
140
1.0
293
     1
141
0.0
294
     1
177
     0
142
1.0
295
     0
296
     0
143
0.125
1001
ACAD_MLEADERVER
1070
     2
  0
MLINESTYLE
  5
9991
102
{ACAD_REACTORS
330
9990
102
}
330
9990
100
AcDbMlineStyle
  2
STANDARD
 70
     0
  3

 62
   256
 51
90.0
 52
90.0
 71
     2
 49
0.5
 62
   256
  6
BYLAYER
 49
-0.5
 62
   256
  6
BYLAYER
  0
ACDBPLACEHOLDER
  5
9BC6
102
{ACAD_REACTORS
330
9BC5
102
}
330
9BC5
  0
SCALE
  5
9BFD
102
{ACAD_REACTORS
330
9BFC
102
}
330
9BFC
100
AcDbScale
 70
     0
300
1:1
140
1.0
141
1.0
290
     1
  0
SCALE
  5
9BFE
102
{ACAD_REACTORS
330
9BFC
102
}
330
9BFC
100
AcDbScale
 70
     0
300
1/128" = 1'-0"
140
0.0078125
141
12.0
290
     0
  0
SCALE
  5
9BFF
102
{ACAD_REACTORS
330
9BFC
102
}
330
9BFC
100
AcDbScale
 70
     0
300
1/64" = 1'-0"
140
0.015625
141
12.0
290
     0
  0
SCALE
  5
9C00
102
{ACAD_REACTORS
330
9BFC
102
}
330
9BFC
100
AcDbScale
 70
     0
300
1/32" = 1'-0"
140
0.03125
141
12.0
290
     0
  0
SCALE
  5
9C01
102
{ACAD_REACTORS
330
9BFC
102
}
330
9BFC
100
AcDbScale
 70
     0
300
1/16" = 1'-0"
140
0.0625
141
12.0
290
     0
  0
SCALE
  5
9C02
102
{ACAD_REACTORS
330
9BFC
102
}
330
9BFC
100
AcDbScale
 70
     0
300
3/32" = 1'-0"
140
0.09375
141
12.0
290
     0
  0
SCALE
  5
9C03
102
{ACAD_REACTORS
330
9BFC
102
}
330
9BFC
100
AcDbScale
 70
     0
300
1/8" = 1'-0"
140
0.125
141
12.0
290
     0
  0
SCALE
  5
9C04
102
{ACAD_REACTORS
330
9BFC
102
}
330
9BFC
100
AcDbScale
 70
     0
300
3/16" = 1'-0"
140
0.1875
141
12.0
290
     0
  0
SCALE
  5
9C05
102
{ACAD_REACTORS
330
9BFC
102
}
330
9BFC
100
AcDbScale
 70
     0
300
1/4" = 1'-0"
140
0.25
141
12.0
290
     0
  0
SCALE
  5
9C06
102
{ACAD_REACTORS
330
9BFC
102
}
330
9BFC
100
AcDbScale
 70
     0
300
3/8" = 1'-0"
140
0.375
141
12.0
290
     0
  0
SCALE
  5
9C07
102
{ACAD_REACTORS
330
9BFC
102
}
330
9BFC
100
AcDbScale
 70
     0
300
1/2" = 1'-0"
140
0.5
141
12.0
290
     0
  0
SCALE
  5
9C08
102
{ACAD_REACTORS
330
9BFC
102
}
330
9BFC
100
AcDbScale
 70
     0
300
3/4" = 1'-0"
140
0.75
141
12.0
290
     0
  0
SCALE
  5
9C09
102
{ACAD_REACTORS
330
9BFC
102
}
330
9BFC
100
AcDbScale
 70
     0
300
1" = 1'-0"
140
1.0
141
12.0
290
     0
  0
SCALE
  5
9C0A
102
{ACAD_REACTORS
330
9BFC
102
}
330
9BFC
100
AcDbScale
 70
     0
300
1-1/2" = 1'-0"
140
1.5
141
12.0
290
     0
  0
SCALE
  5
9C0B
102
{ACAD_REACTORS
330
9BFC
102
}
330
9BFC
100
AcDbScale
 70
     0
300
3" = 1'-0"
140
3.0
141
12.0
290
     0
  0
SCALE
  5
9C0C
102
{ACAD_REACTORS
330
9BFC
102
}
330
9BFC
100
AcDbScale
 70
     0
300
6" = 1'-0"
140
6.0
141
12.0
290
     0
  0
SCALE
  5
9C0D
102
{ACAD_REACTORS
330
9BFC
102
}
330
9BFC
100
AcDbScale
 70
     0
300
1'-0" = 1'-0"
140
12.0
141
12.0
290
     0
  0
ACDBSECTIONVIEWSTYLE
  5
9C11
102
{ACAD_XDICTIONARY
360
9C6C
102
}
102
{ACAD_REACTORS
330
9C10
102
}
330
9C10
100
AcDbModelDocViewStyle
 70
     0
  3
Imperial24
290
     0
100
AcDbSectionViewStyle
 70
     0
 71
     0
 90
       78
 71
     1
340
998B
 40
0.24
340
0
340
0
 40
0.24
300
I, O, Q, S, X, Z
 40
0.48
 90
        3
 40
0.18
 90
        1
 71
     2
340
998F
 90
       25
340
998F
 90
       50
 40
0.24
 40
0.0
 40
0.24
 71
     3
340
998B
 40
0.24
 90
        1
 40
0.75
 90
        1
300
%<\AcVar ViewType \f "%tc1">% %<\AcVar ViewSectionStartId>%-%<\AcVar ViewSectionEndId>%\PSCALE %<\AcVar ViewScale \f "%sn">%
 71
     4
300
ANSI31
 40
1.0
 90
        0
290
     0
290
     0
 90
        6
 40
0.0
 40
1.570796326794896
 40
0.2617993877991494
 40
1.308996938995747
 40
-0.2617993877991494
 40
1.832595714594046
  0
TABLESTYLE
  5
9BFB
102
{ACAD_XDICTIONARY
360
9C33
102
}
102
{ACAD_REACTORS
330
9BFA
102
}
330
9BFA
100
AcDbTableStyle
  3
Standard
 70
     0
 71
     0
 40
0.06
 41
0.06
280
     0
281
     0
  7
STANDARD
140
0.18
170
     2
 62
     0
 63
     7
283
     0
274
    -2
284
     1
 64
     0
275
    -2
285
     1
 65
     0
276
    -2
286
     1
 66
     0
277
    -2
287
     1
 67
     0
278
    -2
288
     1
 68
     0
279
    -2
289
     1
 69
     0
  7
STANDARD
140
0.25
170
     5
 62
     0
 63
     7
283
     0
274
    -2
284
     1
 64
     0
275
    -2
285
     1
 65
     0
276
    -2
286
     1
 66
     0
277
    -2
287
     1
 67
     0
278
    -2
288
     1
 68
     0
279
    -2
289
     1
 69
     0
  7
STANDARD
140
0.18
170
     5
 62
     0
 63
     7
283
     0
274
    -2
284
     1
 64
     0
275
    -2
285
     1
 65
     0
276
    -2
286
     1
 66
     0
277
    -2
287
     1
 67
     0
278
    -2
288
     1
 68
     0
279
    -2
289
     1
 69
     0
  0
VISUALSTYLE
  5
9BE6
102
{ACAD_XDICTIONARY
360
9C44
102
}
102
{ACAD_REACTORS
330
9BE0
102
}
330
9BE0
100
AcDbVisualStyle
  2
2dWireframe
 70
     4
 71
     0
 72
     2
 73
     0
 90
        0
 40
-0.6
 41
-30.0
 62
     5
 63
     7
 74
     1
 91
        4
 64
     7
 65
   257
 75
     1
175
     1
 42
1.0
 92
        0
 66
   257
 43
1.0
 76
     1
 77
     6
 78
     2
 67
     7
 79
     5
170
     0
171
     0
290
     0
174
     0
 93
        1
 44
0.0
173
     0
291
     0
 45
0.0
1001
ACAD
1000
AcDbSavedByObjectVersion
1070
     0
  0
VISUALSTYLE
  5
9BE5
102
{ACAD_XDICTIONARY
360
9C42
102
}
102
{ACAD_REACTORS
330
9BE0
102
}
330
9BE0
100
AcDbVisualStyle
  2
Basic
 70
     7
 71
     1
 72
     0
 73
     1
 90
        0
 40
-0.6
 41
-30.0
 62
     5
 63
     7
 74
     0
 91
        4
 64
     7
 65
   257
 75
     1
175
     1
 42
1.0
 92
        8
 66
     7
 43
1.0
 76
     1
 77
     6
 78
     2
 67
     7
 79
     5
170
     0
171
     0
290
     0
174
     0
 93
        1
 44
0.0
173
     0
291
     1
 45
0.0
1001
ACAD
1000
AcDbSavedByObjectVersion
1070
     0
  0
VISUALSTYLE
  5
9BEC
102
{ACAD_XDICTIONARY
360
9C50
102
}
102
{ACAD_REACTORS
330
9BE0
102
}
330
9BE0
100
AcDbVisualStyle
  2
Brighten
 70
    12
 71
     2
 72
     2
 73
     0
 90
        0
 40
-0.6
 41
-30.0
 62
     5
 63
     7
 74
     1
 91
        4
 64
     7
 65
   257
 75
     1
175
     1
 42
1.0
 92
        8
 66
     7
 43
1.0
 76
     1
 77
     6
 78
     2
 67
     7
 79
     5
170
     0
171
     0
290
     0
174
     0
 93
        1
 44
50.0
173
     0
291
     1
 45
0.0
1001
ACAD
1000
AcDbSavedByObjectVersion
1070
     0
  0
VISUALSTYLE
  5
9BF0
102
{ACAD_XDICTIONARY
360
9C58
102
}
102
{ACAD_REACTORS
330
9BE0
102
}
330
9BE0
100
AcDbVisualStyle
  2
ColorChange
 70
    16
 71
     2
 72
     2
 73
     3
 90
        0
 40
-0.6
 41
-30.0
 62
     5
 63
     8
 74
     1
 91
        4
 64
     7
 65
   257
 75
     1
175
     1
 42
1.0
 92
        8
 66
     8
 43
1.0
 76
     1
 77
     6
 78
     2
 67
     7
 79
     5
170
     0
171
     0
290
     0
174
     0
 93
        1
 44
0.0
173
     0
291
     1
 45
0.0
1001
ACAD
1000
AcDbSavedByObjectVersion
1070
     0
  0
VISUALSTYLE
  5
9BE9
102
{ACAD_XDICTIONARY
360
9C4A
102
}
102
{ACAD_REACTORS
330
9BE0
102
}
330
9BE0
100
AcDbVisualStyle
  2
Conceptual
 70
     9
 71
     3
 72
     2
 73
     0
 90
        0
 40
-0.6
 41
-30.0
 62
     5
 63
     7
 74
     2
 91
        2
 64
     7
 65
   257
 75
     1
175
     1
 42
179.0
 92
        8
 66
     7
 43
1.0
 76
     1
 77
     6
 78
     2
 67
     7
 79
     3
170
     0
171
     0
290
     0
174
     0
 93
        1
 44
0.0
173
     0
291
     0
 45
0.0
1001
ACAD
1000
AcDbSavedByObjectVersion
1070
     0
  0
VISUALSTYLE
  5
9BEB
102
{ACAD_XDICTIONARY
360
9C4E
102
}
102
{ACAD_REACTORS
330
9BE0
102
}
330
9BE0
100
AcDbVisualStyle
  2
Dim
 70
    11
 71
     2
 72
     2
 73
     0
 90
        0
 40
-0.6
 41
-30.0
 62
     5
 63
     7
 74
     1
 91
        4
 64
     7
 65
   257
 75
     1
175
     1
 42
1.0
 92
        8
 66
     7
 43
1.0
 76
     1
 77
     6
 78
     2
 67
     7
 79
     5
170
     0
171
     0
290
     0
174
     0
 93
        1
 44
-50.0
173
     0
291
     1
 45
0.0
1001
ACAD
1000
AcDbSavedByObjectVersion
1070
     0
  0
VISUALSTYLE
  5
9BF8
102
{ACAD_XDICTIONARY
360
9C68
102
}
102
{ACAD_REACTORS
330
9BE0
102
}
330
9BE0
100
AcDbVisualStyle
  2
EdgeColorOff
 70
    22
 71
     2
 72
     2
 73
     0
 90
        0
 40
-0.6
 41
-30.0
 62
     5
 63
     7
 74
     1
 91
        4
 64
     7
 65
   257
 75
     1
175
     1
 42
1.0
 92
        8
 66
     7
 43
1.0
 76
     1
 77
     6
 78
     2
 67
     7
 79
     5
170
     0
171
     0
290
     0
174
     0
 93
        1
 44
0.0
173
     0
291
     1
 45
0.0
1001
ACAD
1000
AcDbSavedByObjectVersion
1070
     0
  0
VISUALSTYLE
  5
9BEF
102
{ACAD_XDICTIONARY
360
9C56
102
}
102
{ACAD_REACTORS
330
9BE0
102
}
330
9BE0
100
AcDbVisualStyle
  2
Facepattern
 70
    15
 71
     2
 72
     2
 73
     0
 90
        0
 40
-0.6
 41
-30.0
 62
     5
 63
     7
 74
     1
 91
        4
 64
     7
 65
   257
 75
     1
175
     1
 42
1.0
 92
        8
 66
     7
 43
1.0
 76
     1
 77
     6
 78
     2
 67
     7
 79
     5
170
     0
171
     0
290
     0
174
     0
 93
        1
 44
0.0
173
     0
291
     1
 45
0.0
1001
ACAD
1000
AcDbSavedByObjectVersion
1070
     0
  0
VISUALSTYLE
  5
9BE1
102
{ACAD_XDICTIONARY
360
9C3A
102
}
102
{ACAD_REACTORS
330
9BE0
102
}
330
9BE0
100
AcDbVisualStyle
  2
Flat
 70
     0
 71
     2
 72
     1
 73
     1
 90
        2
 40
-0.6
 41
30.0
 62
     5
 63
     7
 74
     0
 91
        0
 64
     7
 65
   257
 75
     1
175
     1
 42
1.0
 92
        8
 66
     7
 43
1.0
 76
     1
 77
     6
 78
     2
 67
     7
 79
     5
170
     0
171
     0
290
     0
174
     0
 93
       13
 44
0.0
173
     0
291
     1
 45
0.0
1001
ACAD
1000
AcDbSavedByObjectVersion
1070
     0
  0
VISUALSTYLE
  5
9BE2
102
{ACAD_XDICTIONARY
360
9C3C
102
}
102
{ACAD_REACTORS
330
9BE0
102
}
330
9BE0
100
AcDbVisualStyle
  2
FlatWithEdges
 70
     1
 71
     2
 72
     1
 73
     1
 90
        2
 40
-0.6
 41
30.0
 62
     5
 63
     7
 74
     1
 91
        0
 64
     7
 65
   257
 75
     1
175
     1
 42
1.0
 92
        0
 66
   257
 43
1.0
 76
     1
 77
     6
 78
     2
 67
     7
 79
     5
170
     0
171
     0
290
     0
174
     0
 93
       13
 44
0.0
173
     0
291
     1
 45
0.0
1001
ACAD
1000
AcDbSavedByObjectVersion
1070
     0
  0
VISUALSTYLE
  5
9BE3
102
{ACAD_XDICTIONARY
360
9C3E
102
}
102
{ACAD_REACTORS
330
9BE0
102
}
330
9BE0
100
AcDbVisualStyle
  2
Gouraud
 70
     2
 71
     2
 72
     2
 73
     1
 90
        2
 40
-0.6
 41
30.0
 62
     5
 63
     7
 74
     0
 91
        0
 64
     7
 65
   257
 75
     1
175
     1
 42
1.0
 92
        0
 66
     7
 43
1.0
 76
     1
 77
     6
 78
     2
 67
     7
 79
     5
170
     0
171
     0
290
     0
174
     0
 93
       13
 44
0.0
173
     0
291
     1
 45
0.0
1001
ACAD
1000
AcDbSavedByObjectVersion
1070
     0
  0
VISUALSTYLE
  5
9BE4
102
{ACAD_XDICTIONARY
360
9C40
102
}
102
{ACAD_REACTORS
330
9BE0
102
}
330
9BE0
100
AcDbVisualStyle
  2
GouraudWithEdges
 70
     3
 71
     2
 72
     2
 73
     1
 90
        2
 40
-0.6
 41
30.0
 62
     5
 63
     7
 74
     1
 91
        0
 64
     7
 65
   257
 75
     1
175
     1
 42
1.0
 92
        0
 66
   257
 43
1.0
 76
     1
 77
     6
 78
     2
 67
     7
 79
     5
170
     0
171
     0
290
     0
174
     0
 93
       13
 44
0.0
173
     0
291
     1
 45
0.0
1001
ACAD
1000
AcDbSavedByObjectVersion
1070
     0
  0
VISUALSTYLE
  5
9BE8
102
{ACAD_XDICTIONARY
360
9C48
102
}
102
{ACAD_REACTORS
330
9BE0
102
}
330
9BE0
100
AcDbVisualStyle
  2
Hidden
 70
     6
 71
     1
 72
     2
 73
     2
 90
        0
 40
-0.6
 41
-30.0
 62
     5
 63
     7
 74
     2
 91
        2
 64
     7
 65
   257
 75
     2
175
     1
 42
40.0
 92
        0
 66
   257
 43
1.0
 76
     1
 77
     6
 78
     2
 67
     7
 79
     3
170
     0
171
     0
290
     0
174
     0
 93
        1
 44
0.0
173
     0
291
     0
 45
0.0
1001
ACAD
1000
AcDbSavedByObjectVersion
1070
     0
  0
VISUALSTYLE
  5
9BF6
102
{ACAD_XDICTIONARY
360
9C64
102
}
102
{ACAD_REACTORS
330
9BE0
102
}
330
9BE0
100
AcDbVisualStyle
  2
JitterOff
 70
    20
 71
     2
 72
     2
 73
     0
 90
        0
 40
-0.6
 41
-30.0
 62
     5
 63
     7
 74
     1
 91
        4
 64
     7
 65
   257
 75
     1
175
     1
 42
1.0
 92
       10
 66
     7
 43
1.0
 76
     1
 77
     6
 78
     2
 67
     7
 79
     5
170
     0
171
     0
290
     0
174
     0
 93
        1
 44
0.0
173
     0
291
     1
 45
0.0
1001
ACAD
1000
AcDbSavedByObjectVersion
1070
     0
  0
VISUALSTYLE
  5
9BEE
102
{ACAD_XDICTIONARY
360
9C54
102
}
102
{ACAD_REACTORS
330
9BE0
102
}
330
9BE0
100
AcDbVisualStyle
  2
Linepattern
 70
    14
 71
     2
 72
     2
 73
     0
 90
        0
 40
-0.6
 41
-30.0
 62
     5
 63
     7
 74
     1
 91
        4
 64
     7
 65
   257
 75
     7
175
     7
 42
1.0
 92
        8
 66
     7
 43
1.0
 76
     1
 77
     6
 78
     2
 67
     7
 79
     5
170
     0
171
     0
290
     0
174
     0
 93
        1
 44
0.0
173
     0
291
     1
 45
0.0
1001
ACAD
1000
AcDbSavedByObjectVersion
1070
     0
  0
VISUALSTYLE
  5
9BF7
102
{ACAD_XDICTIONARY
360
9C66
102
}
102
{ACAD_REACTORS
330
9BE0
102
}
330
9BE0
100
AcDbVisualStyle
  2
OverhangOff
 70
    21
 71
     2
 72
     2
 73
     0
 90
        0
 40
-0.6
 41
-30.0
 62
     5
 63
     7
 74
     1
 91
        4
 64
     7
 65
   257
 75
     1
175
     1
 42
1.0
 92
        9
 66
     7
 43
1.0
 76
     1
 77
     6
 78
     2
 67
     7
 79
     5
170
     0
171
     0
290
     0
174
     0
 93
        1
 44
0.0
173
     0
291
     1
 45
0.0
1001
ACAD
1000
AcDbSavedByObjectVersion
1070
     0
  0
VISUALSTYLE
  5
9BEA
102
{ACAD_XDICTIONARY
360
9C4C
102
}
102
{ACAD_REACTORS
330
9BE0
102
}
330
9BE0
100
AcDbVisualStyle
  2
Realistic
 70
     8
 71
     2
 72
     3
 73
     0
 90
        2
 40
-0.6
 41
30.0
 62
     5
 63
     7
 74
     0
 91
        0
 64
     7
 65
   257
 75
     1
175
     1
 42
1.0
 92
        8
 66
   257
 43
1.0
 76
     1
 77
     6
 78
     2
 67
     7
 79
     3
170
     0
171
     0
290
     0
174
     0
 93
       13
 44
0.0
173
     0
291
     0
 45
0.0
1001
ACAD
1000
AcDbSavedByObjectVersion
1070
     0
  0
VISUALSTYLE
  5
9BF5
102
{ACAD_XDICTIONARY
360
9C62
102
}
102
{ACAD_REACTORS
330
9BE0
102
}
330
9BE0
100
AcDbVisualStyle
  2
Shaded
 70
    27
 71
     2
 72
     2
 73
     1
 90
        2
 40
-0.6
 41
30.0
 62
     5
 63
     7
 74
     0
 91
        4
 64
     7
 65
   257
 75
     1
175
     1
 42
1.0
 92
        8
 66
   257
 43
1.0
 76
     1
 77
     6
 78
     2
 67
     8
 79
     3
170
     0
171
     0
290
     0
174
     0
 93
        5
 44
0.0
173
     0
291
     0
 45
0.0
1001
ACAD
1000
AcDbSavedByObjectVersion
1070
     0
  0
VISUALSTYLE
  5
9BF4
102
{ACAD_XDICTIONARY
360
9C60
102
}
102
{ACAD_REACTORS
330
9BE0
102
}
330
9BE0
100
AcDbVisualStyle
  2
Shaded with edges
 70
    26
 71
     2
 72
     2
 73
     1
 90
        2
 40
-0.6
 41
30.0
 62
     5
 63
     7
 74
     1
 91
       10
 64
     7
 65
   257
 75
     2
175
     1
 42
1.0
 92
        8
 66
   257
 43
1.0
 76
     1
 77
     6
 78
     2
 67
     7
 79
     3
170
     0
171
     0
290
     0
174
     0
 93
        5
 44
0.0
173
     0
291
     0
 45
0.0
1001
ACAD
1000
AcDbSavedByObjectVersion
1070
     0
  0
VISUALSTYLE
  5
9BF1
102
{ACAD_XDICTIONARY
360
9C5A
102
}
102
{ACAD_REACTORS
330
9BE0
102
}
330
9BE0
100
AcDbVisualStyle
  2
Shades of Gray
 70
    23
 71
     2
 72
     2
 73
     3
 90
        0
 40
-0.6
 41
-30.0
 62
     5
 63
     7
 74
     2
 91
        2
 64
     7
 65
     7
 75
     1
175
     1
 42
40.0
 92
        8
 66
     7
 43
1.0
 76
     1
 77
     6
 78
     2
 67
     7
 79
     3
170
     0
171
     0
290
     0
174
     0
 93
        1
 44
0.0
173
     0
291
     0
 45
0.0
1001
ACAD
1000
AcDbSavedByObjectVersion
1070
     0
  0
VISUALSTYLE
  5
9BF2
102
{ACAD_XDICTIONARY
360
9C5C
102
}
102
{ACAD_REACTORS
330
9BE0
102
}
330
9BE0
100
AcDbVisualStyle
  2
Sketchy
 70
    24
 71
     1
 72
     2
 73
     2
 90
        0
 40
-0.6
 41
-30.0
 62
     5
 63
     7
 74
     2
 91
        2
 64
     7
 65
     7
 75
     1
175
     1
 42
40.0
 92
       11
 66
     7
 43
1.0
 76
     1
 77
     6
 78
     2
 67
     7
 79
     6
170
     0
171
     0
290
     0
174
     0
 93
        1
 44
0.0
173
     0
291
     0
 45
0.0
1001
ACAD
1000
AcDbSavedByObjectVersion
1070
     0
  0
VISUALSTYLE
  5
9BED
102
{ACAD_XDICTIONARY
360
9C52
102
}
102
{ACAD_REACTORS
330
9BE0
102
}
330
9BE0
100
AcDbVisualStyle
  2
Thicken
 70
    13
 71
     2
 72
     2
 73
     0
 90
        0
 40
-0.6
 41
-30.0
 62
     5
 63
     7
 74
     1
 91
        4
 64
     7
 65
   257
 75
     1
175
     1
 42
1.0
 92
       12
 66
     7
 43
1.0
 76
     1
 77
     6
 78
     2
 67
     7
 79
     5
170
     0
171
     0
290
     0
174
     0
 93
        1
 44
0.0
173
     0
291
     1
 45
0.0
1001
ACAD
1000
AcDbSavedByObjectVersion
1070
     0
  0
VISUALSTYLE
  5
9BE7
102
{ACAD_XDICTIONARY
360
9C46
102
}
102
{ACAD_REACTORS
330
9BE0
102
}
330
9BE0
100
AcDbVisualStyle
  2
Wireframe
 70
     5
 71
     0
 72
     2
 73
     0
 90
        0
 40
-0.6
 41
-30.0
 62
     5
 63
     7
 74
     1
 91
        4
 64
     7
 65
   257
 75
     1
175
     1
 42
1.0
 92
        0
 66
   257
 43
1.0
 76
     1
 77
     6
 78
     2
 67
     7
 79
     3
170
     0
171
     0
290
     0
174
     0
 93
        1
 44
0.0
173
     0
291
     0
 45
0.0
1001
ACAD
1000
AcDbSavedByObjectVersion
1070
     0
  0
VISUALSTYLE
  5
9BF3
102
{ACAD_XDICTIONARY
360
9C5E
102
}
102
{ACAD_REACTORS
330
9BE0
102
}
330
9BE0
100
AcDbVisualStyle
  2
X-Ray
 70
    25
 71
     2
 72
     2
 73
     1
 90
        1
 40
0.5
 41
-30.0
 62
     5
 63
     7
 74
     1
 91
        0
 64
     7
 65
   257
 75
     1
175
     1
 42
1.0
 92
        8
 66
     7
 43
1.0
 76
     1
 77
     6
 78
     2
 67
     7
 79
     3
170
     0
171
     0
290
     0
174
     0
 93
       13
 44
0.0
173
     0
291
     0
 45
0.0
1001
ACAD
1000
AcDbSavedByObjectVersion
1070
     0
  0
DICTIONARYVAR
  5
9C2D
102
{ACAD_REACTORS
330
9C28
102
}
330
9C28
100
DictionaryVariables
280
     0
  1
1:1
  0
DICTIONARYVAR
  5
9C2A
102
{ACAD_REACTORS
330
9C28
102
}
330
9C28
100
DictionaryVariables
280
     0
  1
STANDARD
  0
DICTIONARYVAR
  5
9C29
102
{ACAD_REACTORS
330
9C28
102
}
330
9C28
100
DictionaryVariables
280
     0
  1
STANDARD
  0
DICTIONARYVAR
  5
9C2B
102
{ACAD_REACTORS
330
9C28
102
}
330
9C28
100
DictionaryVariables
280
     0
  1
Imperial24
  0
DICTIONARYVAR
  5
9C2C
102
{ACAD_REACTORS
330
9C28
102
}
330
9C28
100
DictionaryVariables
280
     0
  1
Imperial24
  0
DICTIONARYVAR
  5
9C30
102
{ACAD_REACTORS
330
9C28
102
}
330
9C28
100
DictionaryVariables
280
     0
  1
1
  0
DICTIONARYVAR
  5
9C2F
102
{ACAD_REACTORS
330
9C28
102
}
330
9C28
100
DictionaryVariables
280
     0
  1
0
  0
DICTIONARYVAR
  5
9C2E
102
{ACAD_REACTORS
330
9C28
102
}
330
9C28
100
DictionaryVariables
280
     0
  1
127
  0
DICTIONARYVAR
  5
9C31
102
{ACAD_REACTORS
330
9C28
102
}
330
9C28
100
DictionaryVariables
280
     0
  1
2
  0
DICTIONARY
  5
9C6E
330
9C13
100
AcDbDictionary
280
     1
281
     1
  3
ACAD_XREC_ROUNDTRIP
360
9C6F
  0
DICTIONARY
  5
9C70
330
9C14
100
AcDbDictionary
280
     1
281
     1
  3
ACAD_XREC_ROUNDTRIP
360
9C71
  0
DICTIONARY
  5
9C72
330
9C15
100
AcDbDictionary
280
     1
281
     1
  3
ACAD_XREC_ROUNDTRIP
360
9C73
  0
DICTIONARY
  5
9BD1
330
9BD0
100
AcDbDictionary
280
     1
281
     1
  3
ACAD_XREC_ROUNDTRIP
360
9C38
  3
BUMPTILE
360
9BD3
  3
DIFFUSETILE
360
9BD2
  3
OPACITYTILE
360
9BD6
  3
REFLECTIONTILE
360
9BD5
  3
REFRACTIONTILE
360
9BD7
  3
SPECULARTILE
360
9BD4
  0
DICTIONARY
  5
9BC9
330
9BC8
100
AcDbDictionary
280
     1
281
     1
  3
ACAD_XREC_ROUNDTRIP
360
9C37
  3
BUMPTILE
360
9BCB
  3
DIFFUSETILE
360
9BCA
  3
OPACITYTILE
360
9BCE
  3
REFLECTIONTILE
360
9BCD
  3
REFRACTIONTILE
360
9BCF
  3
SPECULARTILE
360
9BCC
  0
DICTIONARY
  5
9BD9
330
9BD8
100
AcDbDictionary
280
     1
281
     1
  3
ACAD_XREC_ROUNDTRIP
360
9C39
  3
BUMPTILE
360
9BDB
  3
DIFFUSETILE
360
9BDA
  3
OPACITYTILE
360
9BDE
  3
REFLECTIONTILE
360
9BDD
  3
REFRACTIONTILE
360
9BDF
  3
SPECULARTILE
360
9BDC
  0
DICTIONARY
  5
9C6C
330
9C11
100
AcDbDictionary
280
     1
281
     1
  3
ACAD_XREC_ROUNDTRIP
360
9C6D
  0
DICTIONARY
  5
9C33
330
9BFB
100
AcDbDictionary
280
     1
281
     1
  3
ACAD_ROUNDTRIP_2008_TABLESTYLE_CELLSTYLEMAP
360
9C34
  3
ACAD_XREC_ROUNDTRIP
360
9C6A
  0
DICTIONARY
  5
9C44
330
9BE6
100
AcDbDictionary
280
     1
281
     1
  3
ACAD_XREC_ROUNDTRIP
360
9C45
  0
DICTIONARY
  5
9C42
330
9BE5
100
AcDbDictionary
280
     1
281
     1
  3
ACAD_XREC_ROUNDTRIP
360
9C43
  0
DICTIONARY
  5
9C50
330
9BEC
100
AcDbDictionary
280
     1
281
     1
  3
ACAD_XREC_ROUNDTRIP
360
9C51
  0
DICTIONARY
  5
9C58
330
9BF0
100
AcDbDictionary
280
     1
281
     1
  3
ACAD_XREC_ROUNDTRIP
360
9C59
  0
DICTIONARY
  5
9C4A
330
9BE9
100
AcDbDictionary
280
     1
281
     1
  3
ACAD_XREC_ROUNDTRIP
360
9C4B
  0
DICTIONARY
  5
9C4E
330
9BEB
100
AcDbDictionary
280
     1
281
     1
  3
ACAD_XREC_ROUNDTRIP
360
9C4F
  0
DICTIONARY
  5
9C68
330
9BF8
100
AcDbDictionary
280
     1
281
     1
  3
ACAD_XREC_ROUNDTRIP
360
9C69
  0
DICTIONARY
  5
9C56
330
9BEF
100
AcDbDictionary
280
     1
281
     1
  3
ACAD_XREC_ROUNDTRIP
360
9C57
  0
DICTIONARY
  5
9C3A
330
9BE1
100
AcDbDictionary
280
     1
281
     1
  3
ACAD_XREC_ROUNDTRIP
360
9C3B
  0
DICTIONARY
  5
9C3C
330
9BE2
100
AcDbDictionary
280
     1
281
     1
  3
ACAD_XREC_ROUNDTRIP
360
9C3D
  0
DICTIONARY
  5
9C3E
330
9BE3
100
AcDbDictionary
280
     1
281
     1
  3
ACAD_XREC_ROUNDTRIP
360
9C3F
  0
DICTIONARY
  5
9C40
330
9BE4
100
AcDbDictionary
280
     1
281
     1
  3
ACAD_XREC_ROUNDTRIP
360
9C41
  0
DICTIONARY
  5
9C48
330
9BE8
100
AcDbDictionary
280
     1
281
     1
  3
ACAD_XREC_ROUNDTRIP
360
9C49
  0
DICTIONARY
  5
9C64
330
9BF6
100
AcDbDictionary
280
     1
281
     1
  3
ACAD_XREC_ROUNDTRIP
360
9C65
  0
DICTIONARY
  5
9C54
330
9BEE
100
AcDbDictionary
280
     1
281
     1
  3
ACAD_XREC_ROUNDTRIP
360
9C55
  0
DICTIONARY
  5
9C66
330
9BF7
100
AcDbDictionary
280
     1
281
     1
  3
ACAD_XREC_ROUNDTRIP
360
9C67
  0
DICTIONARY
  5
9C4C
330
9BEA
100
AcDbDictionary
280
     1
281
     1
  3
ACAD_XREC_ROUNDTRIP
360
9C4D
  0
DICTIONARY
  5
9C62
330
9BF5
100
AcDbDictionary
280
     1
281
     1
  3
ACAD_XREC_ROUNDTRIP
360
9C63
  0
DICTIONARY
  5
9C60
330
9BF4
100
AcDbDictionary
280
     1
281
     1
  3
ACAD_XREC_ROUNDTRIP
360
9C61
  0
DICTIONARY
  5
9C5A
330
9BF1
100
AcDbDictionary
280
     1
281
     1
  3
ACAD_XREC_ROUNDTRIP
360
9C5B
  0
DICTIONARY
  5
9C5C
330
9BF2
100
AcDbDictionary
280
     1
281
     1
  3
ACAD_XREC_ROUNDTRIP
360
9C5D
  0
DICTIONARY
  5
9C52
330
9BED
100
AcDbDictionary
280
     1
281
     1
  3
ACAD_XREC_ROUNDTRIP
360
9C53
  0
DICTIONARY
  5
9C46
330
9BE7
100
AcDbDictionary
280
     1
281
     1
  3
ACAD_XREC_ROUNDTRIP
360
9C47
  0
DICTIONARY
  5
9C5E
330
9BF3
100
AcDbDictionary
280
     1
281
     1
  3
ACAD_XREC_ROUNDTRIP
360
9C5F
  0
XRECORD
  5
9C6F
102
{ACAD_REACTORS
330
9C6E
102
}
330
9C6E
100
AcDbXrecord
280
     1
102
DISPLAYNAME
  1
Imperial24
102
FLAGS
 90
        0
  0
XRECORD
  5
9C71
102
{ACAD_REACTORS
330
9C70
102
}
330
9C70
100
AcDbXrecord
280
     1
102
SHADEPLOT
 70
     0
102
SHADEPLOTRESLEVEL
 70
     2
102
SHADEPLOTCUSTOMDPI
 70
   300
  0
XRECORD
  5
9C73
102
{ACAD_REACTORS
330
9C72
102
}
330
9C72
100
AcDbXrecord
280
     1
102
SHADEPLOT
 70
     0
102
SHADEPLOTRESLEVEL
 70
     2
102
SHADEPLOTCUSTOMDPI
 70
   300
  0
XRECORD
  5
9C38
102
{ACAD_REACTORS
330
9BD1
102
}
330
9BD1
100
AcDbXrecord
280
     1
102
MATERIAL
148
0.0
149
0.0
149
0.0
 93
        0
 94
      127
282
     0
 72
     0
 77
     0
171
     0
175
     0
179
     0
273
     0
  0
XRECORD
  5
9BD3
102
{ACAD_REACTORS
330
9BD1
102
}
330
9BD1
100
AcDbXrecord
280
     1
270
     1
271
     1
  0
XRECORD
  5
9BD2
102
{ACAD_REACTORS
330
9BD1
102
}
330
9BD1
100
AcDbXrecord
280
     1
270
     1
271
     1
  0
XRECORD
  5
9BD6
102
{ACAD_REACTORS
330
9BD1
102
}
330
9BD1
100
AcDbXrecord
280
     1
270
     1
271
     1
  0
XRECORD
  5
9BD5
102
{ACAD_REACTORS
330
9BD1
102
}
330
9BD1
100
AcDbXrecord
280
     1
270
     1
271
     1
  0
XRECORD
  5
9BD7
102
{ACAD_REACTORS
330
9BD1
102
}
330
9BD1
100
AcDbXrecord
280
     1
270
     1
271
     1
  0
XRECORD
  5
9BD4
102
{ACAD_REACTORS
330
9BD1
102
}
330
9BD1
100
AcDbXrecord
280
     1
270
     1
271
     1
  0
XRECORD
  5
9C37
102
{ACAD_REACTORS
330
9BC9
102
}
330
9BC9
100
AcDbXrecord
280
     1
102
MATERIAL
148
0.0
149
0.0
149
0.0
 93
        0
 94
      127
282
     0
 72
     0
 77
     0
171
     0
175
     0
179
     0
273
     0
  0
XRECORD
  5
9BCB
102
{ACAD_REACTORS
330
9BC9
102
}
330
9BC9
100
AcDbXrecord
280
     1
270
     1
271
     1
  0
XRECORD
  5
9BCA
102
{ACAD_REACTORS
330
9BC9
102
}
330
9BC9
100
AcDbXrecord
280
     1
270
     1
271
     1
  0
XRECORD
  5
9BCE
102
{ACAD_REACTORS
330
9BC9
102
}
330
9BC9
100
AcDbXrecord
280
     1
270
     1
271
     1
  0
XRECORD
  5
9BCD
102
{ACAD_REACTORS
330
9BC9
102
}
330
9BC9
100
AcDbXrecord
280
     1
270
     1
271
     1
  0
XRECORD
  5
9BCF
102
{ACAD_REACTORS
330
9BC9
102
}
330
9BC9
100
AcDbXrecord
280
     1
270
     1
271
     1
  0
XRECORD
  5
9BCC
102
{ACAD_REACTORS
330
9BC9
102
}
330
9BC9
100
AcDbXrecord
280
     1
270
     1
271
     1
  0
XRECORD
  5
9C39
102
{ACAD_REACTORS
330
9BD9
102
}
330
9BD9
100
AcDbXrecord
280
     1
102
MATERIAL
148
0.0
149
0.0
149
0.0
 93
        0
 94
      127
282
     0
 72
     0
 77
     0
171
     0
175
     0
179
     0
273
     0
  0
XRECORD
  5
9BDB
102
{ACAD_REACTORS
330
9BD9
102
}
330
9BD9
100
AcDbXrecord
280
     1
270
     1
271
     1
  0
XRECORD
  5
9BDA
102
{ACAD_REACTORS
330
9BD9
102
}
330
9BD9
100
AcDbXrecord
280
     1
270
     1
271
     1
  0
XRECORD
  5
9BDE
102
{ACAD_REACTORS
330
9BD9
102
}
330
9BD9
100
AcDbXrecord
280
     1
270
     1
271
     1
  0
XRECORD
  5
9BDD
102
{ACAD_REACTORS
330
9BD9
102
}
330
9BD9
100
AcDbXrecord
280
     1
270
     1
271
     1
  0
XRECORD
  5
9BDF
102
{ACAD_REACTORS
330
9BD9
102
}
330
9BD9
100
AcDbXrecord
280
     1
270
     1
271
     1
  0
XRECORD
  5
9BDC
102
{ACAD_REACTORS
330
9BD9
102
}
330
9BD9
100
AcDbXrecord
280
     1
270
     1
271
     1
  0
XRECORD
  5
9C6D
102
{ACAD_REACTORS
330
9C6C
102
}
330
9C6C
100
AcDbXrecord
280
     1
102
DISPLAYNAME
  1
Imperial24
102
FLAGS
 90
        0
  0
CELLSTYLEMAP
  5
9C34
102
{ACAD_REACTORS
330
9C33
102
}
330
9C33
100
AcDbCellStyleMap
 90
        3
300
CELLSTYLE
  1
TABLEFORMAT_BEGIN
 90
        5
170
     1
 91
        0
 92
    32768
 62
   257
 93
        1
300
CONTENTFORMAT
  1
CONTENTFORMAT_BEGIN
 90
        0
 91
        0
 92
      512
 93
        0
300

 40
0.0
140
1.0
 94
        5
 62
     0
340
998B
144
0.25
309
CONTENTFORMAT_END
171
     0
 94
        0
309
TABLEFORMAT_END
  1
CELLSTYLE_BEGIN
 90
        1
 91
        1
300
_TITLE
309
CELLSTYLE_END
300
CELLSTYLE
  1
TABLEFORMAT_BEGIN
 90
        5
170
     1
 91
        0
 92
        0
 62
   257
 93
        1
300
CONTENTFORMAT
  1
CONTENTFORMAT_BEGIN
 90
        0
 91
        0
 92
      512
 93
        0
300

 40
0.0
140
1.0
 94
        5
 62
     0
340
998B
144
0.18
309
CONTENTFORMAT_END
171
     0
 94
        0
309
TABLEFORMAT_END
  1
CELLSTYLE_BEGIN
 90
        2
 91
        1
300
_HEADER
309
CELLSTYLE_END
300
CELLSTYLE
  1
TABLEFORMAT_BEGIN
 90
        5
170
     1
 91
        0
 92
        0
 62
   257
 93
        1
300
CONTENTFORMAT
  1
CONTENTFORMAT_BEGIN
 90
        0
 91
        0
 92
      512
 93
        0
300

 40
0.0
140
1.0
 94
        2
 62
     0
340
998B
144
0.18
309
CONTENTFORMAT_END
171
     0
 94
        0
309
TABLEFORMAT_END
  1
CELLSTYLE_BEGIN
 90
        3
 91
        2
300
_DATA
309
CELLSTYLE_END
  0
XRECORD
  5
9C6A
102
{ACAD_REACTORS
330
9C33
102
}
330
9C33
100
AcDbXrecord
280
     1
102
ACAD_ROUNDTRIP_PRE2007_TABLESTYLE
 90
      512
 91
        0
  1

 92
      512
 93
        0
  2

 94
      512
 95
        0
  3

  0
XRECORD
  5
9C45
102
{ACAD_REACTORS
330
9C44
102
}
330
9C44
100
AcDbXrecord
280
     1
102
RTVSPost2010Prop28
280
     1
102
RTVSPost2010PropOp28
 70
     1
102
RTVSPost2010Prop29
280
     1
102
RTVSPost2010PropOp29
 70
     1
102
RTVSPost2010Prop30
280
     0
102
RTVSPost2010PropOp30
 70
     1
102
RTVSPost2010Prop31
280
     0
102
RTVSPost2010PropOp31
 70
     1
102
RTVSPost2010Prop32
280
     0
102
RTVSPost2010PropOp32
 70
     1
102
RTVSPost2010Prop33
280
     0
102
RTVSPost2010PropOp33
 70
     1
102
RTVSPost2010Prop34
280
     0
102
RTVSPost2010PropOp34
 70
     1
102
RTVSPost2010Prop35
280
     0
102
RTVSPost2010PropOp35
 70
     1
102
RTVSPost2010Prop36
280
     0
102
RTVSPost2010PropOp36
 70
     1
102
RTVSPost2010Prop37
 90
       50
102
RTVSPost2010PropOp37
 70
     1
102
RTVSPost2010Prop38
140
0.0
102
RTVSPost2010PropOp38
 70
     1
102
RTVSPost2010Prop39
140
1.0
102
RTVSPost2010PropOp39
 70
     1
102
RTVSPost2010Prop40
 90
        0
102
RTVSPost2010PropOp40
 70
     1
102
RTVSPost2010Prop41ColorIndex
 90
       18
102
RTVSPost2010Prop41ColorRGB
 90
        0
102
RTVSPost2010PropOp41
 70
     1
102
RTVSPost2010Prop42
 90
       50
102
RTVSPost2010PropOp42
 70
     1
102
RTVSPost2010Prop43
 90
        3
102
RTVSPost2010PropOp43
 70
     1
102
RTVSPost2010Prop44ColorIndex
 90
        5
102
RTVSPost2010Prop44ColorRGB
 90
      255
102
RTVSPost2010PropOp44
 70
     1
102
RTVSPost2010Prop45
280
     0
102
RTVSPost2010PropOp45
 70
     1
102
RTVSPost2010Prop46
 90
       50
102
RTVSPost2010PropOp46
 70
     1
102
RTVSPost2010Prop47
 90
       50
102
RTVSPost2010PropOp47
 70
     1
102
RTVSPost2010Prop48
 90
       50
102
RTVSPost2010PropOp48
 70
     1
102
RTVSPost2010Prop49
280
     0
102
RTVSPost2010PropOp49
 70
     1
102
RTVSPost2010Prop50
 90
       50
102
RTVSPost2010PropOp50
 70
     1
102
RTVSPost2010Prop51ColorIndex
 90
      256
102
RTVSPost2010Prop51ColorRGB
 90
-16777216
102
RTVSPost2010PropOp51
 70
     0
102
RTVSPost2010Prop52
140
1.0
102
RTVSPost2010PropOp52
 70
     0
102
RTVSPost2010Prop53
 90
        2
102
RTVSPost2010PropOp53
 70
     1
102
RTVSPost2010Prop54
  1
strokes_ogs.tif
102
RTVSPost2010PropOp54
 70
     1
102
RTVSPost2010Prop55
280
     0
102
RTVSPost2010PropOp55
 70
     1
102
RTVSPost2010Prop56
140
1.0
102
RTVSPost2010PropOp56
 70
     1
102
RTVSPost2010Prop57
140
1.0
102
RTVSPost2010PropOp57
 70
     1
102
RTVSPropertyOp0
 70
     1
102
RTVSPropertyOp1
 70
     1
102
RTVSPropertyOp2
 70
     1
102
RTVSPropertyOp3
 70
     1
102
RTVSPropertyOp4
 70
     1
102
RTVSPropertyOp5
 70
     1
102
RTVSPropertyOp6
 70
     1
102
RTVSPropertyOp7
 70
     1
102
RTVSPropertyOp8
 70
     1
102
RTVSPropertyOp9
 70
     1
102
RTVSPropertyOp10
 70
     1
102
RTVSPropertyOp11
 70
     1
102
RTVSPropertyOp12
 70
     1
102
RTVSPropertyOp13
 70
     1
102
RTVSPropertyOp14
 70
     1
102
RTVSPropertyOp15
 70
     1
102
RTVSPropertyOp16
 70
     1
102
RTVSPropertyOp17
 70
     1
102
RTVSPropertyOp18
 70
     1
102
RTVSPropertyOp19
 70
     1
102
RTVSPropertyOp20
 70
     1
102
RTVSPropertyOp21
 70
     1
102
RTVSPropertyOp22
 70
     1
102
RTVSPropertyOp23
 70
     1
102
RTVSPropertyOp24
 70
     1
102
RTVSPropertyOp25
 70
     1
102
RTVSPropertyOp26
 70
     1
102
RTVSPropertyOp27
 70
     1
102
RTVSPropertyOp28
 70
     1
102
RTVSPropertyOp29
 70
     1
102
RTVSPropertyOp30
 70
     1
102
RTVSPropertyOp31
 70
     1
102
RTVSPropertyOp32
 70
     1
102
RTVSPropertyOp33
 70
     1
102
RTVSPropertyOp34
 70
     1
102
RTVSPropertyOp35
 70
     1
102
RTVSPropertyOp36
 70
     1
102
RTVSPropertyOp37
 70
     1
102
RTVSPropertyOp38
 70
     1
102
RTVSPropertyOp39
 70
     1
102
RTVSPropertyOp40
 70
     1
102
RTVSPropertyOp41
 70
     1
102
RTVSPropertyOp42
 70
     1
102
RTVSPropertyOp43
 70
     1
102
RTVSPropertyOp44
 70
     1
102
RTVSPropertyOp45
 70
     1
102
RTVSPropertyOp46
 70
     1
102
RTVSPropertyOp47
 70
     1
102
RTVSPropertyOp48
 70
     1
102
RTVSPropertyOp49
 70
     1
102
RTVSPropertyOp50
 70
     1
102
RTVSPropertyOp51
 70
     0
102
RTVSPropertyOp52
 70
     0
102
RTVSPropertyOp53
 70
     1
102
RTVSPropertyOp54
 70
     1
102
RTVSPropertyOp55
 70
     1
102
RTVSPropertyOp56
 70
     1
102
RTVSPropertyOp57
 70
     1
102
RTVSPropertyOp58
 70
     1
102
RTVSPropertyOp59
 70
     1
102
RTVSPropertyOp60
 70
     1
102
RTVSPropertyOp61
 70
     1
102
RTVSPropertyOp62
 70
     1
  0
XRECORD
  5
9C43
102
{ACAD_REACTORS
330
9C42
102
}
330
9C42
100
AcDbXrecord
280
     1
102
RTVSPost2010Prop28
280
     0
102
RTVSPost2010PropOp28
 70
     1
102
RTVSPost2010Prop29
280
     1
102
RTVSPost2010PropOp29
 70
     1
102
RTVSPost2010Prop30
280
     1
102
RTVSPost2010PropOp30
 70
     1
102
RTVSPost2010Prop31
280
     0
102
RTVSPost2010PropOp31
 70
     1
102
RTVSPost2010Prop32
280
     0
102
RTVSPost2010PropOp32
 70
     1
102
RTVSPost2010Prop33
280
     0
102
RTVSPost2010PropOp33
 70
     1
102
RTVSPost2010Prop34
280
     0
102
RTVSPost2010PropOp34
 70
     1
102
RTVSPost2010Prop35
280
     0
102
RTVSPost2010PropOp35
 70
     1
102
RTVSPost2010Prop36
280
     0
102
RTVSPost2010PropOp36
 70
     1
102
RTVSPost2010Prop37
 90
       50
102
RTVSPost2010PropOp37
 70
     1
102
RTVSPost2010Prop38
140
0.0
102
RTVSPost2010PropOp38
 70
     1
102
RTVSPost2010Prop39
140
1.0
102
RTVSPost2010PropOp39
 70
     1
102
RTVSPost2010Prop40
 90
        0
102
RTVSPost2010PropOp40
 70
     1
102
RTVSPost2010Prop41ColorIndex
 90
       18
102
RTVSPost2010Prop41ColorRGB
 90
        0
102
RTVSPost2010PropOp41
 70
     1
102
RTVSPost2010Prop42
 90
       50
102
RTVSPost2010PropOp42
 70
     1
102
RTVSPost2010Prop43
 90
        3
102
RTVSPost2010PropOp43
 70
     1
102
RTVSPost2010Prop44ColorIndex
 90
        5
102
RTVSPost2010Prop44ColorRGB
 90
      255
102
RTVSPost2010PropOp44
 70
     1
102
RTVSPost2010Prop45
280
     0
102
RTVSPost2010PropOp45
 70
     1
102
RTVSPost2010Prop46
 90
       50
102
RTVSPost2010PropOp46
 70
     1
102
RTVSPost2010Prop47
 90
       50
102
RTVSPost2010PropOp47
 70
     1
102
RTVSPost2010Prop48
 90
       50
102
RTVSPost2010PropOp48
 70
     1
102
RTVSPost2010Prop49
280
     0
102
RTVSPost2010PropOp49
 70
     1
102
RTVSPost2010Prop50
 90
       50
102
RTVSPost2010PropOp50
 70
     1
102
RTVSPost2010Prop51ColorIndex
 90
      256
102
RTVSPost2010Prop51ColorRGB
 90
-16777216
102
RTVSPost2010PropOp51
 70
     0
102
RTVSPost2010Prop52
140
1.0
102
RTVSPost2010PropOp52
 70
     0
102
RTVSPost2010Prop53
 90
        2
102
RTVSPost2010PropOp53
 70
     1
102
RTVSPost2010Prop54
  1
strokes_ogs.tif
102
RTVSPost2010PropOp54
 70
     1
102
RTVSPost2010Prop55
280
     0
102
RTVSPost2010PropOp55
 70
     1
102
RTVSPost2010Prop56
140
1.0
102
RTVSPost2010PropOp56
 70
     1
102
RTVSPost2010Prop57
140
1.0
102
RTVSPost2010PropOp57
 70
     1
102
RTVSPropertyOp0
 70
     1
102
RTVSPropertyOp1
 70
     1
102
RTVSPropertyOp2
 70
     1
102
RTVSPropertyOp3
 70
     1
102
RTVSPropertyOp4
 70
     1
102
RTVSPropertyOp5
 70
     1
102
RTVSPropertyOp6
 70
     1
102
RTVSPropertyOp7
 70
     1
102
RTVSPropertyOp8
 70
     1
102
RTVSPropertyOp9
 70
     1
102
RTVSPropertyOp10
 70
     1
102
RTVSPropertyOp11
 70
     1
102
RTVSPropertyOp12
 70
     1
102
RTVSPropertyOp13
 70
     1
102
RTVSPropertyOp14
 70
     1
102
RTVSPropertyOp15
 70
     1
102
RTVSPropertyOp16
 70
     1
102
RTVSPropertyOp17
 70
     1
102
RTVSPropertyOp18
 70
     1
102
RTVSPropertyOp19
 70
     1
102
RTVSPropertyOp20
 70
     1
102
RTVSPropertyOp21
 70
     1
102
RTVSPropertyOp22
 70
     1
102
RTVSPropertyOp23
 70
     1
102
RTVSPropertyOp24
 70
     1
102
RTVSPropertyOp25
 70
     1
102
RTVSPropertyOp26
 70
     1
102
RTVSPropertyOp27
 70
     1
102
RTVSPropertyOp28
 70
     1
102
RTVSPropertyOp29
 70
     1
102
RTVSPropertyOp30
 70
     1
102
RTVSPropertyOp31
 70
     1
102
RTVSPropertyOp32
 70
     1
102
RTVSPropertyOp33
 70
     1
102
RTVSPropertyOp34
 70
     1
102
RTVSPropertyOp35
 70
     1
102
RTVSPropertyOp36
 70
     1
102
RTVSPropertyOp37
 70
     1
102
RTVSPropertyOp38
 70
     1
102
RTVSPropertyOp39
 70
     1
102
RTVSPropertyOp40
 70
     1
102
RTVSPropertyOp41
 70
     1
102
RTVSPropertyOp42
 70
     1
102
RTVSPropertyOp43
 70
     1
102
RTVSPropertyOp44
 70
     1
102
RTVSPropertyOp45
 70
     1
102
RTVSPropertyOp46
 70
     1
102
RTVSPropertyOp47
 70
     1
102
RTVSPropertyOp48
 70
     1
102
RTVSPropertyOp49
 70
     1
102
RTVSPropertyOp50
 70
     1
102
RTVSPropertyOp51
 70
     0
102
RTVSPropertyOp52
 70
     0
102
RTVSPropertyOp53
 70
     1
102
RTVSPropertyOp54
 70
     1
102
RTVSPropertyOp55
 70
     1
102
RTVSPropertyOp56
 70
     1
102
RTVSPropertyOp57
 70
     1
102
RTVSPropertyOp58
 70
     1
102
RTVSPropertyOp59
 70
     1
102
RTVSPropertyOp60
 70
     1
102
RTVSPropertyOp61
 70
     1
102
RTVSPropertyOp62
 70
     1
  0
XRECORD
  5
9C51
102
{ACAD_REACTORS
330
9C50
102
}
330
9C50
100
AcDbXrecord
280
     1
102
RTVSPost2010Prop28
280
     0
102
RTVSPost2010PropOp28
 70
     1
102
RTVSPost2010Prop29
280
     1
102
RTVSPost2010PropOp29
 70
     1
102
RTVSPost2010Prop30
280
     1
102
RTVSPost2010PropOp30
 70
     1
102
RTVSPost2010Prop31
280
     0
102
RTVSPost2010PropOp31
 70
     1
102
RTVSPost2010Prop32
280
     0
102
RTVSPost2010PropOp32
 70
     1
102
RTVSPost2010Prop33
280
     0
102
RTVSPost2010PropOp33
 70
     1
102
RTVSPost2010Prop34
280
     0
102
RTVSPost2010PropOp34
 70
     1
102
RTVSPost2010Prop35
280
     0
102
RTVSPost2010PropOp35
 70
     1
102
RTVSPost2010Prop36
280
     0
102
RTVSPost2010PropOp36
 70
     1
102
RTVSPost2010Prop37
 90
       50
102
RTVSPost2010PropOp37
 70
     1
102
RTVSPost2010Prop38
140
0.0
102
RTVSPost2010PropOp38
 70
     1
102
RTVSPost2010Prop39
140
1.0
102
RTVSPost2010PropOp39
 70
     1
102
RTVSPost2010Prop40
 90
        0
102
RTVSPost2010PropOp40
 70
     1
102
RTVSPost2010Prop41ColorIndex
 90
       18
102
RTVSPost2010Prop41ColorRGB
 90
        0
102
RTVSPost2010PropOp41
 70
     1
102
RTVSPost2010Prop42
 90
       50
102
RTVSPost2010PropOp42
 70
     1
102
RTVSPost2010Prop43
 90
        3
102
RTVSPost2010PropOp43
 70
     1
102
RTVSPost2010Prop44ColorIndex
 90
        5
102
RTVSPost2010Prop44ColorRGB
 90
      255
102
RTVSPost2010PropOp44
 70
     1
102
RTVSPost2010Prop45
280
     0
102
RTVSPost2010PropOp45
 70
     1
102
RTVSPost2010Prop46
 90
       50
102
RTVSPost2010PropOp46
 70
     1
102
RTVSPost2010Prop47
 90
       50
102
RTVSPost2010PropOp47
 70
     1
102
RTVSPost2010Prop48
 90
       50
102
RTVSPost2010PropOp48
 70
     1
102
RTVSPost2010Prop49
280
     0
102
RTVSPost2010PropOp49
 70
     1
102
RTVSPost2010Prop50
 90
       50
102
RTVSPost2010PropOp50
 70
     1
102
RTVSPost2010Prop51ColorIndex
 90
      256
102
RTVSPost2010Prop51ColorRGB
 90
-16777216
102
RTVSPost2010PropOp51
 70
     0
102
RTVSPost2010Prop52
140
1.0
102
RTVSPost2010PropOp52
 70
     0
102
RTVSPost2010Prop53
 90
        2
102
RTVSPost2010PropOp53
 70
     1
102
RTVSPost2010Prop54
  1
strokes_ogs.tif
102
RTVSPost2010PropOp54
 70
     1
102
RTVSPost2010Prop55
280
     0
102
RTVSPost2010PropOp55
 70
     1
102
RTVSPost2010Prop56
140
1.0
102
RTVSPost2010PropOp56
 70
     1
102
RTVSPost2010Prop57
140
1.0
102
RTVSPost2010PropOp57
 70
     1
102
RTVSPropertyOp0
 70
     1
102
RTVSPropertyOp1
 70
     1
102
RTVSPropertyOp2
 70
     1
102
RTVSPropertyOp3
 70
     1
102
RTVSPropertyOp4
 70
     1
102
RTVSPropertyOp5
 70
     1
102
RTVSPropertyOp6
 70
     1
102
RTVSPropertyOp7
 70
     1
102
RTVSPropertyOp8
 70
     1
102
RTVSPropertyOp9
 70
     1
102
RTVSPropertyOp10
 70
     1
102
RTVSPropertyOp11
 70
     1
102
RTVSPropertyOp12
 70
     1
102
RTVSPropertyOp13
 70
     1
102
RTVSPropertyOp14
 70
     1
102
RTVSPropertyOp15
 70
     1
102
RTVSPropertyOp16
 70
     1
102
RTVSPropertyOp17
 70
     1
102
RTVSPropertyOp18
 70
     1
102
RTVSPropertyOp19
 70
     1
102
RTVSPropertyOp20
 70
     1
102
RTVSPropertyOp21
 70
     1
102
RTVSPropertyOp22
 70
     1
102
RTVSPropertyOp23
 70
     1
102
RTVSPropertyOp24
 70
     1
102
RTVSPropertyOp25
 70
     1
102
RTVSPropertyOp26
 70
     1
102
RTVSPropertyOp27
 70
     1
102
RTVSPropertyOp28
 70
     1
102
RTVSPropertyOp29
 70
     1
102
RTVSPropertyOp30
 70
     1
102
RTVSPropertyOp31
 70
     1
102
RTVSPropertyOp32
 70
     1
102
RTVSPropertyOp33
 70
     1
102
RTVSPropertyOp34
 70
     1
102
RTVSPropertyOp35
 70
     1
102
RTVSPropertyOp36
 70
     1
102
RTVSPropertyOp37
 70
     1
102
RTVSPropertyOp38
 70
     1
102
RTVSPropertyOp39
 70
     1
102
RTVSPropertyOp40
 70
     1
102
RTVSPropertyOp41
 70
     1
102
RTVSPropertyOp42
 70
     1
102
RTVSPropertyOp43
 70
     1
102
RTVSPropertyOp44
 70
     1
102
RTVSPropertyOp45
 70
     1
102
RTVSPropertyOp46
 70
     1
102
RTVSPropertyOp47
 70
     1
102
RTVSPropertyOp48
 70
     1
102
RTVSPropertyOp49
 70
     1
102
RTVSPropertyOp50
 70
     1
102
RTVSPropertyOp51
 70
     0
102
RTVSPropertyOp52
 70
     0
102
RTVSPropertyOp53
 70
     1
102
RTVSPropertyOp54
 70
     1
102
RTVSPropertyOp55
 70
     1
102
RTVSPropertyOp56
 70
     1
102
RTVSPropertyOp57
 70
     1
102
RTVSPropertyOp58
 70
     1
102
RTVSPropertyOp59
 70
     1
102
RTVSPropertyOp60
 70
     1
102
RTVSPropertyOp61
 70
     1
102
RTVSPropertyOp62
 70
     1
  0
XRECORD
  5
9C59
102
{ACAD_REACTORS
330
9C58
102
}
330
9C58
100
AcDbXrecord
280
     1
102
RTVSPost2010Prop28
280
     0
102
RTVSPost2010PropOp28
 70
     1
102
RTVSPost2010Prop29
280
     1
102
RTVSPost2010PropOp29
 70
     1
102
RTVSPost2010Prop30
280
     1
102
RTVSPost2010PropOp30
 70
     1
102
RTVSPost2010Prop31
280
     0
102
RTVSPost2010PropOp31
 70
     1
102
RTVSPost2010Prop32
280
     0
102
RTVSPost2010PropOp32
 70
     1
102
RTVSPost2010Prop33
280
     0
102
RTVSPost2010PropOp33
 70
     1
102
RTVSPost2010Prop34
280
     0
102
RTVSPost2010PropOp34
 70
     1
102
RTVSPost2010Prop35
280
     0
102
RTVSPost2010PropOp35
 70
     1
102
RTVSPost2010Prop36
280
     0
102
RTVSPost2010PropOp36
 70
     1
102
RTVSPost2010Prop37
 90
       50
102
RTVSPost2010PropOp37
 70
     1
102
RTVSPost2010Prop38
140
0.0
102
RTVSPost2010PropOp38
 70
     1
102
RTVSPost2010Prop39
140
1.0
102
RTVSPost2010PropOp39
 70
     1
102
RTVSPost2010Prop40
 90
        0
102
RTVSPost2010PropOp40
 70
     1
102
RTVSPost2010Prop41ColorIndex
 90
       18
102
RTVSPost2010Prop41ColorRGB
 90
        0
102
RTVSPost2010PropOp41
 70
     1
102
RTVSPost2010Prop42
 90
       50
102
RTVSPost2010PropOp42
 70
     1
102
RTVSPost2010Prop43
 90
        3
102
RTVSPost2010PropOp43
 70
     1
102
RTVSPost2010Prop44ColorIndex
 90
        5
102
RTVSPost2010Prop44ColorRGB
 90
      255
102
RTVSPost2010PropOp44
 70
     1
102
RTVSPost2010Prop45
280
     0
102
RTVSPost2010PropOp45
 70
     1
102
RTVSPost2010Prop46
 90
       50
102
RTVSPost2010PropOp46
 70
     1
102
RTVSPost2010Prop47
 90
       50
102
RTVSPost2010PropOp47
 70
     1
102
RTVSPost2010Prop48
 90
       50
102
RTVSPost2010PropOp48
 70
     1
102
RTVSPost2010Prop49
280
     0
102
RTVSPost2010PropOp49
 70
     1
102
RTVSPost2010Prop50
 90
       50
102
RTVSPost2010PropOp50
 70
     1
102
RTVSPost2010Prop51ColorIndex
 90
      256
102
RTVSPost2010Prop51ColorRGB
 90
-16777216
102
RTVSPost2010PropOp51
 70
     0
102
RTVSPost2010Prop52
140
1.0
102
RTVSPost2010PropOp52
 70
     0
102
RTVSPost2010Prop53
 90
        2
102
RTVSPost2010PropOp53
 70
     1
102
RTVSPost2010Prop54
  1
strokes_ogs.tif
102
RTVSPost2010PropOp54
 70
     1
102
RTVSPost2010Prop55
280
     0
102
RTVSPost2010PropOp55
 70
     1
102
RTVSPost2010Prop56
140
1.0
102
RTVSPost2010PropOp56
 70
     1
102
RTVSPost2010Prop57
140
1.0
102
RTVSPost2010PropOp57
 70
     1
102
RTVSPropertyOp0
 70
     1
102
RTVSPropertyOp1
 70
     1
102
RTVSPropertyOp2
 70
     1
102
RTVSPropertyOp3
 70
     1
102
RTVSPropertyOp4
 70
     1
102
RTVSPropertyOp5
 70
     1
102
RTVSPropertyOp6
 70
     1
102
RTVSPropertyOp7
 70
     1
102
RTVSPropertyOp8
 70
     1
102
RTVSPropertyOp9
 70
     1
102
RTVSPropertyOp10
 70
     1
102
RTVSPropertyOp11
 70
     1
102
RTVSPropertyOp12
 70
     1
102
RTVSPropertyOp13
 70
     1
102
RTVSPropertyOp14
 70
     1
102
RTVSPropertyOp15
 70
     1
102
RTVSPropertyOp16
 70
     1
102
RTVSPropertyOp17
 70
     1
102
RTVSPropertyOp18
 70
     1
102
RTVSPropertyOp19
 70
     1
102
RTVSPropertyOp20
 70
     1
102
RTVSPropertyOp21
 70
     1
102
RTVSPropertyOp22
 70
     1
102
RTVSPropertyOp23
 70
     1
102
RTVSPropertyOp24
 70
     1
102
RTVSPropertyOp25
 70
     1
102
RTVSPropertyOp26
 70
     1
102
RTVSPropertyOp27
 70
     1
102
RTVSPropertyOp28
 70
     1
102
RTVSPropertyOp29
 70
     1
102
RTVSPropertyOp30
 70
     1
102
RTVSPropertyOp31
 70
     1
102
RTVSPropertyOp32
 70
     1
102
RTVSPropertyOp33
 70
     1
102
RTVSPropertyOp34
 70
     1
102
RTVSPropertyOp35
 70
     1
102
RTVSPropertyOp36
 70
     1
102
RTVSPropertyOp37
 70
     1
102
RTVSPropertyOp38
 70
     1
102
RTVSPropertyOp39
 70
     1
102
RTVSPropertyOp40
 70
     1
102
RTVSPropertyOp41
 70
     1
102
RTVSPropertyOp42
 70
     1
102
RTVSPropertyOp43
 70
     1
102
RTVSPropertyOp44
 70
     1
102
RTVSPropertyOp45
 70
     1
102
RTVSPropertyOp46
 70
     1
102
RTVSPropertyOp47
 70
     1
102
RTVSPropertyOp48
 70
     1
102
RTVSPropertyOp49
 70
     1
102
RTVSPropertyOp50
 70
     1
102
RTVSPropertyOp51
 70
     0
102
RTVSPropertyOp52
 70
     0
102
RTVSPropertyOp53
 70
     1
102
RTVSPropertyOp54
 70
     1
102
RTVSPropertyOp55
 70
     1
102
RTVSPropertyOp56
 70
     1
102
RTVSPropertyOp57
 70
     1
102
RTVSPropertyOp58
 70
     1
102
RTVSPropertyOp59
 70
     1
102
RTVSPropertyOp60
 70
     1
102
RTVSPropertyOp61
 70
     1
102
RTVSPropertyOp62
 70
     1
  0
XRECORD
  5
9C4B
102
{ACAD_REACTORS
330
9C4A
102
}
330
9C4A
100
AcDbXrecord
280
     1
102
RTVSPost2010Prop28
280
     0
102
RTVSPost2010PropOp28
 70
     1
102
RTVSPost2010Prop29
280
     1
102
RTVSPost2010PropOp29
 70
     1
102
RTVSPost2010Prop30
280
     1
102
RTVSPost2010PropOp30
 70
     1
102
RTVSPost2010Prop31
280
     0
102
RTVSPost2010PropOp31
 70
     1
102
RTVSPost2010Prop32
280
     0
102
RTVSPost2010PropOp32
 70
     1
102
RTVSPost2010Prop33
280
     0
102
RTVSPost2010PropOp33
 70
     1
102
RTVSPost2010Prop34
280
     0
102
RTVSPost2010PropOp34
 70
     1
102
RTVSPost2010Prop35
280
     0
102
RTVSPost2010PropOp35
 70
     1
102
RTVSPost2010Prop36
280
     0
102
RTVSPost2010PropOp36
 70
     1
102
RTVSPost2010Prop37
 90
       50
102
RTVSPost2010PropOp37
 70
     1
102
RTVSPost2010Prop38
140
0.0
102
RTVSPost2010PropOp38
 70
     1
102
RTVSPost2010Prop39
140
1.0
102
RTVSPost2010PropOp39
 70
     1
102
RTVSPost2010Prop40
 90
        0
102
RTVSPost2010PropOp40
 70
     1
102
RTVSPost2010Prop41ColorIndex
 90
       18
102
RTVSPost2010Prop41ColorRGB
 90
        0
102
RTVSPost2010PropOp41
 70
     1
102
RTVSPost2010Prop42
 90
       50
102
RTVSPost2010PropOp42
 70
     1
102
RTVSPost2010Prop43
 90
        3
102
RTVSPost2010PropOp43
 70
     1
102
RTVSPost2010Prop44ColorIndex
 90
        5
102
RTVSPost2010Prop44ColorRGB
 90
      255
102
RTVSPost2010PropOp44
 70
     1
102
RTVSPost2010Prop45
280
     0
102
RTVSPost2010PropOp45
 70
     1
102
RTVSPost2010Prop46
 90
       50
102
RTVSPost2010PropOp46
 70
     1
102
RTVSPost2010Prop47
 90
       50
102
RTVSPost2010PropOp47
 70
     1
102
RTVSPost2010Prop48
 90
       50
102
RTVSPost2010PropOp48
 70
     1
102
RTVSPost2010Prop49
280
     0
102
RTVSPost2010PropOp49
 70
     1
102
RTVSPost2010Prop50
 90
       50
102
RTVSPost2010PropOp50
 70
     1
102
RTVSPost2010Prop51ColorIndex
 90
      256
102
RTVSPost2010Prop51ColorRGB
 90
-16777216
102
RTVSPost2010PropOp51
 70
     0
102
RTVSPost2010Prop52
140
1.0
102
RTVSPost2010PropOp52
 70
     0
102
RTVSPost2010Prop53
 90
        2
102
RTVSPost2010PropOp53
 70
     1
102
RTVSPost2010Prop54
  1
strokes_ogs.tif
102
RTVSPost2010PropOp54
 70
     1
102
RTVSPost2010Prop55
280
     0
102
RTVSPost2010PropOp55
 70
     1
102
RTVSPost2010Prop56
140
1.0
102
RTVSPost2010PropOp56
 70
     1
102
RTVSPost2010Prop57
140
1.0
102
RTVSPost2010PropOp57
 70
     1
102
RTVSPropertyOp0
 70
     1
102
RTVSPropertyOp1
 70
     1
102
RTVSPropertyOp2
 70
     1
102
RTVSPropertyOp3
 70
     1
102
RTVSPropertyOp4
 70
     1
102
RTVSPropertyOp5
 70
     1
102
RTVSPropertyOp6
 70
     1
102
RTVSPropertyOp7
 70
     1
102
RTVSPropertyOp8
 70
     1
102
RTVSPropertyOp9
 70
     1
102
RTVSPropertyOp10
 70
     1
102
RTVSPropertyOp11
 70
     1
102
RTVSPropertyOp12
 70
     1
102
RTVSPropertyOp13
 70
     1
102
RTVSPropertyOp14
 70
     1
102
RTVSPropertyOp15
 70
     1
102
RTVSPropertyOp16
 70
     1
102
RTVSPropertyOp17
 70
     1
102
RTVSPropertyOp18
 70
     1
102
RTVSPropertyOp19
 70
     1
102
RTVSPropertyOp20
 70
     1
102
RTVSPropertyOp21
 70
     1
102
RTVSPropertyOp22
 70
     1
102
RTVSPropertyOp23
 70
     1
102
RTVSPropertyOp24
 70
     1
102
RTVSPropertyOp25
 70
     1
102
RTVSPropertyOp26
 70
     1
102
RTVSPropertyOp27
 70
     1
102
RTVSPropertyOp28
 70
     1
102
RTVSPropertyOp29
 70
     1
102
RTVSPropertyOp30
 70
     1
102
RTVSPropertyOp31
 70
     1
102
RTVSPropertyOp32
 70
     1
102
RTVSPropertyOp33
 70
     1
102
RTVSPropertyOp34
 70
     1
102
RTVSPropertyOp35
 70
     1
102
RTVSPropertyOp36
 70
     1
102
RTVSPropertyOp37
 70
     1
102
RTVSPropertyOp38
 70
     1
102
RTVSPropertyOp39
 70
     1
102
RTVSPropertyOp40
 70
     1
102
RTVSPropertyOp41
 70
     1
102
RTVSPropertyOp42
 70
     1
102
RTVSPropertyOp43
 70
     1
102
RTVSPropertyOp44
 70
     1
102
RTVSPropertyOp45
 70
     1
102
RTVSPropertyOp46
 70
     1
102
RTVSPropertyOp47
 70
     1
102
RTVSPropertyOp48
 70
     1
102
RTVSPropertyOp49
 70
     1
102
RTVSPropertyOp50
 70
     1
102
RTVSPropertyOp51
 70
     0
102
RTVSPropertyOp52
 70
     0
102
RTVSPropertyOp53
 70
     1
102
RTVSPropertyOp54
 70
     1
102
RTVSPropertyOp55
 70
     1
102
RTVSPropertyOp56
 70
     1
102
RTVSPropertyOp57
 70
     1
102
RTVSPropertyOp58
 70
     1
102
RTVSPropertyOp59
 70
     1
102
RTVSPropertyOp60
 70
     1
102
RTVSPropertyOp61
 70
     1
102
RTVSPropertyOp62
 70
     1
  0
XRECORD
  5
9C4F
102
{ACAD_REACTORS
330
9C4E
102
}
330
9C4E
100
AcDbXrecord
280
     1
102
RTVSPost2010Prop28
280
     0
102
RTVSPost2010PropOp28
 70
     1
102
RTVSPost2010Prop29
280
     1
102
RTVSPost2010PropOp29
 70
     1
102
RTVSPost2010Prop30
280
     1
102
RTVSPost2010PropOp30
 70
     1
102
RTVSPost2010Prop31
280
     0
102
RTVSPost2010PropOp31
 70
     1
102
RTVSPost2010Prop32
280
     0
102
RTVSPost2010PropOp32
 70
     1
102
RTVSPost2010Prop33
280
     0
102
RTVSPost2010PropOp33
 70
     1
102
RTVSPost2010Prop34
280
     0
102
RTVSPost2010PropOp34
 70
     1
102
RTVSPost2010Prop35
280
     0
102
RTVSPost2010PropOp35
 70
     1
102
RTVSPost2010Prop36
280
     0
102
RTVSPost2010PropOp36
 70
     1
102
RTVSPost2010Prop37
 90
       50
102
RTVSPost2010PropOp37
 70
     1
102
RTVSPost2010Prop38
140
0.0
102
RTVSPost2010PropOp38
 70
     1
102
RTVSPost2010Prop39
140
1.0
102
RTVSPost2010PropOp39
 70
     1
102
RTVSPost2010Prop40
 90
        0
102
RTVSPost2010PropOp40
 70
     1
102
RTVSPost2010Prop41ColorIndex
 90
       18
102
RTVSPost2010Prop41ColorRGB
 90
        0
102
RTVSPost2010PropOp41
 70
     1
102
RTVSPost2010Prop42
 90
       50
102
RTVSPost2010PropOp42
 70
     1
102
RTVSPost2010Prop43
 90
        3
102
RTVSPost2010PropOp43
 70
     1
102
RTVSPost2010Prop44ColorIndex
 90
        5
102
RTVSPost2010Prop44ColorRGB
 90
      255
102
RTVSPost2010PropOp44
 70
     1
102
RTVSPost2010Prop45
280
     0
102
RTVSPost2010PropOp45
 70
     1
102
RTVSPost2010Prop46
 90
       50
102
RTVSPost2010PropOp46
 70
     1
102
RTVSPost2010Prop47
 90
       50
102
RTVSPost2010PropOp47
 70
     1
102
RTVSPost2010Prop48
 90
       50
102
RTVSPost2010PropOp48
 70
     1
102
RTVSPost2010Prop49
280
     0
102
RTVSPost2010PropOp49
 70
     1
102
RTVSPost2010Prop50
 90
       50
102
RTVSPost2010PropOp50
 70
     1
102
RTVSPost2010Prop51ColorIndex
 90
      256
102
RTVSPost2010Prop51ColorRGB
 90
-16777216
102
RTVSPost2010PropOp51
 70
     0
102
RTVSPost2010Prop52
140
1.0
102
RTVSPost2010PropOp52
 70
     0
102
RTVSPost2010Prop53
 90
        2
102
RTVSPost2010PropOp53
 70
     1
102
RTVSPost2010Prop54
  1
strokes_ogs.tif
102
RTVSPost2010PropOp54
 70
     1
102
RTVSPost2010Prop55
280
     0
102
RTVSPost2010PropOp55
 70
     1
102
RTVSPost2010Prop56
140
1.0
102
RTVSPost2010PropOp56
 70
     1
102
RTVSPost2010Prop57
140
1.0
102
RTVSPost2010PropOp57
 70
     1
102
RTVSPropertyOp0
 70
     1
102
RTVSPropertyOp1
 70
     1
102
RTVSPropertyOp2
 70
     1
102
RTVSPropertyOp3
 70
     1
102
RTVSPropertyOp4
 70
     1
102
RTVSPropertyOp5
 70
     1
102
RTVSPropertyOp6
 70
     1
102
RTVSPropertyOp7
 70
     1
102
RTVSPropertyOp8
 70
     1
102
RTVSPropertyOp9
 70
     1
102
RTVSPropertyOp10
 70
     1
102
RTVSPropertyOp11
 70
     1
102
RTVSPropertyOp12
 70
     1
102
RTVSPropertyOp13
 70
     1
102
RTVSPropertyOp14
 70
     1
102
RTVSPropertyOp15
 70
     1
102
RTVSPropertyOp16
 70
     1
102
RTVSPropertyOp17
 70
     1
102
RTVSPropertyOp18
 70
     1
102
RTVSPropertyOp19
 70
     1
102
RTVSPropertyOp20
 70
     1
102
RTVSPropertyOp21
 70
     1
102
RTVSPropertyOp22
 70
     1
102
RTVSPropertyOp23
 70
     1
102
RTVSPropertyOp24
 70
     1
102
RTVSPropertyOp25
 70
     1
102
RTVSPropertyOp26
 70
     1
102
RTVSPropertyOp27
 70
     1
102
RTVSPropertyOp28
 70
     1
102
RTVSPropertyOp29
 70
     1
102
RTVSPropertyOp30
 70
     1
102
RTVSPropertyOp31
 70
     1
102
RTVSPropertyOp32
 70
     1
102
RTVSPropertyOp33
 70
     1
102
RTVSPropertyOp34
 70
     1
102
RTVSPropertyOp35
 70
     1
102
RTVSPropertyOp36
 70
     1
102
RTVSPropertyOp37
 70
     1
102
RTVSPropertyOp38
 70
     1
102
RTVSPropertyOp39
 70
     1
102
RTVSPropertyOp40
 70
     1
102
RTVSPropertyOp41
 70
     1
102
RTVSPropertyOp42
 70
     1
102
RTVSPropertyOp43
 70
     1
102
RTVSPropertyOp44
 70
     1
102
RTVSPropertyOp45
 70
     1
102
RTVSPropertyOp46
 70
     1
102
RTVSPropertyOp47
 70
     1
102
RTVSPropertyOp48
 70
     1
102
RTVSPropertyOp49
 70
     1
102
RTVSPropertyOp50
 70
     1
102
RTVSPropertyOp51
 70
     0
102
RTVSPropertyOp52
 70
     0
102
RTVSPropertyOp53
 70
     1
102
RTVSPropertyOp54
 70
     1
102
RTVSPropertyOp55
 70
     1
102
RTVSPropertyOp56
 70
     1
102
RTVSPropertyOp57
 70
     1
102
RTVSPropertyOp58
 70
     1
102
RTVSPropertyOp59
 70
     1
102
RTVSPropertyOp60
 70
     1
102
RTVSPropertyOp61
 70
     1
102
RTVSPropertyOp62
 70
     1
  0
XRECORD
  5
9C69
102
{ACAD_REACTORS
330
9C68
102
}
330
9C68
100
AcDbXrecord
280
     1
102
RTVSPost2010Prop28
280
     0
102
RTVSPost2010PropOp28
 70
     1
102
RTVSPost2010Prop29
280
     1
102
RTVSPost2010PropOp29
 70
     1
102
RTVSPost2010Prop30
280
     1
102
RTVSPost2010PropOp30
 70
     1
102
RTVSPost2010Prop31
280
     0
102
RTVSPost2010PropOp31
 70
     1
102
RTVSPost2010Prop32
280
     0
102
RTVSPost2010PropOp32
 70
     1
102
RTVSPost2010Prop33
280
     0
102
RTVSPost2010PropOp33
 70
     1
102
RTVSPost2010Prop34
280
     0
102
RTVSPost2010PropOp34
 70
     1
102
RTVSPost2010Prop35
280
     0
102
RTVSPost2010PropOp35
 70
     1
102
RTVSPost2010Prop36
280
     0
102
RTVSPost2010PropOp36
 70
     1
102
RTVSPost2010Prop37
 90
       50
102
RTVSPost2010PropOp37
 70
     0
102
RTVSPost2010Prop38
140
0.0
102
RTVSPost2010PropOp38
 70
     0
102
RTVSPost2010Prop39
140
1.0
102
RTVSPost2010PropOp39
 70
     0
102
RTVSPost2010Prop40
 90
        0
102
RTVSPost2010PropOp40
 70
     0
102
RTVSPost2010Prop41ColorIndex
 90
       18
102
RTVSPost2010Prop41ColorRGB
 90
        0
102
RTVSPost2010PropOp41
 70
     0
102
RTVSPost2010Prop42
 90
       50
102
RTVSPost2010PropOp42
 70
     0
102
RTVSPost2010Prop43
 90
        3
102
RTVSPost2010PropOp43
 70
     0
102
RTVSPost2010Prop44ColorIndex
 90
        5
102
RTVSPost2010Prop44ColorRGB
 90
      255
102
RTVSPost2010PropOp44
 70
     0
102
RTVSPost2010Prop45
280
     0
102
RTVSPost2010PropOp45
 70
     1
102
RTVSPost2010Prop46
 90
       50
102
RTVSPost2010PropOp46
 70
     0
102
RTVSPost2010Prop47
 90
       50
102
RTVSPost2010PropOp47
 70
     0
102
RTVSPost2010Prop48
 90
       50
102
RTVSPost2010PropOp48
 70
     0
102
RTVSPost2010Prop49
280
     0
102
RTVSPost2010PropOp49
 70
     1
102
RTVSPost2010Prop50
 90
       50
102
RTVSPost2010PropOp50
 70
     0
102
RTVSPost2010Prop51ColorIndex
 90
      256
102
RTVSPost2010Prop51ColorRGB
 90
-16777216
102
RTVSPost2010PropOp51
 70
     0
102
RTVSPost2010Prop52
140
1.0
102
RTVSPost2010PropOp52
 70
     0
102
RTVSPost2010Prop53
 90
        2
102
RTVSPost2010PropOp53
 70
     0
102
RTVSPost2010Prop54
  1
strokes_ogs.tif
102
RTVSPost2010PropOp54
 70
     0
102
RTVSPost2010Prop55
280
     0
102
RTVSPost2010PropOp55
 70
     1
102
RTVSPost2010Prop56
140
1.0
102
RTVSPost2010PropOp56
 70
     0
102
RTVSPost2010Prop57
140
1.0
102
RTVSPost2010PropOp57
 70
     0
102
RTVSPropertyOp0
 70
     0
102
RTVSPropertyOp1
 70
     0
102
RTVSPropertyOp2
 70
     0
102
RTVSPropertyOp3
 70
     0
102
RTVSPropertyOp4
 70
     0
102
RTVSPropertyOp5
 70
     0
102
RTVSPropertyOp6
 70
     0
102
RTVSPropertyOp7
 70
     0
102
RTVSPropertyOp8
 70
     0
102
RTVSPropertyOp9
 70
     0
102
RTVSPropertyOp10
 70
     0
102
RTVSPropertyOp11
 70
     0
102
RTVSPropertyOp12
 70
     0
102
RTVSPropertyOp13
 70
     0
102
RTVSPropertyOp14
 70
     2
102
RTVSPropertyOp15
 70
     0
102
RTVSPropertyOp16
 70
     0
102
RTVSPropertyOp17
 70
     0
102
RTVSPropertyOp18
 70
     0
102
RTVSPropertyOp19
 70
     0
102
RTVSPropertyOp20
 70
     0
102
RTVSPropertyOp21
 70
     0
102
RTVSPropertyOp22
 70
     0
102
RTVSPropertyOp23
 70
     0
102
RTVSPropertyOp24
 70
     0
102
RTVSPropertyOp25
 70
     0
102
RTVSPropertyOp26
 70
     0
102
RTVSPropertyOp27
 70
     0
102
RTVSPropertyOp28
 70
     1
102
RTVSPropertyOp29
 70
     1
102
RTVSPropertyOp30
 70
     1
102
RTVSPropertyOp31
 70
     1
102
RTVSPropertyOp32
 70
     1
102
RTVSPropertyOp33
 70
     1
102
RTVSPropertyOp34
 70
     1
102
RTVSPropertyOp35
 70
     1
102
RTVSPropertyOp36
 70
     1
102
RTVSPropertyOp37
 70
     0
102
RTVSPropertyOp38
 70
     0
102
RTVSPropertyOp39
 70
     0
102
RTVSPropertyOp40
 70
     0
102
RTVSPropertyOp41
 70
     0
102
RTVSPropertyOp42
 70
     0
102
RTVSPropertyOp43
 70
     0
102
RTVSPropertyOp44
 70
     0
102
RTVSPropertyOp45
 70
     1
102
RTVSPropertyOp46
 70
     0
102
RTVSPropertyOp47
 70
     0
102
RTVSPropertyOp48
 70
     0
102
RTVSPropertyOp49
 70
     1
102
RTVSPropertyOp50
 70
     0
102
RTVSPropertyOp51
 70
     0
102
RTVSPropertyOp52
 70
     0
102
RTVSPropertyOp53
 70
     0
102
RTVSPropertyOp54
 70
     0
102
RTVSPropertyOp55
 70
     1
102
RTVSPropertyOp56
 70
     0
102
RTVSPropertyOp57
 70
     0
102
RTVSPropertyOp58
 70
     0
102
RTVSPropertyOp59
 70
     0
102
RTVSPropertyOp60
 70
     0
102
RTVSPropertyOp61
 70
     0
102
RTVSPropertyOp62
 70
     0
  0
XRECORD
  5
9C57
102
{ACAD_REACTORS
330
9C56
102
}
330
9C56
100
AcDbXrecord
280
     1
102
RTVSPost2010Prop28
280
     0
102
RTVSPost2010PropOp28
 70
     1
102
RTVSPost2010Prop29
280
     1
102
RTVSPost2010PropOp29
 70
     1
102
RTVSPost2010Prop30
280
     1
102
RTVSPost2010PropOp30
 70
     1
102
RTVSPost2010Prop31
280
     0
102
RTVSPost2010PropOp31
 70
     1
102
RTVSPost2010Prop32
280
     0
102
RTVSPost2010PropOp32
 70
     1
102
RTVSPost2010Prop33
280
     0
102
RTVSPost2010PropOp33
 70
     1
102
RTVSPost2010Prop34
280
     0
102
RTVSPost2010PropOp34
 70
     1
102
RTVSPost2010Prop35
280
     0
102
RTVSPost2010PropOp35
 70
     1
102
RTVSPost2010Prop36
280
     0
102
RTVSPost2010PropOp36
 70
     1
102
RTVSPost2010Prop37
 90
       50
102
RTVSPost2010PropOp37
 70
     1
102
RTVSPost2010Prop38
140
0.0
102
RTVSPost2010PropOp38
 70
     1
102
RTVSPost2010Prop39
140
1.0
102
RTVSPost2010PropOp39
 70
     1
102
RTVSPost2010Prop40
 90
        0
102
RTVSPost2010PropOp40
 70
     1
102
RTVSPost2010Prop41ColorIndex
 90
       18
102
RTVSPost2010Prop41ColorRGB
 90
        0
102
RTVSPost2010PropOp41
 70
     1
102
RTVSPost2010Prop42
 90
       50
102
RTVSPost2010PropOp42
 70
     1
102
RTVSPost2010Prop43
 90
        3
102
RTVSPost2010PropOp43
 70
     1
102
RTVSPost2010Prop44ColorIndex
 90
        5
102
RTVSPost2010Prop44ColorRGB
 90
      255
102
RTVSPost2010PropOp44
 70
     1
102
RTVSPost2010Prop45
280
     0
102
RTVSPost2010PropOp45
 70
     1
102
RTVSPost2010Prop46
 90
       50
102
RTVSPost2010PropOp46
 70
     1
102
RTVSPost2010Prop47
 90
       50
102
RTVSPost2010PropOp47
 70
     1
102
RTVSPost2010Prop48
 90
       50
102
RTVSPost2010PropOp48
 70
     1
102
RTVSPost2010Prop49
280
     0
102
RTVSPost2010PropOp49
 70
     1
102
RTVSPost2010Prop50
 90
       50
102
RTVSPost2010PropOp50
 70
     1
102
RTVSPost2010Prop51ColorIndex
 90
      256
102
RTVSPost2010Prop51ColorRGB
 90
-16777216
102
RTVSPost2010PropOp51
 70
     0
102
RTVSPost2010Prop52
140
1.0
102
RTVSPost2010PropOp52
 70
     0
102
RTVSPost2010Prop53
 90
        2
102
RTVSPost2010PropOp53
 70
     1
102
RTVSPost2010Prop54
  1
strokes_ogs.tif
102
RTVSPost2010PropOp54
 70
     1
102
RTVSPost2010Prop55
280
     0
102
RTVSPost2010PropOp55
 70
     1
102
RTVSPost2010Prop56
140
1.0
102
RTVSPost2010PropOp56
 70
     1
102
RTVSPost2010Prop57
140
1.0
102
RTVSPost2010PropOp57
 70
     1
102
RTVSPropertyOp0
 70
     1
102
RTVSPropertyOp1
 70
     1
102
RTVSPropertyOp2
 70
     1
102
RTVSPropertyOp3
 70
     1
102
RTVSPropertyOp4
 70
     1
102
RTVSPropertyOp5
 70
     1
102
RTVSPropertyOp6
 70
     1
102
RTVSPropertyOp7
 70
     1
102
RTVSPropertyOp8
 70
     1
102
RTVSPropertyOp9
 70
     1
102
RTVSPropertyOp10
 70
     1
102
RTVSPropertyOp11
 70
     1
102
RTVSPropertyOp12
 70
     1
102
RTVSPropertyOp13
 70
     1
102
RTVSPropertyOp14
 70
     1
102
RTVSPropertyOp15
 70
     1
102
RTVSPropertyOp16
 70
     1
102
RTVSPropertyOp17
 70
     1
102
RTVSPropertyOp18
 70
     1
102
RTVSPropertyOp19
 70
     1
102
RTVSPropertyOp20
 70
     1
102
RTVSPropertyOp21
 70
     1
102
RTVSPropertyOp22
 70
     1
102
RTVSPropertyOp23
 70
     1
102
RTVSPropertyOp24
 70
     1
102
RTVSPropertyOp25
 70
     1
102
RTVSPropertyOp26
 70
     1
102
RTVSPropertyOp27
 70
     1
102
RTVSPropertyOp28
 70
     1
102
RTVSPropertyOp29
 70
     1
102
RTVSPropertyOp30
 70
     1
102
RTVSPropertyOp31
 70
     1
102
RTVSPropertyOp32
 70
     1
102
RTVSPropertyOp33
 70
     1
102
RTVSPropertyOp34
 70
     1
102
RTVSPropertyOp35
 70
     1
102
RTVSPropertyOp36
 70
     1
102
RTVSPropertyOp37
 70
     1
102
RTVSPropertyOp38
 70
     1
102
RTVSPropertyOp39
 70
     1
102
RTVSPropertyOp40
 70
     1
102
RTVSPropertyOp41
 70
     1
102
RTVSPropertyOp42
 70
     1
102
RTVSPropertyOp43
 70
     1
102
RTVSPropertyOp44
 70
     1
102
RTVSPropertyOp45
 70
     1
102
RTVSPropertyOp46
 70
     1
102
RTVSPropertyOp47
 70
     1
102
RTVSPropertyOp48
 70
     1
102
RTVSPropertyOp49
 70
     1
102
RTVSPropertyOp50
 70
     1
102
RTVSPropertyOp51
 70
     0
102
RTVSPropertyOp52
 70
     0
102
RTVSPropertyOp53
 70
     1
102
RTVSPropertyOp54
 70
     1
102
RTVSPropertyOp55
 70
     1
102
RTVSPropertyOp56
 70
     1
102
RTVSPropertyOp57
 70
     1
102
RTVSPropertyOp58
 70
     1
102
RTVSPropertyOp59
 70
     1
102
RTVSPropertyOp60
 70
     1
102
RTVSPropertyOp61
 70
     1
102
RTVSPropertyOp62
 70
     1
  0
XRECORD
  5
9C3B
102
{ACAD_REACTORS
330
9C3A
102
}
330
9C3A
100
AcDbXrecord
280
     1
102
RTVSPost2010Prop28
280
     0
102
RTVSPost2010PropOp28
 70
     1
102
RTVSPost2010Prop29
280
     1
102
RTVSPost2010PropOp29
 70
     1
102
RTVSPost2010Prop30
280
     1
102
RTVSPost2010PropOp30
 70
     1
102
RTVSPost2010Prop31
280
     0
102
RTVSPost2010PropOp31
 70
     1
102
RTVSPost2010Prop32
280
     0
102
RTVSPost2010PropOp32
 70
     1
102
RTVSPost2010Prop33
280
     0
102
RTVSPost2010PropOp33
 70
     1
102
RTVSPost2010Prop34
280
     0
102
RTVSPost2010PropOp34
 70
     1
102
RTVSPost2010Prop35
280
     0
102
RTVSPost2010PropOp35
 70
     1
102
RTVSPost2010Prop36
280
     0
102
RTVSPost2010PropOp36
 70
     1
102
RTVSPost2010Prop37
 90
       50
102
RTVSPost2010PropOp37
 70
     1
102
RTVSPost2010Prop38
140
0.0
102
RTVSPost2010PropOp38
 70
     1
102
RTVSPost2010Prop39
140
1.0
102
RTVSPost2010PropOp39
 70
     1
102
RTVSPost2010Prop40
 90
        0
102
RTVSPost2010PropOp40
 70
     1
102
RTVSPost2010Prop41ColorIndex
 90
       18
102
RTVSPost2010Prop41ColorRGB
 90
        0
102
RTVSPost2010PropOp41
 70
     1
102
RTVSPost2010Prop42
 90
       50
102
RTVSPost2010PropOp42
 70
     1
102
RTVSPost2010Prop43
 90
        3
102
RTVSPost2010PropOp43
 70
     1
102
RTVSPost2010Prop44ColorIndex
 90
        5
102
RTVSPost2010Prop44ColorRGB
 90
      255
102
RTVSPost2010PropOp44
 70
     1
102
RTVSPost2010Prop45
280
     0
102
RTVSPost2010PropOp45
 70
     1
102
RTVSPost2010Prop46
 90
       50
102
RTVSPost2010PropOp46
 70
     1
102
RTVSPost2010Prop47
 90
       50
102
RTVSPost2010PropOp47
 70
     1
102
RTVSPost2010Prop48
 90
       50
102
RTVSPost2010PropOp48
 70
     1
102
RTVSPost2010Prop49
280
     0
102
RTVSPost2010PropOp49
 70
     1
102
RTVSPost2010Prop50
 90
       50
102
RTVSPost2010PropOp50
 70
     1
102
RTVSPost2010Prop51ColorIndex
 90
      256
102
RTVSPost2010Prop51ColorRGB
 90
-16777216
102
RTVSPost2010PropOp51
 70
     0
102
RTVSPost2010Prop52
140
1.0
102
RTVSPost2010PropOp52
 70
     0
102
RTVSPost2010Prop53
 90
        2
102
RTVSPost2010PropOp53
 70
     1
102
RTVSPost2010Prop54
  1
strokes_ogs.tif
102
RTVSPost2010PropOp54
 70
     1
102
RTVSPost2010Prop55
280
     0
102
RTVSPost2010PropOp55
 70
     1
102
RTVSPost2010Prop56
140
1.0
102
RTVSPost2010PropOp56
 70
     1
102
RTVSPost2010Prop57
140
1.0
102
RTVSPost2010PropOp57
 70
     1
102
RTVSPropertyOp0
 70
     1
102
RTVSPropertyOp1
 70
     1
102
RTVSPropertyOp2
 70
     1
102
RTVSPropertyOp3
 70
     1
102
RTVSPropertyOp4
 70
     1
102
RTVSPropertyOp5
 70
     1
102
RTVSPropertyOp6
 70
     1
102
RTVSPropertyOp7
 70
     1
102
RTVSPropertyOp8
 70
     1
102
RTVSPropertyOp9
 70
     1
102
RTVSPropertyOp10
 70
     1
102
RTVSPropertyOp11
 70
     1
102
RTVSPropertyOp12
 70
     1
102
RTVSPropertyOp13
 70
     1
102
RTVSPropertyOp14
 70
     1
102
RTVSPropertyOp15
 70
     1
102
RTVSPropertyOp16
 70
     1
102
RTVSPropertyOp17
 70
     1
102
RTVSPropertyOp18
 70
     1
102
RTVSPropertyOp19
 70
     1
102
RTVSPropertyOp20
 70
     1
102
RTVSPropertyOp21
 70
     1
102
RTVSPropertyOp22
 70
     1
102
RTVSPropertyOp23
 70
     1
102
RTVSPropertyOp24
 70
     1
102
RTVSPropertyOp25
 70
     1
102
RTVSPropertyOp26
 70
     1
102
RTVSPropertyOp27
 70
     1
102
RTVSPropertyOp28
 70
     1
102
RTVSPropertyOp29
 70
     1
102
RTVSPropertyOp30
 70
     1
102
RTVSPropertyOp31
 70
     1
102
RTVSPropertyOp32
 70
     1
102
RTVSPropertyOp33
 70
     1
102
RTVSPropertyOp34
 70
     1
102
RTVSPropertyOp35
 70
     1
102
RTVSPropertyOp36
 70
     1
102
RTVSPropertyOp37
 70
     1
102
RTVSPropertyOp38
 70
     1
102
RTVSPropertyOp39
 70
     1
102
RTVSPropertyOp40
 70
     1
102
RTVSPropertyOp41
 70
     1
102
RTVSPropertyOp42
 70
     1
102
RTVSPropertyOp43
 70
     1
102
RTVSPropertyOp44
 70
     1
102
RTVSPropertyOp45
 70
     1
102
RTVSPropertyOp46
 70
     1
102
RTVSPropertyOp47
 70
     1
102
RTVSPropertyOp48
 70
     1
102
RTVSPropertyOp49
 70
     1
102
RTVSPropertyOp50
 70
     1
102
RTVSPropertyOp51
 70
     0
102
RTVSPropertyOp52
 70
     0
102
RTVSPropertyOp53
 70
     1
102
RTVSPropertyOp54
 70
     1
102
RTVSPropertyOp55
 70
     1
102
RTVSPropertyOp56
 70
     1
102
RTVSPropertyOp57
 70
     1
102
RTVSPropertyOp58
 70
     1
102
RTVSPropertyOp59
 70
     1
102
RTVSPropertyOp60
 70
     1
102
RTVSPropertyOp61
 70
     1
102
RTVSPropertyOp62
 70
     1
  0
XRECORD
  5
9C3D
102
{ACAD_REACTORS
330
9C3C
102
}
330
9C3C
100
AcDbXrecord
280
     1
102
RTVSPost2010Prop28
280
     0
102
RTVSPost2010PropOp28
 70
     1
102
RTVSPost2010Prop29
280
     1
102
RTVSPost2010PropOp29
 70
     1
102
RTVSPost2010Prop30
280
     1
102
RTVSPost2010PropOp30
 70
     1
102
RTVSPost2010Prop31
280
     0
102
RTVSPost2010PropOp31
 70
     1
102
RTVSPost2010Prop32
280
     0
102
RTVSPost2010PropOp32
 70
     1
102
RTVSPost2010Prop33
280
     0
102
RTVSPost2010PropOp33
 70
     1
102
RTVSPost2010Prop34
280
     0
102
RTVSPost2010PropOp34
 70
     1
102
RTVSPost2010Prop35
280
     0
102
RTVSPost2010PropOp35
 70
     1
102
RTVSPost2010Prop36
280
     0
102
RTVSPost2010PropOp36
 70
     1
102
RTVSPost2010Prop37
 90
       50
102
RTVSPost2010PropOp37
 70
     1
102
RTVSPost2010Prop38
140
0.0
102
RTVSPost2010PropOp38
 70
     1
102
RTVSPost2010Prop39
140
1.0
102
RTVSPost2010PropOp39
 70
     1
102
RTVSPost2010Prop40
 90
        0
102
RTVSPost2010PropOp40
 70
     1
102
RTVSPost2010Prop41ColorIndex
 90
       18
102
RTVSPost2010Prop41ColorRGB
 90
        0
102
RTVSPost2010PropOp41
 70
     1
102
RTVSPost2010Prop42
 90
       50
102
RTVSPost2010PropOp42
 70
     1
102
RTVSPost2010Prop43
 90
        3
102
RTVSPost2010PropOp43
 70
     1
102
RTVSPost2010Prop44ColorIndex
 90
        5
102
RTVSPost2010Prop44ColorRGB
 90
      255
102
RTVSPost2010PropOp44
 70
     1
102
RTVSPost2010Prop45
280
     0
102
RTVSPost2010PropOp45
 70
     1
102
RTVSPost2010Prop46
 90
       50
102
RTVSPost2010PropOp46
 70
     1
102
RTVSPost2010Prop47
 90
       50
102
RTVSPost2010PropOp47
 70
     1
102
RTVSPost2010Prop48
 90
       50
102
RTVSPost2010PropOp48
 70
     1
102
RTVSPost2010Prop49
280
     0
102
RTVSPost2010PropOp49
 70
     1
102
RTVSPost2010Prop50
 90
       50
102
RTVSPost2010PropOp50
 70
     1
102
RTVSPost2010Prop51ColorIndex
 90
      256
102
RTVSPost2010Prop51ColorRGB
 90
-16777216
102
RTVSPost2010PropOp51
 70
     0
102
RTVSPost2010Prop52
140
1.0
102
RTVSPost2010PropOp52
 70
     0
102
RTVSPost2010Prop53
 90
        2
102
RTVSPost2010PropOp53
 70
     1
102
RTVSPost2010Prop54
  1
strokes_ogs.tif
102
RTVSPost2010PropOp54
 70
     1
102
RTVSPost2010Prop55
280
     0
102
RTVSPost2010PropOp55
 70
     1
102
RTVSPost2010Prop56
140
1.0
102
RTVSPost2010PropOp56
 70
     1
102
RTVSPost2010Prop57
140
1.0
102
RTVSPost2010PropOp57
 70
     1
102
RTVSPropertyOp0
 70
     1
102
RTVSPropertyOp1
 70
     1
102
RTVSPropertyOp2
 70
     1
102
RTVSPropertyOp3
 70
     1
102
RTVSPropertyOp4
 70
     1
102
RTVSPropertyOp5
 70
     1
102
RTVSPropertyOp6
 70
     1
102
RTVSPropertyOp7
 70
     1
102
RTVSPropertyOp8
 70
     1
102
RTVSPropertyOp9
 70
     1
102
RTVSPropertyOp10
 70
     1
102
RTVSPropertyOp11
 70
     1
102
RTVSPropertyOp12
 70
     1
102
RTVSPropertyOp13
 70
     1
102
RTVSPropertyOp14
 70
     1
102
RTVSPropertyOp15
 70
     1
102
RTVSPropertyOp16
 70
     1
102
RTVSPropertyOp17
 70
     1
102
RTVSPropertyOp18
 70
     1
102
RTVSPropertyOp19
 70
     1
102
RTVSPropertyOp20
 70
     1
102
RTVSPropertyOp21
 70
     1
102
RTVSPropertyOp22
 70
     1
102
RTVSPropertyOp23
 70
     1
102
RTVSPropertyOp24
 70
     1
102
RTVSPropertyOp25
 70
     1
102
RTVSPropertyOp26
 70
     1
102
RTVSPropertyOp27
 70
     1
102
RTVSPropertyOp28
 70
     1
102
RTVSPropertyOp29
 70
     1
102
RTVSPropertyOp30
 70
     1
102
RTVSPropertyOp31
 70
     1
102
RTVSPropertyOp32
 70
     1
102
RTVSPropertyOp33
 70
     1
102
RTVSPropertyOp34
 70
     1
102
RTVSPropertyOp35
 70
     1
102
RTVSPropertyOp36
 70
     1
102
RTVSPropertyOp37
 70
     1
102
RTVSPropertyOp38
 70
     1
102
RTVSPropertyOp39
 70
     1
102
RTVSPropertyOp40
 70
     1
102
RTVSPropertyOp41
 70
     1
102
RTVSPropertyOp42
 70
     1
102
RTVSPropertyOp43
 70
     1
102
RTVSPropertyOp44
 70
     1
102
RTVSPropertyOp45
 70
     1
102
RTVSPropertyOp46
 70
     1
102
RTVSPropertyOp47
 70
     1
102
RTVSPropertyOp48
 70
     1
102
RTVSPropertyOp49
 70
     1
102
RTVSPropertyOp50
 70
     1
102
RTVSPropertyOp51
 70
     0
102
RTVSPropertyOp52
 70
     0
102
RTVSPropertyOp53
 70
     1
102
RTVSPropertyOp54
 70
     1
102
RTVSPropertyOp55
 70
     1
102
RTVSPropertyOp56
 70
     1
102
RTVSPropertyOp57
 70
     1
102
RTVSPropertyOp58
 70
     1
102
RTVSPropertyOp59
 70
     1
102
RTVSPropertyOp60
 70
     1
102
RTVSPropertyOp61
 70
     1
102
RTVSPropertyOp62
 70
     1
  0
XRECORD
  5
9C3F
102
{ACAD_REACTORS
330
9C3E
102
}
330
9C3E
100
AcDbXrecord
280
     1
102
RTVSPost2010Prop28
280
     0
102
RTVSPost2010PropOp28
 70
     1
102
RTVSPost2010Prop29
280
     1
102
RTVSPost2010PropOp29
 70
     1
102
RTVSPost2010Prop30
280
     1
102
RTVSPost2010PropOp30
 70
     1
102
RTVSPost2010Prop31
280
     0
102
RTVSPost2010PropOp31
 70
     1
102
RTVSPost2010Prop32
280
     0
102
RTVSPost2010PropOp32
 70
     1
102
RTVSPost2010Prop33
280
     0
102
RTVSPost2010PropOp33
 70
     1
102
RTVSPost2010Prop34
280
     0
102
RTVSPost2010PropOp34
 70
     1
102
RTVSPost2010Prop35
280
     0
102
RTVSPost2010PropOp35
 70
     1
102
RTVSPost2010Prop36
280
     0
102
RTVSPost2010PropOp36
 70
     1
102
RTVSPost2010Prop37
 90
       50
102
RTVSPost2010PropOp37
 70
     1
102
RTVSPost2010Prop38
140
0.0
102
RTVSPost2010PropOp38
 70
     1
102
RTVSPost2010Prop39
140
1.0
102
RTVSPost2010PropOp39
 70
     1
102
RTVSPost2010Prop40
 90
        0
102
RTVSPost2010PropOp40
 70
     1
102
RTVSPost2010Prop41ColorIndex
 90
       18
102
RTVSPost2010Prop41ColorRGB
 90
        0
102
RTVSPost2010PropOp41
 70
     1
102
RTVSPost2010Prop42
 90
       50
102
RTVSPost2010PropOp42
 70
     1
102
RTVSPost2010Prop43
 90
        3
102
RTVSPost2010PropOp43
 70
     1
102
RTVSPost2010Prop44ColorIndex
 90
        5
102
RTVSPost2010Prop44ColorRGB
 90
      255
102
RTVSPost2010PropOp44
 70
     1
102
RTVSPost2010Prop45
280
     0
102
RTVSPost2010PropOp45
 70
     1
102
RTVSPost2010Prop46
 90
       50
102
RTVSPost2010PropOp46
 70
     1
102
RTVSPost2010Prop47
 90
       50
102
RTVSPost2010PropOp47
 70
     1
102
RTVSPost2010Prop48
 90
       50
102
RTVSPost2010PropOp48
 70
     1
102
RTVSPost2010Prop49
280
     0
102
RTVSPost2010PropOp49
 70
     1
102
RTVSPost2010Prop50
 90
       50
102
RTVSPost2010PropOp50
 70
     1
102
RTVSPost2010Prop51ColorIndex
 90
      256
102
RTVSPost2010Prop51ColorRGB
 90
-16777216
102
RTVSPost2010PropOp51
 70
     0
102
RTVSPost2010Prop52
140
1.0
102
RTVSPost2010PropOp52
 70
     0
102
RTVSPost2010Prop53
 90
        2
102
RTVSPost2010PropOp53
 70
     1
102
RTVSPost2010Prop54
  1
strokes_ogs.tif
102
RTVSPost2010PropOp54
 70
     1
102
RTVSPost2010Prop55
280
     0
102
RTVSPost2010PropOp55
 70
     1
102
RTVSPost2010Prop56
140
1.0
102
RTVSPost2010PropOp56
 70
     1
102
RTVSPost2010Prop57
140
1.0
102
RTVSPost2010PropOp57
 70
     1
102
RTVSPropertyOp0
 70
     1
102
RTVSPropertyOp1
 70
     1
102
RTVSPropertyOp2
 70
     1
102
RTVSPropertyOp3
 70
     1
102
RTVSPropertyOp4
 70
     1
102
RTVSPropertyOp5
 70
     1
102
RTVSPropertyOp6
 70
     1
102
RTVSPropertyOp7
 70
     1
102
RTVSPropertyOp8
 70
     1
102
RTVSPropertyOp9
 70
     1
102
RTVSPropertyOp10
 70
     1
102
RTVSPropertyOp11
 70
     1
102
RTVSPropertyOp12
 70
     1
102
RTVSPropertyOp13
 70
     1
102
RTVSPropertyOp14
 70
     1
102
RTVSPropertyOp15
 70
     1
102
RTVSPropertyOp16
 70
     1
102
RTVSPropertyOp17
 70
     1
102
RTVSPropertyOp18
 70
     1
102
RTVSPropertyOp19
 70
     1
102
RTVSPropertyOp20
 70
     1
102
RTVSPropertyOp21
 70
     1
102
RTVSPropertyOp22
 70
     1
102
RTVSPropertyOp23
 70
     1
102
RTVSPropertyOp24
 70
     1
102
RTVSPropertyOp25
 70
     1
102
RTVSPropertyOp26
 70
     1
102
RTVSPropertyOp27
 70
     1
102
RTVSPropertyOp28
 70
     1
102
RTVSPropertyOp29
 70
     1
102
RTVSPropertyOp30
 70
     1
102
RTVSPropertyOp31
 70
     1
102
RTVSPropertyOp32
 70
     1
102
RTVSPropertyOp33
 70
     1
102
RTVSPropertyOp34
 70
     1
102
RTVSPropertyOp35
 70
     1
102
RTVSPropertyOp36
 70
     1
102
RTVSPropertyOp37
 70
     1
102
RTVSPropertyOp38
 70
     1
102
RTVSPropertyOp39
 70
     1
102
RTVSPropertyOp40
 70
     1
102
RTVSPropertyOp41
 70
     1
102
RTVSPropertyOp42
 70
     1
102
RTVSPropertyOp43
 70
     1
102
RTVSPropertyOp44
 70
     1
102
RTVSPropertyOp45
 70
     1
102
RTVSPropertyOp46
 70
     1
102
RTVSPropertyOp47
 70
     1
102
RTVSPropertyOp48
 70
     1
102
RTVSPropertyOp49
 70
     1
102
RTVSPropertyOp50
 70
     1
102
RTVSPropertyOp51
 70
     0
102
RTVSPropertyOp52
 70
     0
102
RTVSPropertyOp53
 70
     1
102
RTVSPropertyOp54
 70
     1
102
RTVSPropertyOp55
 70
     1
102
RTVSPropertyOp56
 70
     1
102
RTVSPropertyOp57
 70
     1
102
RTVSPropertyOp58
 70
     1
102
RTVSPropertyOp59
 70
     1
102
RTVSPropertyOp60
 70
     1
102
RTVSPropertyOp61
 70
     1
102
RTVSPropertyOp62
 70
     1
  0
XRECORD
  5
9C41
102
{ACAD_REACTORS
330
9C40
102
}
330
9C40
100
AcDbXrecord
280
     1
102
RTVSPost2010Prop28
280
     0
102
RTVSPost2010PropOp28
 70
     1
102
RTVSPost2010Prop29
280
     1
102
RTVSPost2010PropOp29
 70
     1
102
RTVSPost2010Prop30
280
     1
102
RTVSPost2010PropOp30
 70
     1
102
RTVSPost2010Prop31
280
     0
102
RTVSPost2010PropOp31
 70
     1
102
RTVSPost2010Prop32
280
     0
102
RTVSPost2010PropOp32
 70
     1
102
RTVSPost2010Prop33
280
     0
102
RTVSPost2010PropOp33
 70
     1
102
RTVSPost2010Prop34
280
     0
102
RTVSPost2010PropOp34
 70
     1
102
RTVSPost2010Prop35
280
     0
102
RTVSPost2010PropOp35
 70
     1
102
RTVSPost2010Prop36
280
     0
102
RTVSPost2010PropOp36
 70
     1
102
RTVSPost2010Prop37
 90
       50
102
RTVSPost2010PropOp37
 70
     1
102
RTVSPost2010Prop38
140
0.0
102
RTVSPost2010PropOp38
 70
     1
102
RTVSPost2010Prop39
140
1.0
102
RTVSPost2010PropOp39
 70
     1
102
RTVSPost2010Prop40
 90
        0
102
RTVSPost2010PropOp40
 70
     1
102
RTVSPost2010Prop41ColorIndex
 90
       18
102
RTVSPost2010Prop41ColorRGB
 90
        0
102
RTVSPost2010PropOp41
 70
     1
102
RTVSPost2010Prop42
 90
       50
102
RTVSPost2010PropOp42
 70
     1
102
RTVSPost2010Prop43
 90
        3
102
RTVSPost2010PropOp43
 70
     1
102
RTVSPost2010Prop44ColorIndex
 90
        5
102
RTVSPost2010Prop44ColorRGB
 90
      255
102
RTVSPost2010PropOp44
 70
     1
102
RTVSPost2010Prop45
280
     0
102
RTVSPost2010PropOp45
 70
     1
102
RTVSPost2010Prop46
 90
       50
102
RTVSPost2010PropOp46
 70
     1
102
RTVSPost2010Prop47
 90
       50
102
RTVSPost2010PropOp47
 70
     1
102
RTVSPost2010Prop48
 90
       50
102
RTVSPost2010PropOp48
 70
     1
102
RTVSPost2010Prop49
280
     0
102
RTVSPost2010PropOp49
 70
     1
102
RTVSPost2010Prop50
 90
       50
102
RTVSPost2010PropOp50
 70
     1
102
RTVSPost2010Prop51ColorIndex
 90
      256
102
RTVSPost2010Prop51ColorRGB
 90
-16777216
102
RTVSPost2010PropOp51
 70
     0
102
RTVSPost2010Prop52
140
1.0
102
RTVSPost2010PropOp52
 70
     0
102
RTVSPost2010Prop53
 90
        2
102
RTVSPost2010PropOp53
 70
     1
102
RTVSPost2010Prop54
  1
strokes_ogs.tif
102
RTVSPost2010PropOp54
 70
     1
102
RTVSPost2010Prop55
280
     0
102
RTVSPost2010PropOp55
 70
     1
102
RTVSPost2010Prop56
140
1.0
102
RTVSPost2010PropOp56
 70
     1
102
RTVSPost2010Prop57
140
1.0
102
RTVSPost2010PropOp57
 70
     1
102
RTVSPropertyOp0
 70
     1
102
RTVSPropertyOp1
 70
     1
102
RTVSPropertyOp2
 70
     1
102
RTVSPropertyOp3
 70
     1
102
RTVSPropertyOp4
 70
     1
102
RTVSPropertyOp5
 70
     1
102
RTVSPropertyOp6
 70
     1
102
RTVSPropertyOp7
 70
     1
102
RTVSPropertyOp8
 70
     1
102
RTVSPropertyOp9
 70
     1
102
RTVSPropertyOp10
 70
     1
102
RTVSPropertyOp11
 70
     1
102
RTVSPropertyOp12
 70
     1
102
RTVSPropertyOp13
 70
     1
102
RTVSPropertyOp14
 70
     1
102
RTVSPropertyOp15
 70
     1
102
RTVSPropertyOp16
 70
     1
102
RTVSPropertyOp17
 70
     1
102
RTVSPropertyOp18
 70
     1
102
RTVSPropertyOp19
 70
     1
102
RTVSPropertyOp20
 70
     1
102
RTVSPropertyOp21
 70
     1
102
RTVSPropertyOp22
 70
     1
102
RTVSPropertyOp23
 70
     1
102
RTVSPropertyOp24
 70
     1
102
RTVSPropertyOp25
 70
     1
102
RTVSPropertyOp26
 70
     1
102
RTVSPropertyOp27
 70
     1
102
RTVSPropertyOp28
 70
     1
102
RTVSPropertyOp29
 70
     1
102
RTVSPropertyOp30
 70
     1
102
RTVSPropertyOp31
 70
     1
102
RTVSPropertyOp32
 70
     1
102
RTVSPropertyOp33
 70
     1
102
RTVSPropertyOp34
 70
     1
102
RTVSPropertyOp35
 70
     1
102
RTVSPropertyOp36
 70
     1
102
RTVSPropertyOp37
 70
     1
102
RTVSPropertyOp38
 70
     1
102
RTVSPropertyOp39
 70
     1
102
RTVSPropertyOp40
 70
     1
102
RTVSPropertyOp41
 70
     1
102
RTVSPropertyOp42
 70
     1
102
RTVSPropertyOp43
 70
     1
102
RTVSPropertyOp44
 70
     1
102
RTVSPropertyOp45
 70
     1
102
RTVSPropertyOp46
 70
     1
102
RTVSPropertyOp47
 70
     1
102
RTVSPropertyOp48
 70
     1
102
RTVSPropertyOp49
 70
     1
102
RTVSPropertyOp50
 70
     1
102
RTVSPropertyOp51
 70
     0
102
RTVSPropertyOp52
 70
     0
102
RTVSPropertyOp53
 70
     1
102
RTVSPropertyOp54
 70
     1
102
RTVSPropertyOp55
 70
     1
102
RTVSPropertyOp56
 70
     1
102
RTVSPropertyOp57
 70
     1
102
RTVSPropertyOp58
 70
     1
102
RTVSPropertyOp59
 70
     1
102
RTVSPropertyOp60
 70
     1
102
RTVSPropertyOp61
 70
     1
102
RTVSPropertyOp62
 70
     1
  0
XRECORD
  5
9C49
102
{ACAD_REACTORS
330
9C48
102
}
330
9C48
100
AcDbXrecord
280
     1
102
RTVSPost2010Prop28
280
     0
102
RTVSPost2010PropOp28
 70
     1
102
RTVSPost2010Prop29
280
     1
102
RTVSPost2010PropOp29
 70
     1
102
RTVSPost2010Prop30
280
     1
102
RTVSPost2010PropOp30
 70
     1
102
RTVSPost2010Prop31
280
     0
102
RTVSPost2010PropOp31
 70
     1
102
RTVSPost2010Prop32
280
     0
102
RTVSPost2010PropOp32
 70
     1
102
RTVSPost2010Prop33
280
     0
102
RTVSPost2010PropOp33
 70
     1
102
RTVSPost2010Prop34
280
     0
102
RTVSPost2010PropOp34
 70
     1
102
RTVSPost2010Prop35
280
     0
102
RTVSPost2010PropOp35
 70
     1
102
RTVSPost2010Prop36
280
     0
102
RTVSPost2010PropOp36
 70
     1
102
RTVSPost2010Prop37
 90
       50
102
RTVSPost2010PropOp37
 70
     1
102
RTVSPost2010Prop38
140
0.0
102
RTVSPost2010PropOp38
 70
     1
102
RTVSPost2010Prop39
140
1.0
102
RTVSPost2010PropOp39
 70
     1
102
RTVSPost2010Prop40
 90
        0
102
RTVSPost2010PropOp40
 70
     1
102
RTVSPost2010Prop41ColorIndex
 90
       18
102
RTVSPost2010Prop41ColorRGB
 90
        0
102
RTVSPost2010PropOp41
 70
     1
102
RTVSPost2010Prop42
 90
       50
102
RTVSPost2010PropOp42
 70
     1
102
RTVSPost2010Prop43
 90
        3
102
RTVSPost2010PropOp43
 70
     1
102
RTVSPost2010Prop44ColorIndex
 90
        5
102
RTVSPost2010Prop44ColorRGB
 90
      255
102
RTVSPost2010PropOp44
 70
     1
102
RTVSPost2010Prop45
280
     0
102
RTVSPost2010PropOp45
 70
     1
102
RTVSPost2010Prop46
 90
       50
102
RTVSPost2010PropOp46
 70
     1
102
RTVSPost2010Prop47
 90
       50
102
RTVSPost2010PropOp47
 70
     1
102
RTVSPost2010Prop48
 90
       50
102
RTVSPost2010PropOp48
 70
     1
102
RTVSPost2010Prop49
280
     0
102
RTVSPost2010PropOp49
 70
     1
102
RTVSPost2010Prop50
 90
       50
102
RTVSPost2010PropOp50
 70
     1
102
RTVSPost2010Prop51ColorIndex
 90
      256
102
RTVSPost2010Prop51ColorRGB
 90
-16777216
102
RTVSPost2010PropOp51
 70
     0
102
RTVSPost2010Prop52
140
1.0
102
RTVSPost2010PropOp52
 70
     0
102
RTVSPost2010Prop53
 90
        2
102
RTVSPost2010PropOp53
 70
     1
102
RTVSPost2010Prop54
  1
strokes_ogs.tif
102
RTVSPost2010PropOp54
 70
     1
102
RTVSPost2010Prop55
280
     0
102
RTVSPost2010PropOp55
 70
     1
102
RTVSPost2010Prop56
140
1.0
102
RTVSPost2010PropOp56
 70
     1
102
RTVSPost2010Prop57
140
1.0
102
RTVSPost2010PropOp57
 70
     1
102
RTVSPropertyOp0
 70
     1
102
RTVSPropertyOp1
 70
     1
102
RTVSPropertyOp2
 70
     1
102
RTVSPropertyOp3
 70
     1
102
RTVSPropertyOp4
 70
     1
102
RTVSPropertyOp5
 70
     1
102
RTVSPropertyOp6
 70
     1
102
RTVSPropertyOp7
 70
     1
102
RTVSPropertyOp8
 70
     1
102
RTVSPropertyOp9
 70
     1
102
RTVSPropertyOp10
 70
     1
102
RTVSPropertyOp11
 70
     1
102
RTVSPropertyOp12
 70
     1
102
RTVSPropertyOp13
 70
     1
102
RTVSPropertyOp14
 70
     1
102
RTVSPropertyOp15
 70
     1
102
RTVSPropertyOp16
 70
     1
102
RTVSPropertyOp17
 70
     1
102
RTVSPropertyOp18
 70
     1
102
RTVSPropertyOp19
 70
     1
102
RTVSPropertyOp20
 70
     1
102
RTVSPropertyOp21
 70
     1
102
RTVSPropertyOp22
 70
     1
102
RTVSPropertyOp23
 70
     1
102
RTVSPropertyOp24
 70
     1
102
RTVSPropertyOp25
 70
     1
102
RTVSPropertyOp26
 70
     1
102
RTVSPropertyOp27
 70
     1
102
RTVSPropertyOp28
 70
     1
102
RTVSPropertyOp29
 70
     1
102
RTVSPropertyOp30
 70
     1
102
RTVSPropertyOp31
 70
     1
102
RTVSPropertyOp32
 70
     1
102
RTVSPropertyOp33
 70
     1
102
RTVSPropertyOp34
 70
     1
102
RTVSPropertyOp35
 70
     1
102
RTVSPropertyOp36
 70
     1
102
RTVSPropertyOp37
 70
     1
102
RTVSPropertyOp38
 70
     1
102
RTVSPropertyOp39
 70
     1
102
RTVSPropertyOp40
 70
     1
102
RTVSPropertyOp41
 70
     1
102
RTVSPropertyOp42
 70
     1
102
RTVSPropertyOp43
 70
     1
102
RTVSPropertyOp44
 70
     1
102
RTVSPropertyOp45
 70
     1
102
RTVSPropertyOp46
 70
     1
102
RTVSPropertyOp47
 70
     1
102
RTVSPropertyOp48
 70
     1
102
RTVSPropertyOp49
 70
     1
102
RTVSPropertyOp50
 70
     1
102
RTVSPropertyOp51
 70
     0
102
RTVSPropertyOp52
 70
     0
102
RTVSPropertyOp53
 70
     1
102
RTVSPropertyOp54
 70
     1
102
RTVSPropertyOp55
 70
     1
102
RTVSPropertyOp56
 70
     1
102
RTVSPropertyOp57
 70
     1
102
RTVSPropertyOp58
 70
     1
102
RTVSPropertyOp59
 70
     1
102
RTVSPropertyOp60
 70
     1
102
RTVSPropertyOp61
 70
     1
102
RTVSPropertyOp62
 70
     1
  0
XRECORD
  5
9C65
102
{ACAD_REACTORS
330
9C64
102
}
330
9C64
100
AcDbXrecord
280
     1
102
RTVSPost2010Prop28
280
     0
102
RTVSPost2010PropOp28
 70
     1
102
RTVSPost2010Prop29
280
     1
102
RTVSPost2010PropOp29
 70
     1
102
RTVSPost2010Prop30
280
     1
102
RTVSPost2010PropOp30
 70
     1
102
RTVSPost2010Prop31
280
     0
102
RTVSPost2010PropOp31
 70
     1
102
RTVSPost2010Prop32
280
     0
102
RTVSPost2010PropOp32
 70
     1
102
RTVSPost2010Prop33
280
     0
102
RTVSPost2010PropOp33
 70
     1
102
RTVSPost2010Prop34
280
     0
102
RTVSPost2010PropOp34
 70
     1
102
RTVSPost2010Prop35
280
     0
102
RTVSPost2010PropOp35
 70
     1
102
RTVSPost2010Prop36
280
     0
102
RTVSPost2010PropOp36
 70
     1
102
RTVSPost2010Prop37
 90
       50
102
RTVSPost2010PropOp37
 70
     0
102
RTVSPost2010Prop38
140
0.0
102
RTVSPost2010PropOp38
 70
     0
102
RTVSPost2010Prop39
140
1.0
102
RTVSPost2010PropOp39
 70
     0
102
RTVSPost2010Prop40
 90
        0
102
RTVSPost2010PropOp40
 70
     0
102
RTVSPost2010Prop41ColorIndex
 90
       18
102
RTVSPost2010Prop41ColorRGB
 90
        0
102
RTVSPost2010PropOp41
 70
     0
102
RTVSPost2010Prop42
 90
       50
102
RTVSPost2010PropOp42
 70
     0
102
RTVSPost2010Prop43
 90
        3
102
RTVSPost2010PropOp43
 70
     0
102
RTVSPost2010Prop44ColorIndex
 90
        5
102
RTVSPost2010Prop44ColorRGB
 90
      255
102
RTVSPost2010PropOp44
 70
     0
102
RTVSPost2010Prop45
280
     0
102
RTVSPost2010PropOp45
 70
     1
102
RTVSPost2010Prop46
 90
       50
102
RTVSPost2010PropOp46
 70
     0
102
RTVSPost2010Prop47
 90
       50
102
RTVSPost2010PropOp47
 70
     0
102
RTVSPost2010Prop48
 90
       50
102
RTVSPost2010PropOp48
 70
     0
102
RTVSPost2010Prop49
280
     0
102
RTVSPost2010PropOp49
 70
     1
102
RTVSPost2010Prop50
 90
       50
102
RTVSPost2010PropOp50
 70
     0
102
RTVSPost2010Prop51ColorIndex
 90
      256
102
RTVSPost2010Prop51ColorRGB
 90
-16777216
102
RTVSPost2010PropOp51
 70
     0
102
RTVSPost2010Prop52
140
1.0
102
RTVSPost2010PropOp52
 70
     0
102
RTVSPost2010Prop53
 90
        2
102
RTVSPost2010PropOp53
 70
     0
102
RTVSPost2010Prop54
  1
strokes_ogs.tif
102
RTVSPost2010PropOp54
 70
     0
102
RTVSPost2010Prop55
280
     0
102
RTVSPost2010PropOp55
 70
     1
102
RTVSPost2010Prop56
140
1.0
102
RTVSPost2010PropOp56
 70
     0
102
RTVSPost2010Prop57
140
1.0
102
RTVSPost2010PropOp57
 70
     0
102
RTVSPropertyOp0
 70
     0
102
RTVSPropertyOp1
 70
     0
102
RTVSPropertyOp2
 70
     0
102
RTVSPropertyOp3
 70
     0
102
RTVSPropertyOp4
 70
     0
102
RTVSPropertyOp5
 70
     0
102
RTVSPropertyOp6
 70
     0
102
RTVSPropertyOp7
 70
     0
102
RTVSPropertyOp8
 70
     0
102
RTVSPropertyOp9
 70
     0
102
RTVSPropertyOp10
 70
     0
102
RTVSPropertyOp11
 70
     0
102
RTVSPropertyOp12
 70
     0
102
RTVSPropertyOp13
 70
     0
102
RTVSPropertyOp14
 70
     2
102
RTVSPropertyOp15
 70
     0
102
RTVSPropertyOp16
 70
     0
102
RTVSPropertyOp17
 70
     0
102
RTVSPropertyOp18
 70
     0
102
RTVSPropertyOp19
 70
     0
102
RTVSPropertyOp20
 70
     0
102
RTVSPropertyOp21
 70
     0
102
RTVSPropertyOp22
 70
     0
102
RTVSPropertyOp23
 70
     0
102
RTVSPropertyOp24
 70
     0
102
RTVSPropertyOp25
 70
     0
102
RTVSPropertyOp26
 70
     0
102
RTVSPropertyOp27
 70
     0
102
RTVSPropertyOp28
 70
     1
102
RTVSPropertyOp29
 70
     1
102
RTVSPropertyOp30
 70
     1
102
RTVSPropertyOp31
 70
     1
102
RTVSPropertyOp32
 70
     1
102
RTVSPropertyOp33
 70
     1
102
RTVSPropertyOp34
 70
     1
102
RTVSPropertyOp35
 70
     1
102
RTVSPropertyOp36
 70
     1
102
RTVSPropertyOp37
 70
     0
102
RTVSPropertyOp38
 70
     0
102
RTVSPropertyOp39
 70
     0
102
RTVSPropertyOp40
 70
     0
102
RTVSPropertyOp41
 70
     0
102
RTVSPropertyOp42
 70
     0
102
RTVSPropertyOp43
 70
     0
102
RTVSPropertyOp44
 70
     0
102
RTVSPropertyOp45
 70
     1
102
RTVSPropertyOp46
 70
     0
102
RTVSPropertyOp47
 70
     0
102
RTVSPropertyOp48
 70
     0
102
RTVSPropertyOp49
 70
     1
102
RTVSPropertyOp50
 70
     0
102
RTVSPropertyOp51
 70
     0
102
RTVSPropertyOp52
 70
     0
102
RTVSPropertyOp53
 70
     0
102
RTVSPropertyOp54
 70
     0
102
RTVSPropertyOp55
 70
     1
102
RTVSPropertyOp56
 70
     0
102
RTVSPropertyOp57
 70
     0
102
RTVSPropertyOp58
 70
     0
102
RTVSPropertyOp59
 70
     0
102
RTVSPropertyOp60
 70
     0
102
RTVSPropertyOp61
 70
     0
102
RTVSPropertyOp62
 70
     0
  0
XRECORD
  5
9C55
102
{ACAD_REACTORS
330
9C54
102
}
330
9C54
100
AcDbXrecord
280
     1
102
RTVSPost2010Prop28
280
     0
102
RTVSPost2010PropOp28
 70
     1
102
RTVSPost2010Prop29
280
     1
102
RTVSPost2010PropOp29
 70
     1
102
RTVSPost2010Prop30
280
     1
102
RTVSPost2010PropOp30
 70
     1
102
RTVSPost2010Prop31
280
     0
102
RTVSPost2010PropOp31
 70
     1
102
RTVSPost2010Prop32
280
     0
102
RTVSPost2010PropOp32
 70
     1
102
RTVSPost2010Prop33
280
     0
102
RTVSPost2010PropOp33
 70
     1
102
RTVSPost2010Prop34
280
     0
102
RTVSPost2010PropOp34
 70
     1
102
RTVSPost2010Prop35
280
     0
102
RTVSPost2010PropOp35
 70
     1
102
RTVSPost2010Prop36
280
     0
102
RTVSPost2010PropOp36
 70
     1
102
RTVSPost2010Prop37
 90
       50
102
RTVSPost2010PropOp37
 70
     1
102
RTVSPost2010Prop38
140
0.0
102
RTVSPost2010PropOp38
 70
     1
102
RTVSPost2010Prop39
140
1.0
102
RTVSPost2010PropOp39
 70
     1
102
RTVSPost2010Prop40
 90
        0
102
RTVSPost2010PropOp40
 70
     1
102
RTVSPost2010Prop41ColorIndex
 90
       18
102
RTVSPost2010Prop41ColorRGB
 90
        0
102
RTVSPost2010PropOp41
 70
     1
102
RTVSPost2010Prop42
 90
       50
102
RTVSPost2010PropOp42
 70
     1
102
RTVSPost2010Prop43
 90
        3
102
RTVSPost2010PropOp43
 70
     1
102
RTVSPost2010Prop44ColorIndex
 90
        5
102
RTVSPost2010Prop44ColorRGB
 90
      255
102
RTVSPost2010PropOp44
 70
     1
102
RTVSPost2010Prop45
280
     0
102
RTVSPost2010PropOp45
 70
     1
102
RTVSPost2010Prop46
 90
       50
102
RTVSPost2010PropOp46
 70
     1
102
RTVSPost2010Prop47
 90
       50
102
RTVSPost2010PropOp47
 70
     1
102
RTVSPost2010Prop48
 90
       50
102
RTVSPost2010PropOp48
 70
     1
102
RTVSPost2010Prop49
280
     0
102
RTVSPost2010PropOp49
 70
     1
102
RTVSPost2010Prop50
 90
       50
102
RTVSPost2010PropOp50
 70
     1
102
RTVSPost2010Prop51ColorIndex
 90
      256
102
RTVSPost2010Prop51ColorRGB
 90
-16777216
102
RTVSPost2010PropOp51
 70
     0
102
RTVSPost2010Prop52
140
1.0
102
RTVSPost2010PropOp52
 70
     0
102
RTVSPost2010Prop53
 90
        2
102
RTVSPost2010PropOp53
 70
     1
102
RTVSPost2010Prop54
  1
strokes_ogs.tif
102
RTVSPost2010PropOp54
 70
     1
102
RTVSPost2010Prop55
280
     0
102
RTVSPost2010PropOp55
 70
     1
102
RTVSPost2010Prop56
140
1.0
102
RTVSPost2010PropOp56
 70
     1
102
RTVSPost2010Prop57
140
1.0
102
RTVSPost2010PropOp57
 70
     1
102
RTVSPropertyOp0
 70
     1
102
RTVSPropertyOp1
 70
     1
102
RTVSPropertyOp2
 70
     1
102
RTVSPropertyOp3
 70
     1
102
RTVSPropertyOp4
 70
     1
102
RTVSPropertyOp5
 70
     1
102
RTVSPropertyOp6
 70
     1
102
RTVSPropertyOp7
 70
     1
102
RTVSPropertyOp8
 70
     1
102
RTVSPropertyOp9
 70
     1
102
RTVSPropertyOp10
 70
     1
102
RTVSPropertyOp11
 70
     1
102
RTVSPropertyOp12
 70
     1
102
RTVSPropertyOp13
 70
     1
102
RTVSPropertyOp14
 70
     1
102
RTVSPropertyOp15
 70
     1
102
RTVSPropertyOp16
 70
     1
102
RTVSPropertyOp17
 70
     1
102
RTVSPropertyOp18
 70
     1
102
RTVSPropertyOp19
 70
     1
102
RTVSPropertyOp20
 70
     1
102
RTVSPropertyOp21
 70
     1
102
RTVSPropertyOp22
 70
     1
102
RTVSPropertyOp23
 70
     1
102
RTVSPropertyOp24
 70
     1
102
RTVSPropertyOp25
 70
     1
102
RTVSPropertyOp26
 70
     1
102
RTVSPropertyOp27
 70
     1
102
RTVSPropertyOp28
 70
     1
102
RTVSPropertyOp29
 70
     1
102
RTVSPropertyOp30
 70
     1
102
RTVSPropertyOp31
 70
     1
102
RTVSPropertyOp32
 70
     1
102
RTVSPropertyOp33
 70
     1
102
RTVSPropertyOp34
 70
     1
102
RTVSPropertyOp35
 70
     1
102
RTVSPropertyOp36
 70
     1
102
RTVSPropertyOp37
 70
     1
102
RTVSPropertyOp38
 70
     1
102
RTVSPropertyOp39
 70
     1
102
RTVSPropertyOp40
 70
     1
102
RTVSPropertyOp41
 70
     1
102
RTVSPropertyOp42
 70
     1
102
RTVSPropertyOp43
 70
     1
102
RTVSPropertyOp44
 70
     1
102
RTVSPropertyOp45
 70
     1
102
RTVSPropertyOp46
 70
     1
102
RTVSPropertyOp47
 70
     1
102
RTVSPropertyOp48
 70
     1
102
RTVSPropertyOp49
 70
     1
102
RTVSPropertyOp50
 70
     1
102
RTVSPropertyOp51
 70
     0
102
RTVSPropertyOp52
 70
     0
102
RTVSPropertyOp53
 70
     1
102
RTVSPropertyOp54
 70
     1
102
RTVSPropertyOp55
 70
     1
102
RTVSPropertyOp56
 70
     1
102
RTVSPropertyOp57
 70
     1
102
RTVSPropertyOp58
 70
     1
102
RTVSPropertyOp59
 70
     1
102
RTVSPropertyOp60
 70
     1
102
RTVSPropertyOp61
 70
     1
102
RTVSPropertyOp62
 70
     1
  0
XRECORD
  5
9C67
102
{ACAD_REACTORS
330
9C66
102
}
330
9C66
100
AcDbXrecord
280
     1
102
RTVSPost2010Prop28
280
     0
102
RTVSPost2010PropOp28
 70
     1
102
RTVSPost2010Prop29
280
     1
102
RTVSPost2010PropOp29
 70
     1
102
RTVSPost2010Prop30
280
     1
102
RTVSPost2010PropOp30
 70
     1
102
RTVSPost2010Prop31
280
     0
102
RTVSPost2010PropOp31
 70
     1
102
RTVSPost2010Prop32
280
     0
102
RTVSPost2010PropOp32
 70
     1
102
RTVSPost2010Prop33
280
     0
102
RTVSPost2010PropOp33
 70
     1
102
RTVSPost2010Prop34
280
     0
102
RTVSPost2010PropOp34
 70
     1
102
RTVSPost2010Prop35
280
     0
102
RTVSPost2010PropOp35
 70
     1
102
RTVSPost2010Prop36
280
     0
102
RTVSPost2010PropOp36
 70
     1
102
RTVSPost2010Prop37
 90
       50
102
RTVSPost2010PropOp37
 70
     0
102
RTVSPost2010Prop38
140
0.0
102
RTVSPost2010PropOp38
 70
     0
102
RTVSPost2010Prop39
140
1.0
102
RTVSPost2010PropOp39
 70
     0
102
RTVSPost2010Prop40
 90
        0
102
RTVSPost2010PropOp40
 70
     0
102
RTVSPost2010Prop41ColorIndex
 90
       18
102
RTVSPost2010Prop41ColorRGB
 90
        0
102
RTVSPost2010PropOp41
 70
     0
102
RTVSPost2010Prop42
 90
       50
102
RTVSPost2010PropOp42
 70
     0
102
RTVSPost2010Prop43
 90
        3
102
RTVSPost2010PropOp43
 70
     0
102
RTVSPost2010Prop44ColorIndex
 90
        5
102
RTVSPost2010Prop44ColorRGB
 90
      255
102
RTVSPost2010PropOp44
 70
     0
102
RTVSPost2010Prop45
280
     0
102
RTVSPost2010PropOp45
 70
     1
102
RTVSPost2010Prop46
 90
       50
102
RTVSPost2010PropOp46
 70
     0
102
RTVSPost2010Prop47
 90
       50
102
RTVSPost2010PropOp47
 70
     0
102
RTVSPost2010Prop48
 90
       50
102
RTVSPost2010PropOp48
 70
     0
102
RTVSPost2010Prop49
280
     0
102
RTVSPost2010PropOp49
 70
     1
102
RTVSPost2010Prop50
 90
       50
102
RTVSPost2010PropOp50
 70
     0
102
RTVSPost2010Prop51ColorIndex
 90
      256
102
RTVSPost2010Prop51ColorRGB
 90
-16777216
102
RTVSPost2010PropOp51
 70
     0
102
RTVSPost2010Prop52
140
1.0
102
RTVSPost2010PropOp52
 70
     0
102
RTVSPost2010Prop53
 90
        2
102
RTVSPost2010PropOp53
 70
     0
102
RTVSPost2010Prop54
  1
strokes_ogs.tif
102
RTVSPost2010PropOp54
 70
     0
102
RTVSPost2010Prop55
280
     0
102
RTVSPost2010PropOp55
 70
     1
102
RTVSPost2010Prop56
140
1.0
102
RTVSPost2010PropOp56
 70
     0
102
RTVSPost2010Prop57
140
1.0
102
RTVSPost2010PropOp57
 70
     0
102
RTVSPropertyOp0
 70
     0
102
RTVSPropertyOp1
 70
     0
102
RTVSPropertyOp2
 70
     0
102
RTVSPropertyOp3
 70
     0
102
RTVSPropertyOp4
 70
     0
102
RTVSPropertyOp5
 70
     0
102
RTVSPropertyOp6
 70
     0
102
RTVSPropertyOp7
 70
     0
102
RTVSPropertyOp8
 70
     0
102
RTVSPropertyOp9
 70
     0
102
RTVSPropertyOp10
 70
     0
102
RTVSPropertyOp11
 70
     0
102
RTVSPropertyOp12
 70
     0
102
RTVSPropertyOp13
 70
     0
102
RTVSPropertyOp14
 70
     2
102
RTVSPropertyOp15
 70
     0
102
RTVSPropertyOp16
 70
     0
102
RTVSPropertyOp17
 70
     0
102
RTVSPropertyOp18
 70
     0
102
RTVSPropertyOp19
 70
     0
102
RTVSPropertyOp20
 70
     0
102
RTVSPropertyOp21
 70
     0
102
RTVSPropertyOp22
 70
     0
102
RTVSPropertyOp23
 70
     0
102
RTVSPropertyOp24
 70
     0
102
RTVSPropertyOp25
 70
     0
102
RTVSPropertyOp26
 70
     0
102
RTVSPropertyOp27
 70
     0
102
RTVSPropertyOp28
 70
     1
102
RTVSPropertyOp29
 70
     1
102
RTVSPropertyOp30
 70
     1
102
RTVSPropertyOp31
 70
     1
102
RTVSPropertyOp32
 70
     1
102
RTVSPropertyOp33
 70
     1
102
RTVSPropertyOp34
 70
     1
102
RTVSPropertyOp35
 70
     1
102
RTVSPropertyOp36
 70
     1
102
RTVSPropertyOp37
 70
     0
102
RTVSPropertyOp38
 70
     0
102
RTVSPropertyOp39
 70
     0
102
RTVSPropertyOp40
 70
     0
102
RTVSPropertyOp41
 70
     0
102
RTVSPropertyOp42
 70
     0
102
RTVSPropertyOp43
 70
     0
102
RTVSPropertyOp44
 70
     0
102
RTVSPropertyOp45
 70
     1
102
RTVSPropertyOp46
 70
     0
102
RTVSPropertyOp47
 70
     0
102
RTVSPropertyOp48
 70
     0
102
RTVSPropertyOp49
 70
     1
102
RTVSPropertyOp50
 70
     0
102
RTVSPropertyOp51
 70
     0
102
RTVSPropertyOp52
 70
     0
102
RTVSPropertyOp53
 70
     0
102
RTVSPropertyOp54
 70
     0
102
RTVSPropertyOp55
 70
     1
102
RTVSPropertyOp56
 70
     0
102
RTVSPropertyOp57
 70
     0
102
RTVSPropertyOp58
 70
     0
102
RTVSPropertyOp59
 70
     0
102
RTVSPropertyOp60
 70
     0
102
RTVSPropertyOp61
 70
     0
102
RTVSPropertyOp62
 70
     0
  0
XRECORD
  5
9C4D
102
{ACAD_REACTORS
330
9C4C
102
}
330
9C4C
100
AcDbXrecord
280
     1
102
RTVSPost2010Prop28
280
     0
102
RTVSPost2010PropOp28
 70
     1
102
RTVSPost2010Prop29
280
     1
102
RTVSPost2010PropOp29
 70
     1
102
RTVSPost2010Prop30
280
     1
102
RTVSPost2010PropOp30
 70
     1
102
RTVSPost2010Prop31
280
     0
102
RTVSPost2010PropOp31
 70
     1
102
RTVSPost2010Prop32
280
     0
102
RTVSPost2010PropOp32
 70
     1
102
RTVSPost2010Prop33
280
     0
102
RTVSPost2010PropOp33
 70
     1
102
RTVSPost2010Prop34
280
     0
102
RTVSPost2010PropOp34
 70
     1
102
RTVSPost2010Prop35
280
     0
102
RTVSPost2010PropOp35
 70
     1
102
RTVSPost2010Prop36
280
     0
102
RTVSPost2010PropOp36
 70
     1
102
RTVSPost2010Prop37
 90
       50
102
RTVSPost2010PropOp37
 70
     1
102
RTVSPost2010Prop38
140
0.0
102
RTVSPost2010PropOp38
 70
     1
102
RTVSPost2010Prop39
140
1.0
102
RTVSPost2010PropOp39
 70
     1
102
RTVSPost2010Prop40
 90
        0
102
RTVSPost2010PropOp40
 70
     1
102
RTVSPost2010Prop41ColorIndex
 90
       18
102
RTVSPost2010Prop41ColorRGB
 90
        0
102
RTVSPost2010PropOp41
 70
     1
102
RTVSPost2010Prop42
 90
       50
102
RTVSPost2010PropOp42
 70
     1
102
RTVSPost2010Prop43
 90
        3
102
RTVSPost2010PropOp43
 70
     1
102
RTVSPost2010Prop44ColorIndex
 90
        5
102
RTVSPost2010Prop44ColorRGB
 90
      255
102
RTVSPost2010PropOp44
 70
     1
102
RTVSPost2010Prop45
280
     0
102
RTVSPost2010PropOp45
 70
     1
102
RTVSPost2010Prop46
 90
       50
102
RTVSPost2010PropOp46
 70
     1
102
RTVSPost2010Prop47
 90
       50
102
RTVSPost2010PropOp47
 70
     1
102
RTVSPost2010Prop48
 90
       50
102
RTVSPost2010PropOp48
 70
     1
102
RTVSPost2010Prop49
280
     0
102
RTVSPost2010PropOp49
 70
     1
102
RTVSPost2010Prop50
 90
       50
102
RTVSPost2010PropOp50
 70
     1
102
RTVSPost2010Prop51ColorIndex
 90
      256
102
RTVSPost2010Prop51ColorRGB
 90
-16777216
102
RTVSPost2010PropOp51
 70
     0
102
RTVSPost2010Prop52
140
1.0
102
RTVSPost2010PropOp52
 70
     0
102
RTVSPost2010Prop53
 90
        2
102
RTVSPost2010PropOp53
 70
     1
102
RTVSPost2010Prop54
  1
strokes_ogs.tif
102
RTVSPost2010PropOp54
 70
     1
102
RTVSPost2010Prop55
280
     0
102
RTVSPost2010PropOp55
 70
     1
102
RTVSPost2010Prop56
140
1.0
102
RTVSPost2010PropOp56
 70
     1
102
RTVSPost2010Prop57
140
1.0
102
RTVSPost2010PropOp57
 70
     1
102
RTVSPropertyOp0
 70
     1
102
RTVSPropertyOp1
 70
     1
102
RTVSPropertyOp2
 70
     1
102
RTVSPropertyOp3
 70
     1
102
RTVSPropertyOp4
 70
     1
102
RTVSPropertyOp5
 70
     1
102
RTVSPropertyOp6
 70
     1
102
RTVSPropertyOp7
 70
     1
102
RTVSPropertyOp8
 70
     1
102
RTVSPropertyOp9
 70
     1
102
RTVSPropertyOp10
 70
     1
102
RTVSPropertyOp11
 70
     1
102
RTVSPropertyOp12
 70
     1
102
RTVSPropertyOp13
 70
     1
102
RTVSPropertyOp14
 70
     1
102
RTVSPropertyOp15
 70
     1
102
RTVSPropertyOp16
 70
     1
102
RTVSPropertyOp17
 70
     1
102
RTVSPropertyOp18
 70
     1
102
RTVSPropertyOp19
 70
     1
102
RTVSPropertyOp20
 70
     1
102
RTVSPropertyOp21
 70
     1
102
RTVSPropertyOp22
 70
     1
102
RTVSPropertyOp23
 70
     1
102
RTVSPropertyOp24
 70
     1
102
RTVSPropertyOp25
 70
     1
102
RTVSPropertyOp26
 70
     1
102
RTVSPropertyOp27
 70
     1
102
RTVSPropertyOp28
 70
     1
102
RTVSPropertyOp29
 70
     1
102
RTVSPropertyOp30
 70
     1
102
RTVSPropertyOp31
 70
     1
102
RTVSPropertyOp32
 70
     1
102
RTVSPropertyOp33
 70
     1
102
RTVSPropertyOp34
 70
     1
102
RTVSPropertyOp35
 70
     1
102
RTVSPropertyOp36
 70
     1
102
RTVSPropertyOp37
 70
     1
102
RTVSPropertyOp38
 70
     1
102
RTVSPropertyOp39
 70
     1
102
RTVSPropertyOp40
 70
     1
102
RTVSPropertyOp41
 70
     1
102
RTVSPropertyOp42
 70
     1
102
RTVSPropertyOp43
 70
     1
102
RTVSPropertyOp44
 70
     1
102
RTVSPropertyOp45
 70
     1
102
RTVSPropertyOp46
 70
     1
102
RTVSPropertyOp47
 70
     1
102
RTVSPropertyOp48
 70
     1
102
RTVSPropertyOp49
 70
     1
102
RTVSPropertyOp50
 70
     1
102
RTVSPropertyOp51
 70
     0
102
RTVSPropertyOp52
 70
     0
102
RTVSPropertyOp53
 70
     1
102
RTVSPropertyOp54
 70
     1
102
RTVSPropertyOp55
 70
     1
102
RTVSPropertyOp56
 70
     1
102
RTVSPropertyOp57
 70
     1
102
RTVSPropertyOp58
 70
     1
102
RTVSPropertyOp59
 70
     1
102
RTVSPropertyOp60
 70
     1
102
RTVSPropertyOp61
 70
     1
102
RTVSPropertyOp62
 70
     1
  0
XRECORD
  5
9C63
102
{ACAD_REACTORS
330
9C62
102
}
330
9C62
100
AcDbXrecord
280
     1
102
RTVSPost2010Prop28
280
     0
102
RTVSPost2010PropOp28
 70
     1
102
RTVSPost2010Prop29
280
     1
102
RTVSPost2010PropOp29
 70
     1
102
RTVSPost2010Prop30
280
     1
102
RTVSPost2010PropOp30
 70
     1
102
RTVSPost2010Prop31
280
     0
102
RTVSPost2010PropOp31
 70
     1
102
RTVSPost2010Prop32
280
     0
102
RTVSPost2010PropOp32
 70
     1
102
RTVSPost2010Prop33
280
     0
102
RTVSPost2010PropOp33
 70
     1
102
RTVSPost2010Prop34
280
     0
102
RTVSPost2010PropOp34
 70
     1
102
RTVSPost2010Prop35
280
     0
102
RTVSPost2010PropOp35
 70
     1
102
RTVSPost2010Prop36
280
     0
102
RTVSPost2010PropOp36
 70
     1
102
RTVSPost2010Prop37
 90
       50
102
RTVSPost2010PropOp37
 70
     1
102
RTVSPost2010Prop38
140
0.0
102
RTVSPost2010PropOp38
 70
     1
102
RTVSPost2010Prop39
140
1.0
102
RTVSPost2010PropOp39
 70
     1
102
RTVSPost2010Prop40
 90
        0
102
RTVSPost2010PropOp40
 70
     1
102
RTVSPost2010Prop41ColorIndex
 90
       18
102
RTVSPost2010Prop41ColorRGB
 90
        0
102
RTVSPost2010PropOp41
 70
     1
102
RTVSPost2010Prop42
 90
       50
102
RTVSPost2010PropOp42
 70
     1
102
RTVSPost2010Prop43
 90
        3
102
RTVSPost2010PropOp43
 70
     1
102
RTVSPost2010Prop44ColorIndex
 90
        5
102
RTVSPost2010Prop44ColorRGB
 90
      255
102
RTVSPost2010PropOp44
 70
     1
102
RTVSPost2010Prop45
280
     0
102
RTVSPost2010PropOp45
 70
     1
102
RTVSPost2010Prop46
 90
       50
102
RTVSPost2010PropOp46
 70
     1
102
RTVSPost2010Prop47
 90
       50
102
RTVSPost2010PropOp47
 70
     1
102
RTVSPost2010Prop48
 90
       50
102
RTVSPost2010PropOp48
 70
     1
102
RTVSPost2010Prop49
280
     0
102
RTVSPost2010PropOp49
 70
     1
102
RTVSPost2010Prop50
 90
       50
102
RTVSPost2010PropOp50
 70
     1
102
RTVSPost2010Prop51ColorIndex
 90
      256
102
RTVSPost2010Prop51ColorRGB
 90
-16777216
102
RTVSPost2010PropOp51
 70
     0
102
RTVSPost2010Prop52
140
1.0
102
RTVSPost2010PropOp52
 70
     0
102
RTVSPost2010Prop53
 90
        2
102
RTVSPost2010PropOp53
 70
     1
102
RTVSPost2010Prop54
  1
strokes_ogs.tif
102
RTVSPost2010PropOp54
 70
     1
102
RTVSPost2010Prop55
280
     0
102
RTVSPost2010PropOp55
 70
     1
102
RTVSPost2010Prop56
140
1.0
102
RTVSPost2010PropOp56
 70
     1
102
RTVSPost2010Prop57
140
1.0
102
RTVSPost2010PropOp57
 70
     1
102
RTVSPropertyOp0
 70
     1
102
RTVSPropertyOp1
 70
     1
102
RTVSPropertyOp2
 70
     1
102
RTVSPropertyOp3
 70
     1
102
RTVSPropertyOp4
 70
     1
102
RTVSPropertyOp5
 70
     1
102
RTVSPropertyOp6
 70
     1
102
RTVSPropertyOp7
 70
     1
102
RTVSPropertyOp8
 70
     1
102
RTVSPropertyOp9
 70
     1
102
RTVSPropertyOp10
 70
     1
102
RTVSPropertyOp11
 70
     1
102
RTVSPropertyOp12
 70
     1
102
RTVSPropertyOp13
 70
     1
102
RTVSPropertyOp14
 70
     1
102
RTVSPropertyOp15
 70
     1
102
RTVSPropertyOp16
 70
     1
102
RTVSPropertyOp17
 70
     1
102
RTVSPropertyOp18
 70
     1
102
RTVSPropertyOp19
 70
     1
102
RTVSPropertyOp20
 70
     1
102
RTVSPropertyOp21
 70
     1
102
RTVSPropertyOp22
 70
     1
102
RTVSPropertyOp23
 70
     1
102
RTVSPropertyOp24
 70
     1
102
RTVSPropertyOp25
 70
     1
102
RTVSPropertyOp26
 70
     1
102
RTVSPropertyOp27
 70
     1
102
RTVSPropertyOp28
 70
     1
102
RTVSPropertyOp29
 70
     1
102
RTVSPropertyOp30
 70
     1
102
RTVSPropertyOp31
 70
     1
102
RTVSPropertyOp32
 70
     1
102
RTVSPropertyOp33
 70
     1
102
RTVSPropertyOp34
 70
     1
102
RTVSPropertyOp35
 70
     1
102
RTVSPropertyOp36
 70
     1
102
RTVSPropertyOp37
 70
     1
102
RTVSPropertyOp38
 70
     1
102
RTVSPropertyOp39
 70
     1
102
RTVSPropertyOp40
 70
     1
102
RTVSPropertyOp41
 70
     1
102
RTVSPropertyOp42
 70
     1
102
RTVSPropertyOp43
 70
     1
102
RTVSPropertyOp44
 70
     1
102
RTVSPropertyOp45
 70
     1
102
RTVSPropertyOp46
 70
     1
102
RTVSPropertyOp47
 70
     1
102
RTVSPropertyOp48
 70
     1
102
RTVSPropertyOp49
 70
     1
102
RTVSPropertyOp50
 70
     1
102
RTVSPropertyOp51
 70
     0
102
RTVSPropertyOp52
 70
     0
102
RTVSPropertyOp53
 70
     1
102
RTVSPropertyOp54
 70
     1
102
RTVSPropertyOp55
 70
     1
102
RTVSPropertyOp56
 70
     1
102
RTVSPropertyOp57
 70
     1
102
RTVSPropertyOp58
 70
     1
102
RTVSPropertyOp59
 70
     1
102
RTVSPropertyOp60
 70
     1
102
RTVSPropertyOp61
 70
     1
102
RTVSPropertyOp62
 70
     1
  0
XRECORD
  5
9C61
102
{ACAD_REACTORS
330
9C60
102
}
330
9C60
100
AcDbXrecord
280
     1
102
RTVSPost2010Prop28
280
     0
102
RTVSPost2010PropOp28
 70
     1
102
RTVSPost2010Prop29
280
     1
102
RTVSPost2010PropOp29
 70
     1
102
RTVSPost2010Prop30
280
     1
102
RTVSPost2010PropOp30
 70
     1
102
RTVSPost2010Prop31
280
     0
102
RTVSPost2010PropOp31
 70
     1
102
RTVSPost2010Prop32
280
     0
102
RTVSPost2010PropOp32
 70
     1
102
RTVSPost2010Prop33
280
     0
102
RTVSPost2010PropOp33
 70
     1
102
RTVSPost2010Prop34
280
     0
102
RTVSPost2010PropOp34
 70
     1
102
RTVSPost2010Prop35
280
     0
102
RTVSPost2010PropOp35
 70
     1
102
RTVSPost2010Prop36
280
     0
102
RTVSPost2010PropOp36
 70
     1
102
RTVSPost2010Prop37
 90
       50
102
RTVSPost2010PropOp37
 70
     1
102
RTVSPost2010Prop38
140
0.0
102
RTVSPost2010PropOp38
 70
     1
102
RTVSPost2010Prop39
140
1.0
102
RTVSPost2010PropOp39
 70
     1
102
RTVSPost2010Prop40
 90
        0
102
RTVSPost2010PropOp40
 70
     1
102
RTVSPost2010Prop41ColorIndex
 90
       18
102
RTVSPost2010Prop41ColorRGB
 90
        0
102
RTVSPost2010PropOp41
 70
     1
102
RTVSPost2010Prop42
 90
       50
102
RTVSPost2010PropOp42
 70
     1
102
RTVSPost2010Prop43
 90
        3
102
RTVSPost2010PropOp43
 70
     1
102
RTVSPost2010Prop44ColorIndex
 90
        5
102
RTVSPost2010Prop44ColorRGB
 90
      255
102
RTVSPost2010PropOp44
 70
     1
102
RTVSPost2010Prop45
280
     0
102
RTVSPost2010PropOp45
 70
     1
102
RTVSPost2010Prop46
 90
       50
102
RTVSPost2010PropOp46
 70
     1
102
RTVSPost2010Prop47
 90
       50
102
RTVSPost2010PropOp47
 70
     1
102
RTVSPost2010Prop48
 90
       50
102
RTVSPost2010PropOp48
 70
     1
102
RTVSPost2010Prop49
280
     0
102
RTVSPost2010PropOp49
 70
     1
102
RTVSPost2010Prop50
 90
       50
102
RTVSPost2010PropOp50
 70
     1
102
RTVSPost2010Prop51ColorIndex
 90
      256
102
RTVSPost2010Prop51ColorRGB
 90
-16777216
102
RTVSPost2010PropOp51
 70
     0
102
RTVSPost2010Prop52
140
1.0
102
RTVSPost2010PropOp52
 70
     0
102
RTVSPost2010Prop53
 90
        2
102
RTVSPost2010PropOp53
 70
     1
102
RTVSPost2010Prop54
  1
strokes_ogs.tif
102
RTVSPost2010PropOp54
 70
     1
102
RTVSPost2010Prop55
280
     0
102
RTVSPost2010PropOp55
 70
     1
102
RTVSPost2010Prop56
140
1.0
102
RTVSPost2010PropOp56
 70
     1
102
RTVSPost2010Prop57
140
1.0
102
RTVSPost2010PropOp57
 70
     1
102
RTVSPropertyOp0
 70
     1
102
RTVSPropertyOp1
 70
     1
102
RTVSPropertyOp2
 70
     1
102
RTVSPropertyOp3
 70
     1
102
RTVSPropertyOp4
 70
     1
102
RTVSPropertyOp5
 70
     1
102
RTVSPropertyOp6
 70
     1
102
RTVSPropertyOp7
 70
     1
102
RTVSPropertyOp8
 70
     1
102
RTVSPropertyOp9
 70
     1
102
RTVSPropertyOp10
 70
     1
102
RTVSPropertyOp11
 70
     1
102
RTVSPropertyOp12
 70
     1
102
RTVSPropertyOp13
 70
     1
102
RTVSPropertyOp14
 70
     1
102
RTVSPropertyOp15
 70
     1
102
RTVSPropertyOp16
 70
     1
102
RTVSPropertyOp17
 70
     1
102
RTVSPropertyOp18
 70
     1
102
RTVSPropertyOp19
 70
     1
102
RTVSPropertyOp20
 70
     1
102
RTVSPropertyOp21
 70
     1
102
RTVSPropertyOp22
 70
     1
102
RTVSPropertyOp23
 70
     1
102
RTVSPropertyOp24
 70
     1
102
RTVSPropertyOp25
 70
     1
102
RTVSPropertyOp26
 70
     1
102
RTVSPropertyOp27
 70
     1
102
RTVSPropertyOp28
 70
     1
102
RTVSPropertyOp29
 70
     1
102
RTVSPropertyOp30
 70
     1
102
RTVSPropertyOp31
 70
     1
102
RTVSPropertyOp32
 70
     1
102
RTVSPropertyOp33
 70
     1
102
RTVSPropertyOp34
 70
     1
102
RTVSPropertyOp35
 70
     1
102
RTVSPropertyOp36
 70
     1
102
RTVSPropertyOp37
 70
     1
102
RTVSPropertyOp38
 70
     1
102
RTVSPropertyOp39
 70
     1
102
RTVSPropertyOp40
 70
     1
102
RTVSPropertyOp41
 70
     1
102
RTVSPropertyOp42
 70
     1
102
RTVSPropertyOp43
 70
     1
102
RTVSPropertyOp44
 70
     1
102
RTVSPropertyOp45
 70
     1
102
RTVSPropertyOp46
 70
     1
102
RTVSPropertyOp47
 70
     1
102
RTVSPropertyOp48
 70
     1
102
RTVSPropertyOp49
 70
     1
102
RTVSPropertyOp50
 70
     1
102
RTVSPropertyOp51
 70
     0
102
RTVSPropertyOp52
 70
     0
102
RTVSPropertyOp53
 70
     1
102
RTVSPropertyOp54
 70
     1
102
RTVSPropertyOp55
 70
     1
102
RTVSPropertyOp56
 70
     1
102
RTVSPropertyOp57
 70
     1
102
RTVSPropertyOp58
 70
     1
102
RTVSPropertyOp59
 70
     1
102
RTVSPropertyOp60
 70
     1
102
RTVSPropertyOp61
 70
     1
102
RTVSPropertyOp62
 70
     1
  0
XRECORD
  5
9C5B
102
{ACAD_REACTORS
330
9C5A
102
}
330
9C5A
100
AcDbXrecord
280
     1
102
RTVSPost2010Prop28
280
     0
102
RTVSPost2010PropOp28
 70
     1
102
RTVSPost2010Prop29
280
     1
102
RTVSPost2010PropOp29
 70
     1
102
RTVSPost2010Prop30
280
     1
102
RTVSPost2010PropOp30
 70
     1
102
RTVSPost2010Prop31
280
     0
102
RTVSPost2010PropOp31
 70
     1
102
RTVSPost2010Prop32
280
     0
102
RTVSPost2010PropOp32
 70
     1
102
RTVSPost2010Prop33
280
     0
102
RTVSPost2010PropOp33
 70
     1
102
RTVSPost2010Prop34
280
     0
102
RTVSPost2010PropOp34
 70
     1
102
RTVSPost2010Prop35
280
     0
102
RTVSPost2010PropOp35
 70
     1
102
RTVSPost2010Prop36
280
     0
102
RTVSPost2010PropOp36
 70
     1
102
RTVSPost2010Prop37
 90
       50
102
RTVSPost2010PropOp37
 70
     1
102
RTVSPost2010Prop38
140
0.0
102
RTVSPost2010PropOp38
 70
     1
102
RTVSPost2010Prop39
140
1.0
102
RTVSPost2010PropOp39
 70
     1
102
RTVSPost2010Prop40
 90
        0
102
RTVSPost2010PropOp40
 70
     1
102
RTVSPost2010Prop41ColorIndex
 90
       18
102
RTVSPost2010Prop41ColorRGB
 90
        0
102
RTVSPost2010PropOp41
 70
     1
102
RTVSPost2010Prop42
 90
       50
102
RTVSPost2010PropOp42
 70
     1
102
RTVSPost2010Prop43
 90
        3
102
RTVSPost2010PropOp43
 70
     1
102
RTVSPost2010Prop44ColorIndex
 90
        5
102
RTVSPost2010Prop44ColorRGB
 90
      255
102
RTVSPost2010PropOp44
 70
     1
102
RTVSPost2010Prop45
280
     0
102
RTVSPost2010PropOp45
 70
     1
102
RTVSPost2010Prop46
 90
       50
102
RTVSPost2010PropOp46
 70
     1
102
RTVSPost2010Prop47
 90
       50
102
RTVSPost2010PropOp47
 70
     1
102
RTVSPost2010Prop48
 90
       50
102
RTVSPost2010PropOp48
 70
     1
102
RTVSPost2010Prop49
280
     0
102
RTVSPost2010PropOp49
 70
     1
102
RTVSPost2010Prop50
 90
       50
102
RTVSPost2010PropOp50
 70
     1
102
RTVSPost2010Prop51ColorIndex
 90
      256
102
RTVSPost2010Prop51ColorRGB
 90
-16777216
102
RTVSPost2010PropOp51
 70
     0
102
RTVSPost2010Prop52
140
1.0
102
RTVSPost2010PropOp52
 70
     0
102
RTVSPost2010Prop53
 90
        2
102
RTVSPost2010PropOp53
 70
     1
102
RTVSPost2010Prop54
  1
strokes_ogs.tif
102
RTVSPost2010PropOp54
 70
     1
102
RTVSPost2010Prop55
280
     0
102
RTVSPost2010PropOp55
 70
     1
102
RTVSPost2010Prop56
140
1.0
102
RTVSPost2010PropOp56
 70
     1
102
RTVSPost2010Prop57
140
1.0
102
RTVSPost2010PropOp57
 70
     1
102
RTVSPropertyOp0
 70
     1
102
RTVSPropertyOp1
 70
     1
102
RTVSPropertyOp2
 70
     1
102
RTVSPropertyOp3
 70
     1
102
RTVSPropertyOp4
 70
     1
102
RTVSPropertyOp5
 70
     1
102
RTVSPropertyOp6
 70
     1
102
RTVSPropertyOp7
 70
     1
102
RTVSPropertyOp8
 70
     1
102
RTVSPropertyOp9
 70
     1
102
RTVSPropertyOp10
 70
     1
102
RTVSPropertyOp11
 70
     1
102
RTVSPropertyOp12
 70
     1
102
RTVSPropertyOp13
 70
     1
102
RTVSPropertyOp14
 70
     1
102
RTVSPropertyOp15
 70
     1
102
RTVSPropertyOp16
 70
     1
102
RTVSPropertyOp17
 70
     1
102
RTVSPropertyOp18
 70
     1
102
RTVSPropertyOp19
 70
     1
102
RTVSPropertyOp20
 70
     1
102
RTVSPropertyOp21
 70
     1
102
RTVSPropertyOp22
 70
     1
102
RTVSPropertyOp23
 70
     1
102
RTVSPropertyOp24
 70
     1
102
RTVSPropertyOp25
 70
     1
102
RTVSPropertyOp26
 70
     1
102
RTVSPropertyOp27
 70
     1
102
RTVSPropertyOp28
 70
     1
102
RTVSPropertyOp29
 70
     1
102
RTVSPropertyOp30
 70
     1
102
RTVSPropertyOp31
 70
     1
102
RTVSPropertyOp32
 70
     1
102
RTVSPropertyOp33
 70
     1
102
RTVSPropertyOp34
 70
     1
102
RTVSPropertyOp35
 70
     1
102
RTVSPropertyOp36
 70
     1
102
RTVSPropertyOp37
 70
     1
102
RTVSPropertyOp38
 70
     1
102
RTVSPropertyOp39
 70
     1
102
RTVSPropertyOp40
 70
     1
102
RTVSPropertyOp41
 70
     1
102
RTVSPropertyOp42
 70
     1
102
RTVSPropertyOp43
 70
     1
102
RTVSPropertyOp44
 70
     1
102
RTVSPropertyOp45
 70
     1
102
RTVSPropertyOp46
 70
     1
102
RTVSPropertyOp47
 70
     1
102
RTVSPropertyOp48
 70
     1
102
RTVSPropertyOp49
 70
     1
102
RTVSPropertyOp50
 70
     1
102
RTVSPropertyOp51
 70
     0
102
RTVSPropertyOp52
 70
     0
102
RTVSPropertyOp53
 70
     1
102
RTVSPropertyOp54
 70
     1
102
RTVSPropertyOp55
 70
     1
102
RTVSPropertyOp56
 70
     1
102
RTVSPropertyOp57
 70
     1
102
RTVSPropertyOp58
 70
     1
102
RTVSPropertyOp59
 70
     1
102
RTVSPropertyOp60
 70
     1
102
RTVSPropertyOp61
 70
     1
102
RTVSPropertyOp62
 70
     1
  0
XRECORD
  5
9C5D
102
{ACAD_REACTORS
330
9C5C
102
}
330
9C5C
100
AcDbXrecord
280
     1
102
RTVSPost2010Prop28
280
     0
102
RTVSPost2010PropOp28
 70
     1
102
RTVSPost2010Prop29
280
     1
102
RTVSPost2010PropOp29
 70
     1
102
RTVSPost2010Prop30
280
     1
102
RTVSPost2010PropOp30
 70
     1
102
RTVSPost2010Prop31
280
     0
102
RTVSPost2010PropOp31
 70
     1
102
RTVSPost2010Prop32
280
     0
102
RTVSPost2010PropOp32
 70
     1
102
RTVSPost2010Prop33
280
     0
102
RTVSPost2010PropOp33
 70
     1
102
RTVSPost2010Prop34
280
     0
102
RTVSPost2010PropOp34
 70
     1
102
RTVSPost2010Prop35
280
     0
102
RTVSPost2010PropOp35
 70
     1
102
RTVSPost2010Prop36
280
     0
102
RTVSPost2010PropOp36
 70
     1
102
RTVSPost2010Prop37
 90
       50
102
RTVSPost2010PropOp37
 70
     1
102
RTVSPost2010Prop38
140
0.0
102
RTVSPost2010PropOp38
 70
     1
102
RTVSPost2010Prop39
140
1.0
102
RTVSPost2010PropOp39
 70
     1
102
RTVSPost2010Prop40
 90
        0
102
RTVSPost2010PropOp40
 70
     1
102
RTVSPost2010Prop41ColorIndex
 90
       18
102
RTVSPost2010Prop41ColorRGB
 90
        0
102
RTVSPost2010PropOp41
 70
     1
102
RTVSPost2010Prop42
 90
       50
102
RTVSPost2010PropOp42
 70
     1
102
RTVSPost2010Prop43
 90
        3
102
RTVSPost2010PropOp43
 70
     1
102
RTVSPost2010Prop44ColorIndex
 90
        5
102
RTVSPost2010Prop44ColorRGB
 90
      255
102
RTVSPost2010PropOp44
 70
     1
102
RTVSPost2010Prop45
280
     0
102
RTVSPost2010PropOp45
 70
     1
102
RTVSPost2010Prop46
 90
       50
102
RTVSPost2010PropOp46
 70
     1
102
RTVSPost2010Prop47
 90
       50
102
RTVSPost2010PropOp47
 70
     1
102
RTVSPost2010Prop48
 90
       50
102
RTVSPost2010PropOp48
 70
     1
102
RTVSPost2010Prop49
280
     0
102
RTVSPost2010PropOp49
 70
     1
102
RTVSPost2010Prop50
 90
       50
102
RTVSPost2010PropOp50
 70
     1
102
RTVSPost2010Prop51ColorIndex
 90
      256
102
RTVSPost2010Prop51ColorRGB
 90
-16777216
102
RTVSPost2010PropOp51
 70
     0
102
RTVSPost2010Prop52
140
1.0
102
RTVSPost2010PropOp52
 70
     0
102
RTVSPost2010Prop53
 90
        2
102
RTVSPost2010PropOp53
 70
     1
102
RTVSPost2010Prop54
  1
strokes_ogs.tif
102
RTVSPost2010PropOp54
 70
     1
102
RTVSPost2010Prop55
280
     0
102
RTVSPost2010PropOp55
 70
     1
102
RTVSPost2010Prop56
140
1.0
102
RTVSPost2010PropOp56
 70
     1
102
RTVSPost2010Prop57
140
1.0
102
RTVSPost2010PropOp57
 70
     1
102
RTVSPropertyOp0
 70
     1
102
RTVSPropertyOp1
 70
     1
102
RTVSPropertyOp2
 70
     1
102
RTVSPropertyOp3
 70
     1
102
RTVSPropertyOp4
 70
     1
102
RTVSPropertyOp5
 70
     1
102
RTVSPropertyOp6
 70
     1
102
RTVSPropertyOp7
 70
     1
102
RTVSPropertyOp8
 70
     1
102
RTVSPropertyOp9
 70
     1
102
RTVSPropertyOp10
 70
     1
102
RTVSPropertyOp11
 70
     1
102
RTVSPropertyOp12
 70
     1
102
RTVSPropertyOp13
 70
     1
102
RTVSPropertyOp14
 70
     1
102
RTVSPropertyOp15
 70
     1
102
RTVSPropertyOp16
 70
     1
102
RTVSPropertyOp17
 70
     1
102
RTVSPropertyOp18
 70
     1
102
RTVSPropertyOp19
 70
     1
102
RTVSPropertyOp20
 70
     1
102
RTVSPropertyOp21
 70
     1
102
RTVSPropertyOp22
 70
     1
102
RTVSPropertyOp23
 70
     1
102
RTVSPropertyOp24
 70
     1
102
RTVSPropertyOp25
 70
     1
102
RTVSPropertyOp26
 70
     1
102
RTVSPropertyOp27
 70
     1
102
RTVSPropertyOp28
 70
     1
102
RTVSPropertyOp29
 70
     1
102
RTVSPropertyOp30
 70
     1
102
RTVSPropertyOp31
 70
     1
102
RTVSPropertyOp32
 70
     1
102
RTVSPropertyOp33
 70
     1
102
RTVSPropertyOp34
 70
     1
102
RTVSPropertyOp35
 70
     1
102
RTVSPropertyOp36
 70
     1
102
RTVSPropertyOp37
 70
     1
102
RTVSPropertyOp38
 70
     1
102
RTVSPropertyOp39
 70
     1
102
RTVSPropertyOp40
 70
     1
102
RTVSPropertyOp41
 70
     1
102
RTVSPropertyOp42
 70
     1
102
RTVSPropertyOp43
 70
     1
102
RTVSPropertyOp44
 70
     1
102
RTVSPropertyOp45
 70
     1
102
RTVSPropertyOp46
 70
     1
102
RTVSPropertyOp47
 70
     1
102
RTVSPropertyOp48
 70
     1
102
RTVSPropertyOp49
 70
     1
102
RTVSPropertyOp50
 70
     1
102
RTVSPropertyOp51
 70
     0
102
RTVSPropertyOp52
 70
     0
102
RTVSPropertyOp53
 70
     1
102
RTVSPropertyOp54
 70
     1
102
RTVSPropertyOp55
 70
     1
102
RTVSPropertyOp56
 70
     1
102
RTVSPropertyOp57
 70
     1
102
RTVSPropertyOp58
 70
     1
102
RTVSPropertyOp59
 70
     1
102
RTVSPropertyOp60
 70
     1
102
RTVSPropertyOp61
 70
     1
102
RTVSPropertyOp62
 70
     1
  0
XRECORD
  5
9C53
102
{ACAD_REACTORS
330
9C52
102
}
330
9C52
100
AcDbXrecord
280
     1
102
RTVSPost2010Prop28
280
     0
102
RTVSPost2010PropOp28
 70
     1
102
RTVSPost2010Prop29
280
     1
102
RTVSPost2010PropOp29
 70
     1
102
RTVSPost2010Prop30
280
     1
102
RTVSPost2010PropOp30
 70
     1
102
RTVSPost2010Prop31
280
     0
102
RTVSPost2010PropOp31
 70
     1
102
RTVSPost2010Prop32
280
     0
102
RTVSPost2010PropOp32
 70
     1
102
RTVSPost2010Prop33
280
     0
102
RTVSPost2010PropOp33
 70
     1
102
RTVSPost2010Prop34
280
     0
102
RTVSPost2010PropOp34
 70
     1
102
RTVSPost2010Prop35
280
     0
102
RTVSPost2010PropOp35
 70
     1
102
RTVSPost2010Prop36
280
     0
102
RTVSPost2010PropOp36
 70
     1
102
RTVSPost2010Prop37
 90
       50
102
RTVSPost2010PropOp37
 70
     1
102
RTVSPost2010Prop38
140
0.0
102
RTVSPost2010PropOp38
 70
     1
102
RTVSPost2010Prop39
140
1.0
102
RTVSPost2010PropOp39
 70
     1
102
RTVSPost2010Prop40
 90
        0
102
RTVSPost2010PropOp40
 70
     1
102
RTVSPost2010Prop41ColorIndex
 90
       18
102
RTVSPost2010Prop41ColorRGB
 90
        0
102
RTVSPost2010PropOp41
 70
     1
102
RTVSPost2010Prop42
 90
       50
102
RTVSPost2010PropOp42
 70
     1
102
RTVSPost2010Prop43
 90
        3
102
RTVSPost2010PropOp43
 70
     1
102
RTVSPost2010Prop44ColorIndex
 90
        5
102
RTVSPost2010Prop44ColorRGB
 90
      255
102
RTVSPost2010PropOp44
 70
     1
102
RTVSPost2010Prop45
280
     0
102
RTVSPost2010PropOp45
 70
     1
102
RTVSPost2010Prop46
 90
       50
102
RTVSPost2010PropOp46
 70
     1
102
RTVSPost2010Prop47
 90
       50
102
RTVSPost2010PropOp47
 70
     1
102
RTVSPost2010Prop48
 90
       50
102
RTVSPost2010PropOp48
 70
     1
102
RTVSPost2010Prop49
280
     0
102
RTVSPost2010PropOp49
 70
     1
102
RTVSPost2010Prop50
 90
       50
102
RTVSPost2010PropOp50
 70
     1
102
RTVSPost2010Prop51ColorIndex
 90
      256
102
RTVSPost2010Prop51ColorRGB
 90
-16777216
102
RTVSPost2010PropOp51
 70
     0
102
RTVSPost2010Prop52
140
1.0
102
RTVSPost2010PropOp52
 70
     0
102
RTVSPost2010Prop53
 90
        2
102
RTVSPost2010PropOp53
 70
     1
102
RTVSPost2010Prop54
  1
strokes_ogs.tif
102
RTVSPost2010PropOp54
 70
     1
102
RTVSPost2010Prop55
280
     0
102
RTVSPost2010PropOp55
 70
     1
102
RTVSPost2010Prop56
140
1.0
102
RTVSPost2010PropOp56
 70
     1
102
RTVSPost2010Prop57
140
1.0
102
RTVSPost2010PropOp57
 70
     1
102
RTVSPropertyOp0
 70
     1
102
RTVSPropertyOp1
 70
     1
102
RTVSPropertyOp2
 70
     1
102
RTVSPropertyOp3
 70
     1
102
RTVSPropertyOp4
 70
     1
102
RTVSPropertyOp5
 70
     1
102
RTVSPropertyOp6
 70
     1
102
RTVSPropertyOp7
 70
     1
102
RTVSPropertyOp8
 70
     1
102
RTVSPropertyOp9
 70
     1
102
RTVSPropertyOp10
 70
     1
102
RTVSPropertyOp11
 70
     1
102
RTVSPropertyOp12
 70
     1
102
RTVSPropertyOp13
 70
     1
102
RTVSPropertyOp14
 70
     1
102
RTVSPropertyOp15
 70
     1
102
RTVSPropertyOp16
 70
     1
102
RTVSPropertyOp17
 70
     1
102
RTVSPropertyOp18
 70
     1
102
RTVSPropertyOp19
 70
     1
102
RTVSPropertyOp20
 70
     1
102
RTVSPropertyOp21
 70
     1
102
RTVSPropertyOp22
 70
     1
102
RTVSPropertyOp23
 70
     1
102
RTVSPropertyOp24
 70
     1
102
RTVSPropertyOp25
 70
     1
102
RTVSPropertyOp26
 70
     1
102
RTVSPropertyOp27
 70
     1
102
RTVSPropertyOp28
 70
     1
102
RTVSPropertyOp29
 70
     1
102
RTVSPropertyOp30
 70
     1
102
RTVSPropertyOp31
 70
     1
102
RTVSPropertyOp32
 70
     1
102
RTVSPropertyOp33
 70
     1
102
RTVSPropertyOp34
 70
     1
102
RTVSPropertyOp35
 70
     1
102
RTVSPropertyOp36
 70
     1
102
RTVSPropertyOp37
 70
     1
102
RTVSPropertyOp38
 70
     1
102
RTVSPropertyOp39
 70
     1
102
RTVSPropertyOp40
 70
     1
102
RTVSPropertyOp41
 70
     1
102
RTVSPropertyOp42
 70
     1
102
RTVSPropertyOp43
 70
     1
102
RTVSPropertyOp44
 70
     1
102
RTVSPropertyOp45
 70
     1
102
RTVSPropertyOp46
 70
     1
102
RTVSPropertyOp47
 70
     1
102
RTVSPropertyOp48
 70
     1
102
RTVSPropertyOp49
 70
     1
102
RTVSPropertyOp50
 70
     1
102
RTVSPropertyOp51
 70
     0
102
RTVSPropertyOp52
 70
     0
102
RTVSPropertyOp53
 70
     1
102
RTVSPropertyOp54
 70
     1
102
RTVSPropertyOp55
 70
     1
102
RTVSPropertyOp56
 70
     1
102
RTVSPropertyOp57
 70
     1
102
RTVSPropertyOp58
 70
     1
102
RTVSPropertyOp59
 70
     1
102
RTVSPropertyOp60
 70
     1
102
RTVSPropertyOp61
 70
     1
102
RTVSPropertyOp62
 70
     1
  0
XRECORD
  5
9C47
102
{ACAD_REACTORS
330
9C46
102
}
330
9C46
100
AcDbXrecord
280
     1
102
RTVSPost2010Prop28
280
     0
102
RTVSPost2010PropOp28
 70
     1
102
RTVSPost2010Prop29
280
     1
102
RTVSPost2010PropOp29
 70
     1
102
RTVSPost2010Prop30
280
     1
102
RTVSPost2010PropOp30
 70
     1
102
RTVSPost2010Prop31
280
     0
102
RTVSPost2010PropOp31
 70
     1
102
RTVSPost2010Prop32
280
     0
102
RTVSPost2010PropOp32
 70
     1
102
RTVSPost2010Prop33
280
     0
102
RTVSPost2010PropOp33
 70
     1
102
RTVSPost2010Prop34
280
     0
102
RTVSPost2010PropOp34
 70
     1
102
RTVSPost2010Prop35
280
     0
102
RTVSPost2010PropOp35
 70
     1
102
RTVSPost2010Prop36
280
     0
102
RTVSPost2010PropOp36
 70
     1
102
RTVSPost2010Prop37
 90
       50
102
RTVSPost2010PropOp37
 70
     1
102
RTVSPost2010Prop38
140
0.0
102
RTVSPost2010PropOp38
 70
     1
102
RTVSPost2010Prop39
140
1.0
102
RTVSPost2010PropOp39
 70
     1
102
RTVSPost2010Prop40
 90
        0
102
RTVSPost2010PropOp40
 70
     1
102
RTVSPost2010Prop41ColorIndex
 90
       18
102
RTVSPost2010Prop41ColorRGB
 90
        0
102
RTVSPost2010PropOp41
 70
     1
102
RTVSPost2010Prop42
 90
       50
102
RTVSPost2010PropOp42
 70
     1
102
RTVSPost2010Prop43
 90
        3
102
RTVSPost2010PropOp43
 70
     1
102
RTVSPost2010Prop44ColorIndex
 90
        5
102
RTVSPost2010Prop44ColorRGB
 90
      255
102
RTVSPost2010PropOp44
 70
     1
102
RTVSPost2010Prop45
280
     0
102
RTVSPost2010PropOp45
 70
     1
102
RTVSPost2010Prop46
 90
       50
102
RTVSPost2010PropOp46
 70
     1
102
RTVSPost2010Prop47
 90
       50
102
RTVSPost2010PropOp47
 70
     1
102
RTVSPost2010Prop48
 90
       50
102
RTVSPost2010PropOp48
 70
     1
102
RTVSPost2010Prop49
280
     0
102
RTVSPost2010PropOp49
 70
     1
102
RTVSPost2010Prop50
 90
       50
102
RTVSPost2010PropOp50
 70
     1
102
RTVSPost2010Prop51ColorIndex
 90
      256
102
RTVSPost2010Prop51ColorRGB
 90
-16777216
102
RTVSPost2010PropOp51
 70
     0
102
RTVSPost2010Prop52
140
1.0
102
RTVSPost2010PropOp52
 70
     0
102
RTVSPost2010Prop53
 90
        2
102
RTVSPost2010PropOp53
 70
     1
102
RTVSPost2010Prop54
  1
strokes_ogs.tif
102
RTVSPost2010PropOp54
 70
     1
102
RTVSPost2010Prop55
280
     0
102
RTVSPost2010PropOp55
 70
     1
102
RTVSPost2010Prop56
140
1.0
102
RTVSPost2010PropOp56
 70
     1
102
RTVSPost2010Prop57
140
1.0
102
RTVSPost2010PropOp57
 70
     1
102
RTVSPropertyOp0
 70
     1
102
RTVSPropertyOp1
 70
     1
102
RTVSPropertyOp2
 70
     1
102
RTVSPropertyOp3
 70
     1
102
RTVSPropertyOp4
 70
     1
102
RTVSPropertyOp5
 70
     1
102
RTVSPropertyOp6
 70
     1
102
RTVSPropertyOp7
 70
     1
102
RTVSPropertyOp8
 70
     1
102
RTVSPropertyOp9
 70
     1
102
RTVSPropertyOp10
 70
     1
102
RTVSPropertyOp11
 70
     1
102
RTVSPropertyOp12
 70
     1
102
RTVSPropertyOp13
 70
     1
102
RTVSPropertyOp14
 70
     1
102
RTVSPropertyOp15
 70
     1
102
RTVSPropertyOp16
 70
     1
102
RTVSPropertyOp17
 70
     1
102
RTVSPropertyOp18
 70
     1
102
RTVSPropertyOp19
 70
     1
102
RTVSPropertyOp20
 70
     1
102
RTVSPropertyOp21
 70
     1
102
RTVSPropertyOp22
 70
     1
102
RTVSPropertyOp23
 70
     1
102
RTVSPropertyOp24
 70
     1
102
RTVSPropertyOp25
 70
     1
102
RTVSPropertyOp26
 70
     1
102
RTVSPropertyOp27
 70
     1
102
RTVSPropertyOp28
 70
     1
102
RTVSPropertyOp29
 70
     1
102
RTVSPropertyOp30
 70
     1
102
RTVSPropertyOp31
 70
     1
102
RTVSPropertyOp32
 70
     1
102
RTVSPropertyOp33
 70
     1
102
RTVSPropertyOp34
 70
     1
102
RTVSPropertyOp35
 70
     1
102
RTVSPropertyOp36
 70
     1
102
RTVSPropertyOp37
 70
     1
102
RTVSPropertyOp38
 70
     1
102
RTVSPropertyOp39
 70
     1
102
RTVSPropertyOp40
 70
     1
102
RTVSPropertyOp41
 70
     1
102
RTVSPropertyOp42
 70
     1
102
RTVSPropertyOp43
 70
     1
102
RTVSPropertyOp44
 70
     1
102
RTVSPropertyOp45
 70
     1
102
RTVSPropertyOp46
 70
     1
102
RTVSPropertyOp47
 70
     1
102
RTVSPropertyOp48
 70
     1
102
RTVSPropertyOp49
 70
     1
102
RTVSPropertyOp50
 70
     1
102
RTVSPropertyOp51
 70
     0
102
RTVSPropertyOp52
 70
     0
102
RTVSPropertyOp53
 70
     1
102
RTVSPropertyOp54
 70
     1
102
RTVSPropertyOp55
 70
     1
102
RTVSPropertyOp56
 70
     1
102
RTVSPropertyOp57
 70
     1
102
RTVSPropertyOp58
 70
     1
102
RTVSPropertyOp59
 70
     1
102
RTVSPropertyOp60
 70
     1
102
RTVSPropertyOp61
 70
     1
102
RTVSPropertyOp62
 70
     1
  0
XRECORD
  5
9C5F
102
{ACAD_REACTORS
330
9C5E
102
}
330
9C5E
100
AcDbXrecord
280
     1
102
RTVSPost2010Prop28
280
     0
102
RTVSPost2010PropOp28
 70
     1
102
RTVSPost2010Prop29
280
     1
102
RTVSPost2010PropOp29
 70
     1
102
RTVSPost2010Prop30
280
     1
102
RTVSPost2010PropOp30
 70
     1
102
RTVSPost2010Prop31
280
     0
102
RTVSPost2010PropOp31
 70
     1
102
RTVSPost2010Prop32
280
     0
102
RTVSPost2010PropOp32
 70
     1
102
RTVSPost2010Prop33
280
     0
102
RTVSPost2010PropOp33
 70
     1
102
RTVSPost2010Prop34
280
     0
102
RTVSPost2010PropOp34
 70
     1
102
RTVSPost2010Prop35
280
     0
102
RTVSPost2010PropOp35
 70
     1
102
RTVSPost2010Prop36
280
     0
102
RTVSPost2010PropOp36
 70
     1
102
RTVSPost2010Prop37
 90
       50
102
RTVSPost2010PropOp37
 70
     1
102
RTVSPost2010Prop38
140
0.0
102
RTVSPost2010PropOp38
 70
     1
102
RTVSPost2010Prop39
140
1.0
102
RTVSPost2010PropOp39
 70
     1
102
RTVSPost2010Prop40
 90
        0
102
RTVSPost2010PropOp40
 70
     1
102
RTVSPost2010Prop41ColorIndex
 90
       18
102
RTVSPost2010Prop41ColorRGB
 90
        0
102
RTVSPost2010PropOp41
 70
     1
102
RTVSPost2010Prop42
 90
       50
102
RTVSPost2010PropOp42
 70
     1
102
RTVSPost2010Prop43
 90
        3
102
RTVSPost2010PropOp43
 70
     1
102
RTVSPost2010Prop44ColorIndex
 90
        5
102
RTVSPost2010Prop44ColorRGB
 90
      255
102
RTVSPost2010PropOp44
 70
     1
102
RTVSPost2010Prop45
280
     0
102
RTVSPost2010PropOp45
 70
     1
102
RTVSPost2010Prop46
 90
       50
102
RTVSPost2010PropOp46
 70
     1
102
RTVSPost2010Prop47
 90
       50
102
RTVSPost2010PropOp47
 70
     1
102
RTVSPost2010Prop48
 90
       50
102
RTVSPost2010PropOp48
 70
     1
102
RTVSPost2010Prop49
280
     0
102
RTVSPost2010PropOp49
 70
     1
102
RTVSPost2010Prop50
 90
       50
102
RTVSPost2010PropOp50
 70
     1
102
RTVSPost2010Prop51ColorIndex
 90
      256
102
RTVSPost2010Prop51ColorRGB
 90
-16777216
102
RTVSPost2010PropOp51
 70
     0
102
RTVSPost2010Prop52
140
1.0
102
RTVSPost2010PropOp52
 70
     0
102
RTVSPost2010Prop53
 90
        2
102
RTVSPost2010PropOp53
 70
     1
102
RTVSPost2010Prop54
  1
strokes_ogs.tif
102
RTVSPost2010PropOp54
 70
     1
102
RTVSPost2010Prop55
280
     0
102
RTVSPost2010PropOp55
 70
     1
102
RTVSPost2010Prop56
140
1.0
102
RTVSPost2010PropOp56
 70
     1
102
RTVSPost2010Prop57
140
1.0
102
RTVSPost2010PropOp57
 70
     1
102
RTVSPropertyOp0
 70
     1
102
RTVSPropertyOp1
 70
     1
102
RTVSPropertyOp2
 70
     1
102
RTVSPropertyOp3
 70
     1
102
RTVSPropertyOp4
 70
     1
102
RTVSPropertyOp5
 70
     1
102
RTVSPropertyOp6
 70
     1
102
RTVSPropertyOp7
 70
     1
102
RTVSPropertyOp8
 70
     1
102
RTVSPropertyOp9
 70
     1
102
RTVSPropertyOp10
 70
     1
102
RTVSPropertyOp11
 70
     1
102
RTVSPropertyOp12
 70
     1
102
RTVSPropertyOp13
 70
     1
102
RTVSPropertyOp14
 70
     1
102
RTVSPropertyOp15
 70
     1
102
RTVSPropertyOp16
 70
     1
102
RTVSPropertyOp17
 70
     1
102
RTVSPropertyOp18
 70
     1
102
RTVSPropertyOp19
 70
     1
102
RTVSPropertyOp20
 70
     1
102
RTVSPropertyOp21
 70
     1
102
RTVSPropertyOp22
 70
     1
102
RTVSPropertyOp23
 70
     1
102
RTVSPropertyOp24
 70
     1
102
RTVSPropertyOp25
 70
     1
102
RTVSPropertyOp26
 70
     1
102
RTVSPropertyOp27
 70
     1
102
RTVSPropertyOp28
 70
     1
102
RTVSPropertyOp29
 70
     1
102
RTVSPropertyOp30
 70
     1
102
RTVSPropertyOp31
 70
     1
102
RTVSPropertyOp32
 70
     1
102
RTVSPropertyOp33
 70
     1
102
RTVSPropertyOp34
 70
     1
102
RTVSPropertyOp35
 70
     1
102
RTVSPropertyOp36
 70
     1
102
RTVSPropertyOp37
 70
     1
102
RTVSPropertyOp38
 70
     1
102
RTVSPropertyOp39
 70
     1
102
RTVSPropertyOp40
 70
     1
102
RTVSPropertyOp41
 70
     1
102
RTVSPropertyOp42
 70
     1
102
RTVSPropertyOp43
 70
     1
102
RTVSPropertyOp44
 70
     1
102
RTVSPropertyOp45
 70
     1
102
RTVSPropertyOp46
 70
     1
102
RTVSPropertyOp47
 70
     1
102
RTVSPropertyOp48
 70
     1
102
RTVSPropertyOp49
 70
     1
102
RTVSPropertyOp50
 70
     1
102
RTVSPropertyOp51
 70
     0
102
RTVSPropertyOp52
 70
     0
102
RTVSPropertyOp53
 70
     1
102
RTVSPropertyOp54
 70
     1
102
RTVSPropertyOp55
 70
     1
102
RTVSPropertyOp56
 70
     1
102
RTVSPropertyOp57
 70
     1
102
RTVSPropertyOp58
 70
     1
102
RTVSPropertyOp59
 70
     1
102
RTVSPropertyOp60
 70
     1
102
RTVSPropertyOp61
 70
     1
102
RTVSPropertyOp62
 70
     1
  0
ENDSEC
  0
EOF
