  0
SECTION
  2
HEADER
  9
$ACADVER
  1
AC1015
  9
$ACADMAINTVER
 70
    20
  9
$DWGCODEPAGE
  3
ANSI_932
  9
$INSBASE
 10
0.0
 20
0.0
 30
0.0
  9
$EXTMIN
 10
10.0
 20
9.999999999999998
 30
0.0
  9
$EXTMAX
 10
663.220223
 20
459.8716089999999
 30
0.0
  9
$LIMMIN
 10
0.0
 20
0.0
  9
$LIMMAX
 10
792.0
 20
546.0
  9
$ORTHOMODE
 70
     1
  9
$REGENMODE
 70
     1
  9
$FILLMODE
 70
     1
  9
$QTEXTMODE
 70
     0
  9
$MIRRTEXT
 70
     1
  9
$LTSCALE
 40
20.0
  9
$ATTMODE
 70
     1
  9
$TEXTSIZE
 40
5.0
  9
$TRACEWID
 40
1.0
  9
$TEXTSTYLE
  7
STANDARD
  9
$CLAYER
  8
0
  9
$CELTYPE
  6
BYLAYER
  9
$CECOLOR
 62
   256
  9
$CELTSCALE
 40
1.0
  9
$DISPSILH
 70
     0
  9
$DIMSCALE
 40
1.0
  9
$DIMASZ
 40
2.5
  9
$DIMEXO
 40
1.0
  9
$DIMDLI
 40
10.0
  9
$DIMRND
 40
0.0
  9
$DIMDLE
 40
0.0
  9
$DIMEXE
 40
1.0
  9
$DIMTP
 40
0.0
  9
$DIMTM
 40
0.0
  9
$DIMTXT
 40
3.2
  9
$DIMCEN
 40
0.0
  9
$DIMTSZ
 40
0.0
  9
$DIMTOL
 70
     0
  9
$DIMLIM
 70
     0
  9
$DIMTIH
 70
     0
  9
$DIMTOH
 70
     0
  9
$DIMSE1
 70
     0
  9
$DIMSE2
 70
     0
  9
$DIMTAD
 70
     3
  9
$DIMZIN
 70
     8
  9
$DIMBLK
  1

  9
$DIMASO
 70
     1
  9
$DIMSHO
 70
     1
  9
$DIMPOST
  1

  9
$DIMAPOST
  1

  9
$DIMALT
 70
     0
  9
$DIMALTD
 70
     2
  9
$DIMALTF
 40
25.4
  9
$DIMLFAC
 40
1.0
  9
$DIMTOFL
 70
     1
  9
$DIMTVP
 40
0.0
  9
$DIMTIX
 70
     0
  9
$DIMSOXD
 70
     0
  9
$DIMSAH
 70
     1
  9
$DIMBLK1
  1

  9
$DIMBLK2
  1

  9
$DIMSTYLE
  2
STANDARD
  9
$DIMCLRD
 70
     0
  9
$DIMCLRE
 70
     0
  9
$DIMCLRT
 70
     0
  9
$DIMTFAC
 40
1.0
  9
$DIMGAP
 40
1.0
  9
$DIMJUST
 70
     0
  9
$DIMSD1
 70
     0
  9
$DIMSD2
 70
     0
  9
$DIMTOLJ
 70
     1
  9
$DIMTZIN
 70
     0
  9
$DIMALTZ
 70
     0
  9
$DIMALTTZ
 70
     0
  9
$DIMUPT
 70
     0
  9
$DIMDEC
 70
     4
  9
$DIMTDEC
 70
     4
  9
$DIMALTU
 70
     2
  9
$DIMALTTD
 70
     2
  9
$DIMTXSTY
  7
STANDARD
  9
$DIMAUNIT
 70
     0
  9
$DIMADEC
 70
     0
  9
$DIMALTRND
 40
0.0
  9
$DIMAZIN
 70
     0
  9
$DIMDSEP
 70
    46
  9
$DIMATFIT
 70
     3
  9
$DIMFRAC
 70
     0
  9
$DIMLDRBLK
  1

  9
$DIMLUNIT
 70
     2
  9
$DIMLWD
 70
    -2
  9
$DIMLWE
 70
    -2
  9
$DIMTMOVE
 70
     0
  9
$LUNITS
 70
     2
  9
$LUPREC
 70
     4
  9
$SKETCHINC
 40
1.0
  9
$FILLETRAD
 40
3.299999999999998
  9
$AUNITS
 70
     0
  9
$AUPREC
 70
     2
  9
$MENU
  1
.
  9
$ELEVATION
 40
0.0
  9
$PELEVATION
 40
0.0
  9
$THICKNESS
 40
0.0
  9
$LIMCHECK
 70
     0
  9
$CHAMFERA
 40
10.0
  9
$CHAMFERB
 40
10.0
  9
$CHAMFERC
 40
0.0
  9
$CHAMFERD
 40
0.0
  9
$SKPOLY
 70
     0
  9
$TDCREATE
 40
2451302.682320833
  9
$TDUCREATE
 40
2451302.307320833
  9
$TDUPDATE
 40
2457192.690327593
  9
$TDUUPDATE
 40
2457192.315327592
  9
$TDINDWG
 40
0.1503569444
  9
$TDUSRTIMER
 40
0.1503566435
  9
$USRTIMER
 70
     1
  9
$ANGBASE
 50
0.0
  9
$ANGDIR
 70
     0
  9
$PDMODE
 70
     0
  9
$PDSIZE
 40
0.0
  9
$PLINEWID
 40
0.0
  9
$SPLFRAME
 70
     0
  9
$SPLINETYPE
 70
     6
  9
$SPLINESEGS
 70
     8
  9
$HANDSEED
  5
A601
  9
$SURFTAB1
 70
     6
  9
$SURFTAB2
 70
     6
  9
$SURFTYPE
 70
     6
  9
$SURFU
 70
     6
  9
$SURFV
 70
     6
  9
$UCSBASE
  2

  9
$UCSNAME
  2

  9
$UCSORG
 10
0.0
 20
0.0
 30
0.0
  9
$UCSXDIR
 10
1.0
 20
0.0
 30
0.0
  9
$UCSYDIR
 10
0.0
 20
1.0
 30
0.0
  9
$UCSORTHOREF
  2

  9
$UCSORTHOVIEW
 70
     0
  9
$UCSORGTOP
 10
0.0
 20
0.0
 30
0.0
  9
$UCSORGBOTTOM
 10
0.0
 20
0.0
 30
0.0
  9
$UCSORGLEFT
 10
0.0
 20
0.0
 30
0.0
  9
$UCSORGRIGHT
 10
0.0
 20
0.0
 30
0.0
  9
$UCSORGFRONT
 10
0.0
 20
0.0
 30
0.0
  9
$UCSORGBACK
 10
0.0
 20
0.0
 30
0.0
  9
$PUCSBASE
  2

  9
$PUCSNAME
  2

  9
$PUCSORG
 10
0.0
 20
0.0
 30
0.0
  9
$PUCSXDIR
 10
1.0
 20
0.0
 30
0.0
  9
$PUCSYDIR
 10
0.0
 20
1.0
 30
0.0
  9
$PUCSORTHOREF
  2

  9
$PUCSORTHOVIEW
 70
     0
  9
$PUCSORGTOP
 10
0.0
 20
0.0
 30
0.0
  9
$PUCSORGBOTTOM
 10
0.0
 20
0.0
 30
0.0
  9
$PUCSORGLEFT
 10
0.0
 20
0.0
 30
0.0
  9
$PUCSORGRIGHT
 10
0.0
 20
0.0
 30
0.0
  9
$PUCSORGFRONT
 10
0.0
 20
0.0
 30
0.0
  9
$PUCSORGBACK
 10
0.0
 20
0.0
 30
0.0
  9
$USERI1
 70
     0
  9
$USERI2
 70
     0
  9
$USERI3
 70
     0
  9
$USERI4
 70
     0
  9
$USERI5
 70
     0
  9
$USERR1
 40
0.0
  9
$USERR2
 40
0.0
  9
$USERR3
 40
0.0
  9
$USERR4
 40
0.0
  9
$USERR5
 40
0.0
  9
$WORLDVIEW
 70
     1
  9
$SHADEDGE
 70
     3
  9
$SHADEDIF
 70
    70
  9
$TILEMODE
 70
     1
  9
$MAXACTVP
 70
    16
  9
$PINSBASE
 10
0.0
 20
0.0
 30
0.0
  9
$PLIMCHECK
 70
     0
  9
$PEXTMIN
 10
1.000000000000000E+20
 20
1.000000000000000E+20
 30
1.000000000000000E+20
  9
$PEXTMAX
 10
-1.000000000000000E+20
 20
-1.000000000000000E+20
 30
-1.000000000000000E+20
  9
$PLIMMIN
 10
0.0
 20
0.0
  9
$PLIMMAX
 10
420.0
 20
297.0
  9
$UNITMODE
 70
     0
  9
$VISRETAIN
 70
     0
  9
$PLINEGEN
 70
     0
  9
$PSLTSCALE
 70
     0
  9
$TREEDEPTH
 70
  3020
  9
$CMLSTYLE
  2
STANDARD
  9
$CMLJUST
 70
     0
  9
$CMLSCALE
 40
1.0
  9
$PROXYGRAPHICS
 70
     1
  9
$MEASUREMENT
 70
     0
  9
$CELWEIGHT
370
    -1
  9
$ENDCAPS
280
     0
  9
$JOINSTYLE
280
     0
  9
$LWDISPLAY
290
     0
  9
$INSUNITS
 70
     0
  9
$HYPERLINKBASE
  1

  9
$STYLESHEET
  1

  9
$XEDIT
290
     1
  9
$CEPSNTYPE
380
     0
  9
$PSTYLEMODE
290
     1
  9
$FINGERPRINTGUID
  2
{384EA4AD-2F77-4ADB-9731-4766BC470AA2}
  9
$VERSIONGUID
  2
{8CAB84A1-89D3-4D55-9E42-1D4581A6EDD3}
  9
$EXTNAMES
290
     1
  9
$PSVPSCALE
 40
0.0
  9
$OLESTARTUP
290
     0
  0
ENDSEC
  0
SECTION
  2
CLASSES
  0
CLASS
  1
ACDBDICTIONARYWDFLT
  2
AcDbDictionaryWithDefault
  3
ObjectDBX Classes
 90
        0
280
     0
281
     0
  0
CLASS
  1
ACDBPLACEHOLDER
  2
AcDbPlaceHolder
  3
ObjectDBX Classes
 90
        0
280
     0
281
     0
  0
CLASS
  1
LAYOUT
  2
AcDbLayout
  3
ObjectDBX Classes
 90
        0
280
     0
281
     0
  0
CLASS
  1
DICTIONARYVAR
  2
AcDbDictionaryVar
  3
ObjectDBX Classes
 90
        0
280
     0
281
     0
  0
CLASS
  1
MATERIAL
  2
AcDbMaterial
  3
ObjectDBX Classes
 90
     1153
280
     0
281
     0
  0
CLASS
  1
VISUALSTYLE
  2
AcDbVisualStyle
  3
ObjectDBX Classes
 90
     4095
280
     0
281
     0
  0
CLASS
  1
TABLESTYLE
  2
AcDbTableStyle
  3
ObjectDBX Classes
 90
     4095
280
     0
281
     0
  0
CLASS
  1
SCALE
  2
AcDbScale
  3
ObjectDBX Classes
 90
     1153
280
     0
281
     0
  0
CLASS
  1
MLEADERSTYLE
  2
AcDbMLeaderStyle
  3
ACDB_MLEADERSTYLE_CLASS
 90
     4095
280
     0
281
     0
  0
CLASS
  1
ACDBSECTIONVIEWSTYLE
  2
AcDbSectionViewStyle
  3
ObjectDBX Classes
 90
     1025
280
     0
281
     0
  0
CLASS
  1
ACDBDETAILVIEWSTYLE
  2
AcDbDetailViewStyle
  3
ObjectDBX Classes
 90
     1025
280
     0
281
     0
  0
CLASS
  1
CELLSTYLEMAP
  2
AcDbCellStyleMap
  3
ObjectDBX Classes
 90
     1152
280
     0
281
     0
  0
ENDSEC
  0
SECTION
  2
TABLES
  0
TABLE
  2
VPORT
  5
A31F
330
0
100
AcDbSymbolTable
 70
     1
  0
VPORT
  5
A54C
330
A31F
100
AcDbSymbolTableRecord
100
AcDbViewportTableRecord
  2
*ACTIVE
 70
     0
 10
0.0
 20
0.0
 11
1.0
 21
1.0
 12
509.7807249186653
 22
234.9467938294945
 13
0.0
 23
0.0
 14
10.0
 24
10.0
 15
10.0
 25
10.0
 16
0.0
 26
0.0
 36
1.0
 17
0.0
 27
0.0
 37
0.0
 40
453.4838862044819
 41
2.35006605019815
 42
50.0
 43
0.0
 44
0.0
 50
0.0
 51
0.0
 71
     0
 72
   100
 73
     1
 74
     0
 75
     0
 76
     0
 77
     0
 78
     0
281
     0
 65
     1
110
0.0
120
0.0
130
0.0
111
1.0
121
0.0
131
0.0
112
0.0
122
1.0
132
0.0
 79
     0
146
0.0
1001
ACAD_NAV_VCDISPLAY
1070
     3
  0
ENDTAB
  0
TABLE
  2
LTYPE
  5
A31C
330
0
100
AcDbSymbolTable
 70
     4
  0
LTYPE
  5
A32A
330
A31C
100
AcDbSymbolTableRecord
100
AcDbLinetypeTableRecord
  2
BYBLOCK
 70
     0
  3

 72
    65
 73
     0
 40
0.0
  0
LTYPE
  5
A32B
330
A31C
100
AcDbSymbolTableRecord
100
AcDbLinetypeTableRecord
  2
BYLAYER
 70
     0
  3

 72
    65
 73
     0
 40
0.0
  0
LTYPE
  5
A32C
330
A31C
100
AcDbSymbolTableRecord
100
AcDbLinetypeTableRecord
  2
CONTINUOUS
 70
     0
  3
Solid line
 72
    65
 73
     0
 40
0.0
  0
LTYPE
  5
A33A
330
A31C
100
AcDbSymbolTableRecord
100
AcDbLinetypeTableRecord
  2
DASHED
 70
     0
  3
__ __ __ __ __ __ __ __ __ __ __ __ __ __ __ __
 72
    65
 73
     2
 40
0.75
 49
0.5
 74
     0
 49
-0.25
 74
     0
  0
LTYPE
  5
A33B
330
A31C
100
AcDbSymbolTableRecord
100
AcDbLinetypeTableRecord
  2
CENTER
 70
     0
  3
____ _ ____ _ ____ _ ____ _ ____ _ ____ _ ____ 
 72
    65
 73
     4
 40
2.0
 49
1.25
 74
     0
 49
-0.25
 74
     0
 49
0.25
 74
     0
 49
-0.25
 74
     0
  0
LTYPE
  5
A33C
330
A31C
100
AcDbSymbolTableRecord
100
AcDbLinetypeTableRecord
  2
PHANTOM
 70
     0
  3
______  __  __  ______  __  __  ______  __  __ 
 72
    65
 73
     6
 40
2.5
 49
1.25
 74
     0
 49
-0.25
 74
     0
 49
0.25
 74
     0
 49
-0.25
 74
     0
 49
0.25
 74
     0
 49
-0.25
 74
     0
  0
ENDTAB
  0
TABLE
  2
LAYER
  5
A319
330
0
100
AcDbSymbolTable
 70
     8
  0
LAYER
  5
A327
102
{ACAD_XDICTIONARY
360
A5A5
102
}
330
A319
100
AcDbSymbolTableRecord
100
AcDbLayerTableRecord
  2
0
 70
     0
 62
     7
  6
CONTINUOUS
370
    -3
390
A553
  0
LAYER
  5
A33D
102
{ACAD_XDICTIONARY
360
A5A7
102
}
330
A319
100
AcDbSymbolTableRecord
100
AcDbLayerTableRecord
  2
4
 70
     0
 62
     1
  6
CENTER
370
    -3
390
A553
  0
LAYER
  5
A33E
102
{ACAD_XDICTIONARY
360
A5A9
102
}
330
A319
100
AcDbSymbolTableRecord
100
AcDbLayerTableRecord
  2
5
 70
     0
 62
     6
  6
PHANTOM
370
    -3
390
A553
  0
LAYER
  5
A33F
102
{ACAD_XDICTIONARY
360
A5AB
102
}
330
A319
100
AcDbSymbolTableRecord
100
AcDbLayerTableRecord
  2
1
 70
     0
 62
     7
  6
CONTINUOUS
370
    -3
390
A553
  0
LAYER
  5
A340
102
{ACAD_XDICTIONARY
360
A5AD
102
}
330
A319
100
AcDbSymbolTableRecord
100
AcDbLayerTableRecord
  2
2
 70
     0
 62
     4
  6
CONTINUOUS
370
    -3
390
A553
  0
LAYER
  5
A341
102
{ACAD_XDICTIONARY
360
A5AF
102
}
330
A319
100
AcDbSymbolTableRecord
100
AcDbLayerTableRecord
  2
3
 70
     0
 62
     2
  6
DASHED
370
    -3
390
A553
  0
LAYER
  5
A342
102
{ACAD_XDICTIONARY
360
A5B1
102
}
330
A319
100
AcDbSymbolTableRecord
100
AcDbLayerTableRecord
  2
6
 70
     0
 62
     5
  6
CONTINUOUS
370
    -3
390
A553
  0
LAYER
  5
A343
102
{ACAD_XDICTIONARY
360
A5B3
102
}
330
A319
100
AcDbSymbolTableRecord
100
AcDbLayerTableRecord
  2
7
 70
     0
 62
     3
  6
CONTINUOUS
370
    -3
390
A553
  0
ENDTAB
  0
TABLE
  2
STYLE
  5
A31A
330
0
100
AcDbSymbolTable
 70
     1
  0
STYLE
  5
A328
330
A31A
100
AcDbSymbolTableRecord
100
AcDbTextStyleTableRecord
  2
STANDARD
 70
     0
 40
0.0
 41
1.0
 50
0.0
 71
     0
 42
5.0
  3
txt
  4

  0
ENDTAB
  0
TABLE
  2
VIEW
  5
A31D
330
0
100
AcDbSymbolTable
 70
     0
  0
ENDTAB
  0
TABLE
  2
UCS
  5
A31E
330
0
100
AcDbSymbolTable
 70
     0
  0
ENDTAB
  0
TABLE
  2
APPID
  5
A320
330
0
100
AcDbSymbolTable
 70
     3
  0
APPID
  5
A329
330
A320
100
AcDbSymbolTableRecord
100
AcDbRegAppTableRecord
  2
ACAD
 70
     0
  0
APPID
  5
A5BF
330
A320
100
AcDbSymbolTableRecord
100
AcDbRegAppTableRecord
  2
ACAD_NAV_VCDISPLAY
 70
     0
  0
APPID
  5
A5F8
330
A320
100
AcDbSymbolTableRecord
100
AcDbRegAppTableRecord
  2
ACAD_MLEADERVER
 70
     0
  0
ENDTAB
  0
TABLE
  2
DIMSTYLE
  5
A321
330
0
100
AcDbSymbolTable
 70
     1
100
AcDbDimStyleTable
 71
     0
  0
DIMSTYLE
105
A345
330
A321
100
AcDbSymbolTableRecord
100
AcDbDimStyleTableRecord
  2
STANDARD
 70
     0
 41
2.5
 42
1.0
 43
10.0
 44
1.0
 73
     0
 74
     0
 77
     3
 78
     8
140
3.2
141
0.0
147
1.0
172
     1
173
     1
284
     8
285
     8
286
     8
340
A328
  0
ENDTAB
  0
TABLE
  2
BLOCK_RECORD
  5
A318
330
0
100
AcDbSymbolTable
 70
     0
  0
BLOCK_RECORD
  5
A335
102
{ACAD_XDICTIONARY
360
A530
102
}
330
A318
100
AcDbSymbolTableRecord
100
AcDbBlockTableRecord
  2
*MODEL_SPACE
340
A5A1
  0
BLOCK_RECORD
  5
A331
102
{ACAD_XDICTIONARY
360
A52E
102
}
330
A318
100
AcDbSymbolTableRecord
100
AcDbBlockTableRecord
  2
*PAPER_SPACE
340
A5A2
  0
ENDTAB
  0
ENDSEC
  0
SECTION
  2
BLOCKS
  0
BLOCK
  5
A336
330
A335
100
AcDbEntity
  8
0
100
AcDbBlockBegin
  2
*MODEL_SPACE
 70
     0
 10
0.0
 20
0.0
 30
0.0
  3
*MODEL_SPACE
  1

  0
ENDBLK
  5
A337
330
A335
100
AcDbEntity
  8
0
100
AcDbBlockEnd
  0
BLOCK
  5
A332
330
A331
100
AcDbEntity
 67
     1
  8
0
100
AcDbBlockBegin
  2
*PAPER_SPACE
 70
     0
 10
0.0
 20
0.0
 30
0.0
  3
*PAPER_SPACE
  1

  0
ENDBLK
  5
A333
330
A331
100
AcDbEntity
 67
     1
  8
0
100
AcDbBlockEnd
  0
ENDSEC
  0
SECTION
  2
ENTITIES
  0
TEXT
  5
A34D
330
A335
100
AcDbEntity
  8
7
  6
Continuous
100
AcDbText
 10
10.0
 20
18.0
 30
0.0
 40
3.0
  1
TYPE No.TCA-420E-R150
100
AcDbText
  0
TEXT
  5
A34E
330
A335
100
AcDbEntity
  8
7
  6
Continuous
100
AcDbText
 10
10.0
 20
26.0
 30
0.0
 40
3.0
  1
CODE No.9743
100
AcDbText
  0
TEXT
  5
A34F
330
A335
100
AcDbEntity
  8
1
  6
Continuous
100
AcDbText
 10
10.0
 20
10.0
 30
0.0
 40
1.399999999999999
  1
LAYER
100
AcDbText
  0
TEXT
  5
A350
330
A335
100
AcDbEntity
  8
1
  6
Continuous
100
AcDbText
 10
17.97951099999998
 20
10.04873699999998
 30
0.0
 40
1.399999999999999
  1
1
100
AcDbText
  0
TEXT
  5
A351
330
A335
100
AcDbEntity
  8
7
  6
Continuous
100
AcDbText
 10
29.97951099999999
 20
10.04873699999998
 30
0.0
 40
1.399999999999999
  1
7
100
AcDbText
  0
TEXT
  5
A352
330
A335
100
AcDbEntity
  8
4
  6
CENTER
100
AcDbText
 10
23.97951099999999
 20
10.04873699999998
 30
0.0
 40
1.399999999999999
  1
4
100
AcDbText
  0
TEXT
  5
A353
330
A335
100
AcDbEntity
  8
3
  6
DASHED
100
AcDbText
 10
21.979511
 20
10.04873699999998
 30
0.0
 40
1.399999999999999
  1
3
100
AcDbText
  0
TEXT
  5
A354
330
A335
100
AcDbEntity
  8
2
  6
Continuous
100
AcDbText
 10
19.97951099999998
 20
10.04873699999998
 30
0.0
 40
1.399999999999999
  1
2
100
AcDbText
  0
TEXT
  5
A355
330
A335
100
AcDbEntity
  8
6
  6
Continuous
100
AcDbText
 10
27.979511
 20
10.04873699999998
 30
0.0
 40
1.399999999999999
  1
6
100
AcDbText
  0
TEXT
  5
A356
330
A335
100
AcDbEntity
  8
5
  6
PHANTOM
100
AcDbText
 10
25.97951099999999
 20
10.04873699999998
 30
0.0
 40
1.399999999999999
  1
5
100
AcDbText
  0
LINE
  5
A357
330
A335
100
AcDbEntity
  8
4
  6
CENTER
 48
0.8
100
AcDbLine
 10
57.22022299999999
 20
342.8716089999998
 30
0.0
 11
57.22022299999999
 21
156.871609
 31
0.0
  0
LINE
  5
A358
330
A335
100
AcDbEntity
  8
4
  6
CENTER
 48
0.8
100
AcDbLine
 10
140.220223
 20
425.871609
 30
0.0
 11
314.686883
 21
425.871609
 31
0.0
  0
LINE
  5
A359
330
A335
100
AcDbEntity
  8
4
  6
CENTER
 48
0.8
100
AcDbLine
 10
262.2202229999999
 20
459.8716089999999
 30
0.0
 11
262.2202229999999
 21
391.8716089999999
 31
0.0
  0
LINE
  5
A35A
330
A335
100
AcDbEntity
  8
1
  6
Continuous
100
AcDbLine
 10
212.220223
 20
337.8716089999998
 30
0.0
 11
312.220208
 21
337.8716089999998
 31
0.0
  0
LINE
  5
A35B
330
A335
100
AcDbEntity
  8
1
  6
Continuous
100
AcDbLine
 10
28.220223
 20
337.8716089999998
 30
0.0
 11
86.22022300000002
 21
337.8716089999998
 31
0.0
  0
LINE
  5
A35C
330
A335
100
AcDbEntity
  8
4
  6
CENTER
 48
0.8
100
AcDbLine
 10
262.2202229999999
 20
39.871609
 30
0.0
 11
262.2202229999999
 21
107.871609
 31
0.0
  0
LINE
  5
A35D
330
A335
100
AcDbEntity
  8
4
  6
CENTER
 48
0.8
100
AcDbLine
 10
303.2202229999998
 20
99.87160900000001
 30
0.0
 11
303.2202229999998
 21
87.87160899999998
 31
0.0
  0
LINE
  5
A35E
330
A335
100
AcDbEntity
  8
4
  6
CENTER
 48
0.8
100
AcDbLine
 10
221.2202229999999
 20
99.87160900000001
 30
0.0
 11
221.2202229999999
 21
87.87160899999998
 31
0.0
  0
ARC
  5
A35F
330
A335
100
AcDbEntity
  8
1
  6
Continuous
100
AcDbCircle
 10
221.2202229999999
 20
93.87160900000001
 30
0.0
 40
4.4
100
AcDbArc
 50
16.500031
 51
160.0680069999999
  0
CIRCLE
  5
A360
330
A335
100
AcDbEntity
  8
1
  6
Continuous
100
AcDbCircle
 10
303.2202229999998
 20
93.87160900000001
 30
0.0
 40
4.4
  0
ARC
  5
A361
330
A335
100
AcDbEntity
  8
1
  6
Continuous
100
AcDbCircle
 10
394.686883
 20
73.87160899999997
 30
0.0
 40
85.0
100
AcDbArc
 50
166.55971
 51
193.4403599999999
  0
ARC
  5
A362
330
A335
100
AcDbEntity
  8
1
  6
Continuous
100
AcDbCircle
 10
304.7202229999998
 20
95.37160900000001
 30
0.0
 40
7.5
100
AcDbArc
 50
346.5597179999999
 51
89.99997999999996
  0
LINE
  5
A363
330
A335
100
AcDbEntity
  8
4
  6
CENTER
 48
0.8
100
AcDbLine
 10
309.2202229999998
 20
93.87160900000001
 30
0.0
 11
297.2202229999998
 21
93.87160900000001
 31
0.0
  0
LINE
  5
A364
330
A335
100
AcDbEntity
  8
1
  6
Continuous
100
AcDbLine
 10
219.720223
 20
102.8716089999999
 30
0.0
 11
304.7202229999998
 21
102.8716089999999
 31
0.0
  0
LINE
  5
A365
330
A335
100
AcDbEntity
  8
4
  6
CENTER
 48
0.8
100
AcDbLine
 10
215.2202229999998
 20
93.87160900000001
 30
0.0
 11
227.2202229999999
 21
93.87160900000001
 31
0.0
  0
ARC
  5
A366
330
A335
100
AcDbEntity
  8
1
  6
Continuous
100
AcDbCircle
 10
219.720223
 20
95.37160900000001
 30
0.0
 40
7.5
100
AcDbArc
 50
90.00004999999999
 51
193.44032
  0
LINE
  5
A367
330
A335
100
AcDbEntity
  8
4
  6
CENTER
 48
0.8
100
AcDbLine
 10
140.220223
 20
73.87160899999997
 30
0.0
 11
314.686883
 21
73.87160899999997
 31
0.0
  0
CIRCLE
  5
A368
330
A335
100
AcDbEntity
  8
1
  6
Continuous
100
AcDbCircle
 10
303.2202229999998
 20
53.871609
 30
0.0
 40
4.4
  0
ARC
  5
A369
330
A335
100
AcDbEntity
  8
1
  6
Continuous
100
AcDbCircle
 10
304.7202229999998
 20
52.371609
 30
0.0
 40
7.5
100
AcDbArc
 50
270.0000179999999
 51
13.44032
  0
LINE
  5
A36A
330
A335
100
AcDbEntity
  8
4
  6
CENTER
 48
0.8
100
AcDbLine
 10
309.2202229999998
 20
53.871609
 30
0.0
 11
297.2202229999998
 21
53.871609
 31
0.0
  0
LINE
  5
A36B
330
A335
100
AcDbEntity
  8
1
  6
Continuous
100
AcDbLine
 10
219.720223
 20
44.871609
 30
0.0
 11
304.7202229999998
 21
44.871609
 31
0.0
  0
ARC
  5
A36C
330
A335
100
AcDbEntity
  8
1
  6
Continuous
100
AcDbCircle
 10
219.720223
 20
52.371609
 30
0.0
 40
7.5
100
AcDbArc
 50
166.55971
 51
270.0000179999999
  0
LINE
  5
A36D
330
A335
100
AcDbEntity
  8
4
  6
CENTER
 48
0.8
100
AcDbLine
 10
215.2202229999998
 20
53.871609
 30
0.0
 11
227.2202229999999
 21
53.871609
 31
0.0
  0
LINE
  5
A36E
330
A335
100
AcDbEntity
  8
4
  6
CENTER
 48
0.8
100
AcDbLine
 10
221.2202229999999
 20
47.87160899999999
 30
0.0
 11
221.2202229999999
 21
59.871609
 31
0.0
  0
LINE
  5
A36F
330
A335
100
AcDbEntity
  8
4
  6
CENTER
 48
0.8
100
AcDbLine
 10
303.2202229999998
 20
47.87160899999999
 30
0.0
 11
303.2202229999998
 21
59.871609
 31
0.0
  0
LINE
  5
A370
330
A335
100
AcDbEntity
  8
4
  6
CENTER
 48
0.8
100
AcDbLine
 10
262.2202229999999
 20
342.8716089999998
 30
0.0
 11
262.2202229999999
 21
283.6049389999999
 31
0.0
  0
CIRCLE
  5
A371
330
A335
100
AcDbEntity
  8
1
  6
Continuous
100
AcDbCircle
 10
262.2202229999999
 20
425.871609
 30
0.0
 40
24.25
  0
CIRCLE
  5
A372
330
A335
100
AcDbEntity
  8
1
  6
Continuous
100
AcDbCircle
 10
262.2202229999999
 20
425.871609
 30
0.0
 40
9.5
  0
CIRCLE
  5
A373
330
A335
100
AcDbEntity
  8
1
  6
Continuous
100
AcDbCircle
 10
262.2202229999999
 20
425.871609
 30
0.0
 40
21.75
  0
CIRCLE
  5
A374
330
A335
100
AcDbEntity
  8
1
  6
Continuous
100
AcDbCircle
 10
262.2202229999999
 20
425.871609
 30
0.0
 40
12.5
  0
LINE
  5
A375
330
A335
100
AcDbEntity
  8
1
  6
Continuous
100
AcDbLine
 10
219.720223
 20
454.871609
 30
0.0
 11
304.7202149999999
 21
454.871609
 31
0.0
  0
LINE
  5
A376
330
A335
100
AcDbEntity
  8
1
  6
Continuous
100
AcDbLine
 10
219.720223
 20
396.871609
 30
0.0
 11
304.7202149999999
 21
396.871609
 31
0.0
  0
ARC
  5
A377
330
A335
100
AcDbEntity
  8
1
  6
Continuous
100
AcDbCircle
 10
129.7535629999997
 20
425.871609
 30
0.0
 40
85.0
100
AcDbArc
 50
346.5596799999998
 51
13.440323
  0
CIRCLE
  5
A378
330
A335
100
AcDbEntity
  8
1
  6
Continuous
100
AcDbCircle
 10
221.2202229999999
 20
405.8716089999998
 30
0.0
 40
4.4
  0
ARC
  5
A37A
330
A335
100
AcDbEntity
  8
1
  6
Continuous
100
AcDbCircle
 10
219.720223
 20
404.371609
 30
0.0
 40
7.5
100
AcDbArc
 50
166.55972
 51
270.0
  0
CIRCLE
  5
A37C
330
A335
100
AcDbEntity
  8
1
  6
Continuous
100
AcDbCircle
 10
221.2202229999999
 20
445.871609
 30
0.0
 40
4.4
  0
ARC
  5
A37E
330
A335
100
AcDbEntity
  8
1
  6
Continuous
100
AcDbCircle
 10
219.720223
 20
447.3716089999999
 30
0.0
 40
7.5
100
AcDbArc
 50
89.99992699999998
 51
193.44026
  0
ARC
  5
A380
330
A335
100
AcDbEntity
  8
1
  6
Continuous
100
AcDbCircle
 10
394.6868929999998
 20
425.871609
 30
0.0
 40
85.0
100
AcDbArc
 50
166.55964
 51
193.44029
  0
LINE
  5
A381
330
A335
100
AcDbEntity
  8
4
  6
CENTER
 48
0.8
100
AcDbLine
 10
297.220215
 20
405.8716089999998
 30
0.0
 11
309.2202149999998
 21
405.8716089999998
 31
0.0
  0
CIRCLE
  5
A382
330
A335
100
AcDbEntity
  8
1
  6
Continuous
100
AcDbCircle
 10
303.2202149999998
 20
405.8716089999998
 30
0.0
 40
4.4
  0
ARC
  5
A383
330
A335
100
AcDbEntity
  8
1
  6
Continuous
100
AcDbCircle
 10
304.7202149999999
 20
404.371609
 30
0.0
 40
7.5
100
AcDbArc
 50
269.9999599999998
 51
13.44024099999999
  0
LINE
  5
A384
330
A335
100
AcDbEntity
  8
4
  6
CENTER
 48
0.8
100
AcDbLine
 10
303.2202149999998
 20
411.8716089999998
 30
0.0
 11
303.2202149999998
 21
399.8716089999999
 31
0.0
  0
CIRCLE
  5
A385
330
A335
100
AcDbEntity
  8
1
  6
Continuous
100
AcDbCircle
 10
303.2202149999998
 20
445.871609
 30
0.0
 40
4.4
  0
LINE
  5
A386
330
A335
100
AcDbEntity
  8
4
  6
CENTER
 48
0.8
100
AcDbLine
 10
297.220215
 20
445.871609
 30
0.0
 11
309.2202149999998
 21
445.871609
 31
0.0
  0
LINE
  5
A387
330
A335
100
AcDbEntity
  8
4
  6
CENTER
 48
0.8
100
AcDbLine
 10
303.2202149999998
 20
451.8716089999998
 30
0.0
 11
303.2202149999998
 21
439.8716089999998
 31
0.0
  0
ARC
  5
A388
330
A335
100
AcDbEntity
  8
1
  6
Continuous
100
AcDbCircle
 10
304.7202149999999
 20
447.3716089999999
 30
0.0
 40
7.5
100
AcDbArc
 50
346.5597
 51
90.000037
  0
LINE
  5
A389
330
A335
100
AcDbEntity
  8
1
  6
Continuous
100
AcDbLine
 10
209.220223
 20
89.87160899999997
 30
0.0
 11
243.3228689999999
 21
89.87160899999997
 31
0.0
  0
LINE
  5
A38A
330
A335
100
AcDbEntity
  8
1
  6
Continuous
100
AcDbLine
 10
209.220223
 20
57.87160899999999
 30
0.0
 11
243.3228689999999
 21
57.87160899999999
 31
0.0
  0
LINE
  5
A38B
330
A335
100
AcDbEntity
  8
1
  6
Continuous
100
AcDbLine
 10
209.220223
 20
55.57161899999999
 30
0.0
 11
243.3228559999998
 21
55.57161899999999
 31
0.0
  0
LINE
  5
A38C
330
A335
100
AcDbEntity
  8
1
  6
Continuous
100
AcDbLine
 10
209.220223
 20
92.17160900000001
 30
0.0
 11
243.3228689999999
 21
92.17160900000001
 31
0.0
  0
ARC
  5
A38D
330
A335
100
AcDbEntity
  8
1
  6
Continuous
100
AcDbCircle
 10
262.2202229999999
 20
73.87160899999997
 30
0.0
 40
25.0
100
AcDbArc
 50
230.9563529999997
 51
327.3163609999998
  0
ARC
  5
A38E
330
A335
100
AcDbEntity
  8
1
  6
Continuous
100
AcDbCircle
 10
129.7535629999997
 20
73.87160899999997
 30
0.0
 40
85.0
100
AcDbArc
 50
346.5596399999999
 51
347.567224
  0
ARC
  5
A38F
330
A335
100
AcDbEntity
  8
1
  6
Continuous
100
AcDbCircle
 10
129.7535629999997
 20
73.87160899999997
 30
0.0
 40
85.0
100
AcDbArc
 50
10.84078599999999
 51
10.849816
  0
ARC
  5
A390
330
A335
100
AcDbEntity
  8
1
  6
Continuous
100
AcDbCircle
 10
129.7535629999997
 20
73.87160899999997
 30
0.0
 40
85.0
100
AcDbArc
 50
349.1501839999998
 51
349.159218
  0
ARC
  5
A391
330
A335
100
AcDbEntity
  8
1
  6
Continuous
100
AcDbCircle
 10
129.7535629999997
 20
73.87160899999997
 30
0.0
 40
85.0
100
AcDbArc
 50
12.432783
 51
13.44028999999999
  0
ARC
  5
A392
330
A335
100
AcDbEntity
  8
1
  6
Continuous
100
AcDbCircle
 10
275.6035719999999
 20
73.87161399999998
 30
0.0
 40
64.383349
100
AcDbArc
 50
165.6105589999999
 51
166.527454
  0
ARC
  5
A393
330
A335
100
AcDbEntity
  8
1
  6
Continuous
100
AcDbCircle
 10
275.6035719999999
 20
73.87161399999998
 30
0.0
 40
64.383349
100
AcDbArc
 50
193.4725549999997
 51
194.38945
  0
ARC
  5
A394
330
A335
100
AcDbEntity
  8
1
  6
Continuous
100
AcDbCircle
 10
262.2202229999999
 20
73.87160899999997
 30
0.0
 40
22.7
100
AcDbArc
 50
230.956384
 51
323.5077779999998
  0
ARC
  5
A395
330
A335
100
AcDbEntity
  8
1
  6
Continuous
100
AcDbCircle
 10
262.2202229999999
 20
73.87160899999997
 30
0.0
 40
25.0
100
AcDbArc
 50
32.683639
 51
129.0436159999997
  0
ARC
  5
A396
330
A335
100
AcDbEntity
  8
1
  6
Continuous
100
AcDbCircle
 10
262.2202229999999
 20
73.87160899999997
 30
0.0
 40
22.7
100
AcDbArc
 50
36.492222
 51
129.0436159999997
  0
ARC
  5
A397
330
A335
100
AcDbEntity
  8
1
  6
Continuous
100
AcDbCircle
 10
262.2202229999999
 20
73.87160899999997
 30
0.0
 40
27.500023
100
AcDbArc
 50
221.717136
 51
330.5996759999998
  0
ARC
  5
A398
330
A335
100
AcDbEntity
  8
1
  6
Continuous
100
AcDbCircle
 10
262.2202229999999
 20
73.87160899999997
 30
0.0
 40
17.7
100
AcDbArc
 50
49.70385700000001
 51
130.296143
  0
ARC
  5
A399
330
A335
100
AcDbEntity
  8
1
  6
Continuous
100
AcDbCircle
 10
262.2202229999999
 20
73.87160899999997
 30
0.0
 40
17.7
100
AcDbArc
 50
229.7038569999999
 51
310.2961429999998
  0
LINE
  5
A39A
330
A335
100
AcDbEntity
  8
4
  6
CENTER
 48
0.8
100
AcDbLine
 10
137.220223
 20
236.8716089999999
 30
0.0
 11
303.2202229999998
 21
236.8716089999999
 31
0.0
  0
ARC
  5
A39B
330
A335
100
AcDbEntity
  8
1
  6
Continuous
100
AcDbCircle
 10
220.220223
 20
236.8716089999999
 30
0.0
 40
75.0
100
AcDbArc
 50
93.07922299999999
 51
55.396095
  0
ARC
  5
A39C
330
A335
100
AcDbEntity
  8
1
  6
Continuous
100
AcDbCircle
 10
220.220223
 20
236.8716089999999
 30
0.0
 40
54.5
100
AcDbArc
 50
96.289691
 51
52.18563300000002
  0
ARC
  5
A39D
330
A335
100
AcDbEntity
  8
1
  6
Continuous
100
AcDbCircle
 10
220.220223
 20
236.8716089999999
 30
0.0
 40
44.0
100
AcDbArc
 50
99.12292900000002
 51
49.352389
  0
ARC
  5
A39E
330
A335
100
AcDbEntity
  8
1
  6
Continuous
100
AcDbCircle
 10
220.220223
 20
236.8716089999999
 30
0.0
 40
50.0
100
AcDbArc
 50
97.35445
 51
51.12086099999999
  0
LINE
  5
A39F
330
A335
100
AcDbEntity
  8
4
  6
CENTER
 48
0.8
100
AcDbLine
 10
220.220223
 20
314.2043569999998
 30
0.0
 11
220.220223
 21
153.871609
 31
0.0
  0
CIRCLE
  5
A3A0
330
A335
100
AcDbEntity
  8
1
  6
Continuous
100
AcDbCircle
 10
220.220223
 20
236.8716089999999
 30
0.0
 40
6.25
  0
ARC
  5
A3A1
330
A335
100
AcDbEntity
  8
1
  6
Continuous
100
AcDbCircle
 10
220.220223
 20
236.8716089999999
 30
0.0
 40
31.0
100
AcDbArc
 50
105.42898
 51
43.04634799999997
  0
ARC
  5
A3A2
330
A335
100
AcDbEntity
  8
1
  6
Continuous
100
AcDbCircle
 10
220.220223
 20
236.8716089999999
 30
0.0
 40
16.0
100
AcDbArc
 50
128.07796
 51
20.39735899999998
  0
LINE
  5
A3A3
330
A335
100
AcDbEntity
  8
1
  6
Continuous
100
AcDbLine
 10
209.268224
 20
237.898114
 30
0.0
 11
216.7989439999999
 21
318.2445259999998
 31
0.0
  0
LINE
  5
A3A4
330
A335
100
AcDbEntity
  8
1
  6
Continuous
100
AcDbLine
 10
230.092598
 20
232.020195
 30
0.0
 11
269.7386859999999
 21
312.697958
 31
0.0
  0
ARC
  5
A3A5
330
A335
100
AcDbEntity
  8
1
  6
Continuous
100
AcDbCircle
 10
220.220223
 20
236.8716089999999
 30
0.0
 40
11.0
100
AcDbArc
 50
174.64542
 51
330.68273
  0
CIRCLE
  5
A3A6
330
A335
100
AcDbEntity
  8
1
  6
Continuous
100
AcDbCircle
 10
220.220223
 20
236.8716089999999
 30
0.0
 40
1.5
  0
LINE
  5
A3A7
330
A335
100
AcDbEntity
  8
1
  6
Continuous
100
AcDbLine
 10
241.220223
 20
320.771611
 30
0.0
 11
241.220223
 21
259.6821409999999
 31
0.0
  0
LINE
  5
A3A8
330
A335
100
AcDbEntity
  8
1
  6
Continuous
100
AcDbLine
 10
211.2202179999999
 20
320.4716069999999
 30
0.0
 11
240.061743
 21
325.557144
 31
0.0
  0
ARC
  5
A3A9
330
A335
100
AcDbEntity
  8
1
  6
Continuous
100
AcDbCircle
 10
214.3098529999999
 20
318.4778249999999
 30
0.0
 40
2.5
100
AcDbArc
 50
354.64542
 51
100.0000199999999
  0
ARC
  5
A3AA
330
A335
100
AcDbEntity
  8
1
  6
Continuous
100
AcDbCircle
 10
215.774773
 20
317.923786
 30
0.0
 40
1.0
100
AcDbArc
 50
356.0
 51
100.00001
  0
LINE
  5
A3AB
330
A335
100
AcDbEntity
  8
1
  6
Continuous
100
AcDbLine
 10
211.220227
 20
320.4716069999999
 30
0.0
 11
211.619618
 21
318.206551
 31
0.0
  0
LINE
  5
A3AC
330
A335
100
AcDbEntity
  8
1
  6
Continuous
100
AcDbLine
 10
211.6196239999999
 20
318.2065469999999
 30
0.0
 11
215.601141
 21
318.9085959999998
 31
0.0
  0
ARC
  5
A3AD
330
A335
100
AcDbEntity
  8
1
  6
Continuous
100
AcDbCircle
 10
283.19571
 20
306.0716080000001
 30
0.0
 40
15.0
100
AcDbArc
 50
89.99998199999996
 51
153.82993
  0
LINE
  5
A3AE
330
A335
100
AcDbEntity
  8
1
  6
Continuous
100
AcDbLine
 10
283.19571
 20
321.0716059999998
 30
0.0
 11
287.2202229999998
 21
321.0716059999998
 31
0.0
  0
LINE
  5
A3AF
330
A335
100
AcDbEntity
  8
1
  6
Continuous
100
AcDbLine
 10
239.220221
 20
330.971607
 30
0.0
 11
285.2202229999998
 21
330.971607
 31
0.0
  0
LINE
  5
A3B0
330
A335
100
AcDbEntity
  8
1
  6
Continuous
100
AcDbLine
 10
212.220223
 20
335.5716059999998
 30
0.0
 11
312.220208
 21
335.5716059999998
 31
0.0
  0
LINE
  5
A3B1
330
A335
100
AcDbEntity
  8
1
  6
Continuous
100
AcDbLine
 10
241.220223
 20
329.971604
 30
0.0
 11
282.2202229999998
 21
329.971604
 31
0.0
  0
ARC
  5
A3B2
330
A335
100
AcDbEntity
  8
1
  6
Continuous
100
AcDbCircle
 10
251.7790529999998
 20
331.449612
 30
0.0
 40
2.778
100
AcDbArc
 50
189.9080999999999
 51
212.1434
  0
LINE
  5
A3B3
330
A335
100
AcDbEntity
  8
1
  6
Continuous
100
AcDbLine
 10
212.220208
 20
335.571614
 30
0.0
 11
212.220208
 21
337.871617
 31
0.0
  0
LINE
  5
A3B4
330
A335
100
AcDbEntity
  8
4
  6
CENTER
 48
0.8
100
AcDbLine
 10
221.2202229999999
 20
342.8716089999998
 30
0.0
 11
221.2202229999999
 21
330.5716059999998
 31
0.0
  0
ARC
  5
A3B5
330
A335
100
AcDbEntity
  8
1
  6
Continuous
100
AcDbCircle
 10
239.220223
 20
333.971607
 30
0.0
 40
3.0
100
AcDbArc
 50
211.5135899999999
 51
270.00002
  0
LINE
  5
A3B6
330
A335
100
AcDbEntity
  8
1
  6
Continuous
100
AcDbLine
 10
234.7202269999999
 20
335.5716249999998
 30
0.0
 11
236.66268
 21
332.4035149999999
 31
0.0
  0
ARC
  5
A3B7
330
A335
100
AcDbEntity
  8
1
  6
Continuous
100
AcDbCircle
 10
245.3078389999999
 20
331.449612
 30
0.0
 40
2.778
100
AcDbArc
 50
189.9080999999999
 51
212.1433699999999
  0
ARC
  5
A3B8
330
A335
100
AcDbEntity
  8
1
  6
Continuous
100
AcDbCircle
 10
247.8430789999999
 20
331.449612
 30
0.0
 40
2.778
100
AcDbArc
 50
189.9080999999999
 51
212.1434
  0
ARC
  5
A3B9
330
A335
100
AcDbEntity
  8
1
  6
Continuous
100
AcDbCircle
 10
244.420197
 20
331.449612
 30
0.0
 40
2.778
100
AcDbArc
 50
189.9080999999999
 51
212.1433699999999
  0
ARC
  5
A3BA
330
A335
100
AcDbEntity
  8
1
  6
Continuous
100
AcDbCircle
 10
267.708123
 20
331.449612
 30
0.0
 40
2.778
100
AcDbArc
 50
189.90804
 51
212.1434
  0
ARC
  5
A3BB
330
A335
100
AcDbEntity
  8
1
  6
Continuous
100
AcDbCircle
 10
256.732293
 20
331.449612
 30
0.0
 40
2.778
100
AcDbArc
 50
189.9080999999999
 51
212.1434
  0
ARC
  5
A3BC
330
A335
100
AcDbEntity
  8
1
  6
Continuous
100
AcDbCircle
 10
256.732293
 20
331.449612
 30
0.0
 40
2.778
100
AcDbArc
 50
327.8565799999999
 51
350.0919899999999
  0
ARC
  5
A3BD
330
A335
100
AcDbEntity
  8
1
  6
Continuous
100
AcDbCircle
 10
262.220208
 20
331.449612
 30
0.0
 40
2.778
100
AcDbArc
 50
189.9080999999999
 51
212.1434
  0
ARC
  5
A3BE
330
A335
100
AcDbEntity
  8
1
  6
Continuous
100
AcDbCircle
 10
262.220208
 20
331.449612
 30
0.0
 40
2.778
100
AcDbArc
 50
327.8565799999999
 51
350.09193
  0
ARC
  5
A3BF
330
A335
100
AcDbEntity
  8
1
  6
Continuous
100
AcDbCircle
 10
267.708123
 20
331.449612
 30
0.0
 40
2.778
100
AcDbArc
 50
327.8565799999999
 51
350.09193
  0
ARC
  5
A3C0
330
A335
100
AcDbEntity
  8
1
  6
Continuous
100
AcDbCircle
 10
272.661362
 20
331.449612
 30
0.0
 40
2.778
100
AcDbArc
 50
327.8565799999999
 51
350.09193
  0
ARC
  5
A3C1
330
A335
100
AcDbEntity
  8
1
  6
Continuous
100
AcDbCircle
 10
276.5973359999999
 20
331.449612
 30
0.0
 40
2.778
100
AcDbArc
 50
327.85663
 51
350.09193
  0
LINE
  5
A3C2
330
A335
100
AcDbEntity
  8
1
  6
Continuous
100
AcDbLine
 10
289.720231
 20
335.571591
 30
0.0
 11
287.777779
 21
332.4034879999998
 31
0.0
  0
ARC
  5
A3C3
330
A335
100
AcDbEntity
  8
1
  6
Continuous
100
AcDbCircle
 10
279.132577
 20
331.449612
 30
0.0
 40
2.778
100
AcDbArc
 50
327.85663
 51
350.09193
  0
ARC
  5
A3C4
330
A335
100
AcDbEntity
  8
1
  6
Continuous
100
AcDbCircle
 10
285.2202229999998
 20
333.971607
 30
0.0
 40
3.0
100
AcDbArc
 50
270.00002
 51
328.48644
  0
ARC
  5
A3C5
330
A335
100
AcDbEntity
  8
1
  6
Continuous
100
AcDbCircle
 10
280.0202179999999
 20
331.449612
 30
0.0
 40
2.778
100
AcDbArc
 50
327.85663
 51
350.09193
  0
LINE
  5
A3C6
330
A335
100
AcDbEntity
  8
4
  6
CENTER
 48
0.8
100
AcDbLine
 10
303.2202229999998
 20
342.8716089999998
 30
0.0
 11
303.2202229999998
 21
330.5716059999998
 31
0.0
  0
LINE
  5
A3C7
330
A335
100
AcDbEntity
  8
1
  6
Continuous
100
AcDbLine
 10
312.220208
 20
335.5715979999998
 30
0.0
 11
312.220208
 21
337.8716089999998
 31
0.0
  0
LINE
  5
A3C8
330
A335
100
AcDbEntity
  8
1
  6
Continuous
100
AcDbLine
 10
42.22022299999999
 20
224.329647
 30
0.0
 11
42.22022299999999
 21
249.413571
 31
0.0
  0
LINE
  5
A3C9
330
A335
100
AcDbEntity
  8
1
  6
Continuous
100
AcDbLine
 10
72.220223
 20
224.329647
 30
0.0
 11
72.220223
 21
249.413571
 31
0.0
  0
LINE
  5
A3CA
330
A335
100
AcDbEntity
  8
1
  6
Continuous
100
AcDbLine
 10
43.720223
 20
164.851099
 30
0.0
 11
43.720223
 21
308.892124
 31
0.0
  0
LINE
  5
A3CB
330
A335
100
AcDbEntity
  8
1
  6
Continuous
100
AcDbLine
 10
70.720223
 20
164.851099
 30
0.0
 11
70.720223
 21
308.892124
 31
0.0
  0
ARC
  5
A3CC
330
A335
100
AcDbEntity
  8
1
  6
Continuous
100
AcDbCircle
 10
46.920233
 20
236.8716089999999
 30
0.0
 40
12.0
100
AcDbArc
 50
164.2861599999999
 51
195.71383
  0
LINE
  5
A3CD
330
A335
100
AcDbEntity
  8
1
  6
Continuous
100
AcDbLine
 10
33.920233
 20
241.973622
 30
0.0
 11
33.920233
 21
231.7695959999999
 31
0.0
  0
ARC
  5
A3CE
330
A335
100
AcDbEntity
  8
1
  6
Continuous
100
AcDbCircle
 10
26.92023300000001
 20
236.8716089999999
 30
0.0
 40
12.0
100
AcDbArc
 50
344.2861399999999
 51
15.71386099999998
  0
LINE
  5
A3CF
330
A335
100
AcDbEntity
  8
1
  6
Continuous
100
AcDbLine
 10
78.72020299999999
 20
241.1216089999999
 30
0.0
 11
78.72020299999999
 21
232.6216089999999
 31
0.0
  0
LINE
  5
A3D0
330
A335
100
AcDbEntity
  8
1
  6
Continuous
100
AcDbLine
 10
75.520223
 20
318.0279509999998
 30
0.0
 11
75.520223
 21
225.8716089999999
 31
0.0
  0
LINE
  5
A3D1
330
A335
100
AcDbEntity
  8
1
  6
Continuous
100
AcDbLine
 10
38.920233
 20
318.0279509999998
 30
0.0
 11
38.920233
 21
225.8716089999999
 31
0.0
  0
LINE
  5
A3D2
330
A335
100
AcDbEntity
  8
1
  6
Continuous
100
AcDbLine
 10
41.220223
 20
318.078213
 30
0.0
 11
41.220223
 21
225.8716089999999
 31
0.0
  0
LINE
  5
A3D3
330
A335
100
AcDbEntity
  8
1
  6
Continuous
100
AcDbLine
 10
73.220223
 20
318.078213
 30
0.0
 11
73.220223
 21
225.8716089999999
 31
0.0
  0
LINE
  5
A3D4
330
A335
100
AcDbEntity
  8
4
  6
CENTER
 48
0.8
100
AcDbLine
 10
26.92023300000001
 20
236.8716089999999
 30
0.0
 11
83.720203
 21
236.8716089999999
 31
0.0
  0
ARC
  5
A3D5
330
A335
100
AcDbEntity
  8
1
  6
Continuous
100
AcDbCircle
 10
57.22022299999999
 20
231.8716089999998
 30
0.0
 40
70.0
100
AcDbArc
 50
260.26341
 51
279.7365199999999
  0
ARC
  5
A3D6
330
A335
100
AcDbEntity
  8
1
  6
Continuous
100
AcDbCircle
 10
45.72022299999999
 20
164.851099
 30
0.0
 40
2.0
100
AcDbArc
 50
179.9999799999999
 51
260.2634299999999
  0
LINE
  5
A3D7
330
A335
100
AcDbEntity
  8
1
  6
Continuous
100
AcDbLine
 10
41.220223
 20
232.8716089999999
 30
0.0
 11
42.22022299999999
 21
232.8716089999999
 31
0.0
  0
ARC
  5
A3D8
330
A335
100
AcDbEntity
  8
1
  6
Continuous
100
AcDbCircle
 10
38.17023300000001
 20
231.9299809999999
 30
0.0
 40
3.25
100
AcDbArc
 50
148.63423
 51
208.6527299999999
  0
LINE
  5
A3D9
330
A335
100
AcDbEntity
  8
1
  6
Continuous
100
AcDbLine
 10
35.318263
 20
230.3716169999999
 30
0.0
 11
33.92026299999999
 21
231.769608
 31
0.0
  0
ARC
  5
A3DA
330
A335
100
AcDbEntity
  8
1
  6
Continuous
100
AcDbCircle
 10
35.67023300000001
 20
231.9299809999999
 30
0.0
 40
3.25
100
AcDbArc
 50
331.3472299999999
 51
31.365793
  0
LINE
  5
A3DB
330
A335
100
AcDbEntity
  8
1
  6
Continuous
100
AcDbLine
 10
35.318233
 20
230.3716089999999
 30
0.0
 11
38.52224299999999
 21
230.3716089999999
 31
0.0
  0
LINE
  5
A3DC
330
A335
100
AcDbEntity
  8
1
  6
Continuous
100
AcDbLine
 10
35.39518300000001
 20
233.6216089999997
 30
0.0
 11
38.44529299999999
 21
233.6216089999997
 31
0.0
  0
LINE
  5
A3DD
330
A335
100
AcDbEntity
  8
1
  6
Continuous
100
AcDbLine
 10
38.920233
 20
225.8716089999999
 30
0.0
 11
41.220223
 21
225.8716089999999
 31
0.0
  0
ARC
  5
A3DE
330
A335
100
AcDbEntity
  8
1
  6
Continuous
100
AcDbCircle
 10
45.22022299999998
 20
224.329647
 30
0.0
 40
3.0
100
AcDbArc
 50
179.9999799999999
 51
239.99998
  0
ARC
  5
A3DF
330
A335
100
AcDbEntity
  8
1
  6
Continuous
100
AcDbCircle
 10
68.72022300000001
 20
164.851099
 30
0.0
 40
2.0
100
AcDbArc
 50
279.73649
 51
359.99995
  0
LINE
  5
A3E0
330
A335
100
AcDbEntity
  8
1
  6
Continuous
100
AcDbLine
 10
75.520223
 20
225.8716089999999
 30
0.0
 11
73.220223
 21
225.8716089999999
 31
0.0
  0
ARC
  5
A3E1
330
A335
100
AcDbEntity
  8
1
  6
Continuous
100
AcDbCircle
 10
69.220223
 20
224.329647
 30
0.0
 40
3.0
100
AcDbArc
 50
300.00001
 51
359.99995
  0
LINE
  5
A3E2
330
A335
100
AcDbEntity
  8
1
  6
Continuous
100
AcDbLine
 10
72.220223
 20
232.8716089999999
 30
0.0
 11
73.220223
 21
232.8716089999999
 31
0.0
  0
ARC
  5
A3E3
330
A335
100
AcDbEntity
  8
1
  6
Continuous
100
AcDbCircle
 10
76.72020299999998
 20
232.6216089999999
 30
0.0
 40
2.0
100
AcDbArc
 50
270.00002
 51
0.0
  0
LINE
  5
A3E4
330
A335
100
AcDbEntity
  8
1
  6
Continuous
100
AcDbLine
 10
75.520223
 20
230.6216089999999
 30
0.0
 11
76.72020299999998
 21
230.6216089999999
 31
0.0
  0
ARC
  5
A3E5
330
A335
100
AcDbEntity
  8
1
  6
Continuous
100
AcDbCircle
 10
57.22022299999999
 20
241.8716089999997
 30
0.0
 40
70.0
100
AcDbArc
 50
80.26348
 51
99.736594
  0
LINE
  5
A3E6
330
A335
100
AcDbEntity
  8
1
  6
Continuous
100
AcDbLine
 10
34.220223
 20
330.971607
 30
0.0
 11
80.22022300000001
 21
330.971607
 31
0.0
  0
LINE
  5
A3E7
330
A335
100
AcDbEntity
  8
1
  6
Continuous
100
AcDbLine
 10
28.220223
 20
335.5716059999998
 30
0.0
 11
86.22022300000002
 21
335.5716059999998
 31
0.0
  0
ARC
  5
A3E8
330
A335
100
AcDbEntity
  8
1
  6
Continuous
100
AcDbCircle
 10
57.22022299999999
 20
453.573819
 30
0.0
 40
128.4999999999998
100
AcDbArc
 50
262.8473099999999
 51
277.1526699999999
  0
ARC
  5
A3E9
330
A335
100
AcDbEntity
  8
1
  6
Continuous
100
AcDbCircle
 10
57.22022299999999
 20
446.7065589999998
 30
0.0
 40
128.4999999999998
100
AcDbArc
 50
263.34847
 51
276.6515099999999
  0
ARC
  5
A3EA
330
A335
100
AcDbEntity
  8
1
  6
Continuous
100
AcDbCircle
 10
57.22022299999999
 20
448.971599
 30
0.0
 40
128.4999999999998
100
AcDbArc
 50
263.46506
 51
276.53492
  0
LINE
  5
A3EB
330
A335
100
AcDbEntity
  8
1
  6
Continuous
100
AcDbLine
 10
37.22022299999999
 20
329.9716
 30
0.0
 11
77.220223
 21
329.9716
 31
0.0
  0
ARC
  5
A3EC
330
A335
100
AcDbEntity
  8
1
  6
Continuous
100
AcDbCircle
 10
37.22022299999999
 20
324.9716
 30
0.0
 40
5.0
100
AcDbArc
 50
89.99998199999996
 51
179.9999599999999
  0
ARC
  5
A3ED
330
A335
100
AcDbEntity
  8
1
  6
Continuous
100
AcDbCircle
 10
177.2202229999997
 20
297.398272
 30
0.0
 40
145.0
100
AcDbArc
 50
179.9999799999999
 51
197.4854799999997
  0
LINE
  5
A3EE
330
A335
100
AcDbEntity
  8
1
  6
Continuous
100
AcDbLine
 10
41.220223
 20
240.8716089999999
 30
0.0
 11
42.22022299999999
 21
240.8716089999999
 31
0.0
  0
ARC
  5
A3EF
330
A335
100
AcDbEntity
  8
1
  6
Continuous
100
AcDbCircle
 10
38.17023300000001
 20
241.8132369999999
 30
0.0
 40
3.25
100
AcDbArc
 50
151.34725
 51
211.3657499999999
  0
LINE
  5
A3F0
330
A335
100
AcDbEntity
  8
1
  6
Continuous
100
AcDbLine
 10
33.92026299999999
 20
241.97361
 30
0.0
 11
35.318243
 21
243.371598
 31
0.0
  0
ARC
  5
A3F1
330
A335
100
AcDbEntity
  8
1
  6
Continuous
100
AcDbCircle
 10
35.67023300000001
 20
241.8132369999999
 30
0.0
 40
3.25
100
AcDbArc
 50
328.6342
 51
28.65276699999999
  0
LINE
  5
A3F2
330
A335
100
AcDbEntity
  8
1
  6
Continuous
100
AcDbLine
 10
35.318233
 20
243.3716089999998
 30
0.0
 11
38.52224299999999
 21
243.3716089999998
 31
0.0
  0
LINE
  5
A3F3
330
A335
100
AcDbEntity
  8
1
  6
Continuous
100
AcDbLine
 10
35.36872299999997
 20
240.1216089999997
 30
0.0
 11
38.47175299999999
 21
240.1216089999997
 31
0.0
  0
ARC
  5
A3F4
330
A335
100
AcDbEntity
  8
1
  6
Continuous
100
AcDbCircle
 10
45.22022299999998
 20
249.413571
 30
0.0
 40
3.0
100
AcDbArc
 50
120.0000199999999
 51
180.00002
  0
LINE
  5
A3F5
330
A335
100
AcDbEntity
  8
1
  6
Continuous
100
AcDbLine
 10
32.22022299999999
 20
324.9716
 30
0.0
 11
32.22022299999999
 21
297.398272
 31
0.0
  0
ARC
  5
A3F6
330
A335
100
AcDbEntity
  8
1
  6
Continuous
100
AcDbCircle
 10
42.22022299999999
 20
318.078213
 30
0.0
 40
1.0
100
AcDbArc
 50
83.348539
 51
179.9999599999999
  0
ARC
  5
A3F7
330
A335
100
AcDbEntity
  8
1
  6
Continuous
100
AcDbCircle
 10
42.220243
 20
318.0279509999998
 30
0.0
 40
3.299999999999998
100
AcDbArc
 50
83.465158
 51
179.9999599999999
  0
ARC
  5
A3F8
330
A335
100
AcDbEntity
  8
1
  6
Continuous
100
AcDbCircle
 10
45.72022299999999
 20
308.892124
 30
0.0
 40
2.0
100
AcDbArc
 50
99.73656
 51
180.00002
  0
LINE
  5
A3F9
330
A335
100
AcDbEntity
  8
4
  6
CENTER
 48
0.8
100
AcDbLine
 10
37.22022299999999
 20
342.8716089999998
 30
0.0
 11
37.22022299999999
 21
330.5716059999998
 31
0.0
  0
ARC
  5
A3FA
330
A335
100
AcDbEntity
  8
1
  6
Continuous
100
AcDbCircle
 10
34.220223
 20
333.971607
 30
0.0
 40
3.0
100
AcDbArc
 50
211.5135899999999
 51
270.00002
  0
LINE
  5
A3FB
330
A335
100
AcDbEntity
  8
1
  6
Continuous
100
AcDbLine
 10
29.720173
 20
335.571614
 30
0.0
 11
31.66262299999999
 21
332.403504
 31
0.0
  0
LINE
  5
A3FC
330
A335
100
AcDbEntity
  8
1
  6
Continuous
100
AcDbLine
 10
28.220223
 20
337.8716089999998
 30
0.0
 11
28.220223
 21
335.57161
 31
0.0
  0
ARC
  5
A3FD
330
A335
100
AcDbEntity
  8
1
  6
Continuous
100
AcDbCircle
 10
40.30784299999999
 20
331.449612
 30
0.0
 40
2.778
100
AcDbArc
 50
189.9080999999999
 51
212.14351
  0
ARC
  5
A3FE
330
A335
100
AcDbEntity
  8
1
  6
Continuous
100
AcDbCircle
 10
42.843083
 20
331.449612
 30
0.0
 40
2.778
100
AcDbArc
 50
189.9080999999999
 51
212.14351
  0
ARC
  5
A3FF
330
A335
100
AcDbEntity
  8
1
  6
Continuous
100
AcDbCircle
 10
39.420203
 20
331.449612
 30
0.0
 40
2.778
100
AcDbArc
 50
189.9080999999999
 51
212.14351
  0
ARC
  5
A400
330
A335
100
AcDbEntity
  8
1
  6
Continuous
100
AcDbCircle
 10
46.779063
 20
331.449612
 30
0.0
 40
2.778
100
AcDbArc
 50
327.8564799999998
 51
333.0638399999999
  0
ARC
  5
A401
330
A335
100
AcDbEntity
  8
1
  6
Continuous
100
AcDbCircle
 10
51.732293
 20
331.449612
 30
0.0
 40
2.778
100
AcDbArc
 50
189.9080999999999
 51
212.14351
  0
ARC
  5
A402
330
A335
100
AcDbEntity
  8
1
  6
Continuous
100
AcDbCircle
 10
46.779063
 20
331.449612
 30
0.0
 40
2.778
100
AcDbArc
 50
189.9080999999999
 51
212.14351
  0
ARC
  5
A403
330
A335
100
AcDbEntity
  8
1
  6
Continuous
100
AcDbCircle
 10
51.732293
 20
331.449612
 30
0.0
 40
2.778
100
AcDbArc
 50
327.8564799999998
 51
350.0919899999999
  0
ARC
  5
A404
330
A335
100
AcDbEntity
  8
1
  6
Continuous
100
AcDbCircle
 10
57.220203
 20
331.449612
 30
0.0
 40
2.778
100
AcDbArc
 50
189.9080999999999
 51
212.14351
  0
ARC
  5
A405
330
A335
100
AcDbEntity
  8
1
  6
Continuous
100
AcDbCircle
 10
77.220223
 20
324.9716
 30
0.0
 40
5.0
100
AcDbArc
 50
0.0
 51
89.99998199999996
  0
ARC
  5
A406
330
A335
100
AcDbEntity
  8
1
  6
Continuous
100
AcDbCircle
 10
-62.779777
 20
297.398272
 30
0.0
 40
145.0
100
AcDbArc
 50
342.5145
 51
0.0
  0
LINE
  5
A407
330
A335
100
AcDbEntity
  8
1
  6
Continuous
100
AcDbLine
 10
72.220223
 20
240.8716089999999
 30
0.0
 11
73.220223
 21
240.8716089999999
 31
0.0
  0
ARC
  5
A408
330
A335
100
AcDbEntity
  8
1
  6
Continuous
100
AcDbCircle
 10
69.220223
 20
249.413571
 30
0.0
 40
3.0
100
AcDbArc
 50
0.000055
 51
59.999995
  0
ARC
  5
A409
330
A335
100
AcDbEntity
  8
1
  6
Continuous
100
AcDbCircle
 10
76.72020299999998
 20
241.1216089999999
 30
0.0
 40
2.0
100
AcDbArc
 50
0.0
 51
89.99998199999996
  0
LINE
  5
A40A
330
A335
100
AcDbEntity
  8
1
  6
Continuous
100
AcDbLine
 10
75.520223
 20
243.1216089999999
 30
0.0
 11
76.72020299999998
 21
243.1216089999999
 31
0.0
  0
LINE
  5
A40B
330
A335
100
AcDbEntity
  8
1
  6
Continuous
100
AcDbLine
 10
82.220223
 20
324.9716
 30
0.0
 11
82.220223
 21
297.398272
 31
0.0
  0
ARC
  5
A40C
330
A335
100
AcDbEntity
  8
1
  6
Continuous
100
AcDbCircle
 10
72.220223
 20
318.0279509999998
 30
0.0
 40
3.299999999999998
100
AcDbArc
 50
0.0
 51
96.53486100000002
  0
ARC
  5
A40D
330
A335
100
AcDbEntity
  8
1
  6
Continuous
100
AcDbCircle
 10
68.72022300000001
 20
308.892124
 30
0.0
 40
2.0
100
AcDbArc
 50
0.000055
 51
80.26351299999998
  0
ARC
  5
A40E
330
A335
100
AcDbEntity
  8
1
  6
Continuous
100
AcDbCircle
 10
72.220223
 20
318.078213
 30
0.0
 40
1.0
100
AcDbArc
 50
0.0
 51
96.65148000000002
  0
ARC
  5
A40F
330
A335
100
AcDbEntity
  8
1
  6
Continuous
100
AcDbCircle
 10
67.66135300000001
 20
331.449612
 30
0.0
 40
2.778
100
AcDbArc
 50
206.9362
 51
212.14351
  0
ARC
  5
A410
330
A335
100
AcDbEntity
  8
1
  6
Continuous
100
AcDbCircle
 10
62.708123
 20
331.449612
 30
0.0
 40
2.778
100
AcDbArc
 50
327.8564799999998
 51
350.09193
  0
ARC
  5
A411
330
A335
100
AcDbEntity
  8
1
  6
Continuous
100
AcDbCircle
 10
62.708123
 20
331.449612
 30
0.0
 40
2.778
100
AcDbArc
 50
189.90804
 51
212.14351
  0
ARC
  5
A412
330
A335
100
AcDbEntity
  8
1
  6
Continuous
100
AcDbCircle
 10
57.220203
 20
331.449612
 30
0.0
 40
2.778
100
AcDbArc
 50
327.8564799999998
 51
350.09193
  0
ARC
  5
A413
330
A335
100
AcDbEntity
  8
1
  6
Continuous
100
AcDbCircle
 10
67.66135300000001
 20
331.449612
 30
0.0
 40
2.778
100
AcDbArc
 50
327.8564799999998
 51
350.09193
  0
LINE
  5
A414
330
A335
100
AcDbEntity
  8
4
  6
CENTER
 48
0.8
100
AcDbLine
 10
77.220223
 20
342.8716089999998
 30
0.0
 11
77.220223
 21
330.5716059999998
 31
0.0
  0
LINE
  5
A415
330
A335
100
AcDbEntity
  8
1
  6
Continuous
100
AcDbLine
 10
86.22022300000002
 20
337.8716089999998
 30
0.0
 11
86.22022300000002
 21
335.5716059999998
 31
0.0
  0
ARC
  5
A416
330
A335
100
AcDbEntity
  8
1
  6
Continuous
100
AcDbCircle
 10
80.22022300000001
 20
333.971607
 30
0.0
 40
3.0
100
AcDbArc
 50
270.00002
 51
328.48644
  0
ARC
  5
A417
330
A335
100
AcDbEntity
  8
1
  6
Continuous
100
AcDbCircle
 10
74.13257299999997
 20
331.449612
 30
0.0
 40
2.778
100
AcDbArc
 50
327.8564799999998
 51
350.09193
  0
ARC
  5
A418
330
A335
100
AcDbEntity
  8
1
  6
Continuous
100
AcDbCircle
 10
71.59733299999998
 20
331.449612
 30
0.0
 40
2.778
100
AcDbArc
 50
327.8564799999998
 51
350.09193
  0
ARC
  5
A419
330
A335
100
AcDbEntity
  8
1
  6
Continuous
100
AcDbCircle
 10
75.020213
 20
331.449612
 30
0.0
 40
2.778
100
AcDbArc
 50
327.80113
 51
350.09193
  0
LINE
  5
A41A
330
A335
100
AcDbEntity
  8
1
  6
Continuous
100
AcDbLine
 10
84.72014299999996
 20
335.5716519999998
 30
0.0
 11
82.77768299999998
 21
332.4035489999999
 31
0.0
  0
LINE
  5
A41B
330
A335
100
AcDbEntity
  8
1
  6
Continuous
100
AcDbLine
 10
287.2202229999998
 20
324.971604
 30
0.0
 11
287.2202229999998
 21
321.0716059999998
 31
0.0
  0
ARC
  5
A41C
330
A335
100
AcDbEntity
  8
1
  6
Continuous
100
AcDbCircle
 10
282.2202229999998
 20
324.971604
 30
0.0
 40
5.0
100
AcDbArc
 50
0.0
 51
90.0
  0
ARC
  5
A41D
330
A335
100
AcDbEntity
  8
1
  6
Continuous
100
AcDbCircle
 10
242.2202229999999
 20
324.971604
 30
0.0
 40
5.0
100
AcDbArc
 50
90.0
 51
180.0
  0
LINE
  5
A41E
330
A335
100
AcDbEntity
  8
4
  6
CENTER
 48
0.8
100
AcDbLine
 10
220.220223
 20
39.871609
 30
0.0
 11
220.220223
 21
107.871609
 31
0.0
  0
LINE
  5
A41F
330
A335
100
AcDbEntity
  8
1
  6
Continuous
100
AcDbLine
 10
292.240733
 20
87.37160899999997
 30
0.0
 11
148.199708
 21
87.37160899999997
 31
0.0
  0
LINE
  5
A420
330
A335
100
AcDbEntity
  8
1
  6
Continuous
100
AcDbLine
 10
292.240733
 20
60.37160899999999
 30
0.0
 11
148.199708
 21
60.37160899999999
 31
0.0
  0
ARC
  5
A421
330
A335
100
AcDbEntity
  8
1
  6
Continuous
100
AcDbCircle
 10
215.2202229999998
 20
73.87160899999997
 30
0.0
 40
70.0
100
AcDbArc
 50
170.26348
 51
189.7365939999999
  0
ARC
  5
A422
330
A335
100
AcDbEntity
  8
1
  6
Continuous
100
AcDbCircle
 10
148.199708
 20
62.371609
 30
0.0
 40
2.0
100
AcDbArc
 50
189.73656
 51
270.00002
  0
ARC
  5
A423
330
A335
100
AcDbEntity
  8
1
  6
Continuous
100
AcDbCircle
 10
148.199708
 20
85.37160899999998
 30
0.0
 40
2.0
100
AcDbArc
 50
90.00005499999994
 51
170.2635129999999
  0
ARC
  5
A424
330
A335
100
AcDbEntity
  8
1
  6
Continuous
100
AcDbCircle
 10
225.2202229999999
 20
73.87160899999997
 30
0.0
 40
70.0
100
AcDbArc
 50
350.26341
 51
9.73652
  0
LINE
  5
A425
330
A335
100
AcDbEntity
  8
1
  6
Continuous
100
AcDbLine
 10
232.7621849999999
 20
58.871609
 30
0.0
 11
207.6782609999999
 21
58.871609
 31
0.0
  0
ARC
  5
A426
330
A335
100
AcDbEntity
  8
1
  6
Continuous
100
AcDbCircle
 10
207.6782609999999
 20
61.871609
 30
0.0
 40
3.0
100
AcDbArc
 50
210.00002
 51
270.00002
  0
LINE
  5
A427
330
A335
100
AcDbEntity
  8
1
  6
Continuous
100
AcDbLine
 10
216.220223
 20
57.87160899999999
 30
0.0
 11
216.220223
 21
58.871609
 31
0.0
  0
LINE
  5
A428
330
A335
100
AcDbEntity
  8
1
  6
Continuous
100
AcDbLine
 10
224.220223
 20
57.87160899999999
 30
0.0
 11
224.220223
 21
58.871609
 31
0.0
  0
ARC
  5
A429
330
A335
100
AcDbEntity
  8
1
  6
Continuous
100
AcDbCircle
 10
232.7621849999999
 20
61.871609
 30
0.0
 40
3.0
100
AcDbArc
 50
269.99998
 51
329.99998
  0
ARC
  5
A42A
330
A335
100
AcDbEntity
  8
1
  6
Continuous
100
AcDbCircle
 10
292.240733
 20
62.371609
 30
0.0
 40
2.0
100
AcDbArc
 50
269.99998
 51
350.2634299999999
  0
LINE
  5
A42B
330
A335
100
AcDbEntity
  8
1
  6
Continuous
100
AcDbLine
 10
232.7621849999999
 20
88.87160899999996
 30
0.0
 11
207.6782609999999
 21
88.87160899999996
 31
0.0
  0
ARC
  5
A42C
330
A335
100
AcDbEntity
  8
1
  6
Continuous
100
AcDbCircle
 10
207.6782609999999
 20
85.87160899999998
 30
0.0
 40
3.0
100
AcDbArc
 50
90.00005499999994
 51
149.9999949999998
  0
LINE
  5
A42D
330
A335
100
AcDbEntity
  8
1
  6
Continuous
100
AcDbLine
 10
216.220223
 20
88.87160899999996
 30
0.0
 11
216.220223
 21
89.87160899999997
 31
0.0
  0
LINE
  5
A42E
330
A335
100
AcDbEntity
  8
1
  6
Continuous
100
AcDbLine
 10
224.220223
 20
88.87160899999996
 30
0.0
 11
224.220223
 21
89.87160899999997
 31
0.0
  0
ARC
  5
A42F
330
A335
100
AcDbEntity
  8
1
  6
Continuous
100
AcDbCircle
 10
215.970223
 20
93.371589
 30
0.0
 40
2.0
100
AcDbArc
 50
90.0
 51
179.999982
  0
ARC
  5
A430
330
A335
100
AcDbEntity
  8
1
  6
Continuous
100
AcDbCircle
 10
224.470223
 20
93.371589
 30
0.0
 40
2.0
100
AcDbArc
 50
0.00002
 51
90.0
  0
LINE
  5
A431
330
A335
100
AcDbEntity
  8
1
  6
Continuous
100
AcDbLine
 10
226.470223
 20
92.17160900000001
 30
0.0
 11
226.470223
 21
93.371589
 31
0.0
  0
LINE
  5
A432
330
A335
100
AcDbEntity
  8
1
  6
Continuous
100
AcDbLine
 10
213.970223
 20
92.17160900000001
 30
0.0
 11
213.970223
 21
93.371589
 31
0.0
  0
LINE
  5
A433
330
A335
100
AcDbEntity
  8
1
  6
Continuous
100
AcDbLine
 10
215.970223
 20
95.37158899999999
 30
0.0
 11
224.470223
 21
95.37158899999999
 31
0.0
  0
ARC
  5
A434
330
A335
100
AcDbEntity
  8
1
  6
Continuous
100
AcDbCircle
 10
232.7621849999999
 20
85.87160899999998
 30
0.0
 40
3.0
100
AcDbArc
 50
30.00001
 51
89.99995000000001
  0
ARC
  5
A435
330
A335
100
AcDbEntity
  8
1
  6
Continuous
100
AcDbCircle
 10
292.240733
 20
85.37160899999998
 30
0.0
 40
2.0
100
AcDbArc
 50
9.736489999999999
 51
89.99995000000001
  0
LINE
  5
A436
330
A335
100
AcDbEntity
  8
1
  6
Continuous
100
AcDbLine
 10
209.220223
 20
92.17160900000001
 30
0.0
 11
209.220223
 21
89.87160899999997
 31
0.0
  0
LINE
  5
A437
330
A335
100
AcDbEntity
  8
1
  6
Continuous
100
AcDbLine
 10
209.220223
 20
57.87160899999999
 30
0.0
 11
209.220223
 21
55.57161899999999
 31
0.0
  0
ARC
  5
A438
330
A335
100
AcDbEntity
  8
1
  6
Continuous
100
AcDbCircle
 10
262.2202229999999
 20
73.87160899999997
 30
0.0
 40
27.500023
100
AcDbArc
 50
29.400324
 51
138.2828359999997
  0
LINE
  5
A439
330
A335
100
AcDbEntity
  8
4
  6
CENTER
 48
0.8
100
AcDbLine
 10
220.220223
 20
459.8716089999999
 30
0.0
 11
220.220223
 21
391.8716089999999
 31
0.0
  0
LINE
  5
A43A
330
A335
100
AcDbEntity
  8
1
  6
Continuous
100
AcDbLine
 10
212.651483
 20
412.371609
 30
0.0
 11
148.199708
 21
412.371609
 31
0.0
  0
LINE
  5
A43B
330
A335
100
AcDbEntity
  8
1
  6
Continuous
100
AcDbLine
 10
212.6514809999999
 20
439.3716089999998
 30
0.0
 11
148.199708
 21
439.3716089999998
 31
0.0
  0
ARC
  5
A43C
330
A335
100
AcDbEntity
  8
1
  6
Continuous
100
AcDbCircle
 10
207.6782609999999
 20
437.871609
 30
0.0
 40
3.0
100
AcDbArc
 50
90.00005499999994
 51
149.9999949999998
  0
ARC
  5
A43D
330
A335
100
AcDbEntity
  8
1
  6
Continuous
100
AcDbCircle
 10
215.2202229999998
 20
425.871609
 30
0.0
 40
70.0
100
AcDbArc
 50
170.26348
 51
189.7365939999999
  0
ARC
  5
A43E
330
A335
100
AcDbEntity
  8
1
  6
Continuous
100
AcDbCircle
 10
148.199708
 20
414.3716089999998
 30
0.0
 40
2.0
100
AcDbArc
 50
189.73656
 51
270.00002
  0
ARC
  5
A43F
330
A335
100
AcDbEntity
  8
1
  6
Continuous
100
AcDbCircle
 10
148.199708
 20
437.371609
 30
0.0
 40
2.0
100
AcDbArc
 50
90.00005499999994
 51
170.2635129999999
  0
LINE
  5
A440
330
A335
100
AcDbEntity
  8
1
  6
Continuous
100
AcDbLine
 10
209.220223
 20
407.5716189999998
 30
0.0
 11
212.7602519999999
 21
407.5716189999998
 31
0.0
  0
LINE
  5
A441
330
A335
100
AcDbEntity
  8
1
  6
Continuous
100
AcDbLine
 10
209.220223
 20
409.8716089999999
 30
0.0
 11
213.2340989999999
 21
409.8716089999999
 31
0.0
  0
LINE
  5
A442
330
A335
100
AcDbEntity
  8
1
  6
Continuous
100
AcDbLine
 10
212.991948
 20
410.8716089999998
 30
0.0
 11
207.6782609999999
 21
410.8716089999998
 31
0.0
  0
LINE
  5
A443
330
A335
100
AcDbEntity
  8
1
  6
Continuous
100
AcDbLine
 10
212.220223
 20
407.5716189999998
 30
0.0
 11
212.7602519999999
 21
407.5716189999998
 31
0.0
  0
LINE
  5
A444
330
A335
100
AcDbEntity
  8
1
  6
Continuous
100
AcDbLine
 10
212.220223
 20
409.8716089999999
 30
0.0
 11
213.2340989999999
 21
409.8716089999999
 31
0.0
  0
ARC
  5
A445
330
A335
100
AcDbEntity
  8
1
  6
Continuous
100
AcDbCircle
 10
207.6782609999999
 20
413.8716089999999
 30
0.0
 40
3.0
100
AcDbArc
 50
210.00002
 51
270.00002
  0
LINE
  5
A446
330
A335
100
AcDbEntity
  8
1
  6
Continuous
100
AcDbLine
 10
209.220223
 20
409.8716089999999
 30
0.0
 11
209.220223
 21
407.5716189999998
 31
0.0
  0
ARC
  5
A447
330
A335
100
AcDbEntity
  8
1
  6
Continuous
100
AcDbCircle
 10
275.6035719999999
 20
425.8716139999998
 30
0.0
 40
64.383349
100
AcDbArc
 50
165.622647
 51
194.38945
  0
ARC
  5
A448
330
A335
100
AcDbEntity
  8
1
  6
Continuous
100
AcDbCircle
 10
129.7535629999997
 20
425.871609
 30
0.0
 40
85.0
100
AcDbArc
 50
349.1501839999998
 51
349.159218
  0
LINE
  5
A449
330
A335
100
AcDbEntity
  8
1
  6
Continuous
100
AcDbLine
 10
209.220223
 20
441.871609
 30
0.0
 11
213.2340989999999
 21
441.871609
 31
0.0
  0
LINE
  5
A44A
330
A335
100
AcDbEntity
  8
1
  6
Continuous
100
AcDbLine
 10
209.220223
 20
444.1716089999999
 30
0.0
 11
212.760249
 21
444.1716089999999
 31
0.0
  0
LINE
  5
A44B
330
A335
100
AcDbEntity
  8
1
  6
Continuous
100
AcDbLine
 10
212.991945
 20
440.8716089999998
 30
0.0
 11
207.6782609999999
 21
440.8716089999998
 31
0.0
  0
LINE
  5
A44C
330
A335
100
AcDbEntity
  8
1
  6
Continuous
100
AcDbLine
 10
212.220223
 20
444.1716089999999
 30
0.0
 11
212.760249
 21
444.1716089999999
 31
0.0
  0
LINE
  5
A44D
330
A335
100
AcDbEntity
  8
1
  6
Continuous
100
AcDbLine
 10
212.220223
 20
441.871609
 30
0.0
 11
213.2340989999999
 21
441.871609
 31
0.0
  0
LINE
  5
A44E
330
A335
100
AcDbEntity
  8
1
  6
Continuous
100
AcDbLine
 10
209.220223
 20
444.1716089999999
 30
0.0
 11
209.220223
 21
441.871609
 31
0.0
  0
ARC
  5
A44F
330
A335
100
AcDbEntity
  8
1
  6
Continuous
100
AcDbCircle
 10
129.7535629999997
 20
425.871609
 30
0.0
 40
85.0
100
AcDbArc
 50
10.84078599999999
 51
10.849816
  0
LINE
  5
A450
330
A335
100
AcDbEntity
  8
1
  6
Continuous
100
AcDbLine
 10
585.8493829999997
 20
240.121606
 30
0.0
 11
580.220223
 21
243.3716029999999
 31
0.0
  0
LINE
  5
A451
330
A335
100
AcDbEntity
  8
1
  6
Continuous
100
AcDbLine
 10
580.220223
 20
243.3716029999999
 30
0.0
 11
574.591062
 21
240.121606
 31
0.0
  0
LINE
  5
A452
330
A335
100
AcDbEntity
  8
1
  6
Continuous
100
AcDbLine
 10
580.220223
 20
230.371614
 30
0.0
 11
585.8493829999997
 21
233.6216109999998
 31
0.0
  0
LINE
  5
A453
330
A335
100
AcDbEntity
  8
1
  6
Continuous
100
AcDbLine
 10
574.591062
 20
233.6216109999998
 30
0.0
 11
580.220223
 21
230.371614
 31
0.0
  0
CIRCLE
  5
A454
330
A335
100
AcDbEntity
  8
2
  6
Continuous
100
AcDbCircle
 10
580.220223
 20
236.8716089999999
 30
0.0
 40
3.3235
  0
CIRCLE
  5
A455
330
A335
100
AcDbEntity
  8
1
  6
Continuous
100
AcDbCircle
 10
580.220223
 20
236.8716089999999
 30
0.0
 40
4.0
  0
LINE
  5
A456
330
A335
100
AcDbEntity
  8
1
  6
Continuous
100
AcDbLine
 10
585.8493829999997
 20
233.6216109999998
 30
0.0
 11
585.8493829999997
 21
240.121606
 31
0.0
  0
LINE
  5
A457
330
A335
100
AcDbEntity
  8
1
  6
Continuous
100
AcDbLine
 10
574.591062
 20
240.121606
 30
0.0
 11
574.591062
 21
233.6216109999998
 31
0.0
  0
LINE
  5
A458
330
A335
100
AcDbEntity
  8
4
  6
CENTER
 48
0.8
100
AcDbLine
 10
400.2202229999999
 20
342.8716089999998
 30
0.0
 11
400.2202229999999
 21
156.871609
 31
0.0
  0
LINE
  5
A459
330
A335
100
AcDbEntity
  8
1
  6
Continuous
100
AcDbLine
 10
386.7202229999999
 20
164.851099
 30
0.0
 11
386.7202229999999
 21
308.892124
 31
0.0
  0
LINE
  5
A45A
330
A335
100
AcDbEntity
  8
1
  6
Continuous
100
AcDbLine
 10
413.7202229999998
 20
164.851099
 30
0.0
 11
413.7202229999998
 21
308.892124
 31
0.0
  0
ARC
  5
A45B
330
A335
100
AcDbEntity
  8
1
  6
Continuous
100
AcDbCircle
 10
400.2202229999999
 20
231.8716089999998
 30
0.0
 40
70.0
100
AcDbArc
 50
260.2634799999999
 51
279.7365899999999
  0
ARC
  5
A45C
330
A335
100
AcDbEntity
  8
1
  6
Continuous
100
AcDbCircle
 10
411.720223
 20
164.851099
 30
0.0
 40
2.0
100
AcDbArc
 50
279.7365699999999
 51
0.00002
  0
ARC
  5
A45D
330
A335
100
AcDbEntity
  8
1
  6
Continuous
100
AcDbCircle
 10
388.7202229999999
 20
164.851099
 30
0.0
 40
2.0
100
AcDbArc
 50
180.0000499999999
 51
260.26351
  0
LINE
  5
A45E
330
A335
100
AcDbEntity
  8
1
  6
Continuous
100
AcDbLine
 10
384.2202229999998
 20
318.0782109999999
 30
0.0
 11
384.2202229999998
 21
225.8716089999999
 31
0.0
  0
LINE
  5
A45F
330
A335
100
AcDbEntity
  8
1
  6
Continuous
100
AcDbLine
 10
416.220223
 20
318.0782109999999
 30
0.0
 11
416.220223
 21
225.8716089999999
 31
0.0
  0
LINE
  5
A460
330
A335
100
AcDbEntity
  8
1
  6
Continuous
100
AcDbLine
 10
418.520213
 20
262.4312629999999
 30
0.0
 11
418.520213
 21
225.8716089999999
 31
0.0
  0
LINE
  5
A461
330
A335
100
AcDbEntity
  8
1
  6
Continuous
100
AcDbLine
 10
381.920223
 20
262.431288
 30
0.0
 11
381.920223
 21
225.8716089999999
 31
0.0
  0
LINE
  5
A462
330
A335
100
AcDbEntity
  8
4
  6
CENTER
 48
0.8
100
AcDbLine
 10
430.520213
 20
236.8716089999999
 30
0.0
 11
373.7202429999999
 21
236.8716089999999
 31
0.0
  0
LINE
  5
A463
330
A335
100
AcDbEntity
  8
1
  6
Continuous
100
AcDbLine
 10
415.2202229999998
 20
224.329647
 30
0.0
 11
415.2202229999998
 21
249.413571
 31
0.0
  0
ARC
  5
A464
330
A335
100
AcDbEntity
  8
1
  6
Continuous
100
AcDbCircle
 10
430.520213
 20
236.8716089999999
 30
0.0
 40
12.0
100
AcDbArc
 50
164.286139
 51
195.71386
  0
LINE
  5
A465
330
A335
100
AcDbEntity
  8
1
  6
Continuous
100
AcDbLine
 10
423.520213
 20
241.973622
 30
0.0
 11
423.520213
 21
231.7695959999999
 31
0.0
  0
ARC
  5
A466
330
A335
100
AcDbEntity
  8
1
  6
Continuous
100
AcDbCircle
 10
410.520213
 20
236.8716089999999
 30
0.0
 40
12.0
100
AcDbArc
 50
344.28617
 51
15.71384
  0
ARC
  5
A467
330
A335
100
AcDbEntity
  8
1
  6
Continuous
100
AcDbCircle
 10
412.220223
 20
224.329647
 30
0.0
 40
3.0
100
AcDbArc
 50
300.00002
 51
0.00002
  0
LINE
  5
A468
330
A335
100
AcDbEntity
  8
1
  6
Continuous
100
AcDbLine
 10
418.520213
 20
225.8716089999999
 30
0.0
 11
416.220223
 21
225.8716089999999
 31
0.0
  0
LINE
  5
A469
330
A335
100
AcDbEntity
  8
1
  6
Continuous
100
AcDbLine
 10
422.0452629999998
 20
233.6216089999997
 30
0.0
 11
418.995153
 21
233.6216089999997
 31
0.0
  0
LINE
  5
A46A
330
A335
100
AcDbEntity
  8
1
  6
Continuous
100
AcDbLine
 10
422.122213
 20
230.3716089999999
 30
0.0
 11
418.918203
 21
230.3716089999999
 31
0.0
  0
ARC
  5
A46B
330
A335
100
AcDbEntity
  8
1
  6
Continuous
100
AcDbCircle
 10
421.770213
 20
231.9299809999999
 30
0.0
 40
3.25
100
AcDbArc
 50
148.634207
 51
208.6527699999999
  0
LINE
  5
A46C
330
A335
100
AcDbEntity
  8
1
  6
Continuous
100
AcDbLine
 10
422.122183
 20
230.3716169999999
 30
0.0
 11
423.5201829999998
 21
231.769608
 31
0.0
  0
ARC
  5
A46D
330
A335
100
AcDbEntity
  8
1
  6
Continuous
100
AcDbCircle
 10
419.2702129999998
 20
231.9299809999999
 30
0.0
 40
3.25
100
AcDbArc
 50
331.3472699999998
 51
31.36577
  0
LINE
  5
A46E
330
A335
100
AcDbEntity
  8
1
  6
Continuous
100
AcDbLine
 10
416.220223
 20
232.8716089999999
 30
0.0
 11
415.2202229999998
 21
232.8716089999999
 31
0.0
  0
ARC
  5
A46F
330
A335
100
AcDbEntity
  8
1
  6
Continuous
100
AcDbCircle
 10
412.220223
 20
249.413571
 30
0.0
 40
3.0
100
AcDbArc
 50
359.9999799999998
 51
59.99998000000001
  0
LINE
  5
A470
330
A335
100
AcDbEntity
  8
1
  6
Continuous
100
AcDbLine
 10
422.0717229999998
 20
240.1216089999997
 30
0.0
 11
418.9686929999998
 21
240.1216089999997
 31
0.0
  0
LINE
  5
A471
330
A335
100
AcDbEntity
  8
1
  6
Continuous
100
AcDbLine
 10
422.122213
 20
243.3716089999998
 30
0.0
 11
418.918203
 21
243.3716089999998
 31
0.0
  0
ARC
  5
A472
330
A335
100
AcDbEntity
  8
1
  6
Continuous
100
AcDbCircle
 10
421.770213
 20
241.8132369999999
 30
0.0
 40
3.25
100
AcDbArc
 50
151.3472329999999
 51
211.3658
  0
LINE
  5
A473
330
A335
100
AcDbEntity
  8
1
  6
Continuous
100
AcDbLine
 10
423.5201829999998
 20
241.97361
 30
0.0
 11
422.1222029999998
 21
243.371598
 31
0.0
  0
ARC
  5
A474
330
A335
100
AcDbEntity
  8
1
  6
Continuous
100
AcDbCircle
 10
419.2702129999998
 20
241.8132369999999
 30
0.0
 40
3.25
100
AcDbArc
 50
328.6342499999999
 51
28.65275
  0
LINE
  5
A475
330
A335
100
AcDbEntity
  8
1
  6
Continuous
100
AcDbLine
 10
416.220223
 20
240.8716089999999
 30
0.0
 11
415.2202229999998
 21
240.8716089999999
 31
0.0
  0
LINE
  5
A476
330
A335
100
AcDbEntity
  8
1
  6
Continuous
100
AcDbLine
 10
378.7202429999999
 20
241.1216089999999
 30
0.0
 11
378.7202429999999
 21
232.6216089999999
 31
0.0
  0
LINE
  5
A477
330
A335
100
AcDbEntity
  8
1
  6
Continuous
100
AcDbLine
 10
385.2202229999999
 20
224.329647
 30
0.0
 11
385.2202229999999
 21
249.413571
 31
0.0
  0
LINE
  5
A478
330
A335
100
AcDbEntity
  8
1
  6
Continuous
100
AcDbLine
 10
381.920223
 20
230.6216089999999
 30
0.0
 11
380.7202429999999
 21
230.6216089999999
 31
0.0
  0
ARC
  5
A479
330
A335
100
AcDbEntity
  8
1
  6
Continuous
100
AcDbCircle
 10
380.7202429999999
 20
232.6216089999999
 30
0.0
 40
2.0
100
AcDbArc
 50
180.0
 51
269.99998
  0
ARC
  5
A47A
330
A335
100
AcDbEntity
  8
1
  6
Continuous
100
AcDbCircle
 10
388.2202229999998
 20
224.329647
 30
0.0
 40
3.0
100
AcDbArc
 50
180.0000499999999
 51
239.99999
  0
LINE
  5
A47B
330
A335
100
AcDbEntity
  8
1
  6
Continuous
100
AcDbLine
 10
385.2202229999999
 20
232.8716089999999
 30
0.0
 11
384.2202229999998
 21
232.8716089999999
 31
0.0
  0
LINE
  5
A47C
330
A335
100
AcDbEntity
  8
1
  6
Continuous
100
AcDbLine
 10
381.920223
 20
225.8716089999999
 30
0.0
 11
384.2202229999998
 21
225.8716089999999
 31
0.0
  0
LINE
  5
A47D
330
A335
100
AcDbEntity
  8
1
  6
Continuous
100
AcDbLine
 10
381.920223
 20
243.1216089999999
 30
0.0
 11
380.7202429999999
 21
243.1216089999999
 31
0.0
  0
ARC
  5
A47E
330
A335
100
AcDbEntity
  8
1
  6
Continuous
100
AcDbCircle
 10
380.7202429999999
 20
241.1216089999999
 30
0.0
 40
2.0
100
AcDbArc
 50
90.00001800000005
 51
180.0
  0
LINE
  5
A47F
330
A335
100
AcDbEntity
  8
1
  6
Continuous
100
AcDbLine
 10
385.2202229999999
 20
240.8716089999999
 30
0.0
 11
384.2202229999998
 21
240.8716089999999
 31
0.0
  0
ARC
  5
A480
330
A335
100
AcDbEntity
  8
1
  6
Continuous
100
AcDbCircle
 10
388.2202229999998
 20
249.413571
 30
0.0
 40
3.0
100
AcDbArc
 50
120.000005
 51
179.999945
  0
ARC
  5
A481
330
A335
100
AcDbEntity
  8
1
  6
Continuous
100
AcDbCircle
 10
400.2202229999999
 20
241.8716089999997
 30
0.0
 40
70.0
100
AcDbArc
 50
80.26340600000002
 51
99.73652000000001
  0
LINE
  5
A482
330
A335
100
AcDbEntity
  8
1
  6
Continuous
100
AcDbLine
 10
420.220223
 20
329.9716
 30
0.0
 11
380.2202229999999
 21
329.9716
 31
0.0
  0
LINE
  5
A483
330
A335
100
AcDbEntity
  8
1
  6
Continuous
100
AcDbLine
 10
429.220223
 20
335.5716059999998
 30
0.0
 11
371.2202229999999
 21
335.5716059999998
 31
0.0
  0
LINE
  5
A484
330
A335
100
AcDbEntity
  8
1
  6
Continuous
100
AcDbLine
 10
423.2202229999998
 20
330.971607
 30
0.0
 11
377.2202229999999
 21
330.971607
 31
0.0
  0
LINE
  5
A485
330
A335
100
AcDbEntity
  8
1
  6
Continuous
100
AcDbLine
 10
429.220223
 20
337.8716089999998
 30
0.0
 11
371.2202229999999
 21
337.8716089999998
 31
0.0
  0
ARC
  5
A486
330
A335
100
AcDbEntity
  8
1
  6
Continuous
100
AcDbCircle
 10
420.220223
 20
324.9716
 30
0.0
 40
5.0
100
AcDbArc
 50
0.00004
 51
90.00001800000005
  0
LINE
  5
A487
330
A335
100
AcDbEntity
  8
1
  6
Continuous
100
AcDbLine
 10
425.2202229999999
 20
324.9716
 30
0.0
 11
425.2202229999999
 21
297.3982689999999
 31
0.0
  0
ARC
  5
A488
330
A335
100
AcDbEntity
  8
1
  6
Continuous
100
AcDbCircle
 10
411.720223
 20
308.892124
 30
0.0
 40
2.0
100
AcDbArc
 50
359.9999799999998
 51
80.26343999999998
  0
ARC
  5
A489
330
A335
100
AcDbEntity
  8
1
  6
Continuous
100
AcDbCircle
 10
423.2202229999998
 20
333.971607
 30
0.0
 40
3.0
100
AcDbArc
 50
269.99998
 51
328.48641
  0
LINE
  5
A48A
330
A335
100
AcDbEntity
  8
1
  6
Continuous
100
AcDbLine
 10
429.220223
 20
337.8716089999998
 30
0.0
 11
429.220223
 21
335.57161
 31
0.0
  0
LINE
  5
A48B
330
A335
100
AcDbEntity
  8
1
  6
Continuous
100
AcDbLine
 10
427.7202729999998
 20
335.571614
 30
0.0
 11
425.777823
 21
332.403504
 31
0.0
  0
ARC
  5
A48C
330
A335
100
AcDbEntity
  8
1
  6
Continuous
100
AcDbCircle
 10
410.6613829999998
 20
331.449612
 30
0.0
 40
2.778
100
AcDbArc
 50
327.85649
 51
350.0919
  0
LINE
  5
A48D
330
A335
100
AcDbEntity
  8
4
  6
CENTER
 48
0.8
100
AcDbLine
 10
420.220223
 20
342.8716089999998
 30
0.0
 11
420.220223
 21
330.5716059999998
 31
0.0
  0
ARC
  5
A48E
330
A335
100
AcDbEntity
  8
1
  6
Continuous
100
AcDbCircle
 10
418.0202429999998
 20
331.449612
 30
0.0
 40
2.778
100
AcDbArc
 50
327.85649
 51
350.0919
  0
ARC
  5
A48F
330
A335
100
AcDbEntity
  8
1
  6
Continuous
100
AcDbCircle
 10
414.5973629999998
 20
331.449612
 30
0.0
 40
2.778
100
AcDbArc
 50
327.85649
 51
350.0919
  0
ARC
  5
A490
330
A335
100
AcDbEntity
  8
1
  6
Continuous
100
AcDbCircle
 10
417.1326029999998
 20
331.449612
 30
0.0
 40
2.778
100
AcDbArc
 50
327.85649
 51
350.0919
  0
ARC
  5
A491
330
A335
100
AcDbEntity
  8
1
  6
Continuous
100
AcDbCircle
 10
400.2202429999998
 20
331.449612
 30
0.0
 40
2.778
100
AcDbArc
 50
189.90807
 51
212.14352
  0
ARC
  5
A492
330
A335
100
AcDbEntity
  8
1
  6
Continuous
100
AcDbCircle
 10
394.732323
 20
331.449612
 30
0.0
 40
2.778
100
AcDbArc
 50
327.85649
 51
350.0919599999999
  0
ARC
  5
A493
330
A335
100
AcDbEntity
  8
1
  6
Continuous
100
AcDbCircle
 10
400.2202429999998
 20
331.449612
 30
0.0
 40
2.778
100
AcDbArc
 50
327.85649
 51
350.0919
  0
ARC
  5
A494
330
A335
100
AcDbEntity
  8
1
  6
Continuous
100
AcDbCircle
 10
405.7081529999998
 20
331.449612
 30
0.0
 40
2.778
100
AcDbArc
 50
189.9080099999999
 51
212.14352
  0
ARC
  5
A495
330
A335
100
AcDbEntity
  8
1
  6
Continuous
100
AcDbCircle
 10
405.7081529999998
 20
331.449612
 30
0.0
 40
2.778
100
AcDbArc
 50
327.85649
 51
350.0919
  0
ARC
  5
A496
330
A335
100
AcDbEntity
  8
1
  6
Continuous
100
AcDbCircle
 10
410.6613829999998
 20
331.449612
 30
0.0
 40
2.778
100
AcDbArc
 50
206.93616
 51
212.14352
  0
ARC
  5
A497
330
A335
100
AcDbEntity
  8
1
  6
Continuous
100
AcDbCircle
 10
380.2202229999999
 20
324.9716
 30
0.0
 40
5.0
100
AcDbArc
 50
90.00001800000005
 51
180.0
  0
ARC
  5
A498
330
A335
100
AcDbEntity
  8
1
  6
Continuous
100
AcDbCircle
 10
388.7202229999999
 20
308.892124
 30
0.0
 40
2.0
100
AcDbArc
 50
99.736487
 51
179.999945
  0
LINE
  5
A499
330
A335
100
AcDbEntity
  8
4
  6
CENTER
 48
0.8
100
AcDbLine
 10
380.2202229999999
 20
342.8716089999998
 30
0.0
 11
380.2202229999999
 21
330.5716059999998
 31
0.0
  0
ARC
  5
A49A
330
A335
100
AcDbEntity
  8
1
  6
Continuous
100
AcDbCircle
 10
382.4202329999998
 20
331.449612
 30
0.0
 40
2.778
100
AcDbArc
 50
189.90807
 51
212.19887
  0
ARC
  5
A49B
330
A335
100
AcDbEntity
  8
1
  6
Continuous
100
AcDbCircle
 10
385.8431129999999
 20
331.449612
 30
0.0
 40
2.778
100
AcDbArc
 50
189.90807
 51
212.14352
  0
ARC
  5
A49C
330
A335
100
AcDbEntity
  8
1
  6
Continuous
100
AcDbCircle
 10
383.307873
 20
331.449612
 30
0.0
 40
2.778
100
AcDbArc
 50
189.90807
 51
212.14352
  0
ARC
  5
A49D
330
A335
100
AcDbEntity
  8
1
  6
Continuous
100
AcDbCircle
 10
389.7790929999999
 20
331.449612
 30
0.0
 40
2.778
100
AcDbArc
 50
189.90807
 51
212.14352
  0
ARC
  5
A49E
330
A335
100
AcDbEntity
  8
1
  6
Continuous
100
AcDbCircle
 10
394.732323
 20
331.449612
 30
0.0
 40
2.778
100
AcDbArc
 50
189.90807
 51
212.14352
  0
ARC
  5
A49F
330
A335
100
AcDbEntity
  8
1
  6
Continuous
100
AcDbCircle
 10
389.7790929999999
 20
331.449612
 30
0.0
 40
2.778
100
AcDbArc
 50
327.85649
 51
333.0638
  0
LINE
  5
A4A0
330
A335
100
AcDbEntity
  8
1
  6
Continuous
100
AcDbLine
 10
371.2202229999999
 20
337.8716089999998
 30
0.0
 11
371.2202229999999
 21
335.5716059999998
 31
0.0
  0
LINE
  5
A4A1
330
A335
100
AcDbEntity
  8
1
  6
Continuous
100
AcDbLine
 10
372.720303
 20
335.5716519999998
 30
0.0
 11
374.6627629999999
 21
332.4035489999999
 31
0.0
  0
ARC
  5
A4A2
330
A335
100
AcDbEntity
  8
1
  6
Continuous
100
AcDbCircle
 10
377.2202229999999
 20
333.971607
 30
0.0
 40
3.0
100
AcDbArc
 50
211.5135599999999
 51
269.99998
  0
ARC
  5
A4A3
330
A335
100
AcDbEntity
  8
1
  6
Continuous
100
AcDbCircle
 10
400.2202229999999
 20
446.7065569999999
 30
0.0
 40
128.4999999999998
100
AcDbArc
 50
263.3484899999999
 51
276.65153
  0
ARC
  5
A4A4
330
A335
100
AcDbEntity
  8
1
  6
Continuous
100
AcDbCircle
 10
400.2202229999999
 20
448.9715969999998
 30
0.0
 40
128.4999999999998
100
AcDbArc
 50
264.460965
 51
275.539035
  0
LINE
  5
A4A5
330
A335
100
AcDbEntity
  8
1
  6
Continuous
100
AcDbLine
 10
379.821329
 20
321.0716059999998
 30
0.0
 11
420.619117
 21
321.0716059999998
 31
0.0
  0
ARC
  5
A4A6
330
A335
100
AcDbEntity
  8
1
  6
Continuous
100
AcDbCircle
 10
385.2202229999999
 20
318.0782109999999
 30
0.0
 40
1.0
100
AcDbArc
 50
83.34851999999996
 51
180.0
  0
ARC
  5
A4A7
330
A335
100
AcDbEntity
  8
1
  6
Continuous
100
AcDbCircle
 10
415.2202229999998
 20
318.0782109999999
 30
0.0
 40
1.0
100
AcDbArc
 50
0.00004
 51
96.65146100000001
  0
LINE
  5
A4A8
330
A335
100
AcDbEntity
  8
1
  6
Continuous
100
AcDbLine
 10
375.2202229999999
 20
324.9716
 30
0.0
 11
375.2202229999999
 21
297.3982689999999
 31
0.0
  0
ARC
  5
A4A9
330
A335
100
AcDbEntity
  8
1
  6
Continuous
100
AcDbCircle
 10
217.2202229999999
 20
57.41321899999999
 30
0.0
 40
6.841600999999998
100
AcDbArc
 50
243.992176
 51
296.0078240000001
  0
LINE
  5
A4AA
330
A335
100
AcDbEntity
  8
1
  6
Continuous
100
AcDbLine
 10
217.470223
 20
50.571619
 30
0.0
 11
222.970223
 21
50.571619
 31
0.0
  0
ARC
  5
A4AB
330
A335
100
AcDbEntity
  8
1
  6
Continuous
100
AcDbCircle
 10
217.2202229999999
 20
48.730018
 30
0.0
 40
6.841600999999998
100
AcDbArc
 50
63.992176
 51
116.007824
  0
LINE
  5
A4AC
330
A335
100
AcDbEntity
  8
1
  6
Continuous
100
AcDbLine
 10
214.220223
 20
54.87879799999999
 30
0.0
 11
214.220223
 21
51.264439
 31
0.0
  0
LINE
  5
A4AD
330
A335
100
AcDbEntity
  8
1
  6
Continuous
100
AcDbLine
 10
220.220223
 20
55.57161899999999
 30
0.0
 11
220.220223
 21
51.264439
 31
0.0
  0
LINE
  5
A4AE
330
A335
100
AcDbEntity
  8
1
  6
Continuous
100
AcDbLine
 10
226.220223
 20
54.87879799999999
 30
0.0
 11
226.220223
 21
51.264439
 31
0.0
  0
ARC
  5
A4AF
330
A335
100
AcDbEntity
  8
1
  6
Continuous
100
AcDbCircle
 10
223.2202229999999
 20
57.41321899999999
 30
0.0
 40
6.841600999999998
100
AcDbArc
 50
243.992176
 51
296.0078240000001
  0
ARC
  5
A4B0
330
A335
100
AcDbEntity
  8
1
  6
Continuous
100
AcDbCircle
 10
223.2202229999999
 20
48.730018
 30
0.0
 40
6.841600999999998
100
AcDbArc
 50
63.992176
 51
116.007824
  0
LINE
  5
A4B1
330
A335
100
AcDbEntity
  8
1
  6
Continuous
100
AcDbLine
 10
588.220223
 20
337.8716089999998
 30
0.0
 11
488.2202379999998
 21
337.8716089999998
 31
0.0
  0
ARC
  5
A4B2
330
A335
100
AcDbEntity
  8
1
  6
Continuous
100
AcDbCircle
 10
580.220223
 20
236.8716089999999
 30
0.0
 40
75.0
100
AcDbArc
 50
124.603905
 51
86.920777
  0
LINE
  5
A4B3
330
A335
100
AcDbEntity
  8
1
  6
Continuous
100
AcDbLine
 10
588.220223
 20
335.5716059999998
 30
0.0
 11
488.2202379999998
 21
335.5716059999998
 31
0.0
  0
ARC
  5
A4B4
330
A335
100
AcDbEntity
  8
1
  6
Continuous
100
AcDbCircle
 10
580.220223
 20
236.8716089999999
 30
0.0
 40
54.5
100
AcDbArc
 50
127.8143669999999
 51
83.71030899999999
  0
ARC
  5
A4B5
330
A335
100
AcDbEntity
  8
1
  6
Continuous
100
AcDbCircle
 10
580.220223
 20
236.8716089999999
 30
0.0
 40
44.0
100
AcDbArc
 50
130.647611
 51
80.87707100000001
  0
ARC
  5
A4B6
330
A335
100
AcDbEntity
  8
1
  6
Continuous
100
AcDbCircle
 10
580.220223
 20
236.8716089999999
 30
0.0
 40
50.0
100
AcDbArc
 50
128.8791389999997
 51
82.64554999999999
  0
LINE
  5
A4B7
330
A335
100
AcDbEntity
  8
1
  6
Continuous
100
AcDbLine
 10
570.347848
 20
232.020195
 30
0.0
 11
530.7070620000001
 21
312.6871679999998
 31
0.0
  0
LINE
  5
A4B8
330
A335
100
AcDbEntity
  8
1
  6
Continuous
100
AcDbLine
 10
561.220225
 20
330.971607
 30
0.0
 11
515.220223
 21
330.971607
 31
0.0
  0
LINE
  5
A4B9
330
A335
100
AcDbEntity
  8
1
  6
Continuous
100
AcDbLine
 10
559.220223
 20
329.971604
 30
0.0
 11
518.220223
 21
329.971604
 31
0.0
  0
LINE
  5
A4BA
330
A335
100
AcDbEntity
  8
4
  6
CENTER
 48
0.8
100
AcDbLine
 10
580.220223
 20
314.2043569999998
 30
0.0
 11
580.220223
 21
153.871609
 31
0.0
  0
ARC
  5
A4BB
330
A335
100
AcDbEntity
  8
1
  6
Continuous
100
AcDbCircle
 10
580.220223
 20
236.8716089999999
 30
0.0
 40
31.0
100
AcDbArc
 50
136.953652
 51
74.57101999999998
  0
LINE
  5
A4BC
330
A335
100
AcDbEntity
  8
1
  6
Continuous
100
AcDbLine
 10
591.1722219999997
 20
237.898114
 30
0.0
 11
583.6415019999996
 21
318.2445259999998
 31
0.0
  0
LINE
  5
A4BD
330
A335
100
AcDbEntity
  8
1
  6
Continuous
100
AcDbLine
 10
559.220223
 20
320.771611
 30
0.0
 11
559.220223
 21
259.6821409999999
 31
0.0
  0
ARC
  5
A4BE
330
A335
100
AcDbEntity
  8
1
  6
Continuous
100
AcDbCircle
 10
580.220223
 20
236.8716089999999
 30
0.0
 40
11.0
100
AcDbArc
 50
209.31727
 51
5.35458
  0
ARC
  5
A4BF
330
A335
100
AcDbEntity
  8
1
  6
Continuous
100
AcDbCircle
 10
580.220223
 20
236.8716089999999
 30
0.0
 40
16.0
100
AcDbArc
 50
159.602641
 51
51.92204000000001
  0
LINE
  5
A4C0
330
A335
100
AcDbEntity
  8
1
  6
Continuous
100
AcDbLine
 10
589.220228
 20
320.4716069999999
 30
0.0
 11
560.3787029999998
 21
325.557144
 31
0.0
  0
ARC
  5
A4C1
330
A335
100
AcDbEntity
  8
1
  6
Continuous
100
AcDbCircle
 10
586.1305929999997
 20
318.4778249999999
 30
0.0
 40
2.5
100
AcDbArc
 50
79.99997999999997
 51
185.3545799999999
  0
ARC
  5
A4C2
330
A335
100
AcDbEntity
  8
1
  6
Continuous
100
AcDbCircle
 10
584.6656730000002
 20
317.923786
 30
0.0
 40
1.0
100
AcDbArc
 50
79.99998999999998
 51
183.9999999999998
  0
LINE
  5
A4C3
330
A335
100
AcDbEntity
  8
1
  6
Continuous
100
AcDbLine
 10
589.220219
 20
320.4716069999999
 30
0.0
 11
588.8208279999997
 21
318.206551
 31
0.0
  0
LINE
  5
A4C4
330
A335
100
AcDbEntity
  8
1
  6
Continuous
100
AcDbLine
 10
588.820822
 20
318.2065469999999
 30
0.0
 11
584.8393049999997
 21
318.9085959999998
 31
0.0
  0
LINE
  5
A4C5
330
A335
100
AcDbEntity
  8
4
  6
CENTER
 48
0.8
100
AcDbLine
 10
579.220223
 20
342.8716089999998
 30
0.0
 11
579.220223
 21
330.5716059999998
 31
0.0
  0
LINE
  5
A4C6
330
A335
100
AcDbEntity
  8
1
  6
Continuous
100
AcDbLine
 10
588.2202379999998
 20
335.571614
 30
0.0
 11
588.2202379999998
 21
337.871617
 31
0.0
  0
ARC
  5
A4C7
330
A335
100
AcDbEntity
  8
1
  6
Continuous
100
AcDbCircle
 10
555.132607
 20
331.449612
 30
0.0
 40
2.778
100
AcDbArc
 50
327.85663
 51
350.0919
  0
ARC
  5
A4C8
330
A335
100
AcDbEntity
  8
1
  6
Continuous
100
AcDbCircle
 10
548.6613929999998
 20
331.449612
 30
0.0
 40
2.778
100
AcDbArc
 50
327.8566
 51
350.0919
  0
ARC
  5
A4C9
330
A335
100
AcDbEntity
  8
1
  6
Continuous
100
AcDbCircle
 10
552.5973669999998
 20
331.449612
 30
0.0
 40
2.778
100
AcDbArc
 50
327.8566
 51
350.0919
  0
ARC
  5
A4CA
330
A335
100
AcDbEntity
  8
1
  6
Continuous
100
AcDbCircle
 10
543.708153
 20
331.449612
 30
0.0
 40
2.778
100
AcDbArc
 50
327.8566
 51
350.0919
  0
ARC
  5
A4CB
330
A335
100
AcDbEntity
  8
1
  6
Continuous
100
AcDbCircle
 10
556.020249
 20
331.449612
 30
0.0
 40
2.778
100
AcDbArc
 50
327.85663
 51
350.0919
  0
ARC
  5
A4CC
330
A335
100
AcDbEntity
  8
1
  6
Continuous
100
AcDbCircle
 10
558.220223
 20
324.971604
 30
0.0
 40
5.0
100
AcDbArc
 50
0.0
 51
90.0
  0
ARC
  5
A4CD
330
A335
100
AcDbEntity
  8
1
  6
Continuous
100
AcDbCircle
 10
561.220223
 20
333.971607
 30
0.0
 40
3.0
100
AcDbArc
 50
269.99998
 51
328.48641
  0
LINE
  5
A4CE
330
A335
100
AcDbEntity
  8
1
  6
Continuous
100
AcDbLine
 10
565.720219
 20
335.5716249999998
 30
0.0
 11
563.777766
 21
332.4035149999999
 31
0.0
  0
LINE
  5
A4CF
330
A335
100
AcDbEntity
  8
4
  6
CENTER
 48
0.8
100
AcDbLine
 10
538.220223
 20
342.8716089999998
 30
0.0
 11
538.220223
 21
283.6049389999999
 31
0.0
  0
ARC
  5
A4D0
330
A335
100
AcDbEntity
  8
1
  6
Continuous
100
AcDbCircle
 10
527.779084
 20
331.449612
 30
0.0
 40
2.778
100
AcDbArc
 50
189.90807
 51
212.1434199999999
  0
ARC
  5
A4D1
330
A335
100
AcDbEntity
  8
1
  6
Continuous
100
AcDbCircle
 10
523.8431099999997
 20
331.449612
 30
0.0
 40
2.778
100
AcDbArc
 50
189.90807
 51
212.1433699999999
  0
ARC
  5
A4D2
330
A335
100
AcDbEntity
  8
1
  6
Continuous
100
AcDbCircle
 10
521.3078690000001
 20
331.449612
 30
0.0
 40
2.778
100
AcDbArc
 50
189.90807
 51
212.1433699999999
  0
ARC
  5
A4D3
330
A335
100
AcDbEntity
  8
1
  6
Continuous
100
AcDbCircle
 10
520.4202279999998
 20
331.449612
 30
0.0
 40
2.778
100
AcDbArc
 50
189.90807
 51
212.1433699999999
  0
ARC
  5
A4D4
330
A335
100
AcDbEntity
  8
1
  6
Continuous
100
AcDbCircle
 10
543.708153
 20
331.449612
 30
0.0
 40
2.778
100
AcDbArc
 50
189.9080099999999
 51
212.1434199999999
  0
ARC
  5
A4D5
330
A335
100
AcDbEntity
  8
1
  6
Continuous
100
AcDbCircle
 10
538.2202379999998
 20
331.449612
 30
0.0
 40
2.778
100
AcDbArc
 50
327.8566
 51
350.0919
  0
ARC
  5
A4D6
330
A335
100
AcDbEntity
  8
1
  6
Continuous
100
AcDbCircle
 10
532.7323230000001
 20
331.449612
 30
0.0
 40
2.778
100
AcDbArc
 50
327.8566
 51
350.0919599999999
  0
ARC
  5
A4D7
330
A335
100
AcDbEntity
  8
1
  6
Continuous
100
AcDbCircle
 10
538.2202379999998
 20
331.449612
 30
0.0
 40
2.778
100
AcDbArc
 50
189.90807
 51
212.1434199999999
  0
ARC
  5
A4D8
330
A335
100
AcDbEntity
  8
1
  6
Continuous
100
AcDbCircle
 10
532.7323230000001
 20
331.449612
 30
0.0
 40
2.778
100
AcDbArc
 50
189.90807
 51
212.1434199999999
  0
ARC
  5
A4D9
330
A335
100
AcDbEntity
  8
1
  6
Continuous
100
AcDbCircle
 10
518.220223
 20
324.971604
 30
0.0
 40
5.0
100
AcDbArc
 50
90.0
 51
180.0
  0
ARC
  5
A4DA
330
A335
100
AcDbEntity
  8
1
  6
Continuous
100
AcDbCircle
 10
517.2447359999998
 20
306.0716080000001
 30
0.0
 40
15.0
100
AcDbArc
 50
26.17007
 51
90.00001800000005
  0
LINE
  5
A4DB
330
A335
100
AcDbEntity
  8
1
  6
Continuous
100
AcDbLine
 10
517.2447359999998
 20
321.0716059999998
 30
0.0
 11
513.220223
 21
321.0716059999998
 31
0.0
  0
LINE
  5
A4DC
330
A335
100
AcDbEntity
  8
1
  6
Continuous
100
AcDbLine
 10
513.220223
 20
324.971604
 30
0.0
 11
513.220223
 21
321.0716059999998
 31
0.0
  0
LINE
  5
A4DD
330
A335
100
AcDbEntity
  8
1
  6
Continuous
100
AcDbLine
 10
510.720215
 20
335.571591
 30
0.0
 11
512.6626669999998
 21
332.4034879999998
 31
0.0
  0
ARC
  5
A4DE
330
A335
100
AcDbEntity
  8
1
  6
Continuous
100
AcDbCircle
 10
515.220223
 20
333.971607
 30
0.0
 40
3.0
100
AcDbArc
 50
211.5135599999999
 51
269.99998
  0
LINE
  5
A4DF
330
A335
100
AcDbEntity
  8
4
  6
CENTER
 48
0.8
100
AcDbLine
 10
497.2202229999998
 20
342.8716089999998
 30
0.0
 11
497.2202229999998
 21
330.5716059999998
 31
0.0
  0
LINE
  5
A4E0
330
A335
100
AcDbEntity
  8
1
  6
Continuous
100
AcDbLine
 10
488.2202379999998
 20
335.5715979999998
 30
0.0
 11
488.2202379999998
 21
337.8716089999998
 31
0.0
  0
LINE
  5
A4E1
330
A335
100
AcDbEntity
  8
4
  6
CENTER
 48
0.8
100
AcDbLine
 10
663.220223
 20
236.8716089999999
 30
0.0
 11
497.2202229999998
 21
236.8716089999999
 31
0.0
  0
LINE
  5
A4E2
330
A335
100
AcDbEntity
  8
2
  6
Continuous
100
AcDbLine
 10
424.9967129999998
 20
240.1951089999998
 30
0.0
 11
423.520213
 21
240.1951089999998
 31
0.0
  0
LINE
  5
A4E3
330
A335
100
AcDbEntity
  8
2
  6
Continuous
100
AcDbLine
 10
424.9967129999998
 20
233.548109
 30
0.0
 11
423.520213
 21
233.548109
 31
0.0
  0
LINE
  5
A4E4
330
A335
100
AcDbEntity
  8
1
  6
Continuous
100
AcDbLine
 10
424.3202129999998
 20
232.8716089999999
 30
0.0
 11
423.520213
 21
232.8716089999999
 31
0.0
  0
LINE
  5
A4E5
330
A335
100
AcDbEntity
  8
1
  6
Continuous
100
AcDbLine
 10
424.3202129999998
 20
240.8716089999999
 30
0.0
 11
423.520213
 21
240.8716089999999
 31
0.0
  0
LINE
  5
A4E6
330
A335
100
AcDbEntity
  8
1
  6
Continuous
100
AcDbLine
 10
424.3202129999998
 20
240.8716089999999
 30
0.0
 11
424.3202129999998
 21
232.8716089999999
 31
0.0
  0
LINE
  5
A4E7
330
A335
100
AcDbEntity
  8
1
  6
Continuous
100
AcDbLine
 10
425.5202129999998
 20
239.6716089999999
 30
0.0
 11
425.5202129999998
 21
234.0716089999999
 31
0.0
  0
LINE
  5
A4E8
330
A335
100
AcDbEntity
  8
1
  6
Continuous
100
AcDbLine
 10
425.5202129999998
 20
239.6716089999999
 30
0.0
 11
424.3202129999998
 21
240.8716089999999
 31
0.0
  0
LINE
  5
A4E9
330
A335
100
AcDbEntity
  8
1
  6
Continuous
100
AcDbLine
 10
425.5202129999998
 20
234.0716089999999
 30
0.0
 11
424.3202129999998
 21
232.8716089999999
 31
0.0
  0
LINE
  5
A4EA
330
A335
100
AcDbEntity
  8
1
  6
Continuous
100
AcDbLine
 10
31.92023300000001
 20
234.0716089999999
 30
0.0
 11
31.92023300000001
 21
239.6716089999999
 31
0.0
  0
LINE
  5
A4EB
330
A335
100
AcDbEntity
  8
1
  6
Continuous
100
AcDbLine
 10
33.12023299999999
 20
232.8716089999999
 30
0.0
 11
33.12023299999999
 21
240.8716089999999
 31
0.0
  0
LINE
  5
A4EC
330
A335
100
AcDbEntity
  8
1
  6
Continuous
100
AcDbLine
 10
31.92023300000001
 20
234.0716089999999
 30
0.0
 11
33.12023299999999
 21
232.8716089999999
 31
0.0
  0
LINE
  5
A4ED
330
A335
100
AcDbEntity
  8
2
  6
Continuous
100
AcDbLine
 10
32.443733
 20
233.548109
 30
0.0
 11
33.920233
 21
233.548109
 31
0.0
  0
LINE
  5
A4EE
330
A335
100
AcDbEntity
  8
1
  6
Continuous
100
AcDbLine
 10
33.12023299999999
 20
232.8716089999999
 30
0.0
 11
33.920233
 21
232.8716089999999
 31
0.0
  0
LINE
  5
A4EF
330
A335
100
AcDbEntity
  8
1
  6
Continuous
100
AcDbLine
 10
31.92023300000001
 20
239.6716089999999
 30
0.0
 11
33.12023299999999
 21
240.8716089999999
 31
0.0
  0
LINE
  5
A4F0
330
A335
100
AcDbEntity
  8
2
  6
Continuous
100
AcDbLine
 10
32.443733
 20
240.1951089999998
 30
0.0
 11
33.920233
 21
240.1951089999998
 31
0.0
  0
LINE
  5
A4F1
330
A335
100
AcDbEntity
  8
1
  6
Continuous
100
AcDbLine
 10
33.12023299999999
 20
240.8716089999999
 30
0.0
 11
33.920233
 21
240.8716089999999
 31
0.0
  0
LINE
  5
A4F2
330
A335
100
AcDbEntity
  8
1
  6
Continuous
100
AcDbLine
 10
223.0202229999999
 20
48.571619
 30
0.0
 11
217.420223
 21
48.571619
 31
0.0
  0
LINE
  5
A4F3
330
A335
100
AcDbEntity
  8
1
  6
Continuous
100
AcDbLine
 10
224.220223
 20
49.771619
 30
0.0
 11
216.220223
 21
49.771619
 31
0.0
  0
LINE
  5
A4F4
330
A335
100
AcDbEntity
  8
1
  6
Continuous
100
AcDbLine
 10
217.420223
 20
48.571619
 30
0.0
 11
216.220223
 21
49.771619
 31
0.0
  0
LINE
  5
A4F5
330
A335
100
AcDbEntity
  8
2
  6
Continuous
100
AcDbLine
 10
216.896723
 20
49.095119
 30
0.0
 11
216.896723
 21
50.571619
 31
0.0
  0
LINE
  5
A4F6
330
A335
100
AcDbEntity
  8
1
  6
Continuous
100
AcDbLine
 10
216.220223
 20
49.771619
 30
0.0
 11
216.220223
 21
50.571619
 31
0.0
  0
LINE
  5
A4F7
330
A335
100
AcDbEntity
  8
1
  6
Continuous
100
AcDbLine
 10
223.0202229999999
 20
48.571619
 30
0.0
 11
224.220223
 21
49.771619
 31
0.0
  0
LINE
  5
A4F8
330
A335
100
AcDbEntity
  8
2
  6
Continuous
100
AcDbLine
 10
223.543723
 20
49.095119
 30
0.0
 11
223.543723
 21
50.571619
 31
0.0
  0
LINE
  5
A4F9
330
A335
100
AcDbEntity
  8
1
  6
Continuous
100
AcDbLine
 10
224.220223
 20
49.771619
 30
0.0
 11
224.220223
 21
50.571619
 31
0.0
  0
CIRCLE
  5
A4FA
330
A335
100
AcDbEntity
  8
1
  6
Continuous
100
AcDbCircle
 10
580.220223
 20
236.8716089999999
 30
0.0
 40
2.799999999999998
  0
CIRCLE
  5
A4FB
330
A335
100
AcDbEntity
  8
1
  6
Continuous
100
AcDbCircle
 10
580.220223
 20
236.8716089999999
 30
0.0
 40
5.102000999999997
  0
ARC
  5
A4FC
330
A335
100
AcDbEntity
  8
1
  6
Continuous
100
AcDbCircle
 10
207.6782609999999
 20
413.8716089999999
 30
0.0
 40
3.0
100
AcDbArc
 50
210.0000049999999
 51
269.999945
  0
LINE
  5
A4FD
330
A335
100
AcDbEntity
  8
4
  6
CENTER
 48
0.8
100
AcDbLine
 10
221.2202229999999
 20
399.8716089999999
 30
0.0
 11
221.2202229999999
 21
411.8716089999998
 31
0.0
  0
LINE
  5
A501
330
A335
100
AcDbEntity
  8
1
  6
Continuous
100
AcDbLine
 10
212.991945
 20
440.8716089999998
 30
0.0
 11
207.6782609999999
 21
440.8716089999998
 31
0.0
  0
LINE
  5
A502
330
A335
100
AcDbEntity
  8
4
  6
CENTER
 48
0.8
100
AcDbLine
 10
215.2202229999998
 20
445.871609
 30
0.0
 11
227.2202229999999
 21
445.871609
 31
0.0
  0
ARC
  5
A503
330
A335
100
AcDbEntity
  8
1
  6
Continuous
100
AcDbCircle
 10
207.6782609999999
 20
437.871609
 30
0.0
 40
3.0
100
AcDbArc
 50
89.99997999999996
 51
149.9999799999999
  0
LINE
  5
A508
330
A335
100
AcDbEntity
  8
1
  6
Continuous
100
AcDbLine
 10
209.220223
 20
441.871609
 30
0.0
 11
209.220223
 21
444.171599
 31
0.0
  0
ARC
  5
A509
330
A335
100
AcDbEntity
  8
1
  6
Continuous
100
AcDbCircle
 10
129.7535629999997
 20
425.871609
 30
0.0
 40
85.0
100
AcDbArc
 50
10.840782
 51
10.849816
  0
LINE
  5
A50A
330
A335
100
AcDbEntity
  8
4
  6
CENTER
 48
0.8
100
AcDbLine
 10
221.2202229999999
 20
451.8716089999998
 30
0.0
 11
221.2202229999999
 21
439.8716089999998
 31
0.0
  0
LINE
  5
A50D
330
A335
100
AcDbEntity
  8
1
  6
Continuous
100
AcDbLine
 10
212.991948
 20
410.8716089999998
 30
0.0
 11
207.6782609999999
 21
410.8716089999998
 31
0.0
  0
LINE
  5
A50E
330
A335
100
AcDbEntity
  8
4
  6
CENTER
 48
0.8
100
AcDbLine
 10
215.2202229999998
 20
405.8716089999998
 30
0.0
 11
227.2202229999999
 21
405.8716089999998
 31
0.0
  0
LINE
  5
A50F
330
A335
100
AcDbEntity
  8
1
  6
Continuous
100
AcDbLine
 10
209.220223
 20
407.5716089999998
 30
0.0
 11
209.220223
 21
409.8716089999999
 31
0.0
  0
ARC
  5
A510
330
A335
100
AcDbEntity
  8
1
  6
Continuous
100
AcDbCircle
 10
129.7535629999997
 20
425.871609
 30
0.0
 40
85.0
100
AcDbArc
 50
349.1501839999998
 51
349.159214
  0
LINE
  5
A512
330
A335
100
AcDbEntity
  8
1
  6
Continuous
100
AcDbLine
 10
209.220223
 20
407.5716089999998
 30
0.0
 11
212.760249
 21
407.5716089999998
 31
0.0
  0
LINE
  5
A513
330
A335
100
AcDbEntity
  8
1
  6
Continuous
100
AcDbLine
 10
209.220223
 20
409.8716089999999
 30
0.0
 11
213.2340989999999
 21
409.8716089999999
 31
0.0
  0
LINE
  5
A514
330
A335
100
AcDbEntity
  8
1
  6
Continuous
100
AcDbLine
 10
209.220223
 20
444.171599
 30
0.0
 11
212.7602519999999
 21
444.171599
 31
0.0
  0
LINE
  5
A515
330
A335
100
AcDbEntity
  8
1
  6
Continuous
100
AcDbLine
 10
209.220223
 20
441.871609
 30
0.0
 11
213.2340989999999
 21
441.871609
 31
0.0
  0
ARC
  5
A518
330
A335
100
AcDbEntity
  8
1
  6
Continuous
100
AcDbCircle
 10
468.8157279999998
 20
297.3982689999999
 30
0.0
 40
93.595505
100
AcDbArc
 50
166.312859
 51
201.693872
  0
ARC
  5
A519
330
A335
100
AcDbEntity
  8
1
  6
Continuous
100
AcDbCircle
 10
331.624717
 20
297.3982689999999
 30
0.0
 40
93.595505
100
AcDbArc
 50
338.3061109999998
 51
13.687141
  0
ARC
  5
A51A
330
A335
100
AcDbEntity
  8
1
  6
Continuous
100
AcDbCircle
 10
331.624717
 20
297.3982689999999
 30
0.0
 40
91.295505
100
AcDbArc
 50
338.306128
 51
15.028798
  0
ARC
  5
A51B
330
A335
100
AcDbEntity
  8
1
  6
Continuous
100
AcDbCircle
 10
468.8157279999998
 20
297.3982689999999
 30
0.0
 40
91.295505
100
AcDbArc
 50
164.971202
 51
201.693872
  0
ARC
  5
A51C
330
A335
100
AcDbEntity
  8
1
  6
Continuous
100
AcDbCircle
 10
243.3228689999999
 20
97.17160900000001
 30
0.0
 40
5.0
100
AcDbArc
 50
270.0
 51
309.0436159999998
  0
ARC
  5
A51D
330
A335
100
AcDbEntity
  8
1
  6
Continuous
100
AcDbCircle
 10
243.3228689999999
 20
97.17160900000001
 30
0.0
 40
7.299999999999998
100
AcDbArc
 50
270.0
 51
309.0436159999998
  0
ARC
  5
A51E
330
A335
100
AcDbEntity
  8
1
  6
Continuous
100
AcDbCircle
 10
243.3228689999999
 20
50.571609
 30
0.0
 40
7.299999999999998
100
AcDbArc
 50
50.956384
 51
90.0
  0
ARC
  5
A51F
330
A335
100
AcDbEntity
  8
1
  6
Continuous
100
AcDbCircle
 10
243.3228559999998
 20
50.571619
 30
0.0
 40
5.0
100
AcDbArc
 50
50.956353
 51
90.0
  0
ARC
  5
A520
330
A335
100
AcDbEntity
  8
1
  6
Continuous
100
AcDbCircle
 10
420.619117
 20
319.0716059999998
 30
0.0
 40
2.0
100
AcDbArc
 50
13.687141
 51
90.0
  0
ARC
  5
A521
330
A335
100
AcDbEntity
  8
1
  6
Continuous
100
AcDbCircle
 10
379.821329
 20
319.0716059999998
 30
0.0
 40
2.0
100
AcDbArc
 50
90.0
 51
166.312859
  0
ARC
  5
A522
330
A335
100
AcDbEntity
  8
1
  6
Continuous
100
AcDbCircle
 10
380.920223
 20
262.431288
 30
0.0
 40
1.0
100
AcDbArc
 50
0.0
 51
21.693872
  0
ARC
  5
A523
330
A335
100
AcDbEntity
  8
1
  6
Continuous
100
AcDbCircle
 10
419.520213
 20
262.4312629999999
 30
0.0
 40
1.0
100
AcDbArc
 50
158.3061109999999
 51
180.0
  0
ARC
  5
A524
330
A335
100
AcDbEntity
  8
1
  6
Continuous
100
AcDbCircle
 10
380.920223
 20
262.431288
 30
0.0
 40
3.299999999999998
100
AcDbArc
 50
0.0
 51
21.693872
  0
ARC
  5
A525
330
A335
100
AcDbEntity
  8
1
  6
Continuous
100
AcDbCircle
 10
419.5202229999998
 20
262.431288
 30
0.0
 40
3.299999999999998
100
AcDbArc
 50
158.306128
 51
180.0
  0
ENDSEC
  0
SECTION
  2
OBJECTS
  0
DICTIONARY
  5
A323
330
0
100
AcDbDictionary
281
     1
  3
ACAD_CIP_PREVIOUS_PRODUCT_INFO
350
A5A4
  3
ACAD_COLOR
350
A586
  3
ACAD_DETAILVIEWSTYLE
350
A59F
  3
ACAD_GROUP
350
A324
  3
ACAD_LAYOUT
350
A330
  3
ACAD_MATERIAL
350
A554
  3
ACAD_MLEADERSTYLE
350
A59B
  3
ACAD_MLINESTYLE
350
A32D
  3
ACAD_PLOTSETTINGS
350
A32F
  3
ACAD_PLOTSTYLENAME
350
A552
  3
ACAD_SCALELIST
350
A589
  3
ACAD_SECTIONVIEWSTYLE
350
A59D
  3
ACAD_TABLESTYLE
350
A587
  3
ACAD_VISUALSTYLE
350
A56D
  3
ACDB_RECOMPOSE_DATA
350
A5C2
  3
AcDbVariableDictionary
350
A5B5
  3
DWGPROPS
350
A5C3
  0
DICTIONARY
  5
A5A5
330
A327
100
AcDbDictionary
280
     1
281
     1
  3
ADSK_XREC_LAYER_RECONCILED
360
A5A6
  0
DICTIONARY
  5
A5A7
330
A33D
100
AcDbDictionary
280
     1
281
     1
  3
ADSK_XREC_LAYER_RECONCILED
360
A5A8
  0
DICTIONARY
  5
A5A9
330
A33E
100
AcDbDictionary
280
     1
281
     1
  3
ADSK_XREC_LAYER_RECONCILED
360
A5AA
  0
DICTIONARY
  5
A5AB
330
A33F
100
AcDbDictionary
280
     1
281
     1
  3
ADSK_XREC_LAYER_RECONCILED
360
A5AC
  0
DICTIONARY
  5
A5AD
330
A340
100
AcDbDictionary
280
     1
281
     1
  3
ADSK_XREC_LAYER_RECONCILED
360
A5AE
  0
DICTIONARY
  5
A5AF
330
A341
100
AcDbDictionary
280
     1
281
     1
  3
ADSK_XREC_LAYER_RECONCILED
360
A5B0
  0
DICTIONARY
  5
A5B1
330
A342
100
AcDbDictionary
280
     1
281
     1
  3
ADSK_XREC_LAYER_RECONCILED
360
A5B2
  0
DICTIONARY
  5
A5B3
330
A343
100
AcDbDictionary
280
     1
281
     1
  3
ADSK_XREC_LAYER_RECONCILED
360
A5B4
  0
DICTIONARY
  5
A530
330
A335
100
AcDbDictionary
281
     1
  3
ACAD_LAYOUTSELFREF
350
A54E
  0
DICTIONARY
  5
A52E
330
A331
100
AcDbDictionary
281
     1
  3
ACAD_LAYOUTSELFREF
350
A54D
  0
XRECORD
  5
A5A4
102
{ACAD_REACTORS
330
A323
102
}
330
A323
100
AcDbXrecord
280
     1
300
ACDLT
300
2014
300
ACDLT_F_S
  0
DICTIONARY
  5
A586
102
{ACAD_REACTORS
330
A323
102
}
330
A323
100
AcDbDictionary
281
     1
  0
DICTIONARY
  5
A59F
102
{ACAD_REACTORS
330
A323
102
}
330
A323
100
AcDbDictionary
281
     1
  3
Imperial24
350
A5A0
  0
DICTIONARY
  5
A324
102
{ACAD_REACTORS
330
A323
102
}
330
A323
100
AcDbDictionary
281
     1
  0
DICTIONARY
  5
A330
102
{ACAD_REACTORS
330
A323
102
}
330
A323
100
AcDbDictionary
281
     1
  3
Model
350
A5A1
  3
レイアウト1
350
A5A2
  0
DICTIONARY
  5
A554
102
{ACAD_REACTORS
330
A323
102
}
330
A323
100
AcDbDictionary
281
     1
  3
ByBlock
350
A55D
  3
ByLayer
350
A555
  3
Global
350
A565
  0
DICTIONARY
  5
A59B
102
{ACAD_REACTORS
330
A323
102
}
330
A323
100
AcDbDictionary
281
     1
  3
Standard
350
A59C
  0
DICTIONARY
  5
A32D
102
{ACAD_REACTORS
330
A323
102
}
330
A323
100
AcDbDictionary
281
     1
  3
STANDARD
350
A32E
  0
DICTIONARY
  5
A32F
102
{ACAD_REACTORS
330
A323
102
}
330
A323
100
AcDbDictionary
281
     1
  0
ACDBDICTIONARYWDFLT
  5
A552
102
{ACAD_REACTORS
330
A323
102
}
330
A323
100
AcDbDictionary
281
     1
  3
Normal
350
A553
100
AcDbDictionaryWithDefault
340
A553
  0
DICTIONARY
  5
A589
102
{ACAD_REACTORS
330
A323
102
}
330
A323
100
AcDbDictionary
281
     1
  3
A0
350
A58A
  3
A1
350
A58B
  3
A2
350
A58C
  3
A3
350
A58D
  3
A4
350
A58E
  3
A5
350
A58F
  3
A6
350
A590
  3
A7
350
A591
  3
A8
350
A592
  3
A9
350
A593
  3
B0
350
A594
  3
B1
350
A595
  3
B2
350
A596
  3
B3
350
A597
  3
B4
350
A598
  3
B5
350
A599
  3
B6
350
A59A
  0
DICTIONARY
  5
A59D
102
{ACAD_REACTORS
330
A323
102
}
330
A323
100
AcDbDictionary
281
     1
  3
Imperial24
350
A59E
  0
DICTIONARY
  5
A587
102
{ACAD_REACTORS
330
A323
102
}
330
A323
100
AcDbDictionary
281
     1
  3
Standard
350
A588
  0
DICTIONARY
  5
A56D
102
{ACAD_REACTORS
330
A323
102
}
330
A323
100
AcDbDictionary
281
     1
  3
2dWireframe
350
A573
  3
Basic
350
A572
  3
Brighten
350
A579
  3
ColorChange
350
A57D
  3
Conceptual
350
A576
  3
Dim
350
A578
  3
EdgeColorOff
350
A585
  3
Facepattern
350
A57C
  3
Flat
350
A56E
  3
FlatWithEdges
350
A56F
  3
Gouraud
350
A570
  3
GouraudWithEdges
350
A571
  3
Hidden
350
A575
  3
JitterOff
350
A583
  3
Linepattern
350
A57B
  3
OverhangOff
350
A584
  3
Realistic
350
A577
  3
Shaded
350
A582
  3
Shaded with edges
350
A581
  3
Shades of Gray
350
A57E
  3
Sketchy
350
A57F
  3
Thicken
350
A57A
  3
Wireframe
350
A574
  3
X-Ray
350
A580
  0
XRECORD
  5
A5C2
102
{ACAD_REACTORS
330
A323
102
}
330
A323
100
AcDbXrecord
280
     1
 90
        1
330
A588
  0
DICTIONARY
  5
A5B5
102
{ACAD_REACTORS
330
A323
102
}
330
A323
100
AcDbDictionary
281
     1
  3
CANNOSCALE
350
A5BA
  3
CMLEADERSTYLE
350
A5B7
  3
CTABLESTYLE
350
A5B6
  3
CVIEWDETAILSTYLE
350
A5B8
  3
CVIEWSECTIONSTYLE
350
A5B9
  3
DIMASSOC
350
A5BD
  3
INDEXCTL
350
A5BC
  3
SORTENTS
350
A5BB
  3
XCLIPFRAME
350
A5BE
  0
XRECORD
  5
A5C3
102
{ACAD_REACTORS
330
A323
102
}
330
A323
100
AcDbXrecord
280
     1
  1
DWGPROPS COOKIE
  2

  3

  4

  6

  7

  8
Yoshitsune
  9

300
=
301
=
302
=
303
=
304
=
305
=
306
=
307
=
308
=
309
=
 40
0.1503562731481481
 41
2451302.682320833
 42
2457192.690327593
  1

 90
        0
  0
XRECORD
  5
A5A6
102
{ACAD_REACTORS
330
A5A5
102
}
330
A5A5
100
AcDbXrecord
280
     1
290
     1
  0
XRECORD
  5
A5A8
102
{ACAD_REACTORS
330
A5A7
102
}
330
A5A7
100
AcDbXrecord
280
     1
290
     1
  0
XRECORD
  5
A5AA
102
{ACAD_REACTORS
330
A5A9
102
}
330
A5A9
100
AcDbXrecord
280
     1
290
     1
  0
XRECORD
  5
A5AC
102
{ACAD_REACTORS
330
A5AB
102
}
330
A5AB
100
AcDbXrecord
280
     1
290
     1
  0
XRECORD
  5
A5AE
102
{ACAD_REACTORS
330
A5AD
102
}
330
A5AD
100
AcDbXrecord
280
     1
290
     1
  0
XRECORD
  5
A5B0
102
{ACAD_REACTORS
330
A5AF
102
}
330
A5AF
100
AcDbXrecord
280
     1
290
     1
  0
XRECORD
  5
A5B2
102
{ACAD_REACTORS
330
A5B1
102
}
330
A5B1
100
AcDbXrecord
280
     1
290
     1
  0
XRECORD
  5
A5B4
102
{ACAD_REACTORS
330
A5B3
102
}
330
A5B3
100
AcDbXrecord
280
     1
290
     1
  0
XRECORD
  5
A54E
102
{ACAD_REACTORS
330
A530
102
}
330
A530
100
AcDbXrecord
280
     1
340
A335
  0
XRECORD
  5
A54D
102
{ACAD_REACTORS
330
A52E
102
}
330
A52E
100
AcDbXrecord
280
     1
340
A331
  0
ACDBDETAILVIEWSTYLE
  5
A5A0
102
{ACAD_XDICTIONARY
360
A5FB
102
}
102
{ACAD_REACTORS
330
A59F
102
}
330
A59F
100
AcDbModelDocViewStyle
 70
     0
  3
Imperial24
290
     0
100
AcDbDetailViewStyle
 70
     0
 71
     0
 90
        3
 71
     1
340
A328
 40
0.24
340
0
 40
0.24
300

 40
0.36
280
     3
 71
     2
340
A32C
 90
       25
 71
     3
340
A328
 40
0.24
 90
        1
 40
0.75
 90
        1
300
%<\AcVar ViewType \f "%tc1">% %<\AcVar ViewDetailId>%\PSCALE %<\AcVar ViewScale \f "%sn">%
 71
     4
340
A32C
 90
       25
340
A32C
 90
       25
280
     0
  0
LAYOUT
  5
A5A1
102
{ACAD_XDICTIONARY
360
A5FD
102
}
102
{ACAD_REACTORS
330
A330
102
}
330
A330
100
AcDbPlotSettings
  1

  2
Canon LBP9100C
  4

  6

 40
0.0
 41
0.0
 42
0.0
 43
0.0
 44
0.0
 45
0.0
 46
0.0
 47
0.0
 48
0.0
 49
0.0
140
0.0
141
0.0
142
1.0
143
1.0
 70
  1712
 72
     0
 73
     0
 74
     0
  7

 75
     0
147
1.0
148
0.0
149
0.0
100
AcDbLayout
  1
Model
 70
     1
 71
     0
 10
0.0
 20
0.0
 11
12.0
 21
9.0
 12
0.0
 22
0.0
 32
0.0
 14
0.0
 24
0.0
 34
0.0
 15
0.0
 25
0.0
 35
0.0
146
0.0
 13
0.0
 23
0.0
 33
0.0
 16
1.0
 26
0.0
 36
0.0
 17
0.0
 27
1.0
 37
0.0
 76
     0
330
A335
331
A54C
  0
LAYOUT
  5
A5A2
102
{ACAD_XDICTIONARY
360
A5FF
102
}
102
{ACAD_REACTORS
330
A330
102
}
330
A330
100
AcDbPlotSettings
  1

  2
Canon LBP9100C
  4

  6

 40
0.0
 41
0.0
 42
0.0
 43
0.0
 44
0.0
 45
0.0
 46
0.0
 47
0.0
 48
0.0
 49
0.0
140
0.0
141
0.0
142
1.0
143
1.0
 70
   688
 72
     0
 73
     0
 74
     5
  7

 75
    16
147
1.0
148
0.0
149
0.0
100
AcDbLayout
  1
レイアウト1
 70
     0
 71
     1
 10
0.0
 20
0.0
 11
420.0
 21
297.0
 12
0.0
 22
0.0
 32
0.0
 14
1.000000000000000E+20
 24
1.000000000000000E+20
 34
1.000000000000000E+20
 15
-1.000000000000000E+20
 25
-1.000000000000000E+20
 35
-1.000000000000000E+20
146
0.0
 13
0.0
 23
0.0
 33
0.0
 16
1.0
 26
0.0
 36
0.0
 17
0.0
 27
1.0
 37
0.0
 76
     0
330
A331
  0
MATERIAL
  5
A55D
102
{ACAD_XDICTIONARY
360
A55E
102
}
102
{ACAD_REACTORS
330
A554
102
}
330
A554
100
AcDbMaterial
  1
ByBlock
 72
     0
 43
0.0208333333333333
 43
0.0
 43
0.0
 43
0.0
 43
0.0
 43
0.0208333333333333
 43
0.0
 43
0.0
 43
0.0
 43
0.0
 43
1.0
 43
0.0
 43
0.0
 43
0.0
 43
0.0
 43
1.0
 77
     0
 47
0.0208333333333333
 47
0.0
 47
0.0
 47
0.0
 47
0.0
 47
0.0208333333333333
 47
0.0
 47
0.0
 47
0.0
 47
0.0
 47
1.0
 47
0.0
 47
0.0
 47
0.0
 47
0.0
 47
1.0
171
     0
 49
0.0208333333333333
 49
0.0
 49
0.0
 49
0.0
 49
0.0
 49
0.0208333333333333
 49
0.0
 49
0.0
 49
0.0
 49
0.0
 49
1.0
 49
0.0
 49
0.0
 49
0.0
 49
0.0
 49
1.0
175
     0
142
0.0208333333333333
142
0.0
142
0.0
142
0.0
142
0.0
142
0.0208333333333333
142
0.0
142
0.0
142
0.0
142
0.0
142
1.0
142
0.0
142
0.0
142
0.0
142
0.0
142
1.0
179
     0
144
0.0208333333333333
144
0.0
144
0.0
144
0.0
144
0.0
144
0.0208333333333333
144
0.0
144
0.0
144
0.0
144
0.0
144
1.0
144
0.0
144
0.0
144
0.0
144
0.0
144
1.0
147
0.0208333333333333
147
0.0
147
0.0
147
0.0
147
0.0
147
0.0208333333333333
147
0.0
147
0.0
147
0.0
147
0.0
147
1.0
147
0.0
147
0.0
147
0.0
147
0.0
147
1.0
  0
MATERIAL
  5
A555
102
{ACAD_XDICTIONARY
360
A556
102
}
102
{ACAD_REACTORS
330
A554
102
}
330
A554
100
AcDbMaterial
  1
ByLayer
 72
     0
 43
0.0208333333333333
 43
0.0
 43
0.0
 43
0.0
 43
0.0
 43
0.0208333333333333
 43
0.0
 43
0.0
 43
0.0
 43
0.0
 43
1.0
 43
0.0
 43
0.0
 43
0.0
 43
0.0
 43
1.0
 77
     0
 47
0.0208333333333333
 47
0.0
 47
0.0
 47
0.0
 47
0.0
 47
0.0208333333333333
 47
0.0
 47
0.0
 47
0.0
 47
0.0
 47
1.0
 47
0.0
 47
0.0
 47
0.0
 47
0.0
 47
1.0
171
     0
 49
0.0208333333333333
 49
0.0
 49
0.0
 49
0.0
 49
0.0
 49
0.0208333333333333
 49
0.0
 49
0.0
 49
0.0
 49
0.0
 49
1.0
 49
0.0
 49
0.0
 49
0.0
 49
0.0
 49
1.0
175
     0
142
0.0208333333333333
142
0.0
142
0.0
142
0.0
142
0.0
142
0.0208333333333333
142
0.0
142
0.0
142
0.0
142
0.0
142
1.0
142
0.0
142
0.0
142
0.0
142
0.0
142
1.0
179
     0
144
0.0208333333333333
144
0.0
144
0.0
144
0.0
144
0.0
144
0.0208333333333333
144
0.0
144
0.0
144
0.0
144
0.0
144
1.0
144
0.0
144
0.0
144
0.0
144
0.0
144
1.0
147
0.0208333333333333
147
0.0
147
0.0
147
0.0
147
0.0
147
0.0208333333333333
147
0.0
147
0.0
147
0.0
147
0.0
147
1.0
147
0.0
147
0.0
147
0.0
147
0.0
147
1.0
  0
MATERIAL
  5
A565
102
{ACAD_XDICTIONARY
360
A566
102
}
102
{ACAD_REACTORS
330
A554
102
}
330
A554
100
AcDbMaterial
  1
Global
 72
     0
 43
0.0208333333333333
 43
0.0
 43
0.0
 43
0.0
 43
0.0
 43
0.0208333333333333
 43
0.0
 43
0.0
 43
0.0
 43
0.0
 43
1.0
 43
0.0
 43
0.0
 43
0.0
 43
0.0
 43
1.0
 77
     0
 47
0.0208333333333333
 47
0.0
 47
0.0
 47
0.0
 47
0.0
 47
0.0208333333333333
 47
0.0
 47
0.0
 47
0.0
 47
0.0
 47
1.0
 47
0.0
 47
0.0
 47
0.0
 47
0.0
 47
1.0
171
     0
 49
0.0208333333333333
 49
0.0
 49
0.0
 49
0.0
 49
0.0
 49
0.0208333333333333
 49
0.0
 49
0.0
 49
0.0
 49
0.0
 49
1.0
 49
0.0
 49
0.0
 49
0.0
 49
0.0
 49
1.0
175
     0
142
0.0208333333333333
142
0.0
142
0.0
142
0.0
142
0.0
142
0.0208333333333333
142
0.0
142
0.0
142
0.0
142
0.0
142
1.0
142
0.0
142
0.0
142
0.0
142
0.0
142
1.0
179
     0
144
0.0208333333333333
144
0.0
144
0.0
144
0.0
144
0.0
144
0.0208333333333333
144
0.0
144
0.0
144
0.0
144
0.0
144
1.0
144
0.0
144
0.0
144
0.0
144
0.0
144
1.0
147
0.0208333333333333
147
0.0
147
0.0
147
0.0
147
0.0
147
0.0208333333333333
147
0.0
147
0.0
147
0.0
147
0.0
147
1.0
147
0.0
147
0.0
147
0.0
147
0.0
147
1.0
  0
MLEADERSTYLE
  5
A59C
102
{ACAD_REACTORS
330
A59B
102
}
330
A59B
100
AcDbMLeaderStyle
170
     2
171
     1
172
     0
 90
        2
 40
0.0
 41
0.0
173
     1
 91
-1056964608
340
A32A
 92
       -2
290
     1
 42
0.09
291
     1
 43
0.36
  3
Standard
 44
0.18
300

342
A328
174
     1
178
     6
175
     1
176
     0
 93
-1056964608
 45
0.18
292
     0
297
     0
 46
0.18
 94
-1056964608
 47
1.0
 49
1.0
140
1.0
293
     1
141
0.0
294
     1
177
     0
142
1.0
295
     0
296
     0
143
0.125
1001
ACAD_MLEADERVER
1070
     2
  0
MLINESTYLE
  5
A32E
102
{ACAD_REACTORS
330
A32D
102
}
330
A32D
100
AcDbMlineStyle
  2
STANDARD
 70
     0
  3

 62
   256
 51
90.0
 52
90.0
 71
     2
 49
0.5
 62
   256
  6
BYLAYER
 49
-0.5
 62
   256
  6
BYLAYER
  0
ACDBPLACEHOLDER
  5
A553
102
{ACAD_REACTORS
330
A552
102
}
330
A552
  0
SCALE
  5
A58A
102
{ACAD_REACTORS
330
A589
102
}
330
A589
100
AcDbScale
 70
     0
300
1:1
140
1.0
141
1.0
290
     1
  0
SCALE
  5
A58B
102
{ACAD_REACTORS
330
A589
102
}
330
A589
100
AcDbScale
 70
     0
300
1/128" = 1'-0"
140
0.0078125
141
12.0
290
     0
  0
SCALE
  5
A58C
102
{ACAD_REACTORS
330
A589
102
}
330
A589
100
AcDbScale
 70
     0
300
1/64" = 1'-0"
140
0.015625
141
12.0
290
     0
  0
SCALE
  5
A58D
102
{ACAD_REACTORS
330
A589
102
}
330
A589
100
AcDbScale
 70
     0
300
1/32" = 1'-0"
140
0.03125
141
12.0
290
     0
  0
SCALE
  5
A58E
102
{ACAD_REACTORS
330
A589
102
}
330
A589
100
AcDbScale
 70
     0
300
1/16" = 1'-0"
140
0.0625
141
12.0
290
     0
  0
SCALE
  5
A58F
102
{ACAD_REACTORS
330
A589
102
}
330
A589
100
AcDbScale
 70
     0
300
3/32" = 1'-0"
140
0.09375
141
12.0
290
     0
  0
SCALE
  5
A590
102
{ACAD_REACTORS
330
A589
102
}
330
A589
100
AcDbScale
 70
     0
300
1/8" = 1'-0"
140
0.125
141
12.0
290
     0
  0
SCALE
  5
A591
102
{ACAD_REACTORS
330
A589
102
}
330
A589
100
AcDbScale
 70
     0
300
3/16" = 1'-0"
140
0.1875
141
12.0
290
     0
  0
SCALE
  5
A592
102
{ACAD_REACTORS
330
A589
102
}
330
A589
100
AcDbScale
 70
     0
300
1/4" = 1'-0"
140
0.25
141
12.0
290
     0
  0
SCALE
  5
A593
102
{ACAD_REACTORS
330
A589
102
}
330
A589
100
AcDbScale
 70
     0
300
3/8" = 1'-0"
140
0.375
141
12.0
290
     0
  0
SCALE
  5
A594
102
{ACAD_REACTORS
330
A589
102
}
330
A589
100
AcDbScale
 70
     0
300
1/2" = 1'-0"
140
0.5
141
12.0
290
     0
  0
SCALE
  5
A595
102
{ACAD_REACTORS
330
A589
102
}
330
A589
100
AcDbScale
 70
     0
300
3/4" = 1'-0"
140
0.75
141
12.0
290
     0
  0
SCALE
  5
A596
102
{ACAD_REACTORS
330
A589
102
}
330
A589
100
AcDbScale
 70
     0
300
1" = 1'-0"
140
1.0
141
12.0
290
     0
  0
SCALE
  5
A597
102
{ACAD_REACTORS
330
A589
102
}
330
A589
100
AcDbScale
 70
     0
300
1-1/2" = 1'-0"
140
1.5
141
12.0
290
     0
  0
SCALE
  5
A598
102
{ACAD_REACTORS
330
A589
102
}
330
A589
100
AcDbScale
 70
     0
300
3" = 1'-0"
140
3.0
141
12.0
290
     0
  0
SCALE
  5
A599
102
{ACAD_REACTORS
330
A589
102
}
330
A589
100
AcDbScale
 70
     0
300
6" = 1'-0"
140
6.0
141
12.0
290
     0
  0
SCALE
  5
A59A
102
{ACAD_REACTORS
330
A589
102
}
330
A589
100
AcDbScale
 70
     0
300
1'-0" = 1'-0"
140
12.0
141
12.0
290
     0
  0
ACDBSECTIONVIEWSTYLE
  5
A59E
102
{ACAD_XDICTIONARY
360
A5F9
102
}
102
{ACAD_REACTORS
330
A59D
102
}
330
A59D
100
AcDbModelDocViewStyle
 70
     0
  3
Imperial24
290
     0
100
AcDbSectionViewStyle
 70
     0
 71
     0
 90
       78
 71
     1
340
A328
 40
0.24
340
0
340
0
 40
0.24
300
I, O, Q, S, X, Z
 40
0.48
 90
        3
 40
0.18
 90
        1
 71
     2
340
A32C
 90
       25
340
A32C
 90
       50
 40
0.24
 40
0.0
 40
0.24
 71
     3
340
A328
 40
0.24
 90
        1
 40
0.75
 90
        1
300
%<\AcVar ViewType \f "%tc1">% %<\AcVar ViewSectionStartId>%-%<\AcVar ViewSectionEndId>%\PSCALE %<\AcVar ViewScale \f "%sn">%
 71
     4
300
ANSI31
 40
1.0
 90
        0
290
     0
290
     0
 90
        6
 40
0.0
 40
1.570796326794896
 40
0.2617993877991494
 40
1.308996938995747
 40
-0.2617993877991494
 40
1.832595714594046
  0
TABLESTYLE
  5
A588
102
{ACAD_XDICTIONARY
360
A5C0
102
}
102
{ACAD_REACTORS
330
A587
102
}
330
A587
100
AcDbTableStyle
  3
Standard
 70
     0
 71
     0
 40
0.06
 41
0.06
280
     0
281
     0
  7
STANDARD
140
0.18
170
     2
 62
     0
 63
     7
283
     0
274
    -2
284
     1
 64
     0
275
    -2
285
     1
 65
     0
276
    -2
286
     1
 66
     0
277
    -2
287
     1
 67
     0
278
    -2
288
     1
 68
     0
279
    -2
289
     1
 69
     0
  7
STANDARD
140
0.25
170
     5
 62
     0
 63
     7
283
     0
274
    -2
284
     1
 64
     0
275
    -2
285
     1
 65
     0
276
    -2
286
     1
 66
     0
277
    -2
287
     1
 67
     0
278
    -2
288
     1
 68
     0
279
    -2
289
     1
 69
     0
  7
STANDARD
140
0.18
170
     5
 62
     0
 63
     7
283
     0
274
    -2
284
     1
 64
     0
275
    -2
285
     1
 65
     0
276
    -2
286
     1
 66
     0
277
    -2
287
     1
 67
     0
278
    -2
288
     1
 68
     0
279
    -2
289
     1
 69
     0
  0
VISUALSTYLE
  5
A573
102
{ACAD_XDICTIONARY
360
A5D1
102
}
102
{ACAD_REACTORS
330
A56D
102
}
330
A56D
100
AcDbVisualStyle
  2
2dWireframe
 70
     4
 71
     0
 72
     2
 73
     0
 90
        0
 40
-0.6
 41
-30.0
 62
     5
 63
     7
 74
     1
 91
        4
 64
     7
 65
   257
 75
     1
175
     1
 42
1.0
 92
        0
 66
   257
 43
1.0
 76
     1
 77
     6
 78
     2
 67
     7
 79
     5
170
     0
171
     0
290
     0
174
     0
 93
        1
 44
0.0
173
     0
291
     0
 45
0.0
1001
ACAD
1000
AcDbSavedByObjectVersion
1070
     0
  0
VISUALSTYLE
  5
A572
102
{ACAD_XDICTIONARY
360
A5CF
102
}
102
{ACAD_REACTORS
330
A56D
102
}
330
A56D
100
AcDbVisualStyle
  2
Basic
 70
     7
 71
     1
 72
     0
 73
     1
 90
        0
 40
-0.6
 41
-30.0
 62
     5
 63
     7
 74
     0
 91
        4
 64
     7
 65
   257
 75
     1
175
     1
 42
1.0
 92
        8
 66
     7
 43
1.0
 76
     1
 77
     6
 78
     2
 67
     7
 79
     5
170
     0
171
     0
290
     0
174
     0
 93
        1
 44
0.0
173
     0
291
     1
 45
0.0
1001
ACAD
1000
AcDbSavedByObjectVersion
1070
     0
  0
VISUALSTYLE
  5
A579
102
{ACAD_XDICTIONARY
360
A5DD
102
}
102
{ACAD_REACTORS
330
A56D
102
}
330
A56D
100
AcDbVisualStyle
  2
Brighten
 70
    12
 71
     2
 72
     2
 73
     0
 90
        0
 40
-0.6
 41
-30.0
 62
     5
 63
     7
 74
     1
 91
        4
 64
     7
 65
   257
 75
     1
175
     1
 42
1.0
 92
        8
 66
     7
 43
1.0
 76
     1
 77
     6
 78
     2
 67
     7
 79
     5
170
     0
171
     0
290
     0
174
     0
 93
        1
 44
50.0
173
     0
291
     1
 45
0.0
1001
ACAD
1000
AcDbSavedByObjectVersion
1070
     0
  0
VISUALSTYLE
  5
A57D
102
{ACAD_XDICTIONARY
360
A5E5
102
}
102
{ACAD_REACTORS
330
A56D
102
}
330
A56D
100
AcDbVisualStyle
  2
ColorChange
 70
    16
 71
     2
 72
     2
 73
     3
 90
        0
 40
-0.6
 41
-30.0
 62
     5
 63
     8
 74
     1
 91
        4
 64
     7
 65
   257
 75
     1
175
     1
 42
1.0
 92
        8
 66
     8
 43
1.0
 76
     1
 77
     6
 78
     2
 67
     7
 79
     5
170
     0
171
     0
290
     0
174
     0
 93
        1
 44
0.0
173
     0
291
     1
 45
0.0
1001
ACAD
1000
AcDbSavedByObjectVersion
1070
     0
  0
VISUALSTYLE
  5
A576
102
{ACAD_XDICTIONARY
360
A5D7
102
}
102
{ACAD_REACTORS
330
A56D
102
}
330
A56D
100
AcDbVisualStyle
  2
Conceptual
 70
     9
 71
     3
 72
     2
 73
     0
 90
        0
 40
-0.6
 41
-30.0
 62
     5
 63
     7
 74
     2
 91
        2
 64
     7
 65
   257
 75
     1
175
     1
 42
179.0
 92
        8
 66
     7
 43
1.0
 76
     1
 77
     6
 78
     2
 67
     7
 79
     3
170
     0
171
     0
290
     0
174
     0
 93
        1
 44
0.0
173
     0
291
     0
 45
0.0
1001
ACAD
1000
AcDbSavedByObjectVersion
1070
     0
  0
VISUALSTYLE
  5
A578
102
{ACAD_XDICTIONARY
360
A5DB
102
}
102
{ACAD_REACTORS
330
A56D
102
}
330
A56D
100
AcDbVisualStyle
  2
Dim
 70
    11
 71
     2
 72
     2
 73
     0
 90
        0
 40
-0.6
 41
-30.0
 62
     5
 63
     7
 74
     1
 91
        4
 64
     7
 65
   257
 75
     1
175
     1
 42
1.0
 92
        8
 66
     7
 43
1.0
 76
     1
 77
     6
 78
     2
 67
     7
 79
     5
170
     0
171
     0
290
     0
174
     0
 93
        1
 44
-50.0
173
     0
291
     1
 45
0.0
1001
ACAD
1000
AcDbSavedByObjectVersion
1070
     0
  0
VISUALSTYLE
  5
A585
102
{ACAD_XDICTIONARY
360
A5F5
102
}
102
{ACAD_REACTORS
330
A56D
102
}
330
A56D
100
AcDbVisualStyle
  2
EdgeColorOff
 70
    22
 71
     2
 72
     2
 73
     0
 90
        0
 40
-0.6
 41
-30.0
 62
     5
 63
     7
 74
     1
 91
        4
 64
     7
 65
   257
 75
     1
175
     1
 42
1.0
 92
        8
 66
     7
 43
1.0
 76
     1
 77
     6
 78
     2
 67
     7
 79
     5
170
     0
171
     0
290
     0
174
     0
 93
        1
 44
0.0
173
     0
291
     1
 45
0.0
1001
ACAD
1000
AcDbSavedByObjectVersion
1070
     0
  0
VISUALSTYLE
  5
A57C
102
{ACAD_XDICTIONARY
360
A5E3
102
}
102
{ACAD_REACTORS
330
A56D
102
}
330
A56D
100
AcDbVisualStyle
  2
Facepattern
 70
    15
 71
     2
 72
     2
 73
     0
 90
        0
 40
-0.6
 41
-30.0
 62
     5
 63
     7
 74
     1
 91
        4
 64
     7
 65
   257
 75
     1
175
     1
 42
1.0
 92
        8
 66
     7
 43
1.0
 76
     1
 77
     6
 78
     2
 67
     7
 79
     5
170
     0
171
     0
290
     0
174
     0
 93
        1
 44
0.0
173
     0
291
     1
 45
0.0
1001
ACAD
1000
AcDbSavedByObjectVersion
1070
     0
  0
VISUALSTYLE
  5
A56E
102
{ACAD_XDICTIONARY
360
A5C7
102
}
102
{ACAD_REACTORS
330
A56D
102
}
330
A56D
100
AcDbVisualStyle
  2
Flat
 70
     0
 71
     2
 72
     1
 73
     1
 90
        2
 40
-0.6
 41
30.0
 62
     5
 63
     7
 74
     0
 91
        0
 64
     7
 65
   257
 75
     1
175
     1
 42
1.0
 92
        8
 66
     7
 43
1.0
 76
     1
 77
     6
 78
     2
 67
     7
 79
     5
170
     0
171
     0
290
     0
174
     0
 93
       13
 44
0.0
173
     0
291
     1
 45
0.0
1001
ACAD
1000
AcDbSavedByObjectVersion
1070
     0
  0
VISUALSTYLE
  5
A56F
102
{ACAD_XDICTIONARY
360
A5C9
102
}
102
{ACAD_REACTORS
330
A56D
102
}
330
A56D
100
AcDbVisualStyle
  2
FlatWithEdges
 70
     1
 71
     2
 72
     1
 73
     1
 90
        2
 40
-0.6
 41
30.0
 62
     5
 63
     7
 74
     1
 91
        0
 64
     7
 65
   257
 75
     1
175
     1
 42
1.0
 92
        0
 66
   257
 43
1.0
 76
     1
 77
     6
 78
     2
 67
     7
 79
     5
170
     0
171
     0
290
     0
174
     0
 93
       13
 44
0.0
173
     0
291
     1
 45
0.0
1001
ACAD
1000
AcDbSavedByObjectVersion
1070
     0
  0
VISUALSTYLE
  5
A570
102
{ACAD_XDICTIONARY
360
A5CB
102
}
102
{ACAD_REACTORS
330
A56D
102
}
330
A56D
100
AcDbVisualStyle
  2
Gouraud
 70
     2
 71
     2
 72
     2
 73
     1
 90
        2
 40
-0.6
 41
30.0
 62
     5
 63
     7
 74
     0
 91
        0
 64
     7
 65
   257
 75
     1
175
     1
 42
1.0
 92
        0
 66
     7
 43
1.0
 76
     1
 77
     6
 78
     2
 67
     7
 79
     5
170
     0
171
     0
290
     0
174
     0
 93
       13
 44
0.0
173
     0
291
     1
 45
0.0
1001
ACAD
1000
AcDbSavedByObjectVersion
1070
     0
  0
VISUALSTYLE
  5
A571
102
{ACAD_XDICTIONARY
360
A5CD
102
}
102
{ACAD_REACTORS
330
A56D
102
}
330
A56D
100
AcDbVisualStyle
  2
GouraudWithEdges
 70
     3
 71
     2
 72
     2
 73
     1
 90
        2
 40
-0.6
 41
30.0
 62
     5
 63
     7
 74
     1
 91
        0
 64
     7
 65
   257
 75
     1
175
     1
 42
1.0
 92
        0
 66
   257
 43
1.0
 76
     1
 77
     6
 78
     2
 67
     7
 79
     5
170
     0
171
     0
290
     0
174
     0
 93
       13
 44
0.0
173
     0
291
     1
 45
0.0
1001
ACAD
1000
AcDbSavedByObjectVersion
1070
     0
  0
VISUALSTYLE
  5
A575
102
{ACAD_XDICTIONARY
360
A5D5
102
}
102
{ACAD_REACTORS
330
A56D
102
}
330
A56D
100
AcDbVisualStyle
  2
Hidden
 70
     6
 71
     1
 72
     2
 73
     2
 90
        0
 40
-0.6
 41
-30.0
 62
     5
 63
     7
 74
     2
 91
        2
 64
     7
 65
   257
 75
     2
175
     1
 42
40.0
 92
        0
 66
   257
 43
1.0
 76
     1
 77
     6
 78
     2
 67
     7
 79
     3
170
     0
171
     0
290
     0
174
     0
 93
        1
 44
0.0
173
     0
291
     0
 45
0.0
1001
ACAD
1000
AcDbSavedByObjectVersion
1070
     0
  0
VISUALSTYLE
  5
A583
102
{ACAD_XDICTIONARY
360
A5F1
102
}
102
{ACAD_REACTORS
330
A56D
102
}
330
A56D
100
AcDbVisualStyle
  2
JitterOff
 70
    20
 71
     2
 72
     2
 73
     0
 90
        0
 40
-0.6
 41
-30.0
 62
     5
 63
     7
 74
     1
 91
        4
 64
     7
 65
   257
 75
     1
175
     1
 42
1.0
 92
       10
 66
     7
 43
1.0
 76
     1
 77
     6
 78
     2
 67
     7
 79
     5
170
     0
171
     0
290
     0
174
     0
 93
        1
 44
0.0
173
     0
291
     1
 45
0.0
1001
ACAD
1000
AcDbSavedByObjectVersion
1070
     0
  0
VISUALSTYLE
  5
A57B
102
{ACAD_XDICTIONARY
360
A5E1
102
}
102
{ACAD_REACTORS
330
A56D
102
}
330
A56D
100
AcDbVisualStyle
  2
Linepattern
 70
    14
 71
     2
 72
     2
 73
     0
 90
        0
 40
-0.6
 41
-30.0
 62
     5
 63
     7
 74
     1
 91
        4
 64
     7
 65
   257
 75
     7
175
     7
 42
1.0
 92
        8
 66
     7
 43
1.0
 76
     1
 77
     6
 78
     2
 67
     7
 79
     5
170
     0
171
     0
290
     0
174
     0
 93
        1
 44
0.0
173
     0
291
     1
 45
0.0
1001
ACAD
1000
AcDbSavedByObjectVersion
1070
     0
  0
VISUALSTYLE
  5
A584
102
{ACAD_XDICTIONARY
360
A5F3
102
}
102
{ACAD_REACTORS
330
A56D
102
}
330
A56D
100
AcDbVisualStyle
  2
OverhangOff
 70
    21
 71
     2
 72
     2
 73
     0
 90
        0
 40
-0.6
 41
-30.0
 62
     5
 63
     7
 74
     1
 91
        4
 64
     7
 65
   257
 75
     1
175
     1
 42
1.0
 92
        9
 66
     7
 43
1.0
 76
     1
 77
     6
 78
     2
 67
     7
 79
     5
170
     0
171
     0
290
     0
174
     0
 93
        1
 44
0.0
173
     0
291
     1
 45
0.0
1001
ACAD
1000
AcDbSavedByObjectVersion
1070
     0
  0
VISUALSTYLE
  5
A577
102
{ACAD_XDICTIONARY
360
A5D9
102
}
102
{ACAD_REACTORS
330
A56D
102
}
330
A56D
100
AcDbVisualStyle
  2
Realistic
 70
     8
 71
     2
 72
     3
 73
     0
 90
        2
 40
-0.6
 41
30.0
 62
     5
 63
     7
 74
     0
 91
        0
 64
     7
 65
   257
 75
     1
175
     1
 42
1.0
 92
        8
 66
   257
 43
1.0
 76
     1
 77
     6
 78
     2
 67
     7
 79
     3
170
     0
171
     0
290
     0
174
     0
 93
       13
 44
0.0
173
     0
291
     0
 45
0.0
1001
ACAD
1000
AcDbSavedByObjectVersion
1070
     0
  0
VISUALSTYLE
  5
A582
102
{ACAD_XDICTIONARY
360
A5EF
102
}
102
{ACAD_REACTORS
330
A56D
102
}
330
A56D
100
AcDbVisualStyle
  2
Shaded
 70
    27
 71
     2
 72
     2
 73
     1
 90
        2
 40
-0.6
 41
30.0
 62
     5
 63
     7
 74
     0
 91
        4
 64
     7
 65
   257
 75
     1
175
     1
 42
1.0
 92
        8
 66
   257
 43
1.0
 76
     1
 77
     6
 78
     2
 67
     8
 79
     3
170
     0
171
     0
290
     0
174
     0
 93
        5
 44
0.0
173
     0
291
     0
 45
0.0
1001
ACAD
1000
AcDbSavedByObjectVersion
1070
     0
  0
VISUALSTYLE
  5
A581
102
{ACAD_XDICTIONARY
360
A5ED
102
}
102
{ACAD_REACTORS
330
A56D
102
}
330
A56D
100
AcDbVisualStyle
  2
Shaded with edges
 70
    26
 71
     2
 72
     2
 73
     1
 90
        2
 40
-0.6
 41
30.0
 62
     5
 63
     7
 74
     1
 91
       10
 64
     7
 65
   257
 75
     2
175
     1
 42
1.0
 92
        8
 66
   257
 43
1.0
 76
     1
 77
     6
 78
     2
 67
     7
 79
     3
170
     0
171
     0
290
     0
174
     0
 93
        5
 44
0.0
173
     0
291
     0
 45
0.0
1001
ACAD
1000
AcDbSavedByObjectVersion
1070
     0
  0
VISUALSTYLE
  5
A57E
102
{ACAD_XDICTIONARY
360
A5E7
102
}
102
{ACAD_REACTORS
330
A56D
102
}
330
A56D
100
AcDbVisualStyle
  2
Shades of Gray
 70
    23
 71
     2
 72
     2
 73
     3
 90
        0
 40
-0.6
 41
-30.0
 62
     5
 63
     7
 74
     2
 91
        2
 64
     7
 65
     7
 75
     1
175
     1
 42
40.0
 92
        8
 66
     7
 43
1.0
 76
     1
 77
     6
 78
     2
 67
     7
 79
     3
170
     0
171
     0
290
     0
174
     0
 93
        1
 44
0.0
173
     0
291
     0
 45
0.0
1001
ACAD
1000
AcDbSavedByObjectVersion
1070
     0
  0
VISUALSTYLE
  5
A57F
102
{ACAD_XDICTIONARY
360
A5E9
102
}
102
{ACAD_REACTORS
330
A56D
102
}
330
A56D
100
AcDbVisualStyle
  2
Sketchy
 70
    24
 71
     1
 72
     2
 73
     2
 90
        0
 40
-0.6
 41
-30.0
 62
     5
 63
     7
 74
     2
 91
        2
 64
     7
 65
     7
 75
     1
175
     1
 42
40.0
 92
       11
 66
     7
 43
1.0
 76
     1
 77
     6
 78
     2
 67
     7
 79
     6
170
     0
171
     0
290
     0
174
     0
 93
        1
 44
0.0
173
     0
291
     0
 45
0.0
1001
ACAD
1000
AcDbSavedByObjectVersion
1070
     0
  0
VISUALSTYLE
  5
A57A
102
{ACAD_XDICTIONARY
360
A5DF
102
}
102
{ACAD_REACTORS
330
A56D
102
}
330
A56D
100
AcDbVisualStyle
  2
Thicken
 70
    13
 71
     2
 72
     2
 73
     0
 90
        0
 40
-0.6
 41
-30.0
 62
     5
 63
     7
 74
     1
 91
        4
 64
     7
 65
   257
 75
     1
175
     1
 42
1.0
 92
       12
 66
     7
 43
1.0
 76
     1
 77
     6
 78
     2
 67
     7
 79
     5
170
     0
171
     0
290
     0
174
     0
 93
        1
 44
0.0
173
     0
291
     1
 45
0.0
1001
ACAD
1000
AcDbSavedByObjectVersion
1070
     0
  0
VISUALSTYLE
  5
A574
102
{ACAD_XDICTIONARY
360
A5D3
102
}
102
{ACAD_REACTORS
330
A56D
102
}
330
A56D
100
AcDbVisualStyle
  2
Wireframe
 70
     5
 71
     0
 72
     2
 73
     0
 90
        0
 40
-0.6
 41
-30.0
 62
     5
 63
     7
 74
     1
 91
        4
 64
     7
 65
   257
 75
     1
175
     1
 42
1.0
 92
        0
 66
   257
 43
1.0
 76
     1
 77
     6
 78
     2
 67
     7
 79
     3
170
     0
171
     0
290
     0
174
     0
 93
        1
 44
0.0
173
     0
291
     0
 45
0.0
1001
ACAD
1000
AcDbSavedByObjectVersion
1070
     0
  0
VISUALSTYLE
  5
A580
102
{ACAD_XDICTIONARY
360
A5EB
102
}
102
{ACAD_REACTORS
330
A56D
102
}
330
A56D
100
AcDbVisualStyle
  2
X-Ray
 70
    25
 71
     2
 72
     2
 73
     1
 90
        1
 40
0.5
 41
-30.0
 62
     5
 63
     7
 74
     1
 91
        0
 64
     7
 65
   257
 75
     1
175
     1
 42
1.0
 92
        8
 66
     7
 43
1.0
 76
     1
 77
     6
 78
     2
 67
     7
 79
     3
170
     0
171
     0
290
     0
174
     0
 93
       13
 44
0.0
173
     0
291
     0
 45
0.0
1001
ACAD
1000
AcDbSavedByObjectVersion
1070
     0
  0
DICTIONARYVAR
  5
A5BA
102
{ACAD_REACTORS
330
A5B5
102
}
330
A5B5
100
DictionaryVariables
280
     0
  1
1:1
  0
DICTIONARYVAR
  5
A5B7
102
{ACAD_REACTORS
330
A5B5
102
}
330
A5B5
100
DictionaryVariables
280
     0
  1
STANDARD
  0
DICTIONARYVAR
  5
A5B6
102
{ACAD_REACTORS
330
A5B5
102
}
330
A5B5
100
DictionaryVariables
280
     0
  1
STANDARD
  0
DICTIONARYVAR
  5
A5B8
102
{ACAD_REACTORS
330
A5B5
102
}
330
A5B5
100
DictionaryVariables
280
     0
  1
Imperial24
  0
DICTIONARYVAR
  5
A5B9
102
{ACAD_REACTORS
330
A5B5
102
}
330
A5B5
100
DictionaryVariables
280
     0
  1
Imperial24
  0
DICTIONARYVAR
  5
A5BD
102
{ACAD_REACTORS
330
A5B5
102
}
330
A5B5
100
DictionaryVariables
280
     0
  1
1
  0
DICTIONARYVAR
  5
A5BC
102
{ACAD_REACTORS
330
A5B5
102
}
330
A5B5
100
DictionaryVariables
280
     0
  1
0
  0
DICTIONARYVAR
  5
A5BB
102
{ACAD_REACTORS
330
A5B5
102
}
330
A5B5
100
DictionaryVariables
280
     0
  1
127
  0
DICTIONARYVAR
  5
A5BE
102
{ACAD_REACTORS
330
A5B5
102
}
330
A5B5
100
DictionaryVariables
280
     0
  1
2
  0
DICTIONARY
  5
A5FB
330
A5A0
100
AcDbDictionary
280
     1
281
     1
  3
ACAD_XREC_ROUNDTRIP
360
A5FC
  0
DICTIONARY
  5
A5FD
330
A5A1
100
AcDbDictionary
280
     1
281
     1
  3
ACAD_XREC_ROUNDTRIP
360
A5FE
  0
DICTIONARY
  5
A5FF
330
A5A2
100
AcDbDictionary
280
     1
281
     1
  3
ACAD_XREC_ROUNDTRIP
360
A600
  0
DICTIONARY
  5
A55E
330
A55D
100
AcDbDictionary
280
     1
281
     1
  3
ACAD_XREC_ROUNDTRIP
360
A5C5
  3
BUMPTILE
360
A560
  3
DIFFUSETILE
360
A55F
  3
OPACITYTILE
360
A563
  3
REFLECTIONTILE
360
A562
  3
REFRACTIONTILE
360
A564
  3
SPECULARTILE
360
A561
  0
DICTIONARY
  5
A556
330
A555
100
AcDbDictionary
280
     1
281
     1
  3
ACAD_XREC_ROUNDTRIP
360
A5C4
  3
BUMPTILE
360
A558
  3
DIFFUSETILE
360
A557
  3
OPACITYTILE
360
A55B
  3
REFLECTIONTILE
360
A55A
  3
REFRACTIONTILE
360
A55C
  3
SPECULARTILE
360
A559
  0
DICTIONARY
  5
A566
330
A565
100
AcDbDictionary
280
     1
281
     1
  3
ACAD_XREC_ROUNDTRIP
360
A5C6
  3
BUMPTILE
360
A568
  3
DIFFUSETILE
360
A567
  3
OPACITYTILE
360
A56B
  3
REFLECTIONTILE
360
A56A
  3
REFRACTIONTILE
360
A56C
  3
SPECULARTILE
360
A569
  0
DICTIONARY
  5
A5F9
330
A59E
100
AcDbDictionary
280
     1
281
     1
  3
ACAD_XREC_ROUNDTRIP
360
A5FA
  0
DICTIONARY
  5
A5C0
330
A588
100
AcDbDictionary
280
     1
281
     1
  3
ACAD_ROUNDTRIP_2008_TABLESTYLE_CELLSTYLEMAP
360
A5C1
  3
ACAD_XREC_ROUNDTRIP
360
A5F7
  0
DICTIONARY
  5
A5D1
330
A573
100
AcDbDictionary
280
     1
281
     1
  3
ACAD_XREC_ROUNDTRIP
360
A5D2
  0
DICTIONARY
  5
A5CF
330
A572
100
AcDbDictionary
280
     1
281
     1
  3
ACAD_XREC_ROUNDTRIP
360
A5D0
  0
DICTIONARY
  5
A5DD
330
A579
100
AcDbDictionary
280
     1
281
     1
  3
ACAD_XREC_ROUNDTRIP
360
A5DE
  0
DICTIONARY
  5
A5E5
330
A57D
100
AcDbDictionary
280
     1
281
     1
  3
ACAD_XREC_ROUNDTRIP
360
A5E6
  0
DICTIONARY
  5
A5D7
330
A576
100
AcDbDictionary
280
     1
281
     1
  3
ACAD_XREC_ROUNDTRIP
360
A5D8
  0
DICTIONARY
  5
A5DB
330
A578
100
AcDbDictionary
280
     1
281
     1
  3
ACAD_XREC_ROUNDTRIP
360
A5DC
  0
DICTIONARY
  5
A5F5
330
A585
100
AcDbDictionary
280
     1
281
     1
  3
ACAD_XREC_ROUNDTRIP
360
A5F6
  0
DICTIONARY
  5
A5E3
330
A57C
100
AcDbDictionary
280
     1
281
     1
  3
ACAD_XREC_ROUNDTRIP
360
A5E4
  0
DICTIONARY
  5
A5C7
330
A56E
100
AcDbDictionary
280
     1
281
     1
  3
ACAD_XREC_ROUNDTRIP
360
A5C8
  0
DICTIONARY
  5
A5C9
330
A56F
100
AcDbDictionary
280
     1
281
     1
  3
ACAD_XREC_ROUNDTRIP
360
A5CA
  0
DICTIONARY
  5
A5CB
330
A570
100
AcDbDictionary
280
     1
281
     1
  3
ACAD_XREC_ROUNDTRIP
360
A5CC
  0
DICTIONARY
  5
A5CD
330
A571
100
AcDbDictionary
280
     1
281
     1
  3
ACAD_XREC_ROUNDTRIP
360
A5CE
  0
DICTIONARY
  5
A5D5
330
A575
100
AcDbDictionary
280
     1
281
     1
  3
ACAD_XREC_ROUNDTRIP
360
A5D6
  0
DICTIONARY
  5
A5F1
330
A583
100
AcDbDictionary
280
     1
281
     1
  3
ACAD_XREC_ROUNDTRIP
360
A5F2
  0
DICTIONARY
  5
A5E1
330
A57B
100
AcDbDictionary
280
     1
281
     1
  3
ACAD_XREC_ROUNDTRIP
360
A5E2
  0
DICTIONARY
  5
A5F3
330
A584
100
AcDbDictionary
280
     1
281
     1
  3
ACAD_XREC_ROUNDTRIP
360
A5F4
  0
DICTIONARY
  5
A5D9
330
A577
100
AcDbDictionary
280
     1
281
     1
  3
ACAD_XREC_ROUNDTRIP
360
A5DA
  0
DICTIONARY
  5
A5EF
330
A582
100
AcDbDictionary
280
     1
281
     1
  3
ACAD_XREC_ROUNDTRIP
360
A5F0
  0
DICTIONARY
  5
A5ED
330
A581
100
AcDbDictionary
280
     1
281
     1
  3
ACAD_XREC_ROUNDTRIP
360
A5EE
  0
DICTIONARY
  5
A5E7
330
A57E
100
AcDbDictionary
280
     1
281
     1
  3
ACAD_XREC_ROUNDTRIP
360
A5E8
  0
DICTIONARY
  5
A5E9
330
A57F
100
AcDbDictionary
280
     1
281
     1
  3
ACAD_XREC_ROUNDTRIP
360
A5EA
  0
DICTIONARY
  5
A5DF
330
A57A
100
AcDbDictionary
280
     1
281
     1
  3
ACAD_XREC_ROUNDTRIP
360
A5E0
  0
DICTIONARY
  5
A5D3
330
A574
100
AcDbDictionary
280
     1
281
     1
  3
ACAD_XREC_ROUNDTRIP
360
A5D4
  0
DICTIONARY
  5
A5EB
330
A580
100
AcDbDictionary
280
     1
281
     1
  3
ACAD_XREC_ROUNDTRIP
360
A5EC
  0
XRECORD
  5
A5FC
102
{ACAD_REACTORS
330
A5FB
102
}
330
A5FB
100
AcDbXrecord
280
     1
102
DISPLAYNAME
  1
Imperial24
102
FLAGS
 90
        0
  0
XRECORD
  5
A5FE
102
{ACAD_REACTORS
330
A5FD
102
}
330
A5FD
100
AcDbXrecord
280
     1
102
SHADEPLOT
 70
     0
102
SHADEPLOTRESLEVEL
 70
     2
102
SHADEPLOTCUSTOMDPI
 70
   300
  0
XRECORD
  5
A600
102
{ACAD_REACTORS
330
A5FF
102
}
330
A5FF
100
AcDbXrecord
280
     1
102
SHADEPLOT
 70
     0
102
SHADEPLOTRESLEVEL
 70
     2
102
SHADEPLOTCUSTOMDPI
 70
   300
  0
XRECORD
  5
A5C5
102
{ACAD_REACTORS
330
A55E
102
}
330
A55E
100
AcDbXrecord
280
     1
102
MATERIAL
148
0.0
149
0.0
149
0.0
 93
        0
 94
      127
282
     0
 72
     0
 77
     0
171
     0
175
     0
179
     0
273
     0
  0
XRECORD
  5
A560
102
{ACAD_REACTORS
330
A55E
102
}
330
A55E
100
AcDbXrecord
280
     1
270
     1
271
     1
  0
XRECORD
  5
A55F
102
{ACAD_REACTORS
330
A55E
102
}
330
A55E
100
AcDbXrecord
280
     1
270
     1
271
     1
  0
XRECORD
  5
A563
102
{ACAD_REACTORS
330
A55E
102
}
330
A55E
100
AcDbXrecord
280
     1
270
     1
271
     1
  0
XRECORD
  5
A562
102
{ACAD_REACTORS
330
A55E
102
}
330
A55E
100
AcDbXrecord
280
     1
270
     1
271
     1
  0
XRECORD
  5
A564
102
{ACAD_REACTORS
330
A55E
102
}
330
A55E
100
AcDbXrecord
280
     1
270
     1
271
     1
  0
XRECORD
  5
A561
102
{ACAD_REACTORS
330
A55E
102
}
330
A55E
100
AcDbXrecord
280
     1
270
     1
271
     1
  0
XRECORD
  5
A5C4
102
{ACAD_REACTORS
330
A556
102
}
330
A556
100
AcDbXrecord
280
     1
102
MATERIAL
148
0.0
149
0.0
149
0.0
 93
        0
 94
      127
282
     0
 72
     0
 77
     0
171
     0
175
     0
179
     0
273
     0
  0
XRECORD
  5
A558
102
{ACAD_REACTORS
330
A556
102
}
330
A556
100
AcDbXrecord
280
     1
270
     1
271
     1
  0
XRECORD
  5
A557
102
{ACAD_REACTORS
330
A556
102
}
330
A556
100
AcDbXrecord
280
     1
270
     1
271
     1
  0
XRECORD
  5
A55B
102
{ACAD_REACTORS
330
A556
102
}
330
A556
100
AcDbXrecord
280
     1
270
     1
271
     1
  0
XRECORD
  5
A55A
102
{ACAD_REACTORS
330
A556
102
}
330
A556
100
AcDbXrecord
280
     1
270
     1
271
     1
  0
XRECORD
  5
A55C
102
{ACAD_REACTORS
330
A556
102
}
330
A556
100
AcDbXrecord
280
     1
270
     1
271
     1
  0
XRECORD
  5
A559
102
{ACAD_REACTORS
330
A556
102
}
330
A556
100
AcDbXrecord
280
     1
270
     1
271
     1
  0
XRECORD
  5
A5C6
102
{ACAD_REACTORS
330
A566
102
}
330
A566
100
AcDbXrecord
280
     1
102
MATERIAL
148
0.0
149
0.0
149
0.0
 93
        0
 94
      127
282
     0
 72
     0
 77
     0
171
     0
175
     0
179
     0
273
     0
  0
XRECORD
  5
A568
102
{ACAD_REACTORS
330
A566
102
}
330
A566
100
AcDbXrecord
280
     1
270
     1
271
     1
  0
XRECORD
  5
A567
102
{ACAD_REACTORS
330
A566
102
}
330
A566
100
AcDbXrecord
280
     1
270
     1
271
     1
  0
XRECORD
  5
A56B
102
{ACAD_REACTORS
330
A566
102
}
330
A566
100
AcDbXrecord
280
     1
270
     1
271
     1
  0
XRECORD
  5
A56A
102
{ACAD_REACTORS
330
A566
102
}
330
A566
100
AcDbXrecord
280
     1
270
     1
271
     1
  0
XRECORD
  5
A56C
102
{ACAD_REACTORS
330
A566
102
}
330
A566
100
AcDbXrecord
280
     1
270
     1
271
     1
  0
XRECORD
  5
A569
102
{ACAD_REACTORS
330
A566
102
}
330
A566
100
AcDbXrecord
280
     1
270
     1
271
     1
  0
XRECORD
  5
A5FA
102
{ACAD_REACTORS
330
A5F9
102
}
330
A5F9
100
AcDbXrecord
280
     1
102
DISPLAYNAME
  1
Imperial24
102
FLAGS
 90
        0
  0
CELLSTYLEMAP
  5
A5C1
102
{ACAD_REACTORS
330
A5C0
102
}
330
A5C0
100
AcDbCellStyleMap
 90
        3
300
CELLSTYLE
  1
TABLEFORMAT_BEGIN
 90
        5
170
     1
 91
        0
 92
    32768
 62
   257
 93
        1
300
CONTENTFORMAT
  1
CONTENTFORMAT_BEGIN
 90
        0
 91
        0
 92
      512
 93
        0
300

 40
0.0
140
1.0
 94
        5
 62
     0
340
A328
144
0.25
309
CONTENTFORMAT_END
171
     0
 94
        0
309
TABLEFORMAT_END
  1
CELLSTYLE_BEGIN
 90
        1
 91
        1
300
_TITLE
309
CELLSTYLE_END
300
CELLSTYLE
  1
TABLEFORMAT_BEGIN
 90
        5
170
     1
 91
        0
 92
        0
 62
   257
 93
        1
300
CONTENTFORMAT
  1
CONTENTFORMAT_BEGIN
 90
        0
 91
        0
 92
      512
 93
        0
300

 40
0.0
140
1.0
 94
        5
 62
     0
340
A328
144
0.18
309
CONTENTFORMAT_END
171
     0
 94
        0
309
TABLEFORMAT_END
  1
CELLSTYLE_BEGIN
 90
        2
 91
        1
300
_HEADER
309
CELLSTYLE_END
300
CELLSTYLE
  1
TABLEFORMAT_BEGIN
 90
        5
170
     1
 91
        0
 92
        0
 62
   257
 93
        1
300
CONTENTFORMAT
  1
CONTENTFORMAT_BEGIN
 90
        0
 91
        0
 92
      512
 93
        0
300

 40
0.0
140
1.0
 94
        2
 62
     0
340
A328
144
0.18
309
CONTENTFORMAT_END
171
     0
 94
        0
309
TABLEFORMAT_END
  1
CELLSTYLE_BEGIN
 90
        3
 91
        2
300
_DATA
309
CELLSTYLE_END
  0
XRECORD
  5
A5F7
102
{ACAD_REACTORS
330
A5C0
102
}
330
A5C0
100
AcDbXrecord
280
     1
102
ACAD_ROUNDTRIP_PRE2007_TABLESTYLE
 90
      512
 91
        0
  1

 92
      512
 93
        0
  2

 94
      512
 95
        0
  3

  0
XRECORD
  5
A5D2
102
{ACAD_REACTORS
330
A5D1
102
}
330
A5D1
100
AcDbXrecord
280
     1
102
RTVSPost2010Prop28
280
     1
102
RTVSPost2010PropOp28
 70
     1
102
RTVSPost2010Prop29
280
     1
102
RTVSPost2010PropOp29
 70
     1
102
RTVSPost2010Prop30
280
     0
102
RTVSPost2010PropOp30
 70
     1
102
RTVSPost2010Prop31
280
     0
102
RTVSPost2010PropOp31
 70
     1
102
RTVSPost2010Prop32
280
     0
102
RTVSPost2010PropOp32
 70
     1
102
RTVSPost2010Prop33
280
     0
102
RTVSPost2010PropOp33
 70
     1
102
RTVSPost2010Prop34
280
     0
102
RTVSPost2010PropOp34
 70
     1
102
RTVSPost2010Prop35
280
     0
102
RTVSPost2010PropOp35
 70
     1
102
RTVSPost2010Prop36
280
     0
102
RTVSPost2010PropOp36
 70
     1
102
RTVSPost2010Prop37
 90
       50
102
RTVSPost2010PropOp37
 70
     1
102
RTVSPost2010Prop38
140
0.0
102
RTVSPost2010PropOp38
 70
     1
102
RTVSPost2010Prop39
140
1.0
102
RTVSPost2010PropOp39
 70
     1
102
RTVSPost2010Prop40
 90
        0
102
RTVSPost2010PropOp40
 70
     1
102
RTVSPost2010Prop41ColorIndex
 90
       18
102
RTVSPost2010Prop41ColorRGB
 90
        0
102
RTVSPost2010PropOp41
 70
     1
102
RTVSPost2010Prop42
 90
       50
102
RTVSPost2010PropOp42
 70
     1
102
RTVSPost2010Prop43
 90
        3
102
RTVSPost2010PropOp43
 70
     1
102
RTVSPost2010Prop44ColorIndex
 90
        5
102
RTVSPost2010Prop44ColorRGB
 90
      255
102
RTVSPost2010PropOp44
 70
     1
102
RTVSPost2010Prop45
280
     0
102
RTVSPost2010PropOp45
 70
     1
102
RTVSPost2010Prop46
 90
       50
102
RTVSPost2010PropOp46
 70
     1
102
RTVSPost2010Prop47
 90
       50
102
RTVSPost2010PropOp47
 70
     1
102
RTVSPost2010Prop48
 90
       50
102
RTVSPost2010PropOp48
 70
     1
102
RTVSPost2010Prop49
280
     0
102
RTVSPost2010PropOp49
 70
     1
102
RTVSPost2010Prop50
 90
       50
102
RTVSPost2010PropOp50
 70
     1
102
RTVSPost2010Prop51ColorIndex
 90
      256
102
RTVSPost2010Prop51ColorRGB
 90
-16777216
102
RTVSPost2010PropOp51
 70
     0
102
RTVSPost2010Prop52
140
1.0
102
RTVSPost2010PropOp52
 70
     0
102
RTVSPost2010Prop53
 90
        2
102
RTVSPost2010PropOp53
 70
     1
102
RTVSPost2010Prop54
  1
strokes_ogs.tif
102
RTVSPost2010PropOp54
 70
     1
102
RTVSPost2010Prop55
280
     0
102
RTVSPost2010PropOp55
 70
     1
102
RTVSPost2010Prop56
140
1.0
102
RTVSPost2010PropOp56
 70
     1
102
RTVSPost2010Prop57
140
1.0
102
RTVSPost2010PropOp57
 70
     1
102
RTVSPropertyOp0
 70
     1
102
RTVSPropertyOp1
 70
     1
102
RTVSPropertyOp2
 70
     1
102
RTVSPropertyOp3
 70
     1
102
RTVSPropertyOp4
 70
     1
102
RTVSPropertyOp5
 70
     1
102
RTVSPropertyOp6
 70
     1
102
RTVSPropertyOp7
 70
     1
102
RTVSPropertyOp8
 70
     1
102
RTVSPropertyOp9
 70
     1
102
RTVSPropertyOp10
 70
     1
102
RTVSPropertyOp11
 70
     1
102
RTVSPropertyOp12
 70
     1
102
RTVSPropertyOp13
 70
     1
102
RTVSPropertyOp14
 70
     1
102
RTVSPropertyOp15
 70
     1
102
RTVSPropertyOp16
 70
     1
102
RTVSPropertyOp17
 70
     1
102
RTVSPropertyOp18
 70
     1
102
RTVSPropertyOp19
 70
     1
102
RTVSPropertyOp20
 70
     1
102
RTVSPropertyOp21
 70
     1
102
RTVSPropertyOp22
 70
     1
102
RTVSPropertyOp23
 70
     1
102
RTVSPropertyOp24
 70
     1
102
RTVSPropertyOp25
 70
     1
102
RTVSPropertyOp26
 70
     1
102
RTVSPropertyOp27
 70
     1
102
RTVSPropertyOp28
 70
     1
102
RTVSPropertyOp29
 70
     1
102
RTVSPropertyOp30
 70
     1
102
RTVSPropertyOp31
 70
     1
102
RTVSPropertyOp32
 70
     1
102
RTVSPropertyOp33
 70
     1
102
RTVSPropertyOp34
 70
     1
102
RTVSPropertyOp35
 70
     1
102
RTVSPropertyOp36
 70
     1
102
RTVSPropertyOp37
 70
     1
102
RTVSPropertyOp38
 70
     1
102
RTVSPropertyOp39
 70
     1
102
RTVSPropertyOp40
 70
     1
102
RTVSPropertyOp41
 70
     1
102
RTVSPropertyOp42
 70
     1
102
RTVSPropertyOp43
 70
     1
102
RTVSPropertyOp44
 70
     1
102
RTVSPropertyOp45
 70
     1
102
RTVSPropertyOp46
 70
     1
102
RTVSPropertyOp47
 70
     1
102
RTVSPropertyOp48
 70
     1
102
RTVSPropertyOp49
 70
     1
102
RTVSPropertyOp50
 70
     1
102
RTVSPropertyOp51
 70
     0
102
RTVSPropertyOp52
 70
     0
102
RTVSPropertyOp53
 70
     1
102
RTVSPropertyOp54
 70
     1
102
RTVSPropertyOp55
 70
     1
102
RTVSPropertyOp56
 70
     1
102
RTVSPropertyOp57
 70
     1
102
RTVSPropertyOp58
 70
     1
102
RTVSPropertyOp59
 70
     1
102
RTVSPropertyOp60
 70
     1
102
RTVSPropertyOp61
 70
     1
102
RTVSPropertyOp62
 70
     1
  0
XRECORD
  5
A5D0
102
{ACAD_REACTORS
330
A5CF
102
}
330
A5CF
100
AcDbXrecord
280
     1
102
RTVSPost2010Prop28
280
     0
102
RTVSPost2010PropOp28
 70
     1
102
RTVSPost2010Prop29
280
     1
102
RTVSPost2010PropOp29
 70
     1
102
RTVSPost2010Prop30
280
     1
102
RTVSPost2010PropOp30
 70
     1
102
RTVSPost2010Prop31
280
     0
102
RTVSPost2010PropOp31
 70
     1
102
RTVSPost2010Prop32
280
     0
102
RTVSPost2010PropOp32
 70
     1
102
RTVSPost2010Prop33
280
     0
102
RTVSPost2010PropOp33
 70
     1
102
RTVSPost2010Prop34
280
     0
102
RTVSPost2010PropOp34
 70
     1
102
RTVSPost2010Prop35
280
     0
102
RTVSPost2010PropOp35
 70
     1
102
RTVSPost2010Prop36
280
     0
102
RTVSPost2010PropOp36
 70
     1
102
RTVSPost2010Prop37
 90
       50
102
RTVSPost2010PropOp37
 70
     1
102
RTVSPost2010Prop38
140
0.0
102
RTVSPost2010PropOp38
 70
     1
102
RTVSPost2010Prop39
140
1.0
102
RTVSPost2010PropOp39
 70
     1
102
RTVSPost2010Prop40
 90
        0
102
RTVSPost2010PropOp40
 70
     1
102
RTVSPost2010Prop41ColorIndex
 90
       18
102
RTVSPost2010Prop41ColorRGB
 90
        0
102
RTVSPost2010PropOp41
 70
     1
102
RTVSPost2010Prop42
 90
       50
102
RTVSPost2010PropOp42
 70
     1
102
RTVSPost2010Prop43
 90
        3
102
RTVSPost2010PropOp43
 70
     1
102
RTVSPost2010Prop44ColorIndex
 90
        5
102
RTVSPost2010Prop44ColorRGB
 90
      255
102
RTVSPost2010PropOp44
 70
     1
102
RTVSPost2010Prop45
280
     0
102
RTVSPost2010PropOp45
 70
     1
102
RTVSPost2010Prop46
 90
       50
102
RTVSPost2010PropOp46
 70
     1
102
RTVSPost2010Prop47
 90
       50
102
RTVSPost2010PropOp47
 70
     1
102
RTVSPost2010Prop48
 90
       50
102
RTVSPost2010PropOp48
 70
     1
102
RTVSPost2010Prop49
280
     0
102
RTVSPost2010PropOp49
 70
     1
102
RTVSPost2010Prop50
 90
       50
102
RTVSPost2010PropOp50
 70
     1
102
RTVSPost2010Prop51ColorIndex
 90
      256
102
RTVSPost2010Prop51ColorRGB
 90
-16777216
102
RTVSPost2010PropOp51
 70
     0
102
RTVSPost2010Prop52
140
1.0
102
RTVSPost2010PropOp52
 70
     0
102
RTVSPost2010Prop53
 90
        2
102
RTVSPost2010PropOp53
 70
     1
102
RTVSPost2010Prop54
  1
strokes_ogs.tif
102
RTVSPost2010PropOp54
 70
     1
102
RTVSPost2010Prop55
280
     0
102
RTVSPost2010PropOp55
 70
     1
102
RTVSPost2010Prop56
140
1.0
102
RTVSPost2010PropOp56
 70
     1
102
RTVSPost2010Prop57
140
1.0
102
RTVSPost2010PropOp57
 70
     1
102
RTVSPropertyOp0
 70
     1
102
RTVSPropertyOp1
 70
     1
102
RTVSPropertyOp2
 70
     1
102
RTVSPropertyOp3
 70
     1
102
RTVSPropertyOp4
 70
     1
102
RTVSPropertyOp5
 70
     1
102
RTVSPropertyOp6
 70
     1
102
RTVSPropertyOp7
 70
     1
102
RTVSPropertyOp8
 70
     1
102
RTVSPropertyOp9
 70
     1
102
RTVSPropertyOp10
 70
     1
102
RTVSPropertyOp11
 70
     1
102
RTVSPropertyOp12
 70
     1
102
RTVSPropertyOp13
 70
     1
102
RTVSPropertyOp14
 70
     1
102
RTVSPropertyOp15
 70
     1
102
RTVSPropertyOp16
 70
     1
102
RTVSPropertyOp17
 70
     1
102
RTVSPropertyOp18
 70
     1
102
RTVSPropertyOp19
 70
     1
102
RTVSPropertyOp20
 70
     1
102
RTVSPropertyOp21
 70
     1
102
RTVSPropertyOp22
 70
     1
102
RTVSPropertyOp23
 70
     1
102
RTVSPropertyOp24
 70
     1
102
RTVSPropertyOp25
 70
     1
102
RTVSPropertyOp26
 70
     1
102
RTVSPropertyOp27
 70
     1
102
RTVSPropertyOp28
 70
     1
102
RTVSPropertyOp29
 70
     1
102
RTVSPropertyOp30
 70
     1
102
RTVSPropertyOp31
 70
     1
102
RTVSPropertyOp32
 70
     1
102
RTVSPropertyOp33
 70
     1
102
RTVSPropertyOp34
 70
     1
102
RTVSPropertyOp35
 70
     1
102
RTVSPropertyOp36
 70
     1
102
RTVSPropertyOp37
 70
     1
102
RTVSPropertyOp38
 70
     1
102
RTVSPropertyOp39
 70
     1
102
RTVSPropertyOp40
 70
     1
102
RTVSPropertyOp41
 70
     1
102
RTVSPropertyOp42
 70
     1
102
RTVSPropertyOp43
 70
     1
102
RTVSPropertyOp44
 70
     1
102
RTVSPropertyOp45
 70
     1
102
RTVSPropertyOp46
 70
     1
102
RTVSPropertyOp47
 70
     1
102
RTVSPropertyOp48
 70
     1
102
RTVSPropertyOp49
 70
     1
102
RTVSPropertyOp50
 70
     1
102
RTVSPropertyOp51
 70
     0
102
RTVSPropertyOp52
 70
     0
102
RTVSPropertyOp53
 70
     1
102
RTVSPropertyOp54
 70
     1
102
RTVSPropertyOp55
 70
     1
102
RTVSPropertyOp56
 70
     1
102
RTVSPropertyOp57
 70
     1
102
RTVSPropertyOp58
 70
     1
102
RTVSPropertyOp59
 70
     1
102
RTVSPropertyOp60
 70
     1
102
RTVSPropertyOp61
 70
     1
102
RTVSPropertyOp62
 70
     1
  0
XRECORD
  5
A5DE
102
{ACAD_REACTORS
330
A5DD
102
}
330
A5DD
100
AcDbXrecord
280
     1
102
RTVSPost2010Prop28
280
     0
102
RTVSPost2010PropOp28
 70
     1
102
RTVSPost2010Prop29
280
     1
102
RTVSPost2010PropOp29
 70
     1
102
RTVSPost2010Prop30
280
     1
102
RTVSPost2010PropOp30
 70
     1
102
RTVSPost2010Prop31
280
     0
102
RTVSPost2010PropOp31
 70
     1
102
RTVSPost2010Prop32
280
     0
102
RTVSPost2010PropOp32
 70
     1
102
RTVSPost2010Prop33
280
     0
102
RTVSPost2010PropOp33
 70
     1
102
RTVSPost2010Prop34
280
     0
102
RTVSPost2010PropOp34
 70
     1
102
RTVSPost2010Prop35
280
     0
102
RTVSPost2010PropOp35
 70
     1
102
RTVSPost2010Prop36
280
     0
102
RTVSPost2010PropOp36
 70
     1
102
RTVSPost2010Prop37
 90
       50
102
RTVSPost2010PropOp37
 70
     1
102
RTVSPost2010Prop38
140
0.0
102
RTVSPost2010PropOp38
 70
     1
102
RTVSPost2010Prop39
140
1.0
102
RTVSPost2010PropOp39
 70
     1
102
RTVSPost2010Prop40
 90
        0
102
RTVSPost2010PropOp40
 70
     1
102
RTVSPost2010Prop41ColorIndex
 90
       18
102
RTVSPost2010Prop41ColorRGB
 90
        0
102
RTVSPost2010PropOp41
 70
     1
102
RTVSPost2010Prop42
 90
       50
102
RTVSPost2010PropOp42
 70
     1
102
RTVSPost2010Prop43
 90
        3
102
RTVSPost2010PropOp43
 70
     1
102
RTVSPost2010Prop44ColorIndex
 90
        5
102
RTVSPost2010Prop44ColorRGB
 90
      255
102
RTVSPost2010PropOp44
 70
     1
102
RTVSPost2010Prop45
280
     0
102
RTVSPost2010PropOp45
 70
     1
102
RTVSPost2010Prop46
 90
       50
102
RTVSPost2010PropOp46
 70
     1
102
RTVSPost2010Prop47
 90
       50
102
RTVSPost2010PropOp47
 70
     1
102
RTVSPost2010Prop48
 90
       50
102
RTVSPost2010PropOp48
 70
     1
102
RTVSPost2010Prop49
280
     0
102
RTVSPost2010PropOp49
 70
     1
102
RTVSPost2010Prop50
 90
       50
102
RTVSPost2010PropOp50
 70
     1
102
RTVSPost2010Prop51ColorIndex
 90
      256
102
RTVSPost2010Prop51ColorRGB
 90
-16777216
102
RTVSPost2010PropOp51
 70
     0
102
RTVSPost2010Prop52
140
1.0
102
RTVSPost2010PropOp52
 70
     0
102
RTVSPost2010Prop53
 90
        2
102
RTVSPost2010PropOp53
 70
     1
102
RTVSPost2010Prop54
  1
strokes_ogs.tif
102
RTVSPost2010PropOp54
 70
     1
102
RTVSPost2010Prop55
280
     0
102
RTVSPost2010PropOp55
 70
     1
102
RTVSPost2010Prop56
140
1.0
102
RTVSPost2010PropOp56
 70
     1
102
RTVSPost2010Prop57
140
1.0
102
RTVSPost2010PropOp57
 70
     1
102
RTVSPropertyOp0
 70
     1
102
RTVSPropertyOp1
 70
     1
102
RTVSPropertyOp2
 70
     1
102
RTVSPropertyOp3
 70
     1
102
RTVSPropertyOp4
 70
     1
102
RTVSPropertyOp5
 70
     1
102
RTVSPropertyOp6
 70
     1
102
RTVSPropertyOp7
 70
     1
102
RTVSPropertyOp8
 70
     1
102
RTVSPropertyOp9
 70
     1
102
RTVSPropertyOp10
 70
     1
102
RTVSPropertyOp11
 70
     1
102
RTVSPropertyOp12
 70
     1
102
RTVSPropertyOp13
 70
     1
102
RTVSPropertyOp14
 70
     1
102
RTVSPropertyOp15
 70
     1
102
RTVSPropertyOp16
 70
     1
102
RTVSPropertyOp17
 70
     1
102
RTVSPropertyOp18
 70
     1
102
RTVSPropertyOp19
 70
     1
102
RTVSPropertyOp20
 70
     1
102
RTVSPropertyOp21
 70
     1
102
RTVSPropertyOp22
 70
     1
102
RTVSPropertyOp23
 70
     1
102
RTVSPropertyOp24
 70
     1
102
RTVSPropertyOp25
 70
     1
102
RTVSPropertyOp26
 70
     1
102
RTVSPropertyOp27
 70
     1
102
RTVSPropertyOp28
 70
     1
102
RTVSPropertyOp29
 70
     1
102
RTVSPropertyOp30
 70
     1
102
RTVSPropertyOp31
 70
     1
102
RTVSPropertyOp32
 70
     1
102
RTVSPropertyOp33
 70
     1
102
RTVSPropertyOp34
 70
     1
102
RTVSPropertyOp35
 70
     1
102
RTVSPropertyOp36
 70
     1
102
RTVSPropertyOp37
 70
     1
102
RTVSPropertyOp38
 70
     1
102
RTVSPropertyOp39
 70
     1
102
RTVSPropertyOp40
 70
     1
102
RTVSPropertyOp41
 70
     1
102
RTVSPropertyOp42
 70
     1
102
RTVSPropertyOp43
 70
     1
102
RTVSPropertyOp44
 70
     1
102
RTVSPropertyOp45
 70
     1
102
RTVSPropertyOp46
 70
     1
102
RTVSPropertyOp47
 70
     1
102
RTVSPropertyOp48
 70
     1
102
RTVSPropertyOp49
 70
     1
102
RTVSPropertyOp50
 70
     1
102
RTVSPropertyOp51
 70
     0
102
RTVSPropertyOp52
 70
     0
102
RTVSPropertyOp53
 70
     1
102
RTVSPropertyOp54
 70
     1
102
RTVSPropertyOp55
 70
     1
102
RTVSPropertyOp56
 70
     1
102
RTVSPropertyOp57
 70
     1
102
RTVSPropertyOp58
 70
     1
102
RTVSPropertyOp59
 70
     1
102
RTVSPropertyOp60
 70
     1
102
RTVSPropertyOp61
 70
     1
102
RTVSPropertyOp62
 70
     1
  0
XRECORD
  5
A5E6
102
{ACAD_REACTORS
330
A5E5
102
}
330
A5E5
100
AcDbXrecord
280
     1
102
RTVSPost2010Prop28
280
     0
102
RTVSPost2010PropOp28
 70
     1
102
RTVSPost2010Prop29
280
     1
102
RTVSPost2010PropOp29
 70
     1
102
RTVSPost2010Prop30
280
     1
102
RTVSPost2010PropOp30
 70
     1
102
RTVSPost2010Prop31
280
     0
102
RTVSPost2010PropOp31
 70
     1
102
RTVSPost2010Prop32
280
     0
102
RTVSPost2010PropOp32
 70
     1
102
RTVSPost2010Prop33
280
     0
102
RTVSPost2010PropOp33
 70
     1
102
RTVSPost2010Prop34
280
     0
102
RTVSPost2010PropOp34
 70
     1
102
RTVSPost2010Prop35
280
     0
102
RTVSPost2010PropOp35
 70
     1
102
RTVSPost2010Prop36
280
     0
102
RTVSPost2010PropOp36
 70
     1
102
RTVSPost2010Prop37
 90
       50
102
RTVSPost2010PropOp37
 70
     1
102
RTVSPost2010Prop38
140
0.0
102
RTVSPost2010PropOp38
 70
     1
102
RTVSPost2010Prop39
140
1.0
102
RTVSPost2010PropOp39
 70
     1
102
RTVSPost2010Prop40
 90
        0
102
RTVSPost2010PropOp40
 70
     1
102
RTVSPost2010Prop41ColorIndex
 90
       18
102
RTVSPost2010Prop41ColorRGB
 90
        0
102
RTVSPost2010PropOp41
 70
     1
102
RTVSPost2010Prop42
 90
       50
102
RTVSPost2010PropOp42
 70
     1
102
RTVSPost2010Prop43
 90
        3
102
RTVSPost2010PropOp43
 70
     1
102
RTVSPost2010Prop44ColorIndex
 90
        5
102
RTVSPost2010Prop44ColorRGB
 90
      255
102
RTVSPost2010PropOp44
 70
     1
102
RTVSPost2010Prop45
280
     0
102
RTVSPost2010PropOp45
 70
     1
102
RTVSPost2010Prop46
 90
       50
102
RTVSPost2010PropOp46
 70
     1
102
RTVSPost2010Prop47
 90
       50
102
RTVSPost2010PropOp47
 70
     1
102
RTVSPost2010Prop48
 90
       50
102
RTVSPost2010PropOp48
 70
     1
102
RTVSPost2010Prop49
280
     0
102
RTVSPost2010PropOp49
 70
     1
102
RTVSPost2010Prop50
 90
       50
102
RTVSPost2010PropOp50
 70
     1
102
RTVSPost2010Prop51ColorIndex
 90
      256
102
RTVSPost2010Prop51ColorRGB
 90
-16777216
102
RTVSPost2010PropOp51
 70
     0
102
RTVSPost2010Prop52
140
1.0
102
RTVSPost2010PropOp52
 70
     0
102
RTVSPost2010Prop53
 90
        2
102
RTVSPost2010PropOp53
 70
     1
102
RTVSPost2010Prop54
  1
strokes_ogs.tif
102
RTVSPost2010PropOp54
 70
     1
102
RTVSPost2010Prop55
280
     0
102
RTVSPost2010PropOp55
 70
     1
102
RTVSPost2010Prop56
140
1.0
102
RTVSPost2010PropOp56
 70
     1
102
RTVSPost2010Prop57
140
1.0
102
RTVSPost2010PropOp57
 70
     1
102
RTVSPropertyOp0
 70
     1
102
RTVSPropertyOp1
 70
     1
102
RTVSPropertyOp2
 70
     1
102
RTVSPropertyOp3
 70
     1
102
RTVSPropertyOp4
 70
     1
102
RTVSPropertyOp5
 70
     1
102
RTVSPropertyOp6
 70
     1
102
RTVSPropertyOp7
 70
     1
102
RTVSPropertyOp8
 70
     1
102
RTVSPropertyOp9
 70
     1
102
RTVSPropertyOp10
 70
     1
102
RTVSPropertyOp11
 70
     1
102
RTVSPropertyOp12
 70
     1
102
RTVSPropertyOp13
 70
     1
102
RTVSPropertyOp14
 70
     1
102
RTVSPropertyOp15
 70
     1
102
RTVSPropertyOp16
 70
     1
102
RTVSPropertyOp17
 70
     1
102
RTVSPropertyOp18
 70
     1
102
RTVSPropertyOp19
 70
     1
102
RTVSPropertyOp20
 70
     1
102
RTVSPropertyOp21
 70
     1
102
RTVSPropertyOp22
 70
     1
102
RTVSPropertyOp23
 70
     1
102
RTVSPropertyOp24
 70
     1
102
RTVSPropertyOp25
 70
     1
102
RTVSPropertyOp26
 70
     1
102
RTVSPropertyOp27
 70
     1
102
RTVSPropertyOp28
 70
     1
102
RTVSPropertyOp29
 70
     1
102
RTVSPropertyOp30
 70
     1
102
RTVSPropertyOp31
 70
     1
102
RTVSPropertyOp32
 70
     1
102
RTVSPropertyOp33
 70
     1
102
RTVSPropertyOp34
 70
     1
102
RTVSPropertyOp35
 70
     1
102
RTVSPropertyOp36
 70
     1
102
RTVSPropertyOp37
 70
     1
102
RTVSPropertyOp38
 70
     1
102
RTVSPropertyOp39
 70
     1
102
RTVSPropertyOp40
 70
     1
102
RTVSPropertyOp41
 70
     1
102
RTVSPropertyOp42
 70
     1
102
RTVSPropertyOp43
 70
     1
102
RTVSPropertyOp44
 70
     1
102
RTVSPropertyOp45
 70
     1
102
RTVSPropertyOp46
 70
     1
102
RTVSPropertyOp47
 70
     1
102
RTVSPropertyOp48
 70
     1
102
RTVSPropertyOp49
 70
     1
102
RTVSPropertyOp50
 70
     1
102
RTVSPropertyOp51
 70
     0
102
RTVSPropertyOp52
 70
     0
102
RTVSPropertyOp53
 70
     1
102
RTVSPropertyOp54
 70
     1
102
RTVSPropertyOp55
 70
     1
102
RTVSPropertyOp56
 70
     1
102
RTVSPropertyOp57
 70
     1
102
RTVSPropertyOp58
 70
     1
102
RTVSPropertyOp59
 70
     1
102
RTVSPropertyOp60
 70
     1
102
RTVSPropertyOp61
 70
     1
102
RTVSPropertyOp62
 70
     1
  0
XRECORD
  5
A5D8
102
{ACAD_REACTORS
330
A5D7
102
}
330
A5D7
100
AcDbXrecord
280
     1
102
RTVSPost2010Prop28
280
     0
102
RTVSPost2010PropOp28
 70
     1
102
RTVSPost2010Prop29
280
     1
102
RTVSPost2010PropOp29
 70
     1
102
RTVSPost2010Prop30
280
     1
102
RTVSPost2010PropOp30
 70
     1
102
RTVSPost2010Prop31
280
     0
102
RTVSPost2010PropOp31
 70
     1
102
RTVSPost2010Prop32
280
     0
102
RTVSPost2010PropOp32
 70
     1
102
RTVSPost2010Prop33
280
     0
102
RTVSPost2010PropOp33
 70
     1
102
RTVSPost2010Prop34
280
     0
102
RTVSPost2010PropOp34
 70
     1
102
RTVSPost2010Prop35
280
     0
102
RTVSPost2010PropOp35
 70
     1
102
RTVSPost2010Prop36
280
     0
102
RTVSPost2010PropOp36
 70
     1
102
RTVSPost2010Prop37
 90
       50
102
RTVSPost2010PropOp37
 70
     1
102
RTVSPost2010Prop38
140
0.0
102
RTVSPost2010PropOp38
 70
     1
102
RTVSPost2010Prop39
140
1.0
102
RTVSPost2010PropOp39
 70
     1
102
RTVSPost2010Prop40
 90
        0
102
RTVSPost2010PropOp40
 70
     1
102
RTVSPost2010Prop41ColorIndex
 90
       18
102
RTVSPost2010Prop41ColorRGB
 90
        0
102
RTVSPost2010PropOp41
 70
     1
102
RTVSPost2010Prop42
 90
       50
102
RTVSPost2010PropOp42
 70
     1
102
RTVSPost2010Prop43
 90
        3
102
RTVSPost2010PropOp43
 70
     1
102
RTVSPost2010Prop44ColorIndex
 90
        5
102
RTVSPost2010Prop44ColorRGB
 90
      255
102
RTVSPost2010PropOp44
 70
     1
102
RTVSPost2010Prop45
280
     0
102
RTVSPost2010PropOp45
 70
     1
102
RTVSPost2010Prop46
 90
       50
102
RTVSPost2010PropOp46
 70
     1
102
RTVSPost2010Prop47
 90
       50
102
RTVSPost2010PropOp47
 70
     1
102
RTVSPost2010Prop48
 90
       50
102
RTVSPost2010PropOp48
 70
     1
102
RTVSPost2010Prop49
280
     0
102
RTVSPost2010PropOp49
 70
     1
102
RTVSPost2010Prop50
 90
       50
102
RTVSPost2010PropOp50
 70
     1
102
RTVSPost2010Prop51ColorIndex
 90
      256
102
RTVSPost2010Prop51ColorRGB
 90
-16777216
102
RTVSPost2010PropOp51
 70
     0
102
RTVSPost2010Prop52
140
1.0
102
RTVSPost2010PropOp52
 70
     0
102
RTVSPost2010Prop53
 90
        2
102
RTVSPost2010PropOp53
 70
     1
102
RTVSPost2010Prop54
  1
strokes_ogs.tif
102
RTVSPost2010PropOp54
 70
     1
102
RTVSPost2010Prop55
280
     0
102
RTVSPost2010PropOp55
 70
     1
102
RTVSPost2010Prop56
140
1.0
102
RTVSPost2010PropOp56
 70
     1
102
RTVSPost2010Prop57
140
1.0
102
RTVSPost2010PropOp57
 70
     1
102
RTVSPropertyOp0
 70
     1
102
RTVSPropertyOp1
 70
     1
102
RTVSPropertyOp2
 70
     1
102
RTVSPropertyOp3
 70
     1
102
RTVSPropertyOp4
 70
     1
102
RTVSPropertyOp5
 70
     1
102
RTVSPropertyOp6
 70
     1
102
RTVSPropertyOp7
 70
     1
102
RTVSPropertyOp8
 70
     1
102
RTVSPropertyOp9
 70
     1
102
RTVSPropertyOp10
 70
     1
102
RTVSPropertyOp11
 70
     1
102
RTVSPropertyOp12
 70
     1
102
RTVSPropertyOp13
 70
     1
102
RTVSPropertyOp14
 70
     1
102
RTVSPropertyOp15
 70
     1
102
RTVSPropertyOp16
 70
     1
102
RTVSPropertyOp17
 70
     1
102
RTVSPropertyOp18
 70
     1
102
RTVSPropertyOp19
 70
     1
102
RTVSPropertyOp20
 70
     1
102
RTVSPropertyOp21
 70
     1
102
RTVSPropertyOp22
 70
     1
102
RTVSPropertyOp23
 70
     1
102
RTVSPropertyOp24
 70
     1
102
RTVSPropertyOp25
 70
     1
102
RTVSPropertyOp26
 70
     1
102
RTVSPropertyOp27
 70
     1
102
RTVSPropertyOp28
 70
     1
102
RTVSPropertyOp29
 70
     1
102
RTVSPropertyOp30
 70
     1
102
RTVSPropertyOp31
 70
     1
102
RTVSPropertyOp32
 70
     1
102
RTVSPropertyOp33
 70
     1
102
RTVSPropertyOp34
 70
     1
102
RTVSPropertyOp35
 70
     1
102
RTVSPropertyOp36
 70
     1
102
RTVSPropertyOp37
 70
     1
102
RTVSPropertyOp38
 70
     1
102
RTVSPropertyOp39
 70
     1
102
RTVSPropertyOp40
 70
     1
102
RTVSPropertyOp41
 70
     1
102
RTVSPropertyOp42
 70
     1
102
RTVSPropertyOp43
 70
     1
102
RTVSPropertyOp44
 70
     1
102
RTVSPropertyOp45
 70
     1
102
RTVSPropertyOp46
 70
     1
102
RTVSPropertyOp47
 70
     1
102
RTVSPropertyOp48
 70
     1
102
RTVSPropertyOp49
 70
     1
102
RTVSPropertyOp50
 70
     1
102
RTVSPropertyOp51
 70
     0
102
RTVSPropertyOp52
 70
     0
102
RTVSPropertyOp53
 70
     1
102
RTVSPropertyOp54
 70
     1
102
RTVSPropertyOp55
 70
     1
102
RTVSPropertyOp56
 70
     1
102
RTVSPropertyOp57
 70
     1
102
RTVSPropertyOp58
 70
     1
102
RTVSPropertyOp59
 70
     1
102
RTVSPropertyOp60
 70
     1
102
RTVSPropertyOp61
 70
     1
102
RTVSPropertyOp62
 70
     1
  0
XRECORD
  5
A5DC
102
{ACAD_REACTORS
330
A5DB
102
}
330
A5DB
100
AcDbXrecord
280
     1
102
RTVSPost2010Prop28
280
     0
102
RTVSPost2010PropOp28
 70
     1
102
RTVSPost2010Prop29
280
     1
102
RTVSPost2010PropOp29
 70
     1
102
RTVSPost2010Prop30
280
     1
102
RTVSPost2010PropOp30
 70
     1
102
RTVSPost2010Prop31
280
     0
102
RTVSPost2010PropOp31
 70
     1
102
RTVSPost2010Prop32
280
     0
102
RTVSPost2010PropOp32
 70
     1
102
RTVSPost2010Prop33
280
     0
102
RTVSPost2010PropOp33
 70
     1
102
RTVSPost2010Prop34
280
     0
102
RTVSPost2010PropOp34
 70
     1
102
RTVSPost2010Prop35
280
     0
102
RTVSPost2010PropOp35
 70
     1
102
RTVSPost2010Prop36
280
     0
102
RTVSPost2010PropOp36
 70
     1
102
RTVSPost2010Prop37
 90
       50
102
RTVSPost2010PropOp37
 70
     1
102
RTVSPost2010Prop38
140
0.0
102
RTVSPost2010PropOp38
 70
     1
102
RTVSPost2010Prop39
140
1.0
102
RTVSPost2010PropOp39
 70
     1
102
RTVSPost2010Prop40
 90
        0
102
RTVSPost2010PropOp40
 70
     1
102
RTVSPost2010Prop41ColorIndex
 90
       18
102
RTVSPost2010Prop41ColorRGB
 90
        0
102
RTVSPost2010PropOp41
 70
     1
102
RTVSPost2010Prop42
 90
       50
102
RTVSPost2010PropOp42
 70
     1
102
RTVSPost2010Prop43
 90
        3
102
RTVSPost2010PropOp43
 70
     1
102
RTVSPost2010Prop44ColorIndex
 90
        5
102
RTVSPost2010Prop44ColorRGB
 90
      255
102
RTVSPost2010PropOp44
 70
     1
102
RTVSPost2010Prop45
280
     0
102
RTVSPost2010PropOp45
 70
     1
102
RTVSPost2010Prop46
 90
       50
102
RTVSPost2010PropOp46
 70
     1
102
RTVSPost2010Prop47
 90
       50
102
RTVSPost2010PropOp47
 70
     1
102
RTVSPost2010Prop48
 90
       50
102
RTVSPost2010PropOp48
 70
     1
102
RTVSPost2010Prop49
280
     0
102
RTVSPost2010PropOp49
 70
     1
102
RTVSPost2010Prop50
 90
       50
102
RTVSPost2010PropOp50
 70
     1
102
RTVSPost2010Prop51ColorIndex
 90
      256
102
RTVSPost2010Prop51ColorRGB
 90
-16777216
102
RTVSPost2010PropOp51
 70
     0
102
RTVSPost2010Prop52
140
1.0
102
RTVSPost2010PropOp52
 70
     0
102
RTVSPost2010Prop53
 90
        2
102
RTVSPost2010PropOp53
 70
     1
102
RTVSPost2010Prop54
  1
strokes_ogs.tif
102
RTVSPost2010PropOp54
 70
     1
102
RTVSPost2010Prop55
280
     0
102
RTVSPost2010PropOp55
 70
     1
102
RTVSPost2010Prop56
140
1.0
102
RTVSPost2010PropOp56
 70
     1
102
RTVSPost2010Prop57
140
1.0
102
RTVSPost2010PropOp57
 70
     1
102
RTVSPropertyOp0
 70
     1
102
RTVSPropertyOp1
 70
     1
102
RTVSPropertyOp2
 70
     1
102
RTVSPropertyOp3
 70
     1
102
RTVSPropertyOp4
 70
     1
102
RTVSPropertyOp5
 70
     1
102
RTVSPropertyOp6
 70
     1
102
RTVSPropertyOp7
 70
     1
102
RTVSPropertyOp8
 70
     1
102
RTVSPropertyOp9
 70
     1
102
RTVSPropertyOp10
 70
     1
102
RTVSPropertyOp11
 70
     1
102
RTVSPropertyOp12
 70
     1
102
RTVSPropertyOp13
 70
     1
102
RTVSPropertyOp14
 70
     1
102
RTVSPropertyOp15
 70
     1
102
RTVSPropertyOp16
 70
     1
102
RTVSPropertyOp17
 70
     1
102
RTVSPropertyOp18
 70
     1
102
RTVSPropertyOp19
 70
     1
102
RTVSPropertyOp20
 70
     1
102
RTVSPropertyOp21
 70
     1
102
RTVSPropertyOp22
 70
     1
102
RTVSPropertyOp23
 70
     1
102
RTVSPropertyOp24
 70
     1
102
RTVSPropertyOp25
 70
     1
102
RTVSPropertyOp26
 70
     1
102
RTVSPropertyOp27
 70
     1
102
RTVSPropertyOp28
 70
     1
102
RTVSPropertyOp29
 70
     1
102
RTVSPropertyOp30
 70
     1
102
RTVSPropertyOp31
 70
     1
102
RTVSPropertyOp32
 70
     1
102
RTVSPropertyOp33
 70
     1
102
RTVSPropertyOp34
 70
     1
102
RTVSPropertyOp35
 70
     1
102
RTVSPropertyOp36
 70
     1
102
RTVSPropertyOp37
 70
     1
102
RTVSPropertyOp38
 70
     1
102
RTVSPropertyOp39
 70
     1
102
RTVSPropertyOp40
 70
     1
102
RTVSPropertyOp41
 70
     1
102
RTVSPropertyOp42
 70
     1
102
RTVSPropertyOp43
 70
     1
102
RTVSPropertyOp44
 70
     1
102
RTVSPropertyOp45
 70
     1
102
RTVSPropertyOp46
 70
     1
102
RTVSPropertyOp47
 70
     1
102
RTVSPropertyOp48
 70
     1
102
RTVSPropertyOp49
 70
     1
102
RTVSPropertyOp50
 70
     1
102
RTVSPropertyOp51
 70
     0
102
RTVSPropertyOp52
 70
     0
102
RTVSPropertyOp53
 70
     1
102
RTVSPropertyOp54
 70
     1
102
RTVSPropertyOp55
 70
     1
102
RTVSPropertyOp56
 70
     1
102
RTVSPropertyOp57
 70
     1
102
RTVSPropertyOp58
 70
     1
102
RTVSPropertyOp59
 70
     1
102
RTVSPropertyOp60
 70
     1
102
RTVSPropertyOp61
 70
     1
102
RTVSPropertyOp62
 70
     1
  0
XRECORD
  5
A5F6
102
{ACAD_REACTORS
330
A5F5
102
}
330
A5F5
100
AcDbXrecord
280
     1
102
RTVSPost2010Prop28
280
     0
102
RTVSPost2010PropOp28
 70
     1
102
RTVSPost2010Prop29
280
     1
102
RTVSPost2010PropOp29
 70
     1
102
RTVSPost2010Prop30
280
     1
102
RTVSPost2010PropOp30
 70
     1
102
RTVSPost2010Prop31
280
     0
102
RTVSPost2010PropOp31
 70
     1
102
RTVSPost2010Prop32
280
     0
102
RTVSPost2010PropOp32
 70
     1
102
RTVSPost2010Prop33
280
     0
102
RTVSPost2010PropOp33
 70
     1
102
RTVSPost2010Prop34
280
     0
102
RTVSPost2010PropOp34
 70
     1
102
RTVSPost2010Prop35
280
     0
102
RTVSPost2010PropOp35
 70
     1
102
RTVSPost2010Prop36
280
     0
102
RTVSPost2010PropOp36
 70
     1
102
RTVSPost2010Prop37
 90
       50
102
RTVSPost2010PropOp37
 70
     0
102
RTVSPost2010Prop38
140
0.0
102
RTVSPost2010PropOp38
 70
     0
102
RTVSPost2010Prop39
140
1.0
102
RTVSPost2010PropOp39
 70
     0
102
RTVSPost2010Prop40
 90
        0
102
RTVSPost2010PropOp40
 70
     0
102
RTVSPost2010Prop41ColorIndex
 90
       18
102
RTVSPost2010Prop41ColorRGB
 90
        0
102
RTVSPost2010PropOp41
 70
     0
102
RTVSPost2010Prop42
 90
       50
102
RTVSPost2010PropOp42
 70
     0
102
RTVSPost2010Prop43
 90
        3
102
RTVSPost2010PropOp43
 70
     0
102
RTVSPost2010Prop44ColorIndex
 90
        5
102
RTVSPost2010Prop44ColorRGB
 90
      255
102
RTVSPost2010PropOp44
 70
     0
102
RTVSPost2010Prop45
280
     0
102
RTVSPost2010PropOp45
 70
     1
102
RTVSPost2010Prop46
 90
       50
102
RTVSPost2010PropOp46
 70
     0
102
RTVSPost2010Prop47
 90
       50
102
RTVSPost2010PropOp47
 70
     0
102
RTVSPost2010Prop48
 90
       50
102
RTVSPost2010PropOp48
 70
     0
102
RTVSPost2010Prop49
280
     0
102
RTVSPost2010PropOp49
 70
     1
102
RTVSPost2010Prop50
 90
       50
102
RTVSPost2010PropOp50
 70
     0
102
RTVSPost2010Prop51ColorIndex
 90
      256
102
RTVSPost2010Prop51ColorRGB
 90
-16777216
102
RTVSPost2010PropOp51
 70
     0
102
RTVSPost2010Prop52
140
1.0
102
RTVSPost2010PropOp52
 70
     0
102
RTVSPost2010Prop53
 90
        2
102
RTVSPost2010PropOp53
 70
     0
102
RTVSPost2010Prop54
  1
strokes_ogs.tif
102
RTVSPost2010PropOp54
 70
     0
102
RTVSPost2010Prop55
280
     0
102
RTVSPost2010PropOp55
 70
     1
102
RTVSPost2010Prop56
140
1.0
102
RTVSPost2010PropOp56
 70
     0
102
RTVSPost2010Prop57
140
1.0
102
RTVSPost2010PropOp57
 70
     0
102
RTVSPropertyOp0
 70
     0
102
RTVSPropertyOp1
 70
     0
102
RTVSPropertyOp2
 70
     0
102
RTVSPropertyOp3
 70
     0
102
RTVSPropertyOp4
 70
     0
102
RTVSPropertyOp5
 70
     0
102
RTVSPropertyOp6
 70
     0
102
RTVSPropertyOp7
 70
     0
102
RTVSPropertyOp8
 70
     0
102
RTVSPropertyOp9
 70
     0
102
RTVSPropertyOp10
 70
     0
102
RTVSPropertyOp11
 70
     0
102
RTVSPropertyOp12
 70
     0
102
RTVSPropertyOp13
 70
     0
102
RTVSPropertyOp14
 70
     2
102
RTVSPropertyOp15
 70
     0
102
RTVSPropertyOp16
 70
     0
102
RTVSPropertyOp17
 70
     0
102
RTVSPropertyOp18
 70
     0
102
RTVSPropertyOp19
 70
     0
102
RTVSPropertyOp20
 70
     0
102
RTVSPropertyOp21
 70
     0
102
RTVSPropertyOp22
 70
     0
102
RTVSPropertyOp23
 70
     0
102
RTVSPropertyOp24
 70
     0
102
RTVSPropertyOp25
 70
     0
102
RTVSPropertyOp26
 70
     0
102
RTVSPropertyOp27
 70
     0
102
RTVSPropertyOp28
 70
     1
102
RTVSPropertyOp29
 70
     1
102
RTVSPropertyOp30
 70
     1
102
RTVSPropertyOp31
 70
     1
102
RTVSPropertyOp32
 70
     1
102
RTVSPropertyOp33
 70
     1
102
RTVSPropertyOp34
 70
     1
102
RTVSPropertyOp35
 70
     1
102
RTVSPropertyOp36
 70
     1
102
RTVSPropertyOp37
 70
     0
102
RTVSPropertyOp38
 70
     0
102
RTVSPropertyOp39
 70
     0
102
RTVSPropertyOp40
 70
     0
102
RTVSPropertyOp41
 70
     0
102
RTVSPropertyOp42
 70
     0
102
RTVSPropertyOp43
 70
     0
102
RTVSPropertyOp44
 70
     0
102
RTVSPropertyOp45
 70
     1
102
RTVSPropertyOp46
 70
     0
102
RTVSPropertyOp47
 70
     0
102
RTVSPropertyOp48
 70
     0
102
RTVSPropertyOp49
 70
     1
102
RTVSPropertyOp50
 70
     0
102
RTVSPropertyOp51
 70
     0
102
RTVSPropertyOp52
 70
     0
102
RTVSPropertyOp53
 70
     0
102
RTVSPropertyOp54
 70
     0
102
RTVSPropertyOp55
 70
     1
102
RTVSPropertyOp56
 70
     0
102
RTVSPropertyOp57
 70
     0
102
RTVSPropertyOp58
 70
     0
102
RTVSPropertyOp59
 70
     0
102
RTVSPropertyOp60
 70
     0
102
RTVSPropertyOp61
 70
     0
102
RTVSPropertyOp62
 70
     0
  0
XRECORD
  5
A5E4
102
{ACAD_REACTORS
330
A5E3
102
}
330
A5E3
100
AcDbXrecord
280
     1
102
RTVSPost2010Prop28
280
     0
102
RTVSPost2010PropOp28
 70
     1
102
RTVSPost2010Prop29
280
     1
102
RTVSPost2010PropOp29
 70
     1
102
RTVSPost2010Prop30
280
     1
102
RTVSPost2010PropOp30
 70
     1
102
RTVSPost2010Prop31
280
     0
102
RTVSPost2010PropOp31
 70
     1
102
RTVSPost2010Prop32
280
     0
102
RTVSPost2010PropOp32
 70
     1
102
RTVSPost2010Prop33
280
     0
102
RTVSPost2010PropOp33
 70
     1
102
RTVSPost2010Prop34
280
     0
102
RTVSPost2010PropOp34
 70
     1
102
RTVSPost2010Prop35
280
     0
102
RTVSPost2010PropOp35
 70
     1
102
RTVSPost2010Prop36
280
     0
102
RTVSPost2010PropOp36
 70
     1
102
RTVSPost2010Prop37
 90
       50
102
RTVSPost2010PropOp37
 70
     1
102
RTVSPost2010Prop38
140
0.0
102
RTVSPost2010PropOp38
 70
     1
102
RTVSPost2010Prop39
140
1.0
102
RTVSPost2010PropOp39
 70
     1
102
RTVSPost2010Prop40
 90
        0
102
RTVSPost2010PropOp40
 70
     1
102
RTVSPost2010Prop41ColorIndex
 90
       18
102
RTVSPost2010Prop41ColorRGB
 90
        0
102
RTVSPost2010PropOp41
 70
     1
102
RTVSPost2010Prop42
 90
       50
102
RTVSPost2010PropOp42
 70
     1
102
RTVSPost2010Prop43
 90
        3
102
RTVSPost2010PropOp43
 70
     1
102
RTVSPost2010Prop44ColorIndex
 90
        5
102
RTVSPost2010Prop44ColorRGB
 90
      255
102
RTVSPost2010PropOp44
 70
     1
102
RTVSPost2010Prop45
280
     0
102
RTVSPost2010PropOp45
 70
     1
102
RTVSPost2010Prop46
 90
       50
102
RTVSPost2010PropOp46
 70
     1
102
RTVSPost2010Prop47
 90
       50
102
RTVSPost2010PropOp47
 70
     1
102
RTVSPost2010Prop48
 90
       50
102
RTVSPost2010PropOp48
 70
     1
102
RTVSPost2010Prop49
280
     0
102
RTVSPost2010PropOp49
 70
     1
102
RTVSPost2010Prop50
 90
       50
102
RTVSPost2010PropOp50
 70
     1
102
RTVSPost2010Prop51ColorIndex
 90
      256
102
RTVSPost2010Prop51ColorRGB
 90
-16777216
102
RTVSPost2010PropOp51
 70
     0
102
RTVSPost2010Prop52
140
1.0
102
RTVSPost2010PropOp52
 70
     0
102
RTVSPost2010Prop53
 90
        2
102
RTVSPost2010PropOp53
 70
     1
102
RTVSPost2010Prop54
  1
strokes_ogs.tif
102
RTVSPost2010PropOp54
 70
     1
102
RTVSPost2010Prop55
280
     0
102
RTVSPost2010PropOp55
 70
     1
102
RTVSPost2010Prop56
140
1.0
102
RTVSPost2010PropOp56
 70
     1
102
RTVSPost2010Prop57
140
1.0
102
RTVSPost2010PropOp57
 70
     1
102
RTVSPropertyOp0
 70
     1
102
RTVSPropertyOp1
 70
     1
102
RTVSPropertyOp2
 70
     1
102
RTVSPropertyOp3
 70
     1
102
RTVSPropertyOp4
 70
     1
102
RTVSPropertyOp5
 70
     1
102
RTVSPropertyOp6
 70
     1
102
RTVSPropertyOp7
 70
     1
102
RTVSPropertyOp8
 70
     1
102
RTVSPropertyOp9
 70
     1
102
RTVSPropertyOp10
 70
     1
102
RTVSPropertyOp11
 70
     1
102
RTVSPropertyOp12
 70
     1
102
RTVSPropertyOp13
 70
     1
102
RTVSPropertyOp14
 70
     1
102
RTVSPropertyOp15
 70
     1
102
RTVSPropertyOp16
 70
     1
102
RTVSPropertyOp17
 70
     1
102
RTVSPropertyOp18
 70
     1
102
RTVSPropertyOp19
 70
     1
102
RTVSPropertyOp20
 70
     1
102
RTVSPropertyOp21
 70
     1
102
RTVSPropertyOp22
 70
     1
102
RTVSPropertyOp23
 70
     1
102
RTVSPropertyOp24
 70
     1
102
RTVSPropertyOp25
 70
     1
102
RTVSPropertyOp26
 70
     1
102
RTVSPropertyOp27
 70
     1
102
RTVSPropertyOp28
 70
     1
102
RTVSPropertyOp29
 70
     1
102
RTVSPropertyOp30
 70
     1
102
RTVSPropertyOp31
 70
     1
102
RTVSPropertyOp32
 70
     1
102
RTVSPropertyOp33
 70
     1
102
RTVSPropertyOp34
 70
     1
102
RTVSPropertyOp35
 70
     1
102
RTVSPropertyOp36
 70
     1
102
RTVSPropertyOp37
 70
     1
102
RTVSPropertyOp38
 70
     1
102
RTVSPropertyOp39
 70
     1
102
RTVSPropertyOp40
 70
     1
102
RTVSPropertyOp41
 70
     1
102
RTVSPropertyOp42
 70
     1
102
RTVSPropertyOp43
 70
     1
102
RTVSPropertyOp44
 70
     1
102
RTVSPropertyOp45
 70
     1
102
RTVSPropertyOp46
 70
     1
102
RTVSPropertyOp47
 70
     1
102
RTVSPropertyOp48
 70
     1
102
RTVSPropertyOp49
 70
     1
102
RTVSPropertyOp50
 70
     1
102
RTVSPropertyOp51
 70
     0
102
RTVSPropertyOp52
 70
     0
102
RTVSPropertyOp53
 70
     1
102
RTVSPropertyOp54
 70
     1
102
RTVSPropertyOp55
 70
     1
102
RTVSPropertyOp56
 70
     1
102
RTVSPropertyOp57
 70
     1
102
RTVSPropertyOp58
 70
     1
102
RTVSPropertyOp59
 70
     1
102
RTVSPropertyOp60
 70
     1
102
RTVSPropertyOp61
 70
     1
102
RTVSPropertyOp62
 70
     1
  0
XRECORD
  5
A5C8
102
{ACAD_REACTORS
330
A5C7
102
}
330
A5C7
100
AcDbXrecord
280
     1
102
RTVSPost2010Prop28
280
     0
102
RTVSPost2010PropOp28
 70
     1
102
RTVSPost2010Prop29
280
     1
102
RTVSPost2010PropOp29
 70
     1
102
RTVSPost2010Prop30
280
     1
102
RTVSPost2010PropOp30
 70
     1
102
RTVSPost2010Prop31
280
     0
102
RTVSPost2010PropOp31
 70
     1
102
RTVSPost2010Prop32
280
     0
102
RTVSPost2010PropOp32
 70
     1
102
RTVSPost2010Prop33
280
     0
102
RTVSPost2010PropOp33
 70
     1
102
RTVSPost2010Prop34
280
     0
102
RTVSPost2010PropOp34
 70
     1
102
RTVSPost2010Prop35
280
     0
102
RTVSPost2010PropOp35
 70
     1
102
RTVSPost2010Prop36
280
     0
102
RTVSPost2010PropOp36
 70
     1
102
RTVSPost2010Prop37
 90
       50
102
RTVSPost2010PropOp37
 70
     1
102
RTVSPost2010Prop38
140
0.0
102
RTVSPost2010PropOp38
 70
     1
102
RTVSPost2010Prop39
140
1.0
102
RTVSPost2010PropOp39
 70
     1
102
RTVSPost2010Prop40
 90
        0
102
RTVSPost2010PropOp40
 70
     1
102
RTVSPost2010Prop41ColorIndex
 90
       18
102
RTVSPost2010Prop41ColorRGB
 90
        0
102
RTVSPost2010PropOp41
 70
     1
102
RTVSPost2010Prop42
 90
       50
102
RTVSPost2010PropOp42
 70
     1
102
RTVSPost2010Prop43
 90
        3
102
RTVSPost2010PropOp43
 70
     1
102
RTVSPost2010Prop44ColorIndex
 90
        5
102
RTVSPost2010Prop44ColorRGB
 90
      255
102
RTVSPost2010PropOp44
 70
     1
102
RTVSPost2010Prop45
280
     0
102
RTVSPost2010PropOp45
 70
     1
102
RTVSPost2010Prop46
 90
       50
102
RTVSPost2010PropOp46
 70
     1
102
RTVSPost2010Prop47
 90
       50
102
RTVSPost2010PropOp47
 70
     1
102
RTVSPost2010Prop48
 90
       50
102
RTVSPost2010PropOp48
 70
     1
102
RTVSPost2010Prop49
280
     0
102
RTVSPost2010PropOp49
 70
     1
102
RTVSPost2010Prop50
 90
       50
102
RTVSPost2010PropOp50
 70
     1
102
RTVSPost2010Prop51ColorIndex
 90
      256
102
RTVSPost2010Prop51ColorRGB
 90
-16777216
102
RTVSPost2010PropOp51
 70
     0
102
RTVSPost2010Prop52
140
1.0
102
RTVSPost2010PropOp52
 70
     0
102
RTVSPost2010Prop53
 90
        2
102
RTVSPost2010PropOp53
 70
     1
102
RTVSPost2010Prop54
  1
strokes_ogs.tif
102
RTVSPost2010PropOp54
 70
     1
102
RTVSPost2010Prop55
280
     0
102
RTVSPost2010PropOp55
 70
     1
102
RTVSPost2010Prop56
140
1.0
102
RTVSPost2010PropOp56
 70
     1
102
RTVSPost2010Prop57
140
1.0
102
RTVSPost2010PropOp57
 70
     1
102
RTVSPropertyOp0
 70
     1
102
RTVSPropertyOp1
 70
     1
102
RTVSPropertyOp2
 70
     1
102
RTVSPropertyOp3
 70
     1
102
RTVSPropertyOp4
 70
     1
102
RTVSPropertyOp5
 70
     1
102
RTVSPropertyOp6
 70
     1
102
RTVSPropertyOp7
 70
     1
102
RTVSPropertyOp8
 70
     1
102
RTVSPropertyOp9
 70
     1
102
RTVSPropertyOp10
 70
     1
102
RTVSPropertyOp11
 70
     1
102
RTVSPropertyOp12
 70
     1
102
RTVSPropertyOp13
 70
     1
102
RTVSPropertyOp14
 70
     1
102
RTVSPropertyOp15
 70
     1
102
RTVSPropertyOp16
 70
     1
102
RTVSPropertyOp17
 70
     1
102
RTVSPropertyOp18
 70
     1
102
RTVSPropertyOp19
 70
     1
102
RTVSPropertyOp20
 70
     1
102
RTVSPropertyOp21
 70
     1
102
RTVSPropertyOp22
 70
     1
102
RTVSPropertyOp23
 70
     1
102
RTVSPropertyOp24
 70
     1
102
RTVSPropertyOp25
 70
     1
102
RTVSPropertyOp26
 70
     1
102
RTVSPropertyOp27
 70
     1
102
RTVSPropertyOp28
 70
     1
102
RTVSPropertyOp29
 70
     1
102
RTVSPropertyOp30
 70
     1
102
RTVSPropertyOp31
 70
     1
102
RTVSPropertyOp32
 70
     1
102
RTVSPropertyOp33
 70
     1
102
RTVSPropertyOp34
 70
     1
102
RTVSPropertyOp35
 70
     1
102
RTVSPropertyOp36
 70
     1
102
RTVSPropertyOp37
 70
     1
102
RTVSPropertyOp38
 70
     1
102
RTVSPropertyOp39
 70
     1
102
RTVSPropertyOp40
 70
     1
102
RTVSPropertyOp41
 70
     1
102
RTVSPropertyOp42
 70
     1
102
RTVSPropertyOp43
 70
     1
102
RTVSPropertyOp44
 70
     1
102
RTVSPropertyOp45
 70
     1
102
RTVSPropertyOp46
 70
     1
102
RTVSPropertyOp47
 70
     1
102
RTVSPropertyOp48
 70
     1
102
RTVSPropertyOp49
 70
     1
102
RTVSPropertyOp50
 70
     1
102
RTVSPropertyOp51
 70
     0
102
RTVSPropertyOp52
 70
     0
102
RTVSPropertyOp53
 70
     1
102
RTVSPropertyOp54
 70
     1
102
RTVSPropertyOp55
 70
     1
102
RTVSPropertyOp56
 70
     1
102
RTVSPropertyOp57
 70
     1
102
RTVSPropertyOp58
 70
     1
102
RTVSPropertyOp59
 70
     1
102
RTVSPropertyOp60
 70
     1
102
RTVSPropertyOp61
 70
     1
102
RTVSPropertyOp62
 70
     1
  0
XRECORD
  5
A5CA
102
{ACAD_REACTORS
330
A5C9
102
}
330
A5C9
100
AcDbXrecord
280
     1
102
RTVSPost2010Prop28
280
     0
102
RTVSPost2010PropOp28
 70
     1
102
RTVSPost2010Prop29
280
     1
102
RTVSPost2010PropOp29
 70
     1
102
RTVSPost2010Prop30
280
     1
102
RTVSPost2010PropOp30
 70
     1
102
RTVSPost2010Prop31
280
     0
102
RTVSPost2010PropOp31
 70
     1
102
RTVSPost2010Prop32
280
     0
102
RTVSPost2010PropOp32
 70
     1
102
RTVSPost2010Prop33
280
     0
102
RTVSPost2010PropOp33
 70
     1
102
RTVSPost2010Prop34
280
     0
102
RTVSPost2010PropOp34
 70
     1
102
RTVSPost2010Prop35
280
     0
102
RTVSPost2010PropOp35
 70
     1
102
RTVSPost2010Prop36
280
     0
102
RTVSPost2010PropOp36
 70
     1
102
RTVSPost2010Prop37
 90
       50
102
RTVSPost2010PropOp37
 70
     1
102
RTVSPost2010Prop38
140
0.0
102
RTVSPost2010PropOp38
 70
     1
102
RTVSPost2010Prop39
140
1.0
102
RTVSPost2010PropOp39
 70
     1
102
RTVSPost2010Prop40
 90
        0
102
RTVSPost2010PropOp40
 70
     1
102
RTVSPost2010Prop41ColorIndex
 90
       18
102
RTVSPost2010Prop41ColorRGB
 90
        0
102
RTVSPost2010PropOp41
 70
     1
102
RTVSPost2010Prop42
 90
       50
102
RTVSPost2010PropOp42
 70
     1
102
RTVSPost2010Prop43
 90
        3
102
RTVSPost2010PropOp43
 70
     1
102
RTVSPost2010Prop44ColorIndex
 90
        5
102
RTVSPost2010Prop44ColorRGB
 90
      255
102
RTVSPost2010PropOp44
 70
     1
102
RTVSPost2010Prop45
280
     0
102
RTVSPost2010PropOp45
 70
     1
102
RTVSPost2010Prop46
 90
       50
102
RTVSPost2010PropOp46
 70
     1
102
RTVSPost2010Prop47
 90
       50
102
RTVSPost2010PropOp47
 70
     1
102
RTVSPost2010Prop48
 90
       50
102
RTVSPost2010PropOp48
 70
     1
102
RTVSPost2010Prop49
280
     0
102
RTVSPost2010PropOp49
 70
     1
102
RTVSPost2010Prop50
 90
       50
102
RTVSPost2010PropOp50
 70
     1
102
RTVSPost2010Prop51ColorIndex
 90
      256
102
RTVSPost2010Prop51ColorRGB
 90
-16777216
102
RTVSPost2010PropOp51
 70
     0
102
RTVSPost2010Prop52
140
1.0
102
RTVSPost2010PropOp52
 70
     0
102
RTVSPost2010Prop53
 90
        2
102
RTVSPost2010PropOp53
 70
     1
102
RTVSPost2010Prop54
  1
strokes_ogs.tif
102
RTVSPost2010PropOp54
 70
     1
102
RTVSPost2010Prop55
280
     0
102
RTVSPost2010PropOp55
 70
     1
102
RTVSPost2010Prop56
140
1.0
102
RTVSPost2010PropOp56
 70
     1
102
RTVSPost2010Prop57
140
1.0
102
RTVSPost2010PropOp57
 70
     1
102
RTVSPropertyOp0
 70
     1
102
RTVSPropertyOp1
 70
     1
102
RTVSPropertyOp2
 70
     1
102
RTVSPropertyOp3
 70
     1
102
RTVSPropertyOp4
 70
     1
102
RTVSPropertyOp5
 70
     1
102
RTVSPropertyOp6
 70
     1
102
RTVSPropertyOp7
 70
     1
102
RTVSPropertyOp8
 70
     1
102
RTVSPropertyOp9
 70
     1
102
RTVSPropertyOp10
 70
     1
102
RTVSPropertyOp11
 70
     1
102
RTVSPropertyOp12
 70
     1
102
RTVSPropertyOp13
 70
     1
102
RTVSPropertyOp14
 70
     1
102
RTVSPropertyOp15
 70
     1
102
RTVSPropertyOp16
 70
     1
102
RTVSPropertyOp17
 70
     1
102
RTVSPropertyOp18
 70
     1
102
RTVSPropertyOp19
 70
     1
102
RTVSPropertyOp20
 70
     1
102
RTVSPropertyOp21
 70
     1
102
RTVSPropertyOp22
 70
     1
102
RTVSPropertyOp23
 70
     1
102
RTVSPropertyOp24
 70
     1
102
RTVSPropertyOp25
 70
     1
102
RTVSPropertyOp26
 70
     1
102
RTVSPropertyOp27
 70
     1
102
RTVSPropertyOp28
 70
     1
102
RTVSPropertyOp29
 70
     1
102
RTVSPropertyOp30
 70
     1
102
RTVSPropertyOp31
 70
     1
102
RTVSPropertyOp32
 70
     1
102
RTVSPropertyOp33
 70
     1
102
RTVSPropertyOp34
 70
     1
102
RTVSPropertyOp35
 70
     1
102
RTVSPropertyOp36
 70
     1
102
RTVSPropertyOp37
 70
     1
102
RTVSPropertyOp38
 70
     1
102
RTVSPropertyOp39
 70
     1
102
RTVSPropertyOp40
 70
     1
102
RTVSPropertyOp41
 70
     1
102
RTVSPropertyOp42
 70
     1
102
RTVSPropertyOp43
 70
     1
102
RTVSPropertyOp44
 70
     1
102
RTVSPropertyOp45
 70
     1
102
RTVSPropertyOp46
 70
     1
102
RTVSPropertyOp47
 70
     1
102
RTVSPropertyOp48
 70
     1
102
RTVSPropertyOp49
 70
     1
102
RTVSPropertyOp50
 70
     1
102
RTVSPropertyOp51
 70
     0
102
RTVSPropertyOp52
 70
     0
102
RTVSPropertyOp53
 70
     1
102
RTVSPropertyOp54
 70
     1
102
RTVSPropertyOp55
 70
     1
102
RTVSPropertyOp56
 70
     1
102
RTVSPropertyOp57
 70
     1
102
RTVSPropertyOp58
 70
     1
102
RTVSPropertyOp59
 70
     1
102
RTVSPropertyOp60
 70
     1
102
RTVSPropertyOp61
 70
     1
102
RTVSPropertyOp62
 70
     1
  0
XRECORD
  5
A5CC
102
{ACAD_REACTORS
330
A5CB
102
}
330
A5CB
100
AcDbXrecord
280
     1
102
RTVSPost2010Prop28
280
     0
102
RTVSPost2010PropOp28
 70
     1
102
RTVSPost2010Prop29
280
     1
102
RTVSPost2010PropOp29
 70
     1
102
RTVSPost2010Prop30
280
     1
102
RTVSPost2010PropOp30
 70
     1
102
RTVSPost2010Prop31
280
     0
102
RTVSPost2010PropOp31
 70
     1
102
RTVSPost2010Prop32
280
     0
102
RTVSPost2010PropOp32
 70
     1
102
RTVSPost2010Prop33
280
     0
102
RTVSPost2010PropOp33
 70
     1
102
RTVSPost2010Prop34
280
     0
102
RTVSPost2010PropOp34
 70
     1
102
RTVSPost2010Prop35
280
     0
102
RTVSPost2010PropOp35
 70
     1
102
RTVSPost2010Prop36
280
     0
102
RTVSPost2010PropOp36
 70
     1
102
RTVSPost2010Prop37
 90
       50
102
RTVSPost2010PropOp37
 70
     1
102
RTVSPost2010Prop38
140
0.0
102
RTVSPost2010PropOp38
 70
     1
102
RTVSPost2010Prop39
140
1.0
102
RTVSPost2010PropOp39
 70
     1
102
RTVSPost2010Prop40
 90
        0
102
RTVSPost2010PropOp40
 70
     1
102
RTVSPost2010Prop41ColorIndex
 90
       18
102
RTVSPost2010Prop41ColorRGB
 90
        0
102
RTVSPost2010PropOp41
 70
     1
102
RTVSPost2010Prop42
 90
       50
102
RTVSPost2010PropOp42
 70
     1
102
RTVSPost2010Prop43
 90
        3
102
RTVSPost2010PropOp43
 70
     1
102
RTVSPost2010Prop44ColorIndex
 90
        5
102
RTVSPost2010Prop44ColorRGB
 90
      255
102
RTVSPost2010PropOp44
 70
     1
102
RTVSPost2010Prop45
280
     0
102
RTVSPost2010PropOp45
 70
     1
102
RTVSPost2010Prop46
 90
       50
102
RTVSPost2010PropOp46
 70
     1
102
RTVSPost2010Prop47
 90
       50
102
RTVSPost2010PropOp47
 70
     1
102
RTVSPost2010Prop48
 90
       50
102
RTVSPost2010PropOp48
 70
     1
102
RTVSPost2010Prop49
280
     0
102
RTVSPost2010PropOp49
 70
     1
102
RTVSPost2010Prop50
 90
       50
102
RTVSPost2010PropOp50
 70
     1
102
RTVSPost2010Prop51ColorIndex
 90
      256
102
RTVSPost2010Prop51ColorRGB
 90
-16777216
102
RTVSPost2010PropOp51
 70
     0
102
RTVSPost2010Prop52
140
1.0
102
RTVSPost2010PropOp52
 70
     0
102
RTVSPost2010Prop53
 90
        2
102
RTVSPost2010PropOp53
 70
     1
102
RTVSPost2010Prop54
  1
strokes_ogs.tif
102
RTVSPost2010PropOp54
 70
     1
102
RTVSPost2010Prop55
280
     0
102
RTVSPost2010PropOp55
 70
     1
102
RTVSPost2010Prop56
140
1.0
102
RTVSPost2010PropOp56
 70
     1
102
RTVSPost2010Prop57
140
1.0
102
RTVSPost2010PropOp57
 70
     1
102
RTVSPropertyOp0
 70
     1
102
RTVSPropertyOp1
 70
     1
102
RTVSPropertyOp2
 70
     1
102
RTVSPropertyOp3
 70
     1
102
RTVSPropertyOp4
 70
     1
102
RTVSPropertyOp5
 70
     1
102
RTVSPropertyOp6
 70
     1
102
RTVSPropertyOp7
 70
     1
102
RTVSPropertyOp8
 70
     1
102
RTVSPropertyOp9
 70
     1
102
RTVSPropertyOp10
 70
     1
102
RTVSPropertyOp11
 70
     1
102
RTVSPropertyOp12
 70
     1
102
RTVSPropertyOp13
 70
     1
102
RTVSPropertyOp14
 70
     1
102
RTVSPropertyOp15
 70
     1
102
RTVSPropertyOp16
 70
     1
102
RTVSPropertyOp17
 70
     1
102
RTVSPropertyOp18
 70
     1
102
RTVSPropertyOp19
 70
     1
102
RTVSPropertyOp20
 70
     1
102
RTVSPropertyOp21
 70
     1
102
RTVSPropertyOp22
 70
     1
102
RTVSPropertyOp23
 70
     1
102
RTVSPropertyOp24
 70
     1
102
RTVSPropertyOp25
 70
     1
102
RTVSPropertyOp26
 70
     1
102
RTVSPropertyOp27
 70
     1
102
RTVSPropertyOp28
 70
     1
102
RTVSPropertyOp29
 70
     1
102
RTVSPropertyOp30
 70
     1
102
RTVSPropertyOp31
 70
     1
102
RTVSPropertyOp32
 70
     1
102
RTVSPropertyOp33
 70
     1
102
RTVSPropertyOp34
 70
     1
102
RTVSPropertyOp35
 70
     1
102
RTVSPropertyOp36
 70
     1
102
RTVSPropertyOp37
 70
     1
102
RTVSPropertyOp38
 70
     1
102
RTVSPropertyOp39
 70
     1
102
RTVSPropertyOp40
 70
     1
102
RTVSPropertyOp41
 70
     1
102
RTVSPropertyOp42
 70
     1
102
RTVSPropertyOp43
 70
     1
102
RTVSPropertyOp44
 70
     1
102
RTVSPropertyOp45
 70
     1
102
RTVSPropertyOp46
 70
     1
102
RTVSPropertyOp47
 70
     1
102
RTVSPropertyOp48
 70
     1
102
RTVSPropertyOp49
 70
     1
102
RTVSPropertyOp50
 70
     1
102
RTVSPropertyOp51
 70
     0
102
RTVSPropertyOp52
 70
     0
102
RTVSPropertyOp53
 70
     1
102
RTVSPropertyOp54
 70
     1
102
RTVSPropertyOp55
 70
     1
102
RTVSPropertyOp56
 70
     1
102
RTVSPropertyOp57
 70
     1
102
RTVSPropertyOp58
 70
     1
102
RTVSPropertyOp59
 70
     1
102
RTVSPropertyOp60
 70
     1
102
RTVSPropertyOp61
 70
     1
102
RTVSPropertyOp62
 70
     1
  0
XRECORD
  5
A5CE
102
{ACAD_REACTORS
330
A5CD
102
}
330
A5CD
100
AcDbXrecord
280
     1
102
RTVSPost2010Prop28
280
     0
102
RTVSPost2010PropOp28
 70
     1
102
RTVSPost2010Prop29
280
     1
102
RTVSPost2010PropOp29
 70
     1
102
RTVSPost2010Prop30
280
     1
102
RTVSPost2010PropOp30
 70
     1
102
RTVSPost2010Prop31
280
     0
102
RTVSPost2010PropOp31
 70
     1
102
RTVSPost2010Prop32
280
     0
102
RTVSPost2010PropOp32
 70
     1
102
RTVSPost2010Prop33
280
     0
102
RTVSPost2010PropOp33
 70
     1
102
RTVSPost2010Prop34
280
     0
102
RTVSPost2010PropOp34
 70
     1
102
RTVSPost2010Prop35
280
     0
102
RTVSPost2010PropOp35
 70
     1
102
RTVSPost2010Prop36
280
     0
102
RTVSPost2010PropOp36
 70
     1
102
RTVSPost2010Prop37
 90
       50
102
RTVSPost2010PropOp37
 70
     1
102
RTVSPost2010Prop38
140
0.0
102
RTVSPost2010PropOp38
 70
     1
102
RTVSPost2010Prop39
140
1.0
102
RTVSPost2010PropOp39
 70
     1
102
RTVSPost2010Prop40
 90
        0
102
RTVSPost2010PropOp40
 70
     1
102
RTVSPost2010Prop41ColorIndex
 90
       18
102
RTVSPost2010Prop41ColorRGB
 90
        0
102
RTVSPost2010PropOp41
 70
     1
102
RTVSPost2010Prop42
 90
       50
102
RTVSPost2010PropOp42
 70
     1
102
RTVSPost2010Prop43
 90
        3
102
RTVSPost2010PropOp43
 70
     1
102
RTVSPost2010Prop44ColorIndex
 90
        5
102
RTVSPost2010Prop44ColorRGB
 90
      255
102
RTVSPost2010PropOp44
 70
     1
102
RTVSPost2010Prop45
280
     0
102
RTVSPost2010PropOp45
 70
     1
102
RTVSPost2010Prop46
 90
       50
102
RTVSPost2010PropOp46
 70
     1
102
RTVSPost2010Prop47
 90
       50
102
RTVSPost2010PropOp47
 70
     1
102
RTVSPost2010Prop48
 90
       50
102
RTVSPost2010PropOp48
 70
     1
102
RTVSPost2010Prop49
280
     0
102
RTVSPost2010PropOp49
 70
     1
102
RTVSPost2010Prop50
 90
       50
102
RTVSPost2010PropOp50
 70
     1
102
RTVSPost2010Prop51ColorIndex
 90
      256
102
RTVSPost2010Prop51ColorRGB
 90
-16777216
102
RTVSPost2010PropOp51
 70
     0
102
RTVSPost2010Prop52
140
1.0
102
RTVSPost2010PropOp52
 70
     0
102
RTVSPost2010Prop53
 90
        2
102
RTVSPost2010PropOp53
 70
     1
102
RTVSPost2010Prop54
  1
strokes_ogs.tif
102
RTVSPost2010PropOp54
 70
     1
102
RTVSPost2010Prop55
280
     0
102
RTVSPost2010PropOp55
 70
     1
102
RTVSPost2010Prop56
140
1.0
102
RTVSPost2010PropOp56
 70
     1
102
RTVSPost2010Prop57
140
1.0
102
RTVSPost2010PropOp57
 70
     1
102
RTVSPropertyOp0
 70
     1
102
RTVSPropertyOp1
 70
     1
102
RTVSPropertyOp2
 70
     1
102
RTVSPropertyOp3
 70
     1
102
RTVSPropertyOp4
 70
     1
102
RTVSPropertyOp5
 70
     1
102
RTVSPropertyOp6
 70
     1
102
RTVSPropertyOp7
 70
     1
102
RTVSPropertyOp8
 70
     1
102
RTVSPropertyOp9
 70
     1
102
RTVSPropertyOp10
 70
     1
102
RTVSPropertyOp11
 70
     1
102
RTVSPropertyOp12
 70
     1
102
RTVSPropertyOp13
 70
     1
102
RTVSPropertyOp14
 70
     1
102
RTVSPropertyOp15
 70
     1
102
RTVSPropertyOp16
 70
     1
102
RTVSPropertyOp17
 70
     1
102
RTVSPropertyOp18
 70
     1
102
RTVSPropertyOp19
 70
     1
102
RTVSPropertyOp20
 70
     1
102
RTVSPropertyOp21
 70
     1
102
RTVSPropertyOp22
 70
     1
102
RTVSPropertyOp23
 70
     1
102
RTVSPropertyOp24
 70
     1
102
RTVSPropertyOp25
 70
     1
102
RTVSPropertyOp26
 70
     1
102
RTVSPropertyOp27
 70
     1
102
RTVSPropertyOp28
 70
     1
102
RTVSPropertyOp29
 70
     1
102
RTVSPropertyOp30
 70
     1
102
RTVSPropertyOp31
 70
     1
102
RTVSPropertyOp32
 70
     1
102
RTVSPropertyOp33
 70
     1
102
RTVSPropertyOp34
 70
     1
102
RTVSPropertyOp35
 70
     1
102
RTVSPropertyOp36
 70
     1
102
RTVSPropertyOp37
 70
     1
102
RTVSPropertyOp38
 70
     1
102
RTVSPropertyOp39
 70
     1
102
RTVSPropertyOp40
 70
     1
102
RTVSPropertyOp41
 70
     1
102
RTVSPropertyOp42
 70
     1
102
RTVSPropertyOp43
 70
     1
102
RTVSPropertyOp44
 70
     1
102
RTVSPropertyOp45
 70
     1
102
RTVSPropertyOp46
 70
     1
102
RTVSPropertyOp47
 70
     1
102
RTVSPropertyOp48
 70
     1
102
RTVSPropertyOp49
 70
     1
102
RTVSPropertyOp50
 70
     1
102
RTVSPropertyOp51
 70
     0
102
RTVSPropertyOp52
 70
     0
102
RTVSPropertyOp53
 70
     1
102
RTVSPropertyOp54
 70
     1
102
RTVSPropertyOp55
 70
     1
102
RTVSPropertyOp56
 70
     1
102
RTVSPropertyOp57
 70
     1
102
RTVSPropertyOp58
 70
     1
102
RTVSPropertyOp59
 70
     1
102
RTVSPropertyOp60
 70
     1
102
RTVSPropertyOp61
 70
     1
102
RTVSPropertyOp62
 70
     1
  0
XRECORD
  5
A5D6
102
{ACAD_REACTORS
330
A5D5
102
}
330
A5D5
100
AcDbXrecord
280
     1
102
RTVSPost2010Prop28
280
     0
102
RTVSPost2010PropOp28
 70
     1
102
RTVSPost2010Prop29
280
     1
102
RTVSPost2010PropOp29
 70
     1
102
RTVSPost2010Prop30
280
     1
102
RTVSPost2010PropOp30
 70
     1
102
RTVSPost2010Prop31
280
     0
102
RTVSPost2010PropOp31
 70
     1
102
RTVSPost2010Prop32
280
     0
102
RTVSPost2010PropOp32
 70
     1
102
RTVSPost2010Prop33
280
     0
102
RTVSPost2010PropOp33
 70
     1
102
RTVSPost2010Prop34
280
     0
102
RTVSPost2010PropOp34
 70
     1
102
RTVSPost2010Prop35
280
     0
102
RTVSPost2010PropOp35
 70
     1
102
RTVSPost2010Prop36
280
     0
102
RTVSPost2010PropOp36
 70
     1
102
RTVSPost2010Prop37
 90
       50
102
RTVSPost2010PropOp37
 70
     1
102
RTVSPost2010Prop38
140
0.0
102
RTVSPost2010PropOp38
 70
     1
102
RTVSPost2010Prop39
140
1.0
102
RTVSPost2010PropOp39
 70
     1
102
RTVSPost2010Prop40
 90
        0
102
RTVSPost2010PropOp40
 70
     1
102
RTVSPost2010Prop41ColorIndex
 90
       18
102
RTVSPost2010Prop41ColorRGB
 90
        0
102
RTVSPost2010PropOp41
 70
     1
102
RTVSPost2010Prop42
 90
       50
102
RTVSPost2010PropOp42
 70
     1
102
RTVSPost2010Prop43
 90
        3
102
RTVSPost2010PropOp43
 70
     1
102
RTVSPost2010Prop44ColorIndex
 90
        5
102
RTVSPost2010Prop44ColorRGB
 90
      255
102
RTVSPost2010PropOp44
 70
     1
102
RTVSPost2010Prop45
280
     0
102
RTVSPost2010PropOp45
 70
     1
102
RTVSPost2010Prop46
 90
       50
102
RTVSPost2010PropOp46
 70
     1
102
RTVSPost2010Prop47
 90
       50
102
RTVSPost2010PropOp47
 70
     1
102
RTVSPost2010Prop48
 90
       50
102
RTVSPost2010PropOp48
 70
     1
102
RTVSPost2010Prop49
280
     0
102
RTVSPost2010PropOp49
 70
     1
102
RTVSPost2010Prop50
 90
       50
102
RTVSPost2010PropOp50
 70
     1
102
RTVSPost2010Prop51ColorIndex
 90
      256
102
RTVSPost2010Prop51ColorRGB
 90
-16777216
102
RTVSPost2010PropOp51
 70
     0
102
RTVSPost2010Prop52
140
1.0
102
RTVSPost2010PropOp52
 70
     0
102
RTVSPost2010Prop53
 90
        2
102
RTVSPost2010PropOp53
 70
     1
102
RTVSPost2010Prop54
  1
strokes_ogs.tif
102
RTVSPost2010PropOp54
 70
     1
102
RTVSPost2010Prop55
280
     0
102
RTVSPost2010PropOp55
 70
     1
102
RTVSPost2010Prop56
140
1.0
102
RTVSPost2010PropOp56
 70
     1
102
RTVSPost2010Prop57
140
1.0
102
RTVSPost2010PropOp57
 70
     1
102
RTVSPropertyOp0
 70
     1
102
RTVSPropertyOp1
 70
     1
102
RTVSPropertyOp2
 70
     1
102
RTVSPropertyOp3
 70
     1
102
RTVSPropertyOp4
 70
     1
102
RTVSPropertyOp5
 70
     1
102
RTVSPropertyOp6
 70
     1
102
RTVSPropertyOp7
 70
     1
102
RTVSPropertyOp8
 70
     1
102
RTVSPropertyOp9
 70
     1
102
RTVSPropertyOp10
 70
     1
102
RTVSPropertyOp11
 70
     1
102
RTVSPropertyOp12
 70
     1
102
RTVSPropertyOp13
 70
     1
102
RTVSPropertyOp14
 70
     1
102
RTVSPropertyOp15
 70
     1
102
RTVSPropertyOp16
 70
     1
102
RTVSPropertyOp17
 70
     1
102
RTVSPropertyOp18
 70
     1
102
RTVSPropertyOp19
 70
     1
102
RTVSPropertyOp20
 70
     1
102
RTVSPropertyOp21
 70
     1
102
RTVSPropertyOp22
 70
     1
102
RTVSPropertyOp23
 70
     1
102
RTVSPropertyOp24
 70
     1
102
RTVSPropertyOp25
 70
     1
102
RTVSPropertyOp26
 70
     1
102
RTVSPropertyOp27
 70
     1
102
RTVSPropertyOp28
 70
     1
102
RTVSPropertyOp29
 70
     1
102
RTVSPropertyOp30
 70
     1
102
RTVSPropertyOp31
 70
     1
102
RTVSPropertyOp32
 70
     1
102
RTVSPropertyOp33
 70
     1
102
RTVSPropertyOp34
 70
     1
102
RTVSPropertyOp35
 70
     1
102
RTVSPropertyOp36
 70
     1
102
RTVSPropertyOp37
 70
     1
102
RTVSPropertyOp38
 70
     1
102
RTVSPropertyOp39
 70
     1
102
RTVSPropertyOp40
 70
     1
102
RTVSPropertyOp41
 70
     1
102
RTVSPropertyOp42
 70
     1
102
RTVSPropertyOp43
 70
     1
102
RTVSPropertyOp44
 70
     1
102
RTVSPropertyOp45
 70
     1
102
RTVSPropertyOp46
 70
     1
102
RTVSPropertyOp47
 70
     1
102
RTVSPropertyOp48
 70
     1
102
RTVSPropertyOp49
 70
     1
102
RTVSPropertyOp50
 70
     1
102
RTVSPropertyOp51
 70
     0
102
RTVSPropertyOp52
 70
     0
102
RTVSPropertyOp53
 70
     1
102
RTVSPropertyOp54
 70
     1
102
RTVSPropertyOp55
 70
     1
102
RTVSPropertyOp56
 70
     1
102
RTVSPropertyOp57
 70
     1
102
RTVSPropertyOp58
 70
     1
102
RTVSPropertyOp59
 70
     1
102
RTVSPropertyOp60
 70
     1
102
RTVSPropertyOp61
 70
     1
102
RTVSPropertyOp62
 70
     1
  0
XRECORD
  5
A5F2
102
{ACAD_REACTORS
330
A5F1
102
}
330
A5F1
100
AcDbXrecord
280
     1
102
RTVSPost2010Prop28
280
     0
102
RTVSPost2010PropOp28
 70
     1
102
RTVSPost2010Prop29
280
     1
102
RTVSPost2010PropOp29
 70
     1
102
RTVSPost2010Prop30
280
     1
102
RTVSPost2010PropOp30
 70
     1
102
RTVSPost2010Prop31
280
     0
102
RTVSPost2010PropOp31
 70
     1
102
RTVSPost2010Prop32
280
     0
102
RTVSPost2010PropOp32
 70
     1
102
RTVSPost2010Prop33
280
     0
102
RTVSPost2010PropOp33
 70
     1
102
RTVSPost2010Prop34
280
     0
102
RTVSPost2010PropOp34
 70
     1
102
RTVSPost2010Prop35
280
     0
102
RTVSPost2010PropOp35
 70
     1
102
RTVSPost2010Prop36
280
     0
102
RTVSPost2010PropOp36
 70
     1
102
RTVSPost2010Prop37
 90
       50
102
RTVSPost2010PropOp37
 70
     0
102
RTVSPost2010Prop38
140
0.0
102
RTVSPost2010PropOp38
 70
     0
102
RTVSPost2010Prop39
140
1.0
102
RTVSPost2010PropOp39
 70
     0
102
RTVSPost2010Prop40
 90
        0
102
RTVSPost2010PropOp40
 70
     0
102
RTVSPost2010Prop41ColorIndex
 90
       18
102
RTVSPost2010Prop41ColorRGB
 90
        0
102
RTVSPost2010PropOp41
 70
     0
102
RTVSPost2010Prop42
 90
       50
102
RTVSPost2010PropOp42
 70
     0
102
RTVSPost2010Prop43
 90
        3
102
RTVSPost2010PropOp43
 70
     0
102
RTVSPost2010Prop44ColorIndex
 90
        5
102
RTVSPost2010Prop44ColorRGB
 90
      255
102
RTVSPost2010PropOp44
 70
     0
102
RTVSPost2010Prop45
280
     0
102
RTVSPost2010PropOp45
 70
     1
102
RTVSPost2010Prop46
 90
       50
102
RTVSPost2010PropOp46
 70
     0
102
RTVSPost2010Prop47
 90
       50
102
RTVSPost2010PropOp47
 70
     0
102
RTVSPost2010Prop48
 90
       50
102
RTVSPost2010PropOp48
 70
     0
102
RTVSPost2010Prop49
280
     0
102
RTVSPost2010PropOp49
 70
     1
102
RTVSPost2010Prop50
 90
       50
102
RTVSPost2010PropOp50
 70
     0
102
RTVSPost2010Prop51ColorIndex
 90
      256
102
RTVSPost2010Prop51ColorRGB
 90
-16777216
102
RTVSPost2010PropOp51
 70
     0
102
RTVSPost2010Prop52
140
1.0
102
RTVSPost2010PropOp52
 70
     0
102
RTVSPost2010Prop53
 90
        2
102
RTVSPost2010PropOp53
 70
     0
102
RTVSPost2010Prop54
  1
strokes_ogs.tif
102
RTVSPost2010PropOp54
 70
     0
102
RTVSPost2010Prop55
280
     0
102
RTVSPost2010PropOp55
 70
     1
102
RTVSPost2010Prop56
140
1.0
102
RTVSPost2010PropOp56
 70
     0
102
RTVSPost2010Prop57
140
1.0
102
RTVSPost2010PropOp57
 70
     0
102
RTVSPropertyOp0
 70
     0
102
RTVSPropertyOp1
 70
     0
102
RTVSPropertyOp2
 70
     0
102
RTVSPropertyOp3
 70
     0
102
RTVSPropertyOp4
 70
     0
102
RTVSPropertyOp5
 70
     0
102
RTVSPropertyOp6
 70
     0
102
RTVSPropertyOp7
 70
     0
102
RTVSPropertyOp8
 70
     0
102
RTVSPropertyOp9
 70
     0
102
RTVSPropertyOp10
 70
     0
102
RTVSPropertyOp11
 70
     0
102
RTVSPropertyOp12
 70
     0
102
RTVSPropertyOp13
 70
     0
102
RTVSPropertyOp14
 70
     2
102
RTVSPropertyOp15
 70
     0
102
RTVSPropertyOp16
 70
     0
102
RTVSPropertyOp17
 70
     0
102
RTVSPropertyOp18
 70
     0
102
RTVSPropertyOp19
 70
     0
102
RTVSPropertyOp20
 70
     0
102
RTVSPropertyOp21
 70
     0
102
RTVSPropertyOp22
 70
     0
102
RTVSPropertyOp23
 70
     0
102
RTVSPropertyOp24
 70
     0
102
RTVSPropertyOp25
 70
     0
102
RTVSPropertyOp26
 70
     0
102
RTVSPropertyOp27
 70
     0
102
RTVSPropertyOp28
 70
     1
102
RTVSPropertyOp29
 70
     1
102
RTVSPropertyOp30
 70
     1
102
RTVSPropertyOp31
 70
     1
102
RTVSPropertyOp32
 70
     1
102
RTVSPropertyOp33
 70
     1
102
RTVSPropertyOp34
 70
     1
102
RTVSPropertyOp35
 70
     1
102
RTVSPropertyOp36
 70
     1
102
RTVSPropertyOp37
 70
     0
102
RTVSPropertyOp38
 70
     0
102
RTVSPropertyOp39
 70
     0
102
RTVSPropertyOp40
 70
     0
102
RTVSPropertyOp41
 70
     0
102
RTVSPropertyOp42
 70
     0
102
RTVSPropertyOp43
 70
     0
102
RTVSPropertyOp44
 70
     0
102
RTVSPropertyOp45
 70
     1
102
RTVSPropertyOp46
 70
     0
102
RTVSPropertyOp47
 70
     0
102
RTVSPropertyOp48
 70
     0
102
RTVSPropertyOp49
 70
     1
102
RTVSPropertyOp50
 70
     0
102
RTVSPropertyOp51
 70
     0
102
RTVSPropertyOp52
 70
     0
102
RTVSPropertyOp53
 70
     0
102
RTVSPropertyOp54
 70
     0
102
RTVSPropertyOp55
 70
     1
102
RTVSPropertyOp56
 70
     0
102
RTVSPropertyOp57
 70
     0
102
RTVSPropertyOp58
 70
     0
102
RTVSPropertyOp59
 70
     0
102
RTVSPropertyOp60
 70
     0
102
RTVSPropertyOp61
 70
     0
102
RTVSPropertyOp62
 70
     0
  0
XRECORD
  5
A5E2
102
{ACAD_REACTORS
330
A5E1
102
}
330
A5E1
100
AcDbXrecord
280
     1
102
RTVSPost2010Prop28
280
     0
102
RTVSPost2010PropOp28
 70
     1
102
RTVSPost2010Prop29
280
     1
102
RTVSPost2010PropOp29
 70
     1
102
RTVSPost2010Prop30
280
     1
102
RTVSPost2010PropOp30
 70
     1
102
RTVSPost2010Prop31
280
     0
102
RTVSPost2010PropOp31
 70
     1
102
RTVSPost2010Prop32
280
     0
102
RTVSPost2010PropOp32
 70
     1
102
RTVSPost2010Prop33
280
     0
102
RTVSPost2010PropOp33
 70
     1
102
RTVSPost2010Prop34
280
     0
102
RTVSPost2010PropOp34
 70
     1
102
RTVSPost2010Prop35
280
     0
102
RTVSPost2010PropOp35
 70
     1
102
RTVSPost2010Prop36
280
     0
102
RTVSPost2010PropOp36
 70
     1
102
RTVSPost2010Prop37
 90
       50
102
RTVSPost2010PropOp37
 70
     1
102
RTVSPost2010Prop38
140
0.0
102
RTVSPost2010PropOp38
 70
     1
102
RTVSPost2010Prop39
140
1.0
102
RTVSPost2010PropOp39
 70
     1
102
RTVSPost2010Prop40
 90
        0
102
RTVSPost2010PropOp40
 70
     1
102
RTVSPost2010Prop41ColorIndex
 90
       18
102
RTVSPost2010Prop41ColorRGB
 90
        0
102
RTVSPost2010PropOp41
 70
     1
102
RTVSPost2010Prop42
 90
       50
102
RTVSPost2010PropOp42
 70
     1
102
RTVSPost2010Prop43
 90
        3
102
RTVSPost2010PropOp43
 70
     1
102
RTVSPost2010Prop44ColorIndex
 90
        5
102
RTVSPost2010Prop44ColorRGB
 90
      255
102
RTVSPost2010PropOp44
 70
     1
102
RTVSPost2010Prop45
280
     0
102
RTVSPost2010PropOp45
 70
     1
102
RTVSPost2010Prop46
 90
       50
102
RTVSPost2010PropOp46
 70
     1
102
RTVSPost2010Prop47
 90
       50
102
RTVSPost2010PropOp47
 70
     1
102
RTVSPost2010Prop48
 90
       50
102
RTVSPost2010PropOp48
 70
     1
102
RTVSPost2010Prop49
280
     0
102
RTVSPost2010PropOp49
 70
     1
102
RTVSPost2010Prop50
 90
       50
102
RTVSPost2010PropOp50
 70
     1
102
RTVSPost2010Prop51ColorIndex
 90
      256
102
RTVSPost2010Prop51ColorRGB
 90
-16777216
102
RTVSPost2010PropOp51
 70
     0
102
RTVSPost2010Prop52
140
1.0
102
RTVSPost2010PropOp52
 70
     0
102
RTVSPost2010Prop53
 90
        2
102
RTVSPost2010PropOp53
 70
     1
102
RTVSPost2010Prop54
  1
strokes_ogs.tif
102
RTVSPost2010PropOp54
 70
     1
102
RTVSPost2010Prop55
280
     0
102
RTVSPost2010PropOp55
 70
     1
102
RTVSPost2010Prop56
140
1.0
102
RTVSPost2010PropOp56
 70
     1
102
RTVSPost2010Prop57
140
1.0
102
RTVSPost2010PropOp57
 70
     1
102
RTVSPropertyOp0
 70
     1
102
RTVSPropertyOp1
 70
     1
102
RTVSPropertyOp2
 70
     1
102
RTVSPropertyOp3
 70
     1
102
RTVSPropertyOp4
 70
     1
102
RTVSPropertyOp5
 70
     1
102
RTVSPropertyOp6
 70
     1
102
RTVSPropertyOp7
 70
     1
102
RTVSPropertyOp8
 70
     1
102
RTVSPropertyOp9
 70
     1
102
RTVSPropertyOp10
 70
     1
102
RTVSPropertyOp11
 70
     1
102
RTVSPropertyOp12
 70
     1
102
RTVSPropertyOp13
 70
     1
102
RTVSPropertyOp14
 70
     1
102
RTVSPropertyOp15
 70
     1
102
RTVSPropertyOp16
 70
     1
102
RTVSPropertyOp17
 70
     1
102
RTVSPropertyOp18
 70
     1
102
RTVSPropertyOp19
 70
     1
102
RTVSPropertyOp20
 70
     1
102
RTVSPropertyOp21
 70
     1
102
RTVSPropertyOp22
 70
     1
102
RTVSPropertyOp23
 70
     1
102
RTVSPropertyOp24
 70
     1
102
RTVSPropertyOp25
 70
     1
102
RTVSPropertyOp26
 70
     1
102
RTVSPropertyOp27
 70
     1
102
RTVSPropertyOp28
 70
     1
102
RTVSPropertyOp29
 70
     1
102
RTVSPropertyOp30
 70
     1
102
RTVSPropertyOp31
 70
     1
102
RTVSPropertyOp32
 70
     1
102
RTVSPropertyOp33
 70
     1
102
RTVSPropertyOp34
 70
     1
102
RTVSPropertyOp35
 70
     1
102
RTVSPropertyOp36
 70
     1
102
RTVSPropertyOp37
 70
     1
102
RTVSPropertyOp38
 70
     1
102
RTVSPropertyOp39
 70
     1
102
RTVSPropertyOp40
 70
     1
102
RTVSPropertyOp41
 70
     1
102
RTVSPropertyOp42
 70
     1
102
RTVSPropertyOp43
 70
     1
102
RTVSPropertyOp44
 70
     1
102
RTVSPropertyOp45
 70
     1
102
RTVSPropertyOp46
 70
     1
102
RTVSPropertyOp47
 70
     1
102
RTVSPropertyOp48
 70
     1
102
RTVSPropertyOp49
 70
     1
102
RTVSPropertyOp50
 70
     1
102
RTVSPropertyOp51
 70
     0
102
RTVSPropertyOp52
 70
     0
102
RTVSPropertyOp53
 70
     1
102
RTVSPropertyOp54
 70
     1
102
RTVSPropertyOp55
 70
     1
102
RTVSPropertyOp56
 70
     1
102
RTVSPropertyOp57
 70
     1
102
RTVSPropertyOp58
 70
     1
102
RTVSPropertyOp59
 70
     1
102
RTVSPropertyOp60
 70
     1
102
RTVSPropertyOp61
 70
     1
102
RTVSPropertyOp62
 70
     1
  0
XRECORD
  5
A5F4
102
{ACAD_REACTORS
330
A5F3
102
}
330
A5F3
100
AcDbXrecord
280
     1
102
RTVSPost2010Prop28
280
     0
102
RTVSPost2010PropOp28
 70
     1
102
RTVSPost2010Prop29
280
     1
102
RTVSPost2010PropOp29
 70
     1
102
RTVSPost2010Prop30
280
     1
102
RTVSPost2010PropOp30
 70
     1
102
RTVSPost2010Prop31
280
     0
102
RTVSPost2010PropOp31
 70
     1
102
RTVSPost2010Prop32
280
     0
102
RTVSPost2010PropOp32
 70
     1
102
RTVSPost2010Prop33
280
     0
102
RTVSPost2010PropOp33
 70
     1
102
RTVSPost2010Prop34
280
     0
102
RTVSPost2010PropOp34
 70
     1
102
RTVSPost2010Prop35
280
     0
102
RTVSPost2010PropOp35
 70
     1
102
RTVSPost2010Prop36
280
     0
102
RTVSPost2010PropOp36
 70
     1
102
RTVSPost2010Prop37
 90
       50
102
RTVSPost2010PropOp37
 70
     0
102
RTVSPost2010Prop38
140
0.0
102
RTVSPost2010PropOp38
 70
     0
102
RTVSPost2010Prop39
140
1.0
102
RTVSPost2010PropOp39
 70
     0
102
RTVSPost2010Prop40
 90
        0
102
RTVSPost2010PropOp40
 70
     0
102
RTVSPost2010Prop41ColorIndex
 90
       18
102
RTVSPost2010Prop41ColorRGB
 90
        0
102
RTVSPost2010PropOp41
 70
     0
102
RTVSPost2010Prop42
 90
       50
102
RTVSPost2010PropOp42
 70
     0
102
RTVSPost2010Prop43
 90
        3
102
RTVSPost2010PropOp43
 70
     0
102
RTVSPost2010Prop44ColorIndex
 90
        5
102
RTVSPost2010Prop44ColorRGB
 90
      255
102
RTVSPost2010PropOp44
 70
     0
102
RTVSPost2010Prop45
280
     0
102
RTVSPost2010PropOp45
 70
     1
102
RTVSPost2010Prop46
 90
       50
102
RTVSPost2010PropOp46
 70
     0
102
RTVSPost2010Prop47
 90
       50
102
RTVSPost2010PropOp47
 70
     0
102
RTVSPost2010Prop48
 90
       50
102
RTVSPost2010PropOp48
 70
     0
102
RTVSPost2010Prop49
280
     0
102
RTVSPost2010PropOp49
 70
     1
102
RTVSPost2010Prop50
 90
       50
102
RTVSPost2010PropOp50
 70
     0
102
RTVSPost2010Prop51ColorIndex
 90
      256
102
RTVSPost2010Prop51ColorRGB
 90
-16777216
102
RTVSPost2010PropOp51
 70
     0
102
RTVSPost2010Prop52
140
1.0
102
RTVSPost2010PropOp52
 70
     0
102
RTVSPost2010Prop53
 90
        2
102
RTVSPost2010PropOp53
 70
     0
102
RTVSPost2010Prop54
  1
strokes_ogs.tif
102
RTVSPost2010PropOp54
 70
     0
102
RTVSPost2010Prop55
280
     0
102
RTVSPost2010PropOp55
 70
     1
102
RTVSPost2010Prop56
140
1.0
102
RTVSPost2010PropOp56
 70
     0
102
RTVSPost2010Prop57
140
1.0
102
RTVSPost2010PropOp57
 70
     0
102
RTVSPropertyOp0
 70
     0
102
RTVSPropertyOp1
 70
     0
102
RTVSPropertyOp2
 70
     0
102
RTVSPropertyOp3
 70
     0
102
RTVSPropertyOp4
 70
     0
102
RTVSPropertyOp5
 70
     0
102
RTVSPropertyOp6
 70
     0
102
RTVSPropertyOp7
 70
     0
102
RTVSPropertyOp8
 70
     0
102
RTVSPropertyOp9
 70
     0
102
RTVSPropertyOp10
 70
     0
102
RTVSPropertyOp11
 70
     0
102
RTVSPropertyOp12
 70
     0
102
RTVSPropertyOp13
 70
     0
102
RTVSPropertyOp14
 70
     2
102
RTVSPropertyOp15
 70
     0
102
RTVSPropertyOp16
 70
     0
102
RTVSPropertyOp17
 70
     0
102
RTVSPropertyOp18
 70
     0
102
RTVSPropertyOp19
 70
     0
102
RTVSPropertyOp20
 70
     0
102
RTVSPropertyOp21
 70
     0
102
RTVSPropertyOp22
 70
     0
102
RTVSPropertyOp23
 70
     0
102
RTVSPropertyOp24
 70
     0
102
RTVSPropertyOp25
 70
     0
102
RTVSPropertyOp26
 70
     0
102
RTVSPropertyOp27
 70
     0
102
RTVSPropertyOp28
 70
     1
102
RTVSPropertyOp29
 70
     1
102
RTVSPropertyOp30
 70
     1
102
RTVSPropertyOp31
 70
     1
102
RTVSPropertyOp32
 70
     1
102
RTVSPropertyOp33
 70
     1
102
RTVSPropertyOp34
 70
     1
102
RTVSPropertyOp35
 70
     1
102
RTVSPropertyOp36
 70
     1
102
RTVSPropertyOp37
 70
     0
102
RTVSPropertyOp38
 70
     0
102
RTVSPropertyOp39
 70
     0
102
RTVSPropertyOp40
 70
     0
102
RTVSPropertyOp41
 70
     0
102
RTVSPropertyOp42
 70
     0
102
RTVSPropertyOp43
 70
     0
102
RTVSPropertyOp44
 70
     0
102
RTVSPropertyOp45
 70
     1
102
RTVSPropertyOp46
 70
     0
102
RTVSPropertyOp47
 70
     0
102
RTVSPropertyOp48
 70
     0
102
RTVSPropertyOp49
 70
     1
102
RTVSPropertyOp50
 70
     0
102
RTVSPropertyOp51
 70
     0
102
RTVSPropertyOp52
 70
     0
102
RTVSPropertyOp53
 70
     0
102
RTVSPropertyOp54
 70
     0
102
RTVSPropertyOp55
 70
     1
102
RTVSPropertyOp56
 70
     0
102
RTVSPropertyOp57
 70
     0
102
RTVSPropertyOp58
 70
     0
102
RTVSPropertyOp59
 70
     0
102
RTVSPropertyOp60
 70
     0
102
RTVSPropertyOp61
 70
     0
102
RTVSPropertyOp62
 70
     0
  0
XRECORD
  5
A5DA
102
{ACAD_REACTORS
330
A5D9
102
}
330
A5D9
100
AcDbXrecord
280
     1
102
RTVSPost2010Prop28
280
     0
102
RTVSPost2010PropOp28
 70
     1
102
RTVSPost2010Prop29
280
     1
102
RTVSPost2010PropOp29
 70
     1
102
RTVSPost2010Prop30
280
     1
102
RTVSPost2010PropOp30
 70
     1
102
RTVSPost2010Prop31
280
     0
102
RTVSPost2010PropOp31
 70
     1
102
RTVSPost2010Prop32
280
     0
102
RTVSPost2010PropOp32
 70
     1
102
RTVSPost2010Prop33
280
     0
102
RTVSPost2010PropOp33
 70
     1
102
RTVSPost2010Prop34
280
     0
102
RTVSPost2010PropOp34
 70
     1
102
RTVSPost2010Prop35
280
     0
102
RTVSPost2010PropOp35
 70
     1
102
RTVSPost2010Prop36
280
     0
102
RTVSPost2010PropOp36
 70
     1
102
RTVSPost2010Prop37
 90
       50
102
RTVSPost2010PropOp37
 70
     1
102
RTVSPost2010Prop38
140
0.0
102
RTVSPost2010PropOp38
 70
     1
102
RTVSPost2010Prop39
140
1.0
102
RTVSPost2010PropOp39
 70
     1
102
RTVSPost2010Prop40
 90
        0
102
RTVSPost2010PropOp40
 70
     1
102
RTVSPost2010Prop41ColorIndex
 90
       18
102
RTVSPost2010Prop41ColorRGB
 90
        0
102
RTVSPost2010PropOp41
 70
     1
102
RTVSPost2010Prop42
 90
       50
102
RTVSPost2010PropOp42
 70
     1
102
RTVSPost2010Prop43
 90
        3
102
RTVSPost2010PropOp43
 70
     1
102
RTVSPost2010Prop44ColorIndex
 90
        5
102
RTVSPost2010Prop44ColorRGB
 90
      255
102
RTVSPost2010PropOp44
 70
     1
102
RTVSPost2010Prop45
280
     0
102
RTVSPost2010PropOp45
 70
     1
102
RTVSPost2010Prop46
 90
       50
102
RTVSPost2010PropOp46
 70
     1
102
RTVSPost2010Prop47
 90
       50
102
RTVSPost2010PropOp47
 70
     1
102
RTVSPost2010Prop48
 90
       50
102
RTVSPost2010PropOp48
 70
     1
102
RTVSPost2010Prop49
280
     0
102
RTVSPost2010PropOp49
 70
     1
102
RTVSPost2010Prop50
 90
       50
102
RTVSPost2010PropOp50
 70
     1
102
RTVSPost2010Prop51ColorIndex
 90
      256
102
RTVSPost2010Prop51ColorRGB
 90
-16777216
102
RTVSPost2010PropOp51
 70
     0
102
RTVSPost2010Prop52
140
1.0
102
RTVSPost2010PropOp52
 70
     0
102
RTVSPost2010Prop53
 90
        2
102
RTVSPost2010PropOp53
 70
     1
102
RTVSPost2010Prop54
  1
strokes_ogs.tif
102
RTVSPost2010PropOp54
 70
     1
102
RTVSPost2010Prop55
280
     0
102
RTVSPost2010PropOp55
 70
     1
102
RTVSPost2010Prop56
140
1.0
102
RTVSPost2010PropOp56
 70
     1
102
RTVSPost2010Prop57
140
1.0
102
RTVSPost2010PropOp57
 70
     1
102
RTVSPropertyOp0
 70
     1
102
RTVSPropertyOp1
 70
     1
102
RTVSPropertyOp2
 70
     1
102
RTVSPropertyOp3
 70
     1
102
RTVSPropertyOp4
 70
     1
102
RTVSPropertyOp5
 70
     1
102
RTVSPropertyOp6
 70
     1
102
RTVSPropertyOp7
 70
     1
102
RTVSPropertyOp8
 70
     1
102
RTVSPropertyOp9
 70
     1
102
RTVSPropertyOp10
 70
     1
102
RTVSPropertyOp11
 70
     1
102
RTVSPropertyOp12
 70
     1
102
RTVSPropertyOp13
 70
     1
102
RTVSPropertyOp14
 70
     1
102
RTVSPropertyOp15
 70
     1
102
RTVSPropertyOp16
 70
     1
102
RTVSPropertyOp17
 70
     1
102
RTVSPropertyOp18
 70
     1
102
RTVSPropertyOp19
 70
     1
102
RTVSPropertyOp20
 70
     1
102
RTVSPropertyOp21
 70
     1
102
RTVSPropertyOp22
 70
     1
102
RTVSPropertyOp23
 70
     1
102
RTVSPropertyOp24
 70
     1
102
RTVSPropertyOp25
 70
     1
102
RTVSPropertyOp26
 70
     1
102
RTVSPropertyOp27
 70
     1
102
RTVSPropertyOp28
 70
     1
102
RTVSPropertyOp29
 70
     1
102
RTVSPropertyOp30
 70
     1
102
RTVSPropertyOp31
 70
     1
102
RTVSPropertyOp32
 70
     1
102
RTVSPropertyOp33
 70
     1
102
RTVSPropertyOp34
 70
     1
102
RTVSPropertyOp35
 70
     1
102
RTVSPropertyOp36
 70
     1
102
RTVSPropertyOp37
 70
     1
102
RTVSPropertyOp38
 70
     1
102
RTVSPropertyOp39
 70
     1
102
RTVSPropertyOp40
 70
     1
102
RTVSPropertyOp41
 70
     1
102
RTVSPropertyOp42
 70
     1
102
RTVSPropertyOp43
 70
     1
102
RTVSPropertyOp44
 70
     1
102
RTVSPropertyOp45
 70
     1
102
RTVSPropertyOp46
 70
     1
102
RTVSPropertyOp47
 70
     1
102
RTVSPropertyOp48
 70
     1
102
RTVSPropertyOp49
 70
     1
102
RTVSPropertyOp50
 70
     1
102
RTVSPropertyOp51
 70
     0
102
RTVSPropertyOp52
 70
     0
102
RTVSPropertyOp53
 70
     1
102
RTVSPropertyOp54
 70
     1
102
RTVSPropertyOp55
 70
     1
102
RTVSPropertyOp56
 70
     1
102
RTVSPropertyOp57
 70
     1
102
RTVSPropertyOp58
 70
     1
102
RTVSPropertyOp59
 70
     1
102
RTVSPropertyOp60
 70
     1
102
RTVSPropertyOp61
 70
     1
102
RTVSPropertyOp62
 70
     1
  0
XRECORD
  5
A5F0
102
{ACAD_REACTORS
330
A5EF
102
}
330
A5EF
100
AcDbXrecord
280
     1
102
RTVSPost2010Prop28
280
     0
102
RTVSPost2010PropOp28
 70
     1
102
RTVSPost2010Prop29
280
     1
102
RTVSPost2010PropOp29
 70
     1
102
RTVSPost2010Prop30
280
     1
102
RTVSPost2010PropOp30
 70
     1
102
RTVSPost2010Prop31
280
     0
102
RTVSPost2010PropOp31
 70
     1
102
RTVSPost2010Prop32
280
     0
102
RTVSPost2010PropOp32
 70
     1
102
RTVSPost2010Prop33
280
     0
102
RTVSPost2010PropOp33
 70
     1
102
RTVSPost2010Prop34
280
     0
102
RTVSPost2010PropOp34
 70
     1
102
RTVSPost2010Prop35
280
     0
102
RTVSPost2010PropOp35
 70
     1
102
RTVSPost2010Prop36
280
     0
102
RTVSPost2010PropOp36
 70
     1
102
RTVSPost2010Prop37
 90
       50
102
RTVSPost2010PropOp37
 70
     1
102
RTVSPost2010Prop38
140
0.0
102
RTVSPost2010PropOp38
 70
     1
102
RTVSPost2010Prop39
140
1.0
102
RTVSPost2010PropOp39
 70
     1
102
RTVSPost2010Prop40
 90
        0
102
RTVSPost2010PropOp40
 70
     1
102
RTVSPost2010Prop41ColorIndex
 90
       18
102
RTVSPost2010Prop41ColorRGB
 90
        0
102
RTVSPost2010PropOp41
 70
     1
102
RTVSPost2010Prop42
 90
       50
102
RTVSPost2010PropOp42
 70
     1
102
RTVSPost2010Prop43
 90
        3
102
RTVSPost2010PropOp43
 70
     1
102
RTVSPost2010Prop44ColorIndex
 90
        5
102
RTVSPost2010Prop44ColorRGB
 90
      255
102
RTVSPost2010PropOp44
 70
     1
102
RTVSPost2010Prop45
280
     0
102
RTVSPost2010PropOp45
 70
     1
102
RTVSPost2010Prop46
 90
       50
102
RTVSPost2010PropOp46
 70
     1
102
RTVSPost2010Prop47
 90
       50
102
RTVSPost2010PropOp47
 70
     1
102
RTVSPost2010Prop48
 90
       50
102
RTVSPost2010PropOp48
 70
     1
102
RTVSPost2010Prop49
280
     0
102
RTVSPost2010PropOp49
 70
     1
102
RTVSPost2010Prop50
 90
       50
102
RTVSPost2010PropOp50
 70
     1
102
RTVSPost2010Prop51ColorIndex
 90
      256
102
RTVSPost2010Prop51ColorRGB
 90
-16777216
102
RTVSPost2010PropOp51
 70
     0
102
RTVSPost2010Prop52
140
1.0
102
RTVSPost2010PropOp52
 70
     0
102
RTVSPost2010Prop53
 90
        2
102
RTVSPost2010PropOp53
 70
     1
102
RTVSPost2010Prop54
  1
strokes_ogs.tif
102
RTVSPost2010PropOp54
 70
     1
102
RTVSPost2010Prop55
280
     0
102
RTVSPost2010PropOp55
 70
     1
102
RTVSPost2010Prop56
140
1.0
102
RTVSPost2010PropOp56
 70
     1
102
RTVSPost2010Prop57
140
1.0
102
RTVSPost2010PropOp57
 70
     1
102
RTVSPropertyOp0
 70
     1
102
RTVSPropertyOp1
 70
     1
102
RTVSPropertyOp2
 70
     1
102
RTVSPropertyOp3
 70
     1
102
RTVSPropertyOp4
 70
     1
102
RTVSPropertyOp5
 70
     1
102
RTVSPropertyOp6
 70
     1
102
RTVSPropertyOp7
 70
     1
102
RTVSPropertyOp8
 70
     1
102
RTVSPropertyOp9
 70
     1
102
RTVSPropertyOp10
 70
     1
102
RTVSPropertyOp11
 70
     1
102
RTVSPropertyOp12
 70
     1
102
RTVSPropertyOp13
 70
     1
102
RTVSPropertyOp14
 70
     1
102
RTVSPropertyOp15
 70
     1
102
RTVSPropertyOp16
 70
     1
102
RTVSPropertyOp17
 70
     1
102
RTVSPropertyOp18
 70
     1
102
RTVSPropertyOp19
 70
     1
102
RTVSPropertyOp20
 70
     1
102
RTVSPropertyOp21
 70
     1
102
RTVSPropertyOp22
 70
     1
102
RTVSPropertyOp23
 70
     1
102
RTVSPropertyOp24
 70
     1
102
RTVSPropertyOp25
 70
     1
102
RTVSPropertyOp26
 70
     1
102
RTVSPropertyOp27
 70
     1
102
RTVSPropertyOp28
 70
     1
102
RTVSPropertyOp29
 70
     1
102
RTVSPropertyOp30
 70
     1
102
RTVSPropertyOp31
 70
     1
102
RTVSPropertyOp32
 70
     1
102
RTVSPropertyOp33
 70
     1
102
RTVSPropertyOp34
 70
     1
102
RTVSPropertyOp35
 70
     1
102
RTVSPropertyOp36
 70
     1
102
RTVSPropertyOp37
 70
     1
102
RTVSPropertyOp38
 70
     1
102
RTVSPropertyOp39
 70
     1
102
RTVSPropertyOp40
 70
     1
102
RTVSPropertyOp41
 70
     1
102
RTVSPropertyOp42
 70
     1
102
RTVSPropertyOp43
 70
     1
102
RTVSPropertyOp44
 70
     1
102
RTVSPropertyOp45
 70
     1
102
RTVSPropertyOp46
 70
     1
102
RTVSPropertyOp47
 70
     1
102
RTVSPropertyOp48
 70
     1
102
RTVSPropertyOp49
 70
     1
102
RTVSPropertyOp50
 70
     1
102
RTVSPropertyOp51
 70
     0
102
RTVSPropertyOp52
 70
     0
102
RTVSPropertyOp53
 70
     1
102
RTVSPropertyOp54
 70
     1
102
RTVSPropertyOp55
 70
     1
102
RTVSPropertyOp56
 70
     1
102
RTVSPropertyOp57
 70
     1
102
RTVSPropertyOp58
 70
     1
102
RTVSPropertyOp59
 70
     1
102
RTVSPropertyOp60
 70
     1
102
RTVSPropertyOp61
 70
     1
102
RTVSPropertyOp62
 70
     1
  0
XRECORD
  5
A5EE
102
{ACAD_REACTORS
330
A5ED
102
}
330
A5ED
100
AcDbXrecord
280
     1
102
RTVSPost2010Prop28
280
     0
102
RTVSPost2010PropOp28
 70
     1
102
RTVSPost2010Prop29
280
     1
102
RTVSPost2010PropOp29
 70
     1
102
RTVSPost2010Prop30
280
     1
102
RTVSPost2010PropOp30
 70
     1
102
RTVSPost2010Prop31
280
     0
102
RTVSPost2010PropOp31
 70
     1
102
RTVSPost2010Prop32
280
     0
102
RTVSPost2010PropOp32
 70
     1
102
RTVSPost2010Prop33
280
     0
102
RTVSPost2010PropOp33
 70
     1
102
RTVSPost2010Prop34
280
     0
102
RTVSPost2010PropOp34
 70
     1
102
RTVSPost2010Prop35
280
     0
102
RTVSPost2010PropOp35
 70
     1
102
RTVSPost2010Prop36
280
     0
102
RTVSPost2010PropOp36
 70
     1
102
RTVSPost2010Prop37
 90
       50
102
RTVSPost2010PropOp37
 70
     1
102
RTVSPost2010Prop38
140
0.0
102
RTVSPost2010PropOp38
 70
     1
102
RTVSPost2010Prop39
140
1.0
102
RTVSPost2010PropOp39
 70
     1
102
RTVSPost2010Prop40
 90
        0
102
RTVSPost2010PropOp40
 70
     1
102
RTVSPost2010Prop41ColorIndex
 90
       18
102
RTVSPost2010Prop41ColorRGB
 90
        0
102
RTVSPost2010PropOp41
 70
     1
102
RTVSPost2010Prop42
 90
       50
102
RTVSPost2010PropOp42
 70
     1
102
RTVSPost2010Prop43
 90
        3
102
RTVSPost2010PropOp43
 70
     1
102
RTVSPost2010Prop44ColorIndex
 90
        5
102
RTVSPost2010Prop44ColorRGB
 90
      255
102
RTVSPost2010PropOp44
 70
     1
102
RTVSPost2010Prop45
280
     0
102
RTVSPost2010PropOp45
 70
     1
102
RTVSPost2010Prop46
 90
       50
102
RTVSPost2010PropOp46
 70
     1
102
RTVSPost2010Prop47
 90
       50
102
RTVSPost2010PropOp47
 70
     1
102
RTVSPost2010Prop48
 90
       50
102
RTVSPost2010PropOp48
 70
     1
102
RTVSPost2010Prop49
280
     0
102
RTVSPost2010PropOp49
 70
     1
102
RTVSPost2010Prop50
 90
       50
102
RTVSPost2010PropOp50
 70
     1
102
RTVSPost2010Prop51ColorIndex
 90
      256
102
RTVSPost2010Prop51ColorRGB
 90
-16777216
102
RTVSPost2010PropOp51
 70
     0
102
RTVSPost2010Prop52
140
1.0
102
RTVSPost2010PropOp52
 70
     0
102
RTVSPost2010Prop53
 90
        2
102
RTVSPost2010PropOp53
 70
     1
102
RTVSPost2010Prop54
  1
strokes_ogs.tif
102
RTVSPost2010PropOp54
 70
     1
102
RTVSPost2010Prop55
280
     0
102
RTVSPost2010PropOp55
 70
     1
102
RTVSPost2010Prop56
140
1.0
102
RTVSPost2010PropOp56
 70
     1
102
RTVSPost2010Prop57
140
1.0
102
RTVSPost2010PropOp57
 70
     1
102
RTVSPropertyOp0
 70
     1
102
RTVSPropertyOp1
 70
     1
102
RTVSPropertyOp2
 70
     1
102
RTVSPropertyOp3
 70
     1
102
RTVSPropertyOp4
 70
     1
102
RTVSPropertyOp5
 70
     1
102
RTVSPropertyOp6
 70
     1
102
RTVSPropertyOp7
 70
     1
102
RTVSPropertyOp8
 70
     1
102
RTVSPropertyOp9
 70
     1
102
RTVSPropertyOp10
 70
     1
102
RTVSPropertyOp11
 70
     1
102
RTVSPropertyOp12
 70
     1
102
RTVSPropertyOp13
 70
     1
102
RTVSPropertyOp14
 70
     1
102
RTVSPropertyOp15
 70
     1
102
RTVSPropertyOp16
 70
     1
102
RTVSPropertyOp17
 70
     1
102
RTVSPropertyOp18
 70
     1
102
RTVSPropertyOp19
 70
     1
102
RTVSPropertyOp20
 70
     1
102
RTVSPropertyOp21
 70
     1
102
RTVSPropertyOp22
 70
     1
102
RTVSPropertyOp23
 70
     1
102
RTVSPropertyOp24
 70
     1
102
RTVSPropertyOp25
 70
     1
102
RTVSPropertyOp26
 70
     1
102
RTVSPropertyOp27
 70
     1
102
RTVSPropertyOp28
 70
     1
102
RTVSPropertyOp29
 70
     1
102
RTVSPropertyOp30
 70
     1
102
RTVSPropertyOp31
 70
     1
102
RTVSPropertyOp32
 70
     1
102
RTVSPropertyOp33
 70
     1
102
RTVSPropertyOp34
 70
     1
102
RTVSPropertyOp35
 70
     1
102
RTVSPropertyOp36
 70
     1
102
RTVSPropertyOp37
 70
     1
102
RTVSPropertyOp38
 70
     1
102
RTVSPropertyOp39
 70
     1
102
RTVSPropertyOp40
 70
     1
102
RTVSPropertyOp41
 70
     1
102
RTVSPropertyOp42
 70
     1
102
RTVSPropertyOp43
 70
     1
102
RTVSPropertyOp44
 70
     1
102
RTVSPropertyOp45
 70
     1
102
RTVSPropertyOp46
 70
     1
102
RTVSPropertyOp47
 70
     1
102
RTVSPropertyOp48
 70
     1
102
RTVSPropertyOp49
 70
     1
102
RTVSPropertyOp50
 70
     1
102
RTVSPropertyOp51
 70
     0
102
RTVSPropertyOp52
 70
     0
102
RTVSPropertyOp53
 70
     1
102
RTVSPropertyOp54
 70
     1
102
RTVSPropertyOp55
 70
     1
102
RTVSPropertyOp56
 70
     1
102
RTVSPropertyOp57
 70
     1
102
RTVSPropertyOp58
 70
     1
102
RTVSPropertyOp59
 70
     1
102
RTVSPropertyOp60
 70
     1
102
RTVSPropertyOp61
 70
     1
102
RTVSPropertyOp62
 70
     1
  0
XRECORD
  5
A5E8
102
{ACAD_REACTORS
330
A5E7
102
}
330
A5E7
100
AcDbXrecord
280
     1
102
RTVSPost2010Prop28
280
     0
102
RTVSPost2010PropOp28
 70
     1
102
RTVSPost2010Prop29
280
     1
102
RTVSPost2010PropOp29
 70
     1
102
RTVSPost2010Prop30
280
     1
102
RTVSPost2010PropOp30
 70
     1
102
RTVSPost2010Prop31
280
     0
102
RTVSPost2010PropOp31
 70
     1
102
RTVSPost2010Prop32
280
     0
102
RTVSPost2010PropOp32
 70
     1
102
RTVSPost2010Prop33
280
     0
102
RTVSPost2010PropOp33
 70
     1
102
RTVSPost2010Prop34
280
     0
102
RTVSPost2010PropOp34
 70
     1
102
RTVSPost2010Prop35
280
     0
102
RTVSPost2010PropOp35
 70
     1
102
RTVSPost2010Prop36
280
     0
102
RTVSPost2010PropOp36
 70
     1
102
RTVSPost2010Prop37
 90
       50
102
RTVSPost2010PropOp37
 70
     1
102
RTVSPost2010Prop38
140
0.0
102
RTVSPost2010PropOp38
 70
     1
102
RTVSPost2010Prop39
140
1.0
102
RTVSPost2010PropOp39
 70
     1
102
RTVSPost2010Prop40
 90
        0
102
RTVSPost2010PropOp40
 70
     1
102
RTVSPost2010Prop41ColorIndex
 90
       18
102
RTVSPost2010Prop41ColorRGB
 90
        0
102
RTVSPost2010PropOp41
 70
     1
102
RTVSPost2010Prop42
 90
       50
102
RTVSPost2010PropOp42
 70
     1
102
RTVSPost2010Prop43
 90
        3
102
RTVSPost2010PropOp43
 70
     1
102
RTVSPost2010Prop44ColorIndex
 90
        5
102
RTVSPost2010Prop44ColorRGB
 90
      255
102
RTVSPost2010PropOp44
 70
     1
102
RTVSPost2010Prop45
280
     0
102
RTVSPost2010PropOp45
 70
     1
102
RTVSPost2010Prop46
 90
       50
102
RTVSPost2010PropOp46
 70
     1
102
RTVSPost2010Prop47
 90
       50
102
RTVSPost2010PropOp47
 70
     1
102
RTVSPost2010Prop48
 90
       50
102
RTVSPost2010PropOp48
 70
     1
102
RTVSPost2010Prop49
280
     0
102
RTVSPost2010PropOp49
 70
     1
102
RTVSPost2010Prop50
 90
       50
102
RTVSPost2010PropOp50
 70
     1
102
RTVSPost2010Prop51ColorIndex
 90
      256
102
RTVSPost2010Prop51ColorRGB
 90
-16777216
102
RTVSPost2010PropOp51
 70
     0
102
RTVSPost2010Prop52
140
1.0
102
RTVSPost2010PropOp52
 70
     0
102
RTVSPost2010Prop53
 90
        2
102
RTVSPost2010PropOp53
 70
     1
102
RTVSPost2010Prop54
  1
strokes_ogs.tif
102
RTVSPost2010PropOp54
 70
     1
102
RTVSPost2010Prop55
280
     0
102
RTVSPost2010PropOp55
 70
     1
102
RTVSPost2010Prop56
140
1.0
102
RTVSPost2010PropOp56
 70
     1
102
RTVSPost2010Prop57
140
1.0
102
RTVSPost2010PropOp57
 70
     1
102
RTVSPropertyOp0
 70
     1
102
RTVSPropertyOp1
 70
     1
102
RTVSPropertyOp2
 70
     1
102
RTVSPropertyOp3
 70
     1
102
RTVSPropertyOp4
 70
     1
102
RTVSPropertyOp5
 70
     1
102
RTVSPropertyOp6
 70
     1
102
RTVSPropertyOp7
 70
     1
102
RTVSPropertyOp8
 70
     1
102
RTVSPropertyOp9
 70
     1
102
RTVSPropertyOp10
 70
     1
102
RTVSPropertyOp11
 70
     1
102
RTVSPropertyOp12
 70
     1
102
RTVSPropertyOp13
 70
     1
102
RTVSPropertyOp14
 70
     1
102
RTVSPropertyOp15
 70
     1
102
RTVSPropertyOp16
 70
     1
102
RTVSPropertyOp17
 70
     1
102
RTVSPropertyOp18
 70
     1
102
RTVSPropertyOp19
 70
     1
102
RTVSPropertyOp20
 70
     1
102
RTVSPropertyOp21
 70
     1
102
RTVSPropertyOp22
 70
     1
102
RTVSPropertyOp23
 70
     1
102
RTVSPropertyOp24
 70
     1
102
RTVSPropertyOp25
 70
     1
102
RTVSPropertyOp26
 70
     1
102
RTVSPropertyOp27
 70
     1
102
RTVSPropertyOp28
 70
     1
102
RTVSPropertyOp29
 70
     1
102
RTVSPropertyOp30
 70
     1
102
RTVSPropertyOp31
 70
     1
102
RTVSPropertyOp32
 70
     1
102
RTVSPropertyOp33
 70
     1
102
RTVSPropertyOp34
 70
     1
102
RTVSPropertyOp35
 70
     1
102
RTVSPropertyOp36
 70
     1
102
RTVSPropertyOp37
 70
     1
102
RTVSPropertyOp38
 70
     1
102
RTVSPropertyOp39
 70
     1
102
RTVSPropertyOp40
 70
     1
102
RTVSPropertyOp41
 70
     1
102
RTVSPropertyOp42
 70
     1
102
RTVSPropertyOp43
 70
     1
102
RTVSPropertyOp44
 70
     1
102
RTVSPropertyOp45
 70
     1
102
RTVSPropertyOp46
 70
     1
102
RTVSPropertyOp47
 70
     1
102
RTVSPropertyOp48
 70
     1
102
RTVSPropertyOp49
 70
     1
102
RTVSPropertyOp50
 70
     1
102
RTVSPropertyOp51
 70
     0
102
RTVSPropertyOp52
 70
     0
102
RTVSPropertyOp53
 70
     1
102
RTVSPropertyOp54
 70
     1
102
RTVSPropertyOp55
 70
     1
102
RTVSPropertyOp56
 70
     1
102
RTVSPropertyOp57
 70
     1
102
RTVSPropertyOp58
 70
     1
102
RTVSPropertyOp59
 70
     1
102
RTVSPropertyOp60
 70
     1
102
RTVSPropertyOp61
 70
     1
102
RTVSPropertyOp62
 70
     1
  0
XRECORD
  5
A5EA
102
{ACAD_REACTORS
330
A5E9
102
}
330
A5E9
100
AcDbXrecord
280
     1
102
RTVSPost2010Prop28
280
     0
102
RTVSPost2010PropOp28
 70
     1
102
RTVSPost2010Prop29
280
     1
102
RTVSPost2010PropOp29
 70
     1
102
RTVSPost2010Prop30
280
     1
102
RTVSPost2010PropOp30
 70
     1
102
RTVSPost2010Prop31
280
     0
102
RTVSPost2010PropOp31
 70
     1
102
RTVSPost2010Prop32
280
     0
102
RTVSPost2010PropOp32
 70
     1
102
RTVSPost2010Prop33
280
     0
102
RTVSPost2010PropOp33
 70
     1
102
RTVSPost2010Prop34
280
     0
102
RTVSPost2010PropOp34
 70
     1
102
RTVSPost2010Prop35
280
     0
102
RTVSPost2010PropOp35
 70
     1
102
RTVSPost2010Prop36
280
     0
102
RTVSPost2010PropOp36
 70
     1
102
RTVSPost2010Prop37
 90
       50
102
RTVSPost2010PropOp37
 70
     1
102
RTVSPost2010Prop38
140
0.0
102
RTVSPost2010PropOp38
 70
     1
102
RTVSPost2010Prop39
140
1.0
102
RTVSPost2010PropOp39
 70
     1
102
RTVSPost2010Prop40
 90
        0
102
RTVSPost2010PropOp40
 70
     1
102
RTVSPost2010Prop41ColorIndex
 90
       18
102
RTVSPost2010Prop41ColorRGB
 90
        0
102
RTVSPost2010PropOp41
 70
     1
102
RTVSPost2010Prop42
 90
       50
102
RTVSPost2010PropOp42
 70
     1
102
RTVSPost2010Prop43
 90
        3
102
RTVSPost2010PropOp43
 70
     1
102
RTVSPost2010Prop44ColorIndex
 90
        5
102
RTVSPost2010Prop44ColorRGB
 90
      255
102
RTVSPost2010PropOp44
 70
     1
102
RTVSPost2010Prop45
280
     0
102
RTVSPost2010PropOp45
 70
     1
102
RTVSPost2010Prop46
 90
       50
102
RTVSPost2010PropOp46
 70
     1
102
RTVSPost2010Prop47
 90
       50
102
RTVSPost2010PropOp47
 70
     1
102
RTVSPost2010Prop48
 90
       50
102
RTVSPost2010PropOp48
 70
     1
102
RTVSPost2010Prop49
280
     0
102
RTVSPost2010PropOp49
 70
     1
102
RTVSPost2010Prop50
 90
       50
102
RTVSPost2010PropOp50
 70
     1
102
RTVSPost2010Prop51ColorIndex
 90
      256
102
RTVSPost2010Prop51ColorRGB
 90
-16777216
102
RTVSPost2010PropOp51
 70
     0
102
RTVSPost2010Prop52
140
1.0
102
RTVSPost2010PropOp52
 70
     0
102
RTVSPost2010Prop53
 90
        2
102
RTVSPost2010PropOp53
 70
     1
102
RTVSPost2010Prop54
  1
strokes_ogs.tif
102
RTVSPost2010PropOp54
 70
     1
102
RTVSPost2010Prop55
280
     0
102
RTVSPost2010PropOp55
 70
     1
102
RTVSPost2010Prop56
140
1.0
102
RTVSPost2010PropOp56
 70
     1
102
RTVSPost2010Prop57
140
1.0
102
RTVSPost2010PropOp57
 70
     1
102
RTVSPropertyOp0
 70
     1
102
RTVSPropertyOp1
 70
     1
102
RTVSPropertyOp2
 70
     1
102
RTVSPropertyOp3
 70
     1
102
RTVSPropertyOp4
 70
     1
102
RTVSPropertyOp5
 70
     1
102
RTVSPropertyOp6
 70
     1
102
RTVSPropertyOp7
 70
     1
102
RTVSPropertyOp8
 70
     1
102
RTVSPropertyOp9
 70
     1
102
RTVSPropertyOp10
 70
     1
102
RTVSPropertyOp11
 70
     1
102
RTVSPropertyOp12
 70
     1
102
RTVSPropertyOp13
 70
     1
102
RTVSPropertyOp14
 70
     1
102
RTVSPropertyOp15
 70
     1
102
RTVSPropertyOp16
 70
     1
102
RTVSPropertyOp17
 70
     1
102
RTVSPropertyOp18
 70
     1
102
RTVSPropertyOp19
 70
     1
102
RTVSPropertyOp20
 70
     1
102
RTVSPropertyOp21
 70
     1
102
RTVSPropertyOp22
 70
     1
102
RTVSPropertyOp23
 70
     1
102
RTVSPropertyOp24
 70
     1
102
RTVSPropertyOp25
 70
     1
102
RTVSPropertyOp26
 70
     1
102
RTVSPropertyOp27
 70
     1
102
RTVSPropertyOp28
 70
     1
102
RTVSPropertyOp29
 70
     1
102
RTVSPropertyOp30
 70
     1
102
RTVSPropertyOp31
 70
     1
102
RTVSPropertyOp32
 70
     1
102
RTVSPropertyOp33
 70
     1
102
RTVSPropertyOp34
 70
     1
102
RTVSPropertyOp35
 70
     1
102
RTVSPropertyOp36
 70
     1
102
RTVSPropertyOp37
 70
     1
102
RTVSPropertyOp38
 70
     1
102
RTVSPropertyOp39
 70
     1
102
RTVSPropertyOp40
 70
     1
102
RTVSPropertyOp41
 70
     1
102
RTVSPropertyOp42
 70
     1
102
RTVSPropertyOp43
 70
     1
102
RTVSPropertyOp44
 70
     1
102
RTVSPropertyOp45
 70
     1
102
RTVSPropertyOp46
 70
     1
102
RTVSPropertyOp47
 70
     1
102
RTVSPropertyOp48
 70
     1
102
RTVSPropertyOp49
 70
     1
102
RTVSPropertyOp50
 70
     1
102
RTVSPropertyOp51
 70
     0
102
RTVSPropertyOp52
 70
     0
102
RTVSPropertyOp53
 70
     1
102
RTVSPropertyOp54
 70
     1
102
RTVSPropertyOp55
 70
     1
102
RTVSPropertyOp56
 70
     1
102
RTVSPropertyOp57
 70
     1
102
RTVSPropertyOp58
 70
     1
102
RTVSPropertyOp59
 70
     1
102
RTVSPropertyOp60
 70
     1
102
RTVSPropertyOp61
 70
     1
102
RTVSPropertyOp62
 70
     1
  0
XRECORD
  5
A5E0
102
{ACAD_REACTORS
330
A5DF
102
}
330
A5DF
100
AcDbXrecord
280
     1
102
RTVSPost2010Prop28
280
     0
102
RTVSPost2010PropOp28
 70
     1
102
RTVSPost2010Prop29
280
     1
102
RTVSPost2010PropOp29
 70
     1
102
RTVSPost2010Prop30
280
     1
102
RTVSPost2010PropOp30
 70
     1
102
RTVSPost2010Prop31
280
     0
102
RTVSPost2010PropOp31
 70
     1
102
RTVSPost2010Prop32
280
     0
102
RTVSPost2010PropOp32
 70
     1
102
RTVSPost2010Prop33
280
     0
102
RTVSPost2010PropOp33
 70
     1
102
RTVSPost2010Prop34
280
     0
102
RTVSPost2010PropOp34
 70
     1
102
RTVSPost2010Prop35
280
     0
102
RTVSPost2010PropOp35
 70
     1
102
RTVSPost2010Prop36
280
     0
102
RTVSPost2010PropOp36
 70
     1
102
RTVSPost2010Prop37
 90
       50
102
RTVSPost2010PropOp37
 70
     1
102
RTVSPost2010Prop38
140
0.0
102
RTVSPost2010PropOp38
 70
     1
102
RTVSPost2010Prop39
140
1.0
102
RTVSPost2010PropOp39
 70
     1
102
RTVSPost2010Prop40
 90
        0
102
RTVSPost2010PropOp40
 70
     1
102
RTVSPost2010Prop41ColorIndex
 90
       18
102
RTVSPost2010Prop41ColorRGB
 90
        0
102
RTVSPost2010PropOp41
 70
     1
102
RTVSPost2010Prop42
 90
       50
102
RTVSPost2010PropOp42
 70
     1
102
RTVSPost2010Prop43
 90
        3
102
RTVSPost2010PropOp43
 70
     1
102
RTVSPost2010Prop44ColorIndex
 90
        5
102
RTVSPost2010Prop44ColorRGB
 90
      255
102
RTVSPost2010PropOp44
 70
     1
102
RTVSPost2010Prop45
280
     0
102
RTVSPost2010PropOp45
 70
     1
102
RTVSPost2010Prop46
 90
       50
102
RTVSPost2010PropOp46
 70
     1
102
RTVSPost2010Prop47
 90
       50
102
RTVSPost2010PropOp47
 70
     1
102
RTVSPost2010Prop48
 90
       50
102
RTVSPost2010PropOp48
 70
     1
102
RTVSPost2010Prop49
280
     0
102
RTVSPost2010PropOp49
 70
     1
102
RTVSPost2010Prop50
 90
       50
102
RTVSPost2010PropOp50
 70
     1
102
RTVSPost2010Prop51ColorIndex
 90
      256
102
RTVSPost2010Prop51ColorRGB
 90
-16777216
102
RTVSPost2010PropOp51
 70
     0
102
RTVSPost2010Prop52
140
1.0
102
RTVSPost2010PropOp52
 70
     0
102
RTVSPost2010Prop53
 90
        2
102
RTVSPost2010PropOp53
 70
     1
102
RTVSPost2010Prop54
  1
strokes_ogs.tif
102
RTVSPost2010PropOp54
 70
     1
102
RTVSPost2010Prop55
280
     0
102
RTVSPost2010PropOp55
 70
     1
102
RTVSPost2010Prop56
140
1.0
102
RTVSPost2010PropOp56
 70
     1
102
RTVSPost2010Prop57
140
1.0
102
RTVSPost2010PropOp57
 70
     1
102
RTVSPropertyOp0
 70
     1
102
RTVSPropertyOp1
 70
     1
102
RTVSPropertyOp2
 70
     1
102
RTVSPropertyOp3
 70
     1
102
RTVSPropertyOp4
 70
     1
102
RTVSPropertyOp5
 70
     1
102
RTVSPropertyOp6
 70
     1
102
RTVSPropertyOp7
 70
     1
102
RTVSPropertyOp8
 70
     1
102
RTVSPropertyOp9
 70
     1
102
RTVSPropertyOp10
 70
     1
102
RTVSPropertyOp11
 70
     1
102
RTVSPropertyOp12
 70
     1
102
RTVSPropertyOp13
 70
     1
102
RTVSPropertyOp14
 70
     1
102
RTVSPropertyOp15
 70
     1
102
RTVSPropertyOp16
 70
     1
102
RTVSPropertyOp17
 70
     1
102
RTVSPropertyOp18
 70
     1
102
RTVSPropertyOp19
 70
     1
102
RTVSPropertyOp20
 70
     1
102
RTVSPropertyOp21
 70
     1
102
RTVSPropertyOp22
 70
     1
102
RTVSPropertyOp23
 70
     1
102
RTVSPropertyOp24
 70
     1
102
RTVSPropertyOp25
 70
     1
102
RTVSPropertyOp26
 70
     1
102
RTVSPropertyOp27
 70
     1
102
RTVSPropertyOp28
 70
     1
102
RTVSPropertyOp29
 70
     1
102
RTVSPropertyOp30
 70
     1
102
RTVSPropertyOp31
 70
     1
102
RTVSPropertyOp32
 70
     1
102
RTVSPropertyOp33
 70
     1
102
RTVSPropertyOp34
 70
     1
102
RTVSPropertyOp35
 70
     1
102
RTVSPropertyOp36
 70
     1
102
RTVSPropertyOp37
 70
     1
102
RTVSPropertyOp38
 70
     1
102
RTVSPropertyOp39
 70
     1
102
RTVSPropertyOp40
 70
     1
102
RTVSPropertyOp41
 70
     1
102
RTVSPropertyOp42
 70
     1
102
RTVSPropertyOp43
 70
     1
102
RTVSPropertyOp44
 70
     1
102
RTVSPropertyOp45
 70
     1
102
RTVSPropertyOp46
 70
     1
102
RTVSPropertyOp47
 70
     1
102
RTVSPropertyOp48
 70
     1
102
RTVSPropertyOp49
 70
     1
102
RTVSPropertyOp50
 70
     1
102
RTVSPropertyOp51
 70
     0
102
RTVSPropertyOp52
 70
     0
102
RTVSPropertyOp53
 70
     1
102
RTVSPropertyOp54
 70
     1
102
RTVSPropertyOp55
 70
     1
102
RTVSPropertyOp56
 70
     1
102
RTVSPropertyOp57
 70
     1
102
RTVSPropertyOp58
 70
     1
102
RTVSPropertyOp59
 70
     1
102
RTVSPropertyOp60
 70
     1
102
RTVSPropertyOp61
 70
     1
102
RTVSPropertyOp62
 70
     1
  0
XRECORD
  5
A5D4
102
{ACAD_REACTORS
330
A5D3
102
}
330
A5D3
100
AcDbXrecord
280
     1
102
RTVSPost2010Prop28
280
     0
102
RTVSPost2010PropOp28
 70
     1
102
RTVSPost2010Prop29
280
     1
102
RTVSPost2010PropOp29
 70
     1
102
RTVSPost2010Prop30
280
     1
102
RTVSPost2010PropOp30
 70
     1
102
RTVSPost2010Prop31
280
     0
102
RTVSPost2010PropOp31
 70
     1
102
RTVSPost2010Prop32
280
     0
102
RTVSPost2010PropOp32
 70
     1
102
RTVSPost2010Prop33
280
     0
102
RTVSPost2010PropOp33
 70
     1
102
RTVSPost2010Prop34
280
     0
102
RTVSPost2010PropOp34
 70
     1
102
RTVSPost2010Prop35
280
     0
102
RTVSPost2010PropOp35
 70
     1
102
RTVSPost2010Prop36
280
     0
102
RTVSPost2010PropOp36
 70
     1
102
RTVSPost2010Prop37
 90
       50
102
RTVSPost2010PropOp37
 70
     1
102
RTVSPost2010Prop38
140
0.0
102
RTVSPost2010PropOp38
 70
     1
102
RTVSPost2010Prop39
140
1.0
102
RTVSPost2010PropOp39
 70
     1
102
RTVSPost2010Prop40
 90
        0
102
RTVSPost2010PropOp40
 70
     1
102
RTVSPost2010Prop41ColorIndex
 90
       18
102
RTVSPost2010Prop41ColorRGB
 90
        0
102
RTVSPost2010PropOp41
 70
     1
102
RTVSPost2010Prop42
 90
       50
102
RTVSPost2010PropOp42
 70
     1
102
RTVSPost2010Prop43
 90
        3
102
RTVSPost2010PropOp43
 70
     1
102
RTVSPost2010Prop44ColorIndex
 90
        5
102
RTVSPost2010Prop44ColorRGB
 90
      255
102
RTVSPost2010PropOp44
 70
     1
102
RTVSPost2010Prop45
280
     0
102
RTVSPost2010PropOp45
 70
     1
102
RTVSPost2010Prop46
 90
       50
102
RTVSPost2010PropOp46
 70
     1
102
RTVSPost2010Prop47
 90
       50
102
RTVSPost2010PropOp47
 70
     1
102
RTVSPost2010Prop48
 90
       50
102
RTVSPost2010PropOp48
 70
     1
102
RTVSPost2010Prop49
280
     0
102
RTVSPost2010PropOp49
 70
     1
102
RTVSPost2010Prop50
 90
       50
102
RTVSPost2010PropOp50
 70
     1
102
RTVSPost2010Prop51ColorIndex
 90
      256
102
RTVSPost2010Prop51ColorRGB
 90
-16777216
102
RTVSPost2010PropOp51
 70
     0
102
RTVSPost2010Prop52
140
1.0
102
RTVSPost2010PropOp52
 70
     0
102
RTVSPost2010Prop53
 90
        2
102
RTVSPost2010PropOp53
 70
     1
102
RTVSPost2010Prop54
  1
strokes_ogs.tif
102
RTVSPost2010PropOp54
 70
     1
102
RTVSPost2010Prop55
280
     0
102
RTVSPost2010PropOp55
 70
     1
102
RTVSPost2010Prop56
140
1.0
102
RTVSPost2010PropOp56
 70
     1
102
RTVSPost2010Prop57
140
1.0
102
RTVSPost2010PropOp57
 70
     1
102
RTVSPropertyOp0
 70
     1
102
RTVSPropertyOp1
 70
     1
102
RTVSPropertyOp2
 70
     1
102
RTVSPropertyOp3
 70
     1
102
RTVSPropertyOp4
 70
     1
102
RTVSPropertyOp5
 70
     1
102
RTVSPropertyOp6
 70
     1
102
RTVSPropertyOp7
 70
     1
102
RTVSPropertyOp8
 70
     1
102
RTVSPropertyOp9
 70
     1
102
RTVSPropertyOp10
 70
     1
102
RTVSPropertyOp11
 70
     1
102
RTVSPropertyOp12
 70
     1
102
RTVSPropertyOp13
 70
     1
102
RTVSPropertyOp14
 70
     1
102
RTVSPropertyOp15
 70
     1
102
RTVSPropertyOp16
 70
     1
102
RTVSPropertyOp17
 70
     1
102
RTVSPropertyOp18
 70
     1
102
RTVSPropertyOp19
 70
     1
102
RTVSPropertyOp20
 70
     1
102
RTVSPropertyOp21
 70
     1
102
RTVSPropertyOp22
 70
     1
102
RTVSPropertyOp23
 70
     1
102
RTVSPropertyOp24
 70
     1
102
RTVSPropertyOp25
 70
     1
102
RTVSPropertyOp26
 70
     1
102
RTVSPropertyOp27
 70
     1
102
RTVSPropertyOp28
 70
     1
102
RTVSPropertyOp29
 70
     1
102
RTVSPropertyOp30
 70
     1
102
RTVSPropertyOp31
 70
     1
102
RTVSPropertyOp32
 70
     1
102
RTVSPropertyOp33
 70
     1
102
RTVSPropertyOp34
 70
     1
102
RTVSPropertyOp35
 70
     1
102
RTVSPropertyOp36
 70
     1
102
RTVSPropertyOp37
 70
     1
102
RTVSPropertyOp38
 70
     1
102
RTVSPropertyOp39
 70
     1
102
RTVSPropertyOp40
 70
     1
102
RTVSPropertyOp41
 70
     1
102
RTVSPropertyOp42
 70
     1
102
RTVSPropertyOp43
 70
     1
102
RTVSPropertyOp44
 70
     1
102
RTVSPropertyOp45
 70
     1
102
RTVSPropertyOp46
 70
     1
102
RTVSPropertyOp47
 70
     1
102
RTVSPropertyOp48
 70
     1
102
RTVSPropertyOp49
 70
     1
102
RTVSPropertyOp50
 70
     1
102
RTVSPropertyOp51
 70
     0
102
RTVSPropertyOp52
 70
     0
102
RTVSPropertyOp53
 70
     1
102
RTVSPropertyOp54
 70
     1
102
RTVSPropertyOp55
 70
     1
102
RTVSPropertyOp56
 70
     1
102
RTVSPropertyOp57
 70
     1
102
RTVSPropertyOp58
 70
     1
102
RTVSPropertyOp59
 70
     1
102
RTVSPropertyOp60
 70
     1
102
RTVSPropertyOp61
 70
     1
102
RTVSPropertyOp62
 70
     1
  0
XRECORD
  5
A5EC
102
{ACAD_REACTORS
330
A5EB
102
}
330
A5EB
100
AcDbXrecord
280
     1
102
RTVSPost2010Prop28
280
     0
102
RTVSPost2010PropOp28
 70
     1
102
RTVSPost2010Prop29
280
     1
102
RTVSPost2010PropOp29
 70
     1
102
RTVSPost2010Prop30
280
     1
102
RTVSPost2010PropOp30
 70
     1
102
RTVSPost2010Prop31
280
     0
102
RTVSPost2010PropOp31
 70
     1
102
RTVSPost2010Prop32
280
     0
102
RTVSPost2010PropOp32
 70
     1
102
RTVSPost2010Prop33
280
     0
102
RTVSPost2010PropOp33
 70
     1
102
RTVSPost2010Prop34
280
     0
102
RTVSPost2010PropOp34
 70
     1
102
RTVSPost2010Prop35
280
     0
102
RTVSPost2010PropOp35
 70
     1
102
RTVSPost2010Prop36
280
     0
102
RTVSPost2010PropOp36
 70
     1
102
RTVSPost2010Prop37
 90
       50
102
RTVSPost2010PropOp37
 70
     1
102
RTVSPost2010Prop38
140
0.0
102
RTVSPost2010PropOp38
 70
     1
102
RTVSPost2010Prop39
140
1.0
102
RTVSPost2010PropOp39
 70
     1
102
RTVSPost2010Prop40
 90
        0
102
RTVSPost2010PropOp40
 70
     1
102
RTVSPost2010Prop41ColorIndex
 90
       18
102
RTVSPost2010Prop41ColorRGB
 90
        0
102
RTVSPost2010PropOp41
 70
     1
102
RTVSPost2010Prop42
 90
       50
102
RTVSPost2010PropOp42
 70
     1
102
RTVSPost2010Prop43
 90
        3
102
RTVSPost2010PropOp43
 70
     1
102
RTVSPost2010Prop44ColorIndex
 90
        5
102
RTVSPost2010Prop44ColorRGB
 90
      255
102
RTVSPost2010PropOp44
 70
     1
102
RTVSPost2010Prop45
280
     0
102
RTVSPost2010PropOp45
 70
     1
102
RTVSPost2010Prop46
 90
       50
102
RTVSPost2010PropOp46
 70
     1
102
RTVSPost2010Prop47
 90
       50
102
RTVSPost2010PropOp47
 70
     1
102
RTVSPost2010Prop48
 90
       50
102
RTVSPost2010PropOp48
 70
     1
102
RTVSPost2010Prop49
280
     0
102
RTVSPost2010PropOp49
 70
     1
102
RTVSPost2010Prop50
 90
       50
102
RTVSPost2010PropOp50
 70
     1
102
RTVSPost2010Prop51ColorIndex
 90
      256
102
RTVSPost2010Prop51ColorRGB
 90
-16777216
102
RTVSPost2010PropOp51
 70
     0
102
RTVSPost2010Prop52
140
1.0
102
RTVSPost2010PropOp52
 70
     0
102
RTVSPost2010Prop53
 90
        2
102
RTVSPost2010PropOp53
 70
     1
102
RTVSPost2010Prop54
  1
strokes_ogs.tif
102
RTVSPost2010PropOp54
 70
     1
102
RTVSPost2010Prop55
280
     0
102
RTVSPost2010PropOp55
 70
     1
102
RTVSPost2010Prop56
140
1.0
102
RTVSPost2010PropOp56
 70
     1
102
RTVSPost2010Prop57
140
1.0
102
RTVSPost2010PropOp57
 70
     1
102
RTVSPropertyOp0
 70
     1
102
RTVSPropertyOp1
 70
     1
102
RTVSPropertyOp2
 70
     1
102
RTVSPropertyOp3
 70
     1
102
RTVSPropertyOp4
 70
     1
102
RTVSPropertyOp5
 70
     1
102
RTVSPropertyOp6
 70
     1
102
RTVSPropertyOp7
 70
     1
102
RTVSPropertyOp8
 70
     1
102
RTVSPropertyOp9
 70
     1
102
RTVSPropertyOp10
 70
     1
102
RTVSPropertyOp11
 70
     1
102
RTVSPropertyOp12
 70
     1
102
RTVSPropertyOp13
 70
     1
102
RTVSPropertyOp14
 70
     1
102
RTVSPropertyOp15
 70
     1
102
RTVSPropertyOp16
 70
     1
102
RTVSPropertyOp17
 70
     1
102
RTVSPropertyOp18
 70
     1
102
RTVSPropertyOp19
 70
     1
102
RTVSPropertyOp20
 70
     1
102
RTVSPropertyOp21
 70
     1
102
RTVSPropertyOp22
 70
     1
102
RTVSPropertyOp23
 70
     1
102
RTVSPropertyOp24
 70
     1
102
RTVSPropertyOp25
 70
     1
102
RTVSPropertyOp26
 70
     1
102
RTVSPropertyOp27
 70
     1
102
RTVSPropertyOp28
 70
     1
102
RTVSPropertyOp29
 70
     1
102
RTVSPropertyOp30
 70
     1
102
RTVSPropertyOp31
 70
     1
102
RTVSPropertyOp32
 70
     1
102
RTVSPropertyOp33
 70
     1
102
RTVSPropertyOp34
 70
     1
102
RTVSPropertyOp35
 70
     1
102
RTVSPropertyOp36
 70
     1
102
RTVSPropertyOp37
 70
     1
102
RTVSPropertyOp38
 70
     1
102
RTVSPropertyOp39
 70
     1
102
RTVSPropertyOp40
 70
     1
102
RTVSPropertyOp41
 70
     1
102
RTVSPropertyOp42
 70
     1
102
RTVSPropertyOp43
 70
     1
102
RTVSPropertyOp44
 70
     1
102
RTVSPropertyOp45
 70
     1
102
RTVSPropertyOp46
 70
     1
102
RTVSPropertyOp47
 70
     1
102
RTVSPropertyOp48
 70
     1
102
RTVSPropertyOp49
 70
     1
102
RTVSPropertyOp50
 70
     1
102
RTVSPropertyOp51
 70
     0
102
RTVSPropertyOp52
 70
     0
102
RTVSPropertyOp53
 70
     1
102
RTVSPropertyOp54
 70
     1
102
RTVSPropertyOp55
 70
     1
102
RTVSPropertyOp56
 70
     1
102
RTVSPropertyOp57
 70
     1
102
RTVSPropertyOp58
 70
     1
102
RTVSPropertyOp59
 70
     1
102
RTVSPropertyOp60
 70
     1
102
RTVSPropertyOp61
 70
     1
102
RTVSPropertyOp62
 70
     1
  0
ENDSEC
  0
EOF
