  0
SECTION
  2
HEADER
  9
$ACADVER
  1
AC1015
  9
$ACADMAINTVER
 70
    20
  9
$DWGCODEPAGE
  3
ANSI_932
  9
$INSBASE
 10
0.0
 20
0.0
 30
0.0
  9
$EXTMIN
 10
9.9999975266385
 20
10.0
 30
0.0
  9
$EXTMAX
 10
691.9267962478953
 20
451.8881862840155
 30
0.0
  9
$LIMMIN
 10
0.0000015376081137
 20
-0.0000001931532552
  9
$LIMMAX
 10
705.0000015376082
 20
486.0227270795738
  9
$ORTHOMODE
 70
     1
  9
$REGENMODE
 70
     1
  9
$FILLMODE
 70
     1
  9
$QTEXTMODE
 70
     0
  9
$MIRRTEXT
 70
     1
  9
$LTSCALE
 40
1.0
  9
$ATTMODE
 70
     1
  9
$TEXTSIZE
 40
2.5
  9
$TRACEWID
 40
1.0
  9
$TEXTSTYLE
  7
STANDARD
  9
$CLAYER
  8
0
  9
$CELTYPE
  6
BYLAYER
  9
$CECOLOR
 62
   256
  9
$CELTSCALE
 40
1.0
  9
$DISPSILH
 70
     0
  9
$DIMSCALE
 40
1.0
  9
$DIMASZ
 40
3.0
  9
$DIMEXO
 40
1.0
  9
$DIMDLI
 40
10.0
  9
$DIMRND
 40
0.0
  9
$DIMDLE
 40
0.0
  9
$DIMEXE
 40
1.0
  9
$DIMTP
 40
0.0
  9
$DIMTM
 40
0.0
  9
$DIMTXT
 40
3.2
  9
$DIMCEN
 40
0.0
  9
$DIMTSZ
 40
0.0
  9
$DIMTOL
 70
     0
  9
$DIMLIM
 70
     0
  9
$DIMTIH
 70
     0
  9
$DIMTOH
 70
     0
  9
$DIMSE1
 70
     0
  9
$DIMSE2
 70
     0
  9
$DIMTAD
 70
     3
  9
$DIMZIN
 70
     8
  9
$DIMBLK
  1

  9
$DIMASO
 70
     1
  9
$DIMSHO
 70
     1
  9
$DIMPOST
  1

  9
$DIMAPOST
  1

  9
$DIMALT
 70
     0
  9
$DIMALTD
 70
     2
  9
$DIMALTF
 40
25.4
  9
$DIMLFAC
 40
1.0
  9
$DIMTOFL
 70
     1
  9
$DIMTVP
 40
0.0
  9
$DIMTIX
 70
     0
  9
$DIMSOXD
 70
     0
  9
$DIMSAH
 70
     1
  9
$DIMBLK1
  1
OPEN
  9
$DIMBLK2
  1
OPEN
  9
$DIMSTYLE
  2
STANDARD
  9
$DIMCLRD
 70
     0
  9
$DIMCLRE
 70
     0
  9
$DIMCLRT
 70
     0
  9
$DIMTFAC
 40
1.0
  9
$DIMGAP
 40
1.0
  9
$DIMJUST
 70
     0
  9
$DIMSD1
 70
     0
  9
$DIMSD2
 70
     0
  9
$DIMTOLJ
 70
     1
  9
$DIMTZIN
 70
     0
  9
$DIMALTZ
 70
     0
  9
$DIMALTTZ
 70
     0
  9
$DIMUPT
 70
     0
  9
$DIMDEC
 70
     4
  9
$DIMTDEC
 70
     4
  9
$DIMALTU
 70
     2
  9
$DIMALTTD
 70
     2
  9
$DIMTXSTY
  7
STANDARD
  9
$DIMAUNIT
 70
     0
  9
$DIMADEC
 70
     0
  9
$DIMALTRND
 40
0.0
  9
$DIMAZIN
 70
     0
  9
$DIMDSEP
 70
    46
  9
$DIMATFIT
 70
     3
  9
$DIMFRAC
 70
     0
  9
$DIMLDRBLK
  1
OPEN
  9
$DIMLUNIT
 70
     2
  9
$DIMLWD
 70
    -2
  9
$DIMLWE
 70
    -2
  9
$DIMTMOVE
 70
     0
  9
$LUNITS
 70
     2
  9
$LUPREC
 70
     4
  9
$SKETCHINC
 40
1.0
  9
$FILLETRAD
 40
1.0
  9
$AUNITS
 70
     0
  9
$AUPREC
 70
     0
  9
$MENU
  1
.
  9
$ELEVATION
 40
0.0
  9
$PELEVATION
 40
0.0
  9
$THICKNESS
 40
0.0
  9
$LIMCHECK
 70
     0
  9
$CHAMFERA
 40
10.0
  9
$CHAMFERB
 40
10.0
  9
$CHAMFERC
 40
20.0
  9
$CHAMFERD
 40
0.0
  9
$SKPOLY
 70
     0
  9
$TDCREATE
 40
2454154.550453368
  9
$TDUCREATE
 40
2454154.175453368
  9
$TDUPDATE
 40
2457192.690851354
  9
$TDUUPDATE
 40
2457192.315851354
  9
$TDINDWG
 40
0.3377954051
  9
$TDUSRTIMER
 40
0.3377953819
  9
$USRTIMER
 70
     1
  9
$ANGBASE
 50
0.0
  9
$ANGDIR
 70
     0
  9
$PDMODE
 70
     0
  9
$PDSIZE
 40
0.0
  9
$PLINEWID
 40
0.0
  9
$SPLFRAME
 70
     0
  9
$SPLINETYPE
 70
     6
  9
$SPLINESEGS
 70
     8
  9
$HANDSEED
  5
77B3
  9
$SURFTAB1
 70
     6
  9
$SURFTAB2
 70
     6
  9
$SURFTYPE
 70
     6
  9
$SURFU
 70
     6
  9
$SURFV
 70
     6
  9
$UCSBASE
  2

  9
$UCSNAME
  2

  9
$UCSORG
 10
0.0
 20
0.0
 30
0.0
  9
$UCSXDIR
 10
1.0
 20
0.0
 30
0.0
  9
$UCSYDIR
 10
0.0
 20
1.0
 30
0.0
  9
$UCSORTHOREF
  2

  9
$UCSORTHOVIEW
 70
     0
  9
$UCSORGTOP
 10
0.0
 20
0.0
 30
0.0
  9
$UCSORGBOTTOM
 10
0.0
 20
0.0
 30
0.0
  9
$UCSORGLEFT
 10
0.0
 20
0.0
 30
0.0
  9
$UCSORGRIGHT
 10
0.0
 20
0.0
 30
0.0
  9
$UCSORGFRONT
 10
0.0
 20
0.0
 30
0.0
  9
$UCSORGBACK
 10
0.0
 20
0.0
 30
0.0
  9
$PUCSBASE
  2

  9
$PUCSNAME
  2

  9
$PUCSORG
 10
0.0
 20
0.0
 30
0.0
  9
$PUCSXDIR
 10
1.0
 20
0.0
 30
0.0
  9
$PUCSYDIR
 10
0.0
 20
1.0
 30
0.0
  9
$PUCSORTHOREF
  2

  9
$PUCSORTHOVIEW
 70
     0
  9
$PUCSORGTOP
 10
0.0
 20
0.0
 30
0.0
  9
$PUCSORGBOTTOM
 10
0.0
 20
0.0
 30
0.0
  9
$PUCSORGLEFT
 10
0.0
 20
0.0
 30
0.0
  9
$PUCSORGRIGHT
 10
0.0
 20
0.0
 30
0.0
  9
$PUCSORGFRONT
 10
0.0
 20
0.0
 30
0.0
  9
$PUCSORGBACK
 10
0.0
 20
0.0
 30
0.0
  9
$USERI1
 70
     0
  9
$USERI2
 70
     0
  9
$USERI3
 70
     0
  9
$USERI4
 70
     0
  9
$USERI5
 70
     0
  9
$USERR1
 40
0.0
  9
$USERR2
 40
0.0
  9
$USERR3
 40
0.0
  9
$USERR4
 40
0.0
  9
$USERR5
 40
0.0
  9
$WORLDVIEW
 70
     1
  9
$SHADEDGE
 70
     3
  9
$SHADEDIF
 70
    70
  9
$TILEMODE
 70
     1
  9
$MAXACTVP
 70
    48
  9
$PINSBASE
 10
0.0
 20
0.0
 30
0.0
  9
$PLIMCHECK
 70
     0
  9
$PEXTMIN
 10
1.000000000000000E+20
 20
1.000000000000000E+20
 30
1.000000000000000E+20
  9
$PEXTMAX
 10
-1.000000000000000E+20
 20
-1.000000000000000E+20
 30
-1.000000000000000E+20
  9
$PLIMMIN
 10
0.0
 20
0.0
  9
$PLIMMAX
 10
420.0
 20
297.0
  9
$UNITMODE
 70
     0
  9
$VISRETAIN
 70
     1
  9
$PLINEGEN
 70
     0
  9
$PSLTSCALE
 70
     1
  9
$TREEDEPTH
 70
  3020
  9
$CMLSTYLE
  2
STANDARD
  9
$CMLJUST
 70
     0
  9
$CMLSCALE
 40
20.0
  9
$PROXYGRAPHICS
 70
     1
  9
$MEASUREMENT
 70
     0
  9
$CELWEIGHT
370
    -1
  9
$ENDCAPS
280
     0
  9
$JOINSTYLE
280
     0
  9
$LWDISPLAY
290
     0
  9
$INSUNITS
 70
     0
  9
$HYPERLINKBASE
  1

  9
$STYLESHEET
  1

  9
$XEDIT
290
     1
  9
$CEPSNTYPE
380
     0
  9
$PSTYLEMODE
290
     1
  9
$FINGERPRINTGUID
  2
{62662465-45CD-4567-A8ED-70D1C97B61E9}
  9
$VERSIONGUID
  2
{C45142DD-A2EF-4BB5-AD1E-51622AA0737B}
  9
$EXTNAMES
290
     1
  9
$PSVPSCALE
 40
0.0
  9
$OLESTARTUP
290
     0
  0
ENDSEC
  0
SECTION
  2
CLASSES
  0
CLASS
  1
ACDBDICTIONARYWDFLT
  2
AcDbDictionaryWithDefault
  3
ObjectDBX Classes
 90
        0
280
     0
281
     0
  0
CLASS
  1
ACDBPLACEHOLDER
  2
AcDbPlaceHolder
  3
ObjectDBX Classes
 90
        0
280
     0
281
     0
  0
CLASS
  1
LAYOUT
  2
AcDbLayout
  3
ObjectDBX Classes
 90
        0
280
     0
281
     0
  0
CLASS
  1
DICTIONARYVAR
  2
AcDbDictionaryVar
  3
ObjectDBX Classes
 90
        0
280
     0
281
     0
  0
CLASS
  1
MATERIAL
  2
AcDbMaterial
  3
ObjectDBX Classes
 90
     1153
280
     0
281
     0
  0
CLASS
  1
VISUALSTYLE
  2
AcDbVisualStyle
  3
ObjectDBX Classes
 90
     4095
280
     0
281
     0
  0
CLASS
  1
TABLESTYLE
  2
AcDbTableStyle
  3
ObjectDBX Classes
 90
     4095
280
     0
281
     0
  0
CLASS
  1
SCALE
  2
AcDbScale
  3
ObjectDBX Classes
 90
     1153
280
     0
281
     0
  0
CLASS
  1
MLEADERSTYLE
  2
AcDbMLeaderStyle
  3
ACDB_MLEADERSTYLE_CLASS
 90
     4095
280
     0
281
     0
  0
CLASS
  1
ACDBSECTIONVIEWSTYLE
  2
AcDbSectionViewStyle
  3
ObjectDBX Classes
 90
     1025
280
     0
281
     0
  0
CLASS
  1
ACDBDETAILVIEWSTYLE
  2
AcDbDetailViewStyle
  3
ObjectDBX Classes
 90
     1025
280
     0
281
     0
  0
CLASS
  1
CELLSTYLEMAP
  2
AcDbCellStyleMap
  3
ObjectDBX Classes
 90
     1152
280
     0
281
     0
  0
ENDSEC
  0
SECTION
  2
TABLES
  0
TABLE
  2
VPORT
  5
8
330
0
100
AcDbSymbolTable
 70
     1
  0
VPORT
  5
76FD
330
8
100
AcDbSymbolTableRecord
100
AcDbViewportTableRecord
  2
*ACTIVE
 70
     0
 10
0.0
 20
0.0
 11
1.0
 21
1.0
 12
535.3580585819855
 22
230.960172363858
 13
0.0
 23
0.0
 14
10.0
 24
10.0
 15
10.0
 25
10.0
 16
0.0
 26
0.0
 36
1.0
 17
0.0
 27
0.0
 37
0.0
 40
448.5595186457
 41
2.35006605019815
 42
50.0
 43
0.0
 44
0.0
 50
0.0
 51
0.0
 71
     0
 72
   100
 73
     1
 74
     0
 75
     0
 76
     0
 77
     0
 78
     0
281
     0
 65
     1
110
0.0
120
0.0
130
0.0
111
1.0
121
0.0
131
0.0
112
0.0
122
1.0
132
0.0
 79
     0
146
0.0
1001
ACAD_NAV_VCDISPLAY
1070
     3
  0
ENDTAB
  0
TABLE
  2
LTYPE
  5
5
330
0
100
AcDbSymbolTable
 70
     4
  0
LTYPE
  5
12
330
5
100
AcDbSymbolTableRecord
100
AcDbLinetypeTableRecord
  2
BYBLOCK
 70
     0
  3

 72
    65
 73
     0
 40
0.0
  0
LTYPE
  5
13
330
5
100
AcDbSymbolTableRecord
100
AcDbLinetypeTableRecord
  2
BYLAYER
 70
     0
  3

 72
    65
 73
     0
 40
0.0
  0
LTYPE
  5
14
330
5
100
AcDbSymbolTableRecord
100
AcDbLinetypeTableRecord
  2
CONTINUOUS
 70
     0
  3
Solid line
 72
    65
 73
     0
 40
0.0
  0
LTYPE
  5
4B
330
5
100
AcDbSymbolTableRecord
100
AcDbLinetypeTableRecord
  2
DASHED
 70
     0
  3
Dashed __ __ __ __ __ __ __ __ __ __ __ __ __ _
 72
    65
 73
     2
 40
19.04999999999999
 49
12.7
 74
     0
 49
-6.349999999999998
 74
     0
  0
LTYPE
  5
4C
330
5
100
AcDbSymbolTableRecord
100
AcDbLinetypeTableRecord
  2
CENTER
 70
     0
  3
Center ____ _ ____ _ ____ _ ____ _ ____ _ ____
 72
    65
 73
     4
 40
50.8
 49
31.75
 74
     0
 49
-6.349999999999998
 74
     0
 49
6.349999999999998
 74
     0
 49
-6.349999999999998
 74
     0
  0
LTYPE
  5
4D
330
5
100
AcDbSymbolTableRecord
100
AcDbLinetypeTableRecord
  2
PHANTOM
 70
     0
  3
Phantom ______  __  __  ______  __  __  ______
 72
    65
 73
     6
 40
63.5
 49
31.75
 74
     0
 49
-6.349999999999998
 74
     0
 49
6.349999999999998
 74
     0
 49
-6.349999999999998
 74
     0
 49
6.349999999999998
 74
     0
 49
-6.349999999999998
 74
     0
  0
ENDTAB
  0
TABLE
  2
LAYER
  5
2
330
0
100
AcDbSymbolTable
 70
     8
  0
LAYER
  5
E
102
{ACAD_XDICTIONARY
360
7757
102
}
330
2
100
AcDbSymbolTableRecord
100
AcDbLayerTableRecord
  2
0
 70
     0
 62
     7
  6
CONTINUOUS
370
    -3
390
7706
  0
LAYER
  5
4E
102
{ACAD_XDICTIONARY
360
7759
102
}
330
2
100
AcDbSymbolTableRecord
100
AcDbLayerTableRecord
  2
4
 70
     0
 62
     1
  6
CENTER
370
    -3
390
7706
  0
LAYER
  5
4F
102
{ACAD_XDICTIONARY
360
775B
102
}
330
2
100
AcDbSymbolTableRecord
100
AcDbLayerTableRecord
  2
5
 70
     0
 62
     6
  6
PHANTOM
370
    -3
390
7706
  0
LAYER
  5
50
102
{ACAD_XDICTIONARY
360
775D
102
}
330
2
100
AcDbSymbolTableRecord
100
AcDbLayerTableRecord
  2
1
 70
     0
 62
     7
  6
CONTINUOUS
370
    -3
390
7706
  0
LAYER
  5
51
102
{ACAD_XDICTIONARY
360
775F
102
}
330
2
100
AcDbSymbolTableRecord
100
AcDbLayerTableRecord
  2
2
 70
     0
 62
     4
  6
CONTINUOUS
370
    -3
390
7706
  0
LAYER
  5
52
102
{ACAD_XDICTIONARY
360
7761
102
}
330
2
100
AcDbSymbolTableRecord
100
AcDbLayerTableRecord
  2
3
 70
     0
 62
     2
  6
DASHED
370
    -3
390
7706
  0
LAYER
  5
53
102
{ACAD_XDICTIONARY
360
7763
102
}
330
2
100
AcDbSymbolTableRecord
100
AcDbLayerTableRecord
  2
6
 70
     0
 62
     5
  6
CONTINUOUS
370
    -3
390
7706
  0
LAYER
  5
54
102
{ACAD_XDICTIONARY
360
7765
102
}
330
2
100
AcDbSymbolTableRecord
100
AcDbLayerTableRecord
  2
7
 70
     0
 62
     3
  6
CONTINUOUS
370
    -3
390
7706
  0
ENDTAB
  0
TABLE
  2
STYLE
  5
3
330
0
100
AcDbSymbolTable
 70
     1
  0
STYLE
  5
F
330
3
100
AcDbSymbolTableRecord
100
AcDbTextStyleTableRecord
  2
STANDARD
 70
     0
 40
0.0
 41
1.0
 50
0.0
 71
     0
 42
2.5
  3
simplex.shx
  4

  0
ENDTAB
  0
TABLE
  2
VIEW
  5
6
330
0
100
AcDbSymbolTable
 70
     0
  0
ENDTAB
  0
TABLE
  2
UCS
  5
7
330
0
100
AcDbSymbolTable
 70
     0
  0
ENDTAB
  0
TABLE
  2
APPID
  5
9
330
0
100
AcDbSymbolTable
 70
     5
  0
APPID
  5
10
330
9
100
AcDbSymbolTableRecord
100
AcDbRegAppTableRecord
  2
ACAD
 70
     0
  0
APPID
  5
3E
330
9
100
AcDbSymbolTableRecord
100
AcDbRegAppTableRecord
  2
CONTENTTABDATA
 70
     0
  0
APPID
  5
3F
330
9
100
AcDbSymbolTableRecord
100
AcDbRegAppTableRecord
  2
CONTENTCURRENTTAB
 70
     0
  0
APPID
  5
7771
330
9
100
AcDbSymbolTableRecord
100
AcDbRegAppTableRecord
  2
ACAD_NAV_VCDISPLAY
 70
     0
  0
APPID
  5
77AA
330
9
100
AcDbSymbolTableRecord
100
AcDbRegAppTableRecord
  2
ACAD_MLEADERVER
 70
     0
  0
ENDTAB
  0
TABLE
  2
DIMSTYLE
  5
A
330
0
100
AcDbSymbolTable
 70
     1
100
AcDbDimStyleTable
 71
     0
  0
DIMSTYLE
105
1D
330
A
100
AcDbSymbolTableRecord
100
AcDbDimStyleTableRecord
  2
STANDARD
 70
     0
 41
3.0
 42
1.0
 43
10.0
 44
1.0
 73
     0
 74
     0
 77
     3
 78
     8
140
3.2
141
0.0
147
1.0
172
     1
173
     1
340
F
341
2E
343
2E
344
2E
  0
ENDTAB
  0
TABLE
  2
BLOCK_RECORD
  5
1
330
0
100
AcDbSymbolTable
 70
     1
  0
BLOCK_RECORD
  5
18
102
{ACAD_XDICTIONARY
360
7700
102
}
330
1
100
AcDbSymbolTableRecord
100
AcDbBlockTableRecord
  2
*MODEL_SPACE
340
7754
  0
BLOCK_RECORD
  5
15
102
{ACAD_XDICTIONARY
360
76FE
102
}
330
1
100
AcDbSymbolTableRecord
100
AcDbBlockTableRecord
  2
*PAPER_SPACE
340
7755
  0
BLOCK_RECORD
  5
2E
330
1
100
AcDbSymbolTableRecord
100
AcDbBlockTableRecord
  2
_OPEN
340
0
  0
ENDTAB
  0
ENDSEC
  0
SECTION
  2
BLOCKS
  0
BLOCK
  5
19
330
18
100
AcDbEntity
  8
0
100
AcDbBlockBegin
  2
*MODEL_SPACE
 70
     0
 10
0.0
 20
0.0
 30
0.0
  3
*MODEL_SPACE
  1

  0
ENDBLK
  5
1A
330
18
100
AcDbEntity
  8
0
100
AcDbBlockEnd
  0
BLOCK
  5
16
330
15
100
AcDbEntity
 67
     1
  8
0
100
AcDbBlockBegin
  2
*PAPER_SPACE
 70
     0
 10
0.0
 20
0.0
 30
0.0
  3
*PAPER_SPACE
  1

  0
ENDBLK
  5
17
330
15
100
AcDbEntity
 67
     1
  8
0
100
AcDbBlockEnd
  0
BLOCK
  5
2F
330
2E
100
AcDbEntity
  8
0
100
AcDbBlockBegin
  2
_OPEN
 70
     0
 10
0.0
 20
0.0
 30
0.0
  3
_OPEN
  1

  0
LINE
  5
30
330
2E
100
AcDbEntity
  8
0
  6
ByBlock
 62
     0
100
AcDbLine
 10
-1.0
 20
0.1666666666666666
 30
0.0
 11
0.0
 21
0.0
 31
0.0
  0
LINE
  5
31
330
2E
100
AcDbEntity
  8
0
  6
ByBlock
 62
     0
100
AcDbLine
 10
0.0
 20
0.0
 30
0.0
 11
-1.0
 21
-0.1666666666666666
 31
0.0
  0
LINE
  5
32
330
2E
100
AcDbEntity
  8
0
  6
ByBlock
 62
     0
100
AcDbLine
 10
0.0
 20
0.0
 30
0.0
 11
-1.0
 21
0.0
 31
0.0
  0
ENDBLK
  5
33
330
2E
100
AcDbEntity
  8
0
100
AcDbBlockEnd
  0
ENDSEC
  0
SECTION
  2
ENTITIES
  0
TEXT
  5
63
330
18
100
AcDbEntity
  8
4
  6
CENTER
 48
0.25
100
AcDbText
 10
23.97950852663849
 20
10.0
 30
0.0
 40
1.399999999999999
  1
4
100
AcDbText
  0
TEXT
  5
64
330
18
100
AcDbEntity
  8
7
  6
Continuous
 48
0.25
100
AcDbText
 10
9.999997526638502
 20
26.0000007607689
 30
0.0
 40
3.0
  1
CODE No.19276
100
AcDbText
  0
TEXT
  5
65
330
18
100
AcDbEntity
  8
7
  6
Continuous
 48
0.25
100
AcDbText
 10
9.999997526638502
 20
18.00000076076889
 30
0.0
 40
3.0
  1
TYPE No.TCA-50SUS-SU75
100
AcDbText
  0
TEXT
  5
66
330
18
100
AcDbEntity
  8
1
  6
Continuous
 48
0.25
100
AcDbText
 10
9.999997526638502
 20
10.00000076076889
 30
0.0
 40
1.399999999999999
  1
LAYER
100
AcDbText
  0
TEXT
  5
67
330
18
100
AcDbEntity
  8
2
  6
Continuous
 48
0.25
100
AcDbText
 10
19.9795085266385
 20
10.0
 30
0.0
 40
1.399999999999999
  1
2
100
AcDbText
  0
TEXT
  5
68
330
18
100
AcDbEntity
  8
3
  6
DASHED
 48
0.25
100
AcDbText
 10
21.9795085266385
 20
10.0
 30
0.0
 40
1.399999999999999
  1
3
100
AcDbText
  0
TEXT
  5
69
330
18
100
AcDbEntity
  8
1
  6
Continuous
 48
0.25
100
AcDbText
 10
17.9795085266385
 20
10.0
 30
0.0
 40
1.399999999999999
  1
1
100
AcDbText
  0
TEXT
  5
6A
330
18
100
AcDbEntity
  8
5
  6
PHANTOM
 48
0.25
100
AcDbText
 10
25.9795085266385
 20
10.0
 30
0.0
 40
1.399999999999999
  1
5
100
AcDbText
  0
TEXT
  5
6B
330
18
100
AcDbEntity
  8
6
  6
Continuous
 48
0.25
100
AcDbText
 10
27.9795085266385
 20
10.0
 30
0.0
 40
1.399999999999999
  1
6
100
AcDbText
  0
TEXT
  5
6C
330
18
100
AcDbEntity
  8
7
  6
Continuous
 48
0.25
100
AcDbText
 10
29.9795085266385
 20
10.0
 30
0.0
 40
1.399999999999999
  1
7
100
AcDbText
  0
LINE
  5
2F2C
330
18
100
AcDbEntity
  8
2
  6
Continuous
100
AcDbLine
 10
26.83639280195416
 20
235.7132173660644
 30
0.0
 11
27.83639927768297
 21
235.7132173660644
 31
0.0
  0
LINE
  5
2F2D
330
18
100
AcDbEntity
  8
2
  6
Continuous
100
AcDbLine
 10
26.83639280195416
 20
227.3372173660644
 30
0.0
 11
27.83639927768297
 21
227.3372173660644
 31
0.0
  0
ARC
  5
4377
330
18
100
AcDbEntity
  8
1
  6
Continuous
100
AcDbCircle
 10
209.6915094343414
 20
435.8069462840153
 30
0.0
 40
5.78125
100
AcDbArc
 50
82.57155566223685
 51
124.2054599999985
  0
LINE
  5
4378
330
18
100
AcDbEntity
  8
1
  6
Continuous
100
AcDbLine
 10
206.4415054343414
 20
440.5881962840155
 30
0.0
 11
207.3569794343413
 21
439.9881962840153
 31
0.0
  0
LINE
  5
4379
330
18
100
AcDbEntity
  8
1
  6
Continuous
100
AcDbLine
 10
210.0390176023859
 20
440.5881962840153
 30
0.0
 11
206.4415094343414
 21
440.5881962840153
 31
0.0
  0
LINE
  5
437A
330
18
100
AcDbEntity
  8
1
  6
Continuous
100
AcDbLine
 10
206.4415094343416
 20
371.1881812840153
 30
0.0
 11
207.3569754343418
 21
371.7881802840151
 31
0.0
  0
LINE
  5
437B
330
18
100
AcDbEntity
  8
1
  6
Continuous
100
AcDbLine
 10
210.0390158136385
 20
371.1881812840153
 30
0.0
 11
206.4415094343416
 21
371.1881812840153
 31
0.0
  0
ARC
  5
437C
330
18
100
AcDbEntity
  8
1
  6
Continuous
100
AcDbCircle
 10
209.6915094343414
 20
375.9694312840153
 30
0.0
 40
5.78125
100
AcDbArc
 50
235.7945400000014
 51
277.4284215052372
  0
LINE
  5
437D
330
18
100
AcDbEntity
  8
1
  6
Continuous
100
AcDbLine
 10
197.326076734276
 20
439.9881762840155
 30
0.0
 11
195.8462777342758
 21
440.4881762840155
 31
0.0
  0
LINE
  5
437E
330
18
100
AcDbEntity
  8
1
  6
Continuous
100
AcDbLine
 10
202.3260827342758
 20
439.9881762840151
 30
0.0
 11
203.8058737342757
 21
440.4881762840152
 31
0.0
  0
LINE
  5
437F
330
18
100
AcDbEntity
  8
1
  6
Continuous
100
AcDbLine
 10
203.805869734276
 20
440.4881762840152
 30
0.0
 11
195.8462777342758
 21
440.4881762840152
 31
0.0
  0
ARC
  5
4380
330
18
100
AcDbEntity
  8
1
  6
Continuous
100
AcDbCircle
 10
202.8260747342758
 20
440.288176284015
 30
0.0
 40
1.0
100
AcDbArc
 50
11.53696000000024
 51
90.00001000000102
  0
ARC
  5
4381
330
18
100
AcDbEntity
  8
1
  6
Continuous
100
AcDbCircle
 10
196.826074734276
 20
440.288176284015
 30
0.0
 40
1.0
100
AcDbArc
 50
89.99998999999901
 51
168.4630500000013
  0
LINE
  5
4382
330
18
100
AcDbEntity
  8
1
  6
Continuous
100
AcDbLine
 10
202.8260747342758
 20
441.2881762840152
 30
0.0
 11
196.826074734276
 21
441.2881762840152
 31
0.0
  0
ARC
  5
4383
330
18
100
AcDbEntity
  8
1
  6
Continuous
100
AcDbCircle
 10
200.326074734276
 20
370.7881802840152
 30
0.0
 40
4.0
100
AcDbArc
 50
345.5224880000022
 51
14.47750999999982
  0
ARC
  5
4384
330
18
100
AcDbEntity
  8
1
  6
Continuous
100
AcDbCircle
 10
199.326074734276
 20
370.7881802840152
 30
0.0
 40
4.0
100
AcDbArc
 50
165.5224900000001
 51
194.4775099999998
  0
LINE
  5
4385
330
18
100
AcDbEntity
  8
1
  6
Continuous
100
AcDbLine
 10
204.1990587342759
 20
369.7881802840151
 30
0.0
 11
195.4530927342759
 21
369.7881802840151
 31
0.0
  0
ARC
  5
4386
330
18
100
AcDbEntity
  8
1
  6
Continuous
100
AcDbCircle
 10
181.5293874788114
 20
431.1881762838496
 30
0.0
 40
3.2
100
AcDbArc
 50
90.0
 51
180.0
  0
ARC
  5
4387
330
18
100
AcDbEntity
  8
1
  6
Continuous
100
AcDbCircle
 10
181.5293874788114
 20
380.588183283982
 30
0.0
 40
3.2
100
AcDbArc
 50
180.0
 51
270.0
  0
LINE
  5
4388
330
18
100
AcDbEntity
  8
1
  6
Continuous
100
AcDbLine
 10
178.3293874788114
 20
380.588183283982
 30
0.0
 11
178.3293874788114
 21
431.1881762838496
 31
0.0
  0
LINE
  5
4389
330
18
100
AcDbEntity
  8
1
  6
Continuous
100
AcDbLine
 10
190.8260747344197
 20
434.3881762838271
 30
0.0
 11
190.8260747344197
 21
436.2359762840153
 31
0.0
  0
LINE
  5
438A
330
18
100
AcDbEntity
  8
1
  6
Continuous
100
AcDbLine
 10
190.8260747344197
 20
375.5403802840153
 30
0.0
 11
190.8260747344197
 21
377.3881832839776
 31
0.0
  0
ARC
  5
438B
330
18
100
AcDbEntity
  8
1
  6
Continuous
100
AcDbCircle
 10
194.5782747344198
 20
436.2359762840153
 30
0.0
 40
3.7522
100
AcDbArc
 50
90.0
 51
180.0
  0
ARC
  5
438C
330
18
100
AcDbEntity
  8
1
  6
Continuous
100
AcDbCircle
 10
194.5782747344198
 20
375.5403802840153
 30
0.0
 40
3.7522
100
AcDbArc
 50
180.0
 51
270.0
  0
LINE
  5
438D
330
18
100
AcDbEntity
  8
1
  6
Continuous
100
AcDbLine
 10
194.5782747344198
 20
371.7881802840151
 30
0.0
 11
209.8465603925021
 21
371.7881802840151
 31
0.0
  0
LINE
  5
438E
330
18
100
AcDbEntity
  8
1
  6
Continuous
100
AcDbLine
 10
190.8260747344197
 20
376.8881862840316
 30
0.0
 11
209.4838449344162
 21
376.8881862840362
 31
0.0
  0
LINE
  5
438F
330
18
100
AcDbEntity
  8
1
  6
Continuous
100
AcDbLine
 10
190.8260747344197
 20
434.8881862840316
 30
0.0
 11
209.4838449344162
 21
434.8881862840362
 31
0.0
  0
LINE
  5
4390
330
18
100
AcDbEntity
  8
1
  6
Continuous
100
AcDbLine
 10
194.5782747344198
 20
439.9881762840155
 30
0.0
 11
209.8465558397319
 21
439.9881762840155
 31
0.0
  0
LINE
  5
4391
330
18
100
AcDbEntity
  8
1
  6
Continuous
100
AcDbLine
 10
181.5293874788205
 20
434.3881762838535
 30
0.0
 11
209.4838449344162
 21
434.3881762837738
 31
0.0
  0
LINE
  5
4392
330
18
100
AcDbEntity
  8
1
  6
Continuous
100
AcDbLine
 10
181.5293874788095
 20
377.388183283983
 30
0.0
 11
209.4838449344162
 21
377.3881832839665
 31
0.0
  0
LINE
  5
4393
330
18
100
AcDbEntity
  8
1
  6
Continuous
100
AcDbLine
 10
188.3685730130967
 20
382.5966687199461
 30
0.0
 11
188.3685730130967
 21
430.6785436518274
 31
0.0
  0
ARC
  5
4394
330
18
100
AcDbEntity
  8
1
  6
Continuous
100
AcDbCircle
 10
172.6971959344198
 20
421.3055693762918
 30
0.0
 40
3.7522
100
AcDbArc
 50
147.8112760309649
 51
180.0
  0
ARC
  5
4395
330
18
100
AcDbEntity
  8
1
  6
Continuous
100
AcDbCircle
 10
170.4458569344199
 20
421.3055693762918
 30
0.0
 40
3.7522
100
AcDbArc
 50
147.8112760309649
 51
180.0
  0
ARC
  5
4396
330
18
100
AcDbEntity
  8
1
  6
Continuous
100
AcDbCircle
 10
170.4458569344199
 20
390.4708031917391
 30
0.0
 40
3.7522
100
AcDbArc
 50
180.0
 51
212.188723969044
  0
ARC
  5
4397
330
18
100
AcDbEntity
  8
1
  6
Continuous
100
AcDbCircle
 10
172.6971959344198
 20
390.4708031917391
 30
0.0
 40
3.7522
100
AcDbArc
 50
180.0
 51
212.188723969044
  0
ARC
  5
4398
330
18
100
AcDbEntity
  8
1
  6
Continuous
100
AcDbCircle
 10
173.6248399344199
 20
433.8881862840167
 30
0.0
 40
1.0
100
AcDbArc
 50
270.0
 51
0.000000000000007
  0
ARC
  5
4399
330
18
100
AcDbEntity
  8
1
  6
Continuous
100
AcDbCircle
 10
173.6248399344199
 20
377.8881862840169
 30
0.0
 40
1.0
100
AcDbArc
 50
0.000000000000007
 51
90.0
  0
ARC
  5
439A
330
18
100
AcDbEntity
  8
1
  6
Continuous
100
AcDbCircle
 10
175.6248399344199
 20
434.8881862840168
 30
0.0
 40
2.0
100
AcDbArc
 50
270.0
 51
0.000000000000007
  0
ARC
  5
439B
330
18
100
AcDbEntity
  8
1
  6
Continuous
100
AcDbCircle
 10
175.6248399344199
 20
376.8881862840169
 30
0.0
 40
2.0
100
AcDbArc
 50
0.000000000000007
 51
90.0
  0
ARC
  5
439C
330
18
100
AcDbEntity
  8
1
  6
Continuous
100
AcDbCircle
 10
177.6248399344199
 20
376.7881802840152
 30
0.0
 40
3.0
100
AcDbArc
 50
180.0
 51
270.0
  0
ARC
  5
439D
330
18
100
AcDbEntity
  8
1
  6
Continuous
100
AcDbCircle
 10
177.6248399344199
 20
434.9881962840152
 30
0.0
 40
3.0
100
AcDbArc
 50
90.0
 51
180.0
  0
LINE
  5
439E
330
18
100
AcDbEntity
  8
1
  6
Continuous
100
AcDbLine
 10
174.6248399344199
 20
433.8881862840167
 30
0.0
 11
174.6248399344199
 21
434.9881962840152
 31
0.0
  0
LINE
  5
439F
330
18
100
AcDbEntity
  8
1
  6
Continuous
100
AcDbLine
 10
174.6248399344199
 20
376.7881802840152
 30
0.0
 11
174.6248399344199
 21
377.8881862840169
 31
0.0
  0
LINE
  5
43A0
330
18
100
AcDbEntity
  8
1
  6
Continuous
100
AcDbLine
 10
177.6248399344199
 20
376.7881802840152
 30
0.0
 11
190.8260747344197
 21
376.7881802840152
 31
0.0
  0
LINE
  5
43A1
330
18
100
AcDbEntity
  8
1
  6
Continuous
100
AcDbLine
 10
177.6248399344199
 20
434.9881962840152
 30
0.0
 11
190.8260747344197
 21
434.9881962840152
 31
0.0
  0
LINE
  5
43A2
330
18
100
AcDbEntity
  8
1
  6
Continuous
100
AcDbLine
 10
177.6248399344199
 20
376.7881802840152
 30
0.0
 11
177.6248399344199
 21
434.9881962840152
 31
0.0
  0
LINE
  5
43A3
330
18
100
AcDbEntity
  8
1
  6
Continuous
100
AcDbLine
 10
177.6248399344199
 20
437.9881962840151
 30
0.0
 11
191.2603341213889
 21
437.9881962840151
 31
0.0
  0
LINE
  5
43A4
330
18
100
AcDbEntity
  8
1
  6
Continuous
100
AcDbLine
 10
177.6248399344199
 20
373.7881802840151
 30
0.0
 11
191.2603235593721
 21
373.7881802840151
 31
0.0
  0
LINE
  5
43A5
330
18
100
AcDbEntity
  8
1
  6
Continuous
100
AcDbLine
 10
167.2703774968297
 20
388.4719697365856
 30
0.0
 11
173.3029742647931
 21
378.8881862840166
 31
0.0
  0
LINE
  5
43A6
330
18
100
AcDbEntity
  8
1
  6
Continuous
100
AcDbLine
 10
169.5217164968294
 20
388.4719697365856
 30
0.0
 11
175.5543132647933
 21
378.8881862840166
 31
0.0
  0
LINE
  5
43A7
330
18
100
AcDbEntity
  8
1
  6
Continuous
100
AcDbLine
 10
167.2703774968292
 20
423.304402831445
 30
0.0
 11
173.3029742647931
 21
432.8881862840167
 31
0.0
  0
LINE
  5
43A8
330
18
100
AcDbEntity
  8
1
  6
Continuous
100
AcDbLine
 10
169.5217164968294
 20
423.3044028314451
 30
0.0
 11
175.5543132647933
 21
432.8881862840167
 31
0.0
  0
LINE
  5
43AB
330
18
100
AcDbEntity
  8
1
  6
Continuous
100
AcDbLine
 10
175.6248399344199
 20
432.8881862840169
 30
0.0
 11
173.3029742647934
 21
432.8881862840169
 31
0.0
  0
LINE
  5
43AC
330
18
100
AcDbEntity
  8
1
  6
Continuous
100
AcDbLine
 10
175.6248399344199
 20
378.8881862840169
 30
0.0
 11
173.3029742647934
 21
378.8881862840169
 31
0.0
  0
LINE
  5
43AD
330
18
100
AcDbEntity
  8
1
  6
Continuous
100
AcDbLine
 10
168.9449959344199
 20
390.4708031917391
 30
0.0
 11
168.9449959344199
 21
421.3055693762918
 31
0.0
  0
LINE
  5
43AE
330
18
100
AcDbEntity
  8
1
  6
Continuous
100
AcDbLine
 10
166.6936569344197
 20
390.4708031917391
 30
0.0
 11
166.6936569344197
 21
421.3055693762918
 31
0.0
  0
LINE
  5
43AF
330
18
100
AcDbEntity
  8
1
  6
Continuous
100
AcDbLine
 10
209.4838449344197
 20
437.3881862840154
 30
0.0
 11
209.4838449344197
 21
374.3881862840155
 31
0.0
  0
LINE
  5
4423
330
18
100
AcDbEntity
  8
1
  6
Continuous
100
AcDbLine
 10
27.83639927768286
 20
226.5252173662074
 30
0.0
 11
27.58639380195427
 21
226.5252173662074
 31
0.0
  0
LINE
  5
4424
330
18
100
AcDbEntity
  8
1
  6
Continuous
100
AcDbLine
 10
27.83639927768286
 20
236.5252173662074
 30
0.0
 11
27.58639500190998
 21
236.5252173662074
 31
0.0
  0
ARC
  5
443B
330
18
100
AcDbEntity
  8
1
  6
Continuous
100
AcDbCircle
 10
32.91720686869849
 20
238.8864368662075
 30
0.0
 40
3.48931044130072
100
AcDbArc
 50
155.5837416246904
 51
224.6855814381506
  0
LINE
  5
443C
330
18
100
AcDbEntity
  8
1
  6
Continuous
100
AcDbLine
 10
30.75134503509275
 20
241.3401751236176
 30
0.0
 11
34.33639927768286
 21
241.3401751236176
 31
0.0
  0
LINE
  5
443D
330
18
100
AcDbEntity
  8
1
  6
Continuous
100
AcDbLine
 10
29.43638927768256
 20
240.0252193662074
 30
0.0
 11
30.75134503509275
 21
241.3401751236176
 31
0.0
  0
ARC
  5
443E
330
18
100
AcDbEntity
  8
1
  6
Continuous
100
AcDbCircle
 10
32.91720686869849
 20
224.1640018662076
 30
0.0
 40
3.48931044130072
100
AcDbArc
 50
135.3144185618493
 51
204.4162583753095
  0
ARC
  5
443F
330
18
100
AcDbEntity
  8
1
  6
Continuous
100
AcDbCircle
 10
29.0363992776829
 20
224.2252163662076
 30
0.0
 40
1.199999999999999
100
AcDbArc
 50
180.0000100000009
 51
270.0
  0
ARC
  5
4440
330
18
100
AcDbEntity
  8
1
  6
Continuous
100
AcDbCircle
 10
29.0363992776829
 20
238.8252183662075
 30
0.0
 40
1.199999999999999
100
AcDbArc
 50
90.00000299999769
 51
180.0
  0
ARC
  5
4441
330
18
100
AcDbEntity
  8
1
  6
Continuous
100
AcDbCircle
 10
41.97804982574665
 20
231.5252161649384
 30
0.0
 40
12.54166054806418
100
AcDbArc
 50
156.9649307564615
 51
203.035037459681
  0
LINE
  5
4442
330
18
100
AcDbEntity
  8
1
  6
Continuous
100
AcDbLine
 10
30.43638927768302
 20
226.6177401236175
 30
0.0
 11
34.33639927768286
 21
226.6177401236175
 31
0.0
  0
LINE
  5
4443
330
18
100
AcDbEntity
  8
1
  6
Continuous
100
AcDbLine
 10
30.43638927768302
 20
236.4326986087976
 30
0.0
 11
34.33639927768286
 21
236.4326986087976
 31
0.0
  0
LINE
  5
4444
330
18
100
AcDbEntity
  8
1
  6
Continuous
100
AcDbLine
 10
29.43638927768302
 20
223.0252193662074
 30
0.0
 11
30.75134503509275
 21
221.7102636087975
 31
0.0
  0
LINE
  5
4445
330
18
100
AcDbEntity
  8
1
  6
Continuous
100
AcDbLine
 10
29.0363992776829
 20
223.0252193662074
 30
0.0
 11
29.43638927768302
 21
223.0252193662074
 31
0.0
  0
LINE
  5
4446
330
18
100
AcDbEntity
  8
1
  6
Continuous
100
AcDbLine
 10
29.0363992776829
 20
240.0252193662074
 30
0.0
 11
29.43638927768302
 21
240.0252193662074
 31
0.0
  0
LINE
  5
4447
330
18
100
AcDbEntity
  8
1
  6
Continuous
100
AcDbLine
 10
30.75134503509298
 20
221.7102636087975
 30
0.0
 11
34.33639927768286
 21
221.7102636087975
 31
0.0
  0
LINE
  5
4448
330
18
100
AcDbEntity
  8
1
  6
Continuous
100
AcDbLine
 10
29.43638927768302
 20
223.0252193662074
 30
0.0
 11
29.43638927768302
 21
240.0252193662074
 31
0.0
  0
LINE
  5
4449
330
18
100
AcDbEntity
  8
1
  6
Continuous
100
AcDbLine
 10
27.83639927768286
 20
224.2252163662076
 30
0.0
 11
27.83639927768286
 21
238.8252183662075
 31
0.0
  0
LINE
  5
444C
330
18
100
AcDbEntity
  8
1
  6
Continuous
100
AcDbLine
 10
26.83639280195416
 20
235.7752173662074
 30
0.0
 11
26.83639280195416
 21
227.2752173662074
 31
0.0
  0
LINE
  5
444D
330
18
100
AcDbEntity
  8
1
  6
Continuous
100
AcDbLine
 10
27.58639380195427
 20
226.5252173662074
 30
0.0
 11
26.83637750195407
 21
227.275232666187
 31
0.0
  0
LINE
  5
444E
330
18
100
AcDbEntity
  8
1
  6
Continuous
100
AcDbLine
 10
26.83639280195416
 20
235.7752173662074
 30
0.0
 11
27.58639500190998
 21
236.5252173662074
 31
0.0
  0
LINE
  5
444F
330
18
100
AcDbEntity
  8
1
  6
Continuous
100
AcDbLine
 10
281.9838449344201
 20
446.8881862840155
 30
0.0
 11
218.9838449344199
 21
446.8881862840155
 31
0.0
  0
LINE
  5
4450
330
18
100
AcDbEntity
  8
4
  6
CENTER
 48
0.2
100
AcDbLine
 10
224.9838449344199
 20
437.3881862840154
 30
0.0
 11
212.9838449344199
 21
437.3881862840154
 31
0.0
  0
LINE
  5
4451
330
18
100
AcDbEntity
  8
4
  6
CENTER
 48
0.2
100
AcDbLine
 10
287.9838449344201
 20
437.3881862840154
 30
0.0
 11
275.9838449344199
 21
437.3881862840154
 31
0.0
  0
ARC
  5
4452
330
18
100
AcDbEntity
  8
1
  6
Continuous
100
AcDbCircle
 10
218.9838449344199
 20
437.3881862840154
 30
0.0
 40
9.5
100
AcDbArc
 50
90.00001799999918
 51
180.0
  0
ARC
  5
4453
330
18
100
AcDbEntity
  8
1
  6
Continuous
100
AcDbCircle
 10
281.9838449344201
 20
437.3881862840154
 30
0.0
 40
9.5
100
AcDbArc
 50
0.0000400000007758
 51
90.00001799999918
  0
CIRCLE
  5
4454
330
18
100
AcDbEntity
  8
1
  6
Continuous
100
AcDbCircle
 10
218.9838449344199
 20
437.3881862840154
 30
0.0
 40
4.400000099999996
  0
CIRCLE
  5
4455
330
18
100
AcDbEntity
  8
1
  6
Continuous
100
AcDbCircle
 10
281.9838449344201
 20
437.3881862840154
 30
0.0
 40
4.400000099999996
  0
LINE
  5
4456
330
18
100
AcDbEntity
  8
4
  6
CENTER
 48
0.5
100
AcDbLine
 10
296.4838449344199
 20
405.8881862840155
 30
0.0
 11
161.6936569344197
 21
405.8881862840153
 31
0.0
  0
LINE
  5
4457
330
18
100
AcDbEntity
  8
4
  6
CENTER
 48
0.2
100
AcDbLine
 10
218.9838449344199
 20
443.3881862840155
 30
0.0
 11
218.9838449344199
 21
431.3881862840155
 31
0.0
  0
LINE
  5
4458
330
18
100
AcDbEntity
  8
4
  6
CENTER
 48
0.2
100
AcDbLine
 10
281.9838449344201
 20
443.3881862840155
 30
0.0
 11
281.9838449344201
 21
431.3881862840155
 31
0.0
  0
CIRCLE
  5
4459
330
18
100
AcDbEntity
  8
1
  6
Continuous
100
AcDbCircle
 10
250.4838449344201
 20
405.8881862840155
 30
0.0
 40
12.0
  0
CIRCLE
  5
445A
330
18
100
AcDbEntity
  8
1
  6
Continuous
100
AcDbCircle
 10
250.4838449344201
 20
405.8881862840155
 30
0.0
 40
15.5
  0
CIRCLE
  5
445B
330
18
100
AcDbEntity
  8
1
  6
Continuous
100
AcDbCircle
 10
250.4838449344201
 20
405.8881862840155
 30
0.0
 40
29.0
  0
LINE
  5
445C
330
18
100
AcDbEntity
  8
1
  6
Continuous
100
AcDbLine
 10
209.4838449344197
 20
437.3881862840154
 30
0.0
 11
209.4838449344197
 21
374.3881862840155
 31
0.0
  0
LINE
  5
445D
330
18
100
AcDbEntity
  8
1
  6
Continuous
100
AcDbLine
 10
291.4838449344198
 20
437.3881862840154
 30
0.0
 11
291.4838449344198
 21
374.3881862840155
 31
0.0
  0
LINE
  5
445E
330
18
100
AcDbEntity
  8
4
  6
CENTER
 48
0.2
100
AcDbLine
 10
281.9838449344201
 20
380.3881862840155
 30
0.0
 11
281.9838449344201
 21
368.3881862840155
 31
0.0
  0
LINE
  5
445F
330
18
100
AcDbEntity
  8
4
  6
CENTER
 48
0.2
100
AcDbLine
 10
218.9838449344199
 20
380.3881862840155
 30
0.0
 11
218.9838449344199
 21
368.3881862840155
 31
0.0
  0
LINE
  5
4460
330
18
100
AcDbEntity
  8
4
  6
CENTER
 48
0.2
100
AcDbLine
 10
287.9838449344201
 20
374.3881862840155
 30
0.0
 11
275.9838449344199
 21
374.3881862840155
 31
0.0
  0
LINE
  5
4461
330
18
100
AcDbEntity
  8
4
  6
CENTER
 48
0.2
100
AcDbLine
 10
224.9838449344199
 20
374.3881862840155
 30
0.0
 11
212.9838449344199
 21
374.3881862840155
 31
0.0
  0
LINE
  5
4464
330
18
100
AcDbEntity
  8
1
  6
Continuous
100
AcDbLine
 10
284.4838560652631
 20
269.5252372713702
 30
0.0
 11
283.14621393442
 21
276.4068353662076
 31
0.0
  0
LINE
  5
4465
330
18
100
AcDbEntity
  8
1
  6
Continuous
100
AcDbLine
 10
280.4838449344202
 20
280.0252173662077
 30
0.0
 11
280.4838449344202
 21
279.0252173662076
 31
0.0
  0
LINE
  5
4466
330
18
100
AcDbEntity
  8
1
  6
Continuous
100
AcDbLine
 10
280.4838299344199
 20
287.0252197662077
 30
0.0
 11
279.4275099344202
 21
283.4252183662076
 31
0.0
  0
ARC
  5
4467
330
18
100
AcDbEntity
  8
1
  6
Continuous
100
AcDbCircle
 10
218.9838449344199
 20
374.3881862840155
 30
0.0
 40
9.5
100
AcDbArc
 50
180.0
 51
269.9999800000044
  0
CIRCLE
  5
4468
330
18
100
AcDbEntity
  8
1
  6
Continuous
100
AcDbCircle
 10
218.9838449344199
 20
374.3881862840155
 30
0.0
 40
4.400000099999996
  0
CIRCLE
  5
4469
330
18
100
AcDbEntity
  8
1
  6
Continuous
100
AcDbCircle
 10
281.9838449344201
 20
374.3881862840155
 30
0.0
 40
4.400000099999996
  0
CIRCLE
  5
446A
330
18
100
AcDbEntity
  8
1
  6
Continuous
100
AcDbCircle
 10
250.4838449344201
 20
405.8881862840155
 30
0.0
 40
31.5
  0
ARC
  5
446B
330
18
100
AcDbEntity
  8
1
  6
Continuous
100
AcDbCircle
 10
274.4838449344201
 20
280.0252173662077
 30
0.0
 40
6.0
100
AcDbArc
 50
0.000000000000007
 51
34.51812000000231
  0
ARC
  5
446C
330
18
100
AcDbEntity
  8
1
  6
Continuous
100
AcDbCircle
 10
281.1829419344201
 20
276.0252173662077
 30
0.0
 40
2.0
100
AcDbArc
 50
10.99994800000077
 51
89.99998200000083
  0
ARC
  5
446D
330
18
100
AcDbEntity
  8
1
  6
Continuous
100
AcDbCircle
 10
281.4838449344198
 20
279.0252173662076
 30
0.0
 40
1.0
100
AcDbArc
 50
179.9999800000012
 51
270.0000300000029
  0
LINE
  5
446F
330
18
100
AcDbEntity
  8
4
  6
CENTER
 48
0.5
100
AcDbLine
 10
250.48384493442
 20
451.8881862840155
 30
0.0
 11
250.48384493442
 21
359.8881862840155
 31
0.0
  0
LINE
  5
4470
330
18
100
AcDbEntity
  8
1
  6
Continuous
100
AcDbLine
 10
281.9838449344201
 20
364.8881862840155
 30
0.0
 11
218.9838449344199
 21
364.8881862840155
 31
0.0
  0
LINE
  5
4471
330
18
100
AcDbEntity
  8
1
  6
Continuous
100
AcDbLine
 10
80.92436927768288
 20
275.1169053662076
 30
0.0
 11
87.67213927768263
 21
271.9650343662076
 31
0.0
  0
LINE
  5
4472
330
18
100
AcDbEntity
  8
1
  6
Continuous
100
AcDbLine
 10
94.93640927768295
 20
264.4015943662075
 30
0.0
 11
94.93640927768295
 21
237.8370323191272
 31
0.0
  0
LINE
  5
4473
330
18
100
AcDbEntity
  8
1
  6
Continuous
100
AcDbLine
 10
30.73639327768296
 20
264.4015943662075
 30
0.0
 11
30.73639327768296
 21
241.3252233662076
 31
0.0
  0
LINE
  5
4474
330
18
100
AcDbEntity
  8
4
  6
CENTER
 48
0.2
100
AcDbLine
 10
199.82607473442
 20
270.8015733662075
 30
0.0
 11
199.82607473442
 21
258.8015733662075
 31
0.0
  0
LINE
  5
4475
330
18
100
AcDbEntity
  8
1
  6
Continuous
100
AcDbLine
 10
216.08763093442
 20
248.2582953662074
 30
0.0
 11
210.33152123442
 21
242.1717743662075
 31
0.0
  0
LINE
  5
4476
330
18
100
AcDbEntity
  8
4
  6
CENTER
 48
0.2
100
AcDbLine
 10
205.82607477442
 20
264.8015733662075
 30
0.0
 11
193.8260749344201
 21
264.8015733662075
 31
0.0
  0
LINE
  5
4477
330
18
100
AcDbEntity
  8
1
  6
Continuous
100
AcDbLine
 10
89.33639927768286
 20
219.5252173662075
 30
0.0
 11
85.33639927768286
 21
219.5252173662075
 31
0.0
  0
LINE
  5
4478
330
18
100
AcDbEntity
  8
1
  6
Continuous
100
AcDbLine
 10
217.23093093442
 20
271.7252183662075
 30
0.0
 11
225.9926869344201
 21
271.7252183662075
 31
0.0
  0
LINE
  5
4479
330
18
100
AcDbEntity
  8
1
  6
Continuous
100
AcDbLine
 10
188.7371429344202
 20
246.2689573662075
 30
0.0
 11
212.8245226344201
 21
230.8813233662076
 31
0.0
  0
LINE
  5
447A
330
18
100
AcDbEntity
  8
1
  6
Continuous
100
AcDbLine
 10
187.5210059344201
 20
272.7693963662074
 30
0.0
 11
182.9427259344202
 21
263.7840193662075
 31
0.0
  0
LINE
  5
447B
330
18
100
AcDbEntity
  8
1
  6
Continuous
100
AcDbLine
 10
227.4838469344201
 20
217.2252143662076
 30
0.0
 11
227.0367719344201
 21
219.5252093662077
 31
0.0
  0
LINE
  5
447C
330
18
100
AcDbEntity
  8
4
  6
CENTER
 48
0.5
100
AcDbLine
 10
250.4838449344201
 20
299.0252173662076
 30
0.0
 11
250.4838449344201
 21
267.5542357392173
 31
0.0
  0
LINE
  5
447E
330
18
100
AcDbEntity
  8
1
  6
Continuous
100
AcDbLine
 10
209.4838411344201
 20
294.0252173662077
 30
0.0
 11
291.4838449344201
 21
294.0252173662077
 31
0.0
  0
LINE
  5
4480
330
18
100
AcDbEntity
  8
4
  6
CENTER
 48
0.5
100
AcDbLine
 10
184.9838409344197
 20
231.5252173662074
 30
0.0
 11
269.9838409344197
 21
231.5252173662074
 31
0.0
  0
LINE
  5
4482
330
18
100
AcDbEntity
  8
1
  6
Continuous
100
AcDbLine
 10
217.4838409344199
 20
278.0252173662077
 30
0.0
 11
281.1829419344201
 21
278.0252173662077
 31
0.0
  0
LINE
  5
4484
330
18
100
AcDbEntity
  8
1
  6
Continuous
100
AcDbLine
 10
239.5587009344201
 20
227.0547503662076
 30
0.0
 11
230.2554649344201
 21
274.9157713662075
 31
0.0
  0
LINE
  5
4485
330
18
100
AcDbEntity
  8
1
  6
Continuous
100
AcDbLine
 10
220.4838409344199
 20
280.0252173662077
 30
0.0
 11
220.4838409344199
 21
279.0252173662076
 31
0.0
  0
LINE
  5
4487
330
18
100
AcDbEntity
  8
1
  6
Continuous
100
AcDbLine
 10
221.5401609344201
 20
283.4252173662075
 30
0.0
 11
279.42752493442
 21
283.4252173662075
 31
0.0
  0
LINE
  5
4488
330
18
100
AcDbEntity
  8
1
  6
Continuous
100
AcDbLine
 10
220.4838449344201
 20
287.0252163662076
 30
0.0
 11
221.5401609344201
 21
283.4252163662074
 31
0.0
  0
LINE
  5
4489
330
18
100
AcDbEntity
  8
4
  6
CENTER
 48
0.2
100
AcDbLine
 10
205.9722120144199
 20
251.7944353662076
 30
0.0
 11
205.9722120144199
 21
240.7944353662076
 31
0.0
  0
LINE
  5
448A
330
18
100
AcDbEntity
  8
1
  6
Continuous
100
AcDbLine
 10
30.83640727768283
 20
274.5530803662072
 30
0.0
 11
30.81739427768297
 21
273.8015693662075
 31
0.0
  0
LINE
  5
448C
330
18
100
AcDbEntity
  8
4
  6
CENTER
 48
0.5
100
AcDbLine
 10
100.3363992776828
 20
231.5252173662074
 30
0.0
 11
21.83639280195416
 21
231.5252173662075
 31
0.0
  0
LINE
  5
448F
330
18
100
AcDbEntity
  8
1
  6
Continuous
100
AcDbLine
 10
32.8364142776827
 20
287.0252235662076
 30
0.0
 11
33.8927342776824
 21
283.4252283662074
 31
0.0
  0
LINE
  5
4490
330
18
100
AcDbEntity
  8
1
  6
Continuous
100
AcDbLine
 10
92.83639927768286
 20
287.0252254662075
 30
0.0
 11
91.78007927768296
 21
283.4252193662075
 31
0.0
  0
LINE
  5
4491
330
18
100
AcDbEntity
  8
1
  6
Continuous
100
AcDbLine
 10
91.78005927768277
 20
283.4252173662075
 30
0.0
 11
33.89271927768254
 21
283.4252173662075
 31
0.0
  0
LINE
  5
4493
330
18
100
AcDbEntity
  8
1
  6
Continuous
100
AcDbLine
 10
32.83639927768286
 20
280.0252173662077
 30
0.0
 11
32.83639927768286
 21
279.0252173662076
 31
0.0
  0
LINE
  5
4494
330
18
100
AcDbEntity
  8
1
  6
Continuous
100
AcDbLine
 10
92.83639927768286
 20
280.0252173662077
 30
0.0
 11
92.83639927768286
 21
279.0252173662076
 31
0.0
  0
LINE
  5
4497
330
18
100
AcDbEntity
  8
1
  6
Continuous
100
AcDbLine
 10
93.43420927768306
 20
278.0252173662077
 30
0.0
 11
32.23859027768298
 21
278.0252173662077
 31
0.0
  0
LINE
  5
4498
330
18
100
AcDbEntity
  8
4
  6
CENTER
 48
0.5
100
AcDbLine
 10
62.83639927768274
 20
299.0252173662076
 30
0.0
 11
62.83639927768286
 21
189.0252173662074
 31
0.0
  0
LINE
  5
449A
330
18
100
AcDbEntity
  8
1
  6
Continuous
100
AcDbLine
 10
103.836399277683
 20
294.0252173662077
 30
0.0
 11
21.83639927768286
 21
294.0252173662077
 31
0.0
  0
LINE
  5
449B
330
18
100
AcDbEntity
  8
1
  6
Continuous
100
AcDbLine
 10
189.57031993442
 20
274.0252173662074
 30
0.0
 11
222.9371759344201
 21
274.0252173662074
 31
0.0
  0
LINE
  5
449C
330
18
100
AcDbEntity
  8
1
  6
Continuous
100
AcDbLine
 10
189.57031993442
 20
271.7252183662075
 30
0.0
 11
194.07602293442
 21
271.7252183662075
 31
0.0
  0
LINE
  5
449D
330
18
100
AcDbEntity
  8
1
  6
Continuous
100
AcDbLine
 10
190.98057693442
 20
263.1411043662076
 30
0.0
 11
192.24980193442
 21
263.1688023662077
 31
0.0
  0
LINE
  5
449E
330
18
100
AcDbEntity
  8
1
  6
Continuous
100
AcDbLine
 10
174.61838593442
 20
264.4015963662075
 30
0.0
 11
192.9334809344202
 21
262.9186673662075
 31
0.0
  0
LINE
  5
449F
330
18
100
AcDbEntity
  8
1
  6
Continuous
100
AcDbLine
 10
91.93640927768296
 20
250.7832703662074
 30
0.0
 11
91.93640927768296
 21
240.5252173662074
 31
0.0
  0
LINE
  5
44A0
330
18
100
AcDbEntity
  8
1
  6
Continuous
100
AcDbLine
 10
33.73639327768297
 20
250.7832703662074
 30
0.0
 11
33.73639327768297
 21
241.3401751236176
 31
0.0
  0
LINE
  5
44A1
330
18
100
AcDbEntity
  8
1
  6
Continuous
100
AcDbLine
 10
85.33639927768286
 20
247.9330963662075
 30
0.0
 11
85.33639927768286
 21
217.5252173662075
 31
0.0
  0
LINE
  5
44A2
330
18
100
AcDbEntity
  8
1
  6
Continuous
100
AcDbLine
 10
89.03639927768292
 20
217.5252173662075
 30
0.0
 11
85.33639927768286
 21
217.5252173662075
 31
0.0
  0
LINE
  5
44A3
330
18
100
AcDbEntity
  8
1
  6
Continuous
100
AcDbLine
 10
91.3363792776829
 20
274.0252173662074
 30
0.0
 11
91.3363792776829
 21
264.4651053662075
 31
0.0
  0
LINE
  5
44A4
330
18
100
AcDbEntity
  8
1
  6
Continuous
100
AcDbLine
 10
40.33639927768286
 20
217.5252173662074
 30
0.0
 11
36.63640227768246
 21
217.5252173662074
 31
0.0
  0
LINE
  5
44A5
330
18
100
AcDbEntity
  8
1
  6
Continuous
100
AcDbLine
 10
34.33639927768286
 20
274.0252173662074
 30
0.0
 11
34.33639927768286
 21
264.4651013662076
 31
0.0
  0
LINE
  5
44A6
330
18
100
AcDbEntity
  8
1
  6
Continuous
100
AcDbLine
 10
40.33639927768286
 20
219.5252173662075
 30
0.0
 11
36.33639927768285
 21
219.5252173662075
 31
0.0
  0
LINE
  5
44A7
330
18
100
AcDbEntity
  8
1
  6
Continuous
100
AcDbLine
 10
89.33639927768286
 20
250.7832703662074
 30
0.0
 11
89.33639927768286
 21
219.5252173662075
 31
0.0
  0
LINE
  5
44A8
330
18
100
AcDbEntity
  8
1
  6
Continuous
100
AcDbLine
 10
36.33639927768285
 20
250.7832703662074
 30
0.0
 11
36.33639927768285
 21
219.5252173662075
 31
0.0
  0
LINE
  5
44A9
330
18
100
AcDbEntity
  8
1
  6
Continuous
100
AcDbLine
 10
40.33639927768286
 20
247.9330963662075
 30
0.0
 11
40.33639927768286
 21
217.5252173662075
 31
0.0
  0
LINE
  5
44AA
330
18
100
AcDbEntity
  8
1
  6
Continuous
100
AcDbLine
 10
91.3363792776829
 20
274.0252173662074
 30
0.0
 11
83.26153927768293
 21
274.0252173662074
 31
0.0
  0
LINE
  5
44AB
330
18
100
AcDbEntity
  8
1
  6
Continuous
100
AcDbLine
 10
34.33639927768286
 20
250.7832703662074
 30
0.0
 11
34.33639927768286
 21
219.8252203662075
 31
0.0
  0
LINE
  5
44AC
330
18
100
AcDbEntity
  8
1
  6
Continuous
100
AcDbLine
 10
91.3363792776829
 20
250.7832703662074
 30
0.0
 11
91.3363792776829
 21
219.8177363662075
 31
0.0
  0
LINE
  5
44AD
330
18
100
AcDbEntity
  8
1
  6
Continuous
100
AcDbLine
 10
28.73639327768296
 20
271.8015693662075
 30
0.0
 11
28.73639327768296
 21
250.5037333662075
 31
0.0
  0
LINE
  5
44AE
330
18
100
AcDbEntity
  8
1
  6
Continuous
100
AcDbLine
 10
91.83639927768286
 20
273.8015693662075
 30
0.0
 11
91.83639927768286
 21
264.3999273662075
 31
0.0
  0
LINE
  5
44AF
330
18
100
AcDbEntity
  8
1
  6
Continuous
100
AcDbLine
 10
33.83639927768285
 20
273.8015693662075
 30
0.0
 11
33.83639927768285
 21
264.4015943662075
 31
0.0
  0
LINE
  5
44B0
330
18
100
AcDbEntity
  8
1
  6
Continuous
100
AcDbLine
 10
96.93638927768304
 20
271.8015693662075
 30
0.0
 11
96.93638927768304
 21
250.5037333662075
 31
0.0
  0
LINE
  5
44B1
330
18
100
AcDbEntity
  8
1
  6
Continuous
100
AcDbLine
 10
209.5353266344202
 20
273.8016833662074
 30
0.0
 11
199.82596843442
 21
273.8015693662075
 31
0.0
  0
LINE
  5
44B2
330
18
100
AcDbEntity
  8
1
  6
Continuous
100
AcDbLine
 10
221.72112493442
 20
263.8278353662076
 30
0.0
 11
216.5042289344201
 21
254.5747553662074
 31
0.0
  0
LINE
  5
44B3
330
18
100
AcDbEntity
  8
1
  6
Continuous
100
AcDbLine
 10
221.7211309344199
 20
263.8278353662076
 30
0.0
 11
223.5538389344201
 21
264.6285763662076
 31
0.0
  0
LINE
  5
44B4
330
18
100
AcDbEntity
  8
1
  6
Continuous
100
AcDbLine
 10
195.5236064344201
 20
259.2799093662076
 30
0.0
 11
204.6183993244201
 21
252.1932623662075
 31
0.0
  0
LINE
  5
44B5
330
18
100
AcDbEntity
  8
4
  6
CENTER
 48
0.2
100
AcDbLine
 10
209.6915094344201
 20
264.2510343662074
 30
0.0
 11
209.6915094344201
 21
253.2510363662074
 31
0.0
  0
LINE
  5
44B6
330
18
100
AcDbEntity
  8
1
  6
Continuous
100
AcDbLine
 10
222.9371759344201
 20
274.0252173662074
 30
0.0
 11
222.9371759344201
 21
271.7252183662075
 31
0.0
  0
LINE
  5
44B7
330
18
100
AcDbEntity
  8
1
  6
Continuous
100
AcDbLine
 10
174.6248399344201
 20
264.4813503662076
 30
0.0
 11
173.5353399344201
 21
251.0253813662075
 31
0.0
  0
LINE
  5
44B8
330
18
100
AcDbEntity
  8
1
  6
Continuous
100
AcDbLine
 10
209.3485061344199
 20
238.8576453662078
 30
0.0
 11
206.9699142344199
 21
240.3779663662078
 31
0.0
  0
LINE
  5
44B9
330
18
100
AcDbEntity
  8
4
  6
CENTER
 48
0.2
100
AcDbLine
 10
211.4722101344202
 20
246.2944353662076
 30
0.0
 11
200.4722120344199
 21
246.2944353662076
 31
0.0
  0
LINE
  5
44BA
330
18
100
AcDbEntity
  8
4
  6
CENTER
 48
0.2
100
AcDbLine
 10
215.1915094344201
 20
258.7510363662074
 30
0.0
 11
204.1915094344201
 21
258.7510363662074
 31
0.0
  0
LINE
  5
44BB
330
18
100
AcDbEntity
  8
1
  6
Continuous
100
AcDbLine
 10
35.83639927768285
 20
268.5653913662074
 30
0.0
 11
35.83639927768285
 21
266.4015943662075
 31
0.0
  0
LINE
  5
44BC
330
18
100
AcDbEntity
  8
1
  6
Continuous
100
AcDbLine
 10
79.33639927768286
 20
275.4694943662075
 30
0.0
 11
46.33639927768284
 21
275.4694943662075
 31
0.0
  0
LINE
  5
44BD
330
18
100
AcDbEntity
  8
1
  6
Continuous
100
AcDbLine
 10
79.33639927768286
 20
273.4866983662075
 30
0.0
 11
46.33639927768284
 21
273.4866983662075
 31
0.0
  0
LINE
  5
44BE
330
18
100
AcDbEntity
  8
1
  6
Continuous
100
AcDbLine
 10
89.83639927768285
 20
268.5653913662074
 30
0.0
 11
89.83639927768285
 21
266.4015943662075
 31
0.0
  0
LINE
  5
44BF
330
18
100
AcDbEntity
  8
1
  6
Continuous
100
AcDbLine
 10
166.6936569344199
 20
273.4866983662075
 30
0.0
 11
174.6248419344199
 21
264.4813483662076
 31
0.0
  0
LINE
  5
44C0
330
18
100
AcDbEntity
  8
1
  6
Continuous
100
AcDbLine
 10
176.5255549344199
 20
250.7832703662077
 30
0.0
 11
173.5353399344201
 21
251.0253813662075
 31
0.0
  0
LINE
  5
44C1
330
18
100
AcDbEntity
  8
1
  6
Continuous
100
AcDbLine
 10
176.5255609344201
 20
250.7832743662074
 30
0.0
 11
203.8917696344199
 21
240.6666743662076
 31
0.0
  0
LINE
  5
44C2
330
18
100
AcDbEntity
  8
1
  6
Continuous
100
AcDbLine
 10
168.9449959344201
 20
275.4694943662075
 30
0.0
 11
176.8761789344202
 21
266.4641443662076
 31
0.0
  0
LINE
  5
44C3
330
18
100
AcDbEntity
  8
1
  6
Continuous
100
AcDbLine
 10
168.9449959344201
 20
275.4694943662073
 30
0.0
 11
166.6936569344201
 21
273.4866983662075
 31
0.0
  0
LINE
  5
44C4
330
18
100
AcDbEntity
  8
1
  6
Continuous
100
AcDbLine
 10
228.9310339344199
 20
269.3303013662075
 30
0.0
 11
238.8461562744168
 21
220.8977565901347
 31
0.0
  0
LINE
  5
44C5
330
18
100
AcDbEntity
  8
1
  6
Continuous
100
AcDbLine
 10
91.93640927768296
 20
250.7832703662074
 30
0.0
 11
33.73639327768297
 21
250.7832703662074
 31
0.0
  0
LINE
  5
44C6
330
18
100
AcDbEntity
  8
1
  6
Continuous
100
AcDbLine
 10
91.93640927768296
 20
251.0253813662075
 30
0.0
 11
33.73639327768297
 21
251.0253813662075
 31
0.0
  0
LINE
  5
44C7
330
18
100
AcDbEntity
  8
1
  6
Continuous
100
AcDbLine
 10
94.93640927768295
 20
264.4015943662075
 30
0.0
 11
91.83639927768286
 21
264.4015943662075
 31
0.0
  0
LINE
  5
44C8
330
18
100
AcDbEntity
  8
1
  6
Continuous
100
AcDbLine
 10
44.74843227768292
 20
275.1169113662074
 30
0.0
 11
38.00066027768252
 21
271.9650383662076
 31
0.0
  0
LINE
  5
44C9
330
18
100
AcDbEntity
  8
1
  6
Continuous
100
AcDbLine
 10
44.74843227768269
 20
273.1341153662076
 30
0.0
 11
38.00066027768298
 21
269.9822413662075
 31
0.0
  0
LINE
  5
44CA
330
18
100
AcDbEntity
  8
1
  6
Continuous
100
AcDbLine
 10
42.41125127768305
 20
274.0252173662074
 30
0.0
 11
34.33639927768286
 21
274.0252173662074
 31
0.0
  0
LINE
  5
44CB
330
18
100
AcDbEntity
  8
1
  6
Continuous
100
AcDbLine
 10
80.92436927768288
 20
273.1341133662074
 30
0.0
 11
87.67212927768287
 21
269.9822433662075
 31
0.0
  0
LINE
  5
44CC
330
18
100
AcDbEntity
  8
1
  6
Continuous
100
AcDbLine
 10
94.93638927768257
 20
273.8015693662075
 30
0.0
 11
91.83639927768286
 21
273.8015693662075
 31
0.0
  0
LINE
  5
44CD
330
18
100
AcDbEntity
  8
1
  6
Continuous
100
AcDbLine
 10
33.83639927768285
 20
273.8015693662075
 30
0.0
 11
30.73639327768296
 21
273.8015693662075
 31
0.0
  0
LINE
  5
44CE
330
18
100
AcDbEntity
  8
1
  6
Continuous
100
AcDbLine
 10
94.83639927768285
 20
274.5530813662075
 30
0.0
 11
94.85540927768306
 21
273.8015693662075
 31
0.0
  0
LINE
  5
44CF
330
18
100
AcDbEntity
  8
1
  6
Continuous
100
AcDbLine
 10
89.33639927768286
 20
264.4015943662075
 30
0.0
 11
36.33639927768285
 21
264.4015943662075
 31
0.0
  0
LINE
  5
44D0
330
18
100
AcDbEntity
  8
1
  6
Continuous
100
AcDbLine
 10
33.83639927768285
 20
264.4015943662075
 30
0.0
 11
30.73639327768296
 21
264.4015943662075
 31
0.0
  0
LINE
  5
44D1
330
18
100
AcDbEntity
  8
1
  6
Continuous
100
AcDbLine
 10
30.13639427768294
 20
249.5444353662076
 30
0.0
 11
30.13639427768294
 21
243.0444353662076
 31
0.0
  0
LINE
  5
44D2
330
18
100
AcDbEntity
  8
1
  6
Continuous
100
AcDbLine
 10
30.13639427768294
 20
243.0444353662076
 30
0.0
 11
30.73639327768296
 21
243.9599023662076
 31
0.0
  0
LINE
  5
44D3
330
18
100
AcDbEntity
  8
1
  6
Continuous
100
AcDbLine
 10
30.73639327768296
 20
248.9599283662075
 30
0.0
 11
30.13639427768294
 21
249.5444353662076
 31
0.0
  0
LINE
  5
44D4
330
18
100
AcDbEntity
  8
4
  6
CENTER
 48
0.2
100
AcDbLine
 10
42.5958822776829
 20
246.2944353662076
 30
0.0
 11
25.38579927768296
 21
246.2944353662076
 31
0.0
  0
LINE
  5
44D5
330
18
100
AcDbEntity
  8
1
  6
Continuous
100
AcDbLine
 10
28.13639427768293
 20
260.8476348822018
 30
0.0
 11
28.13639427768293
 21
255.5010363662074
 31
0.0
  0
LINE
  5
44D6
330
18
100
AcDbEntity
  8
1
  6
Continuous
100
AcDbLine
 10
28.13639427768293
 20
255.5010363662074
 30
0.0
 11
28.73639327768296
 21
256.4165023662076
 31
0.0
  0
LINE
  5
44D7
330
18
100
AcDbEntity
  8
1
  6
Continuous
100
AcDbLine
 10
94.93640927768295
 20
248.9599323662073
 30
0.0
 11
95.53639927768269
 21
249.5444353662076
 31
0.0
  0
LINE
  5
44D8
330
18
100
AcDbEntity
  8
4
  6
CENTER
 48
0.2
100
AcDbLine
 10
83.24587927768289
 20
246.2944353662076
 30
0.0
 11
100.286989277683
 21
246.2944353662076
 31
0.0
  0
LINE
  5
44D9
330
18
100
AcDbEntity
  8
1
  6
Continuous
100
AcDbLine
 10
95.53640927768288
 20
249.5444353662076
 30
0.0
 11
95.53640927768288
 21
243.0444353662076
 31
0.0
  0
LINE
  5
44DA
330
18
100
AcDbEntity
  8
1
  6
Continuous
100
AcDbLine
 10
97.53640927768266
 20
255.5010323662072
 30
0.0
 11
96.93640927768251
 21
256.4165063662073
 31
0.0
  0
LINE
  5
44DB
330
18
100
AcDbEntity
  8
1
  6
Continuous
100
AcDbLine
 10
97.53640927768287
 20
260.3216192157678
 30
0.0
 11
97.53640927768287
 21
255.5010363662074
 31
0.0
  0
LINE
  5
44DC
330
18
100
AcDbEntity
  8
1
  6
Continuous
100
AcDbLine
 10
95.53639927768314
 20
243.0444353662076
 30
0.0
 11
94.93640927768295
 21
243.9599023662076
 31
0.0
  0
LINE
  5
44DD
330
18
100
AcDbEntity
  8
1
  6
Continuous
100
AcDbLine
 10
28.73638927768297
 20
261.4165293662074
 30
0.0
 11
28.51141927768299
 21
261.6356913662075
 31
0.0
  0
LINE
  5
44DE
330
18
100
AcDbEntity
  8
4
  6
CENTER
 48
0.2
100
AcDbLine
 10
100.5954892776828
 20
258.7510363662074
 30
0.0
 11
93.27728927768273
 21
258.7510363662074
 31
0.0
  0
LINE
  5
44DF
330
18
100
AcDbEntity
  8
4
  6
CENTER
 48
0.2
100
AcDbLine
 10
32.39550427768245
 20
258.7510363662074
 30
0.0
 11
25.07728227768257
 21
258.7510363662074
 31
0.0
  0
LINE
  5
44E0
330
18
100
AcDbEntity
  8
4
  6
CENTER
 48
0.5
100
AcDbLine
 10
100.8728492776829
 20
264.8015693662075
 30
0.0
 11
23.3375512776829
 21
264.8015693662075
 31
0.0
  0
LINE
  5
44E1
330
18
100
AcDbEntity
  8
1
  6
Continuous
100
AcDbLine
 10
98.93640527768296
 20
269.1745533662076
 30
0.0
 11
98.93640527768296
 21
260.4285873662074
 31
0.0
  0
LINE
  5
44E2
330
18
100
AcDbEntity
  8
1
  6
Continuous
100
AcDbLine
 10
27.43640927768296
 20
267.8015693662075
 30
0.0
 11
27.43640927768296
 21
261.8015693662075
 31
0.0
  0
LINE
  5
44E3
330
18
100
AcDbEntity
  8
1
  6
Continuous
100
AcDbLine
 10
96.93638927768256
 20
250.5037333662075
 30
0.0
 11
94.93640927768295
 21
250.5037333662075
 31
0.0
  0
LINE
  5
44E4
330
18
100
AcDbEntity
  8
1
  6
Continuous
100
AcDbLine
 10
91.33639927768284
 20
240.5252173662074
 30
0.0
 11
92.38956127768302
 21
240.5252173662074
 31
0.0
  0
LINE
  5
44E5
330
18
100
AcDbEntity
  8
1
  6
Continuous
100
AcDbLine
 10
91.33639927768284
 20
222.5252173662074
 30
0.0
 11
92.38956127768302
 21
222.5252173662074
 31
0.0
  0
LINE
  5
44E6
330
18
100
AcDbEntity
  8
1
  6
Continuous
100
AcDbLine
 10
30.73639327768296
 20
250.5037333662075
 30
0.0
 11
28.73639327768296
 21
250.5037333662075
 31
0.0
  0
LINE
  5
44E7
330
18
100
AcDbEntity
  8
1
  6
Continuous
100
AcDbLine
 10
95.93638927768299
 20
263.1411043662076
 30
0.0
 11
94.93640927768295
 21
263.1411043662076
 31
0.0
  0
LINE
  5
44E8
330
18
100
AcDbEntity
  8
1
  6
Continuous
100
AcDbLine
 10
30.73639327768296
 20
263.1411043662076
 30
0.0
 11
29.73639327768296
 21
263.1411043662076
 31
0.0
  0
LINE
  5
44E9
330
18
100
AcDbEntity
  8
1
  6
Continuous
100
AcDbLine
 10
89.33639927768286
 20
239.5636163662075
 30
0.0
 11
88.13639927768305
 21
239.5636163662075
 31
0.0
  0
LINE
  5
44EA
330
18
100
AcDbEntity
  8
1
  6
Continuous
100
AcDbLine
 10
85.33639927768286
 20
247.9330963662075
 30
0.0
 11
75.83639927768285
 21
247.9330963662075
 31
0.0
  0
LINE
  5
44EB
330
18
100
AcDbEntity
  8
1
  6
Continuous
100
AcDbLine
 10
38.33639927768285
 20
250.7832703662074
 30
0.0
 11
38.33639927768285
 21
249.9330963662075
 31
0.0
  0
LINE
  5
44EC
330
18
100
AcDbEntity
  8
1
  6
Continuous
100
AcDbLine
 10
87.33639927768285
 20
250.7832703662074
 30
0.0
 11
87.33639927768285
 21
249.9330963662075
 31
0.0
  0
LINE
  5
44ED
330
18
100
AcDbEntity
  8
1
  6
Continuous
100
AcDbLine
 10
74.83639927768286
 20
250.7832703662074
 30
0.0
 11
74.83639927768286
 21
248.9330963662075
 31
0.0
  0
LINE
  5
44EE
330
18
100
AcDbEntity
  8
1
  6
Continuous
100
AcDbLine
 10
50.83639927768285
 20
250.7832703662074
 30
0.0
 11
50.83639927768285
 21
248.9330963662075
 31
0.0
  0
LINE
  5
44EF
330
18
100
AcDbEntity
  8
1
  6
Continuous
100
AcDbLine
 10
49.83639927768286
 20
247.9330963662075
 30
0.0
 11
40.33639927768286
 21
247.9330963662075
 31
0.0
  0
LINE
  5
44F0
330
18
100
AcDbEntity
  8
1
  6
Continuous
100
AcDbLine
 10
88.13639927768305
 20
250.7832703662074
 30
0.0
 11
88.13639927768305
 21
239.5636163662075
 31
0.0
  0
LINE
  5
44F1
330
18
100
AcDbEntity
  8
1
  6
Continuous
100
AcDbLine
 10
37.53639627768303
 20
250.7832703662074
 30
0.0
 11
37.53639627768303
 21
239.5636163662075
 31
0.0
  0
LINE
  5
44F2
330
18
100
AcDbEntity
  8
1
  6
Continuous
100
AcDbLine
 10
37.53639627768303
 20
239.5636163662075
 30
0.0
 11
36.33639927768285
 21
239.5636163662075
 31
0.0
  0
LINE
  5
44F3
330
18
100
AcDbEntity
  8
1
  6
Continuous
100
AcDbLine
 10
85.63639927768305
 20
247.9557253662076
 30
0.0
 11
85.63639927768305
 21
241.1841533662075
 31
0.0
  0
LINE
  5
44F4
330
18
100
AcDbEntity
  8
1
  6
Continuous
100
AcDbLine
 10
87.83639927768286
 20
250.7832703662074
 30
0.0
 11
87.83639927768286
 21
241.1841533662075
 31
0.0
  0
LINE
  5
44F5
330
18
100
AcDbEntity
  8
1
  6
Continuous
100
AcDbLine
 10
87.83639927768286
 20
249.7944353662076
 30
0.0
 11
88.13639927768305
 21
249.7944353662076
 31
0.0
  0
LINE
  5
44F6
330
18
100
AcDbEntity
  8
1
  6
Continuous
100
AcDbLine
 10
87.83639927768286
 20
242.7944353662076
 30
0.0
 11
88.13639927768305
 21
242.7944353662076
 31
0.0
  0
LINE
  5
44F7
330
18
100
AcDbEntity
  8
1
  6
Continuous
100
AcDbLine
 10
37.83639927768286
 20
250.7832703662074
 30
0.0
 11
37.83639927768286
 21
241.1841533662075
 31
0.0
  0
LINE
  5
44F8
330
18
100
AcDbEntity
  8
1
  6
Continuous
100
AcDbLine
 10
40.03639627768302
 20
247.9557253662076
 30
0.0
 11
40.03639627768302
 21
241.1841533662075
 31
0.0
  0
LINE
  5
44F9
330
18
100
AcDbEntity
  8
1
  6
Continuous
100
AcDbLine
 10
37.83639927768286
 20
242.7944353662076
 30
0.0
 11
37.53639627768303
 21
242.7944353662076
 31
0.0
  0
LINE
  5
44FA
330
18
100
AcDbEntity
  8
1
  6
Continuous
100
AcDbLine
 10
37.83639927768286
 20
249.7944353662076
 30
0.0
 11
37.53639627768303
 21
249.7944353662076
 31
0.0
  0
LINE
  5
44FB
330
18
100
AcDbEntity
  8
5
  6
PHANTOM
 48
0.2
100
AcDbLine
 10
216.69470293442
 20
251.4319673662075
 30
0.0
 11
217.1139589344202
 21
243.3141123662078
 31
0.0
  0
LINE
  5
44FC
330
18
100
AcDbEntity
  8
5
  6
PHANTOM
 48
0.2
100
AcDbLine
 10
176.3796199344201
 20
232.8114113662075
 30
0.0
 11
190.0928609344202
 21
245.0420593662074
 31
0.0
  0
LINE
  5
44FD
330
18
100
AcDbEntity
  8
5
  6
PHANTOM
 48
0.2
100
AcDbLine
 10
176.3263609344201
 20
232.8711223662076
 30
0.0
 11
185.31212993442
 21
222.7960993662075
 31
0.0
  0
LINE
  5
44FE
330
18
100
AcDbEntity
  8
5
  6
PHANTOM
 48
0.2
100
AcDbLine
 10
164.3357849344199
 20
233.3465713662076
 30
0.0
 11
176.3263609344201
 21
232.8711223662076
 31
0.0
  0
LINE
  5
44FF
330
18
100
AcDbEntity
  8
5
  6
PHANTOM
 48
0.2
100
AcDbLine
 10
187.5510219344203
 20
224.7929403662076
 30
0.0
 11
185.3121299344202
 21
222.7960993662075
 31
0.0
  0
LINE
  5
4500
330
18
100
AcDbEntity
  8
5
  6
PHANTOM
 48
0.2
100
AcDbLine
 10
187.5510239344203
 20
224.7929403662076
 30
0.0
 11
213.75878443442
 21
237.6151183662075
 31
0.0
  0
LINE
  5
4501
330
18
100
AcDbEntity
  8
5
  6
PHANTOM
 48
0.2
100
AcDbLine
 10
190.20822893442
 20
245.1449533662075
 30
0.0
 11
195.3362419344203
 21
249.7185533662075
 31
0.0
  0
LINE
  5
4502
330
18
100
AcDbEntity
  8
5
  6
PHANTOM
 48
0.2
100
AcDbLine
 10
164.45464693442
 20
236.3442173662076
 30
0.0
 11
176.4452229344199
 21
235.8687693662075
 31
0.0
  0
LINE
  5
4503
330
18
100
AcDbEntity
  8
5
  6
PHANTOM
 48
0.2
100
AcDbLine
 10
164.45464693442
 20
236.3442173662076
 30
0.0
 11
164.3357849344202
 21
233.3465713662076
 31
0.0
  0
LINE
  5
4504
330
18
100
AcDbEntity
  8
5
  6
PHANTOM
 48
0.2
100
AcDbLine
 10
191.5464619344199
 20
268.3297393662076
 30
0.0
 11
192.6176259344199
 21
267.6483383662075
 31
0.0
  0
LINE
  5
4505
330
18
100
AcDbEntity
  8
5
  6
PHANTOM
 48
0.2
100
AcDbLine
 10
212.8978268344201
 20
266.8994013662075
 30
0.0
 11
204.8211479144199
 21
272.2881743662076
 31
0.0
  0
LINE
  5
4506
330
18
100
AcDbEntity
  8
5
  6
PHANTOM
 48
0.2
100
AcDbLine
 10
217.49877993442
 20
251.8394343662075
 30
0.0
 11
208.0235409344199
 21
247.0378403662075
 31
0.0
  0
LINE
  5
4507
330
18
100
AcDbEntity
  8
5
  6
PHANTOM
 48
0.2
100
AcDbLine
 10
217.4987819344201
 20
251.8394343662075
 30
0.0
 11
219.46772793442
 21
251.4883333662075
 31
0.0
  0
LINE
  5
4508
330
18
100
AcDbEntity
  8
5
  6
PHANTOM
 48
0.2
100
AcDbLine
 10
193.1824979344201
 20
262.5963883662075
 30
0.0
 11
196.81467743442
 21
251.6536693662076
 31
0.0
  0
LINE
  5
4509
330
18
100
AcDbEntity
  8
4
  6
CENTER
 48
0.2
100
AcDbLine
 10
211.12195123442
 20
248.5046483662074
 30
0.0
 11
211.12195123442
 21
237.5046523662074
 31
0.0
  0
LINE
  5
450A
330
18
100
AcDbEntity
  8
4
  6
CENTER
 48
0.2
100
AcDbLine
 10
205.62195220442
 20
243.0046483662074
 30
0.0
 11
216.6219499344199
 21
243.0046483662074
 31
0.0
  0
LINE
  5
450B
330
18
100
AcDbEntity
  8
4
  6
CENTER
 48
0.2
100
AcDbLine
 10
204.6743678444199
 20
259.7930093662075
 30
0.0
 11
204.6743678444199
 21
248.7930133662075
 31
0.0
  0
LINE
  5
450C
330
18
100
AcDbEntity
  8
4
  6
CENTER
 48
0.2
100
AcDbLine
 10
199.1743690344201
 20
254.2930093662075
 30
0.0
 11
210.1743671344201
 21
254.2930093662075
 31
0.0
  0
LINE
  5
450D
330
18
100
AcDbEntity
  8
1
  6
Continuous
100
AcDbLine
 10
28.23640927768247
 20
268.7813643662075
 30
0.0
 11
28.23640927768247
 21
260.8217723662075
 31
0.0
  0
LINE
  5
450E
330
18
100
AcDbEntity
  8
1
  6
Continuous
100
AcDbLine
 10
28.73640927768292
 20
267.3015773662075
 30
0.0
 11
28.23640927768292
 21
268.7813683662075
 31
0.0
  0
LINE
  5
450F
330
18
100
AcDbEntity
  8
1
  6
Continuous
100
AcDbLine
 10
28.73640927768315
 20
262.3015713662075
 30
0.0
 11
28.23640927768315
 21
260.8217723662075
 31
0.0
  0
ARC
  5
4510
330
18
100
AcDbEntity
  8
1
  6
Continuous
100
AcDbCircle
 10
281.9838449344201
 20
374.3881862840155
 30
0.0
 40
9.5
100
AcDbArc
 50
269.9999700000034
 51
0.0000200000020199
  0
ARC
  5
4511
330
18
100
AcDbEntity
  8
1
  6
Continuous
100
AcDbCircle
 10
207.44100973442
 20
222.4541113662076
 30
0.0
 40
10.0
100
AcDbArc
 50
24.35084499999845
 51
57.42851699999989
  0
ARC
  5
4512
330
18
100
AcDbEntity
  8
1
  6
Continuous
100
AcDbCircle
 10
227.4838409344199
 20
231.5252173662074
 30
0.0
 40
12.0
100
AcDbArc
 50
204.3508500000013
 51
267.8570900000024
  0
ARC
  5
4513
330
18
100
AcDbEntity
  8
1
  6
Continuous
100
AcDbCircle
 10
189.57031993442
 20
271.7252183662075
 30
0.0
 40
2.299999999999998
100
AcDbArc
 50
90.00000299999769
 51
153.0000100000006
  0
ARC
  5
4514
330
18
100
AcDbEntity
  8
1
  6
Continuous
100
AcDbCircle
 10
195.2100149344203
 20
312.3175413662075
 30
0.0
 40
99.0
100
AcDbArc
 50
295.8466900000003
 51
334.3898504177386
  0
ARC
  5
4515
330
18
100
AcDbEntity
  8
1
  6
Continuous
100
AcDbCircle
 10
227.4838409344199
 20
231.5252173662074
 30
0.0
 40
14.3
100
AcDbArc
 50
270.0
 51
291.7750499999998
  0
ARC
  5
4516
330
18
100
AcDbEntity
  8
1
  6
Continuous
100
AcDbCircle
 10
45.33639927768286
 20
231.5252173662074
 30
0.0
 40
50.0
100
AcDbArc
 50
352.1348500000005
 51
7.865153200002011
  0
ARC
  5
4517
330
18
100
AcDbEntity
  8
1
  6
Continuous
100
AcDbCircle
 10
217.4838409344199
 20
273.0252173662074
 30
0.0
 40
5.0
100
AcDbArc
 50
89.99998200000083
 51
168.4630399999997
  0
ARC
  5
4518
330
18
100
AcDbEntity
  8
1
  6
Continuous
100
AcDbCircle
 10
219.4838409344199
 20
279.0252173662076
 30
0.0
 40
1.0
100
AcDbArc
 50
270.0000200000019
 51
0.000000000000007
  0
ARC
  5
451A
330
18
100
AcDbEntity
  8
1
  6
Continuous
100
AcDbCircle
 10
226.4838409344199
 20
280.0252173662077
 30
0.0
 40
6.0
100
AcDbArc
 50
145.4819099999999
 51
179.9999599999992
  0
ARC
  5
451B
330
18
100
AcDbEntity
  8
1
  6
Continuous
100
AcDbCircle
 10
89.83639927768285
 20
274.5530813662075
 30
0.0
 40
5.0
100
AcDbArc
 50
0.0000400000007688
 51
48.19787000000231
  0
ARC
  5
451C
330
18
100
AcDbEntity
  8
1
  6
Continuous
100
AcDbCircle
 10
35.83639927768285
 20
274.5530813662075
 30
0.0
 40
5.0
100
AcDbArc
 50
131.8103039999987
 51
180.0
  0
ARC
  5
451F
330
18
100
AcDbEntity
  8
1
  6
Continuous
100
AcDbCircle
 10
86.83639927768286
 20
280.0252173662077
 30
0.0
 40
6.0
100
AcDbArc
 50
0.0000400000007688
 51
34.51809
  0
ARC
  5
4520
330
18
100
AcDbEntity
  8
1
  6
Continuous
100
AcDbCircle
 10
31.83639927768286
 20
279.0252173662076
 30
0.0
 40
1.0
100
AcDbArc
 50
311.810410000001
 51
0.000019999998756
  0
ARC
  5
4521
330
18
100
AcDbEntity
  8
1
  6
Continuous
100
AcDbCircle
 10
93.83639927768284
 20
279.0252173662076
 30
0.0
 40
1.0
100
AcDbArc
 50
180.0
 51
228.2306300000018
  0
ARC
  5
4522
330
18
100
AcDbEntity
  8
1
  6
Continuous
100
AcDbCircle
 10
38.83639927768285
 20
280.0252173662077
 30
0.0
 40
6.0
100
AcDbArc
 50
145.4818799999976
 51
180.0
  0
ARC
  5
4523
330
18
100
AcDbEntity
  8
1
  6
Continuous
100
AcDbCircle
 10
205.9722120144199
 20
246.2944323662075
 30
0.0
 40
6.0
100
AcDbArc
 50
249.6132899999976
 51
316.5981500000002
  0
ARC
  5
4524
330
18
100
AcDbEntity
  8
1
  6
Continuous
100
AcDbCircle
 10
91.93640927768296
 20
248.0253813662075
 30
0.0
 40
3.0
100
AcDbArc
 50
359.999989999999
 51
89.99999700000229
  0
ARC
  5
4525
330
18
100
AcDbEntity
  8
1
  6
Continuous
100
AcDbCircle
 10
89.03639927768292
 20
219.8252203662075
 30
0.0
 40
2.299999999999998
100
AcDbArc
 50
270.0
 51
0.0000100000010064
  0
ARC
  5
4526
330
18
100
AcDbEntity
  8
1
  6
Continuous
100
AcDbCircle
 10
36.63640227768292
 20
219.8252203662075
 30
0.0
 40
2.299999999999998
100
AcDbArc
 50
180.0
 51
270.0
  0
ARC
  5
4527
330
18
100
AcDbEntity
  8
1
  6
Continuous
100
AcDbCircle
 10
86.0841692776828
 20
268.5653913662074
 30
0.0
 40
3.752229499999998
100
AcDbArc
 50
359.999989999999
 51
64.96280000000182
  0
ARC
  5
4528
330
18
100
AcDbEntity
  8
1
  6
Continuous
100
AcDbCircle
 10
46.33639927768284
 20
271.7172643662074
 30
0.0
 40
3.752229499999998
100
AcDbArc
 50
89.99999700000229
 51
115.0372029999993
  0
ARC
  5
4529
330
18
100
AcDbEntity
  8
1
  6
Continuous
100
AcDbCircle
 10
79.33639927768286
 20
269.7344683662074
 30
0.0
 40
3.752229499999998
100
AcDbArc
 50
64.96280000000182
 51
89.99999700000229
  0
ARC
  5
452A
330
18
100
AcDbEntity
  8
1
  6
Continuous
100
AcDbCircle
 10
209.53550353442
 20
258.5037333662075
 30
0.0
 40
8.0
100
AcDbArc
 50
232.0743299999989
 51
330.5856399999997
  0
ARC
  5
452B
330
18
100
AcDbEntity
  8
1
  6
Continuous
100
AcDbCircle
 10
199.82607473442
 20
264.8015693662075
 30
0.0
 40
9.0
100
AcDbArc
 50
90.00066500000178
 51
190.63177
  0
ARC
  5
452C
330
18
100
AcDbEntity
  8
1
  6
Continuous
100
AcDbCircle
 10
209.53550353442
 20
258.5037333662075
 30
0.0
 40
15.29795
100
AcDbArc
 50
23.60132100000025
 51
90.00066500000178
  0
ARC
  5
452D
330
18
100
AcDbEntity
  8
1
  6
Continuous
100
AcDbCircle
 10
192.2716199344201
 20
262.1690413662074
 30
0.0
 40
1.0
100
AcDbArc
 50
19.21211999999877
 51
91.25023400000094
  0
ARC
  5
452E
330
18
100
AcDbEntity
  8
1
  6
Continuous
100
AcDbCircle
 10
199.82607473442
 20
264.8015733662075
 30
0.0
 40
7.0
100
AcDbArc
 50
199.2121199999987
 51
232.0743299999989
  0
CIRCLE
  5
452F
330
18
100
AcDbEntity
  8
1
  6
Continuous
100
AcDbCircle
 10
199.82607473442
 20
264.8015693662075
 30
0.0
 40
4.5
  0
ARC
  5
4530
330
18
100
AcDbEntity
  8
1
  6
Continuous
100
AcDbCircle
 10
195.2100219344201
 20
312.3175453662074
 30
0.0
 40
101.2999999999999
100
AcDbArc
 50
291.7750499999998
 51
295.5158899999982
  0
CIRCLE
  5
4531
330
18
100
AcDbEntity
  8
1
  6
Continuous
100
AcDbCircle
 10
205.9722120144199
 20
246.2944353662076
 30
0.0
 40
3.25
  0
CIRCLE
  5
4532
330
18
100
AcDbEntity
  8
1
  6
Continuous
100
AcDbCircle
 10
209.6915094344201
 20
258.7510363662074
 30
0.0
 40
3.25
  0
ARC
  5
4533
330
18
100
AcDbEntity
  8
1
  6
Continuous
100
AcDbCircle
 10
209.67935193442
 20
258.7546523662074
 30
0.0
 40
12.29794799999999
100
AcDbArc
 50
301.4050599999979
 51
20.01792999999892
  0
ARC
  5
4534
330
18
100
AcDbEntity
  8
1
  6
Continuous
100
AcDbCircle
 10
46.33639927768284
 20
269.7344683662074
 30
0.0
 40
3.752229499999998
100
AcDbArc
 50
89.99999700000229
 51
115.0372029999993
  0
ARC
  5
4535
330
18
100
AcDbEntity
  8
1
  6
Continuous
100
AcDbCircle
 10
86.0841692776828
 20
266.5825963662075
 30
0.0
 40
3.752229499999998
100
AcDbArc
 50
359.999989999999
 51
64.96280000000182
  0
ARC
  5
4536
330
18
100
AcDbEntity
  8
1
  6
Continuous
100
AcDbCircle
 10
79.33639927768286
 20
271.7172643662074
 30
0.0
 40
3.752229499999998
100
AcDbArc
 50
64.96280000000182
 51
89.99999700000229
  0
ARC
  5
4537
330
18
100
AcDbEntity
  8
1
  6
Continuous
100
AcDbCircle
 10
174.6248439344201
 20
264.4813483662076
 30
0.0
 40
3.0
100
AcDbArc
 50
353.8426800000014
 51
41.37098200000028
  0
ARC
  5
4538
330
18
100
AcDbEntity
  8
1
  6
Continuous
100
AcDbCircle
 10
225.9926869344201
 20
268.7252183662076
 30
0.0
 40
3.0
100
AcDbArc
 50
11.50342900000068
 51
90.00000299999769
  0
ARC
  5
4539
330
18
100
AcDbEntity
  8
1
  6
Continuous
100
AcDbCircle
 10
33.73639327768297
 20
248.0253813662075
 30
0.0
 40
3.0
100
AcDbArc
 50
89.99999700000229
 51
180.0
  0
ARC
  5
453A
330
18
100
AcDbEntity
  8
1
  6
Continuous
100
AcDbCircle
 10
39.5886272776829
 20
268.5653913662074
 30
0.0
 40
3.752229499999998
100
AcDbArc
 50
115.0372029999993
 51
180.0
  0
ARC
  5
453B
330
18
100
AcDbEntity
  8
1
  6
Continuous
100
AcDbCircle
 10
39.5886272776829
 20
266.5825963662075
 30
0.0
 40
3.752229499999998
100
AcDbArc
 50
115.0372029999993
 51
180.0
  0
ARC
  5
453C
330
18
100
AcDbEntity
  8
1
  6
Continuous
100
AcDbCircle
 10
211.74334353442
 20
242.6082743662075
 30
0.0
 40
4.449999299999998
100
AcDbArc
 50
237.3879100000011
 51
55.98559200000082
  0
ARC
  5
453D
330
18
100
AcDbEntity
  8
1
  6
Continuous
100
AcDbCircle
 10
30.73639327768296
 20
271.8015693662075
 30
0.0
 40
2.0
100
AcDbArc
 50
89.99999700000229
 51
180.0
  0
ARC
  5
453E
330
18
100
AcDbEntity
  8
1
  6
Continuous
100
AcDbCircle
 10
94.936389277683
 20
271.8015693662075
 30
0.0
 40
2.0
100
AcDbArc
 50
359.999989999999
 51
89.99999700000229
  0
ARC
  5
453F
330
18
100
AcDbEntity
  8
1
  6
Continuous
100
AcDbCircle
 10
91.83639927768286
 20
266.4015943662075
 30
0.0
 40
2.0
100
AcDbArc
 50
180.0
 51
270.0
  0
ARC
  5
4540
330
18
100
AcDbEntity
  8
1
  6
Continuous
100
AcDbCircle
 10
33.83639927768285
 20
266.4015943662075
 30
0.0
 40
2.0
100
AcDbArc
 50
270.0
 51
0.0000100000010064
  0
ARC
  5
4541
330
18
100
AcDbEntity
  8
1
  6
Continuous
100
AcDbCircle
 10
34.91764427768293
 20
246.2944353662076
 30
0.0
 40
5.78125
100
AcDbArc
 50
145.7945419999999
 51
214.2054599999985
  0
ARC
  5
4542
330
18
100
AcDbEntity
  8
1
  6
Continuous
100
AcDbCircle
 10
32.91764427768295
 20
258.7510363662074
 30
0.0
 40
5.78125
100
AcDbArc
 50
155.3140215149133
 51
214.2054599999985
  0
ARC
  5
4543
330
18
100
AcDbEntity
  8
1
  6
Continuous
100
AcDbCircle
 10
92.75515927768287
 20
258.7510363662074
 30
0.0
 40
5.78125
100
AcDbArc
 50
325.7945400000013
 51
15.74640371381929
  0
ARC
  5
4544
330
18
100
AcDbEntity
  8
1
  6
Continuous
100
AcDbCircle
 10
90.75515927768288
 20
246.2944353662076
 30
0.0
 40
5.78125
100
AcDbArc
 50
325.7945400000013
 51
34.20545999999856
  0
ARC
  5
4545
330
18
100
AcDbEntity
  8
1
  6
Continuous
100
AcDbCircle
 10
97.936405277683
 20
264.3015693662075
 30
0.0
 40
4.0
100
AcDbArc
 50
255.522489999997
 51
284.4775100000028
  0
ARC
  5
4546
330
18
100
AcDbEntity
  8
1
  6
Continuous
100
AcDbCircle
 10
97.936405277683
 20
265.3015693662075
 30
0.0
 40
4.0
100
AcDbArc
 50
75.52248800000223
 51
104.4775100000029
  0
ARC
  5
4547
330
18
100
AcDbEntity
  8
1
  6
Continuous
100
AcDbCircle
 10
28.43640927768296
 20
267.8015693662075
 30
0.0
 40
1.0
100
AcDbArc
 50
101.5369599999963
 51
180.0000100000009
  0
ARC
  5
4548
330
18
100
AcDbEntity
  8
1
  6
Continuous
100
AcDbCircle
 10
28.43640927768296
 20
261.8015693662075
 30
0.0
 40
1.0
100
AcDbArc
 50
179.9999899999989
 51
258.4630500000013
  0
ARC
  5
4549
330
18
100
AcDbEntity
  8
1
  6
Continuous
100
AcDbCircle
 10
92.38956127768302
 20
225.0252173662074
 30
0.0
 40
2.5
100
AcDbArc
 50
270.0
 51
352.1348500000005
  0
ARC
  5
454A
330
18
100
AcDbEntity
  8
1
  6
Continuous
100
AcDbCircle
 10
92.38956127768302
 20
238.0252173662074
 30
0.0
 40
2.5
100
AcDbArc
 50
7.865153200002011
 51
90.00000299999769
  0
ARC
  5
454B
330
18
100
AcDbEntity
  8
1
  6
Continuous
100
AcDbCircle
 10
29.73639327768296
 20
262.1411043662076
 30
0.0
 40
1.0
100
AcDbArc
 50
89.99999700000229
 51
180.0
  0
ARC
  5
454C
330
18
100
AcDbEntity
  8
1
  6
Continuous
100
AcDbCircle
 10
95.93638927768299
 20
262.1411043662076
 30
0.0
 40
1.0
100
AcDbArc
 50
359.999989999999
 51
89.99999700000229
  0
ARC
  5
454D
330
18
100
AcDbEntity
  8
1
  6
Continuous
100
AcDbCircle
 10
49.83639927768286
 20
248.9330963662075
 30
0.0
 40
1.0
100
AcDbArc
 50
270.0
 51
0.0000100000010064
  0
ARC
  5
454E
330
18
100
AcDbEntity
  8
1
  6
Continuous
100
AcDbCircle
 10
75.83639927768285
 20
248.9330963662075
 30
0.0
 40
1.0
100
AcDbArc
 50
180.0
 51
270.0
  0
ARC
  5
454F
330
18
100
AcDbEntity
  8
1
  6
Continuous
100
AcDbCircle
 10
85.33639927768286
 20
249.9330963662075
 30
0.0
 40
2.0
100
AcDbArc
 50
270.0
 51
0.0000100000010064
  0
ARC
  5
4550
330
18
100
AcDbEntity
  8
1
  6
Continuous
100
AcDbCircle
 10
40.33639927768286
 20
249.9330963662075
 30
0.0
 40
2.0
100
AcDbArc
 50
180.0
 51
270.0
  0
ARC
  5
4551
330
18
100
AcDbEntity
  8
1
  6
Continuous
100
AcDbCircle
 10
86.73639927768295
 20
245.4444373662074
 30
0.0
 40
4.400000099999996
100
AcDbArc
 50
255.522489999997
 51
284.4775100000028
  0
ARC
  5
4552
330
18
100
AcDbEntity
  8
1
  6
Continuous
100
AcDbCircle
 10
38.936397277683
 20
245.4444373662074
 30
0.0
 40
4.400000099999996
100
AcDbArc
 50
255.522489999997
 51
284.4775100000028
  0
ARC
  5
4553
330
18
100
AcDbEntity
  8
5
  6
PHANTOM
 48
0.2
100
AcDbCircle
 10
204.6743410844201
 20
254.2930703662075
 30
0.0
 40
8.5730658
100
AcDbArc
 50
183.6229999999995
 51
191.6431000000001
  0
ARC
  5
4554
330
18
100
AcDbEntity
  8
5
  6
PHANTOM
 48
0.2
100
AcDbCircle
 10
193.3394049344199
 20
251.9574453662075
 30
0.0
 40
3.0
100
AcDbArc
 50
311.7293200000028
 51
11.64310999999964
  0
ARC
  5
4555
330
18
100
AcDbEntity
  8
5
  6
PHANTOM
 48
0.2
100
AcDbCircle
 10
211.12195413442
 20
243.0046483662074
 30
0.0
 40
6.0
100
AcDbArc
 50
295.9716100000017
 51
2.956479199998466
  0
ARC
  5
4556
330
18
100
AcDbEntity
  8
5
  6
PHANTOM
 48
0.2
100
AcDbCircle
 10
176.3263629344201
 20
232.8711263662075
 30
0.0
 40
3.0
100
AcDbArc
 50
40.2010009999996
 51
87.72930600000192
  0
ARC
  5
4557
330
18
100
AcDbEntity
  8
5
  6
PHANTOM
 48
0.2
100
AcDbCircle
 10
204.4073385344199
 20
254.1738803662076
 30
0.0
 40
8.0
100
AcDbArc
 50
198.3623799999992
 51
296.8736999999972
  0
ARC
  5
4558
330
18
100
AcDbEntity
  8
5
  6
PHANTOM
 48
0.2
100
AcDbCircle
 10
199.82607473442
 20
264.8015693662075
 30
0.0
 40
9.0
100
AcDbArc
 50
56.28871900000184
 51
90.00066500000178
  0
ARC
  5
4559
330
18
100
AcDbEntity
  8
5
  6
PHANTOM
 48
0.2
100
AcDbCircle
 10
204.4073385344199
 20
254.1738803662076
 30
0.0
 40
15.29795
100
AcDbArc
 50
349.8893699999994
 51
56.28871599999835
  0
ARC
  5
455A
330
18
100
AcDbEntity
  8
5
  6
PHANTOM
 48
0.2
100
AcDbCircle
 10
192.08088893442
 20
266.8045883662075
 30
0.0
 40
1.0
100
AcDbArc
 50
345.5001699999992
 51
57.53828500000139
  0
ARC
  5
455B
330
18
100
AcDbEntity
  8
5
  6
PHANTOM
 48
0.2
100
AcDbCircle
 10
199.8260767344199
 20
264.8015733662075
 30
0.0
 40
7.0
100
AcDbArc
 50
165.5001699999991
 51
198.3623799999992
  0
CIRCLE
  5
455C
330
18
100
AcDbEntity
  8
5
  6
PHANTOM
 48
0.2
100
AcDbCircle
 10
204.6743678444199
 20
254.2930093662075
 30
0.0
 40
3.25
  0
CIRCLE
  5
455D
330
18
100
AcDbEntity
  8
5
  6
PHANTOM
 48
0.2
100
AcDbCircle
 10
211.12195123442
 20
243.0046483662074
 30
0.0
 40
3.25
  0
LINE
  5
5964
330
18
100
AcDbEntity
  8
4
  6
CENTER
 48
0.2
100
AcDbLine
 10
31.33639927768285
 20
298.0839646662076
 30
0.0
 11
31.33639927768285
 21
286.9744818662077
 31
0.0
  0
LINE
  5
5965
330
18
100
AcDbEntity
  8
4
  6
CENTER
 48
0.2
100
AcDbLine
 10
94.33639927768286
 20
298.0839646662076
 30
0.0
 11
94.33639927768286
 21
286.9744818662077
 31
0.0
  0
LINE
  5
5966
330
18
100
AcDbEntity
  8
4
  6
CENTER
 48
0.2
100
AcDbLine
 10
281.9838449344201
 20
298.0839646662076
 30
0.0
 11
281.9838449344201
 21
286.9744818662077
 31
0.0
  0
LINE
  5
5967
330
18
100
AcDbEntity
  8
4
  6
CENTER
 48
0.2
100
AcDbLine
 10
218.9838449344201
 20
298.0839646662076
 30
0.0
 11
218.9838449344201
 21
286.9744818662077
 31
0.0
  0
LINE
  5
5968
330
18
100
AcDbEntity
  8
4
  6
CENTER
 48
0.5
100
AcDbLine
 10
227.4838409344197
 20
189.0252173662074
 30
0.0
 11
227.4838409344197
 21
274.0252173662074
 31
0.0
  0
LINE
  5
5969
330
18
100
AcDbEntity
  8
1
  6
Continuous
100
AcDbLine
 10
27.58639500190998
 20
236.5252173662074
 30
0.0
 11
27.58639380195427
 21
226.5252173662074
 31
0.0
  0
LINE
  5
5E33
330
18
100
AcDbEntity
  8
4
  6
CENTER
 48
0.5
100
AcDbLine
 10
428.1312905911575
 20
299.0252173662076
 30
0.0
 11
428.1312905911573
 21
189.0252173662074
 31
0.0
  0
LINE
  5
5E43
330
18
100
AcDbEntity
  8
1
  6
Continuous
100
AcDbLine
 10
399.1876305911576
 20
283.4252173662075
 30
0.0
 11
457.0749705911579
 21
283.4252173662075
 31
0.0
  0
LINE
  5
5E45
330
18
100
AcDbEntity
  8
1
  6
Continuous
100
AcDbLine
 10
397.5334805911572
 20
278.0252173662077
 30
0.0
 11
458.7290995911573
 21
278.0252173662077
 31
0.0
  0
LINE
  5
5E4B
330
18
100
AcDbEntity
  8
1
  6
Continuous
100
AcDbLine
 10
450.6312905911575
 20
217.5252173662074
 30
0.0
 11
454.3312875911578
 21
217.5252173662074
 31
0.0
  0
LINE
  5
5E4E
330
18
100
AcDbEntity
  8
4
  6
CENTER
 48
0.2
100
AcDbLine
 10
448.3718075911574
 20
246.2944353662076
 30
0.0
 11
465.5818905911574
 21
246.2944353662076
 31
0.0
  0
LINE
  5
5E4F
330
18
100
AcDbEntity
  8
4
  6
CENTER
 48
0.5
100
AcDbLine
 10
390.0948405911574
 20
264.8015693662075
 30
0.0
 11
467.6301385911574
 21
264.8015693662075
 31
0.0
  0
LINE
  5
5E51
330
18
100
AcDbEntity
  8
1
  6
Continuous
100
AcDbLine
 10
387.1312905911572
 20
294.0252173662077
 30
0.0
 11
469.1312905911575
 21
294.0252173662077
 31
0.0
  0
LINE
  5
5E52
330
18
100
AcDbEntity
  8
4
  6
CENTER
 48
0.5
100
AcDbLine
 10
390.6312905911574
 20
231.5252173662074
 30
0.0
 11
469.1312970668861
 21
231.5252173662075
 31
0.0
  0
LINE
  5
5E54
330
18
100
AcDbEntity
  8
1
  6
Continuous
100
AcDbLine
 10
462.2312965911572
 20
271.8015693662075
 30
0.0
 11
462.2312965911572
 21
250.5037333662075
 31
0.0
  0
LINE
  5
5E57
330
18
100
AcDbEntity
  8
1
  6
Continuous
100
AcDbLine
 10
463.5312805911573
 20
267.8015693662075
 30
0.0
 11
463.5312805911573
 21
261.8015693662075
 31
0.0
  0
LINE
  5
5E58
330
18
100
AcDbEntity
  8
1
  6
Continuous
100
AcDbLine
 10
462.7312805911578
 20
268.7813643662075
 30
0.0
 11
462.7312805911578
 21
261.9036014947586
 31
0.0
  0
LINE
  5
5E5B
330
18
100
AcDbEntity
  8
1
  6
Continuous
100
AcDbLine
 10
456.6312905911574
 20
225.65772036861
 30
0.0
 11
456.6312905911575
 21
219.8252203662075
 31
0.0
  0
ARC
  5
5E5D
330
18
100
AcDbEntity
  8
1
  6
Continuous
100
AcDbCircle
 10
458.0504830001419
 20
238.8864368662075
 30
0.0
 40
3.48931044130072
100
AcDbArc
 50
330.1711307903264
 51
24.4162583753096
  0
LINE
  5
5E5E
330
18
100
AcDbEntity
  8
1
  6
Continuous
100
AcDbLine
 10
461.5313005911578
 20
240.0252193662074
 30
0.0
 11
460.9911278738198
 21
240.5653920835454
 31
0.0
  0
ARC
  5
5E5F
330
18
100
AcDbEntity
  8
1
  6
Continuous
100
AcDbCircle
 10
448.9896400430937
 20
231.5252161649384
 30
0.0
 40
12.54166054806418
100
AcDbArc
 50
336.9649625403189
 51
14.59686603852599
  0
LINE
  5
5E60
330
18
100
AcDbEntity
  8
1
  6
Continuous
100
AcDbLine
 10
461.5313005911573
 20
223.0252193662074
 30
0.0
 11
461.5313005911573
 21
240.0252193662074
 31
0.0
  0
LINE
  5
5E61
330
18
100
AcDbEntity
  8
1
  6
Continuous
100
AcDbLine
 10
463.1312905911575
 20
224.2252163662076
 30
0.0
 11
463.1312905911575
 21
238.8252183662075
 31
0.0
  0
LINE
  5
5E62
330
18
100
AcDbEntity
  8
1
  6
Continuous
100
AcDbLine
 10
463.3812948669302
 20
236.5252173662074
 30
0.0
 11
463.3812960668859
 21
226.5252173662074
 31
0.0
  0
LINE
  5
5E63
330
18
100
AcDbEntity
  8
1
  6
Continuous
100
AcDbLine
 10
463.3812960668859
 20
226.5252173662074
 30
0.0
 11
464.1313123668862
 21
227.275232666187
 31
0.0
  0
ARC
  5
5E65
330
18
100
AcDbEntity
  8
1
  6
Continuous
100
AcDbCircle
 10
454.3312875911573
 20
219.8252203662075
 30
0.0
 40
2.299999999999998
100
AcDbArc
 50
270.0
 51
0.000000000000007
  0
LINE
  5
5E66
330
18
100
AcDbEntity
  8
1
  6
Continuous
100
AcDbLine
 10
463.1312905911575
 20
226.5252173662074
 30
0.0
 11
463.3812960668859
 21
226.5252173662074
 31
0.0
  0
ARC
  5
5E67
330
18
100
AcDbEntity
  8
1
  6
Continuous
100
AcDbCircle
 10
458.0504830001419
 20
224.1640018662076
 30
0.0
 40
3.48931044130072
100
AcDbArc
 50
335.5837416246903
 51
44.68558143815068
  0
ARC
  5
5E68
330
18
100
AcDbEntity
  8
1
  6
Continuous
100
AcDbCircle
 10
461.9312905911574
 20
224.2252163662076
 30
0.0
 40
1.199999999999999
100
AcDbArc
 50
270.0
 51
359.999989999999
  0
LINE
  5
5E69
330
18
100
AcDbEntity
  8
1
  6
Continuous
100
AcDbLine
 10
460.5313005911573
 20
226.6177401236175
 30
0.0
 11
457.6936691400963
 21
226.6177401236175
 31
0.0
  0
LINE
  5
5E6A
330
18
100
AcDbEntity
  8
1
  6
Continuous
100
AcDbLine
 10
461.5313005911573
 20
223.0252193662074
 30
0.0
 11
460.2163448337476
 21
221.7102636087975
 31
0.0
  0
LINE
  5
5E6B
330
18
100
AcDbEntity
  8
1
  6
Continuous
100
AcDbLine
 10
461.9312905911574
 20
223.0252193662074
 30
0.0
 11
461.5313005911573
 21
223.0252193662074
 31
0.0
  0
LINE
  5
5E6C
330
18
100
AcDbEntity
  8
1
  6
Continuous
100
AcDbLine
 10
460.2163448337472
 20
221.7102636087975
 30
0.0
 11
456.6312905911575
 21
221.7102636087975
 31
0.0
  0
LINE
  5
5E6D
330
18
100
AcDbEntity
  8
1
  6
Continuous
100
AcDbLine
 10
464.1312970668861
 20
235.7752173662074
 30
0.0
 11
464.1312970668861
 21
227.2752173662074
 31
0.0
  0
LINE
  5
5E6E
330
18
100
AcDbEntity
  8
2
  6
Continuous
100
AcDbLine
 10
464.1312970668861
 20
227.3372173660644
 30
0.0
 11
463.1312905911573
 21
227.3372173660644
 31
0.0
  0
LINE
  5
5E6F
330
18
100
AcDbEntity
  8
2
  6
Continuous
100
AcDbLine
 10
464.1312970668861
 20
235.7132173660644
 30
0.0
 11
463.1312905911573
 21
235.7132173660644
 31
0.0
  0
LINE
  5
5E70
330
18
100
AcDbEntity
  8
1
  6
Continuous
100
AcDbLine
 10
463.1312905911575
 20
236.5252173662074
 30
0.0
 11
463.3812948669302
 21
236.5252173662074
 31
0.0
  0
ARC
  5
5E71
330
18
100
AcDbEntity
  8
1
  6
Continuous
100
AcDbCircle
 10
461.9312905911574
 20
238.8252183662075
 30
0.0
 40
1.199999999999999
100
AcDbArc
 50
0.000000000000007
 51
89.99999700000229
  0
LINE
  5
5E73
330
18
100
AcDbEntity
  8
1
  6
Continuous
100
AcDbLine
 10
461.9312905911574
 20
240.0252193662074
 30
0.0
 11
461.5313005911573
 21
240.0252193662074
 31
0.0
  0
LINE
  5
5E74
330
18
100
AcDbEntity
  8
1
  6
Continuous
100
AcDbLine
 10
464.1312970668861
 20
235.7752173662074
 30
0.0
 11
463.3812948669302
 21
236.5252173662074
 31
0.0
  0
LINE
  5
5E7A
330
18
100
AcDbEntity
  8
1
  6
Continuous
100
AcDbLine
 10
460.8312955911573
 20
249.5444353662076
 30
0.0
 11
460.8312955911575
 21
246.8832208154316
 31
0.0
  0
LINE
  5
5E7C
330
18
100
AcDbEntity
  8
1
  6
Continuous
100
AcDbLine
 10
460.7655899059429
 20
249.480426204613
 30
0.0
 11
460.8312955911573
 21
249.5444353662076
 31
0.0
  0
LINE
  5
5E7D
330
18
100
AcDbEntity
  8
1
  6
Continuous
100
AcDbLine
 10
460.7397016575521
 20
250.5037333662075
 30
0.0
 11
462.2312965911572
 21
250.5037333662075
 31
0.0
  0
ARC
  5
5E7F
330
18
100
AcDbEntity
  8
1
  6
Continuous
100
AcDbCircle
 10
456.0500455911573
 20
246.2944353662076
 30
0.0
 40
5.78125
100
AcDbArc
 50
327.4800078380142
 51
34.20545800000007
  0
LINE
  5
5E82
330
18
100
AcDbEntity
  8
1
  6
Continuous
100
AcDbLine
 10
462.8312955911574
 20
262.0010363662074
 30
0.0
 11
462.8312955911574
 21
255.5010363662074
 31
0.0
  0
LINE
  5
5E83
330
18
100
AcDbEntity
  8
1
  6
Continuous
100
AcDbLine
 10
462.8312955911574
 20
255.5010363662074
 30
0.0
 11
462.2312965911572
 21
256.4165023662076
 31
0.0
  0
ARC
  5
5E84
330
18
100
AcDbEntity
  8
1
  6
Continuous
100
AcDbCircle
 10
458.0500455911574
 20
258.7510363662074
 30
0.0
 40
5.78125
100
AcDbArc
 50
325.7945400000013
 51
34.20545793810497
  0
LINE
  5
5E87
330
18
100
AcDbEntity
  8
1
  6
Continuous
100
AcDbLine
 10
462.2313005911573
 20
261.4165293662074
 30
0.0
 11
462.8312955911574
 21
262.0010344299497
 31
0.0
  0
LINE
  5
5E89
330
18
100
AcDbEntity
  8
1
  6
Continuous
100
AcDbLine
 10
462.2312805911571
 20
262.3015713662075
 30
0.0
 11
462.4562706028458
 21
261.6356913775941
 31
0.0
  0
ARC
  5
5E8A
330
18
100
AcDbEntity
  8
1
  6
Continuous
100
AcDbCircle
 10
462.5312805911574
 20
261.8015693662075
 30
0.0
 40
1.0
100
AcDbArc
 50
320.5039957552707
 51
0.0000100000010134
  0
LINE
  5
5E8C
330
18
100
AcDbEntity
  8
4
  6
CENTER
 48
0.2
100
AcDbLine
 10
458.5721855911578
 20
258.7510363662074
 30
0.0
 11
465.8904075911578
 21
258.7510363662074
 31
0.0
  0
LINE
  5
5E8D
330
18
100
AcDbEntity
  8
4
  6
CENTER
 48
0.2
100
AcDbLine
 10
459.6312905911575
 20
298.0839646662076
 30
0.0
 11
459.6312905911575
 21
286.9744818662077
 31
0.0
  0
ARC
  5
5E8F
330
18
100
AcDbEntity
  8
1
  6
Continuous
100
AcDbCircle
 10
452.1312905911575
 20
280.0252173662077
 30
0.0
 40
6.0
100
AcDbArc
 50
0.000000000000007
 51
34.51812000000231
  0
LINE
  5
5E91
330
18
100
AcDbEntity
  8
1
  6
Continuous
100
AcDbLine
 10
462.2312805911573
 20
267.3015773662075
 30
0.0
 11
462.7312805911573
 21
268.7813683662075
 31
0.0
  0
ARC
  5
5E92
330
18
100
AcDbEntity
  8
1
  6
Continuous
100
AcDbCircle
 10
462.5312805911574
 20
267.8015693662075
 30
0.0
 40
1.0
100
AcDbArc
 50
359.999989999999
 51
78.4630400000036
  0
LINE
  5
5E94
330
18
100
AcDbEntity
  8
1
  6
Continuous
100
AcDbLine
 10
458.1312905911573
 20
280.0252173662077
 30
0.0
 11
458.1312905911573
 21
279.0252173662076
 31
0.0
  0
LINE
  5
5E95
330
18
100
AcDbEntity
  8
1
  6
Continuous
100
AcDbLine
 10
460.1502987998617
 20
273.8015693662075
 30
0.0
 11
460.2312965911574
 21
273.8015693662075
 31
0.0
  0
ARC
  5
5E96
330
18
100
AcDbEntity
  8
1
  6
Continuous
100
AcDbCircle
 10
455.1312905911575
 20
274.5530813662075
 30
0.0
 40
5.0
100
AcDbArc
 50
0.000000000000007
 51
48.18969600000123
  0
ARC
  5
5E97
330
18
100
AcDbEntity
  8
1
  6
Continuous
100
AcDbCircle
 10
459.1312905911575
 20
279.0252173662076
 30
0.0
 40
1.0
100
AcDbArc
 50
179.9999800000012
 51
228.189589999999
  0
ARC
  5
5E98
330
18
100
AcDbEntity
  8
1
  6
Continuous
100
AcDbCircle
 10
460.2312965911574
 20
271.8015693662075
 30
0.0
 40
2.0
100
AcDbArc
 50
0.000000000000007
 51
90.00000299999769
  0
LINE
  5
5E99
330
18
100
AcDbEntity
  8
1
  6
Continuous
100
AcDbLine
 10
458.1312755911575
 20
287.0252235662076
 30
0.0
 11
457.074955591158
 21
283.4252283662074
 31
0.0
  0
LINE
  5
5E9D
330
18
100
AcDbEntity
  8
1
  6
Continuous
100
AcDbLine
 10
394.0313005911573
 20
271.8015693662075
 30
0.0
 11
394.0313005911573
 21
250.5037333662075
 31
0.0
  0
LINE
  5
5E9E
330
18
100
AcDbEntity
  8
1
  6
Continuous
100
AcDbLine
 10
392.0312845911573
 20
269.1745533662076
 30
0.0
 11
392.0312845911573
 21
260.4285873662074
 31
0.0
  0
LINE
  5
5EA4
330
18
100
AcDbEntity
  8
1
  6
Continuous
100
AcDbLine
 10
405.6312905911571
 20
249.5252173662076
 30
0.0
 11
405.6312905911575
 21
217.5252173662075
 31
0.0
  0
LINE
  5
5EA6
330
18
100
AcDbEntity
  8
1
  6
Continuous
100
AcDbLine
 10
450.6312905911571
 20
249.5252173662076
 30
0.0
 11
450.6312905911575
 21
217.5252173662075
 31
0.0
  0
LINE
  5
5EA7
330
18
100
AcDbEntity
  8
1
  6
Continuous
100
AcDbLine
 10
399.6313105911574
 20
225.6577043558297
 30
0.0
 11
399.6313105911574
 21
219.8177363662075
 31
0.0
  0
ARC
  5
5EAE
330
18
100
AcDbEntity
  8
1
  6
Continuous
100
AcDbCircle
 10
445.6312905911573
 20
231.5252173662074
 30
0.0
 40
50.0
100
AcDbArc
 50
179.9174954325678
 51
187.8651499999994
  0
ARC
  5
5EAF
330
18
100
AcDbEntity
  8
1
  6
Continuous
100
AcDbCircle
 10
398.5781285911573
 20
225.0252173662074
 30
0.0
 40
2.5
100
AcDbArc
 50
187.8651499999994
 51
270.0
  0
ARC
  5
5EB1
330
18
100
AcDbEntity
  8
1
  6
Continuous
100
AcDbCircle
 10
401.9312905911574
 20
219.8252203662075
 30
0.0
 40
2.299999999999998
100
AcDbArc
 50
179.9999899999989
 51
270.0
  0
LINE
  5
5EB4
330
18
100
AcDbEntity
  8
1
  6
Continuous
100
AcDbLine
 10
401.9312905911574
 20
217.5252173662075
 30
0.0
 11
405.6312905911575
 21
217.5252173662075
 31
0.0
  0
LINE
  5
5EB5
330
18
100
AcDbEntity
  8
1
  6
Continuous
100
AcDbLine
 10
399.6312905911576
 20
222.5252173662074
 30
0.0
 11
398.5781285911573
 21
222.5252173662074
 31
0.0
  0
LINE
  5
5EC0
330
18
100
AcDbEntity
  8
4
  6
CENTER
 48
0.2
100
AcDbLine
 10
407.7218105911573
 20
246.2944353662076
 30
0.0
 11
390.6807005911573
 21
246.2944353662076
 31
0.0
  0
LINE
  5
5ECB
330
18
100
AcDbEntity
  8
1
  6
Continuous
100
AcDbLine
 10
395.4969803584012
 20
249.480441189599
 30
0.0
 11
395.4312905911576
 21
249.5444353662076
 31
0.0
  0
LINE
  5
5ECC
330
18
100
AcDbEntity
  8
1
  6
Continuous
100
AcDbLine
 10
395.4312805911574
 20
249.5444353662076
 30
0.0
 11
395.4312805911574
 21
246.8834586587342
 31
0.0
  0
LINE
  5
5ECE
330
18
100
AcDbEntity
  8
1
  6
Continuous
100
AcDbLine
 10
394.0313005911578
 20
250.5037333662075
 30
0.0
 11
395.522868117378
 21
250.5037333662075
 31
0.0
  0
ARC
  5
5ECF
330
18
100
AcDbEntity
  8
1
  6
Continuous
100
AcDbCircle
 10
400.2125305911573
 20
246.2944353662076
 30
0.0
 40
5.78125
100
AcDbArc
 50
145.7945400000014
 51
212.5198925361421
  0
LINE
  5
5ED1
330
18
100
AcDbEntity
  8
4
  6
CENTER
 48
0.2
100
AcDbLine
 10
390.3722005911575
 20
258.7510363662074
 30
0.0
 11
397.6904005911576
 21
258.7510363662074
 31
0.0
  0
LINE
  5
5ED3
330
18
100
AcDbEntity
  8
1
  6
Continuous
100
AcDbLine
 10
393.4312805911577
 20
255.5010323662072
 30
0.0
 11
394.0312805911578
 21
256.4165063662073
 31
0.0
  0
LINE
  5
5ED4
330
18
100
AcDbEntity
  8
1
  6
Continuous
100
AcDbLine
 10
393.4312805911574
 20
262.0010363662073
 30
0.0
 11
393.4312805911574
 21
255.5010363662074
 31
0.0
  0
ARC
  5
5ED5
330
18
100
AcDbEntity
  8
1
  6
Continuous
100
AcDbCircle
 10
398.2125305911574
 20
258.7510363662074
 30
0.0
 40
5.78125
100
AcDbArc
 50
145.794542061897
 51
214.2054599999985
  0
ARC
  5
5ED8
330
18
100
AcDbEntity
  8
1
  6
Continuous
100
AcDbCircle
 10
393.0312845911574
 20
264.3015693662075
 30
0.0
 40
4.0
100
AcDbArc
 50
255.522489999997
 51
264.5048377791979
  0
LINE
  5
5EDB
330
18
100
AcDbEntity
  8
4
  6
CENTER
 48
0.2
100
AcDbLine
 10
396.6312905911576
 20
298.0839646662076
 30
0.0
 11
396.6312905911576
 21
286.9744818662077
 31
0.0
  0
ARC
  5
5EE0
330
18
100
AcDbEntity
  8
1
  6
Continuous
100
AcDbCircle
 10
404.1312905911573
 20
280.0252173662077
 30
0.0
 40
6.0
100
AcDbArc
 50
145.4819099999999
 51
179.9999599999992
  0
LINE
  5
5EE1
330
18
100
AcDbEntity
  8
1
  6
Continuous
100
AcDbLine
 10
396.0313005911578
 20
273.8015693662075
 30
0.0
 11
396.112268463469
 21
273.8015693662075
 31
0.0
  0
ARC
  5
5EE2
330
18
100
AcDbEntity
  8
1
  6
Continuous
100
AcDbCircle
 10
401.1312905911575
 20
274.5530813662075
 30
0.0
 40
5.0
100
AcDbArc
 50
131.8021299999976
 51
179.9999599999992
  0
LINE
  5
5EE5
330
18
100
AcDbEntity
  8
1
  6
Continuous
100
AcDbLine
 10
398.1312905911575
 20
280.0252173662077
 30
0.0
 11
398.1312905911575
 21
279.0252173662076
 31
0.0
  0
ARC
  5
5EE6
330
18
100
AcDbEntity
  8
1
  6
Continuous
100
AcDbCircle
 10
397.1312905911574
 20
279.0252173662076
 30
0.0
 40
1.0
100
AcDbArc
 50
311.7693699999981
 51
0.000000000000007
  0
ARC
  5
5EEC
330
18
100
AcDbEntity
  8
1
  6
Continuous
100
AcDbCircle
 10
396.0313005911573
 20
271.8015693662075
 30
0.0
 40
2.0
100
AcDbArc
 50
90.00000299999769
 51
180.000010000001
  0
ARC
  5
5EED
330
18
100
AcDbEntity
  8
1
  6
Continuous
100
AcDbCircle
 10
393.0312845911574
 20
265.3015693662075
 30
0.0
 40
4.0
100
AcDbArc
 50
75.52248999999706
 51
104.4775119999977
  0
LINE
  5
5EEF
330
18
100
AcDbEntity
  8
1
  6
Continuous
100
AcDbLine
 10
398.1312905911575
 20
287.0252254662075
 30
0.0
 11
399.1876105911574
 21
283.4252193662075
 31
0.0
  0
LINE
  5
5FE3
330
18
100
AcDbEntity
  8
1
  6
Continuous
100
AcDbLine
 10
681.6441952478951
 20
264.4015963662075
 30
0.0
 11
663.329100247895
 21
262.9186673662075
 31
0.0
  0
LINE
  5
5FE4
330
18
100
AcDbEntity
  8
1
  6
Continuous
100
AcDbLine
 10
679.7370202478949
 20
250.7832743662074
 30
0.0
 11
652.3708115478953
 21
240.6666743662076
 31
0.0
  0
LINE
  5
5FE5
330
18
100
AcDbEntity
  8
5
  6
PHANTOM
 48
0.2
100
AcDbLine
 10
668.7115592478948
 20
224.7929403662076
 30
0.0
 11
670.9504512478948
 21
222.7960993662075
 31
0.0
  0
LINE
  5
5FE6
330
18
100
AcDbEntity
  8
5
  6
PHANTOM
 48
0.2
100
AcDbLine
 10
679.8829612478949
 20
232.8114113662075
 30
0.0
 11
666.1697202478949
 21
245.0420593662074
 31
0.0
  0
LINE
  5
5FE7
330
18
100
AcDbEntity
  8
4
  6
CENTER
 48
0.5
100
AcDbLine
 10
671.2787402478953
 20
231.5252173662074
 30
0.0
 11
586.2787402478955
 21
231.5252173662074
 31
0.0
  0
LINE
  5
5FE9
330
18
100
AcDbEntity
  8
1
  6
Continuous
100
AcDbLine
 10
668.7415752478949
 20
272.7693963662074
 30
0.0
 11
673.319855247895
 21
263.7840193662075
 31
0.0
  0
LINE
  5
5FEA
330
18
100
AcDbEntity
  8
1
  6
Continuous
100
AcDbLine
 10
689.5689242478952
 20
273.4866983662075
 30
0.0
 11
681.6377392478953
 21
264.4813483662076
 31
0.0
  0
LINE
  5
5FEB
330
18
100
AcDbEntity
  8
1
  6
Continuous
100
AcDbLine
 10
687.3175852478951
 20
275.4694943662075
 30
0.0
 11
679.3864022478949
 21
266.4641443662076
 31
0.0
  0
LINE
  5
5FEC
330
18
100
AcDbEntity
  8
5
  6
PHANTOM
 48
0.2
100
AcDbLine
 10
679.9362202478951
 20
232.8711223662076
 30
0.0
 11
670.9504512478953
 21
222.7960993662075
 31
0.0
  0
LINE
  5
5FED
330
18
100
AcDbEntity
  8
5
  6
PHANTOM
 48
0.2
100
AcDbLine
 10
691.9267962478953
 20
233.3465713662076
 30
0.0
 11
679.9362202478951
 21
232.8711223662076
 31
0.0
  0
LINE
  5
5FEE
330
18
100
AcDbEntity
  8
5
  6
PHANTOM
 48
0.2
100
AcDbLine
 10
691.8079342478952
 20
236.3442173662076
 30
0.0
 11
679.8173582478953
 21
235.8687693662075
 31
0.0
  0
LINE
  5
5FEF
330
18
100
AcDbEntity
  8
5
  6
PHANTOM
 48
0.2
100
AcDbLine
 10
691.8079342478952
 20
236.3442173662076
 30
0.0
 11
691.926796247895
 21
233.3465713662076
 31
0.0
  0
ARC
  5
5FF0
330
18
100
AcDbEntity
  8
5
  6
PHANTOM
 48
0.2
100
AcDbCircle
 10
679.9362182478951
 20
232.8711263662075
 30
0.0
 40
3.0
100
AcDbArc
 50
92.27069399999807
 51
139.7989990000004
  0
LINE
  5
5FF1
330
18
100
AcDbEntity
  8
1
  6
Continuous
100
AcDbLine
 10
681.6377412478949
 20
264.4813503662076
 30
0.0
 11
682.7272412478951
 21
251.0253813662075
 31
0.0
  0
LINE
  5
5FF2
330
18
100
AcDbEntity
  8
1
  6
Continuous
100
AcDbLine
 10
679.7370262478953
 20
250.7832703662077
 30
0.0
 11
682.7272412478951
 21
251.0253813662075
 31
0.0
  0
ARC
  5
5FF3
330
18
100
AcDbEntity
  8
1
  6
Continuous
100
AcDbCircle
 10
681.637737247895
 20
264.4813483662076
 30
0.0
 40
3.0
100
AcDbArc
 50
138.6290179999997
 51
186.1573199999985
  0
LINE
  5
5FF4
330
18
100
AcDbEntity
  8
1
  6
Continuous
100
AcDbLine
 10
687.3175852478951
 20
275.4694943662073
 30
0.0
 11
689.5689242478948
 21
273.4866983662075
 31
0.0
  0
LINE
  5
5FF7
330
18
100
AcDbEntity
  8
4
  6
CENTER
 48
0.5
100
AcDbLine
 10
628.7787402478953
 20
189.0252173662074
 30
0.0
 11
628.7787402478953
 21
274.0252173662074
 31
0.0
  0
LINE
  5
5FFD
330
18
100
AcDbEntity
  8
1
  6
Continuous
100
AcDbLine
 10
616.7038802478949
 20
227.0547503662076
 30
0.0
 11
626.0071162478952
 21
274.9157713662075
 31
0.0
  0
LINE
  5
5FFE
330
18
100
AcDbEntity
  8
1
  6
Continuous
100
AcDbLine
 10
627.3315472478953
 20
269.3303013662075
 30
0.0
 11
620.6393658442016
 21
236.6409038610936
 31
0.0
  0
ARC
  5
5FFF
330
18
100
AcDbEntity
  8
1
  6
Continuous
100
AcDbCircle
 10
661.0525662478949
 20
312.3175413662075
 30
0.0
 40
99.0
100
AcDbArc
 50
205.6101495822613
 51
244.1533099999996
  0
LINE
  5
6000
330
18
100
AcDbEntity
  8
5
  6
PHANTOM
 48
0.2
100
AcDbLine
 10
643.3647543478951
 20
266.8994013662075
 30
0.0
 11
651.4414332678953
 21
272.2881743662076
 31
0.0
  0
LINE
  5
6001
330
18
100
AcDbEntity
  8
4
  6
CENTER
 48
0.2
100
AcDbLine
 10
656.4365064478952
 20
270.8015733662075
 30
0.0
 11
656.4365064478952
 21
258.8015733662075
 31
0.0
  0
ARC
  5
6002
330
18
100
AcDbEntity
  8
1
  6
Continuous
100
AcDbCircle
 10
646.7270776478951
 20
258.5037333662075
 30
0.0
 40
15.29795
100
AcDbArc
 50
89.99933499999821
 51
156.3986789999997
  0
CIRCLE
  5
6003
330
18
100
AcDbEntity
  8
1
  6
Continuous
100
AcDbCircle
 10
656.4365064478952
 20
264.8015693662075
 30
0.0
 40
3.979794999999966
  0
ARC
  5
6004
330
18
100
AcDbEntity
  8
1
  6
Continuous
100
AcDbCircle
 10
656.4365064478952
 20
264.8015693662075
 30
0.0
 40
9.0
100
AcDbArc
 50
349.3682299999999
 51
89.99933499999821
  0
ARC
  5
6005
330
18
100
AcDbEntity
  8
5
  6
PHANTOM
 48
0.2
100
AcDbCircle
 10
664.1816922478953
 20
266.8045883662075
 30
0.0
 40
1.0
100
AcDbArc
 50
122.4617149999986
 51
194.4998300000007
  0
ARC
  5
6006
330
18
100
AcDbEntity
  8
5
  6
PHANTOM
 48
0.2
100
AcDbCircle
 10
651.8552426478952
 20
254.1738803662076
 30
0.0
 40
15.29795
100
AcDbArc
 50
123.7112840000016
 51
190.1106300000005
  0
LINE
  5
6007
330
18
100
AcDbEntity
  8
4
  6
CENTER
 48
0.2
100
AcDbLine
 10
645.1406299478951
 20
248.5046483662074
 30
0.0
 11
645.1406299478951
 21
237.5046523662074
 31
0.0
  0
ARC
  5
6008
330
18
100
AcDbEntity
  8
5
  6
PHANTOM
 48
0.2
100
AcDbCircle
 10
645.1406270478951
 20
243.0046483662074
 30
0.0
 40
6.0
100
AcDbArc
 50
177.0435208000015
 51
244.0283899999982
  0
CIRCLE
  5
6009
330
18
100
AcDbEntity
  8
5
  6
PHANTOM
 48
0.2
100
AcDbCircle
 10
645.1406299478951
 20
243.0046483662074
 30
0.0
 40
3.25
  0
LINE
  5
600A
330
18
100
AcDbEntity
  8
1
  6
Continuous
100
AcDbLine
 10
667.5254382478949
 20
246.2689573662075
 30
0.0
 11
643.438058547895
 21
230.8813233662076
 31
0.0
  0
ARC
  5
600B
330
18
100
AcDbEntity
  8
1
  6
Continuous
100
AcDbCircle
 10
650.2903691678953
 20
246.2944323662075
 30
0.0
 40
6.0
100
AcDbArc
 50
223.4018499999997
 51
290.3867100000024
  0
ARC
  5
600C
330
18
100
AcDbEntity
  8
1
  6
Continuous
100
AcDbCircle
 10
644.5192376478951
 20
242.6082743662075
 30
0.0
 40
4.449999299999998
100
AcDbArc
 50
124.0144079999992
 51
302.6120899999988
  0
LINE
  5
600D
330
18
100
AcDbEntity
  8
1
  6
Continuous
100
AcDbLine
 10
646.9140750478953
 20
238.8576453662078
 30
0.0
 11
649.2926669478953
 21
240.3779663662078
 31
0.0
  0
LINE
  5
600E
330
18
100
AcDbEntity
  8
1
  6
Continuous
100
AcDbLine
 10
620.2787402478953
 20
236.4326966087976
 30
0.0
 11
628.7787407907345
 21
241.3401734370259
 31
0.0
  0
LINE
  5
600F
330
18
100
AcDbEntity
  8
1
  6
Continuous
100
AcDbLine
 10
628.7787407907345
 20
241.3401734370259
 30
0.0
 11
637.278740247895
 21
236.4326879819802
 31
0.0
  0
LINE
  5
6010
330
18
100
AcDbEntity
  8
1
  6
Continuous
100
AcDbLine
 10
632.028740247895
 20
227.7255503662077
 30
0.0
 11
632.9742582478949
 21
227.4657463662076
 31
0.0
  0
LINE
  5
6011
330
18
100
AcDbEntity
  8
1
  6
Continuous
100
AcDbLine
 10
632.028740247895
 20
235.3248843662074
 30
0.0
 11
632.9742512478949
 21
235.5846883662075
 31
0.0
  0
CIRCLE
  5
6012
330
18
100
AcDbEntity
  8
2
  6
Continuous
100
AcDbCircle
 10
628.778740247895
 20
231.5252173662074
 30
0.0
 40
4.187999999999998
  0
LINE
  5
6013
330
18
100
AcDbEntity
  8
1
  6
Continuous
100
AcDbLine
 10
628.778740247895
 20
221.7102616087974
 30
0.0
 11
637.278740247895
 21
226.6177381236175
 31
0.0
  0
ARC
  5
6014
330
18
100
AcDbEntity
  8
1
  6
Continuous
100
AcDbCircle
 10
628.7787402478953
 20
231.5252173662074
 30
0.0
 40
12.0
100
AcDbArc
 50
272.1429099999975
 51
335.6491499999987
  0
CIRCLE
  5
6015
330
18
100
AcDbEntity
  8
1
  6
Continuous
100
AcDbCircle
 10
628.778740247895
 20
231.5252173662074
 30
0.0
 40
5.0
  0
CIRCLE
  5
6016
330
18
100
AcDbEntity
  8
1
  6
Continuous
100
AcDbCircle
 10
628.778740247895
 20
231.5252173662074
 30
0.0
 40
8.5
  0
CIRCLE
  5
6017
330
18
100
AcDbEntity
  8
1
  6
Continuous
100
AcDbCircle
 10
628.778740247895
 20
231.5252173662074
 30
0.0
 40
6.5
  0
LINE
  5
6018
330
18
100
AcDbEntity
  8
1
  6
Continuous
100
AcDbLine
 10
637.278740247895
 20
236.4326879819802
 30
0.0
 11
637.278740247895
 21
226.6177381236175
 31
0.0
  0
ARC
  5
6019
330
18
100
AcDbEntity
  8
1
  6
Continuous
100
AcDbCircle
 10
648.8215714478951
 20
222.4541113662076
 30
0.0
 40
10.0
100
AcDbArc
 50
122.571483
 51
155.6491550000015
  0
LINE
  5
601A
330
18
100
AcDbEntity
  8
5
  6
PHANTOM
 48
0.2
100
AcDbLine
 10
668.7115572478949
 20
224.7929403662076
 30
0.0
 11
642.503796747895
 21
237.6151183662075
 31
0.0
  0
ARC
  5
601B
330
18
100
AcDbEntity
  8
1
  6
Continuous
100
AcDbCircle
 10
628.778740247895
 20
231.5252173662074
 30
0.0
 40
6.0
100
AcDbArc
 50
318.5903800000012
 51
41.40962400000026
  0
ARC
  5
601C
330
18
100
AcDbEntity
  8
1
  6
Continuous
100
AcDbCircle
 10
633.0537422478951
 20
227.7550223662076
 30
0.0
 40
0.30000001
100
AcDbArc
 50
254.6357600000028
 51
318.5903800000012
  0
ARC
  5
601D
330
18
100
AcDbEntity
  8
1
  6
Continuous
100
AcDbCircle
 10
633.0537422478951
 20
235.2954123662075
 30
0.0
 40
0.30000001
100
AcDbArc
 50
41.4096170000016
 51
105.3642400000034
  0
LINE
  5
601E
330
18
100
AcDbEntity
  8
1
  6
Continuous
100
AcDbLine
 10
620.278740247895
 20
234.8793506758086
 30
0.0
 11
617.416424247895
 21
220.8977533662075
 31
0.0
  0
LINE
  5
601F
330
18
100
AcDbEntity
  8
1
  6
Continuous
100
AcDbLine
 10
620.278740247895
 20
236.4326966087976
 30
0.0
 11
620.278740247895
 21
226.6177381236175
 31
0.0
  0
ARC
  5
6021
330
18
100
AcDbEntity
  8
1
  6
Continuous
100
AcDbCircle
 10
661.0525592478949
 20
312.3175453662074
 30
0.0
 40
101.2999999999999
100
AcDbArc
 50
244.4841100000016
 51
248.22495
  0
LINE
  5
6022
330
18
100
AcDbEntity
  8
1
  6
Continuous
100
AcDbLine
 10
628.7787342478949
 20
217.2252143662076
 30
0.0
 11
629.2258092478951
 21
219.5252093662077
 31
0.0
  0
LINE
  5
6023
330
18
100
AcDbEntity
  8
1
  6
Continuous
100
AcDbLine
 10
620.278740247895
 20
226.6177381236175
 30
0.0
 11
628.778740247895
 21
221.7102616087974
 31
0.0
  0
ARC
  5
6024
330
18
100
AcDbEntity
  8
1
  6
Continuous
100
AcDbCircle
 10
628.7787402478953
 20
231.5252173662074
 30
0.0
 40
14.3
100
AcDbArc
 50
248.22495
 51
270.0
  0
ARC
  5
6025
330
18
100
AcDbEntity
  8
1
  6
Continuous
100
AcDbCircle
 10
628.778740247895
 20
231.5252173662074
 30
0.0
 40
6.0
100
AcDbArc
 50
138.5903699999986
 51
221.4096300000012
  0
LINE
  5
6026
330
18
100
AcDbEntity
  8
1
  6
Continuous
100
AcDbLine
 10
625.5287322478949
 20
227.7255423662077
 30
0.0
 11
624.5832292478951
 21
227.4657463662076
 31
0.0
  0
ARC
  5
6027
330
18
100
AcDbEntity
  8
1
  6
Continuous
100
AcDbCircle
 10
624.5037382478949
 20
227.7550223662076
 30
0.0
 40
0.30000001
100
AcDbArc
 50
221.4096199999987
 51
285.3642399999971
  0
LINE
  5
6028
330
18
100
AcDbEntity
  8
1
  6
Continuous
100
AcDbLine
 10
625.5287402478952
 20
235.3248843662076
 30
0.0
 11
624.5832292478951
 21
235.5846883662077
 31
0.0
  0
ARC
  5
6029
330
18
100
AcDbEntity
  8
1
  6
Continuous
100
AcDbCircle
 10
624.5037382478949
 20
235.2954123662075
 30
0.0
 40
0.30000001
100
AcDbArc
 50
74.63575800000405
 51
138.5903800000012
  0
ARC
  5
602A
330
18
100
AcDbEntity
  8
1
  6
Continuous
100
AcDbCircle
 10
646.5832292478951
 20
258.7546523662074
 30
0.0
 40
12.29794799999999
100
AcDbArc
 50
159.982070000001
 51
238.594940000002
  0
LINE
  5
602B
330
18
100
AcDbEntity
  8
4
  6
CENTER
 48
0.2
100
AcDbLine
 10
646.5710717478949
 20
264.2510343662074
 30
0.0
 11
646.5710717478949
 21
253.2510363662074
 31
0.0
  0
LINE
  5
602C
330
18
100
AcDbEntity
  8
4
  6
CENTER
 48
0.2
100
AcDbLine
 10
651.5882133378952
 20
259.7930093662075
 30
0.0
 11
651.5882133378952
 21
248.7930133662075
 31
0.0
  0
LINE
  5
602D
330
18
100
AcDbEntity
  8
5
  6
PHANTOM
 48
0.2
100
AcDbLine
 10
663.0800832478951
 20
262.5963883662075
 30
0.0
 11
659.4479037478952
 21
251.6536693662076
 31
0.0
  0
CIRCLE
  5
602E
330
18
100
AcDbEntity
  8
5
  6
PHANTOM
 48
0.2
100
AcDbCircle
 10
651.5882133378952
 20
254.2930093662075
 30
0.0
 40
3.25
  0
LINE
  5
602F
330
18
100
AcDbEntity
  8
1
  6
Continuous
100
AcDbLine
 10
660.7389747478951
 20
259.2799093662076
 30
0.0
 11
651.6441818578949
 21
252.1932623662075
 31
0.0
  0
ARC
  5
6030
330
18
100
AcDbEntity
  8
5
  6
PHANTOM
 48
0.2
100
AcDbCircle
 10
651.5882400978949
 20
254.2930703662075
 30
0.0
 40
8.5730658
100
AcDbArc
 50
348.3568999999998
 51
356.3770000000004
  0
ARC
  5
6031
330
18
100
AcDbEntity
  8
1
  6
Continuous
100
AcDbCircle
 10
646.7270776478951
 20
258.5037333662075
 30
0.0
 40
8.0
100
AcDbArc
 50
209.4143600000002
 51
307.9256700000011
  0
ARC
  5
6032
330
18
100
AcDbEntity
  8
5
  6
PHANTOM
 48
0.2
100
AcDbCircle
 10
651.8552426478952
 20
254.1738803662076
 30
0.0
 40
8.0
100
AcDbArc
 50
243.1263000000028
 51
341.6376200000007
  0
CIRCLE
  5
6033
330
18
100
AcDbEntity
  8
1
  6
Continuous
100
AcDbCircle
 10
650.2903691678953
 20
246.2944353662076
 30
0.0
 40
3.25
  0
LINE
  5
6034
330
18
100
AcDbEntity
  8
4
  6
CENTER
 48
0.2
100
AcDbLine
 10
644.7903710478949
 20
246.2944353662076
 30
0.0
 11
655.7903691478952
 21
246.2944353662076
 31
0.0
  0
ARC
  5
6035
330
18
100
AcDbEntity
  8
5
  6
PHANTOM
 48
0.2
100
AcDbCircle
 10
662.9231762478952
 20
251.9574453662075
 30
0.0
 40
3.0
100
AcDbArc
 50
168.3568900000003
 51
228.2706799999972
  0
LINE
  5
6036
330
18
100
AcDbEntity
  8
5
  6
PHANTOM
 48
0.2
100
AcDbLine
 10
666.0543522478953
 20
245.1449533662075
 30
0.0
 11
660.9263392478949
 21
249.7185533662075
 31
0.0
  0
LINE
  5
6037
330
18
100
AcDbEntity
  8
5
  6
PHANTOM
 48
0.2
100
AcDbLine
 10
639.5678782478951
 20
251.4319673662075
 30
0.0
 11
639.148622247895
 21
243.3141123662078
 31
0.0
  0
LINE
  5
6038
330
18
100
AcDbEntity
  8
5
  6
PHANTOM
 48
0.2
100
AcDbLine
 10
638.7637992478951
 20
251.8394343662075
 30
0.0
 11
636.7948532478951
 21
251.4883333662075
 31
0.0
  0
LINE
  5
6039
330
18
100
AcDbEntity
  8
4
  6
CENTER
 48
0.2
100
AcDbLine
 10
650.2903691678953
 20
251.7944353662076
 30
0.0
 11
650.2903691678953
 21
240.7944353662076
 31
0.0
  0
LINE
  5
603A
330
18
100
AcDbEntity
  8
1
  6
Continuous
100
AcDbLine
 10
640.1749502478951
 20
248.2582953662074
 30
0.0
 11
645.9310599478953
 21
242.1717743662075
 31
0.0
  0
LINE
  5
603B
330
18
100
AcDbEntity
  8
4
  6
CENTER
 48
0.2
100
AcDbLine
 10
650.6406289778952
 20
243.0046483662074
 30
0.0
 11
639.6406312478952
 21
243.0046483662074
 31
0.0
  0
LINE
  5
603C
330
18
100
AcDbEntity
  8
5
  6
PHANTOM
 48
0.2
100
AcDbLine
 10
638.7638012478951
 20
251.8394343662075
 30
0.0
 11
648.2390402478953
 21
247.0378403662075
 31
0.0
  0
LINE
  5
603D
330
18
100
AcDbEntity
  8
4
  6
CENTER
 48
0.2
100
AcDbLine
 10
657.0882121478951
 20
254.2930093662075
 30
0.0
 11
646.088214047895
 21
254.2930093662075
 31
0.0
  0
LINE
  5
603E
330
18
100
AcDbEntity
  8
4
  6
CENTER
 48
0.2
100
AcDbLine
 10
650.436506407895
 20
264.8015733662075
 30
0.0
 11
662.436506247895
 21
264.8015733662075
 31
0.0
  0
LINE
  5
603F
330
18
100
AcDbEntity
  8
4
  6
CENTER
 48
0.2
100
AcDbLine
 10
641.0710717478949
 20
258.7510363662074
 30
0.0
 11
652.0710717478951
 21
258.7510363662074
 31
0.0
  0
ARC
  5
6040
330
18
100
AcDbEntity
  8
1
  6
Continuous
100
AcDbCircle
 10
656.4365064478952
 20
264.8015733662075
 30
0.0
 40
7.0
100
AcDbArc
 50
307.9256700000011
 51
340.7878800000012
  0
LINE
  5
6041
330
18
100
AcDbEntity
  8
1
  6
Continuous
100
AcDbLine
 10
665.2820042478952
 20
263.1411043662076
 30
0.0
 11
664.0127792478953
 21
263.1688023662077
 31
0.0
  0
ARC
  5
6042
330
18
100
AcDbEntity
  8
5
  6
PHANTOM
 48
0.2
100
AcDbCircle
 10
656.4365044478952
 20
264.8015733662075
 30
0.0
 40
7.0
100
AcDbArc
 50
341.6376200000007
 51
14.49983000000077
  0
ARC
  5
6043
330
18
100
AcDbEntity
  8
1
  6
Continuous
100
AcDbCircle
 10
663.990961247895
 20
262.1690413662074
 30
0.0
 40
1.0
100
AcDbArc
 50
88.74976599999904
 51
160.7878800000012
  0
LINE
  5
6044
330
18
100
AcDbEntity
  8
1
  6
Continuous
100
AcDbLine
 10
634.5414562478953
 20
263.8278353662076
 30
0.0
 11
639.7583522478951
 21
254.5747553662074
 31
0.0
  0
LINE
  5
6045
330
18
100
AcDbEntity
  8
1
  6
Continuous
100
AcDbLine
 10
634.5414502478952
 20
263.8278353662076
 30
0.0
 11
632.7087422478951
 21
264.6285763662076
 31
0.0
  0
CIRCLE
  5
6046
330
18
100
AcDbEntity
  8
1
  6
Continuous
100
AcDbCircle
 10
646.5710717478949
 20
258.7510363662074
 30
0.0
 40
3.25
  0
LINE
  5
6049
330
18
100
AcDbEntity
  8
1
  6
Continuous
100
AcDbLine
 10
646.7787400478949
 20
294.0252173662077
 30
0.0
 11
564.7787362478949
 21
294.0252173662077
 31
0.0
  0
LINE
  5
604A
330
18
100
AcDbEntity
  8
1
  6
Continuous
100
AcDbLine
 10
638.7787402478952
 20
278.0252173662077
 30
0.0
 11
575.079639247895
 21
278.0252173662077
 31
0.0
  0
LINE
  5
604C
330
18
100
AcDbEntity
  8
1
  6
Continuous
100
AcDbLine
 10
634.7224202478951
 20
283.4252173662075
 30
0.0
 11
576.8350562478953
 21
283.4252173662075
 31
0.0
  0
LINE
  5
604E
330
18
100
AcDbEntity
  8
4
  6
CENTER
 48
0.5
100
AcDbLine
 10
605.7787362478949
 20
299.0252173662076
 30
0.0
 11
605.7787362478949
 21
267.5542357392173
 31
0.0
  0
LINE
  5
604F
330
18
100
AcDbEntity
  8
4
  6
CENTER
 48
0.2
100
AcDbLine
 10
637.2787362478949
 20
298.0839646662076
 30
0.0
 11
637.2787362478949
 21
286.9744818662077
 31
0.0
  0
LINE
  5
6051
330
18
100
AcDbEntity
  8
1
  6
Continuous
100
AcDbLine
 10
639.0316502478952
 20
271.7252183662075
 30
0.0
 11
630.2698942478951
 21
271.7252183662075
 31
0.0
  0
ARC
  5
6052
330
18
100
AcDbEntity
  8
1
  6
Continuous
100
AcDbCircle
 10
629.7787402478952
 20
280.0252173662077
 30
0.0
 40
6.0
100
AcDbArc
 50
0.0000400000007758
 51
34.51809
  0
LINE
  5
6053
330
18
100
AcDbEntity
  8
1
  6
Continuous
100
AcDbLine
 10
646.7272545478948
 20
273.8016833662074
 30
0.0
 11
656.4366127478953
 21
273.8015693662075
 31
0.0
  0
LINE
  5
6054
330
18
100
AcDbEntity
  8
1
  6
Continuous
100
AcDbLine
 10
666.6922612478953
 20
274.0252173662074
 30
0.0
 11
633.3254052478951
 21
274.0252173662074
 31
0.0
  0
ARC
  5
6055
330
18
100
AcDbEntity
  8
5
  6
PHANTOM
 48
0.2
100
AcDbCircle
 10
656.4365064478952
 20
264.8015693662075
 30
0.0
 40
9.0
100
AcDbArc
 50
89.99933499999821
 51
123.7112809999981
  0
LINE
  5
6056
330
18
100
AcDbEntity
  8
5
  6
PHANTOM
 48
0.2
100
AcDbLine
 10
664.7161192478953
 20
268.3297393662076
 30
0.0
 11
663.6449552478953
 21
267.6483383662075
 31
0.0
  0
ARC
  5
6057
330
18
100
AcDbEntity
  8
1
  6
Continuous
100
AcDbCircle
 10
666.6922612478953
 20
271.7252183662075
 30
0.0
 40
2.299999999999998
100
AcDbArc
 50
26.99998999999941
 51
89.99999700000229
  0
LINE
  5
6058
330
18
100
AcDbEntity
  8
1
  6
Continuous
100
AcDbLine
 10
666.6922612478953
 20
271.7252183662075
 30
0.0
 11
662.1865582478951
 21
271.7252183662075
 31
0.0
  0
LINE
  5
6059
330
18
100
AcDbEntity
  8
1
  6
Continuous
100
AcDbLine
 10
635.7787402478952
 20
280.0252173662077
 30
0.0
 11
635.7787402478952
 21
279.0252173662076
 31
0.0
  0
LINE
  5
605A
330
18
100
AcDbEntity
  8
1
  6
Continuous
100
AcDbLine
 10
633.3254052478951
 20
274.0252173662074
 30
0.0
 11
633.3254052478951
 21
271.7252183662075
 31
0.0
  0
ARC
  5
605B
330
18
100
AcDbEntity
  8
1
  6
Continuous
100
AcDbCircle
 10
638.7787402478952
 20
273.0252173662074
 30
0.0
 40
5.0
100
AcDbArc
 50
11.53696000000024
 51
90.00001799999918
  0
ARC
  5
605C
330
18
100
AcDbEntity
  8
1
  6
Continuous
100
AcDbCircle
 10
636.7787402478953
 20
279.0252173662076
 30
0.0
 40
1.0
100
AcDbArc
 50
180.0
 51
269.999979999998
  0
LINE
  5
605D
330
18
100
AcDbEntity
  8
1
  6
Continuous
100
AcDbLine
 10
635.7787362478949
 20
287.0252163662076
 30
0.0
 11
634.7224202478951
 21
283.4252163662074
 31
0.0
  0
ARC
  5
605F
330
18
100
AcDbEntity
  8
1
  6
Continuous
100
AcDbCircle
 10
630.2698942478951
 20
268.7252183662076
 30
0.0
 40
3.0
100
AcDbArc
 50
89.99999700000229
 51
168.4965709999993
  0
LINE
  5
6060
330
18
100
AcDbEntity
  8
4
  6
CENTER
 48
0.2
100
AcDbLine
 10
574.2787362478948
 20
298.0839646662076
 30
0.0
 11
574.2787362478948
 21
286.9744818662077
 31
0.0
  0
ARC
  5
6063
330
18
100
AcDbEntity
  8
1
  6
Continuous
100
AcDbCircle
 10
581.7787362478949
 20
280.0252173662077
 30
0.0
 40
6.0
100
AcDbArc
 50
145.4818799999976
 51
180.0
  0
LINE
  5
6064
330
18
100
AcDbEntity
  8
1
  6
Continuous
100
AcDbLine
 10
571.7787251170522
 20
269.5252372713702
 30
0.0
 11
573.1163672478951
 21
276.4068353662076
 31
0.0
  0
LINE
  5
6065
330
18
100
AcDbEntity
  8
1
  6
Continuous
100
AcDbLine
 10
575.7787362478949
 20
280.0252173662077
 30
0.0
 11
575.7787362478949
 21
279.0252173662076
 31
0.0
  0
ARC
  5
6066
330
18
100
AcDbEntity
  8
1
  6
Continuous
100
AcDbCircle
 10
575.079639247895
 20
276.0252173662077
 30
0.0
 40
2.0
100
AcDbArc
 50
90.00001799999918
 51
169.0000519999992
  0
ARC
  5
6067
330
18
100
AcDbEntity
  8
1
  6
Continuous
100
AcDbCircle
 10
574.7787362478952
 20
279.0252173662076
 30
0.0
 40
1.0
100
AcDbArc
 50
269.999969999997
 51
0.000019999998763
  0
LINE
  5
6068
330
18
100
AcDbEntity
  8
1
  6
Continuous
100
AcDbLine
 10
575.7787512478952
 20
287.0252197662077
 30
0.0
 11
576.835071247895
 21
283.4252183662076
 31
0.0
  0
CIRCLE
  5
6238
330
18
100
AcDbEntity
  8
1
  6
Continuous
100
AcDbCircle
 10
227.4838409344196
 20
231.5252173662074
 30
0.0
 40
9.0
  0
LINE
  5
634C
330
18
100
AcDbEntity
  8
1
  6
Continuous
100
AcDbLine
 10
422.1670178943898
 20
269.5180409851107
 30
0.0
 11
434.0955632879252
 21
269.5180409851107
 31
0.0
  0
ARC
  5
634D
330
18
100
AcDbEntity
  8
1
  6
Continuous
100
AcDbCircle
 10
407.1312905911574
 20
235.0252173662076
 30
0.0
 40
8.0
100
AcDbArc
 50
158.7874293974513
 51
233.5764263576679
  0
ARC
  5
634F
330
18
100
AcDbEntity
  8
1
  6
Continuous
100
AcDbCircle
 10
407.1312905911574
 20
235.0252173662076
 30
0.0
 40
12.0
100
AcDbArc
 50
157.9624566560263
 51
233.5764263576679
  0
ARC
  5
635F
330
18
100
AcDbEntity
  8
1
  6
Continuous
100
AcDbCircle
 10
397.6312905911573
 20
222.150824176624
 30
0.0
 40
4.0
100
AcDbArc
 50
18.5827849451575
 51
53.57642635766795
  0
ARC
  5
6360
330
18
100
AcDbEntity
  8
1
  6
Continuous
100
AcDbCircle
 10
397.6312905911573
 20
222.150824176624
 30
0.0
 40
8.0
100
AcDbArc
 50
7.688516170246534
 51
53.57642635766795
  0
ARC
  5
6361
330
18
100
AcDbEntity
  8
1
  6
Continuous
100
AcDbCircle
 10
425.6312905911571
 20
249.5252173662076
 30
0.0
 40
20.0
100
AcDbArc
 50
88.46507073606126
 51
180.0
  0
LINE
  5
6362
330
18
100
AcDbEntity
  8
1
  6
Continuous
100
AcDbLine
 10
396.1312805911573
 20
274.5530813662074
 30
0.0
 11
395.1466296349719
 21
235.6317664287606
 31
0.0
  0
ARC
  5
6363
330
18
100
AcDbEntity
  8
1
  6
Continuous
100
AcDbCircle
 10
421.6312905911571
 20
249.5252173662076
 30
0.0
 40
20.0
100
AcDbArc
 50
88.46507073606126
 51
157.9624566560263
  0
LINE
  5
6364
330
18
100
AcDbEntity
  8
1
  6
Continuous
100
AcDbLine
 10
406.9864018126805
 20
256.7617996008153
 30
0.0
 11
399.6733350797669
 21
237.9198502600507
 31
0.0
  0
LINE
  5
6365
330
18
100
AcDbEntity
  8
1
  6
Continuous
100
AcDbLine
 10
403.0925267370197
 20
257.0294984617241
 30
0.0
 11
396.008032278675
 21
239.5277860235175
 31
0.0
  0
ARC
  5
6371
330
18
100
AcDbEntity
  8
1
  6
Continuous
100
AcDbCircle
 10
449.1312905911573
 20
235.0252173662076
 30
0.0
 40
8.0
100
AcDbArc
 50
306.423573642332
 51
21.21257060254863
  0
ARC
  5
6377
330
18
100
AcDbEntity
  8
1
  6
Continuous
100
AcDbCircle
 10
449.1312905911573
 20
235.0252173662076
 30
0.0
 40
12.0
100
AcDbArc
 50
306.423573642332
 51
22.03754334397368
  0
ARC
  5
638A
330
18
100
AcDbEntity
  8
1
  6
Continuous
100
AcDbCircle
 10
458.6312905911576
 20
222.150824176624
 30
0.0
 40
4.0
100
AcDbArc
 50
126.423573642332
 51
161.417215054842
  0
ARC
  5
638B
330
18
100
AcDbEntity
  8
1
  6
Continuous
100
AcDbCircle
 10
458.6312905911576
 20
222.150824176624
 30
0.0
 40
8.0
100
AcDbArc
 50
126.423573642332
 51
172.3114838297534
  0
ARC
  5
638C
330
18
100
AcDbEntity
  8
1
  6
Continuous
100
AcDbCircle
 10
430.6312905911571
 20
249.5252173662076
 30
0.0
 40
20.0
100
AcDbArc
 50
0.0
 51
91.53799920212007
  0
LINE
  5
638D
330
18
100
AcDbEntity
  8
1
  6
Continuous
100
AcDbLine
 10
460.1312865911575
 20
274.5530813662075
 30
0.0
 11
461.1159319504756
 21
235.6321535148435
 31
0.0
  0
ARC
  5
638E
330
18
100
AcDbEntity
  8
1
  6
Continuous
100
AcDbCircle
 10
434.6312905911577
 20
249.5252173662076
 30
0.0
 40
20.0
100
AcDbArc
 50
22.03754334397368
 51
91.53492926393871
  0
LINE
  5
638F
330
18
100
AcDbEntity
  8
1
  6
Continuous
100
AcDbLine
 10
453.1700544452951
 20
257.0294984617241
 30
0.0
 11
460.2545489036399
 21
239.5277860235175
 31
0.0
  0
LINE
  5
6390
330
18
100
AcDbEntity
  8
1
  6
Continuous
100
AcDbLine
 10
449.2761793696343
 20
256.7617996008153
 30
0.0
 11
456.5892461025479
 21
237.9198502600507
 31
0.0
  0
LINE
  5
64BC
330
18
100
AcDbEntity
  8
1
  6
Continuous
100
AcDbLine
 10
393.4312805911577
 20
262.0010403662076
 30
0.0
 11
394.0312805911578
 21
261.0855663662075
 31
0.0
  0
ARC
  5
64BE
330
18
100
AcDbEntity
  8
1
  6
Continuous
100
AcDbCircle
 10
396.0313005911573
 20
262.6285763662076
 30
0.0
 40
2.0
100
AcDbArc
 50
94.33684632713648
 51
180.0
  0
ARC
  5
64BF
330
18
100
AcDbEntity
  8
1
  6
Continuous
100
AcDbCircle
 10
460.2312805911578
 20
262.6285763662076
 30
0.0
 40
2.0
100
AcDbArc
 50
0.000000000000007
 51
85.6631536728635
  0
LINE
  5
64C0
330
18
100
AcDbEntity
  8
1
  6
Continuous
100
AcDbLine
 10
451.1312905911575
 20
220.8977542764675
 30
0.0
 11
454.3312875911575
 21
220.8977542764675
 31
0.0
  0
ARC
  5
64C3
330
18
100
AcDbEntity
  8
1
  6
Continuous
100
AcDbCircle
 10
454.3312875911575
 20
223.1977542764675
 30
0.0
 40
2.299999999999998
100
AcDbArc
 50
270.0
 51
0.000000000000007
  0
LINE
  5
64C8
330
18
100
AcDbEntity
  8
1
  6
Continuous
100
AcDbLine
 10
451.1312905911576
 20
223.2211246512757
 30
0.0
 11
454.5554745245079
 21
223.2211246512757
 31
0.0
  0
ARC
  5
64C9
330
18
100
AcDbEntity
  8
1
  6
Continuous
100
AcDbCircle
 10
454.5554745245079
 20
223.5211246512757
 30
0.0
 40
0.3
100
AcDbArc
 50
270.0
 51
341.4172150548441
  0
ARC
  5
64CA
330
18
100
AcDbEntity
  8
1
  6
Continuous
100
AcDbCircle
 10
401.9312935911574
 20
223.1977542764675
 30
0.0
 40
2.299999999999998
100
AcDbArc
 50
180.0
 51
270.0
  0
LINE
  5
64CB
330
18
100
AcDbEntity
  8
1
  6
Continuous
100
AcDbLine
 10
405.1312905911575
 20
220.8977542764675
 30
0.0
 11
401.9312935911574
 21
220.8977542764675
 31
0.0
  0
ARC
  5
64CC
330
18
100
AcDbEntity
  8
1
  6
Continuous
100
AcDbCircle
 10
401.7071066578068
 20
223.5211246512757
 30
0.0
 40
0.3
100
AcDbArc
 50
198.5827849451559
 51
270.0
  0
LINE
  5
64CD
330
18
100
AcDbEntity
  8
1
  6
Continuous
100
AcDbLine
 10
405.1312905911573
 20
223.2211246512757
 30
0.0
 11
401.7071066578068
 21
223.2211246512757
 31
0.0
  0
ARC
  5
64E1
330
18
100
AcDbEntity
  8
1
  6
Continuous
100
AcDbCircle
 10
451.1312905911575
 20
220.3977542764675
 30
0.0
 40
0.5
100
AcDbArc
 50
89.99999999999978
 51
180.0
  0
ARC
  5
64E2
330
18
100
AcDbEntity
  8
1
  6
Continuous
100
AcDbCircle
 10
451.1312905911576
 20
222.7211246512756
 30
0.0
 40
0.5
100
AcDbArc
 50
90.0
 51
180.0
  0
ARC
  5
64E3
330
18
100
AcDbEntity
  8
1
  6
Continuous
100
AcDbCircle
 10
405.1312905911573
 20
222.7211246512756
 30
0.0
 40
0.5
100
AcDbArc
 50
0.0
 51
90.0
  0
ARC
  5
64E4
330
18
100
AcDbEntity
  8
1
  6
Continuous
100
AcDbCircle
 10
405.1312905911575
 20
220.3977542764675
 30
0.0
 40
0.5
100
AcDbArc
 50
0.0000000000012468
 51
90.00000000000019
  0
CIRCLE
  5
64E8
330
18
100
AcDbEntity
  8
1
  6
Continuous
100
AcDbCircle
 10
656.4365064478952
 20
264.8015733662075
 30
0.0
 40
1.99999600000001
  0
LINE
  5
64E9
330
18
100
AcDbEntity
  8
1
  6
Continuous
100
AcDbLine
 10
181.5293874788095
 20
110.6622514484321
 30
0.0
 11
236.8461514271725
 21
110.6622514484472
 31
0.0
  0
LINE
  5
64EA
330
18
100
AcDbEntity
  8
1
  6
Continuous
100
AcDbLine
 10
181.5293874788205
 20
53.66225844856153
 30
0.0
 11
236.8533626198716
 21
53.66225844871951
 31
0.0
  0
LINE
  5
64ED
330
18
100
AcDbEntity
  8
1
  6
Continuous
100
AcDbLine
 10
176.5255549344199
 20
111.2622544483999
 30
0.0
 11
218.4838499529833
 21
111.2622544483999
 31
0.0
  0
LINE
  5
64EE
330
18
100
AcDbEntity
  8
1
  6
Continuous
100
AcDbLine
 10
176.53533993442
 20
114.2622544483999
 30
0.0
 11
221.1718228297732
 21
114.2622544483999
 31
0.0
  0
LINE
  5
64EF
330
18
100
AcDbEntity
  8
4
  6
CENTER
 48
0.5
100
AcDbLine
 10
296.4838449344199
 20
82.16224844839961
 30
0.0
 11
161.6936569344197
 21
82.16224844839974
 31
0.0
  0
LINE
  5
64F1
330
18
100
AcDbEntity
  8
1
  6
Continuous
100
AcDbLine
 10
178.3293874788114
 20
107.462251448433
 30
0.0
 11
178.3293874788114
 21
56.86225844856545
 31
0.0
  0
LINE
  5
64F2
330
18
100
AcDbEntity
  8
1
  6
Continuous
100
AcDbLine
 10
177.6248399344199
 20
111.2622544483999
 30
0.0
 11
177.6248399344199
 21
53.06223844839998
 31
0.0
  0
LINE
  5
64F5
330
18
100
AcDbEntity
  8
1
  6
Continuous
100
AcDbLine
 10
167.2703774968292
 20
64.74603190097013
 30
0.0
 11
173.3029742647931
 21
55.16224844839848
 31
0.0
  0
ARC
  5
64F6
330
18
100
AcDbEntity
  8
1
  6
Continuous
100
AcDbCircle
 10
176.53533993442
 20
111.2622544483999
 30
0.0
 40
3.0
100
AcDbArc
 50
90.00000000000005
 51
180.0
  0
LINE
  5
64F7
330
18
100
AcDbEntity
  8
1
  6
Continuous
100
AcDbLine
 10
166.6936569344197
 20
97.57963154067605
 30
0.0
 11
166.6936569344197
 21
66.74486535612323
 31
0.0
  0
LINE
  5
64F9
330
18
100
AcDbEntity
  8
1
  6
Continuous
100
AcDbLine
 10
167.2703774968297
 20
99.57846499582956
 30
0.0
 11
173.3029742647931
 21
109.1622484483984
 31
0.0
  0
ARC
  5
64FB
330
18
100
AcDbEntity
  8
1
  6
Continuous
100
AcDbCircle
 10
181.5293874788114
 20
107.462251448433
 30
0.0
 40
3.2
100
AcDbArc
 50
90.00000000000005
 51
180.0
  0
LINE
  5
64FE
330
18
100
AcDbEntity
  8
1
  6
Continuous
100
AcDbLine
 10
173.5353399344201
 20
109.1622484483982
 30
0.0
 11
173.3029742647934
 21
109.1622484483982
 31
0.0
  0
ARC
  5
6500
330
18
100
AcDbEntity
  8
1
  6
Continuous
100
AcDbCircle
 10
170.4458569344199
 20
97.57963154067605
 30
0.0
 40
3.7522
100
AcDbArc
 50
147.8112760309559
 51
180.0
  0
ARC
  5
6502
330
18
100
AcDbEntity
  8
1
  6
Continuous
100
AcDbCircle
 10
170.4458569344199
 20
66.74486535612323
 30
0.0
 40
3.7522
100
AcDbArc
 50
180.0
 51
212.1887239690351
  0
ARC
  5
6504
330
18
100
AcDbEntity
  8
1
  6
Continuous
100
AcDbCircle
 10
181.5293874788114
 20
56.86225844856545
 30
0.0
 40
3.2
100
AcDbArc
 50
180.0
 51
270.0
  0
LINE
  5
6508
330
18
100
AcDbEntity
  8
1
  6
Continuous
100
AcDbLine
 10
173.5353399344201
 20
55.16224844839825
 30
0.0
 11
173.3029742647934
 21
55.16224844839825
 31
0.0
  0
ARC
  5
6509
330
18
100
AcDbEntity
  8
1
  6
Continuous
100
AcDbCircle
 10
176.53533993442
 20
53.06223844839998
 30
0.0
 40
3.0
100
AcDbArc
 50
180.0
 51
270.0
  0
LINE
  5
650D
330
18
100
AcDbEntity
  8
1
  6
Continuous
100
AcDbLine
 10
291.4838449344198
 20
50.66224844839962
 30
0.0
 11
291.4838449344198
 21
113.6622484483996
 31
0.0
  0
LINE
  5
6512
330
18
100
AcDbEntity
  8
4
  6
CENTER
 48
0.5
100
AcDbLine
 10
250.48384493442
 20
36.16224844839962
 30
0.0
 11
250.48384493442
 21
128.1622484483996
 31
0.0
  0
LINE
  5
6513
330
18
100
AcDbEntity
  8
4
  6
CENTER
 48
0.2
100
AcDbLine
 10
218.9838449344199
 20
107.6622484483996
 30
0.0
 11
218.9838449344199
 21
119.6622484483996
 31
0.0
  0
ARC
  5
6514
330
18
100
AcDbEntity
  8
1
  6
Continuous
100
AcDbCircle
 10
218.9838449344199
 20
113.6622484483996
 30
0.0
 40
4.400000099999996
100
AcDbArc
 50
29.13739695777936
 51
143.7783574863606
  0
ARC
  5
6515
330
18
100
AcDbEntity
  8
1
  6
Continuous
100
AcDbCircle
 10
194.5782747344198
 20
112.5100544483998
 30
0.0
 40
3.7522
100
AcDbArc
 50
90.00000000000005
 51
152.161600991919
  0
LINE
  5
6517
330
18
100
AcDbEntity
  8
4
  6
CENTER
 48
0.2
100
AcDbLine
 10
281.9838449344201
 20
107.6622484483996
 30
0.0
 11
281.9838449344201
 21
119.6622484483996
 31
0.0
  0
CIRCLE
  5
6518
330
18
100
AcDbEntity
  8
1
  6
Continuous
100
AcDbCircle
 10
281.9838449344201
 20
113.6622484483996
 30
0.0
 40
4.400000099999996
  0
LINE
  5
651B
330
18
100
AcDbEntity
  8
1
  6
Continuous
100
AcDbLine
 10
281.9838449344201
 20
123.1622484483996
 30
0.0
 11
218.9838449344199
 21
123.1622484483996
 31
0.0
  0
LINE
  5
651C
330
18
100
AcDbEntity
  8
4
  6
CENTER
 48
0.2
100
AcDbLine
 10
224.9838449344199
 20
113.6622484483996
 30
0.0
 11
212.9838449344199
 21
113.6622484483996
 31
0.0
  0
LINE
  5
651D
330
18
100
AcDbEntity
  8
1
  6
Continuous
100
AcDbLine
 10
194.5782747344198
 20
116.2622544483999
 30
0.0
 11
221.5538335437081
 21
116.2622544483999
 31
0.0
  0
LINE
  5
651E
330
18
100
AcDbEntity
  8
1
  6
Continuous
100
AcDbLine
 10
204.1990587342759
 20
118.2622544483999
 30
0.0
 11
195.4530927342759
 21
118.2622544483999
 31
0.0
  0
ARC
  5
651F
330
18
100
AcDbEntity
  8
1
  6
Continuous
100
AcDbCircle
 10
199.326074734276
 20
117.2622544483999
 30
0.0
 40
4.0
100
AcDbArc
 50
165.5224900000001
 51
194.4775099999998
  0
ARC
  5
6520
330
18
100
AcDbEntity
  8
1
  6
Continuous
100
AcDbCircle
 10
200.326074734276
 20
117.2622544483999
 30
0.0
 40
4.0
100
AcDbArc
 50
345.5224900000002
 51
14.47751199999776
  0
LINE
  5
6521
330
18
100
AcDbEntity
  8
1
  6
Continuous
100
AcDbLine
 10
212.9415094344984
 20
116.8622534483997
 30
0.0
 11
206.4415094343416
 21
116.8622534483997
 31
0.0
  0
LINE
  5
6522
330
18
100
AcDbEntity
  8
1
  6
Continuous
100
AcDbLine
 10
206.4415094343416
 20
116.8622534483997
 30
0.0
 11
207.3569754343418
 21
116.2622544483999
 31
0.0
  0
ARC
  5
6523
330
18
100
AcDbEntity
  8
1
  6
Continuous
100
AcDbCircle
 10
209.6915094343414
 20
112.0810034483997
 30
0.0
 40
5.78125
100
AcDbArc
 50
55.79454206097086
 51
124.2054599999985
  0
ARC
  5
6524
330
18
100
AcDbEntity
  8
1
  6
Continuous
100
AcDbCircle
 10
218.9838449344199
 20
113.6622484483996
 30
0.0
 40
9.5
100
AcDbArc
 50
90.00001999999552
 51
154.0874829041291
  0
LINE
  5
6525
330
18
100
AcDbEntity
  8
4
  6
CENTER
 48
0.2
100
AcDbLine
 10
287.9838449344201
 20
113.6622484483996
 30
0.0
 11
275.9838449344199
 21
113.6622484483996
 31
0.0
  0
ARC
  5
6526
330
18
100
AcDbEntity
  8
1
  6
Continuous
100
AcDbCircle
 10
281.9838449344201
 20
113.6622484483996
 30
0.0
 40
9.5
100
AcDbArc
 50
359.9999799999979
 51
90.00002999999653
  0
LINE
  5
6529
330
18
100
AcDbEntity
  8
1
  6
Continuous
100
AcDbLine
 10
190.8260747344197
 20
111.1622484483834
 30
0.0
 11
218.4838499529833
 21
111.1622484483767
 31
0.0
  0
LINE
  5
652A
330
18
100
AcDbEntity
  8
1
  6
Continuous
100
AcDbLine
 10
190.8260747344197
 20
111.2622544483999
 30
0.0
 11
190.8260747344197
 21
110.6622514484375
 31
0.0
  0
LINE
  5
652B
330
18
100
AcDbEntity
  8
1
  6
Continuous
100
AcDbLine
 10
281.9838449344201
 20
41.16224844839961
 30
0.0
 11
218.9838449344199
 21
41.16224844839961
 31
0.0
  0
LINE
  5
652C
330
18
100
AcDbEntity
  8
4
  6
CENTER
 48
0.2
100
AcDbLine
 10
224.9838449344199
 20
50.66224844839962
 30
0.0
 11
212.9838449344199
 21
50.66224844839962
 31
0.0
  0
ARC
  5
652D
330
18
100
AcDbEntity
  8
1
  6
Continuous
100
AcDbCircle
 10
218.9838449344199
 20
50.66224844839962
 30
0.0
 40
4.400000099999996
100
AcDbArc
 50
216.2213842536318
 51
307.3020068831094
  0
LINE
  5
652E
330
18
100
AcDbEntity
  8
4
  6
CENTER
 48
0.2
100
AcDbLine
 10
218.9838449344199
 20
44.66224844839962
 30
0.0
 11
218.9838449344199
 21
56.66224844839963
 31
0.0
  0
ARC
  5
652F
330
18
100
AcDbEntity
  8
1
  6
Continuous
100
AcDbCircle
 10
209.6915094343414
 20
52.24348844839983
 30
0.0
 40
5.78125
100
AcDbArc
 50
235.7945400000014
 51
304.2054579381047
  0
ARC
  5
6530
330
18
100
AcDbEntity
  8
1
  6
Continuous
100
AcDbCircle
 10
218.9838449344199
 20
50.66224844839962
 30
0.0
 40
9.5
100
AcDbArc
 50
205.9125486249835
 51
269.9999820000007
  0
LINE
  5
6531
330
18
100
AcDbEntity
  8
1
  6
Continuous
100
AcDbLine
 10
194.5782747344198
 20
48.06225844839969
 30
0.0
 11
219.0219511746041
 21
48.06225844839969
 31
0.0
  0
LINE
  5
6534
330
18
100
AcDbEntity
  8
1
  6
Continuous
100
AcDbLine
 10
202.8260747342758
 20
46.76225844839996
 30
0.0
 11
196.826074734276
 21
46.76225844839996
 31
0.0
  0
ARC
  5
6535
330
18
100
AcDbEntity
  8
1
  6
Continuous
100
AcDbCircle
 10
196.826074734276
 20
47.76225844839996
 30
0.0
 40
1.0
100
AcDbArc
 50
191.5369499999987
 51
270.000010000001
  0
ARC
  5
6536
330
18
100
AcDbEntity
  8
1
  6
Continuous
100
AcDbCircle
 10
202.8260747342758
 20
47.76225844839996
 30
0.0
 40
1.0
100
AcDbArc
 50
269.999989999999
 51
348.4630399999997
  0
LINE
  5
6537
330
18
100
AcDbEntity
  8
1
  6
Continuous
100
AcDbLine
 10
203.805869734276
 20
47.56225844839991
 30
0.0
 11
195.8462777342758
 21
47.56225844839991
 31
0.0
  0
LINE
  5
6538
330
18
100
AcDbEntity
  8
1
  6
Continuous
100
AcDbLine
 10
202.3260827342758
 20
48.06225844839993
 30
0.0
 11
203.8058737342757
 21
47.56225844839991
 31
0.0
  0
LINE
  5
6539
330
18
100
AcDbEntity
  8
1
  6
Continuous
100
AcDbLine
 10
197.326076734276
 20
48.06225844839969
 30
0.0
 11
195.8462777342758
 21
47.56225844839969
 31
0.0
  0
LINE
  5
653B
330
18
100
AcDbEntity
  8
1
  6
Continuous
100
AcDbLine
 10
212.9415094343414
 20
47.46223844839983
 30
0.0
 11
206.4415094343414
 21
47.46223844839983
 31
0.0
  0
LINE
  5
653C
330
18
100
AcDbEntity
  8
1
  6
Continuous
100
AcDbLine
 10
206.4415054343414
 20
47.4622384483996
 30
0.0
 11
207.3569794343413
 21
48.06223844839975
 31
0.0
  0
LINE
  5
653D
330
18
100
AcDbEntity
  8
4
  6
CENTER
 48
0.2
100
AcDbLine
 10
281.9838449344201
 20
44.66224844839962
 30
0.0
 11
281.9838449344201
 21
56.66224844839963
 31
0.0
  0
CIRCLE
  5
653E
330
18
100
AcDbEntity
  8
1
  6
Continuous
100
AcDbCircle
 10
281.9838449344201
 20
50.66224844839962
 30
0.0
 40
4.400000099999996
  0
ARC
  5
653F
330
18
100
AcDbEntity
  8
1
  6
Continuous
100
AcDbCircle
 10
281.9838449344201
 20
50.66224844839962
 30
0.0
 40
9.5
100
AcDbArc
 50
269.9999820000007
 51
359.9999599999991
  0
LINE
  5
6540
330
18
100
AcDbEntity
  8
4
  6
CENTER
 48
0.2
100
AcDbLine
 10
287.9838449344201
 20
50.66224844839962
 30
0.0
 11
275.9838449344199
 21
50.66224844839962
 31
0.0
  0
LINE
  5
66EF
330
18
100
AcDbEntity
  8
4
  6
CENTER
 48
0.5
100
AcDbLine
 10
227.4838499529835
 20
43.16224197267104
 30
0.0
 11
227.4838499529834
 21
117.640488731701
 31
0.0
  0
LINE
  5
66F0
330
18
100
AcDbEntity
  8
1
  6
Continuous
100
AcDbLine
 10
215.48384493442
 20
104.6622484483999
 30
0.0
 11
240.1336381188426
 21
104.6622484483997
 31
0.0
  0
LINE
  5
66F1
330
18
100
AcDbEntity
  8
1
  6
Continuous
100
AcDbLine
 10
181.3293874788116
 20
108.6622484483999
 30
0.0
 11
227.035135540472
 21
108.6622484483998
 31
0.0
  0
LINE
  5
66F2
330
18
100
AcDbEntity
  8
1
  6
Continuous
100
AcDbLine
 10
215.48384493442
 20
108.6622484483999
 30
0.0
 11
215.48384493442
 21
104.6622484483999
 31
0.0
  0
ARC
  5
66F3
330
18
100
AcDbEntity
  8
1
  6
Continuous
100
AcDbCircle
 10
240.1336381188426
 20
111.6622484483998
 30
0.0
 40
7.0
100
AcDbArc
 50
270.0
 51
317.5580029063453
  0
ARC
  5
66F4
330
18
100
AcDbEntity
  8
1
  6
Continuous
100
AcDbCircle
 10
240.1336381188426
 20
111.6622484483998
 30
0.0
 40
3.0
100
AcDbArc
 50
270.0
 51
317.5580029063453
  0
ARC
  5
66F5
330
18
100
AcDbEntity
  8
1
  6
Continuous
100
AcDbCircle
 10
250.48384493442
 20
82.16224844839969
 30
0.0
 40
26.80001381884681
100
AcDbArc
 50
262.3889884418856
 51
97.61101155811431
  0
LINE
  5
66F6
330
18
100
AcDbEntity
  8
1
  6
Continuous
100
AcDbLine
 10
248.2699622733217
 20
110.186778903317
 30
0.0
 11
245.299364328072
 21
106.9383440535924
 31
0.0
  0
LINE
  5
66F7
330
18
100
AcDbEntity
  8
1
  6
Continuous
100
AcDbLine
 10
245.3181187251906
 20
112.8861528432069
 30
0.0
 11
242.3475207799409
 21
109.6377179934823
 31
0.0
  0
ARC
  5
66F8
330
18
100
AcDbEntity
  8
1
  6
Continuous
100
AcDbCircle
 10
250.48384493442
 20
108.1622484483996
 30
0.0
 40
3.0
100
AcDbArc
 50
90.0
 51
137.5580029063453
  0
ARC
  5
66F9
330
18
100
AcDbEntity
  8
1
  6
Continuous
100
AcDbCircle
 10
250.48384493442
 20
108.1622484483996
 30
0.0
 40
7.0
100
AcDbArc
 50
90.0
 51
137.5580029063453
  0
ARC
  5
66FA
330
18
100
AcDbEntity
  8
1
  6
Continuous
100
AcDbCircle
 10
250.48384493442
 20
80.42917215572201
 30
0.0
 40
34.73307629267761
100
AcDbArc
 50
45.85510903463035
 51
90.0
  0
ARC
  5
66FB
330
18
100
AcDbEntity
  8
1
  6
Continuous
100
AcDbCircle
 10
250.48384493442
 20
80.42917215572201
 30
0.0
 40
30.73307629267761
100
AcDbArc
 50
45.85510903463035
 51
90.0
  0
ARC
  5
66FC
330
18
100
AcDbEntity
  8
1
  6
Continuous
100
AcDbCircle
 10
252.1659477112917
 20
82.16224844839969
 30
0.0
 40
28.31791104197503
100
AcDbArc
 50
314.1448909653696
 51
45.85510903463035
  0
ARC
  5
66FD
330
18
100
AcDbEntity
  8
1
  6
Continuous
100
AcDbCircle
 10
252.1659477112917
 20
82.16224844839969
 30
0.0
 40
32.31791104197503
100
AcDbArc
 50
314.1448909653696
 51
45.85510903463035
  0
ARC
  5
66FE
330
18
100
AcDbEntity
  8
1
  6
Continuous
100
AcDbCircle
 10
250.48384493442
 20
82.16224844839969
 30
0.0
 40
15.5
100
AcDbArc
 50
338.1777997234113
 51
21.82220027658862
  0
ARC
  5
66FF
330
18
100
AcDbEntity
  8
1
  6
Continuous
100
AcDbCircle
 10
250.48384493442
 20
83.89532474107733
 30
0.0
 40
34.73307629267761
100
AcDbArc
 50
270.0
 51
314.1448909653696
  0
ARC
  5
6700
330
18
100
AcDbEntity
  8
1
  6
Continuous
100
AcDbCircle
 10
250.48384493442
 20
83.89532474107733
 30
0.0
 40
30.73307629267761
100
AcDbArc
 50
270.0
 51
314.1448909653696
  0
ARC
  5
6701
330
18
100
AcDbEntity
  8
1
  6
Continuous
100
AcDbCircle
 10
240.1336381188426
 20
52.6622484483995
 30
0.0
 40
7.0
100
AcDbArc
 50
42.44199709365459
 51
90.0
  0
ARC
  5
6702
330
18
100
AcDbEntity
  8
1
  6
Continuous
100
AcDbCircle
 10
250.48384493442
 20
56.16224844839962
 30
0.0
 40
3.0
100
AcDbArc
 50
222.4419970936545
 51
270.0
  0
LINE
  5
6703
330
18
100
AcDbEntity
  8
1
  6
Continuous
100
AcDbLine
 10
245.3181187251906
 20
51.43834405359228
 30
0.0
 11
242.3475207799409
 21
54.6867789033169
 31
0.0
  0
ARC
  5
6704
330
18
100
AcDbEntity
  8
1
  6
Continuous
100
AcDbCircle
 10
250.48384493442
 20
56.16224844839962
 30
0.0
 40
7.0
100
AcDbArc
 50
222.4419970936545
 51
270.0
  0
LINE
  5
6705
330
18
100
AcDbEntity
  8
1
  6
Continuous
100
AcDbLine
 10
248.2699622733217
 20
54.13771799348221
 30
0.0
 11
245.299364328072
 21
57.38615284320684
 31
0.0
  0
ARC
  5
6706
330
18
100
AcDbEntity
  8
1
  6
Continuous
100
AcDbCircle
 10
240.1336381188426
 20
52.6622484483995
 30
0.0
 40
3.0
100
AcDbArc
 50
42.44199709365459
 51
90.0
  0
LINE
  5
6707
330
18
100
AcDbEntity
  8
1
  6
Continuous
100
AcDbLine
 10
215.48384493442
 20
59.66224844839991
 30
0.0
 11
240.1336381188426
 21
59.66224844839979
 31
0.0
  0
LINE
  5
6709
330
18
100
AcDbEntity
  8
1
  6
Continuous
100
AcDbLine
 10
215.48384493442
 20
55.66224844840014
 30
0.0
 11
215.48384493442
 21
59.66224844839991
 31
0.0
  0
LINE
  5
670A
330
18
100
AcDbEntity
  8
4
  6
CENTER
 48
0.2
100
AcDbLine
 10
209.6915094344201
 20
121.1901722904694
 30
0.0
 11
209.6915094344201
 21
107.4697044168365
 31
0.0
  0
LINE
  5
670B
330
18
100
AcDbEntity
  8
4
  6
CENTER
 48
0.5
100
AcDbLine
 10
199.82607473442
 20
122.6729890426877
 30
0.0
 11
199.82607473442
 21
43.95839069247903
 31
0.0
  0
LINE
  5
670D
330
18
100
AcDbEntity
  8
1
  6
Continuous
100
AcDbLine
 10
212.9415094344984
 20
116.8622534483997
 30
0.0
 11
212.0260434344984
 21
116.2622544483999
 31
0.0
  0
LINE
  5
670E
330
18
100
AcDbEntity
  8
1
  6
Continuous
100
AcDbLine
 10
212.9415132262926
 20
47.4622384483996
 30
0.0
 11
212.0260392262927
 21
48.06223844839975
 31
0.0
  0
LINE
  5
670F
330
18
100
AcDbEntity
  8
1
  6
Continuous
100
AcDbLine
 10
173.5353399344201
 20
111.2622544483999
 30
0.0
 11
173.5353399344201
 21
53.06223844839998
 31
0.0
  0
LINE
  5
6710
330
18
100
AcDbEntity
  8
1
  6
Continuous
100
AcDbLine
 10
176.5255549344199
 20
111.2622544483999
 30
0.0
 11
176.5255549344199
 21
53.06223844839998
 31
0.0
  0
LINE
  5
6713
330
18
100
AcDbEntity
  8
1
  6
Continuous
100
AcDbLine
 10
238.8461514271731
 20
108.6622514484472
 30
0.0
 11
238.846151427173
 21
105.6622484483997
 31
0.0
  0
LINE
  5
6714
330
18
100
AcDbEntity
  8
1
  6
Continuous
100
AcDbLine
 10
227.4838409344199
 20
108.6622514484441
 30
0.0
 11
227.4838499529835
 21
105.6622484483998
 31
0.0
  0
LINE
  5
6715
330
18
100
AcDbEntity
  8
1
  6
Continuous
100
AcDbLine
 10
227.035135540472
 20
108.662251448444
 30
0.0
 11
227.035135540472
 21
105.6622484483998
 31
0.0
  0
LINE
  5
672C
330
18
100
AcDbEntity
  8
1
  6
Continuous
100
AcDbLine
 10
223.2338499529835
 20
46.16224197267103
 30
0.0
 11
231.7338499529835
 21
46.16224197267103
 31
0.0
  0
LINE
  5
6730
330
18
100
AcDbEntity
  8
1
  6
Continuous
100
AcDbLine
 10
222.4838499529835
 20
46.91224417262684
 30
0.0
 11
232.4838499529835
 21
46.91224297267114
 31
0.0
  0
LINE
  5
673A
330
18
100
AcDbEntity
  8
2
  6
Continuous
100
AcDbLine
 10
231.6718499531264
 20
46.16224197267103
 30
0.0
 11
231.6718499531264
 21
47.16224844839985
 31
0.0
  0
LINE
  5
673B
330
18
100
AcDbEntity
  8
1
  6
Continuous
100
AcDbLine
 10
232.4838499529835
 20
47.16224844839972
 30
0.0
 11
232.4838499529835
 21
46.91224297267114
 31
0.0
  0
LINE
  5
6740
330
18
100
AcDbEntity
  8
1
  6
Continuous
100
AcDbLine
 10
232.4838499529835
 20
46.91224297267114
 30
0.0
 11
231.7338346530039
 21
46.16222667267095
 31
0.0
  0
LINE
  5
6756
330
18
100
AcDbEntity
  8
2
  6
Continuous
100
AcDbLine
 10
223.2958499531264
 20
46.16224197267103
 30
0.0
 11
223.2958499531264
 21
47.16224844839985
 31
0.0
  0
LINE
  5
6757
330
18
100
AcDbEntity
  8
1
  6
Continuous
100
AcDbLine
 10
222.4838499529835
 20
47.16224844839972
 30
0.0
 11
222.4838499529835
 21
46.91224417262684
 31
0.0
  0
LINE
  5
675A
330
18
100
AcDbEntity
  8
1
  6
Continuous
100
AcDbLine
 10
223.2338499529835
 20
46.16224197267103
 30
0.0
 11
222.4838499529835
 21
46.91224417262684
 31
0.0
  0
ARC
  5
67C8
330
18
100
AcDbEntity
  8
1
  6
Continuous
100
AcDbCircle
 10
236.8461514271731
 20
108.6622514484472
 30
0.0
 40
2.0
100
AcDbArc
 50
0.0
 51
90.00000000001568
  0
ARC
  5
67C9
330
18
100
AcDbEntity
  8
1
  6
Continuous
100
AcDbCircle
 10
225.035135540472
 20
108.662251448444
 30
0.0
 40
2.0
100
AcDbArc
 50
0.0
 51
90.00000000001568
  0
ARC
  5
67CA
330
18
100
AcDbEntity
  8
1
  6
Continuous
100
AcDbCircle
 10
225.4838409344199
 20
108.6622514484441
 30
0.0
 40
2.0
100
AcDbArc
 50
0.0
 51
90.00000000001568
  0
LINE
  5
67CB
330
18
100
AcDbEntity
  8
1
  6
Continuous
100
AcDbLine
 10
238.846151427173
 20
108.6622484483998
 30
0.0
 11
240.1336381188426
 21
108.6622484483998
 31
0.0
  0
ARC
  5
67CD
330
18
100
AcDbEntity
  8
1
  6
Continuous
100
AcDbCircle
 10
233.9838499529834
 20
111.7154334484448
 30
0.0
 40
2.5
100
AcDbArc
 50
0.0
 51
82.13485000000057
  0
ARC
  5
67CE
330
18
100
AcDbEntity
  8
1
  6
Continuous
100
AcDbCircle
 10
227.4838499529834
 20
64.66227144844464
 30
0.0
 40
50.0
100
AcDbArc
 50
82.13485000000057
 51
97.865153200002
  0
ARC
  5
67CF
330
18
100
AcDbEntity
  8
1
  6
Continuous
100
AcDbCircle
 10
220.9838499529833
 20
111.7154334484448
 30
0.0
 40
2.5
100
AcDbArc
 50
97.865153200002
 51
180.0000029999976
  0
LINE
  5
67D0
330
18
100
AcDbEntity
  8
1
  6
Continuous
100
AcDbLine
 10
218.4838499529833
 20
110.6622714484446
 30
0.0
 11
218.4838499529833
 21
111.7154334484448
 31
0.0
  0
LINE
  5
67D1
330
18
100
AcDbEntity
  8
1
  6
Continuous
100
AcDbLine
 10
236.4838499529834
 20
110.6622714484446
 30
0.0
 11
236.4838499529834
 21
111.7154334484448
 31
0.0
  0
ARC
  5
67D2
330
18
100
AcDbEntity
  8
1
  6
Continuous
100
AcDbCircle
 10
221.5538335437081
 20
114.2622544483999
 30
0.0
 40
2.0
100
AcDbArc
 50
7.011751598344262
 51
90.0
  0
ARC
  5
67D3
330
18
100
AcDbEntity
  8
1
  6
Continuous
100
AcDbCircle
 10
237.846151427173
 20
105.6622484483997
 30
0.0
 40
1.0
100
AcDbArc
 50
269.9999999999997
 51
359.9999999999992
  0
ARC
  5
67D4
330
18
100
AcDbEntity
  8
1
  6
Continuous
 48
0.5
100
AcDbCircle
 10
228.4838499529835
 20
105.6622484483998
 30
0.0
 40
1.0
100
AcDbArc
 50
180.0
 51
269.9999999999997
  0
ARC
  5
67D5
330
18
100
AcDbEntity
  8
1
  6
Continuous
100
AcDbCircle
 10
228.035135540472
 20
105.6622484483998
 30
0.0
 40
1.0
100
AcDbArc
 50
180.0000000000007
 51
269.9999999999997
  0
LINE
  5
67EC
330
18
100
AcDbEntity
  8
1
  6
Continuous
100
AcDbLine
 10
185.1505302431494
 20
85.16224844839973
 30
0.0
 11
185.1505302431494
 21
79.16224844839973
 31
0.0
  0
LINE
  5
67ED
330
18
100
AcDbEntity
  8
1
  6
Continuous
100
AcDbLine
 10
188.9090550301325
 20
90.16224844839971
 30
0.0
 11
188.9090550301325
 21
74.16224844839973
 31
0.0
  0
LINE
  5
67EE
330
18
100
AcDbEntity
  8
1
  6
Continuous
100
AcDbLine
 10
180.5428483448999
 20
93.16224844839974
 30
0.0
 11
180.5428483448999
 21
71.16224844839968
 31
0.0
  0
LINE
  5
67F7
330
18
100
AcDbEntity
  8
1
  6
Continuous
100
AcDbLine
 10
200.8619322303122
 20
59.36224844839944
 30
0.0
 11
211.0824950144197
 21
59.36224844840012
 31
0.0
  0
LINE
  5
67F8
330
18
100
AcDbEntity
  8
1
  6
Continuous
100
AcDbLine
 10
200.8619322303092
 20
57.16224844839985
 30
0.0
 11
211.0824917985306
 21
57.16224844839985
 31
0.0
  0
ARC
  5
67F9
330
18
100
AcDbEntity
  8
1
  6
Continuous
100
AcDbCircle
 10
205.9722120144199
 20
54.24348844839983
 30
0.0
 40
5.78125
100
AcDbArc
 50
235.7945400000013
 51
304.2054599999985
  0
LINE
  5
67FA
330
18
100
AcDbEntity
  8
1
  6
Continuous
100
AcDbLine
 10
202.7222120144199
 20
49.46223844839983
 30
0.0
 11
209.2222120144199
 21
49.46223844839983
 31
0.0
  0
LINE
  5
67FC
330
18
100
AcDbEntity
  8
1
  6
Continuous
100
AcDbLine
 10
183.5293874788117
 20
56.86224844839954
 30
0.0
 11
212.3647221344197
 21
56.86226444839963
 31
0.0
  0
LINE
  5
6804
330
18
100
AcDbEntity
  8
1
  6
Continuous
100
AcDbLine
 10
186.1321343779259
 20
59.66224844839974
 30
0.0
 11
186.1321343779259
 21
69.16224844839972
 31
0.0
  0
ARC
  5
6805
330
18
100
AcDbEntity
  8
1
  6
Continuous
100
AcDbCircle
 10
183.5293874788117
 20
57.66224844839957
 30
0.0
 40
0.8
100
AcDbArc
 50
180.0
 51
270.0
  0
ARC
  5
6806
330
18
100
AcDbEntity
  8
1
  6
Continuous
100
AcDbCircle
 10
178.8293874788114
 20
57.16224844839974
 30
0.0
 40
0.5
100
AcDbArc
 50
90.00000000000005
 51
180.0000000000002
  0
LINE
  5
6807
330
18
100
AcDbEntity
  8
1
  6
Continuous
100
AcDbLine
 10
180.3293874788116
 20
57.66224844839975
 30
0.0
 11
180.3293874788116
 21
56.66224844840019
 31
0.0
  0
LINE
  5
6808
330
18
100
AcDbEntity
  8
1
  6
Continuous
100
AcDbLine
 10
178.8293874788114
 20
57.66224844839975
 30
0.0
 11
184.1321343779259
 21
57.66224844839975
 31
0.0
  0
ARC
  5
6809
330
18
100
AcDbEntity
  8
1
  6
Continuous
100
AcDbCircle
 10
183.5293874788117
 20
57.66224844840024
 30
0.0
 40
2.0
100
AcDbArc
 50
179.9999999999918
 51
270.0
  0
ARC
  5
680B
330
18
100
AcDbEntity
  8
1
  6
Continuous
100
AcDbCircle
 10
181.3293874788116
 20
56.66224844840019
 30
0.0
 40
1.0
100
AcDbArc
 50
180.0000000000002
 51
270.0
  0
ARC
  5
680C
330
18
100
AcDbEntity
  8
1
  6
Continuous
100
AcDbCircle
 10
184.1321343779259
 20
59.66224844839974
 30
0.0
 40
2.0
100
AcDbArc
 50
270.0
 51
0.0
  0
LINE
  5
6811
330
18
100
AcDbEntity
  8
1
  6
Continuous
100
AcDbLine
 10
202.4722120144196
 20
57.16224844839985
 30
0.0
 11
202.4722120144196
 21
56.86224844839967
 31
0.0
  0
LINE
  5
6812
330
18
100
AcDbEntity
  8
1
  6
Continuous
100
AcDbLine
 10
203.30671901442
 20
50.06223844839997
 30
0.0
 11
202.7222080144199
 21
49.46223844839983
 31
0.0
  0
ARC
  5
6819
330
18
100
AcDbEntity
  8
1
  6
Continuous
100
AcDbCircle
 10
205.1222140144201
 20
58.2622484483998
 30
0.0
 40
4.400000099999996
100
AcDbArc
 50
165.522489999997
 51
194.4775118496979
  0
LINE
  5
681A
330
18
100
AcDbEntity
  8
4
  6
CENTER
 48
0.2
100
AcDbLine
 10
205.9722120144199
 20
46.38828196320424
 30
0.0
 11
205.9722120144199
 21
60.7514678683044
 31
0.0
  0
LINE
  5
681D
330
18
100
AcDbEntity
  8
1
  6
Continuous
100
AcDbLine
 10
184.2720827257189
 20
73.16224844839974
 30
0.0
 11
190.3896734164008
 21
73.16224844839974
 31
0.0
  0
LINE
  5
681E
330
18
100
AcDbEntity
  8
1
  6
Continuous
100
AcDbLine
 10
184.2720827257189
 20
79.16224844839973
 30
0.0
 11
184.2720827257189
 21
73.16224844839974
 31
0.0
  0
LINE
  5
681F
330
18
100
AcDbEntity
  8
1
  6
Continuous
100
AcDbLine
 10
184.2720827257189
 20
79.16224844839973
 30
0.0
 11
185.1505302431494
 21
79.16224844839973
 31
0.0
  0
ARC
  5
6820
330
18
100
AcDbEntity
  8
1
  6
Continuous
100
AcDbCircle
 10
182.6905693779258
 20
72.16224844839974
 30
0.0
 40
2.799999999999998
100
AcDbArc
 50
314.4153099999994
 51
0.0
  0
LINE
  5
6821
330
18
100
AcDbEntity
  8
1
  6
Continuous
100
AcDbLine
 10
181.5428483448999
 20
70.16224844839968
 30
0.0
 11
185.1321343779259
 21
70.16224844839975
 31
0.0
  0
ARC
  5
6822
330
18
100
AcDbEntity
  8
1
  6
Continuous
100
AcDbCircle
 10
181.5428483448999
 20
71.16224844839968
 30
0.0
 40
1.0
100
AcDbArc
 50
180.0
 51
270.0000000000006
  0
ARC
  5
6823
330
18
100
AcDbEntity
  8
1
  6
Continuous
100
AcDbCircle
 10
182.6905683779259
 20
72.16224844839968
 30
0.0
 40
4.0
100
AcDbArc
 50
323.6179400000005
 51
0.0
  0
ARC
  5
6824
330
18
100
AcDbEntity
  8
1
  6
Continuous
100
AcDbCircle
 10
185.1321343779259
 20
69.16224844839972
 30
0.0
 40
1.0
100
AcDbArc
 50
0.0
 51
90.00000000000062
  0
LINE
  5
6825
330
18
100
AcDbEntity
  8
1
  6
Continuous
100
AcDbLine
 10
185.4905683779259
 20
72.16224844839974
 30
0.0
 11
185.4905683779259
 21
73.16224844839974
 31
0.0
  0
LINE
  5
6826
330
18
100
AcDbEntity
  8
1
  6
Continuous
100
AcDbLine
 10
186.6905683779259
 20
73.16224844839974
 30
0.0
 11
186.6905683779259
 21
72.16224844839974
 31
0.0
  0
ARC
  5
6828
330
18
100
AcDbEntity
  8
1
  6
Continuous
100
AcDbCircle
 10
223.2338499529832
 20
57.45146074099334
 30
0.0
 40
8.785583093775763
100
AcDbArc
 50
241.0695841800873
 51
298.9304158199126
  0
LINE
  5
682A
330
18
100
AcDbEntity
  8
1
  6
Continuous
100
AcDbLine
 10
220.1838469529832
 20
47.16225844869295
 30
0.0
 11
234.7811656726628
 21
47.16225844869295
 31
0.0
  0
LINE
  5
682B
330
18
100
AcDbEntity
  8
1
  6
Continuous
100
AcDbLine
 10
235.9838499529835
 20
48.66224624869136
 30
0.0
 11
218.9838499529833
 21
48.66224624869136
 31
0.0
  0
LINE
  5
6830
330
18
100
AcDbEntity
  8
1
  6
Continuous
100
AcDbLine
 10
218.9838469529831
 20
48.36225565813247
 30
0.0
 11
218.9838499529833
 21
53.66225844869297
 31
0.0
  0
ARC
  5
6831
330
18
100
AcDbEntity
  8
1
  6
Continuous
100
AcDbCircle
 10
220.1838469529832
 20
48.36225544869303
 30
0.0
 40
1.199999999999999
100
AcDbArc
 50
179.9999899999997
 51
269.9999910000004
  0
LINE
  5
6834
330
18
100
AcDbEntity
  8
1
  6
Continuous
100
AcDbLine
 10
212.3647221344197
 20
55.66226444839981
 30
0.0
 11
212.3647221344197
 21
56.86226444839963
 31
0.0
  0
LINE
  5
6835
330
18
100
AcDbEntity
  8
1
  6
Continuous
100
AcDbLine
 10
209.4722120144197
 20
57.16224844839985
 30
0.0
 11
209.4722120144197
 21
56.86224844839967
 31
0.0
  0
ARC
  5
6836
330
18
100
AcDbEntity
  8
1
  6
Continuous
100
AcDbCircle
 10
206.8222100144197
 20
58.2622484483998
 30
0.0
 40
4.400000099999996
100
AcDbArc
 50
345.5224881503021
 51
14.47751000000295
  0
LINE
  5
683E
330
18
100
AcDbEntity
  8
1
  6
Continuous
100
AcDbLine
 10
209.2222120144199
 20
49.46224844839981
 30
0.0
 11
208.3067460144198
 21
50.06223844839975
 31
0.0
  0
LINE
  5
6843
330
18
100
AcDbEntity
  8
1
  6
Continuous
100
AcDbLine
 10
235.9838489529834
 20
48.36225539623932
 30
0.0
 11
235.9838499529835
 21
53.66225844869297
 31
0.0
  0
ARC
  5
6844
330
18
100
AcDbEntity
  8
1
  6
Continuous
100
AcDbCircle
 10
234.7838489529833
 20
48.36225544869303
 30
0.0
 40
1.199999999999999
100
AcDbArc
 50
269.8718826952287
 51
359.9999974955215
  0
LINE
  5
684A
330
18
100
AcDbEntity
  8
1
  6
Continuous
100
AcDbLine
 10
227.4838499529835
 20
49.76224944869301
 30
0.0
 11
227.4838499529835
 21
53.66225844869274
 31
0.0
  0
ARC
  5
684E
330
18
100
AcDbEntity
  8
1
  6
Continuous
100
AcDbCircle
 10
231.7338499529832
 20
57.45162760440218
 30
0.0
 40
8.785729134311964
100
AcDbArc
 50
241.0701105902613
 51
298.9298894097404
  0
LINE
  5
685A
330
18
100
AcDbEntity
  8
1
  6
Continuous
100
AcDbLine
 10
183.5293874788117
 20
107.4622484483999
 30
0.0
 11
212.3647221344197
 21
107.4622644483999
 31
0.0
  0
LINE
  5
6861
330
18
100
AcDbEntity
  8
1
  6
Continuous
100
AcDbLine
 10
197.3260747344199
 20
107.4622574910207
 30
0.0
 11
197.3260747344199
 21
102.1622313110848
 31
0.0
  0
ARC
  5
6863
330
18
100
AcDbEntity
  8
1
  6
Continuous
100
AcDbCircle
 10
183.5293874788117
 20
106.6622484483999
 30
0.0
 40
0.8
100
AcDbArc
 50
90.0
 51
180.0
  0
ARC
  5
6864
330
18
100
AcDbEntity
  8
1
  6
Continuous
100
AcDbCircle
 10
183.5293874788117
 20
106.6622484483992
 30
0.0
 40
2.0
100
AcDbArc
 50
90.0
 51
180.0000000000081
  0
LINE
  5
6865
330
18
100
AcDbEntity
  8
1
  6
Continuous
100
AcDbLine
 10
180.3293874788116
 20
106.6622484483997
 30
0.0
 11
180.3293874788116
 21
107.6622484483992
 31
0.0
  0
ARC
  5
6866
330
18
100
AcDbEntity
  8
1
  6
Continuous
100
AcDbCircle
 10
178.8293874788114
 20
107.1622484483997
 30
0.0
 40
0.5
100
AcDbArc
 50
179.9999999999997
 51
270.0
  0
LINE
  5
6867
330
18
100
AcDbEntity
  8
1
  6
Continuous
100
AcDbLine
 10
184.2720827257192
 20
91.16224844839974
 30
0.0
 11
190.3896734164007
 21
91.16224844839974
 31
0.0
  0
ARC
  5
6868
330
18
100
AcDbEntity
  8
1
  6
Continuous
100
AcDbCircle
 10
184.1321343779259
 20
104.6622484483997
 30
0.0
 40
2.0
100
AcDbArc
 50
0.0
 51
90.0
  0
LINE
  5
686A
330
18
100
AcDbEntity
  8
1
  6
Continuous
100
AcDbLine
 10
178.8293874788114
 20
106.6622484483997
 30
0.0
 11
184.1321343779259
 21
106.6622484483997
 31
0.0
  0
ARC
  5
686B
330
18
100
AcDbEntity
  8
1
  6
Continuous
100
AcDbCircle
 10
182.6905693779258
 20
92.16224844839974
 30
0.0
 40
2.799999999999998
100
AcDbArc
 50
0.0
 51
45.58469000000056
  0
ARC
  5
686C
330
18
100
AcDbEntity
  8
1
  6
Continuous
100
AcDbCircle
 10
182.6905683779259
 20
92.16224844839969
 30
0.0
 40
4.0
100
AcDbArc
 50
0.0
 51
36.38206000000142
  0
LINE
  5
686D
330
18
100
AcDbEntity
  8
1
  6
Continuous
100
AcDbLine
 10
185.4905683779259
 20
92.16224844839974
 30
0.0
 11
186.6905683779259
 21
92.16224844839974
 31
0.0
  0
LINE
  5
686E
330
18
100
AcDbEntity
  8
1
  6
Continuous
100
AcDbLine
 10
185.4905683779259
 20
92.16224844839974
 30
0.0
 11
185.4905683779259
 21
91.16224844839974
 31
0.0
  0
LINE
  5
686F
330
18
100
AcDbEntity
  8
1
  6
Continuous
100
AcDbLine
 10
186.6905683779259
 20
92.16224844839974
 30
0.0
 11
186.6905683779259
 21
91.16224844839974
 31
0.0
  0
ARC
  5
6870
330
18
100
AcDbEntity
  8
1
  6
Continuous
100
AcDbCircle
 10
185.1321343779259
 20
95.16224844839971
 30
0.0
 40
1.0
100
AcDbArc
 50
269.9999999999993
 51
0.0
  0
LINE
  5
6871
330
18
100
AcDbEntity
  8
1
  6
Continuous
100
AcDbLine
 10
181.5428483448999
 20
94.16224844839971
 30
0.0
 11
185.1321343779259
 21
94.16224844839971
 31
0.0
  0
ARC
  5
6872
330
18
100
AcDbEntity
  8
1
  6
Continuous
100
AcDbCircle
 10
181.5428483448999
 20
93.16224844839974
 30
0.0
 40
1.0
100
AcDbArc
 50
89.99999999999937
 51
180.0
  0
LINE
  5
6873
330
18
100
AcDbEntity
  8
1
  6
Continuous
100
AcDbLine
 10
184.2720827257192
 20
85.16224844839973
 30
0.0
 11
185.1505302431494
 21
85.16224844839973
 31
0.0
  0
LINE
  5
6874
330
18
100
AcDbEntity
  8
1
  6
Continuous
100
AcDbLine
 10
184.2720827257192
 20
91.16224844839974
 30
0.0
 11
184.2720827257192
 21
85.16224844839973
 31
0.0
  0
LINE
  5
6875
330
18
100
AcDbEntity
  8
1
  6
Continuous
100
AcDbLine
 10
186.1321343779259
 20
104.6622484483997
 30
0.0
 11
186.1321343779259
 21
95.16224844839971
 31
0.0
  0
LINE
  5
6876
330
18
100
AcDbEntity
  8
1
  6
Continuous
100
AcDbLine
 10
202.3260747344202
 20
104.9622574910207
 30
0.0
 11
202.3260747344202
 21
102.1622574910199
 31
0.0
  0
ARC
  5
6879
330
18
100
AcDbEntity
  8
1
  6
Continuous
100
AcDbCircle
 10
181.3293874788116
 20
107.6622484483992
 30
0.0
 40
1.0
100
AcDbArc
 50
90.0
 51
179.9999999999997
  0
LINE
  5
6897
330
18
100
AcDbEntity
  8
1
  6
Continuous
100
AcDbLine
 10
212.3647221344197
 20
108.6622644483998
 30
0.0
 11
212.3647221344197
 21
107.4622644483999
 31
0.0
  0
LINE
  5
68CA
330
18
100
AcDbEntity
  8
1
  6
Continuous
100
AcDbLine
 10
181.3293874788116
 20
55.66224844839958
 30
0.0
 11
227.035135540472
 21
55.66224844839962
 31
0.0
  0
ARC
  5
68CB
330
18
100
AcDbEntity
  8
1
  6
Continuous
100
AcDbCircle
 10
236.8461514271731
 20
55.66224544835222
 30
0.0
 40
2.0
100
AcDbArc
 50
269.9999999999842
 51
0.0
  0
LINE
  5
68CC
330
18
100
AcDbEntity
  8
1
  6
Continuous
100
AcDbLine
 10
238.8461514271731
 20
55.66224544835222
 30
0.0
 11
238.846151427173
 21
58.66224844839968
 31
0.0
  0
ARC
  5
68CD
330
18
100
AcDbEntity
  8
1
  6
Continuous
100
AcDbCircle
 10
237.846151427173
 20
58.66224844839968
 30
0.0
 40
1.0
100
AcDbArc
 50
0.0000000000008283
 51
90.00000000000026
  0
ARC
  5
68CE
330
18
100
AcDbEntity
  8
1
  6
Continuous
100
AcDbCircle
 10
225.035135540472
 20
55.66224544835546
 30
0.0
 40
2.0
100
AcDbArc
 50
269.9999999999842
 51
0.0
  0
ARC
  5
68CF
330
18
100
AcDbEntity
  8
1
  6
Continuous
100
AcDbCircle
 10
225.4838409344199
 20
55.66224544835529
 30
0.0
 40
2.0
100
AcDbArc
 50
269.9999999999842
 51
0.0
  0
LINE
  5
68D0
330
18
100
AcDbEntity
  8
1
  6
Continuous
100
AcDbLine
 10
227.4838409344199
 20
55.66224544835529
 30
0.0
 11
227.4838499529835
 21
58.66224844839962
 31
0.0
  0
LINE
  5
68D1
330
18
100
AcDbEntity
  8
1
  6
Continuous
100
AcDbLine
 10
227.035135540472
 20
55.66224544835546
 30
0.0
 11
227.035135540472
 21
58.66224844839962
 31
0.0
  0
ARC
  5
68D2
330
18
100
AcDbEntity
  8
1
  6
Continuous
100
AcDbCircle
 10
228.035135540472
 20
58.66224844839962
 30
0.0
 40
1.0
100
AcDbArc
 50
90.00000000000026
 51
179.9999999999992
  0
ARC
  5
68D3
330
18
100
AcDbEntity
  8
1
  6
Continuous
 48
0.5
100
AcDbCircle
 10
228.4838499529835
 20
58.66224844839962
 30
0.0
 40
1.0
100
AcDbArc
 50
90.00000000000026
 51
180.0
  0
LINE
  5
68D4
330
18
100
AcDbEntity
  8
1
  6
Continuous
100
AcDbLine
 10
176.53533993442
 20
50.06224244839949
 30
0.0
 11
218.9838449344199
 21
50.06224244839949
 31
0.0
  0
LINE
  5
68D5
330
18
100
AcDbEntity
  8
1
  6
Continuous
100
AcDbLine
 10
176.5255549344199
 20
53.06224244839949
 30
0.0
 11
218.9838496133517
 21
53.06224244839949
 31
0.0
  0
ARC
  5
68D6
330
18
100
AcDbEntity
  8
1
  6
Continuous
100
AcDbCircle
 10
194.5782747344198
 20
51.81444244839963
 30
0.0
 40
3.7522
100
AcDbArc
 50
207.8383990080809
 51
270.0
  0
LINE
  5
68D7
330
18
100
AcDbEntity
  8
1
  6
Continuous
100
AcDbLine
 10
190.8260747344197
 20
53.16224844841599
 30
0.0
 11
218.9838496699588
 21
53.16224844842287
 31
0.0
  0
LINE
  5
68D8
330
18
100
AcDbEntity
  8
1
  6
Continuous
100
AcDbLine
 10
190.8260747344197
 20
53.06224244839949
 30
0.0
 11
190.8260747344197
 21
53.66224544836194
 31
0.0
  0
LINE
  5
68DA
330
18
100
AcDbEntity
  8
1
  6
Continuous
100
AcDbLine
 10
238.846151427173
 20
55.66224844840002
 30
0.0
 11
240.1336381188426
 21
55.66224844840002
 31
0.0
  0
ARC
  5
68DB
330
18
100
AcDbEntity
  8
1
  6
Continuous
100
AcDbCircle
 10
206.8222100144197
 20
106.0622484483996
 30
0.0
 40
4.400000099999996
100
AcDbArc
 50
345.522489999997
 51
14.47751184969793
  0
LINE
  5
68DC
330
18
100
AcDbEntity
  8
1
  6
Continuous
100
AcDbLine
 10
200.8619322303122
 20
104.9622484484
 30
0.0
 11
211.0824950144197
 21
104.9622484483993
 31
0.0
  0
ARC
  5
68DD
330
18
100
AcDbEntity
  8
1
  6
Continuous
100
AcDbCircle
 10
205.1222140144201
 20
106.0622484483996
 30
0.0
 40
4.400000099999996
100
AcDbArc
 50
165.522488150302
 51
194.4775100000029
  0
LINE
  5
68DE
330
18
100
AcDbEntity
  8
1
  6
Continuous
100
AcDbLine
 10
202.4722120144196
 20
107.1622484483996
 30
0.0
 11
202.4722120144196
 21
107.4622484483997
 31
0.0
  0
LINE
  5
68DF
330
18
100
AcDbEntity
  8
1
  6
Continuous
100
AcDbLine
 10
209.4722120144197
 20
107.1622484483996
 30
0.0
 11
209.4722120144197
 21
107.4622484483997
 31
0.0
  0
LINE
  5
68E0
330
18
100
AcDbEntity
  8
1
  6
Continuous
100
AcDbLine
 10
200.8619322303092
 20
107.1622484483996
 30
0.0
 11
211.0824917985306
 21
107.1622484483996
 31
0.0
  0
LINE
  5
68E1
330
18
100
AcDbEntity
  8
4
  6
CENTER
 48
0.2
100
AcDbLine
 10
205.9722120144199
 20
117.9362149335952
 30
0.0
 11
205.9722120144199
 21
103.573029028495
 31
0.0
  0
LINE
  5
68E2
330
18
100
AcDbEntity
  8
1
  6
Continuous
100
AcDbLine
 10
202.7222120144199
 20
114.8622584483996
 30
0.0
 11
209.2222120144199
 21
114.8622584483996
 31
0.0
  0
LINE
  5
68E3
330
18
100
AcDbEntity
  8
1
  6
Continuous
100
AcDbLine
 10
203.30671901442
 20
114.2622584483995
 30
0.0
 11
202.7222080144199
 21
114.8622584483996
 31
0.0
  0
LINE
  5
68E4
330
18
100
AcDbEntity
  8
1
  6
Continuous
100
AcDbLine
 10
209.2222120144199
 20
114.8622484483996
 30
0.0
 11
208.3067460144198
 21
114.2622584483997
 31
0.0
  0
ARC
  5
68E5
330
18
100
AcDbEntity
  8
1
  6
Continuous
100
AcDbCircle
 10
205.9722120144199
 20
110.0810084483996
 30
0.0
 40
5.78125
100
AcDbArc
 50
55.79454000000152
 51
124.2054599999985
  0
LINE
  5
68E7
330
18
100
AcDbEntity
  8
1
  6
Continuous
100
AcDbLine
 10
202.3260747344202
 20
59.36223940577878
 30
0.0
 11
202.3260747344202
 21
62.16223940577947
 31
0.0
  0
LINE
  5
68E8
330
18
100
AcDbEntity
  8
1
  6
Continuous
100
AcDbLine
 10
197.3260747344199
 20
56.86223940577872
 30
0.0
 11
197.3260747344199
 21
62.16226558571463
 31
0.0
  0
LINE
  5
68EA
330
18
100
AcDbEntity
  8
4
  6
CENTER
 48
0.2
100
AcDbLine
 10
209.6915094344201
 20
43.13432460632998
 30
0.0
 11
209.6915094344201
 21
56.85479247996295
 31
0.0
  0
ARC
  5
73FF
330
18
100
AcDbEntity
  8
1
  6
Continuous
100
AcDbCircle
 10
628.7787402478953
 20
231.5252173662074
 30
0.0
 40
12.8
100
AcDbArc
 50
271.3081329342517
 51
349.0611581852368
  0
ARC
  5
7400
330
18
100
AcDbEntity
  8
1
  6
Continuous
100
AcDbCircle
 10
628.7787402478953
 20
231.5252173662074
 30
0.0
 40
15.0
100
AcDbArc
 50
208.4860518264081
 51
358.3565332877606
  0
ARC
  5
7401
330
18
100
AcDbEntity
  8
1
  6
Continuous
100
AcDbCircle
 10
647.6378191198829
 20
229.2154243271529
 30
0.0
 40
1.5
100
AcDbArc
 50
173.0173917535875
 51
254.9999999999993
  0
ARC
  5
7402
330
18
100
AcDbEntity
  8
1
  6
Continuous
100
AcDbCircle
 10
653.9623540346244
 20
227.5207703042454
 30
0.0
 40
1.5
100
AcDbArc
 50
254.9999999999993
 51
350.96503706914
  0
ARC
  5
7403
330
18
100
AcDbEntity
  8
1
  6
Continuous
100
AcDbCircle
 10
653.9623540346244
 20
235.5296645281695
 30
0.0
 40
1.5
100
AcDbArc
 50
9.034962930859952
 51
105.0000000000007
  0
LINE
  5
7404
330
18
100
AcDbEntity
  8
1
  6
Continuous
100
AcDbLine
 10
652.5550559781342
 20
236.7054944210383
 30
0.0
 11
653.5741254669709
 21
236.978553267603
 31
0.0
  0
LINE
  5
7405
330
18
100
AcDbEntity
  8
1
  6
Continuous
100
AcDbLine
 10
647.2495905522293
 20
227.7665355877193
 30
0.0
 11
653.5741254669709
 21
226.0718815648117
 31
0.0
  0
ARC
  5
7406
330
18
100
AcDbEntity
  8
1
  6
Continuous
100
AcDbCircle
 10
628.7787401978956
 20
231.5252174162075
 30
0.0
 40
27.00000005000001
100
AcDbArc
 50
350.96503706914
 51
9.034962930859952
  0
ARC
  5
7407
330
18
100
AcDbEntity
  8
1
  6
Continuous
100
AcDbCircle
 10
643.9562850984836
 20
220.0953384876066
 30
0.0
 40
1.5
100
AcDbArc
 50
143.0173917535866
 51
225.0
  0
ARC
  5
7408
330
18
100
AcDbEntity
  8
1
  6
Continuous
100
AcDbCircle
 10
646.2660781875385
 20
224.0960174728206
 30
0.0
 40
1.5
100
AcDbArc
 50
74.99999999999841
 51
156.9826082464112
  0
ARC
  5
7409
330
18
100
AcDbEntity
  8
1
  6
Continuous
100
AcDbCircle
 10
648.5861659903178
 20
215.4654575957725
 30
0.0
 40
1.5
100
AcDbArc
 50
225.0
 51
320.9650370691406
  0
ARC
  5
740A
330
18
100
AcDbEntity
  8
1
  6
Continuous
100
AcDbCircle
 10
652.5906131022804
 20
222.4013634499133
 30
0.0
 40
1.5
100
AcDbArc
 50
339.0349629308614
 51
74.99999999999841
  0
LINE
  5
740B
330
18
100
AcDbEntity
  8
1
  6
Continuous
100
AcDbLine
 10
646.6543067551923
 20
225.5449062122543
 30
0.0
 11
652.9788416699338
 21
223.8502521893468
 31
0.0
  0
LINE
  5
740C
330
18
100
AcDbEntity
  8
1
  6
Continuous
100
AcDbLine
 10
642.895624926704
 20
219.0346783158267
 30
0.0
 11
647.525505818538
 21
214.4047974239926
 31
0.0
  0
ARC
  5
740D
330
18
100
AcDbEntity
  8
1
  6
Continuous
100
AcDbCircle
 10
628.7787402045942
 20
231.5252174412074
 30
0.0
 40
27.00000005000001
100
AcDbArc
 50
320.9650370691386
 51
339.0349629308614
  0
ARC
  5
740E
330
18
100
AcDbEntity
  8
1
  6
Continuous
100
AcDbCircle
 10
636.2079401912819
 20
214.0378794765644
 30
0.0
 40
1.5
100
AcDbArc
 50
113.0173917535856
 51
195.0000000000015
  0
ARC
  5
740F
330
18
100
AcDbEntity
  8
1
  6
Continuous
100
AcDbCircle
 10
640.208619176496
 20
216.3476725656191
 30
0.0
 40
1.5
100
AcDbArc
 50
45.0
 51
126.9826082464133
  0
ARC
  5
7410
330
18
100
AcDbEntity
  8
1
  6
Continuous
100
AcDbCircle
 10
637.9025942141896
 20
207.7133445618229
 30
0.0
 40
1.5
100
AcDbArc
 50
195.0000000000015
 51
290.9650370691386
  0
ARC
  5
7411
330
18
100
AcDbEntity
  8
1
  6
Continuous
100
AcDbCircle
 10
644.8385000683306
 20
211.717791673785
 30
0.0
 40
1.5
100
AcDbArc
 50
309.0349629308613
 51
45.0
  0
LINE
  5
7412
330
18
100
AcDbEntity
  8
1
  6
Continuous
100
AcDbLine
 10
641.2692793482761
 20
217.4083327373988
 30
0.0
 11
645.8991602401104
 21
212.7784518455646
 31
0.0
  0
LINE
  5
7413
330
18
100
AcDbEntity
  8
1
  6
Continuous
100
AcDbLine
 10
634.7590514518485
 20
213.6496509089106
 30
0.0
 11
636.453705474756
 21
207.325115994169
 31
0.0
  0
ARC
  5
7414
330
18
100
AcDbEntity
  8
1
  6
Continuous
100
AcDbCircle
 10
628.7787402228953
 20
231.5252174595086
 30
0.0
 40
27.00000005000001
100
AcDbArc
 50
290.9650370691386
 51
309.0349629308593
  0
ARC
  5
7415
330
18
100
AcDbEntity
  8
1
  6
Continuous
100
AcDbCircle
 10
626.4689471588407
 20
212.6661385442199
 30
0.0
 40
1.5
100
AcDbArc
 50
83.01739175358759
 51
165.0000000000024
  0
ARC
  5
7416
330
18
100
AcDbEntity
  8
1
  6
Continuous
100
AcDbCircle
 10
631.08853333695
 20
212.6661385442199
 30
0.0
 40
1.5
100
AcDbArc
 50
14.9999999999976
 51
96.98260824641241
  0
ARC
  5
7417
330
18
100
AcDbEntity
  8
1
  6
Continuous
100
AcDbCircle
 10
624.7742931359335
 20
206.3416036294782
 30
0.0
 40
1.5
100
AcDbArc
 50
165.0000000000024
 51
260.96503706914
  0
ARC
  5
7418
330
18
100
AcDbEntity
  8
1
  6
Continuous
100
AcDbCircle
 10
632.7831873598576
 20
206.3416036294782
 30
0.0
 40
1.5
100
AcDbArc
 50
279.0349629308599
 51
15.00000000000074
  0
LINE
  5
7419
330
18
100
AcDbEntity
  8
1
  6
Continuous
100
AcDbLine
 10
632.5374220763835
 20
213.0543671118735
 30
0.0
 11
634.232076099291
 21
206.729832197132
 31
0.0
  0
LINE
  5
741A
330
18
100
AcDbEntity
  8
1
  6
Continuous
100
AcDbLine
 10
625.0200584194073
 20
213.0543671118735
 30
0.0
 11
623.3254043964998
 21
206.729832197132
 31
0.0
  0
ARC
  5
741B
330
18
100
AcDbEntity
  8
1
  6
Continuous
100
AcDbCircle
 10
628.7787402478954
 20
231.5252174662073
 30
0.0
 40
27.00000005000001
100
AcDbArc
 50
260.9650370691368
 51
279.0349629308599
  0
ARC
  5
741C
330
18
100
AcDbEntity
  8
1
  6
Continuous
100
AcDbCircle
 10
617.3488613192946
 20
216.3476725656191
 30
0.0
 40
1.5
100
AcDbArc
 50
53.01739175358664
 51
135.0
  0
ARC
  5
741D
330
18
100
AcDbEntity
  8
1
  6
Continuous
100
AcDbCircle
 10
621.3495403045087
 20
214.0378794765644
 30
0.0
 40
1.5
100
AcDbArc
 50
344.9999999999984
 51
66.98260824641429
  0
ARC
  5
741E
330
18
100
AcDbEntity
  8
1
  6
Continuous
100
AcDbCircle
 10
612.7189804274604
 20
211.717791673785
 30
0.0
 40
1.5
100
AcDbArc
 50
135.0
 51
230.9650370691407
  0
ARC
  5
741F
330
18
100
AcDbEntity
  8
1
  6
Continuous
100
AcDbCircle
 10
619.6548862816014
 20
207.7133445618229
 30
0.0
 40
1.5
100
AcDbArc
 50
249.0349629308614
 51
344.9999999999984
  0
LINE
  5
7420
330
18
100
AcDbEntity
  8
1
  6
Continuous
100
AcDbLine
 10
622.7984290439422
 20
213.6496509089107
 30
0.0
 11
621.1037750210347
 21
207.325115994169
 31
0.0
  0
LINE
  5
7421
330
18
100
AcDbEntity
  8
1
  6
Continuous
100
AcDbLine
 10
616.2882011475147
 20
217.408332737399
 30
0.0
 11
611.6583202556808
 21
212.7784518455648
 31
0.0
  0
ARC
  5
7422
330
18
100
AcDbEntity
  8
1
  6
Continuous
100
AcDbCircle
 10
628.7787402728953
 20
231.5252174595086
 30
0.0
 40
27.00000005000001
100
AcDbArc
 50
230.9650370691407
 51
249.0349629308614
  0
ARC
  5
7423
330
18
100
AcDbEntity
  8
1
  6
Continuous
100
AcDbCircle
 10
611.2914023082526
 20
224.0960174728206
 30
0.0
 40
1.5
100
AcDbArc
 50
23.01739175358871
 51
105.0000000000016
  0
ARC
  5
7424
330
18
100
AcDbEntity
  8
1
  6
Continuous
100
AcDbCircle
 10
613.6011953973072
 20
220.0953384876066
 30
0.0
 40
1.5
100
AcDbArc
 50
315.0
 51
36.98260824641335
  0
ARC
  5
7425
330
18
100
AcDbEntity
  8
1
  6
Continuous
100
AcDbCircle
 10
604.9668673935109
 20
222.4013634499133
 30
0.0
 40
1.5
100
AcDbArc
 50
105.0000000000016
 51
200.9650370691386
  0
ARC
  5
7426
330
18
100
AcDbEntity
  8
1
  6
Continuous
100
AcDbCircle
 10
608.971314505473
 20
215.4654575957724
 30
0.0
 40
1.5
100
AcDbArc
 50
219.0349629308613
 51
315.0
  0
LINE
  5
7427
330
18
100
AcDbEntity
  8
1
  6
Continuous
100
AcDbLine
 10
614.661855569087
 20
219.0346783158267
 30
0.0
 11
610.0319746772527
 21
214.4047974239926
 31
0.0
  0
LINE
  5
7428
330
18
100
AcDbEntity
  8
1
  6
Continuous
100
AcDbLine
 10
610.9031737405987
 20
225.5449062122543
 30
0.0
 11
604.5786388258569
 21
223.8502521893468
 31
0.0
  0
ARC
  5
7429
330
18
100
AcDbEntity
  8
1
  6
Continuous
100
AcDbCircle
 10
628.7787402911967
 20
231.5252174412074
 30
0.0
 40
27.00000005000001
100
AcDbArc
 50
200.9650370691386
 51
219.0349629308613
  0
ARC
  5
742A
330
18
100
AcDbEntity
  8
1
  6
Continuous
100
AcDbCircle
 10
603.5951264611663
 20
227.5207703042454
 30
0.0
 40
1.5
100
AcDbArc
 50
189.0349629308599
 51
285.0000000000007
  0
LINE
  5
742B
330
18
100
AcDbEntity
  8
1
  6
Continuous
100
AcDbLine
 10
609.7846490806504
 20
227.6263336210553
 30
0.0
 11
603.98335502882
 21
226.0718815648118
 31
0.0
  0
ARC
  5
742C
330
18
100
AcDbEntity
  8
1
  6
Continuous
100
AcDbCircle
 10
628.7787402978953
 20
231.5252174162075
 30
0.0
 40
27.00000005000001
100
AcDbArc
 50
176.8832455394998
 51
189.0349629308599
  0
ARC
  5
742D
330
18
100
AcDbEntity
  8
1
  6
Continuous
100
AcDbCircle
 10
628.7787402478953
 20
231.5252173662074
 30
0.0
 40
37.5
100
AcDbArc
 50
165.4953267767558
 51
19.5733272295424
  0
ARC
  5
742E
330
18
100
AcDbEntity
  8
1
  6
Continuous
100
AcDbCircle
 10
628.7787402478953
 20
231.5252174162075
 30
0.0
 40
30.0
100
AcDbArc
 50
173.0087554742152
 51
16.24265429987973
  0
ARC
  5
742F
330
18
100
AcDbEntity
  8
1
  6
Continuous
100
AcDbCircle
 10
628.7787402478953
 20
231.5252173662074
 30
0.0
 40
17.50000005000001
100
AcDbArc
 50
197.4546093132865
 51
3.757291142012649
  0
ARC
  5
75E3
330
18
100
AcDbEntity
  8
1
  6
Continuous
100
AcDbCircle
 10
227.4838409344194
 20
231.5252173662074
 30
0.0
 40
37.5
100
AcDbArc
 50
160.4266727704576
 51
14.50467322324415
  0
ARC
  5
75E4
330
18
100
AcDbEntity
  8
1
  6
Continuous
100
AcDbCircle
 10
227.4838409344194
 20
231.5252174162075
 30
0.0
 40
30.0
100
AcDbArc
 50
163.7573457001201
 51
6.991244525784757
  0
ARC
  5
75E5
330
18
100
AcDbEntity
  8
1
  6
Continuous
100
AcDbCircle
 10
227.4838409344194
 20
231.5252173662074
 30
0.0
 40
15.0
100
AcDbArc
 50
181.6434667122393
 51
331.5139481735918
  0
LINE
  5
75E6
330
18
100
AcDbEntity
  8
1
  6
Continuous
100
AcDbLine
 10
213.3669562556107
 20
219.0346783158267
 30
0.0
 11
208.7370753637767
 21
214.4047974239926
 31
0.0
  0
LINE
  5
75E7
330
18
100
AcDbEntity
  8
1
  6
Continuous
100
AcDbLine
 10
214.9933018340385
 20
217.4083327373988
 30
0.0
 11
210.3634209422043
 21
212.7784518455646
 31
0.0
  0
ARC
  5
75E8
330
18
100
AcDbEntity
  8
1
  6
Continuous
100
AcDbCircle
 10
227.4838409594193
 20
231.5252174595086
 30
0.0
 40
27.00000005000001
100
AcDbArc
 50
230.9650370691407
 51
249.0349629308614
  0
ARC
  5
75E9
330
18
100
AcDbEntity
  8
1
  6
Continuous
100
AcDbCircle
 10
227.4838409344194
 20
231.5252173662074
 30
0.0
 40
17.50000005000001
100
AcDbArc
 50
176.2427088579873
 51
342.5453906867133
  0
ARC
  5
75EA
330
18
100
AcDbEntity
  8
1
  6
Continuous
100
AcDbCircle
 10
212.3062960838309
 20
220.0953384876066
 30
0.0
 40
1.5
100
AcDbArc
 50
315.0
 51
36.98260824641335
  0
ARC
  5
75EB
330
18
100
AcDbEntity
  8
1
  6
Continuous
100
AcDbCircle
 10
227.4838409344194
 20
231.5252173662074
 30
0.0
 40
12.8
100
AcDbArc
 50
190.9388418147631
 51
268.6918670657482
  0
ARC
  5
75EC
330
18
100
AcDbEntity
  8
1
  6
Continuous
100
AcDbCircle
 10
216.0539620058185
 20
216.3476725656191
 30
0.0
 40
1.5
100
AcDbArc
 50
53.01739175358665
 51
134.9999999999999
  0
ARC
  5
75ED
330
18
100
AcDbEntity
  8
1
  6
Continuous
100
AcDbCircle
 10
227.4838409777203
 20
231.5252174412074
 30
0.0
 40
27.00000005000001
100
AcDbArc
 50
200.9650370691386
 51
219.0349629308613
  0
ARC
  5
75EE
330
18
100
AcDbEntity
  8
1
  6
Continuous
100
AcDbCircle
 10
207.6764151919967
 20
215.4654575957725
 30
0.0
 40
1.5
100
AcDbArc
 50
219.0349629308593
 51
315.0
  0
ARC
  5
75EF
330
18
100
AcDbEntity
  8
1
  6
Continuous
100
AcDbCircle
 10
211.4240811139841
 20
211.717791673785
 30
0.0
 40
1.5
100
AcDbArc
 50
134.9999999999999
 51
230.9650370691386
  0
LINE
  5
75F0
330
18
100
AcDbEntity
  8
1
  6
Continuous
100
AcDbLine
 10
209.6082744271222
 20
225.5449062122543
 30
0.0
 11
203.2837395123809
 21
223.8502521893468
 31
0.0
  0
ARC
  5
75F1
330
18
100
AcDbEntity
  8
1
  6
Continuous
100
AcDbCircle
 10
209.9965029947763
 20
224.0960174728206
 30
0.0
 40
1.5
100
AcDbArc
 50
23.01739175358873
 51
105.0000000000016
  0
ARC
  5
75F2
330
18
100
AcDbEntity
  8
1
  6
Continuous
100
AcDbCircle
 10
203.6719680800343
 20
222.4013634499133
 30
0.0
 40
1.5
100
AcDbArc
 50
105.0000000000016
 51
200.9650370691386
  0
ARC
  5
75F3
330
18
100
AcDbEntity
  8
1
  6
Continuous
100
AcDbCircle
 10
227.483840984419
 20
231.5252174162075
 30
0.0
 40
27.00000005000001
100
AcDbArc
 50
170.96503706914
 51
189.0349629308599
  0
LINE
  5
75F4
330
18
100
AcDbEntity
  8
1
  6
Continuous
100
AcDbLine
 10
209.0129906300852
 20
227.7665355877193
 30
0.0
 11
202.6884557153438
 21
226.0718815648117
 31
0.0
  0
ARC
  5
75F5
330
18
100
AcDbEntity
  8
1
  6
Continuous
100
AcDbCircle
 10
202.3002271476901
 20
227.5207703042454
 30
0.0
 40
1.5
100
AcDbArc
 50
189.0349629308599
 51
285.0000000000006
  0
ARC
  5
75F6
330
18
100
AcDbEntity
  8
1
  6
Continuous
100
AcDbCircle
 10
208.6247620624317
 20
229.2154243271529
 30
0.0
 40
1.5
100
AcDbArc
 50
285.0000000000006
 51
6.982608246412417
  0
ARC
  5
75F7
330
18
100
AcDbEntity
  8
1
  6
Continuous
100
AcDbCircle
 10
202.3002271476901
 20
235.5296645281695
 30
0.0
 40
1.5
100
AcDbArc
 50
74.99999999999928
 51
170.96503706914
  0
LINE
  5
75F8
330
18
100
AcDbEntity
  8
1
  6
Continuous
100
AcDbLine
 10
203.7075252041803
 20
236.7054944210383
 30
0.0
 11
202.6884557153438
 21
236.978553267603
 31
0.0
  0
LINE
  5
75F9
330
18
100
AcDbEntity
  8
1
  6
Continuous
100
AcDbLine
 10
221.503529730466
 20
213.6496509089106
 30
0.0
 11
219.8088757075587
 21
207.325115994169
 31
0.0
  0
LINE
  5
75FA
330
18
100
AcDbEntity
  8
1
  6
Continuous
100
AcDbLine
 10
223.725159105931
 20
213.0543671118735
 30
0.0
 11
222.0305050830237
 21
206.729832197132
 31
0.0
  0
ARC
  5
75FB
330
18
100
AcDbEntity
  8
1
  6
Continuous
100
AcDbCircle
 10
220.0546409910326
 20
214.0378794765644
 30
0.0
 40
1.5
100
AcDbArc
 50
344.9999999999984
 51
66.9826082464143
  0
ARC
  5
75FC
330
18
100
AcDbEntity
  8
1
  6
Continuous
100
AcDbCircle
 10
225.1740478453647
 20
212.6661385442199
 30
0.0
 40
1.5
100
AcDbArc
 50
83.01739175358759
 51
165.0000000000024
  0
ARC
  5
75FD
330
18
100
AcDbEntity
  8
1
  6
Continuous
100
AcDbCircle
 10
218.3599869681251
 20
207.7133445618229
 30
0.0
 40
1.5
100
AcDbArc
 50
249.0349629308614
 51
344.9999999999984
  0
ARC
  5
75FE
330
18
100
AcDbEntity
  8
1
  6
Continuous
100
AcDbCircle
 10
227.4838409344191
 20
231.5252174662073
 30
0.0
 40
27.00000005000001
100
AcDbArc
 50
260.96503706914
 51
279.034962930863
  0
ARC
  5
75FF
330
18
100
AcDbEntity
  8
1
  6
Continuous
100
AcDbCircle
 10
223.4793938224571
 20
206.3416036294782
 30
0.0
 40
1.5
100
AcDbArc
 50
164.9999999999991
 51
260.96503706914
  0
ARC
  5
7600
330
18
100
AcDbEntity
  8
1
  6
Continuous
100
AcDbCircle
 10
227.4838409094193
 20
231.5252174595086
 30
0.0
 40
27.00000005000001
100
AcDbArc
 50
290.9650370691386
 51
309.0349629308593
  0
LINE
  5
7601
330
18
100
AcDbEntity
  8
1
  6
Continuous
100
AcDbLine
 10
231.2425227629074
 20
213.0543671118735
 30
0.0
 11
232.9371767858149
 21
206.729832197132
 31
0.0
  0
LINE
  5
7602
330
18
100
AcDbEntity
  8
1
  6
Continuous
100
AcDbLine
 10
233.4641521383724
 20
213.6496509089107
 30
0.0
 11
235.1588061612799
 21
207.325115994169
 31
0.0
  0
ARC
  5
7603
330
18
100
AcDbEntity
  8
1
  6
Continuous
100
AcDbCircle
 10
236.6076949007133
 20
207.7133445618229
 30
0.0
 40
1.5
100
AcDbArc
 50
195.0000000000016
 51
290.9650370691386
  0
ARC
  5
7604
330
18
100
AcDbEntity
  8
1
  6
Continuous
100
AcDbCircle
 10
231.4882880463812
 20
206.3416036294782
 30
0.0
 40
1.5
100
AcDbArc
 50
279.0349629308599
 51
14.9999999999976
  0
ARC
  5
7605
330
18
100
AcDbEntity
  8
1
  6
Continuous
100
AcDbCircle
 10
229.7936340234739
 20
212.6661385442199
 30
0.0
 40
1.5
100
AcDbArc
 50
14.9999999999976
 51
96.98260824641241
  0
ARC
  5
7606
330
18
100
AcDbEntity
  8
1
  6
Continuous
100
AcDbCircle
 10
234.9130408778061
 20
214.0378794765644
 30
0.0
 40
1.5
100
AcDbArc
 50
113.0173917535856
 51
195.0000000000016
  0
LINE
  5
7607
330
18
100
AcDbEntity
  8
1
  6
Continuous
100
AcDbLine
 10
239.9743800347999
 20
217.408332737399
 30
0.0
 11
244.6042609266339
 21
212.7784518455648
 31
0.0
  0
LINE
  5
7608
330
18
100
AcDbEntity
  8
1
  6
Continuous
100
AcDbLine
 10
241.6007256132277
 20
219.0346783158267
 30
0.0
 11
246.2306065050619
 21
214.4047974239926
 31
0.0
  0
ARC
  5
7609
330
18
100
AcDbEntity
  8
1
  6
Continuous
100
AcDbCircle
 10
227.4838408911179
 20
231.5252174412074
 30
0.0
 40
27.00000005000001
100
AcDbArc
 50
320.9650370691386
 51
339.0349629308614
  0
ARC
  5
760A
330
18
100
AcDbEntity
  8
1
  6
Continuous
100
AcDbCircle
 10
243.5436007548543
 20
211.717791673785
 30
0.0
 40
1.5
100
AcDbArc
 50
309.0349629308593
 51
45.00000000000002
  0
ARC
  5
760B
330
18
100
AcDbEntity
  8
1
  6
Continuous
100
AcDbCircle
 10
247.2912666768416
 20
215.4654575957724
 30
0.0
 40
1.5
100
AcDbArc
 50
225.0
 51
320.9650370691386
  0
ARC
  5
760C
330
18
100
AcDbEntity
  8
1
  6
Continuous
100
AcDbCircle
 10
238.9137198630201
 20
216.3476725656191
 30
0.0
 40
1.5
100
AcDbArc
 50
45.00000000000002
 51
126.9826082464133
  0
ARC
  5
760D
330
18
100
AcDbEntity
  8
1
  6
Continuous
100
AcDbCircle
 10
242.6613857850075
 20
220.0953384876066
 30
0.0
 40
1.5
100
AcDbArc
 50
143.0173917535866
 51
225.0
  0
ARC
  5
760E
330
18
100
AcDbEntity
  8
1
  6
Continuous
100
AcDbCircle
 10
244.971178874062
 20
224.0960174728206
 30
0.0
 40
1.5
100
AcDbArc
 50
74.99999999999841
 51
156.9826082464112
  0
LINE
  5
760F
330
18
100
AcDbEntity
  8
1
  6
Continuous
100
AcDbLine
 10
245.3594074417159
 20
225.5449062122543
 30
0.0
 11
251.6839423564576
 21
223.8502521893468
 31
0.0
  0
ARC
  5
7610
330
18
100
AcDbEntity
  8
1
  6
Continuous
100
AcDbCircle
 10
251.2957137888038
 20
222.4013634499133
 30
0.0
 40
1.5
100
AcDbArc
 50
339.0349629308614
 51
74.99999999999841
  0
LINE
  5
7611
330
18
100
AcDbEntity
  8
1
  6
Continuous
100
AcDbLine
 10
246.4779321016643
 20
227.6263336210553
 30
0.0
 11
252.2792261534947
 21
226.0718815648118
 31
0.0
  0
ARC
  5
7612
330
18
100
AcDbEntity
  8
1
  6
Continuous
100
AcDbCircle
 10
252.6674547211484
 20
227.5207703042454
 30
0.0
 40
1.5
100
AcDbArc
 50
254.9999999999993
 51
350.96503706914
  0
ARC
  5
7613
330
18
100
AcDbEntity
  8
1
  6
Continuous
100
AcDbCircle
 10
227.4838408844195
 20
231.5252174162075
 30
0.0
 40
27.00000005000001
100
AcDbArc
 50
350.96503706914
 51
3.116754460500126
  0
LINE
  5
7615
330
18
100
AcDbEntity
  8
1
  6
Continuous
100
AcDbLine
 10
243.9838499529834
 20
60.66224844839968
 30
0.0
 11
210.9838499529836
 21
60.66224844839968
 31
0.0
  0
LINE
  5
7616
330
18
100
AcDbEntity
  8
1
  6
Continuous
100
AcDbLine
 10
260.48254104349
 20
62.16224844839968
 30
0.0
 11
194.4851588624769
 21
62.16224844839974
 31
0.0
  0
LINE
  5
7617
330
18
100
AcDbEntity
  8
1
  6
Continuous
100
AcDbLine
 10
260.4825410434902
 20
102.1622484483999
 30
0.0
 11
194.4851588624769
 21
102.1622484483999
 31
0.0
  0
LINE
  5
7618
330
18
100
AcDbEntity
  8
1
  6
Continuous
100
AcDbLine
 10
243.9838499529834
 20
103.6622484483999
 30
0.0
 11
210.9838499529834
 21
103.6622484483996
 31
0.0
  0
ARC
  5
7619
330
18
100
AcDbEntity
  8
1
  6
Continuous
100
AcDbCircle
 10
164.9838499529834
 20
82.1622484483999
 30
0.0
 40
100.0
100
AcDbArc
 50
349.9063431407738
 51
10.09365685922598
  0
ARC
  5
761A
330
18
100
AcDbEntity
  8
1
  6
Continuous
100
AcDbCircle
 10
260.48254104349
 20
65.16224844839968
 30
0.0
 40
3.0
100
AcDbArc
 50
270.0
 51
349.9063431407738
  0
LINE
  5
761B
330
18
100
AcDbEntity
  8
1
  6
Continuous
100
AcDbLine
 10
236.2838500029835
 20
60.66224844839968
 30
0.0
 11
236.2838500029835
 21
59.86224944839984
 31
0.0
  0
ARC
  5
761C
330
18
100
AcDbEntity
  8
1
  6
Continuous
100
AcDbCircle
 10
243.9838499529834
 20
61.66224844839968
 30
0.0
 40
1.0
100
AcDbArc
 50
270.0
 51
0.0
  0
ARC
  5
761D
330
18
100
AcDbEntity
  8
1
  6
Continuous
100
AcDbCircle
 10
236.0838499029836
 20
59.86224944839984
 30
0.0
 40
0.2
100
AcDbArc
 50
270.0
 51
0.0
  0
LINE
  5
761E
330
18
100
AcDbEntity
  8
1
  6
Continuous
100
AcDbLine
 10
244.9838499529834
 20
61.66224844839968
 30
0.0
 11
244.9838499529836
 21
62.16224844839968
 31
0.0
  0
ARC
  5
761F
330
18
100
AcDbEntity
  8
1
  6
Continuous
100
AcDbCircle
 10
260.48254104349
 20
99.16224844839993
 30
0.0
 40
3.0
100
AcDbArc
 50
10.09365685922598
 51
90.0
  0
LINE
  5
7620
330
18
100
AcDbEntity
  8
1
  6
Continuous
100
AcDbLine
 10
244.9838499529834
 20
102.1622484483999
 30
0.0
 11
244.9838499529834
 21
102.6622484483999
 31
0.0
  0
ARC
  5
7621
330
18
100
AcDbEntity
  8
1
  6
Continuous
100
AcDbCircle
 10
243.9838499529834
 20
102.6622484483999
 30
0.0
 40
1.0
100
AcDbArc
 50
0.0
 51
90.0
  0
LINE
  5
7622
330
18
100
AcDbEntity
  8
1
  6
Continuous
100
AcDbLine
 10
236.2838500029835
 20
103.6622484483999
 30
0.0
 11
236.2838500029835
 21
104.4622474483999
 31
0.0
  0
ARC
  5
7623
330
18
100
AcDbEntity
  8
1
  6
Continuous
100
AcDbCircle
 10
236.0838499029836
 20
104.4622474483999
 30
0.0
 40
0.2
100
AcDbArc
 50
0.0
 51
90.0
  0
ARC
  5
7625
330
18
100
AcDbEntity
  8
1
  6
Continuous
100
AcDbCircle
 10
289.9838499529833
 20
82.1622484483999
 30
0.0
 40
100.0
100
AcDbArc
 50
169.9063431407739
 51
190.093656859226
  0
ARC
  5
7626
330
18
100
AcDbEntity
  8
1
  6
Continuous
100
AcDbCircle
 10
218.8838500029832
 20
59.86224944839984
 30
0.0
 40
0.2
100
AcDbArc
 50
180.0
 51
270.0
  0
ARC
  5
7627
330
18
100
AcDbEntity
  8
1
  6
Continuous
100
AcDbCircle
 10
210.9838499529834
 20
61.66224844839968
 30
0.0
 40
1.0
100
AcDbArc
 50
180.0
 51
270.0
  0
LINE
  5
7628
330
18
100
AcDbEntity
  8
1
  6
Continuous
100
AcDbLine
 10
218.6838499029833
 20
60.66224844839968
 30
0.0
 11
218.6838499029833
 21
59.86224944839984
 31
0.0
  0
LINE
  5
7629
330
18
100
AcDbEntity
  8
1
  6
Continuous
100
AcDbLine
 10
209.9838499529834
 20
61.66224844839968
 30
0.0
 11
209.9838499529832
 21
62.16224844839968
 31
0.0
  0
ARC
  5
762A
330
18
100
AcDbEntity
  8
1
  6
Continuous
100
AcDbCircle
 10
194.4851588624769
 20
65.16224844839968
 30
0.0
 40
3.0
100
AcDbArc
 50
190.093656859226
 51
270.0
  0
ARC
  5
762B
330
18
100
AcDbEntity
  8
1
  6
Continuous
100
AcDbCircle
 10
218.8838500029832
 20
104.4622474483999
 30
0.0
 40
0.2
100
AcDbArc
 50
90.0
 51
180.0
  0
ARC
  5
762C
330
18
100
AcDbEntity
  8
1
  6
Continuous
100
AcDbCircle
 10
210.9838499529834
 20
102.6622484483999
 30
0.0
 40
1.0
100
AcDbArc
 50
90.0
 51
180.0
  0
LINE
  5
762D
330
18
100
AcDbEntity
  8
1
  6
Continuous
100
AcDbLine
 10
209.9838499529834
 20
102.1622484483999
 30
0.0
 11
209.9838499529834
 21
102.6622484483999
 31
0.0
  0
ARC
  5
762E
330
18
100
AcDbEntity
  8
1
  6
Continuous
100
AcDbCircle
 10
194.4851588624769
 20
99.16224844839993
 30
0.0
 40
3.0
100
AcDbArc
 50
90.0
 51
169.9063431407739
  0
LINE
  5
762F
330
18
100
AcDbEntity
  8
1
  6
Continuous
100
AcDbLine
 10
218.6838499029833
 20
103.6622484483999
 30
0.0
 11
218.6838499029833
 21
104.4622474483999
 31
0.0
  0
LINE
  5
7630
330
18
100
AcDbEntity
  8
1
  6
Continuous
100
AcDbLine
 10
406.6312905911575
 20
215.0252173662075
 30
0.0
 11
406.6312905911575
 21
248.0252173662072
 31
0.0
  0
LINE
  5
7631
330
18
100
AcDbEntity
  8
1
  6
Continuous
100
AcDbLine
 10
408.1312905911575
 20
198.5265262757009
 30
0.0
 11
408.1312905911575
 21
259.2076757317266
 31
0.0
  0
LINE
  5
7632
330
18
100
AcDbEntity
  8
1
  6
Continuous
100
AcDbLine
 10
448.1312905911576
 20
198.5265262757008
 30
0.0
 11
448.1312905911576
 21
259.2076757317253
 31
0.0
  0
LINE
  5
7633
330
18
100
AcDbEntity
  8
1
  6
Continuous
100
AcDbLine
 10
449.6312905911578
 20
215.0252173662076
 30
0.0
 11
449.6312905911575
 21
248.0252173662075
 31
0.0
  0
ARC
  5
7634
330
18
100
AcDbEntity
  8
1
  6
Continuous
100
AcDbCircle
 10
428.1312905911576
 20
294.0252173662075
 30
0.0
 40
100.0
100
AcDbArc
 50
259.9063431407739
 51
280.0936568592259
  0
ARC
  5
7635
330
18
100
AcDbEntity
  8
1
  6
Continuous
100
AcDbCircle
 10
411.1312905911575
 20
198.5265262757009
 30
0.0
 40
3.0
100
AcDbArc
 50
180.0
 51
259.9063431407739
  0
LINE
  5
7636
330
18
100
AcDbEntity
  8
1
  6
Continuous
100
AcDbLine
 10
406.6312905911575
 20
222.7252173162075
 30
0.0
 11
405.8312915911575
 21
222.7252173162075
 31
0.0
  0
ARC
  5
7637
330
18
100
AcDbEntity
  8
1
  6
Continuous
100
AcDbCircle
 10
407.6312905911575
 20
215.0252173662075
 30
0.0
 40
1.0
100
AcDbArc
 50
180.0
 51
270.0
  0
ARC
  5
7638
330
18
100
AcDbEntity
  8
1
  6
Continuous
100
AcDbCircle
 10
405.8312915911575
 20
222.9252174162073
 30
0.0
 40
0.2
100
AcDbArc
 50
180.0
 51
270.0
  0
LINE
  5
7639
330
18
100
AcDbEntity
  8
1
  6
Continuous
100
AcDbLine
 10
407.6312905911575
 20
214.0252173662075
 30
0.0
 11
408.1312905911575
 21
214.0252173662074
 31
0.0
  0
ARC
  5
763A
330
18
100
AcDbEntity
  8
1
  6
Continuous
100
AcDbCircle
 10
445.1312905911576
 20
198.5265262757009
 30
0.0
 40
3.0
100
AcDbArc
 50
280.0936568592259
 51
0.0
  0
LINE
  5
763B
330
18
100
AcDbEntity
  8
1
  6
Continuous
100
AcDbLine
 10
448.1312905911576
 20
214.0252173662075
 30
0.0
 11
448.6312905911576
 21
214.0252173662075
 31
0.0
  0
ARC
  5
763C
330
18
100
AcDbEntity
  8
1
  6
Continuous
100
AcDbCircle
 10
448.6312905911576
 20
215.0252173662075
 30
0.0
 40
1.0
100
AcDbArc
 50
270.0
 51
0.0
  0
LINE
  5
763D
330
18
100
AcDbEntity
  8
1
  6
Continuous
100
AcDbLine
 10
449.6312905911578
 20
222.7252173162075
 30
0.0
 11
450.4312895911578
 21
222.7252173162075
 31
0.0
  0
ARC
  5
763E
330
18
100
AcDbEntity
  8
1
  6
Continuous
100
AcDbCircle
 10
450.4312895911578
 20
222.9252174162073
 30
0.0
 40
0.2
100
AcDbArc
 50
270.0
 51
0.0
  0
ARC
  5
763F
330
18
100
AcDbEntity
  8
1
  6
Continuous
100
AcDbCircle
 10
405.8312915911575
 20
240.1252173162076
 30
0.0
 40
0.2
100
AcDbArc
 50
90.00000000000005
 51
180.0
  0
LINE
  5
7640
330
18
100
AcDbEntity
  8
1
  6
Continuous
100
AcDbLine
 10
406.6312905911575
 20
240.3252174162074
 30
0.0
 11
405.8312915911575
 21
240.3252174162074
 31
0.0
  0
LINE
  5
7641
330
18
100
AcDbEntity
  8
1
  6
Continuous
100
AcDbLine
 10
407.6312905911575
 20
249.0252173662074
 30
0.0
 11
408.1312905911575
 21
249.0252173662075
 31
0.0
  0
ARC
  5
7642
330
18
100
AcDbEntity
  8
1
  6
Continuous
100
AcDbCircle
 10
407.6312905911575
 20
248.0252173662074
 30
0.0
 40
1.0
100
AcDbArc
 50
90.00000000000005
 51
180.0
  0
ARC
  5
7643
330
18
100
AcDbEntity
  8
1
  6
Continuous
100
AcDbCircle
 10
448.6312905911576
 20
248.0252173662074
 30
0.0
 40
1.0
100
AcDbArc
 50
0.0
 51
90.00000000000005
  0
LINE
  5
7644
330
18
100
AcDbEntity
  8
1
  6
Continuous
100
AcDbLine
 10
448.1312905911576
 20
249.0252173662074
 30
0.0
 11
448.6312905911576
 21
249.0252173662074
 31
0.0
  0
ARC
  5
7645
330
18
100
AcDbEntity
  8
1
  6
Continuous
100
AcDbCircle
 10
450.4312895911578
 20
240.1252173162076
 30
0.0
 40
0.2
100
AcDbArc
 50
0.0
 51
90.00000000000005
  0
LINE
  5
7646
330
18
100
AcDbEntity
  8
1
  6
Continuous
100
AcDbLine
 10
449.6312905911578
 20
240.3252174162074
 30
0.0
 11
450.4312895911578
 21
240.3252174162074
 31
0.0
  0
LINE
  5
7647
330
18
100
AcDbEntity
  8
1
  6
Continuous
100
AcDbLine
 10
41.33639927768284
 20
215.0252173662075
 30
0.0
 11
41.33639927768284
 21
247.9330963662075
 31
0.0
  0
LINE
  5
7648
330
18
100
AcDbEntity
  8
1
  6
Continuous
100
AcDbLine
 10
42.83639927768286
 20
198.5265262757009
 30
0.0
 11
42.83639927768286
 21
247.9330963662076
 31
0.0
  0
LINE
  5
7649
330
18
100
AcDbEntity
  8
1
  6
Continuous
100
AcDbLine
 10
82.83639927768311
 20
198.5265262757008
 30
0.0
 11
82.83639927768311
 21
247.9330963662076
 31
0.0
  0
LINE
  5
764A
330
18
100
AcDbEntity
  8
1
  6
Continuous
100
AcDbLine
 10
84.33639927768309
 20
215.0252173662076
 30
0.0
 11
84.33639927768288
 21
247.9330963662075
 31
0.0
  0
ARC
  5
764B
330
18
100
AcDbEntity
  8
1
  6
Continuous
100
AcDbCircle
 10
62.83639927768309
 20
294.0252173662075
 30
0.0
 40
100.0
100
AcDbArc
 50
259.9063431407739
 51
280.0936568592259
  0
ARC
  5
764C
330
18
100
AcDbEntity
  8
1
  6
Continuous
100
AcDbCircle
 10
45.83639927768285
 20
198.5265262757009
 30
0.0
 40
3.0
100
AcDbArc
 50
180.0
 51
259.9063431407739
  0
LINE
  5
764D
330
18
100
AcDbEntity
  8
1
  6
Continuous
100
AcDbLine
 10
41.33639927768284
 20
222.7252173162075
 30
0.0
 11
40.53640027768302
 21
222.7252173162075
 31
0.0
  0
ARC
  5
764E
330
18
100
AcDbEntity
  8
1
  6
Continuous
100
AcDbCircle
 10
42.33639927768286
 20
215.0252173662075
 30
0.0
 40
1.0
100
AcDbArc
 50
180.0
 51
270.0
  0
ARC
  5
764F
330
18
100
AcDbEntity
  8
1
  6
Continuous
100
AcDbCircle
 10
40.53640027768302
 20
222.9252174162073
 30
0.0
 40
0.2
100
AcDbArc
 50
180.0
 51
270.0
  0
LINE
  5
7650
330
18
100
AcDbEntity
  8
1
  6
Continuous
100
AcDbLine
 10
42.33639927768286
 20
214.0252173662075
 30
0.0
 11
42.83639927768286
 21
214.0252173662074
 31
0.0
  0
ARC
  5
7651
330
18
100
AcDbEntity
  8
1
  6
Continuous
100
AcDbCircle
 10
79.83639927768307
 20
198.5265262757009
 30
0.0
 40
3.0
100
AcDbArc
 50
280.0936568592259
 51
0.0
  0
LINE
  5
7652
330
18
100
AcDbEntity
  8
1
  6
Continuous
100
AcDbLine
 10
82.83639927768311
 20
214.0252173662075
 30
0.0
 11
83.33639927768308
 21
214.0252173662075
 31
0.0
  0
ARC
  5
7653
330
18
100
AcDbEntity
  8
1
  6
Continuous
100
AcDbCircle
 10
83.33639927768308
 20
215.0252173662075
 30
0.0
 40
1.0
100
AcDbArc
 50
270.0
 51
0.0
  0
LINE
  5
7654
330
18
100
AcDbEntity
  8
1
  6
Continuous
100
AcDbLine
 10
84.33639927768309
 20
222.7252173162075
 30
0.0
 11
85.13639827768315
 21
222.7252173162075
 31
0.0
  0
ARC
  5
7655
330
18
100
AcDbEntity
  8
1
  6
Continuous
100
AcDbCircle
 10
85.13639827768315
 20
222.9252174162073
 30
0.0
 40
0.2
100
AcDbArc
 50
270.0
 51
0.0
  0
ARC
  5
7656
330
18
100
AcDbEntity
  8
1
  6
Continuous
100
AcDbCircle
 10
40.53640027768302
 20
240.1252173162078
 30
0.0
 40
0.2
100
AcDbArc
 50
90.00000000000005
 51
180.0
  0
LINE
  5
7657
330
18
100
AcDbEntity
  8
1
  6
Continuous
100
AcDbLine
 10
41.33639927768284
 20
240.3252174162076
 30
0.0
 11
40.53640027768302
 21
240.3252174162076
 31
0.0
  0
ARC
  5
7658
330
18
100
AcDbEntity
  8
1
  6
Continuous
100
AcDbCircle
 10
85.13639827768315
 20
240.1252173162078
 30
0.0
 40
0.2
100
AcDbArc
 50
0.0
 51
90.00000000000005
  0
LINE
  5
7659
330
18
100
AcDbEntity
  8
1
  6
Continuous
100
AcDbLine
 10
84.33639927768309
 20
240.3252174162076
 30
0.0
 11
85.13639827768315
 21
240.3252174162076
 31
0.0
  0
LINE
  5
76AA
330
18
100
AcDbEntity
  8
1
  6
Continuous
100
AcDbLine
 10
398.0302726355952
 20
287.0252173662077
 30
0.0
 11
458.2323085467201
 21
287.0252173662077
 31
0.0
  0
LINE
  5
76AB
330
18
100
AcDbEntity
  8
1
  6
Continuous
100
AcDbLine
 10
387.1312905911576
 20
291.0252173662078
 30
0.0
 11
469.1312905911575
 21
291.0252173662078
 31
0.0
  0
ARC
  5
76AC
330
18
100
AcDbEntity
  8
1
  6
Continuous
100
AcDbCircle
 10
458.2323085467201
 20
292.0252173662077
 30
0.0
 40
5.0
100
AcDbArc
 50
270.0
 51
348.463040967185
  0
LINE
  5
76AD
330
18
100
AcDbEntity
  8
1
  6
Continuous
100
AcDbLine
 10
469.1312905911575
 20
294.0252173662077
 30
0.0
 11
469.1312905911575
 21
291.0252173662078
 31
0.0
  0
ARC
  5
76AE
330
18
100
AcDbEntity
  8
1
  6
Continuous
100
AcDbCircle
 10
398.0302726355952
 20
292.0252173662077
 30
0.0
 40
5.0
100
AcDbArc
 50
191.5369590328149
 51
270.0
  0
LINE
  5
76AF
330
18
100
AcDbEntity
  8
1
  6
Continuous
100
AcDbLine
 10
387.1312905911576
 20
294.0252173662077
 30
0.0
 11
387.1312905911576
 21
291.0252173662078
 31
0.0
  0
LINE
  5
76B0
330
18
100
AcDbEntity
  8
1
  6
Continuous
100
AcDbLine
 10
575.6777182923326
 20
287.0252173662077
 30
0.0
 11
635.8797542034574
 21
287.0252173662077
 31
0.0
  0
LINE
  5
76B1
330
18
100
AcDbEntity
  8
1
  6
Continuous
100
AcDbLine
 10
564.7787362478949
 20
291.0252173662078
 30
0.0
 11
646.7787362478949
 21
291.0252173662078
 31
0.0
  0
ARC
  5
76B2
330
18
100
AcDbEntity
  8
1
  6
Continuous
100
AcDbCircle
 10
635.8797542034574
 20
292.0252173662077
 30
0.0
 40
5.0
100
AcDbArc
 50
270.0
 51
348.463040967185
  0
LINE
  5
76B3
330
18
100
AcDbEntity
  8
1
  6
Continuous
100
AcDbLine
 10
646.7787362478949
 20
294.0252173662077
 30
0.0
 11
646.7787362478949
 21
291.0252173662078
 31
0.0
  0
ARC
  5
76B4
330
18
100
AcDbEntity
  8
1
  6
Continuous
100
AcDbCircle
 10
575.6777182923326
 20
292.0252173662077
 30
0.0
 40
5.0
100
AcDbArc
 50
191.5369590328149
 51
270.0
  0
LINE
  5
76B5
330
18
100
AcDbEntity
  8
1
  6
Continuous
100
AcDbLine
 10
564.7787362478949
 20
294.0252173662077
 30
0.0
 11
564.7787362478949
 21
291.0252173662078
 31
0.0
  0
LINE
  5
76B6
330
18
100
AcDbEntity
  8
1
  6
Continuous
100
AcDbLine
 10
220.3828269788577
 20
287.0252173662077
 30
0.0
 11
280.5848628899825
 21
287.0252173662077
 31
0.0
  0
LINE
  5
76B7
330
18
100
AcDbEntity
  8
1
  6
Continuous
100
AcDbLine
 10
209.4838449344201
 20
291.0252173662078
 30
0.0
 11
291.4838449344201
 21
291.0252173662078
 31
0.0
  0
ARC
  5
76B8
330
18
100
AcDbEntity
  8
1
  6
Continuous
100
AcDbCircle
 10
280.5848628899825
 20
292.0252173662077
 30
0.0
 40
5.0
100
AcDbArc
 50
270.0
 51
348.463040967185
  0
LINE
  5
76B9
330
18
100
AcDbEntity
  8
1
  6
Continuous
100
AcDbLine
 10
291.4838449344201
 20
294.0252173662077
 30
0.0
 11
291.4838449344201
 21
291.0252173662078
 31
0.0
  0
ARC
  5
76BA
330
18
100
AcDbEntity
  8
1
  6
Continuous
100
AcDbCircle
 10
220.3828269788577
 20
292.0252173662077
 30
0.0
 40
5.0
100
AcDbArc
 50
191.5369590328149
 51
270.0
  0
LINE
  5
76BB
330
18
100
AcDbEntity
  8
1
  6
Continuous
100
AcDbLine
 10
209.4838449344201
 20
294.0252173662077
 30
0.0
 11
209.4838449344201
 21
291.0252173662078
 31
0.0
  0
LINE
  5
76BC
330
18
100
AcDbEntity
  8
1
  6
Continuous
100
AcDbLine
 10
32.73538132212036
 20
287.0252173662077
 30
0.0
 11
92.93741723324513
 21
287.0252173662077
 31
0.0
  0
LINE
  5
76BD
330
18
100
AcDbEntity
  8
1
  6
Continuous
100
AcDbLine
 10
21.83639927768274
 20
291.0252173662078
 30
0.0
 11
103.8363992776827
 21
291.0252173662078
 31
0.0
  0
ARC
  5
76BE
330
18
100
AcDbEntity
  8
1
  6
Continuous
100
AcDbCircle
 10
92.93741723324513
 20
292.0252173662077
 30
0.0
 40
5.0
100
AcDbArc
 50
270.0
 51
348.463040967185
  0
LINE
  5
76BF
330
18
100
AcDbEntity
  8
1
  6
Continuous
100
AcDbLine
 10
103.8363992776827
 20
294.0252173662077
 30
0.0
 11
103.8363992776827
 21
291.0252173662078
 31
0.0
  0
ARC
  5
76C0
330
18
100
AcDbEntity
  8
1
  6
Continuous
100
AcDbCircle
 10
32.73538132212036
 20
292.0252173662077
 30
0.0
 40
5.0
100
AcDbArc
 50
191.5369590328149
 51
270.0
  0
LINE
  5
76C1
330
18
100
AcDbEntity
  8
1
  6
Continuous
100
AcDbLine
 10
21.83639927768274
 20
294.0252173662077
 30
0.0
 11
21.83639927768274
 21
291.0252173662078
 31
0.0
  0
ENDSEC
  0
SECTION
  2
OBJECTS
  0
DICTIONARY
  5
C
330
0
100
AcDbDictionary
281
     1
  3
ACAD_CIP_PREVIOUS_PRODUCT_INFO
350
7756
  3
ACAD_COLOR
350
7739
  3
ACAD_DETAILVIEWSTYLE
350
7752
  3
ACAD_GROUP
350
D
  3
ACAD_LAYOUT
350
94
  3
ACAD_MATERIAL
350
7707
  3
ACAD_MLEADERSTYLE
350
774E
  3
ACAD_MLINESTYLE
350
1B
  3
ACAD_PLOTSETTINGS
350
95
  3
ACAD_PLOTSTYLENAME
350
7705
  3
ACAD_SCALELIST
350
773C
  3
ACAD_SECTIONVIEWSTYLE
350
7750
  3
ACAD_TABLESTYLE
350
773A
  3
ACAD_VISUALSTYLE
350
7720
  3
ACDB_RECOMPOSE_DATA
350
7774
  3
AcDbVariableDictionary
350
7767
  3
CONTENTDICTIONARY
350
3D
  3
DWGPROPS
350
7775
  0
DICTIONARY
  5
7757
330
E
100
AcDbDictionary
280
     1
281
     1
  3
ADSK_XREC_LAYER_RECONCILED
360
7758
  0
DICTIONARY
  5
7759
330
4E
100
AcDbDictionary
280
     1
281
     1
  3
ADSK_XREC_LAYER_RECONCILED
360
775A
  0
DICTIONARY
  5
775B
330
4F
100
AcDbDictionary
280
     1
281
     1
  3
ADSK_XREC_LAYER_RECONCILED
360
775C
  0
DICTIONARY
  5
775D
330
50
100
AcDbDictionary
280
     1
281
     1
  3
ADSK_XREC_LAYER_RECONCILED
360
775E
  0
DICTIONARY
  5
775F
330
51
100
AcDbDictionary
280
     1
281
     1
  3
ADSK_XREC_LAYER_RECONCILED
360
7760
  0
DICTIONARY
  5
7761
330
52
100
AcDbDictionary
280
     1
281
     1
  3
ADSK_XREC_LAYER_RECONCILED
360
7762
  0
DICTIONARY
  5
7763
330
53
100
AcDbDictionary
280
     1
281
     1
  3
ADSK_XREC_LAYER_RECONCILED
360
7764
  0
DICTIONARY
  5
7765
330
54
100
AcDbDictionary
280
     1
281
     1
  3
ADSK_XREC_LAYER_RECONCILED
360
7766
  0
DICTIONARY
  5
7700
330
18
100
AcDbDictionary
281
     1
  3
ACAD_LAYOUTSELFREF
350
7701
  0
DICTIONARY
  5
76FE
330
15
100
AcDbDictionary
281
     1
  3
ACAD_LAYOUTSELFREF
350
76FF
  0
XRECORD
  5
7756
102
{ACAD_REACTORS
330
C
102
}
330
C
100
AcDbXrecord
280
     1
300
ACDLT
300
2014
300
ACDLT_F_S
  0
DICTIONARY
  5
7739
102
{ACAD_REACTORS
330
C
102
}
330
C
100
AcDbDictionary
281
     1
  0
DICTIONARY
  5
7752
102
{ACAD_REACTORS
330
C
102
}
330
C
100
AcDbDictionary
281
     1
  3
Imperial24
350
7753
  0
DICTIONARY
  5
D
102
{ACAD_REACTORS
330
C
102
}
330
C
100
AcDbDictionary
281
     1
  0
DICTIONARY
  5
94
102
{ACAD_REACTORS
330
C
102
}
330
C
100
AcDbDictionary
281
     1
  3
Model
350
7754
  3
レイアウト1
350
7755
  0
DICTIONARY
  5
7707
102
{ACAD_REACTORS
330
C
102
}
330
C
100
AcDbDictionary
281
     1
  3
ByBlock
350
7710
  3
ByLayer
350
7708
  3
Global
350
7718
  0
DICTIONARY
  5
774E
102
{ACAD_REACTORS
330
C
102
}
330
C
100
AcDbDictionary
281
     1
  3
Standard
350
774F
  0
DICTIONARY
  5
1B
102
{ACAD_REACTORS
330
C
102
}
330
C
100
AcDbDictionary
281
     1
  3
STANDARD
350
1C
  0
DICTIONARY
  5
95
102
{ACAD_REACTORS
330
C
102
}
330
C
100
AcDbDictionary
281
     1
  0
ACDBDICTIONARYWDFLT
  5
7705
102
{ACAD_REACTORS
330
C
102
}
330
C
100
AcDbDictionary
281
     1
  3
Normal
350
7706
100
AcDbDictionaryWithDefault
340
7706
  0
DICTIONARY
  5
773C
102
{ACAD_REACTORS
330
C
102
}
330
C
100
AcDbDictionary
281
     1
  3
A0
350
773D
  3
A1
350
773E
  3
A2
350
773F
  3
A3
350
7740
  3
A4
350
7741
  3
A5
350
7742
  3
A6
350
7743
  3
A7
350
7744
  3
A8
350
7745
  3
A9
350
7746
  3
B0
350
7747
  3
B1
350
7748
  3
B2
350
7749
  3
B3
350
774A
  3
B4
350
774B
  3
B5
350
774C
  3
B6
350
774D
  0
DICTIONARY
  5
7750
102
{ACAD_REACTORS
330
C
102
}
330
C
100
AcDbDictionary
281
     1
  3
Imperial24
350
7751
  0
DICTIONARY
  5
773A
102
{ACAD_REACTORS
330
C
102
}
330
C
100
AcDbDictionary
281
     1
  3
Standard
350
773B
  0
DICTIONARY
  5
7720
102
{ACAD_REACTORS
330
C
102
}
330
C
100
AcDbDictionary
281
     1
  3
2dWireframe
350
7726
  3
Basic
350
7725
  3
Brighten
350
772C
  3
ColorChange
350
7730
  3
Conceptual
350
7729
  3
Dim
350
772B
  3
EdgeColorOff
350
7738
  3
Facepattern
350
772F
  3
Flat
350
7721
  3
FlatWithEdges
350
7722
  3
Gouraud
350
7723
  3
GouraudWithEdges
350
7724
  3
Hidden
350
7728
  3
JitterOff
350
7736
  3
Linepattern
350
772E
  3
OverhangOff
350
7737
  3
Realistic
350
772A
  3
Shaded
350
7735
  3
Shaded with edges
350
7734
  3
Shades of Gray
350
7731
  3
Sketchy
350
7732
  3
Thicken
350
772D
  3
Wireframe
350
7727
  3
X-Ray
350
7733
  0
XRECORD
  5
7774
102
{ACAD_REACTORS
330
C
102
}
330
C
100
AcDbXrecord
280
     1
 90
        1
330
773B
  0
DICTIONARY
  5
7767
102
{ACAD_REACTORS
330
C
102
}
330
C
100
AcDbDictionary
281
     1
  3
CANNOSCALE
350
776C
  3
CMLEADERSTYLE
350
7769
  3
CTABLESTYLE
350
7768
  3
CVIEWDETAILSTYLE
350
776A
  3
CVIEWSECTIONSTYLE
350
776B
  3
DIMASSOC
350
776F
  3
INDEXCTL
350
776E
  3
SORTENTS
350
776D
  3
XCLIPFRAME
350
7770
  0
DICTIONARY
  5
3D
102
{ACAD_REACTORS
330
C
102
}
330
C
100
AcDbDictionary
281
     1
  0
XRECORD
  5
7775
102
{ACAD_REACTORS
330
C
102
}
330
C
100
AcDbXrecord
280
     1
  1
DWGPROPS COOKIE
  2

  3

  4

  6

  7

  8
Yoshitsune
  9

300
=
301
=
302
=
303
=
304
=
305
=
306
=
307
=
308
=
309
=
 40
0.3377947106481481
 41
2454154.550453368
 42
2457192.690851354
  1

 90
        0
  0
XRECORD
  5
7758
102
{ACAD_REACTORS
330
7757
102
}
330
7757
100
AcDbXrecord
280
     1
290
     1
  0
XRECORD
  5
775A
102
{ACAD_REACTORS
330
7759
102
}
330
7759
100
AcDbXrecord
280
     1
290
     1
  0
XRECORD
  5
775C
102
{ACAD_REACTORS
330
775B
102
}
330
775B
100
AcDbXrecord
280
     1
290
     1
  0
XRECORD
  5
775E
102
{ACAD_REACTORS
330
775D
102
}
330
775D
100
AcDbXrecord
280
     1
290
     1
  0
XRECORD
  5
7760
102
{ACAD_REACTORS
330
775F
102
}
330
775F
100
AcDbXrecord
280
     1
290
     1
  0
XRECORD
  5
7762
102
{ACAD_REACTORS
330
7761
102
}
330
7761
100
AcDbXrecord
280
     1
290
     1
  0
XRECORD
  5
7764
102
{ACAD_REACTORS
330
7763
102
}
330
7763
100
AcDbXrecord
280
     1
290
     1
  0
XRECORD
  5
7766
102
{ACAD_REACTORS
330
7765
102
}
330
7765
100
AcDbXrecord
280
     1
290
     1
  0
XRECORD
  5
7701
102
{ACAD_REACTORS
330
7700
102
}
330
7700
100
AcDbXrecord
280
     1
340
18
  0
XRECORD
  5
76FF
102
{ACAD_REACTORS
330
76FE
102
}
330
76FE
100
AcDbXrecord
280
     1
340
15
  0
ACDBDETAILVIEWSTYLE
  5
7753
102
{ACAD_XDICTIONARY
360
77AD
102
}
102
{ACAD_REACTORS
330
7752
102
}
330
7752
100
AcDbModelDocViewStyle
 70
     0
  3
Imperial24
290
     0
100
AcDbDetailViewStyle
 70
     0
 71
     0
 90
        3
 71
     1
340
F
 40
0.24
340
0
 40
0.24
300

 40
0.36
280
     3
 71
     2
340
14
 90
       25
 71
     3
340
F
 40
0.24
 90
        1
 40
0.75
 90
        1
300
%<\AcVar ViewType \f "%tc1">% %<\AcVar ViewDetailId>%\PSCALE %<\AcVar ViewScale \f "%sn">%
 71
     4
340
14
 90
       25
340
14
 90
       25
280
     0
  0
LAYOUT
  5
7754
102
{ACAD_XDICTIONARY
360
77AF
102
}
102
{ACAD_REACTORS
330
94
102
}
330
94
100
AcDbPlotSettings
  1

  2
Canon LBP9100C
  4

  6

 40
0.0
 41
0.0
 42
0.0
 43
0.0
 44
0.0
 45
0.0
 46
0.0
 47
0.0
 48
0.0
 49
0.0
140
0.0
141
0.0
142
1.0
143
1.0
 70
  1712
 72
     0
 73
     0
 74
     0
  7

 75
     0
147
1.0
148
0.0
149
0.0
100
AcDbLayout
  1
Model
 70
     1
 71
     0
 10
0.0
 20
0.0
 11
12.0
 21
9.0
 12
0.0
 22
0.0
 32
0.0
 14
0.0
 24
0.0
 34
0.0
 15
0.0
 25
0.0
 35
0.0
146
0.0
 13
0.0
 23
0.0
 33
0.0
 16
1.0
 26
0.0
 36
0.0
 17
0.0
 27
1.0
 37
0.0
 76
     0
330
18
331
76FD
  0
LAYOUT
  5
7755
102
{ACAD_XDICTIONARY
360
77B1
102
}
102
{ACAD_REACTORS
330
94
102
}
330
94
100
AcDbPlotSettings
  1

  2
Canon LBP9100C
  4

  6

 40
0.0
 41
0.0
 42
0.0
 43
0.0
 44
0.0
 45
0.0
 46
0.0
 47
0.0
 48
0.0
 49
0.0
140
0.0
141
0.0
142
1.0
143
1.0
 70
   688
 72
     0
 73
     0
 74
     5
  7

 75
    16
147
1.0
148
0.0
149
0.0
100
AcDbLayout
  1
レイアウト1
 70
     1
 71
     1
 10
0.0
 20
0.0
 11
420.0
 21
297.0
 12
0.0
 22
0.0
 32
0.0
 14
1.000000000000000E+20
 24
1.000000000000000E+20
 34
1.000000000000000E+20
 15
-1.000000000000000E+20
 25
-1.000000000000000E+20
 35
-1.000000000000000E+20
146
0.0
 13
0.0
 23
0.0
 33
0.0
 16
1.0
 26
0.0
 36
0.0
 17
0.0
 27
1.0
 37
0.0
 76
     0
330
15
  0
MATERIAL
  5
7710
102
{ACAD_XDICTIONARY
360
7711
102
}
102
{ACAD_REACTORS
330
7707
102
}
330
7707
100
AcDbMaterial
  1
ByBlock
 72
     0
 43
0.0208333333333333
 43
0.0
 43
0.0
 43
0.0
 43
0.0
 43
0.0208333333333333
 43
0.0
 43
0.0
 43
0.0
 43
0.0
 43
1.0
 43
0.0
 43
0.0
 43
0.0
 43
0.0
 43
1.0
 77
     0
 47
0.0208333333333333
 47
0.0
 47
0.0
 47
0.0
 47
0.0
 47
0.0208333333333333
 47
0.0
 47
0.0
 47
0.0
 47
0.0
 47
1.0
 47
0.0
 47
0.0
 47
0.0
 47
0.0
 47
1.0
171
     0
 49
0.0208333333333333
 49
0.0
 49
0.0
 49
0.0
 49
0.0
 49
0.0208333333333333
 49
0.0
 49
0.0
 49
0.0
 49
0.0
 49
1.0
 49
0.0
 49
0.0
 49
0.0
 49
0.0
 49
1.0
175
     0
142
0.0208333333333333
142
0.0
142
0.0
142
0.0
142
0.0
142
0.0208333333333333
142
0.0
142
0.0
142
0.0
142
0.0
142
1.0
142
0.0
142
0.0
142
0.0
142
0.0
142
1.0
179
     0
144
0.0208333333333333
144
0.0
144
0.0
144
0.0
144
0.0
144
0.0208333333333333
144
0.0
144
0.0
144
0.0
144
0.0
144
1.0
144
0.0
144
0.0
144
0.0
144
0.0
144
1.0
147
0.0208333333333333
147
0.0
147
0.0
147
0.0
147
0.0
147
0.0208333333333333
147
0.0
147
0.0
147
0.0
147
0.0
147
1.0
147
0.0
147
0.0
147
0.0
147
0.0
147
1.0
  0
MATERIAL
  5
7708
102
{ACAD_XDICTIONARY
360
7709
102
}
102
{ACAD_REACTORS
330
7707
102
}
330
7707
100
AcDbMaterial
  1
ByLayer
 72
     0
 43
0.0208333333333333
 43
0.0
 43
0.0
 43
0.0
 43
0.0
 43
0.0208333333333333
 43
0.0
 43
0.0
 43
0.0
 43
0.0
 43
1.0
 43
0.0
 43
0.0
 43
0.0
 43
0.0
 43
1.0
 77
     0
 47
0.0208333333333333
 47
0.0
 47
0.0
 47
0.0
 47
0.0
 47
0.0208333333333333
 47
0.0
 47
0.0
 47
0.0
 47
0.0
 47
1.0
 47
0.0
 47
0.0
 47
0.0
 47
0.0
 47
1.0
171
     0
 49
0.0208333333333333
 49
0.0
 49
0.0
 49
0.0
 49
0.0
 49
0.0208333333333333
 49
0.0
 49
0.0
 49
0.0
 49
0.0
 49
1.0
 49
0.0
 49
0.0
 49
0.0
 49
0.0
 49
1.0
175
     0
142
0.0208333333333333
142
0.0
142
0.0
142
0.0
142
0.0
142
0.0208333333333333
142
0.0
142
0.0
142
0.0
142
0.0
142
1.0
142
0.0
142
0.0
142
0.0
142
0.0
142
1.0
179
     0
144
0.0208333333333333
144
0.0
144
0.0
144
0.0
144
0.0
144
0.0208333333333333
144
0.0
144
0.0
144
0.0
144
0.0
144
1.0
144
0.0
144
0.0
144
0.0
144
0.0
144
1.0
147
0.0208333333333333
147
0.0
147
0.0
147
0.0
147
0.0
147
0.0208333333333333
147
0.0
147
0.0
147
0.0
147
0.0
147
1.0
147
0.0
147
0.0
147
0.0
147
0.0
147
1.0
  0
MATERIAL
  5
7718
102
{ACAD_XDICTIONARY
360
7719
102
}
102
{ACAD_REACTORS
330
7707
102
}
330
7707
100
AcDbMaterial
  1
Global
 72
     0
 43
0.0208333333333333
 43
0.0
 43
0.0
 43
0.0
 43
0.0
 43
0.0208333333333333
 43
0.0
 43
0.0
 43
0.0
 43
0.0
 43
1.0
 43
0.0
 43
0.0
 43
0.0
 43
0.0
 43
1.0
 77
     0
 47
0.0208333333333333
 47
0.0
 47
0.0
 47
0.0
 47
0.0
 47
0.0208333333333333
 47
0.0
 47
0.0
 47
0.0
 47
0.0
 47
1.0
 47
0.0
 47
0.0
 47
0.0
 47
0.0
 47
1.0
171
     0
 49
0.0208333333333333
 49
0.0
 49
0.0
 49
0.0
 49
0.0
 49
0.0208333333333333
 49
0.0
 49
0.0
 49
0.0
 49
0.0
 49
1.0
 49
0.0
 49
0.0
 49
0.0
 49
0.0
 49
1.0
175
     0
142
0.0208333333333333
142
0.0
142
0.0
142
0.0
142
0.0
142
0.0208333333333333
142
0.0
142
0.0
142
0.0
142
0.0
142
1.0
142
0.0
142
0.0
142
0.0
142
0.0
142
1.0
179
     0
144
0.0208333333333333
144
0.0
144
0.0
144
0.0
144
0.0
144
0.0208333333333333
144
0.0
144
0.0
144
0.0
144
0.0
144
1.0
144
0.0
144
0.0
144
0.0
144
0.0
144
1.0
147
0.0208333333333333
147
0.0
147
0.0
147
0.0
147
0.0
147
0.0208333333333333
147
0.0
147
0.0
147
0.0
147
0.0
147
1.0
147
0.0
147
0.0
147
0.0
147
0.0
147
1.0
  0
MLEADERSTYLE
  5
774F
102
{ACAD_REACTORS
330
774E
102
}
330
774E
100
AcDbMLeaderStyle
170
     2
171
     1
172
     0
 90
        2
 40
0.0
 41
0.0
173
     1
 91
-1056964608
340
12
 92
       -2
290
     1
 42
0.09
291
     1
 43
0.36
  3
Standard
 44
0.18
300

342
F
174
     1
178
     6
175
     1
176
     0
 93
-1056964608
 45
0.18
292
     0
297
     0
 46
0.18
 94
-1056964608
 47
1.0
 49
1.0
140
1.0
293
     1
141
0.0
294
     1
177
     0
142
1.0
295
     0
296
     0
143
0.125
1001
ACAD_MLEADERVER
1070
     2
  0
MLINESTYLE
  5
1C
102
{ACAD_REACTORS
330
1B
102
}
330
1B
100
AcDbMlineStyle
  2
STANDARD
 70
     0
  3

 62
   256
 51
90.0
 52
90.0
 71
     2
 49
0.5
 62
   256
  6
BYLAYER
 49
-0.5
 62
   256
  6
BYLAYER
  0
ACDBPLACEHOLDER
  5
7706
102
{ACAD_REACTORS
330
7705
102
}
330
7705
  0
SCALE
  5
773D
102
{ACAD_REACTORS
330
773C
102
}
330
773C
100
AcDbScale
 70
     0
300
1:1
140
1.0
141
1.0
290
     1
  0
SCALE
  5
773E
102
{ACAD_REACTORS
330
773C
102
}
330
773C
100
AcDbScale
 70
     0
300
1/128" = 1'-0"
140
0.0078125
141
12.0
290
     0
  0
SCALE
  5
773F
102
{ACAD_REACTORS
330
773C
102
}
330
773C
100
AcDbScale
 70
     0
300
1/64" = 1'-0"
140
0.015625
141
12.0
290
     0
  0
SCALE
  5
7740
102
{ACAD_REACTORS
330
773C
102
}
330
773C
100
AcDbScale
 70
     0
300
1/32" = 1'-0"
140
0.03125
141
12.0
290
     0
  0
SCALE
  5
7741
102
{ACAD_REACTORS
330
773C
102
}
330
773C
100
AcDbScale
 70
     0
300
1/16" = 1'-0"
140
0.0625
141
12.0
290
     0
  0
SCALE
  5
7742
102
{ACAD_REACTORS
330
773C
102
}
330
773C
100
AcDbScale
 70
     0
300
3/32" = 1'-0"
140
0.09375
141
12.0
290
     0
  0
SCALE
  5
7743
102
{ACAD_REACTORS
330
773C
102
}
330
773C
100
AcDbScale
 70
     0
300
1/8" = 1'-0"
140
0.125
141
12.0
290
     0
  0
SCALE
  5
7744
102
{ACAD_REACTORS
330
773C
102
}
330
773C
100
AcDbScale
 70
     0
300
3/16" = 1'-0"
140
0.1875
141
12.0
290
     0
  0
SCALE
  5
7745
102
{ACAD_REACTORS
330
773C
102
}
330
773C
100
AcDbScale
 70
     0
300
1/4" = 1'-0"
140
0.25
141
12.0
290
     0
  0
SCALE
  5
7746
102
{ACAD_REACTORS
330
773C
102
}
330
773C
100
AcDbScale
 70
     0
300
3/8" = 1'-0"
140
0.375
141
12.0
290
     0
  0
SCALE
  5
7747
102
{ACAD_REACTORS
330
773C
102
}
330
773C
100
AcDbScale
 70
     0
300
1/2" = 1'-0"
140
0.5
141
12.0
290
     0
  0
SCALE
  5
7748
102
{ACAD_REACTORS
330
773C
102
}
330
773C
100
AcDbScale
 70
     0
300
3/4" = 1'-0"
140
0.75
141
12.0
290
     0
  0
SCALE
  5
7749
102
{ACAD_REACTORS
330
773C
102
}
330
773C
100
AcDbScale
 70
     0
300
1" = 1'-0"
140
1.0
141
12.0
290
     0
  0
SCALE
  5
774A
102
{ACAD_REACTORS
330
773C
102
}
330
773C
100
AcDbScale
 70
     0
300
1-1/2" = 1'-0"
140
1.5
141
12.0
290
     0
  0
SCALE
  5
774B
102
{ACAD_REACTORS
330
773C
102
}
330
773C
100
AcDbScale
 70
     0
300
3" = 1'-0"
140
3.0
141
12.0
290
     0
  0
SCALE
  5
774C
102
{ACAD_REACTORS
330
773C
102
}
330
773C
100
AcDbScale
 70
     0
300
6" = 1'-0"
140
6.0
141
12.0
290
     0
  0
SCALE
  5
774D
102
{ACAD_REACTORS
330
773C
102
}
330
773C
100
AcDbScale
 70
     0
300
1'-0" = 1'-0"
140
12.0
141
12.0
290
     0
  0
ACDBSECTIONVIEWSTYLE
  5
7751
102
{ACAD_XDICTIONARY
360
77AB
102
}
102
{ACAD_REACTORS
330
7750
102
}
330
7750
100
AcDbModelDocViewStyle
 70
     0
  3
Imperial24
290
     0
100
AcDbSectionViewStyle
 70
     0
 71
     0
 90
       78
 71
     1
340
F
 40
0.24
340
0
340
0
 40
0.24
300
I, O, Q, S, X, Z
 40
0.48
 90
        3
 40
0.18
 90
        1
 71
     2
340
14
 90
       25
340
14
 90
       50
 40
0.24
 40
0.0
 40
0.24
 71
     3
340
F
 40
0.24
 90
        1
 40
0.75
 90
        1
300
%<\AcVar ViewType \f "%tc1">% %<\AcVar ViewSectionStartId>%-%<\AcVar ViewSectionEndId>%\PSCALE %<\AcVar ViewScale \f "%sn">%
 71
     4
300
ANSI31
 40
1.0
 90
        0
290
     0
290
     0
 90
        6
 40
0.0
 40
1.570796326794896
 40
0.2617993877991494
 40
1.308996938995747
 40
-0.2617993877991494
 40
1.832595714594046
  0
TABLESTYLE
  5
773B
102
{ACAD_XDICTIONARY
360
7772
102
}
102
{ACAD_REACTORS
330
773A
102
}
330
773A
100
AcDbTableStyle
  3
Standard
 70
     0
 71
     0
 40
0.06
 41
0.06
280
     0
281
     0
  7
STANDARD
140
0.18
170
     2
 62
     0
 63
     7
283
     0
274
    -2
284
     1
 64
     0
275
    -2
285
     1
 65
     0
276
    -2
286
     1
 66
     0
277
    -2
287
     1
 67
     0
278
    -2
288
     1
 68
     0
279
    -2
289
     1
 69
     0
  7
STANDARD
140
0.25
170
     5
 62
     0
 63
     7
283
     0
274
    -2
284
     1
 64
     0
275
    -2
285
     1
 65
     0
276
    -2
286
     1
 66
     0
277
    -2
287
     1
 67
     0
278
    -2
288
     1
 68
     0
279
    -2
289
     1
 69
     0
  7
STANDARD
140
0.18
170
     5
 62
     0
 63
     7
283
     0
274
    -2
284
     1
 64
     0
275
    -2
285
     1
 65
     0
276
    -2
286
     1
 66
     0
277
    -2
287
     1
 67
     0
278
    -2
288
     1
 68
     0
279
    -2
289
     1
 69
     0
  0
VISUALSTYLE
  5
7726
102
{ACAD_XDICTIONARY
360
7783
102
}
102
{ACAD_REACTORS
330
7720
102
}
330
7720
100
AcDbVisualStyle
  2
2dWireframe
 70
     4
 71
     0
 72
     2
 73
     0
 90
        0
 40
-0.6
 41
-30.0
 62
     5
 63
     7
 74
     1
 91
        4
 64
     7
 65
   257
 75
     1
175
     1
 42
1.0
 92
        0
 66
   257
 43
1.0
 76
     1
 77
     6
 78
     2
 67
     7
 79
     5
170
     0
171
     0
290
     0
174
     0
 93
        1
 44
0.0
173
     0
291
     0
 45
0.0
1001
ACAD
1000
AcDbSavedByObjectVersion
1070
     0
  0
VISUALSTYLE
  5
7725
102
{ACAD_XDICTIONARY
360
7781
102
}
102
{ACAD_REACTORS
330
7720
102
}
330
7720
100
AcDbVisualStyle
  2
Basic
 70
     7
 71
     1
 72
     0
 73
     1
 90
        0
 40
-0.6
 41
-30.0
 62
     5
 63
     7
 74
     0
 91
        4
 64
     7
 65
   257
 75
     1
175
     1
 42
1.0
 92
        8
 66
     7
 43
1.0
 76
     1
 77
     6
 78
     2
 67
     7
 79
     5
170
     0
171
     0
290
     0
174
     0
 93
        1
 44
0.0
173
     0
291
     1
 45
0.0
1001
ACAD
1000
AcDbSavedByObjectVersion
1070
     0
  0
VISUALSTYLE
  5
772C
102
{ACAD_XDICTIONARY
360
778F
102
}
102
{ACAD_REACTORS
330
7720
102
}
330
7720
100
AcDbVisualStyle
  2
Brighten
 70
    12
 71
     2
 72
     2
 73
     0
 90
        0
 40
-0.6
 41
-30.0
 62
     5
 63
     7
 74
     1
 91
        4
 64
     7
 65
   257
 75
     1
175
     1
 42
1.0
 92
        8
 66
     7
 43
1.0
 76
     1
 77
     6
 78
     2
 67
     7
 79
     5
170
     0
171
     0
290
     0
174
     0
 93
        1
 44
50.0
173
     0
291
     1
 45
0.0
1001
ACAD
1000
AcDbSavedByObjectVersion
1070
     0
  0
VISUALSTYLE
  5
7730
102
{ACAD_XDICTIONARY
360
7797
102
}
102
{ACAD_REACTORS
330
7720
102
}
330
7720
100
AcDbVisualStyle
  2
ColorChange
 70
    16
 71
     2
 72
     2
 73
     3
 90
        0
 40
-0.6
 41
-30.0
 62
     5
 63
     8
 74
     1
 91
        4
 64
     7
 65
   257
 75
     1
175
     1
 42
1.0
 92
        8
 66
     8
 43
1.0
 76
     1
 77
     6
 78
     2
 67
     7
 79
     5
170
     0
171
     0
290
     0
174
     0
 93
        1
 44
0.0
173
     0
291
     1
 45
0.0
1001
ACAD
1000
AcDbSavedByObjectVersion
1070
     0
  0
VISUALSTYLE
  5
7729
102
{ACAD_XDICTIONARY
360
7789
102
}
102
{ACAD_REACTORS
330
7720
102
}
330
7720
100
AcDbVisualStyle
  2
Conceptual
 70
     9
 71
     3
 72
     2
 73
     0
 90
        0
 40
-0.6
 41
-30.0
 62
     5
 63
     7
 74
     2
 91
        2
 64
     7
 65
   257
 75
     1
175
     1
 42
179.0
 92
        8
 66
     7
 43
1.0
 76
     1
 77
     6
 78
     2
 67
     7
 79
     3
170
     0
171
     0
290
     0
174
     0
 93
        1
 44
0.0
173
     0
291
     0
 45
0.0
1001
ACAD
1000
AcDbSavedByObjectVersion
1070
     0
  0
VISUALSTYLE
  5
772B
102
{ACAD_XDICTIONARY
360
778D
102
}
102
{ACAD_REACTORS
330
7720
102
}
330
7720
100
AcDbVisualStyle
  2
Dim
 70
    11
 71
     2
 72
     2
 73
     0
 90
        0
 40
-0.6
 41
-30.0
 62
     5
 63
     7
 74
     1
 91
        4
 64
     7
 65
   257
 75
     1
175
     1
 42
1.0
 92
        8
 66
     7
 43
1.0
 76
     1
 77
     6
 78
     2
 67
     7
 79
     5
170
     0
171
     0
290
     0
174
     0
 93
        1
 44
-50.0
173
     0
291
     1
 45
0.0
1001
ACAD
1000
AcDbSavedByObjectVersion
1070
     0
  0
VISUALSTYLE
  5
7738
102
{ACAD_XDICTIONARY
360
77A7
102
}
102
{ACAD_REACTORS
330
7720
102
}
330
7720
100
AcDbVisualStyle
  2
EdgeColorOff
 70
    22
 71
     2
 72
     2
 73
     0
 90
        0
 40
-0.6
 41
-30.0
 62
     5
 63
     7
 74
     1
 91
        4
 64
     7
 65
   257
 75
     1
175
     1
 42
1.0
 92
        8
 66
     7
 43
1.0
 76
     1
 77
     6
 78
     2
 67
     7
 79
     5
170
     0
171
     0
290
     0
174
     0
 93
        1
 44
0.0
173
     0
291
     1
 45
0.0
1001
ACAD
1000
AcDbSavedByObjectVersion
1070
     0
  0
VISUALSTYLE
  5
772F
102
{ACAD_XDICTIONARY
360
7795
102
}
102
{ACAD_REACTORS
330
7720
102
}
330
7720
100
AcDbVisualStyle
  2
Facepattern
 70
    15
 71
     2
 72
     2
 73
     0
 90
        0
 40
-0.6
 41
-30.0
 62
     5
 63
     7
 74
     1
 91
        4
 64
     7
 65
   257
 75
     1
175
     1
 42
1.0
 92
        8
 66
     7
 43
1.0
 76
     1
 77
     6
 78
     2
 67
     7
 79
     5
170
     0
171
     0
290
     0
174
     0
 93
        1
 44
0.0
173
     0
291
     1
 45
0.0
1001
ACAD
1000
AcDbSavedByObjectVersion
1070
     0
  0
VISUALSTYLE
  5
7721
102
{ACAD_XDICTIONARY
360
7779
102
}
102
{ACAD_REACTORS
330
7720
102
}
330
7720
100
AcDbVisualStyle
  2
Flat
 70
     0
 71
     2
 72
     1
 73
     1
 90
        2
 40
-0.6
 41
30.0
 62
     5
 63
     7
 74
     0
 91
        0
 64
     7
 65
   257
 75
     1
175
     1
 42
1.0
 92
        8
 66
     7
 43
1.0
 76
     1
 77
     6
 78
     2
 67
     7
 79
     5
170
     0
171
     0
290
     0
174
     0
 93
       13
 44
0.0
173
     0
291
     1
 45
0.0
1001
ACAD
1000
AcDbSavedByObjectVersion
1070
     0
  0
VISUALSTYLE
  5
7722
102
{ACAD_XDICTIONARY
360
777B
102
}
102
{ACAD_REACTORS
330
7720
102
}
330
7720
100
AcDbVisualStyle
  2
FlatWithEdges
 70
     1
 71
     2
 72
     1
 73
     1
 90
        2
 40
-0.6
 41
30.0
 62
     5
 63
     7
 74
     1
 91
        0
 64
     7
 65
   257
 75
     1
175
     1
 42
1.0
 92
        0
 66
   257
 43
1.0
 76
     1
 77
     6
 78
     2
 67
     7
 79
     5
170
     0
171
     0
290
     0
174
     0
 93
       13
 44
0.0
173
     0
291
     1
 45
0.0
1001
ACAD
1000
AcDbSavedByObjectVersion
1070
     0
  0
VISUALSTYLE
  5
7723
102
{ACAD_XDICTIONARY
360
777D
102
}
102
{ACAD_REACTORS
330
7720
102
}
330
7720
100
AcDbVisualStyle
  2
Gouraud
 70
     2
 71
     2
 72
     2
 73
     1
 90
        2
 40
-0.6
 41
30.0
 62
     5
 63
     7
 74
     0
 91
        0
 64
     7
 65
   257
 75
     1
175
     1
 42
1.0
 92
        0
 66
     7
 43
1.0
 76
     1
 77
     6
 78
     2
 67
     7
 79
     5
170
     0
171
     0
290
     0
174
     0
 93
       13
 44
0.0
173
     0
291
     1
 45
0.0
1001
ACAD
1000
AcDbSavedByObjectVersion
1070
     0
  0
VISUALSTYLE
  5
7724
102
{ACAD_XDICTIONARY
360
777F
102
}
102
{ACAD_REACTORS
330
7720
102
}
330
7720
100
AcDbVisualStyle
  2
GouraudWithEdges
 70
     3
 71
     2
 72
     2
 73
     1
 90
        2
 40
-0.6
 41
30.0
 62
     5
 63
     7
 74
     1
 91
        0
 64
     7
 65
   257
 75
     1
175
     1
 42
1.0
 92
        0
 66
   257
 43
1.0
 76
     1
 77
     6
 78
     2
 67
     7
 79
     5
170
     0
171
     0
290
     0
174
     0
 93
       13
 44
0.0
173
     0
291
     1
 45
0.0
1001
ACAD
1000
AcDbSavedByObjectVersion
1070
     0
  0
VISUALSTYLE
  5
7728
102
{ACAD_XDICTIONARY
360
7787
102
}
102
{ACAD_REACTORS
330
7720
102
}
330
7720
100
AcDbVisualStyle
  2
Hidden
 70
     6
 71
     1
 72
     2
 73
     2
 90
        0
 40
-0.6
 41
-30.0
 62
     5
 63
     7
 74
     2
 91
        2
 64
     7
 65
   257
 75
     2
175
     1
 42
40.0
 92
        0
 66
   257
 43
1.0
 76
     1
 77
     6
 78
     2
 67
     7
 79
     3
170
     0
171
     0
290
     0
174
     0
 93
        1
 44
0.0
173
     0
291
     0
 45
0.0
1001
ACAD
1000
AcDbSavedByObjectVersion
1070
     0
  0
VISUALSTYLE
  5
7736
102
{ACAD_XDICTIONARY
360
77A3
102
}
102
{ACAD_REACTORS
330
7720
102
}
330
7720
100
AcDbVisualStyle
  2
JitterOff
 70
    20
 71
     2
 72
     2
 73
     0
 90
        0
 40
-0.6
 41
-30.0
 62
     5
 63
     7
 74
     1
 91
        4
 64
     7
 65
   257
 75
     1
175
     1
 42
1.0
 92
       10
 66
     7
 43
1.0
 76
     1
 77
     6
 78
     2
 67
     7
 79
     5
170
     0
171
     0
290
     0
174
     0
 93
        1
 44
0.0
173
     0
291
     1
 45
0.0
1001
ACAD
1000
AcDbSavedByObjectVersion
1070
     0
  0
VISUALSTYLE
  5
772E
102
{ACAD_XDICTIONARY
360
7793
102
}
102
{ACAD_REACTORS
330
7720
102
}
330
7720
100
AcDbVisualStyle
  2
Linepattern
 70
    14
 71
     2
 72
     2
 73
     0
 90
        0
 40
-0.6
 41
-30.0
 62
     5
 63
     7
 74
     1
 91
        4
 64
     7
 65
   257
 75
     7
175
     7
 42
1.0
 92
        8
 66
     7
 43
1.0
 76
     1
 77
     6
 78
     2
 67
     7
 79
     5
170
     0
171
     0
290
     0
174
     0
 93
        1
 44
0.0
173
     0
291
     1
 45
0.0
1001
ACAD
1000
AcDbSavedByObjectVersion
1070
     0
  0
VISUALSTYLE
  5
7737
102
{ACAD_XDICTIONARY
360
77A5
102
}
102
{ACAD_REACTORS
330
7720
102
}
330
7720
100
AcDbVisualStyle
  2
OverhangOff
 70
    21
 71
     2
 72
     2
 73
     0
 90
        0
 40
-0.6
 41
-30.0
 62
     5
 63
     7
 74
     1
 91
        4
 64
     7
 65
   257
 75
     1
175
     1
 42
1.0
 92
        9
 66
     7
 43
1.0
 76
     1
 77
     6
 78
     2
 67
     7
 79
     5
170
     0
171
     0
290
     0
174
     0
 93
        1
 44
0.0
173
     0
291
     1
 45
0.0
1001
ACAD
1000
AcDbSavedByObjectVersion
1070
     0
  0
VISUALSTYLE
  5
772A
102
{ACAD_XDICTIONARY
360
778B
102
}
102
{ACAD_REACTORS
330
7720
102
}
330
7720
100
AcDbVisualStyle
  2
Realistic
 70
     8
 71
     2
 72
     3
 73
     0
 90
        2
 40
-0.6
 41
30.0
 62
     5
 63
     7
 74
     0
 91
        0
 64
     7
 65
   257
 75
     1
175
     1
 42
1.0
 92
        8
 66
   257
 43
1.0
 76
     1
 77
     6
 78
     2
 67
     7
 79
     3
170
     0
171
     0
290
     0
174
     0
 93
       13
 44
0.0
173
     0
291
     0
 45
0.0
1001
ACAD
1000
AcDbSavedByObjectVersion
1070
     0
  0
VISUALSTYLE
  5
7735
102
{ACAD_XDICTIONARY
360
77A1
102
}
102
{ACAD_REACTORS
330
7720
102
}
330
7720
100
AcDbVisualStyle
  2
Shaded
 70
    27
 71
     2
 72
     2
 73
     1
 90
        2
 40
-0.6
 41
30.0
 62
     5
 63
     7
 74
     0
 91
        4
 64
     7
 65
   257
 75
     1
175
     1
 42
1.0
 92
        8
 66
   257
 43
1.0
 76
     1
 77
     6
 78
     2
 67
     8
 79
     3
170
     0
171
     0
290
     0
174
     0
 93
        5
 44
0.0
173
     0
291
     0
 45
0.0
1001
ACAD
1000
AcDbSavedByObjectVersion
1070
     0
  0
VISUALSTYLE
  5
7734
102
{ACAD_XDICTIONARY
360
779F
102
}
102
{ACAD_REACTORS
330
7720
102
}
330
7720
100
AcDbVisualStyle
  2
Shaded with edges
 70
    26
 71
     2
 72
     2
 73
     1
 90
        2
 40
-0.6
 41
30.0
 62
     5
 63
     7
 74
     1
 91
       10
 64
     7
 65
   257
 75
     2
175
     1
 42
1.0
 92
        8
 66
   257
 43
1.0
 76
     1
 77
     6
 78
     2
 67
     7
 79
     3
170
     0
171
     0
290
     0
174
     0
 93
        5
 44
0.0
173
     0
291
     0
 45
0.0
1001
ACAD
1000
AcDbSavedByObjectVersion
1070
     0
  0
VISUALSTYLE
  5
7731
102
{ACAD_XDICTIONARY
360
7799
102
}
102
{ACAD_REACTORS
330
7720
102
}
330
7720
100
AcDbVisualStyle
  2
Shades of Gray
 70
    23
 71
     2
 72
     2
 73
     3
 90
        0
 40
-0.6
 41
-30.0
 62
     5
 63
     7
 74
     2
 91
        2
 64
     7
 65
     7
 75
     1
175
     1
 42
40.0
 92
        8
 66
     7
 43
1.0
 76
     1
 77
     6
 78
     2
 67
     7
 79
     3
170
     0
171
     0
290
     0
174
     0
 93
        1
 44
0.0
173
     0
291
     0
 45
0.0
1001
ACAD
1000
AcDbSavedByObjectVersion
1070
     0
  0
VISUALSTYLE
  5
7732
102
{ACAD_XDICTIONARY
360
779B
102
}
102
{ACAD_REACTORS
330
7720
102
}
330
7720
100
AcDbVisualStyle
  2
Sketchy
 70
    24
 71
     1
 72
     2
 73
     2
 90
        0
 40
-0.6
 41
-30.0
 62
     5
 63
     7
 74
     2
 91
        2
 64
     7
 65
     7
 75
     1
175
     1
 42
40.0
 92
       11
 66
     7
 43
1.0
 76
     1
 77
     6
 78
     2
 67
     7
 79
     6
170
     0
171
     0
290
     0
174
     0
 93
        1
 44
0.0
173
     0
291
     0
 45
0.0
1001
ACAD
1000
AcDbSavedByObjectVersion
1070
     0
  0
VISUALSTYLE
  5
772D
102
{ACAD_XDICTIONARY
360
7791
102
}
102
{ACAD_REACTORS
330
7720
102
}
330
7720
100
AcDbVisualStyle
  2
Thicken
 70
    13
 71
     2
 72
     2
 73
     0
 90
        0
 40
-0.6
 41
-30.0
 62
     5
 63
     7
 74
     1
 91
        4
 64
     7
 65
   257
 75
     1
175
     1
 42
1.0
 92
       12
 66
     7
 43
1.0
 76
     1
 77
     6
 78
     2
 67
     7
 79
     5
170
     0
171
     0
290
     0
174
     0
 93
        1
 44
0.0
173
     0
291
     1
 45
0.0
1001
ACAD
1000
AcDbSavedByObjectVersion
1070
     0
  0
VISUALSTYLE
  5
7727
102
{ACAD_XDICTIONARY
360
7785
102
}
102
{ACAD_REACTORS
330
7720
102
}
330
7720
100
AcDbVisualStyle
  2
Wireframe
 70
     5
 71
     0
 72
     2
 73
     0
 90
        0
 40
-0.6
 41
-30.0
 62
     5
 63
     7
 74
     1
 91
        4
 64
     7
 65
   257
 75
     1
175
     1
 42
1.0
 92
        0
 66
   257
 43
1.0
 76
     1
 77
     6
 78
     2
 67
     7
 79
     3
170
     0
171
     0
290
     0
174
     0
 93
        1
 44
0.0
173
     0
291
     0
 45
0.0
1001
ACAD
1000
AcDbSavedByObjectVersion
1070
     0
  0
VISUALSTYLE
  5
7733
102
{ACAD_XDICTIONARY
360
779D
102
}
102
{ACAD_REACTORS
330
7720
102
}
330
7720
100
AcDbVisualStyle
  2
X-Ray
 70
    25
 71
     2
 72
     2
 73
     1
 90
        1
 40
0.5
 41
-30.0
 62
     5
 63
     7
 74
     1
 91
        0
 64
     7
 65
   257
 75
     1
175
     1
 42
1.0
 92
        8
 66
     7
 43
1.0
 76
     1
 77
     6
 78
     2
 67
     7
 79
     3
170
     0
171
     0
290
     0
174
     0
 93
       13
 44
0.0
173
     0
291
     0
 45
0.0
1001
ACAD
1000
AcDbSavedByObjectVersion
1070
     0
  0
DICTIONARYVAR
  5
776C
102
{ACAD_REACTORS
330
7767
102
}
330
7767
100
DictionaryVariables
280
     0
  1
1:1
  0
DICTIONARYVAR
  5
7769
102
{ACAD_REACTORS
330
7767
102
}
330
7767
100
DictionaryVariables
280
     0
  1
STANDARD
  0
DICTIONARYVAR
  5
7768
102
{ACAD_REACTORS
330
7767
102
}
330
7767
100
DictionaryVariables
280
     0
  1
STANDARD
  0
DICTIONARYVAR
  5
776A
102
{ACAD_REACTORS
330
7767
102
}
330
7767
100
DictionaryVariables
280
     0
  1
Imperial24
  0
DICTIONARYVAR
  5
776B
102
{ACAD_REACTORS
330
7767
102
}
330
7767
100
DictionaryVariables
280
     0
  1
Imperial24
  0
DICTIONARYVAR
  5
776F
102
{ACAD_REACTORS
330
7767
102
}
330
7767
100
DictionaryVariables
280
     0
  1
1
  0
DICTIONARYVAR
  5
776E
102
{ACAD_REACTORS
330
7767
102
}
330
7767
100
DictionaryVariables
280
     0
  1
0
  0
DICTIONARYVAR
  5
776D
102
{ACAD_REACTORS
330
7767
102
}
330
7767
100
DictionaryVariables
280
     0
  1
127
  0
DICTIONARYVAR
  5
7770
102
{ACAD_REACTORS
330
7767
102
}
330
7767
100
DictionaryVariables
280
     0
  1
2
  0
DICTIONARY
  5
77AD
330
7753
100
AcDbDictionary
280
     1
281
     1
  3
ACAD_XREC_ROUNDTRIP
360
77AE
  0
DICTIONARY
  5
77AF
330
7754
100
AcDbDictionary
280
     1
281
     1
  3
ACAD_XREC_ROUNDTRIP
360
77B0
  0
DICTIONARY
  5
77B1
330
7755
100
AcDbDictionary
280
     1
281
     1
  3
ACAD_XREC_ROUNDTRIP
360
77B2
  0
DICTIONARY
  5
7711
330
7710
100
AcDbDictionary
280
     1
281
     1
  3
ACAD_XREC_ROUNDTRIP
360
7777
  3
BUMPTILE
360
7713
  3
DIFFUSETILE
360
7712
  3
OPACITYTILE
360
7716
  3
REFLECTIONTILE
360
7715
  3
REFRACTIONTILE
360
7717
  3
SPECULARTILE
360
7714
  0
DICTIONARY
  5
7709
330
7708
100
AcDbDictionary
280
     1
281
     1
  3
ACAD_XREC_ROUNDTRIP
360
7776
  3
BUMPTILE
360
770B
  3
DIFFUSETILE
360
770A
  3
OPACITYTILE
360
770E
  3
REFLECTIONTILE
360
770D
  3
REFRACTIONTILE
360
770F
  3
SPECULARTILE
360
770C
  0
DICTIONARY
  5
7719
330
7718
100
AcDbDictionary
280
     1
281
     1
  3
ACAD_XREC_ROUNDTRIP
360
7778
  3
BUMPTILE
360
771B
  3
DIFFUSETILE
360
771A
  3
OPACITYTILE
360
771E
  3
REFLECTIONTILE
360
771D
  3
REFRACTIONTILE
360
771F
  3
SPECULARTILE
360
771C
  0
DICTIONARY
  5
77AB
330
7751
100
AcDbDictionary
280
     1
281
     1
  3
ACAD_XREC_ROUNDTRIP
360
77AC
  0
DICTIONARY
  5
7772
330
773B
100
AcDbDictionary
280
     1
281
     1
  3
ACAD_ROUNDTRIP_2008_TABLESTYLE_CELLSTYLEMAP
360
7773
  3
ACAD_XREC_ROUNDTRIP
360
77A9
  0
DICTIONARY
  5
7783
330
7726
100
AcDbDictionary
280
     1
281
     1
  3
ACAD_XREC_ROUNDTRIP
360
7784
  0
DICTIONARY
  5
7781
330
7725
100
AcDbDictionary
280
     1
281
     1
  3
ACAD_XREC_ROUNDTRIP
360
7782
  0
DICTIONARY
  5
778F
330
772C
100
AcDbDictionary
280
     1
281
     1
  3
ACAD_XREC_ROUNDTRIP
360
7790
  0
DICTIONARY
  5
7797
330
7730
100
AcDbDictionary
280
     1
281
     1
  3
ACAD_XREC_ROUNDTRIP
360
7798
  0
DICTIONARY
  5
7789
330
7729
100
AcDbDictionary
280
     1
281
     1
  3
ACAD_XREC_ROUNDTRIP
360
778A
  0
DICTIONARY
  5
778D
330
772B
100
AcDbDictionary
280
     1
281
     1
  3
ACAD_XREC_ROUNDTRIP
360
778E
  0
DICTIONARY
  5
77A7
330
7738
100
AcDbDictionary
280
     1
281
     1
  3
ACAD_XREC_ROUNDTRIP
360
77A8
  0
DICTIONARY
  5
7795
330
772F
100
AcDbDictionary
280
     1
281
     1
  3
ACAD_XREC_ROUNDTRIP
360
7796
  0
DICTIONARY
  5
7779
330
7721
100
AcDbDictionary
280
     1
281
     1
  3
ACAD_XREC_ROUNDTRIP
360
777A
  0
DICTIONARY
  5
777B
330
7722
100
AcDbDictionary
280
     1
281
     1
  3
ACAD_XREC_ROUNDTRIP
360
777C
  0
DICTIONARY
  5
777D
330
7723
100
AcDbDictionary
280
     1
281
     1
  3
ACAD_XREC_ROUNDTRIP
360
777E
  0
DICTIONARY
  5
777F
330
7724
100
AcDbDictionary
280
     1
281
     1
  3
ACAD_XREC_ROUNDTRIP
360
7780
  0
DICTIONARY
  5
7787
330
7728
100
AcDbDictionary
280
     1
281
     1
  3
ACAD_XREC_ROUNDTRIP
360
7788
  0
DICTIONARY
  5
77A3
330
7736
100
AcDbDictionary
280
     1
281
     1
  3
ACAD_XREC_ROUNDTRIP
360
77A4
  0
DICTIONARY
  5
7793
330
772E
100
AcDbDictionary
280
     1
281
     1
  3
ACAD_XREC_ROUNDTRIP
360
7794
  0
DICTIONARY
  5
77A5
330
7737
100
AcDbDictionary
280
     1
281
     1
  3
ACAD_XREC_ROUNDTRIP
360
77A6
  0
DICTIONARY
  5
778B
330
772A
100
AcDbDictionary
280
     1
281
     1
  3
ACAD_XREC_ROUNDTRIP
360
778C
  0
DICTIONARY
  5
77A1
330
7735
100
AcDbDictionary
280
     1
281
     1
  3
ACAD_XREC_ROUNDTRIP
360
77A2
  0
DICTIONARY
  5
779F
330
7734
100
AcDbDictionary
280
     1
281
     1
  3
ACAD_XREC_ROUNDTRIP
360
77A0
  0
DICTIONARY
  5
7799
330
7731
100
AcDbDictionary
280
     1
281
     1
  3
ACAD_XREC_ROUNDTRIP
360
779A
  0
DICTIONARY
  5
779B
330
7732
100
AcDbDictionary
280
     1
281
     1
  3
ACAD_XREC_ROUNDTRIP
360
779C
  0
DICTIONARY
  5
7791
330
772D
100
AcDbDictionary
280
     1
281
     1
  3
ACAD_XREC_ROUNDTRIP
360
7792
  0
DICTIONARY
  5
7785
330
7727
100
AcDbDictionary
280
     1
281
     1
  3
ACAD_XREC_ROUNDTRIP
360
7786
  0
DICTIONARY
  5
779D
330
7733
100
AcDbDictionary
280
     1
281
     1
  3
ACAD_XREC_ROUNDTRIP
360
779E
  0
XRECORD
  5
77AE
102
{ACAD_REACTORS
330
77AD
102
}
330
77AD
100
AcDbXrecord
280
     1
102
DISPLAYNAME
  1
Imperial24
102
FLAGS
 90
        0
  0
XRECORD
  5
77B0
102
{ACAD_REACTORS
330
77AF
102
}
330
77AF
100
AcDbXrecord
280
     1
102
SHADEPLOT
 70
     0
102
SHADEPLOTRESLEVEL
 70
     2
102
SHADEPLOTCUSTOMDPI
 70
   300
  0
XRECORD
  5
77B2
102
{ACAD_REACTORS
330
77B1
102
}
330
77B1
100
AcDbXrecord
280
     1
102
SHADEPLOT
 70
     0
102
SHADEPLOTRESLEVEL
 70
     2
102
SHADEPLOTCUSTOMDPI
 70
   300
  0
XRECORD
  5
7777
102
{ACAD_REACTORS
330
7711
102
}
330
7711
100
AcDbXrecord
280
     1
102
MATERIAL
148
0.0
149
0.0
149
0.0
 93
        0
 94
      127
282
     0
 72
     0
 77
     0
171
     0
175
     0
179
     0
273
     0
  0
XRECORD
  5
7713
102
{ACAD_REACTORS
330
7711
102
}
330
7711
100
AcDbXrecord
280
     1
270
     1
271
     1
  0
XRECORD
  5
7712
102
{ACAD_REACTORS
330
7711
102
}
330
7711
100
AcDbXrecord
280
     1
270
     1
271
     1
  0
XRECORD
  5
7716
102
{ACAD_REACTORS
330
7711
102
}
330
7711
100
AcDbXrecord
280
     1
270
     1
271
     1
  0
XRECORD
  5
7715
102
{ACAD_REACTORS
330
7711
102
}
330
7711
100
AcDbXrecord
280
     1
270
     1
271
     1
  0
XRECORD
  5
7717
102
{ACAD_REACTORS
330
7711
102
}
330
7711
100
AcDbXrecord
280
     1
270
     1
271
     1
  0
XRECORD
  5
7714
102
{ACAD_REACTORS
330
7711
102
}
330
7711
100
AcDbXrecord
280
     1
270
     1
271
     1
  0
XRECORD
  5
7776
102
{ACAD_REACTORS
330
7709
102
}
330
7709
100
AcDbXrecord
280
     1
102
MATERIAL
148
0.0
149
0.0
149
0.0
 93
        0
 94
      127
282
     0
 72
     0
 77
     0
171
     0
175
     0
179
     0
273
     0
  0
XRECORD
  5
770B
102
{ACAD_REACTORS
330
7709
102
}
330
7709
100
AcDbXrecord
280
     1
270
     1
271
     1
  0
XRECORD
  5
770A
102
{ACAD_REACTORS
330
7709
102
}
330
7709
100
AcDbXrecord
280
     1
270
     1
271
     1
  0
XRECORD
  5
770E
102
{ACAD_REACTORS
330
7709
102
}
330
7709
100
AcDbXrecord
280
     1
270
     1
271
     1
  0
XRECORD
  5
770D
102
{ACAD_REACTORS
330
7709
102
}
330
7709
100
AcDbXrecord
280
     1
270
     1
271
     1
  0
XRECORD
  5
770F
102
{ACAD_REACTORS
330
7709
102
}
330
7709
100
AcDbXrecord
280
     1
270
     1
271
     1
  0
XRECORD
  5
770C
102
{ACAD_REACTORS
330
7709
102
}
330
7709
100
AcDbXrecord
280
     1
270
     1
271
     1
  0
XRECORD
  5
7778
102
{ACAD_REACTORS
330
7719
102
}
330
7719
100
AcDbXrecord
280
     1
102
MATERIAL
148
0.0
149
0.0
149
0.0
 93
        0
 94
      127
282
     0
 72
     0
 77
     0
171
     0
175
     0
179
     0
273
     0
  0
XRECORD
  5
771B
102
{ACAD_REACTORS
330
7719
102
}
330
7719
100
AcDbXrecord
280
     1
270
     1
271
     1
  0
XRECORD
  5
771A
102
{ACAD_REACTORS
330
7719
102
}
330
7719
100
AcDbXrecord
280
     1
270
     1
271
     1
  0
XRECORD
  5
771E
102
{ACAD_REACTORS
330
7719
102
}
330
7719
100
AcDbXrecord
280
     1
270
     1
271
     1
  0
XRECORD
  5
771D
102
{ACAD_REACTORS
330
7719
102
}
330
7719
100
AcDbXrecord
280
     1
270
     1
271
     1
  0
XRECORD
  5
771F
102
{ACAD_REACTORS
330
7719
102
}
330
7719
100
AcDbXrecord
280
     1
270
     1
271
     1
  0
XRECORD
  5
771C
102
{ACAD_REACTORS
330
7719
102
}
330
7719
100
AcDbXrecord
280
     1
270
     1
271
     1
  0
XRECORD
  5
77AC
102
{ACAD_REACTORS
330
77AB
102
}
330
77AB
100
AcDbXrecord
280
     1
102
DISPLAYNAME
  1
Imperial24
102
FLAGS
 90
        0
  0
CELLSTYLEMAP
  5
7773
102
{ACAD_REACTORS
330
7772
102
}
330
7772
100
AcDbCellStyleMap
 90
        3
300
CELLSTYLE
  1
TABLEFORMAT_BEGIN
 90
        5
170
     1
 91
        0
 92
    32768
 62
   257
 93
        1
300
CONTENTFORMAT
  1
CONTENTFORMAT_BEGIN
 90
        0
 91
        0
 92
      512
 93
        0
300

 40
0.0
140
1.0
 94
        5
 62
     0
340
F
144
0.25
309
CONTENTFORMAT_END
171
     0
 94
        0
309
TABLEFORMAT_END
  1
CELLSTYLE_BEGIN
 90
        1
 91
        1
300
_TITLE
309
CELLSTYLE_END
300
CELLSTYLE
  1
TABLEFORMAT_BEGIN
 90
        5
170
     1
 91
        0
 92
        0
 62
   257
 93
        1
300
CONTENTFORMAT
  1
CONTENTFORMAT_BEGIN
 90
        0
 91
        0
 92
      512
 93
        0
300

 40
0.0
140
1.0
 94
        5
 62
     0
340
F
144
0.18
309
CONTENTFORMAT_END
171
     0
 94
        0
309
TABLEFORMAT_END
  1
CELLSTYLE_BEGIN
 90
        2
 91
        1
300
_HEADER
309
CELLSTYLE_END
300
CELLSTYLE
  1
TABLEFORMAT_BEGIN
 90
        5
170
     1
 91
        0
 92
        0
 62
   257
 93
        1
300
CONTENTFORMAT
  1
CONTENTFORMAT_BEGIN
 90
        0
 91
        0
 92
      512
 93
        0
300

 40
0.0
140
1.0
 94
        2
 62
     0
340
F
144
0.18
309
CONTENTFORMAT_END
171
     0
 94
        0
309
TABLEFORMAT_END
  1
CELLSTYLE_BEGIN
 90
        3
 91
        2
300
_DATA
309
CELLSTYLE_END
  0
XRECORD
  5
77A9
102
{ACAD_REACTORS
330
7772
102
}
330
7772
100
AcDbXrecord
280
     1
102
ACAD_ROUNDTRIP_PRE2007_TABLESTYLE
 90
      512
 91
        0
  1

 92
      512
 93
        0
  2

 94
      512
 95
        0
  3

  0
XRECORD
  5
7784
102
{ACAD_REACTORS
330
7783
102
}
330
7783
100
AcDbXrecord
280
     1
102
RTVSPost2010Prop28
280
     1
102
RTVSPost2010PropOp28
 70
     1
102
RTVSPost2010Prop29
280
     1
102
RTVSPost2010PropOp29
 70
     1
102
RTVSPost2010Prop30
280
     0
102
RTVSPost2010PropOp30
 70
     1
102
RTVSPost2010Prop31
280
     0
102
RTVSPost2010PropOp31
 70
     1
102
RTVSPost2010Prop32
280
     0
102
RTVSPost2010PropOp32
 70
     1
102
RTVSPost2010Prop33
280
     0
102
RTVSPost2010PropOp33
 70
     1
102
RTVSPost2010Prop34
280
     0
102
RTVSPost2010PropOp34
 70
     1
102
RTVSPost2010Prop35
280
     0
102
RTVSPost2010PropOp35
 70
     1
102
RTVSPost2010Prop36
280
     0
102
RTVSPost2010PropOp36
 70
     1
102
RTVSPost2010Prop37
 90
       50
102
RTVSPost2010PropOp37
 70
     1
102
RTVSPost2010Prop38
140
0.0
102
RTVSPost2010PropOp38
 70
     1
102
RTVSPost2010Prop39
140
1.0
102
RTVSPost2010PropOp39
 70
     1
102
RTVSPost2010Prop40
 90
        0
102
RTVSPost2010PropOp40
 70
     1
102
RTVSPost2010Prop41ColorIndex
 90
       18
102
RTVSPost2010Prop41ColorRGB
 90
        0
102
RTVSPost2010PropOp41
 70
     1
102
RTVSPost2010Prop42
 90
       50
102
RTVSPost2010PropOp42
 70
     1
102
RTVSPost2010Prop43
 90
        3
102
RTVSPost2010PropOp43
 70
     1
102
RTVSPost2010Prop44ColorIndex
 90
        5
102
RTVSPost2010Prop44ColorRGB
 90
      255
102
RTVSPost2010PropOp44
 70
     1
102
RTVSPost2010Prop45
280
     0
102
RTVSPost2010PropOp45
 70
     1
102
RTVSPost2010Prop46
 90
       50
102
RTVSPost2010PropOp46
 70
     1
102
RTVSPost2010Prop47
 90
       50
102
RTVSPost2010PropOp47
 70
     1
102
RTVSPost2010Prop48
 90
       50
102
RTVSPost2010PropOp48
 70
     1
102
RTVSPost2010Prop49
280
     0
102
RTVSPost2010PropOp49
 70
     1
102
RTVSPost2010Prop50
 90
       50
102
RTVSPost2010PropOp50
 70
     1
102
RTVSPost2010Prop51ColorIndex
 90
      256
102
RTVSPost2010Prop51ColorRGB
 90
-16777216
102
RTVSPost2010PropOp51
 70
     0
102
RTVSPost2010Prop52
140
1.0
102
RTVSPost2010PropOp52
 70
     0
102
RTVSPost2010Prop53
 90
        2
102
RTVSPost2010PropOp53
 70
     1
102
RTVSPost2010Prop54
  1
strokes_ogs.tif
102
RTVSPost2010PropOp54
 70
     1
102
RTVSPost2010Prop55
280
     0
102
RTVSPost2010PropOp55
 70
     1
102
RTVSPost2010Prop56
140
1.0
102
RTVSPost2010PropOp56
 70
     1
102
RTVSPost2010Prop57
140
1.0
102
RTVSPost2010PropOp57
 70
     1
102
RTVSPropertyOp0
 70
     1
102
RTVSPropertyOp1
 70
     1
102
RTVSPropertyOp2
 70
     1
102
RTVSPropertyOp3
 70
     1
102
RTVSPropertyOp4
 70
     1
102
RTVSPropertyOp5
 70
     1
102
RTVSPropertyOp6
 70
     1
102
RTVSPropertyOp7
 70
     1
102
RTVSPropertyOp8
 70
     1
102
RTVSPropertyOp9
 70
     1
102
RTVSPropertyOp10
 70
     1
102
RTVSPropertyOp11
 70
     1
102
RTVSPropertyOp12
 70
     1
102
RTVSPropertyOp13
 70
     1
102
RTVSPropertyOp14
 70
     1
102
RTVSPropertyOp15
 70
     1
102
RTVSPropertyOp16
 70
     1
102
RTVSPropertyOp17
 70
     1
102
RTVSPropertyOp18
 70
     1
102
RTVSPropertyOp19
 70
     1
102
RTVSPropertyOp20
 70
     1
102
RTVSPropertyOp21
 70
     1
102
RTVSPropertyOp22
 70
     1
102
RTVSPropertyOp23
 70
     1
102
RTVSPropertyOp24
 70
     1
102
RTVSPropertyOp25
 70
     1
102
RTVSPropertyOp26
 70
     1
102
RTVSPropertyOp27
 70
     1
102
RTVSPropertyOp28
 70
     1
102
RTVSPropertyOp29
 70
     1
102
RTVSPropertyOp30
 70
     1
102
RTVSPropertyOp31
 70
     1
102
RTVSPropertyOp32
 70
     1
102
RTVSPropertyOp33
 70
     1
102
RTVSPropertyOp34
 70
     1
102
RTVSPropertyOp35
 70
     1
102
RTVSPropertyOp36
 70
     1
102
RTVSPropertyOp37
 70
     1
102
RTVSPropertyOp38
 70
     1
102
RTVSPropertyOp39
 70
     1
102
RTVSPropertyOp40
 70
     1
102
RTVSPropertyOp41
 70
     1
102
RTVSPropertyOp42
 70
     1
102
RTVSPropertyOp43
 70
     1
102
RTVSPropertyOp44
 70
     1
102
RTVSPropertyOp45
 70
     1
102
RTVSPropertyOp46
 70
     1
102
RTVSPropertyOp47
 70
     1
102
RTVSPropertyOp48
 70
     1
102
RTVSPropertyOp49
 70
     1
102
RTVSPropertyOp50
 70
     1
102
RTVSPropertyOp51
 70
     0
102
RTVSPropertyOp52
 70
     0
102
RTVSPropertyOp53
 70
     1
102
RTVSPropertyOp54
 70
     1
102
RTVSPropertyOp55
 70
     1
102
RTVSPropertyOp56
 70
     1
102
RTVSPropertyOp57
 70
     1
102
RTVSPropertyOp58
 70
     1
102
RTVSPropertyOp59
 70
     1
102
RTVSPropertyOp60
 70
     1
102
RTVSPropertyOp61
 70
     1
102
RTVSPropertyOp62
 70
     1
  0
XRECORD
  5
7782
102
{ACAD_REACTORS
330
7781
102
}
330
7781
100
AcDbXrecord
280
     1
102
RTVSPost2010Prop28
280
     0
102
RTVSPost2010PropOp28
 70
     1
102
RTVSPost2010Prop29
280
     1
102
RTVSPost2010PropOp29
 70
     1
102
RTVSPost2010Prop30
280
     1
102
RTVSPost2010PropOp30
 70
     1
102
RTVSPost2010Prop31
280
     0
102
RTVSPost2010PropOp31
 70
     1
102
RTVSPost2010Prop32
280
     0
102
RTVSPost2010PropOp32
 70
     1
102
RTVSPost2010Prop33
280
     0
102
RTVSPost2010PropOp33
 70
     1
102
RTVSPost2010Prop34
280
     0
102
RTVSPost2010PropOp34
 70
     1
102
RTVSPost2010Prop35
280
     0
102
RTVSPost2010PropOp35
 70
     1
102
RTVSPost2010Prop36
280
     0
102
RTVSPost2010PropOp36
 70
     1
102
RTVSPost2010Prop37
 90
       50
102
RTVSPost2010PropOp37
 70
     1
102
RTVSPost2010Prop38
140
0.0
102
RTVSPost2010PropOp38
 70
     1
102
RTVSPost2010Prop39
140
1.0
102
RTVSPost2010PropOp39
 70
     1
102
RTVSPost2010Prop40
 90
        0
102
RTVSPost2010PropOp40
 70
     1
102
RTVSPost2010Prop41ColorIndex
 90
       18
102
RTVSPost2010Prop41ColorRGB
 90
        0
102
RTVSPost2010PropOp41
 70
     1
102
RTVSPost2010Prop42
 90
       50
102
RTVSPost2010PropOp42
 70
     1
102
RTVSPost2010Prop43
 90
        3
102
RTVSPost2010PropOp43
 70
     1
102
RTVSPost2010Prop44ColorIndex
 90
        5
102
RTVSPost2010Prop44ColorRGB
 90
      255
102
RTVSPost2010PropOp44
 70
     1
102
RTVSPost2010Prop45
280
     0
102
RTVSPost2010PropOp45
 70
     1
102
RTVSPost2010Prop46
 90
       50
102
RTVSPost2010PropOp46
 70
     1
102
RTVSPost2010Prop47
 90
       50
102
RTVSPost2010PropOp47
 70
     1
102
RTVSPost2010Prop48
 90
       50
102
RTVSPost2010PropOp48
 70
     1
102
RTVSPost2010Prop49
280
     0
102
RTVSPost2010PropOp49
 70
     1
102
RTVSPost2010Prop50
 90
       50
102
RTVSPost2010PropOp50
 70
     1
102
RTVSPost2010Prop51ColorIndex
 90
      256
102
RTVSPost2010Prop51ColorRGB
 90
-16777216
102
RTVSPost2010PropOp51
 70
     0
102
RTVSPost2010Prop52
140
1.0
102
RTVSPost2010PropOp52
 70
     0
102
RTVSPost2010Prop53
 90
        2
102
RTVSPost2010PropOp53
 70
     1
102
RTVSPost2010Prop54
  1
strokes_ogs.tif
102
RTVSPost2010PropOp54
 70
     1
102
RTVSPost2010Prop55
280
     0
102
RTVSPost2010PropOp55
 70
     1
102
RTVSPost2010Prop56
140
1.0
102
RTVSPost2010PropOp56
 70
     1
102
RTVSPost2010Prop57
140
1.0
102
RTVSPost2010PropOp57
 70
     1
102
RTVSPropertyOp0
 70
     1
102
RTVSPropertyOp1
 70
     1
102
RTVSPropertyOp2
 70
     1
102
RTVSPropertyOp3
 70
     1
102
RTVSPropertyOp4
 70
     1
102
RTVSPropertyOp5
 70
     1
102
RTVSPropertyOp6
 70
     1
102
RTVSPropertyOp7
 70
     1
102
RTVSPropertyOp8
 70
     1
102
RTVSPropertyOp9
 70
     1
102
RTVSPropertyOp10
 70
     1
102
RTVSPropertyOp11
 70
     1
102
RTVSPropertyOp12
 70
     1
102
RTVSPropertyOp13
 70
     1
102
RTVSPropertyOp14
 70
     1
102
RTVSPropertyOp15
 70
     1
102
RTVSPropertyOp16
 70
     1
102
RTVSPropertyOp17
 70
     1
102
RTVSPropertyOp18
 70
     1
102
RTVSPropertyOp19
 70
     1
102
RTVSPropertyOp20
 70
     1
102
RTVSPropertyOp21
 70
     1
102
RTVSPropertyOp22
 70
     1
102
RTVSPropertyOp23
 70
     1
102
RTVSPropertyOp24
 70
     1
102
RTVSPropertyOp25
 70
     1
102
RTVSPropertyOp26
 70
     1
102
RTVSPropertyOp27
 70
     1
102
RTVSPropertyOp28
 70
     1
102
RTVSPropertyOp29
 70
     1
102
RTVSPropertyOp30
 70
     1
102
RTVSPropertyOp31
 70
     1
102
RTVSPropertyOp32
 70
     1
102
RTVSPropertyOp33
 70
     1
102
RTVSPropertyOp34
 70
     1
102
RTVSPropertyOp35
 70
     1
102
RTVSPropertyOp36
 70
     1
102
RTVSPropertyOp37
 70
     1
102
RTVSPropertyOp38
 70
     1
102
RTVSPropertyOp39
 70
     1
102
RTVSPropertyOp40
 70
     1
102
RTVSPropertyOp41
 70
     1
102
RTVSPropertyOp42
 70
     1
102
RTVSPropertyOp43
 70
     1
102
RTVSPropertyOp44
 70
     1
102
RTVSPropertyOp45
 70
     1
102
RTVSPropertyOp46
 70
     1
102
RTVSPropertyOp47
 70
     1
102
RTVSPropertyOp48
 70
     1
102
RTVSPropertyOp49
 70
     1
102
RTVSPropertyOp50
 70
     1
102
RTVSPropertyOp51
 70
     0
102
RTVSPropertyOp52
 70
     0
102
RTVSPropertyOp53
 70
     1
102
RTVSPropertyOp54
 70
     1
102
RTVSPropertyOp55
 70
     1
102
RTVSPropertyOp56
 70
     1
102
RTVSPropertyOp57
 70
     1
102
RTVSPropertyOp58
 70
     1
102
RTVSPropertyOp59
 70
     1
102
RTVSPropertyOp60
 70
     1
102
RTVSPropertyOp61
 70
     1
102
RTVSPropertyOp62
 70
     1
  0
XRECORD
  5
7790
102
{ACAD_REACTORS
330
778F
102
}
330
778F
100
AcDbXrecord
280
     1
102
RTVSPost2010Prop28
280
     0
102
RTVSPost2010PropOp28
 70
     1
102
RTVSPost2010Prop29
280
     1
102
RTVSPost2010PropOp29
 70
     1
102
RTVSPost2010Prop30
280
     1
102
RTVSPost2010PropOp30
 70
     1
102
RTVSPost2010Prop31
280
     0
102
RTVSPost2010PropOp31
 70
     1
102
RTVSPost2010Prop32
280
     0
102
RTVSPost2010PropOp32
 70
     1
102
RTVSPost2010Prop33
280
     0
102
RTVSPost2010PropOp33
 70
     1
102
RTVSPost2010Prop34
280
     0
102
RTVSPost2010PropOp34
 70
     1
102
RTVSPost2010Prop35
280
     0
102
RTVSPost2010PropOp35
 70
     1
102
RTVSPost2010Prop36
280
     0
102
RTVSPost2010PropOp36
 70
     1
102
RTVSPost2010Prop37
 90
       50
102
RTVSPost2010PropOp37
 70
     1
102
RTVSPost2010Prop38
140
0.0
102
RTVSPost2010PropOp38
 70
     1
102
RTVSPost2010Prop39
140
1.0
102
RTVSPost2010PropOp39
 70
     1
102
RTVSPost2010Prop40
 90
        0
102
RTVSPost2010PropOp40
 70
     1
102
RTVSPost2010Prop41ColorIndex
 90
       18
102
RTVSPost2010Prop41ColorRGB
 90
        0
102
RTVSPost2010PropOp41
 70
     1
102
RTVSPost2010Prop42
 90
       50
102
RTVSPost2010PropOp42
 70
     1
102
RTVSPost2010Prop43
 90
        3
102
RTVSPost2010PropOp43
 70
     1
102
RTVSPost2010Prop44ColorIndex
 90
        5
102
RTVSPost2010Prop44ColorRGB
 90
      255
102
RTVSPost2010PropOp44
 70
     1
102
RTVSPost2010Prop45
280
     0
102
RTVSPost2010PropOp45
 70
     1
102
RTVSPost2010Prop46
 90
       50
102
RTVSPost2010PropOp46
 70
     1
102
RTVSPost2010Prop47
 90
       50
102
RTVSPost2010PropOp47
 70
     1
102
RTVSPost2010Prop48
 90
       50
102
RTVSPost2010PropOp48
 70
     1
102
RTVSPost2010Prop49
280
     0
102
RTVSPost2010PropOp49
 70
     1
102
RTVSPost2010Prop50
 90
       50
102
RTVSPost2010PropOp50
 70
     1
102
RTVSPost2010Prop51ColorIndex
 90
      256
102
RTVSPost2010Prop51ColorRGB
 90
-16777216
102
RTVSPost2010PropOp51
 70
     0
102
RTVSPost2010Prop52
140
1.0
102
RTVSPost2010PropOp52
 70
     0
102
RTVSPost2010Prop53
 90
        2
102
RTVSPost2010PropOp53
 70
     1
102
RTVSPost2010Prop54
  1
strokes_ogs.tif
102
RTVSPost2010PropOp54
 70
     1
102
RTVSPost2010Prop55
280
     0
102
RTVSPost2010PropOp55
 70
     1
102
RTVSPost2010Prop56
140
1.0
102
RTVSPost2010PropOp56
 70
     1
102
RTVSPost2010Prop57
140
1.0
102
RTVSPost2010PropOp57
 70
     1
102
RTVSPropertyOp0
 70
     1
102
RTVSPropertyOp1
 70
     1
102
RTVSPropertyOp2
 70
     1
102
RTVSPropertyOp3
 70
     1
102
RTVSPropertyOp4
 70
     1
102
RTVSPropertyOp5
 70
     1
102
RTVSPropertyOp6
 70
     1
102
RTVSPropertyOp7
 70
     1
102
RTVSPropertyOp8
 70
     1
102
RTVSPropertyOp9
 70
     1
102
RTVSPropertyOp10
 70
     1
102
RTVSPropertyOp11
 70
     1
102
RTVSPropertyOp12
 70
     1
102
RTVSPropertyOp13
 70
     1
102
RTVSPropertyOp14
 70
     1
102
RTVSPropertyOp15
 70
     1
102
RTVSPropertyOp16
 70
     1
102
RTVSPropertyOp17
 70
     1
102
RTVSPropertyOp18
 70
     1
102
RTVSPropertyOp19
 70
     1
102
RTVSPropertyOp20
 70
     1
102
RTVSPropertyOp21
 70
     1
102
RTVSPropertyOp22
 70
     1
102
RTVSPropertyOp23
 70
     1
102
RTVSPropertyOp24
 70
     1
102
RTVSPropertyOp25
 70
     1
102
RTVSPropertyOp26
 70
     1
102
RTVSPropertyOp27
 70
     1
102
RTVSPropertyOp28
 70
     1
102
RTVSPropertyOp29
 70
     1
102
RTVSPropertyOp30
 70
     1
102
RTVSPropertyOp31
 70
     1
102
RTVSPropertyOp32
 70
     1
102
RTVSPropertyOp33
 70
     1
102
RTVSPropertyOp34
 70
     1
102
RTVSPropertyOp35
 70
     1
102
RTVSPropertyOp36
 70
     1
102
RTVSPropertyOp37
 70
     1
102
RTVSPropertyOp38
 70
     1
102
RTVSPropertyOp39
 70
     1
102
RTVSPropertyOp40
 70
     1
102
RTVSPropertyOp41
 70
     1
102
RTVSPropertyOp42
 70
     1
102
RTVSPropertyOp43
 70
     1
102
RTVSPropertyOp44
 70
     1
102
RTVSPropertyOp45
 70
     1
102
RTVSPropertyOp46
 70
     1
102
RTVSPropertyOp47
 70
     1
102
RTVSPropertyOp48
 70
     1
102
RTVSPropertyOp49
 70
     1
102
RTVSPropertyOp50
 70
     1
102
RTVSPropertyOp51
 70
     0
102
RTVSPropertyOp52
 70
     0
102
RTVSPropertyOp53
 70
     1
102
RTVSPropertyOp54
 70
     1
102
RTVSPropertyOp55
 70
     1
102
RTVSPropertyOp56
 70
     1
102
RTVSPropertyOp57
 70
     1
102
RTVSPropertyOp58
 70
     1
102
RTVSPropertyOp59
 70
     1
102
RTVSPropertyOp60
 70
     1
102
RTVSPropertyOp61
 70
     1
102
RTVSPropertyOp62
 70
     1
  0
XRECORD
  5
7798
102
{ACAD_REACTORS
330
7797
102
}
330
7797
100
AcDbXrecord
280
     1
102
RTVSPost2010Prop28
280
     0
102
RTVSPost2010PropOp28
 70
     1
102
RTVSPost2010Prop29
280
     1
102
RTVSPost2010PropOp29
 70
     1
102
RTVSPost2010Prop30
280
     1
102
RTVSPost2010PropOp30
 70
     1
102
RTVSPost2010Prop31
280
     0
102
RTVSPost2010PropOp31
 70
     1
102
RTVSPost2010Prop32
280
     0
102
RTVSPost2010PropOp32
 70
     1
102
RTVSPost2010Prop33
280
     0
102
RTVSPost2010PropOp33
 70
     1
102
RTVSPost2010Prop34
280
     0
102
RTVSPost2010PropOp34
 70
     1
102
RTVSPost2010Prop35
280
     0
102
RTVSPost2010PropOp35
 70
     1
102
RTVSPost2010Prop36
280
     0
102
RTVSPost2010PropOp36
 70
     1
102
RTVSPost2010Prop37
 90
       50
102
RTVSPost2010PropOp37
 70
     1
102
RTVSPost2010Prop38
140
0.0
102
RTVSPost2010PropOp38
 70
     1
102
RTVSPost2010Prop39
140
1.0
102
RTVSPost2010PropOp39
 70
     1
102
RTVSPost2010Prop40
 90
        0
102
RTVSPost2010PropOp40
 70
     1
102
RTVSPost2010Prop41ColorIndex
 90
       18
102
RTVSPost2010Prop41ColorRGB
 90
        0
102
RTVSPost2010PropOp41
 70
     1
102
RTVSPost2010Prop42
 90
       50
102
RTVSPost2010PropOp42
 70
     1
102
RTVSPost2010Prop43
 90
        3
102
RTVSPost2010PropOp43
 70
     1
102
RTVSPost2010Prop44ColorIndex
 90
        5
102
RTVSPost2010Prop44ColorRGB
 90
      255
102
RTVSPost2010PropOp44
 70
     1
102
RTVSPost2010Prop45
280
     0
102
RTVSPost2010PropOp45
 70
     1
102
RTVSPost2010Prop46
 90
       50
102
RTVSPost2010PropOp46
 70
     1
102
RTVSPost2010Prop47
 90
       50
102
RTVSPost2010PropOp47
 70
     1
102
RTVSPost2010Prop48
 90
       50
102
RTVSPost2010PropOp48
 70
     1
102
RTVSPost2010Prop49
280
     0
102
RTVSPost2010PropOp49
 70
     1
102
RTVSPost2010Prop50
 90
       50
102
RTVSPost2010PropOp50
 70
     1
102
RTVSPost2010Prop51ColorIndex
 90
      256
102
RTVSPost2010Prop51ColorRGB
 90
-16777216
102
RTVSPost2010PropOp51
 70
     0
102
RTVSPost2010Prop52
140
1.0
102
RTVSPost2010PropOp52
 70
     0
102
RTVSPost2010Prop53
 90
        2
102
RTVSPost2010PropOp53
 70
     1
102
RTVSPost2010Prop54
  1
strokes_ogs.tif
102
RTVSPost2010PropOp54
 70
     1
102
RTVSPost2010Prop55
280
     0
102
RTVSPost2010PropOp55
 70
     1
102
RTVSPost2010Prop56
140
1.0
102
RTVSPost2010PropOp56
 70
     1
102
RTVSPost2010Prop57
140
1.0
102
RTVSPost2010PropOp57
 70
     1
102
RTVSPropertyOp0
 70
     1
102
RTVSPropertyOp1
 70
     1
102
RTVSPropertyOp2
 70
     1
102
RTVSPropertyOp3
 70
     1
102
RTVSPropertyOp4
 70
     1
102
RTVSPropertyOp5
 70
     1
102
RTVSPropertyOp6
 70
     1
102
RTVSPropertyOp7
 70
     1
102
RTVSPropertyOp8
 70
     1
102
RTVSPropertyOp9
 70
     1
102
RTVSPropertyOp10
 70
     1
102
RTVSPropertyOp11
 70
     1
102
RTVSPropertyOp12
 70
     1
102
RTVSPropertyOp13
 70
     1
102
RTVSPropertyOp14
 70
     1
102
RTVSPropertyOp15
 70
     1
102
RTVSPropertyOp16
 70
     1
102
RTVSPropertyOp17
 70
     1
102
RTVSPropertyOp18
 70
     1
102
RTVSPropertyOp19
 70
     1
102
RTVSPropertyOp20
 70
     1
102
RTVSPropertyOp21
 70
     1
102
RTVSPropertyOp22
 70
     1
102
RTVSPropertyOp23
 70
     1
102
RTVSPropertyOp24
 70
     1
102
RTVSPropertyOp25
 70
     1
102
RTVSPropertyOp26
 70
     1
102
RTVSPropertyOp27
 70
     1
102
RTVSPropertyOp28
 70
     1
102
RTVSPropertyOp29
 70
     1
102
RTVSPropertyOp30
 70
     1
102
RTVSPropertyOp31
 70
     1
102
RTVSPropertyOp32
 70
     1
102
RTVSPropertyOp33
 70
     1
102
RTVSPropertyOp34
 70
     1
102
RTVSPropertyOp35
 70
     1
102
RTVSPropertyOp36
 70
     1
102
RTVSPropertyOp37
 70
     1
102
RTVSPropertyOp38
 70
     1
102
RTVSPropertyOp39
 70
     1
102
RTVSPropertyOp40
 70
     1
102
RTVSPropertyOp41
 70
     1
102
RTVSPropertyOp42
 70
     1
102
RTVSPropertyOp43
 70
     1
102
RTVSPropertyOp44
 70
     1
102
RTVSPropertyOp45
 70
     1
102
RTVSPropertyOp46
 70
     1
102
RTVSPropertyOp47
 70
     1
102
RTVSPropertyOp48
 70
     1
102
RTVSPropertyOp49
 70
     1
102
RTVSPropertyOp50
 70
     1
102
RTVSPropertyOp51
 70
     0
102
RTVSPropertyOp52
 70
     0
102
RTVSPropertyOp53
 70
     1
102
RTVSPropertyOp54
 70
     1
102
RTVSPropertyOp55
 70
     1
102
RTVSPropertyOp56
 70
     1
102
RTVSPropertyOp57
 70
     1
102
RTVSPropertyOp58
 70
     1
102
RTVSPropertyOp59
 70
     1
102
RTVSPropertyOp60
 70
     1
102
RTVSPropertyOp61
 70
     1
102
RTVSPropertyOp62
 70
     1
  0
XRECORD
  5
778A
102
{ACAD_REACTORS
330
7789
102
}
330
7789
100
AcDbXrecord
280
     1
102
RTVSPost2010Prop28
280
     0
102
RTVSPost2010PropOp28
 70
     1
102
RTVSPost2010Prop29
280
     1
102
RTVSPost2010PropOp29
 70
     1
102
RTVSPost2010Prop30
280
     1
102
RTVSPost2010PropOp30
 70
     1
102
RTVSPost2010Prop31
280
     0
102
RTVSPost2010PropOp31
 70
     1
102
RTVSPost2010Prop32
280
     0
102
RTVSPost2010PropOp32
 70
     1
102
RTVSPost2010Prop33
280
     0
102
RTVSPost2010PropOp33
 70
     1
102
RTVSPost2010Prop34
280
     0
102
RTVSPost2010PropOp34
 70
     1
102
RTVSPost2010Prop35
280
     0
102
RTVSPost2010PropOp35
 70
     1
102
RTVSPost2010Prop36
280
     0
102
RTVSPost2010PropOp36
 70
     1
102
RTVSPost2010Prop37
 90
       50
102
RTVSPost2010PropOp37
 70
     1
102
RTVSPost2010Prop38
140
0.0
102
RTVSPost2010PropOp38
 70
     1
102
RTVSPost2010Prop39
140
1.0
102
RTVSPost2010PropOp39
 70
     1
102
RTVSPost2010Prop40
 90
        0
102
RTVSPost2010PropOp40
 70
     1
102
RTVSPost2010Prop41ColorIndex
 90
       18
102
RTVSPost2010Prop41ColorRGB
 90
        0
102
RTVSPost2010PropOp41
 70
     1
102
RTVSPost2010Prop42
 90
       50
102
RTVSPost2010PropOp42
 70
     1
102
RTVSPost2010Prop43
 90
        3
102
RTVSPost2010PropOp43
 70
     1
102
RTVSPost2010Prop44ColorIndex
 90
        5
102
RTVSPost2010Prop44ColorRGB
 90
      255
102
RTVSPost2010PropOp44
 70
     1
102
RTVSPost2010Prop45
280
     0
102
RTVSPost2010PropOp45
 70
     1
102
RTVSPost2010Prop46
 90
       50
102
RTVSPost2010PropOp46
 70
     1
102
RTVSPost2010Prop47
 90
       50
102
RTVSPost2010PropOp47
 70
     1
102
RTVSPost2010Prop48
 90
       50
102
RTVSPost2010PropOp48
 70
     1
102
RTVSPost2010Prop49
280
     0
102
RTVSPost2010PropOp49
 70
     1
102
RTVSPost2010Prop50
 90
       50
102
RTVSPost2010PropOp50
 70
     1
102
RTVSPost2010Prop51ColorIndex
 90
      256
102
RTVSPost2010Prop51ColorRGB
 90
-16777216
102
RTVSPost2010PropOp51
 70
     0
102
RTVSPost2010Prop52
140
1.0
102
RTVSPost2010PropOp52
 70
     0
102
RTVSPost2010Prop53
 90
        2
102
RTVSPost2010PropOp53
 70
     1
102
RTVSPost2010Prop54
  1
strokes_ogs.tif
102
RTVSPost2010PropOp54
 70
     1
102
RTVSPost2010Prop55
280
     0
102
RTVSPost2010PropOp55
 70
     1
102
RTVSPost2010Prop56
140
1.0
102
RTVSPost2010PropOp56
 70
     1
102
RTVSPost2010Prop57
140
1.0
102
RTVSPost2010PropOp57
 70
     1
102
RTVSPropertyOp0
 70
     1
102
RTVSPropertyOp1
 70
     1
102
RTVSPropertyOp2
 70
     1
102
RTVSPropertyOp3
 70
     1
102
RTVSPropertyOp4
 70
     1
102
RTVSPropertyOp5
 70
     1
102
RTVSPropertyOp6
 70
     1
102
RTVSPropertyOp7
 70
     1
102
RTVSPropertyOp8
 70
     1
102
RTVSPropertyOp9
 70
     1
102
RTVSPropertyOp10
 70
     1
102
RTVSPropertyOp11
 70
     1
102
RTVSPropertyOp12
 70
     1
102
RTVSPropertyOp13
 70
     1
102
RTVSPropertyOp14
 70
     1
102
RTVSPropertyOp15
 70
     1
102
RTVSPropertyOp16
 70
     1
102
RTVSPropertyOp17
 70
     1
102
RTVSPropertyOp18
 70
     1
102
RTVSPropertyOp19
 70
     1
102
RTVSPropertyOp20
 70
     1
102
RTVSPropertyOp21
 70
     1
102
RTVSPropertyOp22
 70
     1
102
RTVSPropertyOp23
 70
     1
102
RTVSPropertyOp24
 70
     1
102
RTVSPropertyOp25
 70
     1
102
RTVSPropertyOp26
 70
     1
102
RTVSPropertyOp27
 70
     1
102
RTVSPropertyOp28
 70
     1
102
RTVSPropertyOp29
 70
     1
102
RTVSPropertyOp30
 70
     1
102
RTVSPropertyOp31
 70
     1
102
RTVSPropertyOp32
 70
     1
102
RTVSPropertyOp33
 70
     1
102
RTVSPropertyOp34
 70
     1
102
RTVSPropertyOp35
 70
     1
102
RTVSPropertyOp36
 70
     1
102
RTVSPropertyOp37
 70
     1
102
RTVSPropertyOp38
 70
     1
102
RTVSPropertyOp39
 70
     1
102
RTVSPropertyOp40
 70
     1
102
RTVSPropertyOp41
 70
     1
102
RTVSPropertyOp42
 70
     1
102
RTVSPropertyOp43
 70
     1
102
RTVSPropertyOp44
 70
     1
102
RTVSPropertyOp45
 70
     1
102
RTVSPropertyOp46
 70
     1
102
RTVSPropertyOp47
 70
     1
102
RTVSPropertyOp48
 70
     1
102
RTVSPropertyOp49
 70
     1
102
RTVSPropertyOp50
 70
     1
102
RTVSPropertyOp51
 70
     0
102
RTVSPropertyOp52
 70
     0
102
RTVSPropertyOp53
 70
     1
102
RTVSPropertyOp54
 70
     1
102
RTVSPropertyOp55
 70
     1
102
RTVSPropertyOp56
 70
     1
102
RTVSPropertyOp57
 70
     1
102
RTVSPropertyOp58
 70
     1
102
RTVSPropertyOp59
 70
     1
102
RTVSPropertyOp60
 70
     1
102
RTVSPropertyOp61
 70
     1
102
RTVSPropertyOp62
 70
     1
  0
XRECORD
  5
778E
102
{ACAD_REACTORS
330
778D
102
}
330
778D
100
AcDbXrecord
280
     1
102
RTVSPost2010Prop28
280
     0
102
RTVSPost2010PropOp28
 70
     1
102
RTVSPost2010Prop29
280
     1
102
RTVSPost2010PropOp29
 70
     1
102
RTVSPost2010Prop30
280
     1
102
RTVSPost2010PropOp30
 70
     1
102
RTVSPost2010Prop31
280
     0
102
RTVSPost2010PropOp31
 70
     1
102
RTVSPost2010Prop32
280
     0
102
RTVSPost2010PropOp32
 70
     1
102
RTVSPost2010Prop33
280
     0
102
RTVSPost2010PropOp33
 70
     1
102
RTVSPost2010Prop34
280
     0
102
RTVSPost2010PropOp34
 70
     1
102
RTVSPost2010Prop35
280
     0
102
RTVSPost2010PropOp35
 70
     1
102
RTVSPost2010Prop36
280
     0
102
RTVSPost2010PropOp36
 70
     1
102
RTVSPost2010Prop37
 90
       50
102
RTVSPost2010PropOp37
 70
     1
102
RTVSPost2010Prop38
140
0.0
102
RTVSPost2010PropOp38
 70
     1
102
RTVSPost2010Prop39
140
1.0
102
RTVSPost2010PropOp39
 70
     1
102
RTVSPost2010Prop40
 90
        0
102
RTVSPost2010PropOp40
 70
     1
102
RTVSPost2010Prop41ColorIndex
 90
       18
102
RTVSPost2010Prop41ColorRGB
 90
        0
102
RTVSPost2010PropOp41
 70
     1
102
RTVSPost2010Prop42
 90
       50
102
RTVSPost2010PropOp42
 70
     1
102
RTVSPost2010Prop43
 90
        3
102
RTVSPost2010PropOp43
 70
     1
102
RTVSPost2010Prop44ColorIndex
 90
        5
102
RTVSPost2010Prop44ColorRGB
 90
      255
102
RTVSPost2010PropOp44
 70
     1
102
RTVSPost2010Prop45
280
     0
102
RTVSPost2010PropOp45
 70
     1
102
RTVSPost2010Prop46
 90
       50
102
RTVSPost2010PropOp46
 70
     1
102
RTVSPost2010Prop47
 90
       50
102
RTVSPost2010PropOp47
 70
     1
102
RTVSPost2010Prop48
 90
       50
102
RTVSPost2010PropOp48
 70
     1
102
RTVSPost2010Prop49
280
     0
102
RTVSPost2010PropOp49
 70
     1
102
RTVSPost2010Prop50
 90
       50
102
RTVSPost2010PropOp50
 70
     1
102
RTVSPost2010Prop51ColorIndex
 90
      256
102
RTVSPost2010Prop51ColorRGB
 90
-16777216
102
RTVSPost2010PropOp51
 70
     0
102
RTVSPost2010Prop52
140
1.0
102
RTVSPost2010PropOp52
 70
     0
102
RTVSPost2010Prop53
 90
        2
102
RTVSPost2010PropOp53
 70
     1
102
RTVSPost2010Prop54
  1
strokes_ogs.tif
102
RTVSPost2010PropOp54
 70
     1
102
RTVSPost2010Prop55
280
     0
102
RTVSPost2010PropOp55
 70
     1
102
RTVSPost2010Prop56
140
1.0
102
RTVSPost2010PropOp56
 70
     1
102
RTVSPost2010Prop57
140
1.0
102
RTVSPost2010PropOp57
 70
     1
102
RTVSPropertyOp0
 70
     1
102
RTVSPropertyOp1
 70
     1
102
RTVSPropertyOp2
 70
     1
102
RTVSPropertyOp3
 70
     1
102
RTVSPropertyOp4
 70
     1
102
RTVSPropertyOp5
 70
     1
102
RTVSPropertyOp6
 70
     1
102
RTVSPropertyOp7
 70
     1
102
RTVSPropertyOp8
 70
     1
102
RTVSPropertyOp9
 70
     1
102
RTVSPropertyOp10
 70
     1
102
RTVSPropertyOp11
 70
     1
102
RTVSPropertyOp12
 70
     1
102
RTVSPropertyOp13
 70
     1
102
RTVSPropertyOp14
 70
     1
102
RTVSPropertyOp15
 70
     1
102
RTVSPropertyOp16
 70
     1
102
RTVSPropertyOp17
 70
     1
102
RTVSPropertyOp18
 70
     1
102
RTVSPropertyOp19
 70
     1
102
RTVSPropertyOp20
 70
     1
102
RTVSPropertyOp21
 70
     1
102
RTVSPropertyOp22
 70
     1
102
RTVSPropertyOp23
 70
     1
102
RTVSPropertyOp24
 70
     1
102
RTVSPropertyOp25
 70
     1
102
RTVSPropertyOp26
 70
     1
102
RTVSPropertyOp27
 70
     1
102
RTVSPropertyOp28
 70
     1
102
RTVSPropertyOp29
 70
     1
102
RTVSPropertyOp30
 70
     1
102
RTVSPropertyOp31
 70
     1
102
RTVSPropertyOp32
 70
     1
102
RTVSPropertyOp33
 70
     1
102
RTVSPropertyOp34
 70
     1
102
RTVSPropertyOp35
 70
     1
102
RTVSPropertyOp36
 70
     1
102
RTVSPropertyOp37
 70
     1
102
RTVSPropertyOp38
 70
     1
102
RTVSPropertyOp39
 70
     1
102
RTVSPropertyOp40
 70
     1
102
RTVSPropertyOp41
 70
     1
102
RTVSPropertyOp42
 70
     1
102
RTVSPropertyOp43
 70
     1
102
RTVSPropertyOp44
 70
     1
102
RTVSPropertyOp45
 70
     1
102
RTVSPropertyOp46
 70
     1
102
RTVSPropertyOp47
 70
     1
102
RTVSPropertyOp48
 70
     1
102
RTVSPropertyOp49
 70
     1
102
RTVSPropertyOp50
 70
     1
102
RTVSPropertyOp51
 70
     0
102
RTVSPropertyOp52
 70
     0
102
RTVSPropertyOp53
 70
     1
102
RTVSPropertyOp54
 70
     1
102
RTVSPropertyOp55
 70
     1
102
RTVSPropertyOp56
 70
     1
102
RTVSPropertyOp57
 70
     1
102
RTVSPropertyOp58
 70
     1
102
RTVSPropertyOp59
 70
     1
102
RTVSPropertyOp60
 70
     1
102
RTVSPropertyOp61
 70
     1
102
RTVSPropertyOp62
 70
     1
  0
XRECORD
  5
77A8
102
{ACAD_REACTORS
330
77A7
102
}
330
77A7
100
AcDbXrecord
280
     1
102
RTVSPost2010Prop28
280
     0
102
RTVSPost2010PropOp28
 70
     1
102
RTVSPost2010Prop29
280
     1
102
RTVSPost2010PropOp29
 70
     1
102
RTVSPost2010Prop30
280
     1
102
RTVSPost2010PropOp30
 70
     1
102
RTVSPost2010Prop31
280
     0
102
RTVSPost2010PropOp31
 70
     1
102
RTVSPost2010Prop32
280
     0
102
RTVSPost2010PropOp32
 70
     1
102
RTVSPost2010Prop33
280
     0
102
RTVSPost2010PropOp33
 70
     1
102
RTVSPost2010Prop34
280
     0
102
RTVSPost2010PropOp34
 70
     1
102
RTVSPost2010Prop35
280
     0
102
RTVSPost2010PropOp35
 70
     1
102
RTVSPost2010Prop36
280
     0
102
RTVSPost2010PropOp36
 70
     1
102
RTVSPost2010Prop37
 90
       50
102
RTVSPost2010PropOp37
 70
     0
102
RTVSPost2010Prop38
140
0.0
102
RTVSPost2010PropOp38
 70
     0
102
RTVSPost2010Prop39
140
1.0
102
RTVSPost2010PropOp39
 70
     0
102
RTVSPost2010Prop40
 90
        0
102
RTVSPost2010PropOp40
 70
     0
102
RTVSPost2010Prop41ColorIndex
 90
       18
102
RTVSPost2010Prop41ColorRGB
 90
        0
102
RTVSPost2010PropOp41
 70
     0
102
RTVSPost2010Prop42
 90
       50
102
RTVSPost2010PropOp42
 70
     0
102
RTVSPost2010Prop43
 90
        3
102
RTVSPost2010PropOp43
 70
     0
102
RTVSPost2010Prop44ColorIndex
 90
        5
102
RTVSPost2010Prop44ColorRGB
 90
      255
102
RTVSPost2010PropOp44
 70
     0
102
RTVSPost2010Prop45
280
     0
102
RTVSPost2010PropOp45
 70
     1
102
RTVSPost2010Prop46
 90
       50
102
RTVSPost2010PropOp46
 70
     0
102
RTVSPost2010Prop47
 90
       50
102
RTVSPost2010PropOp47
 70
     0
102
RTVSPost2010Prop48
 90
       50
102
RTVSPost2010PropOp48
 70
     0
102
RTVSPost2010Prop49
280
     0
102
RTVSPost2010PropOp49
 70
     1
102
RTVSPost2010Prop50
 90
       50
102
RTVSPost2010PropOp50
 70
     0
102
RTVSPost2010Prop51ColorIndex
 90
      256
102
RTVSPost2010Prop51ColorRGB
 90
-16777216
102
RTVSPost2010PropOp51
 70
     0
102
RTVSPost2010Prop52
140
1.0
102
RTVSPost2010PropOp52
 70
     0
102
RTVSPost2010Prop53
 90
        2
102
RTVSPost2010PropOp53
 70
     0
102
RTVSPost2010Prop54
  1
strokes_ogs.tif
102
RTVSPost2010PropOp54
 70
     0
102
RTVSPost2010Prop55
280
     0
102
RTVSPost2010PropOp55
 70
     1
102
RTVSPost2010Prop56
140
1.0
102
RTVSPost2010PropOp56
 70
     0
102
RTVSPost2010Prop57
140
1.0
102
RTVSPost2010PropOp57
 70
     0
102
RTVSPropertyOp0
 70
     0
102
RTVSPropertyOp1
 70
     0
102
RTVSPropertyOp2
 70
     0
102
RTVSPropertyOp3
 70
     0
102
RTVSPropertyOp4
 70
     0
102
RTVSPropertyOp5
 70
     0
102
RTVSPropertyOp6
 70
     0
102
RTVSPropertyOp7
 70
     0
102
RTVSPropertyOp8
 70
     0
102
RTVSPropertyOp9
 70
     0
102
RTVSPropertyOp10
 70
     0
102
RTVSPropertyOp11
 70
     0
102
RTVSPropertyOp12
 70
     0
102
RTVSPropertyOp13
 70
     0
102
RTVSPropertyOp14
 70
     2
102
RTVSPropertyOp15
 70
     0
102
RTVSPropertyOp16
 70
     0
102
RTVSPropertyOp17
 70
     0
102
RTVSPropertyOp18
 70
     0
102
RTVSPropertyOp19
 70
     0
102
RTVSPropertyOp20
 70
     0
102
RTVSPropertyOp21
 70
     0
102
RTVSPropertyOp22
 70
     0
102
RTVSPropertyOp23
 70
     0
102
RTVSPropertyOp24
 70
     0
102
RTVSPropertyOp25
 70
     0
102
RTVSPropertyOp26
 70
     0
102
RTVSPropertyOp27
 70
     0
102
RTVSPropertyOp28
 70
     1
102
RTVSPropertyOp29
 70
     1
102
RTVSPropertyOp30
 70
     1
102
RTVSPropertyOp31
 70
     1
102
RTVSPropertyOp32
 70
     1
102
RTVSPropertyOp33
 70
     1
102
RTVSPropertyOp34
 70
     1
102
RTVSPropertyOp35
 70
     1
102
RTVSPropertyOp36
 70
     1
102
RTVSPropertyOp37
 70
     0
102
RTVSPropertyOp38
 70
     0
102
RTVSPropertyOp39
 70
     0
102
RTVSPropertyOp40
 70
     0
102
RTVSPropertyOp41
 70
     0
102
RTVSPropertyOp42
 70
     0
102
RTVSPropertyOp43
 70
     0
102
RTVSPropertyOp44
 70
     0
102
RTVSPropertyOp45
 70
     1
102
RTVSPropertyOp46
 70
     0
102
RTVSPropertyOp47
 70
     0
102
RTVSPropertyOp48
 70
     0
102
RTVSPropertyOp49
 70
     1
102
RTVSPropertyOp50
 70
     0
102
RTVSPropertyOp51
 70
     0
102
RTVSPropertyOp52
 70
     0
102
RTVSPropertyOp53
 70
     0
102
RTVSPropertyOp54
 70
     0
102
RTVSPropertyOp55
 70
     1
102
RTVSPropertyOp56
 70
     0
102
RTVSPropertyOp57
 70
     0
102
RTVSPropertyOp58
 70
     0
102
RTVSPropertyOp59
 70
     0
102
RTVSPropertyOp60
 70
     0
102
RTVSPropertyOp61
 70
     0
102
RTVSPropertyOp62
 70
     0
  0
XRECORD
  5
7796
102
{ACAD_REACTORS
330
7795
102
}
330
7795
100
AcDbXrecord
280
     1
102
RTVSPost2010Prop28
280
     0
102
RTVSPost2010PropOp28
 70
     1
102
RTVSPost2010Prop29
280
     1
102
RTVSPost2010PropOp29
 70
     1
102
RTVSPost2010Prop30
280
     1
102
RTVSPost2010PropOp30
 70
     1
102
RTVSPost2010Prop31
280
     0
102
RTVSPost2010PropOp31
 70
     1
102
RTVSPost2010Prop32
280
     0
102
RTVSPost2010PropOp32
 70
     1
102
RTVSPost2010Prop33
280
     0
102
RTVSPost2010PropOp33
 70
     1
102
RTVSPost2010Prop34
280
     0
102
RTVSPost2010PropOp34
 70
     1
102
RTVSPost2010Prop35
280
     0
102
RTVSPost2010PropOp35
 70
     1
102
RTVSPost2010Prop36
280
     0
102
RTVSPost2010PropOp36
 70
     1
102
RTVSPost2010Prop37
 90
       50
102
RTVSPost2010PropOp37
 70
     1
102
RTVSPost2010Prop38
140
0.0
102
RTVSPost2010PropOp38
 70
     1
102
RTVSPost2010Prop39
140
1.0
102
RTVSPost2010PropOp39
 70
     1
102
RTVSPost2010Prop40
 90
        0
102
RTVSPost2010PropOp40
 70
     1
102
RTVSPost2010Prop41ColorIndex
 90
       18
102
RTVSPost2010Prop41ColorRGB
 90
        0
102
RTVSPost2010PropOp41
 70
     1
102
RTVSPost2010Prop42
 90
       50
102
RTVSPost2010PropOp42
 70
     1
102
RTVSPost2010Prop43
 90
        3
102
RTVSPost2010PropOp43
 70
     1
102
RTVSPost2010Prop44ColorIndex
 90
        5
102
RTVSPost2010Prop44ColorRGB
 90
      255
102
RTVSPost2010PropOp44
 70
     1
102
RTVSPost2010Prop45
280
     0
102
RTVSPost2010PropOp45
 70
     1
102
RTVSPost2010Prop46
 90
       50
102
RTVSPost2010PropOp46
 70
     1
102
RTVSPost2010Prop47
 90
       50
102
RTVSPost2010PropOp47
 70
     1
102
RTVSPost2010Prop48
 90
       50
102
RTVSPost2010PropOp48
 70
     1
102
RTVSPost2010Prop49
280
     0
102
RTVSPost2010PropOp49
 70
     1
102
RTVSPost2010Prop50
 90
       50
102
RTVSPost2010PropOp50
 70
     1
102
RTVSPost2010Prop51ColorIndex
 90
      256
102
RTVSPost2010Prop51ColorRGB
 90
-16777216
102
RTVSPost2010PropOp51
 70
     0
102
RTVSPost2010Prop52
140
1.0
102
RTVSPost2010PropOp52
 70
     0
102
RTVSPost2010Prop53
 90
        2
102
RTVSPost2010PropOp53
 70
     1
102
RTVSPost2010Prop54
  1
strokes_ogs.tif
102
RTVSPost2010PropOp54
 70
     1
102
RTVSPost2010Prop55
280
     0
102
RTVSPost2010PropOp55
 70
     1
102
RTVSPost2010Prop56
140
1.0
102
RTVSPost2010PropOp56
 70
     1
102
RTVSPost2010Prop57
140
1.0
102
RTVSPost2010PropOp57
 70
     1
102
RTVSPropertyOp0
 70
     1
102
RTVSPropertyOp1
 70
     1
102
RTVSPropertyOp2
 70
     1
102
RTVSPropertyOp3
 70
     1
102
RTVSPropertyOp4
 70
     1
102
RTVSPropertyOp5
 70
     1
102
RTVSPropertyOp6
 70
     1
102
RTVSPropertyOp7
 70
     1
102
RTVSPropertyOp8
 70
     1
102
RTVSPropertyOp9
 70
     1
102
RTVSPropertyOp10
 70
     1
102
RTVSPropertyOp11
 70
     1
102
RTVSPropertyOp12
 70
     1
102
RTVSPropertyOp13
 70
     1
102
RTVSPropertyOp14
 70
     1
102
RTVSPropertyOp15
 70
     1
102
RTVSPropertyOp16
 70
     1
102
RTVSPropertyOp17
 70
     1
102
RTVSPropertyOp18
 70
     1
102
RTVSPropertyOp19
 70
     1
102
RTVSPropertyOp20
 70
     1
102
RTVSPropertyOp21
 70
     1
102
RTVSPropertyOp22
 70
     1
102
RTVSPropertyOp23
 70
     1
102
RTVSPropertyOp24
 70
     1
102
RTVSPropertyOp25
 70
     1
102
RTVSPropertyOp26
 70
     1
102
RTVSPropertyOp27
 70
     1
102
RTVSPropertyOp28
 70
     1
102
RTVSPropertyOp29
 70
     1
102
RTVSPropertyOp30
 70
     1
102
RTVSPropertyOp31
 70
     1
102
RTVSPropertyOp32
 70
     1
102
RTVSPropertyOp33
 70
     1
102
RTVSPropertyOp34
 70
     1
102
RTVSPropertyOp35
 70
     1
102
RTVSPropertyOp36
 70
     1
102
RTVSPropertyOp37
 70
     1
102
RTVSPropertyOp38
 70
     1
102
RTVSPropertyOp39
 70
     1
102
RTVSPropertyOp40
 70
     1
102
RTVSPropertyOp41
 70
     1
102
RTVSPropertyOp42
 70
     1
102
RTVSPropertyOp43
 70
     1
102
RTVSPropertyOp44
 70
     1
102
RTVSPropertyOp45
 70
     1
102
RTVSPropertyOp46
 70
     1
102
RTVSPropertyOp47
 70
     1
102
RTVSPropertyOp48
 70
     1
102
RTVSPropertyOp49
 70
     1
102
RTVSPropertyOp50
 70
     1
102
RTVSPropertyOp51
 70
     0
102
RTVSPropertyOp52
 70
     0
102
RTVSPropertyOp53
 70
     1
102
RTVSPropertyOp54
 70
     1
102
RTVSPropertyOp55
 70
     1
102
RTVSPropertyOp56
 70
     1
102
RTVSPropertyOp57
 70
     1
102
RTVSPropertyOp58
 70
     1
102
RTVSPropertyOp59
 70
     1
102
RTVSPropertyOp60
 70
     1
102
RTVSPropertyOp61
 70
     1
102
RTVSPropertyOp62
 70
     1
  0
XRECORD
  5
777A
102
{ACAD_REACTORS
330
7779
102
}
330
7779
100
AcDbXrecord
280
     1
102
RTVSPost2010Prop28
280
     0
102
RTVSPost2010PropOp28
 70
     1
102
RTVSPost2010Prop29
280
     1
102
RTVSPost2010PropOp29
 70
     1
102
RTVSPost2010Prop30
280
     1
102
RTVSPost2010PropOp30
 70
     1
102
RTVSPost2010Prop31
280
     0
102
RTVSPost2010PropOp31
 70
     1
102
RTVSPost2010Prop32
280
     0
102
RTVSPost2010PropOp32
 70
     1
102
RTVSPost2010Prop33
280
     0
102
RTVSPost2010PropOp33
 70
     1
102
RTVSPost2010Prop34
280
     0
102
RTVSPost2010PropOp34
 70
     1
102
RTVSPost2010Prop35
280
     0
102
RTVSPost2010PropOp35
 70
     1
102
RTVSPost2010Prop36
280
     0
102
RTVSPost2010PropOp36
 70
     1
102
RTVSPost2010Prop37
 90
       50
102
RTVSPost2010PropOp37
 70
     1
102
RTVSPost2010Prop38
140
0.0
102
RTVSPost2010PropOp38
 70
     1
102
RTVSPost2010Prop39
140
1.0
102
RTVSPost2010PropOp39
 70
     1
102
RTVSPost2010Prop40
 90
        0
102
RTVSPost2010PropOp40
 70
     1
102
RTVSPost2010Prop41ColorIndex
 90
       18
102
RTVSPost2010Prop41ColorRGB
 90
        0
102
RTVSPost2010PropOp41
 70
     1
102
RTVSPost2010Prop42
 90
       50
102
RTVSPost2010PropOp42
 70
     1
102
RTVSPost2010Prop43
 90
        3
102
RTVSPost2010PropOp43
 70
     1
102
RTVSPost2010Prop44ColorIndex
 90
        5
102
RTVSPost2010Prop44ColorRGB
 90
      255
102
RTVSPost2010PropOp44
 70
     1
102
RTVSPost2010Prop45
280
     0
102
RTVSPost2010PropOp45
 70
     1
102
RTVSPost2010Prop46
 90
       50
102
RTVSPost2010PropOp46
 70
     1
102
RTVSPost2010Prop47
 90
       50
102
RTVSPost2010PropOp47
 70
     1
102
RTVSPost2010Prop48
 90
       50
102
RTVSPost2010PropOp48
 70
     1
102
RTVSPost2010Prop49
280
     0
102
RTVSPost2010PropOp49
 70
     1
102
RTVSPost2010Prop50
 90
       50
102
RTVSPost2010PropOp50
 70
     1
102
RTVSPost2010Prop51ColorIndex
 90
      256
102
RTVSPost2010Prop51ColorRGB
 90
-16777216
102
RTVSPost2010PropOp51
 70
     0
102
RTVSPost2010Prop52
140
1.0
102
RTVSPost2010PropOp52
 70
     0
102
RTVSPost2010Prop53
 90
        2
102
RTVSPost2010PropOp53
 70
     1
102
RTVSPost2010Prop54
  1
strokes_ogs.tif
102
RTVSPost2010PropOp54
 70
     1
102
RTVSPost2010Prop55
280
     0
102
RTVSPost2010PropOp55
 70
     1
102
RTVSPost2010Prop56
140
1.0
102
RTVSPost2010PropOp56
 70
     1
102
RTVSPost2010Prop57
140
1.0
102
RTVSPost2010PropOp57
 70
     1
102
RTVSPropertyOp0
 70
     1
102
RTVSPropertyOp1
 70
     1
102
RTVSPropertyOp2
 70
     1
102
RTVSPropertyOp3
 70
     1
102
RTVSPropertyOp4
 70
     1
102
RTVSPropertyOp5
 70
     1
102
RTVSPropertyOp6
 70
     1
102
RTVSPropertyOp7
 70
     1
102
RTVSPropertyOp8
 70
     1
102
RTVSPropertyOp9
 70
     1
102
RTVSPropertyOp10
 70
     1
102
RTVSPropertyOp11
 70
     1
102
RTVSPropertyOp12
 70
     1
102
RTVSPropertyOp13
 70
     1
102
RTVSPropertyOp14
 70
     1
102
RTVSPropertyOp15
 70
     1
102
RTVSPropertyOp16
 70
     1
102
RTVSPropertyOp17
 70
     1
102
RTVSPropertyOp18
 70
     1
102
RTVSPropertyOp19
 70
     1
102
RTVSPropertyOp20
 70
     1
102
RTVSPropertyOp21
 70
     1
102
RTVSPropertyOp22
 70
     1
102
RTVSPropertyOp23
 70
     1
102
RTVSPropertyOp24
 70
     1
102
RTVSPropertyOp25
 70
     1
102
RTVSPropertyOp26
 70
     1
102
RTVSPropertyOp27
 70
     1
102
RTVSPropertyOp28
 70
     1
102
RTVSPropertyOp29
 70
     1
102
RTVSPropertyOp30
 70
     1
102
RTVSPropertyOp31
 70
     1
102
RTVSPropertyOp32
 70
     1
102
RTVSPropertyOp33
 70
     1
102
RTVSPropertyOp34
 70
     1
102
RTVSPropertyOp35
 70
     1
102
RTVSPropertyOp36
 70
     1
102
RTVSPropertyOp37
 70
     1
102
RTVSPropertyOp38
 70
     1
102
RTVSPropertyOp39
 70
     1
102
RTVSPropertyOp40
 70
     1
102
RTVSPropertyOp41
 70
     1
102
RTVSPropertyOp42
 70
     1
102
RTVSPropertyOp43
 70
     1
102
RTVSPropertyOp44
 70
     1
102
RTVSPropertyOp45
 70
     1
102
RTVSPropertyOp46
 70
     1
102
RTVSPropertyOp47
 70
     1
102
RTVSPropertyOp48
 70
     1
102
RTVSPropertyOp49
 70
     1
102
RTVSPropertyOp50
 70
     1
102
RTVSPropertyOp51
 70
     0
102
RTVSPropertyOp52
 70
     0
102
RTVSPropertyOp53
 70
     1
102
RTVSPropertyOp54
 70
     1
102
RTVSPropertyOp55
 70
     1
102
RTVSPropertyOp56
 70
     1
102
RTVSPropertyOp57
 70
     1
102
RTVSPropertyOp58
 70
     1
102
RTVSPropertyOp59
 70
     1
102
RTVSPropertyOp60
 70
     1
102
RTVSPropertyOp61
 70
     1
102
RTVSPropertyOp62
 70
     1
  0
XRECORD
  5
777C
102
{ACAD_REACTORS
330
777B
102
}
330
777B
100
AcDbXrecord
280
     1
102
RTVSPost2010Prop28
280
     0
102
RTVSPost2010PropOp28
 70
     1
102
RTVSPost2010Prop29
280
     1
102
RTVSPost2010PropOp29
 70
     1
102
RTVSPost2010Prop30
280
     1
102
RTVSPost2010PropOp30
 70
     1
102
RTVSPost2010Prop31
280
     0
102
RTVSPost2010PropOp31
 70
     1
102
RTVSPost2010Prop32
280
     0
102
RTVSPost2010PropOp32
 70
     1
102
RTVSPost2010Prop33
280
     0
102
RTVSPost2010PropOp33
 70
     1
102
RTVSPost2010Prop34
280
     0
102
RTVSPost2010PropOp34
 70
     1
102
RTVSPost2010Prop35
280
     0
102
RTVSPost2010PropOp35
 70
     1
102
RTVSPost2010Prop36
280
     0
102
RTVSPost2010PropOp36
 70
     1
102
RTVSPost2010Prop37
 90
       50
102
RTVSPost2010PropOp37
 70
     1
102
RTVSPost2010Prop38
140
0.0
102
RTVSPost2010PropOp38
 70
     1
102
RTVSPost2010Prop39
140
1.0
102
RTVSPost2010PropOp39
 70
     1
102
RTVSPost2010Prop40
 90
        0
102
RTVSPost2010PropOp40
 70
     1
102
RTVSPost2010Prop41ColorIndex
 90
       18
102
RTVSPost2010Prop41ColorRGB
 90
        0
102
RTVSPost2010PropOp41
 70
     1
102
RTVSPost2010Prop42
 90
       50
102
RTVSPost2010PropOp42
 70
     1
102
RTVSPost2010Prop43
 90
        3
102
RTVSPost2010PropOp43
 70
     1
102
RTVSPost2010Prop44ColorIndex
 90
        5
102
RTVSPost2010Prop44ColorRGB
 90
      255
102
RTVSPost2010PropOp44
 70
     1
102
RTVSPost2010Prop45
280
     0
102
RTVSPost2010PropOp45
 70
     1
102
RTVSPost2010Prop46
 90
       50
102
RTVSPost2010PropOp46
 70
     1
102
RTVSPost2010Prop47
 90
       50
102
RTVSPost2010PropOp47
 70
     1
102
RTVSPost2010Prop48
 90
       50
102
RTVSPost2010PropOp48
 70
     1
102
RTVSPost2010Prop49
280
     0
102
RTVSPost2010PropOp49
 70
     1
102
RTVSPost2010Prop50
 90
       50
102
RTVSPost2010PropOp50
 70
     1
102
RTVSPost2010Prop51ColorIndex
 90
      256
102
RTVSPost2010Prop51ColorRGB
 90
-16777216
102
RTVSPost2010PropOp51
 70
     0
102
RTVSPost2010Prop52
140
1.0
102
RTVSPost2010PropOp52
 70
     0
102
RTVSPost2010Prop53
 90
        2
102
RTVSPost2010PropOp53
 70
     1
102
RTVSPost2010Prop54
  1
strokes_ogs.tif
102
RTVSPost2010PropOp54
 70
     1
102
RTVSPost2010Prop55
280
     0
102
RTVSPost2010PropOp55
 70
     1
102
RTVSPost2010Prop56
140
1.0
102
RTVSPost2010PropOp56
 70
     1
102
RTVSPost2010Prop57
140
1.0
102
RTVSPost2010PropOp57
 70
     1
102
RTVSPropertyOp0
 70
     1
102
RTVSPropertyOp1
 70
     1
102
RTVSPropertyOp2
 70
     1
102
RTVSPropertyOp3
 70
     1
102
RTVSPropertyOp4
 70
     1
102
RTVSPropertyOp5
 70
     1
102
RTVSPropertyOp6
 70
     1
102
RTVSPropertyOp7
 70
     1
102
RTVSPropertyOp8
 70
     1
102
RTVSPropertyOp9
 70
     1
102
RTVSPropertyOp10
 70
     1
102
RTVSPropertyOp11
 70
     1
102
RTVSPropertyOp12
 70
     1
102
RTVSPropertyOp13
 70
     1
102
RTVSPropertyOp14
 70
     1
102
RTVSPropertyOp15
 70
     1
102
RTVSPropertyOp16
 70
     1
102
RTVSPropertyOp17
 70
     1
102
RTVSPropertyOp18
 70
     1
102
RTVSPropertyOp19
 70
     1
102
RTVSPropertyOp20
 70
     1
102
RTVSPropertyOp21
 70
     1
102
RTVSPropertyOp22
 70
     1
102
RTVSPropertyOp23
 70
     1
102
RTVSPropertyOp24
 70
     1
102
RTVSPropertyOp25
 70
     1
102
RTVSPropertyOp26
 70
     1
102
RTVSPropertyOp27
 70
     1
102
RTVSPropertyOp28
 70
     1
102
RTVSPropertyOp29
 70
     1
102
RTVSPropertyOp30
 70
     1
102
RTVSPropertyOp31
 70
     1
102
RTVSPropertyOp32
 70
     1
102
RTVSPropertyOp33
 70
     1
102
RTVSPropertyOp34
 70
     1
102
RTVSPropertyOp35
 70
     1
102
RTVSPropertyOp36
 70
     1
102
RTVSPropertyOp37
 70
     1
102
RTVSPropertyOp38
 70
     1
102
RTVSPropertyOp39
 70
     1
102
RTVSPropertyOp40
 70
     1
102
RTVSPropertyOp41
 70
     1
102
RTVSPropertyOp42
 70
     1
102
RTVSPropertyOp43
 70
     1
102
RTVSPropertyOp44
 70
     1
102
RTVSPropertyOp45
 70
     1
102
RTVSPropertyOp46
 70
     1
102
RTVSPropertyOp47
 70
     1
102
RTVSPropertyOp48
 70
     1
102
RTVSPropertyOp49
 70
     1
102
RTVSPropertyOp50
 70
     1
102
RTVSPropertyOp51
 70
     0
102
RTVSPropertyOp52
 70
     0
102
RTVSPropertyOp53
 70
     1
102
RTVSPropertyOp54
 70
     1
102
RTVSPropertyOp55
 70
     1
102
RTVSPropertyOp56
 70
     1
102
RTVSPropertyOp57
 70
     1
102
RTVSPropertyOp58
 70
     1
102
RTVSPropertyOp59
 70
     1
102
RTVSPropertyOp60
 70
     1
102
RTVSPropertyOp61
 70
     1
102
RTVSPropertyOp62
 70
     1
  0
XRECORD
  5
777E
102
{ACAD_REACTORS
330
777D
102
}
330
777D
100
AcDbXrecord
280
     1
102
RTVSPost2010Prop28
280
     0
102
RTVSPost2010PropOp28
 70
     1
102
RTVSPost2010Prop29
280
     1
102
RTVSPost2010PropOp29
 70
     1
102
RTVSPost2010Prop30
280
     1
102
RTVSPost2010PropOp30
 70
     1
102
RTVSPost2010Prop31
280
     0
102
RTVSPost2010PropOp31
 70
     1
102
RTVSPost2010Prop32
280
     0
102
RTVSPost2010PropOp32
 70
     1
102
RTVSPost2010Prop33
280
     0
102
RTVSPost2010PropOp33
 70
     1
102
RTVSPost2010Prop34
280
     0
102
RTVSPost2010PropOp34
 70
     1
102
RTVSPost2010Prop35
280
     0
102
RTVSPost2010PropOp35
 70
     1
102
RTVSPost2010Prop36
280
     0
102
RTVSPost2010PropOp36
 70
     1
102
RTVSPost2010Prop37
 90
       50
102
RTVSPost2010PropOp37
 70
     1
102
RTVSPost2010Prop38
140
0.0
102
RTVSPost2010PropOp38
 70
     1
102
RTVSPost2010Prop39
140
1.0
102
RTVSPost2010PropOp39
 70
     1
102
RTVSPost2010Prop40
 90
        0
102
RTVSPost2010PropOp40
 70
     1
102
RTVSPost2010Prop41ColorIndex
 90
       18
102
RTVSPost2010Prop41ColorRGB
 90
        0
102
RTVSPost2010PropOp41
 70
     1
102
RTVSPost2010Prop42
 90
       50
102
RTVSPost2010PropOp42
 70
     1
102
RTVSPost2010Prop43
 90
        3
102
RTVSPost2010PropOp43
 70
     1
102
RTVSPost2010Prop44ColorIndex
 90
        5
102
RTVSPost2010Prop44ColorRGB
 90
      255
102
RTVSPost2010PropOp44
 70
     1
102
RTVSPost2010Prop45
280
     0
102
RTVSPost2010PropOp45
 70
     1
102
RTVSPost2010Prop46
 90
       50
102
RTVSPost2010PropOp46
 70
     1
102
RTVSPost2010Prop47
 90
       50
102
RTVSPost2010PropOp47
 70
     1
102
RTVSPost2010Prop48
 90
       50
102
RTVSPost2010PropOp48
 70
     1
102
RTVSPost2010Prop49
280
     0
102
RTVSPost2010PropOp49
 70
     1
102
RTVSPost2010Prop50
 90
       50
102
RTVSPost2010PropOp50
 70
     1
102
RTVSPost2010Prop51ColorIndex
 90
      256
102
RTVSPost2010Prop51ColorRGB
 90
-16777216
102
RTVSPost2010PropOp51
 70
     0
102
RTVSPost2010Prop52
140
1.0
102
RTVSPost2010PropOp52
 70
     0
102
RTVSPost2010Prop53
 90
        2
102
RTVSPost2010PropOp53
 70
     1
102
RTVSPost2010Prop54
  1
strokes_ogs.tif
102
RTVSPost2010PropOp54
 70
     1
102
RTVSPost2010Prop55
280
     0
102
RTVSPost2010PropOp55
 70
     1
102
RTVSPost2010Prop56
140
1.0
102
RTVSPost2010PropOp56
 70
     1
102
RTVSPost2010Prop57
140
1.0
102
RTVSPost2010PropOp57
 70
     1
102
RTVSPropertyOp0
 70
     1
102
RTVSPropertyOp1
 70
     1
102
RTVSPropertyOp2
 70
     1
102
RTVSPropertyOp3
 70
     1
102
RTVSPropertyOp4
 70
     1
102
RTVSPropertyOp5
 70
     1
102
RTVSPropertyOp6
 70
     1
102
RTVSPropertyOp7
 70
     1
102
RTVSPropertyOp8
 70
     1
102
RTVSPropertyOp9
 70
     1
102
RTVSPropertyOp10
 70
     1
102
RTVSPropertyOp11
 70
     1
102
RTVSPropertyOp12
 70
     1
102
RTVSPropertyOp13
 70
     1
102
RTVSPropertyOp14
 70
     1
102
RTVSPropertyOp15
 70
     1
102
RTVSPropertyOp16
 70
     1
102
RTVSPropertyOp17
 70
     1
102
RTVSPropertyOp18
 70
     1
102
RTVSPropertyOp19
 70
     1
102
RTVSPropertyOp20
 70
     1
102
RTVSPropertyOp21
 70
     1
102
RTVSPropertyOp22
 70
     1
102
RTVSPropertyOp23
 70
     1
102
RTVSPropertyOp24
 70
     1
102
RTVSPropertyOp25
 70
     1
102
RTVSPropertyOp26
 70
     1
102
RTVSPropertyOp27
 70
     1
102
RTVSPropertyOp28
 70
     1
102
RTVSPropertyOp29
 70
     1
102
RTVSPropertyOp30
 70
     1
102
RTVSPropertyOp31
 70
     1
102
RTVSPropertyOp32
 70
     1
102
RTVSPropertyOp33
 70
     1
102
RTVSPropertyOp34
 70
     1
102
RTVSPropertyOp35
 70
     1
102
RTVSPropertyOp36
 70
     1
102
RTVSPropertyOp37
 70
     1
102
RTVSPropertyOp38
 70
     1
102
RTVSPropertyOp39
 70
     1
102
RTVSPropertyOp40
 70
     1
102
RTVSPropertyOp41
 70
     1
102
RTVSPropertyOp42
 70
     1
102
RTVSPropertyOp43
 70
     1
102
RTVSPropertyOp44
 70
     1
102
RTVSPropertyOp45
 70
     1
102
RTVSPropertyOp46
 70
     1
102
RTVSPropertyOp47
 70
     1
102
RTVSPropertyOp48
 70
     1
102
RTVSPropertyOp49
 70
     1
102
RTVSPropertyOp50
 70
     1
102
RTVSPropertyOp51
 70
     0
102
RTVSPropertyOp52
 70
     0
102
RTVSPropertyOp53
 70
     1
102
RTVSPropertyOp54
 70
     1
102
RTVSPropertyOp55
 70
     1
102
RTVSPropertyOp56
 70
     1
102
RTVSPropertyOp57
 70
     1
102
RTVSPropertyOp58
 70
     1
102
RTVSPropertyOp59
 70
     1
102
RTVSPropertyOp60
 70
     1
102
RTVSPropertyOp61
 70
     1
102
RTVSPropertyOp62
 70
     1
  0
XRECORD
  5
7780
102
{ACAD_REACTORS
330
777F
102
}
330
777F
100
AcDbXrecord
280
     1
102
RTVSPost2010Prop28
280
     0
102
RTVSPost2010PropOp28
 70
     1
102
RTVSPost2010Prop29
280
     1
102
RTVSPost2010PropOp29
 70
     1
102
RTVSPost2010Prop30
280
     1
102
RTVSPost2010PropOp30
 70
     1
102
RTVSPost2010Prop31
280
     0
102
RTVSPost2010PropOp31
 70
     1
102
RTVSPost2010Prop32
280
     0
102
RTVSPost2010PropOp32
 70
     1
102
RTVSPost2010Prop33
280
     0
102
RTVSPost2010PropOp33
 70
     1
102
RTVSPost2010Prop34
280
     0
102
RTVSPost2010PropOp34
 70
     1
102
RTVSPost2010Prop35
280
     0
102
RTVSPost2010PropOp35
 70
     1
102
RTVSPost2010Prop36
280
     0
102
RTVSPost2010PropOp36
 70
     1
102
RTVSPost2010Prop37
 90
       50
102
RTVSPost2010PropOp37
 70
     1
102
RTVSPost2010Prop38
140
0.0
102
RTVSPost2010PropOp38
 70
     1
102
RTVSPost2010Prop39
140
1.0
102
RTVSPost2010PropOp39
 70
     1
102
RTVSPost2010Prop40
 90
        0
102
RTVSPost2010PropOp40
 70
     1
102
RTVSPost2010Prop41ColorIndex
 90
       18
102
RTVSPost2010Prop41ColorRGB
 90
        0
102
RTVSPost2010PropOp41
 70
     1
102
RTVSPost2010Prop42
 90
       50
102
RTVSPost2010PropOp42
 70
     1
102
RTVSPost2010Prop43
 90
        3
102
RTVSPost2010PropOp43
 70
     1
102
RTVSPost2010Prop44ColorIndex
 90
        5
102
RTVSPost2010Prop44ColorRGB
 90
      255
102
RTVSPost2010PropOp44
 70
     1
102
RTVSPost2010Prop45
280
     0
102
RTVSPost2010PropOp45
 70
     1
102
RTVSPost2010Prop46
 90
       50
102
RTVSPost2010PropOp46
 70
     1
102
RTVSPost2010Prop47
 90
       50
102
RTVSPost2010PropOp47
 70
     1
102
RTVSPost2010Prop48
 90
       50
102
RTVSPost2010PropOp48
 70
     1
102
RTVSPost2010Prop49
280
     0
102
RTVSPost2010PropOp49
 70
     1
102
RTVSPost2010Prop50
 90
       50
102
RTVSPost2010PropOp50
 70
     1
102
RTVSPost2010Prop51ColorIndex
 90
      256
102
RTVSPost2010Prop51ColorRGB
 90
-16777216
102
RTVSPost2010PropOp51
 70
     0
102
RTVSPost2010Prop52
140
1.0
102
RTVSPost2010PropOp52
 70
     0
102
RTVSPost2010Prop53
 90
        2
102
RTVSPost2010PropOp53
 70
     1
102
RTVSPost2010Prop54
  1
strokes_ogs.tif
102
RTVSPost2010PropOp54
 70
     1
102
RTVSPost2010Prop55
280
     0
102
RTVSPost2010PropOp55
 70
     1
102
RTVSPost2010Prop56
140
1.0
102
RTVSPost2010PropOp56
 70
     1
102
RTVSPost2010Prop57
140
1.0
102
RTVSPost2010PropOp57
 70
     1
102
RTVSPropertyOp0
 70
     1
102
RTVSPropertyOp1
 70
     1
102
RTVSPropertyOp2
 70
     1
102
RTVSPropertyOp3
 70
     1
102
RTVSPropertyOp4
 70
     1
102
RTVSPropertyOp5
 70
     1
102
RTVSPropertyOp6
 70
     1
102
RTVSPropertyOp7
 70
     1
102
RTVSPropertyOp8
 70
     1
102
RTVSPropertyOp9
 70
     1
102
RTVSPropertyOp10
 70
     1
102
RTVSPropertyOp11
 70
     1
102
RTVSPropertyOp12
 70
     1
102
RTVSPropertyOp13
 70
     1
102
RTVSPropertyOp14
 70
     1
102
RTVSPropertyOp15
 70
     1
102
RTVSPropertyOp16
 70
     1
102
RTVSPropertyOp17
 70
     1
102
RTVSPropertyOp18
 70
     1
102
RTVSPropertyOp19
 70
     1
102
RTVSPropertyOp20
 70
     1
102
RTVSPropertyOp21
 70
     1
102
RTVSPropertyOp22
 70
     1
102
RTVSPropertyOp23
 70
     1
102
RTVSPropertyOp24
 70
     1
102
RTVSPropertyOp25
 70
     1
102
RTVSPropertyOp26
 70
     1
102
RTVSPropertyOp27
 70
     1
102
RTVSPropertyOp28
 70
     1
102
RTVSPropertyOp29
 70
     1
102
RTVSPropertyOp30
 70
     1
102
RTVSPropertyOp31
 70
     1
102
RTVSPropertyOp32
 70
     1
102
RTVSPropertyOp33
 70
     1
102
RTVSPropertyOp34
 70
     1
102
RTVSPropertyOp35
 70
     1
102
RTVSPropertyOp36
 70
     1
102
RTVSPropertyOp37
 70
     1
102
RTVSPropertyOp38
 70
     1
102
RTVSPropertyOp39
 70
     1
102
RTVSPropertyOp40
 70
     1
102
RTVSPropertyOp41
 70
     1
102
RTVSPropertyOp42
 70
     1
102
RTVSPropertyOp43
 70
     1
102
RTVSPropertyOp44
 70
     1
102
RTVSPropertyOp45
 70
     1
102
RTVSPropertyOp46
 70
     1
102
RTVSPropertyOp47
 70
     1
102
RTVSPropertyOp48
 70
     1
102
RTVSPropertyOp49
 70
     1
102
RTVSPropertyOp50
 70
     1
102
RTVSPropertyOp51
 70
     0
102
RTVSPropertyOp52
 70
     0
102
RTVSPropertyOp53
 70
     1
102
RTVSPropertyOp54
 70
     1
102
RTVSPropertyOp55
 70
     1
102
RTVSPropertyOp56
 70
     1
102
RTVSPropertyOp57
 70
     1
102
RTVSPropertyOp58
 70
     1
102
RTVSPropertyOp59
 70
     1
102
RTVSPropertyOp60
 70
     1
102
RTVSPropertyOp61
 70
     1
102
RTVSPropertyOp62
 70
     1
  0
XRECORD
  5
7788
102
{ACAD_REACTORS
330
7787
102
}
330
7787
100
AcDbXrecord
280
     1
102
RTVSPost2010Prop28
280
     0
102
RTVSPost2010PropOp28
 70
     1
102
RTVSPost2010Prop29
280
     1
102
RTVSPost2010PropOp29
 70
     1
102
RTVSPost2010Prop30
280
     1
102
RTVSPost2010PropOp30
 70
     1
102
RTVSPost2010Prop31
280
     0
102
RTVSPost2010PropOp31
 70
     1
102
RTVSPost2010Prop32
280
     0
102
RTVSPost2010PropOp32
 70
     1
102
RTVSPost2010Prop33
280
     0
102
RTVSPost2010PropOp33
 70
     1
102
RTVSPost2010Prop34
280
     0
102
RTVSPost2010PropOp34
 70
     1
102
RTVSPost2010Prop35
280
     0
102
RTVSPost2010PropOp35
 70
     1
102
RTVSPost2010Prop36
280
     0
102
RTVSPost2010PropOp36
 70
     1
102
RTVSPost2010Prop37
 90
       50
102
RTVSPost2010PropOp37
 70
     1
102
RTVSPost2010Prop38
140
0.0
102
RTVSPost2010PropOp38
 70
     1
102
RTVSPost2010Prop39
140
1.0
102
RTVSPost2010PropOp39
 70
     1
102
RTVSPost2010Prop40
 90
        0
102
RTVSPost2010PropOp40
 70
     1
102
RTVSPost2010Prop41ColorIndex
 90
       18
102
RTVSPost2010Prop41ColorRGB
 90
        0
102
RTVSPost2010PropOp41
 70
     1
102
RTVSPost2010Prop42
 90
       50
102
RTVSPost2010PropOp42
 70
     1
102
RTVSPost2010Prop43
 90
        3
102
RTVSPost2010PropOp43
 70
     1
102
RTVSPost2010Prop44ColorIndex
 90
        5
102
RTVSPost2010Prop44ColorRGB
 90
      255
102
RTVSPost2010PropOp44
 70
     1
102
RTVSPost2010Prop45
280
     0
102
RTVSPost2010PropOp45
 70
     1
102
RTVSPost2010Prop46
 90
       50
102
RTVSPost2010PropOp46
 70
     1
102
RTVSPost2010Prop47
 90
       50
102
RTVSPost2010PropOp47
 70
     1
102
RTVSPost2010Prop48
 90
       50
102
RTVSPost2010PropOp48
 70
     1
102
RTVSPost2010Prop49
280
     0
102
RTVSPost2010PropOp49
 70
     1
102
RTVSPost2010Prop50
 90
       50
102
RTVSPost2010PropOp50
 70
     1
102
RTVSPost2010Prop51ColorIndex
 90
      256
102
RTVSPost2010Prop51ColorRGB
 90
-16777216
102
RTVSPost2010PropOp51
 70
     0
102
RTVSPost2010Prop52
140
1.0
102
RTVSPost2010PropOp52
 70
     0
102
RTVSPost2010Prop53
 90
        2
102
RTVSPost2010PropOp53
 70
     1
102
RTVSPost2010Prop54
  1
strokes_ogs.tif
102
RTVSPost2010PropOp54
 70
     1
102
RTVSPost2010Prop55
280
     0
102
RTVSPost2010PropOp55
 70
     1
102
RTVSPost2010Prop56
140
1.0
102
RTVSPost2010PropOp56
 70
     1
102
RTVSPost2010Prop57
140
1.0
102
RTVSPost2010PropOp57
 70
     1
102
RTVSPropertyOp0
 70
     1
102
RTVSPropertyOp1
 70
     1
102
RTVSPropertyOp2
 70
     1
102
RTVSPropertyOp3
 70
     1
102
RTVSPropertyOp4
 70
     1
102
RTVSPropertyOp5
 70
     1
102
RTVSPropertyOp6
 70
     1
102
RTVSPropertyOp7
 70
     1
102
RTVSPropertyOp8
 70
     1
102
RTVSPropertyOp9
 70
     1
102
RTVSPropertyOp10
 70
     1
102
RTVSPropertyOp11
 70
     1
102
RTVSPropertyOp12
 70
     1
102
RTVSPropertyOp13
 70
     1
102
RTVSPropertyOp14
 70
     1
102
RTVSPropertyOp15
 70
     1
102
RTVSPropertyOp16
 70
     1
102
RTVSPropertyOp17
 70
     1
102
RTVSPropertyOp18
 70
     1
102
RTVSPropertyOp19
 70
     1
102
RTVSPropertyOp20
 70
     1
102
RTVSPropertyOp21
 70
     1
102
RTVSPropertyOp22
 70
     1
102
RTVSPropertyOp23
 70
     1
102
RTVSPropertyOp24
 70
     1
102
RTVSPropertyOp25
 70
     1
102
RTVSPropertyOp26
 70
     1
102
RTVSPropertyOp27
 70
     1
102
RTVSPropertyOp28
 70
     1
102
RTVSPropertyOp29
 70
     1
102
RTVSPropertyOp30
 70
     1
102
RTVSPropertyOp31
 70
     1
102
RTVSPropertyOp32
 70
     1
102
RTVSPropertyOp33
 70
     1
102
RTVSPropertyOp34
 70
     1
102
RTVSPropertyOp35
 70
     1
102
RTVSPropertyOp36
 70
     1
102
RTVSPropertyOp37
 70
     1
102
RTVSPropertyOp38
 70
     1
102
RTVSPropertyOp39
 70
     1
102
RTVSPropertyOp40
 70
     1
102
RTVSPropertyOp41
 70
     1
102
RTVSPropertyOp42
 70
     1
102
RTVSPropertyOp43
 70
     1
102
RTVSPropertyOp44
 70
     1
102
RTVSPropertyOp45
 70
     1
102
RTVSPropertyOp46
 70
     1
102
RTVSPropertyOp47
 70
     1
102
RTVSPropertyOp48
 70
     1
102
RTVSPropertyOp49
 70
     1
102
RTVSPropertyOp50
 70
     1
102
RTVSPropertyOp51
 70
     0
102
RTVSPropertyOp52
 70
     0
102
RTVSPropertyOp53
 70
     1
102
RTVSPropertyOp54
 70
     1
102
RTVSPropertyOp55
 70
     1
102
RTVSPropertyOp56
 70
     1
102
RTVSPropertyOp57
 70
     1
102
RTVSPropertyOp58
 70
     1
102
RTVSPropertyOp59
 70
     1
102
RTVSPropertyOp60
 70
     1
102
RTVSPropertyOp61
 70
     1
102
RTVSPropertyOp62
 70
     1
  0
XRECORD
  5
77A4
102
{ACAD_REACTORS
330
77A3
102
}
330
77A3
100
AcDbXrecord
280
     1
102
RTVSPost2010Prop28
280
     0
102
RTVSPost2010PropOp28
 70
     1
102
RTVSPost2010Prop29
280
     1
102
RTVSPost2010PropOp29
 70
     1
102
RTVSPost2010Prop30
280
     1
102
RTVSPost2010PropOp30
 70
     1
102
RTVSPost2010Prop31
280
     0
102
RTVSPost2010PropOp31
 70
     1
102
RTVSPost2010Prop32
280
     0
102
RTVSPost2010PropOp32
 70
     1
102
RTVSPost2010Prop33
280
     0
102
RTVSPost2010PropOp33
 70
     1
102
RTVSPost2010Prop34
280
     0
102
RTVSPost2010PropOp34
 70
     1
102
RTVSPost2010Prop35
280
     0
102
RTVSPost2010PropOp35
 70
     1
102
RTVSPost2010Prop36
280
     0
102
RTVSPost2010PropOp36
 70
     1
102
RTVSPost2010Prop37
 90
       50
102
RTVSPost2010PropOp37
 70
     0
102
RTVSPost2010Prop38
140
0.0
102
RTVSPost2010PropOp38
 70
     0
102
RTVSPost2010Prop39
140
1.0
102
RTVSPost2010PropOp39
 70
     0
102
RTVSPost2010Prop40
 90
        0
102
RTVSPost2010PropOp40
 70
     0
102
RTVSPost2010Prop41ColorIndex
 90
       18
102
RTVSPost2010Prop41ColorRGB
 90
        0
102
RTVSPost2010PropOp41
 70
     0
102
RTVSPost2010Prop42
 90
       50
102
RTVSPost2010PropOp42
 70
     0
102
RTVSPost2010Prop43
 90
        3
102
RTVSPost2010PropOp43
 70
     0
102
RTVSPost2010Prop44ColorIndex
 90
        5
102
RTVSPost2010Prop44ColorRGB
 90
      255
102
RTVSPost2010PropOp44
 70
     0
102
RTVSPost2010Prop45
280
     0
102
RTVSPost2010PropOp45
 70
     1
102
RTVSPost2010Prop46
 90
       50
102
RTVSPost2010PropOp46
 70
     0
102
RTVSPost2010Prop47
 90
       50
102
RTVSPost2010PropOp47
 70
     0
102
RTVSPost2010Prop48
 90
       50
102
RTVSPost2010PropOp48
 70
     0
102
RTVSPost2010Prop49
280
     0
102
RTVSPost2010PropOp49
 70
     1
102
RTVSPost2010Prop50
 90
       50
102
RTVSPost2010PropOp50
 70
     0
102
RTVSPost2010Prop51ColorIndex
 90
      256
102
RTVSPost2010Prop51ColorRGB
 90
-16777216
102
RTVSPost2010PropOp51
 70
     0
102
RTVSPost2010Prop52
140
1.0
102
RTVSPost2010PropOp52
 70
     0
102
RTVSPost2010Prop53
 90
        2
102
RTVSPost2010PropOp53
 70
     0
102
RTVSPost2010Prop54
  1
strokes_ogs.tif
102
RTVSPost2010PropOp54
 70
     0
102
RTVSPost2010Prop55
280
     0
102
RTVSPost2010PropOp55
 70
     1
102
RTVSPost2010Prop56
140
1.0
102
RTVSPost2010PropOp56
 70
     0
102
RTVSPost2010Prop57
140
1.0
102
RTVSPost2010PropOp57
 70
     0
102
RTVSPropertyOp0
 70
     0
102
RTVSPropertyOp1
 70
     0
102
RTVSPropertyOp2
 70
     0
102
RTVSPropertyOp3
 70
     0
102
RTVSPropertyOp4
 70
     0
102
RTVSPropertyOp5
 70
     0
102
RTVSPropertyOp6
 70
     0
102
RTVSPropertyOp7
 70
     0
102
RTVSPropertyOp8
 70
     0
102
RTVSPropertyOp9
 70
     0
102
RTVSPropertyOp10
 70
     0
102
RTVSPropertyOp11
 70
     0
102
RTVSPropertyOp12
 70
     0
102
RTVSPropertyOp13
 70
     0
102
RTVSPropertyOp14
 70
     2
102
RTVSPropertyOp15
 70
     0
102
RTVSPropertyOp16
 70
     0
102
RTVSPropertyOp17
 70
     0
102
RTVSPropertyOp18
 70
     0
102
RTVSPropertyOp19
 70
     0
102
RTVSPropertyOp20
 70
     0
102
RTVSPropertyOp21
 70
     0
102
RTVSPropertyOp22
 70
     0
102
RTVSPropertyOp23
 70
     0
102
RTVSPropertyOp24
 70
     0
102
RTVSPropertyOp25
 70
     0
102
RTVSPropertyOp26
 70
     0
102
RTVSPropertyOp27
 70
     0
102
RTVSPropertyOp28
 70
     1
102
RTVSPropertyOp29
 70
     1
102
RTVSPropertyOp30
 70
     1
102
RTVSPropertyOp31
 70
     1
102
RTVSPropertyOp32
 70
     1
102
RTVSPropertyOp33
 70
     1
102
RTVSPropertyOp34
 70
     1
102
RTVSPropertyOp35
 70
     1
102
RTVSPropertyOp36
 70
     1
102
RTVSPropertyOp37
 70
     0
102
RTVSPropertyOp38
 70
     0
102
RTVSPropertyOp39
 70
     0
102
RTVSPropertyOp40
 70
     0
102
RTVSPropertyOp41
 70
     0
102
RTVSPropertyOp42
 70
     0
102
RTVSPropertyOp43
 70
     0
102
RTVSPropertyOp44
 70
     0
102
RTVSPropertyOp45
 70
     1
102
RTVSPropertyOp46
 70
     0
102
RTVSPropertyOp47
 70
     0
102
RTVSPropertyOp48
 70
     0
102
RTVSPropertyOp49
 70
     1
102
RTVSPropertyOp50
 70
     0
102
RTVSPropertyOp51
 70
     0
102
RTVSPropertyOp52
 70
     0
102
RTVSPropertyOp53
 70
     0
102
RTVSPropertyOp54
 70
     0
102
RTVSPropertyOp55
 70
     1
102
RTVSPropertyOp56
 70
     0
102
RTVSPropertyOp57
 70
     0
102
RTVSPropertyOp58
 70
     0
102
RTVSPropertyOp59
 70
     0
102
RTVSPropertyOp60
 70
     0
102
RTVSPropertyOp61
 70
     0
102
RTVSPropertyOp62
 70
     0
  0
XRECORD
  5
7794
102
{ACAD_REACTORS
330
7793
102
}
330
7793
100
AcDbXrecord
280
     1
102
RTVSPost2010Prop28
280
     0
102
RTVSPost2010PropOp28
 70
     1
102
RTVSPost2010Prop29
280
     1
102
RTVSPost2010PropOp29
 70
     1
102
RTVSPost2010Prop30
280
     1
102
RTVSPost2010PropOp30
 70
     1
102
RTVSPost2010Prop31
280
     0
102
RTVSPost2010PropOp31
 70
     1
102
RTVSPost2010Prop32
280
     0
102
RTVSPost2010PropOp32
 70
     1
102
RTVSPost2010Prop33
280
     0
102
RTVSPost2010PropOp33
 70
     1
102
RTVSPost2010Prop34
280
     0
102
RTVSPost2010PropOp34
 70
     1
102
RTVSPost2010Prop35
280
     0
102
RTVSPost2010PropOp35
 70
     1
102
RTVSPost2010Prop36
280
     0
102
RTVSPost2010PropOp36
 70
     1
102
RTVSPost2010Prop37
 90
       50
102
RTVSPost2010PropOp37
 70
     1
102
RTVSPost2010Prop38
140
0.0
102
RTVSPost2010PropOp38
 70
     1
102
RTVSPost2010Prop39
140
1.0
102
RTVSPost2010PropOp39
 70
     1
102
RTVSPost2010Prop40
 90
        0
102
RTVSPost2010PropOp40
 70
     1
102
RTVSPost2010Prop41ColorIndex
 90
       18
102
RTVSPost2010Prop41ColorRGB
 90
        0
102
RTVSPost2010PropOp41
 70
     1
102
RTVSPost2010Prop42
 90
       50
102
RTVSPost2010PropOp42
 70
     1
102
RTVSPost2010Prop43
 90
        3
102
RTVSPost2010PropOp43
 70
     1
102
RTVSPost2010Prop44ColorIndex
 90
        5
102
RTVSPost2010Prop44ColorRGB
 90
      255
102
RTVSPost2010PropOp44
 70
     1
102
RTVSPost2010Prop45
280
     0
102
RTVSPost2010PropOp45
 70
     1
102
RTVSPost2010Prop46
 90
       50
102
RTVSPost2010PropOp46
 70
     1
102
RTVSPost2010Prop47
 90
       50
102
RTVSPost2010PropOp47
 70
     1
102
RTVSPost2010Prop48
 90
       50
102
RTVSPost2010PropOp48
 70
     1
102
RTVSPost2010Prop49
280
     0
102
RTVSPost2010PropOp49
 70
     1
102
RTVSPost2010Prop50
 90
       50
102
RTVSPost2010PropOp50
 70
     1
102
RTVSPost2010Prop51ColorIndex
 90
      256
102
RTVSPost2010Prop51ColorRGB
 90
-16777216
102
RTVSPost2010PropOp51
 70
     0
102
RTVSPost2010Prop52
140
1.0
102
RTVSPost2010PropOp52
 70
     0
102
RTVSPost2010Prop53
 90
        2
102
RTVSPost2010PropOp53
 70
     1
102
RTVSPost2010Prop54
  1
strokes_ogs.tif
102
RTVSPost2010PropOp54
 70
     1
102
RTVSPost2010Prop55
280
     0
102
RTVSPost2010PropOp55
 70
     1
102
RTVSPost2010Prop56
140
1.0
102
RTVSPost2010PropOp56
 70
     1
102
RTVSPost2010Prop57
140
1.0
102
RTVSPost2010PropOp57
 70
     1
102
RTVSPropertyOp0
 70
     1
102
RTVSPropertyOp1
 70
     1
102
RTVSPropertyOp2
 70
     1
102
RTVSPropertyOp3
 70
     1
102
RTVSPropertyOp4
 70
     1
102
RTVSPropertyOp5
 70
     1
102
RTVSPropertyOp6
 70
     1
102
RTVSPropertyOp7
 70
     1
102
RTVSPropertyOp8
 70
     1
102
RTVSPropertyOp9
 70
     1
102
RTVSPropertyOp10
 70
     1
102
RTVSPropertyOp11
 70
     1
102
RTVSPropertyOp12
 70
     1
102
RTVSPropertyOp13
 70
     1
102
RTVSPropertyOp14
 70
     1
102
RTVSPropertyOp15
 70
     1
102
RTVSPropertyOp16
 70
     1
102
RTVSPropertyOp17
 70
     1
102
RTVSPropertyOp18
 70
     1
102
RTVSPropertyOp19
 70
     1
102
RTVSPropertyOp20
 70
     1
102
RTVSPropertyOp21
 70
     1
102
RTVSPropertyOp22
 70
     1
102
RTVSPropertyOp23
 70
     1
102
RTVSPropertyOp24
 70
     1
102
RTVSPropertyOp25
 70
     1
102
RTVSPropertyOp26
 70
     1
102
RTVSPropertyOp27
 70
     1
102
RTVSPropertyOp28
 70
     1
102
RTVSPropertyOp29
 70
     1
102
RTVSPropertyOp30
 70
     1
102
RTVSPropertyOp31
 70
     1
102
RTVSPropertyOp32
 70
     1
102
RTVSPropertyOp33
 70
     1
102
RTVSPropertyOp34
 70
     1
102
RTVSPropertyOp35
 70
     1
102
RTVSPropertyOp36
 70
     1
102
RTVSPropertyOp37
 70
     1
102
RTVSPropertyOp38
 70
     1
102
RTVSPropertyOp39
 70
     1
102
RTVSPropertyOp40
 70
     1
102
RTVSPropertyOp41
 70
     1
102
RTVSPropertyOp42
 70
     1
102
RTVSPropertyOp43
 70
     1
102
RTVSPropertyOp44
 70
     1
102
RTVSPropertyOp45
 70
     1
102
RTVSPropertyOp46
 70
     1
102
RTVSPropertyOp47
 70
     1
102
RTVSPropertyOp48
 70
     1
102
RTVSPropertyOp49
 70
     1
102
RTVSPropertyOp50
 70
     1
102
RTVSPropertyOp51
 70
     0
102
RTVSPropertyOp52
 70
     0
102
RTVSPropertyOp53
 70
     1
102
RTVSPropertyOp54
 70
     1
102
RTVSPropertyOp55
 70
     1
102
RTVSPropertyOp56
 70
     1
102
RTVSPropertyOp57
 70
     1
102
RTVSPropertyOp58
 70
     1
102
RTVSPropertyOp59
 70
     1
102
RTVSPropertyOp60
 70
     1
102
RTVSPropertyOp61
 70
     1
102
RTVSPropertyOp62
 70
     1
  0
XRECORD
  5
77A6
102
{ACAD_REACTORS
330
77A5
102
}
330
77A5
100
AcDbXrecord
280
     1
102
RTVSPost2010Prop28
280
     0
102
RTVSPost2010PropOp28
 70
     1
102
RTVSPost2010Prop29
280
     1
102
RTVSPost2010PropOp29
 70
     1
102
RTVSPost2010Prop30
280
     1
102
RTVSPost2010PropOp30
 70
     1
102
RTVSPost2010Prop31
280
     0
102
RTVSPost2010PropOp31
 70
     1
102
RTVSPost2010Prop32
280
     0
102
RTVSPost2010PropOp32
 70
     1
102
RTVSPost2010Prop33
280
     0
102
RTVSPost2010PropOp33
 70
     1
102
RTVSPost2010Prop34
280
     0
102
RTVSPost2010PropOp34
 70
     1
102
RTVSPost2010Prop35
280
     0
102
RTVSPost2010PropOp35
 70
     1
102
RTVSPost2010Prop36
280
     0
102
RTVSPost2010PropOp36
 70
     1
102
RTVSPost2010Prop37
 90
       50
102
RTVSPost2010PropOp37
 70
     0
102
RTVSPost2010Prop38
140
0.0
102
RTVSPost2010PropOp38
 70
     0
102
RTVSPost2010Prop39
140
1.0
102
RTVSPost2010PropOp39
 70
     0
102
RTVSPost2010Prop40
 90
        0
102
RTVSPost2010PropOp40
 70
     0
102
RTVSPost2010Prop41ColorIndex
 90
       18
102
RTVSPost2010Prop41ColorRGB
 90
        0
102
RTVSPost2010PropOp41
 70
     0
102
RTVSPost2010Prop42
 90
       50
102
RTVSPost2010PropOp42
 70
     0
102
RTVSPost2010Prop43
 90
        3
102
RTVSPost2010PropOp43
 70
     0
102
RTVSPost2010Prop44ColorIndex
 90
        5
102
RTVSPost2010Prop44ColorRGB
 90
      255
102
RTVSPost2010PropOp44
 70
     0
102
RTVSPost2010Prop45
280
     0
102
RTVSPost2010PropOp45
 70
     1
102
RTVSPost2010Prop46
 90
       50
102
RTVSPost2010PropOp46
 70
     0
102
RTVSPost2010Prop47
 90
       50
102
RTVSPost2010PropOp47
 70
     0
102
RTVSPost2010Prop48
 90
       50
102
RTVSPost2010PropOp48
 70
     0
102
RTVSPost2010Prop49
280
     0
102
RTVSPost2010PropOp49
 70
     1
102
RTVSPost2010Prop50
 90
       50
102
RTVSPost2010PropOp50
 70
     0
102
RTVSPost2010Prop51ColorIndex
 90
      256
102
RTVSPost2010Prop51ColorRGB
 90
-16777216
102
RTVSPost2010PropOp51
 70
     0
102
RTVSPost2010Prop52
140
1.0
102
RTVSPost2010PropOp52
 70
     0
102
RTVSPost2010Prop53
 90
        2
102
RTVSPost2010PropOp53
 70
     0
102
RTVSPost2010Prop54
  1
strokes_ogs.tif
102
RTVSPost2010PropOp54
 70
     0
102
RTVSPost2010Prop55
280
     0
102
RTVSPost2010PropOp55
 70
     1
102
RTVSPost2010Prop56
140
1.0
102
RTVSPost2010PropOp56
 70
     0
102
RTVSPost2010Prop57
140
1.0
102
RTVSPost2010PropOp57
 70
     0
102
RTVSPropertyOp0
 70
     0
102
RTVSPropertyOp1
 70
     0
102
RTVSPropertyOp2
 70
     0
102
RTVSPropertyOp3
 70
     0
102
RTVSPropertyOp4
 70
     0
102
RTVSPropertyOp5
 70
     0
102
RTVSPropertyOp6
 70
     0
102
RTVSPropertyOp7
 70
     0
102
RTVSPropertyOp8
 70
     0
102
RTVSPropertyOp9
 70
     0
102
RTVSPropertyOp10
 70
     0
102
RTVSPropertyOp11
 70
     0
102
RTVSPropertyOp12
 70
     0
102
RTVSPropertyOp13
 70
     0
102
RTVSPropertyOp14
 70
     2
102
RTVSPropertyOp15
 70
     0
102
RTVSPropertyOp16
 70
     0
102
RTVSPropertyOp17
 70
     0
102
RTVSPropertyOp18
 70
     0
102
RTVSPropertyOp19
 70
     0
102
RTVSPropertyOp20
 70
     0
102
RTVSPropertyOp21
 70
     0
102
RTVSPropertyOp22
 70
     0
102
RTVSPropertyOp23
 70
     0
102
RTVSPropertyOp24
 70
     0
102
RTVSPropertyOp25
 70
     0
102
RTVSPropertyOp26
 70
     0
102
RTVSPropertyOp27
 70
     0
102
RTVSPropertyOp28
 70
     1
102
RTVSPropertyOp29
 70
     1
102
RTVSPropertyOp30
 70
     1
102
RTVSPropertyOp31
 70
     1
102
RTVSPropertyOp32
 70
     1
102
RTVSPropertyOp33
 70
     1
102
RTVSPropertyOp34
 70
     1
102
RTVSPropertyOp35
 70
     1
102
RTVSPropertyOp36
 70
     1
102
RTVSPropertyOp37
 70
     0
102
RTVSPropertyOp38
 70
     0
102
RTVSPropertyOp39
 70
     0
102
RTVSPropertyOp40
 70
     0
102
RTVSPropertyOp41
 70
     0
102
RTVSPropertyOp42
 70
     0
102
RTVSPropertyOp43
 70
     0
102
RTVSPropertyOp44
 70
     0
102
RTVSPropertyOp45
 70
     1
102
RTVSPropertyOp46
 70
     0
102
RTVSPropertyOp47
 70
     0
102
RTVSPropertyOp48
 70
     0
102
RTVSPropertyOp49
 70
     1
102
RTVSPropertyOp50
 70
     0
102
RTVSPropertyOp51
 70
     0
102
RTVSPropertyOp52
 70
     0
102
RTVSPropertyOp53
 70
     0
102
RTVSPropertyOp54
 70
     0
102
RTVSPropertyOp55
 70
     1
102
RTVSPropertyOp56
 70
     0
102
RTVSPropertyOp57
 70
     0
102
RTVSPropertyOp58
 70
     0
102
RTVSPropertyOp59
 70
     0
102
RTVSPropertyOp60
 70
     0
102
RTVSPropertyOp61
 70
     0
102
RTVSPropertyOp62
 70
     0
  0
XRECORD
  5
778C
102
{ACAD_REACTORS
330
778B
102
}
330
778B
100
AcDbXrecord
280
     1
102
RTVSPost2010Prop28
280
     0
102
RTVSPost2010PropOp28
 70
     1
102
RTVSPost2010Prop29
280
     1
102
RTVSPost2010PropOp29
 70
     1
102
RTVSPost2010Prop30
280
     1
102
RTVSPost2010PropOp30
 70
     1
102
RTVSPost2010Prop31
280
     0
102
RTVSPost2010PropOp31
 70
     1
102
RTVSPost2010Prop32
280
     0
102
RTVSPost2010PropOp32
 70
     1
102
RTVSPost2010Prop33
280
     0
102
RTVSPost2010PropOp33
 70
     1
102
RTVSPost2010Prop34
280
     0
102
RTVSPost2010PropOp34
 70
     1
102
RTVSPost2010Prop35
280
     0
102
RTVSPost2010PropOp35
 70
     1
102
RTVSPost2010Prop36
280
     0
102
RTVSPost2010PropOp36
 70
     1
102
RTVSPost2010Prop37
 90
       50
102
RTVSPost2010PropOp37
 70
     1
102
RTVSPost2010Prop38
140
0.0
102
RTVSPost2010PropOp38
 70
     1
102
RTVSPost2010Prop39
140
1.0
102
RTVSPost2010PropOp39
 70
     1
102
RTVSPost2010Prop40
 90
        0
102
RTVSPost2010PropOp40
 70
     1
102
RTVSPost2010Prop41ColorIndex
 90
       18
102
RTVSPost2010Prop41ColorRGB
 90
        0
102
RTVSPost2010PropOp41
 70
     1
102
RTVSPost2010Prop42
 90
       50
102
RTVSPost2010PropOp42
 70
     1
102
RTVSPost2010Prop43
 90
        3
102
RTVSPost2010PropOp43
 70
     1
102
RTVSPost2010Prop44ColorIndex
 90
        5
102
RTVSPost2010Prop44ColorRGB
 90
      255
102
RTVSPost2010PropOp44
 70
     1
102
RTVSPost2010Prop45
280
     0
102
RTVSPost2010PropOp45
 70
     1
102
RTVSPost2010Prop46
 90
       50
102
RTVSPost2010PropOp46
 70
     1
102
RTVSPost2010Prop47
 90
       50
102
RTVSPost2010PropOp47
 70
     1
102
RTVSPost2010Prop48
 90
       50
102
RTVSPost2010PropOp48
 70
     1
102
RTVSPost2010Prop49
280
     0
102
RTVSPost2010PropOp49
 70
     1
102
RTVSPost2010Prop50
 90
       50
102
RTVSPost2010PropOp50
 70
     1
102
RTVSPost2010Prop51ColorIndex
 90
      256
102
RTVSPost2010Prop51ColorRGB
 90
-16777216
102
RTVSPost2010PropOp51
 70
     0
102
RTVSPost2010Prop52
140
1.0
102
RTVSPost2010PropOp52
 70
     0
102
RTVSPost2010Prop53
 90
        2
102
RTVSPost2010PropOp53
 70
     1
102
RTVSPost2010Prop54
  1
strokes_ogs.tif
102
RTVSPost2010PropOp54
 70
     1
102
RTVSPost2010Prop55
280
     0
102
RTVSPost2010PropOp55
 70
     1
102
RTVSPost2010Prop56
140
1.0
102
RTVSPost2010PropOp56
 70
     1
102
RTVSPost2010Prop57
140
1.0
102
RTVSPost2010PropOp57
 70
     1
102
RTVSPropertyOp0
 70
     1
102
RTVSPropertyOp1
 70
     1
102
RTVSPropertyOp2
 70
     1
102
RTVSPropertyOp3
 70
     1
102
RTVSPropertyOp4
 70
     1
102
RTVSPropertyOp5
 70
     1
102
RTVSPropertyOp6
 70
     1
102
RTVSPropertyOp7
 70
     1
102
RTVSPropertyOp8
 70
     1
102
RTVSPropertyOp9
 70
     1
102
RTVSPropertyOp10
 70
     1
102
RTVSPropertyOp11
 70
     1
102
RTVSPropertyOp12
 70
     1
102
RTVSPropertyOp13
 70
     1
102
RTVSPropertyOp14
 70
     1
102
RTVSPropertyOp15
 70
     1
102
RTVSPropertyOp16
 70
     1
102
RTVSPropertyOp17
 70
     1
102
RTVSPropertyOp18
 70
     1
102
RTVSPropertyOp19
 70
     1
102
RTVSPropertyOp20
 70
     1
102
RTVSPropertyOp21
 70
     1
102
RTVSPropertyOp22
 70
     1
102
RTVSPropertyOp23
 70
     1
102
RTVSPropertyOp24
 70
     1
102
RTVSPropertyOp25
 70
     1
102
RTVSPropertyOp26
 70
     1
102
RTVSPropertyOp27
 70
     1
102
RTVSPropertyOp28
 70
     1
102
RTVSPropertyOp29
 70
     1
102
RTVSPropertyOp30
 70
     1
102
RTVSPropertyOp31
 70
     1
102
RTVSPropertyOp32
 70
     1
102
RTVSPropertyOp33
 70
     1
102
RTVSPropertyOp34
 70
     1
102
RTVSPropertyOp35
 70
     1
102
RTVSPropertyOp36
 70
     1
102
RTVSPropertyOp37
 70
     1
102
RTVSPropertyOp38
 70
     1
102
RTVSPropertyOp39
 70
     1
102
RTVSPropertyOp40
 70
     1
102
RTVSPropertyOp41
 70
     1
102
RTVSPropertyOp42
 70
     1
102
RTVSPropertyOp43
 70
     1
102
RTVSPropertyOp44
 70
     1
102
RTVSPropertyOp45
 70
     1
102
RTVSPropertyOp46
 70
     1
102
RTVSPropertyOp47
 70
     1
102
RTVSPropertyOp48
 70
     1
102
RTVSPropertyOp49
 70
     1
102
RTVSPropertyOp50
 70
     1
102
RTVSPropertyOp51
 70
     0
102
RTVSPropertyOp52
 70
     0
102
RTVSPropertyOp53
 70
     1
102
RTVSPropertyOp54
 70
     1
102
RTVSPropertyOp55
 70
     1
102
RTVSPropertyOp56
 70
     1
102
RTVSPropertyOp57
 70
     1
102
RTVSPropertyOp58
 70
     1
102
RTVSPropertyOp59
 70
     1
102
RTVSPropertyOp60
 70
     1
102
RTVSPropertyOp61
 70
     1
102
RTVSPropertyOp62
 70
     1
  0
XRECORD
  5
77A2
102
{ACAD_REACTORS
330
77A1
102
}
330
77A1
100
AcDbXrecord
280
     1
102
RTVSPost2010Prop28
280
     0
102
RTVSPost2010PropOp28
 70
     1
102
RTVSPost2010Prop29
280
     1
102
RTVSPost2010PropOp29
 70
     1
102
RTVSPost2010Prop30
280
     1
102
RTVSPost2010PropOp30
 70
     1
102
RTVSPost2010Prop31
280
     0
102
RTVSPost2010PropOp31
 70
     1
102
RTVSPost2010Prop32
280
     0
102
RTVSPost2010PropOp32
 70
     1
102
RTVSPost2010Prop33
280
     0
102
RTVSPost2010PropOp33
 70
     1
102
RTVSPost2010Prop34
280
     0
102
RTVSPost2010PropOp34
 70
     1
102
RTVSPost2010Prop35
280
     0
102
RTVSPost2010PropOp35
 70
     1
102
RTVSPost2010Prop36
280
     0
102
RTVSPost2010PropOp36
 70
     1
102
RTVSPost2010Prop37
 90
       50
102
RTVSPost2010PropOp37
 70
     1
102
RTVSPost2010Prop38
140
0.0
102
RTVSPost2010PropOp38
 70
     1
102
RTVSPost2010Prop39
140
1.0
102
RTVSPost2010PropOp39
 70
     1
102
RTVSPost2010Prop40
 90
        0
102
RTVSPost2010PropOp40
 70
     1
102
RTVSPost2010Prop41ColorIndex
 90
       18
102
RTVSPost2010Prop41ColorRGB
 90
        0
102
RTVSPost2010PropOp41
 70
     1
102
RTVSPost2010Prop42
 90
       50
102
RTVSPost2010PropOp42
 70
     1
102
RTVSPost2010Prop43
 90
        3
102
RTVSPost2010PropOp43
 70
     1
102
RTVSPost2010Prop44ColorIndex
 90
        5
102
RTVSPost2010Prop44ColorRGB
 90
      255
102
RTVSPost2010PropOp44
 70
     1
102
RTVSPost2010Prop45
280
     0
102
RTVSPost2010PropOp45
 70
     1
102
RTVSPost2010Prop46
 90
       50
102
RTVSPost2010PropOp46
 70
     1
102
RTVSPost2010Prop47
 90
       50
102
RTVSPost2010PropOp47
 70
     1
102
RTVSPost2010Prop48
 90
       50
102
RTVSPost2010PropOp48
 70
     1
102
RTVSPost2010Prop49
280
     0
102
RTVSPost2010PropOp49
 70
     1
102
RTVSPost2010Prop50
 90
       50
102
RTVSPost2010PropOp50
 70
     1
102
RTVSPost2010Prop51ColorIndex
 90
      256
102
RTVSPost2010Prop51ColorRGB
 90
-16777216
102
RTVSPost2010PropOp51
 70
     0
102
RTVSPost2010Prop52
140
1.0
102
RTVSPost2010PropOp52
 70
     0
102
RTVSPost2010Prop53
 90
        2
102
RTVSPost2010PropOp53
 70
     1
102
RTVSPost2010Prop54
  1
strokes_ogs.tif
102
RTVSPost2010PropOp54
 70
     1
102
RTVSPost2010Prop55
280
     0
102
RTVSPost2010PropOp55
 70
     1
102
RTVSPost2010Prop56
140
1.0
102
RTVSPost2010PropOp56
 70
     1
102
RTVSPost2010Prop57
140
1.0
102
RTVSPost2010PropOp57
 70
     1
102
RTVSPropertyOp0
 70
     1
102
RTVSPropertyOp1
 70
     1
102
RTVSPropertyOp2
 70
     1
102
RTVSPropertyOp3
 70
     1
102
RTVSPropertyOp4
 70
     1
102
RTVSPropertyOp5
 70
     1
102
RTVSPropertyOp6
 70
     1
102
RTVSPropertyOp7
 70
     1
102
RTVSPropertyOp8
 70
     1
102
RTVSPropertyOp9
 70
     1
102
RTVSPropertyOp10
 70
     1
102
RTVSPropertyOp11
 70
     1
102
RTVSPropertyOp12
 70
     1
102
RTVSPropertyOp13
 70
     1
102
RTVSPropertyOp14
 70
     1
102
RTVSPropertyOp15
 70
     1
102
RTVSPropertyOp16
 70
     1
102
RTVSPropertyOp17
 70
     1
102
RTVSPropertyOp18
 70
     1
102
RTVSPropertyOp19
 70
     1
102
RTVSPropertyOp20
 70
     1
102
RTVSPropertyOp21
 70
     1
102
RTVSPropertyOp22
 70
     1
102
RTVSPropertyOp23
 70
     1
102
RTVSPropertyOp24
 70
     1
102
RTVSPropertyOp25
 70
     1
102
RTVSPropertyOp26
 70
     1
102
RTVSPropertyOp27
 70
     1
102
RTVSPropertyOp28
 70
     1
102
RTVSPropertyOp29
 70
     1
102
RTVSPropertyOp30
 70
     1
102
RTVSPropertyOp31
 70
     1
102
RTVSPropertyOp32
 70
     1
102
RTVSPropertyOp33
 70
     1
102
RTVSPropertyOp34
 70
     1
102
RTVSPropertyOp35
 70
     1
102
RTVSPropertyOp36
 70
     1
102
RTVSPropertyOp37
 70
     1
102
RTVSPropertyOp38
 70
     1
102
RTVSPropertyOp39
 70
     1
102
RTVSPropertyOp40
 70
     1
102
RTVSPropertyOp41
 70
     1
102
RTVSPropertyOp42
 70
     1
102
RTVSPropertyOp43
 70
     1
102
RTVSPropertyOp44
 70
     1
102
RTVSPropertyOp45
 70
     1
102
RTVSPropertyOp46
 70
     1
102
RTVSPropertyOp47
 70
     1
102
RTVSPropertyOp48
 70
     1
102
RTVSPropertyOp49
 70
     1
102
RTVSPropertyOp50
 70
     1
102
RTVSPropertyOp51
 70
     0
102
RTVSPropertyOp52
 70
     0
102
RTVSPropertyOp53
 70
     1
102
RTVSPropertyOp54
 70
     1
102
RTVSPropertyOp55
 70
     1
102
RTVSPropertyOp56
 70
     1
102
RTVSPropertyOp57
 70
     1
102
RTVSPropertyOp58
 70
     1
102
RTVSPropertyOp59
 70
     1
102
RTVSPropertyOp60
 70
     1
102
RTVSPropertyOp61
 70
     1
102
RTVSPropertyOp62
 70
     1
  0
XRECORD
  5
77A0
102
{ACAD_REACTORS
330
779F
102
}
330
779F
100
AcDbXrecord
280
     1
102
RTVSPost2010Prop28
280
     0
102
RTVSPost2010PropOp28
 70
     1
102
RTVSPost2010Prop29
280
     1
102
RTVSPost2010PropOp29
 70
     1
102
RTVSPost2010Prop30
280
     1
102
RTVSPost2010PropOp30
 70
     1
102
RTVSPost2010Prop31
280
     0
102
RTVSPost2010PropOp31
 70
     1
102
RTVSPost2010Prop32
280
     0
102
RTVSPost2010PropOp32
 70
     1
102
RTVSPost2010Prop33
280
     0
102
RTVSPost2010PropOp33
 70
     1
102
RTVSPost2010Prop34
280
     0
102
RTVSPost2010PropOp34
 70
     1
102
RTVSPost2010Prop35
280
     0
102
RTVSPost2010PropOp35
 70
     1
102
RTVSPost2010Prop36
280
     0
102
RTVSPost2010PropOp36
 70
     1
102
RTVSPost2010Prop37
 90
       50
102
RTVSPost2010PropOp37
 70
     1
102
RTVSPost2010Prop38
140
0.0
102
RTVSPost2010PropOp38
 70
     1
102
RTVSPost2010Prop39
140
1.0
102
RTVSPost2010PropOp39
 70
     1
102
RTVSPost2010Prop40
 90
        0
102
RTVSPost2010PropOp40
 70
     1
102
RTVSPost2010Prop41ColorIndex
 90
       18
102
RTVSPost2010Prop41ColorRGB
 90
        0
102
RTVSPost2010PropOp41
 70
     1
102
RTVSPost2010Prop42
 90
       50
102
RTVSPost2010PropOp42
 70
     1
102
RTVSPost2010Prop43
 90
        3
102
RTVSPost2010PropOp43
 70
     1
102
RTVSPost2010Prop44ColorIndex
 90
        5
102
RTVSPost2010Prop44ColorRGB
 90
      255
102
RTVSPost2010PropOp44
 70
     1
102
RTVSPost2010Prop45
280
     0
102
RTVSPost2010PropOp45
 70
     1
102
RTVSPost2010Prop46
 90
       50
102
RTVSPost2010PropOp46
 70
     1
102
RTVSPost2010Prop47
 90
       50
102
RTVSPost2010PropOp47
 70
     1
102
RTVSPost2010Prop48
 90
       50
102
RTVSPost2010PropOp48
 70
     1
102
RTVSPost2010Prop49
280
     0
102
RTVSPost2010PropOp49
 70
     1
102
RTVSPost2010Prop50
 90
       50
102
RTVSPost2010PropOp50
 70
     1
102
RTVSPost2010Prop51ColorIndex
 90
      256
102
RTVSPost2010Prop51ColorRGB
 90
-16777216
102
RTVSPost2010PropOp51
 70
     0
102
RTVSPost2010Prop52
140
1.0
102
RTVSPost2010PropOp52
 70
     0
102
RTVSPost2010Prop53
 90
        2
102
RTVSPost2010PropOp53
 70
     1
102
RTVSPost2010Prop54
  1
strokes_ogs.tif
102
RTVSPost2010PropOp54
 70
     1
102
RTVSPost2010Prop55
280
     0
102
RTVSPost2010PropOp55
 70
     1
102
RTVSPost2010Prop56
140
1.0
102
RTVSPost2010PropOp56
 70
     1
102
RTVSPost2010Prop57
140
1.0
102
RTVSPost2010PropOp57
 70
     1
102
RTVSPropertyOp0
 70
     1
102
RTVSPropertyOp1
 70
     1
102
RTVSPropertyOp2
 70
     1
102
RTVSPropertyOp3
 70
     1
102
RTVSPropertyOp4
 70
     1
102
RTVSPropertyOp5
 70
     1
102
RTVSPropertyOp6
 70
     1
102
RTVSPropertyOp7
 70
     1
102
RTVSPropertyOp8
 70
     1
102
RTVSPropertyOp9
 70
     1
102
RTVSPropertyOp10
 70
     1
102
RTVSPropertyOp11
 70
     1
102
RTVSPropertyOp12
 70
     1
102
RTVSPropertyOp13
 70
     1
102
RTVSPropertyOp14
 70
     1
102
RTVSPropertyOp15
 70
     1
102
RTVSPropertyOp16
 70
     1
102
RTVSPropertyOp17
 70
     1
102
RTVSPropertyOp18
 70
     1
102
RTVSPropertyOp19
 70
     1
102
RTVSPropertyOp20
 70
     1
102
RTVSPropertyOp21
 70
     1
102
RTVSPropertyOp22
 70
     1
102
RTVSPropertyOp23
 70
     1
102
RTVSPropertyOp24
 70
     1
102
RTVSPropertyOp25
 70
     1
102
RTVSPropertyOp26
 70
     1
102
RTVSPropertyOp27
 70
     1
102
RTVSPropertyOp28
 70
     1
102
RTVSPropertyOp29
 70
     1
102
RTVSPropertyOp30
 70
     1
102
RTVSPropertyOp31
 70
     1
102
RTVSPropertyOp32
 70
     1
102
RTVSPropertyOp33
 70
     1
102
RTVSPropertyOp34
 70
     1
102
RTVSPropertyOp35
 70
     1
102
RTVSPropertyOp36
 70
     1
102
RTVSPropertyOp37
 70
     1
102
RTVSPropertyOp38
 70
     1
102
RTVSPropertyOp39
 70
     1
102
RTVSPropertyOp40
 70
     1
102
RTVSPropertyOp41
 70
     1
102
RTVSPropertyOp42
 70
     1
102
RTVSPropertyOp43
 70
     1
102
RTVSPropertyOp44
 70
     1
102
RTVSPropertyOp45
 70
     1
102
RTVSPropertyOp46
 70
     1
102
RTVSPropertyOp47
 70
     1
102
RTVSPropertyOp48
 70
     1
102
RTVSPropertyOp49
 70
     1
102
RTVSPropertyOp50
 70
     1
102
RTVSPropertyOp51
 70
     0
102
RTVSPropertyOp52
 70
     0
102
RTVSPropertyOp53
 70
     1
102
RTVSPropertyOp54
 70
     1
102
RTVSPropertyOp55
 70
     1
102
RTVSPropertyOp56
 70
     1
102
RTVSPropertyOp57
 70
     1
102
RTVSPropertyOp58
 70
     1
102
RTVSPropertyOp59
 70
     1
102
RTVSPropertyOp60
 70
     1
102
RTVSPropertyOp61
 70
     1
102
RTVSPropertyOp62
 70
     1
  0
XRECORD
  5
779A
102
{ACAD_REACTORS
330
7799
102
}
330
7799
100
AcDbXrecord
280
     1
102
RTVSPost2010Prop28
280
     0
102
RTVSPost2010PropOp28
 70
     1
102
RTVSPost2010Prop29
280
     1
102
RTVSPost2010PropOp29
 70
     1
102
RTVSPost2010Prop30
280
     1
102
RTVSPost2010PropOp30
 70
     1
102
RTVSPost2010Prop31
280
     0
102
RTVSPost2010PropOp31
 70
     1
102
RTVSPost2010Prop32
280
     0
102
RTVSPost2010PropOp32
 70
     1
102
RTVSPost2010Prop33
280
     0
102
RTVSPost2010PropOp33
 70
     1
102
RTVSPost2010Prop34
280
     0
102
RTVSPost2010PropOp34
 70
     1
102
RTVSPost2010Prop35
280
     0
102
RTVSPost2010PropOp35
 70
     1
102
RTVSPost2010Prop36
280
     0
102
RTVSPost2010PropOp36
 70
     1
102
RTVSPost2010Prop37
 90
       50
102
RTVSPost2010PropOp37
 70
     1
102
RTVSPost2010Prop38
140
0.0
102
RTVSPost2010PropOp38
 70
     1
102
RTVSPost2010Prop39
140
1.0
102
RTVSPost2010PropOp39
 70
     1
102
RTVSPost2010Prop40
 90
        0
102
RTVSPost2010PropOp40
 70
     1
102
RTVSPost2010Prop41ColorIndex
 90
       18
102
RTVSPost2010Prop41ColorRGB
 90
        0
102
RTVSPost2010PropOp41
 70
     1
102
RTVSPost2010Prop42
 90
       50
102
RTVSPost2010PropOp42
 70
     1
102
RTVSPost2010Prop43
 90
        3
102
RTVSPost2010PropOp43
 70
     1
102
RTVSPost2010Prop44ColorIndex
 90
        5
102
RTVSPost2010Prop44ColorRGB
 90
      255
102
RTVSPost2010PropOp44
 70
     1
102
RTVSPost2010Prop45
280
     0
102
RTVSPost2010PropOp45
 70
     1
102
RTVSPost2010Prop46
 90
       50
102
RTVSPost2010PropOp46
 70
     1
102
RTVSPost2010Prop47
 90
       50
102
RTVSPost2010PropOp47
 70
     1
102
RTVSPost2010Prop48
 90
       50
102
RTVSPost2010PropOp48
 70
     1
102
RTVSPost2010Prop49
280
     0
102
RTVSPost2010PropOp49
 70
     1
102
RTVSPost2010Prop50
 90
       50
102
RTVSPost2010PropOp50
 70
     1
102
RTVSPost2010Prop51ColorIndex
 90
      256
102
RTVSPost2010Prop51ColorRGB
 90
-16777216
102
RTVSPost2010PropOp51
 70
     0
102
RTVSPost2010Prop52
140
1.0
102
RTVSPost2010PropOp52
 70
     0
102
RTVSPost2010Prop53
 90
        2
102
RTVSPost2010PropOp53
 70
     1
102
RTVSPost2010Prop54
  1
strokes_ogs.tif
102
RTVSPost2010PropOp54
 70
     1
102
RTVSPost2010Prop55
280
     0
102
RTVSPost2010PropOp55
 70
     1
102
RTVSPost2010Prop56
140
1.0
102
RTVSPost2010PropOp56
 70
     1
102
RTVSPost2010Prop57
140
1.0
102
RTVSPost2010PropOp57
 70
     1
102
RTVSPropertyOp0
 70
     1
102
RTVSPropertyOp1
 70
     1
102
RTVSPropertyOp2
 70
     1
102
RTVSPropertyOp3
 70
     1
102
RTVSPropertyOp4
 70
     1
102
RTVSPropertyOp5
 70
     1
102
RTVSPropertyOp6
 70
     1
102
RTVSPropertyOp7
 70
     1
102
RTVSPropertyOp8
 70
     1
102
RTVSPropertyOp9
 70
     1
102
RTVSPropertyOp10
 70
     1
102
RTVSPropertyOp11
 70
     1
102
RTVSPropertyOp12
 70
     1
102
RTVSPropertyOp13
 70
     1
102
RTVSPropertyOp14
 70
     1
102
RTVSPropertyOp15
 70
     1
102
RTVSPropertyOp16
 70
     1
102
RTVSPropertyOp17
 70
     1
102
RTVSPropertyOp18
 70
     1
102
RTVSPropertyOp19
 70
     1
102
RTVSPropertyOp20
 70
     1
102
RTVSPropertyOp21
 70
     1
102
RTVSPropertyOp22
 70
     1
102
RTVSPropertyOp23
 70
     1
102
RTVSPropertyOp24
 70
     1
102
RTVSPropertyOp25
 70
     1
102
RTVSPropertyOp26
 70
     1
102
RTVSPropertyOp27
 70
     1
102
RTVSPropertyOp28
 70
     1
102
RTVSPropertyOp29
 70
     1
102
RTVSPropertyOp30
 70
     1
102
RTVSPropertyOp31
 70
     1
102
RTVSPropertyOp32
 70
     1
102
RTVSPropertyOp33
 70
     1
102
RTVSPropertyOp34
 70
     1
102
RTVSPropertyOp35
 70
     1
102
RTVSPropertyOp36
 70
     1
102
RTVSPropertyOp37
 70
     1
102
RTVSPropertyOp38
 70
     1
102
RTVSPropertyOp39
 70
     1
102
RTVSPropertyOp40
 70
     1
102
RTVSPropertyOp41
 70
     1
102
RTVSPropertyOp42
 70
     1
102
RTVSPropertyOp43
 70
     1
102
RTVSPropertyOp44
 70
     1
102
RTVSPropertyOp45
 70
     1
102
RTVSPropertyOp46
 70
     1
102
RTVSPropertyOp47
 70
     1
102
RTVSPropertyOp48
 70
     1
102
RTVSPropertyOp49
 70
     1
102
RTVSPropertyOp50
 70
     1
102
RTVSPropertyOp51
 70
     0
102
RTVSPropertyOp52
 70
     0
102
RTVSPropertyOp53
 70
     1
102
RTVSPropertyOp54
 70
     1
102
RTVSPropertyOp55
 70
     1
102
RTVSPropertyOp56
 70
     1
102
RTVSPropertyOp57
 70
     1
102
RTVSPropertyOp58
 70
     1
102
RTVSPropertyOp59
 70
     1
102
RTVSPropertyOp60
 70
     1
102
RTVSPropertyOp61
 70
     1
102
RTVSPropertyOp62
 70
     1
  0
XRECORD
  5
779C
102
{ACAD_REACTORS
330
779B
102
}
330
779B
100
AcDbXrecord
280
     1
102
RTVSPost2010Prop28
280
     0
102
RTVSPost2010PropOp28
 70
     1
102
RTVSPost2010Prop29
280
     1
102
RTVSPost2010PropOp29
 70
     1
102
RTVSPost2010Prop30
280
     1
102
RTVSPost2010PropOp30
 70
     1
102
RTVSPost2010Prop31
280
     0
102
RTVSPost2010PropOp31
 70
     1
102
RTVSPost2010Prop32
280
     0
102
RTVSPost2010PropOp32
 70
     1
102
RTVSPost2010Prop33
280
     0
102
RTVSPost2010PropOp33
 70
     1
102
RTVSPost2010Prop34
280
     0
102
RTVSPost2010PropOp34
 70
     1
102
RTVSPost2010Prop35
280
     0
102
RTVSPost2010PropOp35
 70
     1
102
RTVSPost2010Prop36
280
     0
102
RTVSPost2010PropOp36
 70
     1
102
RTVSPost2010Prop37
 90
       50
102
RTVSPost2010PropOp37
 70
     1
102
RTVSPost2010Prop38
140
0.0
102
RTVSPost2010PropOp38
 70
     1
102
RTVSPost2010Prop39
140
1.0
102
RTVSPost2010PropOp39
 70
     1
102
RTVSPost2010Prop40
 90
        0
102
RTVSPost2010PropOp40
 70
     1
102
RTVSPost2010Prop41ColorIndex
 90
       18
102
RTVSPost2010Prop41ColorRGB
 90
        0
102
RTVSPost2010PropOp41
 70
     1
102
RTVSPost2010Prop42
 90
       50
102
RTVSPost2010PropOp42
 70
     1
102
RTVSPost2010Prop43
 90
        3
102
RTVSPost2010PropOp43
 70
     1
102
RTVSPost2010Prop44ColorIndex
 90
        5
102
RTVSPost2010Prop44ColorRGB
 90
      255
102
RTVSPost2010PropOp44
 70
     1
102
RTVSPost2010Prop45
280
     0
102
RTVSPost2010PropOp45
 70
     1
102
RTVSPost2010Prop46
 90
       50
102
RTVSPost2010PropOp46
 70
     1
102
RTVSPost2010Prop47
 90
       50
102
RTVSPost2010PropOp47
 70
     1
102
RTVSPost2010Prop48
 90
       50
102
RTVSPost2010PropOp48
 70
     1
102
RTVSPost2010Prop49
280
     0
102
RTVSPost2010PropOp49
 70
     1
102
RTVSPost2010Prop50
 90
       50
102
RTVSPost2010PropOp50
 70
     1
102
RTVSPost2010Prop51ColorIndex
 90
      256
102
RTVSPost2010Prop51ColorRGB
 90
-16777216
102
RTVSPost2010PropOp51
 70
     0
102
RTVSPost2010Prop52
140
1.0
102
RTVSPost2010PropOp52
 70
     0
102
RTVSPost2010Prop53
 90
        2
102
RTVSPost2010PropOp53
 70
     1
102
RTVSPost2010Prop54
  1
strokes_ogs.tif
102
RTVSPost2010PropOp54
 70
     1
102
RTVSPost2010Prop55
280
     0
102
RTVSPost2010PropOp55
 70
     1
102
RTVSPost2010Prop56
140
1.0
102
RTVSPost2010PropOp56
 70
     1
102
RTVSPost2010Prop57
140
1.0
102
RTVSPost2010PropOp57
 70
     1
102
RTVSPropertyOp0
 70
     1
102
RTVSPropertyOp1
 70
     1
102
RTVSPropertyOp2
 70
     1
102
RTVSPropertyOp3
 70
     1
102
RTVSPropertyOp4
 70
     1
102
RTVSPropertyOp5
 70
     1
102
RTVSPropertyOp6
 70
     1
102
RTVSPropertyOp7
 70
     1
102
RTVSPropertyOp8
 70
     1
102
RTVSPropertyOp9
 70
     1
102
RTVSPropertyOp10
 70
     1
102
RTVSPropertyOp11
 70
     1
102
RTVSPropertyOp12
 70
     1
102
RTVSPropertyOp13
 70
     1
102
RTVSPropertyOp14
 70
     1
102
RTVSPropertyOp15
 70
     1
102
RTVSPropertyOp16
 70
     1
102
RTVSPropertyOp17
 70
     1
102
RTVSPropertyOp18
 70
     1
102
RTVSPropertyOp19
 70
     1
102
RTVSPropertyOp20
 70
     1
102
RTVSPropertyOp21
 70
     1
102
RTVSPropertyOp22
 70
     1
102
RTVSPropertyOp23
 70
     1
102
RTVSPropertyOp24
 70
     1
102
RTVSPropertyOp25
 70
     1
102
RTVSPropertyOp26
 70
     1
102
RTVSPropertyOp27
 70
     1
102
RTVSPropertyOp28
 70
     1
102
RTVSPropertyOp29
 70
     1
102
RTVSPropertyOp30
 70
     1
102
RTVSPropertyOp31
 70
     1
102
RTVSPropertyOp32
 70
     1
102
RTVSPropertyOp33
 70
     1
102
RTVSPropertyOp34
 70
     1
102
RTVSPropertyOp35
 70
     1
102
RTVSPropertyOp36
 70
     1
102
RTVSPropertyOp37
 70
     1
102
RTVSPropertyOp38
 70
     1
102
RTVSPropertyOp39
 70
     1
102
RTVSPropertyOp40
 70
     1
102
RTVSPropertyOp41
 70
     1
102
RTVSPropertyOp42
 70
     1
102
RTVSPropertyOp43
 70
     1
102
RTVSPropertyOp44
 70
     1
102
RTVSPropertyOp45
 70
     1
102
RTVSPropertyOp46
 70
     1
102
RTVSPropertyOp47
 70
     1
102
RTVSPropertyOp48
 70
     1
102
RTVSPropertyOp49
 70
     1
102
RTVSPropertyOp50
 70
     1
102
RTVSPropertyOp51
 70
     0
102
RTVSPropertyOp52
 70
     0
102
RTVSPropertyOp53
 70
     1
102
RTVSPropertyOp54
 70
     1
102
RTVSPropertyOp55
 70
     1
102
RTVSPropertyOp56
 70
     1
102
RTVSPropertyOp57
 70
     1
102
RTVSPropertyOp58
 70
     1
102
RTVSPropertyOp59
 70
     1
102
RTVSPropertyOp60
 70
     1
102
RTVSPropertyOp61
 70
     1
102
RTVSPropertyOp62
 70
     1
  0
XRECORD
  5
7792
102
{ACAD_REACTORS
330
7791
102
}
330
7791
100
AcDbXrecord
280
     1
102
RTVSPost2010Prop28
280
     0
102
RTVSPost2010PropOp28
 70
     1
102
RTVSPost2010Prop29
280
     1
102
RTVSPost2010PropOp29
 70
     1
102
RTVSPost2010Prop30
280
     1
102
RTVSPost2010PropOp30
 70
     1
102
RTVSPost2010Prop31
280
     0
102
RTVSPost2010PropOp31
 70
     1
102
RTVSPost2010Prop32
280
     0
102
RTVSPost2010PropOp32
 70
     1
102
RTVSPost2010Prop33
280
     0
102
RTVSPost2010PropOp33
 70
     1
102
RTVSPost2010Prop34
280
     0
102
RTVSPost2010PropOp34
 70
     1
102
RTVSPost2010Prop35
280
     0
102
RTVSPost2010PropOp35
 70
     1
102
RTVSPost2010Prop36
280
     0
102
RTVSPost2010PropOp36
 70
     1
102
RTVSPost2010Prop37
 90
       50
102
RTVSPost2010PropOp37
 70
     1
102
RTVSPost2010Prop38
140
0.0
102
RTVSPost2010PropOp38
 70
     1
102
RTVSPost2010Prop39
140
1.0
102
RTVSPost2010PropOp39
 70
     1
102
RTVSPost2010Prop40
 90
        0
102
RTVSPost2010PropOp40
 70
     1
102
RTVSPost2010Prop41ColorIndex
 90
       18
102
RTVSPost2010Prop41ColorRGB
 90
        0
102
RTVSPost2010PropOp41
 70
     1
102
RTVSPost2010Prop42
 90
       50
102
RTVSPost2010PropOp42
 70
     1
102
RTVSPost2010Prop43
 90
        3
102
RTVSPost2010PropOp43
 70
     1
102
RTVSPost2010Prop44ColorIndex
 90
        5
102
RTVSPost2010Prop44ColorRGB
 90
      255
102
RTVSPost2010PropOp44
 70
     1
102
RTVSPost2010Prop45
280
     0
102
RTVSPost2010PropOp45
 70
     1
102
RTVSPost2010Prop46
 90
       50
102
RTVSPost2010PropOp46
 70
     1
102
RTVSPost2010Prop47
 90
       50
102
RTVSPost2010PropOp47
 70
     1
102
RTVSPost2010Prop48
 90
       50
102
RTVSPost2010PropOp48
 70
     1
102
RTVSPost2010Prop49
280
     0
102
RTVSPost2010PropOp49
 70
     1
102
RTVSPost2010Prop50
 90
       50
102
RTVSPost2010PropOp50
 70
     1
102
RTVSPost2010Prop51ColorIndex
 90
      256
102
RTVSPost2010Prop51ColorRGB
 90
-16777216
102
RTVSPost2010PropOp51
 70
     0
102
RTVSPost2010Prop52
140
1.0
102
RTVSPost2010PropOp52
 70
     0
102
RTVSPost2010Prop53
 90
        2
102
RTVSPost2010PropOp53
 70
     1
102
RTVSPost2010Prop54
  1
strokes_ogs.tif
102
RTVSPost2010PropOp54
 70
     1
102
RTVSPost2010Prop55
280
     0
102
RTVSPost2010PropOp55
 70
     1
102
RTVSPost2010Prop56
140
1.0
102
RTVSPost2010PropOp56
 70
     1
102
RTVSPost2010Prop57
140
1.0
102
RTVSPost2010PropOp57
 70
     1
102
RTVSPropertyOp0
 70
     1
102
RTVSPropertyOp1
 70
     1
102
RTVSPropertyOp2
 70
     1
102
RTVSPropertyOp3
 70
     1
102
RTVSPropertyOp4
 70
     1
102
RTVSPropertyOp5
 70
     1
102
RTVSPropertyOp6
 70
     1
102
RTVSPropertyOp7
 70
     1
102
RTVSPropertyOp8
 70
     1
102
RTVSPropertyOp9
 70
     1
102
RTVSPropertyOp10
 70
     1
102
RTVSPropertyOp11
 70
     1
102
RTVSPropertyOp12
 70
     1
102
RTVSPropertyOp13
 70
     1
102
RTVSPropertyOp14
 70
     1
102
RTVSPropertyOp15
 70
     1
102
RTVSPropertyOp16
 70
     1
102
RTVSPropertyOp17
 70
     1
102
RTVSPropertyOp18
 70
     1
102
RTVSPropertyOp19
 70
     1
102
RTVSPropertyOp20
 70
     1
102
RTVSPropertyOp21
 70
     1
102
RTVSPropertyOp22
 70
     1
102
RTVSPropertyOp23
 70
     1
102
RTVSPropertyOp24
 70
     1
102
RTVSPropertyOp25
 70
     1
102
RTVSPropertyOp26
 70
     1
102
RTVSPropertyOp27
 70
     1
102
RTVSPropertyOp28
 70
     1
102
RTVSPropertyOp29
 70
     1
102
RTVSPropertyOp30
 70
     1
102
RTVSPropertyOp31
 70
     1
102
RTVSPropertyOp32
 70
     1
102
RTVSPropertyOp33
 70
     1
102
RTVSPropertyOp34
 70
     1
102
RTVSPropertyOp35
 70
     1
102
RTVSPropertyOp36
 70
     1
102
RTVSPropertyOp37
 70
     1
102
RTVSPropertyOp38
 70
     1
102
RTVSPropertyOp39
 70
     1
102
RTVSPropertyOp40
 70
     1
102
RTVSPropertyOp41
 70
     1
102
RTVSPropertyOp42
 70
     1
102
RTVSPropertyOp43
 70
     1
102
RTVSPropertyOp44
 70
     1
102
RTVSPropertyOp45
 70
     1
102
RTVSPropertyOp46
 70
     1
102
RTVSPropertyOp47
 70
     1
102
RTVSPropertyOp48
 70
     1
102
RTVSPropertyOp49
 70
     1
102
RTVSPropertyOp50
 70
     1
102
RTVSPropertyOp51
 70
     0
102
RTVSPropertyOp52
 70
     0
102
RTVSPropertyOp53
 70
     1
102
RTVSPropertyOp54
 70
     1
102
RTVSPropertyOp55
 70
     1
102
RTVSPropertyOp56
 70
     1
102
RTVSPropertyOp57
 70
     1
102
RTVSPropertyOp58
 70
     1
102
RTVSPropertyOp59
 70
     1
102
RTVSPropertyOp60
 70
     1
102
RTVSPropertyOp61
 70
     1
102
RTVSPropertyOp62
 70
     1
  0
XRECORD
  5
7786
102
{ACAD_REACTORS
330
7785
102
}
330
7785
100
AcDbXrecord
280
     1
102
RTVSPost2010Prop28
280
     0
102
RTVSPost2010PropOp28
 70
     1
102
RTVSPost2010Prop29
280
     1
102
RTVSPost2010PropOp29
 70
     1
102
RTVSPost2010Prop30
280
     1
102
RTVSPost2010PropOp30
 70
     1
102
RTVSPost2010Prop31
280
     0
102
RTVSPost2010PropOp31
 70
     1
102
RTVSPost2010Prop32
280
     0
102
RTVSPost2010PropOp32
 70
     1
102
RTVSPost2010Prop33
280
     0
102
RTVSPost2010PropOp33
 70
     1
102
RTVSPost2010Prop34
280
     0
102
RTVSPost2010PropOp34
 70
     1
102
RTVSPost2010Prop35
280
     0
102
RTVSPost2010PropOp35
 70
     1
102
RTVSPost2010Prop36
280
     0
102
RTVSPost2010PropOp36
 70
     1
102
RTVSPost2010Prop37
 90
       50
102
RTVSPost2010PropOp37
 70
     1
102
RTVSPost2010Prop38
140
0.0
102
RTVSPost2010PropOp38
 70
     1
102
RTVSPost2010Prop39
140
1.0
102
RTVSPost2010PropOp39
 70
     1
102
RTVSPost2010Prop40
 90
        0
102
RTVSPost2010PropOp40
 70
     1
102
RTVSPost2010Prop41ColorIndex
 90
       18
102
RTVSPost2010Prop41ColorRGB
 90
        0
102
RTVSPost2010PropOp41
 70
     1
102
RTVSPost2010Prop42
 90
       50
102
RTVSPost2010PropOp42
 70
     1
102
RTVSPost2010Prop43
 90
        3
102
RTVSPost2010PropOp43
 70
     1
102
RTVSPost2010Prop44ColorIndex
 90
        5
102
RTVSPost2010Prop44ColorRGB
 90
      255
102
RTVSPost2010PropOp44
 70
     1
102
RTVSPost2010Prop45
280
     0
102
RTVSPost2010PropOp45
 70
     1
102
RTVSPost2010Prop46
 90
       50
102
RTVSPost2010PropOp46
 70
     1
102
RTVSPost2010Prop47
 90
       50
102
RTVSPost2010PropOp47
 70
     1
102
RTVSPost2010Prop48
 90
       50
102
RTVSPost2010PropOp48
 70
     1
102
RTVSPost2010Prop49
280
     0
102
RTVSPost2010PropOp49
 70
     1
102
RTVSPost2010Prop50
 90
       50
102
RTVSPost2010PropOp50
 70
     1
102
RTVSPost2010Prop51ColorIndex
 90
      256
102
RTVSPost2010Prop51ColorRGB
 90
-16777216
102
RTVSPost2010PropOp51
 70
     0
102
RTVSPost2010Prop52
140
1.0
102
RTVSPost2010PropOp52
 70
     0
102
RTVSPost2010Prop53
 90
        2
102
RTVSPost2010PropOp53
 70
     1
102
RTVSPost2010Prop54
  1
strokes_ogs.tif
102
RTVSPost2010PropOp54
 70
     1
102
RTVSPost2010Prop55
280
     0
102
RTVSPost2010PropOp55
 70
     1
102
RTVSPost2010Prop56
140
1.0
102
RTVSPost2010PropOp56
 70
     1
102
RTVSPost2010Prop57
140
1.0
102
RTVSPost2010PropOp57
 70
     1
102
RTVSPropertyOp0
 70
     1
102
RTVSPropertyOp1
 70
     1
102
RTVSPropertyOp2
 70
     1
102
RTVSPropertyOp3
 70
     1
102
RTVSPropertyOp4
 70
     1
102
RTVSPropertyOp5
 70
     1
102
RTVSPropertyOp6
 70
     1
102
RTVSPropertyOp7
 70
     1
102
RTVSPropertyOp8
 70
     1
102
RTVSPropertyOp9
 70
     1
102
RTVSPropertyOp10
 70
     1
102
RTVSPropertyOp11
 70
     1
102
RTVSPropertyOp12
 70
     1
102
RTVSPropertyOp13
 70
     1
102
RTVSPropertyOp14
 70
     1
102
RTVSPropertyOp15
 70
     1
102
RTVSPropertyOp16
 70
     1
102
RTVSPropertyOp17
 70
     1
102
RTVSPropertyOp18
 70
     1
102
RTVSPropertyOp19
 70
     1
102
RTVSPropertyOp20
 70
     1
102
RTVSPropertyOp21
 70
     1
102
RTVSPropertyOp22
 70
     1
102
RTVSPropertyOp23
 70
     1
102
RTVSPropertyOp24
 70
     1
102
RTVSPropertyOp25
 70
     1
102
RTVSPropertyOp26
 70
     1
102
RTVSPropertyOp27
 70
     1
102
RTVSPropertyOp28
 70
     1
102
RTVSPropertyOp29
 70
     1
102
RTVSPropertyOp30
 70
     1
102
RTVSPropertyOp31
 70
     1
102
RTVSPropertyOp32
 70
     1
102
RTVSPropertyOp33
 70
     1
102
RTVSPropertyOp34
 70
     1
102
RTVSPropertyOp35
 70
     1
102
RTVSPropertyOp36
 70
     1
102
RTVSPropertyOp37
 70
     1
102
RTVSPropertyOp38
 70
     1
102
RTVSPropertyOp39
 70
     1
102
RTVSPropertyOp40
 70
     1
102
RTVSPropertyOp41
 70
     1
102
RTVSPropertyOp42
 70
     1
102
RTVSPropertyOp43
 70
     1
102
RTVSPropertyOp44
 70
     1
102
RTVSPropertyOp45
 70
     1
102
RTVSPropertyOp46
 70
     1
102
RTVSPropertyOp47
 70
     1
102
RTVSPropertyOp48
 70
     1
102
RTVSPropertyOp49
 70
     1
102
RTVSPropertyOp50
 70
     1
102
RTVSPropertyOp51
 70
     0
102
RTVSPropertyOp52
 70
     0
102
RTVSPropertyOp53
 70
     1
102
RTVSPropertyOp54
 70
     1
102
RTVSPropertyOp55
 70
     1
102
RTVSPropertyOp56
 70
     1
102
RTVSPropertyOp57
 70
     1
102
RTVSPropertyOp58
 70
     1
102
RTVSPropertyOp59
 70
     1
102
RTVSPropertyOp60
 70
     1
102
RTVSPropertyOp61
 70
     1
102
RTVSPropertyOp62
 70
     1
  0
XRECORD
  5
779E
102
{ACAD_REACTORS
330
779D
102
}
330
779D
100
AcDbXrecord
280
     1
102
RTVSPost2010Prop28
280
     0
102
RTVSPost2010PropOp28
 70
     1
102
RTVSPost2010Prop29
280
     1
102
RTVSPost2010PropOp29
 70
     1
102
RTVSPost2010Prop30
280
     1
102
RTVSPost2010PropOp30
 70
     1
102
RTVSPost2010Prop31
280
     0
102
RTVSPost2010PropOp31
 70
     1
102
RTVSPost2010Prop32
280
     0
102
RTVSPost2010PropOp32
 70
     1
102
RTVSPost2010Prop33
280
     0
102
RTVSPost2010PropOp33
 70
     1
102
RTVSPost2010Prop34
280
     0
102
RTVSPost2010PropOp34
 70
     1
102
RTVSPost2010Prop35
280
     0
102
RTVSPost2010PropOp35
 70
     1
102
RTVSPost2010Prop36
280
     0
102
RTVSPost2010PropOp36
 70
     1
102
RTVSPost2010Prop37
 90
       50
102
RTVSPost2010PropOp37
 70
     1
102
RTVSPost2010Prop38
140
0.0
102
RTVSPost2010PropOp38
 70
     1
102
RTVSPost2010Prop39
140
1.0
102
RTVSPost2010PropOp39
 70
     1
102
RTVSPost2010Prop40
 90
        0
102
RTVSPost2010PropOp40
 70
     1
102
RTVSPost2010Prop41ColorIndex
 90
       18
102
RTVSPost2010Prop41ColorRGB
 90
        0
102
RTVSPost2010PropOp41
 70
     1
102
RTVSPost2010Prop42
 90
       50
102
RTVSPost2010PropOp42
 70
     1
102
RTVSPost2010Prop43
 90
        3
102
RTVSPost2010PropOp43
 70
     1
102
RTVSPost2010Prop44ColorIndex
 90
        5
102
RTVSPost2010Prop44ColorRGB
 90
      255
102
RTVSPost2010PropOp44
 70
     1
102
RTVSPost2010Prop45
280
     0
102
RTVSPost2010PropOp45
 70
     1
102
RTVSPost2010Prop46
 90
       50
102
RTVSPost2010PropOp46
 70
     1
102
RTVSPost2010Prop47
 90
       50
102
RTVSPost2010PropOp47
 70
     1
102
RTVSPost2010Prop48
 90
       50
102
RTVSPost2010PropOp48
 70
     1
102
RTVSPost2010Prop49
280
     0
102
RTVSPost2010PropOp49
 70
     1
102
RTVSPost2010Prop50
 90
       50
102
RTVSPost2010PropOp50
 70
     1
102
RTVSPost2010Prop51ColorIndex
 90
      256
102
RTVSPost2010Prop51ColorRGB
 90
-16777216
102
RTVSPost2010PropOp51
 70
     0
102
RTVSPost2010Prop52
140
1.0
102
RTVSPost2010PropOp52
 70
     0
102
RTVSPost2010Prop53
 90
        2
102
RTVSPost2010PropOp53
 70
     1
102
RTVSPost2010Prop54
  1
strokes_ogs.tif
102
RTVSPost2010PropOp54
 70
     1
102
RTVSPost2010Prop55
280
     0
102
RTVSPost2010PropOp55
 70
     1
102
RTVSPost2010Prop56
140
1.0
102
RTVSPost2010PropOp56
 70
     1
102
RTVSPost2010Prop57
140
1.0
102
RTVSPost2010PropOp57
 70
     1
102
RTVSPropertyOp0
 70
     1
102
RTVSPropertyOp1
 70
     1
102
RTVSPropertyOp2
 70
     1
102
RTVSPropertyOp3
 70
     1
102
RTVSPropertyOp4
 70
     1
102
RTVSPropertyOp5
 70
     1
102
RTVSPropertyOp6
 70
     1
102
RTVSPropertyOp7
 70
     1
102
RTVSPropertyOp8
 70
     1
102
RTVSPropertyOp9
 70
     1
102
RTVSPropertyOp10
 70
     1
102
RTVSPropertyOp11
 70
     1
102
RTVSPropertyOp12
 70
     1
102
RTVSPropertyOp13
 70
     1
102
RTVSPropertyOp14
 70
     1
102
RTVSPropertyOp15
 70
     1
102
RTVSPropertyOp16
 70
     1
102
RTVSPropertyOp17
 70
     1
102
RTVSPropertyOp18
 70
     1
102
RTVSPropertyOp19
 70
     1
102
RTVSPropertyOp20
 70
     1
102
RTVSPropertyOp21
 70
     1
102
RTVSPropertyOp22
 70
     1
102
RTVSPropertyOp23
 70
     1
102
RTVSPropertyOp24
 70
     1
102
RTVSPropertyOp25
 70
     1
102
RTVSPropertyOp26
 70
     1
102
RTVSPropertyOp27
 70
     1
102
RTVSPropertyOp28
 70
     1
102
RTVSPropertyOp29
 70
     1
102
RTVSPropertyOp30
 70
     1
102
RTVSPropertyOp31
 70
     1
102
RTVSPropertyOp32
 70
     1
102
RTVSPropertyOp33
 70
     1
102
RTVSPropertyOp34
 70
     1
102
RTVSPropertyOp35
 70
     1
102
RTVSPropertyOp36
 70
     1
102
RTVSPropertyOp37
 70
     1
102
RTVSPropertyOp38
 70
     1
102
RTVSPropertyOp39
 70
     1
102
RTVSPropertyOp40
 70
     1
102
RTVSPropertyOp41
 70
     1
102
RTVSPropertyOp42
 70
     1
102
RTVSPropertyOp43
 70
     1
102
RTVSPropertyOp44
 70
     1
102
RTVSPropertyOp45
 70
     1
102
RTVSPropertyOp46
 70
     1
102
RTVSPropertyOp47
 70
     1
102
RTVSPropertyOp48
 70
     1
102
RTVSPropertyOp49
 70
     1
102
RTVSPropertyOp50
 70
     1
102
RTVSPropertyOp51
 70
     0
102
RTVSPropertyOp52
 70
     0
102
RTVSPropertyOp53
 70
     1
102
RTVSPropertyOp54
 70
     1
102
RTVSPropertyOp55
 70
     1
102
RTVSPropertyOp56
 70
     1
102
RTVSPropertyOp57
 70
     1
102
RTVSPropertyOp58
 70
     1
102
RTVSPropertyOp59
 70
     1
102
RTVSPropertyOp60
 70
     1
102
RTVSPropertyOp61
 70
     1
102
RTVSPropertyOp62
 70
     1
  0
ENDSEC
  0
EOF
