  0
SECTION
  2
HEADER
  9
$ACADVER
  1
AC1015
  9
$DWGCODEPAGE
  3
ANSI_932
  9
$LTSCALE
 40
20.0
  9
$FILLMODE
 70
     1
  9
$CLAYER
  8
0
  9
$PDMODE
 70
     0
  9
$SPLFRAME
 70
     0
  9
$SPLINETYPE
 70
     6
  9
$SPLINESEGS
 70
     8
  9
$DIMASZ
 40
2.000000
  9
$DIMEXE
 40
1.500000
  9
$DIMEXO
 40
0.800000
  9
$DIMTAD
 70
     1
  9
$DIMTIH
 70
     0
  9
$DIMTOH
 70
     0
  9
$DIMTVP
 40
0.500000
  9
$DIMTXT
 40
3.100000
  9
$EXTMIN
 10
0.000000
 20
0.000000
 30
0.000000
  9
$EXTMAX
 10
297.000000
 20
420.000000
 30
0.000000
  9
$MEASUREMENT
 70
  1
  9
$LIMMIN
 10
0.000000
 20
0.000000
  9
$LIMMAX
 10
297.000000
 20
420.000000
  9
$HANDSEED
  5
160
  9
$LWDISPLAY
290
     0
  9
$DIMBLK
  1
_OPEN
  9
$DIMDEC
 70
     2
  9
$DIMADEC
 70
     2
  9
$DIMAUNIT
 70
     0
  9
$DIMZIN
 70
     8
  9
$DIMAZIN
 70
     2
  9
$DIMTOFL
 70
     1
  0
ENDSEC
  0
SECTION
  2
CLASSES
  0
ENDSEC
  0
SECTION
  2
TABLES
  0
TABLE
  2
VPORT
  5
12C
100
AcDbSymbolTable
 70
     1
  0
VPORT
  5
12D
100
AcDbSymbolTableRecord
100
AcDbViewportTableRecord
  2
*ACTIVE
 70
     0
 12
123.821388
 22
123.750000
 40
211.499999
 41
1.076325
  0
ENDTAB
  0
TABLE
  2
LTYPE
  5
12E
100
AcDbSymbolTable
 70
     3
  0
LTYPE
  5
12F
100
AcDbSymbolTableRecord
100
AcDbLinetypeTableRecord
  2
BYBLOCK
 70
     0
  3

 72
    65
 73
     0
 40
0.0
  0
LTYPE
  5
130
100
AcDbSymbolTableRecord
100
AcDbLinetypeTableRecord
  2
BYLAYER
 70
     0
  3

 72
    65
 73
     0
 40
0.0
  0
LTYPE
  5
131
100
AcDbSymbolTableRecord
100
AcDbLinetypeTableRecord
  2
CONTINUOUS
 70
     0
  3
Solid line (NEC CAE2D for Win R17.0 : 2022.10.13)
 72
    65
 73
     0
 40
0.0
  0
LTYPE
  5
132
100
AcDbSymbolTableRecord
100
AcDbLinetypeTableRecord
  2
CENTER
 70
     0
  3
____ _ ____ _ ____ _ ____ _ ____ _ ____
 72
    65
 73
     4
 40
2.0
 49
1.25
 74
     0
 49
-0.25
 74
     0
 49
0.25
 74
     0
 49
-0.25
 74
     0
  0
LTYPE
  5
133
100
AcDbSymbolTableRecord
100
AcDbLinetypeTableRecord
  2
PHANTOM
 70
     0
  3
______  __  __  ______  __  __  ______ 
 72
    65
 73
     6
 40
2.5
 49
1.25
 74
     0
 49
-0.25
 74
     0
 49
0.25
 74
     0
 49
-0.25
 74
     0
 49
0.25
 74
     0
 49
-0.25
 74
     0
  0
ENDTAB
  0
TABLE
  2
LAYER
  5
134
100
AcDbSymbolTable
 70
    12
  0
LAYER
  5
135
100
AcDbSymbolTableRecord
100
AcDbLayerTableRecord
  2
0
 70
     0
 62
     7
  6
CONTINUOUS
370
    -3
390

  0
LAYER
  5
136
100
AcDbSymbolTableRecord
100
AcDbLayerTableRecord
  2
A0
 70
     0
 62
     9
  6
CONTINUOUS
370
    -3
390

  0
LAYER
  5
137
100
AcDbSymbolTableRecord
100
AcDbLayerTableRecord
  2
A1
 70
     0
 62
     8
  6
CONTINUOUS
370
    -3
390

  0
LAYER
  5
138
100
AcDbSymbolTableRecord
100
AcDbLayerTableRecord
  2
A4
 70
     0
 62
    12
  6
CONTINUOUS
370
    -3
390

  0
LAYER
  5
139
100
AcDbSymbolTableRecord
100
AcDbLayerTableRecord
  2
A5
 70
     0
 62
    12
  6
CONTINUOUS
370
    -3
390

  0
LAYER
  5
13A
100
AcDbSymbolTableRecord
100
AcDbLayerTableRecord
  2
A7
 70
     0
 62
    10
  6
CONTINUOUS
370
    -3
390

  0
LAYER
  5
13B
100
AcDbSymbolTableRecord
100
AcDbLayerTableRecord
  2
A10
 70
     0
 62
     6
  6
CONTINUOUS
370
    -3
390

  0
LAYER
  5
13C
100
AcDbSymbolTableRecord
100
AcDbLayerTableRecord
  2
A20
 70
     0
 62
     1
  6
CONTINUOUS
370
    -3
390

  0
LAYER
  5
13D
100
AcDbSymbolTableRecord
100
AcDbLayerTableRecord
  2
A30
 70
     0
 62
     1
  6
CONTINUOUS
370
    -3
390

  0
LAYER
  5
13E
100
AcDbSymbolTableRecord
100
AcDbLayerTableRecord
  2
A40
 70
     0
 62
     9
  6
CONTINUOUS
370
    -3
390

  0
LAYER
  5
13F
100
AcDbSymbolTableRecord
100
AcDbLayerTableRecord
  2
A50
 70
     0
 62
    12
  6
CONTINUOUS
370
    -3
390

  0
LAYER
  5
140
100
AcDbSymbolTableRecord
100
AcDbLayerTableRecord
  2
A1023
 70
     0
 62
    16
  6
CONTINUOUS
370
    -3
390

  0
ENDTAB
  0
TABLE
  2
STYLE
  5
141
100
AcDbSymbolTable
 70
     4
  0
STYLE
  5
142
100
AcDbSymbolTableRecord
100
AcDbTextStyleTableRecord
  2
STANDARD
 70
    64
 40
0.0
 41
1.0
 50
0.0
 71
     0
 42
3.000000000000000
  3
TXT
  4

  0
STYLE
  5
143
100
AcDbSymbolTableRecord
100
AcDbTextStyleTableRecord
  2
ANKTATE
 70
    68
 40
0.0
 41
1.0
 50
0.0
 71
     0
 42
3.000000000000000
  3
TXT
  4

  0
STYLE
  5
144
100
AcDbSymbolTableRecord
100
AcDbTextStyleTableRecord
  2
KNJYOKO
 70
    64
 40
0.0
 41
1.0
 50
0.0
 71
     0
 42
3.000000000000000
  3
TXT
  4
BIGFONT
  0
STYLE
  5
145
100
AcDbSymbolTableRecord
100
AcDbTextStyleTableRecord
  2
KNJTATE
 70
    68
 40
0.0
 41
1.0
 50
0.0
 71
     0
 42
3.000000000000000
  3
TXT
  4
BIGFONT
  0
ENDTAB
  0
TABLE
  2
VIEW
  5
146
100
AcDbSymbolTable
 70
     0
  0
ENDTAB
  0
TABLE
  2
UCS
  5
147
100
AcDbSymbolTable
 70
     0
  0
ENDTAB
  0
TABLE
  2
APPID
  5
148
100
AcDbSymbolTable
 70
     1
  0
APPID
  5
149
100
AcDbSymbolTableRecord
100
AcDbRegAppTableRecord
  2
ACAD
 70
     0
  0
ENDTAB
  0
TABLE
  2
DIMSTYLE
  5
14A
100
AcDbSymbolTable
 70
     2
100
AcDbDimStyleTable
  0
DIMSTYLE
105
14B
100
AcDbSymbolTableRecord
100
AcDbDimStyleTableRecord
  2
STANDARD
 70
     0
 41
2.000000
 44
1.500000
 42
0.800000
145
0.661290
140
3.100000
144
1.000000
146
0.645161
340
142
  0
DIMSTYLE
105
14C
100
AcDbSymbolTableRecord
100
AcDbDimStyleTableRecord
  2
A001
 70
     0
 41
2.000000
 44
1.500000
 42
0.800000
145
0.661290
140
3.100000
144
1.000000
146
0.645161
 77
     1
 73
     0
 74
     0
271
     2
179
     2
275
     0
 78
     8
 79
     2
172
     1
340
142
  0
ENDTAB
  0
TABLE
  2
BLOCK_RECORD
  5
14D
100
AcDbSymbolTable
 70
    12
  0
BLOCK_RECORD
  5
14E
100
AcDbSymbolTableRecord
100
AcDbBlockTableRecord
  2
*MODEL_SPACE
  0
BLOCK_RECORD
  5
14F
100
AcDbSymbolTableRecord
100
AcDbBlockTableRecord
  2
*PAPER_SPACE
  0
BLOCK_RECORD
  5
150
100
AcDbSymbolTableRecord
100
AcDbBlockTableRecord
  2
*PAPER_SPACE0
  0
BLOCK_RECORD
  5
1
100
AcDbSymbolTableRecord
100
AcDbBlockTableRecord
  2
_NONE
  0
BLOCK_RECORD
  5
4
100
AcDbSymbolTableRecord
100
AcDbBlockTableRecord
  2
_CLOSED
  0
BLOCK_RECORD
  5
B
100
AcDbSymbolTableRecord
100
AcDbBlockTableRecord
  2
_DOT
  0
BLOCK_RECORD
  5
13
100
AcDbSymbolTableRecord
100
AcDbBlockTableRecord
  2
_OPEN
  0
BLOCK_RECORD
  5
19
100
AcDbSymbolTableRecord
100
AcDbBlockTableRecord
  2
_ORIGIN
  0
BLOCK_RECORD
  5
1E
100
AcDbSymbolTableRecord
100
AcDbBlockTableRecord
  2
_OPEN30
  0
BLOCK_RECORD
  5
24
100
AcDbSymbolTableRecord
100
AcDbBlockTableRecord
  2
_BOXFILLED
  0
BLOCK_RECORD
  5
29
100
AcDbSymbolTableRecord
100
AcDbBlockTableRecord
  2
_BOXBLANK
  0
BLOCK_RECORD
  5
31
100
AcDbSymbolTableRecord
100
AcDbBlockTableRecord
  2
_OBLIQUE
  0
BLOCK_RECORD
  5
35
100
AcDbSymbolTableRecord
100
AcDbBlockTableRecord
  2
_OPEN90
  0
BLOCK_RECORD
  5
3B
100
AcDbSymbolTableRecord
100
AcDbBlockTableRecord
  2
_CLOSEDBLANK
  0
BLOCK_RECORD
  5
41
100
AcDbSymbolTableRecord
100
AcDbBlockTableRecord
  2
_DOTBLANK
  0
ENDTAB
  0
ENDSEC
  0
SECTION
  2
BLOCKS
  0
BLOCK
  5
151
100
AcDbEntity
  8
0
100
AcDbBlockBegin
  2
*MODEL_SPACE
 70
     0
 10
0.0
 20
0.0
 30
0.0
  3
*MODEL_SPACE
  1

  0
ENDBLK
  5
152
100
AcDbEntity
  8
0
100
AcDbBlockEnd
  0
BLOCK
  5
153
100
AcDbEntity
  8
0
100
AcDbBlockBegin
  2
*PAPER_SPACE
 70
     0
 10
0.0
 20
0.0
 30
0.0
  3
*PAPER_SPACE
  1

  0
ENDBLK
  5
154
100
AcDbEntity
  8
0
100
AcDbBlockEnd
  0
BLOCK
  5
155
100
AcDbEntity
  8
0
100
AcDbBlockBegin
  2
*PAPER_SPACE0
 70
     0
 10
0.0
 20
0.0
 30
0.0
  3
*PAPER_SPACE0
  1

  0
ENDBLK
  5
156
100
AcDbEntity
  8
0
100
AcDbBlockEnd
  0
BLOCK
  5
2
330
1
100
AcDbEntity
  8
0
100
AcDbBlockBegin
  2
_NONE
 70
     0
 10
0.0
 20
0.0
 30
0.0
  3
_NONE
  1

  0
ENDBLK
  5
3
330
1
100
AcDbEntity
  8
0
100
AcDbBlockEnd
  0
BLOCK
  5
5
330
4
100
AcDbEntity
  8
0
100
AcDbBlockBegin
  2
_CLOSED
 70
     0
 10
0.0
 20
0.0
 30
0.0
  3
_CLOSED
  1

  0
LINE
  5
6
330
4
100
AcDbEntity
  8
0
  6
BYBLOCK
 62
     0
370
    -2
100
AcDbLine
 10
-1.0
 20
0.166667
 30
0.0
 11
0.0
 21
0.0
 31
0.0
  0
LINE
  5
7
330
4
100
AcDbEntity
  8
0
  6
BYBLOCK
 62
     0
370
    -2
100
AcDbLine
 10
0.0
 20
0.0
 30
0.0
 11
-1.0
 21
-0.166667
 31
0.0
  0
LINE
  5
8
330
4
100
AcDbEntity
  8
0
  6
BYBLOCK
 62
     0
370
    -2
100
AcDbLine
 10
-1.0
 20
0.166667
 30
0.0
 11
-1.0
 21
-0.166667
 31
0.0
  0
LINE
  5
9
330
4
100
AcDbEntity
  8
0
  6
BYBLOCK
 62
     0
370
    -2
100
AcDbLine
 10
0.0
 20
0.0
 30
0.0
 11
-1.0
 21
0.0
 31
0.0
  0
ENDBLK
  5
A
330
4
100
AcDbEntity
  8
0
100
AcDbBlockEnd
  0
BLOCK
  5
C
330
B
100
AcDbEntity
  8
0
100
AcDbBlockBegin
  2
_DOT
 70
     0
 10
0.0
 20
0.0
 30
0.0
  3
_DOT
  1

  0
POLYLINE
  5
D
330
B
100
AcDbEntity
  8
0
  6
BYBLOCK
 62
     0
370
    -2
100
AcDb2dPolyline
 66
     1
 10
0.0
 20
0.0
 30
0.0
 70
     1
 40
0.5
 41
0.5
  0
VERTEX
  5
E
330
B
100
AcDbEntity
  8
0
  6
BYBLOCK
 62
     0
370
    -2
100
AcDbVertex
100
AcDb2dVertex
 10
-0.25
 20
0.0
 30
0.0
 42
1.0
  0
VERTEX
  5
F
330
B
100
AcDbEntity
  8
0
  6
BYBLOCK
 62
     0
370
    -2
100
AcDbVertex
100
AcDb2dVertex
 10
0.25
 20
0.0
 30
0.0
 42
1.0
  0
SEQEND
  5
10
330
B
100
AcDbEntity
  8
0
  6
BYBLOCK
 62
     0
370
    -2
  0
LINE
  5
11
330
B
100
AcDbEntity
  8
0
  6
BYBLOCK
 62
     0
370
    -2
100
AcDbLine
 10
-0.5
 20
0.0
 30
0.0
 11
-1.0
 21
0.0
 31
0.0
  0
ENDBLK
  5
12
330
B
100
AcDbEntity
  8
0
100
AcDbBlockEnd
  0
BLOCK
  5
14
330
13
100
AcDbEntity
  8
0
100
AcDbBlockBegin
  2
_OPEN
 70
     0
 10
0.0
 20
0.0
 30
0.0
  3
_OPEN
  1

  0
LINE
  5
15
330
13
100
AcDbEntity
  8
0
  6
BYBLOCK
 62
     0
370
    -2
100
AcDbLine
 10
-1.0
 20
0.166667
 30
0.0
 11
0.0
 21
0.0
 31
0.0
  0
LINE
  5
16
330
13
100
AcDbEntity
  8
0
  6
BYBLOCK
 62
     0
370
    -2
100
AcDbLine
 10
0.0
 20
0.0
 30
0.0
 11
-1.0
 21
-0.166667
 31
0.0
  0
LINE
  5
17
330
13
100
AcDbEntity
  8
0
  6
BYBLOCK
 62
     0
370
    -2
100
AcDbLine
 10
0.0
 20
0.0
 30
0.0
 11
-1.0
 21
0.0
 31
0.0
  0
ENDBLK
  5
18
330
13
100
AcDbEntity
  8
0
100
AcDbBlockEnd
  0
BLOCK
  5
1A
330
19
100
AcDbEntity
  8
0
100
AcDbBlockBegin
  2
_ORIGIN
 70
     0
 10
0.0
 20
0.0
 30
0.0
  3
_ORIGIN
  1

  0
CIRCLE
  5
1B
330
19
100
AcDbEntity
  8
0
  6
BYBLOCK
 62
     0
370
    -2
100
AcDbCircle
 10
0.0
 20
0.0
 30
0.0
 40
0.5
  0
LINE
  5
1C
330
19
100
AcDbEntity
  8
0
  6
BYBLOCK
 62
     0
370
    -2
100
AcDbLine
 10
0.0
 20
0.0
 30
0.0
 11
-1.0
 21
0.0
 31
0.0
  0
ENDBLK
  5
1D
330
19
100
AcDbEntity
  8
0
100
AcDbBlockEnd
  0
BLOCK
  5
1F
330
1E
100
AcDbEntity
  8
0
100
AcDbBlockBegin
  2
_OPEN30
 70
     0
 10
0.0
 20
0.0
 30
0.0
  3
_OPEN30
  1

  0
LINE
  5
20
330
1E
100
AcDbEntity
  8
0
  6
BYBLOCK
 62
     0
370
    -2
100
AcDbLine
 10
-1.0
 20
0.267949
 30
0.0
 11
0.0
 21
0.0
 31
0.0
  0
LINE
  5
21
330
1E
100
AcDbEntity
  8
0
  6
BYBLOCK
 62
     0
370
    -2
100
AcDbLine
 10
0.0
 20
0.0
 30
0.0
 11
-1.0
 21
-0.267949
 31
0.0
  0
LINE
  5
22
330
1E
100
AcDbEntity
  8
0
  6
BYBLOCK
 62
     0
370
    -2
100
AcDbLine
 10
0.0
 20
0.0
 30
0.0
 11
-1.0
 21
0.0
 31
0.0
  0
ENDBLK
  5
23
330
1E
100
AcDbEntity
  8
0
100
AcDbBlockEnd
  0
BLOCK
  5
25
330
24
100
AcDbEntity
  8
0
100
AcDbBlockBegin
  2
_BOXFILLED
 70
     0
 10
0.0
 20
0.0
 30
0.0
  3
_BOXFILLED
  1

  0
SOLID
  5
26
330
24
100
AcDbEntity
  8
0
  6
BYBLOCK
 62
     0
370
    -2
100
AcDbTrace
 10
-0.5
 20
0.5
 30
0.0
 11
0.5
 21
0.5
 31
0.0
 12
-0.5
 22
-0.5
 32
0.0
 13
0.5
 23
-0.5
 33
0.0
  0
LINE
  5
27
330
24
100
AcDbEntity
  8
0
  6
BYBLOCK
 62
     0
370
    -2
100
AcDbLine
 10
-0.5
 20
0.0
 30
0.0
 11
-1.0
 21
0.0
 31
0.0
  0
ENDBLK
  5
28
330
24
100
AcDbEntity
  8
0
100
AcDbBlockEnd
  0
BLOCK
  5
2A
330
29
100
AcDbEntity
  8
0
100
AcDbBlockBegin
  2
_BOXBLANK
 70
     0
 10
0.0
 20
0.0
 30
0.0
  3
_BOXBLANK
  1

  0
LINE
  5
2B
330
29
100
AcDbEntity
  8
0
  6
BYBLOCK
 62
     0
370
    -2
100
AcDbLine
 10
-0.5
 20
-0.5
 30
0.0
 11
0.5
 21
-0.5
 31
0.0
  0
LINE
  5
2C
330
29
100
AcDbEntity
  8
0
  6
BYBLOCK
 62
     0
370
    -2
100
AcDbLine
 10
0.5
 20
-0.5
 30
0.0
 11
0.5
 21
0.5
 31
0.0
  0
LINE
  5
2D
330
29
100
AcDbEntity
  8
0
  6
BYBLOCK
 62
     0
370
    -2
100
AcDbLine
 10
0.5
 20
0.5
 30
0.0
 11
-0.5
 21
0.5
 31
0.0
  0
LINE
  5
2E
330
29
100
AcDbEntity
  8
0
  6
BYBLOCK
 62
     0
370
    -2
100
AcDbLine
 10
-0.5
 20
0.5
 30
0.0
 11
-0.5
 21
-0.5
 31
0.0
  0
LINE
  5
2F
330
29
100
AcDbEntity
  8
0
  6
BYBLOCK
 62
     0
370
    -2
100
AcDbLine
 10
-0.5
 20
0.0
 30
0.0
 11
-1.0
 21
0.0
 31
0.0
  0
ENDBLK
  5
30
330
29
100
AcDbEntity
  8
0
100
AcDbBlockEnd
  0
BLOCK
  5
32
330
31
100
AcDbEntity
  8
0
100
AcDbBlockBegin
  2
_OBLIQUE
 70
     0
 10
0.0
 20
0.0
 30
0.0
  3
_OBLIQUE
  1

  0
LINE
  5
33
330
31
100
AcDbEntity
  8
0
  6
BYBLOCK
 62
     0
370
    -2
100
AcDbLine
 10
-0.5
 20
-0.5
 30
0.0
 11
0.5
 21
0.5
 31
0.0
  0
ENDBLK
  5
34
330
31
100
AcDbEntity
  8
0
100
AcDbBlockEnd
  0
BLOCK
  5
36
330
35
100
AcDbEntity
  8
0
100
AcDbBlockBegin
  2
_OPEN90
 70
     0
 10
0.0
 20
0.0
 30
0.0
  3
_OPEN90
  1

  0
LINE
  5
37
330
35
100
AcDbEntity
  8
0
  6
BYBLOCK
 62
     0
370
    -2
100
AcDbLine
 10
-0.5
 20
0.5
 30
0.0
 11
0.0
 21
0.0
 31
0.0
  0
LINE
  5
38
330
35
100
AcDbEntity
  8
0
  6
BYBLOCK
 62
     0
370
    -2
100
AcDbLine
 10
0.0
 20
0.0
 30
0.0
 11
-0.5
 21
-0.5
 31
0.0
  0
LINE
  5
39
330
35
100
AcDbEntity
  8
0
  6
BYBLOCK
 62
     0
370
    -2
100
AcDbLine
 10
0.0
 20
0.0
 30
0.0
 11
-1.0
 21
0.0
 31
0.0
  0
ENDBLK
  5
3A
330
35
100
AcDbEntity
  8
0
100
AcDbBlockEnd
  0
BLOCK
  5
3C
330
3B
100
AcDbEntity
  8
0
100
AcDbBlockBegin
  2
_CLOSEDBLANK
 70
     0
 10
0.0
 20
0.0
 30
0.0
  3
_CLOSEDBLANK
  1

  0
LINE
  5
3D
330
3B
100
AcDbEntity
  8
0
  6
BYBLOCK
 62
     0
370
    -2
100
AcDbLine
 10
-1.0
 20
0.1666666666666666
 30
0.0
 11
0.0
 21
0.0
 31
0.0
  0
LINE
  5
3E
330
3B
100
AcDbEntity
  8
0
  6
BYBLOCK
 62
     0
370
    -2
100
AcDbLine
 10
0.0
 20
0.0
 30
0.0
 11
-1.0
 21
-0.1666666666666666
 31
0.0
  0
LINE
  5
3F
330
3B
100
AcDbEntity
  8
0
  6
BYBLOCK
 62
     0
370
    -2
100
AcDbLine
 10
-1.0
 20
0.1666666666666666
 30
0.0
 11
-1.0
 21
-0.1666666666666666
 31
0.0
  0
ENDBLK
  5
40
330
3B
100
AcDbEntity
  8
0
100
AcDbBlockEnd
  0
BLOCK
  5
42
330
41
100
AcDbEntity
  8
0
100
AcDbBlockBegin
  2
_DOTBLANK
 70
     0
 10
0.0
 20
0.0
 30
0.0
  3
_DOTBLANK
  1

  0
CIRCLE
  5
43
330
41
100
AcDbEntity
  8
0
  6
BYBLOCK
 62
     0
370
    -2
100
AcDbCircle
 10
0.0
 20
0.0
 30
0.0
 40
0.5
  0
LINE
  5
44
330
41
100
AcDbEntity
  8
0
  6
BYBLOCK
 62
     0
370
    -2
100
AcDbLine
 10
-0.5
 20
0.0
 30
0.0
 11
-1.0
 21
0.0
 31
0.0
  0
ENDBLK
  5
45
330
41
100
AcDbEntity
  8
0
100
AcDbBlockEnd
  0
ENDSEC
  0
SECTION
  2
ENTITIES
  0
MTEXT
  5
46
100
AcDbEntity
  8
A7
  6
CONTINUOUS
 62
3
100
AcDbMText
 10
9.999997526638502
 20
18.00000076076889
 30
0.000000000000000
 40
3.000000000000000
 41
0.000000000000000
 44
0.6739999771118164
 71
     7
 72
     1
  1
{\H0.94x;{TYPE No.TCA-A60SBF}}
 11
1.000000000000000
 21
0.000000000000000
 31
0.000000000000000
  7
STANDARD
  0
POINT
  5
47
100
AcDbEntity
  8
A7
  6
CONTINUOUS
 62
3
100
AcDbPoint
 10
9.999997526638502
 20
18.00000076076889
 30
0.000000000000000
  0
LINE
  5
48
100
AcDbEntity
  8
A4
  6
CENTER
 62
1
100
AcDbLine
 10
83.00000000000000
 20
48.50000000000000
 30
0.000000000000000
 11
83.00000000000000
 21
131.0000000000000
 31
0.000000000000000
  0
LINE
  5
49
100
AcDbEntity
  8
A4
  6
CENTER
 62
1
100
AcDbLine
 10
204.6427790000000
 20
48.50000000000000
 30
0.000000000000000
 11
204.6427790000000
 21
131.0000000000000
 31
0.000000000000000
  0
LINE
  5
4A
100
AcDbEntity
  8
A4
  6
CENTER
 62
1
100
AcDbLine
 10
178.7909910000000
 20
80.00000000000000
 30
0.000000000000000
 11
230.4945670000001
 21
80.00000000000000
 31
0.000000000000000
  0
LINE
  5
4B
100
AcDbEntity
  8
A4
  6
CENTER
 62
1
100
AcDbLine
 10
58.00000000000000
 20
131.0000000000000
 30
0.000000000000000
 11
58.00000000000000
 21
124.2000000000000
 31
0.000000000000000
  0
LINE
  5
4C
100
AcDbEntity
  8
A4
  6
CENTER
 62
1
100
AcDbLine
 10
108.0000000000000
 20
131.0000000000000
 30
0.000000000000000
 11
108.0000000000000
 21
124.2000000000000
 31
0.000000000000000
  0
LINE
  5
4D
100
AcDbEntity
  8
A1
  6
CONTINUOUS
 62
7
100
AcDbLine
 10
50.00000000000000
 20
129.5000000000000
 30
0.000000000000000
 11
116.0000000000000
 21
129.5000000000000
 31
0.000000000000000
  0
LINE
  5
4E
100
AcDbEntity
  8
A1
  6
CONTINUOUS
 62
7
100
AcDbLine
 10
92.64314600000000
 20
120.0000000000000
 30
0.000000000000000
 11
73.35685400000000
 21
120.0000000000000
 31
0.000000000000000
  0
LINE
  5
4F
100
AcDbEntity
  8
A1
  6
CONTINUOUS
 62
7
100
AcDbLine
 10
130.0000000000000
 20
184.0000000000000
 30
0.000000000000000
 11
130.0000000000000
 21
176.8062160000000
 31
0.000000000000000
  0
LINE
  5
50
100
AcDbEntity
  8
A1
  6
CONTINUOUS
 62
7
100
AcDbLine
 10
130.0000000000000
 20
206.0000000000000
 30
0.000000000000000
 11
130.0000000000000
 21
213.1937840000000
 31
0.000000000000000
  0
ARC
  5
51
100
AcDbEntity
  8
A1
  6
CONTINUOUS
 62
7
100
AcDbCircle
 10
129.5000000000000
 20
206.0000000000000
 30
0.000000000000000
 40
0.5000000000000000
100
AcDbArc
 50
269.9999999999479
 51
359.9999999999316
  0
ARC
  5
52
100
AcDbEntity
  8
A1
  6
CONTINUOUS
 62
7
100
AcDbCircle
 10
129.5000000000000
 20
184.0000000000000
 30
0.000000000000000
 40
0.5000000000000000
100
AcDbArc
 50
359.9999999999316
 51
449.9999999999153
  0
ARC
  5
53
100
AcDbEntity
  8
A1
  6
CONTINUOUS
 62
7
100
AcDbCircle
 10
123.2055940000000
 20
95.12031800000003
 30
0.000000000000000
 40
5.000000000000000
100
AcDbArc
 50
326.0101199999384
 51
376.6547639999287
  0
ARC
  5
54
100
AcDbEntity
  8
A1
  6
CONTINUOUS
 62
7
100
AcDbCircle
 10
134.6312930000000
 20
127.0369780000000
 30
0.000000000000000
 40
29.00000000000000
100
AcDbArc
 50
241.8502739999543
 51
278.2552059999475
  0
ARC
  5
55
100
AcDbEntity
  8
A1
  6
CONTINUOUS
 62
7
100
AcDbCircle
 10
129.4329130000000
 20
96.98324600000001
 30
0.000000000000000
 40
1.500000000000000
100
AcDbArc
 50
80.18667199998472
 51
196.6547639999628
  0
ARC
  5
56
100
AcDbEntity
  8
A1
  6
CONTINUOUS
 62
7
100
AcDbCircle
 10
134.6312930000000
 20
127.0369780000000
 30
0.000000000000000
 40
26.50000000000000
100
AcDbArc
 50
232.0773339999562
 51
278.4341659999474
  0
ARC
  5
57
100
AcDbEntity
  8
A1
  6
CONTINUOUS
 62
7
100
AcDbCircle
 10
119.6759860000000
 20
103.6617500000000
 30
0.000000000000000
 40
3.000000000000000
100
AcDbArc
 50
124.1557609999767
 51
157.9173909999700
  0
ARC
  5
58
100
AcDbEntity
  8
A1
  6
CONTINUOUS
 62
7
100
AcDbCircle
 10
136.1427790000000
 20
99.32817200000000
 30
0.000000000000000
 40
3.000000000000000
100
AcDbArc
 50
345.1097429999350
 51
386.3557389999270
  0
ARC
  5
59
100
AcDbEntity
  8
A1
  6
CONTINUOUS
 62
7
100
AcDbCircle
 10
118.1600850000000
 20
105.8960390000000
 30
0.000000000000000
 40
0.3000000000000000
100
AcDbArc
 50
52.07733399998930
 51
124.1557609999756
  0
ARC
  5
5A
100
AcDbEntity
  8
A1
  6
CONTINUOUS
 62
7
100
AcDbCircle
 10
138.7521120000000
 20
98.63435800000002
 30
0.000000000000000
 40
0.3000000000000000
100
AcDbArc
 50
278.2552059999456
 51
345.1097429999318
  0
ARC
  5
5B
100
AcDbEntity
  8
A1
  6
CONTINUOUS
 62
7
100
AcDbCircle
 10
138.5621270000000
 20
100.5268190000000
 30
0.000000000000000
 40
0.3000000000000000
100
AcDbArc
 50
26.35573899999403
 51
98.43416599998363
  0
ARC
  5
5C
100
AcDbEntity
  8
A5
  6
PHANTOM
 62
6
100
AcDbCircle
 10
130.2345800000001
 20
79.40596400000001
 30
0.000000000000000
 40
0.3000000000000000
100
AcDbArc
 50
215.4416447418004
 51
261.1097429999516
  0
LINE
  5
5D
100
AcDbEntity
  8
A1
  6
CONTINUOUS
 62
7
100
AcDbLine
 10
73.50000000000000
 20
111.0000000000000
 30
0.000000000000000
 11
73.50000000000000
 21
94.06236100000001
 31
0.000000000000000
  0
LINE
  5
5E
100
AcDbEntity
  8
A1
  6
CONTINUOUS
 62
7
100
AcDbLine
 10
72.00000000000000
 20
118.5000000000000
 30
0.000000000000000
 11
72.00000000000000
 21
113.5000000000000
 31
0.000000000000000
  0
LINE
  5
5F
100
AcDbEntity
  8
A1
  6
CONTINUOUS
 62
7
100
AcDbLine
 10
94.00000000000000
 20
113.5000000000000
 30
0.000000000000000
 11
94.00000000000000
 21
118.5000000000000
 31
0.000000000000000
  0
LINE
  5
60
100
AcDbEntity
  8
A1
  6
CONTINUOUS
 62
7
100
AcDbLine
 10
73.50000000000000
 20
112.0000000000000
 30
0.000000000000000
 11
92.50000000000000
 21
112.0000000000000
 31
0.000000000000000
  0
CIRCLE
  5
61
100
AcDbEntity
  8
A1
  6
CONTINUOUS
 62
7
100
AcDbCircle
 10
100.0000000000000
 20
80.00000000000000
 30
0.000000000000000
 40
30.00000000000000
  0
ARC
  5
62
100
AcDbEntity
  8
A1
  6
CONTINUOUS
 62
7
100
AcDbCircle
 10
95.50000000000000
 20
111.6820140000000
 30
0.000000000000000
 40
3.000000000000000
100
AcDbArc
 50
189.8170919999641
 51
231.9288949999560
  0
ARC
  5
63
100
AcDbEntity
  8
A1
  6
CONTINUOUS
 62
7
100
AcDbCircle
 10
74.50000000000000
 20
111.0000000000000
 30
0.000000000000000
 40
1.000000000000000
100
AcDbArc
 50
89.99999999998290
 51
179.9999999999658
  0
ARC
  5
64
100
AcDbEntity
  8
A1
  6
CONTINUOUS
 62
7
100
AcDbCircle
 10
91.55857200000003
 20
111.0000000000000
 30
0.000000000000000
 40
1.000000000000000
100
AcDbArc
 50
9.817091999998276
 51
89.99999999998290
  0
ARC
  5
65
100
AcDbEntity
  8
A1
  6
CONTINUOUS
 62
7
100
AcDbCircle
 10
73.50000000000000
 20
118.5000000000000
 30
0.000000000000000
 40
1.500000000000000
100
AcDbArc
 50
89.99999999998319
 51
179.9999999999664
  0
ARC
  5
66
100
AcDbEntity
  8
A1
  6
CONTINUOUS
 62
7
100
AcDbCircle
 10
73.50000000000000
 20
113.5000000000000
 30
0.000000000000000
 40
1.500000000000000
100
AcDbArc
 50
179.9999999999664
 51
269.9999999999490
  0
ARC
  5
67
100
AcDbEntity
  8
A1
  6
CONTINUOUS
 62
7
100
AcDbCircle
 10
92.50000000000000
 20
113.5000000000000
 30
0.000000000000000
 40
1.500000000000000
100
AcDbArc
 50
269.9999999999490
 51
359.9999999999316
  0
ARC
  5
68
100
AcDbEntity
  8
A1
  6
CONTINUOUS
 62
7
100
AcDbCircle
 10
92.50000000000000
 20
118.5000000000000
 30
0.000000000000000
 40
1.500000000000000
100
AcDbArc
 50
0.000000000000000
 51
89.99999999998319
  0
ARC
  5
69
100
AcDbEntity
  8
A1
  6
CONTINUOUS
 62
7
100
AcDbCircle
 10
100.0000000000000
 20
99.35178800000000
 30
0.000000000000000
 40
120.0000000000000
100
AcDbArc
 50
76.65763599998552
 51
82.33774399998445
  0
ARC
  5
6A
100
AcDbEntity
  8
A1
  6
CONTINUOUS
 62
7
100
AcDbCircle
 10
100.0000000000000
 20
99.41035700000000
 30
0.000000000000000
 40
120.0000000000000
100
AcDbArc
 50
79.74992299998495
 51
79.77541299998494
  0
LINE
  5
6B
100
AcDbEntity
  8
A1
  6
CONTINUOUS
 62
7
100
AcDbLine
 10
129.0000000000000
 20
185.8000000000000
 30
0.000000000000000
 11
129.0000000000000
 21
186.5000000000000
 31
0.000000000000000
  0
ARC
  5
6C
100
AcDbEntity
  8
A1
  6
CONTINUOUS
 62
7
100
AcDbCircle
 10
128.7000000000000
 20
185.8000000000000
 30
0.000000000000000
 40
0.3000000000000000
100
AcDbArc
 50
269.9999999999512
 51
359.9999999999293
  0
ARC
  5
6D
100
AcDbEntity
  8
A1
  6
CONTINUOUS
 62
7
100
AcDbCircle
 10
128.7000000000000
 20
204.2000000000000
 30
0.000000000000000
 40
0.3000000000000000
100
AcDbArc
 50
359.9999999999293
 51
449.9999999999132
  0
CIRCLE
  5
6E
100
AcDbEntity
  8
A1
  6
CONTINUOUS
 62
7
100
AcDbCircle
 10
100.0000000000000
 20
80.00000000000000
 30
0.000000000000000
 40
21.00000000000000
  0
LINE
  5
6F
100
AcDbEntity
  8
A1
  6
CONTINUOUS
 62
7
100
AcDbLine
 10
186.4489950000001
 20
110.0000000000000
 30
0.000000000000000
 11
193.6427790000000
 21
110.0000000000000
 31
0.000000000000000
  0
LINE
  5
70
100
AcDbEntity
  8
A1
  6
CONTINUOUS
 62
7
100
AcDbLine
 10
186.4489950000001
 20
50.00000000000000
 30
0.000000000000000
 11
193.6427790000000
 21
50.00000000000000
 31
0.000000000000000
  0
LINE
  5
71
100
AcDbEntity
  8
A1
  6
CONTINUOUS
 62
7
100
AcDbLine
 10
214.6427790000000
 20
112.0000000000000
 30
0.000000000000000
 11
194.6427790000000
 21
112.0000000000000
 31
0.000000000000000
  0
LINE
  5
72
100
AcDbEntity
  8
A1
  6
CONTINUOUS
 62
7
100
AcDbLine
 10
195.1427790000000
 20
67.05000000000001
 30
0.000000000000000
 11
195.1427790000000
 21
85.98982000000001
 31
0.000000000000000
  0
LINE
  5
73
100
AcDbEntity
  8
A1
  6
CONTINUOUS
 62
7
100
AcDbLine
 10
214.1427790000000
 20
67.05000000000001
 30
0.000000000000000
 11
214.1427790000000
 21
85.98982000000001
 31
0.000000000000000
  0
LINE
  5
74
100
AcDbEntity
  8
A1
  6
CONTINUOUS
 62
7
100
AcDbLine
 10
194.1427790000000
 20
50.50000000000000
 30
0.000000000000000
 11
194.1427790000000
 21
109.5000000000000
 31
0.000000000000000
  0
LINE
  5
75
100
AcDbEntity
  8
A1
  6
CONTINUOUS
 62
7
100
AcDbLine
 10
215.1427790000000
 20
109.5000000000000
 30
0.000000000000000
 11
215.1427790000000
 21
50.50000000000000
 31
0.000000000000000
  0
LINE
  5
76
100
AcDbEntity
  8
A1
  6
CONTINUOUS
 62
7
100
AcDbLine
 10
222.8365630000001
 20
50.00000000000000
 30
0.000000000000000
 11
215.6427790000000
 21
50.00000000000000
 31
0.000000000000000
  0
LINE
  5
77
100
AcDbEntity
  8
A1
  6
CONTINUOUS
 62
7
100
AcDbLine
 10
227.1427790000000
 20
101.0000000000000
 30
0.000000000000000
 11
227.1427790000000
 21
59.00000000000000
 31
0.000000000000000
  0
ARC
  5
78
100
AcDbEntity
  8
A1
  6
CONTINUOUS
 62
7
100
AcDbCircle
 10
186.4489950000001
 20
107.0000000000000
 30
0.000000000000000
 40
3.000000000000000
100
AcDbArc
 50
89.99999999998319
 51
166.6576359999686
  0
ARC
  5
79
100
AcDbEntity
  8
A1
  6
CONTINUOUS
 62
7
100
AcDbCircle
 10
222.8365630000001
 20
107.0000000000000
 30
0.000000000000000
 40
3.000000000000000
100
AcDbArc
 50
13.34236399999732
 51
89.99999999998263
  0
ARC
  5
7A
100
AcDbEntity
  8
A1
  6
CONTINUOUS
 62
7
100
AcDbCircle
 10
300.2909910000000
 20
80.00000000000000
 30
0.000000000000000
 40
120.0000000000000
100
AcDbArc
 50
166.6576359999685
 51
193.3423639999635
  0
ARC
  5
7B
100
AcDbEntity
  8
A1
  6
CONTINUOUS
 62
7
100
AcDbCircle
 10
108.9945670000001
 20
80.00000000000000
 30
0.000000000000000
 40
120.0000000000000
100
AcDbArc
 50
346.6576359999346
 51
373.3423639999295
  0
LINE
  5
7C
100
AcDbEntity
  8
A1
  6
CONTINUOUS
 62
7
100
AcDbLine
 10
222.8365630000001
 20
110.0000000000000
 30
0.000000000000000
 11
215.6427790000000
 21
110.0000000000000
 31
0.000000000000000
  0
LINE
  5
7D
100
AcDbEntity
  8
A1
  6
CONTINUOUS
 62
7
100
AcDbLine
 10
195.4427790000001
 20
66.75000000000000
 30
0.000000000000000
 11
213.8427790000000
 21
66.75000000000000
 31
0.000000000000000
  0
ARC
  5
7E
100
AcDbEntity
  8
A1
  6
CONTINUOUS
 62
7
100
AcDbCircle
 10
222.8365630000001
 20
53.00000000000000
 30
0.000000000000000
 40
3.000000000000000
100
AcDbArc
 50
269.9999999999490
 51
346.6576359999344
  0
ARC
  5
7F
100
AcDbEntity
  8
A1
  6
CONTINUOUS
 62
7
100
AcDbCircle
 10
186.4489950000001
 20
53.00000000000000
 30
0.000000000000000
 40
3.000000000000000
100
AcDbArc
 50
193.3423639999636
 51
269.9999999999490
  0
ARC
  5
80
100
AcDbEntity
  8
A1
  6
CONTINUOUS
 62
7
100
AcDbCircle
 10
193.6427790000000
 20
50.50000000000000
 30
0.000000000000000
 40
0.5000000000000000
100
AcDbArc
 50
269.9999999999479
 51
359.9999999999316
  0
ARC
  5
81
100
AcDbEntity
  8
A1
  6
CONTINUOUS
 62
7
100
AcDbCircle
 10
193.6427790000000
 20
109.5000000000000
 30
0.000000000000000
 40
0.5000000000000000
100
AcDbArc
 50
359.9999999999316
 51
449.9999999999153
  0
ARC
  5
82
100
AcDbEntity
  8
A1
  6
CONTINUOUS
 62
7
100
AcDbCircle
 10
215.6427790000000
 20
109.5000000000000
 30
0.000000000000000
 40
0.5000000000000000
100
AcDbArc
 50
89.99999999998046
 51
179.9999999999674
  0
ARC
  5
83
100
AcDbEntity
  8
A1
  6
CONTINUOUS
 62
7
100
AcDbCircle
 10
215.6427790000000
 20
50.50000000000000
 30
0.000000000000000
 40
0.5000000000000000
100
AcDbArc
 50
179.9999999999658
 51
269.9999999999479
  0
LINE
  5
84
100
AcDbEntity
  8
A1
  6
CONTINUOUS
 62
7
100
AcDbLine
 10
194.1427790000000
 20
89.50000000000000
 30
0.000000000000000
 11
195.1427790000000
 21
89.50000000000000
 31
0.000000000000000
  0
LINE
  5
85
100
AcDbEntity
  8
A1
  6
CONTINUOUS
 62
7
100
AcDbLine
 10
182.1427790000000
 20
59.00000000000000
 30
0.000000000000000
 11
182.1427790000000
 21
101.0000000000000
 31
0.000000000000000
  0
LINE
  5
86
100
AcDbEntity
  8
A1
  6
CONTINUOUS
 62
7
100
AcDbLine
 10
194.1427790000000
 20
70.50000000000000
 30
0.000000000000000
 11
195.1427790000000
 21
70.50000000000000
 31
0.000000000000000
  0
LINE
  5
87
100
AcDbEntity
  8
A1
  6
CONTINUOUS
 62
7
100
AcDbLine
 10
214.1427790000000
 20
89.50000000000000
 30
0.000000000000000
 11
215.1427790000000
 21
89.50000000000000
 31
0.000000000000000
  0
LINE
  5
88
100
AcDbEntity
  8
A1
  6
CONTINUOUS
 62
7
100
AcDbLine
 10
214.1427790000000
 20
70.50000000000000
 30
0.000000000000000
 11
215.1427790000000
 21
70.50000000000000
 31
0.000000000000000
  0
ARC
  5
89
100
AcDbEntity
  8
A1
  6
CONTINUOUS
 62
7
100
AcDbCircle
 10
196.1427790000000
 20
111.0000000000000
 30
0.000000000000000
 40
1.000000000000000
100
AcDbArc
 50
89.99999999998371
 51
179.9999999999658
  0
ARC
  5
8A
100
AcDbEntity
  8
A1
  6
CONTINUOUS
 62
7
100
AcDbCircle
 10
213.1427790000000
 20
111.0000000000000
 30
0.000000000000000
 40
1.000000000000000
100
AcDbArc
 50
0.000000000000000
 51
89.99999999998371
  0
ARC
  5
8B
100
AcDbEntity
  8
A1
  6
CONTINUOUS
 62
7
100
AcDbCircle
 10
195.4427790000001
 20
67.05000000000001
 30
0.000000000000000
 40
0.3000000000000000
100
AcDbArc
 50
179.9999999999647
 51
269.9999999999512
  0
ARC
  5
8C
100
AcDbEntity
  8
A1
  6
CONTINUOUS
 62
7
100
AcDbCircle
 10
213.8427790000000
 20
67.05000000000001
 30
0.000000000000000
 40
0.3000000000000000
100
AcDbArc
 50
269.9999999999512
 51
359.9999999999322
  0
LINE
  5
8D
100
AcDbEntity
  8
A1
  6
CONTINUOUS
 62
7
100
AcDbLine
 10
214.2859250000000
 20
120.0000000000000
 30
0.000000000000000
 11
194.9996330000000
 21
120.0000000000000
 31
0.000000000000000
  0
ARC
  5
8E
100
AcDbEntity
  8
A1
  6
CONTINUOUS
 62
7
100
AcDbCircle
 10
127.0000000000000
 20
213.1937840000000
 30
0.000000000000000
 40
3.000000000000000
100
AcDbArc
 50
0.000000000000000
 51
76.65763599998532
  0
ARC
  5
8F
100
AcDbEntity
  8
A1
  6
CONTINUOUS
 62
7
100
AcDbCircle
 10
127.0000000000000
 20
176.8062160000000
 30
0.000000000000000
 40
3.000000000000000
100
AcDbArc
 50
283.3423639999466
 51
359.9999999999322
  0
LINE
  5
90
100
AcDbEntity
  8
A1
  6
CONTINUOUS
 62
7
100
AcDbLine
 10
50.00000000000000
 20
125.7000000000000
 30
0.000000000000000
 11
116.0000000000000
 21
125.7000000000000
 31
0.000000000000000
  0
LINE
  5
91
100
AcDbEntity
  8
A1
  6
CONTINUOUS
 62
7
100
AcDbLine
 10
100.0000000000001
 20
125.7000000000001
 30
0.000000000000000
 11
95.47157299999996
 21
121.1715730000000
 31
0.000000000000000
  0
LINE
  5
92
100
AcDbEntity
  8
A1
  6
CONTINUOUS
 62
7
100
AcDbLine
 10
66.00000000000009
 20
125.7000000000002
 30
0.000000000000000
 11
70.52842700000014
 21
121.1715730000001
 31
0.000000000000000
  0
ARC
  5
93
100
AcDbEntity
  8
A1
  6
CONTINUOUS
 62
7
100
AcDbCircle
 10
92.64314600000000
 20
124.0000000000000
 30
0.000000000000000
 40
4.000000000000000
100
AcDbArc
 50
269.9999999999489
 51
314.9999999999404
  0
ARC
  5
94
100
AcDbEntity
  8
A1
  6
CONTINUOUS
 62
7
100
AcDbCircle
 10
73.35685400000000
 20
124.0000000000000
 30
0.000000000000000
 40
4.000000000000000
100
AcDbArc
 50
224.9999999999574
 51
269.9999999999489
  0
LINE
  5
95
100
AcDbEntity
  8
A1
  6
CONTINUOUS
 62
7
100
AcDbLine
 10
187.6427790000000
 20
125.6999999999998
 30
0.000000000000000
 11
192.1712059999999
 21
121.1715729999999
 31
0.000000000000000
  0
LINE
  5
96
100
AcDbEntity
  8
A1
  6
CONTINUOUS
 62
7
100
AcDbLine
 10
221.6427790000000
 20
125.7000000000000
 30
0.000000000000000
 11
217.1143519999999
 21
121.1715730000000
 31
0.000000000000000
  0
LINE
  5
97
100
AcDbEntity
  8
A1
  6
CONTINUOUS
 62
7
100
AcDbLine
 10
193.6427790000000
 20
113.0000000000000
 30
0.000000000000000
 11
193.6427790000000
 21
119.0000000000000
 31
0.000000000000000
  0
LINE
  5
98
100
AcDbEntity
  8
A1
  6
CONTINUOUS
 62
7
100
AcDbLine
 10
215.6427790000000
 20
113.0000000000000
 30
0.000000000000000
 11
215.6427790000000
 21
119.0000000000000
 31
0.000000000000000
  0
ARC
  5
99
100
AcDbEntity
  8
A1
  6
CONTINUOUS
 62
7
100
AcDbCircle
 10
214.6427790000000
 20
113.0000000000000
 30
0.000000000000000
 40
1.000000000000000
100
AcDbArc
 50
269.9999999999479
 51
359.9999999999316
  0
ARC
  5
9A
100
AcDbEntity
  8
A1
  6
CONTINUOUS
 62
7
100
AcDbCircle
 10
194.6427790000000
 20
113.0000000000000
 30
0.000000000000000
 40
1.000000000000000
100
AcDbArc
 50
179.9999999999658
 51
269.9999999999495
  0
ARC
  5
9B
100
AcDbEntity
  8
A1
  6
CONTINUOUS
 62
7
100
AcDbCircle
 10
194.6427790000000
 20
119.0000000000000
 30
0.000000000000000
 40
1.000000000000000
100
AcDbArc
 50
89.99999999998371
 51
179.9999999999658
  0
ARC
  5
9C
100
AcDbEntity
  8
A1
  6
CONTINUOUS
 62
7
100
AcDbCircle
 10
214.6427790000000
 20
119.0000000000000
 30
0.000000000000000
 40
1.000000000000000
100
AcDbArc
 50
0.000000000000000
 51
89.99999999998371
  0
ARC
  5
9D
100
AcDbEntity
  8
A1
  6
CONTINUOUS
 62
7
100
AcDbCircle
 10
214.2859250000000
 20
124.0000000000000
 30
0.000000000000000
 40
4.000000000000000
100
AcDbArc
 50
269.9999999999487
 51
314.9999999999404
  0
ARC
  5
9E
100
AcDbEntity
  8
A1
  6
CONTINUOUS
 62
7
100
AcDbCircle
 10
194.9996330000000
 20
124.0000000000000
 30
0.000000000000000
 40
4.000000000000000
100
AcDbArc
 50
224.9999999999574
 51
269.9999999999491
  0
LINE
  5
9F
100
AcDbEntity
  8
A1
  6
CONTINUOUS
 62
7
100
AcDbLine
 10
213.1427790000000
 20
99.77133300000000
 30
0.000000000000000
 11
214.1427790000000
 21
99.77133300000000
 31
0.000000000000000
  0
LINE
  5
A0
100
AcDbEntity
  8
A1
  6
CONTINUOUS
 62
7
100
AcDbLine
 10
210.1427790000000
 20
85.98982000000001
 30
0.000000000000000
 11
214.1427790000000
 21
85.98982000000001
 31
0.000000000000000
  0
LINE
  5
A1
100
AcDbEntity
  8
A1
  6
CONTINUOUS
 62
7
100
AcDbLine
 10
197.6427790000000
 20
106.1442930000000
 30
0.000000000000000
 11
211.6427790000000
 21
106.1442930000000
 31
0.000000000000000
  0
LINE
  5
A2
100
AcDbEntity
  8
A1
  6
CONTINUOUS
 62
7
100
AcDbLine
 10
199.1427790000000
 20
85.98982000000001
 30
0.000000000000000
 11
199.1427790000000
 21
98.33746600000001
 31
0.000000000000000
  0
LINE
  5
A3
100
AcDbEntity
  8
A1
  6
CONTINUOUS
 62
7
100
AcDbLine
 10
198.4427790000001
 20
98.33746600000001
 30
0.000000000000000
 11
210.8427790000000
 21
98.33746600000001
 31
0.000000000000000
  0
LINE
  5
A4
100
AcDbEntity
  8
A1
  6
CONTINUOUS
 62
7
100
AcDbLine
 10
210.1427790000000
 20
85.98982000000001
 30
0.000000000000000
 11
210.1427790000000
 21
98.33746600000001
 31
0.000000000000000
  0
LINE
  5
A5
100
AcDbEntity
  8
A1
  6
CONTINUOUS
 62
7
100
AcDbLine
 10
196.1427790000000
 20
87.83937600000002
 30
0.000000000000000
 11
199.1427790000000
 21
87.83937600000002
 31
0.000000000000000
  0
LINE
  5
A6
100
AcDbEntity
  8
A1
  6
CONTINUOUS
 62
7
100
AcDbLine
 10
195.1427790000000
 20
101.0814450000000
 30
0.000000000000000
 11
196.1427790000000
 21
101.0814450000000
 31
0.000000000000000
  0
LINE
  5
A7
100
AcDbEntity
  8
A1
  6
CONTINUOUS
 62
7
100
AcDbLine
 10
195.1427790000000
 20
99.77133300000000
 30
0.000000000000000
 11
196.1427790000000
 21
99.77133300000000
 31
0.000000000000000
  0
LINE
  5
A8
100
AcDbEntity
  8
A1
  6
CONTINUOUS
 62
7
100
AcDbLine
 10
195.1427790000000
 20
85.98982000000001
 30
0.000000000000000
 11
199.1427790000000
 21
85.98982000000001
 31
0.000000000000000
  0
LINE
  5
A9
100
AcDbEntity
  8
A1
  6
CONTINUOUS
 62
7
100
AcDbLine
 10
214.1427790000000
 20
83.28016200000002
 30
0.000000000000000
 11
215.1427790000000
 21
83.28016200000002
 31
0.000000000000000
  0
LINE
  5
AA
100
AcDbEntity
  8
A1
  6
CONTINUOUS
 62
7
100
AcDbLine
 10
213.1427790000000
 20
86.80183700000001
 30
0.000000000000000
 11
215.1427790000000
 21
86.80183700000001
 31
0.000000000000000
  0
LINE
  5
AB
100
AcDbEntity
  8
A1
  6
CONTINUOUS
 62
7
100
AcDbLine
 10
213.1427790000000
 20
89.59523400000000
 30
0.000000000000000
 11
215.1427790000000
 21
89.59523400000000
 31
0.000000000000000
  0
LINE
  5
AC
100
AcDbEntity
  8
A1
  6
CONTINUOUS
 62
7
100
AcDbLine
 10
196.1427790000000
 20
104.6442930000000
 30
0.000000000000000
 11
196.1427790000000
 21
85.98982000000001
 31
0.000000000000000
  0
LINE
  5
AD
100
AcDbEntity
  8
A1
  6
CONTINUOUS
 62
7
100
AcDbLine
 10
213.1427790000000
 20
104.6442930000000
 30
0.000000000000000
 11
213.1427790000000
 21
85.98982000000001
 31
0.000000000000000
  0
LINE
  5
AE
100
AcDbEntity
  8
A1
  6
CONTINUOUS
 62
7
100
AcDbLine
 10
213.1427790000000
 20
91.37948499999999
 30
0.000000000000000
 11
215.1427790000000
 21
91.37948499999999
 31
0.000000000000000
  0
LINE
  5
AF
100
AcDbEntity
  8
A1
  6
CONTINUOUS
 62
7
100
AcDbLine
 10
213.1427790000000
 20
93.69096400000001
 30
0.000000000000000
 11
215.1427790000000
 21
93.69096400000001
 31
0.000000000000000
  0
LINE
  5
B0
100
AcDbEntity
  8
A1
  6
CONTINUOUS
 62
7
100
AcDbLine
 10
213.1427790000000
 20
95.40285100000000
 30
0.000000000000000
 11
215.1427790000000
 21
95.40285100000000
 31
0.000000000000000
  0
LINE
  5
B1
100
AcDbEntity
  8
A1
  6
CONTINUOUS
 62
7
100
AcDbLine
 10
210.1427790000000
 20
87.83937600000002
 30
0.000000000000000
 11
213.1427790000000
 21
87.83937600000002
 31
0.000000000000000
  0
LINE
  5
B2
100
AcDbEntity
  8
A1
  6
CONTINUOUS
 62
7
100
AcDbLine
 10
195.1427790000000
 20
111.0000000000000
 30
0.000000000000000
 11
195.1427790000000
 21
95.40285100000000
 31
0.000000000000000
  0
LINE
  5
B3
100
AcDbEntity
  8
A1
  6
CONTINUOUS
 62
7
100
AcDbLine
 10
214.1427790000000
 20
111.0000000000000
 30
0.000000000000000
 11
214.1427790000000
 21
95.40285100000000
 31
0.000000000000000
  0
LINE
  5
B4
100
AcDbEntity
  8
A1
  6
CONTINUOUS
 62
7
100
AcDbLine
 10
197.6427790000000
 20
99.13746600000002
 30
0.000000000000000
 11
197.6427790000000
 21
100.2814450000000
 31
0.000000000000000
  0
LINE
  5
B5
100
AcDbEntity
  8
A1
  6
CONTINUOUS
 62
7
100
AcDbLine
 10
211.6427790000000
 20
99.13746600000002
 30
0.000000000000000
 11
211.6427790000000
 21
100.2814450000000
 31
0.000000000000000
  0
ARC
  5
B6
100
AcDbEntity
  8
A1
  6
CONTINUOUS
 62
7
100
AcDbCircle
 10
198.4427790000001
 20
100.2814450000000
 30
0.000000000000000
 40
0.8000000000000000
100
AcDbArc
 50
89.99999999998371
 51
179.9999999999654
  0
ARC
  5
B7
100
AcDbEntity
  8
A1
  6
CONTINUOUS
 62
7
100
AcDbCircle
 10
198.4427790000001
 20
99.13746600000002
 30
0.000000000000000
 40
0.8000000000000000
100
AcDbArc
 50
179.9999999999654
 51
269.9999999999491
  0
ARC
  5
B8
100
AcDbEntity
  8
A1
  6
CONTINUOUS
 62
7
100
AcDbCircle
 10
210.8427790000000
 20
99.13746600000002
 30
0.000000000000000
 40
0.8000000000000000
100
AcDbArc
 50
269.9999999999491
 51
359.9999999999329
  0
ARC
  5
B9
100
AcDbEntity
  8
A1
  6
CONTINUOUS
 62
7
100
AcDbCircle
 10
210.8427790000000
 20
100.2814450000000
 30
0.000000000000000
 40
0.8000000000000000
100
AcDbArc
 50
359.9999999999329
 51
449.9999999999145
  0
ARC
  5
BA
100
AcDbEntity
  8
A1
  6
CONTINUOUS
 62
7
100
AcDbCircle
 10
197.6427790000000
 20
104.6442930000000
 30
0.000000000000000
 40
1.500000000000000
100
AcDbArc
 50
89.99999999998263
 51
179.9999999999664
  0
ARC
  5
BB
100
AcDbEntity
  8
A1
  6
CONTINUOUS
 62
7
100
AcDbCircle
 10
211.6427790000000
 20
104.6442930000000
 30
0.000000000000000
 40
1.500000000000000
100
AcDbArc
 50
359.9999999999316
 51
449.9999999999153
  0
ARC
  5
BC
100
AcDbEntity
  8
A1
  6
CONTINUOUS
 62
7
100
AcDbCircle
 10
199.1427790000000
 20
101.2231310000000
 30
0.000000000000000
 40
3.000000000000000
100
AcDbArc
 50
179.9999999999658
 51
251.4469949999526
  0
ARC
  5
BD
100
AcDbEntity
  8
A1
  6
CONTINUOUS
 62
7
100
AcDbCircle
 10
199.1427790000000
 20
103.9986350000000
 30
0.000000000000000
 40
3.000000000000000
100
AcDbArc
 50
179.9999999999658
 51
256.5066009999516
  0
ARC
  5
BE
100
AcDbEntity
  8
A1
  6
CONTINUOUS
 62
7
100
AcDbCircle
 10
210.1427790000000
 20
103.9986350000000
 30
0.000000000000000
 40
3.000000000000000
100
AcDbArc
 50
283.4933989999463
 51
359.9999999999322
  0
ARC
  5
BF
100
AcDbEntity
  8
A1
  6
CONTINUOUS
 62
7
100
AcDbCircle
 10
210.1427790000000
 20
101.2231310000000
 30
0.000000000000000
 40
3.000000000000000
100
AcDbArc
 50
288.5530049999455
 51
359.9999999999322
  0
LINE
  5
C0
100
AcDbEntity
  8
A1
  6
CONTINUOUS
 62
7
100
AcDbLine
 10
198.4427790000001
 20
101.0814450000000
 30
0.000000000000000
 11
210.8427790000000
 21
101.0814450000000
 31
0.000000000000000
  0
LINE
  5
C1
100
AcDbEntity
  8
A1
  6
CONTINUOUS
 62
7
100
AcDbLine
 10
213.1427790000000
 20
101.0814450000000
 30
0.000000000000000
 11
214.1427790000000
 21
101.0814450000000
 31
0.000000000000000
  0
LINE
  5
C2
100
AcDbEntity
  8
A1
  6
CONTINUOUS
 62
7
100
AcDbLine
 10
199.1427790000000
 20
92.32508600000000
 30
0.000000000000000
 11
210.1427790000000
 21
92.32508600000000
 31
0.000000000000000
  0
LINE
  5
C3
100
AcDbEntity
  8
A1
  6
CONTINUOUS
 62
7
100
AcDbLine
 10
199.1427790000000
 20
97.21699000000001
 30
0.000000000000000
 11
210.1427790000000
 21
97.21699000000001
 31
0.000000000000000
  0
LINE
  5
C4
100
AcDbEntity
  8
A1
  6
CONTINUOUS
 62
7
100
AcDbLine
 10
194.1427790000000
 20
83.28016200000002
 30
0.000000000000000
 11
195.1427790000000
 21
83.28016200000002
 31
0.000000000000000
  0
LINE
  5
C5
100
AcDbEntity
  8
A1
  6
CONTINUOUS
 62
7
100
AcDbLine
 10
194.1427790000000
 20
86.01420099999999
 30
0.000000000000000
 11
215.1427790000000
 21
86.01420099999999
 31
0.000000000000000
  0
LINE
  5
C6
100
AcDbEntity
  8
A1
  6
CONTINUOUS
 62
7
100
AcDbLine
 10
194.1427790000000
 20
86.80183700000001
 30
0.000000000000000
 11
196.1427790000000
 21
86.80183700000001
 31
0.000000000000000
  0
LINE
  5
C7
100
AcDbEntity
  8
A1
  6
CONTINUOUS
 62
7
100
AcDbLine
 10
194.1427790000000
 20
89.59523400000000
 30
0.000000000000000
 11
196.1427790000000
 21
89.59523400000000
 31
0.000000000000000
  0
LINE
  5
C8
100
AcDbEntity
  8
A1
  6
CONTINUOUS
 62
7
100
AcDbLine
 10
194.1427790000000
 20
91.37948499999999
 30
0.000000000000000
 11
196.1427790000000
 21
91.37948499999999
 31
0.000000000000000
  0
LINE
  5
C9
100
AcDbEntity
  8
A1
  6
CONTINUOUS
 62
7
100
AcDbLine
 10
194.1427790000000
 20
93.69096400000001
 30
0.000000000000000
 11
196.1427790000000
 21
93.69096400000001
 31
0.000000000000000
  0
LINE
  5
CA
100
AcDbEntity
  8
A1
  6
CONTINUOUS
 62
7
100
AcDbLine
 10
194.1427790000000
 20
95.40285100000000
 30
0.000000000000000
 11
196.1427790000000
 21
95.40285100000000
 31
0.000000000000000
  0
LINE
  5
CB
100
AcDbEntity
  8
A1
  6
CONTINUOUS
 62
7
100
AcDbLine
 10
118.3444650000000
 20
201.3217270000000
 30
0.000000000000000
 11
118.3444650000000
 21
188.6782730000000
 31
0.000000000000000
  0
LINE
  5
CC
100
AcDbEntity
  8
A1
  6
CONTINUOUS
 62
7
100
AcDbLine
 10
116.8795110000001
 20
201.3217270000000
 30
0.000000000000000
 11
116.8795110000001
 21
188.6782730000000
 31
0.000000000000000
  0
LINE
  5
CD
100
AcDbEntity
  8
A1
  6
CONTINUOUS
 62
7
100
AcDbLine
 10
139.0420380000000
 20
201.0245780000000
 30
0.000000000000000
 11
139.0420380000000
 21
188.9754220000000
 31
0.000000000000000
  0
LINE
  5
CE
100
AcDbEntity
  8
A1
  6
CONTINUOUS
 62
7
100
AcDbLine
 10
119.9141330000000
 20
185.5000000000000
 30
0.000000000000000
 11
119.9141330000000
 21
186.5000000000000
 31
0.000000000000000
  0
LINE
  5
CF
100
AcDbEntity
  8
A1
  6
CONTINUOUS
 62
7
100
AcDbLine
 10
128.3746730000000
 20
185.5000000000000
 30
0.000000000000000
 11
128.3746730000000
 21
186.5000000000000
 31
0.000000000000000
  0
LINE
  5
D0
100
AcDbEntity
  8
A1
  6
CONTINUOUS
 62
7
100
AcDbLine
 10
126.0855850000000
 20
185.5000000000000
 30
0.000000000000000
 11
126.0855850000000
 21
186.5000000000000
 31
0.000000000000000
  0
LINE
  5
D1
100
AcDbEntity
  8
A1
  6
CONTINUOUS
 62
7
100
AcDbLine
 10
120.6568210000000
 20
184.5000000000000
 30
0.000000000000000
 11
120.6568210000000
 21
185.5000000000000
 31
0.000000000000000
  0
LINE
  5
D2
100
AcDbEntity
  8
A1
  6
CONTINUOUS
 62
7
100
AcDbLine
 10
120.4502250000000
 20
203.5000000000000
 30
0.000000000000000
 11
132.5036900000000
 21
203.5000000000000
 31
0.000000000000000
  0
LINE
  5
D3
100
AcDbEntity
  8
A1
  6
CONTINUOUS
 62
7
100
AcDbLine
 10
120.4502250000000
 20
186.5000000000000
 30
0.000000000000000
 11
132.5036900000000
 21
186.5000000000000
 31
0.000000000000000
  0
LINE
  5
D4
100
AcDbEntity
  8
A1
  6
CONTINUOUS
 62
7
100
AcDbLine
 10
126.0855850000000
 20
203.5000000000000
 30
0.000000000000000
 11
126.0855850000000
 21
204.5000000000000
 31
0.000000000000000
  0
LINE
  5
D5
100
AcDbEntity
  8
A1
  6
CONTINUOUS
 62
7
100
AcDbLine
 10
128.3746730000000
 20
203.5000000000000
 30
0.000000000000000
 11
128.3746730000000
 21
204.5000000000000
 31
0.000000000000000
  0
LINE
  5
D6
100
AcDbEntity
  8
A1
  6
CONTINUOUS
 62
7
100
AcDbLine
 10
119.9141330000000
 20
203.5000000000000
 30
0.000000000000000
 11
119.9141330000000
 21
204.5000000000000
 31
0.000000000000000
  0
LINE
  5
D7
100
AcDbEntity
  8
A1
  6
CONTINUOUS
 62
7
100
AcDbLine
 10
120.6568210000000
 20
204.5000000000000
 30
0.000000000000000
 11
120.6568210000000
 21
205.5000000000000
 31
0.000000000000000
  0
LINE
  5
D8
100
AcDbEntity
  8
A1
  6
CONTINUOUS
 62
7
100
AcDbLine
 10
117.3795110000001
 20
202.0000000000000
 30
0.000000000000000
 11
117.8444650000000
 21
202.0000000000000
 31
0.000000000000000
  0
LINE
  5
D9
100
AcDbEntity
  8
A1
  6
CONTINUOUS
 62
7
100
AcDbLine
 10
117.3795110000001
 20
188.0000000000000
 30
0.000000000000000
 11
117.8444650000000
 21
188.0000000000000
 31
0.000000000000000
  0
ARC
  5
DA
100
AcDbEntity
  8
A1
  6
CONTINUOUS
 62
7
100
AcDbCircle
 10
120.4502250000000
 20
198.5000000000000
 30
0.000000000000000
 40
5.000000000000000
100
AcDbArc
 50
89.99999999998306
 51
126.2729509999761
  0
ARC
  5
DB
100
AcDbEntity
  8
A1
  6
CONTINUOUS
 62
7
100
AcDbCircle
 10
120.4502250000000
 20
191.5000000000000
 30
0.000000000000000
 40
5.000000000000000
100
AcDbArc
 50
233.7270489999559
 51
269.9999999999490
  0
ARC
  5
DC
100
AcDbEntity
  8
A1
  6
CONTINUOUS
 62
7
100
AcDbCircle
 10
132.5036900000000
 20
188.5000000000000
 30
0.000000000000000
 40
15.00000000000000
100
AcDbArc
 50
68.08621599998716
 51
89.99999999998296
  0
ARC
  5
DD
100
AcDbEntity
  8
A1
  6
CONTINUOUS
 62
7
100
AcDbCircle
 10
132.5036900000000
 20
201.5000000000000
 30
0.000000000000000
 40
15.00000000000000
100
AcDbArc
 50
269.9999999999490
 51
291.9137839999448
  0
ARC
  5
DE
100
AcDbEntity
  8
A1
  6
CONTINUOUS
 62
7
100
AcDbCircle
 10
121.9151790000000
 20
198.5000000000000
 30
0.000000000000000
 40
5.000000000000000
100
AcDbArc
 50
89.99999999998306
 51
126.2729509999761
  0
ARC
  5
DF
100
AcDbEntity
  8
A1
  6
CONTINUOUS
 62
7
100
AcDbCircle
 10
121.9151790000000
 20
191.5000000000000
 30
0.000000000000000
 40
5.000000000000000
100
AcDbArc
 50
233.7270489999559
 51
269.9999999999488
  0
ARC
  5
E0
100
AcDbEntity
  8
A1
  6
CONTINUOUS
 62
7
100
AcDbCircle
 10
117.3795110000001
 20
201.5000000000000
 30
0.000000000000000
 40
0.5000000000000000
100
AcDbArc
 50
89.99999999998371
 51
179.9999999999674
  0
ARC
  5
E1
100
AcDbEntity
  8
A1
  6
CONTINUOUS
 62
7
100
AcDbCircle
 10
117.8444650000000
 20
201.5000000000000
 30
0.000000000000000
 40
0.5000000000000000
100
AcDbArc
 50
0.000000000000000
 51
89.99999999998371
  0
ARC
  5
E2
100
AcDbEntity
  8
A1
  6
CONTINUOUS
 62
7
100
AcDbCircle
 10
117.3795110000001
 20
188.5000000000000
 30
0.000000000000000
 40
0.5000000000000000
100
AcDbArc
 50
179.9999999999674
 51
269.9999999999495
  0
ARC
  5
E3
100
AcDbEntity
  8
A1
  6
CONTINUOUS
 62
7
100
AcDbCircle
 10
117.8444650000000
 20
188.5000000000000
 30
0.000000000000000
 40
0.5000000000000000
100
AcDbArc
 50
269.9999999999495
 51
359.9999999999316
  0
ARC
  5
E4
100
AcDbEntity
  8
A1
  6
CONTINUOUS
 62
7
100
AcDbCircle
 10
118.3795110000001
 20
201.3217270000000
 30
0.000000000000000
 40
1.500000000000000
100
AcDbArc
 50
126.2729509999760
 51
179.9999999999664
  0
ARC
  5
E5
100
AcDbEntity
  8
A1
  6
CONTINUOUS
 62
7
100
AcDbCircle
 10
119.8444650000000
 20
201.3217270000000
 30
0.000000000000000
 40
1.500000000000000
100
AcDbArc
 50
126.2729509999760
 51
179.9999999999664
  0
ARC
  5
E6
100
AcDbEntity
  8
A1
  6
CONTINUOUS
 62
7
100
AcDbCircle
 10
119.8444650000000
 20
188.6782730000000
 30
0.000000000000000
 40
1.500000000000000
100
AcDbArc
 50
179.9999999999664
 51
233.7270489999560
  0
ARC
  5
E7
100
AcDbEntity
  8
A1
  6
CONTINUOUS
 62
7
100
AcDbCircle
 10
118.3795110000001
 20
188.6782730000000
 30
0.000000000000000
 40
1.500000000000000
100
AcDbArc
 50
179.9999999999664
 51
233.7270489999560
  0
ARC
  5
E8
100
AcDbEntity
  8
A1
  6
CONTINUOUS
 62
7
100
AcDbCircle
 10
137.5420380000000
 20
201.0245780000000
 30
0.000000000000000
 40
1.500000000000000
100
AcDbArc
 50
0.000000000000000
 51
68.08621599998720
  0
ARC
  5
E9
100
AcDbEntity
  8
A1
  6
CONTINUOUS
 62
7
100
AcDbCircle
 10
137.5420380000000
 20
188.9754220000000
 30
0.000000000000000
 40
1.500000000000000
100
AcDbArc
 50
291.9137839999447
 51
359.9999999999316
  0
LINE
  5
EA
100
AcDbEntity
  8
A1
  6
CONTINUOUS
 62
7
100
AcDbLine
 10
119.7401620000001
 20
184.5000000000000
 30
0.000000000000000
 11
119.7401620000001
 21
185.5000000000000
 31
0.000000000000000
  0
LINE
  5
EB
100
AcDbEntity
  8
A1
  6
CONTINUOUS
 62
7
100
AcDbLine
 10
118.6945459999999
 20
184.5000000000000
 30
0.000000000000000
 11
118.6945459999999
 21
185.5000000000000
 31
0.000000000000000
  0
LINE
  5
EC
100
AcDbEntity
  8
A1
  6
CONTINUOUS
 62
7
100
AcDbLine
 10
117.6495700000000
 20
184.5000000000000
 30
0.000000000000000
 11
117.6495700000000
 21
185.5000000000000
 31
0.000000000000000
  0
LINE
  5
ED
100
AcDbEntity
  8
A1
  6
CONTINUOUS
 62
7
100
AcDbLine
 10
117.6495700000000
 20
204.5000000000000
 30
0.000000000000000
 11
117.6495700000000
 21
205.5000000000000
 31
0.000000000000000
  0
LINE
  5
EE
100
AcDbEntity
  8
A1
  6
CONTINUOUS
 62
7
100
AcDbLine
 10
118.6945459999999
 20
204.5000000000000
 30
0.000000000000000
 11
118.6945459999999
 21
205.5000000000000
 31
0.000000000000000
  0
LINE
  5
EF
100
AcDbEntity
  8
A1
  6
CONTINUOUS
 62
7
100
AcDbLine
 10
119.7401620000001
 20
204.5000000000000
 30
0.000000000000000
 11
119.7401620000001
 21
205.5000000000000
 31
0.000000000000000
  0
LINE
  5
F0
100
AcDbEntity
  8
A1
  6
CONTINUOUS
 62
7
100
AcDbLine
 10
129.0000000000000
 20
203.5000000000000
 30
0.000000000000000
 11
129.0000000000000
 21
204.2000000000000
 31
0.000000000000000
  0
ARC
  5
F1
100
AcDbEntity
  8
A1
  6
CONTINUOUS
 62
7
100
AcDbCircle
 10
204.6427790000000
 20
-41.00000000000000
 30
0.000000000000000
 40
150.0000000000000
100
AcDbArc
 50
86.47659599998367
 51
93.52340399998234
  0
ARC
  5
F2
100
AcDbEntity
  8
A1
  6
CONTINUOUS
 62
7
100
AcDbCircle
 10
195.4427790000001
 20
108.4170340000000
 30
0.000000000000000
 40
0.3000000000000000
100
AcDbArc
 50
93.52340399998171
 51
179.9999999999674
  0
ARC
  5
F3
100
AcDbEntity
  8
A1
  6
CONTINUOUS
 62
7
100
AcDbCircle
 10
213.8427790000000
 20
108.4170340000000
 30
0.000000000000000
 40
0.3000000000000000
100
AcDbArc
 50
0.000000000000000
 51
86.47659599998578
  0
LINE
  5
F4
100
AcDbEntity
  8
A1
  6
CONTINUOUS
 62
7
100
AcDbLine
 10
50.00000000000000
 20
125.7000000000000
 30
0.000000000000000
 11
50.00000000000000
 21
129.5000000000000
 31
0.000000000000000
  0
LINE
  5
F5
100
AcDbEntity
  8
A1
  6
CONTINUOUS
 62
7
100
AcDbLine
 10
116.0000000000000
 20
172.5000000000000
 30
0.000000000000000
 11
121.3000000000001
 21
172.5000000000000
 31
0.000000000000000
  0
LINE
  5
F6
100
AcDbEntity
  8
A1
  6
CONTINUOUS
 62
7
100
AcDbLine
 10
116.0000000000000
 20
125.7000000000000
 30
0.000000000000000
 11
116.0000000000000
 21
129.5000000000000
 31
0.000000000000000
  0
LINE
  5
F7
100
AcDbEntity
  8
A1
  6
CONTINUOUS
 62
7
100
AcDbLine
 10
116.0000000000000
 20
217.5000000000001
 30
0.000000000000000
 11
121.0000000000000
 21
217.5000000000001
 31
0.000000000000000
  0
LINE
  5
F8
100
AcDbEntity
  8
A1
  6
CONTINUOUS
 62
7
100
AcDbLine
 10
111.0000000000000
 20
162.0000000000000
 30
0.000000000000000
 11
55.00000000000000
 21
162.0000000000000
 31
0.000000000000000
  0
LINE
  5
F9
100
AcDbEntity
  8
A1
  6
CONTINUOUS
 62
7
100
AcDbLine
 10
111.0000000000000
 20
228.0000000000000
 30
0.000000000000000
 11
55.00000000000000
 21
228.0000000000000
 31
0.000000000000000
  0
CIRCLE
  5
FA
100
AcDbEntity
  8
A1
  6
CONTINUOUS
 62
7
100
AcDbCircle
 10
83.00000000000000
 20
195.0000000000000
 30
0.000000000000000
 40
6.350000000000000
  0
CIRCLE
  5
FB
100
AcDbEntity
  8
A1
  6
CONTINUOUS
 62
7
100
AcDbCircle
 10
83.00000000000000
 20
195.0000000000000
 30
0.000000000000000
 40
11.00000000000000
  0
ARC
  5
FC
100
AcDbEntity
  8
A1
  6
CONTINUOUS
 62
7
100
AcDbCircle
 10
55.00000000000000
 20
223.0000000000000
 30
0.000000000000000
 40
5.000000000000000
100
AcDbArc
 50
89.99999999998299
 51
179.9999999999661
  0
ARC
  5
FD
100
AcDbEntity
  8
A1
  6
CONTINUOUS
 62
7
100
AcDbCircle
 10
111.0000000000000
 20
223.0000000000000
 30
0.000000000000000
 40
5.000000000000000
100
AcDbArc
 50
0.000000000000000
 51
89.99999999998306
  0
ARC
  5
FE
100
AcDbEntity
  8
A1
  6
CONTINUOUS
 62
7
100
AcDbCircle
 10
111.0000000000000
 20
167.0000000000000
 30
0.000000000000000
 40
5.000000000000000
100
AcDbArc
 50
269.9999999999490
 51
359.9999999999319
  0
ARC
  5
FF
100
AcDbEntity
  8
A1
  6
CONTINUOUS
 62
7
100
AcDbCircle
 10
55.00000000000000
 20
167.0000000000000
 30
0.000000000000000
 40
5.000000000000000
100
AcDbArc
 50
179.9999999999661
 51
269.9999999999490
  0
ARC
  5
100
100
AcDbEntity
  8
A1
  6
CONTINUOUS
 62
7
100
AcDbCircle
 10
100.0000000000000
 20
290.6482120000001
 30
0.000000000000000
 40
120.0000000000000
100
AcDbArc
 50
277.6622559999475
 51
283.3423639999465
  0
LINE
  5
101
100
AcDbEntity
  8
A1
  6
CONTINUOUS
 62
7
100
AcDbLine
 10
129.5000000000000
 20
205.5000000000000
 30
0.000000000000000
 11
116.0000000000000
 21
205.5000000000000
 31
0.000000000000000
  0
LINE
  5
102
100
AcDbEntity
  8
A1
  6
CONTINUOUS
 62
7
100
AcDbLine
 10
128.7000000000000
 20
204.5000000000000
 30
0.000000000000000
 11
116.0000000000000
 21
204.5000000000000
 31
0.000000000000000
  0
LINE
  5
103
100
AcDbEntity
  8
A1
  6
CONTINUOUS
 62
7
100
AcDbLine
 10
128.7000000000000
 20
185.5000000000000
 30
0.000000000000000
 11
116.0000000000000
 21
185.5000000000000
 31
0.000000000000000
  0
LINE
  5
104
100
AcDbEntity
  8
A1
  6
CONTINUOUS
 62
7
100
AcDbLine
 10
129.5000000000000
 20
184.5000000000000
 30
0.000000000000000
 11
116.0000000000000
 21
184.5000000000000
 31
0.000000000000000
  0
LINE
  5
105
100
AcDbEntity
  8
A1
  6
CONTINUOUS
 62
7
100
AcDbLine
 10
50.00000000000000
 20
167.0000000000000
 30
0.000000000000000
 11
50.00000000000000
 21
223.0000000000000
 31
0.000000000000000
  0
LINE
  5
106
100
AcDbEntity
  8
A1
  6
CONTINUOUS
 62
7
100
AcDbLine
 10
116.0000000000000
 20
167.0000000000000
 30
0.000000000000000
 11
116.0000000000000
 21
223.0000000000000
 31
0.000000000000000
  0
LINE
  5
107
100
AcDbEntity
  8
A1
  6
CONTINUOUS
 62
7
100
AcDbLine
 10
171.6427790000000
 20
129.5000000000000
 30
0.000000000000000
 11
237.6427790000000
 21
129.5000000000000
 31
0.000000000000000
  0
LINE
  5
108
100
AcDbEntity
  8
A1
  6
CONTINUOUS
 62
7
100
AcDbLine
 10
171.6427790000000
 20
125.7000000000000
 30
0.000000000000000
 11
237.6427790000000
 21
125.7000000000000
 31
0.000000000000000
  0
LINE
  5
109
100
AcDbEntity
  8
A1
  6
CONTINUOUS
 62
7
100
AcDbLine
 10
171.6427790000000
 20
125.7000000000000
 30
0.000000000000000
 11
171.6427790000000
 21
129.5000000000000
 31
0.000000000000000
  0
LINE
  5
10A
100
AcDbEntity
  8
A1
  6
CONTINUOUS
 62
7
100
AcDbLine
 10
237.6427790000000
 20
125.7000000000000
 30
0.000000000000000
 11
237.6427790000000
 21
129.5000000000000
 31
0.000000000000000
  0
LINE
  5
10B
100
AcDbEntity
  8
A5
  6
PHANTOM
 62
6
100
AcDbLine
 10
122.3844410000001
 20
101.3626060000000
 30
0.000000000000000
 11
121.6150419999999
 21
100.8036049999999
 31
0.000000000000000
  0
ARC
  5
10C
100
AcDbEntity
  8
A5
  6
PHANTOM
 62
6
100
AcDbCircle
 10
124.1817240000000
 20
95.11602500000001
 30
0.000000000000000
 40
6.500000000000000
100
AcDbArc
 50
20.74440699999620
 51
106.0517259999800
  0
ARC
  5
10D
100
AcDbEntity
  8
A5
  6
PHANTOM
 62
6
100
AcDbCircle
 10
158.0508649999999
 20
86.47309100000001
 30
0.000000000000000
 40
29.00000000000000
100
AcDbArc
 50
148.2562939999720
 51
178.1179649999664
  0
ARC
  5
10E
100
AcDbEntity
  8
A5
  6
PHANTOM
 62
6
100
AcDbCircle
 10
130.7279129999999
 20
97.59542400000001
 30
0.000000000000000
 40
0.5000000000000000
100
AcDbArc
 50
200.7444069999626
 51
337.8502739999345
  0
ARC
  5
10F
100
AcDbEntity
  8
A5
  6
PHANTOM
 62
6
100
AcDbCircle
 10
127.6183910000000
 20
88.50152400000002
 30
0.000000000000000
 40
1.500000000000000
100
AcDbArc
 50
356.1866719999326
 51
420.7871989999205
  0
ARC
  5
110
100
AcDbEntity
  8
A5
  6
PHANTOM
 62
6
100
AcDbCircle
 10
158.0508649999999
 20
86.47309100000001
 30
0.000000000000000
 40
26.50000000000000
100
AcDbArc
 50
148.0773339999721
 51
194.4341659999633
  0
ARC
  5
111
100
AcDbEntity
  8
A5
  6
PHANTOM
 62
6
100
AcDbCircle
 10
133.2404329999999
 20
98.90309500000001
 30
0.000000000000000
 40
3.000000000000000
100
AcDbArc
 50
40.15576099999222
 51
81.40175599998484
  0
ARC
  5
112
100
AcDbEntity
  8
A5
  6
PHANTOM
 62
6
100
AcDbCircle
 10
130.6518440000000
 20
82.07352600000002
 30
0.000000000000000
 40
3.000000000000000
100
AcDbArc
 50
261.1097429999507
 51
302.3557389999430
  0
ARC
  5
113
100
AcDbEntity
  8
A5
  6
PHANTOM
 62
6
100
AcDbCircle
 10
133.6440970000000
 20
101.5727500000000
 30
0.000000000000000
 40
0.3000000000000000
100
AcDbArc
 50
81.40175599998584
 51
148.2562939999704
  0
ARC
  5
114
100
AcDbEntity
  8
A5
  6
PHANTOM
 62
6
100
AcDbCircle
 10
135.3040280000000
 20
100.6442380000000
 30
0.000000000000000
 40
0.3000000000000000
100
AcDbArc
 50
328.0773339999354
 51
400.1557609999242
  0
ARC
  5
115
100
AcDbEntity
  8
A5
  6
PHANTOM
 62
6
100
AcDbCircle
 10
132.0968150000000
 20
79.79272400000001
 30
0.000000000000000
 40
0.3000000000000000
100
AcDbArc
 50
302.3557389999440
 51
374.4341659999308
  0
LINE
  5
116
100
AcDbEntity
  8
A4
  6
CENTER
 62
1
100
AcDbLine
 10
140.5420380000000
 20
195.0000000000000
 30
0.000000000000000
 11
48.50000000000000
 21
195.0000000000000
 31
0.000000000000000
  0
LINE
  5
117
100
AcDbEntity
  8
A4
  6
CENTER
 62
1
100
AcDbLine
 10
83.00000000000000
 20
229.5000000000000
 30
0.000000000000000
 11
83.00000000000000
 21
160.5000000000000
 31
0.000000000000000
  0
LINE
  5
118
100
AcDbEntity
  8
A4
  6
CENTER
 62
1
100
AcDbLine
 10
52.50000000000000
 20
220.0000000000000
 30
0.000000000000000
 11
108.0000000000000
 21
220.0000000000000
 31
0.000000000000000
  0
LINE
  5
119
100
AcDbEntity
  8
A4
  6
CENTER
 62
1
100
AcDbLine
 10
58.00000000000000
 20
225.5000000000001
 30
0.000000000000000
 11
58.00000000000000
 21
214.5000000000001
 31
0.000000000000000
  0
CIRCLE
  5
11A
100
AcDbEntity
  8
A1
  6
CONTINUOUS
 62
7
100
AcDbCircle
 10
58.00000000000000
 20
169.9999999999999
 30
0.000000000000000
 40
3.100000000000000
  0
LINE
  5
11B
100
AcDbEntity
  8
A4
  6
CENTER
 62
1
100
AcDbLine
 10
53.40000000000009
 20
169.9999999999999
 30
0.000000000000000
 11
62.60000000000014
 21
169.9999999999999
 31
0.000000000000000
  0
LINE
  5
11C
100
AcDbEntity
  8
A4
  6
CENTER
 62
1
100
AcDbLine
 10
58.00000000000000
 20
165.3999999999999
 30
0.000000000000000
 11
58.00000000000000
 21
174.5999999999999
 31
0.000000000000000
  0
LINE
  5
11D
100
AcDbEntity
  8
A4
  6
CENTER
 62
1
100
AcDbLine
 10
113.5000000000000
 20
169.9999999999999
 30
0.000000000000000
 11
102.5000000000000
 21
169.9999999999999
 31
0.000000000000000
  0
LINE
  5
11E
100
AcDbEntity
  8
A4
  6
CENTER
 62
1
100
AcDbLine
 10
108.0000000000000
 20
164.5000000000000
 30
0.000000000000000
 11
108.0000000000000
 21
220.0000000000000
 31
0.000000000000000
  0
LINE
  5
11F
100
AcDbEntity
  8
A4
  6
CENTER
 62
1
100
AcDbLine
 10
131.5000000000000
 20
80.00000000000000
 30
0.000000000000000
 11
68.50000000000000
 21
80.00000000000000
 31
0.000000000000000
  0
LINE
  5
120
100
AcDbEntity
  8
A4
  6
CENTER
 62
1
100
AcDbLine
 10
100.0000000000000
 20
111.5000000000000
 30
0.000000000000000
 11
100.0000000000000
 21
48.50000000000000
 31
0.000000000000000
  0
LINE
  5
121
100
AcDbEntity
  8
A4
  6
CENTER
 62
1
100
AcDbLine
 10
179.6427790000000
 20
124.2000000000000
 30
0.000000000000000
 11
179.6427790000000
 21
131.0000000000000
 31
0.000000000000000
  0
LINE
  5
122
100
AcDbEntity
  8
A4
  6
CENTER
 62
1
100
AcDbLine
 10
229.6427790000000
 20
124.2000000000000
 30
0.000000000000000
 11
229.6427790000000
 21
131.0000000000000
 31
0.000000000000000
  0
CIRCLE
  5
123
100
AcDbEntity
  8
A1
  6
CONTINUOUS
 62
7
100
AcDbCircle
 10
108.0000000000000
 20
170.0000000000000
 30
0.000000000000000
 40
4.000000000000000
  0
LINE
  5
124
100
AcDbEntity
  8
A4
  6
CENTER
 62
1
100
AcDbLine
 10
100.0000000000000
 20
229.5000000000001
 30
0.000000000000000
 11
100.0000000000000
 21
160.5000000000000
 31
0.000000000000000
  0
CIRCLE
  5
125
100
AcDbEntity
  8
A1
  6
CONTINUOUS
 62
7
100
AcDbCircle
 10
58.00000000000000
 20
220.0000000000001
 30
0.000000000000000
 40
4.000000000000000
  0
LINE
  5
126
100
AcDbEntity
  8
A4
  6
CENTER
 62
1
100
AcDbLine
 10
103.4038059222873
 20
215.4038059222873
 30
0.000000000000000
 11
112.5961940777125
 21
224.5961940777125
 31
0.000000000000000
  0
ARC
  5
127
100
AcDbEntity
  8
A1
  6
CONTINUOUS
 62
7
100
AcDbCircle
 10
106.6564971157455
 20
218.6564971157456
 30
0.000000000000000
 40
3.100000000000009
100
AcDbArc
 50
135.0000000000007
 51
315.0000000000000
  0
LINE
  5
128
100
AcDbEntity
  8
A4
  6
CENTER
 62
1
100
AcDbLine
 10
104.7473088065418
 20
223.2526911934582
 30
0.000000000000000
 11
111.2526911934581
 21
216.7473088065419
 31
0.000000000000000
  0
LINE
  5
129
100
AcDbEntity
  8
A1
  6
CONTINUOUS
 62
7
100
AcDbLine
 10
104.4644660940672
 20
220.8485281374239
 30
0.000000000000000
 11
107.1514718625761
 21
223.5355339059328
 31
0.000000000000000
  0
ARC
  5
12A
100
AcDbEntity
  8
A1
  6
CONTINUOUS
 62
7
100
AcDbCircle
 10
109.3435028842543
 20
221.3435028842544
 30
0.000000000000000
 40
3.100000000000039
100
AcDbArc
 50
314.9999999999998
 51
495.0000000000005
  0
LINE
  5
12B
100
AcDbEntity
  8
A1
  6
CONTINUOUS
 62
7
100
AcDbLine
 10
108.8485281374239
 20
216.4644660940673
 30
0.000000000000000
 11
111.5355339059328
 21
219.1514718625762
 31
0.000000000000000
  0
ENDSEC
  0
SECTION
  2
OBJECTS
  0
DICTIONARY
  5
157
100
AcDbDictionary
  3
ACAD_GROUP
350
158
  3
ACAD_LAYOUT
350
159
  3
ACAD_MLINESTYLE
350
15A
  3
DWGPROPS
350
15B
  0
DICTIONARY
  5
158
102
{ACAD_REACTORS
330
157
102
}
330
157
100
AcDbDictionary
  0
DICTIONARY
  5
159
102
{ACAD_REACTORS
330
157
102
}
330
157
100
AcDbDictionary
  3
Model
350
15C
  3
ﾚｲｱｳﾄ1
350
15D
  3
ﾚｲｱｳﾄ2
350
15E
  0
DICTIONARY
  5
15A
102
{ACAD_REACTORS
330
157
102
}
330
157
100
AcDbDictionary
  3
STANDARD
350
15F
  0
LAYOUT
  5
15C
102
{ACAD_REACTORS
330
159
102
}
330
159
100
AcDbPlotSettings
 70
11952
  4
A3
 44
297.000000
 45
420.000000
 73
  1
 72
  1
100
AcDbLayout
  1
Model
 71
0
330
14E
  0
LAYOUT
  5
15D
102
{ACAD_REACTORS
330
159
102
}
330
159
100
AcDbPlotSettings
100
AcDbLayout
  1
ﾚｲｱｳﾄ1
 71
1
330
14F
  0
LAYOUT
  5
15E
102
{ACAD_REACTORS
330
159
102
}
330
159
100
AcDbPlotSettings
100
AcDbLayout
  1
ﾚｲｱｳﾄ2
 71
2
330
150
  0
MLINESTYLE
  5
15F
102
{ACAD_REACTORS
330
15A
102
}
330
15A
100
AcDbMlineStyle
  2
STANDARD
 70
     0
  3

 62
   256
 51
90.00
 52
90.00
 71
     2
 49
0.50
 62
   256
  6
BYLAYER
 49
-0.50
 62
   256
  6
BYLAYER
  0
XRECORD
  5
15B
102
{ACAD_REACTORS
330
157
102
}
100
AcDbXrecord
280
     1
  1
DWGPROPS COOKIE
  2
TCA-A60SBF
  3

  4

  6
A型双輪キャスター
  7

  8

  9

300
=
301
=
302
=
303
=
304
=
305
=
306
=
307
=
308
=
309
=
 40
0.000000
 41
0.000000
 42
0.000000
  1

 90
        0
  0
ENDSEC
  0
EOF
