  0
SECTION
  2
HEADER
  9
$ACADVER
  1
AC1015
  9
$ACADMAINTVER
 70
    20
  9
$DWGCODEPAGE
  3
ANSI_932
  9
$INSBASE
 10
0.0
 20
0.0
 30
0.0
  9
$EXTMIN
 10
9.9999975266385
 20
10.0
 30
0.0
  9
$EXTMAX
 10
663.995764959619
 20
470.881653569318
 30
0.0
  9
$LIMMIN
 10
0.0000015376081137
 20
-0.0000001931532552
  9
$LIMMAX
 10
745.0000015376083
 20
513.5984846553315
  9
$ORTHOMODE
 70
     1
  9
$REGENMODE
 70
     1
  9
$FILLMODE
 70
     1
  9
$QTEXTMODE
 70
     0
  9
$MIRRTEXT
 70
     1
  9
$LTSCALE
 40
1.0
  9
$ATTMODE
 70
     1
  9
$TEXTSIZE
 40
2.5
  9
$TRACEWID
 40
1.0
  9
$TEXTSTYLE
  7
STANDARD
  9
$CLAYER
  8
0
  9
$CELTYPE
  6
BYLAYER
  9
$CECOLOR
 62
   256
  9
$CELTSCALE
 40
1.0
  9
$DISPSILH
 70
     0
  9
$DIMSCALE
 40
1.0
  9
$DIMASZ
 40
3.0
  9
$DIMEXO
 40
1.0
  9
$DIMDLI
 40
10.0
  9
$DIMRND
 40
0.0
  9
$DIMDLE
 40
0.0
  9
$DIMEXE
 40
1.0
  9
$DIMTP
 40
0.0
  9
$DIMTM
 40
0.0
  9
$DIMTXT
 40
3.2
  9
$DIMCEN
 40
0.0
  9
$DIMTSZ
 40
0.0
  9
$DIMTOL
 70
     0
  9
$DIMLIM
 70
     0
  9
$DIMTIH
 70
     0
  9
$DIMTOH
 70
     0
  9
$DIMSE1
 70
     0
  9
$DIMSE2
 70
     0
  9
$DIMTAD
 70
     3
  9
$DIMZIN
 70
     8
  9
$DIMBLK
  1

  9
$DIMASO
 70
     1
  9
$DIMSHO
 70
     1
  9
$DIMPOST
  1

  9
$DIMAPOST
  1

  9
$DIMALT
 70
     0
  9
$DIMALTD
 70
     2
  9
$DIMALTF
 40
25.4
  9
$DIMLFAC
 40
1.0
  9
$DIMTOFL
 70
     1
  9
$DIMTVP
 40
0.0
  9
$DIMTIX
 70
     0
  9
$DIMSOXD
 70
     0
  9
$DIMSAH
 70
     1
  9
$DIMBLK1
  1
OPEN
  9
$DIMBLK2
  1
OPEN
  9
$DIMSTYLE
  2
STANDARD
  9
$DIMCLRD
 70
     0
  9
$DIMCLRE
 70
     0
  9
$DIMCLRT
 70
     0
  9
$DIMTFAC
 40
1.0
  9
$DIMGAP
 40
1.0
  9
$DIMJUST
 70
     0
  9
$DIMSD1
 70
     0
  9
$DIMSD2
 70
     0
  9
$DIMTOLJ
 70
     1
  9
$DIMTZIN
 70
     0
  9
$DIMALTZ
 70
     0
  9
$DIMALTTZ
 70
     0
  9
$DIMUPT
 70
     0
  9
$DIMDEC
 70
     4
  9
$DIMTDEC
 70
     4
  9
$DIMALTU
 70
     2
  9
$DIMALTTD
 70
     2
  9
$DIMTXSTY
  7
STANDARD
  9
$DIMAUNIT
 70
     0
  9
$DIMADEC
 70
     0
  9
$DIMALTRND
 40
0.0
  9
$DIMAZIN
 70
     0
  9
$DIMDSEP
 70
    46
  9
$DIMATFIT
 70
     3
  9
$DIMFRAC
 70
     0
  9
$DIMLDRBLK
  1
OPEN
  9
$DIMLUNIT
 70
     2
  9
$DIMLWD
 70
    -2
  9
$DIMLWE
 70
    -2
  9
$DIMTMOVE
 70
     0
  9
$LUNITS
 70
     2
  9
$LUPREC
 70
     4
  9
$SKETCHINC
 40
1.0
  9
$FILLETRAD
 40
0.0
  9
$AUNITS
 70
     0
  9
$AUPREC
 70
     0
  9
$MENU
  1
.
  9
$ELEVATION
 40
0.0
  9
$PELEVATION
 40
0.0
  9
$THICKNESS
 40
0.0
  9
$LIMCHECK
 70
     0
  9
$CHAMFERA
 40
10.0
  9
$CHAMFERB
 40
10.0
  9
$CHAMFERC
 40
20.0
  9
$CHAMFERD
 40
0.0
  9
$SKPOLY
 70
     0
  9
$TDCREATE
 40
2454525.614958576
  9
$TDUCREATE
 40
2454525.239958577
  9
$TDUPDATE
 40
2457192.691749028
  9
$TDUUPDATE
 40
2457192.316749028
  9
$TDINDWG
 40
0.3853958912
  9
$TDUSRTIMER
 40
0.3853958333
  9
$USRTIMER
 70
     1
  9
$ANGBASE
 50
0.0
  9
$ANGDIR
 70
     0
  9
$PDMODE
 70
     0
  9
$PDSIZE
 40
0.0
  9
$PLINEWID
 40
0.0
  9
$SPLFRAME
 70
     0
  9
$SPLINETYPE
 70
     6
  9
$SPLINESEGS
 70
     8
  9
$HANDSEED
  5
573F
  9
$SURFTAB1
 70
     6
  9
$SURFTAB2
 70
     6
  9
$SURFTYPE
 70
     6
  9
$SURFU
 70
     6
  9
$SURFV
 70
     6
  9
$UCSBASE
  2

  9
$UCSNAME
  2

  9
$UCSORG
 10
0.0
 20
0.0
 30
0.0
  9
$UCSXDIR
 10
1.0
 20
0.0
 30
0.0
  9
$UCSYDIR
 10
0.0
 20
1.0
 30
0.0
  9
$UCSORTHOREF
  2

  9
$UCSORTHOVIEW
 70
     0
  9
$UCSORGTOP
 10
0.0
 20
0.0
 30
0.0
  9
$UCSORGBOTTOM
 10
0.0
 20
0.0
 30
0.0
  9
$UCSORGLEFT
 10
0.0
 20
0.0
 30
0.0
  9
$UCSORGRIGHT
 10
0.0
 20
0.0
 30
0.0
  9
$UCSORGFRONT
 10
0.0
 20
0.0
 30
0.0
  9
$UCSORGBACK
 10
0.0
 20
0.0
 30
0.0
  9
$PUCSBASE
  2

  9
$PUCSNAME
  2

  9
$PUCSORG
 10
0.0
 20
0.0
 30
0.0
  9
$PUCSXDIR
 10
1.0
 20
0.0
 30
0.0
  9
$PUCSYDIR
 10
0.0
 20
1.0
 30
0.0
  9
$PUCSORTHOREF
  2

  9
$PUCSORTHOVIEW
 70
     0
  9
$PUCSORGTOP
 10
0.0
 20
0.0
 30
0.0
  9
$PUCSORGBOTTOM
 10
0.0
 20
0.0
 30
0.0
  9
$PUCSORGLEFT
 10
0.0
 20
0.0
 30
0.0
  9
$PUCSORGRIGHT
 10
0.0
 20
0.0
 30
0.0
  9
$PUCSORGFRONT
 10
0.0
 20
0.0
 30
0.0
  9
$PUCSORGBACK
 10
0.0
 20
0.0
 30
0.0
  9
$USERI1
 70
     0
  9
$USERI2
 70
     0
  9
$USERI3
 70
     0
  9
$USERI4
 70
     0
  9
$USERI5
 70
     0
  9
$USERR1
 40
0.0
  9
$USERR2
 40
0.0
  9
$USERR3
 40
0.0
  9
$USERR4
 40
0.0
  9
$USERR5
 40
0.0
  9
$WORLDVIEW
 70
     1
  9
$SHADEDGE
 70
     3
  9
$SHADEDIF
 70
    70
  9
$TILEMODE
 70
     1
  9
$MAXACTVP
 70
    48
  9
$PINSBASE
 10
0.0
 20
0.0
 30
0.0
  9
$PLIMCHECK
 70
     0
  9
$PEXTMIN
 10
1.000000000000000E+20
 20
1.000000000000000E+20
 30
1.000000000000000E+20
  9
$PEXTMAX
 10
-1.000000000000000E+20
 20
-1.000000000000000E+20
 30
-1.000000000000000E+20
  9
$PLIMMIN
 10
0.0
 20
0.0
  9
$PLIMMAX
 10
420.0
 20
297.0
  9
$UNITMODE
 70
     0
  9
$VISRETAIN
 70
     1
  9
$PLINEGEN
 70
     0
  9
$PSLTSCALE
 70
     1
  9
$TREEDEPTH
 70
  3020
  9
$CMLSTYLE
  2
STANDARD
  9
$CMLJUST
 70
     0
  9
$CMLSCALE
 40
20.0
  9
$PROXYGRAPHICS
 70
     1
  9
$MEASUREMENT
 70
     0
  9
$CELWEIGHT
370
    -1
  9
$ENDCAPS
280
     0
  9
$JOINSTYLE
280
     0
  9
$LWDISPLAY
290
     0
  9
$INSUNITS
 70
     0
  9
$HYPERLINKBASE
  1

  9
$STYLESHEET
  1

  9
$XEDIT
290
     1
  9
$CEPSNTYPE
380
     0
  9
$PSTYLEMODE
290
     1
  9
$FINGERPRINTGUID
  2
{31FC05D6-626B-43B6-89E0-445C88D92C47}
  9
$VERSIONGUID
  2
{837B6582-8C49-47B5-AE2A-E1F05007EA12}
  9
$EXTNAMES
290
     1
  9
$PSVPSCALE
 40
0.0
  9
$OLESTARTUP
290
     0
  0
ENDSEC
  0
SECTION
  2
CLASSES
  0
CLASS
  1
ACDBDICTIONARYWDFLT
  2
AcDbDictionaryWithDefault
  3
ObjectDBX Classes
 90
        0
280
     0
281
     0
  0
CLASS
  1
ACDBPLACEHOLDER
  2
AcDbPlaceHolder
  3
ObjectDBX Classes
 90
        0
280
     0
281
     0
  0
CLASS
  1
LAYOUT
  2
AcDbLayout
  3
ObjectDBX Classes
 90
        0
280
     0
281
     0
  0
CLASS
  1
DICTIONARYVAR
  2
AcDbDictionaryVar
  3
ObjectDBX Classes
 90
        0
280
     0
281
     0
  0
CLASS
  1
MATERIAL
  2
AcDbMaterial
  3
ObjectDBX Classes
 90
     1153
280
     0
281
     0
  0
CLASS
  1
VISUALSTYLE
  2
AcDbVisualStyle
  3
ObjectDBX Classes
 90
     4095
280
     0
281
     0
  0
CLASS
  1
TABLESTYLE
  2
AcDbTableStyle
  3
ObjectDBX Classes
 90
     4095
280
     0
281
     0
  0
CLASS
  1
SCALE
  2
AcDbScale
  3
ObjectDBX Classes
 90
     1153
280
     0
281
     0
  0
CLASS
  1
MLEADERSTYLE
  2
AcDbMLeaderStyle
  3
ACDB_MLEADERSTYLE_CLASS
 90
     4095
280
     0
281
     0
  0
CLASS
  1
ACDBSECTIONVIEWSTYLE
  2
AcDbSectionViewStyle
  3
ObjectDBX Classes
 90
     1025
280
     0
281
     0
  0
CLASS
  1
ACDBDETAILVIEWSTYLE
  2
AcDbDetailViewStyle
  3
ObjectDBX Classes
 90
     1025
280
     0
281
     0
  0
CLASS
  1
CELLSTYLEMAP
  2
AcDbCellStyleMap
  3
ObjectDBX Classes
 90
     1152
280
     0
281
     0
  0
ENDSEC
  0
SECTION
  2
TABLES
  0
TABLE
  2
VPORT
  5
8
330
0
100
AcDbSymbolTable
 70
     1
  0
VPORT
  5
5638
330
8
100
AcDbSymbolTableRecord
100
AcDbViewportTableRecord
  2
*ACTIVE
 70
     0
 10
0.0
 20
0.0
 11
1.0
 21
1.0
 12
408.0418973799088
 22
256.7992422310892
 13
0.0
 23
0.0
 14
10.0
 24
10.0
 15
10.0
 25
10.0
 16
0.0
 26
0.0
 36
1.0
 17
0.0
 27
0.0
 37
0.0
 40
517.4265480895916
 41
2.35006605019815
 42
50.0
 43
0.0
 44
0.0
 50
0.0
 51
0.0
 71
     0
 72
   100
 73
     1
 74
     0
 75
     0
 76
     0
 77
     0
 78
     0
281
     0
 65
     1
110
0.0
120
0.0
130
0.0
111
1.0
121
0.0
131
0.0
112
0.0
122
1.0
132
0.0
 79
     0
146
0.0
1001
ACAD_NAV_VCDISPLAY
1070
     3
  0
ENDTAB
  0
TABLE
  2
LTYPE
  5
5
330
0
100
AcDbSymbolTable
 70
     4
  0
LTYPE
  5
12
330
5
100
AcDbSymbolTableRecord
100
AcDbLinetypeTableRecord
  2
BYBLOCK
 70
     0
  3

 72
    65
 73
     0
 40
0.0
  0
LTYPE
  5
13
330
5
100
AcDbSymbolTableRecord
100
AcDbLinetypeTableRecord
  2
BYLAYER
 70
     0
  3

 72
    65
 73
     0
 40
0.0
  0
LTYPE
  5
14
330
5
100
AcDbSymbolTableRecord
100
AcDbLinetypeTableRecord
  2
CONTINUOUS
 70
     0
  3
Solid line
 72
    65
 73
     0
 40
0.0
  0
LTYPE
  5
4B
330
5
100
AcDbSymbolTableRecord
100
AcDbLinetypeTableRecord
  2
DASHED
 70
     0
  3
Dashed __ __ __ __ __ __ __ __ __ __ __ __ __ _
 72
    65
 73
     2
 40
19.04999999999999
 49
12.7
 74
     0
 49
-6.349999999999997
 74
     0
  0
LTYPE
  5
4C
330
5
100
AcDbSymbolTableRecord
100
AcDbLinetypeTableRecord
  2
CENTER
 70
     0
  3
Center ____ _ ____ _ ____ _ ____ _ ____ _ ____
 72
    65
 73
     4
 40
50.8
 49
31.75
 74
     0
 49
-6.349999999999997
 74
     0
 49
6.349999999999997
 74
     0
 49
-6.349999999999997
 74
     0
  0
LTYPE
  5
4D
330
5
100
AcDbSymbolTableRecord
100
AcDbLinetypeTableRecord
  2
PHANTOM
 70
     0
  3
Phantom ______  __  __  ______  __  __  ______
 72
    65
 73
     6
 40
63.5
 49
31.75
 74
     0
 49
-6.349999999999997
 74
     0
 49
6.349999999999997
 74
     0
 49
-6.349999999999997
 74
     0
 49
6.349999999999997
 74
     0
 49
-6.349999999999997
 74
     0
  0
ENDTAB
  0
TABLE
  2
LAYER
  5
2
330
0
100
AcDbSymbolTable
 70
     8
  0
LAYER
  5
E
102
{ACAD_XDICTIONARY
360
56A4
102
}
330
2
100
AcDbSymbolTableRecord
100
AcDbLayerTableRecord
  2
0
 70
     0
 62
     7
  6
CONTINUOUS
370
    -3
390
5641
  0
LAYER
  5
4E
102
{ACAD_XDICTIONARY
360
56A6
102
}
330
2
100
AcDbSymbolTableRecord
100
AcDbLayerTableRecord
  2
4
 70
     0
 62
     1
  6
CENTER
370
    -3
390
5641
  0
LAYER
  5
4F
102
{ACAD_XDICTIONARY
360
56A8
102
}
330
2
100
AcDbSymbolTableRecord
100
AcDbLayerTableRecord
  2
5
 70
     0
 62
     6
  6
PHANTOM
370
    -3
390
5641
  0
LAYER
  5
50
102
{ACAD_XDICTIONARY
360
56AA
102
}
330
2
100
AcDbSymbolTableRecord
100
AcDbLayerTableRecord
  2
1
 70
     0
 62
     7
  6
CONTINUOUS
370
    -3
390
5641
  0
LAYER
  5
51
102
{ACAD_XDICTIONARY
360
56AC
102
}
330
2
100
AcDbSymbolTableRecord
100
AcDbLayerTableRecord
  2
2
 70
     0
 62
     4
  6
CONTINUOUS
370
    -3
390
5641
  0
LAYER
  5
52
102
{ACAD_XDICTIONARY
360
56AE
102
}
330
2
100
AcDbSymbolTableRecord
100
AcDbLayerTableRecord
  2
3
 70
     0
 62
     2
  6
DASHED
370
    -3
390
5641
  0
LAYER
  5
53
102
{ACAD_XDICTIONARY
360
56B0
102
}
330
2
100
AcDbSymbolTableRecord
100
AcDbLayerTableRecord
  2
6
 70
     0
 62
     5
  6
CONTINUOUS
370
    -3
390
5641
  0
LAYER
  5
54
102
{ACAD_XDICTIONARY
360
56B2
102
}
330
2
100
AcDbSymbolTableRecord
100
AcDbLayerTableRecord
  2
7
 70
     0
 62
     3
  6
CONTINUOUS
370
    -3
390
5641
  0
ENDTAB
  0
TABLE
  2
STYLE
  5
3
330
0
100
AcDbSymbolTable
 70
     1
  0
STYLE
  5
F
330
3
100
AcDbSymbolTableRecord
100
AcDbTextStyleTableRecord
  2
STANDARD
 70
     0
 40
0.0
 41
1.0
 50
0.0
 71
     0
 42
2.5
  3
simplex.shx
  4

  0
ENDTAB
  0
TABLE
  2
VIEW
  5
6
330
0
100
AcDbSymbolTable
 70
     0
  0
ENDTAB
  0
TABLE
  2
UCS
  5
7
330
0
100
AcDbSymbolTable
 70
     0
  0
ENDTAB
  0
TABLE
  2
APPID
  5
9
330
0
100
AcDbSymbolTable
 70
     6
  0
APPID
  5
10
330
9
100
AcDbSymbolTableRecord
100
AcDbRegAppTableRecord
  2
ACAD
 70
     0
  0
APPID
  5
3E
330
9
100
AcDbSymbolTableRecord
100
AcDbRegAppTableRecord
  2
CONTENTTABDATA
 70
     0
  0
APPID
  5
3F
330
9
100
AcDbSymbolTableRecord
100
AcDbRegAppTableRecord
  2
CONTENTCURRENTTAB
 70
     0
  0
APPID
  5
5692
330
9
100
AcDbSymbolTableRecord
100
AcDbRegAppTableRecord
  2
ACAD_EXEMPT_FROM_CAD_STANDARDS
 70
     0
  0
APPID
  5
5694
330
9
100
AcDbSymbolTableRecord
100
AcDbRegAppTableRecord
  2
ACAD_NAV_VCDISPLAY
 70
     0
  0
APPID
  5
56F6
330
9
100
AcDbSymbolTableRecord
100
AcDbRegAppTableRecord
  2
ACAD_MLEADERVER
 70
     0
  0
ENDTAB
  0
TABLE
  2
DIMSTYLE
  5
A
330
0
100
AcDbSymbolTable
 70
     1
100
AcDbDimStyleTable
 71
     0
  0
DIMSTYLE
105
1D
330
A
100
AcDbSymbolTableRecord
100
AcDbDimStyleTableRecord
  2
STANDARD
 70
     0
 41
3.0
 42
1.0
 43
10.0
 44
1.0
 73
     0
 74
     0
 77
     3
 78
     8
140
3.2
141
0.0
147
1.0
172
     1
173
     1
340
F
341
2E
343
2E
344
2E
  0
ENDTAB
  0
TABLE
  2
BLOCK_RECORD
  5
1
330
0
100
AcDbSymbolTable
 70
     1
  0
BLOCK_RECORD
  5
18
102
{ACAD_XDICTIONARY
360
563B
102
}
330
1
100
AcDbSymbolTableRecord
100
AcDbBlockTableRecord
  2
*MODEL_SPACE
340
568F
  0
BLOCK_RECORD
  5
15
102
{ACAD_XDICTIONARY
360
5639
102
}
330
1
100
AcDbSymbolTableRecord
100
AcDbBlockTableRecord
  2
*PAPER_SPACE
340
5690
  0
BLOCK_RECORD
  5
2E
330
1
100
AcDbSymbolTableRecord
100
AcDbBlockTableRecord
  2
_OPEN
340
0
  0
ENDTAB
  0
ENDSEC
  0
SECTION
  2
BLOCKS
  0
BLOCK
  5
19
330
18
100
AcDbEntity
  8
0
100
AcDbBlockBegin
  2
*MODEL_SPACE
 70
     0
 10
0.0
 20
0.0
 30
0.0
  3
*MODEL_SPACE
  1

  0
ENDBLK
  5
1A
330
18
100
AcDbEntity
  8
0
100
AcDbBlockEnd
  0
BLOCK
  5
16
330
15
100
AcDbEntity
 67
     1
  8
0
100
AcDbBlockBegin
  2
*PAPER_SPACE
 70
     0
 10
0.0
 20
0.0
 30
0.0
  3
*PAPER_SPACE
  1

  0
ENDBLK
  5
17
330
15
100
AcDbEntity
 67
     1
  8
0
100
AcDbBlockEnd
  0
BLOCK
  5
2F
330
2E
100
AcDbEntity
  8
0
100
AcDbBlockBegin
  2
_OPEN
 70
     0
 10
0.0
 20
0.0
 30
0.0
  3
_OPEN
  1

  0
LINE
  5
30
330
2E
100
AcDbEntity
  8
0
  6
ByBlock
 62
     0
100
AcDbLine
 10
-1.0
 20
0.1666666666666666
 30
0.0
 11
0.0
 21
0.0
 31
0.0
  0
LINE
  5
31
330
2E
100
AcDbEntity
  8
0
  6
ByBlock
 62
     0
100
AcDbLine
 10
0.0
 20
0.0
 30
0.0
 11
-1.0
 21
-0.1666666666666666
 31
0.0
  0
LINE
  5
32
330
2E
100
AcDbEntity
  8
0
  6
ByBlock
 62
     0
100
AcDbLine
 10
0.0
 20
0.0
 30
0.0
 11
-1.0
 21
0.0
 31
0.0
  0
ENDBLK
  5
33
330
2E
100
AcDbEntity
  8
0
100
AcDbBlockEnd
  0
ENDSEC
  0
SECTION
  2
ENTITIES
  0
TEXT
  5
63
330
18
100
AcDbEntity
  8
4
  6
CENTER
 48
0.25
100
AcDbText
 10
23.97950852663849
 20
10.0
 30
0.0
 40
1.399999999999999
  1
4
100
AcDbText
  0
TEXT
  5
64
330
18
100
AcDbEntity
  8
7
  6
Continuous
 48
0.25
100
AcDbText
 10
9.999997526638502
 20
26.0000007607689
 30
0.0
 40
3.0
  1
CODE No.19300
100
AcDbText
  0
TEXT
  5
65
330
18
100
AcDbEntity
  8
7
  6
Continuous
 48
0.25
100
AcDbText
 10
9.999997526638502
 20
18.00000076076889
 30
0.0
 40
3.0
  1
TYPE No.TCA-F130N12WS (F130N12WS)
100
AcDbText
  0
TEXT
  5
66
330
18
100
AcDbEntity
  8
1
  6
Continuous
 48
0.25
100
AcDbText
 10
9.999997526638502
 20
10.00000076076889
 30
0.0
 40
1.399999999999999
  1
LAYER
100
AcDbText
  0
TEXT
  5
67
330
18
100
AcDbEntity
  8
2
  6
Continuous
 48
0.25
100
AcDbText
 10
19.9795085266385
 20
10.0
 30
0.0
 40
1.399999999999999
  1
2
100
AcDbText
  0
TEXT
  5
68
330
18
100
AcDbEntity
  8
3
  6
DASHED
 48
0.25
100
AcDbText
 10
21.9795085266385
 20
10.0
 30
0.0
 40
1.399999999999999
  1
3
100
AcDbText
  0
TEXT
  5
69
330
18
100
AcDbEntity
  8
1
  6
Continuous
 48
0.25
100
AcDbText
 10
17.9795085266385
 20
10.0
 30
0.0
 40
1.399999999999999
  1
1
100
AcDbText
  0
TEXT
  5
6A
330
18
100
AcDbEntity
  8
5
  6
PHANTOM
 48
0.25
100
AcDbText
 10
25.9795085266385
 20
10.0
 30
0.0
 40
1.399999999999999
  1
5
100
AcDbText
  0
TEXT
  5
6B
330
18
100
AcDbEntity
  8
6
  6
Continuous
 48
0.25
100
AcDbText
 10
27.9795085266385
 20
10.0
 30
0.0
 40
1.399999999999999
  1
6
100
AcDbText
  0
TEXT
  5
6C
330
18
100
AcDbEntity
  8
7
  6
Continuous
 48
0.25
100
AcDbText
 10
29.9795085266385
 20
10.0
 30
0.0
 40
1.399999999999999
  1
7
100
AcDbText
  0
ARC
  5
22BA
330
18
100
AcDbEntity
  8
1
  6
Continuous
100
AcDbCircle
 10
166.0708421044619
 20
445.3847127585842
 30
0.0
 40
1.0
100
AcDbArc
 50
90.0
 51
180.0
  0
ARC
  5
22BC
330
18
100
AcDbEntity
  8
1
  6
Continuous
100
AcDbCircle
 10
165.5708421044619
 20
449.8847127585842
 30
0.0
 40
0.5
100
AcDbArc
 50
180.0
 51
270.0
  0
ARC
  5
260C
330
18
100
AcDbEntity
  8
1
  6
Continuous
100
AcDbCircle
 10
404.8496353966138
 20
293.1301089908632
 30
0.0
 40
9.926454211596855
100
AcDbArc
 50
204.4283525551764
 51
268.9810132976818
  0
ARC
  5
260D
330
18
100
AcDbEntity
  8
1
  6
Continuous
100
AcDbCircle
 10
404.4965765248729
 20
293.1301089908629
 30
0.0
 40
9.926454211596386
100
AcDbArc
 50
271.0189867023155
 51
335.5716474448245
  0
LINE
  5
3451
330
18
100
AcDbEntity
  8
4
  6
CENTER
 48
0.5
100
AcDbLine
 10
230.3504469618673
 20
410.88777194785
 30
0.0
 11
230.3504469618675
 21
470.881653569318
 31
0.0
  0
LINE
  5
3452
330
18
100
AcDbEntity
  8
1
  6
Continuous
100
AcDbLine
 10
165.3504469618674
 20
421.3847127585839
 30
0.0
 11
165.3504469618674
 21
429.384712758584
 31
0.0
  0
LINE
  5
3455
330
18
100
AcDbEntity
  8
4
  6
CENTER
 48
0.5
100
AcDbLine
 10
153.9793864816296
 20
440.884712758584
 30
0.0
 11
303.3504469618673
 21
440.8847127585838
 31
0.0
  0
LINE
  5
3456
330
18
100
AcDbEntity
  8
1
  6
Continuous
100
AcDbLine
 10
173.3504469618674
 20
465.8816535693177
 30
0.0
 11
287.3504469618678
 21
465.8816535693177
 31
0.0
  0
LINE
  5
3457
330
18
100
AcDbEntity
  8
1
  6
Continuous
100
AcDbLine
 10
291.8504469618678
 20
463.8847127585839
 30
0.0
 11
168.8504469618674
 21
463.8847127585839
 31
0.0
  0
LINE
  5
3458
330
18
100
AcDbEntity
  8
1
  6
Continuous
100
AcDbLine
 10
255.1524079346821
 20
429.8847127585836
 30
0.0
 11
165.8504469618674
 21
429.8847127585842
 31
0.0
  0
LINE
  5
3459
330
18
100
AcDbEntity
  8
1
  6
Continuous
100
AcDbLine
 10
255.1524079346818
 20
451.8847127585839
 30
0.0
 11
165.8504469618674
 21
451.8847127585839
 31
0.0
  0
LINE
  5
345A
330
18
100
AcDbEntity
  8
1
  6
Continuous
100
AcDbLine
 10
253.7422601956235
 20
450.384712758584
 30
0.0
 11
187.597762596545
 21
450.384712758584
 31
0.0
  0
LINE
  5
345B
330
18
100
AcDbEntity
  8
1
  6
Continuous
100
AcDbLine
 10
159.9793864816295
 20
431.3847127585839
 30
0.0
 11
171.0916964546163
 21
431.3847127585839
 31
0.0
  0
ARC
  5
348E
330
18
100
AcDbEntity
  8
1
  6
Continuous
100
AcDbCircle
 10
216.3504469618674
 20
450.9999729863443
 30
0.0
 40
2.0
100
AcDbArc
 50
0.0
 51
26.25518723123009
  0
LINE
  5
348F
330
18
100
AcDbEntity
  8
1
  6
Continuous
100
AcDbLine
 10
218.3504469618674
 20
450.9999729863443
 30
0.0
 11
218.3504469618674
 21
450.384712758584
 31
0.0
  0
ARC
  5
3490
330
18
100
AcDbEntity
  8
1
  6
Continuous
100
AcDbCircle
 10
216.3504469618674
 20
430.7694525308235
 30
0.0
 40
2.0
100
AcDbArc
 50
333.7448127687698
 51
0.0
  0
LINE
  5
3491
330
18
100
AcDbEntity
  8
1
  6
Continuous
100
AcDbLine
 10
218.3504469618674
 20
430.7694525308235
 30
0.0
 11
218.3504469618674
 21
431.3847127585839
 31
0.0
  0
LINE
  5
3492
330
18
100
AcDbEntity
  8
1
  6
Continuous
100
AcDbLine
 10
192.8466875633712
 20
432.3847127585842
 30
0.0
 11
192.8466875633712
 21
449.3847127585842
 31
0.0
  0
ARC
  5
3493
330
18
100
AcDbEntity
  8
1
  6
Continuous
100
AcDbCircle
 10
193.8466875633712
 20
449.3847127585842
 30
0.0
 40
1.0
100
AcDbArc
 50
90.0
 51
180.0
  0
ARC
  5
3494
330
18
100
AcDbEntity
  8
1
  6
Continuous
100
AcDbCircle
 10
193.8466875633712
 20
432.3847127585842
 30
0.0
 40
1.0
100
AcDbArc
 50
180.0
 51
270.0
  0
ARC
  5
3495
330
18
100
AcDbEntity
  8
1
  6
Continuous
100
AcDbCircle
 10
168.8504469618674
 20
460.3847127585841
 30
0.0
 40
3.5
100
AcDbArc
 50
90.0
 51
179.9999999999966
  0
ARC
  5
3496
330
18
100
AcDbEntity
  8
1
  6
Continuous
100
AcDbCircle
 10
171.1583119608301
 20
466.0675141009731
 30
0.0
 40
2.2
100
AcDbArc
 50
279.8165121820933
 51
355.1537580446022
  0
ARC
  5
3497
330
18
100
AcDbEntity
  8
1
  6
Continuous
100
AcDbCircle
 10
171.5504469618674
 20
463.8011888504934
 30
0.0
 40
0.1
100
AcDbArc
 50
99.81651218209023
 51
123.3592588574827
  0
ARC
  5
3499
330
18
100
AcDbEntity
  8
1
  6
Continuous
100
AcDbCircle
 10
165.8504469618674
 20
452.3847127585839
 30
0.0
 40
0.5
100
AcDbArc
 50
179.9999999999966
 51
269.9999999999967
  0
LINE
  5
349A
330
18
100
AcDbEntity
  8
1
  6
Continuous
100
AcDbLine
 10
165.3504469618674
 20
460.3847127585841
 30
0.0
 11
165.3504469618674
 21
452.3847127585839
 31
0.0
  0
ARC
  5
349B
330
18
100
AcDbEntity
  8
1
  6
Continuous
100
AcDbCircle
 10
165.8504469618674
 20
429.384712758584
 30
0.0
 40
0.5
100
AcDbArc
 50
90.0
 51
179.9999999999966
  0
LINE
  5
349F
330
18
100
AcDbEntity
  8
1
  6
Continuous
100
AcDbLine
 10
291.8504469618678
 20
417.8847127585838
 30
0.0
 11
168.8504469618674
 21
417.8847127585838
 31
0.0
  0
LINE
  5
34A0
330
18
100
AcDbEntity
  8
1
  6
Continuous
100
AcDbLine
 10
173.3504469618674
 20
415.8877719478501
 30
0.0
 11
287.3504469618678
 21
415.8877719478501
 31
0.0
  0
ARC
  5
34AF
330
18
100
AcDbEntity
  8
1
  6
Continuous
100
AcDbCircle
 10
168.8504469618674
 20
421.3847127585839
 30
0.0
 40
3.5
100
AcDbArc
 50
179.9999999999966
 51
269.9999999999967
  0
ARC
  5
34B2
330
18
100
AcDbEntity
  8
1
  6
Continuous
100
AcDbCircle
 10
171.1583119608301
 20
415.7019114161948
 30
0.0
 40
2.2
100
AcDbArc
 50
4.846241955397808
 51
80.18348781790669
  0
ARC
  5
34B3
330
18
100
AcDbEntity
  8
1
  6
Continuous
100
AcDbCircle
 10
171.5504469618674
 20
417.9682366666743
 30
0.0
 40
0.1
100
AcDbArc
 50
236.6407411425145
 51
260.1834878179066
  0
LINE
  5
34B4
330
18
100
AcDbEntity
  8
4
  6
CENTER
 48
0.5
100
AcDbLine
 10
52.65672748275392
 20
351.205224579788
 30
0.0
 11
52.65672748275381
 21
222.705224579788
 31
0.0
  0
LINE
  5
34B5
330
18
100
AcDbEntity
  8
1
  6
Continuous
100
AcDbLine
 10
67.65672748275392
 20
314.705224579788
 30
0.0
 11
67.65672748275392
 21
309.205224579788
 31
0.0
  0
LINE
  5
34B6
330
18
100
AcDbEntity
  8
1
  6
Continuous
100
AcDbLine
 10
37.65672748275392
 20
314.705224579788
 30
0.0
 11
37.65672748275392
 21
309.205224579788
 31
0.0
  0
LINE
  5
34B7
330
18
100
AcDbEntity
  8
4
  6
CENTER
 48
0.5
100
AcDbLine
 10
82.65366829348796
 20
244.2052245797881
 30
0.0
 11
22.65978667202
 21
244.2052245797881
 31
0.0
  0
LINE
  5
34B8
330
18
100
AcDbEntity
  8
1
  6
Continuous
100
AcDbLine
 10
33.15672748275392
 20
309.205224579788
 30
0.0
 11
41.15672748275392
 21
309.205224579788
 31
0.0
  0
LINE
  5
34B9
330
18
100
AcDbEntity
  8
1
  6
Continuous
100
AcDbLine
 10
33.15672748275392
 20
179.205224579788
 30
0.0
 11
41.15672748275392
 21
179.205224579788
 31
0.0
  0
LINE
  5
34BA
330
18
100
AcDbEntity
  8
1
  6
Continuous
100
AcDbLine
 10
27.65978667202
 20
187.205224579788
 30
0.0
 11
27.65978667202
 21
301.205224579788
 31
0.0
  0
LINE
  5
34BB
330
18
100
AcDbEntity
  8
1
  6
Continuous
100
AcDbLine
 10
29.65672748275392
 20
305.705224579788
 30
0.0
 11
29.65672748275392
 21
182.705224579788
 31
0.0
  0
ARC
  5
34BC
330
18
100
AcDbEntity
  8
1
  6
Continuous
100
AcDbCircle
 10
33.15672748275392
 20
182.705224579788
 30
0.0
 40
3.5
100
AcDbArc
 50
180.0
 51
270.0
  0
ARC
  5
34BD
330
18
100
AcDbEntity
  8
1
  6
Continuous
100
AcDbCircle
 10
27.47392614036482
 20
185.0130895787508
 30
0.0
 40
2.2
100
AcDbArc
 50
9.816512182093379
 51
85.15375804460223
  0
ARC
  5
34BE
330
18
100
AcDbEntity
  8
1
  6
Continuous
100
AcDbCircle
 10
29.74025139084449
 20
185.4052245797881
 30
0.0
 40
0.1
100
AcDbArc
 50
189.8165121820902
 51
213.3592588574854
  0
ARC
  5
34BF
330
18
100
AcDbEntity
  8
1
  6
Continuous
100
AcDbCircle
 10
27.47392614036482
 20
303.3973595808253
 30
0.0
 40
2.199999999999997
100
AcDbArc
 50
274.8462419553977
 51
350.1834878179067
  0
ARC
  5
34C0
330
18
100
AcDbEntity
  8
1
  6
Continuous
100
AcDbCircle
 10
29.74025139084449
 20
303.005224579788
 30
0.0
 40
0.1
100
AcDbArc
 50
146.6407411425362
 51
170.1834878179034
  0
ARC
  5
34C1
330
18
100
AcDbEntity
  8
1
  6
Continuous
100
AcDbCircle
 10
33.15672748275392
 20
305.705224579788
 30
0.0
 40
3.5
100
AcDbArc
 50
90.0
 51
180.0
  0
LINE
  5
34C2
330
18
100
AcDbEntity
  8
1
  6
Continuous
100
AcDbLine
 10
63.65672748275392
 20
308.7052245797881
 30
0.0
 11
63.65672748275392
 21
179.705224579788
 31
0.0
  0
LINE
  5
34C3
330
18
100
AcDbEntity
  8
1
  6
Continuous
100
AcDbLine
 10
41.65672748275392
 20
308.7052245797881
 30
0.0
 11
41.65672748275392
 21
179.705224579788
 31
0.0
  0
LINE
  5
34C4
330
18
100
AcDbEntity
  8
1
  6
Continuous
100
AcDbLine
 10
77.65366829348796
 20
187.205224579788
 30
0.0
 11
77.65366829348796
 21
301.205224579788
 31
0.0
  0
LINE
  5
34C5
330
18
100
AcDbEntity
  8
1
  6
Continuous
100
AcDbLine
 10
75.65672748275392
 20
305.705224579788
 30
0.0
 11
75.65672748275392
 21
182.705224579788
 31
0.0
  0
LINE
  5
34C6
330
18
100
AcDbEntity
  8
1
  6
Continuous
100
AcDbLine
 10
62.15672748275392
 20
228.705224579788
 30
0.0
 11
62.15672748275392
 21
308.205224579788
 31
0.0
  0
LINE
  5
34C7
330
18
100
AcDbEntity
  8
1
  6
Continuous
100
AcDbLine
 10
43.15672748275392
 20
308.205224579788
 30
0.0
 11
43.15672748275392
 21
228.705224579788
 31
0.0
  0
ARC
  5
34CB
330
18
100
AcDbEntity
  8
1
  6
Continuous
100
AcDbCircle
 10
72.15672748275392
 20
182.705224579788
 30
0.0
 40
3.5
100
AcDbArc
 50
270.0
 51
359.9999999999967
  0
LINE
  5
34CC
330
18
100
AcDbEntity
  8
1
  6
Continuous
100
AcDbLine
 10
72.15672748275392
 20
179.205224579788
 30
0.0
 11
64.15672748275392
 21
179.205224579788
 31
0.0
  0
ARC
  5
34CD
330
18
100
AcDbEntity
  8
1
  6
Continuous
100
AcDbCircle
 10
64.15672748275392
 20
179.705224579788
 30
0.0
 40
0.5
100
AcDbArc
 50
180.0
 51
270.0
  0
ARC
  5
34CE
330
18
100
AcDbEntity
  8
1
  6
Continuous
100
AcDbCircle
 10
75.57320357466347
 20
185.4052245797881
 30
0.0
 40
0.1
100
AcDbArc
 50
326.6407411425145
 51
350.1834878179067
  0
ARC
  5
34CF
330
18
100
AcDbEntity
  8
1
  6
Continuous
100
AcDbCircle
 10
77.839528825143
 20
185.0130895787508
 30
0.0
 40
2.2
100
AcDbArc
 50
94.84624195539778
 51
170.1834878179066
  0
LINE
  5
34D1
330
18
100
AcDbEntity
  8
1
  6
Continuous
100
AcDbLine
 10
44.15672748275392
 20
227.7052245797881
 30
0.0
 11
61.15672748275392
 21
227.7052245797881
 31
0.0
  0
ARC
  5
34D2
330
18
100
AcDbEntity
  8
1
  6
Continuous
100
AcDbCircle
 10
44.15672748275392
 20
228.705224579788
 30
0.0
 40
1.0
100
AcDbArc
 50
180.0
 51
270.0
  0
ARC
  5
34D3
330
18
100
AcDbEntity
  8
1
  6
Continuous
100
AcDbCircle
 10
42.54146725499365
 20
230.205224579788
 30
0.0
 40
2.0
100
AcDbArc
 50
90.0
 51
116.2551872312301
  0
LINE
  5
34D4
330
18
100
AcDbEntity
  8
1
  6
Continuous
100
AcDbLine
 10
42.54146725499365
 20
232.205224579788
 30
0.0
 11
43.15672748275392
 21
232.205224579788
 31
0.0
  0
ARC
  5
34D5
330
18
100
AcDbEntity
  8
1
  6
Continuous
100
AcDbCircle
 10
61.15672748275392
 20
228.705224579788
 30
0.0
 40
1.0
100
AcDbArc
 50
270.0
 51
359.9999999999967
  0
ARC
  5
34D6
330
18
100
AcDbEntity
  8
1
  6
Continuous
100
AcDbCircle
 10
62.77198771051414
 20
230.205224579788
 30
0.0
 40
2.0
100
AcDbArc
 50
63.74481276876988
 51
90.0
  0
LINE
  5
34D7
330
18
100
AcDbEntity
  8
1
  6
Continuous
100
AcDbLine
 10
62.77198771051414
 20
232.205224579788
 30
0.0
 11
62.15672748275392
 21
232.205224579788
 31
0.0
  0
ARC
  5
34E1
330
18
100
AcDbEntity
  8
1
  6
Continuous
100
AcDbCircle
 10
42.54146725499365
 20
258.205224579788
 30
0.0
 40
2.0
100
AcDbArc
 50
243.7448127687698
 51
270.0
  0
LINE
  5
34E3
330
18
100
AcDbEntity
  8
1
  6
Continuous
100
AcDbLine
 10
42.54146725499365
 20
256.205224579788
 30
0.0
 11
43.15672748275392
 21
256.205224579788
 31
0.0
  0
ARC
  5
34EC
330
18
100
AcDbEntity
  8
1
  6
Continuous
100
AcDbCircle
 10
62.77198771051428
 20
258.205224579788
 30
0.0
 40
2.0
100
AcDbArc
 50
270.0
 51
296.2551872312301
  0
LINE
  5
34ED
330
18
100
AcDbEntity
  8
1
  6
Continuous
100
AcDbLine
 10
62.77198771051428
 20
256.205224579788
 30
0.0
 11
62.15672748275392
 21
256.205224579788
 31
0.0
  0
LINE
  5
34F0
330
18
100
AcDbEntity
  8
1
  6
Continuous
100
AcDbLine
 10
44.15672748275392
 20
298.0375063779463
 30
0.0
 11
61.15672748275392
 21
298.0375063779463
 31
0.0
  0
LINE
  5
34F1
330
18
100
AcDbEntity
  8
1
  6
Continuous
100
AcDbLine
 10
44.15672748275392
 20
309.205224579788
 30
0.0
 11
61.15672748275392
 21
309.205224579788
 31
0.0
  0
ARC
  5
34F8
330
18
100
AcDbEntity
  8
1
  6
Continuous
100
AcDbCircle
 10
43.96536728939191
 20
301.2649735895258
 30
0.0
 40
6.308639806637986
100
AcDbArc
 50
248.5340086141613
 51
262.6355809419699
  0
ARC
  5
34FA
330
18
100
AcDbEntity
  8
1
  6
Continuous
100
AcDbCircle
 10
44.15672748275392
 20
297.0375063779463
 30
0.0
 40
1.0
100
AcDbArc
 50
90.0
 51
180.0
  0
ARC
  5
34FB
330
18
100
AcDbEntity
  8
1
  6
Continuous
100
AcDbCircle
 10
43.96536728939191
 20
301.2649735895258
 30
0.0
 40
6.308639806637986
100
AcDbArc
 50
97.3644190580268
 51
111.4659913858373
  0
ARC
  5
34FC
330
18
100
AcDbEntity
  8
1
  6
Continuous
100
AcDbCircle
 10
41.15672748275392
 20
308.7052245797881
 30
0.0
 40
0.5
100
AcDbArc
 50
0.0
 51
90.0
  0
ARC
  5
34FD
330
18
100
AcDbEntity
  8
1
  6
Continuous
100
AcDbCircle
 10
44.15672748275392
 20
308.205224579788
 30
0.0
 40
1.0
100
AcDbArc
 50
90.0
 51
180.0
  0
ARC
  5
3501
330
18
100
AcDbEntity
  8
1
  6
Continuous
100
AcDbCircle
 10
61.34808767611595
 20
301.2649735895258
 30
0.0
 40
6.308639806637982
100
AcDbArc
 50
277.3644190580268
 51
291.4659913858374
  0
ARC
  5
3502
330
18
100
AcDbEntity
  8
1
  6
Continuous
100
AcDbCircle
 10
72.15672748275392
 20
305.705224579788
 30
0.0
 40
3.5
100
AcDbArc
 50
0.0
 51
90.0
  0
ARC
  5
3503
330
18
100
AcDbEntity
  8
1
  6
Continuous
100
AcDbCircle
 10
61.15672748275392
 20
297.0375063779463
 30
0.0
 40
1.0
100
AcDbArc
 50
359.9999999999967
 51
89.99999999999673
  0
LINE
  5
3504
330
18
100
AcDbEntity
  8
1
  6
Continuous
100
AcDbLine
 10
72.15672748275392
 20
309.205224579788
 30
0.0
 11
64.15672748275392
 21
309.205224579788
 31
0.0
  0
ARC
  5
3505
330
18
100
AcDbEntity
  8
1
  6
Continuous
100
AcDbCircle
 10
64.15672748275392
 20
308.7052245797881
 30
0.0
 40
0.5
100
AcDbArc
 50
90.0
 51
180.0
  0
ARC
  5
3506
330
18
100
AcDbEntity
  8
1
  6
Continuous
100
AcDbCircle
 10
61.34808767611595
 20
301.2649735895258
 30
0.0
 40
6.308639806637982
100
AcDbArc
 50
68.5340086141626
 51
82.63558094197319
  0
ARC
  5
3507
330
18
100
AcDbEntity
  8
1
  6
Continuous
100
AcDbCircle
 10
61.15672748275392
 20
308.205224579788
 30
0.0
 40
1.0
100
AcDbArc
 50
0.0
 51
90.0
  0
ARC
  5
3508
330
18
100
AcDbEntity
  8
1
  6
Continuous
100
AcDbCircle
 10
75.57320357466347
 20
303.005224579788
 30
0.0
 40
0.1
100
AcDbArc
 50
9.816512182096587
 51
33.35925885746376
  0
ARC
  5
3509
330
18
100
AcDbEntity
  8
1
  6
Continuous
100
AcDbCircle
 10
77.839528825143
 20
303.3973595808253
 30
0.0
 40
2.199999999999997
100
AcDbArc
 50
189.8165121820933
 51
265.1537580446022
  0
LINE
  5
3512
330
18
100
AcDbEntity
  8
1
  6
Continuous
100
AcDbLine
 10
38.65672748275392
 20
315.705224579788
 30
0.0
 11
66.65672748275392
 21
315.705224579788
 31
0.0
  0
ARC
  5
3515
330
18
100
AcDbEntity
  8
1
  6
Continuous
100
AcDbCircle
 10
38.65672748275392
 20
314.705224579788
 30
0.0
 40
1.0
100
AcDbArc
 50
90.0
 51
180.0
  0
ARC
  5
351E
330
18
100
AcDbEntity
  8
1
  6
Continuous
100
AcDbCircle
 10
66.65672748275392
 20
314.705224579788
 30
0.0
 40
1.0
100
AcDbArc
 50
0.0
 51
90.0
  0
ARC
  5
3525
330
18
100
AcDbEntity
  8
1
  6
Continuous
100
AcDbCircle
 10
171.5770442994236
 20
292.1237882773979
 30
0.0
 40
6.999999999999996
100
AcDbArc
 50
201.649600284719
 51
304.2821113593647
  0
LINE
  5
3526
330
18
100
AcDbEntity
  8
5
  6
PHANTOM
 48
0.3
100
AcDbLine
 10
176.908890098318
 20
281.2052245797882
 30
0.0
 11
145.8062198548667
 21
281.2052245797882
 31
0.0
  0
LINE
  5
3527
330
18
100
AcDbEntity
  8
5
  6
PHANTOM
 48
0.3
100
AcDbLine
 10
145.8062198548667
 20
284.2052245797882
 30
0.0
 11
177.0283127210101
 21
284.2052245797882
 31
0.0
  0
ARC
  5
3528
330
18
100
AcDbEntity
  8
5
  6
PHANTOM
 48
0.3
100
AcDbCircle
 10
162.0635112900073
 20
273.2052245797882
 30
0.0
 40
7.999999999999997
100
AcDbArc
 50
2.025357000383162
 51
90.0
  0
ARC
  5
3529
330
18
100
AcDbEntity
  8
1
  6
Continuous
100
AcDbCircle
 10
223.1619331309052
 20
312.5993650517814
 30
0.0
 40
65.49999999999996
100
AcDbArc
 50
197.0046846811415
 51
213.1166242005794
  0
ARC
  5
352A
330
18
100
AcDbEntity
  8
1
  6
Continuous
100
AcDbCircle
 10
223.1619331309052
 20
312.5993650517814
 30
0.0
 40
62.49999999999997
100
AcDbArc
 50
197.639061332581
 51
214.3608042127557
  0
LINE
  5
352B
330
18
100
AcDbEntity
  8
1
  6
Continuous
100
AcDbLine
 10
171.9448660035017
 20
274.7039558988638
 30
0.0
 11
161.8472390756262
 21
243.626655738404
 31
0.0
  0
LINE
  5
352C
330
18
100
AcDbEntity
  8
1
  6
Continuous
100
AcDbLine
 10
158.9940695267408
 20
244.553706721529
 30
0.0
 11
168.6422268223319
 21
274.247681594247
 31
0.0
  0
LINE
  5
352D
330
18
100
AcDbEntity
  8
4
  6
CENTER
 48
0.5
100
AcDbLine
 10
160.3504469618675
 20
244.2052245797881
 30
0.0
 11
300.3504469618674
 21
244.2052245797881
 31
0.0
  0
CIRCLE
  5
352E
330
18
100
AcDbEntity
  8
1
  6
Continuous
100
AcDbCircle
 10
230.3504469618674
 20
244.2052245797881
 30
0.0
 40
57.0
  0
CIRCLE
  5
352F
330
18
100
AcDbEntity
  8
1
  6
Continuous
100
AcDbCircle
 10
230.3504469618674
 20
244.2052245797881
 30
0.0
 40
58.9
  0
CIRCLE
  5
3530
330
18
100
AcDbEntity
  8
1
  6
Continuous
100
AcDbCircle
 10
230.3504469618674
 20
244.2052245797881
 30
0.0
 40
59.0
  0
CIRCLE
  5
3531
330
18
100
AcDbEntity
  8
1
  6
Continuous
100
AcDbCircle
 10
230.3504469618675
 20
244.2052245797881
 30
0.0
 40
65.0
  0
LINE
  5
3532
330
18
100
AcDbEntity
  8
4
  6
CENTER
 48
0.5
100
AcDbLine
 10
230.3504469618673
 20
174.2052245797881
 30
0.0
 11
230.3504469618675
 21
314.2052245797882
 31
0.0
  0
LINE
  5
3533
330
18
100
AcDbEntity
  8
4
  6
CENTER
 48
0.5
100
AcDbLine
 10
265.3504469618674
 20
351.2052245797881
 30
0.0
 11
265.3504469618674
 21
222.705224579788
 31
0.0
  0
ARC
  5
3537
330
18
100
AcDbEntity
  8
1
  6
Continuous
100
AcDbCircle
 10
230.352023071954
 20
244.2052245797881
 30
0.0
 40
68.0
100
AcDbArc
 50
48.34023455390632
 51
68.61051667381457
  0
LINE
  5
3538
330
18
100
AcDbEntity
  8
1
  6
Continuous
100
AcDbLine
 10
280.3504469618674
 20
314.7052245797882
 30
0.0
 11
280.3504469618674
 21
289.2052245797882
 31
0.0
  0
LINE
  5
3539
330
18
100
AcDbEntity
  8
1
  6
Continuous
100
AcDbLine
 10
275.5520230719539
 20
295.0083740440046
 30
0.0
 11
275.5520230719539
 21
290.9166792333019
 31
0.0
  0
ARC
  5
353A
330
18
100
AcDbEntity
  8
1
  6
Continuous
100
AcDbCircle
 10
290.3504469618674
 20
289.2052245797882
 30
0.0
 40
10.0
100
AcDbArc
 50
180.0000000000032
 51
216.8698976458466
  0
ARC
  5
353B
330
18
100
AcDbEntity
  8
1
  6
Continuous
100
AcDbCircle
 10
174.479470541952
 20
256.6161227401043
 30
0.0
 40
7.999999999999996
100
AcDbArc
 50
152.6904241367263
 51
162.0000000000004
  0
ARC
  5
353C
330
18
100
AcDbEntity
  8
5
  6
PHANTOM
 48
0.3
100
AcDbCircle
 10
182.0510169683506
 20
273.9120603161466
 30
0.0
 40
11.99999999999999
100
AcDbArc
 50
182.0253570003831
 51
198.9042973388155
  0
ARC
  5
353D
330
18
100
AcDbEntity
  8
1
  6
Continuous
100
AcDbCircle
 10
169.0916964546163
 20
275.6310068819886
 30
0.0
 40
2.999999999999998
100
AcDbArc
 50
341.9999999999999
 51
34.36080421275581
  0
ARC
  5
353E
330
18
100
AcDbEntity
  8
1
  6
Continuous
100
AcDbCircle
 10
165.7890572734465
 20
275.1747325773719
 30
0.0
 40
2.999999999999998
100
AcDbArc
 50
342.0000000000015
 51
33.1166242005767
  0
ARC
  5
3540
330
18
100
AcDbEntity
  8
5
  6
PHANTOM
 48
0.3
100
AcDbCircle
 10
230.3504469618674
 20
244.2052245797881
 30
0.0
 40
65.49999999999997
100
AcDbArc
 50
125.0046846811409
 51
141.1166242005782
  0
ARC
  5
3541
330
18
100
AcDbEntity
  8
1
  6
Continuous
100
AcDbCircle
 10
183.9689425134363
 20
273.945755967669
 30
0.0
 40
14.99999999999999
100
AcDbArc
 50
93.01882010843526
 51
124.2821113593647
  0
ARC
  5
3542
330
18
100
AcDbEntity
  8
5
  6
PHANTOM
 48
0.3
100
AcDbCircle
 10
193.3504469618674
 20
297.0375063779464
 30
0.0
 40
0.9999999999999998
100
AcDbArc
 50
64.6207763168018
 51
125.0046846811436
  0
ARC
  5
3543
330
18
100
AcDbEntity
  8
5
  6
PHANTOM
 48
0.3
100
AcDbCircle
 10
177.0283127210101
 20
287.2052245797882
 30
0.0
 40
2.999999999999998
100
AcDbArc
 50
270.0
 51
321.1166242005782
  0
ARC
  5
3549
330
18
100
AcDbEntity
  8
1
  6
Continuous
100
AcDbCircle
 10
279.3504469618674
 20
314.7052245797882
 30
0.0
 40
1.0
100
AcDbArc
 50
0.000000000000007
 51
90.0
  0
ARC
  5
3551
330
18
100
AcDbEntity
  8
1
  6
Continuous
100
AcDbCircle
 10
244.3504469618674
 20
313.8112588009676
 30
0.0
 40
6.0
100
AcDbArc
 50
258.6277175637655
 51
0.000000000000007
  0
LINE
  5
3552
330
18
100
AcDbEntity
  8
1
  6
Continuous
100
AcDbLine
 10
255.1520230719538
 20
307.5215731350473
 30
0.0
 11
255.1520230719538
 21
304.2958923159053
 31
0.0
  0
ARC
  5
3553
330
18
100
AcDbEntity
  8
1
  6
Continuous
100
AcDbCircle
 10
251.3504469618674
 20
314.7052245797882
 30
0.0
 40
1.0
100
AcDbArc
 50
90.00000000000325
 51
180.0000000000032
  0
LINE
  5
3558
330
18
100
AcDbEntity
  8
1
  6
Continuous
100
AcDbLine
 10
251.3504469618674
 20
315.7052245797881
 30
0.0
 11
279.3504469618674
 21
315.7052245797881
 31
0.0
  0
LINE
  5
3559
330
18
100
AcDbEntity
  8
1
  6
Continuous
100
AcDbLine
 10
250.3504469618674
 20
314.7052245797882
 30
0.0
 11
250.3504469618674
 21
313.8112588009676
 31
0.0
  0
ARC
  5
355E
330
18
100
AcDbEntity
  8
1
  6
Continuous
100
AcDbCircle
 10
159.2793864816294
 20
244.4610016232164
 30
0.0
 40
0.2999999999999999
100
AcDbArc
 50
162.0000000000015
 51
237.2075029585927
  0
ARC
  5
355F
330
18
100
AcDbEntity
  8
1
  6
Continuous
100
AcDbCircle
 10
161.5619221207376
 20
243.7193608367166
 30
0.0
 40
0.2999999999999999
100
AcDbArc
 50
266.7924970414061
 51
342.0000000000015
  0
ARC
  5
3560
330
18
100
AcDbEntity
  8
1
  6
Continuous
100
AcDbCircle
 10
161.824897703546
 20
248.4119980316046
 30
0.0
 40
4.999999999999999
100
AcDbArc
 50
237.2075029585999
 51
266.7924970414028
  0
ARC
  5
3561
330
18
100
AcDbEntity
  8
1
  6
Continuous
100
AcDbCircle
 10
161.4818184641519
 20
293.7363468760978
 30
0.0
 40
0.9999999999999996
100
AcDbArc
 50
72.00000000000153
 51
197.0046846811415
  0
LINE
  5
3562
330
18
100
AcDbEntity
  8
1
  6
Continuous
100
AcDbLine
 10
161.7908354585269
 20
294.6874033923929
 30
0.0
 11
162.9564466963906
 21
294.3086733430607
 31
0.0
  0
ARC
  5
3563
330
18
100
AcDbEntity
  8
1
  6
Continuous
100
AcDbCircle
 10
162.6474297020156
 20
293.3576168267654
 30
0.0
 40
0.9999999999999996
100
AcDbArc
 50
17.63906133258104
 51
72.00000000000054
  0
ARC
  5
3564
330
18
100
AcDbEntity
  8
5
  6
PHANTOM
 48
0.3
100
AcDbCircle
 10
150.3504469618674
 20
282.7052245797882
 30
0.0
 40
5.0
100
AcDbArc
 50
165.2075029585986
 51
194.7924970414013
  0
ARC
  5
3565
330
18
100
AcDbEntity
  8
5
  6
PHANTOM
 48
0.3
100
AcDbCircle
 10
145.8062198548667
 20
283.9052245797882
 30
0.0
 40
0.3
100
AcDbArc
 50
90.0
 51
165.2075029585923
  0
ARC
  5
3566
330
18
100
AcDbEntity
  8
5
  6
PHANTOM
 48
0.3
100
AcDbCircle
 10
145.8062198548667
 20
281.5052245797882
 30
0.0
 40
0.3
100
AcDbArc
 50
194.7924970414076
 51
270.0
  0
ARC
  5
3567
330
18
100
AcDbEntity
  8
1
  6
Continuous
100
AcDbCircle
 10
41.15672748275392
 20
179.705224579788
 30
0.0
 40
0.5
100
AcDbArc
 50
270.0
 51
0.0
  0
LINE
  5
365A
330
18
100
AcDbEntity
  8
1
  6
Continuous
100
AcDbLine
 10
160.4818184641519
 20
432.384712758584
 30
0.0
 11
160.4818184641519
 21
449.384712758584
 31
0.0
  0
LINE
  5
365B
330
18
100
AcDbEntity
  8
1
  6
Continuous
100
AcDbLine
 10
158.9793864816295
 20
449.384712758584
 30
0.0
 11
158.9793864816295
 21
432.384712758584
 31
0.0
  0
LINE
  5
365C
330
18
100
AcDbEntity
  8
1
  6
Continuous
100
AcDbLine
 10
163.4472677752599
 20
449.384712758584
 30
0.0
 11
163.4472677752599
 21
432.384712758584
 31
0.0
  0
ARC
  5
365E
330
18
100
AcDbEntity
  8
1
  6
Continuous
100
AcDbCircle
 10
162.4472677752601
 20
449.384712758584
 30
0.0
 40
1.0
100
AcDbArc
 50
359.9999999999968
 51
90.00000000000651
  0
ARC
  5
365F
330
18
100
AcDbEntity
  8
1
  6
Continuous
100
AcDbCircle
 10
162.4472677752601
 20
432.3847127585839
 30
0.0
 40
1.0
100
AcDbArc
 50
269.9999999999934
 51
0.0000000000032639
  0
ARC
  5
3660
330
18
100
AcDbEntity
  8
1
  6
Continuous
100
AcDbCircle
 10
161.4818184641519
 20
432.384712758584
 30
0.0
 40
1.0
100
AcDbArc
 50
180.0000000000032
 51
270.0
  0
ARC
  5
3661
330
18
100
AcDbEntity
  8
1
  6
Continuous
100
AcDbCircle
 10
161.481818464152
 20
449.3847127585839
 30
0.0
 40
1.0
100
AcDbArc
 50
90.00000000000651
 51
179.9999999999966
  0
ARC
  5
3662
330
18
100
AcDbEntity
  8
1
  6
Continuous
100
AcDbCircle
 10
159.9793864816293
 20
449.384712758584
 30
0.0
 40
1.0
100
AcDbArc
 50
89.99999999999348
 51
180.0000000000032
  0
ARC
  5
3663
330
18
100
AcDbEntity
  8
1
  6
Continuous
100
AcDbCircle
 10
159.9793864816293
 20
432.3847127585839
 30
0.0
 40
1.0
100
AcDbArc
 50
179.9999999999966
 51
270.0000000000065
  0
LINE
  5
366D
330
18
100
AcDbEntity
  8
1
  6
Continuous
100
AcDbLine
 10
186.597762596545
 20
449.3847127585842
 30
0.0
 11
165.5708421044619
 21
449.3847127585842
 31
0.0
  0
LINE
  5
3670
330
18
100
AcDbEntity
  8
1
  6
Continuous
100
AcDbLine
 10
186.597762596545
 20
446.384712758584
 30
0.0
 11
166.0708421044619
 21
446.3847127585842
 31
0.0
  0
LINE
  5
3671
330
18
100
AcDbEntity
  8
1
  6
Continuous
100
AcDbLine
 10
186.597762596545
 20
435.5347127585838
 30
0.0
 11
171.5901963538326
 21
435.5347127585842
 31
0.0
  0
LINE
  5
3672
330
18
100
AcDbEntity
  8
1
  6
Continuous
100
AcDbLine
 10
186.5977625965449
 20
446.2347127585839
 30
0.0
 11
171.5901963538328
 21
446.2347127585841
 31
0.0
  0
LINE
  5
36D0
330
18
100
AcDbEntity
  8
1
  6
Continuous
100
AcDbLine
 10
186.597762596545
 20
449.384712758584
 30
0.0
 11
186.5977625965449
 21
446.2347127585839
 31
0.0
  0
LINE
  5
36D3
330
18
100
AcDbEntity
  8
1
  6
Continuous
100
AcDbLine
 10
171.44726777526
 20
445.8847127585841
 30
0.0
 11
171.44726777526
 21
435.8847127585839
 31
0.0
  0
ARC
  5
36D4
330
18
100
AcDbEntity
  8
1
  6
Continuous
100
AcDbCircle
 10
171.94726777526
 20
445.8847127585841
 30
0.0
 40
0.5
100
AcDbArc
 50
89.99999999999962
 51
180.0
  0
LINE
  5
36D5
330
18
100
AcDbEntity
  8
1
  6
Continuous
100
AcDbLine
 10
186.597762596545
 20
435.5347127585838
 30
0.0
 11
186.5977625965449
 21
432.384712758584
 31
0.0
  0
ARC
  5
36D6
330
18
100
AcDbEntity
  8
1
  6
Continuous
100
AcDbCircle
 10
166.0708421044619
 20
436.3847127585838
 30
0.0
 40
1.0
100
AcDbArc
 50
180.0
 51
270.0
  0
LINE
  5
36D7
330
18
100
AcDbEntity
  8
1
  6
Continuous
100
AcDbLine
 10
186.597762596545
 20
432.384712758584
 30
0.0
 11
165.5708421044619
 21
432.3847127585839
 31
0.0
  0
LINE
  5
36D8
330
18
100
AcDbEntity
  8
1
  6
Continuous
100
AcDbLine
 10
186.597762596545
 20
435.3847127585839
 30
0.0
 11
166.0708421044619
 21
435.3847127585837
 31
0.0
  0
ARC
  5
36D9
330
18
100
AcDbEntity
  8
1
  6
Continuous
100
AcDbCircle
 10
165.5708421044619
 20
431.8847127585835
 30
0.0
 40
0.5
100
AcDbArc
 50
90.00000000000005
 51
180.0
  0
ARC
  5
36DA
330
18
100
AcDbEntity
  8
1
  6
Continuous
100
AcDbCircle
 10
171.94726777526
 20
435.8847127585839
 30
0.0
 40
0.5
100
AcDbArc
 50
180.0
 51
270.0000000000004
  0
LINE
  5
3758
330
18
100
AcDbEntity
  8
1
  6
Continuous
100
AcDbLine
 10
171.0916964546163
 20
450.384712758584
 30
0.0
 11
159.9793864816295
 21
450.384712758584
 31
0.0
  0
LINE
  5
3759
330
18
100
AcDbEntity
  8
1
  6
Continuous
100
AcDbLine
 10
187.5977625965449
 20
431.3847127585839
 30
0.0
 11
253.7422601956235
 21
431.3847127585839
 31
0.0
  0
ARC
  5
375A
330
18
100
AcDbEntity
  8
1
  6
Continuous
100
AcDbCircle
 10
171.0916964546163
 20
449.384712758584
 30
0.0
 40
1.0
100
AcDbArc
 50
0.0
 51
90.0
  0
ARC
  5
375B
330
18
100
AcDbEntity
  8
1
  6
Continuous
100
AcDbCircle
 10
171.0916964546164
 20
432.3847127585839
 30
0.0
 40
1.0
100
AcDbArc
 50
269.9999999999934
 51
0.0000000000032569
  0
ARC
  5
375C
330
18
100
AcDbEntity
  8
1
  6
Continuous
100
AcDbCircle
 10
187.597762596545
 20
449.384712758584
 30
0.0
 40
1.0
100
AcDbArc
 50
89.99999999999992
 51
179.9999999999984
  0
ARC
  5
375D
330
18
100
AcDbEntity
  8
1
  6
Continuous
100
AcDbCircle
 10
187.5977625965449
 20
432.384712758584
 30
0.0
 40
1.0
100
AcDbArc
 50
179.9999999999984
 51
270.0
  0
ARC
  5
3846
330
18
100
AcDbEntity
  8
1
  6
Continuous
100
AcDbCircle
 10
52.65672748275358
 20
274.3392730548822
 30
0.0
 40
30.0
100
AcDbArc
 50
252.9561533849015
 51
287.0438466150993
  0
ARC
  5
3847
330
18
100
AcDbEntity
  8
1
  6
Continuous
100
AcDbCircle
 10
52.65672748275358
 20
273.4193608367166
 30
0.0
 40
30.0
100
AcDbArc
 50
252.9561533849015
 51
287.0438466150993
  0
ARC
  5
3848
330
18
100
AcDbEntity
  8
1
  6
Continuous
100
AcDbCircle
 10
44.15672748275335
 20
246.6129317888587
 30
0.0
 40
1.0
100
AcDbArc
 50
180.0
 51
252.9561533849006
  0
ARC
  5
3849
330
18
100
AcDbEntity
  8
1
  6
Continuous
100
AcDbCircle
 10
44.15672748275335
 20
245.6930195706931
 30
0.0
 40
1.0
100
AcDbArc
 50
180.0
 51
252.9561533849006
  0
ARC
  5
384A
330
18
100
AcDbEntity
  8
1
  6
Continuous
100
AcDbCircle
 10
61.15672748275335
 20
246.6129317888586
 30
0.0
 40
1.0
100
AcDbArc
 50
287.0438466150993
 51
0.0
  0
ARC
  5
384B
330
18
100
AcDbEntity
  8
1
  6
Continuous
100
AcDbCircle
 10
61.15672748275335
 20
245.693019570693
 30
0.0
 40
1.0
100
AcDbArc
 50
287.0438466150993
 51
0.0
  0
LINE
  5
3946
330
18
100
AcDbEntity
  8
1
  6
Continuous
100
AcDbLine
 10
60.15672748275392
 20
275.5693380444714
 30
0.0
 11
45.15672748275392
 21
275.5693380444714
 31
0.0
  0
ARC
  5
3948
330
18
100
AcDbEntity
  8
1
  6
Continuous
100
AcDbCircle
 10
44.15672748275392
 20
293.7363468760978
 30
0.0
 40
1.0
100
AcDbArc
 50
90.0
 51
180.0
  0
LINE
  5
3949
330
18
100
AcDbEntity
  8
1
  6
Continuous
100
AcDbLine
 10
44.15672748275392
 20
294.7363468760978
 30
0.0
 11
61.15672748275392
 21
294.7363468760978
 31
0.0
  0
ARC
  5
394A
330
18
100
AcDbEntity
  8
1
  6
Continuous
100
AcDbCircle
 10
61.15672748275392
 20
293.7363468760978
 30
0.0
 40
1.0
100
AcDbArc
 50
359.9999999999967
 51
89.99999999999673
  0
LINE
  5
3A71
330
18
100
AcDbEntity
  8
1
  6
Continuous
100
AcDbLine
 10
414.173105960743
 20
295.0083740440044
 30
0.0
 11
414.1731059607431
 21
245.2052245797881
 31
0.0
  0
LINE
  5
3A72
330
18
100
AcDbEntity
  8
1
  6
Continuous
100
AcDbLine
 10
395.1731059607432
 20
228.705224579788
 30
0.0
 11
395.1731059607432
 21
231.8391991760036
 31
0.0
  0
LINE
  5
3A73
330
18
100
AcDbEntity
  8
1
  6
Continuous
100
AcDbLine
 10
381.6731059607432
 20
305.705224579788
 30
0.0
 11
381.6731059607432
 21
182.705224579788
 31
0.0
  0
LINE
  5
3A74
330
18
100
AcDbEntity
  8
1
  6
Continuous
100
AcDbLine
 10
379.6761651500092
 20
187.205224579788
 30
0.0
 11
379.6761651500092
 21
301.205224579788
 31
0.0
  0
LINE
  5
3A75
330
18
100
AcDbEntity
  8
1
  6
Continuous
100
AcDbLine
 10
415.673105960743
 20
295.3939329276751
 30
0.0
 11
415.673105960743
 21
179.705224579788
 31
0.0
  0
LINE
  5
3A76
330
18
100
AcDbEntity
  8
1
  6
Continuous
100
AcDbLine
 10
393.6731059607432
 20
295.3939329276751
 30
0.0
 11
393.6731059607432
 21
179.705224579788
 31
0.0
  0
LINE
  5
3A77
330
18
100
AcDbEntity
  8
1
  6
Continuous
100
AcDbLine
 10
427.673105960743
 20
305.705224579788
 30
0.0
 11
427.673105960743
 21
182.705224579788
 31
0.0
  0
LINE
  5
3A78
330
18
100
AcDbEntity
  8
1
  6
Continuous
100
AcDbLine
 10
429.6700467714772
 20
187.205224579788
 30
0.0
 11
429.6700467714772
 21
301.205224579788
 31
0.0
  0
LINE
  5
3A79
330
18
100
AcDbEntity
  8
4
  6
CENTER
 48
0.5
100
AcDbLine
 10
404.6731059607431
 20
351.205224579788
 30
0.0
 11
404.6731059607431
 21
222.705224579788
 31
0.0
  0
ARC
  5
3A7C
330
18
100
AcDbEntity
  8
1
  6
Continuous
100
AcDbCircle
 10
385.1731059607431
 20
182.705224579788
 30
0.0
 40
3.5
100
AcDbArc
 50
180.0000000000032
 51
270.0
  0
LINE
  5
3A7D
330
18
100
AcDbEntity
  8
4
  6
CENTER
 48
0.5
100
AcDbLine
 10
374.6761651500092
 20
244.2052245797881
 30
0.0
 11
434.6700467714772
 21
244.2052245797881
 31
0.0
  0
LINE
  5
3A7F
330
18
100
AcDbEntity
  8
1
  6
Continuous
100
AcDbLine
 10
424.173105960743
 20
179.205224579788
 30
0.0
 11
416.1731059607431
 21
179.205224579788
 31
0.0
  0
ARC
  5
3A80
330
18
100
AcDbEntity
  8
1
  6
Continuous
100
AcDbCircle
 10
429.8559073031324
 20
185.0130895787508
 30
0.0
 40
2.2
100
AcDbArc
 50
94.84624195539778
 51
170.1834878179066
  0
ARC
  5
3A81
330
18
100
AcDbEntity
  8
1
  6
Continuous
100
AcDbCircle
 10
427.5895820526525
 20
185.4052245797881
 30
0.0
 40
0.1
100
AcDbArc
 50
326.6407411425145
 51
350.1834878179098
  0
ARC
  5
3A82
330
18
100
AcDbEntity
  8
1
  6
Continuous
100
AcDbCircle
 10
424.173105960743
 20
182.705224579788
 30
0.0
 40
3.5
100
AcDbArc
 50
270.0
 51
0.000000000000007
  0
ARC
  5
3A84
330
18
100
AcDbEntity
  8
1
  6
Continuous
100
AcDbCircle
 10
416.1731059607431
 20
179.705224579788
 30
0.0
 40
0.5
100
AcDbArc
 50
180.0
 51
270.0
  0
ARC
  5
3A85
330
18
100
AcDbEntity
  8
1
  6
Continuous
100
AcDbCircle
 10
393.1731059607431
 20
179.705224579788
 30
0.0
 40
0.5
100
AcDbArc
 50
270.0
 51
0.000000000000007
  0
LINE
  5
3A86
330
18
100
AcDbEntity
  8
1
  6
Continuous
100
AcDbLine
 10
385.1731059607431
 20
179.205224579788
 30
0.0
 11
393.1731059607431
 21
179.205224579788
 31
0.0
  0
LINE
  5
3A87
330
18
100
AcDbEntity
  8
1
  6
Continuous
100
AcDbLine
 10
413.1731059607431
 20
227.7052245797881
 30
0.0
 11
396.1731059607432
 21
227.7052245797881
 31
0.0
  0
ARC
  5
3A88
330
18
100
AcDbEntity
  8
1
  6
Continuous
100
AcDbCircle
 10
413.1731059607431
 20
228.705224579788
 30
0.0
 40
1.0
100
AcDbArc
 50
270.0
 51
0.000000000000007
  0
ARC
  5
3A89
330
18
100
AcDbEntity
  8
1
  6
Continuous
100
AcDbCircle
 10
396.1731059607432
 20
228.705224579788
 30
0.0
 40
1.0
100
AcDbArc
 50
180.0000000000032
 51
270.0
  0
LINE
  5
3A8C
330
18
100
AcDbEntity
  8
1
  6
Continuous
100
AcDbLine
 10
414.7883661885033
 20
232.205224579788
 30
0.0
 11
414.5391313645276
 21
232.205224579788
 31
0.0
  0
ARC
  5
3A8D
330
18
100
AcDbEntity
  8
1
  6
Continuous
100
AcDbCircle
 10
414.7883661885033
 20
230.205224579788
 30
0.0
 40
2.0
100
AcDbArc
 50
63.7448127687699
 51
90.0
  0
ARC
  5
3A90
330
18
100
AcDbEntity
  8
1
  6
Continuous
100
AcDbCircle
 10
394.5578457329828
 20
230.205224579788
 30
0.0
 40
2.0
100
AcDbArc
 50
90.0
 51
116.2551872312301
  0
LINE
  5
3A91
330
18
100
AcDbEntity
  8
1
  6
Continuous
100
AcDbLine
 10
394.5578457329828
 20
232.205224579788
 30
0.0
 11
394.8070805569587
 21
232.205224579788
 31
0.0
  0
ARC
  5
3A94
330
18
100
AcDbEntity
  8
1
  6
Continuous
100
AcDbCircle
 10
379.4903046183541
 20
185.0130895787508
 30
0.0
 40
2.2
100
AcDbArc
 50
9.816512182093376
 51
85.15375804460225
  0
ARC
  5
3A95
330
18
100
AcDbEntity
  8
1
  6
Continuous
100
AcDbCircle
 10
381.7566298688337
 20
185.4052245797881
 30
0.0
 40
0.1
100
AcDbArc
 50
189.8165121820934
 51
213.3592588574854
  0
ARC
  5
3A9B
330
18
100
AcDbEntity
  8
1
  6
Continuous
100
AcDbCircle
 10
385.1731059607431
 20
305.705224579788
 30
0.0
 40
3.5
100
AcDbArc
 50
90.0
 51
180.0
  0
LINE
  5
3A9E
330
18
100
AcDbEntity
  8
1
  6
Continuous
100
AcDbLine
 10
414.7883661885033
 20
256.205224579788
 30
0.0
 11
414.6731059607433
 21
256.205224579788
 31
0.0
  0
ARC
  5
3A9F
330
18
100
AcDbEntity
  8
1
  6
Continuous
100
AcDbCircle
 10
414.7883661885033
 20
258.205224579788
 30
0.0
 40
2.0
100
AcDbArc
 50
270.0
 51
296.2551872312301
  0
ARC
  5
3AA0
330
18
100
AcDbEntity
  8
1
  6
Continuous
100
AcDbCircle
 10
394.5578457329828
 20
258.205224579788
 30
0.0
 40
2.0
100
AcDbArc
 50
243.7448127687698
 51
270.0
  0
LINE
  5
3AA1
330
18
100
AcDbEntity
  8
1
  6
Continuous
100
AcDbLine
 10
394.5578457329828
 20
256.205224579788
 30
0.0
 11
394.6731059607432
 21
256.205224579788
 31
0.0
  0
ARC
  5
3AA5
330
18
100
AcDbEntity
  8
1
  6
Continuous
100
AcDbCircle
 10
413.3644661541052
 20
301.2649735895258
 30
0.0
 40
6.308639806637986
100
AcDbArc
 50
277.3644190580299
 51
0.0
  0
ARC
  5
3AA6
330
18
100
AcDbEntity
  8
1
  6
Continuous
100
AcDbCircle
 10
395.9817457673811
 20
301.2649735895258
 30
0.0
 40
6.308639806637982
100
AcDbArc
 50
180.0
 51
262.6355809419732
  0
LINE
  5
3AA9
330
18
100
AcDbEntity
  8
1
  6
Continuous
100
AcDbLine
 10
424.173105960743
 20
309.205224579788
 30
0.0
 11
419.673105960743
 21
309.205224579788
 31
0.0
  0
ARC
  5
3AAA
330
18
100
AcDbEntity
  8
1
  6
Continuous
100
AcDbCircle
 10
424.173105960743
 20
305.705224579788
 30
0.0
 40
3.5
100
AcDbArc
 50
0.000000000000007
 51
90.0
  0
ARC
  5
3AAB
330
18
100
AcDbEntity
  8
1
  6
Continuous
100
AcDbCircle
 10
427.5895820526525
 20
303.005224579788
 30
0.0
 40
0.1
100
AcDbArc
 50
9.816512182096607
 51
33.35925885746376
  0
ARC
  5
3AAC
330
18
100
AcDbEntity
  8
1
  6
Continuous
100
AcDbCircle
 10
429.8559073031324
 20
303.3973595808253
 30
0.0
 40
2.199999999999997
100
AcDbArc
 50
189.8165121820934
 51
265.1537580446022
  0
LINE
  5
3AB1
330
18
100
AcDbEntity
  8
1
  6
Continuous
100
AcDbLine
 10
418.673105960743
 20
315.705224579788
 30
0.0
 11
390.6731059607432
 21
315.705224579788
 31
0.0
  0
ARC
  5
3ABA
330
18
100
AcDbEntity
  8
1
  6
Continuous
100
AcDbCircle
 10
418.673105960743
 20
314.705224579788
 30
0.0
 40
1.0
100
AcDbArc
 50
0.000000000000007
 51
90.0
  0
LINE
  5
3ABC
330
18
100
AcDbEntity
  8
1
  6
Continuous
100
AcDbLine
 10
419.673105960743
 20
314.705224579788
 30
0.0
 11
419.673105960743
 21
301.2649735895258
 31
0.0
  0
ARC
  5
3AC3
330
18
100
AcDbEntity
  8
1
  6
Continuous
100
AcDbCircle
 10
390.6731059607432
 20
314.705224579788
 30
0.0
 40
1.0
100
AcDbArc
 50
90.0
 51
180.0
  0
LINE
  5
3AC4
330
18
100
AcDbEntity
  8
1
  6
Continuous
100
AcDbLine
 10
385.1731059607431
 20
309.205224579788
 30
0.0
 11
389.6731059607432
 21
309.205224579788
 31
0.0
  0
LINE
  5
3AC5
330
18
100
AcDbEntity
  8
1
  6
Continuous
100
AcDbLine
 10
389.6731059607432
 20
314.705224579788
 30
0.0
 11
389.6731059607432
 21
301.2649735895258
 31
0.0
  0
ARC
  5
3ACC
330
18
100
AcDbEntity
  8
1
  6
Continuous
100
AcDbCircle
 10
379.4903046183541
 20
303.3973595808253
 30
0.0
 40
2.199999999999997
100
AcDbArc
 50
274.8462419553977
 51
350.1834878179067
  0
ARC
  5
3ACD
330
18
100
AcDbEntity
  8
1
  6
Continuous
100
AcDbCircle
 10
381.7566298688337
 20
303.005224579788
 30
0.0
 40
0.1
100
AcDbArc
 50
146.6407411425362
 51
170.1834878179034
  0
LINE
  5
3B97
330
18
100
AcDbEntity
  8
1
  6
Continuous
100
AcDbLine
 10
161.7775653537972
 20
62.52573640099218
 30
0.0
 11
161.7775653537972
 21
79.52573640099217
 31
0.0
  0
LINE
  5
3B98
330
18
100
AcDbEntity
  8
1
  6
Continuous
100
AcDbLine
 10
158.9793864816295
 20
62.52573640099218
 30
0.0
 11
158.9793864816295
 21
79.52573640099217
 31
0.0
  0
LINE
  5
3B9E
330
18
100
AcDbEntity
  8
4
  6
CENTER
 48
0.5
100
AcDbLine
 10
230.3504469618673
 20
101.022677211726
 30
0.0
 11
230.3504469618675
 21
41.0287955902582
 31
0.0
  0
LINE
  5
3BA7
330
18
100
AcDbEntity
  8
1
  6
Continuous
100
AcDbLine
 10
159.9793864816293
 20
80.52573640099216
 30
0.0
 11
262.2279479626677
 21
80.52573640099216
 31
0.0
  0
LINE
  5
3BA8
330
18
100
AcDbEntity
  8
1
  6
Continuous
100
AcDbLine
 10
173.3504469618674
 20
96.02267721172609
 30
0.0
 11
287.3504469618671
 21
96.02267721172609
 31
0.0
  0
LINE
  5
3BA9
330
18
100
AcDbEntity
  8
1
  6
Continuous
100
AcDbLine
 10
291.8504469618671
 20
94.02573640099227
 30
0.0
 11
168.8504469618674
 21
94.02573640099227
 31
0.0
  0
LINE
  5
3BAA
330
18
100
AcDbEntity
  8
1
  6
Continuous
100
AcDbLine
 10
294.8504469618672
 20
82.02573640099274
 30
0.0
 11
165.8504469618674
 21
82.02573640099183
 31
0.0
  0
ARC
  5
3BAC
330
18
100
AcDbEntity
  8
1
  6
Continuous
100
AcDbCircle
 10
168.8504469618674
 20
90.52573640099227
 30
0.0
 40
3.5
100
AcDbArc
 50
90.00000000000328
 51
180.0000000000032
  0
ARC
  5
3BAD
330
18
100
AcDbEntity
  8
1
  6
Continuous
100
AcDbCircle
 10
165.8504469618674
 20
82.52573640099219
 30
0.0
 40
0.5
100
AcDbArc
 50
180.0000000000032
 51
270.0
  0
ARC
  5
3BAF
330
18
100
AcDbEntity
  8
1
  6
Continuous
100
AcDbCircle
 10
159.9793864816293
 20
79.52573640099223
 30
0.0
 40
1.0
100
AcDbArc
 50
89.99999999999351
 51
180.0000000000032
  0
ARC
  5
3BB1
330
18
100
AcDbEntity
  8
1
  6
Continuous
100
AcDbCircle
 10
160.7775653537974
 20
79.52573640099223
 30
0.0
 40
1.0
100
AcDbArc
 50
359.9999999999967
 51
90.00000000000651
  0
LINE
  5
3BB2
330
18
100
AcDbEntity
  8
1
  6
Continuous
100
AcDbLine
 10
165.3504469618674
 20
90.52573640099227
 30
0.0
 11
165.3504469618674
 21
82.52573640099219
 31
0.0
  0
ARC
  5
3BB3
330
18
100
AcDbEntity
  8
1
  6
Continuous
100
AcDbCircle
 10
171.5504469618674
 20
93.9422124929016
 30
0.0
 40
0.1
100
AcDbArc
 50
99.81651218209336
 51
123.3592588574854
  0
ARC
  5
3BB4
330
18
100
AcDbEntity
  8
1
  6
Continuous
100
AcDbCircle
 10
171.1583119608301
 20
96.20853774338129
 30
0.0
 40
2.2
100
AcDbArc
 50
279.8165121820933
 51
355.1537580446022
  0
LINE
  5
3BB8
330
18
100
AcDbEntity
  8
1
  6
Continuous
100
AcDbLine
 10
218.3504469618674
 20
81.14099662875242
 30
0.0
 11
218.3504469618674
 21
80.52573640099216
 31
0.0
  0
ARC
  5
3BB9
330
18
100
AcDbEntity
  8
1
  6
Continuous
100
AcDbCircle
 10
216.3504469618674
 20
81.14099662875242
 30
0.0
 40
2.0
100
AcDbArc
 50
0.0
 51
26.25518723123013
  0
LINE
  5
3BCA
330
18
100
AcDbEntity
  8
4
  6
CENTER
 48
0.5
100
AcDbLine
 10
153.9793864816296
 20
71.02573640099213
 30
0.0
 11
303.3504469618673
 21
71.02573640099234
 31
0.0
  0
LINE
  5
3BCC
330
18
100
AcDbEntity
  8
1
  6
Continuous
100
AcDbLine
 10
294.8504469618672
 20
60.02573640099218
 30
0.0
 11
165.8504469618674
 21
60.02573640099218
 31
0.0
  0
LINE
  5
3BCD
330
18
100
AcDbEntity
  8
1
  6
Continuous
100
AcDbLine
 10
291.8504469618671
 20
48.02573640099206
 30
0.0
 11
168.8504469618674
 21
48.02573640099206
 31
0.0
  0
LINE
  5
3BCE
330
18
100
AcDbEntity
  8
1
  6
Continuous
100
AcDbLine
 10
173.3504469618674
 20
46.02879559025825
 30
0.0
 11
287.3504469618671
 21
46.02879559025825
 31
0.0
  0
LINE
  5
3BD4
330
18
100
AcDbEntity
  8
1
  6
Continuous
100
AcDbLine
 10
165.3504469618674
 20
51.52573640099205
 30
0.0
 11
165.3504469618674
 21
59.52573640099217
 31
0.0
  0
ARC
  5
3BD7
330
18
100
AcDbEntity
  8
1
  6
Continuous
100
AcDbCircle
 10
165.8504469618674
 20
59.52573640099217
 30
0.0
 40
0.5
100
AcDbArc
 50
90.00000000000328
 51
180.0000000000032
  0
ARC
  5
3BD9
330
18
100
AcDbEntity
  8
1
  6
Continuous
100
AcDbCircle
 10
159.9793864816293
 20
62.5257364009921
 30
0.0
 40
1.0
100
AcDbArc
 50
179.9999999999966
 51
270.0000000000065
  0
ARC
  5
3BDB
330
18
100
AcDbEntity
  8
1
  6
Continuous
100
AcDbCircle
 10
160.7775653537974
 20
62.5257364009921
 30
0.0
 40
1.0
100
AcDbArc
 50
269.9999999999934
 51
0.00000000000322
  0
ARC
  5
3BE1
330
18
100
AcDbEntity
  8
1
  6
Continuous
100
AcDbCircle
 10
168.8504469618674
 20
51.52573640099205
 30
0.0
 40
3.5
100
AcDbArc
 50
180.0000000000032
 51
270.0
  0
ARC
  5
3BE2
330
18
100
AcDbEntity
  8
1
  6
Continuous
100
AcDbCircle
 10
171.5504469618674
 20
48.10926030908275
 30
0.0
 40
0.1
100
AcDbArc
 50
236.6407411425172
 51
260.1834878179098
  0
ARC
  5
3BE3
330
18
100
AcDbEntity
  8
1
  6
Continuous
100
AcDbCircle
 10
171.1583119608301
 20
45.84293505860308
 30
0.0
 40
2.2
100
AcDbArc
 50
4.8462419553978
 51
80.18348781790662
  0
LINE
  5
3BE7
330
18
100
AcDbEntity
  8
1
  6
Continuous
100
AcDbLine
 10
218.3504469618674
 20
60.91047617323181
 30
0.0
 11
218.3504469618674
 21
61.52573640099217
 31
0.0
  0
ARC
  5
3BE8
330
18
100
AcDbEntity
  8
1
  6
Continuous
100
AcDbCircle
 10
216.3504469618674
 20
60.91047617323181
 30
0.0
 40
2.0
100
AcDbArc
 50
333.7448127687698
 51
0.0
  0
LINE
  5
3D55
330
18
100
AcDbEntity
  8
5
  6
PHANTOM
 48
0.3
100
AcDbLine
 10
663.5399920666193
 20
284.2052245797882
 30
0.0
 11
632.3178992004764
 21
284.2052245797882
 31
0.0
  0
LINE
  5
3D56
330
18
100
AcDbEntity
  8
5
  6
PHANTOM
 48
0.3
100
AcDbLine
 10
632.4373218231685
 20
281.2052245797882
 30
0.0
 11
663.5399920666193
 21
281.2052245797882
 31
0.0
  0
ARC
  5
3D57
330
18
100
AcDbEntity
  8
5
  6
PHANTOM
 48
0.3
100
AcDbCircle
 10
663.5399920666193
 20
281.5052245797882
 30
0.0
 40
0.3
100
AcDbArc
 50
270.0
 51
345.2075029585923
  0
ARC
  5
3D58
330
18
100
AcDbEntity
  8
5
  6
PHANTOM
 48
0.3
100
AcDbCircle
 10
663.5399920666193
 20
283.9052245797882
 30
0.0
 40
0.3
100
AcDbArc
 50
14.79249704140763
 51
90.0
  0
ARC
  5
3D59
330
18
100
AcDbEntity
  8
5
  6
PHANTOM
 48
0.3
100
AcDbCircle
 10
658.995764959619
 20
282.7052245797882
 30
0.0
 40
5.0
100
AcDbArc
 50
345.2075029585987
 51
14.79249704140133
  0
LINE
  5
3D5B
330
18
100
AcDbEntity
  8
4
  6
CENTER
 48
0.5
100
AcDbLine
 10
543.9957649596191
 20
351.2052245797881
 30
0.0
 11
543.9957649596188
 21
222.705224579788
 31
0.0
  0
LINE
  5
3D5C
330
18
100
AcDbEntity
  8
4
  6
CENTER
 48
0.5
100
AcDbLine
 10
578.995764959619
 20
174.2052245797881
 30
0.0
 11
578.995764959619
 21
314.2052245797882
 31
0.0
  0
CIRCLE
  5
3D5D
330
18
100
AcDbEntity
  8
1
  6
Continuous
100
AcDbCircle
 10
578.995764959619
 20
244.2052245797881
 30
0.0
 40
65.0
  0
CIRCLE
  5
3D5E
330
18
100
AcDbEntity
  8
1
  6
Continuous
100
AcDbCircle
 10
578.995764959619
 20
244.2052245797881
 30
0.0
 40
59.0
  0
CIRCLE
  5
3D5F
330
18
100
AcDbEntity
  8
1
  6
Continuous
100
AcDbCircle
 10
578.995764959619
 20
244.2052245797881
 30
0.0
 40
58.9
  0
CIRCLE
  5
3D60
330
18
100
AcDbEntity
  8
1
  6
Continuous
100
AcDbCircle
 10
578.995764959619
 20
244.2052245797881
 30
0.0
 40
57.0
  0
LINE
  5
3D61
330
18
100
AcDbEntity
  8
1
  6
Continuous
100
AcDbLine
 10
650.3521423947454
 20
244.553706721529
 30
0.0
 11
640.7039850991544
 21
274.247681594247
 31
0.0
  0
LINE
  5
3D62
330
18
100
AcDbEntity
  8
1
  6
Continuous
100
AcDbLine
 10
637.4013459179844
 20
274.7039558988638
 30
0.0
 11
647.4989728458601
 21
243.626655738404
 31
0.0
  0
LINE
  5
3D63
330
18
100
AcDbEntity
  8
4
  6
CENTER
 48
0.5
100
AcDbLine
 10
648.995764959619
 20
244.2052245797881
 30
0.0
 11
508.995764959619
 21
244.2052245797881
 31
0.0
  0
ARC
  5
3D66
330
18
100
AcDbEntity
  8
1
  6
Continuous
100
AcDbCircle
 10
647.5213142179402
 20
248.4119980316046
 30
0.0
 40
4.999999999999999
100
AcDbArc
 50
273.2075029585971
 51
302.7924970414
  0
ARC
  5
3D67
330
18
100
AcDbEntity
  8
1
  6
Continuous
100
AcDbCircle
 10
647.7842898007486
 20
243.7193608367166
 30
0.0
 40
0.2999999999999999
100
AcDbArc
 50
197.9999999999984
 51
273.2075029585938
  0
ARC
  5
3D68
330
18
100
AcDbEntity
  8
1
  6
Continuous
100
AcDbCircle
 10
650.0668254398568
 20
244.4610016232164
 30
0.0
 40
0.2999999999999999
100
AcDbArc
 50
302.7924970414072
 51
17.99999999999848
  0
ARC
  5
3D6E
330
18
100
AcDbEntity
  8
5
  6
PHANTOM
 48
0.3
100
AcDbCircle
 10
615.995764959619
 20
297.0375063779464
 30
0.0
 40
0.9999999999999998
100
AcDbArc
 50
54.99531531885637
 51
115.3792236831982
  0
ARC
  5
3D6F
330
18
100
AcDbEntity
  8
5
  6
PHANTOM
 48
0.3
100
AcDbCircle
 10
578.995764959619
 20
244.2052245797881
 30
0.0
 40
65.49999999999997
100
AcDbArc
 50
38.88337579942175
 51
54.99531531885902
  0
ARC
  5
3D70
330
18
100
AcDbEntity
  8
1
  6
Continuous
100
AcDbCircle
 10
643.5571546480397
 20
275.1747325773719
 30
0.0
 40
2.999999999999998
100
AcDbArc
 50
146.8833757994232
 51
197.9999999999984
  0
ARC
  5
3D71
330
18
100
AcDbEntity
  8
1
  6
Continuous
100
AcDbCircle
 10
640.25451546687
 20
275.6310068819886
 30
0.0
 40
2.999999999999998
100
AcDbArc
 50
145.6391957872441
 51
198.0000000000001
  0
ARC
  5
3D72
330
18
100
AcDbEntity
  8
5
  6
PHANTOM
 48
0.3
100
AcDbCircle
 10
647.2827006314791
 20
273.2052245797882
 30
0.0
 40
7.999999999999997
100
AcDbArc
 50
90.0
 51
177.9746429996168
  0
ARC
  5
3D73
330
18
100
AcDbEntity
  8
1
  6
Continuous
100
AcDbCircle
 10
634.8667413795342
 20
256.6161227401043
 30
0.0
 40
7.999999999999996
100
AcDbArc
 50
17.9999999999995
 51
27.30957586327364
  0
ARC
  5
3D74
330
18
100
AcDbEntity
  8
5
  6
PHANTOM
 48
0.3
100
AcDbCircle
 10
627.2951949531357
 20
273.9120603161466
 30
0.0
 40
11.99999999999999
100
AcDbArc
 50
341.0957026611844
 51
357.9746429996168
  0
ARC
  5
3D75
330
18
100
AcDbEntity
  8
1
  6
Continuous
100
AcDbCircle
 10
586.1842787905811
 20
312.5993650517814
 30
0.0
 40
62.49999999999997
100
AcDbArc
 50
325.6391957872442
 51
342.3609386674189
  0
ARC
  5
3D76
330
18
100
AcDbEntity
  8
1
  6
Continuous
100
AcDbCircle
 10
586.1842787905811
 20
312.5993650517814
 30
0.0
 40
65.49999999999996
100
AcDbArc
 50
326.8833757994205
 51
342.9953153188583
  0
ARC
  5
3D77
330
18
100
AcDbEntity
  8
1
  6
Continuous
100
AcDbCircle
 10
637.7691676220629
 20
292.1237882773979
 30
0.0
 40
6.999999999999996
100
AcDbArc
 50
235.7178886406352
 51
338.3503997152809
  0
ARC
  5
3D78
330
18
100
AcDbEntity
  8
1
  6
Continuous
100
AcDbCircle
 10
646.6987822194708
 20
293.3576168267654
 30
0.0
 40
0.9999999999999996
100
AcDbArc
 50
107.9999999999994
 51
162.3609386674189
  0
LINE
  5
3D79
330
18
100
AcDbEntity
  8
1
  6
Continuous
100
AcDbLine
 10
647.5553764629592
 20
294.6874033923929
 30
0.0
 11
646.3897652250957
 21
294.3086733430607
 31
0.0
  0
ARC
  5
3D7A
330
18
100
AcDbEntity
  8
1
  6
Continuous
100
AcDbCircle
 10
647.8643934573342
 20
293.7363468760978
 30
0.0
 40
0.9999999999999996
100
AcDbArc
 50
342.9953153188583
 51
107.9999999999984
  0
ARC
  5
3D7B
330
18
100
AcDbEntity
  8
1
  6
Continuous
100
AcDbCircle
 10
625.3772694080502
 20
273.945755967669
 30
0.0
 40
14.99999999999999
100
AcDbArc
 50
55.71788864063528
 51
86.98117989156475
  0
ARC
  5
3D7C
330
18
100
AcDbEntity
  8
5
  6
PHANTOM
 48
0.3
100
AcDbCircle
 10
632.3178992004762
 20
287.2052245797882
 30
0.0
 40
2.999999999999998
100
AcDbArc
 50
218.8833757994217
 51
270.0
  0
LINE
  5
3D7D
330
18
100
AcDbEntity
  8
1
  6
Continuous
100
AcDbLine
 10
528.995764959619
 20
314.7052245797882
 30
0.0
 11
528.995764959619
 21
289.2052245797882
 31
0.0
  0
ARC
  5
3D7E
330
18
100
AcDbEntity
  8
1
  6
Continuous
100
AcDbCircle
 10
578.9941888495323
 20
244.2052245797881
 30
0.0
 40
68.0
100
AcDbArc
 50
111.3894833261854
 51
131.6597654460936
  0
LINE
  5
3D7F
330
18
100
AcDbEntity
  8
1
  6
Continuous
100
AcDbLine
 10
533.7941888495325
 20
295.0083740440046
 30
0.0
 11
533.7941888495325
 21
290.9166792333019
 31
0.0
  0
ARC
  5
3D80
330
18
100
AcDbEntity
  8
1
  6
Continuous
100
AcDbCircle
 10
518.9957649596188
 20
289.2052245797882
 30
0.0
 40
10.0
100
AcDbArc
 50
323.1301023541533
 51
359.9999999999967
  0
LINE
  5
3D81
330
18
100
AcDbEntity
  8
1
  6
Continuous
100
AcDbLine
 10
557.995764959619
 20
315.7052245797881
 30
0.0
 11
529.995764959619
 21
315.7052245797881
 31
0.0
  0
ARC
  5
3D85
330
18
100
AcDbEntity
  8
1
  6
Continuous
100
AcDbCircle
 10
564.9957649596188
 20
313.8112588009676
 30
0.0
 40
6.0
100
AcDbArc
 50
180.0
 51
281.3722824362344
  0
LINE
  5
3D86
330
18
100
AcDbEntity
  8
1
  6
Continuous
100
AcDbLine
 10
554.1941888495323
 20
307.5215731350473
 30
0.0
 11
554.1941888495323
 21
304.2958923159053
 31
0.0
  0
LINE
  5
3D87
330
18
100
AcDbEntity
  8
1
  6
Continuous
100
AcDbLine
 10
558.995764959619
 20
314.7052245797882
 30
0.0
 11
558.995764959619
 21
313.8112588009676
 31
0.0
  0
ARC
  5
3D8B
330
18
100
AcDbEntity
  8
1
  6
Continuous
100
AcDbCircle
 10
557.995764959619
 20
314.7052245797882
 30
0.0
 40
1.0
100
AcDbArc
 50
359.9999999999967
 51
89.99999999999676
  0
ARC
  5
3D95
330
18
100
AcDbEntity
  8
1
  6
Continuous
100
AcDbCircle
 10
529.995764959619
 20
314.7052245797882
 30
0.0
 40
1.0
100
AcDbArc
 50
90.0
 51
180.0
  0
ARC
  5
3E5B
330
18
100
AcDbEntity
  8
1
  6
Continuous
100
AcDbCircle
 10
294.8504469618672
 20
82.52573640099219
 30
0.0
 40
0.5
100
AcDbArc
 50
270.0
 51
359.9999999999967
  0
ARC
  5
3E5C
330
18
100
AcDbEntity
  8
1
  6
Continuous
100
AcDbCircle
 10
291.8504469618671
 20
90.52573640099227
 30
0.0
 40
3.5
100
AcDbArc
 50
359.9999999999967
 51
89.99999999999673
  0
LINE
  5
3E5D
330
18
100
AcDbEntity
  8
1
  6
Continuous
100
AcDbLine
 10
295.3504469618671
 20
90.52573640099227
 30
0.0
 11
295.3504469618671
 21
82.52573640099219
 31
0.0
  0
ARC
  5
3E5E
330
18
100
AcDbEntity
  8
1
  6
Continuous
100
AcDbCircle
 10
289.5425819629044
 20
96.20853774338129
 30
0.0
 40
2.2
100
AcDbArc
 50
184.8462419553978
 51
260.1834878179066
  0
ARC
  5
3E5F
330
18
100
AcDbEntity
  8
1
  6
Continuous
100
AcDbCircle
 10
289.1504469618671
 20
93.9422124929016
 30
0.0
 40
0.1
100
AcDbArc
 50
56.64074114251454
 51
80.18348781790662
  0
ARC
  5
3E60
330
18
100
AcDbEntity
  8
1
  6
Continuous
100
AcDbCircle
 10
291.8504469618671
 20
51.52573640099205
 30
0.0
 40
3.5
100
AcDbArc
 50
270.0
 51
359.9999999999967
  0
ARC
  5
3E61
330
18
100
AcDbEntity
  8
1
  6
Continuous
100
AcDbCircle
 10
289.5425819629044
 20
45.84293505860308
 30
0.0
 40
2.2
100
AcDbArc
 50
99.81651218209336
 51
175.1537580446021
  0
ARC
  5
3E62
330
18
100
AcDbEntity
  8
1
  6
Continuous
100
AcDbCircle
 10
289.1504469618671
 20
48.10926030908275
 30
0.0
 40
0.1
100
AcDbArc
 50
279.8165121820902
 51
303.3592588574827
  0
ARC
  5
3E63
330
18
100
AcDbEntity
  8
1
  6
Continuous
100
AcDbCircle
 10
294.8504469618672
 20
59.52573640099217
 30
0.0
 40
0.5
100
AcDbArc
 50
359.9999999999967
 51
89.99999999999673
  0
LINE
  5
3E64
330
18
100
AcDbEntity
  8
1
  6
Continuous
100
AcDbLine
 10
295.3504469618671
 20
51.52573640099205
 30
0.0
 11
295.3504469618671
 21
59.52573640099217
 31
0.0
  0
ARC
  5
3E65
330
18
100
AcDbEntity
  8
1
  6
Continuous
100
AcDbCircle
 10
244.3504469618671
 20
60.91047617323181
 30
0.0
 40
2.0
100
AcDbArc
 50
180.0
 51
206.2551872312301
  0
LINE
  5
3E66
330
18
100
AcDbEntity
  8
1
  6
Continuous
100
AcDbLine
 10
242.3504469618671
 20
60.91047617323181
 30
0.0
 11
242.3504469618671
 21
61.52573640099217
 31
0.0
  0
ARC
  5
3E67
330
18
100
AcDbEntity
  8
1
  6
Continuous
100
AcDbCircle
 10
244.3504469618671
 20
81.14099662875242
 30
0.0
 40
2.0
100
AcDbArc
 50
153.7448127687698
 51
180.0
  0
LINE
  5
3E68
330
18
100
AcDbEntity
  8
1
  6
Continuous
100
AcDbLine
 10
242.3504469618671
 20
81.14099662875242
 30
0.0
 11
242.3504469618671
 21
80.52573640099216
 31
0.0
  0
LINE
  5
3EC3
330
18
100
AcDbEntity
  8
1
  6
Continuous
100
AcDbLine
 10
413.1731059607431
 20
244.2052245797881
 30
0.0
 11
396.1731059607432
 21
244.2052245797881
 31
0.0
  0
ARC
  5
3EC4
330
18
100
AcDbEntity
  8
1
  6
Continuous
100
AcDbCircle
 10
396.1731059607432
 20
245.2052245797881
 30
0.0
 40
1.0
100
AcDbArc
 50
180.0000000000032
 51
270.0
  0
ARC
  5
3EC5
330
18
100
AcDbEntity
  8
1
  6
Continuous
100
AcDbCircle
 10
413.1731059607431
 20
245.2052245797881
 30
0.0
 40
1.0
100
AcDbArc
 50
270.0
 51
0.000000000000007
  0
LINE
  5
3EC6
330
18
100
AcDbEntity
  8
1
  6
Continuous
100
AcDbLine
 10
413.1731059607431
 20
229.205224579788
 30
0.0
 11
396.1731059607432
 21
229.205224579788
 31
0.0
  0
LINE
  5
3EC7
330
18
100
AcDbEntity
  8
1
  6
Continuous
100
AcDbLine
 10
413.6731059607432
 20
231.7052245797881
 30
0.0
 11
395.6731059607432
 21
231.7052245797881
 31
0.0
  0
LINE
  5
3EC8
330
18
100
AcDbEntity
  8
1
  6
Continuous
100
AcDbLine
 10
394.6731059607432
 20
259.705224579788
 30
0.0
 11
394.6731059607432
 21
232.705224579788
 31
0.0
  0
LINE
  5
3EC9
330
18
100
AcDbEntity
  8
1
  6
Continuous
100
AcDbLine
 10
414.6731059607433
 20
259.705224579788
 30
0.0
 11
414.673105960743
 21
232.705224579788
 31
0.0
  0
LINE
  5
3ECA
330
18
100
AcDbEntity
  8
1
  6
Continuous
100
AcDbLine
 10
414.6731059607433
 20
259.705224579788
 30
0.0
 11
414.1731059607431
 21
259.705224579788
 31
0.0
  0
ARC
  5
3ECC
330
18
100
AcDbEntity
  8
1
  6
Continuous
100
AcDbCircle
 10
395.6731059607432
 20
232.705224579788
 30
0.0
 40
1.0
100
AcDbArc
 50
180.0
 51
270.0
  0
ARC
  5
3ECD
330
18
100
AcDbEntity
  8
1
  6
Continuous
100
AcDbCircle
 10
413.6731059607432
 20
232.705224579788
 30
0.0
 40
1.0
100
AcDbArc
 50
270.0
 51
359.9999999999996
  0
LINE
  5
3ECE
330
18
100
AcDbEntity
  8
1
  6
Continuous
100
AcDbLine
 10
395.1731059607432
 20
259.705224579788
 30
0.0
 11
394.6731059607432
 21
259.705224579788
 31
0.0
  0
LINE
  5
3ECF
330
18
100
AcDbEntity
  8
1
  6
Continuous
100
AcDbLine
 10
395.1731059607432
 20
245.2052245797881
 30
0.0
 11
395.1731059607432
 21
295.0083740440044
 31
0.0
  0
LINE
  5
3ED0
330
18
100
AcDbEntity
  8
1
  6
Continuous
100
AcDbLine
 10
414.1731059607431
 20
231.8391991760035
 30
0.0
 11
414.1731059607431
 21
228.705224579788
 31
0.0
  0
ARC
  5
3ED1
330
18
100
AcDbEntity
  8
1
  6
Continuous
100
AcDbCircle
 10
396.1731059607432
 20
230.205224579788
 30
0.0
 40
1.0
100
AcDbArc
 50
180.0000000000032
 51
270.0
  0
ARC
  5
3ED2
330
18
100
AcDbEntity
  8
1
  6
Continuous
100
AcDbCircle
 10
413.1731059607431
 20
230.205224579788
 30
0.0
 40
1.0
100
AcDbArc
 50
270.0
 51
0.000000000000007
  0
LINE
  5
3ED3
330
18
100
AcDbEntity
  8
1
  6
Continuous
100
AcDbLine
 10
406.673105960743
 20
237.205224579788
 30
0.0
 11
402.673105960743
 21
237.205224579788
 31
0.0
  0
LINE
  5
3ED4
330
18
100
AcDbEntity
  8
1
  6
Continuous
100
AcDbLine
 10
295.3504469618676
 20
80.02573640099219
 30
0.0
 11
295.3504469618677
 21
62.02573640099222
 31
0.0
  0
ARC
  5
3ED5
330
18
100
AcDbEntity
  8
1
  6
Continuous
100
AcDbCircle
 10
294.8504469618677
 20
80.02573640099219
 30
0.0
 40
0.5
100
AcDbArc
 50
0.0
 51
90.0
  0
ARC
  5
3ED6
330
18
100
AcDbEntity
  8
1
  6
Continuous
100
AcDbCircle
 10
294.8504469618677
 20
62.02573640099222
 30
0.0
 40
0.5
100
AcDbArc
 50
270.0
 51
359.9999999999998
  0
LINE
  5
3ED7
330
18
100
AcDbEntity
  8
1
  6
Continuous
100
AcDbLine
 10
293.3504469618677
 20
80.02573640099219
 30
0.0
 11
293.3504469618677
 21
62.02573640099222
 31
0.0
  0
ARC
  5
3ED8
330
18
100
AcDbEntity
  8
1
  6
Continuous
100
AcDbCircle
 10
293.8504469618674
 20
62.02573640099222
 30
0.0
 40
0.5
100
AcDbArc
 50
180.0000000000001
 51
269.9999999999999
  0
ARC
  5
3ED9
330
18
100
AcDbEntity
  8
1
  6
Continuous
100
AcDbCircle
 10
293.8504469618676
 20
80.02573640099219
 30
0.0
 40
0.5
100
AcDbArc
 50
90.0
 51
180.0
  0
LINE
  5
3EDA
330
18
100
AcDbEntity
  8
1
  6
Continuous
100
AcDbLine
 10
275.148405933
 20
69.02573640099229
 30
0.0
 11
293.3504469618677
 21
69.0257364009924
 31
0.0
  0
LINE
  5
3EDB
330
18
100
AcDbEntity
  8
1
  6
Continuous
100
AcDbLine
 10
275.148405933
 20
73.0257364009923
 30
0.0
 11
293.3504469618677
 21
73.0257364009924
 31
0.0
  0
ARC
  5
3EDC
330
18
100
AcDbEntity
  8
1
  6
Continuous
100
AcDbCircle
 10
165.8504469618669
 20
80.02573640099219
 30
0.0
 40
0.5
100
AcDbArc
 50
90.0
 51
180.0
  0
LINE
  5
3EDD
330
18
100
AcDbEntity
  8
1
  6
Continuous
100
AcDbLine
 10
165.3504469618669
 20
80.02573640099219
 30
0.0
 11
165.3504469618668
 21
62.02573640099222
 31
0.0
  0
ARC
  5
3EDE
330
18
100
AcDbEntity
  8
1
  6
Continuous
100
AcDbCircle
 10
165.8504469618668
 20
62.02573640099222
 30
0.0
 40
0.5
100
AcDbArc
 50
180.0000000000001
 51
269.9999999999999
  0
LINE
  5
3EE2
330
18
100
AcDbEntity
  8
1
  6
Continuous
100
AcDbLine
 10
167.4795474931945
 20
80.02573640099219
 30
0.0
 11
167.4795474931944
 21
62.02573640099227
 31
0.0
  0
ARC
  5
3EE3
330
18
100
AcDbEntity
  8
1
  6
Continuous
100
AcDbCircle
 10
167.9795474931944
 20
62.02573640099227
 30
0.0
 40
0.5
100
AcDbArc
 50
180.0000000000001
 51
269.9999999999999
  0
ARC
  5
3EE4
330
18
100
AcDbEntity
  8
1
  6
Continuous
100
AcDbCircle
 10
167.9795474931945
 20
80.02573640099219
 30
0.0
 40
0.5
100
AcDbArc
 50
90.0
 51
180.0
  0
LINE
  5
3EE5
330
18
100
AcDbEntity
  8
1
  6
Continuous
100
AcDbLine
 10
247.3504469618676
 20
80.02573640099219
 30
0.0
 11
247.3504469618675
 21
62.02573640099222
 31
0.0
  0
LINE
  5
3EE6
330
18
100
AcDbEntity
  8
1
  6
Continuous
100
AcDbLine
 10
213.3504469618676
 20
80.52573640099216
 30
0.0
 11
213.3504469618675
 21
61.52573640099217
 31
0.0
  0
LINE
  5
3EE7
330
18
100
AcDbEntity
  8
1
  6
Continuous
100
AcDbLine
 10
294.8504469618677
 20
61.52573640099229
 30
0.0
 11
268.4729459610663
 21
61.52573640099229
 31
0.0
  0
ARC
  5
3EE9
330
18
100
AcDbEntity
  8
1
  6
Continuous
100
AcDbCircle
 10
246.8504469618676
 20
80.02573640099219
 30
0.0
 40
0.5
100
AcDbArc
 50
359.9999999999996
 51
90.0
  0
ARC
  5
3EEA
330
18
100
AcDbEntity
  8
1
  6
Continuous
100
AcDbCircle
 10
246.8504469618675
 20
62.02573640099222
 30
0.0
 40
0.5
100
AcDbArc
 50
270.0000000000001
 51
0.0
  0
LINE
  5
3EEB
330
18
100
AcDbEntity
  8
1
  6
Continuous
100
AcDbLine
 10
211.8504469618676
 20
80.52573640099216
 30
0.0
 11
211.8504469618675
 21
61.52573640099217
 31
0.0
  0
LINE
  5
3EEE
330
18
100
AcDbEntity
  8
1
  6
Continuous
100
AcDbLine
 10
253.850446961867
 20
77.02573640099223
 30
0.0
 11
253.8504469618669
 21
73.0257364009923
 31
0.0
  0
LINE
  5
3EEF
330
18
100
AcDbEntity
  8
1
  6
Continuous
100
AcDbLine
 10
257.3504469618672
 20
73.0257364009923
 30
0.0
 11
257.3504469618673
 21
69.02573640099229
 31
0.0
  0
LINE
  5
3EF0
330
18
100
AcDbEntity
  8
1
  6
Continuous
100
AcDbLine
 10
253.850446961867
 20
73.0257364009923
 30
0.0
 11
257.3504469618672
 21
73.0257364009923
 31
0.0
  0
LINE
  5
3EF1
330
18
100
AcDbEntity
  8
1
  6
Continuous
100
AcDbLine
 10
253.8504469618669
 20
69.02573640099229
 30
0.0
 11
257.3504469618673
 21
69.02573640099229
 31
0.0
  0
LINE
  5
3EF2
330
18
100
AcDbEntity
  8
1
  6
Continuous
100
AcDbLine
 10
247.3504469618675
 20
77.02573640099227
 30
0.0
 11
253.850446961867
 21
77.02573640099223
 31
0.0
  0
LINE
  5
3EF3
330
18
100
AcDbEntity
  8
1
  6
Continuous
100
AcDbLine
 10
247.3504469618675
 20
65.02573640099227
 30
0.0
 11
253.8504469618669
 21
65.02573640099227
 31
0.0
  0
LINE
  5
3EF4
330
18
100
AcDbEntity
  8
1
  6
Continuous
100
AcDbLine
 10
253.8504469618669
 20
69.02573640099229
 30
0.0
 11
253.8504469618669
 21
65.02573640099227
 31
0.0
  0
LINE
  5
3EF5
330
18
100
AcDbEntity
  8
1
  6
Continuous
100
AcDbLine
 10
257.0080301692184
 20
65.51174673308992
 30
0.0
 11
258.2793791500016
 21
66.78309571387297
 31
0.0
  0
LINE
  5
3EF6
330
18
100
AcDbEntity
  8
1
  6
Continuous
100
AcDbLine
 10
259.8364572939646
 20
62.68331960834377
 30
0.0
 11
261.107806274748
 21
63.95466858912686
 31
0.0
  0
LINE
  5
3EF7
330
18
100
AcDbEntity
  8
1
  6
Continuous
100
AcDbLine
 10
258.2793791500016
 20
66.78309571387297
 30
0.0
 11
261.107806274748
 21
63.95466858912686
 31
0.0
  0
LINE
  5
3EF8
330
18
100
AcDbEntity
  8
1
  6
Continuous
100
AcDbLine
 10
263.3504469618673
 20
61.22777742985954
 30
0.0
 11
263.3504469618671
 21
63.02573640099229
 31
0.0
  0
LINE
  5
3EF9
330
18
100
AcDbEntity
  8
1
  6
Continuous
100
AcDbLine
 10
267.3504469618673
 20
61.2277774298596
 30
0.0
 11
267.3504469618671
 21
63.0257364009924
 31
0.0
  0
LINE
  5
3EFA
330
18
100
AcDbEntity
  8
1
  6
Continuous
100
AcDbLine
 10
263.3504469618671
 20
63.02573640099229
 30
0.0
 11
267.3504469618671
 21
63.0257364009924
 31
0.0
  0
LINE
  5
3EFB
330
18
100
AcDbEntity
  8
1
  6
Continuous
100
AcDbLine
 10
270.8644366297695
 20
62.68331960834365
 30
0.0
 11
269.5930876489865
 21
63.95466858912675
 31
0.0
  0
LINE
  5
3EFC
330
18
100
AcDbEntity
  8
1
  6
Continuous
100
AcDbLine
 10
273.6928637545157
 20
65.51174673308981
 30
0.0
 11
272.4215147737325
 21
66.78309571387308
 31
0.0
  0
LINE
  5
3EFD
330
18
100
AcDbEntity
  8
1
  6
Continuous
100
AcDbLine
 10
269.5930876489865
 20
63.95466858912675
 30
0.0
 11
272.4215147737325
 21
66.78309571387308
 31
0.0
  0
LINE
  5
3EFE
330
18
100
AcDbEntity
  8
1
  6
Continuous
100
AcDbLine
 10
275.148405933
 20
69.02573640099229
 30
0.0
 11
273.3504469618671
 21
69.02573640099229
 31
0.0
  0
LINE
  5
3EFF
330
18
100
AcDbEntity
  8
1
  6
Continuous
100
AcDbLine
 10
275.148405933
 20
73.0257364009923
 30
0.0
 11
273.3504469618671
 21
73.0257364009923
 31
0.0
  0
LINE
  5
3F00
330
18
100
AcDbEntity
  8
1
  6
Continuous
100
AcDbLine
 10
273.3504469618671
 20
69.02573640099229
 30
0.0
 11
273.3504469618671
 21
73.0257364009923
 31
0.0
  0
LINE
  5
3F01
330
18
100
AcDbEntity
  8
1
  6
Continuous
100
AcDbLine
 10
273.6928637545157
 20
76.53972606889476
 30
0.0
 11
272.4215147737327
 21
75.26837708811149
 31
0.0
  0
LINE
  5
3F02
330
18
100
AcDbEntity
  8
1
  6
Continuous
100
AcDbLine
 10
270.8644366297695
 20
79.36815319364086
 30
0.0
 11
269.5930876489863
 21
78.09680421285759
 31
0.0
  0
LINE
  5
3F03
330
18
100
AcDbEntity
  8
1
  6
Continuous
100
AcDbLine
 10
272.4215147737327
 20
75.26837708811149
 30
0.0
 11
269.5930876489863
 21
78.09680421285759
 31
0.0
  0
LINE
  5
3F04
330
18
100
AcDbEntity
  8
1
  6
Continuous
100
AcDbLine
 10
267.3504469618673
 20
80.82369537212498
 30
0.0
 11
267.3504469618671
 21
79.0257364009923
 31
0.0
  0
LINE
  5
3F05
330
18
100
AcDbEntity
  8
1
  6
Continuous
100
AcDbLine
 10
263.3504469618673
 20
80.82369537212503
 30
0.0
 11
263.3504469618671
 21
79.02573640099217
 31
0.0
  0
LINE
  5
3F06
330
18
100
AcDbEntity
  8
1
  6
Continuous
100
AcDbLine
 10
267.3504469618671
 20
79.0257364009923
 30
0.0
 11
263.3504469618671
 21
79.02573640099217
 31
0.0
  0
LINE
  5
3F07
330
18
100
AcDbEntity
  8
1
  6
Continuous
100
AcDbLine
 10
259.8364572939646
 20
79.36815319364081
 30
0.0
 11
261.1078062747478
 21
78.0968042128578
 31
0.0
  0
LINE
  5
3F08
330
18
100
AcDbEntity
  8
1
  6
Continuous
100
AcDbLine
 10
257.0080301692186
 20
76.53972606889465
 30
0.0
 11
258.2793791500017
 21
75.26837708811149
 31
0.0
  0
LINE
  5
3F09
330
18
100
AcDbEntity
  8
1
  6
Continuous
100
AcDbLine
 10
261.1078062747478
 20
78.0968042128578
 30
0.0
 11
258.2793791500017
 21
75.26837708811149
 31
0.0
  0
ARC
  5
3F12
330
18
100
AcDbEntity
  8
1
  6
Continuous
100
AcDbCircle
 10
265.3504469618671
 20
71.0257364009923
 30
0.0
 40
9.999999999999991
100
AcDbArc
 50
191.5369590328156
 51
168.4630409671846
  0
LINE
  5
3F13
330
18
100
AcDbEntity
  8
1
  6
Continuous
100
AcDbLine
 10
270.3504469618674
 20
68.13898505504403
 30
0.0
 11
270.3504469618672
 21
73.91248774694044
 31
0.0
  0
LINE
  5
3F14
330
18
100
AcDbEntity
  8
1
  6
Continuous
100
AcDbLine
 10
260.350446961867
 20
68.13898505504424
 30
0.0
 11
260.3504469618671
 21
73.91248774694044
 31
0.0
  0
LINE
  5
3F17
330
18
100
AcDbEntity
  8
1
  6
Continuous
100
AcDbLine
 10
270.3504469618674
 20
73.91248774694066
 30
0.0
 11
265.3504469618671
 21
76.79923909288868
 31
0.0
  0
LINE
  5
3F18
330
18
100
AcDbEntity
  8
1
  6
Continuous
100
AcDbLine
 10
265.350446961867
 20
65.25223370909611
 30
0.0
 11
260.350446961867
 21
68.13898505504424
 31
0.0
  0
LINE
  5
3F19
330
18
100
AcDbEntity
  8
1
  6
Continuous
100
AcDbLine
 10
265.3504469618669
 20
76.79923909288891
 30
0.0
 11
260.3504469618669
 21
73.91248774694054
 31
0.0
  0
LINE
  5
3F1A
330
18
100
AcDbEntity
  8
1
  6
Continuous
100
AcDbLine
 10
270.3504469618668
 20
68.13898505504415
 30
0.0
 11
265.3504469618668
 21
65.25223370909611
 31
0.0
  0
CIRCLE
  5
3F21
330
18
100
AcDbEntity
  8
1
  6
Continuous
100
AcDbCircle
 10
265.3504469618671
 20
71.0257364009923
 30
0.0
 40
5.000000000000113
  0
CIRCLE
  5
3F22
330
18
100
AcDbEntity
  8
1
  6
Continuous
100
AcDbCircle
 10
265.3504469618671
 20
71.0257364009923
 30
0.0
 40
3.500000000000113
  0
LINE
  5
3F23
330
18
100
AcDbEntity
  8
1
  6
Continuous
100
AcDbLine
 10
268.4729459610666
 20
80.52573640099216
 30
0.0
 11
294.8504469618677
 21
80.52573640099216
 31
0.0
  0
LINE
  5
3F24
330
18
100
AcDbEntity
  8
1
  6
Continuous
100
AcDbLine
 10
262.227947962668
 20
61.52573640099229
 30
0.0
 11
159.9793864816293
 21
61.52573640099205
 31
0.0
  0
LINE
  5
3F53
330
18
100
AcDbEntity
  8
1
  6
Continuous
100
AcDbLine
 10
402.673105960743
 20
231.7052245797881
 30
0.0
 11
402.673105960743
 21
237.205224579788
 31
0.0
  0
LINE
  5
3F54
330
18
100
AcDbEntity
  8
1
  6
Continuous
100
AcDbLine
 10
406.673105960743
 20
231.7052245797881
 30
0.0
 11
406.673105960743
 21
237.205224579788
 31
0.0
  0
LINE
  5
3F55
330
18
100
AcDbEntity
  8
1
  6
Continuous
100
AcDbLine
 10
399.1591162928407
 20
231.7052245797881
 30
0.0
 11
399.1591162928407
 21
237.205224579788
 31
0.0
  0
LINE
  5
3F56
330
18
100
AcDbEntity
  8
1
  6
Continuous
100
AcDbLine
 10
396.3306891680945
 20
231.7052245797881
 30
0.0
 11
396.3306891680945
 21
237.205224579788
 31
0.0
  0
LINE
  5
3F58
330
18
100
AcDbEntity
  8
1
  6
Continuous
100
AcDbLine
 10
399.1591162928407
 20
237.205224579788
 30
0.0
 11
396.3306891680945
 21
237.205224579788
 31
0.0
  0
LINE
  5
3F59
330
18
100
AcDbEntity
  8
1
  6
Continuous
100
AcDbLine
 10
410.1870956286457
 20
237.205224579788
 30
0.0
 11
413.0155227533918
 21
237.205224579788
 31
0.0
  0
LINE
  5
3F5A
330
18
100
AcDbEntity
  8
1
  6
Continuous
100
AcDbLine
 10
413.0155227533918
 20
231.7052245797881
 30
0.0
 11
413.0155227533918
 21
237.205224579788
 31
0.0
  0
LINE
  5
3F5B
330
18
100
AcDbEntity
  8
1
  6
Continuous
100
AcDbLine
 10
410.1870956286457
 20
231.7052245797881
 30
0.0
 11
410.1870956286457
 21
237.205224579788
 31
0.0
  0
LINE
  5
4E2D
330
18
100
AcDbEntity
  8
1
  6
Continuous
100
AcDbLine
 10
292.8902769899687
 20
450.3847127585839
 30
0.0
 11
276.9586337281114
 21
450.3847127585839
 31
0.0
  0
LINE
  5
4E2E
330
18
100
AcDbEntity
  8
1
  6
Continuous
100
AcDbLine
 10
276.9586337281113
 20
431.3847127585839
 30
0.0
 11
292.8902769899689
 21
431.3847127585839
 31
0.0
  0
CIRCLE
  5
4E34
330
18
100
AcDbEntity
  8
1
  6
Continuous
100
AcDbCircle
 10
265.3504469618674
 20
440.884712758584
 30
0.0
 40
15.0
  0
LINE
  5
4E37
330
18
100
AcDbEntity
  8
1
  6
Continuous
100
AcDbLine
 10
294.8504469618677
 20
451.8847127585839
 30
0.0
 11
275.5484859890526
 21
451.8847127585839
 31
0.0
  0
LINE
  5
4E38
330
18
100
AcDbEntity
  8
1
  6
Continuous
100
AcDbLine
 10
294.8504469618677
 20
429.8847127585832
 30
0.0
 11
275.5484859890523
 21
429.8847127585832
 31
0.0
  0
LINE
  5
4E41
330
18
100
AcDbEntity
  8
2
  6
Continuous
100
AcDbLine
 10
260.2974469618676
 20
346.1522245797882
 30
0.0
 11
260.2974469618676
 21
325.2052245797881
 31
0.0
  0
LINE
  5
4E42
330
18
100
AcDbEntity
  8
2
  6
Continuous
100
AcDbLine
 10
270.4034469618671
 20
346.1522245797882
 30
0.0
 11
270.4034469618671
 21
325.2052245797881
 31
0.0
  0
LINE
  5
4E43
330
18
100
AcDbEntity
  8
1
  6
Continuous
100
AcDbLine
 10
259.3504469618674
 20
324.2052245797881
 30
0.0
 11
259.3504469618674
 21
345.2052245797881
 31
0.0
  0
LINE
  5
4E44
330
18
100
AcDbEntity
  8
1
  6
Continuous
100
AcDbLine
 10
271.3504469618674
 20
345.2052245797881
 30
0.0
 11
271.3504469618674
 21
324.2052245797881
 31
0.0
  0
LINE
  5
4E45
330
18
100
AcDbEntity
  8
1
  6
Continuous
100
AcDbLine
 10
259.3504469618674
 20
325.2052245797881
 30
0.0
 11
271.3504469618674
 21
325.2052245797881
 31
0.0
  0
LINE
  5
4E46
330
18
100
AcDbEntity
  8
1
  6
Continuous
100
AcDbLine
 10
253.3504469618673
 20
316.2052245797881
 30
0.0
 11
277.3504469618674
 21
316.2052245797881
 31
0.0
  0
LINE
  5
4E47
330
18
100
AcDbEntity
  8
1
  6
Continuous
100
AcDbLine
 10
253.3504469618673
 20
324.2052245797881
 30
0.0
 11
277.3504469618674
 21
324.2052245797881
 31
0.0
  0
ARC
  5
4E48
330
18
100
AcDbEntity
  8
1
  6
Continuous
100
AcDbCircle
 10
266.6303749618673
 20
320.2052245797881
 30
0.0
 40
9.0
100
AcDbArc
 50
153.6122000000215
 51
206.3878000000161
  0
LINE
  5
4E49
330
18
100
AcDbEntity
  8
1
  6
Continuous
100
AcDbLine
 10
252.8504469618673
 20
323.7052245797881
 30
0.0
 11
252.8504469618673
 21
316.7052245797882
 31
0.0
  0
LINE
  5
4E4A
330
18
100
AcDbEntity
  8
1
  6
Continuous
100
AcDbLine
 10
254.8504469618673
 20
315.905224579788
 30
0.0
 11
254.8504469618673
 21
315.7052245797881
 31
0.0
  0
ARC
  5
4E4B
330
18
100
AcDbEntity
  8
1
  6
Continuous
100
AcDbCircle
 10
253.3504469618673
 20
316.7052245797882
 30
0.0
 40
0.5
100
AcDbArc
 50
180.0000000000195
 51
270.0
  0
ARC
  5
4E4E
330
18
100
AcDbEntity
  8
1
  6
Continuous
100
AcDbCircle
 10
255.1504469618673
 20
315.905224579788
 30
0.0
 40
0.3
100
AcDbArc
 50
90.0
 51
180.0000000000032
  0
ARC
  5
4E4F
330
18
100
AcDbEntity
  8
1
  6
Continuous
100
AcDbCircle
 10
253.3504469618673
 20
323.7052245797881
 30
0.0
 40
0.5
100
AcDbArc
 50
90.00000000003256
 51
180.0000000000195
  0
LINE
  5
4E50
330
18
100
AcDbEntity
  8
1
  6
Continuous
100
AcDbLine
 10
277.8504469618674
 20
316.7052245797882
 30
0.0
 11
277.8504469618674
 21
323.7052245797881
 31
0.0
  0
ARC
  5
4E51
330
18
100
AcDbEntity
  8
1
  6
Continuous
100
AcDbCircle
 10
264.0705199618673
 20
320.2052245797881
 30
0.0
 40
9.0
100
AcDbArc
 50
333.6122000000536
 51
26.38780000004831
  0
LINE
  5
4E52
330
18
100
AcDbEntity
  8
1
  6
Continuous
100
AcDbLine
 10
275.8504469618674
 20
315.9052245797882
 30
0.0
 11
275.8504469618674
 21
315.7052245797881
 31
0.0
  0
ARC
  5
4E53
330
18
100
AcDbEntity
  8
1
  6
Continuous
100
AcDbCircle
 10
275.5504469618673
 20
315.9052245797882
 30
0.0
 40
0.3
100
AcDbArc
 50
0.0
 51
90.0
  0
ARC
  5
4E54
330
18
100
AcDbEntity
  8
1
  6
Continuous
100
AcDbCircle
 10
277.3504469618674
 20
316.7052245797882
 30
0.0
 40
0.5
100
AcDbArc
 50
270.0000000000651
 51
0.0000000000521102
  0
ARC
  5
4E55
330
18
100
AcDbEntity
  8
1
  6
Continuous
100
AcDbCircle
 10
277.3504469618674
 20
323.7052245797881
 30
0.0
 40
0.5
100
AcDbArc
 50
0.0000000000521102
 51
90.00000000003256
  0
LINE
  5
4E56
330
18
100
AcDbEntity
  8
1
  6
Continuous
100
AcDbLine
 10
260.3504469618674
 20
346.2052245797881
 30
0.0
 11
270.3504469618674
 21
346.2052245797881
 31
0.0
  0
LINE
  5
4E57
330
18
100
AcDbEntity
  8
1
  6
Continuous
100
AcDbLine
 10
259.3504469618674
 20
345.2052245797881
 30
0.0
 11
271.3504469618674
 21
345.2052245797881
 31
0.0
  0
LINE
  5
4E58
330
18
100
AcDbEntity
  8
1
  6
Continuous
100
AcDbLine
 10
259.3504469618674
 20
345.2052245797881
 30
0.0
 11
260.3504469618674
 21
346.2052245797881
 31
0.0
  0
LINE
  5
4E59
330
18
100
AcDbEntity
  8
1
  6
Continuous
100
AcDbLine
 10
270.3504469618674
 20
346.2052245797881
 30
0.0
 11
271.3504469618674
 21
345.2052245797881
 31
0.0
  0
ARC
  5
4E6B
330
18
100
AcDbEntity
  8
1
  6
Continuous
100
AcDbCircle
 10
265.3504469618674
 20
440.884712758584
 30
0.0
 40
12.5
100
AcDbArc
 50
302.8598799999557
 51
57.14011999993759
  0
ARC
  5
4E6C
330
18
100
AcDbEntity
  8
1
  6
Continuous
100
AcDbCircle
 10
265.3504469618674
 20
440.884712758584
 30
0.0
 40
12.0
100
AcDbArc
 50
298.9550239999573
 51
61.04497599993765
  0
LINE
  5
4E6D
330
18
100
AcDbEntity
  8
4
  6
CENTER
 48
0.5
100
AcDbLine
 10
265.3504469618674
 20
460.8847127585839
 30
0.0
 11
265.3504469618674
 21
420.884712758584
 31
0.0
  0
LINE
  5
4E6E
330
18
100
AcDbEntity
  8
1
  6
Continuous
100
AcDbLine
 10
242.3504469618678
 20
450.9999729863443
 30
0.0
 11
242.3504469618678
 21
450.384712758584
 31
0.0
  0
ARC
  5
4E6F
330
18
100
AcDbEntity
  8
1
  6
Continuous
100
AcDbCircle
 10
265.3504469618674
 20
440.884712758584
 30
0.0
 40
12.5
100
AcDbArc
 50
122.8598799999937
 51
237.1401199999683
  0
ARC
  5
4E70
330
18
100
AcDbEntity
  8
1
  6
Continuous
100
AcDbCircle
 10
265.3504469618674
 20
440.884712758584
 30
0.0
 40
12.0
100
AcDbArc
 50
118.9550239999937
 51
241.0449759999683
  0
LINE
  5
4E75
330
18
100
AcDbEntity
  8
1
  6
Continuous
100
AcDbLine
 10
242.3504469618678
 20
430.7694525308238
 30
0.0
 11
242.3504469618678
 21
431.3847127585841
 31
0.0
  0
ARC
  5
4E76
330
18
100
AcDbEntity
  8
1
  6
Continuous
100
AcDbCircle
 10
244.3504469618678
 20
430.7694525308238
 30
0.0
 40
2.0
100
AcDbArc
 50
180.0
 51
206.25518723123
  0
LINE
  5
4E77
330
18
100
AcDbEntity
  8
1
  6
Continuous
100
AcDbLine
 10
272.1327769618674
 20
430.3847127585838
 30
0.0
 11
258.5681169618674
 21
430.3847127585838
 31
0.0
  0
CIRCLE
  5
4E78
330
18
100
AcDbEntity
  8
2
  6
Continuous
100
AcDbCircle
 10
265.3504469618674
 20
440.884712758584
 30
0.0
 40
5.052999999999999
  0
CIRCLE
  5
4E79
330
18
100
AcDbEntity
  8
1
  6
Continuous
100
AcDbCircle
 10
265.3504469618674
 20
440.884712758584
 30
0.0
 40
6.0
  0
ARC
  5
4E7B
330
18
100
AcDbEntity
  8
1
  6
Continuous
100
AcDbCircle
 10
244.3504469618678
 20
450.9999729863443
 30
0.0
 40
2.0
100
AcDbArc
 50
153.7448127687699
 51
180.0
  0
LINE
  5
4E7C
330
18
100
AcDbEntity
  8
1
  6
Continuous
100
AcDbLine
 10
258.5681169618674
 20
451.3847127585839
 30
0.0
 11
272.1327769618674
 21
451.3847127585839
 31
0.0
  0
LINE
  5
4E8A
330
18
100
AcDbEntity
  8
1
  6
Continuous
100
AcDbLine
 10
295.3504469618678
 20
421.384712758584
 30
0.0
 11
295.3504469618678
 21
429.384712758584
 31
0.0
  0
ARC
  5
4E8B
330
18
100
AcDbEntity
  8
1
  6
Continuous
100
AcDbCircle
 10
291.8504469618678
 20
421.384712758584
 30
0.0
 40
3.5
100
AcDbArc
 50
270.0
 51
0.0000000000032569
  0
ARC
  5
4E8C
330
18
100
AcDbEntity
  8
1
  6
Continuous
100
AcDbCircle
 10
289.5425819629051
 20
415.701911416195
 30
0.0
 40
2.2
100
AcDbArc
 50
99.81651218209016
 51
175.1537580446021
  0
ARC
  5
4E8D
330
18
100
AcDbEntity
  8
1
  6
Continuous
100
AcDbCircle
 10
289.1504469618678
 20
417.9682366666746
 30
0.0
 40
0.1
100
AcDbArc
 50
279.8165121820901
 51
303.3592588574855
  0
ARC
  5
4E8E
330
18
100
AcDbEntity
  8
1
  6
Continuous
100
AcDbCircle
 10
294.8504469618678
 20
429.384712758584
 30
0.0
 40
0.5
100
AcDbArc
 50
0.0000000000032569
 51
90.0
  0
LINE
  5
4E8F
330
18
100
AcDbEntity
  8
1
  6
Continuous
100
AcDbLine
 10
293.8902769899687
 20
449.3847127585838
 30
0.0
 11
293.8902769899689
 21
432.384712758584
 31
0.0
  0
ARC
  5
4E90
330
18
100
AcDbEntity
  8
1
  6
Continuous
100
AcDbCircle
 10
292.8902769899689
 20
432.384712758584
 30
0.0
 40
1.0
100
AcDbArc
 50
270.0
 51
0.0
  0
ARC
  5
4E91
330
18
100
AcDbEntity
  8
1
  6
Continuous
100
AcDbCircle
 10
292.8902769899687
 20
449.3847127585838
 30
0.0
 40
1.0
100
AcDbArc
 50
0.0
 51
90.0
  0
ARC
  5
4E92
330
18
100
AcDbEntity
  8
1
  6
Continuous
100
AcDbCircle
 10
291.8504469618678
 20
460.3847127585842
 30
0.0
 40
3.5
100
AcDbArc
 50
0.0000000000032569
 51
90.0
  0
ARC
  5
4E93
330
18
100
AcDbEntity
  8
1
  6
Continuous
100
AcDbCircle
 10
294.8504469618678
 20
452.3847127585841
 30
0.0
 40
0.5
100
AcDbArc
 50
270.0
 51
0.0000000000032569
  0
ARC
  5
4E94
330
18
100
AcDbEntity
  8
1
  6
Continuous
100
AcDbCircle
 10
289.5425819629051
 20
466.0675141009732
 30
0.0
 40
2.2
100
AcDbArc
 50
184.8462419553977
 51
260.1834878179098
  0
ARC
  5
4E95
330
18
100
AcDbEntity
  8
1
  6
Continuous
100
AcDbCircle
 10
289.1504469618678
 20
463.8011888504935
 30
0.0
 40
0.1
100
AcDbArc
 50
56.64074114251454
 51
80.18348781790983
  0
LINE
  5
4E96
330
18
100
AcDbEntity
  8
1
  6
Continuous
100
AcDbLine
 10
295.3504469618678
 20
460.3847127585842
 30
0.0
 11
295.3504469618678
 21
452.3847127585841
 31
0.0
  0
LINE
  5
4ECE
330
18
100
AcDbEntity
  8
1
  6
Continuous
100
AcDbLine
 10
410.673105960743
 20
324.205224579788
 30
0.0
 11
410.673105960743
 21
345.205224579788
 31
0.0
  0
LINE
  5
4ECF
330
18
100
AcDbEntity
  8
1
  6
Continuous
100
AcDbLine
 10
398.6731059607432
 20
345.205224579788
 30
0.0
 11
398.6731059607432
 21
324.205224579788
 31
0.0
  0
LINE
  5
4ED0
330
18
100
AcDbEntity
  8
2
  6
Continuous
100
AcDbLine
 10
409.7261059607431
 20
346.1522245797882
 30
0.0
 11
409.7261059607431
 21
325.205224579788
 31
0.0
  0
LINE
  5
4ED1
330
18
100
AcDbEntity
  8
2
  6
Continuous
100
AcDbLine
 10
399.6201059607433
 20
346.1522245797882
 30
0.0
 11
399.6201059607433
 21
325.205224579788
 31
0.0
  0
LINE
  5
4ED2
330
18
100
AcDbEntity
  8
1
  6
Continuous
100
AcDbLine
 10
394.4731059607434
 20
316.205224579788
 30
0.0
 11
414.8731059607432
 21
316.205224579788
 31
0.0
  0
LINE
  5
4ED3
330
18
100
AcDbEntity
  8
1
  6
Continuous
100
AcDbLine
 10
410.673105960743
 20
325.205224579788
 30
0.0
 11
398.6731059607432
 21
325.205224579788
 31
0.0
  0
LINE
  5
4ED4
330
18
100
AcDbEntity
  8
1
  6
Continuous
100
AcDbLine
 10
395.1731059607432
 20
324.205224579788
 30
0.0
 11
414.1731059607431
 21
324.205224579788
 31
0.0
  0
LINE
  5
4ED5
330
18
100
AcDbEntity
  8
1
  6
Continuous
100
AcDbLine
 10
394.1731059607432
 20
317.2052245797881
 30
0.0
 11
394.1731059607432
 21
323.2052245797881
 31
0.0
  0
ARC
  5
4ED6
330
18
100
AcDbEntity
  8
1
  6
Continuous
100
AcDbCircle
 10
394.4731059607434
 20
315.9052245797881
 30
0.0
 40
0.3
100
AcDbArc
 50
90.0
 51
180.0
  0
LINE
  5
4ED7
330
18
100
AcDbEntity
  8
1
  6
Continuous
100
AcDbLine
 10
394.1731059607432
 20
315.9052245797881
 30
0.0
 11
394.1731059607432
 21
315.705224579788
 31
0.0
  0
ARC
  5
4ED8
330
18
100
AcDbEntity
  8
1
  6
Continuous
100
AcDbCircle
 10
395.1731059607432
 20
317.2052245797881
 30
0.0
 40
1.0
100
AcDbArc
 50
180.0
 51
270.0
  0
ARC
  5
4ED9
330
18
100
AcDbEntity
  8
1
  6
Continuous
100
AcDbCircle
 10
395.1731059607432
 20
323.2052245797881
 30
0.0
 40
1.0
100
AcDbArc
 50
90.0
 51
180.0
  0
LINE
  5
4EDA
330
18
100
AcDbEntity
  8
1
  6
Continuous
100
AcDbLine
 10
415.173105960743
 20
317.2052245797881
 30
0.0
 11
415.173105960743
 21
323.2052245797881
 31
0.0
  0
ARC
  5
4EDB
330
18
100
AcDbEntity
  8
1
  6
Continuous
100
AcDbCircle
 10
414.8731059607432
 20
315.9052245797881
 30
0.0
 40
0.3
100
AcDbArc
 50
0.0
 51
90.0
  0
LINE
  5
4EDC
330
18
100
AcDbEntity
  8
1
  6
Continuous
100
AcDbLine
 10
415.173105960743
 20
315.9052245797881
 30
0.0
 11
415.173105960743
 21
315.705224579788
 31
0.0
  0
ARC
  5
4EDD
330
18
100
AcDbEntity
  8
1
  6
Continuous
100
AcDbCircle
 10
414.1731059607431
 20
317.2052245797881
 30
0.0
 40
1.0
100
AcDbArc
 50
270.0
 51
359.9999999999967
  0
ARC
  5
4EE0
330
18
100
AcDbEntity
  8
1
  6
Continuous
100
AcDbCircle
 10
414.1731059607431
 20
323.2052245797881
 30
0.0
 40
1.0
100
AcDbArc
 50
0.0
 51
90.0
  0
LINE
  5
4EE1
330
18
100
AcDbEntity
  8
1
  6
Continuous
100
AcDbLine
 10
409.6731059607432
 20
346.2052245797881
 30
0.0
 11
399.6731059607432
 21
346.2052245797881
 31
0.0
  0
LINE
  5
4EE2
330
18
100
AcDbEntity
  8
1
  6
Continuous
100
AcDbLine
 10
410.673105960743
 20
345.205224579788
 30
0.0
 11
398.6731059607432
 21
345.205224579788
 31
0.0
  0
LINE
  5
4EE3
330
18
100
AcDbEntity
  8
1
  6
Continuous
100
AcDbLine
 10
399.6731059607432
 20
346.2052245797881
 30
0.0
 11
398.6731059607432
 21
345.205224579788
 31
0.0
  0
LINE
  5
4EE4
330
18
100
AcDbEntity
  8
1
  6
Continuous
100
AcDbLine
 10
410.673105960743
 20
345.205224579788
 30
0.0
 11
409.6731059607432
 21
346.2052245797881
 31
0.0
  0
LINE
  5
54B6
330
18
100
AcDbEntity
  8
1
  6
Continuous
100
AcDbLine
 10
538.995764959619
 20
346.2052245797881
 30
0.0
 11
548.995764959619
 21
346.2052245797881
 31
0.0
  0
LINE
  5
54B7
330
18
100
AcDbEntity
  8
1
  6
Continuous
100
AcDbLine
 10
537.995764959619
 20
345.2052245797881
 30
0.0
 11
549.995764959619
 21
345.2052245797881
 31
0.0
  0
LINE
  5
54B8
330
18
100
AcDbEntity
  8
1
  6
Continuous
100
AcDbLine
 10
537.995764959619
 20
325.2052245797881
 30
0.0
 11
549.995764959619
 21
325.2052245797881
 31
0.0
  0
LINE
  5
54B9
330
18
100
AcDbEntity
  8
2
  6
Continuous
100
AcDbLine
 10
538.9427649596192
 20
346.1522245797882
 30
0.0
 11
538.9427649596192
 21
325.2052245797881
 31
0.0
  0
LINE
  5
54BA
330
18
100
AcDbEntity
  8
1
  6
Continuous
100
AcDbLine
 10
537.995764959619
 20
324.2052245797881
 30
0.0
 11
537.995764959619
 21
345.2052245797881
 31
0.0
  0
ARC
  5
54BB
330
18
100
AcDbEntity
  8
1
  6
Continuous
100
AcDbCircle
 10
545.2756929596189
 20
320.2052245797881
 30
0.0
 40
9.0
100
AcDbArc
 50
153.6122000000215
 51
206.3878000000161
  0
LINE
  5
54BC
330
18
100
AcDbEntity
  8
1
  6
Continuous
100
AcDbLine
 10
537.995764959619
 20
345.2052245797881
 30
0.0
 11
538.995764959619
 21
346.2052245797881
 31
0.0
  0
LINE
  5
54BD
330
18
100
AcDbEntity
  8
2
  6
Continuous
100
AcDbLine
 10
549.0487649596188
 20
346.1522245797882
 30
0.0
 11
549.0487649596188
 21
325.2052245797881
 31
0.0
  0
LINE
  5
54BE
330
18
100
AcDbEntity
  8
1
  6
Continuous
100
AcDbLine
 10
549.995764959619
 20
345.2052245797881
 30
0.0
 11
549.995764959619
 21
324.2052245797881
 31
0.0
  0
ARC
  5
54BF
330
18
100
AcDbEntity
  8
1
  6
Continuous
100
AcDbCircle
 10
542.7158379596189
 20
320.2052245797881
 30
0.0
 40
9.0
100
AcDbArc
 50
333.6122000000536
 51
26.38780000004831
  0
LINE
  5
54C0
330
18
100
AcDbEntity
  8
1
  6
Continuous
100
AcDbLine
 10
556.4957649596188
 20
316.7052245797882
 30
0.0
 11
556.4957649596188
 21
323.7052245797881
 31
0.0
  0
LINE
  5
54C1
330
18
100
AcDbEntity
  8
1
  6
Continuous
100
AcDbLine
 10
554.495764959619
 20
315.9052245797882
 30
0.0
 11
554.495764959619
 21
315.7052245797881
 31
0.0
  0
ARC
  5
54C2
330
18
100
AcDbEntity
  8
1
  6
Continuous
100
AcDbCircle
 10
554.1957649596189
 20
315.9052245797882
 30
0.0
 40
0.3
100
AcDbArc
 50
0.0
 51
90.0
  0
ARC
  5
54C3
330
18
100
AcDbEntity
  8
1
  6
Continuous
100
AcDbCircle
 10
555.9957649596189
 20
316.7052245797882
 30
0.0
 40
0.5
100
AcDbArc
 50
270.0000000000651
 51
0.0000000000521102
  0
ARC
  5
54C4
330
18
100
AcDbEntity
  8
1
  6
Continuous
100
AcDbCircle
 10
555.9957649596189
 20
323.7052245797881
 30
0.0
 40
0.5
100
AcDbArc
 50
0.0000000000521102
 51
90.00000000003256
  0
LINE
  5
54C5
330
18
100
AcDbEntity
  8
1
  6
Continuous
100
AcDbLine
 10
548.995764959619
 20
346.2052245797881
 30
0.0
 11
549.995764959619
 21
345.2052245797881
 31
0.0
  0
LINE
  5
54C6
330
18
100
AcDbEntity
  8
1
  6
Continuous
100
AcDbLine
 10
531.9957649596187
 20
324.2052245797881
 30
0.0
 11
555.9957649596189
 21
324.2052245797881
 31
0.0
  0
LINE
  5
54C7
330
18
100
AcDbEntity
  8
1
  6
Continuous
100
AcDbLine
 10
531.9957649596187
 20
316.2052245797881
 30
0.0
 11
555.9957649596189
 21
316.2052245797881
 31
0.0
  0
LINE
  5
54C8
330
18
100
AcDbEntity
  8
1
  6
Continuous
100
AcDbLine
 10
533.4957649596189
 20
315.905224579788
 30
0.0
 11
533.4957649596189
 21
315.7052245797881
 31
0.0
  0
ARC
  5
54C9
330
18
100
AcDbEntity
  8
1
  6
Continuous
100
AcDbCircle
 10
533.7957649596189
 20
315.905224579788
 30
0.0
 40
0.3
100
AcDbArc
 50
90.0
 51
180.0000000000032
  0
LINE
  5
54CA
330
18
100
AcDbEntity
  8
1
  6
Continuous
100
AcDbLine
 10
531.4957649596188
 20
323.7052245797881
 30
0.0
 11
531.4957649596188
 21
316.7052245797882
 31
0.0
  0
ARC
  5
54CB
330
18
100
AcDbEntity
  8
1
  6
Continuous
100
AcDbCircle
 10
531.9957649596187
 20
316.7052245797882
 30
0.0
 40
0.5
100
AcDbArc
 50
180.0000000000195
 51
270.0
  0
ARC
  5
54CC
330
18
100
AcDbEntity
  8
1
  6
Continuous
100
AcDbCircle
 10
531.9957649596187
 20
323.7052245797881
 30
0.0
 40
0.5
100
AcDbArc
 50
90.00000000003256
 51
180.0000000000195
  0
LINE
  5
554C
330
18
100
AcDbEntity
  8
1
  6
Continuous
100
AcDbLine
 10
58.65672748275392
 20
325.205224579788
 30
0.0
 11
46.65672748275392
 21
325.205224579788
 31
0.0
  0
LINE
  5
554D
330
18
100
AcDbEntity
  8
1
  6
Continuous
100
AcDbLine
 10
58.65672748275392
 20
345.205224579788
 30
0.0
 11
46.65672748275392
 21
345.205224579788
 31
0.0
  0
LINE
  5
554E
330
18
100
AcDbEntity
  8
1
  6
Continuous
100
AcDbLine
 10
57.65672748275392
 20
346.2052245797881
 30
0.0
 11
47.65672748275392
 21
346.2052245797881
 31
0.0
  0
LINE
  5
554F
330
18
100
AcDbEntity
  8
2
  6
Continuous
100
AcDbLine
 10
47.60372748275403
 20
346.1522245797882
 30
0.0
 11
47.60372748275403
 21
325.205224579788
 31
0.0
  0
LINE
  5
5550
330
18
100
AcDbEntity
  8
1
  6
Continuous
100
AcDbLine
 10
46.65672748275392
 20
345.205224579788
 30
0.0
 11
46.65672748275392
 21
324.205224579788
 31
0.0
  0
LINE
  5
5551
330
18
100
AcDbEntity
  8
1
  6
Continuous
100
AcDbLine
 10
47.65672748275392
 20
346.2052245797881
 30
0.0
 11
46.65672748275392
 21
345.205224579788
 31
0.0
  0
LINE
  5
5552
330
18
100
AcDbEntity
  8
2
  6
Continuous
100
AcDbLine
 10
57.70972748275379
 20
346.1522245797882
 30
0.0
 11
57.70972748275379
 21
325.205224579788
 31
0.0
  0
LINE
  5
5553
330
18
100
AcDbEntity
  8
1
  6
Continuous
100
AcDbLine
 10
58.65672748275392
 20
324.205224579788
 30
0.0
 11
58.65672748275392
 21
345.205224579788
 31
0.0
  0
LINE
  5
5554
330
18
100
AcDbEntity
  8
1
  6
Continuous
100
AcDbLine
 10
58.65672748275392
 20
345.205224579788
 30
0.0
 11
57.65672748275392
 21
346.2052245797881
 31
0.0
  0
LINE
  5
5555
330
18
100
AcDbEntity
  8
1
  6
Continuous
100
AcDbLine
 10
43.15672748275392
 20
324.205224579788
 30
0.0
 11
62.15672748275392
 21
324.205224579788
 31
0.0
  0
LINE
  5
5556
330
18
100
AcDbEntity
  8
1
  6
Continuous
100
AcDbLine
 10
63.15672748275392
 20
317.2052245797881
 30
0.0
 11
63.15672748275392
 21
323.2052245797881
 31
0.0
  0
ARC
  5
5557
330
18
100
AcDbEntity
  8
1
  6
Continuous
100
AcDbCircle
 10
62.15672748275392
 20
323.2052245797881
 30
0.0
 40
1.0
100
AcDbArc
 50
0.0
 51
90.0
  0
ARC
  5
5558
330
18
100
AcDbEntity
  8
1
  6
Continuous
100
AcDbCircle
 10
43.15672748275392
 20
317.2052245797881
 30
0.0
 40
1.0
100
AcDbArc
 50
180.0
 51
270.0
  0
ARC
  5
5559
330
18
100
AcDbEntity
  8
1
  6
Continuous
100
AcDbCircle
 10
43.15672748275392
 20
323.2052245797881
 30
0.0
 40
1.0
100
AcDbArc
 50
90.0
 51
180.0
  0
LINE
  5
555A
330
18
100
AcDbEntity
  8
1
  6
Continuous
100
AcDbLine
 10
42.15672748275392
 20
315.9052245797881
 30
0.0
 11
42.15672748275392
 21
315.705224579788
 31
0.0
  0
ARC
  5
555B
330
18
100
AcDbEntity
  8
1
  6
Continuous
100
AcDbCircle
 10
42.4567274827541
 20
315.9052245797881
 30
0.0
 40
0.3
100
AcDbArc
 50
90.0
 51
180.0
  0
LINE
  5
555C
330
18
100
AcDbEntity
  8
1
  6
Continuous
100
AcDbLine
 10
42.15672748275392
 20
317.2052245797881
 30
0.0
 11
42.15672748275392
 21
323.2052245797881
 31
0.0
  0
LINE
  5
555D
330
18
100
AcDbEntity
  8
1
  6
Continuous
100
AcDbLine
 10
42.4567274827541
 20
316.205224579788
 30
0.0
 11
62.85672748275398
 21
316.205224579788
 31
0.0
  0
ARC
  5
555E
330
18
100
AcDbEntity
  8
1
  6
Continuous
100
AcDbCircle
 10
62.15672748275392
 20
317.2052245797881
 30
0.0
 40
1.0
100
AcDbArc
 50
270.0
 51
359.9999999999967
  0
LINE
  5
555F
330
18
100
AcDbEntity
  8
1
  6
Continuous
100
AcDbLine
 10
63.15672748275392
 20
315.9052245797881
 30
0.0
 11
63.15672748275392
 21
315.705224579788
 31
0.0
  0
ARC
  5
5560
330
18
100
AcDbEntity
  8
1
  6
Continuous
100
AcDbCircle
 10
62.85672748275398
 20
315.9052245797881
 30
0.0
 40
0.3
100
AcDbArc
 50
0.0
 51
90.0
  0
LINE
  5
5586
330
18
100
AcDbEntity
  8
4
  6
CENTER
 48
0.5
100
AcDbLine
 10
265.3504469618671
 20
91.02573640099228
 30
0.0
 11
265.3504469618671
 21
51.02573640099229
 31
0.0
  0
ARC
  5
562E
330
18
100
AcDbEntity
  8
1
  6
Continuous
100
AcDbCircle
 10
265.3504469618671
 20
71.0257364009923
 30
0.0
 40
15.0
100
AcDbArc
 50
132.8334280660661
 51
140.703519760813
  0
ARC
  5
562F
330
18
100
AcDbEntity
  8
1
  6
Continuous
100
AcDbCircle
 10
265.3504469618671
 20
71.0257364009923
 30
0.0
 40
15.0
100
AcDbArc
 50
219.2964802391876
 51
227.1665719339333
  0
ARC
  5
5630
330
18
100
AcDbEntity
  8
1
  6
Continuous
100
AcDbCircle
 10
265.3504469618671
 20
71.0257364009923
 30
0.0
 40
15.0
100
AcDbArc
 50
39.29648023918693
 51
47.16657193393468
  0
ARC
  5
5631
330
18
100
AcDbEntity
  8
1
  6
Continuous
100
AcDbCircle
 10
265.3504469618671
 20
71.0257364009923
 30
0.0
 40
15.0
100
AcDbArc
 50
312.8334280660666
 51
320.7035197608123
  0
ENDSEC
  0
SECTION
  2
OBJECTS
  0
DICTIONARY
  5
C
330
0
100
AcDbDictionary
281
     1
  3
ACAD_CIP_PREVIOUS_PRODUCT_INFO
350
5691
  3
ACAD_COLOR
350
5674
  3
ACAD_DETAILVIEWSTYLE
350
568D
  3
ACAD_GROUP
350
D
  3
ACAD_LAYOUT
350
94
  3
ACAD_MATERIAL
350
5642
  3
ACAD_MLEADERSTYLE
350
5689
  3
ACAD_MLINESTYLE
350
1B
  3
ACAD_PLOTSETTINGS
350
95
  3
ACAD_PLOTSTYLENAME
350
5640
  3
ACAD_SCALELIST
350
5677
  3
ACAD_SECTIONVIEWSTYLE
350
568B
  3
ACAD_TABLESTYLE
350
5675
  3
ACAD_VISUALSTYLE
350
565B
  3
ACDB_RECOMPOSE_DATA
350
5704
  3
AcDbVariableDictionary
350
56B4
  3
CONTENTDICTIONARY
350
3D
  3
DWGPROPS
350
5705
  0
DICTIONARY
  5
56A4
330
E
100
AcDbDictionary
280
     1
281
     1
  3
ADSK_XREC_LAYER_RECONCILED
360
56A5
  0
DICTIONARY
  5
56A6
330
4E
100
AcDbDictionary
280
     1
281
     1
  3
ADSK_XREC_LAYER_RECONCILED
360
56A7
  0
DICTIONARY
  5
56A8
330
4F
100
AcDbDictionary
280
     1
281
     1
  3
ADSK_XREC_LAYER_RECONCILED
360
56A9
  0
DICTIONARY
  5
56AA
330
50
100
AcDbDictionary
280
     1
281
     1
  3
ADSK_XREC_LAYER_RECONCILED
360
56AB
  0
DICTIONARY
  5
56AC
330
51
100
AcDbDictionary
280
     1
281
     1
  3
ADSK_XREC_LAYER_RECONCILED
360
56AD
  0
DICTIONARY
  5
56AE
330
52
100
AcDbDictionary
280
     1
281
     1
  3
ADSK_XREC_LAYER_RECONCILED
360
56AF
  0
DICTIONARY
  5
56B0
330
53
100
AcDbDictionary
280
     1
281
     1
  3
ADSK_XREC_LAYER_RECONCILED
360
56B1
  0
DICTIONARY
  5
56B2
330
54
100
AcDbDictionary
280
     1
281
     1
  3
ADSK_XREC_LAYER_RECONCILED
360
56B3
  0
DICTIONARY
  5
563B
330
18
100
AcDbDictionary
281
     1
  3
ACAD_LAYOUTSELFREF
350
563C
  0
DICTIONARY
  5
5639
330
15
100
AcDbDictionary
281
     1
  3
ACAD_LAYOUTSELFREF
350
563A
  0
XRECORD
  5
5691
102
{ACAD_REACTORS
330
C
102
}
330
C
100
AcDbXrecord
280
     1
300
ACDLT
300
2014
300
ACDLT_F_S
  0
DICTIONARY
  5
5674
102
{ACAD_REACTORS
330
C
102
}
330
C
100
AcDbDictionary
281
     1
  0
DICTIONARY
  5
568D
102
{ACAD_REACTORS
330
C
102
}
330
C
100
AcDbDictionary
281
     1
  3
Imperial24
350
568E
  0
DICTIONARY
  5
D
102
{ACAD_REACTORS
330
C
102
}
330
C
100
AcDbDictionary
281
     1
  0
DICTIONARY
  5
94
102
{ACAD_REACTORS
330
C
102
}
330
C
100
AcDbDictionary
281
     1
  3
Model
350
568F
  3
レイアウト1
350
5690
  0
DICTIONARY
  5
5642
102
{ACAD_REACTORS
330
C
102
}
330
C
100
AcDbDictionary
281
     1
  3
ByBlock
350
564B
  3
ByLayer
350
5643
  3
Global
350
5653
  0
DICTIONARY
  5
5689
102
{ACAD_REACTORS
330
C
102
}
330
C
100
AcDbDictionary
281
     1
  3
Standard
350
568A
  0
DICTIONARY
  5
1B
102
{ACAD_REACTORS
330
C
102
}
330
C
100
AcDbDictionary
281
     1
  3
STANDARD
350
1C
  0
DICTIONARY
  5
95
102
{ACAD_REACTORS
330
C
102
}
330
C
100
AcDbDictionary
281
     1
  0
ACDBDICTIONARYWDFLT
  5
5640
102
{ACAD_REACTORS
330
C
102
}
330
C
100
AcDbDictionary
281
     1
  3
Normal
350
5641
100
AcDbDictionaryWithDefault
340
5641
  0
DICTIONARY
  5
5677
102
{ACAD_REACTORS
330
C
102
}
330
C
100
AcDbDictionary
281
     1
  3
A0
350
5678
  3
A1
350
5679
  3
A2
350
567A
  3
A3
350
567B
  3
A4
350
567C
  3
A5
350
567D
  3
A6
350
567E
  3
A7
350
567F
  3
A8
350
5680
  3
A9
350
5681
  3
B0
350
5682
  3
B1
350
5683
  3
B2
350
5684
  3
B3
350
5685
  3
B4
350
5686
  3
B5
350
5687
  3
B6
350
5688
  0
DICTIONARY
  5
568B
102
{ACAD_REACTORS
330
C
102
}
330
C
100
AcDbDictionary
281
     1
  3
Imperial24
350
568C
  0
DICTIONARY
  5
5675
102
{ACAD_REACTORS
330
C
102
}
330
C
100
AcDbDictionary
281
     1
  3
Standard
350
5676
  0
DICTIONARY
  5
565B
102
{ACAD_REACTORS
330
C
102
}
330
C
100
AcDbDictionary
281
     1
  3
2dWireframe
350
5661
  3
Basic
350
5660
  3
Brighten
350
5667
  3
ColorChange
350
566B
  3
Conceptual
350
5664
  3
Dim
350
5666
  3
EdgeColorOff
350
5673
  3
Facepattern
350
566A
  3
Flat
350
565C
  3
FlatWithEdges
350
565D
  3
Gouraud
350
565E
  3
GouraudWithEdges
350
565F
  3
Hidden
350
5663
  3
JitterOff
350
5671
  3
Linepattern
350
5669
  3
OverhangOff
350
5672
  3
Realistic
350
5665
  3
Shaded
350
5670
  3
Shaded with edges
350
566F
  3
Shades of Gray
350
566C
  3
Sketchy
350
566D
  3
Thicken
350
5668
  3
Wireframe
350
5662
  3
X-Ray
350
566E
  0
XRECORD
  5
5704
102
{ACAD_REACTORS
330
C
102
}
330
C
100
AcDbXrecord
280
     1
 90
        1
330
5676
  0
DICTIONARY
  5
56B4
102
{ACAD_REACTORS
330
C
102
}
330
C
100
AcDbDictionary
281
     1
  3
CANNOSCALE
350
56B9
  3
CMLEADERSTYLE
350
56B6
  3
CTABLESTYLE
350
56B5
  3
CVIEWDETAILSTYLE
350
56B7
  3
CVIEWSECTIONSTYLE
350
56B8
  3
DIMASSOC
350
56BC
  3
INDEXCTL
350
56BB
  3
SORTENTS
350
56BA
  3
XCLIPFRAME
350
5702
  0
DICTIONARY
  5
3D
102
{ACAD_REACTORS
330
C
102
}
330
C
100
AcDbDictionary
281
     1
  0
XRECORD
  5
5705
102
{ACAD_REACTORS
330
C
102
}
330
C
100
AcDbXrecord
280
     1
  1
DWGPROPS COOKIE
  2

  3

  4

  6

  7

  8
Yoshitsune
  9

300
=
301
=
302
=
303
=
304
=
305
=
306
=
307
=
308
=
309
=
 40
0.3853952314814815
 41
2454525.614958576
 42
2457192.691749028
  1

 90
        0
  0
XRECORD
  5
56A5
102
{ACAD_REACTORS
330
56A4
102
}
330
56A4
100
AcDbXrecord
280
     1
290
     1
  0
XRECORD
  5
56A7
102
{ACAD_REACTORS
330
56A6
102
}
330
56A6
100
AcDbXrecord
280
     1
290
     1
  0
XRECORD
  5
56A9
102
{ACAD_REACTORS
330
56A8
102
}
330
56A8
100
AcDbXrecord
280
     1
290
     1
  0
XRECORD
  5
56AB
102
{ACAD_REACTORS
330
56AA
102
}
330
56AA
100
AcDbXrecord
280
     1
290
     1
  0
XRECORD
  5
56AD
102
{ACAD_REACTORS
330
56AC
102
}
330
56AC
100
AcDbXrecord
280
     1
290
     1
  0
XRECORD
  5
56AF
102
{ACAD_REACTORS
330
56AE
102
}
330
56AE
100
AcDbXrecord
280
     1
290
     1
  0
XRECORD
  5
56B1
102
{ACAD_REACTORS
330
56B0
102
}
330
56B0
100
AcDbXrecord
280
     1
290
     1
  0
XRECORD
  5
56B3
102
{ACAD_REACTORS
330
56B2
102
}
330
56B2
100
AcDbXrecord
280
     1
290
     1
  0
XRECORD
  5
563C
102
{ACAD_REACTORS
330
563B
102
}
330
563B
100
AcDbXrecord
280
     1
340
18
  0
XRECORD
  5
563A
102
{ACAD_REACTORS
330
5639
102
}
330
5639
100
AcDbXrecord
280
     1
340
15
  0
ACDBDETAILVIEWSTYLE
  5
568E
102
{ACAD_XDICTIONARY
360
5739
102
}
102
{ACAD_REACTORS
330
568D
102
}
330
568D
100
AcDbModelDocViewStyle
 70
     0
  3
Imperial24
290
     0
100
AcDbDetailViewStyle
 70
     0
 71
     0
 90
        3
 71
     1
340
F
 40
0.24
340
0
 40
0.24
300

 40
0.36
280
     3
 71
     2
340
14
 90
       25
 71
     3
340
F
 40
0.24
 90
        1
 40
0.75
 90
        1
300
%<\AcVar ViewType \f "%tc1">% %<\AcVar ViewDetailId>%\PSCALE %<\AcVar ViewScale \f "%sn">%
 71
     4
340
14
 90
       25
340
14
 90
       25
280
     0
  0
LAYOUT
  5
568F
102
{ACAD_XDICTIONARY
360
573B
102
}
102
{ACAD_REACTORS
330
94
102
}
330
94
100
AcDbPlotSettings
  1

  2
Canon LBP9100C
  4

  6

 40
0.0
 41
0.0
 42
0.0
 43
0.0
 44
0.0
 45
0.0
 46
0.0
 47
0.0
 48
0.0
 49
0.0
140
0.0
141
0.0
142
1.0
143
1.0
 70
  1712
 72
     0
 73
     0
 74
     0
  7

 75
     0
147
1.0
148
0.0
149
0.0
100
AcDbLayout
  1
Model
 70
     1
 71
     0
 10
0.0
 20
0.0
 11
12.0
 21
9.0
 12
0.0
 22
0.0
 32
0.0
 14
0.0
 24
0.0
 34
0.0
 15
0.0
 25
0.0
 35
0.0
146
0.0
 13
0.0
 23
0.0
 33
0.0
 16
1.0
 26
0.0
 36
0.0
 17
0.0
 27
1.0
 37
0.0
 76
     0
330
18
331
5638
  0
LAYOUT
  5
5690
102
{ACAD_XDICTIONARY
360
573D
102
}
102
{ACAD_REACTORS
330
94
102
}
330
94
100
AcDbPlotSettings
  1

  2
Canon LBP9100C
  4

  6

 40
0.0
 41
0.0
 42
0.0
 43
0.0
 44
0.0
 45
0.0
 46
0.0
 47
0.0
 48
0.0
 49
0.0
140
0.0
141
0.0
142
1.0
143
1.0
 70
   688
 72
     0
 73
     0
 74
     5
  7

 75
    16
147
1.0
148
0.0
149
0.0
100
AcDbLayout
  1
レイアウト1
 70
     1
 71
     1
 10
0.0
 20
0.0
 11
420.0
 21
297.0
 12
0.0
 22
0.0
 32
0.0
 14
1.000000000000000E+20
 24
1.000000000000000E+20
 34
1.000000000000000E+20
 15
-1.000000000000000E+20
 25
-1.000000000000000E+20
 35
-1.000000000000000E+20
146
0.0
 13
0.0
 23
0.0
 33
0.0
 16
1.0
 26
0.0
 36
0.0
 17
0.0
 27
1.0
 37
0.0
 76
     0
330
15
  0
MATERIAL
  5
564B
102
{ACAD_XDICTIONARY
360
564C
102
}
102
{ACAD_REACTORS
330
5642
102
}
330
5642
100
AcDbMaterial
  1
ByBlock
 72
     0
 43
0.0208333333333333
 43
0.0
 43
0.0
 43
0.0
 43
0.0
 43
0.0208333333333333
 43
0.0
 43
0.0
 43
0.0
 43
0.0
 43
1.0
 43
0.0
 43
0.0
 43
0.0
 43
0.0
 43
1.0
 77
     0
 47
0.0208333333333333
 47
0.0
 47
0.0
 47
0.0
 47
0.0
 47
0.0208333333333333
 47
0.0
 47
0.0
 47
0.0
 47
0.0
 47
1.0
 47
0.0
 47
0.0
 47
0.0
 47
0.0
 47
1.0
171
     0
 49
0.0208333333333333
 49
0.0
 49
0.0
 49
0.0
 49
0.0
 49
0.0208333333333333
 49
0.0
 49
0.0
 49
0.0
 49
0.0
 49
1.0
 49
0.0
 49
0.0
 49
0.0
 49
0.0
 49
1.0
175
     0
142
0.0208333333333333
142
0.0
142
0.0
142
0.0
142
0.0
142
0.0208333333333333
142
0.0
142
0.0
142
0.0
142
0.0
142
1.0
142
0.0
142
0.0
142
0.0
142
0.0
142
1.0
179
     0
144
0.0208333333333333
144
0.0
144
0.0
144
0.0
144
0.0
144
0.0208333333333333
144
0.0
144
0.0
144
0.0
144
0.0
144
1.0
144
0.0
144
0.0
144
0.0
144
0.0
144
1.0
147
0.0208333333333333
147
0.0
147
0.0
147
0.0
147
0.0
147
0.0208333333333333
147
0.0
147
0.0
147
0.0
147
0.0
147
1.0
147
0.0
147
0.0
147
0.0
147
0.0
147
1.0
  0
MATERIAL
  5
5643
102
{ACAD_XDICTIONARY
360
5644
102
}
102
{ACAD_REACTORS
330
5642
102
}
330
5642
100
AcDbMaterial
  1
ByLayer
 72
     0
 43
0.0208333333333333
 43
0.0
 43
0.0
 43
0.0
 43
0.0
 43
0.0208333333333333
 43
0.0
 43
0.0
 43
0.0
 43
0.0
 43
1.0
 43
0.0
 43
0.0
 43
0.0
 43
0.0
 43
1.0
 77
     0
 47
0.0208333333333333
 47
0.0
 47
0.0
 47
0.0
 47
0.0
 47
0.0208333333333333
 47
0.0
 47
0.0
 47
0.0
 47
0.0
 47
1.0
 47
0.0
 47
0.0
 47
0.0
 47
0.0
 47
1.0
171
     0
 49
0.0208333333333333
 49
0.0
 49
0.0
 49
0.0
 49
0.0
 49
0.0208333333333333
 49
0.0
 49
0.0
 49
0.0
 49
0.0
 49
1.0
 49
0.0
 49
0.0
 49
0.0
 49
0.0
 49
1.0
175
     0
142
0.0208333333333333
142
0.0
142
0.0
142
0.0
142
0.0
142
0.0208333333333333
142
0.0
142
0.0
142
0.0
142
0.0
142
1.0
142
0.0
142
0.0
142
0.0
142
0.0
142
1.0
179
     0
144
0.0208333333333333
144
0.0
144
0.0
144
0.0
144
0.0
144
0.0208333333333333
144
0.0
144
0.0
144
0.0
144
0.0
144
1.0
144
0.0
144
0.0
144
0.0
144
0.0
144
1.0
147
0.0208333333333333
147
0.0
147
0.0
147
0.0
147
0.0
147
0.0208333333333333
147
0.0
147
0.0
147
0.0
147
0.0
147
1.0
147
0.0
147
0.0
147
0.0
147
0.0
147
1.0
  0
MATERIAL
  5
5653
102
{ACAD_XDICTIONARY
360
5654
102
}
102
{ACAD_REACTORS
330
5642
102
}
330
5642
100
AcDbMaterial
  1
Global
 72
     0
 43
0.0208333333333333
 43
0.0
 43
0.0
 43
0.0
 43
0.0
 43
0.0208333333333333
 43
0.0
 43
0.0
 43
0.0
 43
0.0
 43
1.0
 43
0.0
 43
0.0
 43
0.0
 43
0.0
 43
1.0
 77
     0
 47
0.0208333333333333
 47
0.0
 47
0.0
 47
0.0
 47
0.0
 47
0.0208333333333333
 47
0.0
 47
0.0
 47
0.0
 47
0.0
 47
1.0
 47
0.0
 47
0.0
 47
0.0
 47
0.0
 47
1.0
171
     0
 49
0.0208333333333333
 49
0.0
 49
0.0
 49
0.0
 49
0.0
 49
0.0208333333333333
 49
0.0
 49
0.0
 49
0.0
 49
0.0
 49
1.0
 49
0.0
 49
0.0
 49
0.0
 49
0.0
 49
1.0
175
     0
142
0.0208333333333333
142
0.0
142
0.0
142
0.0
142
0.0
142
0.0208333333333333
142
0.0
142
0.0
142
0.0
142
0.0
142
1.0
142
0.0
142
0.0
142
0.0
142
0.0
142
1.0
179
     0
144
0.0208333333333333
144
0.0
144
0.0
144
0.0
144
0.0
144
0.0208333333333333
144
0.0
144
0.0
144
0.0
144
0.0
144
1.0
144
0.0
144
0.0
144
0.0
144
0.0
144
1.0
147
0.0208333333333333
147
0.0
147
0.0
147
0.0
147
0.0
147
0.0208333333333333
147
0.0
147
0.0
147
0.0
147
0.0
147
1.0
147
0.0
147
0.0
147
0.0
147
0.0
147
1.0
  0
MLEADERSTYLE
  5
568A
102
{ACAD_REACTORS
330
5689
102
}
330
5689
100
AcDbMLeaderStyle
170
     2
171
     1
172
     0
 90
        2
 40
0.0
 41
0.0
173
     1
 91
-1056964608
340
12
 92
       -2
290
     1
 42
0.09
291
     1
 43
0.36
  3
Standard
 44
0.18
300

342
F
174
     1
178
     6
175
     1
176
     0
 93
-1056964608
 45
0.18
292
     0
297
     0
 46
0.18
 94
-1056964608
 47
1.0
 49
1.0
140
1.0
293
     1
141
0.0
294
     1
177
     0
142
1.0
295
     0
296
     0
143
0.125
1001
ACAD_MLEADERVER
1070
     2
  0
MLINESTYLE
  5
1C
102
{ACAD_REACTORS
330
1B
102
}
330
1B
100
AcDbMlineStyle
  2
STANDARD
 70
     0
  3

 62
   256
 51
90.0
 52
90.0
 71
     2
 49
0.5
 62
   256
  6
BYLAYER
 49
-0.5
 62
   256
  6
BYLAYER
  0
ACDBPLACEHOLDER
  5
5641
102
{ACAD_REACTORS
330
5640
102
}
330
5640
  0
SCALE
  5
5678
102
{ACAD_REACTORS
330
5677
102
}
330
5677
100
AcDbScale
 70
     0
300
1:1
140
1.0
141
1.0
290
     1
  0
SCALE
  5
5679
102
{ACAD_REACTORS
330
5677
102
}
330
5677
100
AcDbScale
 70
     0
300
1/128" = 1'-0"
140
0.0078125
141
12.0
290
     0
  0
SCALE
  5
567A
102
{ACAD_REACTORS
330
5677
102
}
330
5677
100
AcDbScale
 70
     0
300
1/64" = 1'-0"
140
0.015625
141
12.0
290
     0
  0
SCALE
  5
567B
102
{ACAD_REACTORS
330
5677
102
}
330
5677
100
AcDbScale
 70
     0
300
1/32" = 1'-0"
140
0.03125
141
12.0
290
     0
  0
SCALE
  5
567C
102
{ACAD_REACTORS
330
5677
102
}
330
5677
100
AcDbScale
 70
     0
300
1/16" = 1'-0"
140
0.0625
141
12.0
290
     0
  0
SCALE
  5
567D
102
{ACAD_REACTORS
330
5677
102
}
330
5677
100
AcDbScale
 70
     0
300
3/32" = 1'-0"
140
0.09375
141
12.0
290
     0
  0
SCALE
  5
567E
102
{ACAD_REACTORS
330
5677
102
}
330
5677
100
AcDbScale
 70
     0
300
1/8" = 1'-0"
140
0.125
141
12.0
290
     0
  0
SCALE
  5
567F
102
{ACAD_REACTORS
330
5677
102
}
330
5677
100
AcDbScale
 70
     0
300
3/16" = 1'-0"
140
0.1875
141
12.0
290
     0
  0
SCALE
  5
5680
102
{ACAD_REACTORS
330
5677
102
}
330
5677
100
AcDbScale
 70
     0
300
1/4" = 1'-0"
140
0.25
141
12.0
290
     0
  0
SCALE
  5
5681
102
{ACAD_REACTORS
330
5677
102
}
330
5677
100
AcDbScale
 70
     0
300
3/8" = 1'-0"
140
0.375
141
12.0
290
     0
  0
SCALE
  5
5682
102
{ACAD_REACTORS
330
5677
102
}
330
5677
100
AcDbScale
 70
     0
300
1/2" = 1'-0"
140
0.5
141
12.0
290
     0
  0
SCALE
  5
5683
102
{ACAD_REACTORS
330
5677
102
}
330
5677
100
AcDbScale
 70
     0
300
3/4" = 1'-0"
140
0.75
141
12.0
290
     0
  0
SCALE
  5
5684
102
{ACAD_REACTORS
330
5677
102
}
330
5677
100
AcDbScale
 70
     0
300
1" = 1'-0"
140
1.0
141
12.0
290
     0
  0
SCALE
  5
5685
102
{ACAD_REACTORS
330
5677
102
}
330
5677
100
AcDbScale
 70
     0
300
1-1/2" = 1'-0"
140
1.5
141
12.0
290
     0
  0
SCALE
  5
5686
102
{ACAD_REACTORS
330
5677
102
}
330
5677
100
AcDbScale
 70
     0
300
3" = 1'-0"
140
3.0
141
12.0
290
     0
  0
SCALE
  5
5687
102
{ACAD_REACTORS
330
5677
102
}
330
5677
100
AcDbScale
 70
     0
300
6" = 1'-0"
140
6.0
141
12.0
290
     0
  0
SCALE
  5
5688
102
{ACAD_REACTORS
330
5677
102
}
330
5677
100
AcDbScale
 70
     0
300
1'-0" = 1'-0"
140
12.0
141
12.0
290
     0
  0
ACDBSECTIONVIEWSTYLE
  5
568C
102
{ACAD_XDICTIONARY
360
5737
102
}
102
{ACAD_REACTORS
330
568B
102
}
330
568B
100
AcDbModelDocViewStyle
 70
     0
  3
Imperial24
290
     0
100
AcDbSectionViewStyle
 70
     0
 71
     0
 90
       78
 71
     1
340
F
 40
0.24
340
0
340
0
 40
0.24
300
I, O, Q, S, X, Z
 40
0.48
 90
        3
 40
0.18
 90
        1
 71
     2
340
14
 90
       25
340
14
 90
       50
 40
0.24
 40
0.0
 40
0.24
 71
     3
340
F
 40
0.24
 90
        1
 40
0.75
 90
        1
300
%<\AcVar ViewType \f "%tc1">% %<\AcVar ViewSectionStartId>%-%<\AcVar ViewSectionEndId>%\PSCALE %<\AcVar ViewScale \f "%sn">%
 71
     4
300
ANSI31
 40
1.0
 90
        0
290
     0
290
     0
 90
        6
 40
0.0
 40
1.570796326794896
 40
0.2617993877991494
 40
1.308996938995747
 40
-0.2617993877991494
 40
1.832595714594045
  0
TABLESTYLE
  5
5676
102
{ACAD_XDICTIONARY
360
56BE
102
}
102
{ACAD_REACTORS
330
5675
102
}
330
5675
100
AcDbTableStyle
  3
Standard
 70
     0
 71
     0
 40
0.06
 41
0.06
280
     0
281
     0
  7
STANDARD
140
0.18
170
     2
 62
     0
 63
     7
283
     0
274
    -2
284
     1
 64
     0
275
    -2
285
     1
 65
     0
276
    -2
286
     1
 66
     0
277
    -2
287
     1
 67
     0
278
    -2
288
     1
 68
     0
279
    -2
289
     1
 69
     0
  7
STANDARD
140
0.25
170
     5
 62
     0
 63
     7
283
     0
274
    -2
284
     1
 64
     0
275
    -2
285
     1
 65
     0
276
    -2
286
     1
 66
     0
277
    -2
287
     1
 67
     0
278
    -2
288
     1
 68
     0
279
    -2
289
     1
 69
     0
  7
STANDARD
140
0.18
170
     5
 62
     0
 63
     7
283
     0
274
    -2
284
     1
 64
     0
275
    -2
285
     1
 65
     0
276
    -2
286
     1
 66
     0
277
    -2
287
     1
 67
     0
278
    -2
288
     1
 68
     0
279
    -2
289
     1
 69
     0
  0
VISUALSTYLE
  5
5661
102
{ACAD_XDICTIONARY
360
5710
102
}
102
{ACAD_REACTORS
330
565B
102
}
330
565B
100
AcDbVisualStyle
  2

 70
     4
 71
     0
 72
     2
 73
     0
 90
        0
 40
-0.6
 41
-30.0
 62
     5
 63
     7
 74
     1
 91
        4
 64
     7
 65
   257
 75
     1
175
     1
 42
1.0
 92
        0
 66
   257
 43
1.0
 76
     1
 77
     6
 78
     2
 67
     7
 79
     5
170
     0
171
     0
290
     0
174
     0
 93
        1
 44
0.0
173
     0
291
     0
 45
0.0
1001
ACAD
1000
AcDbSavedByObjectVersion
1070
     0
  0
VISUALSTYLE
  5
5660
102
{ACAD_XDICTIONARY
360
570E
102
}
102
{ACAD_REACTORS
330
565B
102
}
330
565B
100
AcDbVisualStyle
  2

 70
     7
 71
     1
 72
     0
 73
     1
 90
        0
 40
-0.6
 41
-30.0
 62
     5
 63
     7
 74
     0
 91
        4
 64
     7
 65
   257
 75
     1
175
     1
 42
1.0
 92
        8
 66
     7
 43
1.0
 76
     1
 77
     6
 78
     2
 67
     7
 79
     5
170
     0
171
     0
290
     0
174
     0
 93
        1
 44
0.0
173
     0
291
     1
 45
0.0
1001
ACAD
1000
AcDbSavedByObjectVersion
1070
     0
  0
VISUALSTYLE
  5
5667
102
{ACAD_XDICTIONARY
360
571C
102
}
102
{ACAD_REACTORS
330
565B
102
}
330
565B
100
AcDbVisualStyle
  2

 70
    12
 71
     2
 72
     2
 73
     0
 90
        0
 40
-0.6
 41
-30.0
 62
     5
 63
     7
 74
     1
 91
        4
 64
     7
 65
   257
 75
     1
175
     1
 42
1.0
 92
        8
 66
     7
 43
1.0
 76
     1
 77
     6
 78
     2
 67
     7
 79
     5
170
     0
171
     0
290
     0
174
     0
 93
        1
 44
50.0
173
     0
291
     1
 45
0.0
1001
ACAD
1000
AcDbSavedByObjectVersion
1070
     0
  0
VISUALSTYLE
  5
566B
102
{ACAD_XDICTIONARY
360
5724
102
}
102
{ACAD_REACTORS
330
565B
102
}
330
565B
100
AcDbVisualStyle
  2

 70
    16
 71
     2
 72
     2
 73
     3
 90
        0
 40
-0.6
 41
-30.0
 62
     5
 63
     8
 74
     1
 91
        4
 64
     7
 65
   257
 75
     1
175
     1
 42
1.0
 92
        8
 66
     8
 43
1.0
 76
     1
 77
     6
 78
     2
 67
     7
 79
     5
170
     0
171
     0
290
     0
174
     0
 93
        1
 44
0.0
173
     0
291
     1
 45
0.0
1001
ACAD
1000
AcDbSavedByObjectVersion
1070
     0
  0
VISUALSTYLE
  5
5664
102
{ACAD_XDICTIONARY
360
5716
102
}
102
{ACAD_REACTORS
330
565B
102
}
330
565B
100
AcDbVisualStyle
  2

 70
     9
 71
     3
 72
     2
 73
     0
 90
        0
 40
-0.6
 41
-30.0
 62
     5
 63
     7
 74
     2
 91
        2
 64
     7
 65
   257
 75
     1
175
     1
 42
179.0
 92
        8
 66
     7
 43
1.0
 76
     1
 77
     6
 78
     2
 67
     7
 79
     3
170
     0
171
     0
290
     0
174
     0
 93
        1
 44
0.0
173
     0
291
     0
 45
0.0
1001
ACAD
1000
AcDbSavedByObjectVersion
1070
     0
  0
VISUALSTYLE
  5
5666
102
{ACAD_XDICTIONARY
360
571A
102
}
102
{ACAD_REACTORS
330
565B
102
}
330
565B
100
AcDbVisualStyle
  2

 70
    11
 71
     2
 72
     2
 73
     0
 90
        0
 40
-0.6
 41
-30.0
 62
     5
 63
     7
 74
     1
 91
        4
 64
     7
 65
   257
 75
     1
175
     1
 42
1.0
 92
        8
 66
     7
 43
1.0
 76
     1
 77
     6
 78
     2
 67
     7
 79
     5
170
     0
171
     0
290
     0
174
     0
 93
        1
 44
-50.0
173
     0
291
     1
 45
0.0
1001
ACAD
1000
AcDbSavedByObjectVersion
1070
     0
  0
VISUALSTYLE
  5
5673
102
{ACAD_XDICTIONARY
360
5734
102
}
102
{ACAD_REACTORS
330
565B
102
}
330
565B
100
AcDbVisualStyle
  2

 70
    22
 71
     2
 72
     2
 73
     0
 90
        0
 40
-0.6
 41
-30.0
 62
     5
 63
     7
 74
     1
 91
        4
 64
     7
 65
   257
 75
     1
175
     1
 42
1.0
 92
        8
 66
     7
 43
1.0
 76
     1
 77
     6
 78
     2
 67
     7
 79
     5
170
     0
171
     0
290
     0
174
     0
 93
        1
 44
0.0
173
     0
291
     1
 45
0.0
1001
ACAD
1000
AcDbSavedByObjectVersion
1070
     0
  0
VISUALSTYLE
  5
566A
102
{ACAD_XDICTIONARY
360
5722
102
}
102
{ACAD_REACTORS
330
565B
102
}
330
565B
100
AcDbVisualStyle
  2

 70
    15
 71
     2
 72
     2
 73
     0
 90
        0
 40
-0.6
 41
-30.0
 62
     5
 63
     7
 74
     1
 91
        4
 64
     7
 65
   257
 75
     1
175
     1
 42
1.0
 92
        8
 66
     7
 43
1.0
 76
     1
 77
     6
 78
     2
 67
     7
 79
     5
170
     0
171
     0
290
     0
174
     0
 93
        1
 44
0.0
173
     0
291
     1
 45
0.0
1001
ACAD
1000
AcDbSavedByObjectVersion
1070
     0
  0
VISUALSTYLE
  5
565C
102
{ACAD_XDICTIONARY
360
5706
102
}
102
{ACAD_REACTORS
330
565B
102
}
330
565B
100
AcDbVisualStyle
  2

 70
     0
 71
     2
 72
     1
 73
     1
 90
        2
 40
-0.6
 41
30.0
 62
     5
 63
     7
 74
     0
 91
        0
 64
     7
 65
   257
 75
     1
175
     1
 42
1.0
 92
        8
 66
     7
 43
1.0
 76
     1
 77
     6
 78
     2
 67
     7
 79
     5
170
     0
171
     0
290
     0
174
     0
 93
       13
 44
0.0
173
     0
291
     1
 45
0.0
1001
ACAD
1000
AcDbSavedByObjectVersion
1070
     0
  0
VISUALSTYLE
  5
565D
102
{ACAD_XDICTIONARY
360
5708
102
}
102
{ACAD_REACTORS
330
565B
102
}
330
565B
100
AcDbVisualStyle
  2

 70
     1
 71
     2
 72
     1
 73
     1
 90
        2
 40
-0.6
 41
30.0
 62
     5
 63
     7
 74
     1
 91
        0
 64
     7
 65
   257
 75
     1
175
     1
 42
1.0
 92
        0
 66
   257
 43
1.0
 76
     1
 77
     6
 78
     2
 67
     7
 79
     5
170
     0
171
     0
290
     0
174
     0
 93
       13
 44
0.0
173
     0
291
     1
 45
0.0
1001
ACAD
1000
AcDbSavedByObjectVersion
1070
     0
  0
VISUALSTYLE
  5
565E
102
{ACAD_XDICTIONARY
360
570A
102
}
102
{ACAD_REACTORS
330
565B
102
}
330
565B
100
AcDbVisualStyle
  2

 70
     2
 71
     2
 72
     2
 73
     1
 90
        2
 40
-0.6
 41
30.0
 62
     5
 63
     7
 74
     0
 91
        0
 64
     7
 65
   257
 75
     1
175
     1
 42
1.0
 92
        0
 66
     7
 43
1.0
 76
     1
 77
     6
 78
     2
 67
     7
 79
     5
170
     0
171
     0
290
     0
174
     0
 93
       13
 44
0.0
173
     0
291
     1
 45
0.0
1001
ACAD
1000
AcDbSavedByObjectVersion
1070
     0
  0
VISUALSTYLE
  5
565F
102
{ACAD_XDICTIONARY
360
570C
102
}
102
{ACAD_REACTORS
330
565B
102
}
330
565B
100
AcDbVisualStyle
  2

 70
     3
 71
     2
 72
     2
 73
     1
 90
        2
 40
-0.6
 41
30.0
 62
     5
 63
     7
 74
     1
 91
        0
 64
     7
 65
   257
 75
     1
175
     1
 42
1.0
 92
        0
 66
   257
 43
1.0
 76
     1
 77
     6
 78
     2
 67
     7
 79
     5
170
     0
171
     0
290
     0
174
     0
 93
       13
 44
0.0
173
     0
291
     1
 45
0.0
1001
ACAD
1000
AcDbSavedByObjectVersion
1070
     0
  0
VISUALSTYLE
  5
5663
102
{ACAD_XDICTIONARY
360
5714
102
}
102
{ACAD_REACTORS
330
565B
102
}
330
565B
100
AcDbVisualStyle
  2

 70
     6
 71
     1
 72
     2
 73
     2
 90
        0
 40
-0.6
 41
-30.0
 62
     5
 63
     7
 74
     2
 91
        2
 64
     7
 65
   257
 75
     2
175
     1
 42
40.0
 92
        0
 66
   257
 43
1.0
 76
     1
 77
     6
 78
     2
 67
     7
 79
     3
170
     0
171
     0
290
     0
174
     0
 93
        1
 44
0.0
173
     0
291
     0
 45
0.0
1001
ACAD
1000
AcDbSavedByObjectVersion
1070
     0
  0
VISUALSTYLE
  5
5671
102
{ACAD_XDICTIONARY
360
5730
102
}
102
{ACAD_REACTORS
330
565B
102
}
330
565B
100
AcDbVisualStyle
  2

 70
    20
 71
     2
 72
     2
 73
     0
 90
        0
 40
-0.6
 41
-30.0
 62
     5
 63
     7
 74
     1
 91
        4
 64
     7
 65
   257
 75
     1
175
     1
 42
1.0
 92
       10
 66
     7
 43
1.0
 76
     1
 77
     6
 78
     2
 67
     7
 79
     5
170
     0
171
     0
290
     0
174
     0
 93
        1
 44
0.0
173
     0
291
     1
 45
0.0
1001
ACAD
1000
AcDbSavedByObjectVersion
1070
     0
  0
VISUALSTYLE
  5
5669
102
{ACAD_XDICTIONARY
360
5720
102
}
102
{ACAD_REACTORS
330
565B
102
}
330
565B
100
AcDbVisualStyle
  2

 70
    14
 71
     2
 72
     2
 73
     0
 90
        0
 40
-0.6
 41
-30.0
 62
     5
 63
     7
 74
     1
 91
        4
 64
     7
 65
   257
 75
     7
175
     7
 42
1.0
 92
        8
 66
     7
 43
1.0
 76
     1
 77
     6
 78
     2
 67
     7
 79
     5
170
     0
171
     0
290
     0
174
     0
 93
        1
 44
0.0
173
     0
291
     1
 45
0.0
1001
ACAD
1000
AcDbSavedByObjectVersion
1070
     0
  0
VISUALSTYLE
  5
5672
102
{ACAD_XDICTIONARY
360
5732
102
}
102
{ACAD_REACTORS
330
565B
102
}
330
565B
100
AcDbVisualStyle
  2

 70
    21
 71
     2
 72
     2
 73
     0
 90
        0
 40
-0.6
 41
-30.0
 62
     5
 63
     7
 74
     1
 91
        4
 64
     7
 65
   257
 75
     1
175
     1
 42
1.0
 92
        9
 66
     7
 43
1.0
 76
     1
 77
     6
 78
     2
 67
     7
 79
     5
170
     0
171
     0
290
     0
174
     0
 93
        1
 44
0.0
173
     0
291
     1
 45
0.0
1001
ACAD
1000
AcDbSavedByObjectVersion
1070
     0
  0
VISUALSTYLE
  5
5665
102
{ACAD_XDICTIONARY
360
5718
102
}
102
{ACAD_REACTORS
330
565B
102
}
330
565B
100
AcDbVisualStyle
  2

 70
     8
 71
     2
 72
     3
 73
     0
 90
        2
 40
-0.6
 41
30.0
 62
     5
 63
     7
 74
     0
 91
        0
 64
     7
 65
   257
 75
     1
175
     1
 42
1.0
 92
        8
 66
   257
 43
1.0
 76
     1
 77
     6
 78
     2
 67
     7
 79
     3
170
     0
171
     0
290
     0
174
     0
 93
       13
 44
0.0
173
     0
291
     0
 45
0.0
1001
ACAD
1000
AcDbSavedByObjectVersion
1070
     0
  0
VISUALSTYLE
  5
5670
102
{ACAD_XDICTIONARY
360
572E
102
}
102
{ACAD_REACTORS
330
565B
102
}
330
565B
100
AcDbVisualStyle
  2

 70
    27
 71
     2
 72
     2
 73
     1
 90
        2
 40
-0.6
 41
30.0
 62
     5
 63
     7
 74
     0
 91
        4
 64
     7
 65
   257
 75
     1
175
     1
 42
1.0
 92
        8
 66
   257
 43
1.0
 76
     1
 77
     6
 78
     2
 67
     8
 79
     3
170
     0
171
     0
290
     0
174
     0
 93
        5
 44
0.0
173
     0
291
     0
 45
0.0
1001
ACAD
1000
AcDbSavedByObjectVersion
1070
     0
  0
VISUALSTYLE
  5
566F
102
{ACAD_XDICTIONARY
360
572C
102
}
102
{ACAD_REACTORS
330
565B
102
}
330
565B
100
AcDbVisualStyle
  2

 70
    26
 71
     2
 72
     2
 73
     1
 90
        2
 40
-0.6
 41
30.0
 62
     5
 63
     7
 74
     1
 91
       10
 64
     7
 65
   257
 75
     2
175
     1
 42
1.0
 92
        8
 66
   257
 43
1.0
 76
     1
 77
     6
 78
     2
 67
     7
 79
     3
170
     0
171
     0
290
     0
174
     0
 93
        5
 44
0.0
173
     0
291
     0
 45
0.0
1001
ACAD
1000
AcDbSavedByObjectVersion
1070
     0
  0
VISUALSTYLE
  5
566C
102
{ACAD_XDICTIONARY
360
5726
102
}
102
{ACAD_REACTORS
330
565B
102
}
330
565B
100
AcDbVisualStyle
  2

 70
    23
 71
     2
 72
     2
 73
     3
 90
        0
 40
-0.6
 41
-30.0
 62
     5
 63
     7
 74
     2
 91
        2
 64
     7
 65
     7
 75
     1
175
     1
 42
40.0
 92
        8
 66
     7
 43
1.0
 76
     1
 77
     6
 78
     2
 67
     7
 79
     3
170
     0
171
     0
290
     0
174
     0
 93
        1
 44
0.0
173
     0
291
     0
 45
0.0
1001
ACAD
1000
AcDbSavedByObjectVersion
1070
     0
  0
VISUALSTYLE
  5
566D
102
{ACAD_XDICTIONARY
360
5728
102
}
102
{ACAD_REACTORS
330
565B
102
}
330
565B
100
AcDbVisualStyle
  2

 70
    24
 71
     1
 72
     2
 73
     2
 90
        0
 40
-0.6
 41
-30.0
 62
     5
 63
     7
 74
     2
 91
        2
 64
     7
 65
     7
 75
     1
175
     1
 42
40.0
 92
       11
 66
     7
 43
1.0
 76
     1
 77
     6
 78
     2
 67
     7
 79
     6
170
     0
171
     0
290
     0
174
     0
 93
        1
 44
0.0
173
     0
291
     0
 45
0.0
1001
ACAD
1000
AcDbSavedByObjectVersion
1070
     0
  0
VISUALSTYLE
  5
5668
102
{ACAD_XDICTIONARY
360
571E
102
}
102
{ACAD_REACTORS
330
565B
102
}
330
565B
100
AcDbVisualStyle
  2

 70
    13
 71
     2
 72
     2
 73
     0
 90
        0
 40
-0.6
 41
-30.0
 62
     5
 63
     7
 74
     1
 91
        4
 64
     7
 65
   257
 75
     1
175
     1
 42
1.0
 92
       12
 66
     7
 43
1.0
 76
     1
 77
     6
 78
     2
 67
     7
 79
     5
170
     0
171
     0
290
     0
174
     0
 93
        1
 44
0.0
173
     0
291
     1
 45
0.0
1001
ACAD
1000
AcDbSavedByObjectVersion
1070
     0
  0
VISUALSTYLE
  5
5662
102
{ACAD_XDICTIONARY
360
5712
102
}
102
{ACAD_REACTORS
330
565B
102
}
330
565B
100
AcDbVisualStyle
  2

 70
     5
 71
     0
 72
     2
 73
     0
 90
        0
 40
-0.6
 41
-30.0
 62
     5
 63
     7
 74
     1
 91
        4
 64
     7
 65
   257
 75
     1
175
     1
 42
1.0
 92
        0
 66
   257
 43
1.0
 76
     1
 77
     6
 78
     2
 67
     7
 79
     3
170
     0
171
     0
290
     0
174
     0
 93
        1
 44
0.0
173
     0
291
     0
 45
0.0
1001
ACAD
1000
AcDbSavedByObjectVersion
1070
     0
  0
VISUALSTYLE
  5
566E
102
{ACAD_XDICTIONARY
360
572A
102
}
102
{ACAD_REACTORS
330
565B
102
}
330
565B
100
AcDbVisualStyle
  2

 70
    25
 71
     2
 72
     2
 73
     1
 90
        1
 40
0.5
 41
-30.0
 62
     5
 63
     7
 74
     1
 91
        0
 64
     7
 65
   257
 75
     1
175
     1
 42
1.0
 92
        8
 66
     7
 43
1.0
 76
     1
 77
     6
 78
     2
 67
     7
 79
     3
170
     0
171
     0
290
     0
174
     0
 93
       13
 44
0.0
173
     0
291
     0
 45
0.0
1001
ACAD
1000
AcDbSavedByObjectVersion
1070
     0
  0
DICTIONARYVAR
  5
56B9
102
{ACAD_REACTORS
330
56B4
102
}
330
56B4
100
DictionaryVariables
280
     0
  1
1:1
  0
DICTIONARYVAR
  5
56B6
102
{ACAD_REACTORS
330
56B4
102
}
330
56B4
100
DictionaryVariables
280
     0
  1
STANDARD
  0
DICTIONARYVAR
  5
56B5
102
{ACAD_REACTORS
330
56B4
102
}
330
56B4
100
DictionaryVariables
280
     0
  1
STANDARD
  0
DICTIONARYVAR
  5
56B7
102
{ACAD_REACTORS
330
56B4
102
}
330
56B4
100
DictionaryVariables
280
     0
  1
Imperial24
  0
DICTIONARYVAR
  5
56B8
102
{ACAD_REACTORS
330
56B4
102
}
330
56B4
100
DictionaryVariables
280
     0
  1
Imperial24
  0
DICTIONARYVAR
  5
56BC
102
{ACAD_REACTORS
330
56B4
102
}
330
56B4
100
DictionaryVariables
280
     0
  1
1
  0
DICTIONARYVAR
  5
56BB
102
{ACAD_REACTORS
330
56B4
102
}
330
56B4
100
DictionaryVariables
280
     0
  1
0
  0
DICTIONARYVAR
  5
56BA
102
{ACAD_REACTORS
330
56B4
102
}
330
56B4
100
DictionaryVariables
280
     0
  1
127
  0
DICTIONARYVAR
  5
5702
102
{ACAD_REACTORS
330
56B4
102
}
330
56B4
100
DictionaryVariables
280
     0
  1
2
  0
DICTIONARY
  5
5739
330
568E
100
AcDbDictionary
280
     1
281
     1
  3
ACAD_XREC_ROUNDTRIP
360
573A
  0
DICTIONARY
  5
573B
330
568F
100
AcDbDictionary
280
     1
281
     1
  3
ACAD_XREC_ROUNDTRIP
360
573C
  0
DICTIONARY
  5
573D
330
5690
100
AcDbDictionary
280
     1
281
     1
  3
ACAD_XREC_ROUNDTRIP
360
573E
  0
DICTIONARY
  5
564C
330
564B
100
AcDbDictionary
280
     1
281
     1
  3
ACAD_XREC_ROUNDTRIP
360
56C3
  3
BUMPTILE
360
564E
  3
DIFFUSETILE
360
564D
  3
OPACITYTILE
360
5651
  3
REFLECTIONTILE
360
5650
  3
REFRACTIONTILE
360
5652
  3
SPECULARTILE
360
564F
  0
DICTIONARY
  5
5644
330
5643
100
AcDbDictionary
280
     1
281
     1
  3
ACAD_XREC_ROUNDTRIP
360
56C2
  3
BUMPTILE
360
5646
  3
DIFFUSETILE
360
5645
  3
OPACITYTILE
360
5649
  3
REFLECTIONTILE
360
5648
  3
REFRACTIONTILE
360
564A
  3
SPECULARTILE
360
5647
  0
DICTIONARY
  5
5654
330
5653
100
AcDbDictionary
280
     1
281
     1
  3
ACAD_XREC_ROUNDTRIP
360
56C4
  3
BUMPTILE
360
5656
  3
DIFFUSETILE
360
5655
  3
OPACITYTILE
360
5659
  3
REFLECTIONTILE
360
5658
  3
REFRACTIONTILE
360
565A
  3
SPECULARTILE
360
5657
  0
DICTIONARY
  5
5737
330
568C
100
AcDbDictionary
280
     1
281
     1
  3
ACAD_XREC_ROUNDTRIP
360
5738
  0
DICTIONARY
  5
56BE
330
5676
100
AcDbDictionary
280
     1
281
     1
  3
ACAD_ROUNDTRIP_2008_TABLESTYLE_CELLSTYLEMAP
360
5703
  3
ACAD_XREC_ROUNDTRIP
360
5736
  0
DICTIONARY
  5
5710
330
5661
100
AcDbDictionary
280
     1
281
     1
  3
ACAD_XREC_ROUNDTRIP
360
5711
  0
DICTIONARY
  5
570E
330
5660
100
AcDbDictionary
280
     1
281
     1
  3
ACAD_XREC_ROUNDTRIP
360
570F
  0
DICTIONARY
  5
571C
330
5667
100
AcDbDictionary
280
     1
281
     1
  3
ACAD_XREC_ROUNDTRIP
360
571D
  0
DICTIONARY
  5
5724
330
566B
100
AcDbDictionary
280
     1
281
     1
  3
ACAD_XREC_ROUNDTRIP
360
5725
  0
DICTIONARY
  5
5716
330
5664
100
AcDbDictionary
280
     1
281
     1
  3
ACAD_XREC_ROUNDTRIP
360
5717
  0
DICTIONARY
  5
571A
330
5666
100
AcDbDictionary
280
     1
281
     1
  3
ACAD_XREC_ROUNDTRIP
360
571B
  0
DICTIONARY
  5
5734
330
5673
100
AcDbDictionary
280
     1
281
     1
  3
ACAD_XREC_ROUNDTRIP
360
5735
  0
DICTIONARY
  5
5722
330
566A
100
AcDbDictionary
280
     1
281
     1
  3
ACAD_XREC_ROUNDTRIP
360
5723
  0
DICTIONARY
  5
5706
330
565C
100
AcDbDictionary
280
     1
281
     1
  3
ACAD_XREC_ROUNDTRIP
360
5707
  0
DICTIONARY
  5
5708
330
565D
100
AcDbDictionary
280
     1
281
     1
  3
ACAD_XREC_ROUNDTRIP
360
5709
  0
DICTIONARY
  5
570A
330
565E
100
AcDbDictionary
280
     1
281
     1
  3
ACAD_XREC_ROUNDTRIP
360
570B
  0
DICTIONARY
  5
570C
330
565F
100
AcDbDictionary
280
     1
281
     1
  3
ACAD_XREC_ROUNDTRIP
360
570D
  0
DICTIONARY
  5
5714
330
5663
100
AcDbDictionary
280
     1
281
     1
  3
ACAD_XREC_ROUNDTRIP
360
5715
  0
DICTIONARY
  5
5730
330
5671
100
AcDbDictionary
280
     1
281
     1
  3
ACAD_XREC_ROUNDTRIP
360
5731
  0
DICTIONARY
  5
5720
330
5669
100
AcDbDictionary
280
     1
281
     1
  3
ACAD_XREC_ROUNDTRIP
360
5721
  0
DICTIONARY
  5
5732
330
5672
100
AcDbDictionary
280
     1
281
     1
  3
ACAD_XREC_ROUNDTRIP
360
5733
  0
DICTIONARY
  5
5718
330
5665
100
AcDbDictionary
280
     1
281
     1
  3
ACAD_XREC_ROUNDTRIP
360
5719
  0
DICTIONARY
  5
572E
330
5670
100
AcDbDictionary
280
     1
281
     1
  3
ACAD_XREC_ROUNDTRIP
360
572F
  0
DICTIONARY
  5
572C
330
566F
100
AcDbDictionary
280
     1
281
     1
  3
ACAD_XREC_ROUNDTRIP
360
572D
  0
DICTIONARY
  5
5726
330
566C
100
AcDbDictionary
280
     1
281
     1
  3
ACAD_XREC_ROUNDTRIP
360
5727
  0
DICTIONARY
  5
5728
330
566D
100
AcDbDictionary
280
     1
281
     1
  3
ACAD_XREC_ROUNDTRIP
360
5729
  0
DICTIONARY
  5
571E
330
5668
100
AcDbDictionary
280
     1
281
     1
  3
ACAD_XREC_ROUNDTRIP
360
571F
  0
DICTIONARY
  5
5712
330
5662
100
AcDbDictionary
280
     1
281
     1
  3
ACAD_XREC_ROUNDTRIP
360
5713
  0
DICTIONARY
  5
572A
330
566E
100
AcDbDictionary
280
     1
281
     1
  3
ACAD_XREC_ROUNDTRIP
360
572B
  0
XRECORD
  5
573A
102
{ACAD_REACTORS
330
5739
102
}
330
5739
100
AcDbXrecord
280
     1
102
DISPLAYNAME
  1
Imperial24
102
FLAGS
 90
        0
  0
XRECORD
  5
573C
102
{ACAD_REACTORS
330
573B
102
}
330
573B
100
AcDbXrecord
280
     1
102
SHADEPLOT
 70
     0
102
SHADEPLOTRESLEVEL
 70
     2
102
SHADEPLOTCUSTOMDPI
 70
   300
  0
XRECORD
  5
573E
102
{ACAD_REACTORS
330
573D
102
}
330
573D
100
AcDbXrecord
280
     1
102
SHADEPLOT
 70
     0
102
SHADEPLOTRESLEVEL
 70
     2
102
SHADEPLOTCUSTOMDPI
 70
   300
  0
XRECORD
  5
56C3
102
{ACAD_REACTORS
330
564C
102
}
330
564C
100
AcDbXrecord
280
     1
102
MATERIAL
148
0.0
149
0.0
149
0.0
 93
        0
 94
      127
282
     0
 72
     0
 77
     0
171
     0
175
     0
179
     0
273
     0
  0
XRECORD
  5
564E
102
{ACAD_REACTORS
330
564C
102
}
330
564C
100
AcDbXrecord
280
     1
270
     1
271
     1
  0
XRECORD
  5
564D
102
{ACAD_REACTORS
330
564C
102
}
330
564C
100
AcDbXrecord
280
     1
270
     1
271
     1
  0
XRECORD
  5
5651
102
{ACAD_REACTORS
330
564C
102
}
330
564C
100
AcDbXrecord
280
     1
270
     1
271
     1
  0
XRECORD
  5
5650
102
{ACAD_REACTORS
330
564C
102
}
330
564C
100
AcDbXrecord
280
     1
270
     1
271
     1
  0
XRECORD
  5
5652
102
{ACAD_REACTORS
330
564C
102
}
330
564C
100
AcDbXrecord
280
     1
270
     1
271
     1
  0
XRECORD
  5
564F
102
{ACAD_REACTORS
330
564C
102
}
330
564C
100
AcDbXrecord
280
     1
270
     1
271
     1
  0
XRECORD
  5
56C2
102
{ACAD_REACTORS
330
5644
102
}
330
5644
100
AcDbXrecord
280
     1
102
MATERIAL
148
0.0
149
0.0
149
0.0
 93
        0
 94
      127
282
     0
 72
     0
 77
     0
171
     0
175
     0
179
     0
273
     0
  0
XRECORD
  5
5646
102
{ACAD_REACTORS
330
5644
102
}
330
5644
100
AcDbXrecord
280
     1
270
     1
271
     1
  0
XRECORD
  5
5645
102
{ACAD_REACTORS
330
5644
102
}
330
5644
100
AcDbXrecord
280
     1
270
     1
271
     1
  0
XRECORD
  5
5649
102
{ACAD_REACTORS
330
5644
102
}
330
5644
100
AcDbXrecord
280
     1
270
     1
271
     1
  0
XRECORD
  5
5648
102
{ACAD_REACTORS
330
5644
102
}
330
5644
100
AcDbXrecord
280
     1
270
     1
271
     1
  0
XRECORD
  5
564A
102
{ACAD_REACTORS
330
5644
102
}
330
5644
100
AcDbXrecord
280
     1
270
     1
271
     1
  0
XRECORD
  5
5647
102
{ACAD_REACTORS
330
5644
102
}
330
5644
100
AcDbXrecord
280
     1
270
     1
271
     1
  0
XRECORD
  5
56C4
102
{ACAD_REACTORS
330
5654
102
}
330
5654
100
AcDbXrecord
280
     1
102
MATERIAL
148
0.0
149
0.0
149
0.0
 93
        0
 94
      127
282
     0
 72
     0
 77
     0
171
     0
175
     0
179
     0
273
     0
  0
XRECORD
  5
5656
102
{ACAD_REACTORS
330
5654
102
}
330
5654
100
AcDbXrecord
280
     1
270
     1
271
     1
  0
XRECORD
  5
5655
102
{ACAD_REACTORS
330
5654
102
}
330
5654
100
AcDbXrecord
280
     1
270
     1
271
     1
  0
XRECORD
  5
5659
102
{ACAD_REACTORS
330
5654
102
}
330
5654
100
AcDbXrecord
280
     1
270
     1
271
     1
  0
XRECORD
  5
5658
102
{ACAD_REACTORS
330
5654
102
}
330
5654
100
AcDbXrecord
280
     1
270
     1
271
     1
  0
XRECORD
  5
565A
102
{ACAD_REACTORS
330
5654
102
}
330
5654
100
AcDbXrecord
280
     1
270
     1
271
     1
  0
XRECORD
  5
5657
102
{ACAD_REACTORS
330
5654
102
}
330
5654
100
AcDbXrecord
280
     1
270
     1
271
     1
  0
XRECORD
  5
5738
102
{ACAD_REACTORS
330
5737
102
}
330
5737
100
AcDbXrecord
280
     1
102
DISPLAYNAME
  1
Imperial24
102
FLAGS
 90
        0
  0
CELLSTYLEMAP
  5
5703
102
{ACAD_REACTORS
330
56BE
102
}
330
56BE
100
AcDbCellStyleMap
 90
        3
300
CELLSTYLE
  1
TABLEFORMAT_BEGIN
 90
        5
170
     1
 91
        0
 92
    32768
 62
   257
 93
        1
300
CONTENTFORMAT
  1
CONTENTFORMAT_BEGIN
 90
        0
 91
        0
 92
      512
 93
        0
300

 40
0.0
140
1.0
 94
        5
 62
     0
340
F
144
0.25
309
CONTENTFORMAT_END
171
     1
301
MARGIN
  1
CELLMARGIN_BEGIN
 40
0.06
 40
0.06
 40
0.06
 40
0.06
 40
0.18
 40
0.18
309
CELLMARGIN_END
 94
        6
 95
        1
302
GRIDFORMAT
  1
GRIDFORMAT_BEGIN
 90
        0
 91
        1
 62
     0
 92
       -2
340
0
 93
        0
 40
0.045
309
GRIDFORMAT_END
 95
        2
302
GRIDFORMAT
  1
GRIDFORMAT_BEGIN
 90
        0
 91
        1
 62
     0
 92
       -2
340
0
 93
        0
 40
0.045
309
GRIDFORMAT_END
 95
        4
302
GRIDFORMAT
  1
GRIDFORMAT_BEGIN
 90
        0
 91
        1
 62
     0
 92
       -2
340
0
 93
        0
 40
0.045
309
GRIDFORMAT_END
 95
        8
302
GRIDFORMAT
  1
GRIDFORMAT_BEGIN
 90
        0
 91
        1
 62
     0
 92
       -2
340
0
 93
        0
 40
0.045
309
GRIDFORMAT_END
 95
       16
302
GRIDFORMAT
  1
GRIDFORMAT_BEGIN
 90
        0
 91
        1
 62
     0
 92
       -2
340
0
 93
        0
 40
0.045
309
GRIDFORMAT_END
 95
       32
302
GRIDFORMAT
  1
GRIDFORMAT_BEGIN
 90
        0
 91
        1
 62
     0
 92
       -2
340
0
 93
        0
 40
0.045
309
GRIDFORMAT_END
309
TABLEFORMAT_END
  1
CELLSTYLE_BEGIN
 90
        1
 91
        1
300
_TITLE
309
CELLSTYLE_END
300
CELLSTYLE
  1
TABLEFORMAT_BEGIN
 90
        5
170
     1
 91
        0
 92
        0
 62
   257
 93
        1
300
CONTENTFORMAT
  1
CONTENTFORMAT_BEGIN
 90
        0
 91
        0
 92
      512
 93
        0
300

 40
0.0
140
1.0
 94
        5
 62
     0
340
F
144
0.18
309
CONTENTFORMAT_END
171
     1
301
MARGIN
  1
CELLMARGIN_BEGIN
 40
0.06
 40
0.06
 40
0.06
 40
0.06
 40
0.18
 40
0.18
309
CELLMARGIN_END
 94
        6
 95
        1
302
GRIDFORMAT
  1
GRIDFORMAT_BEGIN
 90
        0
 91
        1
 62
     0
 92
       -2
340
0
 93
        0
 40
0.045
309
GRIDFORMAT_END
 95
        2
302
GRIDFORMAT
  1
GRIDFORMAT_BEGIN
 90
        0
 91
        1
 62
     0
 92
       -2
340
0
 93
        0
 40
0.045
309
GRIDFORMAT_END
 95
        4
302
GRIDFORMAT
  1
GRIDFORMAT_BEGIN
 90
        0
 91
        1
 62
     0
 92
       -2
340
0
 93
        0
 40
0.045
309
GRIDFORMAT_END
 95
        8
302
GRIDFORMAT
  1
GRIDFORMAT_BEGIN
 90
        0
 91
        1
 62
     0
 92
       -2
340
0
 93
        0
 40
0.045
309
GRIDFORMAT_END
 95
       16
302
GRIDFORMAT
  1
GRIDFORMAT_BEGIN
 90
        0
 91
        1
 62
     0
 92
       -2
340
0
 93
        0
 40
0.045
309
GRIDFORMAT_END
 95
       32
302
GRIDFORMAT
  1
GRIDFORMAT_BEGIN
 90
        0
 91
        1
 62
     0
 92
       -2
340
0
 93
        0
 40
0.045
309
GRIDFORMAT_END
309
TABLEFORMAT_END
  1
CELLSTYLE_BEGIN
 90
        2
 91
        1
300
_HEADER
309
CELLSTYLE_END
300
CELLSTYLE
  1
TABLEFORMAT_BEGIN
 90
        5
170
     1
 91
        0
 92
        0
 62
   257
 93
        1
300
CONTENTFORMAT
  1
CONTENTFORMAT_BEGIN
 90
        0
 91
        0
 92
      512
 93
        0
300

 40
0.0
140
1.0
 94
        2
 62
     0
340
F
144
0.18
309
CONTENTFORMAT_END
171
     1
301
MARGIN
  1
CELLMARGIN_BEGIN
 40
0.06
 40
0.06
 40
0.06
 40
0.06
 40
0.18
 40
0.18
309
CELLMARGIN_END
 94
        6
 95
        1
302
GRIDFORMAT
  1
GRIDFORMAT_BEGIN
 90
        0
 91
        1
 62
     0
 92
       -2
340
0
 93
        0
 40
0.045
309
GRIDFORMAT_END
 95
        2
302
GRIDFORMAT
  1
GRIDFORMAT_BEGIN
 90
        0
 91
        1
 62
     0
 92
       -2
340
0
 93
        0
 40
0.045
309
GRIDFORMAT_END
 95
        4
302
GRIDFORMAT
  1
GRIDFORMAT_BEGIN
 90
        0
 91
        1
 62
     0
 92
       -2
340
0
 93
        0
 40
0.045
309
GRIDFORMAT_END
 95
        8
302
GRIDFORMAT
  1
GRIDFORMAT_BEGIN
 90
        0
 91
        1
 62
     0
 92
       -2
340
0
 93
        0
 40
0.045
309
GRIDFORMAT_END
 95
       16
302
GRIDFORMAT
  1
GRIDFORMAT_BEGIN
 90
        0
 91
        1
 62
     0
 92
       -2
340
0
 93
        0
 40
0.045
309
GRIDFORMAT_END
 95
       32
302
GRIDFORMAT
  1
GRIDFORMAT_BEGIN
 90
        0
 91
        1
 62
     0
 92
       -2
340
0
 93
        0
 40
0.045
309
GRIDFORMAT_END
309
TABLEFORMAT_END
  1
CELLSTYLE_BEGIN
 90
        3
 91
        2
300
_DATA
309
CELLSTYLE_END
  0
XRECORD
  5
5736
102
{ACAD_REACTORS
330
56BE
102
}
330
56BE
100
AcDbXrecord
280
     1
102
ACAD_ROUNDTRIP_PRE2007_TABLESTYLE
 90
      512
 91
        0
  1

 92
      512
 93
        0
  2

 94
      512
 95
        0
  3

  0
XRECORD
  5
5711
102
{ACAD_REACTORS
330
5710
102
}
330
5710
100
AcDbXrecord
280
     1
102
RTVSPost2010Prop28
280
     1
102
RTVSPost2010PropOp28
 70
     1
102
RTVSPost2010Prop29
280
     1
102
RTVSPost2010PropOp29
 70
     1
102
RTVSPost2010Prop30
280
     0
102
RTVSPost2010PropOp30
 70
     1
102
RTVSPost2010Prop31
280
     0
102
RTVSPost2010PropOp31
 70
     1
102
RTVSPost2010Prop32
280
     0
102
RTVSPost2010PropOp32
 70
     1
102
RTVSPost2010Prop33
280
     0
102
RTVSPost2010PropOp33
 70
     1
102
RTVSPost2010Prop34
280
     0
102
RTVSPost2010PropOp34
 70
     1
102
RTVSPost2010Prop35
280
     0
102
RTVSPost2010PropOp35
 70
     1
102
RTVSPost2010Prop36
280
     0
102
RTVSPost2010PropOp36
 70
     1
102
RTVSPost2010Prop37
 90
       50
102
RTVSPost2010PropOp37
 70
     1
102
RTVSPost2010Prop38
140
0.0
102
RTVSPost2010PropOp38
 70
     1
102
RTVSPost2010Prop39
140
1.0
102
RTVSPost2010PropOp39
 70
     1
102
RTVSPost2010Prop40
 90
        0
102
RTVSPost2010PropOp40
 70
     1
102
RTVSPost2010Prop41ColorIndex
 90
       18
102
RTVSPost2010Prop41ColorRGB
 90
        0
102
RTVSPost2010PropOp41
 70
     1
102
RTVSPost2010Prop42
 90
       50
102
RTVSPost2010PropOp42
 70
     1
102
RTVSPost2010Prop43
 90
        3
102
RTVSPost2010PropOp43
 70
     1
102
RTVSPost2010Prop44ColorIndex
 90
        5
102
RTVSPost2010Prop44ColorRGB
 90
      255
102
RTVSPost2010PropOp44
 70
     1
102
RTVSPost2010Prop45
280
     0
102
RTVSPost2010PropOp45
 70
     1
102
RTVSPost2010Prop46
 90
       50
102
RTVSPost2010PropOp46
 70
     1
102
RTVSPost2010Prop47
 90
       50
102
RTVSPost2010PropOp47
 70
     1
102
RTVSPost2010Prop48
 90
       50
102
RTVSPost2010PropOp48
 70
     1
102
RTVSPost2010Prop49
280
     0
102
RTVSPost2010PropOp49
 70
     1
102
RTVSPost2010Prop50
 90
       50
102
RTVSPost2010PropOp50
 70
     1
102
RTVSPost2010Prop51ColorIndex
 90
      256
102
RTVSPost2010Prop51ColorRGB
 90
-16777216
102
RTVSPost2010PropOp51
 70
     0
102
RTVSPost2010Prop52
140
1.0
102
RTVSPost2010PropOp52
 70
     0
102
RTVSPost2010Prop53
 90
        2
102
RTVSPost2010PropOp53
 70
     1
102
RTVSPost2010Prop54
  1
strokes_ogs.tif
102
RTVSPost2010PropOp54
 70
     1
102
RTVSPost2010Prop55
280
     0
102
RTVSPost2010PropOp55
 70
     1
102
RTVSPost2010Prop56
140
1.0
102
RTVSPost2010PropOp56
 70
     1
102
RTVSPost2010Prop57
140
1.0
102
RTVSPost2010PropOp57
 70
     1
102
RTVSPropertyOp0
 70
     1
102
RTVSPropertyOp1
 70
     1
102
RTVSPropertyOp2
 70
     1
102
RTVSPropertyOp3
 70
     1
102
RTVSPropertyOp4
 70
     1
102
RTVSPropertyOp5
 70
     1
102
RTVSPropertyOp6
 70
     1
102
RTVSPropertyOp7
 70
     1
102
RTVSPropertyOp8
 70
     1
102
RTVSPropertyOp9
 70
     1
102
RTVSPropertyOp10
 70
     1
102
RTVSPropertyOp11
 70
     1
102
RTVSPropertyOp12
 70
     1
102
RTVSPropertyOp13
 70
     1
102
RTVSPropertyOp14
 70
     1
102
RTVSPropertyOp15
 70
     1
102
RTVSPropertyOp16
 70
     1
102
RTVSPropertyOp17
 70
     1
102
RTVSPropertyOp18
 70
     1
102
RTVSPropertyOp19
 70
     1
102
RTVSPropertyOp20
 70
     1
102
RTVSPropertyOp21
 70
     1
102
RTVSPropertyOp22
 70
     1
102
RTVSPropertyOp23
 70
     1
102
RTVSPropertyOp24
 70
     1
102
RTVSPropertyOp25
 70
     1
102
RTVSPropertyOp26
 70
     1
102
RTVSPropertyOp27
 70
     1
102
RTVSPropertyOp28
 70
     1
102
RTVSPropertyOp29
 70
     1
102
RTVSPropertyOp30
 70
     1
102
RTVSPropertyOp31
 70
     1
102
RTVSPropertyOp32
 70
     1
102
RTVSPropertyOp33
 70
     1
102
RTVSPropertyOp34
 70
     1
102
RTVSPropertyOp35
 70
     1
102
RTVSPropertyOp36
 70
     1
102
RTVSPropertyOp37
 70
     1
102
RTVSPropertyOp38
 70
     1
102
RTVSPropertyOp39
 70
     1
102
RTVSPropertyOp40
 70
     1
102
RTVSPropertyOp41
 70
     1
102
RTVSPropertyOp42
 70
     1
102
RTVSPropertyOp43
 70
     1
102
RTVSPropertyOp44
 70
     1
102
RTVSPropertyOp45
 70
     1
102
RTVSPropertyOp46
 70
     1
102
RTVSPropertyOp47
 70
     1
102
RTVSPropertyOp48
 70
     1
102
RTVSPropertyOp49
 70
     1
102
RTVSPropertyOp50
 70
     1
102
RTVSPropertyOp51
 70
     0
102
RTVSPropertyOp52
 70
     0
102
RTVSPropertyOp53
 70
     1
102
RTVSPropertyOp54
 70
     1
102
RTVSPropertyOp55
 70
     1
102
RTVSPropertyOp56
 70
     1
102
RTVSPropertyOp57
 70
     1
102
RTVSPropertyOp58
 70
     1
102
RTVSPropertyOp59
 70
     1
102
RTVSPropertyOp60
 70
     1
102
RTVSPropertyOp61
 70
     1
102
RTVSPropertyOp62
 70
     1
  0
XRECORD
  5
570F
102
{ACAD_REACTORS
330
570E
102
}
330
570E
100
AcDbXrecord
280
     1
102
RTVSPost2010Prop28
280
     0
102
RTVSPost2010PropOp28
 70
     1
102
RTVSPost2010Prop29
280
     1
102
RTVSPost2010PropOp29
 70
     1
102
RTVSPost2010Prop30
280
     1
102
RTVSPost2010PropOp30
 70
     1
102
RTVSPost2010Prop31
280
     0
102
RTVSPost2010PropOp31
 70
     1
102
RTVSPost2010Prop32
280
     0
102
RTVSPost2010PropOp32
 70
     1
102
RTVSPost2010Prop33
280
     0
102
RTVSPost2010PropOp33
 70
     1
102
RTVSPost2010Prop34
280
     0
102
RTVSPost2010PropOp34
 70
     1
102
RTVSPost2010Prop35
280
     0
102
RTVSPost2010PropOp35
 70
     1
102
RTVSPost2010Prop36
280
     0
102
RTVSPost2010PropOp36
 70
     1
102
RTVSPost2010Prop37
 90
       50
102
RTVSPost2010PropOp37
 70
     1
102
RTVSPost2010Prop38
140
0.0
102
RTVSPost2010PropOp38
 70
     1
102
RTVSPost2010Prop39
140
1.0
102
RTVSPost2010PropOp39
 70
     1
102
RTVSPost2010Prop40
 90
        0
102
RTVSPost2010PropOp40
 70
     1
102
RTVSPost2010Prop41ColorIndex
 90
       18
102
RTVSPost2010Prop41ColorRGB
 90
        0
102
RTVSPost2010PropOp41
 70
     1
102
RTVSPost2010Prop42
 90
       50
102
RTVSPost2010PropOp42
 70
     1
102
RTVSPost2010Prop43
 90
        3
102
RTVSPost2010PropOp43
 70
     1
102
RTVSPost2010Prop44ColorIndex
 90
        5
102
RTVSPost2010Prop44ColorRGB
 90
      255
102
RTVSPost2010PropOp44
 70
     1
102
RTVSPost2010Prop45
280
     0
102
RTVSPost2010PropOp45
 70
     1
102
RTVSPost2010Prop46
 90
       50
102
RTVSPost2010PropOp46
 70
     1
102
RTVSPost2010Prop47
 90
       50
102
RTVSPost2010PropOp47
 70
     1
102
RTVSPost2010Prop48
 90
       50
102
RTVSPost2010PropOp48
 70
     1
102
RTVSPost2010Prop49
280
     0
102
RTVSPost2010PropOp49
 70
     1
102
RTVSPost2010Prop50
 90
       50
102
RTVSPost2010PropOp50
 70
     1
102
RTVSPost2010Prop51ColorIndex
 90
      256
102
RTVSPost2010Prop51ColorRGB
 90
-16777216
102
RTVSPost2010PropOp51
 70
     0
102
RTVSPost2010Prop52
140
1.0
102
RTVSPost2010PropOp52
 70
     0
102
RTVSPost2010Prop53
 90
        2
102
RTVSPost2010PropOp53
 70
     1
102
RTVSPost2010Prop54
  1
strokes_ogs.tif
102
RTVSPost2010PropOp54
 70
     1
102
RTVSPost2010Prop55
280
     0
102
RTVSPost2010PropOp55
 70
     1
102
RTVSPost2010Prop56
140
1.0
102
RTVSPost2010PropOp56
 70
     1
102
RTVSPost2010Prop57
140
1.0
102
RTVSPost2010PropOp57
 70
     1
102
RTVSPropertyOp0
 70
     1
102
RTVSPropertyOp1
 70
     1
102
RTVSPropertyOp2
 70
     1
102
RTVSPropertyOp3
 70
     1
102
RTVSPropertyOp4
 70
     1
102
RTVSPropertyOp5
 70
     1
102
RTVSPropertyOp6
 70
     1
102
RTVSPropertyOp7
 70
     1
102
RTVSPropertyOp8
 70
     1
102
RTVSPropertyOp9
 70
     1
102
RTVSPropertyOp10
 70
     1
102
RTVSPropertyOp11
 70
     1
102
RTVSPropertyOp12
 70
     1
102
RTVSPropertyOp13
 70
     1
102
RTVSPropertyOp14
 70
     1
102
RTVSPropertyOp15
 70
     1
102
RTVSPropertyOp16
 70
     1
102
RTVSPropertyOp17
 70
     1
102
RTVSPropertyOp18
 70
     1
102
RTVSPropertyOp19
 70
     1
102
RTVSPropertyOp20
 70
     1
102
RTVSPropertyOp21
 70
     1
102
RTVSPropertyOp22
 70
     1
102
RTVSPropertyOp23
 70
     1
102
RTVSPropertyOp24
 70
     1
102
RTVSPropertyOp25
 70
     1
102
RTVSPropertyOp26
 70
     1
102
RTVSPropertyOp27
 70
     1
102
RTVSPropertyOp28
 70
     1
102
RTVSPropertyOp29
 70
     1
102
RTVSPropertyOp30
 70
     1
102
RTVSPropertyOp31
 70
     1
102
RTVSPropertyOp32
 70
     1
102
RTVSPropertyOp33
 70
     1
102
RTVSPropertyOp34
 70
     1
102
RTVSPropertyOp35
 70
     1
102
RTVSPropertyOp36
 70
     1
102
RTVSPropertyOp37
 70
     1
102
RTVSPropertyOp38
 70
     1
102
RTVSPropertyOp39
 70
     1
102
RTVSPropertyOp40
 70
     1
102
RTVSPropertyOp41
 70
     1
102
RTVSPropertyOp42
 70
     1
102
RTVSPropertyOp43
 70
     1
102
RTVSPropertyOp44
 70
     1
102
RTVSPropertyOp45
 70
     1
102
RTVSPropertyOp46
 70
     1
102
RTVSPropertyOp47
 70
     1
102
RTVSPropertyOp48
 70
     1
102
RTVSPropertyOp49
 70
     1
102
RTVSPropertyOp50
 70
     1
102
RTVSPropertyOp51
 70
     0
102
RTVSPropertyOp52
 70
     0
102
RTVSPropertyOp53
 70
     1
102
RTVSPropertyOp54
 70
     1
102
RTVSPropertyOp55
 70
     1
102
RTVSPropertyOp56
 70
     1
102
RTVSPropertyOp57
 70
     1
102
RTVSPropertyOp58
 70
     1
102
RTVSPropertyOp59
 70
     1
102
RTVSPropertyOp60
 70
     1
102
RTVSPropertyOp61
 70
     1
102
RTVSPropertyOp62
 70
     1
  0
XRECORD
  5
571D
102
{ACAD_REACTORS
330
571C
102
}
330
571C
100
AcDbXrecord
280
     1
102
RTVSPost2010Prop28
280
     0
102
RTVSPost2010PropOp28
 70
     1
102
RTVSPost2010Prop29
280
     1
102
RTVSPost2010PropOp29
 70
     1
102
RTVSPost2010Prop30
280
     1
102
RTVSPost2010PropOp30
 70
     1
102
RTVSPost2010Prop31
280
     0
102
RTVSPost2010PropOp31
 70
     1
102
RTVSPost2010Prop32
280
     0
102
RTVSPost2010PropOp32
 70
     1
102
RTVSPost2010Prop33
280
     0
102
RTVSPost2010PropOp33
 70
     1
102
RTVSPost2010Prop34
280
     0
102
RTVSPost2010PropOp34
 70
     1
102
RTVSPost2010Prop35
280
     0
102
RTVSPost2010PropOp35
 70
     1
102
RTVSPost2010Prop36
280
     0
102
RTVSPost2010PropOp36
 70
     1
102
RTVSPost2010Prop37
 90
       50
102
RTVSPost2010PropOp37
 70
     1
102
RTVSPost2010Prop38
140
0.0
102
RTVSPost2010PropOp38
 70
     1
102
RTVSPost2010Prop39
140
1.0
102
RTVSPost2010PropOp39
 70
     1
102
RTVSPost2010Prop40
 90
        0
102
RTVSPost2010PropOp40
 70
     1
102
RTVSPost2010Prop41ColorIndex
 90
       18
102
RTVSPost2010Prop41ColorRGB
 90
        0
102
RTVSPost2010PropOp41
 70
     1
102
RTVSPost2010Prop42
 90
       50
102
RTVSPost2010PropOp42
 70
     1
102
RTVSPost2010Prop43
 90
        3
102
RTVSPost2010PropOp43
 70
     1
102
RTVSPost2010Prop44ColorIndex
 90
        5
102
RTVSPost2010Prop44ColorRGB
 90
      255
102
RTVSPost2010PropOp44
 70
     1
102
RTVSPost2010Prop45
280
     0
102
RTVSPost2010PropOp45
 70
     1
102
RTVSPost2010Prop46
 90
       50
102
RTVSPost2010PropOp46
 70
     1
102
RTVSPost2010Prop47
 90
       50
102
RTVSPost2010PropOp47
 70
     1
102
RTVSPost2010Prop48
 90
       50
102
RTVSPost2010PropOp48
 70
     1
102
RTVSPost2010Prop49
280
     0
102
RTVSPost2010PropOp49
 70
     1
102
RTVSPost2010Prop50
 90
       50
102
RTVSPost2010PropOp50
 70
     1
102
RTVSPost2010Prop51ColorIndex
 90
      256
102
RTVSPost2010Prop51ColorRGB
 90
-16777216
102
RTVSPost2010PropOp51
 70
     0
102
RTVSPost2010Prop52
140
1.0
102
RTVSPost2010PropOp52
 70
     0
102
RTVSPost2010Prop53
 90
        2
102
RTVSPost2010PropOp53
 70
     1
102
RTVSPost2010Prop54
  1
strokes_ogs.tif
102
RTVSPost2010PropOp54
 70
     1
102
RTVSPost2010Prop55
280
     0
102
RTVSPost2010PropOp55
 70
     1
102
RTVSPost2010Prop56
140
1.0
102
RTVSPost2010PropOp56
 70
     1
102
RTVSPost2010Prop57
140
1.0
102
RTVSPost2010PropOp57
 70
     1
102
RTVSPropertyOp0
 70
     1
102
RTVSPropertyOp1
 70
     1
102
RTVSPropertyOp2
 70
     1
102
RTVSPropertyOp3
 70
     1
102
RTVSPropertyOp4
 70
     1
102
RTVSPropertyOp5
 70
     1
102
RTVSPropertyOp6
 70
     1
102
RTVSPropertyOp7
 70
     1
102
RTVSPropertyOp8
 70
     1
102
RTVSPropertyOp9
 70
     1
102
RTVSPropertyOp10
 70
     1
102
RTVSPropertyOp11
 70
     1
102
RTVSPropertyOp12
 70
     1
102
RTVSPropertyOp13
 70
     1
102
RTVSPropertyOp14
 70
     1
102
RTVSPropertyOp15
 70
     1
102
RTVSPropertyOp16
 70
     1
102
RTVSPropertyOp17
 70
     1
102
RTVSPropertyOp18
 70
     1
102
RTVSPropertyOp19
 70
     1
102
RTVSPropertyOp20
 70
     1
102
RTVSPropertyOp21
 70
     1
102
RTVSPropertyOp22
 70
     1
102
RTVSPropertyOp23
 70
     1
102
RTVSPropertyOp24
 70
     1
102
RTVSPropertyOp25
 70
     1
102
RTVSPropertyOp26
 70
     1
102
RTVSPropertyOp27
 70
     1
102
RTVSPropertyOp28
 70
     1
102
RTVSPropertyOp29
 70
     1
102
RTVSPropertyOp30
 70
     1
102
RTVSPropertyOp31
 70
     1
102
RTVSPropertyOp32
 70
     1
102
RTVSPropertyOp33
 70
     1
102
RTVSPropertyOp34
 70
     1
102
RTVSPropertyOp35
 70
     1
102
RTVSPropertyOp36
 70
     1
102
RTVSPropertyOp37
 70
     1
102
RTVSPropertyOp38
 70
     1
102
RTVSPropertyOp39
 70
     1
102
RTVSPropertyOp40
 70
     1
102
RTVSPropertyOp41
 70
     1
102
RTVSPropertyOp42
 70
     1
102
RTVSPropertyOp43
 70
     1
102
RTVSPropertyOp44
 70
     1
102
RTVSPropertyOp45
 70
     1
102
RTVSPropertyOp46
 70
     1
102
RTVSPropertyOp47
 70
     1
102
RTVSPropertyOp48
 70
     1
102
RTVSPropertyOp49
 70
     1
102
RTVSPropertyOp50
 70
     1
102
RTVSPropertyOp51
 70
     0
102
RTVSPropertyOp52
 70
     0
102
RTVSPropertyOp53
 70
     1
102
RTVSPropertyOp54
 70
     1
102
RTVSPropertyOp55
 70
     1
102
RTVSPropertyOp56
 70
     1
102
RTVSPropertyOp57
 70
     1
102
RTVSPropertyOp58
 70
     1
102
RTVSPropertyOp59
 70
     1
102
RTVSPropertyOp60
 70
     1
102
RTVSPropertyOp61
 70
     1
102
RTVSPropertyOp62
 70
     1
  0
XRECORD
  5
5725
102
{ACAD_REACTORS
330
5724
102
}
330
5724
100
AcDbXrecord
280
     1
102
RTVSPost2010Prop28
280
     0
102
RTVSPost2010PropOp28
 70
     1
102
RTVSPost2010Prop29
280
     1
102
RTVSPost2010PropOp29
 70
     1
102
RTVSPost2010Prop30
280
     1
102
RTVSPost2010PropOp30
 70
     1
102
RTVSPost2010Prop31
280
     0
102
RTVSPost2010PropOp31
 70
     1
102
RTVSPost2010Prop32
280
     0
102
RTVSPost2010PropOp32
 70
     1
102
RTVSPost2010Prop33
280
     0
102
RTVSPost2010PropOp33
 70
     1
102
RTVSPost2010Prop34
280
     0
102
RTVSPost2010PropOp34
 70
     1
102
RTVSPost2010Prop35
280
     0
102
RTVSPost2010PropOp35
 70
     1
102
RTVSPost2010Prop36
280
     0
102
RTVSPost2010PropOp36
 70
     1
102
RTVSPost2010Prop37
 90
       50
102
RTVSPost2010PropOp37
 70
     1
102
RTVSPost2010Prop38
140
0.0
102
RTVSPost2010PropOp38
 70
     1
102
RTVSPost2010Prop39
140
1.0
102
RTVSPost2010PropOp39
 70
     1
102
RTVSPost2010Prop40
 90
        0
102
RTVSPost2010PropOp40
 70
     1
102
RTVSPost2010Prop41ColorIndex
 90
       18
102
RTVSPost2010Prop41ColorRGB
 90
        0
102
RTVSPost2010PropOp41
 70
     1
102
RTVSPost2010Prop42
 90
       50
102
RTVSPost2010PropOp42
 70
     1
102
RTVSPost2010Prop43
 90
        3
102
RTVSPost2010PropOp43
 70
     1
102
RTVSPost2010Prop44ColorIndex
 90
        5
102
RTVSPost2010Prop44ColorRGB
 90
      255
102
RTVSPost2010PropOp44
 70
     1
102
RTVSPost2010Prop45
280
     0
102
RTVSPost2010PropOp45
 70
     1
102
RTVSPost2010Prop46
 90
       50
102
RTVSPost2010PropOp46
 70
     1
102
RTVSPost2010Prop47
 90
       50
102
RTVSPost2010PropOp47
 70
     1
102
RTVSPost2010Prop48
 90
       50
102
RTVSPost2010PropOp48
 70
     1
102
RTVSPost2010Prop49
280
     0
102
RTVSPost2010PropOp49
 70
     1
102
RTVSPost2010Prop50
 90
       50
102
RTVSPost2010PropOp50
 70
     1
102
RTVSPost2010Prop51ColorIndex
 90
      256
102
RTVSPost2010Prop51ColorRGB
 90
-16777216
102
RTVSPost2010PropOp51
 70
     0
102
RTVSPost2010Prop52
140
1.0
102
RTVSPost2010PropOp52
 70
     0
102
RTVSPost2010Prop53
 90
        2
102
RTVSPost2010PropOp53
 70
     1
102
RTVSPost2010Prop54
  1
strokes_ogs.tif
102
RTVSPost2010PropOp54
 70
     1
102
RTVSPost2010Prop55
280
     0
102
RTVSPost2010PropOp55
 70
     1
102
RTVSPost2010Prop56
140
1.0
102
RTVSPost2010PropOp56
 70
     1
102
RTVSPost2010Prop57
140
1.0
102
RTVSPost2010PropOp57
 70
     1
102
RTVSPropertyOp0
 70
     1
102
RTVSPropertyOp1
 70
     1
102
RTVSPropertyOp2
 70
     1
102
RTVSPropertyOp3
 70
     1
102
RTVSPropertyOp4
 70
     1
102
RTVSPropertyOp5
 70
     1
102
RTVSPropertyOp6
 70
     1
102
RTVSPropertyOp7
 70
     1
102
RTVSPropertyOp8
 70
     1
102
RTVSPropertyOp9
 70
     1
102
RTVSPropertyOp10
 70
     1
102
RTVSPropertyOp11
 70
     1
102
RTVSPropertyOp12
 70
     1
102
RTVSPropertyOp13
 70
     1
102
RTVSPropertyOp14
 70
     1
102
RTVSPropertyOp15
 70
     1
102
RTVSPropertyOp16
 70
     1
102
RTVSPropertyOp17
 70
     1
102
RTVSPropertyOp18
 70
     1
102
RTVSPropertyOp19
 70
     1
102
RTVSPropertyOp20
 70
     1
102
RTVSPropertyOp21
 70
     1
102
RTVSPropertyOp22
 70
     1
102
RTVSPropertyOp23
 70
     1
102
RTVSPropertyOp24
 70
     1
102
RTVSPropertyOp25
 70
     1
102
RTVSPropertyOp26
 70
     1
102
RTVSPropertyOp27
 70
     1
102
RTVSPropertyOp28
 70
     1
102
RTVSPropertyOp29
 70
     1
102
RTVSPropertyOp30
 70
     1
102
RTVSPropertyOp31
 70
     1
102
RTVSPropertyOp32
 70
     1
102
RTVSPropertyOp33
 70
     1
102
RTVSPropertyOp34
 70
     1
102
RTVSPropertyOp35
 70
     1
102
RTVSPropertyOp36
 70
     1
102
RTVSPropertyOp37
 70
     1
102
RTVSPropertyOp38
 70
     1
102
RTVSPropertyOp39
 70
     1
102
RTVSPropertyOp40
 70
     1
102
RTVSPropertyOp41
 70
     1
102
RTVSPropertyOp42
 70
     1
102
RTVSPropertyOp43
 70
     1
102
RTVSPropertyOp44
 70
     1
102
RTVSPropertyOp45
 70
     1
102
RTVSPropertyOp46
 70
     1
102
RTVSPropertyOp47
 70
     1
102
RTVSPropertyOp48
 70
     1
102
RTVSPropertyOp49
 70
     1
102
RTVSPropertyOp50
 70
     1
102
RTVSPropertyOp51
 70
     0
102
RTVSPropertyOp52
 70
     0
102
RTVSPropertyOp53
 70
     1
102
RTVSPropertyOp54
 70
     1
102
RTVSPropertyOp55
 70
     1
102
RTVSPropertyOp56
 70
     1
102
RTVSPropertyOp57
 70
     1
102
RTVSPropertyOp58
 70
     1
102
RTVSPropertyOp59
 70
     1
102
RTVSPropertyOp60
 70
     1
102
RTVSPropertyOp61
 70
     1
102
RTVSPropertyOp62
 70
     1
  0
XRECORD
  5
5717
102
{ACAD_REACTORS
330
5716
102
}
330
5716
100
AcDbXrecord
280
     1
102
RTVSPost2010Prop28
280
     0
102
RTVSPost2010PropOp28
 70
     1
102
RTVSPost2010Prop29
280
     1
102
RTVSPost2010PropOp29
 70
     1
102
RTVSPost2010Prop30
280
     1
102
RTVSPost2010PropOp30
 70
     1
102
RTVSPost2010Prop31
280
     0
102
RTVSPost2010PropOp31
 70
     1
102
RTVSPost2010Prop32
280
     0
102
RTVSPost2010PropOp32
 70
     1
102
RTVSPost2010Prop33
280
     0
102
RTVSPost2010PropOp33
 70
     1
102
RTVSPost2010Prop34
280
     0
102
RTVSPost2010PropOp34
 70
     1
102
RTVSPost2010Prop35
280
     0
102
RTVSPost2010PropOp35
 70
     1
102
RTVSPost2010Prop36
280
     0
102
RTVSPost2010PropOp36
 70
     1
102
RTVSPost2010Prop37
 90
       50
102
RTVSPost2010PropOp37
 70
     1
102
RTVSPost2010Prop38
140
0.0
102
RTVSPost2010PropOp38
 70
     1
102
RTVSPost2010Prop39
140
1.0
102
RTVSPost2010PropOp39
 70
     1
102
RTVSPost2010Prop40
 90
        0
102
RTVSPost2010PropOp40
 70
     1
102
RTVSPost2010Prop41ColorIndex
 90
       18
102
RTVSPost2010Prop41ColorRGB
 90
        0
102
RTVSPost2010PropOp41
 70
     1
102
RTVSPost2010Prop42
 90
       50
102
RTVSPost2010PropOp42
 70
     1
102
RTVSPost2010Prop43
 90
        3
102
RTVSPost2010PropOp43
 70
     1
102
RTVSPost2010Prop44ColorIndex
 90
        5
102
RTVSPost2010Prop44ColorRGB
 90
      255
102
RTVSPost2010PropOp44
 70
     1
102
RTVSPost2010Prop45
280
     0
102
RTVSPost2010PropOp45
 70
     1
102
RTVSPost2010Prop46
 90
       50
102
RTVSPost2010PropOp46
 70
     1
102
RTVSPost2010Prop47
 90
       50
102
RTVSPost2010PropOp47
 70
     1
102
RTVSPost2010Prop48
 90
       50
102
RTVSPost2010PropOp48
 70
     1
102
RTVSPost2010Prop49
280
     0
102
RTVSPost2010PropOp49
 70
     1
102
RTVSPost2010Prop50
 90
       50
102
RTVSPost2010PropOp50
 70
     1
102
RTVSPost2010Prop51ColorIndex
 90
      256
102
RTVSPost2010Prop51ColorRGB
 90
-16777216
102
RTVSPost2010PropOp51
 70
     0
102
RTVSPost2010Prop52
140
1.0
102
RTVSPost2010PropOp52
 70
     0
102
RTVSPost2010Prop53
 90
        2
102
RTVSPost2010PropOp53
 70
     1
102
RTVSPost2010Prop54
  1
strokes_ogs.tif
102
RTVSPost2010PropOp54
 70
     1
102
RTVSPost2010Prop55
280
     0
102
RTVSPost2010PropOp55
 70
     1
102
RTVSPost2010Prop56
140
1.0
102
RTVSPost2010PropOp56
 70
     1
102
RTVSPost2010Prop57
140
1.0
102
RTVSPost2010PropOp57
 70
     1
102
RTVSPropertyOp0
 70
     1
102
RTVSPropertyOp1
 70
     1
102
RTVSPropertyOp2
 70
     1
102
RTVSPropertyOp3
 70
     1
102
RTVSPropertyOp4
 70
     1
102
RTVSPropertyOp5
 70
     1
102
RTVSPropertyOp6
 70
     1
102
RTVSPropertyOp7
 70
     1
102
RTVSPropertyOp8
 70
     1
102
RTVSPropertyOp9
 70
     1
102
RTVSPropertyOp10
 70
     1
102
RTVSPropertyOp11
 70
     1
102
RTVSPropertyOp12
 70
     1
102
RTVSPropertyOp13
 70
     1
102
RTVSPropertyOp14
 70
     1
102
RTVSPropertyOp15
 70
     1
102
RTVSPropertyOp16
 70
     1
102
RTVSPropertyOp17
 70
     1
102
RTVSPropertyOp18
 70
     1
102
RTVSPropertyOp19
 70
     1
102
RTVSPropertyOp20
 70
     1
102
RTVSPropertyOp21
 70
     1
102
RTVSPropertyOp22
 70
     1
102
RTVSPropertyOp23
 70
     1
102
RTVSPropertyOp24
 70
     1
102
RTVSPropertyOp25
 70
     1
102
RTVSPropertyOp26
 70
     1
102
RTVSPropertyOp27
 70
     1
102
RTVSPropertyOp28
 70
     1
102
RTVSPropertyOp29
 70
     1
102
RTVSPropertyOp30
 70
     1
102
RTVSPropertyOp31
 70
     1
102
RTVSPropertyOp32
 70
     1
102
RTVSPropertyOp33
 70
     1
102
RTVSPropertyOp34
 70
     1
102
RTVSPropertyOp35
 70
     1
102
RTVSPropertyOp36
 70
     1
102
RTVSPropertyOp37
 70
     1
102
RTVSPropertyOp38
 70
     1
102
RTVSPropertyOp39
 70
     1
102
RTVSPropertyOp40
 70
     1
102
RTVSPropertyOp41
 70
     1
102
RTVSPropertyOp42
 70
     1
102
RTVSPropertyOp43
 70
     1
102
RTVSPropertyOp44
 70
     1
102
RTVSPropertyOp45
 70
     1
102
RTVSPropertyOp46
 70
     1
102
RTVSPropertyOp47
 70
     1
102
RTVSPropertyOp48
 70
     1
102
RTVSPropertyOp49
 70
     1
102
RTVSPropertyOp50
 70
     1
102
RTVSPropertyOp51
 70
     0
102
RTVSPropertyOp52
 70
     0
102
RTVSPropertyOp53
 70
     1
102
RTVSPropertyOp54
 70
     1
102
RTVSPropertyOp55
 70
     1
102
RTVSPropertyOp56
 70
     1
102
RTVSPropertyOp57
 70
     1
102
RTVSPropertyOp58
 70
     1
102
RTVSPropertyOp59
 70
     1
102
RTVSPropertyOp60
 70
     1
102
RTVSPropertyOp61
 70
     1
102
RTVSPropertyOp62
 70
     1
  0
XRECORD
  5
571B
102
{ACAD_REACTORS
330
571A
102
}
330
571A
100
AcDbXrecord
280
     1
102
RTVSPost2010Prop28
280
     0
102
RTVSPost2010PropOp28
 70
     1
102
RTVSPost2010Prop29
280
     1
102
RTVSPost2010PropOp29
 70
     1
102
RTVSPost2010Prop30
280
     1
102
RTVSPost2010PropOp30
 70
     1
102
RTVSPost2010Prop31
280
     0
102
RTVSPost2010PropOp31
 70
     1
102
RTVSPost2010Prop32
280
     0
102
RTVSPost2010PropOp32
 70
     1
102
RTVSPost2010Prop33
280
     0
102
RTVSPost2010PropOp33
 70
     1
102
RTVSPost2010Prop34
280
     0
102
RTVSPost2010PropOp34
 70
     1
102
RTVSPost2010Prop35
280
     0
102
RTVSPost2010PropOp35
 70
     1
102
RTVSPost2010Prop36
280
     0
102
RTVSPost2010PropOp36
 70
     1
102
RTVSPost2010Prop37
 90
       50
102
RTVSPost2010PropOp37
 70
     1
102
RTVSPost2010Prop38
140
0.0
102
RTVSPost2010PropOp38
 70
     1
102
RTVSPost2010Prop39
140
1.0
102
RTVSPost2010PropOp39
 70
     1
102
RTVSPost2010Prop40
 90
        0
102
RTVSPost2010PropOp40
 70
     1
102
RTVSPost2010Prop41ColorIndex
 90
       18
102
RTVSPost2010Prop41ColorRGB
 90
        0
102
RTVSPost2010PropOp41
 70
     1
102
RTVSPost2010Prop42
 90
       50
102
RTVSPost2010PropOp42
 70
     1
102
RTVSPost2010Prop43
 90
        3
102
RTVSPost2010PropOp43
 70
     1
102
RTVSPost2010Prop44ColorIndex
 90
        5
102
RTVSPost2010Prop44ColorRGB
 90
      255
102
RTVSPost2010PropOp44
 70
     1
102
RTVSPost2010Prop45
280
     0
102
RTVSPost2010PropOp45
 70
     1
102
RTVSPost2010Prop46
 90
       50
102
RTVSPost2010PropOp46
 70
     1
102
RTVSPost2010Prop47
 90
       50
102
RTVSPost2010PropOp47
 70
     1
102
RTVSPost2010Prop48
 90
       50
102
RTVSPost2010PropOp48
 70
     1
102
RTVSPost2010Prop49
280
     0
102
RTVSPost2010PropOp49
 70
     1
102
RTVSPost2010Prop50
 90
       50
102
RTVSPost2010PropOp50
 70
     1
102
RTVSPost2010Prop51ColorIndex
 90
      256
102
RTVSPost2010Prop51ColorRGB
 90
-16777216
102
RTVSPost2010PropOp51
 70
     0
102
RTVSPost2010Prop52
140
1.0
102
RTVSPost2010PropOp52
 70
     0
102
RTVSPost2010Prop53
 90
        2
102
RTVSPost2010PropOp53
 70
     1
102
RTVSPost2010Prop54
  1
strokes_ogs.tif
102
RTVSPost2010PropOp54
 70
     1
102
RTVSPost2010Prop55
280
     0
102
RTVSPost2010PropOp55
 70
     1
102
RTVSPost2010Prop56
140
1.0
102
RTVSPost2010PropOp56
 70
     1
102
RTVSPost2010Prop57
140
1.0
102
RTVSPost2010PropOp57
 70
     1
102
RTVSPropertyOp0
 70
     1
102
RTVSPropertyOp1
 70
     1
102
RTVSPropertyOp2
 70
     1
102
RTVSPropertyOp3
 70
     1
102
RTVSPropertyOp4
 70
     1
102
RTVSPropertyOp5
 70
     1
102
RTVSPropertyOp6
 70
     1
102
RTVSPropertyOp7
 70
     1
102
RTVSPropertyOp8
 70
     1
102
RTVSPropertyOp9
 70
     1
102
RTVSPropertyOp10
 70
     1
102
RTVSPropertyOp11
 70
     1
102
RTVSPropertyOp12
 70
     1
102
RTVSPropertyOp13
 70
     1
102
RTVSPropertyOp14
 70
     1
102
RTVSPropertyOp15
 70
     1
102
RTVSPropertyOp16
 70
     1
102
RTVSPropertyOp17
 70
     1
102
RTVSPropertyOp18
 70
     1
102
RTVSPropertyOp19
 70
     1
102
RTVSPropertyOp20
 70
     1
102
RTVSPropertyOp21
 70
     1
102
RTVSPropertyOp22
 70
     1
102
RTVSPropertyOp23
 70
     1
102
RTVSPropertyOp24
 70
     1
102
RTVSPropertyOp25
 70
     1
102
RTVSPropertyOp26
 70
     1
102
RTVSPropertyOp27
 70
     1
102
RTVSPropertyOp28
 70
     1
102
RTVSPropertyOp29
 70
     1
102
RTVSPropertyOp30
 70
     1
102
RTVSPropertyOp31
 70
     1
102
RTVSPropertyOp32
 70
     1
102
RTVSPropertyOp33
 70
     1
102
RTVSPropertyOp34
 70
     1
102
RTVSPropertyOp35
 70
     1
102
RTVSPropertyOp36
 70
     1
102
RTVSPropertyOp37
 70
     1
102
RTVSPropertyOp38
 70
     1
102
RTVSPropertyOp39
 70
     1
102
RTVSPropertyOp40
 70
     1
102
RTVSPropertyOp41
 70
     1
102
RTVSPropertyOp42
 70
     1
102
RTVSPropertyOp43
 70
     1
102
RTVSPropertyOp44
 70
     1
102
RTVSPropertyOp45
 70
     1
102
RTVSPropertyOp46
 70
     1
102
RTVSPropertyOp47
 70
     1
102
RTVSPropertyOp48
 70
     1
102
RTVSPropertyOp49
 70
     1
102
RTVSPropertyOp50
 70
     1
102
RTVSPropertyOp51
 70
     0
102
RTVSPropertyOp52
 70
     0
102
RTVSPropertyOp53
 70
     1
102
RTVSPropertyOp54
 70
     1
102
RTVSPropertyOp55
 70
     1
102
RTVSPropertyOp56
 70
     1
102
RTVSPropertyOp57
 70
     1
102
RTVSPropertyOp58
 70
     1
102
RTVSPropertyOp59
 70
     1
102
RTVSPropertyOp60
 70
     1
102
RTVSPropertyOp61
 70
     1
102
RTVSPropertyOp62
 70
     1
  0
XRECORD
  5
5735
102
{ACAD_REACTORS
330
5734
102
}
330
5734
100
AcDbXrecord
280
     1
102
RTVSPost2010Prop28
280
     0
102
RTVSPost2010PropOp28
 70
     1
102
RTVSPost2010Prop29
280
     1
102
RTVSPost2010PropOp29
 70
     1
102
RTVSPost2010Prop30
280
     1
102
RTVSPost2010PropOp30
 70
     1
102
RTVSPost2010Prop31
280
     0
102
RTVSPost2010PropOp31
 70
     1
102
RTVSPost2010Prop32
280
     0
102
RTVSPost2010PropOp32
 70
     1
102
RTVSPost2010Prop33
280
     0
102
RTVSPost2010PropOp33
 70
     1
102
RTVSPost2010Prop34
280
     0
102
RTVSPost2010PropOp34
 70
     1
102
RTVSPost2010Prop35
280
     0
102
RTVSPost2010PropOp35
 70
     1
102
RTVSPost2010Prop36
280
     0
102
RTVSPost2010PropOp36
 70
     1
102
RTVSPost2010Prop37
 90
       50
102
RTVSPost2010PropOp37
 70
     0
102
RTVSPost2010Prop38
140
0.0
102
RTVSPost2010PropOp38
 70
     0
102
RTVSPost2010Prop39
140
1.0
102
RTVSPost2010PropOp39
 70
     0
102
RTVSPost2010Prop40
 90
        0
102
RTVSPost2010PropOp40
 70
     0
102
RTVSPost2010Prop41ColorIndex
 90
       18
102
RTVSPost2010Prop41ColorRGB
 90
        0
102
RTVSPost2010PropOp41
 70
     0
102
RTVSPost2010Prop42
 90
       50
102
RTVSPost2010PropOp42
 70
     0
102
RTVSPost2010Prop43
 90
        3
102
RTVSPost2010PropOp43
 70
     0
102
RTVSPost2010Prop44ColorIndex
 90
        5
102
RTVSPost2010Prop44ColorRGB
 90
      255
102
RTVSPost2010PropOp44
 70
     0
102
RTVSPost2010Prop45
280
     0
102
RTVSPost2010PropOp45
 70
     1
102
RTVSPost2010Prop46
 90
       50
102
RTVSPost2010PropOp46
 70
     0
102
RTVSPost2010Prop47
 90
       50
102
RTVSPost2010PropOp47
 70
     0
102
RTVSPost2010Prop48
 90
       50
102
RTVSPost2010PropOp48
 70
     0
102
RTVSPost2010Prop49
280
     0
102
RTVSPost2010PropOp49
 70
     1
102
RTVSPost2010Prop50
 90
       50
102
RTVSPost2010PropOp50
 70
     0
102
RTVSPost2010Prop51ColorIndex
 90
      256
102
RTVSPost2010Prop51ColorRGB
 90
-16777216
102
RTVSPost2010PropOp51
 70
     0
102
RTVSPost2010Prop52
140
1.0
102
RTVSPost2010PropOp52
 70
     0
102
RTVSPost2010Prop53
 90
        2
102
RTVSPost2010PropOp53
 70
     0
102
RTVSPost2010Prop54
  1
strokes_ogs.tif
102
RTVSPost2010PropOp54
 70
     0
102
RTVSPost2010Prop55
280
     0
102
RTVSPost2010PropOp55
 70
     1
102
RTVSPost2010Prop56
140
1.0
102
RTVSPost2010PropOp56
 70
     0
102
RTVSPost2010Prop57
140
1.0
102
RTVSPost2010PropOp57
 70
     0
102
RTVSPropertyOp0
 70
     0
102
RTVSPropertyOp1
 70
     0
102
RTVSPropertyOp2
 70
     0
102
RTVSPropertyOp3
 70
     0
102
RTVSPropertyOp4
 70
     0
102
RTVSPropertyOp5
 70
     0
102
RTVSPropertyOp6
 70
     0
102
RTVSPropertyOp7
 70
     0
102
RTVSPropertyOp8
 70
     0
102
RTVSPropertyOp9
 70
     0
102
RTVSPropertyOp10
 70
     0
102
RTVSPropertyOp11
 70
     0
102
RTVSPropertyOp12
 70
     0
102
RTVSPropertyOp13
 70
     0
102
RTVSPropertyOp14
 70
     2
102
RTVSPropertyOp15
 70
     0
102
RTVSPropertyOp16
 70
     0
102
RTVSPropertyOp17
 70
     0
102
RTVSPropertyOp18
 70
     0
102
RTVSPropertyOp19
 70
     0
102
RTVSPropertyOp20
 70
     0
102
RTVSPropertyOp21
 70
     0
102
RTVSPropertyOp22
 70
     0
102
RTVSPropertyOp23
 70
     0
102
RTVSPropertyOp24
 70
     0
102
RTVSPropertyOp25
 70
     0
102
RTVSPropertyOp26
 70
     0
102
RTVSPropertyOp27
 70
     0
102
RTVSPropertyOp28
 70
     1
102
RTVSPropertyOp29
 70
     1
102
RTVSPropertyOp30
 70
     1
102
RTVSPropertyOp31
 70
     1
102
RTVSPropertyOp32
 70
     1
102
RTVSPropertyOp33
 70
     1
102
RTVSPropertyOp34
 70
     1
102
RTVSPropertyOp35
 70
     1
102
RTVSPropertyOp36
 70
     1
102
RTVSPropertyOp37
 70
     0
102
RTVSPropertyOp38
 70
     0
102
RTVSPropertyOp39
 70
     0
102
RTVSPropertyOp40
 70
     0
102
RTVSPropertyOp41
 70
     0
102
RTVSPropertyOp42
 70
     0
102
RTVSPropertyOp43
 70
     0
102
RTVSPropertyOp44
 70
     0
102
RTVSPropertyOp45
 70
     1
102
RTVSPropertyOp46
 70
     0
102
RTVSPropertyOp47
 70
     0
102
RTVSPropertyOp48
 70
     0
102
RTVSPropertyOp49
 70
     1
102
RTVSPropertyOp50
 70
     0
102
RTVSPropertyOp51
 70
     0
102
RTVSPropertyOp52
 70
     0
102
RTVSPropertyOp53
 70
     0
102
RTVSPropertyOp54
 70
     0
102
RTVSPropertyOp55
 70
     1
102
RTVSPropertyOp56
 70
     0
102
RTVSPropertyOp57
 70
     0
102
RTVSPropertyOp58
 70
     0
102
RTVSPropertyOp59
 70
     0
102
RTVSPropertyOp60
 70
     0
102
RTVSPropertyOp61
 70
     0
102
RTVSPropertyOp62
 70
     0
  0
XRECORD
  5
5723
102
{ACAD_REACTORS
330
5722
102
}
330
5722
100
AcDbXrecord
280
     1
102
RTVSPost2010Prop28
280
     0
102
RTVSPost2010PropOp28
 70
     1
102
RTVSPost2010Prop29
280
     1
102
RTVSPost2010PropOp29
 70
     1
102
RTVSPost2010Prop30
280
     1
102
RTVSPost2010PropOp30
 70
     1
102
RTVSPost2010Prop31
280
     0
102
RTVSPost2010PropOp31
 70
     1
102
RTVSPost2010Prop32
280
     0
102
RTVSPost2010PropOp32
 70
     1
102
RTVSPost2010Prop33
280
     0
102
RTVSPost2010PropOp33
 70
     1
102
RTVSPost2010Prop34
280
     0
102
RTVSPost2010PropOp34
 70
     1
102
RTVSPost2010Prop35
280
     0
102
RTVSPost2010PropOp35
 70
     1
102
RTVSPost2010Prop36
280
     0
102
RTVSPost2010PropOp36
 70
     1
102
RTVSPost2010Prop37
 90
       50
102
RTVSPost2010PropOp37
 70
     1
102
RTVSPost2010Prop38
140
0.0
102
RTVSPost2010PropOp38
 70
     1
102
RTVSPost2010Prop39
140
1.0
102
RTVSPost2010PropOp39
 70
     1
102
RTVSPost2010Prop40
 90
        0
102
RTVSPost2010PropOp40
 70
     1
102
RTVSPost2010Prop41ColorIndex
 90
       18
102
RTVSPost2010Prop41ColorRGB
 90
        0
102
RTVSPost2010PropOp41
 70
     1
102
RTVSPost2010Prop42
 90
       50
102
RTVSPost2010PropOp42
 70
     1
102
RTVSPost2010Prop43
 90
        3
102
RTVSPost2010PropOp43
 70
     1
102
RTVSPost2010Prop44ColorIndex
 90
        5
102
RTVSPost2010Prop44ColorRGB
 90
      255
102
RTVSPost2010PropOp44
 70
     1
102
RTVSPost2010Prop45
280
     0
102
RTVSPost2010PropOp45
 70
     1
102
RTVSPost2010Prop46
 90
       50
102
RTVSPost2010PropOp46
 70
     1
102
RTVSPost2010Prop47
 90
       50
102
RTVSPost2010PropOp47
 70
     1
102
RTVSPost2010Prop48
 90
       50
102
RTVSPost2010PropOp48
 70
     1
102
RTVSPost2010Prop49
280
     0
102
RTVSPost2010PropOp49
 70
     1
102
RTVSPost2010Prop50
 90
       50
102
RTVSPost2010PropOp50
 70
     1
102
RTVSPost2010Prop51ColorIndex
 90
      256
102
RTVSPost2010Prop51ColorRGB
 90
-16777216
102
RTVSPost2010PropOp51
 70
     0
102
RTVSPost2010Prop52
140
1.0
102
RTVSPost2010PropOp52
 70
     0
102
RTVSPost2010Prop53
 90
        2
102
RTVSPost2010PropOp53
 70
     1
102
RTVSPost2010Prop54
  1
strokes_ogs.tif
102
RTVSPost2010PropOp54
 70
     1
102
RTVSPost2010Prop55
280
     0
102
RTVSPost2010PropOp55
 70
     1
102
RTVSPost2010Prop56
140
1.0
102
RTVSPost2010PropOp56
 70
     1
102
RTVSPost2010Prop57
140
1.0
102
RTVSPost2010PropOp57
 70
     1
102
RTVSPropertyOp0
 70
     1
102
RTVSPropertyOp1
 70
     1
102
RTVSPropertyOp2
 70
     1
102
RTVSPropertyOp3
 70
     1
102
RTVSPropertyOp4
 70
     1
102
RTVSPropertyOp5
 70
     1
102
RTVSPropertyOp6
 70
     1
102
RTVSPropertyOp7
 70
     1
102
RTVSPropertyOp8
 70
     1
102
RTVSPropertyOp9
 70
     1
102
RTVSPropertyOp10
 70
     1
102
RTVSPropertyOp11
 70
     1
102
RTVSPropertyOp12
 70
     1
102
RTVSPropertyOp13
 70
     1
102
RTVSPropertyOp14
 70
     1
102
RTVSPropertyOp15
 70
     1
102
RTVSPropertyOp16
 70
     1
102
RTVSPropertyOp17
 70
     1
102
RTVSPropertyOp18
 70
     1
102
RTVSPropertyOp19
 70
     1
102
RTVSPropertyOp20
 70
     1
102
RTVSPropertyOp21
 70
     1
102
RTVSPropertyOp22
 70
     1
102
RTVSPropertyOp23
 70
     1
102
RTVSPropertyOp24
 70
     1
102
RTVSPropertyOp25
 70
     1
102
RTVSPropertyOp26
 70
     1
102
RTVSPropertyOp27
 70
     1
102
RTVSPropertyOp28
 70
     1
102
RTVSPropertyOp29
 70
     1
102
RTVSPropertyOp30
 70
     1
102
RTVSPropertyOp31
 70
     1
102
RTVSPropertyOp32
 70
     1
102
RTVSPropertyOp33
 70
     1
102
RTVSPropertyOp34
 70
     1
102
RTVSPropertyOp35
 70
     1
102
RTVSPropertyOp36
 70
     1
102
RTVSPropertyOp37
 70
     1
102
RTVSPropertyOp38
 70
     1
102
RTVSPropertyOp39
 70
     1
102
RTVSPropertyOp40
 70
     1
102
RTVSPropertyOp41
 70
     1
102
RTVSPropertyOp42
 70
     1
102
RTVSPropertyOp43
 70
     1
102
RTVSPropertyOp44
 70
     1
102
RTVSPropertyOp45
 70
     1
102
RTVSPropertyOp46
 70
     1
102
RTVSPropertyOp47
 70
     1
102
RTVSPropertyOp48
 70
     1
102
RTVSPropertyOp49
 70
     1
102
RTVSPropertyOp50
 70
     1
102
RTVSPropertyOp51
 70
     0
102
RTVSPropertyOp52
 70
     0
102
RTVSPropertyOp53
 70
     1
102
RTVSPropertyOp54
 70
     1
102
RTVSPropertyOp55
 70
     1
102
RTVSPropertyOp56
 70
     1
102
RTVSPropertyOp57
 70
     1
102
RTVSPropertyOp58
 70
     1
102
RTVSPropertyOp59
 70
     1
102
RTVSPropertyOp60
 70
     1
102
RTVSPropertyOp61
 70
     1
102
RTVSPropertyOp62
 70
     1
  0
XRECORD
  5
5707
102
{ACAD_REACTORS
330
5706
102
}
330
5706
100
AcDbXrecord
280
     1
102
RTVSPost2010Prop28
280
     0
102
RTVSPost2010PropOp28
 70
     1
102
RTVSPost2010Prop29
280
     1
102
RTVSPost2010PropOp29
 70
     1
102
RTVSPost2010Prop30
280
     1
102
RTVSPost2010PropOp30
 70
     1
102
RTVSPost2010Prop31
280
     0
102
RTVSPost2010PropOp31
 70
     1
102
RTVSPost2010Prop32
280
     0
102
RTVSPost2010PropOp32
 70
     1
102
RTVSPost2010Prop33
280
     0
102
RTVSPost2010PropOp33
 70
     1
102
RTVSPost2010Prop34
280
     0
102
RTVSPost2010PropOp34
 70
     1
102
RTVSPost2010Prop35
280
     0
102
RTVSPost2010PropOp35
 70
     1
102
RTVSPost2010Prop36
280
     0
102
RTVSPost2010PropOp36
 70
     1
102
RTVSPost2010Prop37
 90
       50
102
RTVSPost2010PropOp37
 70
     1
102
RTVSPost2010Prop38
140
0.0
102
RTVSPost2010PropOp38
 70
     1
102
RTVSPost2010Prop39
140
1.0
102
RTVSPost2010PropOp39
 70
     1
102
RTVSPost2010Prop40
 90
        0
102
RTVSPost2010PropOp40
 70
     1
102
RTVSPost2010Prop41ColorIndex
 90
       18
102
RTVSPost2010Prop41ColorRGB
 90
        0
102
RTVSPost2010PropOp41
 70
     1
102
RTVSPost2010Prop42
 90
       50
102
RTVSPost2010PropOp42
 70
     1
102
RTVSPost2010Prop43
 90
        3
102
RTVSPost2010PropOp43
 70
     1
102
RTVSPost2010Prop44ColorIndex
 90
        5
102
RTVSPost2010Prop44ColorRGB
 90
      255
102
RTVSPost2010PropOp44
 70
     1
102
RTVSPost2010Prop45
280
     0
102
RTVSPost2010PropOp45
 70
     1
102
RTVSPost2010Prop46
 90
       50
102
RTVSPost2010PropOp46
 70
     1
102
RTVSPost2010Prop47
 90
       50
102
RTVSPost2010PropOp47
 70
     1
102
RTVSPost2010Prop48
 90
       50
102
RTVSPost2010PropOp48
 70
     1
102
RTVSPost2010Prop49
280
     0
102
RTVSPost2010PropOp49
 70
     1
102
RTVSPost2010Prop50
 90
       50
102
RTVSPost2010PropOp50
 70
     1
102
RTVSPost2010Prop51ColorIndex
 90
      256
102
RTVSPost2010Prop51ColorRGB
 90
-16777216
102
RTVSPost2010PropOp51
 70
     0
102
RTVSPost2010Prop52
140
1.0
102
RTVSPost2010PropOp52
 70
     0
102
RTVSPost2010Prop53
 90
        2
102
RTVSPost2010PropOp53
 70
     1
102
RTVSPost2010Prop54
  1
strokes_ogs.tif
102
RTVSPost2010PropOp54
 70
     1
102
RTVSPost2010Prop55
280
     0
102
RTVSPost2010PropOp55
 70
     1
102
RTVSPost2010Prop56
140
1.0
102
RTVSPost2010PropOp56
 70
     1
102
RTVSPost2010Prop57
140
1.0
102
RTVSPost2010PropOp57
 70
     1
102
RTVSPropertyOp0
 70
     1
102
RTVSPropertyOp1
 70
     1
102
RTVSPropertyOp2
 70
     1
102
RTVSPropertyOp3
 70
     1
102
RTVSPropertyOp4
 70
     1
102
RTVSPropertyOp5
 70
     1
102
RTVSPropertyOp6
 70
     1
102
RTVSPropertyOp7
 70
     1
102
RTVSPropertyOp8
 70
     1
102
RTVSPropertyOp9
 70
     1
102
RTVSPropertyOp10
 70
     1
102
RTVSPropertyOp11
 70
     1
102
RTVSPropertyOp12
 70
     1
102
RTVSPropertyOp13
 70
     1
102
RTVSPropertyOp14
 70
     1
102
RTVSPropertyOp15
 70
     1
102
RTVSPropertyOp16
 70
     1
102
RTVSPropertyOp17
 70
     1
102
RTVSPropertyOp18
 70
     1
102
RTVSPropertyOp19
 70
     1
102
RTVSPropertyOp20
 70
     1
102
RTVSPropertyOp21
 70
     1
102
RTVSPropertyOp22
 70
     1
102
RTVSPropertyOp23
 70
     1
102
RTVSPropertyOp24
 70
     1
102
RTVSPropertyOp25
 70
     1
102
RTVSPropertyOp26
 70
     1
102
RTVSPropertyOp27
 70
     1
102
RTVSPropertyOp28
 70
     1
102
RTVSPropertyOp29
 70
     1
102
RTVSPropertyOp30
 70
     1
102
RTVSPropertyOp31
 70
     1
102
RTVSPropertyOp32
 70
     1
102
RTVSPropertyOp33
 70
     1
102
RTVSPropertyOp34
 70
     1
102
RTVSPropertyOp35
 70
     1
102
RTVSPropertyOp36
 70
     1
102
RTVSPropertyOp37
 70
     1
102
RTVSPropertyOp38
 70
     1
102
RTVSPropertyOp39
 70
     1
102
RTVSPropertyOp40
 70
     1
102
RTVSPropertyOp41
 70
     1
102
RTVSPropertyOp42
 70
     1
102
RTVSPropertyOp43
 70
     1
102
RTVSPropertyOp44
 70
     1
102
RTVSPropertyOp45
 70
     1
102
RTVSPropertyOp46
 70
     1
102
RTVSPropertyOp47
 70
     1
102
RTVSPropertyOp48
 70
     1
102
RTVSPropertyOp49
 70
     1
102
RTVSPropertyOp50
 70
     1
102
RTVSPropertyOp51
 70
     0
102
RTVSPropertyOp52
 70
     0
102
RTVSPropertyOp53
 70
     1
102
RTVSPropertyOp54
 70
     1
102
RTVSPropertyOp55
 70
     1
102
RTVSPropertyOp56
 70
     1
102
RTVSPropertyOp57
 70
     1
102
RTVSPropertyOp58
 70
     1
102
RTVSPropertyOp59
 70
     1
102
RTVSPropertyOp60
 70
     1
102
RTVSPropertyOp61
 70
     1
102
RTVSPropertyOp62
 70
     1
  0
XRECORD
  5
5709
102
{ACAD_REACTORS
330
5708
102
}
330
5708
100
AcDbXrecord
280
     1
102
RTVSPost2010Prop28
280
     0
102
RTVSPost2010PropOp28
 70
     1
102
RTVSPost2010Prop29
280
     1
102
RTVSPost2010PropOp29
 70
     1
102
RTVSPost2010Prop30
280
     1
102
RTVSPost2010PropOp30
 70
     1
102
RTVSPost2010Prop31
280
     0
102
RTVSPost2010PropOp31
 70
     1
102
RTVSPost2010Prop32
280
     0
102
RTVSPost2010PropOp32
 70
     1
102
RTVSPost2010Prop33
280
     0
102
RTVSPost2010PropOp33
 70
     1
102
RTVSPost2010Prop34
280
     0
102
RTVSPost2010PropOp34
 70
     1
102
RTVSPost2010Prop35
280
     0
102
RTVSPost2010PropOp35
 70
     1
102
RTVSPost2010Prop36
280
     0
102
RTVSPost2010PropOp36
 70
     1
102
RTVSPost2010Prop37
 90
       50
102
RTVSPost2010PropOp37
 70
     1
102
RTVSPost2010Prop38
140
0.0
102
RTVSPost2010PropOp38
 70
     1
102
RTVSPost2010Prop39
140
1.0
102
RTVSPost2010PropOp39
 70
     1
102
RTVSPost2010Prop40
 90
        0
102
RTVSPost2010PropOp40
 70
     1
102
RTVSPost2010Prop41ColorIndex
 90
       18
102
RTVSPost2010Prop41ColorRGB
 90
        0
102
RTVSPost2010PropOp41
 70
     1
102
RTVSPost2010Prop42
 90
       50
102
RTVSPost2010PropOp42
 70
     1
102
RTVSPost2010Prop43
 90
        3
102
RTVSPost2010PropOp43
 70
     1
102
RTVSPost2010Prop44ColorIndex
 90
        5
102
RTVSPost2010Prop44ColorRGB
 90
      255
102
RTVSPost2010PropOp44
 70
     1
102
RTVSPost2010Prop45
280
     0
102
RTVSPost2010PropOp45
 70
     1
102
RTVSPost2010Prop46
 90
       50
102
RTVSPost2010PropOp46
 70
     1
102
RTVSPost2010Prop47
 90
       50
102
RTVSPost2010PropOp47
 70
     1
102
RTVSPost2010Prop48
 90
       50
102
RTVSPost2010PropOp48
 70
     1
102
RTVSPost2010Prop49
280
     0
102
RTVSPost2010PropOp49
 70
     1
102
RTVSPost2010Prop50
 90
       50
102
RTVSPost2010PropOp50
 70
     1
102
RTVSPost2010Prop51ColorIndex
 90
      256
102
RTVSPost2010Prop51ColorRGB
 90
-16777216
102
RTVSPost2010PropOp51
 70
     0
102
RTVSPost2010Prop52
140
1.0
102
RTVSPost2010PropOp52
 70
     0
102
RTVSPost2010Prop53
 90
        2
102
RTVSPost2010PropOp53
 70
     1
102
RTVSPost2010Prop54
  1
strokes_ogs.tif
102
RTVSPost2010PropOp54
 70
     1
102
RTVSPost2010Prop55
280
     0
102
RTVSPost2010PropOp55
 70
     1
102
RTVSPost2010Prop56
140
1.0
102
RTVSPost2010PropOp56
 70
     1
102
RTVSPost2010Prop57
140
1.0
102
RTVSPost2010PropOp57
 70
     1
102
RTVSPropertyOp0
 70
     1
102
RTVSPropertyOp1
 70
     1
102
RTVSPropertyOp2
 70
     1
102
RTVSPropertyOp3
 70
     1
102
RTVSPropertyOp4
 70
     1
102
RTVSPropertyOp5
 70
     1
102
RTVSPropertyOp6
 70
     1
102
RTVSPropertyOp7
 70
     1
102
RTVSPropertyOp8
 70
     1
102
RTVSPropertyOp9
 70
     1
102
RTVSPropertyOp10
 70
     1
102
RTVSPropertyOp11
 70
     1
102
RTVSPropertyOp12
 70
     1
102
RTVSPropertyOp13
 70
     1
102
RTVSPropertyOp14
 70
     1
102
RTVSPropertyOp15
 70
     1
102
RTVSPropertyOp16
 70
     1
102
RTVSPropertyOp17
 70
     1
102
RTVSPropertyOp18
 70
     1
102
RTVSPropertyOp19
 70
     1
102
RTVSPropertyOp20
 70
     1
102
RTVSPropertyOp21
 70
     1
102
RTVSPropertyOp22
 70
     1
102
RTVSPropertyOp23
 70
     1
102
RTVSPropertyOp24
 70
     1
102
RTVSPropertyOp25
 70
     1
102
RTVSPropertyOp26
 70
     1
102
RTVSPropertyOp27
 70
     1
102
RTVSPropertyOp28
 70
     1
102
RTVSPropertyOp29
 70
     1
102
RTVSPropertyOp30
 70
     1
102
RTVSPropertyOp31
 70
     1
102
RTVSPropertyOp32
 70
     1
102
RTVSPropertyOp33
 70
     1
102
RTVSPropertyOp34
 70
     1
102
RTVSPropertyOp35
 70
     1
102
RTVSPropertyOp36
 70
     1
102
RTVSPropertyOp37
 70
     1
102
RTVSPropertyOp38
 70
     1
102
RTVSPropertyOp39
 70
     1
102
RTVSPropertyOp40
 70
     1
102
RTVSPropertyOp41
 70
     1
102
RTVSPropertyOp42
 70
     1
102
RTVSPropertyOp43
 70
     1
102
RTVSPropertyOp44
 70
     1
102
RTVSPropertyOp45
 70
     1
102
RTVSPropertyOp46
 70
     1
102
RTVSPropertyOp47
 70
     1
102
RTVSPropertyOp48
 70
     1
102
RTVSPropertyOp49
 70
     1
102
RTVSPropertyOp50
 70
     1
102
RTVSPropertyOp51
 70
     0
102
RTVSPropertyOp52
 70
     0
102
RTVSPropertyOp53
 70
     1
102
RTVSPropertyOp54
 70
     1
102
RTVSPropertyOp55
 70
     1
102
RTVSPropertyOp56
 70
     1
102
RTVSPropertyOp57
 70
     1
102
RTVSPropertyOp58
 70
     1
102
RTVSPropertyOp59
 70
     1
102
RTVSPropertyOp60
 70
     1
102
RTVSPropertyOp61
 70
     1
102
RTVSPropertyOp62
 70
     1
  0
XRECORD
  5
570B
102
{ACAD_REACTORS
330
570A
102
}
330
570A
100
AcDbXrecord
280
     1
102
RTVSPost2010Prop28
280
     0
102
RTVSPost2010PropOp28
 70
     1
102
RTVSPost2010Prop29
280
     1
102
RTVSPost2010PropOp29
 70
     1
102
RTVSPost2010Prop30
280
     1
102
RTVSPost2010PropOp30
 70
     1
102
RTVSPost2010Prop31
280
     0
102
RTVSPost2010PropOp31
 70
     1
102
RTVSPost2010Prop32
280
     0
102
RTVSPost2010PropOp32
 70
     1
102
RTVSPost2010Prop33
280
     0
102
RTVSPost2010PropOp33
 70
     1
102
RTVSPost2010Prop34
280
     0
102
RTVSPost2010PropOp34
 70
     1
102
RTVSPost2010Prop35
280
     0
102
RTVSPost2010PropOp35
 70
     1
102
RTVSPost2010Prop36
280
     0
102
RTVSPost2010PropOp36
 70
     1
102
RTVSPost2010Prop37
 90
       50
102
RTVSPost2010PropOp37
 70
     1
102
RTVSPost2010Prop38
140
0.0
102
RTVSPost2010PropOp38
 70
     1
102
RTVSPost2010Prop39
140
1.0
102
RTVSPost2010PropOp39
 70
     1
102
RTVSPost2010Prop40
 90
        0
102
RTVSPost2010PropOp40
 70
     1
102
RTVSPost2010Prop41ColorIndex
 90
       18
102
RTVSPost2010Prop41ColorRGB
 90
        0
102
RTVSPost2010PropOp41
 70
     1
102
RTVSPost2010Prop42
 90
       50
102
RTVSPost2010PropOp42
 70
     1
102
RTVSPost2010Prop43
 90
        3
102
RTVSPost2010PropOp43
 70
     1
102
RTVSPost2010Prop44ColorIndex
 90
        5
102
RTVSPost2010Prop44ColorRGB
 90
      255
102
RTVSPost2010PropOp44
 70
     1
102
RTVSPost2010Prop45
280
     0
102
RTVSPost2010PropOp45
 70
     1
102
RTVSPost2010Prop46
 90
       50
102
RTVSPost2010PropOp46
 70
     1
102
RTVSPost2010Prop47
 90
       50
102
RTVSPost2010PropOp47
 70
     1
102
RTVSPost2010Prop48
 90
       50
102
RTVSPost2010PropOp48
 70
     1
102
RTVSPost2010Prop49
280
     0
102
RTVSPost2010PropOp49
 70
     1
102
RTVSPost2010Prop50
 90
       50
102
RTVSPost2010PropOp50
 70
     1
102
RTVSPost2010Prop51ColorIndex
 90
      256
102
RTVSPost2010Prop51ColorRGB
 90
-16777216
102
RTVSPost2010PropOp51
 70
     0
102
RTVSPost2010Prop52
140
1.0
102
RTVSPost2010PropOp52
 70
     0
102
RTVSPost2010Prop53
 90
        2
102
RTVSPost2010PropOp53
 70
     1
102
RTVSPost2010Prop54
  1
strokes_ogs.tif
102
RTVSPost2010PropOp54
 70
     1
102
RTVSPost2010Prop55
280
     0
102
RTVSPost2010PropOp55
 70
     1
102
RTVSPost2010Prop56
140
1.0
102
RTVSPost2010PropOp56
 70
     1
102
RTVSPost2010Prop57
140
1.0
102
RTVSPost2010PropOp57
 70
     1
102
RTVSPropertyOp0
 70
     1
102
RTVSPropertyOp1
 70
     1
102
RTVSPropertyOp2
 70
     1
102
RTVSPropertyOp3
 70
     1
102
RTVSPropertyOp4
 70
     1
102
RTVSPropertyOp5
 70
     1
102
RTVSPropertyOp6
 70
     1
102
RTVSPropertyOp7
 70
     1
102
RTVSPropertyOp8
 70
     1
102
RTVSPropertyOp9
 70
     1
102
RTVSPropertyOp10
 70
     1
102
RTVSPropertyOp11
 70
     1
102
RTVSPropertyOp12
 70
     1
102
RTVSPropertyOp13
 70
     1
102
RTVSPropertyOp14
 70
     1
102
RTVSPropertyOp15
 70
     1
102
RTVSPropertyOp16
 70
     1
102
RTVSPropertyOp17
 70
     1
102
RTVSPropertyOp18
 70
     1
102
RTVSPropertyOp19
 70
     1
102
RTVSPropertyOp20
 70
     1
102
RTVSPropertyOp21
 70
     1
102
RTVSPropertyOp22
 70
     1
102
RTVSPropertyOp23
 70
     1
102
RTVSPropertyOp24
 70
     1
102
RTVSPropertyOp25
 70
     1
102
RTVSPropertyOp26
 70
     1
102
RTVSPropertyOp27
 70
     1
102
RTVSPropertyOp28
 70
     1
102
RTVSPropertyOp29
 70
     1
102
RTVSPropertyOp30
 70
     1
102
RTVSPropertyOp31
 70
     1
102
RTVSPropertyOp32
 70
     1
102
RTVSPropertyOp33
 70
     1
102
RTVSPropertyOp34
 70
     1
102
RTVSPropertyOp35
 70
     1
102
RTVSPropertyOp36
 70
     1
102
RTVSPropertyOp37
 70
     1
102
RTVSPropertyOp38
 70
     1
102
RTVSPropertyOp39
 70
     1
102
RTVSPropertyOp40
 70
     1
102
RTVSPropertyOp41
 70
     1
102
RTVSPropertyOp42
 70
     1
102
RTVSPropertyOp43
 70
     1
102
RTVSPropertyOp44
 70
     1
102
RTVSPropertyOp45
 70
     1
102
RTVSPropertyOp46
 70
     1
102
RTVSPropertyOp47
 70
     1
102
RTVSPropertyOp48
 70
     1
102
RTVSPropertyOp49
 70
     1
102
RTVSPropertyOp50
 70
     1
102
RTVSPropertyOp51
 70
     0
102
RTVSPropertyOp52
 70
     0
102
RTVSPropertyOp53
 70
     1
102
RTVSPropertyOp54
 70
     1
102
RTVSPropertyOp55
 70
     1
102
RTVSPropertyOp56
 70
     1
102
RTVSPropertyOp57
 70
     1
102
RTVSPropertyOp58
 70
     1
102
RTVSPropertyOp59
 70
     1
102
RTVSPropertyOp60
 70
     1
102
RTVSPropertyOp61
 70
     1
102
RTVSPropertyOp62
 70
     1
  0
XRECORD
  5
570D
102
{ACAD_REACTORS
330
570C
102
}
330
570C
100
AcDbXrecord
280
     1
102
RTVSPost2010Prop28
280
     0
102
RTVSPost2010PropOp28
 70
     1
102
RTVSPost2010Prop29
280
     1
102
RTVSPost2010PropOp29
 70
     1
102
RTVSPost2010Prop30
280
     1
102
RTVSPost2010PropOp30
 70
     1
102
RTVSPost2010Prop31
280
     0
102
RTVSPost2010PropOp31
 70
     1
102
RTVSPost2010Prop32
280
     0
102
RTVSPost2010PropOp32
 70
     1
102
RTVSPost2010Prop33
280
     0
102
RTVSPost2010PropOp33
 70
     1
102
RTVSPost2010Prop34
280
     0
102
RTVSPost2010PropOp34
 70
     1
102
RTVSPost2010Prop35
280
     0
102
RTVSPost2010PropOp35
 70
     1
102
RTVSPost2010Prop36
280
     0
102
RTVSPost2010PropOp36
 70
     1
102
RTVSPost2010Prop37
 90
       50
102
RTVSPost2010PropOp37
 70
     1
102
RTVSPost2010Prop38
140
0.0
102
RTVSPost2010PropOp38
 70
     1
102
RTVSPost2010Prop39
140
1.0
102
RTVSPost2010PropOp39
 70
     1
102
RTVSPost2010Prop40
 90
        0
102
RTVSPost2010PropOp40
 70
     1
102
RTVSPost2010Prop41ColorIndex
 90
       18
102
RTVSPost2010Prop41ColorRGB
 90
        0
102
RTVSPost2010PropOp41
 70
     1
102
RTVSPost2010Prop42
 90
       50
102
RTVSPost2010PropOp42
 70
     1
102
RTVSPost2010Prop43
 90
        3
102
RTVSPost2010PropOp43
 70
     1
102
RTVSPost2010Prop44ColorIndex
 90
        5
102
RTVSPost2010Prop44ColorRGB
 90
      255
102
RTVSPost2010PropOp44
 70
     1
102
RTVSPost2010Prop45
280
     0
102
RTVSPost2010PropOp45
 70
     1
102
RTVSPost2010Prop46
 90
       50
102
RTVSPost2010PropOp46
 70
     1
102
RTVSPost2010Prop47
 90
       50
102
RTVSPost2010PropOp47
 70
     1
102
RTVSPost2010Prop48
 90
       50
102
RTVSPost2010PropOp48
 70
     1
102
RTVSPost2010Prop49
280
     0
102
RTVSPost2010PropOp49
 70
     1
102
RTVSPost2010Prop50
 90
       50
102
RTVSPost2010PropOp50
 70
     1
102
RTVSPost2010Prop51ColorIndex
 90
      256
102
RTVSPost2010Prop51ColorRGB
 90
-16777216
102
RTVSPost2010PropOp51
 70
     0
102
RTVSPost2010Prop52
140
1.0
102
RTVSPost2010PropOp52
 70
     0
102
RTVSPost2010Prop53
 90
        2
102
RTVSPost2010PropOp53
 70
     1
102
RTVSPost2010Prop54
  1
strokes_ogs.tif
102
RTVSPost2010PropOp54
 70
     1
102
RTVSPost2010Prop55
280
     0
102
RTVSPost2010PropOp55
 70
     1
102
RTVSPost2010Prop56
140
1.0
102
RTVSPost2010PropOp56
 70
     1
102
RTVSPost2010Prop57
140
1.0
102
RTVSPost2010PropOp57
 70
     1
102
RTVSPropertyOp0
 70
     1
102
RTVSPropertyOp1
 70
     1
102
RTVSPropertyOp2
 70
     1
102
RTVSPropertyOp3
 70
     1
102
RTVSPropertyOp4
 70
     1
102
RTVSPropertyOp5
 70
     1
102
RTVSPropertyOp6
 70
     1
102
RTVSPropertyOp7
 70
     1
102
RTVSPropertyOp8
 70
     1
102
RTVSPropertyOp9
 70
     1
102
RTVSPropertyOp10
 70
     1
102
RTVSPropertyOp11
 70
     1
102
RTVSPropertyOp12
 70
     1
102
RTVSPropertyOp13
 70
     1
102
RTVSPropertyOp14
 70
     1
102
RTVSPropertyOp15
 70
     1
102
RTVSPropertyOp16
 70
     1
102
RTVSPropertyOp17
 70
     1
102
RTVSPropertyOp18
 70
     1
102
RTVSPropertyOp19
 70
     1
102
RTVSPropertyOp20
 70
     1
102
RTVSPropertyOp21
 70
     1
102
RTVSPropertyOp22
 70
     1
102
RTVSPropertyOp23
 70
     1
102
RTVSPropertyOp24
 70
     1
102
RTVSPropertyOp25
 70
     1
102
RTVSPropertyOp26
 70
     1
102
RTVSPropertyOp27
 70
     1
102
RTVSPropertyOp28
 70
     1
102
RTVSPropertyOp29
 70
     1
102
RTVSPropertyOp30
 70
     1
102
RTVSPropertyOp31
 70
     1
102
RTVSPropertyOp32
 70
     1
102
RTVSPropertyOp33
 70
     1
102
RTVSPropertyOp34
 70
     1
102
RTVSPropertyOp35
 70
     1
102
RTVSPropertyOp36
 70
     1
102
RTVSPropertyOp37
 70
     1
102
RTVSPropertyOp38
 70
     1
102
RTVSPropertyOp39
 70
     1
102
RTVSPropertyOp40
 70
     1
102
RTVSPropertyOp41
 70
     1
102
RTVSPropertyOp42
 70
     1
102
RTVSPropertyOp43
 70
     1
102
RTVSPropertyOp44
 70
     1
102
RTVSPropertyOp45
 70
     1
102
RTVSPropertyOp46
 70
     1
102
RTVSPropertyOp47
 70
     1
102
RTVSPropertyOp48
 70
     1
102
RTVSPropertyOp49
 70
     1
102
RTVSPropertyOp50
 70
     1
102
RTVSPropertyOp51
 70
     0
102
RTVSPropertyOp52
 70
     0
102
RTVSPropertyOp53
 70
     1
102
RTVSPropertyOp54
 70
     1
102
RTVSPropertyOp55
 70
     1
102
RTVSPropertyOp56
 70
     1
102
RTVSPropertyOp57
 70
     1
102
RTVSPropertyOp58
 70
     1
102
RTVSPropertyOp59
 70
     1
102
RTVSPropertyOp60
 70
     1
102
RTVSPropertyOp61
 70
     1
102
RTVSPropertyOp62
 70
     1
  0
XRECORD
  5
5715
102
{ACAD_REACTORS
330
5714
102
}
330
5714
100
AcDbXrecord
280
     1
102
RTVSPost2010Prop28
280
     0
102
RTVSPost2010PropOp28
 70
     1
102
RTVSPost2010Prop29
280
     1
102
RTVSPost2010PropOp29
 70
     1
102
RTVSPost2010Prop30
280
     1
102
RTVSPost2010PropOp30
 70
     1
102
RTVSPost2010Prop31
280
     0
102
RTVSPost2010PropOp31
 70
     1
102
RTVSPost2010Prop32
280
     0
102
RTVSPost2010PropOp32
 70
     1
102
RTVSPost2010Prop33
280
     0
102
RTVSPost2010PropOp33
 70
     1
102
RTVSPost2010Prop34
280
     0
102
RTVSPost2010PropOp34
 70
     1
102
RTVSPost2010Prop35
280
     0
102
RTVSPost2010PropOp35
 70
     1
102
RTVSPost2010Prop36
280
     0
102
RTVSPost2010PropOp36
 70
     1
102
RTVSPost2010Prop37
 90
       50
102
RTVSPost2010PropOp37
 70
     1
102
RTVSPost2010Prop38
140
0.0
102
RTVSPost2010PropOp38
 70
     1
102
RTVSPost2010Prop39
140
1.0
102
RTVSPost2010PropOp39
 70
     1
102
RTVSPost2010Prop40
 90
        0
102
RTVSPost2010PropOp40
 70
     1
102
RTVSPost2010Prop41ColorIndex
 90
       18
102
RTVSPost2010Prop41ColorRGB
 90
        0
102
RTVSPost2010PropOp41
 70
     1
102
RTVSPost2010Prop42
 90
       50
102
RTVSPost2010PropOp42
 70
     1
102
RTVSPost2010Prop43
 90
        3
102
RTVSPost2010PropOp43
 70
     1
102
RTVSPost2010Prop44ColorIndex
 90
        5
102
RTVSPost2010Prop44ColorRGB
 90
      255
102
RTVSPost2010PropOp44
 70
     1
102
RTVSPost2010Prop45
280
     0
102
RTVSPost2010PropOp45
 70
     1
102
RTVSPost2010Prop46
 90
       50
102
RTVSPost2010PropOp46
 70
     1
102
RTVSPost2010Prop47
 90
       50
102
RTVSPost2010PropOp47
 70
     1
102
RTVSPost2010Prop48
 90
       50
102
RTVSPost2010PropOp48
 70
     1
102
RTVSPost2010Prop49
280
     0
102
RTVSPost2010PropOp49
 70
     1
102
RTVSPost2010Prop50
 90
       50
102
RTVSPost2010PropOp50
 70
     1
102
RTVSPost2010Prop51ColorIndex
 90
      256
102
RTVSPost2010Prop51ColorRGB
 90
-16777216
102
RTVSPost2010PropOp51
 70
     0
102
RTVSPost2010Prop52
140
1.0
102
RTVSPost2010PropOp52
 70
     0
102
RTVSPost2010Prop53
 90
        2
102
RTVSPost2010PropOp53
 70
     1
102
RTVSPost2010Prop54
  1
strokes_ogs.tif
102
RTVSPost2010PropOp54
 70
     1
102
RTVSPost2010Prop55
280
     0
102
RTVSPost2010PropOp55
 70
     1
102
RTVSPost2010Prop56
140
1.0
102
RTVSPost2010PropOp56
 70
     1
102
RTVSPost2010Prop57
140
1.0
102
RTVSPost2010PropOp57
 70
     1
102
RTVSPropertyOp0
 70
     1
102
RTVSPropertyOp1
 70
     1
102
RTVSPropertyOp2
 70
     1
102
RTVSPropertyOp3
 70
     1
102
RTVSPropertyOp4
 70
     1
102
RTVSPropertyOp5
 70
     1
102
RTVSPropertyOp6
 70
     1
102
RTVSPropertyOp7
 70
     1
102
RTVSPropertyOp8
 70
     1
102
RTVSPropertyOp9
 70
     1
102
RTVSPropertyOp10
 70
     1
102
RTVSPropertyOp11
 70
     1
102
RTVSPropertyOp12
 70
     1
102
RTVSPropertyOp13
 70
     1
102
RTVSPropertyOp14
 70
     1
102
RTVSPropertyOp15
 70
     1
102
RTVSPropertyOp16
 70
     1
102
RTVSPropertyOp17
 70
     1
102
RTVSPropertyOp18
 70
     1
102
RTVSPropertyOp19
 70
     1
102
RTVSPropertyOp20
 70
     1
102
RTVSPropertyOp21
 70
     1
102
RTVSPropertyOp22
 70
     1
102
RTVSPropertyOp23
 70
     1
102
RTVSPropertyOp24
 70
     1
102
RTVSPropertyOp25
 70
     1
102
RTVSPropertyOp26
 70
     1
102
RTVSPropertyOp27
 70
     1
102
RTVSPropertyOp28
 70
     1
102
RTVSPropertyOp29
 70
     1
102
RTVSPropertyOp30
 70
     1
102
RTVSPropertyOp31
 70
     1
102
RTVSPropertyOp32
 70
     1
102
RTVSPropertyOp33
 70
     1
102
RTVSPropertyOp34
 70
     1
102
RTVSPropertyOp35
 70
     1
102
RTVSPropertyOp36
 70
     1
102
RTVSPropertyOp37
 70
     1
102
RTVSPropertyOp38
 70
     1
102
RTVSPropertyOp39
 70
     1
102
RTVSPropertyOp40
 70
     1
102
RTVSPropertyOp41
 70
     1
102
RTVSPropertyOp42
 70
     1
102
RTVSPropertyOp43
 70
     1
102
RTVSPropertyOp44
 70
     1
102
RTVSPropertyOp45
 70
     1
102
RTVSPropertyOp46
 70
     1
102
RTVSPropertyOp47
 70
     1
102
RTVSPropertyOp48
 70
     1
102
RTVSPropertyOp49
 70
     1
102
RTVSPropertyOp50
 70
     1
102
RTVSPropertyOp51
 70
     0
102
RTVSPropertyOp52
 70
     0
102
RTVSPropertyOp53
 70
     1
102
RTVSPropertyOp54
 70
     1
102
RTVSPropertyOp55
 70
     1
102
RTVSPropertyOp56
 70
     1
102
RTVSPropertyOp57
 70
     1
102
RTVSPropertyOp58
 70
     1
102
RTVSPropertyOp59
 70
     1
102
RTVSPropertyOp60
 70
     1
102
RTVSPropertyOp61
 70
     1
102
RTVSPropertyOp62
 70
     1
  0
XRECORD
  5
5731
102
{ACAD_REACTORS
330
5730
102
}
330
5730
100
AcDbXrecord
280
     1
102
RTVSPost2010Prop28
280
     0
102
RTVSPost2010PropOp28
 70
     1
102
RTVSPost2010Prop29
280
     1
102
RTVSPost2010PropOp29
 70
     1
102
RTVSPost2010Prop30
280
     1
102
RTVSPost2010PropOp30
 70
     1
102
RTVSPost2010Prop31
280
     0
102
RTVSPost2010PropOp31
 70
     1
102
RTVSPost2010Prop32
280
     0
102
RTVSPost2010PropOp32
 70
     1
102
RTVSPost2010Prop33
280
     0
102
RTVSPost2010PropOp33
 70
     1
102
RTVSPost2010Prop34
280
     0
102
RTVSPost2010PropOp34
 70
     1
102
RTVSPost2010Prop35
280
     0
102
RTVSPost2010PropOp35
 70
     1
102
RTVSPost2010Prop36
280
     0
102
RTVSPost2010PropOp36
 70
     1
102
RTVSPost2010Prop37
 90
       50
102
RTVSPost2010PropOp37
 70
     0
102
RTVSPost2010Prop38
140
0.0
102
RTVSPost2010PropOp38
 70
     0
102
RTVSPost2010Prop39
140
1.0
102
RTVSPost2010PropOp39
 70
     0
102
RTVSPost2010Prop40
 90
        0
102
RTVSPost2010PropOp40
 70
     0
102
RTVSPost2010Prop41ColorIndex
 90
       18
102
RTVSPost2010Prop41ColorRGB
 90
        0
102
RTVSPost2010PropOp41
 70
     0
102
RTVSPost2010Prop42
 90
       50
102
RTVSPost2010PropOp42
 70
     0
102
RTVSPost2010Prop43
 90
        3
102
RTVSPost2010PropOp43
 70
     0
102
RTVSPost2010Prop44ColorIndex
 90
        5
102
RTVSPost2010Prop44ColorRGB
 90
      255
102
RTVSPost2010PropOp44
 70
     0
102
RTVSPost2010Prop45
280
     0
102
RTVSPost2010PropOp45
 70
     1
102
RTVSPost2010Prop46
 90
       50
102
RTVSPost2010PropOp46
 70
     0
102
RTVSPost2010Prop47
 90
       50
102
RTVSPost2010PropOp47
 70
     0
102
RTVSPost2010Prop48
 90
       50
102
RTVSPost2010PropOp48
 70
     0
102
RTVSPost2010Prop49
280
     0
102
RTVSPost2010PropOp49
 70
     1
102
RTVSPost2010Prop50
 90
       50
102
RTVSPost2010PropOp50
 70
     0
102
RTVSPost2010Prop51ColorIndex
 90
      256
102
RTVSPost2010Prop51ColorRGB
 90
-16777216
102
RTVSPost2010PropOp51
 70
     0
102
RTVSPost2010Prop52
140
1.0
102
RTVSPost2010PropOp52
 70
     0
102
RTVSPost2010Prop53
 90
        2
102
RTVSPost2010PropOp53
 70
     0
102
RTVSPost2010Prop54
  1
strokes_ogs.tif
102
RTVSPost2010PropOp54
 70
     0
102
RTVSPost2010Prop55
280
     0
102
RTVSPost2010PropOp55
 70
     1
102
RTVSPost2010Prop56
140
1.0
102
RTVSPost2010PropOp56
 70
     0
102
RTVSPost2010Prop57
140
1.0
102
RTVSPost2010PropOp57
 70
     0
102
RTVSPropertyOp0
 70
     0
102
RTVSPropertyOp1
 70
     0
102
RTVSPropertyOp2
 70
     0
102
RTVSPropertyOp3
 70
     0
102
RTVSPropertyOp4
 70
     0
102
RTVSPropertyOp5
 70
     0
102
RTVSPropertyOp6
 70
     0
102
RTVSPropertyOp7
 70
     0
102
RTVSPropertyOp8
 70
     0
102
RTVSPropertyOp9
 70
     0
102
RTVSPropertyOp10
 70
     0
102
RTVSPropertyOp11
 70
     0
102
RTVSPropertyOp12
 70
     0
102
RTVSPropertyOp13
 70
     0
102
RTVSPropertyOp14
 70
     2
102
RTVSPropertyOp15
 70
     0
102
RTVSPropertyOp16
 70
     0
102
RTVSPropertyOp17
 70
     0
102
RTVSPropertyOp18
 70
     0
102
RTVSPropertyOp19
 70
     0
102
RTVSPropertyOp20
 70
     0
102
RTVSPropertyOp21
 70
     0
102
RTVSPropertyOp22
 70
     0
102
RTVSPropertyOp23
 70
     0
102
RTVSPropertyOp24
 70
     0
102
RTVSPropertyOp25
 70
     0
102
RTVSPropertyOp26
 70
     0
102
RTVSPropertyOp27
 70
     0
102
RTVSPropertyOp28
 70
     1
102
RTVSPropertyOp29
 70
     1
102
RTVSPropertyOp30
 70
     1
102
RTVSPropertyOp31
 70
     1
102
RTVSPropertyOp32
 70
     1
102
RTVSPropertyOp33
 70
     1
102
RTVSPropertyOp34
 70
     1
102
RTVSPropertyOp35
 70
     1
102
RTVSPropertyOp36
 70
     1
102
RTVSPropertyOp37
 70
     0
102
RTVSPropertyOp38
 70
     0
102
RTVSPropertyOp39
 70
     0
102
RTVSPropertyOp40
 70
     0
102
RTVSPropertyOp41
 70
     0
102
RTVSPropertyOp42
 70
     0
102
RTVSPropertyOp43
 70
     0
102
RTVSPropertyOp44
 70
     0
102
RTVSPropertyOp45
 70
     1
102
RTVSPropertyOp46
 70
     0
102
RTVSPropertyOp47
 70
     0
102
RTVSPropertyOp48
 70
     0
102
RTVSPropertyOp49
 70
     1
102
RTVSPropertyOp50
 70
     0
102
RTVSPropertyOp51
 70
     0
102
RTVSPropertyOp52
 70
     0
102
RTVSPropertyOp53
 70
     0
102
RTVSPropertyOp54
 70
     0
102
RTVSPropertyOp55
 70
     1
102
RTVSPropertyOp56
 70
     0
102
RTVSPropertyOp57
 70
     0
102
RTVSPropertyOp58
 70
     0
102
RTVSPropertyOp59
 70
     0
102
RTVSPropertyOp60
 70
     0
102
RTVSPropertyOp61
 70
     0
102
RTVSPropertyOp62
 70
     0
  0
XRECORD
  5
5721
102
{ACAD_REACTORS
330
5720
102
}
330
5720
100
AcDbXrecord
280
     1
102
RTVSPost2010Prop28
280
     0
102
RTVSPost2010PropOp28
 70
     1
102
RTVSPost2010Prop29
280
     1
102
RTVSPost2010PropOp29
 70
     1
102
RTVSPost2010Prop30
280
     1
102
RTVSPost2010PropOp30
 70
     1
102
RTVSPost2010Prop31
280
     0
102
RTVSPost2010PropOp31
 70
     1
102
RTVSPost2010Prop32
280
     0
102
RTVSPost2010PropOp32
 70
     1
102
RTVSPost2010Prop33
280
     0
102
RTVSPost2010PropOp33
 70
     1
102
RTVSPost2010Prop34
280
     0
102
RTVSPost2010PropOp34
 70
     1
102
RTVSPost2010Prop35
280
     0
102
RTVSPost2010PropOp35
 70
     1
102
RTVSPost2010Prop36
280
     0
102
RTVSPost2010PropOp36
 70
     1
102
RTVSPost2010Prop37
 90
       50
102
RTVSPost2010PropOp37
 70
     1
102
RTVSPost2010Prop38
140
0.0
102
RTVSPost2010PropOp38
 70
     1
102
RTVSPost2010Prop39
140
1.0
102
RTVSPost2010PropOp39
 70
     1
102
RTVSPost2010Prop40
 90
        0
102
RTVSPost2010PropOp40
 70
     1
102
RTVSPost2010Prop41ColorIndex
 90
       18
102
RTVSPost2010Prop41ColorRGB
 90
        0
102
RTVSPost2010PropOp41
 70
     1
102
RTVSPost2010Prop42
 90
       50
102
RTVSPost2010PropOp42
 70
     1
102
RTVSPost2010Prop43
 90
        3
102
RTVSPost2010PropOp43
 70
     1
102
RTVSPost2010Prop44ColorIndex
 90
        5
102
RTVSPost2010Prop44ColorRGB
 90
      255
102
RTVSPost2010PropOp44
 70
     1
102
RTVSPost2010Prop45
280
     0
102
RTVSPost2010PropOp45
 70
     1
102
RTVSPost2010Prop46
 90
       50
102
RTVSPost2010PropOp46
 70
     1
102
RTVSPost2010Prop47
 90
       50
102
RTVSPost2010PropOp47
 70
     1
102
RTVSPost2010Prop48
 90
       50
102
RTVSPost2010PropOp48
 70
     1
102
RTVSPost2010Prop49
280
     0
102
RTVSPost2010PropOp49
 70
     1
102
RTVSPost2010Prop50
 90
       50
102
RTVSPost2010PropOp50
 70
     1
102
RTVSPost2010Prop51ColorIndex
 90
      256
102
RTVSPost2010Prop51ColorRGB
 90
-16777216
102
RTVSPost2010PropOp51
 70
     0
102
RTVSPost2010Prop52
140
1.0
102
RTVSPost2010PropOp52
 70
     0
102
RTVSPost2010Prop53
 90
        2
102
RTVSPost2010PropOp53
 70
     1
102
RTVSPost2010Prop54
  1
strokes_ogs.tif
102
RTVSPost2010PropOp54
 70
     1
102
RTVSPost2010Prop55
280
     0
102
RTVSPost2010PropOp55
 70
     1
102
RTVSPost2010Prop56
140
1.0
102
RTVSPost2010PropOp56
 70
     1
102
RTVSPost2010Prop57
140
1.0
102
RTVSPost2010PropOp57
 70
     1
102
RTVSPropertyOp0
 70
     1
102
RTVSPropertyOp1
 70
     1
102
RTVSPropertyOp2
 70
     1
102
RTVSPropertyOp3
 70
     1
102
RTVSPropertyOp4
 70
     1
102
RTVSPropertyOp5
 70
     1
102
RTVSPropertyOp6
 70
     1
102
RTVSPropertyOp7
 70
     1
102
RTVSPropertyOp8
 70
     1
102
RTVSPropertyOp9
 70
     1
102
RTVSPropertyOp10
 70
     1
102
RTVSPropertyOp11
 70
     1
102
RTVSPropertyOp12
 70
     1
102
RTVSPropertyOp13
 70
     1
102
RTVSPropertyOp14
 70
     1
102
RTVSPropertyOp15
 70
     1
102
RTVSPropertyOp16
 70
     1
102
RTVSPropertyOp17
 70
     1
102
RTVSPropertyOp18
 70
     1
102
RTVSPropertyOp19
 70
     1
102
RTVSPropertyOp20
 70
     1
102
RTVSPropertyOp21
 70
     1
102
RTVSPropertyOp22
 70
     1
102
RTVSPropertyOp23
 70
     1
102
RTVSPropertyOp24
 70
     1
102
RTVSPropertyOp25
 70
     1
102
RTVSPropertyOp26
 70
     1
102
RTVSPropertyOp27
 70
     1
102
RTVSPropertyOp28
 70
     1
102
RTVSPropertyOp29
 70
     1
102
RTVSPropertyOp30
 70
     1
102
RTVSPropertyOp31
 70
     1
102
RTVSPropertyOp32
 70
     1
102
RTVSPropertyOp33
 70
     1
102
RTVSPropertyOp34
 70
     1
102
RTVSPropertyOp35
 70
     1
102
RTVSPropertyOp36
 70
     1
102
RTVSPropertyOp37
 70
     1
102
RTVSPropertyOp38
 70
     1
102
RTVSPropertyOp39
 70
     1
102
RTVSPropertyOp40
 70
     1
102
RTVSPropertyOp41
 70
     1
102
RTVSPropertyOp42
 70
     1
102
RTVSPropertyOp43
 70
     1
102
RTVSPropertyOp44
 70
     1
102
RTVSPropertyOp45
 70
     1
102
RTVSPropertyOp46
 70
     1
102
RTVSPropertyOp47
 70
     1
102
RTVSPropertyOp48
 70
     1
102
RTVSPropertyOp49
 70
     1
102
RTVSPropertyOp50
 70
     1
102
RTVSPropertyOp51
 70
     0
102
RTVSPropertyOp52
 70
     0
102
RTVSPropertyOp53
 70
     1
102
RTVSPropertyOp54
 70
     1
102
RTVSPropertyOp55
 70
     1
102
RTVSPropertyOp56
 70
     1
102
RTVSPropertyOp57
 70
     1
102
RTVSPropertyOp58
 70
     1
102
RTVSPropertyOp59
 70
     1
102
RTVSPropertyOp60
 70
     1
102
RTVSPropertyOp61
 70
     1
102
RTVSPropertyOp62
 70
     1
  0
XRECORD
  5
5733
102
{ACAD_REACTORS
330
5732
102
}
330
5732
100
AcDbXrecord
280
     1
102
RTVSPost2010Prop28
280
     0
102
RTVSPost2010PropOp28
 70
     1
102
RTVSPost2010Prop29
280
     1
102
RTVSPost2010PropOp29
 70
     1
102
RTVSPost2010Prop30
280
     1
102
RTVSPost2010PropOp30
 70
     1
102
RTVSPost2010Prop31
280
     0
102
RTVSPost2010PropOp31
 70
     1
102
RTVSPost2010Prop32
280
     0
102
RTVSPost2010PropOp32
 70
     1
102
RTVSPost2010Prop33
280
     0
102
RTVSPost2010PropOp33
 70
     1
102
RTVSPost2010Prop34
280
     0
102
RTVSPost2010PropOp34
 70
     1
102
RTVSPost2010Prop35
280
     0
102
RTVSPost2010PropOp35
 70
     1
102
RTVSPost2010Prop36
280
     0
102
RTVSPost2010PropOp36
 70
     1
102
RTVSPost2010Prop37
 90
       50
102
RTVSPost2010PropOp37
 70
     0
102
RTVSPost2010Prop38
140
0.0
102
RTVSPost2010PropOp38
 70
     0
102
RTVSPost2010Prop39
140
1.0
102
RTVSPost2010PropOp39
 70
     0
102
RTVSPost2010Prop40
 90
        0
102
RTVSPost2010PropOp40
 70
     0
102
RTVSPost2010Prop41ColorIndex
 90
       18
102
RTVSPost2010Prop41ColorRGB
 90
        0
102
RTVSPost2010PropOp41
 70
     0
102
RTVSPost2010Prop42
 90
       50
102
RTVSPost2010PropOp42
 70
     0
102
RTVSPost2010Prop43
 90
        3
102
RTVSPost2010PropOp43
 70
     0
102
RTVSPost2010Prop44ColorIndex
 90
        5
102
RTVSPost2010Prop44ColorRGB
 90
      255
102
RTVSPost2010PropOp44
 70
     0
102
RTVSPost2010Prop45
280
     0
102
RTVSPost2010PropOp45
 70
     1
102
RTVSPost2010Prop46
 90
       50
102
RTVSPost2010PropOp46
 70
     0
102
RTVSPost2010Prop47
 90
       50
102
RTVSPost2010PropOp47
 70
     0
102
RTVSPost2010Prop48
 90
       50
102
RTVSPost2010PropOp48
 70
     0
102
RTVSPost2010Prop49
280
     0
102
RTVSPost2010PropOp49
 70
     1
102
RTVSPost2010Prop50
 90
       50
102
RTVSPost2010PropOp50
 70
     0
102
RTVSPost2010Prop51ColorIndex
 90
      256
102
RTVSPost2010Prop51ColorRGB
 90
-16777216
102
RTVSPost2010PropOp51
 70
     0
102
RTVSPost2010Prop52
140
1.0
102
RTVSPost2010PropOp52
 70
     0
102
RTVSPost2010Prop53
 90
        2
102
RTVSPost2010PropOp53
 70
     0
102
RTVSPost2010Prop54
  1
strokes_ogs.tif
102
RTVSPost2010PropOp54
 70
     0
102
RTVSPost2010Prop55
280
     0
102
RTVSPost2010PropOp55
 70
     1
102
RTVSPost2010Prop56
140
1.0
102
RTVSPost2010PropOp56
 70
     0
102
RTVSPost2010Prop57
140
1.0
102
RTVSPost2010PropOp57
 70
     0
102
RTVSPropertyOp0
 70
     0
102
RTVSPropertyOp1
 70
     0
102
RTVSPropertyOp2
 70
     0
102
RTVSPropertyOp3
 70
     0
102
RTVSPropertyOp4
 70
     0
102
RTVSPropertyOp5
 70
     0
102
RTVSPropertyOp6
 70
     0
102
RTVSPropertyOp7
 70
     0
102
RTVSPropertyOp8
 70
     0
102
RTVSPropertyOp9
 70
     0
102
RTVSPropertyOp10
 70
     0
102
RTVSPropertyOp11
 70
     0
102
RTVSPropertyOp12
 70
     0
102
RTVSPropertyOp13
 70
     0
102
RTVSPropertyOp14
 70
     2
102
RTVSPropertyOp15
 70
     0
102
RTVSPropertyOp16
 70
     0
102
RTVSPropertyOp17
 70
     0
102
RTVSPropertyOp18
 70
     0
102
RTVSPropertyOp19
 70
     0
102
RTVSPropertyOp20
 70
     0
102
RTVSPropertyOp21
 70
     0
102
RTVSPropertyOp22
 70
     0
102
RTVSPropertyOp23
 70
     0
102
RTVSPropertyOp24
 70
     0
102
RTVSPropertyOp25
 70
     0
102
RTVSPropertyOp26
 70
     0
102
RTVSPropertyOp27
 70
     0
102
RTVSPropertyOp28
 70
     1
102
RTVSPropertyOp29
 70
     1
102
RTVSPropertyOp30
 70
     1
102
RTVSPropertyOp31
 70
     1
102
RTVSPropertyOp32
 70
     1
102
RTVSPropertyOp33
 70
     1
102
RTVSPropertyOp34
 70
     1
102
RTVSPropertyOp35
 70
     1
102
RTVSPropertyOp36
 70
     1
102
RTVSPropertyOp37
 70
     0
102
RTVSPropertyOp38
 70
     0
102
RTVSPropertyOp39
 70
     0
102
RTVSPropertyOp40
 70
     0
102
RTVSPropertyOp41
 70
     0
102
RTVSPropertyOp42
 70
     0
102
RTVSPropertyOp43
 70
     0
102
RTVSPropertyOp44
 70
     0
102
RTVSPropertyOp45
 70
     1
102
RTVSPropertyOp46
 70
     0
102
RTVSPropertyOp47
 70
     0
102
RTVSPropertyOp48
 70
     0
102
RTVSPropertyOp49
 70
     1
102
RTVSPropertyOp50
 70
     0
102
RTVSPropertyOp51
 70
     0
102
RTVSPropertyOp52
 70
     0
102
RTVSPropertyOp53
 70
     0
102
RTVSPropertyOp54
 70
     0
102
RTVSPropertyOp55
 70
     1
102
RTVSPropertyOp56
 70
     0
102
RTVSPropertyOp57
 70
     0
102
RTVSPropertyOp58
 70
     0
102
RTVSPropertyOp59
 70
     0
102
RTVSPropertyOp60
 70
     0
102
RTVSPropertyOp61
 70
     0
102
RTVSPropertyOp62
 70
     0
  0
XRECORD
  5
5719
102
{ACAD_REACTORS
330
5718
102
}
330
5718
100
AcDbXrecord
280
     1
102
RTVSPost2010Prop28
280
     0
102
RTVSPost2010PropOp28
 70
     1
102
RTVSPost2010Prop29
280
     1
102
RTVSPost2010PropOp29
 70
     1
102
RTVSPost2010Prop30
280
     1
102
RTVSPost2010PropOp30
 70
     1
102
RTVSPost2010Prop31
280
     0
102
RTVSPost2010PropOp31
 70
     1
102
RTVSPost2010Prop32
280
     0
102
RTVSPost2010PropOp32
 70
     1
102
RTVSPost2010Prop33
280
     0
102
RTVSPost2010PropOp33
 70
     1
102
RTVSPost2010Prop34
280
     0
102
RTVSPost2010PropOp34
 70
     1
102
RTVSPost2010Prop35
280
     0
102
RTVSPost2010PropOp35
 70
     1
102
RTVSPost2010Prop36
280
     0
102
RTVSPost2010PropOp36
 70
     1
102
RTVSPost2010Prop37
 90
       50
102
RTVSPost2010PropOp37
 70
     1
102
RTVSPost2010Prop38
140
0.0
102
RTVSPost2010PropOp38
 70
     1
102
RTVSPost2010Prop39
140
1.0
102
RTVSPost2010PropOp39
 70
     1
102
RTVSPost2010Prop40
 90
        0
102
RTVSPost2010PropOp40
 70
     1
102
RTVSPost2010Prop41ColorIndex
 90
       18
102
RTVSPost2010Prop41ColorRGB
 90
        0
102
RTVSPost2010PropOp41
 70
     1
102
RTVSPost2010Prop42
 90
       50
102
RTVSPost2010PropOp42
 70
     1
102
RTVSPost2010Prop43
 90
        3
102
RTVSPost2010PropOp43
 70
     1
102
RTVSPost2010Prop44ColorIndex
 90
        5
102
RTVSPost2010Prop44ColorRGB
 90
      255
102
RTVSPost2010PropOp44
 70
     1
102
RTVSPost2010Prop45
280
     0
102
RTVSPost2010PropOp45
 70
     1
102
RTVSPost2010Prop46
 90
       50
102
RTVSPost2010PropOp46
 70
     1
102
RTVSPost2010Prop47
 90
       50
102
RTVSPost2010PropOp47
 70
     1
102
RTVSPost2010Prop48
 90
       50
102
RTVSPost2010PropOp48
 70
     1
102
RTVSPost2010Prop49
280
     0
102
RTVSPost2010PropOp49
 70
     1
102
RTVSPost2010Prop50
 90
       50
102
RTVSPost2010PropOp50
 70
     1
102
RTVSPost2010Prop51ColorIndex
 90
      256
102
RTVSPost2010Prop51ColorRGB
 90
-16777216
102
RTVSPost2010PropOp51
 70
     0
102
RTVSPost2010Prop52
140
1.0
102
RTVSPost2010PropOp52
 70
     0
102
RTVSPost2010Prop53
 90
        2
102
RTVSPost2010PropOp53
 70
     1
102
RTVSPost2010Prop54
  1
strokes_ogs.tif
102
RTVSPost2010PropOp54
 70
     1
102
RTVSPost2010Prop55
280
     0
102
RTVSPost2010PropOp55
 70
     1
102
RTVSPost2010Prop56
140
1.0
102
RTVSPost2010PropOp56
 70
     1
102
RTVSPost2010Prop57
140
1.0
102
RTVSPost2010PropOp57
 70
     1
102
RTVSPropertyOp0
 70
     1
102
RTVSPropertyOp1
 70
     1
102
RTVSPropertyOp2
 70
     1
102
RTVSPropertyOp3
 70
     1
102
RTVSPropertyOp4
 70
     1
102
RTVSPropertyOp5
 70
     1
102
RTVSPropertyOp6
 70
     1
102
RTVSPropertyOp7
 70
     1
102
RTVSPropertyOp8
 70
     1
102
RTVSPropertyOp9
 70
     1
102
RTVSPropertyOp10
 70
     1
102
RTVSPropertyOp11
 70
     1
102
RTVSPropertyOp12
 70
     1
102
RTVSPropertyOp13
 70
     1
102
RTVSPropertyOp14
 70
     1
102
RTVSPropertyOp15
 70
     1
102
RTVSPropertyOp16
 70
     1
102
RTVSPropertyOp17
 70
     1
102
RTVSPropertyOp18
 70
     1
102
RTVSPropertyOp19
 70
     1
102
RTVSPropertyOp20
 70
     1
102
RTVSPropertyOp21
 70
     1
102
RTVSPropertyOp22
 70
     1
102
RTVSPropertyOp23
 70
     1
102
RTVSPropertyOp24
 70
     1
102
RTVSPropertyOp25
 70
     1
102
RTVSPropertyOp26
 70
     1
102
RTVSPropertyOp27
 70
     1
102
RTVSPropertyOp28
 70
     1
102
RTVSPropertyOp29
 70
     1
102
RTVSPropertyOp30
 70
     1
102
RTVSPropertyOp31
 70
     1
102
RTVSPropertyOp32
 70
     1
102
RTVSPropertyOp33
 70
     1
102
RTVSPropertyOp34
 70
     1
102
RTVSPropertyOp35
 70
     1
102
RTVSPropertyOp36
 70
     1
102
RTVSPropertyOp37
 70
     1
102
RTVSPropertyOp38
 70
     1
102
RTVSPropertyOp39
 70
     1
102
RTVSPropertyOp40
 70
     1
102
RTVSPropertyOp41
 70
     1
102
RTVSPropertyOp42
 70
     1
102
RTVSPropertyOp43
 70
     1
102
RTVSPropertyOp44
 70
     1
102
RTVSPropertyOp45
 70
     1
102
RTVSPropertyOp46
 70
     1
102
RTVSPropertyOp47
 70
     1
102
RTVSPropertyOp48
 70
     1
102
RTVSPropertyOp49
 70
     1
102
RTVSPropertyOp50
 70
     1
102
RTVSPropertyOp51
 70
     0
102
RTVSPropertyOp52
 70
     0
102
RTVSPropertyOp53
 70
     1
102
RTVSPropertyOp54
 70
     1
102
RTVSPropertyOp55
 70
     1
102
RTVSPropertyOp56
 70
     1
102
RTVSPropertyOp57
 70
     1
102
RTVSPropertyOp58
 70
     1
102
RTVSPropertyOp59
 70
     1
102
RTVSPropertyOp60
 70
     1
102
RTVSPropertyOp61
 70
     1
102
RTVSPropertyOp62
 70
     1
  0
XRECORD
  5
572F
102
{ACAD_REACTORS
330
572E
102
}
330
572E
100
AcDbXrecord
280
     1
102
RTVSPost2010Prop28
280
     0
102
RTVSPost2010PropOp28
 70
     1
102
RTVSPost2010Prop29
280
     1
102
RTVSPost2010PropOp29
 70
     1
102
RTVSPost2010Prop30
280
     1
102
RTVSPost2010PropOp30
 70
     1
102
RTVSPost2010Prop31
280
     0
102
RTVSPost2010PropOp31
 70
     1
102
RTVSPost2010Prop32
280
     0
102
RTVSPost2010PropOp32
 70
     1
102
RTVSPost2010Prop33
280
     0
102
RTVSPost2010PropOp33
 70
     1
102
RTVSPost2010Prop34
280
     0
102
RTVSPost2010PropOp34
 70
     1
102
RTVSPost2010Prop35
280
     0
102
RTVSPost2010PropOp35
 70
     1
102
RTVSPost2010Prop36
280
     0
102
RTVSPost2010PropOp36
 70
     1
102
RTVSPost2010Prop37
 90
       50
102
RTVSPost2010PropOp37
 70
     1
102
RTVSPost2010Prop38
140
0.0
102
RTVSPost2010PropOp38
 70
     1
102
RTVSPost2010Prop39
140
1.0
102
RTVSPost2010PropOp39
 70
     1
102
RTVSPost2010Prop40
 90
        0
102
RTVSPost2010PropOp40
 70
     1
102
RTVSPost2010Prop41ColorIndex
 90
       18
102
RTVSPost2010Prop41ColorRGB
 90
        0
102
RTVSPost2010PropOp41
 70
     1
102
RTVSPost2010Prop42
 90
       50
102
RTVSPost2010PropOp42
 70
     1
102
RTVSPost2010Prop43
 90
        3
102
RTVSPost2010PropOp43
 70
     1
102
RTVSPost2010Prop44ColorIndex
 90
        5
102
RTVSPost2010Prop44ColorRGB
 90
      255
102
RTVSPost2010PropOp44
 70
     1
102
RTVSPost2010Prop45
280
     0
102
RTVSPost2010PropOp45
 70
     1
102
RTVSPost2010Prop46
 90
       50
102
RTVSPost2010PropOp46
 70
     1
102
RTVSPost2010Prop47
 90
       50
102
RTVSPost2010PropOp47
 70
     1
102
RTVSPost2010Prop48
 90
       50
102
RTVSPost2010PropOp48
 70
     1
102
RTVSPost2010Prop49
280
     0
102
RTVSPost2010PropOp49
 70
     1
102
RTVSPost2010Prop50
 90
       50
102
RTVSPost2010PropOp50
 70
     1
102
RTVSPost2010Prop51ColorIndex
 90
      256
102
RTVSPost2010Prop51ColorRGB
 90
-16777216
102
RTVSPost2010PropOp51
 70
     0
102
RTVSPost2010Prop52
140
1.0
102
RTVSPost2010PropOp52
 70
     0
102
RTVSPost2010Prop53
 90
        2
102
RTVSPost2010PropOp53
 70
     1
102
RTVSPost2010Prop54
  1
strokes_ogs.tif
102
RTVSPost2010PropOp54
 70
     1
102
RTVSPost2010Prop55
280
     0
102
RTVSPost2010PropOp55
 70
     1
102
RTVSPost2010Prop56
140
1.0
102
RTVSPost2010PropOp56
 70
     1
102
RTVSPost2010Prop57
140
1.0
102
RTVSPost2010PropOp57
 70
     1
102
RTVSPropertyOp0
 70
     1
102
RTVSPropertyOp1
 70
     1
102
RTVSPropertyOp2
 70
     1
102
RTVSPropertyOp3
 70
     1
102
RTVSPropertyOp4
 70
     1
102
RTVSPropertyOp5
 70
     1
102
RTVSPropertyOp6
 70
     1
102
RTVSPropertyOp7
 70
     1
102
RTVSPropertyOp8
 70
     1
102
RTVSPropertyOp9
 70
     1
102
RTVSPropertyOp10
 70
     1
102
RTVSPropertyOp11
 70
     1
102
RTVSPropertyOp12
 70
     1
102
RTVSPropertyOp13
 70
     1
102
RTVSPropertyOp14
 70
     1
102
RTVSPropertyOp15
 70
     1
102
RTVSPropertyOp16
 70
     1
102
RTVSPropertyOp17
 70
     1
102
RTVSPropertyOp18
 70
     1
102
RTVSPropertyOp19
 70
     1
102
RTVSPropertyOp20
 70
     1
102
RTVSPropertyOp21
 70
     1
102
RTVSPropertyOp22
 70
     1
102
RTVSPropertyOp23
 70
     1
102
RTVSPropertyOp24
 70
     1
102
RTVSPropertyOp25
 70
     1
102
RTVSPropertyOp26
 70
     1
102
RTVSPropertyOp27
 70
     1
102
RTVSPropertyOp28
 70
     1
102
RTVSPropertyOp29
 70
     1
102
RTVSPropertyOp30
 70
     1
102
RTVSPropertyOp31
 70
     1
102
RTVSPropertyOp32
 70
     1
102
RTVSPropertyOp33
 70
     1
102
RTVSPropertyOp34
 70
     1
102
RTVSPropertyOp35
 70
     1
102
RTVSPropertyOp36
 70
     1
102
RTVSPropertyOp37
 70
     1
102
RTVSPropertyOp38
 70
     1
102
RTVSPropertyOp39
 70
     1
102
RTVSPropertyOp40
 70
     1
102
RTVSPropertyOp41
 70
     1
102
RTVSPropertyOp42
 70
     1
102
RTVSPropertyOp43
 70
     1
102
RTVSPropertyOp44
 70
     1
102
RTVSPropertyOp45
 70
     1
102
RTVSPropertyOp46
 70
     1
102
RTVSPropertyOp47
 70
     1
102
RTVSPropertyOp48
 70
     1
102
RTVSPropertyOp49
 70
     1
102
RTVSPropertyOp50
 70
     1
102
RTVSPropertyOp51
 70
     0
102
RTVSPropertyOp52
 70
     0
102
RTVSPropertyOp53
 70
     1
102
RTVSPropertyOp54
 70
     1
102
RTVSPropertyOp55
 70
     1
102
RTVSPropertyOp56
 70
     1
102
RTVSPropertyOp57
 70
     1
102
RTVSPropertyOp58
 70
     1
102
RTVSPropertyOp59
 70
     1
102
RTVSPropertyOp60
 70
     1
102
RTVSPropertyOp61
 70
     1
102
RTVSPropertyOp62
 70
     1
  0
XRECORD
  5
572D
102
{ACAD_REACTORS
330
572C
102
}
330
572C
100
AcDbXrecord
280
     1
102
RTVSPost2010Prop28
280
     0
102
RTVSPost2010PropOp28
 70
     1
102
RTVSPost2010Prop29
280
     1
102
RTVSPost2010PropOp29
 70
     1
102
RTVSPost2010Prop30
280
     1
102
RTVSPost2010PropOp30
 70
     1
102
RTVSPost2010Prop31
280
     0
102
RTVSPost2010PropOp31
 70
     1
102
RTVSPost2010Prop32
280
     0
102
RTVSPost2010PropOp32
 70
     1
102
RTVSPost2010Prop33
280
     0
102
RTVSPost2010PropOp33
 70
     1
102
RTVSPost2010Prop34
280
     0
102
RTVSPost2010PropOp34
 70
     1
102
RTVSPost2010Prop35
280
     0
102
RTVSPost2010PropOp35
 70
     1
102
RTVSPost2010Prop36
280
     0
102
RTVSPost2010PropOp36
 70
     1
102
RTVSPost2010Prop37
 90
       50
102
RTVSPost2010PropOp37
 70
     1
102
RTVSPost2010Prop38
140
0.0
102
RTVSPost2010PropOp38
 70
     1
102
RTVSPost2010Prop39
140
1.0
102
RTVSPost2010PropOp39
 70
     1
102
RTVSPost2010Prop40
 90
        0
102
RTVSPost2010PropOp40
 70
     1
102
RTVSPost2010Prop41ColorIndex
 90
       18
102
RTVSPost2010Prop41ColorRGB
 90
        0
102
RTVSPost2010PropOp41
 70
     1
102
RTVSPost2010Prop42
 90
       50
102
RTVSPost2010PropOp42
 70
     1
102
RTVSPost2010Prop43
 90
        3
102
RTVSPost2010PropOp43
 70
     1
102
RTVSPost2010Prop44ColorIndex
 90
        5
102
RTVSPost2010Prop44ColorRGB
 90
      255
102
RTVSPost2010PropOp44
 70
     1
102
RTVSPost2010Prop45
280
     0
102
RTVSPost2010PropOp45
 70
     1
102
RTVSPost2010Prop46
 90
       50
102
RTVSPost2010PropOp46
 70
     1
102
RTVSPost2010Prop47
 90
       50
102
RTVSPost2010PropOp47
 70
     1
102
RTVSPost2010Prop48
 90
       50
102
RTVSPost2010PropOp48
 70
     1
102
RTVSPost2010Prop49
280
     0
102
RTVSPost2010PropOp49
 70
     1
102
RTVSPost2010Prop50
 90
       50
102
RTVSPost2010PropOp50
 70
     1
102
RTVSPost2010Prop51ColorIndex
 90
      256
102
RTVSPost2010Prop51ColorRGB
 90
-16777216
102
RTVSPost2010PropOp51
 70
     0
102
RTVSPost2010Prop52
140
1.0
102
RTVSPost2010PropOp52
 70
     0
102
RTVSPost2010Prop53
 90
        2
102
RTVSPost2010PropOp53
 70
     1
102
RTVSPost2010Prop54
  1
strokes_ogs.tif
102
RTVSPost2010PropOp54
 70
     1
102
RTVSPost2010Prop55
280
     0
102
RTVSPost2010PropOp55
 70
     1
102
RTVSPost2010Prop56
140
1.0
102
RTVSPost2010PropOp56
 70
     1
102
RTVSPost2010Prop57
140
1.0
102
RTVSPost2010PropOp57
 70
     1
102
RTVSPropertyOp0
 70
     1
102
RTVSPropertyOp1
 70
     1
102
RTVSPropertyOp2
 70
     1
102
RTVSPropertyOp3
 70
     1
102
RTVSPropertyOp4
 70
     1
102
RTVSPropertyOp5
 70
     1
102
RTVSPropertyOp6
 70
     1
102
RTVSPropertyOp7
 70
     1
102
RTVSPropertyOp8
 70
     1
102
RTVSPropertyOp9
 70
     1
102
RTVSPropertyOp10
 70
     1
102
RTVSPropertyOp11
 70
     1
102
RTVSPropertyOp12
 70
     1
102
RTVSPropertyOp13
 70
     1
102
RTVSPropertyOp14
 70
     1
102
RTVSPropertyOp15
 70
     1
102
RTVSPropertyOp16
 70
     1
102
RTVSPropertyOp17
 70
     1
102
RTVSPropertyOp18
 70
     1
102
RTVSPropertyOp19
 70
     1
102
RTVSPropertyOp20
 70
     1
102
RTVSPropertyOp21
 70
     1
102
RTVSPropertyOp22
 70
     1
102
RTVSPropertyOp23
 70
     1
102
RTVSPropertyOp24
 70
     1
102
RTVSPropertyOp25
 70
     1
102
RTVSPropertyOp26
 70
     1
102
RTVSPropertyOp27
 70
     1
102
RTVSPropertyOp28
 70
     1
102
RTVSPropertyOp29
 70
     1
102
RTVSPropertyOp30
 70
     1
102
RTVSPropertyOp31
 70
     1
102
RTVSPropertyOp32
 70
     1
102
RTVSPropertyOp33
 70
     1
102
RTVSPropertyOp34
 70
     1
102
RTVSPropertyOp35
 70
     1
102
RTVSPropertyOp36
 70
     1
102
RTVSPropertyOp37
 70
     1
102
RTVSPropertyOp38
 70
     1
102
RTVSPropertyOp39
 70
     1
102
RTVSPropertyOp40
 70
     1
102
RTVSPropertyOp41
 70
     1
102
RTVSPropertyOp42
 70
     1
102
RTVSPropertyOp43
 70
     1
102
RTVSPropertyOp44
 70
     1
102
RTVSPropertyOp45
 70
     1
102
RTVSPropertyOp46
 70
     1
102
RTVSPropertyOp47
 70
     1
102
RTVSPropertyOp48
 70
     1
102
RTVSPropertyOp49
 70
     1
102
RTVSPropertyOp50
 70
     1
102
RTVSPropertyOp51
 70
     0
102
RTVSPropertyOp52
 70
     0
102
RTVSPropertyOp53
 70
     1
102
RTVSPropertyOp54
 70
     1
102
RTVSPropertyOp55
 70
     1
102
RTVSPropertyOp56
 70
     1
102
RTVSPropertyOp57
 70
     1
102
RTVSPropertyOp58
 70
     1
102
RTVSPropertyOp59
 70
     1
102
RTVSPropertyOp60
 70
     1
102
RTVSPropertyOp61
 70
     1
102
RTVSPropertyOp62
 70
     1
  0
XRECORD
  5
5727
102
{ACAD_REACTORS
330
5726
102
}
330
5726
100
AcDbXrecord
280
     1
102
RTVSPost2010Prop28
280
     0
102
RTVSPost2010PropOp28
 70
     1
102
RTVSPost2010Prop29
280
     1
102
RTVSPost2010PropOp29
 70
     1
102
RTVSPost2010Prop30
280
     1
102
RTVSPost2010PropOp30
 70
     1
102
RTVSPost2010Prop31
280
     0
102
RTVSPost2010PropOp31
 70
     1
102
RTVSPost2010Prop32
280
     0
102
RTVSPost2010PropOp32
 70
     1
102
RTVSPost2010Prop33
280
     0
102
RTVSPost2010PropOp33
 70
     1
102
RTVSPost2010Prop34
280
     0
102
RTVSPost2010PropOp34
 70
     1
102
RTVSPost2010Prop35
280
     0
102
RTVSPost2010PropOp35
 70
     1
102
RTVSPost2010Prop36
280
     0
102
RTVSPost2010PropOp36
 70
     1
102
RTVSPost2010Prop37
 90
       50
102
RTVSPost2010PropOp37
 70
     1
102
RTVSPost2010Prop38
140
0.0
102
RTVSPost2010PropOp38
 70
     1
102
RTVSPost2010Prop39
140
1.0
102
RTVSPost2010PropOp39
 70
     1
102
RTVSPost2010Prop40
 90
        0
102
RTVSPost2010PropOp40
 70
     1
102
RTVSPost2010Prop41ColorIndex
 90
       18
102
RTVSPost2010Prop41ColorRGB
 90
        0
102
RTVSPost2010PropOp41
 70
     1
102
RTVSPost2010Prop42
 90
       50
102
RTVSPost2010PropOp42
 70
     1
102
RTVSPost2010Prop43
 90
        3
102
RTVSPost2010PropOp43
 70
     1
102
RTVSPost2010Prop44ColorIndex
 90
        5
102
RTVSPost2010Prop44ColorRGB
 90
      255
102
RTVSPost2010PropOp44
 70
     1
102
RTVSPost2010Prop45
280
     0
102
RTVSPost2010PropOp45
 70
     1
102
RTVSPost2010Prop46
 90
       50
102
RTVSPost2010PropOp46
 70
     1
102
RTVSPost2010Prop47
 90
       50
102
RTVSPost2010PropOp47
 70
     1
102
RTVSPost2010Prop48
 90
       50
102
RTVSPost2010PropOp48
 70
     1
102
RTVSPost2010Prop49
280
     0
102
RTVSPost2010PropOp49
 70
     1
102
RTVSPost2010Prop50
 90
       50
102
RTVSPost2010PropOp50
 70
     1
102
RTVSPost2010Prop51ColorIndex
 90
      256
102
RTVSPost2010Prop51ColorRGB
 90
-16777216
102
RTVSPost2010PropOp51
 70
     0
102
RTVSPost2010Prop52
140
1.0
102
RTVSPost2010PropOp52
 70
     0
102
RTVSPost2010Prop53
 90
        2
102
RTVSPost2010PropOp53
 70
     1
102
RTVSPost2010Prop54
  1
strokes_ogs.tif
102
RTVSPost2010PropOp54
 70
     1
102
RTVSPost2010Prop55
280
     0
102
RTVSPost2010PropOp55
 70
     1
102
RTVSPost2010Prop56
140
1.0
102
RTVSPost2010PropOp56
 70
     1
102
RTVSPost2010Prop57
140
1.0
102
RTVSPost2010PropOp57
 70
     1
102
RTVSPropertyOp0
 70
     1
102
RTVSPropertyOp1
 70
     1
102
RTVSPropertyOp2
 70
     1
102
RTVSPropertyOp3
 70
     1
102
RTVSPropertyOp4
 70
     1
102
RTVSPropertyOp5
 70
     1
102
RTVSPropertyOp6
 70
     1
102
RTVSPropertyOp7
 70
     1
102
RTVSPropertyOp8
 70
     1
102
RTVSPropertyOp9
 70
     1
102
RTVSPropertyOp10
 70
     1
102
RTVSPropertyOp11
 70
     1
102
RTVSPropertyOp12
 70
     1
102
RTVSPropertyOp13
 70
     1
102
RTVSPropertyOp14
 70
     1
102
RTVSPropertyOp15
 70
     1
102
RTVSPropertyOp16
 70
     1
102
RTVSPropertyOp17
 70
     1
102
RTVSPropertyOp18
 70
     1
102
RTVSPropertyOp19
 70
     1
102
RTVSPropertyOp20
 70
     1
102
RTVSPropertyOp21
 70
     1
102
RTVSPropertyOp22
 70
     1
102
RTVSPropertyOp23
 70
     1
102
RTVSPropertyOp24
 70
     1
102
RTVSPropertyOp25
 70
     1
102
RTVSPropertyOp26
 70
     1
102
RTVSPropertyOp27
 70
     1
102
RTVSPropertyOp28
 70
     1
102
RTVSPropertyOp29
 70
     1
102
RTVSPropertyOp30
 70
     1
102
RTVSPropertyOp31
 70
     1
102
RTVSPropertyOp32
 70
     1
102
RTVSPropertyOp33
 70
     1
102
RTVSPropertyOp34
 70
     1
102
RTVSPropertyOp35
 70
     1
102
RTVSPropertyOp36
 70
     1
102
RTVSPropertyOp37
 70
     1
102
RTVSPropertyOp38
 70
     1
102
RTVSPropertyOp39
 70
     1
102
RTVSPropertyOp40
 70
     1
102
RTVSPropertyOp41
 70
     1
102
RTVSPropertyOp42
 70
     1
102
RTVSPropertyOp43
 70
     1
102
RTVSPropertyOp44
 70
     1
102
RTVSPropertyOp45
 70
     1
102
RTVSPropertyOp46
 70
     1
102
RTVSPropertyOp47
 70
     1
102
RTVSPropertyOp48
 70
     1
102
RTVSPropertyOp49
 70
     1
102
RTVSPropertyOp50
 70
     1
102
RTVSPropertyOp51
 70
     0
102
RTVSPropertyOp52
 70
     0
102
RTVSPropertyOp53
 70
     1
102
RTVSPropertyOp54
 70
     1
102
RTVSPropertyOp55
 70
     1
102
RTVSPropertyOp56
 70
     1
102
RTVSPropertyOp57
 70
     1
102
RTVSPropertyOp58
 70
     1
102
RTVSPropertyOp59
 70
     1
102
RTVSPropertyOp60
 70
     1
102
RTVSPropertyOp61
 70
     1
102
RTVSPropertyOp62
 70
     1
  0
XRECORD
  5
5729
102
{ACAD_REACTORS
330
5728
102
}
330
5728
100
AcDbXrecord
280
     1
102
RTVSPost2010Prop28
280
     0
102
RTVSPost2010PropOp28
 70
     1
102
RTVSPost2010Prop29
280
     1
102
RTVSPost2010PropOp29
 70
     1
102
RTVSPost2010Prop30
280
     1
102
RTVSPost2010PropOp30
 70
     1
102
RTVSPost2010Prop31
280
     0
102
RTVSPost2010PropOp31
 70
     1
102
RTVSPost2010Prop32
280
     0
102
RTVSPost2010PropOp32
 70
     1
102
RTVSPost2010Prop33
280
     0
102
RTVSPost2010PropOp33
 70
     1
102
RTVSPost2010Prop34
280
     0
102
RTVSPost2010PropOp34
 70
     1
102
RTVSPost2010Prop35
280
     0
102
RTVSPost2010PropOp35
 70
     1
102
RTVSPost2010Prop36
280
     0
102
RTVSPost2010PropOp36
 70
     1
102
RTVSPost2010Prop37
 90
       50
102
RTVSPost2010PropOp37
 70
     1
102
RTVSPost2010Prop38
140
0.0
102
RTVSPost2010PropOp38
 70
     1
102
RTVSPost2010Prop39
140
1.0
102
RTVSPost2010PropOp39
 70
     1
102
RTVSPost2010Prop40
 90
        0
102
RTVSPost2010PropOp40
 70
     1
102
RTVSPost2010Prop41ColorIndex
 90
       18
102
RTVSPost2010Prop41ColorRGB
 90
        0
102
RTVSPost2010PropOp41
 70
     1
102
RTVSPost2010Prop42
 90
       50
102
RTVSPost2010PropOp42
 70
     1
102
RTVSPost2010Prop43
 90
        3
102
RTVSPost2010PropOp43
 70
     1
102
RTVSPost2010Prop44ColorIndex
 90
        5
102
RTVSPost2010Prop44ColorRGB
 90
      255
102
RTVSPost2010PropOp44
 70
     1
102
RTVSPost2010Prop45
280
     0
102
RTVSPost2010PropOp45
 70
     1
102
RTVSPost2010Prop46
 90
       50
102
RTVSPost2010PropOp46
 70
     1
102
RTVSPost2010Prop47
 90
       50
102
RTVSPost2010PropOp47
 70
     1
102
RTVSPost2010Prop48
 90
       50
102
RTVSPost2010PropOp48
 70
     1
102
RTVSPost2010Prop49
280
     0
102
RTVSPost2010PropOp49
 70
     1
102
RTVSPost2010Prop50
 90
       50
102
RTVSPost2010PropOp50
 70
     1
102
RTVSPost2010Prop51ColorIndex
 90
      256
102
RTVSPost2010Prop51ColorRGB
 90
-16777216
102
RTVSPost2010PropOp51
 70
     0
102
RTVSPost2010Prop52
140
1.0
102
RTVSPost2010PropOp52
 70
     0
102
RTVSPost2010Prop53
 90
        2
102
RTVSPost2010PropOp53
 70
     1
102
RTVSPost2010Prop54
  1
strokes_ogs.tif
102
RTVSPost2010PropOp54
 70
     1
102
RTVSPost2010Prop55
280
     0
102
RTVSPost2010PropOp55
 70
     1
102
RTVSPost2010Prop56
140
1.0
102
RTVSPost2010PropOp56
 70
     1
102
RTVSPost2010Prop57
140
1.0
102
RTVSPost2010PropOp57
 70
     1
102
RTVSPropertyOp0
 70
     1
102
RTVSPropertyOp1
 70
     1
102
RTVSPropertyOp2
 70
     1
102
RTVSPropertyOp3
 70
     1
102
RTVSPropertyOp4
 70
     1
102
RTVSPropertyOp5
 70
     1
102
RTVSPropertyOp6
 70
     1
102
RTVSPropertyOp7
 70
     1
102
RTVSPropertyOp8
 70
     1
102
RTVSPropertyOp9
 70
     1
102
RTVSPropertyOp10
 70
     1
102
RTVSPropertyOp11
 70
     1
102
RTVSPropertyOp12
 70
     1
102
RTVSPropertyOp13
 70
     1
102
RTVSPropertyOp14
 70
     1
102
RTVSPropertyOp15
 70
     1
102
RTVSPropertyOp16
 70
     1
102
RTVSPropertyOp17
 70
     1
102
RTVSPropertyOp18
 70
     1
102
RTVSPropertyOp19
 70
     1
102
RTVSPropertyOp20
 70
     1
102
RTVSPropertyOp21
 70
     1
102
RTVSPropertyOp22
 70
     1
102
RTVSPropertyOp23
 70
     1
102
RTVSPropertyOp24
 70
     1
102
RTVSPropertyOp25
 70
     1
102
RTVSPropertyOp26
 70
     1
102
RTVSPropertyOp27
 70
     1
102
RTVSPropertyOp28
 70
     1
102
RTVSPropertyOp29
 70
     1
102
RTVSPropertyOp30
 70
     1
102
RTVSPropertyOp31
 70
     1
102
RTVSPropertyOp32
 70
     1
102
RTVSPropertyOp33
 70
     1
102
RTVSPropertyOp34
 70
     1
102
RTVSPropertyOp35
 70
     1
102
RTVSPropertyOp36
 70
     1
102
RTVSPropertyOp37
 70
     1
102
RTVSPropertyOp38
 70
     1
102
RTVSPropertyOp39
 70
     1
102
RTVSPropertyOp40
 70
     1
102
RTVSPropertyOp41
 70
     1
102
RTVSPropertyOp42
 70
     1
102
RTVSPropertyOp43
 70
     1
102
RTVSPropertyOp44
 70
     1
102
RTVSPropertyOp45
 70
     1
102
RTVSPropertyOp46
 70
     1
102
RTVSPropertyOp47
 70
     1
102
RTVSPropertyOp48
 70
     1
102
RTVSPropertyOp49
 70
     1
102
RTVSPropertyOp50
 70
     1
102
RTVSPropertyOp51
 70
     0
102
RTVSPropertyOp52
 70
     0
102
RTVSPropertyOp53
 70
     1
102
RTVSPropertyOp54
 70
     1
102
RTVSPropertyOp55
 70
     1
102
RTVSPropertyOp56
 70
     1
102
RTVSPropertyOp57
 70
     1
102
RTVSPropertyOp58
 70
     1
102
RTVSPropertyOp59
 70
     1
102
RTVSPropertyOp60
 70
     1
102
RTVSPropertyOp61
 70
     1
102
RTVSPropertyOp62
 70
     1
  0
XRECORD
  5
571F
102
{ACAD_REACTORS
330
571E
102
}
330
571E
100
AcDbXrecord
280
     1
102
RTVSPost2010Prop28
280
     0
102
RTVSPost2010PropOp28
 70
     1
102
RTVSPost2010Prop29
280
     1
102
RTVSPost2010PropOp29
 70
     1
102
RTVSPost2010Prop30
280
     1
102
RTVSPost2010PropOp30
 70
     1
102
RTVSPost2010Prop31
280
     0
102
RTVSPost2010PropOp31
 70
     1
102
RTVSPost2010Prop32
280
     0
102
RTVSPost2010PropOp32
 70
     1
102
RTVSPost2010Prop33
280
     0
102
RTVSPost2010PropOp33
 70
     1
102
RTVSPost2010Prop34
280
     0
102
RTVSPost2010PropOp34
 70
     1
102
RTVSPost2010Prop35
280
     0
102
RTVSPost2010PropOp35
 70
     1
102
RTVSPost2010Prop36
280
     0
102
RTVSPost2010PropOp36
 70
     1
102
RTVSPost2010Prop37
 90
       50
102
RTVSPost2010PropOp37
 70
     1
102
RTVSPost2010Prop38
140
0.0
102
RTVSPost2010PropOp38
 70
     1
102
RTVSPost2010Prop39
140
1.0
102
RTVSPost2010PropOp39
 70
     1
102
RTVSPost2010Prop40
 90
        0
102
RTVSPost2010PropOp40
 70
     1
102
RTVSPost2010Prop41ColorIndex
 90
       18
102
RTVSPost2010Prop41ColorRGB
 90
        0
102
RTVSPost2010PropOp41
 70
     1
102
RTVSPost2010Prop42
 90
       50
102
RTVSPost2010PropOp42
 70
     1
102
RTVSPost2010Prop43
 90
        3
102
RTVSPost2010PropOp43
 70
     1
102
RTVSPost2010Prop44ColorIndex
 90
        5
102
RTVSPost2010Prop44ColorRGB
 90
      255
102
RTVSPost2010PropOp44
 70
     1
102
RTVSPost2010Prop45
280
     0
102
RTVSPost2010PropOp45
 70
     1
102
RTVSPost2010Prop46
 90
       50
102
RTVSPost2010PropOp46
 70
     1
102
RTVSPost2010Prop47
 90
       50
102
RTVSPost2010PropOp47
 70
     1
102
RTVSPost2010Prop48
 90
       50
102
RTVSPost2010PropOp48
 70
     1
102
RTVSPost2010Prop49
280
     0
102
RTVSPost2010PropOp49
 70
     1
102
RTVSPost2010Prop50
 90
       50
102
RTVSPost2010PropOp50
 70
     1
102
RTVSPost2010Prop51ColorIndex
 90
      256
102
RTVSPost2010Prop51ColorRGB
 90
-16777216
102
RTVSPost2010PropOp51
 70
     0
102
RTVSPost2010Prop52
140
1.0
102
RTVSPost2010PropOp52
 70
     0
102
RTVSPost2010Prop53
 90
        2
102
RTVSPost2010PropOp53
 70
     1
102
RTVSPost2010Prop54
  1
strokes_ogs.tif
102
RTVSPost2010PropOp54
 70
     1
102
RTVSPost2010Prop55
280
     0
102
RTVSPost2010PropOp55
 70
     1
102
RTVSPost2010Prop56
140
1.0
102
RTVSPost2010PropOp56
 70
     1
102
RTVSPost2010Prop57
140
1.0
102
RTVSPost2010PropOp57
 70
     1
102
RTVSPropertyOp0
 70
     1
102
RTVSPropertyOp1
 70
     1
102
RTVSPropertyOp2
 70
     1
102
RTVSPropertyOp3
 70
     1
102
RTVSPropertyOp4
 70
     1
102
RTVSPropertyOp5
 70
     1
102
RTVSPropertyOp6
 70
     1
102
RTVSPropertyOp7
 70
     1
102
RTVSPropertyOp8
 70
     1
102
RTVSPropertyOp9
 70
     1
102
RTVSPropertyOp10
 70
     1
102
RTVSPropertyOp11
 70
     1
102
RTVSPropertyOp12
 70
     1
102
RTVSPropertyOp13
 70
     1
102
RTVSPropertyOp14
 70
     1
102
RTVSPropertyOp15
 70
     1
102
RTVSPropertyOp16
 70
     1
102
RTVSPropertyOp17
 70
     1
102
RTVSPropertyOp18
 70
     1
102
RTVSPropertyOp19
 70
     1
102
RTVSPropertyOp20
 70
     1
102
RTVSPropertyOp21
 70
     1
102
RTVSPropertyOp22
 70
     1
102
RTVSPropertyOp23
 70
     1
102
RTVSPropertyOp24
 70
     1
102
RTVSPropertyOp25
 70
     1
102
RTVSPropertyOp26
 70
     1
102
RTVSPropertyOp27
 70
     1
102
RTVSPropertyOp28
 70
     1
102
RTVSPropertyOp29
 70
     1
102
RTVSPropertyOp30
 70
     1
102
RTVSPropertyOp31
 70
     1
102
RTVSPropertyOp32
 70
     1
102
RTVSPropertyOp33
 70
     1
102
RTVSPropertyOp34
 70
     1
102
RTVSPropertyOp35
 70
     1
102
RTVSPropertyOp36
 70
     1
102
RTVSPropertyOp37
 70
     1
102
RTVSPropertyOp38
 70
     1
102
RTVSPropertyOp39
 70
     1
102
RTVSPropertyOp40
 70
     1
102
RTVSPropertyOp41
 70
     1
102
RTVSPropertyOp42
 70
     1
102
RTVSPropertyOp43
 70
     1
102
RTVSPropertyOp44
 70
     1
102
RTVSPropertyOp45
 70
     1
102
RTVSPropertyOp46
 70
     1
102
RTVSPropertyOp47
 70
     1
102
RTVSPropertyOp48
 70
     1
102
RTVSPropertyOp49
 70
     1
102
RTVSPropertyOp50
 70
     1
102
RTVSPropertyOp51
 70
     0
102
RTVSPropertyOp52
 70
     0
102
RTVSPropertyOp53
 70
     1
102
RTVSPropertyOp54
 70
     1
102
RTVSPropertyOp55
 70
     1
102
RTVSPropertyOp56
 70
     1
102
RTVSPropertyOp57
 70
     1
102
RTVSPropertyOp58
 70
     1
102
RTVSPropertyOp59
 70
     1
102
RTVSPropertyOp60
 70
     1
102
RTVSPropertyOp61
 70
     1
102
RTVSPropertyOp62
 70
     1
  0
XRECORD
  5
5713
102
{ACAD_REACTORS
330
5712
102
}
330
5712
100
AcDbXrecord
280
     1
102
RTVSPost2010Prop28
280
     0
102
RTVSPost2010PropOp28
 70
     1
102
RTVSPost2010Prop29
280
     1
102
RTVSPost2010PropOp29
 70
     1
102
RTVSPost2010Prop30
280
     1
102
RTVSPost2010PropOp30
 70
     1
102
RTVSPost2010Prop31
280
     0
102
RTVSPost2010PropOp31
 70
     1
102
RTVSPost2010Prop32
280
     0
102
RTVSPost2010PropOp32
 70
     1
102
RTVSPost2010Prop33
280
     0
102
RTVSPost2010PropOp33
 70
     1
102
RTVSPost2010Prop34
280
     0
102
RTVSPost2010PropOp34
 70
     1
102
RTVSPost2010Prop35
280
     0
102
RTVSPost2010PropOp35
 70
     1
102
RTVSPost2010Prop36
280
     0
102
RTVSPost2010PropOp36
 70
     1
102
RTVSPost2010Prop37
 90
       50
102
RTVSPost2010PropOp37
 70
     1
102
RTVSPost2010Prop38
140
0.0
102
RTVSPost2010PropOp38
 70
     1
102
RTVSPost2010Prop39
140
1.0
102
RTVSPost2010PropOp39
 70
     1
102
RTVSPost2010Prop40
 90
        0
102
RTVSPost2010PropOp40
 70
     1
102
RTVSPost2010Prop41ColorIndex
 90
       18
102
RTVSPost2010Prop41ColorRGB
 90
        0
102
RTVSPost2010PropOp41
 70
     1
102
RTVSPost2010Prop42
 90
       50
102
RTVSPost2010PropOp42
 70
     1
102
RTVSPost2010Prop43
 90
        3
102
RTVSPost2010PropOp43
 70
     1
102
RTVSPost2010Prop44ColorIndex
 90
        5
102
RTVSPost2010Prop44ColorRGB
 90
      255
102
RTVSPost2010PropOp44
 70
     1
102
RTVSPost2010Prop45
280
     0
102
RTVSPost2010PropOp45
 70
     1
102
RTVSPost2010Prop46
 90
       50
102
RTVSPost2010PropOp46
 70
     1
102
RTVSPost2010Prop47
 90
       50
102
RTVSPost2010PropOp47
 70
     1
102
RTVSPost2010Prop48
 90
       50
102
RTVSPost2010PropOp48
 70
     1
102
RTVSPost2010Prop49
280
     0
102
RTVSPost2010PropOp49
 70
     1
102
RTVSPost2010Prop50
 90
       50
102
RTVSPost2010PropOp50
 70
     1
102
RTVSPost2010Prop51ColorIndex
 90
      256
102
RTVSPost2010Prop51ColorRGB
 90
-16777216
102
RTVSPost2010PropOp51
 70
     0
102
RTVSPost2010Prop52
140
1.0
102
RTVSPost2010PropOp52
 70
     0
102
RTVSPost2010Prop53
 90
        2
102
RTVSPost2010PropOp53
 70
     1
102
RTVSPost2010Prop54
  1
strokes_ogs.tif
102
RTVSPost2010PropOp54
 70
     1
102
RTVSPost2010Prop55
280
     0
102
RTVSPost2010PropOp55
 70
     1
102
RTVSPost2010Prop56
140
1.0
102
RTVSPost2010PropOp56
 70
     1
102
RTVSPost2010Prop57
140
1.0
102
RTVSPost2010PropOp57
 70
     1
102
RTVSPropertyOp0
 70
     1
102
RTVSPropertyOp1
 70
     1
102
RTVSPropertyOp2
 70
     1
102
RTVSPropertyOp3
 70
     1
102
RTVSPropertyOp4
 70
     1
102
RTVSPropertyOp5
 70
     1
102
RTVSPropertyOp6
 70
     1
102
RTVSPropertyOp7
 70
     1
102
RTVSPropertyOp8
 70
     1
102
RTVSPropertyOp9
 70
     1
102
RTVSPropertyOp10
 70
     1
102
RTVSPropertyOp11
 70
     1
102
RTVSPropertyOp12
 70
     1
102
RTVSPropertyOp13
 70
     1
102
RTVSPropertyOp14
 70
     1
102
RTVSPropertyOp15
 70
     1
102
RTVSPropertyOp16
 70
     1
102
RTVSPropertyOp17
 70
     1
102
RTVSPropertyOp18
 70
     1
102
RTVSPropertyOp19
 70
     1
102
RTVSPropertyOp20
 70
     1
102
RTVSPropertyOp21
 70
     1
102
RTVSPropertyOp22
 70
     1
102
RTVSPropertyOp23
 70
     1
102
RTVSPropertyOp24
 70
     1
102
RTVSPropertyOp25
 70
     1
102
RTVSPropertyOp26
 70
     1
102
RTVSPropertyOp27
 70
     1
102
RTVSPropertyOp28
 70
     1
102
RTVSPropertyOp29
 70
     1
102
RTVSPropertyOp30
 70
     1
102
RTVSPropertyOp31
 70
     1
102
RTVSPropertyOp32
 70
     1
102
RTVSPropertyOp33
 70
     1
102
RTVSPropertyOp34
 70
     1
102
RTVSPropertyOp35
 70
     1
102
RTVSPropertyOp36
 70
     1
102
RTVSPropertyOp37
 70
     1
102
RTVSPropertyOp38
 70
     1
102
RTVSPropertyOp39
 70
     1
102
RTVSPropertyOp40
 70
     1
102
RTVSPropertyOp41
 70
     1
102
RTVSPropertyOp42
 70
     1
102
RTVSPropertyOp43
 70
     1
102
RTVSPropertyOp44
 70
     1
102
RTVSPropertyOp45
 70
     1
102
RTVSPropertyOp46
 70
     1
102
RTVSPropertyOp47
 70
     1
102
RTVSPropertyOp48
 70
     1
102
RTVSPropertyOp49
 70
     1
102
RTVSPropertyOp50
 70
     1
102
RTVSPropertyOp51
 70
     0
102
RTVSPropertyOp52
 70
     0
102
RTVSPropertyOp53
 70
     1
102
RTVSPropertyOp54
 70
     1
102
RTVSPropertyOp55
 70
     1
102
RTVSPropertyOp56
 70
     1
102
RTVSPropertyOp57
 70
     1
102
RTVSPropertyOp58
 70
     1
102
RTVSPropertyOp59
 70
     1
102
RTVSPropertyOp60
 70
     1
102
RTVSPropertyOp61
 70
     1
102
RTVSPropertyOp62
 70
     1
  0
XRECORD
  5
572B
102
{ACAD_REACTORS
330
572A
102
}
330
572A
100
AcDbXrecord
280
     1
102
RTVSPost2010Prop28
280
     0
102
RTVSPost2010PropOp28
 70
     1
102
RTVSPost2010Prop29
280
     1
102
RTVSPost2010PropOp29
 70
     1
102
RTVSPost2010Prop30
280
     1
102
RTVSPost2010PropOp30
 70
     1
102
RTVSPost2010Prop31
280
     0
102
RTVSPost2010PropOp31
 70
     1
102
RTVSPost2010Prop32
280
     0
102
RTVSPost2010PropOp32
 70
     1
102
RTVSPost2010Prop33
280
     0
102
RTVSPost2010PropOp33
 70
     1
102
RTVSPost2010Prop34
280
     0
102
RTVSPost2010PropOp34
 70
     1
102
RTVSPost2010Prop35
280
     0
102
RTVSPost2010PropOp35
 70
     1
102
RTVSPost2010Prop36
280
     0
102
RTVSPost2010PropOp36
 70
     1
102
RTVSPost2010Prop37
 90
       50
102
RTVSPost2010PropOp37
 70
     1
102
RTVSPost2010Prop38
140
0.0
102
RTVSPost2010PropOp38
 70
     1
102
RTVSPost2010Prop39
140
1.0
102
RTVSPost2010PropOp39
 70
     1
102
RTVSPost2010Prop40
 90
        0
102
RTVSPost2010PropOp40
 70
     1
102
RTVSPost2010Prop41ColorIndex
 90
       18
102
RTVSPost2010Prop41ColorRGB
 90
        0
102
RTVSPost2010PropOp41
 70
     1
102
RTVSPost2010Prop42
 90
       50
102
RTVSPost2010PropOp42
 70
     1
102
RTVSPost2010Prop43
 90
        3
102
RTVSPost2010PropOp43
 70
     1
102
RTVSPost2010Prop44ColorIndex
 90
        5
102
RTVSPost2010Prop44ColorRGB
 90
      255
102
RTVSPost2010PropOp44
 70
     1
102
RTVSPost2010Prop45
280
     0
102
RTVSPost2010PropOp45
 70
     1
102
RTVSPost2010Prop46
 90
       50
102
RTVSPost2010PropOp46
 70
     1
102
RTVSPost2010Prop47
 90
       50
102
RTVSPost2010PropOp47
 70
     1
102
RTVSPost2010Prop48
 90
       50
102
RTVSPost2010PropOp48
 70
     1
102
RTVSPost2010Prop49
280
     0
102
RTVSPost2010PropOp49
 70
     1
102
RTVSPost2010Prop50
 90
       50
102
RTVSPost2010PropOp50
 70
     1
102
RTVSPost2010Prop51ColorIndex
 90
      256
102
RTVSPost2010Prop51ColorRGB
 90
-16777216
102
RTVSPost2010PropOp51
 70
     0
102
RTVSPost2010Prop52
140
1.0
102
RTVSPost2010PropOp52
 70
     0
102
RTVSPost2010Prop53
 90
        2
102
RTVSPost2010PropOp53
 70
     1
102
RTVSPost2010Prop54
  1
strokes_ogs.tif
102
RTVSPost2010PropOp54
 70
     1
102
RTVSPost2010Prop55
280
     0
102
RTVSPost2010PropOp55
 70
     1
102
RTVSPost2010Prop56
140
1.0
102
RTVSPost2010PropOp56
 70
     1
102
RTVSPost2010Prop57
140
1.0
102
RTVSPost2010PropOp57
 70
     1
102
RTVSPropertyOp0
 70
     1
102
RTVSPropertyOp1
 70
     1
102
RTVSPropertyOp2
 70
     1
102
RTVSPropertyOp3
 70
     1
102
RTVSPropertyOp4
 70
     1
102
RTVSPropertyOp5
 70
     1
102
RTVSPropertyOp6
 70
     1
102
RTVSPropertyOp7
 70
     1
102
RTVSPropertyOp8
 70
     1
102
RTVSPropertyOp9
 70
     1
102
RTVSPropertyOp10
 70
     1
102
RTVSPropertyOp11
 70
     1
102
RTVSPropertyOp12
 70
     1
102
RTVSPropertyOp13
 70
     1
102
RTVSPropertyOp14
 70
     1
102
RTVSPropertyOp15
 70
     1
102
RTVSPropertyOp16
 70
     1
102
RTVSPropertyOp17
 70
     1
102
RTVSPropertyOp18
 70
     1
102
RTVSPropertyOp19
 70
     1
102
RTVSPropertyOp20
 70
     1
102
RTVSPropertyOp21
 70
     1
102
RTVSPropertyOp22
 70
     1
102
RTVSPropertyOp23
 70
     1
102
RTVSPropertyOp24
 70
     1
102
RTVSPropertyOp25
 70
     1
102
RTVSPropertyOp26
 70
     1
102
RTVSPropertyOp27
 70
     1
102
RTVSPropertyOp28
 70
     1
102
RTVSPropertyOp29
 70
     1
102
RTVSPropertyOp30
 70
     1
102
RTVSPropertyOp31
 70
     1
102
RTVSPropertyOp32
 70
     1
102
RTVSPropertyOp33
 70
     1
102
RTVSPropertyOp34
 70
     1
102
RTVSPropertyOp35
 70
     1
102
RTVSPropertyOp36
 70
     1
102
RTVSPropertyOp37
 70
     1
102
RTVSPropertyOp38
 70
     1
102
RTVSPropertyOp39
 70
     1
102
RTVSPropertyOp40
 70
     1
102
RTVSPropertyOp41
 70
     1
102
RTVSPropertyOp42
 70
     1
102
RTVSPropertyOp43
 70
     1
102
RTVSPropertyOp44
 70
     1
102
RTVSPropertyOp45
 70
     1
102
RTVSPropertyOp46
 70
     1
102
RTVSPropertyOp47
 70
     1
102
RTVSPropertyOp48
 70
     1
102
RTVSPropertyOp49
 70
     1
102
RTVSPropertyOp50
 70
     1
102
RTVSPropertyOp51
 70
     0
102
RTVSPropertyOp52
 70
     0
102
RTVSPropertyOp53
 70
     1
102
RTVSPropertyOp54
 70
     1
102
RTVSPropertyOp55
 70
     1
102
RTVSPropertyOp56
 70
     1
102
RTVSPropertyOp57
 70
     1
102
RTVSPropertyOp58
 70
     1
102
RTVSPropertyOp59
 70
     1
102
RTVSPropertyOp60
 70
     1
102
RTVSPropertyOp61
 70
     1
102
RTVSPropertyOp62
 70
     1
  0
ENDSEC
  0
EOF
