  0
SECTION
  2
HEADER
  9
$ACADVER
  1
AC1015
  9
$ACADMAINTVER
 70
    20
  9
$DWGCODEPAGE
  3
ANSI_932
  9
$INSBASE
 10
0.0
 20
0.0
 30
0.0
  9
$EXTMIN
 10
9.997790433458476
 20
9.97904538591581
 30
-0.0000000349181948
  9
$EXTMAX
 10
529.8273496604788
 20
383.3340525066403
 30
0.0000000814935746
  9
$LIMMIN
 10
0.0000015376081137
 20
-0.0000001931532552
  9
$LIMMAX
 10
605.0000015376082
 20
417.0833331401802
  9
$ORTHOMODE
 70
     1
  9
$REGENMODE
 70
     1
  9
$FILLMODE
 70
     1
  9
$QTEXTMODE
 70
     0
  9
$MIRRTEXT
 70
     1
  9
$LTSCALE
 40
1.0
  9
$ATTMODE
 70
     1
  9
$TEXTSIZE
 40
2.5
  9
$TRACEWID
 40
1.0
  9
$TEXTSTYLE
  7
STANDARD
  9
$CLAYER
  8
0
  9
$CELTYPE
  6
BYLAYER
  9
$CECOLOR
 62
   256
  9
$CELTSCALE
 40
1.0
  9
$DISPSILH
 70
     0
  9
$DIMSCALE
 40
1.0
  9
$DIMASZ
 40
3.0
  9
$DIMEXO
 40
1.0
  9
$DIMDLI
 40
10.0
  9
$DIMRND
 40
0.0
  9
$DIMDLE
 40
0.0
  9
$DIMEXE
 40
1.0
  9
$DIMTP
 40
0.0
  9
$DIMTM
 40
0.0
  9
$DIMTXT
 40
3.2
  9
$DIMCEN
 40
0.0
  9
$DIMTSZ
 40
0.0
  9
$DIMTOL
 70
     0
  9
$DIMLIM
 70
     0
  9
$DIMTIH
 70
     0
  9
$DIMTOH
 70
     0
  9
$DIMSE1
 70
     0
  9
$DIMSE2
 70
     0
  9
$DIMTAD
 70
     3
  9
$DIMZIN
 70
     8
  9
$DIMBLK
  1

  9
$DIMASO
 70
     1
  9
$DIMSHO
 70
     1
  9
$DIMPOST
  1

  9
$DIMAPOST
  1

  9
$DIMALT
 70
     0
  9
$DIMALTD
 70
     2
  9
$DIMALTF
 40
25.4
  9
$DIMLFAC
 40
1.0
  9
$DIMTOFL
 70
     1
  9
$DIMTVP
 40
0.0
  9
$DIMTIX
 70
     0
  9
$DIMSOXD
 70
     0
  9
$DIMSAH
 70
     1
  9
$DIMBLK1
  1
OPEN
  9
$DIMBLK2
  1
OPEN
  9
$DIMSTYLE
  2
STANDARD
  9
$DIMCLRD
 70
     0
  9
$DIMCLRE
 70
     0
  9
$DIMCLRT
 70
     0
  9
$DIMTFAC
 40
1.0
  9
$DIMGAP
 40
1.0
  9
$DIMJUST
 70
     0
  9
$DIMSD1
 70
     0
  9
$DIMSD2
 70
     0
  9
$DIMTOLJ
 70
     1
  9
$DIMTZIN
 70
     0
  9
$DIMALTZ
 70
     0
  9
$DIMALTTZ
 70
     0
  9
$DIMUPT
 70
     0
  9
$DIMDEC
 70
     4
  9
$DIMTDEC
 70
     4
  9
$DIMALTU
 70
     2
  9
$DIMALTTD
 70
     2
  9
$DIMTXSTY
  7
STANDARD
  9
$DIMAUNIT
 70
     0
  9
$DIMADEC
 70
     0
  9
$DIMALTRND
 40
0.0
  9
$DIMAZIN
 70
     0
  9
$DIMDSEP
 70
    46
  9
$DIMATFIT
 70
     3
  9
$DIMFRAC
 70
     0
  9
$DIMLDRBLK
  1
OPEN
  9
$DIMLUNIT
 70
     2
  9
$DIMLWD
 70
    -2
  9
$DIMLWE
 70
    -2
  9
$DIMTMOVE
 70
     0
  9
$LUNITS
 70
     2
  9
$LUPREC
 70
     4
  9
$SKETCHINC
 40
1.0
  9
$FILLETRAD
 40
0.5
  9
$AUNITS
 70
     0
  9
$AUPREC
 70
     0
  9
$MENU
  1
.
  9
$ELEVATION
 40
0.0
  9
$PELEVATION
 40
0.0
  9
$THICKNESS
 40
0.0
  9
$LIMCHECK
 70
     0
  9
$CHAMFERA
 40
10.0
  9
$CHAMFERB
 40
10.0
  9
$CHAMFERC
 40
20.0
  9
$CHAMFERD
 40
0.0
  9
$SKPOLY
 70
     0
  9
$TDCREATE
 40
2454525.614958576
  9
$TDUCREATE
 40
2454525.239958577
  9
$TDUPDATE
 40
2457497.641629723
  9
$TDUUPDATE
 40
2457497.266629722
  9
$TDINDWG
 40
0.2402838426
  9
$TDUSRTIMER
 40
0.2402837963
  9
$USRTIMER
 70
     1
  9
$ANGBASE
 50
0.0
  9
$ANGDIR
 70
     0
  9
$PDMODE
 70
     0
  9
$PDSIZE
 40
0.0
  9
$PLINEWID
 40
0.0
  9
$SPLFRAME
 70
     0
  9
$SPLINETYPE
 70
     6
  9
$SPLINESEGS
 70
     8
  9
$HANDSEED
  5
2C28
  9
$SURFTAB1
 70
     6
  9
$SURFTAB2
 70
     6
  9
$SURFTYPE
 70
     6
  9
$SURFU
 70
     6
  9
$SURFV
 70
     6
  9
$UCSBASE
  2

  9
$UCSNAME
  2

  9
$UCSORG
 10
0.0
 20
0.0
 30
0.0
  9
$UCSXDIR
 10
1.0
 20
0.0
 30
0.0
  9
$UCSYDIR
 10
0.0
 20
1.0
 30
0.0
  9
$UCSORTHOREF
  2

  9
$UCSORTHOVIEW
 70
     0
  9
$UCSORGTOP
 10
0.0
 20
0.0
 30
0.0
  9
$UCSORGBOTTOM
 10
0.0
 20
0.0
 30
0.0
  9
$UCSORGLEFT
 10
0.0
 20
0.0
 30
0.0
  9
$UCSORGRIGHT
 10
0.0
 20
0.0
 30
0.0
  9
$UCSORGFRONT
 10
0.0
 20
0.0
 30
0.0
  9
$UCSORGBACK
 10
0.0
 20
0.0
 30
0.0
  9
$PUCSBASE
  2

  9
$PUCSNAME
  2

  9
$PUCSORG
 10
0.0
 20
0.0
 30
0.0
  9
$PUCSXDIR
 10
1.0
 20
0.0
 30
0.0
  9
$PUCSYDIR
 10
0.0
 20
1.0
 30
0.0
  9
$PUCSORTHOREF
  2

  9
$PUCSORTHOVIEW
 70
     0
  9
$PUCSORGTOP
 10
0.0
 20
0.0
 30
0.0
  9
$PUCSORGBOTTOM
 10
0.0
 20
0.0
 30
0.0
  9
$PUCSORGLEFT
 10
0.0
 20
0.0
 30
0.0
  9
$PUCSORGRIGHT
 10
0.0
 20
0.0
 30
0.0
  9
$PUCSORGFRONT
 10
0.0
 20
0.0
 30
0.0
  9
$PUCSORGBACK
 10
0.0
 20
0.0
 30
0.0
  9
$USERI1
 70
     0
  9
$USERI2
 70
     0
  9
$USERI3
 70
     0
  9
$USERI4
 70
     0
  9
$USERI5
 70
     0
  9
$USERR1
 40
0.0
  9
$USERR2
 40
0.0
  9
$USERR3
 40
0.0
  9
$USERR4
 40
0.0
  9
$USERR5
 40
0.0
  9
$WORLDVIEW
 70
     1
  9
$SHADEDGE
 70
     3
  9
$SHADEDIF
 70
    70
  9
$TILEMODE
 70
     1
  9
$MAXACTVP
 70
    48
  9
$PINSBASE
 10
0.0
 20
0.0
 30
0.0
  9
$PLIMCHECK
 70
     0
  9
$PEXTMIN
 10
1.000000000000000E+20
 20
1.000000000000000E+20
 30
1.000000000000000E+20
  9
$PEXTMAX
 10
-1.000000000000000E+20
 20
-1.000000000000000E+20
 30
-1.000000000000000E+20
  9
$PLIMMIN
 10
0.0
 20
0.0
  9
$PLIMMAX
 10
420.0
 20
297.0
  9
$UNITMODE
 70
     0
  9
$VISRETAIN
 70
     1
  9
$PLINEGEN
 70
     0
  9
$PSLTSCALE
 70
     1
  9
$TREEDEPTH
 70
  3020
  9
$CMLSTYLE
  2
STANDARD
  9
$CMLJUST
 70
     0
  9
$CMLSCALE
 40
20.0
  9
$PROXYGRAPHICS
 70
     1
  9
$MEASUREMENT
 70
     0
  9
$CELWEIGHT
370
    -1
  9
$ENDCAPS
280
     0
  9
$JOINSTYLE
280
     0
  9
$LWDISPLAY
290
     0
  9
$INSUNITS
 70
     0
  9
$HYPERLINKBASE
  1

  9
$STYLESHEET
  1
std_栃木屋様.ctb
  9
$XEDIT
290
     1
  9
$CEPSNTYPE
380
     0
  9
$PSTYLEMODE
290
     1
  9
$FINGERPRINTGUID
  2
{4CF01CF2-B099-4EA6-BD80-C1BD28F2818D}
  9
$VERSIONGUID
  2
{45CAB039-E0B4-4C26-B3F8-B97F56DEEBF3}
  9
$EXTNAMES
290
     1
  9
$PSVPSCALE
 40
0.0
  9
$OLESTARTUP
290
     0
  0
ENDSEC
  0
SECTION
  2
CLASSES
  0
CLASS
  1
ACDBDICTIONARYWDFLT
  2
AcDbDictionaryWithDefault
  3
ObjectDBX Classes
 90
        0
280
     0
281
     0
  0
CLASS
  1
ACDBPLACEHOLDER
  2
AcDbPlaceHolder
  3
ObjectDBX Classes
 90
        0
280
     0
281
     0
  0
CLASS
  1
LAYOUT
  2
AcDbLayout
  3
ObjectDBX Classes
 90
        0
280
     0
281
     0
  0
CLASS
  1
DICTIONARYVAR
  2
AcDbDictionaryVar
  3
ObjectDBX Classes
 90
        0
280
     0
281
     0
  0
CLASS
  1
MATERIAL
  2
AcDbMaterial
  3
ObjectDBX Classes
 90
     1153
280
     0
281
     0
  0
CLASS
  1
VISUALSTYLE
  2
AcDbVisualStyle
  3
ObjectDBX Classes
 90
     4095
280
     0
281
     0
  0
CLASS
  1
TABLESTYLE
  2
AcDbTableStyle
  3
ObjectDBX Classes
 90
     4095
280
     0
281
     0
  0
CLASS
  1
SCALE
  2
AcDbScale
  3
ObjectDBX Classes
 90
     1153
280
     0
281
     0
  0
CLASS
  1
MLEADERSTYLE
  2
AcDbMLeaderStyle
  3
ACDB_MLEADERSTYLE_CLASS
 90
     4095
280
     0
281
     0
  0
CLASS
  1
ACDBSECTIONVIEWSTYLE
  2
AcDbSectionViewStyle
  3
ObjectDBX Classes
 90
     1025
280
     0
281
     0
  0
CLASS
  1
ACDBDETAILVIEWSTYLE
  2
AcDbDetailViewStyle
  3
ObjectDBX Classes
 90
     1025
280
     0
281
     0
  0
CLASS
  1
CELLSTYLEMAP
  2
AcDbCellStyleMap
  3
ObjectDBX Classes
 90
     1152
280
     0
281
     0
  0
ENDSEC
  0
SECTION
  2
TABLES
  0
TABLE
  2
VPORT
  5
8
102
{ACAD_XDICTIONARY
360
2B54
102
}
330
0
100
AcDbSymbolTable
 70
     1
  0
VPORT
  5
2A46
330
8
100
AcDbSymbolTableRecord
100
AcDbViewportTableRecord
  2
*ACTIVE
 70
     0
 10
0.0
 20
0.0
 11
1.0
 21
1.0
 12
302.5000015376082
 22
208.5416664735135
 13
0.0
 23
0.0
 14
10.0
 24
10.0
 15
10.0
 25
10.0
 16
0.0
 26
0.0
 36
1.0
 17
0.0
 27
0.0
 37
0.0
 40
420.7435688617048
 41
2.567642956764295
 42
50.0
 43
0.0
 44
0.0
 50
0.0
 51
0.0
 71
     0
 72
   100
 73
     1
 74
     0
 75
     0
 76
     0
 77
     0
 78
     0
281
     0
 65
     1
110
0.0
120
0.0
130
0.0
111
1.0
121
0.0
131
0.0
112
0.0
122
1.0
132
0.0
 79
     0
146
0.0
1001
ACAD_NAV_VCDISPLAY
1070
     3
  0
ENDTAB
  0
TABLE
  2
LTYPE
  5
5
330
0
100
AcDbSymbolTable
 70
     4
  0
LTYPE
  5
12
330
5
100
AcDbSymbolTableRecord
100
AcDbLinetypeTableRecord
  2
BYBLOCK
 70
     0
  3

 72
    65
 73
     0
 40
0.0
  0
LTYPE
  5
13
330
5
100
AcDbSymbolTableRecord
100
AcDbLinetypeTableRecord
  2
BYLAYER
 70
     0
  3

 72
    65
 73
     0
 40
0.0
  0
LTYPE
  5
14
330
5
100
AcDbSymbolTableRecord
100
AcDbLinetypeTableRecord
  2
CONTINUOUS
 70
     0
  3
Solid line
 72
    65
 73
     0
 40
0.0
  0
LTYPE
  5
4B
330
5
100
AcDbSymbolTableRecord
100
AcDbLinetypeTableRecord
  2
DASHED
 70
     0
  3
Dashed __ __ __ __ __ __ __ __ __ __ __ __ __ _
 72
    65
 73
     2
 40
19.04999999999999
 49
12.7
 74
     0
 49
-6.349999999999997
 74
     0
  0
LTYPE
  5
4C
330
5
100
AcDbSymbolTableRecord
100
AcDbLinetypeTableRecord
  2
CENTER
 70
     0
  3
Center ____ _ ____ _ ____ _ ____ _ ____ _ ____
 72
    65
 73
     4
 40
50.8
 49
31.75
 74
     0
 49
-6.349999999999997
 74
     0
 49
6.349999999999997
 74
     0
 49
-6.349999999999997
 74
     0
  0
LTYPE
  5
4D
330
5
100
AcDbSymbolTableRecord
100
AcDbLinetypeTableRecord
  2
PHANTOM
 70
     0
  3
Phantom ______  __  __  ______  __  __  ______
 72
    65
 73
     6
 40
63.5
 49
31.75
 74
     0
 49
-6.349999999999997
 74
     0
 49
6.349999999999997
 74
     0
 49
-6.349999999999997
 74
     0
 49
6.349999999999997
 74
     0
 49
-6.349999999999997
 74
     0
  0
ENDTAB
  0
TABLE
  2
LAYER
  5
2
330
0
100
AcDbSymbolTable
 70
     8
  0
LAYER
  5
E
102
{ACAD_XDICTIONARY
360
2AB2
102
}
330
2
100
AcDbSymbolTableRecord
100
AcDbLayerTableRecord
  2
0
 70
     0
 62
     7
  6
CONTINUOUS
370
    -3
390
2A4F
  0
LAYER
  5
4E
102
{ACAD_XDICTIONARY
360
2AB4
102
}
330
2
100
AcDbSymbolTableRecord
100
AcDbLayerTableRecord
  2
4
 70
     0
 62
     1
  6
CENTER
370
    -3
390
2A4F
  0
LAYER
  5
4F
102
{ACAD_XDICTIONARY
360
2AB6
102
}
330
2
100
AcDbSymbolTableRecord
100
AcDbLayerTableRecord
  2
5
 70
     0
 62
     6
  6
PHANTOM
370
    -3
390
2A4F
  0
LAYER
  5
50
102
{ACAD_XDICTIONARY
360
2AB8
102
}
330
2
100
AcDbSymbolTableRecord
100
AcDbLayerTableRecord
  2
1
 70
     0
 62
     7
  6
CONTINUOUS
370
    -3
390
2A4F
  0
LAYER
  5
51
102
{ACAD_XDICTIONARY
360
2ABA
102
}
330
2
100
AcDbSymbolTableRecord
100
AcDbLayerTableRecord
  2
2
 70
     0
 62
     4
  6
CONTINUOUS
370
    -3
390
2A4F
  0
LAYER
  5
52
102
{ACAD_XDICTIONARY
360
2ABC
102
}
330
2
100
AcDbSymbolTableRecord
100
AcDbLayerTableRecord
  2
3
 70
     0
 62
     2
  6
DASHED
370
    -3
390
2A4F
  0
LAYER
  5
53
102
{ACAD_XDICTIONARY
360
2ABE
102
}
330
2
100
AcDbSymbolTableRecord
100
AcDbLayerTableRecord
  2
6
 70
     0
 62
     5
  6
CONTINUOUS
370
    -3
390
2A4F
  0
LAYER
  5
54
102
{ACAD_XDICTIONARY
360
2AC0
102
}
330
2
100
AcDbSymbolTableRecord
100
AcDbLayerTableRecord
  2
7
 70
     0
 62
     3
  6
CONTINUOUS
370
    -3
390
2A4F
  0
ENDTAB
  0
TABLE
  2
STYLE
  5
3
330
0
100
AcDbSymbolTable
 70
     2
  0
STYLE
  5
F
330
3
100
AcDbSymbolTableRecord
100
AcDbTextStyleTableRecord
  2
STANDARD
 70
     0
 40
0.0
 41
1.0
 50
0.0
 71
     0
 42
2.5
  3
simplex.shx
  4

  0
ENDTAB
  0
TABLE
  2
VIEW
  5
6
330
0
100
AcDbSymbolTable
 70
     0
  0
ENDTAB
  0
TABLE
  2
UCS
  5
7
330
0
100
AcDbSymbolTable
 70
     0
  0
ENDTAB
  0
TABLE
  2
APPID
  5
9
330
0
100
AcDbSymbolTable
 70
     7
  0
APPID
  5
10
330
9
100
AcDbSymbolTableRecord
100
AcDbRegAppTableRecord
  2
ACAD
 70
     0
  0
APPID
  5
3E
330
9
100
AcDbSymbolTableRecord
100
AcDbRegAppTableRecord
  2
CONTENTTABDATA
 70
     0
  0
APPID
  5
3F
330
9
100
AcDbSymbolTableRecord
100
AcDbRegAppTableRecord
  2
CONTENTCURRENTTAB
 70
     0
  0
APPID
  5
2AA0
330
9
100
AcDbSymbolTableRecord
100
AcDbRegAppTableRecord
  2
ACAD_EXEMPT_FROM_CAD_STANDARDS
 70
     0
  0
APPID
  5
2AA2
330
9
100
AcDbSymbolTableRecord
100
AcDbRegAppTableRecord
  2
ACAD_NAV_VCDISPLAY
 70
     0
  0
APPID
  5
2B04
330
9
100
AcDbSymbolTableRecord
100
AcDbRegAppTableRecord
  2
ACAD_MLEADERVER
 70
     0
  0
APPID
  5
2B92
330
9
100
AcDbSymbolTableRecord
100
AcDbRegAppTableRecord
  2
ACAD_PSEXT
 70
     0
  0
ENDTAB
  0
TABLE
  2
DIMSTYLE
  5
A
330
0
100
AcDbSymbolTable
 70
     2
100
AcDbDimStyleTable
 71
     1
340
1D
  0
DIMSTYLE
105
1D
330
A
100
AcDbSymbolTableRecord
100
AcDbDimStyleTableRecord
  2
STANDARD
 70
     0
 41
3.0
 42
1.0
 43
10.0
 44
1.0
 73
     0
 74
     0
 77
     3
 78
     8
140
3.2
141
0.0
147
1.0
172
     1
173
     1
340
F
341
2E
343
2E
344
2E
  0
ENDTAB
  0
TABLE
  2
BLOCK_RECORD
  5
1
330
0
100
AcDbSymbolTable
 70
     2
  0
BLOCK_RECORD
  5
18
102
{ACAD_XDICTIONARY
360
2A49
102
}
330
1
100
AcDbSymbolTableRecord
100
AcDbBlockTableRecord
  2
*MODEL_SPACE
340
2A9D
  0
BLOCK_RECORD
  5
15
102
{ACAD_XDICTIONARY
360
2A47
102
}
330
1
100
AcDbSymbolTableRecord
100
AcDbBlockTableRecord
  2
*PAPER_SPACE
340
2A9E
  0
BLOCK_RECORD
  5
2E
330
1
100
AcDbSymbolTableRecord
100
AcDbBlockTableRecord
  2
_OPEN
340
0
  0
ENDTAB
  0
ENDSEC
  0
SECTION
  2
BLOCKS
  0
BLOCK
  5
19
330
18
100
AcDbEntity
  8
0
100
AcDbBlockBegin
  2
*MODEL_SPACE
 70
     0
 10
0.0
 20
0.0
 30
0.0
  3
*MODEL_SPACE
  1

  0
ENDBLK
  5
1A
330
18
100
AcDbEntity
  8
0
100
AcDbBlockEnd
  0
BLOCK
  5
16
330
15
100
AcDbEntity
 67
     1
  8
0
100
AcDbBlockBegin
  2
*PAPER_SPACE
 70
     0
 10
0.0
 20
0.0
 30
0.0
  3
*PAPER_SPACE
  1

  0
ENDBLK
  5
17
330
15
100
AcDbEntity
 67
     1
  8
0
100
AcDbBlockEnd
  0
BLOCK
  5
2F
330
2E
100
AcDbEntity
  8
0
100
AcDbBlockBegin
  2
_OPEN
 70
     0
 10
0.0
 20
0.0
 30
0.0
  3
_OPEN
  1

  0
LINE
  5
30
330
2E
100
AcDbEntity
  8
0
  6
ByBlock
 62
     0
100
AcDbLine
 10
-1.0
 20
0.1666666666666666
 30
0.0
 11
0.0
 21
0.0
 31
0.0
  0
LINE
  5
31
330
2E
100
AcDbEntity
  8
0
  6
ByBlock
 62
     0
100
AcDbLine
 10
0.0
 20
0.0
 30
0.0
 11
-1.0
 21
-0.1666666666666666
 31
0.0
  0
LINE
  5
32
330
2E
100
AcDbEntity
  8
0
  6
ByBlock
 62
     0
100
AcDbLine
 10
0.0
 20
0.0
 30
0.0
 11
-1.0
 21
0.0
 31
0.0
  0
ENDBLK
  5
33
330
2E
100
AcDbEntity
  8
0
100
AcDbBlockEnd
  0
ENDSEC
  0
SECTION
  2
ENTITIES
  0
TEXT
  5
63
330
18
100
AcDbEntity
  8
4
  6
CENTER
 48
0.25
100
AcDbText
 10
23.97950852663849
 20
10.0
 30
0.0
 40
1.399999999999999
  1
4
100
AcDbText
  0
TEXT
  5
64
330
18
100
AcDbEntity
  8
7
  6
Continuous
 48
0.25
100
AcDbText
 10
9.999997526638502
 20
26.0000007607689
 30
0.0
 40
3.0
  1
CODE No.19344
100
AcDbText
  0
TEXT
  5
65
330
18
100
AcDbEntity
  8
7
  6
Continuous
 48
0.25
100
AcDbText
 10
9.999997526638502
 20
18.00000076076889
 30
0.0
 40
3.0
  1
TYPE No.TCA-KF075N12WS
100
AcDbText
  0
TEXT
  5
66
330
18
100
AcDbEntity
  8
1
  6
Continuous
 48
0.25
100
AcDbText
 10
9.999997526638502
 20
10.00000076076889
 30
0.0
 40
1.399999999999999
  1
LAYER
100
AcDbText
  0
TEXT
  5
67
330
18
100
AcDbEntity
  8
2
  6
Continuous
 48
0.25
100
AcDbText
 10
19.9795085266385
 20
10.0
 30
0.0
 40
1.399999999999999
  1
2
100
AcDbText
  0
TEXT
  5
68
330
18
100
AcDbEntity
  8
3
  6
DASHED
 48
0.25
100
AcDbText
 10
21.9795085266385
 20
10.0
 30
0.0
 40
1.399999999999999
  1
3
100
AcDbText
  0
TEXT
  5
69
330
18
100
AcDbEntity
  8
1
  6
Continuous
 48
0.25
100
AcDbText
 10
17.9795085266385
 20
10.0
 30
0.0
 40
1.399999999999999
  1
1
100
AcDbText
  0
TEXT
  5
6A
330
18
100
AcDbEntity
  8
5
  6
PHANTOM
 48
0.25
100
AcDbText
 10
25.9795085266385
 20
10.0
 30
0.0
 40
1.399999999999999
  1
5
100
AcDbText
  0
TEXT
  5
6B
330
18
100
AcDbEntity
  8
6
  6
Continuous
 48
0.25
100
AcDbText
 10
27.9795085266385
 20
10.0
 30
0.0
 40
1.399999999999999
  1
6
100
AcDbText
  0
TEXT
  5
6C
330
18
100
AcDbEntity
  8
7
  6
Continuous
 48
0.25
100
AcDbText
 10
29.9795085266385
 20
10.0
 30
0.0
 40
1.399999999999999
  1
7
100
AcDbText
  0
ARC
  5
219
330
18
100
AcDbEntity
  8
5
  6
PHANTOM
 48
0.15
100
AcDbCircle
 10
185.7931943985602
 20
200.5902327046032
 30
0.0
 40
38.0
100
AcDbArc
 50
117.3830971349307
 51
135.5188693523701
  0
ARC
  5
21A
330
18
100
AcDbEntity
  8
1
  6
Continuous
100
AcDbCircle
 10
181.0385705391706
 20
236.8405259016952
 30
0.0
 40
38.0
100
AcDbArc
 50
192.3830971349318
 51
210.5188693523702
  0
ARC
  5
21B
330
18
100
AcDbEntity
  8
1
  6
Continuous
100
AcDbCircle
 10
181.0385705391706
 20
236.8405259016952
 30
0.0
 40
35.5
100
AcDbArc
 50
192.7903965952692
 51
212.1001238743597
  0
LINE
  5
22A
330
18
100
AcDbEntity
  8
5
  6
PHANTOM
 48
0.15
100
AcDbLine
 10
136.2481435658772
 20
224.1172058991639
 30
0.0
 11
156.5522155646923
 21
224.1172058991639
 31
0.0
  0
LINE
  5
22B
330
18
100
AcDbEntity
  8
5
  6
PHANTOM
 48
0.15
100
AcDbLine
 10
157.2539446965905
 20
226.6172058991639
 30
0.0
 11
136.2481435658772
 21
226.6172058991639
 31
0.0
  0
ARC
  5
22C
330
18
100
AcDbEntity
  8
1
  6
Continuous
100
AcDbCircle
 10
154.6358949341972
 20
202.1597200442277
 30
0.0
 40
7.0
100
AcDbArc
 50
149.1080473865354
 51
164.9999999999996
  0
LINE
  5
22D
330
18
100
AcDbEntity
  8
1
  6
Continuous
100
AcDbLine
 10
145.4900567700631
 20
195.0729104739708
 30
0.0
 11
151.2033932234402
 21
216.3953723987088
 31
0.0
  0
LINE
  5
22E
330
18
100
AcDbEntity
  8
1
  6
Continuous
100
AcDbLine
 10
148.5119435946051
 20
216.0100039007752
 30
0.0
 11
143.0752422043404
 21
195.7199580867271
 31
0.0
  0
ARC
  5
22F
330
18
100
AcDbEntity
  8
1
  6
Continuous
100
AcDbCircle
 10
144.9367759020968
 20
197.83766729531
 30
0.0
 40
3.0
100
AcDbArc
 50
234.3993754503506
 51
275.6006245496536
  0
ARC
  5
230
330
18
100
AcDbEntity
  8
1
  6
Continuous
100
AcDbCircle
 10
145.2002790221764
 20
195.1505561875015
 30
0.0
 40
0.3
100
AcDbArc
 50
275.60062454967
 51
345.0000000000004
  0
ARC
  5
231
330
18
100
AcDbEntity
  8
1
  6
Continuous
100
AcDbCircle
 10
143.3650199522272
 20
195.6423123731963
 30
0.0
 40
0.3
100
AcDbArc
 50
165.0000000000003
 51
234.3993754503524
  0
ARC
  5
232
330
18
100
AcDbEntity
  8
5
  6
PHANTOM
 48
0.15
100
AcDbCircle
 10
157.2539446965905
 20
228.6172058991638
 30
0.0
 40
2.0
100
AcDbArc
 50
270.0
 51
315.5188693523701
  0
ARC
  5
233
330
18
100
AcDbEntity
  8
1
  6
Continuous
100
AcDbCircle
 10
149.271541570862
 20
216.9130104889139
 30
0.0
 40
2.0
100
AcDbArc
 50
345.0000000000004
 51
32.1001238743586
  0
ARC
  5
234
330
18
100
AcDbEntity
  8
1
  6
Continuous
100
AcDbCircle
 10
146.5800919420271
 20
216.5276419909803
 30
0.0
 40
2.0
100
AcDbArc
 50
344.9999999999996
 51
30.51886935236958
  0
ARC
  5
235
330
18
100
AcDbEntity
  8
1
  6
Continuous
100
AcDbCircle
 10
151.7622170909438
 20
206.9524319117576
 30
0.0
 40
3.0
100
AcDbArc
 50
154.1282129993969
 51
173.5000000000002
  0
ARC
  5
236
330
18
100
AcDbEntity
  8
5
  6
PHANTOM
 48
0.15
100
AcDbCircle
 10
145.4605930560843
 20
217.1172058991639
 30
0.0
 40
7.0
100
AcDbArc
 50
5.374384653831902
 51
90.0
  0
ARC
  5
237
330
18
100
AcDbEntity
  8
1
  6
Continuous
100
AcDbCircle
 10
151.3705937098778
 20
223.5717222308083
 30
0.0
 40
3.0
100
AcDbArc
 50
204.0962605151259
 51
311.9135076517912
  0
ARC
  5
238
330
18
100
AcDbEntity
  8
1
  6
Continuous
100
AcDbCircle
 10
162.7267298898904
 20
210.9211028364462
 30
0.0
 40
14.0
100
AcDbArc
 50
120.0408194033585
 51
131.9135076517911
  0
ARC
  5
239
330
18
100
AcDbEntity
  8
5
  6
PHANTOM
 48
0.15
100
AcDbCircle
 10
136.2481435658772
 20
224.4172058991638
 30
0.0
 40
0.3
100
AcDbArc
 50
200.6006245496703
 51
270.0
  0
ARC
  5
23A
330
18
100
AcDbEntity
  8
5
  6
PHANTOM
 48
0.15
100
AcDbCircle
 10
136.2481435658772
 20
226.3172058991638
 30
0.0
 40
0.3
100
AcDbArc
 50
90.0
 51
159.3993754503515
  0
ARC
  5
23B
330
18
100
AcDbEntity
  8
5
  6
PHANTOM
 48
0.15
100
AcDbCircle
 10
138.7754939570971
 20
225.3672058991639
 30
0.0
 40
3.0
100
AcDbArc
 50
159.3993754503497
 51
200.6006245496528
  0
LINE
  5
240
330
18
100
AcDbEntity
  8
1
  6
Continuous
100
AcDbLine
 10
143.0650199522272
 20
364.0066882748257
 30
0.0
 11
143.0650199522272
 21
346.0066882748256
 31
0.0
  0
LINE
  5
241
330
18
100
AcDbEntity
  8
1
  6
Continuous
100
AcDbLine
 10
146.291426438591
 20
364.0066882748257
 30
0.0
 11
146.291426438591
 21
346.0066882748256
 31
0.0
  0
LINE
  5
242
330
18
100
AcDbEntity
  8
1
  6
Continuous
100
AcDbLine
 10
143.8993538926595
 20
364.0066882748257
 30
0.0
 11
143.8993538926595
 21
346.0066882748256
 31
0.0
  0
LINE
  5
243
330
18
100
AcDbEntity
  8
1
  6
Continuous
100
AcDbLine
 10
146.4838766449051
 20
364.0066882748257
 30
0.0
 11
146.4838766449051
 21
346.0066882084727
 31
0.0
  0
LINE
  5
244
330
18
100
AcDbEntity
  8
1
  6
Continuous
100
AcDbLine
 10
148.2754939570972
 20
360.5066883411785
 30
0.0
 11
148.2754939570972
 21
349.5066883411785
 31
0.0
  0
LINE
  5
24A
330
18
100
AcDbEntity
  8
1
  6
Continuous
100
AcDbLine
 10
151.2754939570972
 20
333.5066882748257
 30
0.0
 11
220.2754939570972
 21
333.5066882748257
 31
0.0
  0
LINE
  5
24B
330
18
100
AcDbEntity
  8
1
  6
Continuous
100
AcDbLine
 10
148.7754939570972
 20
344.0066882748257
 30
0.0
 11
199.8383229135782
 21
344.0066882748256
 31
0.0
  0
LINE
  5
24C
330
18
100
AcDbEntity
  8
1
  6
Continuous
100
AcDbLine
 10
197.6514555524612
 20
345.5066882748256
 30
0.0
 11
148.7754939570972
 21
345.5066882748256
 31
0.0
  0
LINE
  5
24D
330
18
100
AcDbEntity
  8
4
  6
CENTER
 48
0.5
100
AcDbLine
 10
138.0650199522272
 20
355.0066882748256
 30
0.0
 11
228.2754939570972
 21
355.0066882748256
 31
0.0
  0
ARC
  5
278
330
18
100
AcDbEntity
  8
1
  6
Continuous
100
AcDbCircle
 10
174.7754939570973
 20
345.0315692245069
 30
0.0
 40
2.0
100
AcDbArc
 50
329.1734742936073
 51
0.0000000000008212
  0
LINE
  5
27A
330
18
100
AcDbEntity
  8
1
  6
Continuous
100
AcDbLine
 10
176.7754939570972
 20
345.0315692245069
 30
0.0
 11
176.7754939570972
 21
345.5066882748257
 31
0.0
  0
ARC
  5
27B
330
18
100
AcDbEntity
  8
5
  6
PHANTOM
 48
0.15
100
AcDbCircle
 10
168.7754939570971
 20
233.4444237870912
 30
0.0
 40
1.0
100
AcDbArc
 50
58.8710652281633
 51
117.3830971349307
  0
ARC
  5
27C
330
18
100
AcDbEntity
  8
1
  6
Continuous
100
AcDbCircle
 10
144.8993538926595
 20
228.9059799048205
 30
0.0
 40
1.0
100
AcDbArc
 50
75.00000000000042
 51
192.3830971349326
  0
ARC
  5
27D
330
18
100
AcDbEntity
  8
1
  6
Continuous
100
AcDbCircle
 10
145.444264216999
 20
228.7599716234663
 30
0.0
 40
1.0
100
AcDbArc
 50
12.79039659526845
 51
75.00000000000042
  0
LINE
  5
27E
330
18
100
AcDbEntity
  8
1
  6
Continuous
100
AcDbLine
 10
145.158172937762
 20
229.8719057311096
 30
0.0
 11
145.7030832621016
 21
229.7258974497554
 31
0.0
  0
LINE
  5
280
330
18
100
AcDbEntity
  8
1
  6
Continuous
100
AcDbLine
 10
159.3750416578303
 20
346.5066883411785
 30
0.0
 11
146.9838766449051
 21
346.5066883411785
 31
0.0
  0
LINE
  5
281
330
18
100
AcDbEntity
  8
1
  6
Continuous
100
AcDbLine
 10
146.4838766449051
 20
349.5066883411785
 30
0.0
 11
159.3750416578303
 21
349.5066883411785
 31
0.0
  0
LINE
  5
282
330
18
100
AcDbEntity
  8
1
  6
Continuous
100
AcDbLine
 10
159.3750416578303
 20
349.5566882748256
 30
0.0
 11
148.2754939570972
 21
349.5566882748256
 31
0.0
  0
ARC
  5
283
330
18
100
AcDbEntity
  8
1
  6
Continuous
100
AcDbCircle
 10
159.8750416578303
 20
346.0066882748256
 30
0.0
 40
0.5
100
AcDbArc
 50
180.0000000000008
 51
270.0
  0
LINE
  5
284
330
18
100
AcDbEntity
  8
1
  6
Continuous
100
AcDbLine
 10
159.3750416578303
 20
349.5566882748256
 30
0.0
 11
159.3750416578303
 21
346.0066882748256
 31
0.0
  0
ARC
  5
285
330
18
100
AcDbEntity
  8
1
  6
Continuous
100
AcDbCircle
 10
148.7754939570972
 20
343.5066882748257
 30
0.0
 40
0.5
100
AcDbArc
 50
90.0
 51
180.0
  0
ARC
  5
286
330
18
100
AcDbEntity
  8
1
  6
Continuous
100
AcDbCircle
 10
151.2754939570972
 20
336.5066882748257
 30
0.0
 40
3.0
100
AcDbArc
 50
180.0000000000008
 51
270.0
  0
LINE
  5
288
330
18
100
AcDbEntity
  8
1
  6
Continuous
100
AcDbLine
 10
148.2754939570972
 20
343.5066882748257
 30
0.0
 11
148.2754939570972
 21
336.5066882748257
 31
0.0
  0
ARC
  5
289
330
18
100
AcDbEntity
  8
1
  6
Continuous
100
AcDbCircle
 10
148.7754939570972
 20
346.0066882748256
 30
0.0
 40
0.5
100
AcDbArc
 50
180.0000000000008
 51
270.0
  0
ARC
  5
28A
330
18
100
AcDbEntity
  8
1
  6
Continuous
100
AcDbCircle
 10
149.9051662523709
 20
346.0066882748256
 30
0.0
 40
0.5
100
AcDbArc
 50
180.0000000000008
 51
270.0
  0
ARC
  5
28B
330
18
100
AcDbEntity
  8
1
  6
Continuous
100
AcDbCircle
 10
151.0360000138573
 20
346.0066882748256
 30
0.0
 40
0.5
100
AcDbArc
 50
270.0
 51
0.0000000000008212
  0
LINE
  5
28C
330
18
100
AcDbEntity
  8
1
  6
Continuous
100
AcDbLine
 10
149.4051662523709
 20
346.0066882748256
 30
0.0
 11
149.4051662523709
 21
346.5066882748256
 31
0.0
  0
LINE
  5
28D
330
18
100
AcDbEntity
  8
1
  6
Continuous
100
AcDbLine
 10
151.5360000138574
 20
346.5066882748256
 30
0.0
 11
151.5360000138574
 21
346.0066882748256
 31
0.0
  0
ARC
  5
28E
330
18
100
AcDbEntity
  8
1
  6
Continuous
100
AcDbCircle
 10
144.3993538926595
 20
346.0066882748256
 30
0.0
 40
0.5
100
AcDbArc
 50
180.0000000000008
 51
270.0
  0
LINE
  5
28F
330
18
100
AcDbEntity
  8
1
  6
Continuous
100
AcDbLine
 10
145.9838766449051
 20
345.5066882748256
 30
0.0
 11
143.5213015353771
 21
345.5066882748256
 31
0.0
  0
LINE
  5
290
330
18
100
AcDbEntity
  8
1
  6
Continuous
100
AcDbLine
 10
143.5650199522272
 20
345.5066882748256
 30
0.0
 11
145.9838766449051
 21
345.5066882748256
 31
0.0
  0
ARC
  5
291
330
18
100
AcDbEntity
  8
1
  6
Continuous
100
AcDbCircle
 10
145.9838766449051
 20
346.0066882748256
 30
0.0
 40
0.5
100
AcDbArc
 50
270.0
 51
0.0000000000008212
  0
ARC
  5
292
330
18
100
AcDbEntity
  8
1
  6
Continuous
100
AcDbCircle
 10
145.791426438591
 20
346.0066882748256
 30
0.0
 40
0.5
100
AcDbArc
 50
270.0
 51
0.0000000000008212
  0
LINE
  5
293
330
18
100
AcDbEntity
  8
1
  6
Continuous
100
AcDbLine
 10
148.2754939570972
 20
346.0066882748256
 30
0.0
 11
148.2754939570972
 21
346.5066882748256
 31
0.0
  0
ARC
  5
294
330
18
100
AcDbEntity
  8
1
  6
Continuous
100
AcDbCircle
 10
146.9838766449051
 20
346.0066882084727
 30
0.0
 40
0.5
100
AcDbArc
 50
90.00000000000161
 51
180.0000000000008
  0
ARC
  5
295
330
18
100
AcDbEntity
  8
1
  6
Continuous
100
AcDbCircle
 10
143.5650199522272
 20
346.0066882748256
 30
0.0
 40
0.5
100
AcDbArc
 50
180.0000000000008
 51
270.0
  0
LINE
  5
296
330
18
100
AcDbEntity
  8
1
  6
Continuous
100
AcDbLine
 10
151.2754939570972
 20
376.5066882748256
 30
0.0
 11
220.2754939570972
 21
376.5066882748256
 31
0.0
  0
LINE
  5
298
330
18
100
AcDbEntity
  8
1
  6
Continuous
100
AcDbLine
 10
148.7754939570972
 20
366.0066882748257
 30
0.0
 11
199.8383229135783
 21
366.0066882748257
 31
0.0
  0
LINE
  5
299
330
18
100
AcDbEntity
  8
1
  6
Continuous
100
AcDbLine
 10
148.7754939570972
 20
364.5066882748257
 30
0.0
 11
197.6514555524613
 21
364.5066882748257
 31
0.0
  0
LINE
  5
2A1
330
18
100
AcDbEntity
  8
1
  6
Continuous
100
AcDbLine
 10
176.7754939570972
 20
364.9818073251444
 30
0.0
 11
176.7754939570972
 21
364.5066882748257
 31
0.0
  0
ARC
  5
2A2
330
18
100
AcDbEntity
  8
1
  6
Continuous
100
AcDbCircle
 10
174.7754939570973
 20
364.9818073251444
 30
0.0
 40
2.0
100
AcDbArc
 50
0.0000000000008212
 51
30.8265257063933
  0
LINE
  5
2A6
330
18
100
AcDbEntity
  8
1
  6
Continuous
100
AcDbLine
 10
159.3750416578303
 20
363.5066883411785
 30
0.0
 11
146.9838766449051
 21
363.5066883411785
 31
0.0
  0
LINE
  5
2A7
330
18
100
AcDbEntity
  8
1
  6
Continuous
100
AcDbLine
 10
146.4838766449051
 20
360.5066883411785
 30
0.0
 11
159.3750416578303
 21
360.5066883411785
 31
0.0
  0
LINE
  5
2A8
330
18
100
AcDbEntity
  8
1
  6
Continuous
100
AcDbLine
 10
159.3750416578303
 20
360.4566882748256
 30
0.0
 11
148.2754939570972
 21
360.4566882748256
 31
0.0
  0
LINE
  5
2A9
330
18
100
AcDbEntity
  8
1
  6
Continuous
100
AcDbLine
 10
159.3750416578303
 20
364.0066882748257
 30
0.0
 11
159.3750416578303
 21
360.4566882748256
 31
0.0
  0
ARC
  5
2AA
330
18
100
AcDbEntity
  8
1
  6
Continuous
100
AcDbCircle
 10
159.8750416578303
 20
364.0066882748257
 30
0.0
 40
0.5
100
AcDbArc
 50
90.0
 51
180.0
  0
LINE
  5
2AB
330
18
100
AcDbEntity
  8
1
  6
Continuous
100
AcDbLine
 10
148.2754939570972
 20
366.5066882748257
 30
0.0
 11
148.2754939570972
 21
373.5066882748256
 31
0.0
  0
ARC
  5
2AC
330
18
100
AcDbEntity
  8
1
  6
Continuous
100
AcDbCircle
 10
148.7754939570972
 20
366.5066882748257
 30
0.0
 40
0.5
100
AcDbArc
 50
180.0000000000008
 51
270.0
  0
ARC
  5
2AD
330
18
100
AcDbEntity
  8
1
  6
Continuous
100
AcDbCircle
 10
148.7754939570972
 20
364.0066882748257
 30
0.0
 40
0.5
100
AcDbArc
 50
90.0
 51
180.0
  0
ARC
  5
2AE
330
18
100
AcDbEntity
  8
1
  6
Continuous
100
AcDbCircle
 10
149.9051662523709
 20
364.0066882748257
 30
0.0
 40
0.5
100
AcDbArc
 50
90.0
 51
180.0
  0
ARC
  5
2AF
330
18
100
AcDbEntity
  8
1
  6
Continuous
100
AcDbCircle
 10
151.0360000138573
 20
364.0066882748257
 30
0.0
 40
0.5
100
AcDbArc
 50
0.0000000000008212
 51
90.0
  0
LINE
  5
2B0
330
18
100
AcDbEntity
  8
1
  6
Continuous
100
AcDbLine
 10
149.4051662523709
 20
364.0066882748257
 30
0.0
 11
149.4051662523709
 21
363.5066882748256
 31
0.0
  0
LINE
  5
2B1
330
18
100
AcDbEntity
  8
1
  6
Continuous
100
AcDbLine
 10
151.5360000138574
 20
363.5066882748256
 30
0.0
 11
151.5360000138574
 21
364.0066882748257
 31
0.0
  0
ARC
  5
2B2
330
18
100
AcDbEntity
  8
1
  6
Continuous
100
AcDbCircle
 10
144.3993538926595
 20
364.0066882748257
 30
0.0
 40
0.5
100
AcDbArc
 50
90.0
 51
180.0
  0
LINE
  5
2B3
330
18
100
AcDbEntity
  8
1
  6
Continuous
100
AcDbLine
 10
145.9838766449051
 20
364.5066882748257
 30
0.0
 11
143.5650199522272
 21
364.5066882748257
 31
0.0
  0
ARC
  5
2B4
330
18
100
AcDbEntity
  8
1
  6
Continuous
100
AcDbCircle
 10
145.9838766449051
 20
364.0066882748257
 30
0.0
 40
0.5
100
AcDbArc
 50
0.0000000000008212
 51
90.0
  0
ARC
  5
2B5
330
18
100
AcDbEntity
  8
1
  6
Continuous
100
AcDbCircle
 10
145.791426438591
 20
364.0066882748257
 30
0.0
 40
0.5
100
AcDbArc
 50
0.0000000000008212
 51
90.0
  0
ARC
  5
2B6
330
18
100
AcDbEntity
  8
1
  6
Continuous
100
AcDbCircle
 10
146.9838766449051
 20
364.0066883411785
 30
0.0
 40
0.5
100
AcDbArc
 50
180.0000000000008
 51
270.0
  0
LINE
  5
2B7
330
18
100
AcDbEntity
  8
1
  6
Continuous
100
AcDbLine
 10
148.2754939570972
 20
364.0066882748257
 30
0.0
 11
148.2754939570972
 21
363.5066882748256
 31
0.0
  0
ARC
  5
2B8
330
18
100
AcDbEntity
  8
1
  6
Continuous
100
AcDbCircle
 10
143.5650199522272
 20
364.0066882748257
 30
0.0
 40
0.5
100
AcDbArc
 50
90.0
 51
180.0
  0
ARC
  5
2B9
330
18
100
AcDbEntity
  8
1
  6
Continuous
100
AcDbCircle
 10
151.2754939570972
 20
373.5066882748256
 30
0.0
 40
3.0
100
AcDbArc
 50
90.0
 51
180.0
  0
LINE
  5
2BD
330
18
100
AcDbEntity
  8
1
  6
Continuous
100
AcDbLine
 10
30.04837209830498
 20
237.6172058991646
 30
0.0
 11
30.04837209830498
 21
163.6172058991646
 31
0.0
  0
LINE
  5
2BE
330
18
100
AcDbEntity
  8
1
  6
Continuous
100
AcDbLine
 10
52.04837209830498
 20
237.6172058991646
 30
0.0
 11
52.04837209830498
 21
163.6172058991646
 31
0.0
  0
LINE
  5
2BF
330
18
100
AcDbEntity
  8
1
  6
Continuous
100
AcDbLine
 10
19.54837209830498
 20
235.1172058991646
 30
0.0
 11
19.54837209830498
 21
166.1172058991646
 31
0.0
  0
LINE
  5
2C0
330
18
100
AcDbEntity
  8
1
  6
Continuous
100
AcDbLine
 10
62.54837209830495
 20
235.1172058991646
 30
0.0
 11
62.54837209830495
 21
166.1172058991646
 31
0.0
  0
LINE
  5
2C1
330
18
100
AcDbEntity
  8
1
  6
Continuous
100
AcDbLine
 10
31.54837209830498
 20
186.9172058991646
 30
0.0
 11
31.54837209830498
 21
238.0689836712956
 31
0.0
  0
LINE
  5
2C2
330
18
100
AcDbEntity
  8
1
  6
Continuous
100
AcDbLine
 10
50.54837209830498
 20
238.0689836712956
 30
0.0
 11
50.54837209830498
 21
186.9172058991646
 31
0.0
  0
LINE
  5
2C3
330
18
100
AcDbEntity
  8
4
  6
CENTER
 48
0.5
100
AcDbLine
 10
41.04837209830498
 20
266.6172058991644
 30
0.0
 11
41.04837209830498
 21
181.4172058991645
 31
0.0
  0
ARC
  5
2C5
330
18
100
AcDbEntity
  8
1
  6
Continuous
100
AcDbCircle
 10
41.04837209830498
 20
224.7510581095145
 30
0.0
 40
30.0
100
AcDbArc
 50
252.9561533849029
 51
287.0438466150988
  0
ARC
  5
2C6
330
18
100
AcDbEntity
  8
1
  6
Continuous
100
AcDbCircle
 10
41.04837209830498
 20
225.4403302251229
 30
0.0
 40
30.0
100
AcDbArc
 50
252.9561533849029
 51
287.0438466150988
  0
LINE
  5
2C7
330
18
100
AcDbEntity
  8
1
  6
Continuous
100
AcDbLine
 10
49.45710929117048
 20
216.7593622367316
 30
0.0
 11
33.23864590650237
 21
216.7593622367316
 31
0.0
  0
LINE
  5
2C8
330
18
100
AcDbEntity
  8
1
  6
Continuous
100
AcDbLine
 10
50.04837209830498
 20
186.4172058991645
 30
0.0
 11
32.04837209830498
 21
186.4172058991645
 31
0.0
  0
LINE
  5
2C9
330
18
100
AcDbEntity
  8
4
  6
CENTER
 48
0.5
100
AcDbLine
 10
12.74837209830502
 20
200.6172058991647
 30
0.0
 11
69.34837209830494
 21
200.6172058991647
 31
0.0
  0
LINE
  5
2CA
330
18
100
AcDbEntity
  8
1
  6
Continuous
100
AcDbLine
 10
52.54837209830498
 20
163.1172058991646
 30
0.0
 11
59.54837209830498
 21
163.1172058991646
 31
0.0
  0
ARC
  5
2CC
330
18
100
AcDbEntity
  8
1
  6
Continuous
100
AcDbCircle
 10
59.54837209830498
 20
166.1172058991646
 30
0.0
 40
3.0
100
AcDbArc
 50
270.0
 51
0.0000000000008212
  0
ARC
  5
2CF
330
18
100
AcDbEntity
  8
1
  6
Continuous
100
AcDbCircle
 10
52.54837209830498
 20
163.6172058991646
 30
0.0
 40
0.5
100
AcDbArc
 50
180.0000000000008
 51
270.0
  0
ARC
  5
2D0
330
18
100
AcDbEntity
  8
1
  6
Continuous
100
AcDbCircle
 10
50.04837209830498
 20
186.9172058991646
 30
0.0
 40
0.5
100
AcDbArc
 50
270.0
 51
0.0000000000008212
  0
ARC
  5
2D1
330
18
100
AcDbEntity
  8
1
  6
Continuous
100
AcDbCircle
 10
51.02349114862363
 20
189.6172058991646
 30
0.0
 40
2.0
100
AcDbArc
 50
59.1734742936067
 51
90.0
  0
LINE
  5
2D2
330
18
100
AcDbEntity
  8
1
  6
Continuous
100
AcDbLine
 10
51.02349114862363
 20
191.6172058991646
 30
0.0
 11
50.54837209830498
 21
191.6172058991646
 31
0.0
  0
ARC
  5
2D3
330
18
100
AcDbEntity
  8
1
  6
Continuous
100
AcDbCircle
 10
49.54837209830498
 20
197.024716843491
 30
0.0
 40
1.0
100
AcDbArc
 50
287.0438466150988
 51
0.0000000000008212
  0
ARC
  5
2D4
330
18
100
AcDbEntity
  8
1
  6
Continuous
100
AcDbCircle
 10
49.54837209830498
 20
197.7139889590993
 30
0.0
 40
1.0
100
AcDbArc
 50
287.0438466150988
 51
0.0000000000008212
  0
ARC
  5
2D5
330
18
100
AcDbEntity
  8
1
  6
Continuous
100
AcDbCircle
 10
51.02349114862363
 20
211.6172058991646
 30
0.0
 40
2.0
100
AcDbArc
 50
270.0
 51
300.8265257063932
  0
LINE
  5
2D6
330
18
100
AcDbEntity
  8
1
  6
Continuous
100
AcDbLine
 10
51.02349114862363
 20
209.6172058991646
 30
0.0
 11
50.54837209830498
 21
209.6172058991646
 31
0.0
  0
ARC
  5
2D7
330
18
100
AcDbEntity
  8
1
  6
Continuous
100
AcDbCircle
 10
45.11936120701476
 20
234.1444439846493
 30
0.0
 40
8.429010891290197
100
AcDbArc
 50
310.0972079350519
 51
325.2898497153013
  0
ARC
  5
2DA
330
18
100
AcDbEntity
  8
1
  6
Continuous
100
AcDbCircle
 10
22.54837209830498
 20
166.1172058991646
 30
0.0
 40
3.0
100
AcDbArc
 50
180.0000000000008
 51
270.0
  0
LINE
  5
2DB
330
18
100
AcDbEntity
  8
1
  6
Continuous
100
AcDbLine
 10
29.54837209830498
 20
163.1172058991646
 30
0.0
 11
22.54837209830498
 21
163.1172058991646
 31
0.0
  0
ARC
  5
2DC
330
18
100
AcDbEntity
  8
1
  6
Continuous
100
AcDbCircle
 10
29.54837209830498
 20
163.6172058991646
 30
0.0
 40
0.5
100
AcDbArc
 50
270.0
 51
0.0000000000008212
  0
ARC
  5
2DF
330
18
100
AcDbEntity
  8
1
  6
Continuous
100
AcDbCircle
 10
32.04837209830498
 20
186.9172058991646
 30
0.0
 40
0.5
100
AcDbArc
 50
180.0000000000008
 51
270.0
  0
ARC
  5
2E0
330
18
100
AcDbEntity
  8
1
  6
Continuous
100
AcDbCircle
 10
31.07325304798632
 20
189.6172058991646
 30
0.0
 40
2.0
100
AcDbArc
 50
90.0
 51
120.8265257063932
  0
LINE
  5
2E1
330
18
100
AcDbEntity
  8
1
  6
Continuous
100
AcDbLine
 10
31.07325304798632
 20
191.6172058991646
 30
0.0
 11
31.54837209830498
 21
191.6172058991646
 31
0.0
  0
ARC
  5
2E2
330
18
100
AcDbEntity
  8
1
  6
Continuous
100
AcDbCircle
 10
32.54837209830498
 20
197.024716843491
 30
0.0
 40
1.0
100
AcDbArc
 50
180.0000000000008
 51
252.9561533849029
  0
ARC
  5
2E3
330
18
100
AcDbEntity
  8
1
  6
Continuous
100
AcDbCircle
 10
32.54837209830498
 20
197.7139889590993
 30
0.0
 40
1.0
100
AcDbArc
 50
180.0000000000008
 51
252.9561533849029
  0
ARC
  5
2E4
330
18
100
AcDbEntity
  8
1
  6
Continuous
100
AcDbCircle
 10
31.07325304798632
 20
211.6172058991646
 30
0.0
 40
2.0
100
AcDbArc
 50
239.1734742936066
 51
270.0
  0
LINE
  5
2E5
330
18
100
AcDbEntity
  8
1
  6
Continuous
100
AcDbLine
 10
31.07325304798632
 20
209.6172058991646
 30
0.0
 11
31.54837209830498
 21
209.6172058991646
 31
0.0
  0
ARC
  5
2E6
330
18
100
AcDbEntity
  8
1
  6
Continuous
100
AcDbCircle
 10
36.97738298959518
 20
234.1444439846493
 30
0.0
 40
8.429010891290197
100
AcDbArc
 50
214.7101502846992
 51
229.9027920649486
  0
LINE
  5
2EB
330
18
100
AcDbEntity
  8
1
  6
Continuous
100
AcDbLine
 10
49.54837209830498
 20
229.8193707190249
 30
0.0
 11
32.54837209830498
 21
229.8193707190249
 31
0.0
  0
LINE
  5
2EC
330
18
100
AcDbEntity
  8
1
  6
Continuous
100
AcDbLine
 10
45.99837209830503
 20
231.2154084607531
 30
0.0
 11
36.09837209830499
 21
231.2154084607531
 31
0.0
  0
LINE
  5
2ED
330
18
100
AcDbEntity
  8
1
  6
Continuous
100
AcDbLine
 10
50.04837209830498
 20
233.5147741983565
 30
0.0
 11
32.04837209830498
 21
233.5147741983565
 31
0.0
  0
LINE
  5
2EE
330
18
100
AcDbEntity
  8
1
  6
Continuous
100
AcDbLine
 10
48.04837209830498
 20
238.1172058991646
 30
0.0
 11
34.04837209830498
 21
238.1172058991646
 31
0.0
  0
LINE
  5
2EF
330
18
100
AcDbEntity
  8
1
  6
Continuous
100
AcDbLine
 10
50.04837209830498
 20
238.1172058991646
 30
0.0
 11
32.04837209830498
 21
238.1172058991646
 31
0.0
  0
LINE
  5
2F0
330
18
100
AcDbEntity
  8
1
  6
Continuous
100
AcDbLine
 10
52.54837209830498
 20
241.1172058991646
 30
0.0
 11
29.54837209830498
 21
241.1172058991646
 31
0.0
  0
LINE
  5
2F4
330
18
100
AcDbEntity
  8
1
  6
Continuous
100
AcDbLine
 10
52.54837209830498
 20
238.1172058991646
 30
0.0
 11
59.54837209830498
 21
238.1172058991646
 31
0.0
  0
ARC
  5
2F5
330
18
100
AcDbEntity
  8
1
  6
Continuous
100
AcDbCircle
 10
52.54837209830498
 20
240.1172058991646
 30
0.0
 40
1.0
100
AcDbArc
 50
0.0000000000008212
 51
90.0
  0
ARC
  5
2F6
330
18
100
AcDbEntity
  8
1
  6
Continuous
100
AcDbCircle
 10
59.54837209830498
 20
235.1172058991646
 30
0.0
 40
3.0
100
AcDbArc
 50
0.0000000000008212
 51
90.0
  0
ARC
  5
2FA
330
18
100
AcDbEntity
  8
1
  6
Continuous
100
AcDbCircle
 10
49.54837209830498
 20
228.8193707190249
 30
0.0
 40
1.0
100
AcDbArc
 50
0.0000000000008212
 51
90.0
  0
ARC
  5
2FB
330
18
100
AcDbEntity
  8
1
  6
Continuous
100
AcDbCircle
 10
50.04837209830498
 20
233.0147741983565
 30
0.0
 40
0.5
100
AcDbArc
 50
0.0000000000008212
 51
90.0
  0
ARC
  5
2FC
330
18
100
AcDbEntity
  8
1
  6
Continuous
100
AcDbCircle
 10
45.99837209830503
 20
230.7154084607531
 30
0.0
 40
0.5
100
AcDbArc
 50
0.0000000000008212
 51
90.0
  0
LINE
  5
2FD
330
18
100
AcDbEntity
  8
1
  6
Continuous
100
AcDbLine
 10
46.49837209830502
 20
230.7154084607531
 30
0.0
 11
46.49837209830502
 21
229.8193707190249
 31
0.0
  0
ARC
  5
2FE
330
18
100
AcDbEntity
  8
1
  6
Continuous
100
AcDbCircle
 10
52.54837209830498
 20
237.6172058991646
 30
0.0
 40
0.5
100
AcDbArc
 50
90.0
 51
180.0
  0
ARC
  5
2FF
330
18
100
AcDbEntity
  8
1
  6
Continuous
100
AcDbCircle
 10
45.11936120701476
 20
231.6211882846739
 30
0.0
 40
8.429010891290197
100
AcDbArc
 50
34.71015028469925
 51
49.90279206494861
  0
ARC
  5
300
330
18
100
AcDbEntity
  8
1
  6
Continuous
100
AcDbCircle
 10
50.04837209830498
 20
237.6172058991646
 30
0.0
 40
0.5
100
AcDbArc
 50
0.0000000000008212
 51
90.0
  0
LINE
  5
301
330
18
100
AcDbEntity
  8
1
  6
Continuous
100
AcDbLine
 10
53.54837209830498
 20
240.1172058991646
 30
0.0
 11
53.54837209830498
 21
238.1172058991646
 31
0.0
  0
ARC
  5
30A
330
18
100
AcDbEntity
  8
1
  6
Continuous
100
AcDbCircle
 10
22.54837209830498
 20
235.1172058991646
 30
0.0
 40
3.0
100
AcDbArc
 50
90.0
 51
180.0
  0
ARC
  5
30B
330
18
100
AcDbEntity
  8
1
  6
Continuous
100
AcDbCircle
 10
29.54837209830498
 20
240.1172058991646
 30
0.0
 40
1.0
100
AcDbArc
 50
90.0
 51
180.0
  0
LINE
  5
30C
330
18
100
AcDbEntity
  8
1
  6
Continuous
100
AcDbLine
 10
29.54837209830498
 20
238.1172058991646
 30
0.0
 11
22.54837209830498
 21
238.1172058991646
 31
0.0
  0
ARC
  5
30D
330
18
100
AcDbEntity
  8
1
  6
Continuous
100
AcDbCircle
 10
32.54837209830498
 20
228.8193707190249
 30
0.0
 40
1.0
100
AcDbArc
 50
90.0
 51
180.0
  0
ARC
  5
30E
330
18
100
AcDbEntity
  8
1
  6
Continuous
100
AcDbCircle
 10
32.04837209830498
 20
233.0147741983565
 30
0.0
 40
0.5
100
AcDbArc
 50
90.0
 51
180.0
  0
ARC
  5
30F
330
18
100
AcDbEntity
  8
1
  6
Continuous
100
AcDbCircle
 10
36.09837209830499
 20
230.7154084607531
 30
0.0
 40
0.5
100
AcDbArc
 50
90.0
 51
180.0
  0
LINE
  5
310
330
18
100
AcDbEntity
  8
1
  6
Continuous
100
AcDbLine
 10
35.598372098305
 20
229.8193707190249
 30
0.0
 11
35.598372098305
 21
230.7154084607531
 31
0.0
  0
ARC
  5
311
330
18
100
AcDbEntity
  8
1
  6
Continuous
100
AcDbCircle
 10
32.04837209830498
 20
237.6172058991646
 30
0.0
 40
0.5
100
AcDbArc
 50
90.0
 51
180.0
  0
ARC
  5
312
330
18
100
AcDbEntity
  8
1
  6
Continuous
100
AcDbCircle
 10
29.54837209830498
 20
237.6172058991646
 30
0.0
 40
0.5
100
AcDbArc
 50
0.0000000000008212
 51
90.0
  0
ARC
  5
313
330
18
100
AcDbEntity
  8
1
  6
Continuous
100
AcDbCircle
 10
36.97738298959518
 20
231.6211882846739
 30
0.0
 40
8.429010891290197
100
AcDbArc
 50
130.0972079350513
 51
145.2898497153014
  0
LINE
  5
314
330
18
100
AcDbEntity
  8
1
  6
Continuous
100
AcDbLine
 10
28.54837209830498
 20
238.1172058991646
 30
0.0
 11
28.54837209830498
 21
240.1172058991646
 31
0.0
  0
LINE
  5
3B7
330
18
100
AcDbEntity
  8
4
  6
CENTER
 48
0.5
100
AcDbLine
 10
185.7754939570972
 20
383.3066882748256
 30
0.0
 11
185.7754939570972
 21
326.7066882748256
 31
0.0
  0
LINE
  5
63C
330
18
100
AcDbEntity
  8
1
  6
Continuous
100
AcDbLine
 10
311.2921418110195
 20
235.1172058991646
 30
0.0
 11
311.2921418110195
 21
166.1172058991646
 31
0.0
  0
LINE
  5
63D
330
18
100
AcDbEntity
  8
1
  6
Continuous
100
AcDbLine
 10
354.2921418110195
 20
235.1172058991646
 30
0.0
 11
354.2921418110195
 21
166.1172058991646
 31
0.0
  0
ARC
  5
63F
330
18
100
AcDbEntity
  8
1
  6
Continuous
100
AcDbCircle
 10
342.7672608613381
 20
211.6172058991646
 30
0.0
 40
2.0
100
AcDbArc
 50
270.0
 51
300.8265257063932
  0
ARC
  5
640
330
18
100
AcDbEntity
  8
1
  6
Continuous
100
AcDbCircle
 10
322.8170227607008
 20
211.6172058991646
 30
0.0
 40
2.0
100
AcDbArc
 50
239.1734742936066
 51
270.0
  0
LINE
  5
641
330
18
100
AcDbEntity
  8
4
  6
CENTER
 48
0.5
100
AcDbLine
 10
332.7921418110195
 20
266.6172058991644
 30
0.0
 11
332.7921418110195
 21
181.4172058991645
 31
0.0
  0
LINE
  5
642
330
18
100
AcDbEntity
  8
1
  6
Continuous
100
AcDbLine
 10
323.2921418110195
 20
227.6966485980276
 30
0.0
 11
323.2921418110195
 21
201.1172058991647
 31
0.0
  0
LINE
  5
643
330
18
100
AcDbEntity
  8
1
  6
Continuous
100
AcDbLine
 10
342.2921418110195
 20
186.9172058991646
 30
0.0
 11
342.2921418110195
 21
191.6172058991646
 31
0.0
  0
LINE
  5
644
330
18
100
AcDbEntity
  8
1
  6
Continuous
100
AcDbLine
 10
321.7921418110195
 20
229.344753091074
 30
0.0
 11
321.7921418110195
 21
163.6172058991646
 31
0.0
  0
LINE
  5
645
330
18
100
AcDbEntity
  8
1
  6
Continuous
100
AcDbLine
 10
343.7921418110195
 20
229.344753091074
 30
0.0
 11
343.7921418110195
 21
163.6172058991646
 31
0.0
  0
LINE
  5
649
330
18
100
AcDbEntity
  8
4
  6
CENTER
 48
0.5
100
AcDbLine
 10
361.0921418110194
 20
200.6172058991647
 30
0.0
 11
304.4921418110195
 21
200.6172058991647
 31
0.0
  0
ARC
  5
64C
330
18
100
AcDbEntity
  8
1
  6
Continuous
100
AcDbCircle
 10
351.2921418110195
 20
166.1172058991646
 30
0.0
 40
3.0
100
AcDbArc
 50
270.0
 51
359.9999999999992
  0
LINE
  5
64D
330
18
100
AcDbEntity
  8
1
  6
Continuous
100
AcDbLine
 10
344.2921418110195
 20
163.1172058991646
 30
0.0
 11
351.2921418110195
 21
163.1172058991646
 31
0.0
  0
ARC
  5
64E
330
18
100
AcDbEntity
  8
1
  6
Continuous
100
AcDbCircle
 10
344.2921418110195
 20
163.6172058991646
 30
0.0
 40
0.5
100
AcDbArc
 50
179.9999999999991
 51
270.0
  0
ARC
  5
64F
330
18
100
AcDbEntity
  8
1
  6
Continuous
100
AcDbCircle
 10
321.2921418110195
 20
163.6172058991646
 30
0.0
 40
0.5
100
AcDbArc
 50
270.0
 51
359.9999999999992
  0
ARC
  5
650
330
18
100
AcDbEntity
  8
1
  6
Continuous
100
AcDbCircle
 10
314.2921418110195
 20
166.1172058991646
 30
0.0
 40
3.0
100
AcDbArc
 50
179.9999999999991
 51
270.0
  0
LINE
  5
651
330
18
100
AcDbEntity
  8
1
  6
Continuous
100
AcDbLine
 10
321.2921418110195
 20
163.1172058991646
 30
0.0
 11
314.2921418110195
 21
163.1172058991646
 31
0.0
  0
LINE
  5
652
330
18
100
AcDbEntity
  8
1
  6
Continuous
100
AcDbLine
 10
323.7921418110195
 20
186.4172058991645
 30
0.0
 11
341.7921418110196
 21
186.4172058991645
 31
0.0
  0
LINE
  5
65A
330
18
100
AcDbEntity
  8
1
  6
Continuous
100
AcDbLine
 10
342.7672608613381
 20
191.6172058991646
 30
0.0
 11
341.2921418110195
 21
191.6172058991646
 31
0.0
  0
ARC
  5
65B
330
18
100
AcDbEntity
  8
1
  6
Continuous
100
AcDbCircle
 10
342.7672608613381
 20
189.6172058991646
 30
0.0
 40
2.0
100
AcDbArc
 50
59.1734742936067
 51
90.0
  0
LINE
  5
65C
330
18
100
AcDbEntity
  8
1
  6
Continuous
100
AcDbLine
 10
342.7672608613381
 20
209.6172058991646
 30
0.0
 11
342.2921418110195
 21
209.6172058991646
 31
0.0
  0
ARC
  5
65D
330
18
100
AcDbEntity
  8
1
  6
Continuous
100
AcDbCircle
 10
323.7921418110195
 20
186.9172058991646
 30
0.0
 40
0.5
100
AcDbArc
 50
179.9999999999991
 51
270.0
  0
ARC
  5
660
330
18
100
AcDbEntity
  8
1
  6
Continuous
100
AcDbCircle
 10
322.8170227607008
 20
189.6172058991646
 30
0.0
 40
2.0
100
AcDbArc
 50
90.0
 51
120.8265257063932
  0
LINE
  5
663
330
18
100
AcDbEntity
  8
1
  6
Continuous
100
AcDbLine
 10
322.8170227607008
 20
191.6172058991646
 30
0.0
 11
324.2921418110195
 21
191.6172058991647
 31
0.0
  0
LINE
  5
664
330
18
100
AcDbEntity
  8
1
  6
Continuous
100
AcDbLine
 10
322.8170227607008
 20
209.6172058991646
 30
0.0
 11
323.2921418110195
 21
209.6172058991646
 31
0.0
  0
LINE
  5
66C
330
18
100
AcDbEntity
  8
1
  6
Continuous
100
AcDbLine
 10
321.2921418110195
 20
241.1172058991646
 30
0.0
 11
344.2921418110195
 21
241.1172058991646
 31
0.0
  0
ARC
  5
678
330
18
100
AcDbEntity
  8
1
  6
Continuous
100
AcDbCircle
 10
336.8631309197293
 20
234.1444439846494
 30
0.0
 40
8.429010891290197
100
AcDbArc
 50
310.0972079350514
 51
0.0
  0
ARC
  5
679
330
18
100
AcDbEntity
  8
1
  6
Continuous
100
AcDbCircle
 10
351.2921418110195
 20
235.1172058991646
 30
0.0
 40
3.0
100
AcDbArc
 50
0.000000000000007
 51
90.0
  0
LINE
  5
67E
330
18
100
AcDbEntity
  8
1
  6
Continuous
100
AcDbLine
 10
345.2921418110195
 20
238.1172058991646
 30
0.0
 11
351.2921418110195
 21
238.1172058991646
 31
0.0
  0
ARC
  5
67F
330
18
100
AcDbEntity
  8
1
  6
Continuous
100
AcDbCircle
 10
344.2921418110195
 20
240.1172058991646
 30
0.0
 40
1.0
100
AcDbArc
 50
0.000000000000007
 51
90.0
  0
LINE
  5
680
330
18
100
AcDbEntity
  8
1
  6
Continuous
100
AcDbLine
 10
345.2921418110195
 20
234.1444439846494
 30
0.0
 11
345.2921418110195
 21
240.1172058991646
 31
0.0
  0
ARC
  5
68D
330
18
100
AcDbEntity
  8
1
  6
Continuous
100
AcDbCircle
 10
328.7211527023097
 20
234.1444439846494
 30
0.0
 40
8.429010891290197
100
AcDbArc
 50
180.0
 51
229.902792064948
  0
ARC
  5
69A
330
18
100
AcDbEntity
  8
1
  6
Continuous
100
AcDbCircle
 10
314.2921418110195
 20
235.1172058991646
 30
0.0
 40
3.0
100
AcDbArc
 50
90.0
 51
179.9999999999991
  0
LINE
  5
69B
330
18
100
AcDbEntity
  8
1
  6
Continuous
100
AcDbLine
 10
320.2921418110195
 20
240.1172058991646
 30
0.0
 11
320.2921418110195
 21
234.1444439846494
 31
0.0
  0
ARC
  5
69C
330
18
100
AcDbEntity
  8
1
  6
Continuous
100
AcDbCircle
 10
321.2921418110195
 20
240.1172058991646
 30
0.0
 40
1.0
100
AcDbArc
 50
90.0
 51
179.9999999999991
  0
LINE
  5
69D
330
18
100
AcDbEntity
  8
1
  6
Continuous
100
AcDbLine
 10
320.2921418110195
 20
238.1172058991646
 30
0.0
 11
314.2921418110195
 21
238.1172058991646
 31
0.0
  0
ARC
  5
782
330
18
100
AcDbEntity
  8
1
  6
Continuous
100
AcDbCircle
 10
336.3050144655703
 20
233.4785762189263
 30
0.0
 40
15.69899512723102
100
AcDbArc
 50
214.0142525628505
 51
257.0697822905273
  0
ARC
  5
783
330
18
100
AcDbEntity
  8
1
  6
Continuous
100
AcDbCircle
 10
329.279269156469
 20
233.4785762189263
 30
0.0
 40
15.69899512723102
100
AcDbArc
 50
282.9302177094726
 51
325.9857474371494
  0
LINE
  5
785
330
18
100
AcDbEntity
  8
1
  6
Continuous
100
AcDbLine
 10
323.7921418110195
 20
200.6172058991647
 30
0.0
 11
341.7921418110196
 21
200.6172058991647
 31
0.0
  0
ARC
  5
786
330
18
100
AcDbEntity
  8
1
  6
Continuous
100
AcDbCircle
 10
323.7921418110195
 20
201.1172058991647
 30
0.0
 40
0.5
100
AcDbArc
 50
179.9999999999991
 51
270.0
  0
LINE
  5
78A
330
18
100
AcDbEntity
  8
1
  6
Continuous
100
AcDbLine
 10
324.7921418110195
 20
200.6172058991646
 30
0.0
 11
324.7921418110195
 21
186.9172058991646
 31
0.0
  0
LINE
  5
78B
330
18
100
AcDbEntity
  8
1
  6
Continuous
100
AcDbLine
 10
340.7921418110195
 20
186.9172058991646
 30
0.0
 11
340.7921418110195
 21
200.6172058991646
 31
0.0
  0
LINE
  5
78C
330
18
100
AcDbEntity
  8
1
  6
Continuous
100
AcDbLine
 10
325.2921418110195
 20
189.4172058991646
 30
0.0
 11
340.2921418110195
 21
189.4172058991646
 31
0.0
  0
ARC
  5
78D
330
18
100
AcDbEntity
  8
1
  6
Continuous
100
AcDbCircle
 10
325.2921418110195
 20
189.9172058991645
 30
0.0
 40
0.5
100
AcDbArc
 50
180.0
 51
270.0
  0
ARC
  5
78E
330
18
100
AcDbEntity
  8
1
  6
Continuous
100
AcDbCircle
 10
340.2921418110195
 20
189.9172058991645
 30
0.0
 40
0.5
100
AcDbArc
 50
270.0
 51
0.0
  0
ARC
  5
78F
330
18
100
AcDbEntity
  8
1
  6
Continuous
100
AcDbCircle
 10
340.2921418110195
 20
186.9172058991646
 30
0.0
 40
0.5
100
AcDbArc
 50
270.0
 51
0.0
  0
ARC
  5
790
330
18
100
AcDbEntity
  8
1
  6
Continuous
100
AcDbCircle
 10
325.2921418110195
 20
186.9172058991646
 30
0.0
 40
0.5
100
AcDbArc
 50
180.0
 51
270.0
  0
LINE
  5
791
330
18
100
AcDbEntity
  8
1
  6
Continuous
100
AcDbLine
 10
323.2921418110195
 20
191.6172058991646
 30
0.0
 11
323.2921418110195
 21
186.9172058991646
 31
0.0
  0
ARC
  5
792
330
18
100
AcDbEntity
  8
1
  6
Continuous
100
AcDbCircle
 10
341.7921418110196
 20
201.1172058991647
 30
0.0
 40
0.5
100
AcDbArc
 50
270.0
 51
0.0
  0
ARC
  5
793
330
18
100
AcDbEntity
  8
1
  6
Continuous
100
AcDbCircle
 10
341.7921418110196
 20
186.9172058991646
 30
0.0
 40
0.5
100
AcDbArc
 50
269.9999999999997
 51
0.0000000000001145
  0
LINE
  5
794
330
18
100
AcDbEntity
  8
1
  6
Continuous
100
AcDbLine
 10
342.2921418110195
 20
201.1172058991647
 30
0.0
 11
342.2921418110195
 21
227.6966485980276
 31
0.0
  0
LINE
  5
798
330
18
100
AcDbEntity
  8
1
  6
Continuous
100
AcDbLine
 10
517.0723400274335
 20
216.0100039007754
 30
0.0
 11
522.5090414176982
 21
195.7199580867271
 31
0.0
  0
LINE
  5
799
330
18
100
AcDbEntity
  8
1
  6
Continuous
100
AcDbLine
 10
520.0942268519753
 20
195.0729104739708
 30
0.0
 11
514.3808903985987
 21
216.3953723987089
 31
0.0
  0
ARC
  5
7A2
330
18
100
AcDbEntity
  8
1
  6
Continuous
100
AcDbCircle
 10
520.3840045998624
 20
195.1505561875015
 30
0.0
 40
0.3
100
AcDbArc
 50
194.9999999999995
 51
264.3993754503299
  0
ARC
  5
7A3
330
18
100
AcDbEntity
  8
1
  6
Continuous
100
AcDbCircle
 10
522.2192636698117
 20
195.6423123731962
 30
0.0
 40
0.3
100
AcDbArc
 50
305.6006245496475
 51
14.9999999999996
  0
ARC
  5
7A4
330
18
100
AcDbEntity
  8
1
  6
Continuous
100
AcDbCircle
 10
520.6475077199418
 20
197.8376672953101
 30
0.0
 40
3.0
100
AcDbArc
 50
264.3993754503463
 51
305.6006245496493
  0
ARC
  5
7A5
330
18
100
AcDbEntity
  8
1
  6
Continuous
100
AcDbCircle
 10
513.8220665310948
 20
206.9524319117576
 30
0.0
 40
3.0
100
AcDbArc
 50
6.49999999999978
 51
25.87178700060308
  0
ARC
  5
7A6
330
18
100
AcDbEntity
  8
1
  6
Continuous
100
AcDbCircle
 10
510.9483886878416
 20
202.1597200442276
 30
0.0
 40
7.0
100
AcDbArc
 50
15.00000000000039
 51
30.89195261346463
  0
ARC
  5
7AD
330
18
100
AcDbEntity
  8
5
  6
PHANTOM
 48
0.15
100
AcDbCircle
 10
508.330338925448
 20
228.6172058991638
 30
0.0
 40
2.0
100
AcDbArc
 50
224.4811306476298
 51
270.0
  0
LINE
  5
7AE
330
18
100
AcDbEntity
  8
5
  6
PHANTOM
 48
0.15
100
AcDbLine
 10
508.330338925448
 20
226.6172058991639
 30
0.0
 11
529.3361400561613
 21
226.6172058991639
 31
0.0
  0
LINE
  5
7AF
330
18
100
AcDbEntity
  8
5
  6
PHANTOM
 48
0.15
100
AcDbLine
 10
529.3361400561613
 20
224.1172058991639
 30
0.0
 11
509.0320680573466
 21
224.1172058991639
 31
0.0
  0
ARC
  5
7B0
330
18
100
AcDbEntity
  8
5
  6
PHANTOM
 48
0.15
100
AcDbCircle
 10
526.8087896649415
 20
225.3672058991639
 30
0.0
 40
3.0
100
AcDbArc
 50
339.3993754503472
 51
20.60062454965022
  0
ARC
  5
7B1
330
18
100
AcDbEntity
  8
5
  6
PHANTOM
 48
0.15
100
AcDbCircle
 10
529.3361400561613
 20
226.3172058991638
 30
0.0
 40
0.3
100
AcDbArc
 50
20.60062454964842
 51
90.0
  0
ARC
  5
7B2
330
18
100
AcDbEntity
  8
5
  6
PHANTOM
 48
0.15
100
AcDbCircle
 10
529.3361400561613
 20
224.4172058991638
 30
0.0
 40
0.3
100
AcDbArc
 50
270.0
 51
339.3993754503296
  0
ARC
  5
7B3
330
18
100
AcDbEntity
  8
1
  6
Continuous
100
AcDbCircle
 10
514.2136899121608
 20
223.5717222308084
 30
0.0
 40
3.0
100
AcDbArc
 50
228.0864923482087
 51
335.903739484874
  0
ARC
  5
7B4
330
18
100
AcDbEntity
  8
5
  6
PHANTOM
 48
0.15
100
AcDbCircle
 10
520.1236905659546
 20
217.1172058991639
 30
0.0
 40
7.0
100
AcDbArc
 50
90.0
 51
174.6256153461681
  0
ARC
  5
7B5
330
18
100
AcDbEntity
  8
1
  6
Continuous
100
AcDbCircle
 10
484.545713082868
 20
236.8405259016951
 30
0.0
 40
35.5
100
AcDbArc
 50
327.8998761256401
 51
347.2096034047307
  0
ARC
  5
7B6
330
18
100
AcDbEntity
  8
1
  6
Continuous
100
AcDbCircle
 10
484.545713082868
 20
236.8405259016951
 30
0.0
 40
38.0
100
AcDbArc
 50
329.4811306476296
 51
347.6169028650681
  0
ARC
  5
7B7
330
18
100
AcDbEntity
  8
1
  6
Continuous
100
AcDbCircle
 10
519.0041916800115
 20
216.5276419909803
 30
0.0
 40
2.0
100
AcDbArc
 50
149.4811306476304
 51
195.0000000000003
  0
ARC
  5
7B8
330
18
100
AcDbEntity
  8
1
  6
Continuous
100
AcDbCircle
 10
516.3127420511766
 20
216.913010488914
 30
0.0
 40
2.0
100
AcDbArc
 50
147.8998761256414
 51
194.9999999999995
  0
LINE
  5
7B9
330
18
100
AcDbEntity
  8
1
  6
Continuous
100
AcDbLine
 10
520.4261106842766
 20
229.8719057311095
 30
0.0
 11
519.8812003599369
 21
229.7258974497554
 31
0.0
  0
ARC
  5
7BA
330
18
100
AcDbEntity
  8
1
  6
Continuous
100
AcDbCircle
 10
520.1400194050396
 20
228.7599716234662
 30
0.0
 40
1.0
100
AcDbArc
 50
104.9999999999995
 51
167.2096034047315
  0
ARC
  5
7BB
330
18
100
AcDbEntity
  8
1
  6
Continuous
100
AcDbCircle
 10
520.6849297293794
 20
228.9059799048204
 30
0.0
 40
1.0
100
AcDbArc
 50
347.6169028650673
 51
104.9999999999995
  0
ARC
  5
7BC
330
18
100
AcDbEntity
  8
1
  6
Continuous
100
AcDbCircle
 10
502.8575537321483
 20
210.9211028364462
 30
0.0
 40
14.0
100
AcDbArc
 50
48.0864923482088
 51
59.95918059664144
  0
ARC
  5
7BD
330
18
100
AcDbEntity
  8
5
  6
PHANTOM
 48
0.15
100
AcDbCircle
 10
479.7910892234786
 20
200.5902327046032
 30
0.0
 40
38.0
100
AcDbArc
 50
44.48113064762986
 51
62.61690286506929
  0
ARC
  5
7BE
330
18
100
AcDbEntity
  8
5
  6
PHANTOM
 48
0.15
100
AcDbCircle
 10
496.8087896649413
 20
233.4444237870912
 30
0.0
 40
1.0
100
AcDbArc
 50
62.61690286506929
 51
121.1289347718367
  0
LINE
  5
890
330
18
100
AcDbEntity
  8
4
  6
CENTER
 48
0.5
100
AcDbLine
 10
185.7754939570972
 20
34.92772352350198
 30
0.0
 11
185.7754939570972
 21
91.52772352350195
 31
0.0
  0
LINE
  5
89F
330
18
100
AcDbEntity
  8
4
  6
CENTER
 48
0.5
100
AcDbLine
 10
138.0650199522272
 20
63.22772352350188
 30
0.0
 11
228.2754939570973
 21
63.22772352350193
 31
0.0
  0
LINE
  5
8A1
330
18
100
AcDbEntity
  8
1
  6
Continuous
100
AcDbLine
 10
148.2754939570972
 20
74.72772352350194
 30
0.0
 11
148.2754939570972
 21
81.72772352350193
 31
0.0
  0
LINE
  5
8A5
330
18
100
AcDbEntity
  8
1
  6
Continuous
100
AcDbLine
 10
151.2754939570972
 20
84.72772352350194
 30
0.0
 11
220.2754939570972
 21
84.72772352350194
 31
0.0
  0
ARC
  5
8A7
330
18
100
AcDbEntity
  8
1
  6
Continuous
100
AcDbCircle
 10
151.2754939570972
 20
81.72772352350193
 30
0.0
 40
3.0
100
AcDbArc
 50
90.00000000000005
 51
179.9999999999991
  0
LINE
  5
8AD
330
18
100
AcDbEntity
  8
1
  6
Continuous
100
AcDbLine
 10
148.2754939570972
 20
54.72772345714907
 30
0.0
 11
146.9838766449051
 21
54.72772345714907
 31
0.0
  0
LINE
  5
8B0
330
18
100
AcDbEntity
  8
1
  6
Continuous
100
AcDbLine
 10
148.2754939570972
 20
71.72772345714912
 30
0.0
 11
146.9838766449051
 21
71.72772345714912
 31
0.0
  0
LINE
  5
8B1
330
18
100
AcDbEntity
  8
1
  6
Continuous
100
AcDbLine
 10
194.7754939570972
 20
53.72772352350192
 30
0.0
 11
222.7754939570972
 21
53.72772352350192
 31
0.0
  0
LINE
  5
8B2
330
18
100
AcDbEntity
  8
1
  6
Continuous
100
AcDbLine
 10
148.7754939570972
 20
52.22772352350194
 30
0.0
 11
222.7754939570972
 21
52.22772352350194
 31
0.0
  0
LINE
  5
8B4
330
18
100
AcDbEntity
  8
1
  6
Continuous
100
AcDbLine
 10
151.2754939570972
 20
41.72772352350199
 30
0.0
 11
220.2754939570972
 21
41.72772352350199
 31
0.0
  0
LINE
  5
8B5
330
18
100
AcDbEntity
  8
1
  6
Continuous
100
AcDbLine
 10
222.7754939570972
 20
72.72772352350199
 30
0.0
 11
194.7754939570972
 21
72.72772352350199
 31
0.0
  0
LINE
  5
8B6
330
18
100
AcDbEntity
  8
1
  6
Continuous
100
AcDbLine
 10
148.7754939570972
 20
74.22772352350193
 30
0.0
 11
222.7754939570972
 21
74.22772352350193
 31
0.0
  0
LINE
  5
8BA
330
18
100
AcDbEntity
  8
1
  6
Continuous
100
AcDbLine
 10
145.4383375717561
 20
54.22772352350193
 30
0.0
 11
145.4383375717561
 21
72.22772352350199
 31
0.0
  0
LINE
  5
8BB
330
18
100
AcDbEntity
  8
1
  6
Continuous
100
AcDbLine
 10
143.0650199522272
 20
54.22772352350193
 30
0.0
 11
143.0650199522272
 21
72.22772352350199
 31
0.0
  0
ARC
  5
8BE
330
18
100
AcDbEntity
  8
1
  6
Continuous
100
AcDbCircle
 10
146.9838766449051
 20
72.22772358985491
 30
0.0
 40
0.5
100
AcDbArc
 50
179.9999999999991
 51
269.9999999999983
  0
LINE
  5
8BF
330
18
100
AcDbEntity
  8
1
  6
Continuous
100
AcDbLine
 10
148.2754939570972
 20
72.22772352350199
 30
0.0
 11
148.2754939570972
 21
71.72772352350199
 31
0.0
  0
ARC
  5
8C0
330
18
100
AcDbEntity
  8
1
  6
Continuous
100
AcDbCircle
 10
144.9383375717562
 20
72.22772352350199
 30
0.0
 40
0.5
100
AcDbArc
 50
359.9999999999992
 51
90.00000000000005
  0
ARC
  5
8C1
330
18
100
AcDbEntity
  8
1
  6
Continuous
100
AcDbCircle
 10
145.9838766449051
 20
72.22772352350199
 30
0.0
 40
0.5
100
AcDbArc
 50
359.9999999999992
 51
90.00000000000005
  0
ARC
  5
8C3
330
18
100
AcDbEntity
  8
1
  6
Continuous
100
AcDbCircle
 10
148.7754939570972
 20
72.22772352350199
 30
0.0
 40
0.5
100
AcDbArc
 50
90.00000000000005
 51
179.9999999999991
  0
ARC
  5
8C4
330
18
100
AcDbEntity
  8
1
  6
Continuous
100
AcDbCircle
 10
148.7754939570972
 20
74.72772352350194
 30
0.0
 40
0.5
100
AcDbArc
 50
180.0
 51
270.0
  0
ARC
  5
8C5
330
18
100
AcDbEntity
  8
1
  6
Continuous
100
AcDbCircle
 10
143.5650199522272
 20
72.22772352350199
 30
0.0
 40
0.5
100
AcDbArc
 50
90.00000000000005
 51
179.9999999999991
  0
LINE
  5
8C7
330
18
100
AcDbEntity
  8
1
  6
Continuous
100
AcDbLine
 10
143.5650199522272
 20
72.72772352350199
 30
0.0
 11
145.9838766449051
 21
72.72772352350199
 31
0.0
  0
LINE
  5
8C8
330
18
100
AcDbEntity
  8
1
  6
Continuous
100
AcDbLine
 10
145.9838766449051
 20
72.72772352350199
 30
0.0
 11
143.5213015353771
 21
72.72772352350199
 31
0.0
  0
LINE
  5
8CB
330
18
100
AcDbEntity
  8
1
  6
Continuous
100
AcDbLine
 10
148.2754939570972
 20
51.72772352350193
 30
0.0
 11
148.2754939570972
 21
44.72772352350196
 31
0.0
  0
ARC
  5
8CE
330
18
100
AcDbEntity
  8
1
  6
Continuous
100
AcDbCircle
 10
146.9838766449051
 20
54.22772345714907
 30
0.0
 40
0.5
100
AcDbArc
 50
90.00000000000005
 51
179.9999999999991
  0
ARC
  5
8CF
330
18
100
AcDbEntity
  8
1
  6
Continuous
100
AcDbCircle
 10
144.9383375717562
 20
54.22772352350193
 30
0.0
 40
0.5
100
AcDbArc
 50
270.0
 51
359.9999999999992
  0
ARC
  5
8D0
330
18
100
AcDbEntity
  8
1
  6
Continuous
100
AcDbCircle
 10
145.9838766449051
 20
54.22772352350193
 30
0.0
 40
0.5
100
AcDbArc
 50
270.0
 51
359.9999999999992
  0
ARC
  5
8D3
330
18
100
AcDbEntity
  8
1
  6
Continuous
100
AcDbCircle
 10
148.7754939570972
 20
51.72772352350193
 30
0.0
 40
0.5
100
AcDbArc
 50
90.00000000000005
 51
179.9999999999991
  0
ARC
  5
8D4
330
18
100
AcDbEntity
  8
1
  6
Continuous
100
AcDbCircle
 10
143.5650199522272
 20
54.22772352350193
 30
0.0
 40
0.5
100
AcDbArc
 50
180.0
 51
270.0
  0
LINE
  5
8D6
330
18
100
AcDbEntity
  8
1
  6
Continuous
100
AcDbLine
 10
145.9838766449051
 20
53.72772352350192
 30
0.0
 11
143.5650199522272
 21
53.72772352350192
 31
0.0
  0
ARC
  5
8D9
330
18
100
AcDbEntity
  8
1
  6
Continuous
100
AcDbCircle
 10
151.2754939570972
 20
44.72772352350196
 30
0.0
 40
3.0
100
AcDbArc
 50
180.0
 51
270.0
  0
LINE
  5
8DD
330
18
100
AcDbEntity
  8
1
  6
Continuous
100
AcDbLine
 10
176.7754939570972
 20
73.20284257382066
 30
0.0
 11
176.7754939570972
 21
71.72772352350197
 31
0.0
  0
ARC
  5
8DE
330
18
100
AcDbEntity
  8
1
  6
Continuous
100
AcDbCircle
 10
174.7754939570973
 20
73.20284257382066
 30
0.0
 40
2.0
100
AcDbArc
 50
359.9999999999992
 51
30.82652570639262
  0
ARC
  5
8E1
330
18
100
AcDbEntity
  8
1
  6
Continuous
100
AcDbCircle
 10
174.7754939570973
 20
53.25260447318328
 30
0.0
 40
2.0
100
AcDbArc
 50
329.1734742936067
 51
359.9999999999992
  0
LINE
  5
8E2
330
18
100
AcDbEntity
  8
1
  6
Continuous
100
AcDbLine
 10
176.7754939570972
 20
53.25260447318328
 30
0.0
 11
176.7754939570972
 21
54.72772352350196
 31
0.0
  0
ARC
  5
A18
330
18
100
AcDbEntity
  8
1
  6
Continuous
100
AcDbCircle
 10
220.2754939570972
 20
81.72772352350193
 30
0.0
 40
3.0
100
AcDbArc
 50
0.0000000000008467
 51
89.99999999999998
  0
LINE
  5
A1B
330
18
100
AcDbEntity
  8
1
  6
Continuous
100
AcDbLine
 10
223.2754939570972
 20
74.72772352350194
 30
0.0
 11
223.2754939570972
 21
81.72772352350193
 31
0.0
  0
ARC
  5
A1C
330
18
100
AcDbEntity
  8
1
  6
Continuous
100
AcDbCircle
 10
222.7754939570972
 20
74.72772352350194
 30
0.0
 40
0.5
100
AcDbArc
 50
270.0
 51
0.000000000000007
  0
LINE
  5
A1D
330
18
100
AcDbEntity
  8
1
  6
Continuous
100
AcDbLine
 10
223.2754939570972
 20
51.72772352350193
 30
0.0
 11
223.2754939570972
 21
44.72772352350196
 31
0.0
  0
ARC
  5
A1E
330
18
100
AcDbEntity
  8
1
  6
Continuous
100
AcDbCircle
 10
220.2754939570972
 20
44.72772352350196
 30
0.0
 40
3.0
100
AcDbArc
 50
270.0
 51
0.000000000000007
  0
ARC
  5
A20
330
18
100
AcDbEntity
  8
1
  6
Continuous
100
AcDbCircle
 10
222.7754939570972
 20
51.72772352350193
 30
0.0
 40
0.5
100
AcDbArc
 50
0.0000000000008467
 51
89.99999999999998
  0
LINE
  5
A21
330
18
100
AcDbEntity
  8
1
  6
Continuous
100
AcDbLine
 10
194.7754939570972
 20
53.25260447318328
 30
0.0
 11
194.7754939570972
 21
54.72772352350196
 31
0.0
  0
ARC
  5
A22
330
18
100
AcDbEntity
  8
1
  6
Continuous
100
AcDbCircle
 10
196.7754939570971
 20
53.25260447318328
 30
0.0
 40
2.0
100
AcDbArc
 50
180.0000000000008
 51
210.8265257063933
  0
ARC
  5
A23
330
18
100
AcDbEntity
  8
1
  6
Continuous
100
AcDbCircle
 10
196.7754939570971
 20
73.20284257382066
 30
0.0
 40
2.0
100
AcDbArc
 50
149.1734742936074
 51
180.0000000000008
  0
LINE
  5
A24
330
18
100
AcDbEntity
  8
1
  6
Continuous
100
AcDbLine
 10
194.7754939570972
 20
73.20284257382066
 30
0.0
 11
194.7754939570972
 21
71.72772352350195
 31
0.0
  0
LINE
  5
A25
330
18
100
AcDbEntity
  8
1
  6
Continuous
100
AcDbLine
 10
223.2754939570972
 20
54.22772352350193
 30
0.0
 11
223.2754939570972
 21
72.22772352350199
 31
0.0
  0
ARC
  5
A26
330
18
100
AcDbEntity
  8
1
  6
Continuous
100
AcDbCircle
 10
222.7754939570972
 20
72.22772352350199
 30
0.0
 40
0.5
100
AcDbArc
 50
0.0
 51
90.0
  0
ARC
  5
A27
330
18
100
AcDbEntity
  8
1
  6
Continuous
100
AcDbCircle
 10
222.7754939570972
 20
54.22772352350193
 30
0.0
 40
0.5
100
AcDbArc
 50
270.0
 51
0.0
  0
LINE
  5
A2F
330
18
100
AcDbEntity
  8
1
  6
Continuous
100
AcDbLine
 10
221.2754939570972
 20
54.22772352350193
 30
0.0
 11
221.2754939570972
 21
72.22772352350199
 31
0.0
  0
ARC
  5
A30
330
18
100
AcDbEntity
  8
1
  6
Continuous
100
AcDbCircle
 10
221.7754939570972
 20
72.22772352350199
 30
0.0
 40
0.5
100
AcDbArc
 50
90.0
 51
180.0
  0
ARC
  5
A31
330
18
100
AcDbEntity
  8
1
  6
Continuous
100
AcDbCircle
 10
221.7754939570972
 20
54.22772352350193
 30
0.0
 40
0.5
100
AcDbArc
 50
180.0
 51
270.0
  0
LINE
  5
A32
330
18
100
AcDbEntity
  8
1
  6
Continuous
100
AcDbLine
 10
193.2754939570972
 20
55.22772352350195
 30
0.0
 11
193.2754939570972
 21
71.22772352350195
 31
0.0
  0
LINE
  5
A76
330
18
100
AcDbEntity
  8
1
  6
Continuous
100
AcDbLine
 10
151.0326932679537
 20
72.22772352350199
 30
0.0
 11
151.0326932679537
 21
54.22772352350193
 31
0.0
  0
LINE
  5
A77
330
18
100
AcDbEntity
  8
1
  6
Continuous
100
AcDbLine
 10
153.0326932679536
 20
72.22772352350199
 30
0.0
 11
153.0326932679536
 21
71.22772352350195
 31
0.0
  0
LINE
  5
A78
330
18
100
AcDbEntity
  8
1
  6
Continuous
100
AcDbLine
 10
194.2754939570972
 20
71.22772352350195
 30
0.0
 11
153.0326932679536
 21
71.22772352350195
 31
0.0
  0
LINE
  5
A79
330
18
100
AcDbEntity
  8
1
  6
Continuous
100
AcDbLine
 10
194.2754939570972
 20
55.22772352350195
 30
0.0
 11
153.0326932679536
 21
55.22772352350195
 31
0.0
  0
LINE
  5
A7A
330
18
100
AcDbEntity
  8
1
  6
Continuous
100
AcDbLine
 10
153.0326932679536
 20
55.22772352350195
 30
0.0
 11
153.0326932679536
 21
54.22772352350193
 31
0.0
  0
LINE
  5
A7B
330
18
100
AcDbEntity
  8
1
  6
Continuous
100
AcDbLine
 10
176.7754939570972
 20
72.72772352350199
 30
0.0
 11
148.7754939570972
 21
72.72772352350199
 31
0.0
  0
LINE
  5
A7C
330
18
100
AcDbEntity
  8
1
  6
Continuous
100
AcDbLine
 10
148.7754939570972
 20
53.72772352350192
 30
0.0
 11
176.7754939570972
 21
53.72772352350192
 31
0.0
  0
ARC
  5
A7D
330
18
100
AcDbEntity
  8
1
  6
Continuous
100
AcDbCircle
 10
152.5326932679537
 20
54.22772352350193
 30
0.0
 40
0.5
100
AcDbArc
 50
270.0
 51
0.0
  0
ARC
  5
A7E
330
18
100
AcDbEntity
  8
1
  6
Continuous
100
AcDbCircle
 10
151.5326932679537
 20
54.22772352350193
 30
0.0
 40
0.5
100
AcDbArc
 50
180.0
 51
270.0
  0
ARC
  5
A7F
330
18
100
AcDbEntity
  8
1
  6
Continuous
100
AcDbCircle
 10
152.5326932679537
 20
72.22772352350199
 30
0.0
 40
0.5
100
AcDbArc
 50
0.0
 51
90.0
  0
ARC
  5
A80
330
18
100
AcDbEntity
  8
1
  6
Continuous
100
AcDbCircle
 10
151.5326932679537
 20
72.22772352350199
 30
0.0
 40
0.5
100
AcDbArc
 50
90.0000000000001
 51
180.0
  0
LINE
  5
A81
330
18
100
AcDbEntity
  8
1
  6
Continuous
100
AcDbLine
 10
178.2754939570972
 20
55.22772352350195
 30
0.0
 11
178.2754939570972
 21
71.22772352350195
 31
0.0
  0
LINE
  5
A82
330
18
100
AcDbEntity
  8
1
  6
Continuous
100
AcDbLine
 10
175.2754939570972
 20
55.22772352350195
 30
0.0
 11
175.2754939570972
 21
71.22772352350195
 31
0.0
  0
ARC
  5
A84
330
18
100
AcDbEntity
  8
1
  6
Continuous
100
AcDbCircle
 10
324.2921418110195
 20
192.1172058991647
 30
0.0
 40
0.5
100
AcDbArc
 50
270.0
 51
0.0
  0
ARC
  5
A85
330
18
100
AcDbEntity
  8
1
  6
Continuous
100
AcDbCircle
 10
341.2921418110195
 20
192.1172058991646
 30
0.0
 40
0.5
100
AcDbArc
 50
180.0
 51
270.0
  0
ARC
  5
A86
330
18
100
AcDbEntity
  8
1
  6
Continuous
100
AcDbCircle
 10
194.2754939570972
 20
71.72772352350195
 30
0.0
 40
0.5
100
AcDbArc
 50
270.0
 51
0.0
  0
ARC
  5
A87
330
18
100
AcDbEntity
  8
1
  6
Continuous
100
AcDbCircle
 10
177.2754939570972
 20
71.72772352350195
 30
0.0
 40
0.5
100
AcDbArc
 50
179.9999999999991
 51
270.0
  0
ARC
  5
A88
330
18
100
AcDbEntity
  8
1
  6
Continuous
100
AcDbCircle
 10
177.2754939570972
 20
54.72772352350196
 30
0.0
 40
0.5
100
AcDbArc
 50
90.0
 51
180.0
  0
ARC
  5
A89
330
18
100
AcDbEntity
  8
1
  6
Continuous
100
AcDbCircle
 10
194.2754939570972
 20
54.72772352350196
 30
0.0
 40
0.5
100
AcDbArc
 50
359.9999999999992
 51
90.0
  0
LINE
  5
A8C
330
18
100
AcDbEntity
  8
1
  6
Continuous
100
AcDbLine
 10
148.2754939570972
 20
72.22772352350199
 30
0.0
 11
148.2754939570972
 21
54.22772352350178
 31
0.0
  0
ARC
  5
A8D
330
18
100
AcDbEntity
  8
1
  6
Continuous
100
AcDbCircle
 10
148.7754939570972
 20
54.22772352350178
 30
0.0
 40
0.5
100
AcDbArc
 50
180.0000000000008
 51
270.0
  0
LINE
  5
1931
330
18
100
AcDbEntity
  8
4
  6
CENTER
 48
0.5
100
AcDbLine
 10
143.2754939570969
 20
200.6172058991647
 30
0.0
 11
228.2754939570969
 21
200.6172058991647
 31
0.0
  0
CIRCLE
  5
1932
330
18
100
AcDbEntity
  8
1
  6
Continuous
100
AcDbCircle
 10
185.7754939570969
 20
200.6172058991645
 30
0.0
 40
37.5
  0
LINE
  5
1961
330
18
100
AcDbEntity
  8
1
  6
Continuous
100
AcDbLine
 10
47.04837209830498
 20
260.6172058991644
 30
0.0
 11
47.04837209830498
 21
247.6172058991644
 31
0.0
  0
LINE
  5
1962
330
18
100
AcDbEntity
  8
1
  6
Continuous
100
AcDbLine
 10
35.04837209830498
 20
247.6172058991644
 30
0.0
 11
35.04837209830498
 21
260.6172058991644
 31
0.0
  0
LINE
  5
1963
330
18
100
AcDbEntity
  8
2
  6
Continuous
100
AcDbLine
 10
46.10137209830496
 20
248.6172058991644
 30
0.0
 11
46.10137209830496
 21
261.5642058991644
 31
0.0
  0
LINE
  5
1965
330
18
100
AcDbEntity
  8
1
  6
Continuous
100
AcDbLine
 10
49.04837209830498
 20
247.6172058991644
 30
0.0
 11
33.04837209830498
 21
247.6172058991644
 31
0.0
  0
LINE
  5
1966
330
18
100
AcDbEntity
  8
1
  6
Continuous
100
AcDbLine
 10
49.24837209830503
 20
241.6172058991644
 30
0.0
 11
32.84837209830504
 21
241.6172058991644
 31
0.0
  0
LINE
  5
1967
330
18
100
AcDbEntity
  8
1
  6
Continuous
100
AcDbLine
 10
35.04837209830498
 20
248.6172058991644
 30
0.0
 11
47.04837209830498
 21
248.6172058991645
 31
0.0
  0
LINE
  5
196B
330
18
100
AcDbEntity
  8
1
  6
Continuous
100
AcDbLine
 10
32.54837209830498
 20
241.3172058991643
 30
0.0
 11
32.54837209830498
 21
241.1172058991644
 31
0.0
  0
ARC
  5
1971
330
18
100
AcDbEntity
  8
1
  6
Continuous
100
AcDbCircle
 10
33.04837209830498
 20
247.1172058991645
 30
0.0
 40
0.5
100
AcDbArc
 50
90.00000000001952
 51
180.0
  0
ARC
  5
1972
330
18
100
AcDbEntity
  8
1
  6
Continuous
100
AcDbCircle
 10
33.04837209830498
 20
242.1172058991645
 30
0.0
 40
0.5
100
AcDbArc
 50
180.0000000000683
 51
270.0000000000521
  0
LINE
  5
1973
330
18
100
AcDbEntity
  8
1
  6
Continuous
100
AcDbLine
 10
32.54837209830498
 20
242.1172058991645
 30
0.0
 11
32.54837209830498
 21
247.1172058991645
 31
0.0
  0
ARC
  5
1974
330
18
100
AcDbEntity
  8
1
  6
Continuous
100
AcDbCircle
 10
32.84837209830504
 20
241.3172058991643
 30
0.0
 40
0.3
100
AcDbArc
 50
90.0
 51
180.0
  0
LINE
  5
1975
330
18
100
AcDbEntity
  8
1
  6
Continuous
100
AcDbLine
 10
49.54837209830498
 20
241.3172058991643
 30
0.0
 11
49.54837209830498
 21
241.1172058991644
 31
0.0
  0
ARC
  5
197B
330
18
100
AcDbEntity
  8
1
  6
Continuous
100
AcDbCircle
 10
49.04837209830498
 20
247.1172058991645
 30
0.0
 40
0.5
100
AcDbArc
 50
0.0000000000358258
 51
90.00000000001952
  0
ARC
  5
197C
330
18
100
AcDbEntity
  8
1
  6
Continuous
100
AcDbCircle
 10
49.04837209830498
 20
242.1172058991645
 30
0.0
 40
0.5
100
AcDbArc
 50
270.0000000000521
 51
0.0000000000358258
  0
LINE
  5
197D
330
18
100
AcDbEntity
  8
1
  6
Continuous
100
AcDbLine
 10
49.54837209830498
 20
242.1172058991645
 30
0.0
 11
49.54837209830498
 21
247.1172058991645
 31
0.0
  0
ARC
  5
197E
330
18
100
AcDbEntity
  8
1
  6
Continuous
100
AcDbCircle
 10
49.24837209830503
 20
241.3172058991643
 30
0.0
 40
0.3
100
AcDbArc
 50
0.0
 51
90.0
  0
LINE
  5
197F
330
18
100
AcDbEntity
  8
1
  6
Continuous
100
AcDbLine
 10
36.04837209830498
 20
261.6172058991644
 30
0.0
 11
46.04837209830498
 21
261.6172058991644
 31
0.0
  0
LINE
  5
1980
330
18
100
AcDbEntity
  8
1
  6
Continuous
100
AcDbLine
 10
35.04837209830498
 20
260.6172058991644
 30
0.0
 11
47.04837209830498
 21
260.6172058991644
 31
0.0
  0
LINE
  5
1981
330
18
100
AcDbEntity
  8
1
  6
Continuous
100
AcDbLine
 10
35.04837209830498
 20
260.6172058991644
 30
0.0
 11
36.04837209830498
 21
261.6172058991644
 31
0.0
  0
LINE
  5
1982
330
18
100
AcDbEntity
  8
1
  6
Continuous
100
AcDbLine
 10
46.04837209830498
 20
261.6172058991644
 30
0.0
 11
47.04837209830498
 21
260.6172058991644
 31
0.0
  0
LINE
  5
1985
330
18
100
AcDbEntity
  8
4
  6
CENTER
 48
0.5
100
AcDbLine
 10
205.7754939570969
 20
266.6172058991642
 30
0.0
 11
205.7754939570969
 21
181.5038150849608
 31
0.0
  0
LINE
  5
1987
330
18
100
AcDbEntity
  8
4
  6
CENTER
 48
0.5
100
AcDbLine
 10
185.7754939570969
 20
243.1172058991645
 30
0.0
 11
185.7754939570969
 21
158.1172058991645
 31
0.0
  0
CIRCLE
  5
1988
330
18
100
AcDbEntity
  8
1
  6
Continuous
100
AcDbCircle
 10
185.7754939570969
 20
200.6172058991645
 30
0.0
 40
31.0
  0
CIRCLE
  5
1989
330
18
100
AcDbEntity
  8
1
  6
Continuous
100
AcDbCircle
 10
185.7754939570969
 20
200.6172058991645
 30
0.0
 40
33.0
  0
LINE
  5
198B
330
18
100
AcDbEntity
  8
1
  6
Continuous
100
AcDbLine
 10
217.2754939570969
 20
241.1172058991644
 30
0.0
 11
194.2754939570969
 21
241.1172058991644
 31
0.0
  0
LINE
  5
1990
330
18
100
AcDbEntity
  8
1
  6
Continuous
100
AcDbLine
 10
214.7754932681615
 20
241.6172058991642
 30
0.0
 11
196.7754936460321
 21
241.6172058991642
 31
0.0
  0
LINE
  5
1991
330
18
100
AcDbEntity
  8
1
  6
Continuous
100
AcDbLine
 10
214.7754939570969
 20
247.6172058991642
 30
0.0
 11
196.7754939570969
 21
247.6172058991642
 31
0.0
  0
ARC
  5
1992
330
18
100
AcDbEntity
  8
1
  6
Continuous
100
AcDbCircle
 10
185.7754939570969
 20
200.6172058991645
 30
0.0
 40
39.5
100
AcDbArc
 50
43.45211862326709
 51
73.33897748156054
  0
ARC
  5
1996
330
18
100
AcDbEntity
  8
1
  6
Continuous
100
AcDbCircle
 10
194.2754939570969
 20
240.1172058991645
 30
0.0
 40
1.0
100
AcDbArc
 50
90.0
 51
180.0
  0
LINE
  5
1997
330
18
100
AcDbEntity
  8
1
  6
Continuous
100
AcDbLine
 10
193.2754939570969
 20
239.7324203303804
 30
0.0
 11
193.2754939570969
 21
240.1172058991645
 31
0.0
  0
ARC
  5
1998
330
18
100
AcDbEntity
  8
1
  6
Continuous
100
AcDbCircle
 10
191.2754939570969
 20
239.7324203303804
 30
0.0
 40
2.0
100
AcDbArc
 50
261.9960999836717
 51
0.0
  0
ARC
  5
1999
330
18
100
AcDbEntity
  8
1
  6
Continuous
100
AcDbCircle
 10
197.5754939570968
 20
241.3172058991643
 30
0.0
 40
0.3
100
AcDbArc
 50
90.0
 51
180.0
  0
LINE
  5
199A
330
18
100
AcDbEntity
  8
1
  6
Continuous
100
AcDbLine
 10
197.2754939570969
 20
241.3172058991643
 30
0.0
 11
197.2754939570969
 21
241.1172058991642
 31
0.0
  0
LINE
  5
199B
330
18
100
AcDbEntity
  8
1
  6
Continuous
100
AcDbLine
 10
197.1004939570969
 20
238.4589074295427
 30
0.0
 11
197.1004939570969
 21
236.3662530854888
 31
0.0
  0
ARC
  5
199C
330
18
100
AcDbEntity
  8
1
  6
Continuous
100
AcDbCircle
 10
205.4632049570969
 20
244.6172058991642
 30
0.0
 40
4.0
100
AcDbArc
 50
131.4096220000283
 51
228.5903780000063
  0
ARC
  5
199D
330
18
100
AcDbEntity
  8
1
  6
Continuous
100
AcDbCircle
 10
199.4212449570969
 20
244.6172058991642
 30
0.0
 40
4.0
100
AcDbArc
 50
131.4096220000283
 51
228.5903780000063
  0
ARC
  5
199E
330
18
100
AcDbEntity
  8
1
  6
Continuous
100
AcDbCircle
 10
206.0877819570968
 20
244.6172058991642
 30
0.0
 40
4.0
100
AcDbArc
 50
311.4096220000629
 51
48.59037800004093
  0
LINE
  5
19A1
330
18
100
AcDbEntity
  8
1
  6
Continuous
100
AcDbLine
 10
218.2754939570969
 20
220.6172058991646
 30
0.0
 11
218.2754939570969
 21
240.1172058991645
 31
0.0
  0
ARC
  5
19A2
330
18
100
AcDbEntity
  8
1
  6
Continuous
100
AcDbCircle
 10
223.2754939570969
 20
220.6172058991646
 30
0.0
 40
5.0
100
AcDbArc
 50
180.0
 51
208.0724869358545
  0
LINE
  5
19A3
330
18
100
AcDbEntity
  8
1
  6
Continuous
100
AcDbLine
 10
214.4504939570968
 20
227.7832577838239
 30
0.0
 11
214.4504939570968
 21
224.7831814602196
 31
0.0
  0
ARC
  5
19A7
330
18
100
AcDbEntity
  8
1
  6
Continuous
100
AcDbCircle
 10
213.9754939570969
 20
241.3172058991643
 30
0.0
 40
0.3
100
AcDbArc
 50
0.0
 51
90.0
  0
ARC
  5
19A8
330
18
100
AcDbEntity
  8
1
  6
Continuous
100
AcDbCircle
 10
217.2754939570969
 20
240.1172058991645
 30
0.0
 40
1.0
100
AcDbArc
 50
0.0
 51
90.0
  0
LINE
  5
19A9
330
18
100
AcDbEntity
  8
1
  6
Continuous
100
AcDbLine
 10
214.2754939570969
 20
241.3172058991643
 30
0.0
 11
214.2754939570969
 21
241.1172058991642
 31
0.0
  0
ARC
  5
19AA
330
18
100
AcDbEntity
  8
1
  6
Continuous
100
AcDbCircle
 10
212.1297419570968
 20
244.6172058991642
 30
0.0
 40
4.0
100
AcDbArc
 50
311.4096220000629
 51
48.59037800004093
  0
LINE
  5
19CB
330
18
100
AcDbEntity
  8
1
  6
Continuous
100
AcDbLine
 10
340.7921418110195
 20
247.6172058991644
 30
0.0
 11
324.7921418110195
 21
247.6172058991644
 31
0.0
  0
LINE
  5
19CC
330
18
100
AcDbEntity
  8
1
  6
Continuous
100
AcDbLine
 10
340.9921418110195
 20
241.6172058991644
 30
0.0
 11
324.5921418110195
 21
241.6172058991644
 31
0.0
  0
LINE
  5
19DF
330
18
100
AcDbEntity
  8
1
  6
Continuous
100
AcDbLine
 10
324.2921418110195
 20
241.3172058991643
 30
0.0
 11
324.2921418110195
 21
241.1172058991644
 31
0.0
  0
ARC
  5
19E1
330
18
100
AcDbEntity
  8
1
  6
Continuous
100
AcDbCircle
 10
324.7921418110195
 20
247.1172058991645
 30
0.0
 40
0.5
100
AcDbArc
 50
90.00000000001952
 51
180.0
  0
ARC
  5
19E2
330
18
100
AcDbEntity
  8
1
  6
Continuous
100
AcDbCircle
 10
324.7921418110195
 20
242.1172058991645
 30
0.0
 40
0.5
100
AcDbArc
 50
180.0000000000683
 51
270.0000000000521
  0
LINE
  5
19E3
330
18
100
AcDbEntity
  8
1
  6
Continuous
100
AcDbLine
 10
324.2921418110195
 20
242.1172058991645
 30
0.0
 11
324.2921418110195
 21
247.1172058991645
 31
0.0
  0
ARC
  5
19E4
330
18
100
AcDbEntity
  8
1
  6
Continuous
100
AcDbCircle
 10
324.5921418110195
 20
241.3172058991643
 30
0.0
 40
0.3
100
AcDbArc
 50
90.0
 51
180.0
  0
LINE
  5
19F0
330
18
100
AcDbEntity
  8
1
  6
Continuous
100
AcDbLine
 10
341.2921418110195
 20
241.3172058991643
 30
0.0
 11
341.2921418110195
 21
241.1172058991644
 31
0.0
  0
ARC
  5
19F2
330
18
100
AcDbEntity
  8
1
  6
Continuous
100
AcDbCircle
 10
340.7921418110195
 20
247.1172058991645
 30
0.0
 40
0.5
100
AcDbArc
 50
0.0000000000358258
 51
90.00000000001952
  0
ARC
  5
19F3
330
18
100
AcDbEntity
  8
1
  6
Continuous
100
AcDbCircle
 10
340.7921418110195
 20
242.1172058991645
 30
0.0
 40
0.5
100
AcDbArc
 50
270.0000000000521
 51
0.0000000000358258
  0
LINE
  5
19F4
330
18
100
AcDbEntity
  8
1
  6
Continuous
100
AcDbLine
 10
341.2921418110195
 20
242.1172058991645
 30
0.0
 11
341.2921418110195
 21
247.1172058991645
 31
0.0
  0
ARC
  5
19F5
330
18
100
AcDbEntity
  8
1
  6
Continuous
100
AcDbCircle
 10
340.9921418110195
 20
241.3172058991643
 30
0.0
 40
0.3
100
AcDbArc
 50
0.0
 51
90.0
  0
LINE
  5
1A3B
330
18
100
AcDbEntity
  8
4
  6
CENTER
 48
0.5
100
AcDbLine
 10
522.3087896649412
 20
200.6172058991639
 30
0.0
 11
437.3087896649413
 21
200.6172058991639
 31
0.0
  0
CIRCLE
  5
1A3C
330
18
100
AcDbEntity
  8
1
  6
Continuous
100
AcDbCircle
 10
479.8087896649413
 20
200.6172058991637
 30
0.0
 40
33.0
  0
CIRCLE
  5
1A3D
330
18
100
AcDbEntity
  8
1
  6
Continuous
100
AcDbCircle
 10
479.8087896649413
 20
200.6172058991637
 30
0.0
 40
31.0
  0
LINE
  5
1A3E
330
18
100
AcDbEntity
  8
4
  6
CENTER
 48
0.5
100
AcDbLine
 10
479.8087896649413
 20
243.1172058991637
 30
0.0
 11
479.8087896649413
 21
158.1172058991637
 31
0.0
  0
LINE
  5
1A40
330
18
100
AcDbEntity
  8
4
  6
CENTER
 48
0.5
100
AcDbLine
 10
459.8087896649413
 20
266.6172058991634
 30
0.0
 11
459.8087896649413
 21
181.50381508496
 31
0.0
  0
CIRCLE
  5
1A41
330
18
100
AcDbEntity
  8
1
  6
Continuous
100
AcDbCircle
 10
479.8087896649413
 20
200.6172058991637
 30
0.0
 40
37.5
  0
ARC
  5
1A46
330
18
100
AcDbEntity
  8
1
  6
Continuous
100
AcDbCircle
 10
479.8087896649413
 20
200.6172058991637
 30
0.0
 40
39.5
100
AcDbArc
 50
106.6610225184394
 51
136.5478813767329
  0
LINE
  5
1A47
330
18
100
AcDbEntity
  8
1
  6
Continuous
100
AcDbLine
 10
450.8087896649413
 20
247.6172058991634
 30
0.0
 11
468.8087896649413
 21
247.6172058991634
 31
0.0
  0
LINE
  5
1A48
330
18
100
AcDbEntity
  8
1
  6
Continuous
100
AcDbLine
 10
450.8087903538767
 20
241.6172058991634
 30
0.0
 11
468.808789976006
 21
241.6172058991634
 31
0.0
  0
LINE
  5
1A4B
330
18
100
AcDbEntity
  8
1
  6
Continuous
100
AcDbLine
 10
448.3087896649413
 20
241.1172058991637
 30
0.0
 11
471.3087896649413
 21
241.1172058991637
 31
0.0
  0
LINE
  5
1A4C
330
18
100
AcDbEntity
  8
1
  6
Continuous
100
AcDbLine
 10
447.3087896649413
 20
220.6172058991638
 30
0.0
 11
447.3087896649413
 21
240.1172058991637
 31
0.0
  0
ARC
  5
1A4D
330
18
100
AcDbEntity
  8
1
  6
Continuous
100
AcDbCircle
 10
442.3087896649413
 20
220.6172058991638
 30
0.0
 40
5.0
100
AcDbArc
 50
331.9275130641455
 51
0.0
  0
LINE
  5
1A4E
330
18
100
AcDbEntity
  8
1
  6
Continuous
100
AcDbLine
 10
451.1337896649414
 20
227.7832577838231
 30
0.0
 11
451.1337896649414
 21
224.7831814602188
 31
0.0
  0
ARC
  5
1A53
330
18
100
AcDbEntity
  8
1
  6
Continuous
100
AcDbCircle
 10
448.3087896649413
 20
240.1172058991637
 30
0.0
 40
1.0
100
AcDbArc
 50
90.0
 51
180.0
  0
ARC
  5
1A54
330
18
100
AcDbEntity
  8
1
  6
Continuous
100
AcDbCircle
 10
451.6087896649414
 20
241.3172058991635
 30
0.0
 40
0.3
100
AcDbArc
 50
90.0
 51
180.0
  0
LINE
  5
1A55
330
18
100
AcDbEntity
  8
1
  6
Continuous
100
AcDbLine
 10
451.3087896649413
 20
241.3172058991635
 30
0.0
 11
451.3087896649413
 21
241.1172058991634
 31
0.0
  0
ARC
  5
1A56
330
18
100
AcDbEntity
  8
1
  6
Continuous
100
AcDbCircle
 10
453.4545416649415
 20
244.6172058991634
 30
0.0
 40
4.0
100
AcDbArc
 50
131.409621999959
 51
228.5903779999371
  0
ARC
  5
1A57
330
18
100
AcDbEntity
  8
1
  6
Continuous
100
AcDbCircle
 10
459.4965016649415
 20
244.6172058991634
 30
0.0
 40
4.0
100
AcDbArc
 50
131.409621999959
 51
228.5903779999371
  0
ARC
  5
1A5B
330
18
100
AcDbEntity
  8
1
  6
Continuous
100
AcDbCircle
 10
474.3087896649413
 20
239.7324203303796
 30
0.0
 40
2.0
100
AcDbArc
 50
180.0
 51
278.0039000163282
  0
ARC
  5
1A5C
330
18
100
AcDbEntity
  8
1
  6
Continuous
100
AcDbCircle
 10
468.0087896649413
 20
241.3172058991635
 30
0.0
 40
0.3
100
AcDbArc
 50
0.0
 51
89.99999999999348
  0
ARC
  5
1A5D
330
18
100
AcDbEntity
  8
1
  6
Continuous
100
AcDbCircle
 10
471.3087896649413
 20
240.1172058991637
 30
0.0
 40
1.0
100
AcDbArc
 50
0.0
 51
90.0
  0
LINE
  5
1A5E
330
18
100
AcDbEntity
  8
1
  6
Continuous
100
AcDbLine
 10
468.4837896649414
 20
238.4589074295419
 30
0.0
 11
468.4837896649414
 21
236.366253085488
 31
0.0
  0
LINE
  5
1A5F
330
18
100
AcDbEntity
  8
1
  6
Continuous
100
AcDbLine
 10
468.3087896649413
 20
241.3172058991635
 30
0.0
 11
468.3087896649413
 21
241.1172058991634
 31
0.0
  0
LINE
  5
1A60
330
18
100
AcDbEntity
  8
1
  6
Continuous
100
AcDbLine
 10
472.3087896649413
 20
239.7324203303796
 30
0.0
 11
472.3087896649413
 21
240.1172058991637
 31
0.0
  0
ARC
  5
1A61
330
18
100
AcDbEntity
  8
1
  6
Continuous
100
AcDbCircle
 10
460.1210786649413
 20
244.6172058991634
 30
0.0
 40
4.0
100
AcDbArc
 50
311.4096219999936
 51
48.59037799997167
  0
ARC
  5
1A62
330
18
100
AcDbEntity
  8
1
  6
Continuous
100
AcDbCircle
 10
466.1630386649413
 20
244.6172058991634
 30
0.0
 40
4.0
100
AcDbArc
 50
311.4096219999936
 51
48.59037799997167
  0
LINE
  5
1A80
330
18
100
AcDbEntity
  8
1
  6
Continuous
100
AcDbLine
 10
203.7547680149334
 20
59.72772352350188
 30
0.0
 11
201.7340420727697
 21
63.22772352350188
 31
0.0
  0
LINE
  5
1A81
330
18
100
AcDbEntity
  8
1
  6
Continuous
100
AcDbLine
 10
207.7962198992608
 20
59.72772352350188
 30
0.0
 11
209.8169458414244
 21
63.22772352350188
 31
0.0
  0
LINE
  5
1A8D
330
18
100
AcDbEntity
  8
1
  6
Continuous
100
AcDbLine
 10
203.7547680149334
 20
59.72772352350188
 30
0.0
 11
207.7962198992608
 21
59.72772352350188
 31
0.0
  0
LINE
  5
1A97
330
18
100
AcDbEntity
  8
1
  6
Continuous
100
AcDbLine
 10
203.7547680149334
 20
66.72772352350193
 30
0.0
 11
201.7340420727697
 21
63.22772352350193
 31
0.0
  0
LINE
  5
1A9F
330
18
100
AcDbEntity
  8
1
  6
Continuous
100
AcDbLine
 10
203.7547680149334
 20
66.72772352350193
 30
0.0
 11
207.7962198992608
 21
66.72772352350193
 31
0.0
  0
LINE
  5
1AA0
330
18
100
AcDbEntity
  8
1
  6
Continuous
100
AcDbLine
 10
207.7962198992608
 20
66.72772352350193
 30
0.0
 11
209.8169458414244
 21
63.22772352350193
 31
0.0
  0
CIRCLE
  5
2409
330
18
100
AcDbEntity
  8
1
  6
Continuous
100
AcDbCircle
 10
205.7754939570972
 20
355.0066882748256
 30
0.0
 40
5.999999999999714
  0
LINE
  5
240C
330
18
100
AcDbEntity
  8
1
  6
Continuous
100
AcDbLine
 10
223.2754939570972
 20
364.0066882748256
 30
0.0
 11
223.2754939570972
 21
346.0066882748255
 31
0.0
  0
CIRCLE
  5
240D
330
18
100
AcDbEntity
  8
1
  6
Continuous
100
AcDbCircle
 10
205.7754939570972
 20
355.0066882748256
 30
0.0
 40
12.5
  0
LINE
  5
240E
330
18
100
AcDbEntity
  8
4
  6
CENTER
 48
0.5
100
AcDbLine
 10
205.7754939570972
 20
372.5066882748256
 30
0.0
 11
205.7754939570972
 21
337.5066882748257
 31
0.0
  0
LINE
  5
2411
330
18
100
AcDbEntity
  8
1
  6
Continuous
100
AcDbLine
 10
223.2754939570972
 20
343.5066882748257
 30
0.0
 11
223.2754939570972
 21
336.5066882748256
 31
0.0
  0
ARC
  5
2413
330
18
100
AcDbEntity
  8
1
  6
Continuous
100
AcDbCircle
 10
220.2754939570972
 20
336.5066882748256
 30
0.0
 40
3.0
100
AcDbArc
 50
270.0
 51
0.0
  0
CIRCLE
  5
2415
330
18
100
AcDbEntity
  8
2
  6
Continuous
100
AcDbCircle
 10
205.7754939570972
 20
355.0066882748256
 30
0.0
 40
5.052999999999741
  0
ARC
  5
2417
330
18
100
AcDbEntity
  8
1
  6
Continuous
100
AcDbCircle
 10
196.7754939570971
 20
345.0315692245069
 30
0.0
 40
2.0
100
AcDbArc
 50
180.0
 51
210.8265257063916
  0
LINE
  5
2418
330
18
100
AcDbEntity
  8
1
  6
Continuous
100
AcDbLine
 10
194.7754939570972
 20
345.0315692245069
 30
0.0
 11
194.7754939570972
 21
345.5066882748256
 31
0.0
  0
LINE
  5
2419
330
18
100
AcDbEntity
  8
1
  6
Continuous
100
AcDbLine
 10
211.7126650006161
 20
344.0066882748256
 30
0.0
 11
222.7754939570972
 21
344.0066882748256
 31
0.0
  0
LINE
  5
241A
330
18
100
AcDbEntity
  8
1
  6
Continuous
100
AcDbLine
 10
222.7754939570972
 20
345.5066882748255
 30
0.0
 11
213.899532361733
 21
345.5066882748255
 31
0.0
  0
ARC
  5
241B
330
18
100
AcDbEntity
  8
1
  6
Continuous
100
AcDbCircle
 10
222.7754939570972
 20
343.5066882748257
 30
0.0
 40
0.5
100
AcDbArc
 50
0.0
 51
90.0
  0
ARC
  5
241C
330
18
100
AcDbEntity
  8
1
  6
Continuous
100
AcDbCircle
 10
222.7754939570972
 20
346.0066882748255
 30
0.0
 40
0.5
100
AcDbArc
 50
270.0
 51
0.0
  0
ARC
  5
241E
330
18
100
AcDbEntity
  8
1
  6
Continuous
100
AcDbCircle
 10
196.7754939570971
 20
364.9818073251442
 30
0.0
 40
2.0
100
AcDbArc
 50
149.173474293605
 51
180.0
  0
LINE
  5
241F
330
18
100
AcDbEntity
  8
1
  6
Continuous
100
AcDbLine
 10
194.7754939570972
 20
364.9818073251442
 30
0.0
 11
194.7754939570972
 21
364.5066882748256
 31
0.0
  0
LINE
  5
2420
330
18
100
AcDbEntity
  8
1
  6
Continuous
100
AcDbLine
 10
223.2754939570972
 20
366.5066882748256
 30
0.0
 11
223.2754939570972
 21
373.5066882748256
 31
0.0
  0
LINE
  5
2421
330
18
100
AcDbEntity
  8
1
  6
Continuous
100
AcDbLine
 10
211.7126650006161
 20
366.0066882748256
 30
0.0
 11
222.7754939570972
 21
366.0066882748256
 31
0.0
  0
LINE
  5
2422
330
18
100
AcDbEntity
  8
1
  6
Continuous
100
AcDbLine
 10
213.8995323617332
 20
364.5066882748256
 30
0.0
 11
222.7754939570972
 21
364.5066882748256
 31
0.0
  0
ARC
  5
2423
330
18
100
AcDbEntity
  8
1
  6
Continuous
100
AcDbCircle
 10
222.7754939570972
 20
366.5066882748256
 30
0.0
 40
0.5
100
AcDbArc
 50
270.0
 51
0.0
  0
ARC
  5
2424
330
18
100
AcDbEntity
  8
1
  6
Continuous
100
AcDbCircle
 10
222.7754939570972
 20
364.0066882748256
 30
0.0
 40
0.5
100
AcDbArc
 50
0.0
 51
90.0
  0
ARC
  5
2425
330
18
100
AcDbEntity
  8
1
  6
Continuous
100
AcDbCircle
 10
220.2754939570972
 20
373.5066882748256
 30
0.0
 40
3.0
100
AcDbArc
 50
0.0
 51
90.0
  0
LINE
  5
25BA
330
18
100
AcDbEntity
  8
4
  6
CENTER
 48
0.5
100
AcDbLine
 10
205.7754939570972
 20
80.72772352350176
 30
0.0
 11
205.7754939570972
 21
45.72772352350177
 31
0.0
  0
LINE
  5
272E
330
18
100
AcDbEntity
  8
2
  6
Continuous
100
AcDbLine
 10
35.99537209830498
 20
248.6172058991644
 30
0.0
 11
35.99537209830498
 21
261.5642058991644
 31
0.0
  0
LINE
  5
2745
330
18
100
AcDbEntity
  8
1
  6
Continuous
100
AcDbLine
 10
199.7754939570969
 20
248.6172058991642
 30
0.0
 11
211.7754939570969
 21
248.6172058991643
 31
0.0
  0
LINE
  5
2746
330
18
100
AcDbEntity
  8
1
  6
Continuous
100
AcDbLine
 10
199.7754939570969
 20
260.6172058991642
 30
0.0
 11
211.7754939570969
 21
260.6172058991642
 31
0.0
  0
LINE
  5
2747
330
18
100
AcDbEntity
  8
1
  6
Continuous
100
AcDbLine
 10
200.7754939570969
 20
261.6172058991642
 30
0.0
 11
210.7754939570969
 21
261.6172058991642
 31
0.0
  0
LINE
  5
2748
330
18
100
AcDbEntity
  8
2
  6
Continuous
100
AcDbLine
 10
200.7224939570969
 20
248.6172058991642
 30
0.0
 11
200.7224939570969
 21
261.5642058991642
 31
0.0
  0
LINE
  5
2749
330
18
100
AcDbEntity
  8
1
  6
Continuous
100
AcDbLine
 10
199.7754939570969
 20
247.6172058991642
 30
0.0
 11
199.7754939570969
 21
260.6172058991642
 31
0.0
  0
LINE
  5
274A
330
18
100
AcDbEntity
  8
1
  6
Continuous
100
AcDbLine
 10
199.7754939570969
 20
260.6172058991642
 30
0.0
 11
200.7754939570969
 21
261.6172058991642
 31
0.0
  0
LINE
  5
274B
330
18
100
AcDbEntity
  8
2
  6
Continuous
100
AcDbLine
 10
210.8284939570969
 20
248.6172058991642
 30
0.0
 11
210.8284939570969
 21
261.5642058991642
 31
0.0
  0
LINE
  5
274C
330
18
100
AcDbEntity
  8
1
  6
Continuous
100
AcDbLine
 10
211.7754939570969
 20
260.6172058991642
 30
0.0
 11
211.7754939570969
 21
247.6172058991642
 31
0.0
  0
LINE
  5
274D
330
18
100
AcDbEntity
  8
1
  6
Continuous
100
AcDbLine
 10
210.7754939570969
 20
261.6172058991642
 30
0.0
 11
211.7754939570969
 21
260.6172058991642
 31
0.0
  0
LINE
  5
2783
330
18
100
AcDbEntity
  8
1
  6
Continuous
100
AcDbLine
 10
327.7921418110195
 20
261.6172058991644
 30
0.0
 11
337.7921418110195
 21
261.6172058991644
 31
0.0
  0
LINE
  5
2784
330
18
100
AcDbEntity
  8
1
  6
Continuous
100
AcDbLine
 10
326.7921418110195
 20
260.6172058991644
 30
0.0
 11
338.7921418110195
 21
260.6172058991644
 31
0.0
  0
LINE
  5
2785
330
18
100
AcDbEntity
  8
1
  6
Continuous
100
AcDbLine
 10
326.7921418110195
 20
248.6172058991644
 30
0.0
 11
338.7921418110195
 21
248.6172058991645
 31
0.0
  0
LINE
  5
2786
330
18
100
AcDbEntity
  8
1
  6
Continuous
100
AcDbLine
 10
326.7921418110195
 20
247.6172058991644
 30
0.0
 11
326.7921418110195
 21
260.6172058991644
 31
0.0
  0
LINE
  5
2787
330
18
100
AcDbEntity
  8
2
  6
Continuous
100
AcDbLine
 10
327.7391418110195
 20
248.6172058991644
 30
0.0
 11
327.7391418110195
 21
261.5642058991644
 31
0.0
  0
LINE
  5
2788
330
18
100
AcDbEntity
  8
1
  6
Continuous
100
AcDbLine
 10
326.7921418110195
 20
260.6172058991644
 30
0.0
 11
327.7921418110195
 21
261.6172058991644
 31
0.0
  0
LINE
  5
2789
330
18
100
AcDbEntity
  8
1
  6
Continuous
100
AcDbLine
 10
338.7921418110195
 20
260.6172058991644
 30
0.0
 11
338.7921418110195
 21
247.6172058991644
 31
0.0
  0
LINE
  5
278A
330
18
100
AcDbEntity
  8
2
  6
Continuous
100
AcDbLine
 10
337.8451418110195
 20
248.6172058991644
 30
0.0
 11
337.8451418110195
 21
261.5642058991644
 31
0.0
  0
LINE
  5
278B
330
18
100
AcDbEntity
  8
1
  6
Continuous
100
AcDbLine
 10
337.7921418110195
 20
261.6172058991644
 30
0.0
 11
338.7921418110195
 21
260.6172058991644
 31
0.0
  0
LINE
  5
27C5
330
18
100
AcDbEntity
  8
1
  6
Continuous
100
AcDbLine
 10
465.808789664942
 20
247.6172058991642
 30
0.0
 11
465.808789664942
 21
260.6172058991642
 31
0.0
  0
LINE
  5
27C6
330
18
100
AcDbEntity
  8
2
  6
Continuous
100
AcDbLine
 10
464.8617896649421
 20
248.6172058991642
 30
0.0
 11
464.8617896649421
 21
261.5642058991642
 31
0.0
  0
LINE
  5
27C7
330
18
100
AcDbEntity
  8
1
  6
Continuous
100
AcDbLine
 10
465.808789664942
 20
260.6172058991642
 30
0.0
 11
464.808789664942
 21
261.6172058991642
 31
0.0
  0
LINE
  5
27C8
330
18
100
AcDbEntity
  8
1
  6
Continuous
100
AcDbLine
 10
465.808789664942
 20
248.6172058991642
 30
0.0
 11
453.8087896649421
 21
248.6172058991643
 31
0.0
  0
LINE
  5
27C9
330
18
100
AcDbEntity
  8
1
  6
Continuous
100
AcDbLine
 10
464.808789664942
 20
261.6172058991642
 30
0.0
 11
454.8087896649421
 21
261.6172058991642
 31
0.0
  0
LINE
  5
27CA
330
18
100
AcDbEntity
  8
1
  6
Continuous
100
AcDbLine
 10
465.808789664942
 20
260.6172058991642
 30
0.0
 11
453.8087896649421
 21
260.6172058991642
 31
0.0
  0
LINE
  5
27CB
330
18
100
AcDbEntity
  8
1
  6
Continuous
100
AcDbLine
 10
453.8087896649421
 20
260.6172058991642
 30
0.0
 11
453.8087896649421
 21
247.6172058991642
 31
0.0
  0
LINE
  5
27CC
330
18
100
AcDbEntity
  8
2
  6
Continuous
100
AcDbLine
 10
454.755789664942
 20
248.6172058991642
 30
0.0
 11
454.755789664942
 21
261.5642058991642
 31
0.0
  0
LINE
  5
27CD
330
18
100
AcDbEntity
  8
1
  6
Continuous
100
AcDbLine
 10
454.8087896649421
 20
261.6172058991642
 30
0.0
 11
453.8087896649421
 21
260.6172058991642
 31
0.0
  0
LINE
  5
283F
330
18
100
AcDbEntity
  8
1
  6
Continuous
100
AcDbLine
 10
216.7754939570981
 20
39.72772352350193
 30
0.0
 11
154.7754939570971
 21
39.72772352350193
 31
0.0
  0
LINE
  5
2840
330
18
100
AcDbEntity
  8
1
  6
Continuous
100
AcDbLine
 10
216.7754939570981
 20
86.72772352350182
 30
0.0
 11
154.7754939570971
 21
86.72772352350182
 31
0.0
  0
ARC
  5
2847
330
18
100
AcDbEntity
  8
1
  6
Continuous
100
AcDbCircle
 10
152.5838564283157
 20
39.53608599472062
 30
0.0
 40
2.199999999999988
100
AcDbArc
 50
4.997252236942351
 51
85.0027477630609
  0
ARC
  5
284A
330
18
100
AcDbEntity
  8
1
  6
Continuous
100
AcDbCircle
 10
152.5838564283157
 20
86.91936105228313
 30
0.0
 40
2.199999999999988
100
AcDbArc
 50
274.997252236939
 51
355.0027477630576
  0
ARC
  5
284C
330
18
100
AcDbEntity
  8
1
  6
Continuous
100
AcDbCircle
 10
218.9671314858786
 20
39.53608599472057
 30
0.0
 40
2.199999999999988
100
AcDbArc
 50
94.99725223693586
 51
175.0027477630544
  0
ARC
  5
284D
330
18
100
AcDbEntity
  8
1
  6
Continuous
100
AcDbCircle
 10
218.9671314858786
 20
86.91936105228306
 30
0.0
 40
2.199999999999988
100
AcDbArc
 50
184.9972522369455
 51
265.0027477630608
  0
LINE
  5
284E
330
18
100
AcDbEntity
  8
1
  6
Continuous
100
AcDbLine
 10
309.2921418110195
 20
231.6172058991656
 30
0.0
 11
309.2921418110195
 21
169.6172058991646
 31
0.0
  0
ARC
  5
284F
330
18
100
AcDbEntity
  8
1
  6
Continuous
100
AcDbCircle
 10
309.1005042822382
 20
167.4255683703833
 30
0.0
 40
2.199999999999988
100
AcDbArc
 50
4.997252236939108
 51
85.00274776305765
  0
ARC
  5
2850
330
18
100
AcDbEntity
  8
1
  6
Continuous
100
AcDbCircle
 10
309.1005042822382
 20
233.8088434279461
 30
0.0
 40
2.199999999999988
100
AcDbArc
 50
274.9972522369456
 51
355.0027477630608
  0
LINE
  5
2851
330
18
100
AcDbEntity
  8
1
  6
Continuous
100
AcDbLine
 10
356.2921418110193
 20
231.6172058991656
 30
0.0
 11
356.2921418110193
 21
169.6172058991646
 31
0.0
  0
ARC
  5
2852
330
18
100
AcDbEntity
  8
1
  6
Continuous
100
AcDbCircle
 10
356.4837793398007
 20
167.4255683703833
 30
0.0
 40
2.199999999999988
100
AcDbArc
 50
94.99725223694237
 51
175.0027477630608
  0
ARC
  5
2853
330
18
100
AcDbEntity
  8
1
  6
Continuous
100
AcDbCircle
 10
356.4837793398007
 20
233.8088434279461
 30
0.0
 40
2.199999999999988
100
AcDbArc
 50
184.9972522369358
 51
265.0027477630544
  0
LINE
  5
2854
330
18
100
AcDbEntity
  8
1
  6
Continuous
100
AcDbLine
 10
17.54837209830503
 20
231.6172058991656
 30
0.0
 11
17.54837209830503
 21
169.6172058991646
 31
0.0
  0
ARC
  5
2855
330
18
100
AcDbEntity
  8
1
  6
Continuous
100
AcDbCircle
 10
17.35673456952372
 20
167.4255683703833
 30
0.0
 40
2.199999999999988
100
AcDbArc
 50
4.997252236939108
 51
85.00274776305765
  0
ARC
  5
2856
330
18
100
AcDbEntity
  8
1
  6
Continuous
100
AcDbCircle
 10
17.35673456952372
 20
233.8088434279461
 30
0.0
 40
2.199999999999988
100
AcDbArc
 50
274.9972522369456
 51
355.0027477630608
  0
LINE
  5
2857
330
18
100
AcDbEntity
  8
1
  6
Continuous
100
AcDbLine
 10
64.54837209830492
 20
231.6172058991656
 30
0.0
 11
64.54837209830492
 21
169.6172058991646
 31
0.0
  0
ARC
  5
2858
330
18
100
AcDbEntity
  8
1
  6
Continuous
100
AcDbCircle
 10
64.74000962708624
 20
167.4255683703833
 30
0.0
 40
2.199999999999988
100
AcDbArc
 50
94.99725223694237
 51
175.0027477630608
  0
ARC
  5
2859
330
18
100
AcDbEntity
  8
1
  6
Continuous
100
AcDbCircle
 10
64.74000962708624
 20
233.8088434279461
 30
0.0
 40
2.199999999999988
100
AcDbArc
 50
184.9972522369358
 51
265.0027477630544
  0
LINE
  5
285A
330
18
100
AcDbEntity
  8
1
  6
Continuous
100
AcDbLine
 10
216.7754939570981
 20
378.5066882748256
 30
0.0
 11
154.7754939570971
 21
378.5066882748256
 31
0.0
  0
ARC
  5
285B
330
18
100
AcDbEntity
  8
1
  6
Continuous
100
AcDbCircle
 10
152.5838564283157
 20
378.6983258036069
 30
0.0
 40
2.199999999999988
100
AcDbArc
 50
274.997252236939
 51
355.0027477630576
  0
ARC
  5
285C
330
18
100
AcDbEntity
  8
1
  6
Continuous
100
AcDbCircle
 10
218.9671314858786
 20
378.6983258036069
 30
0.0
 40
2.199999999999988
100
AcDbArc
 50
184.9972522369455
 51
265.0027477630608
  0
LINE
  5
285D
330
18
100
AcDbEntity
  8
1
  6
Continuous
100
AcDbLine
 10
216.7754939570981
 20
331.5066882748257
 30
0.0
 11
154.7754939570971
 21
331.5066882748257
 31
0.0
  0
ARC
  5
285E
330
18
100
AcDbEntity
  8
1
  6
Continuous
100
AcDbCircle
 10
152.5838564283157
 20
331.3150507460444
 30
0.0
 40
2.199999999999988
100
AcDbArc
 50
4.997252236942351
 51
85.0027477630609
  0
ARC
  5
285F
330
18
100
AcDbEntity
  8
1
  6
Continuous
100
AcDbCircle
 10
218.9671314858786
 20
331.3150507460444
 30
0.0
 40
2.199999999999988
100
AcDbArc
 50
94.99725223693586
 51
175.0027477630544
  0
ARC
  5
2921
330
18
100
AcDbEntity
  8
1
  6
Continuous
100
AcDbCircle
 10
205.7754932624378
 20
355.0066882748255
 30
0.0
 40
9.0
100
AcDbArc
 50
289.1881359999457
 51
70.81186399991633
  0
ARC
  5
2922
330
18
100
AcDbEntity
  8
1
  6
Continuous
100
AcDbCircle
 10
206.1297419570968
 20
355.0066882748255
 30
0.0
 40
10.0
100
AcDbArc
 50
301.7883306170502
 51
58.21166938294976
  0
LINE
  5
2924
330
18
100
AcDbEntity
  8
1
  6
Continuous
100
AcDbLine
 10
200.5076669570972
 20
363.5066882748255
 30
0.0
 11
211.3975688335231
 21
363.5066882748255
 31
0.0
  0
ARC
  5
2925
330
18
100
AcDbEntity
  8
1
  6
Continuous
100
AcDbCircle
 10
205.7754939570972
 20
355.0066882748255
 30
0.0
 40
9.0
100
AcDbArc
 50
109.1881359999806
 51
250.8118639999503
  0
ARC
  5
2926
330
18
100
AcDbEntity
  8
1
  6
Continuous
100
AcDbCircle
 10
205.7754939570972
 20
355.0066882748255
 30
0.0
 40
10.0
100
AcDbArc
 50
121.7883309999745
 51
238.2116693829497
  0
LINE
  5
2927
330
18
100
AcDbEntity
  8
1
  6
Continuous
100
AcDbLine
 10
211.3975688335231
 20
346.5066882748256
 30
0.0
 11
200.5076670806708
 21
346.5066882748256
 31
0.0
  0
ARC
  5
2949
330
18
100
AcDbEntity
  8
1
  6
Continuous
100
AcDbCircle
 10
205.7754939570972
 20
63.22772352350192
 30
0.0
 40
6.25
100
AcDbArc
 50
20.35440639823727
 51
339.6455936017631
  0
LINE
  5
294A
330
18
100
AcDbEntity
  8
1
  6
Continuous
100
AcDbLine
 10
211.1664586203091
 20
64.72772352350194
 30
0.0
 11
208.9509204376401
 21
64.72772352350194
 31
0.0
  0
ARC
  5
294B
330
18
100
AcDbEntity
  8
1
  6
Continuous
100
AcDbCircle
 10
211.1664586203092
 20
65.22772352350194
 30
0.0
 40
0.5
100
AcDbArc
 50
269.9999999999967
 51
20.35440639823764
  0
LINE
  5
294C
330
18
100
AcDbEntity
  8
1
  6
Continuous
100
AcDbLine
 10
211.1664586203092
 20
61.72772352350193
 30
0.0
 11
208.9509204376401
 21
61.72772352350194
 31
0.0
  0
ARC
  5
294D
330
18
100
AcDbEntity
  8
1
  6
Continuous
100
AcDbCircle
 10
211.1664586203092
 20
61.22772352350192
 30
0.0
 40
0.5
100
AcDbArc
 50
339.6455936017631
 51
90.0
  0
LINE
  5
2A3D
330
18
100
AcDbEntity
  8
1
  6
Continuous
100
AcDbLine
 10
169.7754939570979
 20
364.0066882748257
 30
0.0
 11
169.7754939570979
 21
346.0066882748258
 31
0.0
  0
ARC
  5
2A3E
330
18
100
AcDbEntity
  8
1
  6
Continuous
100
AcDbCircle
 10
170.2754939570979
 20
346.0066882748258
 30
0.0
 40
0.5
100
AcDbArc
 50
180.0
 51
270.0
  0
ARC
  5
2A3F
330
18
100
AcDbEntity
  8
1
  6
Continuous
100
AcDbCircle
 10
170.2754939570979
 20
364.0066882748257
 30
0.0
 40
0.5
100
AcDbArc
 50
90.0
 51
180.0
  0
ENDSEC
  0
SECTION
  2
OBJECTS
  0
DICTIONARY
  5
C
330
0
100
AcDbDictionary
281
     1
  3
ACAD_CIP_PREVIOUS_PRODUCT_INFO
350
2A9F
  3
ACAD_COLOR
350
2A82
  3
ACAD_DETAILVIEWSTYLE
350
2A9B
  3
ACAD_GROUP
350
D
  3
ACAD_LAYOUT
350
94
  3
ACAD_MATERIAL
350
2A50
  3
ACAD_MLEADERSTYLE
350
2A97
  3
ACAD_MLINESTYLE
350
1B
  3
ACAD_PLOTSETTINGS
350
95
  3
ACAD_PLOTSTYLENAME
350
2A4E
  3
ACAD_SCALELIST
350
2A85
  3
ACAD_SECTIONVIEWSTYLE
350
2A99
  3
ACAD_TABLESTYLE
350
2A83
  3
ACAD_VISUALSTYLE
350
2A69
  3
ACDB_RECOMPOSE_DATA
350
2BEA
  3
AcDbVariableDictionary
350
2AC2
  3
CONTENTDICTIONARY
350
3D
  3
DWGPROPS
350
2BEB
  0
DICTIONARY
  5
2B54
330
8
100
AcDbDictionary
280
     1
281
     1
  0
DICTIONARY
  5
2AB2
330
E
100
AcDbDictionary
280
     1
281
     1
  3
ADSK_XREC_LAYER_RECONCILED
360
2AB3
  0
DICTIONARY
  5
2AB4
330
4E
100
AcDbDictionary
280
     1
281
     1
  3
ADSK_XREC_LAYER_RECONCILED
360
2AB5
  0
DICTIONARY
  5
2AB6
330
4F
100
AcDbDictionary
280
     1
281
     1
  3
ADSK_XREC_LAYER_RECONCILED
360
2AB7
  0
DICTIONARY
  5
2AB8
330
50
100
AcDbDictionary
280
     1
281
     1
  3
ADSK_XREC_LAYER_RECONCILED
360
2AB9
  0
DICTIONARY
  5
2ABA
330
51
100
AcDbDictionary
280
     1
281
     1
  3
ADSK_XREC_LAYER_RECONCILED
360
2ABB
  0
DICTIONARY
  5
2ABC
330
52
100
AcDbDictionary
280
     1
281
     1
  3
ADSK_XREC_LAYER_RECONCILED
360
2ABD
  0
DICTIONARY
  5
2ABE
330
53
100
AcDbDictionary
280
     1
281
     1
  3
ADSK_XREC_LAYER_RECONCILED
360
2ABF
  0
DICTIONARY
  5
2AC0
330
54
100
AcDbDictionary
280
     1
281
     1
  3
ADSK_XREC_LAYER_RECONCILED
360
2AC1
  0
DICTIONARY
  5
2A49
330
18
100
AcDbDictionary
280
     1
281
     1
  3
ACAD_LAYOUTSELFREF
360
2A4A
  0
DICTIONARY
  5
2A47
330
15
100
AcDbDictionary
280
     1
281
     1
  3
ACAD_LAYOUTSELFREF
360
2A48
  0
XRECORD
  5
2A9F
102
{ACAD_REACTORS
330
C
102
}
330
C
100
AcDbXrecord
280
     1
300
ACDLT
300
2014
300
ACDLT_F_S
  0
DICTIONARY
  5
2A82
102
{ACAD_REACTORS
330
C
102
}
330
C
100
AcDbDictionary
281
     1
  0
DICTIONARY
  5
2A9B
102
{ACAD_REACTORS
330
C
102
}
330
C
100
AcDbDictionary
281
     1
  3
Imperial24
350
2A9C
  0
DICTIONARY
  5
D
102
{ACAD_REACTORS
330
C
102
}
330
C
100
AcDbDictionary
281
     1
  0
DICTIONARY
  5
94
102
{ACAD_REACTORS
330
C
102
}
330
C
100
AcDbDictionary
281
     1
  3
Model
350
2A9D
  3
レイアウト1
350
2A9E
  0
DICTIONARY
  5
2A50
102
{ACAD_REACTORS
330
C
102
}
330
C
100
AcDbDictionary
281
     1
  3
ByBlock
350
2A59
  3
ByLayer
350
2A51
  3
Global
350
2A61
  0
DICTIONARY
  5
2A97
102
{ACAD_REACTORS
330
C
102
}
330
C
100
AcDbDictionary
281
     1
  3
Standard
350
2A98
  0
DICTIONARY
  5
1B
102
{ACAD_REACTORS
330
C
102
}
330
C
100
AcDbDictionary
281
     1
  3
STANDARD
350
1C
  0
DICTIONARY
  5
95
102
{ACAD_REACTORS
330
C
102
}
330
C
100
AcDbDictionary
281
     1
  0
ACDBDICTIONARYWDFLT
  5
2A4E
102
{ACAD_REACTORS
330
C
102
}
330
C
100
AcDbDictionary
281
     1
  3
Normal
350
2A4F
100
AcDbDictionaryWithDefault
340
2A4F
  0
DICTIONARY
  5
2A85
102
{ACAD_REACTORS
330
C
102
}
330
C
100
AcDbDictionary
281
     1
  3
A0
350
2A86
  3
A1
350
2A87
  3
A2
350
2A88
  3
A3
350
2A89
  3
A4
350
2A8A
  3
A5
350
2A8B
  3
A6
350
2A8C
  3
A7
350
2A8D
  3
A8
350
2A8E
  3
A9
350
2A8F
  3
B0
350
2A90
  3
B1
350
2A91
  3
B2
350
2A92
  3
B3
350
2A93
  3
B4
350
2A94
  3
B5
350
2A95
  3
B6
350
2A96
  0
DICTIONARY
  5
2A99
102
{ACAD_REACTORS
330
C
102
}
330
C
100
AcDbDictionary
281
     1
  3
Imperial24
350
2A9A
  0
DICTIONARY
  5
2A83
102
{ACAD_REACTORS
330
C
102
}
330
C
100
AcDbDictionary
281
     1
  3
Standard
350
2A84
  0
DICTIONARY
  5
2A69
102
{ACAD_REACTORS
330
C
102
}
330
C
100
AcDbDictionary
281
     1
  3
2dWireframe
350
2A6F
  3
Basic
350
2A6E
  3
Brighten
350
2A75
  3
ColorChange
350
2A79
  3
Conceptual
350
2A72
  3
Dim
350
2A74
  3
EdgeColorOff
350
2A81
  3
Facepattern
350
2A78
  3
Flat
350
2A6A
  3
FlatWithEdges
350
2A6B
  3
Gouraud
350
2A6C
  3
GouraudWithEdges
350
2A6D
  3
Hidden
350
2A71
  3
JitterOff
350
2A7F
  3
Linepattern
350
2A77
  3
OverhangOff
350
2A80
  3
Realistic
350
2A73
  3
Shaded
350
2A7E
  3
Shaded with edges
350
2A7D
  3
Shades of Gray
350
2A7A
  3
Sketchy
350
2A7B
  3
Thicken
350
2A76
  3
Wireframe
350
2A70
  3
X-Ray
350
2A7C
  0
XRECORD
  5
2BEA
102
{ACAD_REACTORS
330
C
102
}
330
C
100
AcDbXrecord
280
     1
 90
        1
330
2A84
  0
DICTIONARY
  5
2AC2
102
{ACAD_REACTORS
330
C
102
}
330
C
100
AcDbDictionary
281
     1
  3
CANNOSCALE
350
2AC7
  3
CMLEADERSTYLE
350
2AC4
  3
CTABLESTYLE
350
2AC3
  3
CVIEWDETAILSTYLE
350
2AC5
  3
CVIEWSECTIONSTYLE
350
2AC6
  3
DIMASSOC
350
2ACA
  3
INDEXCTL
350
2AC9
  3
SORTENTS
350
2AC8
  3
XCLIPFRAME
350
2BE8
  0
DICTIONARY
  5
3D
102
{ACAD_REACTORS
330
C
102
}
330
C
100
AcDbDictionary
281
     1
  0
XRECORD
  5
2BEB
102
{ACAD_REACTORS
330
C
102
}
330
C
100
AcDbXrecord
280
     1
  1
DWGPROPS COOKIE
  2

  3

  4

  6

  7

  8
Yoshitsune
  9

300
=
301
=
302
=
303
=
304
=
305
=
306
=
307
=
308
=
309
=
 40
0.2402829398148148
 41
2454525.614958576
 42
2457497.641629723
  1

 90
        0
  0
XRECORD
  5
2AB3
102
{ACAD_REACTORS
330
2AB2
102
}
330
2AB2
100
AcDbXrecord
280
     1
290
     1
  0
XRECORD
  5
2AB5
102
{ACAD_REACTORS
330
2AB4
102
}
330
2AB4
100
AcDbXrecord
280
     1
290
     1
  0
XRECORD
  5
2AB7
102
{ACAD_REACTORS
330
2AB6
102
}
330
2AB6
100
AcDbXrecord
280
     1
290
     1
  0
XRECORD
  5
2AB9
102
{ACAD_REACTORS
330
2AB8
102
}
330
2AB8
100
AcDbXrecord
280
     1
290
     1
  0
XRECORD
  5
2ABB
102
{ACAD_REACTORS
330
2ABA
102
}
330
2ABA
100
AcDbXrecord
280
     1
290
     1
  0
XRECORD
  5
2ABD
102
{ACAD_REACTORS
330
2ABC
102
}
330
2ABC
100
AcDbXrecord
280
     1
290
     1
  0
XRECORD
  5
2ABF
102
{ACAD_REACTORS
330
2ABE
102
}
330
2ABE
100
AcDbXrecord
280
     1
290
     1
  0
XRECORD
  5
2AC1
102
{ACAD_REACTORS
330
2AC0
102
}
330
2AC0
100
AcDbXrecord
280
     1
290
     1
  0
XRECORD
  5
2A4A
102
{ACAD_REACTORS
330
2A49
102
}
330
2A49
100
AcDbXrecord
280
     1
340
18
  0
XRECORD
  5
2A48
102
{ACAD_REACTORS
330
2A47
102
}
330
2A47
100
AcDbXrecord
280
     1
340
15
  0
ACDBDETAILVIEWSTYLE
  5
2A9C
102
{ACAD_XDICTIONARY
360
2C22
102
}
102
{ACAD_REACTORS
330
2A9B
102
}
330
2A9B
100
AcDbModelDocViewStyle
 70
     0
  3
Imperial24
290
     0
100
AcDbDetailViewStyle
 70
     0
 71
     0
 90
        3
 71
     1
340
F
 40
0.24
340
0
 40
0.24
300

 40
0.36
280
     3
 71
     2
340
14
 90
       25
 71
     3
340
F
 40
0.24
 90
        1
 40
0.75
 90
        1
300
%<\AcVar ViewType \f "%tc1">% %<\AcVar ViewDetailId>%\PSCALE %<\AcVar ViewScale \f "%sn">%
 71
     4
340
14
 90
       25
340
14
 90
       25
280
     0
  0
LAYOUT
  5
2A9D
102
{ACAD_XDICTIONARY
360
2C24
102
}
102
{ACAD_REACTORS
330
94
102
}
330
94
100
AcDbPlotSettings
  1

  2
Canon LBP9100C
  4
A4
  6

 40
5.789083003997802
 41
5.7890625
 42
5.789077758789062
 43
5.789093017578125
 44
209.9733276367187
 45
296.9259948730469
 46
0.0
 47
0.0
 48
0.0
 49
0.0
140
0.0
141
0.0
142
1.0
143
2.120219313265338
 70
 11952
 72
     1
 73
     1
 74
     2
  7
std_栃木屋様.ctb
 75
     0
147
0.4716493212487086
148
-0.0000015376081137
149
0.0000001931532552
100
AcDbLayout
  1
Model
 70
     1
 71
     0
 10
0.0
 20
0.0
 11
12.0
 21
9.0
 12
0.0
 22
0.0
 32
0.0
 14
0.0
 24
0.0
 34
0.0
 15
0.0
 25
0.0
 35
0.0
146
0.0
 13
0.0
 23
0.0
 33
0.0
 16
1.0
 26
0.0
 36
0.0
 17
0.0
 27
1.0
 37
0.0
 76
     0
330
18
331
2A46
1001
ACAD_PSEXT
1000
Canon LBP9100C
1000
Canon LBP9100C
1000
USB001
1000

1070
     0
  0
LAYOUT
  5
2A9E
102
{ACAD_XDICTIONARY
360
2C26
102
}
102
{ACAD_REACTORS
330
94
102
}
330
94
100
AcDbPlotSettings
  1

  2
Canon LBP9100C
  4

  6

 40
0.0
 41
0.0
 42
0.0
 43
0.0
 44
0.0
 45
0.0
 46
0.0
 47
0.0
 48
0.0
 49
0.0
140
0.0
141
0.0
142
1.0
143
1.0
 70
   688
 72
     0
 73
     0
 74
     5
  7

 75
    16
147
1.0
148
0.0
149
0.0
100
AcDbLayout
  1
レイアウト1
 70
     1
 71
     1
 10
0.0
 20
0.0
 11
420.0
 21
297.0
 12
0.0
 22
0.0
 32
0.0
 14
1.000000000000000E+20
 24
1.000000000000000E+20
 34
1.000000000000000E+20
 15
-1.000000000000000E+20
 25
-1.000000000000000E+20
 35
-1.000000000000000E+20
146
0.0
 13
0.0
 23
0.0
 33
0.0
 16
1.0
 26
0.0
 36
0.0
 17
0.0
 27
1.0
 37
0.0
 76
     0
330
15
  0
MATERIAL
  5
2A59
102
{ACAD_XDICTIONARY
360
2A5A
102
}
102
{ACAD_REACTORS
330
2A50
102
}
330
2A50
100
AcDbMaterial
  1
ByBlock
 72
     0
 43
0.0208333333333333
 43
0.0
 43
0.0
 43
0.0
 43
0.0
 43
0.0208333333333333
 43
0.0
 43
0.0
 43
0.0
 43
0.0
 43
1.0
 43
0.0
 43
0.0
 43
0.0
 43
0.0
 43
1.0
 77
     0
 47
0.0208333333333333
 47
0.0
 47
0.0
 47
0.0
 47
0.0
 47
0.0208333333333333
 47
0.0
 47
0.0
 47
0.0
 47
0.0
 47
1.0
 47
0.0
 47
0.0
 47
0.0
 47
0.0
 47
1.0
171
     0
 49
0.0208333333333333
 49
0.0
 49
0.0
 49
0.0
 49
0.0
 49
0.0208333333333333
 49
0.0
 49
0.0
 49
0.0
 49
0.0
 49
1.0
 49
0.0
 49
0.0
 49
0.0
 49
0.0
 49
1.0
175
     0
142
0.0208333333333333
142
0.0
142
0.0
142
0.0
142
0.0
142
0.0208333333333333
142
0.0
142
0.0
142
0.0
142
0.0
142
1.0
142
0.0
142
0.0
142
0.0
142
0.0
142
1.0
179
     0
144
0.0208333333333333
144
0.0
144
0.0
144
0.0
144
0.0
144
0.0208333333333333
144
0.0
144
0.0
144
0.0
144
0.0
144
1.0
144
0.0
144
0.0
144
0.0
144
0.0
144
1.0
147
0.0208333333333333
147
0.0
147
0.0
147
0.0
147
0.0
147
0.0208333333333333
147
0.0
147
0.0
147
0.0
147
0.0
147
1.0
147
0.0
147
0.0
147
0.0
147
0.0
147
1.0
  0
MATERIAL
  5
2A51
102
{ACAD_XDICTIONARY
360
2A52
102
}
102
{ACAD_REACTORS
330
2A50
102
}
330
2A50
100
AcDbMaterial
  1
ByLayer
 72
     0
 43
0.0208333333333333
 43
0.0
 43
0.0
 43
0.0
 43
0.0
 43
0.0208333333333333
 43
0.0
 43
0.0
 43
0.0
 43
0.0
 43
1.0
 43
0.0
 43
0.0
 43
0.0
 43
0.0
 43
1.0
 77
     0
 47
0.0208333333333333
 47
0.0
 47
0.0
 47
0.0
 47
0.0
 47
0.0208333333333333
 47
0.0
 47
0.0
 47
0.0
 47
0.0
 47
1.0
 47
0.0
 47
0.0
 47
0.0
 47
0.0
 47
1.0
171
     0
 49
0.0208333333333333
 49
0.0
 49
0.0
 49
0.0
 49
0.0
 49
0.0208333333333333
 49
0.0
 49
0.0
 49
0.0
 49
0.0
 49
1.0
 49
0.0
 49
0.0
 49
0.0
 49
0.0
 49
1.0
175
     0
142
0.0208333333333333
142
0.0
142
0.0
142
0.0
142
0.0
142
0.0208333333333333
142
0.0
142
0.0
142
0.0
142
0.0
142
1.0
142
0.0
142
0.0
142
0.0
142
0.0
142
1.0
179
     0
144
0.0208333333333333
144
0.0
144
0.0
144
0.0
144
0.0
144
0.0208333333333333
144
0.0
144
0.0
144
0.0
144
0.0
144
1.0
144
0.0
144
0.0
144
0.0
144
0.0
144
1.0
147
0.0208333333333333
147
0.0
147
0.0
147
0.0
147
0.0
147
0.0208333333333333
147
0.0
147
0.0
147
0.0
147
0.0
147
1.0
147
0.0
147
0.0
147
0.0
147
0.0
147
1.0
  0
MATERIAL
  5
2A61
102
{ACAD_XDICTIONARY
360
2A62
102
}
102
{ACAD_REACTORS
330
2A50
102
}
330
2A50
100
AcDbMaterial
  1
Global
 72
     0
 43
0.0208333333333333
 43
0.0
 43
0.0
 43
0.0
 43
0.0
 43
0.0208333333333333
 43
0.0
 43
0.0
 43
0.0
 43
0.0
 43
1.0
 43
0.0
 43
0.0
 43
0.0
 43
0.0
 43
1.0
 77
     0
 47
0.0208333333333333
 47
0.0
 47
0.0
 47
0.0
 47
0.0
 47
0.0208333333333333
 47
0.0
 47
0.0
 47
0.0
 47
0.0
 47
1.0
 47
0.0
 47
0.0
 47
0.0
 47
0.0
 47
1.0
171
     0
 49
0.0208333333333333
 49
0.0
 49
0.0
 49
0.0
 49
0.0
 49
0.0208333333333333
 49
0.0
 49
0.0
 49
0.0
 49
0.0
 49
1.0
 49
0.0
 49
0.0
 49
0.0
 49
0.0
 49
1.0
175
     0
142
0.0208333333333333
142
0.0
142
0.0
142
0.0
142
0.0
142
0.0208333333333333
142
0.0
142
0.0
142
0.0
142
0.0
142
1.0
142
0.0
142
0.0
142
0.0
142
0.0
142
1.0
179
     0
144
0.0208333333333333
144
0.0
144
0.0
144
0.0
144
0.0
144
0.0208333333333333
144
0.0
144
0.0
144
0.0
144
0.0
144
1.0
144
0.0
144
0.0
144
0.0
144
0.0
144
1.0
147
0.0208333333333333
147
0.0
147
0.0
147
0.0
147
0.0
147
0.0208333333333333
147
0.0
147
0.0
147
0.0
147
0.0
147
1.0
147
0.0
147
0.0
147
0.0
147
0.0
147
1.0
  0
MLEADERSTYLE
  5
2A98
102
{ACAD_REACTORS
330
2A97
102
}
330
2A97
100
AcDbMLeaderStyle
170
     2
171
     1
172
     0
 90
        2
 40
0.0
 41
0.0
173
     1
 91
-1056964608
340
12
 92
       -2
290
     1
 42
0.09
291
     1
 43
0.36
  3
Standard
 44
0.18
300

342
F
174
     1
178
     6
175
     1
176
     0
 93
-1056964608
 45
0.18
292
     0
297
     0
 46
0.18
 94
-1056964608
 47
1.0
 49
1.0
140
1.0
293
     1
141
0.0
294
     1
177
     0
142
1.0
295
     0
296
     0
143
0.125
1001
ACAD_MLEADERVER
1070
     2
  0
MLINESTYLE
  5
1C
102
{ACAD_REACTORS
330
1B
102
}
330
1B
100
AcDbMlineStyle
  2
STANDARD
 70
     0
  3

 62
   256
 51
90.0
 52
90.0
 71
     2
 49
0.5
 62
   256
  6
BYLAYER
 49
-0.5
 62
   256
  6
BYLAYER
  0
ACDBPLACEHOLDER
  5
2A4F
102
{ACAD_REACTORS
330
2A4E
102
}
330
2A4E
  0
SCALE
  5
2A86
102
{ACAD_REACTORS
330
2A85
102
}
330
2A85
100
AcDbScale
 70
     0
300
1:1
140
1.0
141
1.0
290
     1
  0
SCALE
  5
2A87
102
{ACAD_REACTORS
330
2A85
102
}
330
2A85
100
AcDbScale
 70
     0
300
1/128" = 1'-0"
140
0.0078125
141
12.0
290
     0
  0
SCALE
  5
2A88
102
{ACAD_REACTORS
330
2A85
102
}
330
2A85
100
AcDbScale
 70
     0
300
1/64" = 1'-0"
140
0.015625
141
12.0
290
     0
  0
SCALE
  5
2A89
102
{ACAD_REACTORS
330
2A85
102
}
330
2A85
100
AcDbScale
 70
     0
300
1/32" = 1'-0"
140
0.03125
141
12.0
290
     0
  0
SCALE
  5
2A8A
102
{ACAD_REACTORS
330
2A85
102
}
330
2A85
100
AcDbScale
 70
     0
300
1/16" = 1'-0"
140
0.0625
141
12.0
290
     0
  0
SCALE
  5
2A8B
102
{ACAD_REACTORS
330
2A85
102
}
330
2A85
100
AcDbScale
 70
     0
300
3/32" = 1'-0"
140
0.09375
141
12.0
290
     0
  0
SCALE
  5
2A8C
102
{ACAD_REACTORS
330
2A85
102
}
330
2A85
100
AcDbScale
 70
     0
300
1/8" = 1'-0"
140
0.125
141
12.0
290
     0
  0
SCALE
  5
2A8D
102
{ACAD_REACTORS
330
2A85
102
}
330
2A85
100
AcDbScale
 70
     0
300
3/16" = 1'-0"
140
0.1875
141
12.0
290
     0
  0
SCALE
  5
2A8E
102
{ACAD_REACTORS
330
2A85
102
}
330
2A85
100
AcDbScale
 70
     0
300
1/4" = 1'-0"
140
0.25
141
12.0
290
     0
  0
SCALE
  5
2A8F
102
{ACAD_REACTORS
330
2A85
102
}
330
2A85
100
AcDbScale
 70
     0
300
3/8" = 1'-0"
140
0.375
141
12.0
290
     0
  0
SCALE
  5
2A90
102
{ACAD_REACTORS
330
2A85
102
}
330
2A85
100
AcDbScale
 70
     0
300
1/2" = 1'-0"
140
0.5
141
12.0
290
     0
  0
SCALE
  5
2A91
102
{ACAD_REACTORS
330
2A85
102
}
330
2A85
100
AcDbScale
 70
     0
300
3/4" = 1'-0"
140
0.75
141
12.0
290
     0
  0
SCALE
  5
2A92
102
{ACAD_REACTORS
330
2A85
102
}
330
2A85
100
AcDbScale
 70
     0
300
1" = 1'-0"
140
1.0
141
12.0
290
     0
  0
SCALE
  5
2A93
102
{ACAD_REACTORS
330
2A85
102
}
330
2A85
100
AcDbScale
 70
     0
300
1-1/2" = 1'-0"
140
1.5
141
12.0
290
     0
  0
SCALE
  5
2A94
102
{ACAD_REACTORS
330
2A85
102
}
330
2A85
100
AcDbScale
 70
     0
300
3" = 1'-0"
140
3.0
141
12.0
290
     0
  0
SCALE
  5
2A95
102
{ACAD_REACTORS
330
2A85
102
}
330
2A85
100
AcDbScale
 70
     0
300
6" = 1'-0"
140
6.0
141
12.0
290
     0
  0
SCALE
  5
2A96
102
{ACAD_REACTORS
330
2A85
102
}
330
2A85
100
AcDbScale
 70
     0
300
1'-0" = 1'-0"
140
12.0
141
12.0
290
     0
  0
ACDBSECTIONVIEWSTYLE
  5
2A9A
102
{ACAD_XDICTIONARY
360
2C20
102
}
102
{ACAD_REACTORS
330
2A99
102
}
330
2A99
100
AcDbModelDocViewStyle
 70
     0
  3
Imperial24
290
     0
100
AcDbSectionViewStyle
 70
     0
 71
     0
 90
       78
 71
     1
340
F
 40
0.24
340
0
340
0
 40
0.24
300
I, O, Q, S, X, Z
 40
0.48
 90
        3
 40
0.18
 90
        1
 71
     2
340
14
 90
       25
340
14
 90
       50
 40
0.24
 40
0.0
 40
0.24
 71
     3
340
F
 40
0.24
 90
        1
 40
0.75
 90
        1
300
%<\AcVar ViewType \f "%tc1">% %<\AcVar ViewSectionStartId>%-%<\AcVar ViewSectionEndId>%\PSCALE %<\AcVar ViewScale \f "%sn">%
 71
     4
300
ANSI31
 40
1.0
 90
        0
290
     0
290
     0
 90
        6
 40
0.0
 40
1.570796326794896
 40
0.2617993877991494
 40
1.308996938995747
 40
-0.2617993877991494
 40
1.832595714594044
  0
TABLESTYLE
  5
2A84
102
{ACAD_XDICTIONARY
360
2ACC
102
}
102
{ACAD_REACTORS
330
2A83
102
}
330
2A83
100
AcDbTableStyle
  3
Standard
 70
     0
 71
     0
 40
0.06
 41
0.06
280
     0
281
     0
  7
STANDARD
140
0.18
170
     2
 62
     0
 63
     7
283
     0
274
    -2
284
     1
 64
     0
275
    -2
285
     1
 65
     0
276
    -2
286
     1
 66
     0
277
    -2
287
     1
 67
     0
278
    -2
288
     1
 68
     0
279
    -2
289
     1
 69
     0
  7
STANDARD
140
0.25
170
     5
 62
     0
 63
     7
283
     0
274
    -2
284
     1
 64
     0
275
    -2
285
     1
 65
     0
276
    -2
286
     1
 66
     0
277
    -2
287
     1
 67
     0
278
    -2
288
     1
 68
     0
279
    -2
289
     1
 69
     0
  7
STANDARD
140
0.18
170
     5
 62
     0
 63
     7
283
     0
274
    -2
284
     1
 64
     0
275
    -2
285
     1
 65
     0
276
    -2
286
     1
 66
     0
277
    -2
287
     1
 67
     0
278
    -2
288
     1
 68
     0
279
    -2
289
     1
 69
     0
  0
VISUALSTYLE
  5
2A6F
102
{ACAD_XDICTIONARY
360
2BF9
102
}
102
{ACAD_REACTORS
330
2A69
102
}
330
2A69
100
AcDbVisualStyle
  2

 70
     4
 71
     0
 72
     2
 73
     0
 90
        0
 40
-0.6
 41
-30.0
 62
     5
 63
     7
 74
     1
 91
        4
 64
     7
 65
   257
 75
     1
175
     1
 42
1.0
 92
        0
 66
   257
 43
1.0
 76
     1
 77
     6
 78
     2
 67
     7
 79
     5
170
     0
171
     0
290
     0
174
     0
 93
        1
 44
0.0
173
     0
291
     0
 45
0.0
1001
ACAD
1000
AcDbSavedByObjectVersion
1070
     0
  0
VISUALSTYLE
  5
2A6E
102
{ACAD_XDICTIONARY
360
2BF7
102
}
102
{ACAD_REACTORS
330
2A69
102
}
330
2A69
100
AcDbVisualStyle
  2

 70
     7
 71
     1
 72
     0
 73
     1
 90
        0
 40
-0.6
 41
-30.0
 62
     5
 63
     7
 74
     0
 91
        4
 64
     7
 65
   257
 75
     1
175
     1
 42
1.0
 92
        8
 66
     7
 43
1.0
 76
     1
 77
     6
 78
     2
 67
     7
 79
     5
170
     0
171
     0
290
     0
174
     0
 93
        1
 44
0.0
173
     0
291
     1
 45
0.0
1001
ACAD
1000
AcDbSavedByObjectVersion
1070
     0
  0
VISUALSTYLE
  5
2A75
102
{ACAD_XDICTIONARY
360
2C05
102
}
102
{ACAD_REACTORS
330
2A69
102
}
330
2A69
100
AcDbVisualStyle
  2

 70
    12
 71
     2
 72
     2
 73
     0
 90
        0
 40
-0.6
 41
-30.0
 62
     5
 63
     7
 74
     1
 91
        4
 64
     7
 65
   257
 75
     1
175
     1
 42
1.0
 92
        8
 66
     7
 43
1.0
 76
     1
 77
     6
 78
     2
 67
     7
 79
     5
170
     0
171
     0
290
     0
174
     0
 93
        1
 44
50.0
173
     0
291
     1
 45
0.0
1001
ACAD
1000
AcDbSavedByObjectVersion
1070
     0
  0
VISUALSTYLE
  5
2A79
102
{ACAD_XDICTIONARY
360
2C0D
102
}
102
{ACAD_REACTORS
330
2A69
102
}
330
2A69
100
AcDbVisualStyle
  2

 70
    16
 71
     2
 72
     2
 73
     3
 90
        0
 40
-0.6
 41
-30.0
 62
     5
 63
     8
 74
     1
 91
        4
 64
     7
 65
   257
 75
     1
175
     1
 42
1.0
 92
        8
 66
     8
 43
1.0
 76
     1
 77
     6
 78
     2
 67
     7
 79
     5
170
     0
171
     0
290
     0
174
     0
 93
        1
 44
0.0
173
     0
291
     1
 45
0.0
1001
ACAD
1000
AcDbSavedByObjectVersion
1070
     0
  0
VISUALSTYLE
  5
2A72
102
{ACAD_XDICTIONARY
360
2BFF
102
}
102
{ACAD_REACTORS
330
2A69
102
}
330
2A69
100
AcDbVisualStyle
  2

 70
     9
 71
     3
 72
     2
 73
     0
 90
        0
 40
-0.6
 41
-30.0
 62
     5
 63
     7
 74
     2
 91
        2
 64
     7
 65
   257
 75
     1
175
     1
 42
179.0
 92
        8
 66
     7
 43
1.0
 76
     1
 77
     6
 78
     2
 67
     7
 79
     3
170
     0
171
     0
290
     0
174
     0
 93
        1
 44
0.0
173
     0
291
     0
 45
0.0
1001
ACAD
1000
AcDbSavedByObjectVersion
1070
     0
  0
VISUALSTYLE
  5
2A74
102
{ACAD_XDICTIONARY
360
2C03
102
}
102
{ACAD_REACTORS
330
2A69
102
}
330
2A69
100
AcDbVisualStyle
  2

 70
    11
 71
     2
 72
     2
 73
     0
 90
        0
 40
-0.6
 41
-30.0
 62
     5
 63
     7
 74
     1
 91
        4
 64
     7
 65
   257
 75
     1
175
     1
 42
1.0
 92
        8
 66
     7
 43
1.0
 76
     1
 77
     6
 78
     2
 67
     7
 79
     5
170
     0
171
     0
290
     0
174
     0
 93
        1
 44
-50.0
173
     0
291
     1
 45
0.0
1001
ACAD
1000
AcDbSavedByObjectVersion
1070
     0
  0
VISUALSTYLE
  5
2A81
102
{ACAD_XDICTIONARY
360
2C1D
102
}
102
{ACAD_REACTORS
330
2A69
102
}
330
2A69
100
AcDbVisualStyle
  2

 70
    22
 71
     2
 72
     2
 73
     0
 90
        0
 40
-0.6
 41
-30.0
 62
     5
 63
     7
 74
     1
 91
        4
 64
     7
 65
   257
 75
     1
175
     1
 42
1.0
 92
        8
 66
     7
 43
1.0
 76
     1
 77
     6
 78
     2
 67
     7
 79
     5
170
     0
171
     0
290
     0
174
     0
 93
        1
 44
0.0
173
     0
291
     1
 45
0.0
1001
ACAD
1000
AcDbSavedByObjectVersion
1070
     0
  0
VISUALSTYLE
  5
2A78
102
{ACAD_XDICTIONARY
360
2C0B
102
}
102
{ACAD_REACTORS
330
2A69
102
}
330
2A69
100
AcDbVisualStyle
  2

 70
    15
 71
     2
 72
     2
 73
     0
 90
        0
 40
-0.6
 41
-30.0
 62
     5
 63
     7
 74
     1
 91
        4
 64
     7
 65
   257
 75
     1
175
     1
 42
1.0
 92
        8
 66
     7
 43
1.0
 76
     1
 77
     6
 78
     2
 67
     7
 79
     5
170
     0
171
     0
290
     0
174
     0
 93
        1
 44
0.0
173
     0
291
     1
 45
0.0
1001
ACAD
1000
AcDbSavedByObjectVersion
1070
     0
  0
VISUALSTYLE
  5
2A6A
102
{ACAD_XDICTIONARY
360
2BEF
102
}
102
{ACAD_REACTORS
330
2A69
102
}
330
2A69
100
AcDbVisualStyle
  2

 70
     0
 71
     2
 72
     1
 73
     1
 90
        2
 40
-0.6
 41
30.0
 62
     5
 63
     7
 74
     0
 91
        0
 64
     7
 65
   257
 75
     1
175
     1
 42
1.0
 92
        8
 66
     7
 43
1.0
 76
     1
 77
     6
 78
     2
 67
     7
 79
     5
170
     0
171
     0
290
     0
174
     0
 93
       13
 44
0.0
173
     0
291
     1
 45
0.0
1001
ACAD
1000
AcDbSavedByObjectVersion
1070
     0
  0
VISUALSTYLE
  5
2A6B
102
{ACAD_XDICTIONARY
360
2BF1
102
}
102
{ACAD_REACTORS
330
2A69
102
}
330
2A69
100
AcDbVisualStyle
  2

 70
     1
 71
     2
 72
     1
 73
     1
 90
        2
 40
-0.6
 41
30.0
 62
     5
 63
     7
 74
     1
 91
        0
 64
     7
 65
   257
 75
     1
175
     1
 42
1.0
 92
        0
 66
   257
 43
1.0
 76
     1
 77
     6
 78
     2
 67
     7
 79
     5
170
     0
171
     0
290
     0
174
     0
 93
       13
 44
0.0
173
     0
291
     1
 45
0.0
1001
ACAD
1000
AcDbSavedByObjectVersion
1070
     0
  0
VISUALSTYLE
  5
2A6C
102
{ACAD_XDICTIONARY
360
2BF3
102
}
102
{ACAD_REACTORS
330
2A69
102
}
330
2A69
100
AcDbVisualStyle
  2

 70
     2
 71
     2
 72
     2
 73
     1
 90
        2
 40
-0.6
 41
30.0
 62
     5
 63
     7
 74
     0
 91
        0
 64
     7
 65
   257
 75
     1
175
     1
 42
1.0
 92
        0
 66
     7
 43
1.0
 76
     1
 77
     6
 78
     2
 67
     7
 79
     5
170
     0
171
     0
290
     0
174
     0
 93
       13
 44
0.0
173
     0
291
     1
 45
0.0
1001
ACAD
1000
AcDbSavedByObjectVersion
1070
     0
  0
VISUALSTYLE
  5
2A6D
102
{ACAD_XDICTIONARY
360
2BF5
102
}
102
{ACAD_REACTORS
330
2A69
102
}
330
2A69
100
AcDbVisualStyle
  2

 70
     3
 71
     2
 72
     2
 73
     1
 90
        2
 40
-0.6
 41
30.0
 62
     5
 63
     7
 74
     1
 91
        0
 64
     7
 65
   257
 75
     1
175
     1
 42
1.0
 92
        0
 66
   257
 43
1.0
 76
     1
 77
     6
 78
     2
 67
     7
 79
     5
170
     0
171
     0
290
     0
174
     0
 93
       13
 44
0.0
173
     0
291
     1
 45
0.0
1001
ACAD
1000
AcDbSavedByObjectVersion
1070
     0
  0
VISUALSTYLE
  5
2A71
102
{ACAD_XDICTIONARY
360
2BFD
102
}
102
{ACAD_REACTORS
330
2A69
102
}
330
2A69
100
AcDbVisualStyle
  2

 70
     6
 71
     1
 72
     2
 73
     2
 90
        0
 40
-0.6
 41
-30.0
 62
     5
 63
     7
 74
     2
 91
        2
 64
     7
 65
   257
 75
     2
175
     1
 42
40.0
 92
        0
 66
   257
 43
1.0
 76
     1
 77
     6
 78
     2
 67
     7
 79
     3
170
     0
171
     0
290
     0
174
     0
 93
        1
 44
0.0
173
     0
291
     0
 45
0.0
1001
ACAD
1000
AcDbSavedByObjectVersion
1070
     0
  0
VISUALSTYLE
  5
2A7F
102
{ACAD_XDICTIONARY
360
2C19
102
}
102
{ACAD_REACTORS
330
2A69
102
}
330
2A69
100
AcDbVisualStyle
  2

 70
    20
 71
     2
 72
     2
 73
     0
 90
        0
 40
-0.6
 41
-30.0
 62
     5
 63
     7
 74
     1
 91
        4
 64
     7
 65
   257
 75
     1
175
     1
 42
1.0
 92
       10
 66
     7
 43
1.0
 76
     1
 77
     6
 78
     2
 67
     7
 79
     5
170
     0
171
     0
290
     0
174
     0
 93
        1
 44
0.0
173
     0
291
     1
 45
0.0
1001
ACAD
1000
AcDbSavedByObjectVersion
1070
     0
  0
VISUALSTYLE
  5
2A77
102
{ACAD_XDICTIONARY
360
2C09
102
}
102
{ACAD_REACTORS
330
2A69
102
}
330
2A69
100
AcDbVisualStyle
  2

 70
    14
 71
     2
 72
     2
 73
     0
 90
        0
 40
-0.6
 41
-30.0
 62
     5
 63
     7
 74
     1
 91
        4
 64
     7
 65
   257
 75
     7
175
     7
 42
1.0
 92
        8
 66
     7
 43
1.0
 76
     1
 77
     6
 78
     2
 67
     7
 79
     5
170
     0
171
     0
290
     0
174
     0
 93
        1
 44
0.0
173
     0
291
     1
 45
0.0
1001
ACAD
1000
AcDbSavedByObjectVersion
1070
     0
  0
VISUALSTYLE
  5
2A80
102
{ACAD_XDICTIONARY
360
2C1B
102
}
102
{ACAD_REACTORS
330
2A69
102
}
330
2A69
100
AcDbVisualStyle
  2

 70
    21
 71
     2
 72
     2
 73
     0
 90
        0
 40
-0.6
 41
-30.0
 62
     5
 63
     7
 74
     1
 91
        4
 64
     7
 65
   257
 75
     1
175
     1
 42
1.0
 92
        9
 66
     7
 43
1.0
 76
     1
 77
     6
 78
     2
 67
     7
 79
     5
170
     0
171
     0
290
     0
174
     0
 93
        1
 44
0.0
173
     0
291
     1
 45
0.0
1001
ACAD
1000
AcDbSavedByObjectVersion
1070
     0
  0
VISUALSTYLE
  5
2A73
102
{ACAD_XDICTIONARY
360
2C01
102
}
102
{ACAD_REACTORS
330
2A69
102
}
330
2A69
100
AcDbVisualStyle
  2

 70
     8
 71
     2
 72
     2
 73
     0
 90
        2
 40
-0.6
 41
30.0
 62
     5
 63
     7
 74
     0
 91
        0
 64
     7
 65
   257
 75
     1
175
     1
 42
1.0
 92
        8
 66
   257
 43
1.0
 76
     1
 77
     6
 78
     2
 67
     7
 79
     3
170
     0
171
     0
290
     0
174
     0
 93
       13
 44
0.0
173
     0
291
     0
 45
0.0
1001
ACAD
1000
AcDbSavedByObjectVersion
1070
     0
  0
VISUALSTYLE
  5
2A7E
102
{ACAD_XDICTIONARY
360
2C17
102
}
102
{ACAD_REACTORS
330
2A69
102
}
330
2A69
100
AcDbVisualStyle
  2

 70
    27
 71
     2
 72
     2
 73
     1
 90
        2
 40
-0.6
 41
30.0
 62
     5
 63
     7
 74
     0
 91
        4
 64
     7
 65
   257
 75
     1
175
     1
 42
1.0
 92
        8
 66
   257
 43
1.0
 76
     1
 77
     6
 78
     2
 67
     8
 79
     3
170
     0
171
     0
290
     0
174
     0
 93
        5
 44
0.0
173
     0
291
     0
 45
0.0
1001
ACAD
1000
AcDbSavedByObjectVersion
1070
     0
  0
VISUALSTYLE
  5
2A7D
102
{ACAD_XDICTIONARY
360
2C15
102
}
102
{ACAD_REACTORS
330
2A69
102
}
330
2A69
100
AcDbVisualStyle
  2

 70
    26
 71
     2
 72
     2
 73
     1
 90
        2
 40
-0.6
 41
30.0
 62
     5
 63
     7
 74
     1
 91
       10
 64
     7
 65
   257
 75
     2
175
     1
 42
1.0
 92
        8
 66
   257
 43
1.0
 76
     1
 77
     6
 78
     2
 67
     7
 79
     3
170
     0
171
     0
290
     0
174
     0
 93
        5
 44
0.0
173
     0
291
     0
 45
0.0
1001
ACAD
1000
AcDbSavedByObjectVersion
1070
     0
  0
VISUALSTYLE
  5
2A7A
102
{ACAD_XDICTIONARY
360
2C0F
102
}
102
{ACAD_REACTORS
330
2A69
102
}
330
2A69
100
AcDbVisualStyle
  2

 70
    23
 71
     2
 72
     2
 73
     3
 90
        0
 40
-0.6
 41
-30.0
 62
     5
 63
     7
 74
     2
 91
        2
 64
     7
 65
     7
 75
     1
175
     1
 42
40.0
 92
        8
 66
     7
 43
1.0
 76
     1
 77
     6
 78
     2
 67
     7
 79
     3
170
     0
171
     0
290
     0
174
     0
 93
        1
 44
0.0
173
     0
291
     0
 45
0.0
1001
ACAD
1000
AcDbSavedByObjectVersion
1070
     0
  0
VISUALSTYLE
  5
2A7B
102
{ACAD_XDICTIONARY
360
2C11
102
}
102
{ACAD_REACTORS
330
2A69
102
}
330
2A69
100
AcDbVisualStyle
  2

 70
    24
 71
     1
 72
     2
 73
     2
 90
        0
 40
-0.6
 41
-30.0
 62
     5
 63
     7
 74
     2
 91
        2
 64
     7
 65
     7
 75
     1
175
     1
 42
40.0
 92
       11
 66
     7
 43
1.0
 76
     1
 77
     6
 78
     2
 67
     7
 79
     6
170
     0
171
     0
290
     0
174
     0
 93
        1
 44
0.0
173
     0
291
     0
 45
0.0
1001
ACAD
1000
AcDbSavedByObjectVersion
1070
     0
  0
VISUALSTYLE
  5
2A76
102
{ACAD_XDICTIONARY
360
2C07
102
}
102
{ACAD_REACTORS
330
2A69
102
}
330
2A69
100
AcDbVisualStyle
  2

 70
    13
 71
     2
 72
     2
 73
     0
 90
        0
 40
-0.6
 41
-30.0
 62
     5
 63
     7
 74
     1
 91
        4
 64
     7
 65
   257
 75
     1
175
     1
 42
1.0
 92
       12
 66
     7
 43
1.0
 76
     1
 77
     6
 78
     2
 67
     7
 79
     5
170
     0
171
     0
290
     0
174
     0
 93
        1
 44
0.0
173
     0
291
     1
 45
0.0
1001
ACAD
1000
AcDbSavedByObjectVersion
1070
     0
  0
VISUALSTYLE
  5
2A70
102
{ACAD_XDICTIONARY
360
2BFB
102
}
102
{ACAD_REACTORS
330
2A69
102
}
330
2A69
100
AcDbVisualStyle
  2

 70
     5
 71
     0
 72
     2
 73
     0
 90
        0
 40
-0.6
 41
-30.0
 62
     5
 63
     7
 74
     1
 91
        4
 64
     7
 65
   257
 75
     1
175
     1
 42
1.0
 92
        0
 66
   257
 43
1.0
 76
     1
 77
     6
 78
     2
 67
     7
 79
     3
170
     0
171
     0
290
     0
174
     0
 93
        1
 44
0.0
173
     0
291
     0
 45
0.0
1001
ACAD
1000
AcDbSavedByObjectVersion
1070
     0
  0
VISUALSTYLE
  5
2A7C
102
{ACAD_XDICTIONARY
360
2C13
102
}
102
{ACAD_REACTORS
330
2A69
102
}
330
2A69
100
AcDbVisualStyle
  2

 70
    25
 71
     2
 72
     2
 73
     1
 90
        1
 40
0.5
 41
-30.0
 62
     5
 63
     7
 74
     1
 91
        0
 64
     7
 65
   257
 75
     1
175
     1
 42
1.0
 92
        8
 66
     7
 43
1.0
 76
     1
 77
     6
 78
     2
 67
     7
 79
     3
170
     0
171
     0
290
     0
174
     0
 93
       13
 44
0.0
173
     0
291
     0
 45
0.0
1001
ACAD
1000
AcDbSavedByObjectVersion
1070
     0
  0
DICTIONARYVAR
  5
2AC7
102
{ACAD_REACTORS
330
2AC2
102
}
330
2AC2
100
DictionaryVariables
280
     0
  1
1:1
  0
DICTIONARYVAR
  5
2AC4
102
{ACAD_REACTORS
330
2AC2
102
}
330
2AC2
100
DictionaryVariables
280
     0
  1
STANDARD
  0
DICTIONARYVAR
  5
2AC3
102
{ACAD_REACTORS
330
2AC2
102
}
330
2AC2
100
DictionaryVariables
280
     0
  1
STANDARD
  0
DICTIONARYVAR
  5
2AC5
102
{ACAD_REACTORS
330
2AC2
102
}
330
2AC2
100
DictionaryVariables
280
     0
  1
Imperial24
  0
DICTIONARYVAR
  5
2AC6
102
{ACAD_REACTORS
330
2AC2
102
}
330
2AC2
100
DictionaryVariables
280
     0
  1
Imperial24
  0
DICTIONARYVAR
  5
2ACA
102
{ACAD_REACTORS
330
2AC2
102
}
330
2AC2
100
DictionaryVariables
280
     0
  1
1
  0
DICTIONARYVAR
  5
2AC9
102
{ACAD_REACTORS
330
2AC2
102
}
330
2AC2
100
DictionaryVariables
280
     0
  1
0
  0
DICTIONARYVAR
  5
2AC8
102
{ACAD_REACTORS
330
2AC2
102
}
330
2AC2
100
DictionaryVariables
280
     0
  1
127
  0
DICTIONARYVAR
  5
2BE8
102
{ACAD_REACTORS
330
2AC2
102
}
330
2AC2
100
DictionaryVariables
280
     0
  1
2
  0
DICTIONARY
  5
2C22
330
2A9C
100
AcDbDictionary
280
     1
281
     1
  3
ACAD_XREC_ROUNDTRIP
360
2C23
  0
DICTIONARY
  5
2C24
330
2A9D
100
AcDbDictionary
280
     1
281
     1
  3
ACAD_XREC_ROUNDTRIP
360
2C25
  0
DICTIONARY
  5
2C26
330
2A9E
100
AcDbDictionary
280
     1
281
     1
  3
ACAD_XREC_ROUNDTRIP
360
2C27
  0
DICTIONARY
  5
2A5A
330
2A59
100
AcDbDictionary
280
     1
281
     1
  3
ACAD_XREC_ROUNDTRIP
360
2BED
  3
BUMPTILE
360
2A5C
  3
DIFFUSETILE
360
2A5B
  3
OPACITYTILE
360
2A5F
  3
REFLECTIONTILE
360
2A5E
  3
REFRACTIONTILE
360
2A60
  3
SPECULARTILE
360
2A5D
  0
DICTIONARY
  5
2A52
330
2A51
100
AcDbDictionary
280
     1
281
     1
  3
ACAD_XREC_ROUNDTRIP
360
2BEC
  3
BUMPTILE
360
2A54
  3
DIFFUSETILE
360
2A53
  3
OPACITYTILE
360
2A57
  3
REFLECTIONTILE
360
2A56
  3
REFRACTIONTILE
360
2A58
  3
SPECULARTILE
360
2A55
  0
DICTIONARY
  5
2A62
330
2A61
100
AcDbDictionary
280
     1
281
     1
  3
ACAD_XREC_ROUNDTRIP
360
2BEE
  3
BUMPTILE
360
2A64
  3
DIFFUSETILE
360
2A63
  3
OPACITYTILE
360
2A67
  3
REFLECTIONTILE
360
2A66
  3
REFRACTIONTILE
360
2A68
  3
SPECULARTILE
360
2A65
  0
DICTIONARY
  5
2C20
330
2A9A
100
AcDbDictionary
280
     1
281
     1
  3
ACAD_XREC_ROUNDTRIP
360
2C21
  0
DICTIONARY
  5
2ACC
330
2A84
100
AcDbDictionary
280
     1
281
     1
  3
ACAD_ROUNDTRIP_2008_TABLESTYLE_CELLSTYLEMAP
360
2BE9
  3
ACAD_XREC_ROUNDTRIP
360
2C1F
  0
DICTIONARY
  5
2BF9
330
2A6F
100
AcDbDictionary
280
     1
281
     1
  3
ACAD_XREC_ROUNDTRIP
360
2BFA
  0
DICTIONARY
  5
2BF7
330
2A6E
100
AcDbDictionary
280
     1
281
     1
  3
ACAD_XREC_ROUNDTRIP
360
2BF8
  0
DICTIONARY
  5
2C05
330
2A75
100
AcDbDictionary
280
     1
281
     1
  3
ACAD_XREC_ROUNDTRIP
360
2C06
  0
DICTIONARY
  5
2C0D
330
2A79
100
AcDbDictionary
280
     1
281
     1
  3
ACAD_XREC_ROUNDTRIP
360
2C0E
  0
DICTIONARY
  5
2BFF
330
2A72
100
AcDbDictionary
280
     1
281
     1
  3
ACAD_XREC_ROUNDTRIP
360
2C00
  0
DICTIONARY
  5
2C03
330
2A74
100
AcDbDictionary
280
     1
281
     1
  3
ACAD_XREC_ROUNDTRIP
360
2C04
  0
DICTIONARY
  5
2C1D
330
2A81
100
AcDbDictionary
280
     1
281
     1
  3
ACAD_XREC_ROUNDTRIP
360
2C1E
  0
DICTIONARY
  5
2C0B
330
2A78
100
AcDbDictionary
280
     1
281
     1
  3
ACAD_XREC_ROUNDTRIP
360
2C0C
  0
DICTIONARY
  5
2BEF
330
2A6A
100
AcDbDictionary
280
     1
281
     1
  3
ACAD_XREC_ROUNDTRIP
360
2BF0
  0
DICTIONARY
  5
2BF1
330
2A6B
100
AcDbDictionary
280
     1
281
     1
  3
ACAD_XREC_ROUNDTRIP
360
2BF2
  0
DICTIONARY
  5
2BF3
330
2A6C
100
AcDbDictionary
280
     1
281
     1
  3
ACAD_XREC_ROUNDTRIP
360
2BF4
  0
DICTIONARY
  5
2BF5
330
2A6D
100
AcDbDictionary
280
     1
281
     1
  3
ACAD_XREC_ROUNDTRIP
360
2BF6
  0
DICTIONARY
  5
2BFD
330
2A71
100
AcDbDictionary
280
     1
281
     1
  3
ACAD_XREC_ROUNDTRIP
360
2BFE
  0
DICTIONARY
  5
2C19
330
2A7F
100
AcDbDictionary
280
     1
281
     1
  3
ACAD_XREC_ROUNDTRIP
360
2C1A
  0
DICTIONARY
  5
2C09
330
2A77
100
AcDbDictionary
280
     1
281
     1
  3
ACAD_XREC_ROUNDTRIP
360
2C0A
  0
DICTIONARY
  5
2C1B
330
2A80
100
AcDbDictionary
280
     1
281
     1
  3
ACAD_XREC_ROUNDTRIP
360
2C1C
  0
DICTIONARY
  5
2C01
330
2A73
100
AcDbDictionary
280
     1
281
     1
  3
ACAD_XREC_ROUNDTRIP
360
2C02
  0
DICTIONARY
  5
2C17
330
2A7E
100
AcDbDictionary
280
     1
281
     1
  3
ACAD_XREC_ROUNDTRIP
360
2C18
  0
DICTIONARY
  5
2C15
330
2A7D
100
AcDbDictionary
280
     1
281
     1
  3
ACAD_XREC_ROUNDTRIP
360
2C16
  0
DICTIONARY
  5
2C0F
330
2A7A
100
AcDbDictionary
280
     1
281
     1
  3
ACAD_XREC_ROUNDTRIP
360
2C10
  0
DICTIONARY
  5
2C11
330
2A7B
100
AcDbDictionary
280
     1
281
     1
  3
ACAD_XREC_ROUNDTRIP
360
2C12
  0
DICTIONARY
  5
2C07
330
2A76
100
AcDbDictionary
280
     1
281
     1
  3
ACAD_XREC_ROUNDTRIP
360
2C08
  0
DICTIONARY
  5
2BFB
330
2A70
100
AcDbDictionary
280
     1
281
     1
  3
ACAD_XREC_ROUNDTRIP
360
2BFC
  0
DICTIONARY
  5
2C13
330
2A7C
100
AcDbDictionary
280
     1
281
     1
  3
ACAD_XREC_ROUNDTRIP
360
2C14
  0
XRECORD
  5
2C23
102
{ACAD_REACTORS
330
2C22
102
}
330
2C22
100
AcDbXrecord
280
     1
102
DISPLAYNAME
  1
Imperial24
102
FLAGS
 90
        0
  0
XRECORD
  5
2C25
102
{ACAD_REACTORS
330
2C24
102
}
330
2C24
100
AcDbXrecord
280
     1
102
SHADEPLOT
 70
     0
102
SHADEPLOTRESLEVEL
 70
     2
102
SHADEPLOTCUSTOMDPI
 70
   300
  0
XRECORD
  5
2C27
102
{ACAD_REACTORS
330
2C26
102
}
330
2C26
100
AcDbXrecord
280
     1
102
SHADEPLOT
 70
     0
102
SHADEPLOTRESLEVEL
 70
     2
102
SHADEPLOTCUSTOMDPI
 70
   300
  0
XRECORD
  5
2BED
102
{ACAD_REACTORS
330
2A5A
102
}
330
2A5A
100
AcDbXrecord
280
     1
102
MATERIAL
148
0.0
149
0.0
149
0.0
 93
        0
 94
      127
282
     0
 72
     0
 77
     0
171
     0
175
     0
179
     0
273
     0
  0
XRECORD
  5
2A5C
102
{ACAD_REACTORS
330
2A5A
102
}
330
2A5A
100
AcDbXrecord
280
     1
270
     1
271
     1
  0
XRECORD
  5
2A5B
102
{ACAD_REACTORS
330
2A5A
102
}
330
2A5A
100
AcDbXrecord
280
     1
270
     1
271
     1
  0
XRECORD
  5
2A5F
102
{ACAD_REACTORS
330
2A5A
102
}
330
2A5A
100
AcDbXrecord
280
     1
270
     1
271
     1
  0
XRECORD
  5
2A5E
102
{ACAD_REACTORS
330
2A5A
102
}
330
2A5A
100
AcDbXrecord
280
     1
270
     1
271
     1
  0
XRECORD
  5
2A60
102
{ACAD_REACTORS
330
2A5A
102
}
330
2A5A
100
AcDbXrecord
280
     1
270
     1
271
     1
  0
XRECORD
  5
2A5D
102
{ACAD_REACTORS
330
2A5A
102
}
330
2A5A
100
AcDbXrecord
280
     1
270
     1
271
     1
  0
XRECORD
  5
2BEC
102
{ACAD_REACTORS
330
2A52
102
}
330
2A52
100
AcDbXrecord
280
     1
102
MATERIAL
148
0.0
149
0.0
149
0.0
 93
        0
 94
      127
282
     0
 72
     0
 77
     0
171
     0
175
     0
179
     0
273
     0
  0
XRECORD
  5
2A54
102
{ACAD_REACTORS
330
2A52
102
}
330
2A52
100
AcDbXrecord
280
     1
270
     1
271
     1
  0
XRECORD
  5
2A53
102
{ACAD_REACTORS
330
2A52
102
}
330
2A52
100
AcDbXrecord
280
     1
270
     1
271
     1
  0
XRECORD
  5
2A57
102
{ACAD_REACTORS
330
2A52
102
}
330
2A52
100
AcDbXrecord
280
     1
270
     1
271
     1
  0
XRECORD
  5
2A56
102
{ACAD_REACTORS
330
2A52
102
}
330
2A52
100
AcDbXrecord
280
     1
270
     1
271
     1
  0
XRECORD
  5
2A58
102
{ACAD_REACTORS
330
2A52
102
}
330
2A52
100
AcDbXrecord
280
     1
270
     1
271
     1
  0
XRECORD
  5
2A55
102
{ACAD_REACTORS
330
2A52
102
}
330
2A52
100
AcDbXrecord
280
     1
270
     1
271
     1
  0
XRECORD
  5
2BEE
102
{ACAD_REACTORS
330
2A62
102
}
330
2A62
100
AcDbXrecord
280
     1
102
MATERIAL
148
0.0
149
0.0
149
0.0
 93
        0
 94
      127
282
     0
 72
     0
 77
     0
171
     0
175
     0
179
     0
273
     0
  0
XRECORD
  5
2A64
102
{ACAD_REACTORS
330
2A62
102
}
330
2A62
100
AcDbXrecord
280
     1
270
     1
271
     1
  0
XRECORD
  5
2A63
102
{ACAD_REACTORS
330
2A62
102
}
330
2A62
100
AcDbXrecord
280
     1
270
     1
271
     1
  0
XRECORD
  5
2A67
102
{ACAD_REACTORS
330
2A62
102
}
330
2A62
100
AcDbXrecord
280
     1
270
     1
271
     1
  0
XRECORD
  5
2A66
102
{ACAD_REACTORS
330
2A62
102
}
330
2A62
100
AcDbXrecord
280
     1
270
     1
271
     1
  0
XRECORD
  5
2A68
102
{ACAD_REACTORS
330
2A62
102
}
330
2A62
100
AcDbXrecord
280
     1
270
     1
271
     1
  0
XRECORD
  5
2A65
102
{ACAD_REACTORS
330
2A62
102
}
330
2A62
100
AcDbXrecord
280
     1
270
     1
271
     1
  0
XRECORD
  5
2C21
102
{ACAD_REACTORS
330
2C20
102
}
330
2C20
100
AcDbXrecord
280
     1
102
DISPLAYNAME
  1
Imperial24
102
FLAGS
 90
        0
  0
CELLSTYLEMAP
  5
2BE9
102
{ACAD_REACTORS
330
2ACC
102
}
330
2ACC
100
AcDbCellStyleMap
 90
        3
300
CELLSTYLE
  1
TABLEFORMAT_BEGIN
 90
        5
170
     1
 91
        0
 92
    32768
 62
   257
 93
        1
300
CONTENTFORMAT
  1
CONTENTFORMAT_BEGIN
 90
        0
 91
        0
 92
      512
 93
        0
300

 40
0.0
140
1.0
 94
        5
 62
     0
340
F
144
0.25
309
CONTENTFORMAT_END
171
     1
301
MARGIN
  1
CELLMARGIN_BEGIN
 40
0.06
 40
0.06
 40
0.06
 40
0.06
 40
0.18
 40
0.18
309
CELLMARGIN_END
 94
        6
 95
        1
302
GRIDFORMAT
  1
GRIDFORMAT_BEGIN
 90
        0
 91
        1
 62
     0
 92
       -2
340
0
 93
        0
 40
0.045
309
GRIDFORMAT_END
 95
        2
302
GRIDFORMAT
  1
GRIDFORMAT_BEGIN
 90
        0
 91
        1
 62
     0
 92
       -2
340
0
 93
        0
 40
0.045
309
GRIDFORMAT_END
 95
        4
302
GRIDFORMAT
  1
GRIDFORMAT_BEGIN
 90
        0
 91
        1
 62
     0
 92
       -2
340
0
 93
        0
 40
0.045
309
GRIDFORMAT_END
 95
        8
302
GRIDFORMAT
  1
GRIDFORMAT_BEGIN
 90
        0
 91
        1
 62
     0
 92
       -2
340
0
 93
        0
 40
0.045
309
GRIDFORMAT_END
 95
       16
302
GRIDFORMAT
  1
GRIDFORMAT_BEGIN
 90
        0
 91
        1
 62
     0
 92
       -2
340
0
 93
        0
 40
0.045
309
GRIDFORMAT_END
 95
       32
302
GRIDFORMAT
  1
GRIDFORMAT_BEGIN
 90
        0
 91
        1
 62
     0
 92
       -2
340
0
 93
        0
 40
0.045
309
GRIDFORMAT_END
309
TABLEFORMAT_END
  1
CELLSTYLE_BEGIN
 90
        1
 91
        1
300
_TITLE
309
CELLSTYLE_END
300
CELLSTYLE
  1
TABLEFORMAT_BEGIN
 90
        5
170
     1
 91
        0
 92
        0
 62
   257
 93
        1
300
CONTENTFORMAT
  1
CONTENTFORMAT_BEGIN
 90
        0
 91
        0
 92
      512
 93
        0
300

 40
0.0
140
1.0
 94
        5
 62
     0
340
F
144
0.18
309
CONTENTFORMAT_END
171
     1
301
MARGIN
  1
CELLMARGIN_BEGIN
 40
0.06
 40
0.06
 40
0.06
 40
0.06
 40
0.18
 40
0.18
309
CELLMARGIN_END
 94
        6
 95
        1
302
GRIDFORMAT
  1
GRIDFORMAT_BEGIN
 90
        0
 91
        1
 62
     0
 92
       -2
340
0
 93
        0
 40
0.045
309
GRIDFORMAT_END
 95
        2
302
GRIDFORMAT
  1
GRIDFORMAT_BEGIN
 90
        0
 91
        1
 62
     0
 92
       -2
340
0
 93
        0
 40
0.045
309
GRIDFORMAT_END
 95
        4
302
GRIDFORMAT
  1
GRIDFORMAT_BEGIN
 90
        0
 91
        1
 62
     0
 92
       -2
340
0
 93
        0
 40
0.045
309
GRIDFORMAT_END
 95
        8
302
GRIDFORMAT
  1
GRIDFORMAT_BEGIN
 90
        0
 91
        1
 62
     0
 92
       -2
340
0
 93
        0
 40
0.045
309
GRIDFORMAT_END
 95
       16
302
GRIDFORMAT
  1
GRIDFORMAT_BEGIN
 90
        0
 91
        1
 62
     0
 92
       -2
340
0
 93
        0
 40
0.045
309
GRIDFORMAT_END
 95
       32
302
GRIDFORMAT
  1
GRIDFORMAT_BEGIN
 90
        0
 91
        1
 62
     0
 92
       -2
340
0
 93
        0
 40
0.045
309
GRIDFORMAT_END
309
TABLEFORMAT_END
  1
CELLSTYLE_BEGIN
 90
        2
 91
        1
300
_HEADER
309
CELLSTYLE_END
300
CELLSTYLE
  1
TABLEFORMAT_BEGIN
 90
        5
170
     1
 91
        0
 92
        0
 62
   257
 93
        1
300
CONTENTFORMAT
  1
CONTENTFORMAT_BEGIN
 90
        0
 91
        0
 92
      512
 93
        0
300

 40
0.0
140
1.0
 94
        2
 62
     0
340
F
144
0.18
309
CONTENTFORMAT_END
171
     1
301
MARGIN
  1
CELLMARGIN_BEGIN
 40
0.06
 40
0.06
 40
0.06
 40
0.06
 40
0.18
 40
0.18
309
CELLMARGIN_END
 94
        6
 95
        1
302
GRIDFORMAT
  1
GRIDFORMAT_BEGIN
 90
        0
 91
        1
 62
     0
 92
       -2
340
0
 93
        0
 40
0.045
309
GRIDFORMAT_END
 95
        2
302
GRIDFORMAT
  1
GRIDFORMAT_BEGIN
 90
        0
 91
        1
 62
     0
 92
       -2
340
0
 93
        0
 40
0.045
309
GRIDFORMAT_END
 95
        4
302
GRIDFORMAT
  1
GRIDFORMAT_BEGIN
 90
        0
 91
        1
 62
     0
 92
       -2
340
0
 93
        0
 40
0.045
309
GRIDFORMAT_END
 95
        8
302
GRIDFORMAT
  1
GRIDFORMAT_BEGIN
 90
        0
 91
        1
 62
     0
 92
       -2
340
0
 93
        0
 40
0.045
309
GRIDFORMAT_END
 95
       16
302
GRIDFORMAT
  1
GRIDFORMAT_BEGIN
 90
        0
 91
        1
 62
     0
 92
       -2
340
0
 93
        0
 40
0.045
309
GRIDFORMAT_END
 95
       32
302
GRIDFORMAT
  1
GRIDFORMAT_BEGIN
 90
        0
 91
        1
 62
     0
 92
       -2
340
0
 93
        0
 40
0.045
309
GRIDFORMAT_END
309
TABLEFORMAT_END
  1
CELLSTYLE_BEGIN
 90
        3
 91
        2
300
_DATA
309
CELLSTYLE_END
  0
XRECORD
  5
2C1F
102
{ACAD_REACTORS
330
2ACC
102
}
330
2ACC
100
AcDbXrecord
280
     1
102
ACAD_ROUNDTRIP_PRE2007_TABLESTYLE
 90
      512
 91
        0
  1

 92
      512
 93
        0
  2

 94
      512
 95
        0
  3

  0
XRECORD
  5
2BFA
102
{ACAD_REACTORS
330
2BF9
102
}
330
2BF9
100
AcDbXrecord
280
     1
102
RTVSPost2010Prop28
280
     1
102
RTVSPost2010PropOp28
 70
     1
102
RTVSPost2010Prop29
280
     1
102
RTVSPost2010PropOp29
 70
     1
102
RTVSPost2010Prop30
280
     0
102
RTVSPost2010PropOp30
 70
     1
102
RTVSPost2010Prop31
280
     0
102
RTVSPost2010PropOp31
 70
     1
102
RTVSPost2010Prop32
280
     0
102
RTVSPost2010PropOp32
 70
     1
102
RTVSPost2010Prop33
280
     0
102
RTVSPost2010PropOp33
 70
     1
102
RTVSPost2010Prop34
280
     0
102
RTVSPost2010PropOp34
 70
     1
102
RTVSPost2010Prop35
280
     0
102
RTVSPost2010PropOp35
 70
     1
102
RTVSPost2010Prop36
280
     0
102
RTVSPost2010PropOp36
 70
     1
102
RTVSPost2010Prop37
 90
       50
102
RTVSPost2010PropOp37
 70
     1
102
RTVSPost2010Prop38
140
0.0
102
RTVSPost2010PropOp38
 70
     1
102
RTVSPost2010Prop39
140
1.0
102
RTVSPost2010PropOp39
 70
     1
102
RTVSPost2010Prop40
 90
        0
102
RTVSPost2010PropOp40
 70
     1
102
RTVSPost2010Prop41ColorIndex
 90
       18
102
RTVSPost2010Prop41ColorRGB
 90
        0
102
RTVSPost2010PropOp41
 70
     1
102
RTVSPost2010Prop42
 90
       50
102
RTVSPost2010PropOp42
 70
     1
102
RTVSPost2010Prop43
 90
        3
102
RTVSPost2010PropOp43
 70
     1
102
RTVSPost2010Prop44ColorIndex
 90
        5
102
RTVSPost2010Prop44ColorRGB
 90
      255
102
RTVSPost2010PropOp44
 70
     1
102
RTVSPost2010Prop45
280
     0
102
RTVSPost2010PropOp45
 70
     1
102
RTVSPost2010Prop46
 90
       50
102
RTVSPost2010PropOp46
 70
     1
102
RTVSPost2010Prop47
 90
       50
102
RTVSPost2010PropOp47
 70
     1
102
RTVSPost2010Prop48
 90
       50
102
RTVSPost2010PropOp48
 70
     1
102
RTVSPost2010Prop49
280
     0
102
RTVSPost2010PropOp49
 70
     1
102
RTVSPost2010Prop50
 90
       50
102
RTVSPost2010PropOp50
 70
     1
102
RTVSPost2010Prop51ColorIndex
 90
      256
102
RTVSPost2010Prop51ColorRGB
 90
-16777216
102
RTVSPost2010PropOp51
 70
     0
102
RTVSPost2010Prop52
140
1.0
102
RTVSPost2010PropOp52
 70
     0
102
RTVSPost2010Prop53
 90
        2
102
RTVSPost2010PropOp53
 70
     1
102
RTVSPost2010Prop54
  1
strokes_ogs.tif
102
RTVSPost2010PropOp54
 70
     1
102
RTVSPost2010Prop55
280
     0
102
RTVSPost2010PropOp55
 70
     1
102
RTVSPost2010Prop56
140
1.0
102
RTVSPost2010PropOp56
 70
     1
102
RTVSPost2010Prop57
140
1.0
102
RTVSPost2010PropOp57
 70
     1
102
RTVSPropertyOp0
 70
     1
102
RTVSPropertyOp1
 70
     1
102
RTVSPropertyOp2
 70
     1
102
RTVSPropertyOp3
 70
     1
102
RTVSPropertyOp4
 70
     1
102
RTVSPropertyOp5
 70
     1
102
RTVSPropertyOp6
 70
     1
102
RTVSPropertyOp7
 70
     1
102
RTVSPropertyOp8
 70
     1
102
RTVSPropertyOp9
 70
     1
102
RTVSPropertyOp10
 70
     1
102
RTVSPropertyOp11
 70
     1
102
RTVSPropertyOp12
 70
     1
102
RTVSPropertyOp13
 70
     1
102
RTVSPropertyOp14
 70
     1
102
RTVSPropertyOp15
 70
     1
102
RTVSPropertyOp16
 70
     1
102
RTVSPropertyOp17
 70
     1
102
RTVSPropertyOp18
 70
     1
102
RTVSPropertyOp19
 70
     1
102
RTVSPropertyOp20
 70
     1
102
RTVSPropertyOp21
 70
     1
102
RTVSPropertyOp22
 70
     1
102
RTVSPropertyOp23
 70
     1
102
RTVSPropertyOp24
 70
     1
102
RTVSPropertyOp25
 70
     1
102
RTVSPropertyOp26
 70
     1
102
RTVSPropertyOp27
 70
     1
102
RTVSPropertyOp28
 70
     1
102
RTVSPropertyOp29
 70
     1
102
RTVSPropertyOp30
 70
     1
102
RTVSPropertyOp31
 70
     1
102
RTVSPropertyOp32
 70
     1
102
RTVSPropertyOp33
 70
     1
102
RTVSPropertyOp34
 70
     1
102
RTVSPropertyOp35
 70
     1
102
RTVSPropertyOp36
 70
     1
102
RTVSPropertyOp37
 70
     1
102
RTVSPropertyOp38
 70
     1
102
RTVSPropertyOp39
 70
     1
102
RTVSPropertyOp40
 70
     1
102
RTVSPropertyOp41
 70
     1
102
RTVSPropertyOp42
 70
     1
102
RTVSPropertyOp43
 70
     1
102
RTVSPropertyOp44
 70
     1
102
RTVSPropertyOp45
 70
     1
102
RTVSPropertyOp46
 70
     1
102
RTVSPropertyOp47
 70
     1
102
RTVSPropertyOp48
 70
     1
102
RTVSPropertyOp49
 70
     1
102
RTVSPropertyOp50
 70
     1
102
RTVSPropertyOp51
 70
     0
102
RTVSPropertyOp52
 70
     0
102
RTVSPropertyOp53
 70
     1
102
RTVSPropertyOp54
 70
     1
102
RTVSPropertyOp55
 70
     1
102
RTVSPropertyOp56
 70
     1
102
RTVSPropertyOp57
 70
     1
102
RTVSPropertyOp58
 70
     1
102
RTVSPropertyOp59
 70
     1
102
RTVSPropertyOp60
 70
     1
102
RTVSPropertyOp61
 70
     1
102
RTVSPropertyOp62
 70
     1
  0
XRECORD
  5
2BF8
102
{ACAD_REACTORS
330
2BF7
102
}
330
2BF7
100
AcDbXrecord
280
     1
102
RTVSPost2010Prop28
280
     0
102
RTVSPost2010PropOp28
 70
     1
102
RTVSPost2010Prop29
280
     1
102
RTVSPost2010PropOp29
 70
     1
102
RTVSPost2010Prop30
280
     1
102
RTVSPost2010PropOp30
 70
     1
102
RTVSPost2010Prop31
280
     0
102
RTVSPost2010PropOp31
 70
     1
102
RTVSPost2010Prop32
280
     0
102
RTVSPost2010PropOp32
 70
     1
102
RTVSPost2010Prop33
280
     0
102
RTVSPost2010PropOp33
 70
     1
102
RTVSPost2010Prop34
280
     0
102
RTVSPost2010PropOp34
 70
     1
102
RTVSPost2010Prop35
280
     0
102
RTVSPost2010PropOp35
 70
     1
102
RTVSPost2010Prop36
280
     0
102
RTVSPost2010PropOp36
 70
     1
102
RTVSPost2010Prop37
 90
       50
102
RTVSPost2010PropOp37
 70
     1
102
RTVSPost2010Prop38
140
0.0
102
RTVSPost2010PropOp38
 70
     1
102
RTVSPost2010Prop39
140
1.0
102
RTVSPost2010PropOp39
 70
     1
102
RTVSPost2010Prop40
 90
        0
102
RTVSPost2010PropOp40
 70
     1
102
RTVSPost2010Prop41ColorIndex
 90
       18
102
RTVSPost2010Prop41ColorRGB
 90
        0
102
RTVSPost2010PropOp41
 70
     1
102
RTVSPost2010Prop42
 90
       50
102
RTVSPost2010PropOp42
 70
     1
102
RTVSPost2010Prop43
 90
        3
102
RTVSPost2010PropOp43
 70
     1
102
RTVSPost2010Prop44ColorIndex
 90
        5
102
RTVSPost2010Prop44ColorRGB
 90
      255
102
RTVSPost2010PropOp44
 70
     1
102
RTVSPost2010Prop45
280
     0
102
RTVSPost2010PropOp45
 70
     1
102
RTVSPost2010Prop46
 90
       50
102
RTVSPost2010PropOp46
 70
     1
102
RTVSPost2010Prop47
 90
       50
102
RTVSPost2010PropOp47
 70
     1
102
RTVSPost2010Prop48
 90
       50
102
RTVSPost2010PropOp48
 70
     1
102
RTVSPost2010Prop49
280
     0
102
RTVSPost2010PropOp49
 70
     1
102
RTVSPost2010Prop50
 90
       50
102
RTVSPost2010PropOp50
 70
     1
102
RTVSPost2010Prop51ColorIndex
 90
      256
102
RTVSPost2010Prop51ColorRGB
 90
-16777216
102
RTVSPost2010PropOp51
 70
     0
102
RTVSPost2010Prop52
140
1.0
102
RTVSPost2010PropOp52
 70
     0
102
RTVSPost2010Prop53
 90
        2
102
RTVSPost2010PropOp53
 70
     1
102
RTVSPost2010Prop54
  1
strokes_ogs.tif
102
RTVSPost2010PropOp54
 70
     1
102
RTVSPost2010Prop55
280
     0
102
RTVSPost2010PropOp55
 70
     1
102
RTVSPost2010Prop56
140
1.0
102
RTVSPost2010PropOp56
 70
     1
102
RTVSPost2010Prop57
140
1.0
102
RTVSPost2010PropOp57
 70
     1
102
RTVSPropertyOp0
 70
     1
102
RTVSPropertyOp1
 70
     1
102
RTVSPropertyOp2
 70
     1
102
RTVSPropertyOp3
 70
     1
102
RTVSPropertyOp4
 70
     1
102
RTVSPropertyOp5
 70
     1
102
RTVSPropertyOp6
 70
     1
102
RTVSPropertyOp7
 70
     1
102
RTVSPropertyOp8
 70
     1
102
RTVSPropertyOp9
 70
     1
102
RTVSPropertyOp10
 70
     1
102
RTVSPropertyOp11
 70
     1
102
RTVSPropertyOp12
 70
     1
102
RTVSPropertyOp13
 70
     1
102
RTVSPropertyOp14
 70
     1
102
RTVSPropertyOp15
 70
     1
102
RTVSPropertyOp16
 70
     1
102
RTVSPropertyOp17
 70
     1
102
RTVSPropertyOp18
 70
     1
102
RTVSPropertyOp19
 70
     1
102
RTVSPropertyOp20
 70
     1
102
RTVSPropertyOp21
 70
     1
102
RTVSPropertyOp22
 70
     1
102
RTVSPropertyOp23
 70
     1
102
RTVSPropertyOp24
 70
     1
102
RTVSPropertyOp25
 70
     1
102
RTVSPropertyOp26
 70
     1
102
RTVSPropertyOp27
 70
     1
102
RTVSPropertyOp28
 70
     1
102
RTVSPropertyOp29
 70
     1
102
RTVSPropertyOp30
 70
     1
102
RTVSPropertyOp31
 70
     1
102
RTVSPropertyOp32
 70
     1
102
RTVSPropertyOp33
 70
     1
102
RTVSPropertyOp34
 70
     1
102
RTVSPropertyOp35
 70
     1
102
RTVSPropertyOp36
 70
     1
102
RTVSPropertyOp37
 70
     1
102
RTVSPropertyOp38
 70
     1
102
RTVSPropertyOp39
 70
     1
102
RTVSPropertyOp40
 70
     1
102
RTVSPropertyOp41
 70
     1
102
RTVSPropertyOp42
 70
     1
102
RTVSPropertyOp43
 70
     1
102
RTVSPropertyOp44
 70
     1
102
RTVSPropertyOp45
 70
     1
102
RTVSPropertyOp46
 70
     1
102
RTVSPropertyOp47
 70
     1
102
RTVSPropertyOp48
 70
     1
102
RTVSPropertyOp49
 70
     1
102
RTVSPropertyOp50
 70
     1
102
RTVSPropertyOp51
 70
     0
102
RTVSPropertyOp52
 70
     0
102
RTVSPropertyOp53
 70
     1
102
RTVSPropertyOp54
 70
     1
102
RTVSPropertyOp55
 70
     1
102
RTVSPropertyOp56
 70
     1
102
RTVSPropertyOp57
 70
     1
102
RTVSPropertyOp58
 70
     1
102
RTVSPropertyOp59
 70
     1
102
RTVSPropertyOp60
 70
     1
102
RTVSPropertyOp61
 70
     1
102
RTVSPropertyOp62
 70
     1
  0
XRECORD
  5
2C06
102
{ACAD_REACTORS
330
2C05
102
}
330
2C05
100
AcDbXrecord
280
     1
102
RTVSPost2010Prop28
280
     0
102
RTVSPost2010PropOp28
 70
     1
102
RTVSPost2010Prop29
280
     1
102
RTVSPost2010PropOp29
 70
     1
102
RTVSPost2010Prop30
280
     1
102
RTVSPost2010PropOp30
 70
     1
102
RTVSPost2010Prop31
280
     0
102
RTVSPost2010PropOp31
 70
     1
102
RTVSPost2010Prop32
280
     0
102
RTVSPost2010PropOp32
 70
     1
102
RTVSPost2010Prop33
280
     0
102
RTVSPost2010PropOp33
 70
     1
102
RTVSPost2010Prop34
280
     0
102
RTVSPost2010PropOp34
 70
     1
102
RTVSPost2010Prop35
280
     0
102
RTVSPost2010PropOp35
 70
     1
102
RTVSPost2010Prop36
280
     0
102
RTVSPost2010PropOp36
 70
     1
102
RTVSPost2010Prop37
 90
       50
102
RTVSPost2010PropOp37
 70
     1
102
RTVSPost2010Prop38
140
0.0
102
RTVSPost2010PropOp38
 70
     1
102
RTVSPost2010Prop39
140
1.0
102
RTVSPost2010PropOp39
 70
     1
102
RTVSPost2010Prop40
 90
        0
102
RTVSPost2010PropOp40
 70
     1
102
RTVSPost2010Prop41ColorIndex
 90
       18
102
RTVSPost2010Prop41ColorRGB
 90
        0
102
RTVSPost2010PropOp41
 70
     1
102
RTVSPost2010Prop42
 90
       50
102
RTVSPost2010PropOp42
 70
     1
102
RTVSPost2010Prop43
 90
        3
102
RTVSPost2010PropOp43
 70
     1
102
RTVSPost2010Prop44ColorIndex
 90
        5
102
RTVSPost2010Prop44ColorRGB
 90
      255
102
RTVSPost2010PropOp44
 70
     1
102
RTVSPost2010Prop45
280
     0
102
RTVSPost2010PropOp45
 70
     1
102
RTVSPost2010Prop46
 90
       50
102
RTVSPost2010PropOp46
 70
     1
102
RTVSPost2010Prop47
 90
       50
102
RTVSPost2010PropOp47
 70
     1
102
RTVSPost2010Prop48
 90
       50
102
RTVSPost2010PropOp48
 70
     1
102
RTVSPost2010Prop49
280
     0
102
RTVSPost2010PropOp49
 70
     1
102
RTVSPost2010Prop50
 90
       50
102
RTVSPost2010PropOp50
 70
     1
102
RTVSPost2010Prop51ColorIndex
 90
      256
102
RTVSPost2010Prop51ColorRGB
 90
-16777216
102
RTVSPost2010PropOp51
 70
     0
102
RTVSPost2010Prop52
140
1.0
102
RTVSPost2010PropOp52
 70
     0
102
RTVSPost2010Prop53
 90
        2
102
RTVSPost2010PropOp53
 70
     1
102
RTVSPost2010Prop54
  1
strokes_ogs.tif
102
RTVSPost2010PropOp54
 70
     1
102
RTVSPost2010Prop55
280
     0
102
RTVSPost2010PropOp55
 70
     1
102
RTVSPost2010Prop56
140
1.0
102
RTVSPost2010PropOp56
 70
     1
102
RTVSPost2010Prop57
140
1.0
102
RTVSPost2010PropOp57
 70
     1
102
RTVSPropertyOp0
 70
     1
102
RTVSPropertyOp1
 70
     1
102
RTVSPropertyOp2
 70
     1
102
RTVSPropertyOp3
 70
     1
102
RTVSPropertyOp4
 70
     1
102
RTVSPropertyOp5
 70
     1
102
RTVSPropertyOp6
 70
     1
102
RTVSPropertyOp7
 70
     1
102
RTVSPropertyOp8
 70
     1
102
RTVSPropertyOp9
 70
     1
102
RTVSPropertyOp10
 70
     1
102
RTVSPropertyOp11
 70
     1
102
RTVSPropertyOp12
 70
     1
102
RTVSPropertyOp13
 70
     1
102
RTVSPropertyOp14
 70
     1
102
RTVSPropertyOp15
 70
     1
102
RTVSPropertyOp16
 70
     1
102
RTVSPropertyOp17
 70
     1
102
RTVSPropertyOp18
 70
     1
102
RTVSPropertyOp19
 70
     1
102
RTVSPropertyOp20
 70
     1
102
RTVSPropertyOp21
 70
     1
102
RTVSPropertyOp22
 70
     1
102
RTVSPropertyOp23
 70
     1
102
RTVSPropertyOp24
 70
     1
102
RTVSPropertyOp25
 70
     1
102
RTVSPropertyOp26
 70
     1
102
RTVSPropertyOp27
 70
     1
102
RTVSPropertyOp28
 70
     1
102
RTVSPropertyOp29
 70
     1
102
RTVSPropertyOp30
 70
     1
102
RTVSPropertyOp31
 70
     1
102
RTVSPropertyOp32
 70
     1
102
RTVSPropertyOp33
 70
     1
102
RTVSPropertyOp34
 70
     1
102
RTVSPropertyOp35
 70
     1
102
RTVSPropertyOp36
 70
     1
102
RTVSPropertyOp37
 70
     1
102
RTVSPropertyOp38
 70
     1
102
RTVSPropertyOp39
 70
     1
102
RTVSPropertyOp40
 70
     1
102
RTVSPropertyOp41
 70
     1
102
RTVSPropertyOp42
 70
     1
102
RTVSPropertyOp43
 70
     1
102
RTVSPropertyOp44
 70
     1
102
RTVSPropertyOp45
 70
     1
102
RTVSPropertyOp46
 70
     1
102
RTVSPropertyOp47
 70
     1
102
RTVSPropertyOp48
 70
     1
102
RTVSPropertyOp49
 70
     1
102
RTVSPropertyOp50
 70
     1
102
RTVSPropertyOp51
 70
     0
102
RTVSPropertyOp52
 70
     0
102
RTVSPropertyOp53
 70
     1
102
RTVSPropertyOp54
 70
     1
102
RTVSPropertyOp55
 70
     1
102
RTVSPropertyOp56
 70
     1
102
RTVSPropertyOp57
 70
     1
102
RTVSPropertyOp58
 70
     1
102
RTVSPropertyOp59
 70
     1
102
RTVSPropertyOp60
 70
     1
102
RTVSPropertyOp61
 70
     1
102
RTVSPropertyOp62
 70
     1
  0
XRECORD
  5
2C0E
102
{ACAD_REACTORS
330
2C0D
102
}
330
2C0D
100
AcDbXrecord
280
     1
102
RTVSPost2010Prop28
280
     0
102
RTVSPost2010PropOp28
 70
     1
102
RTVSPost2010Prop29
280
     1
102
RTVSPost2010PropOp29
 70
     1
102
RTVSPost2010Prop30
280
     1
102
RTVSPost2010PropOp30
 70
     1
102
RTVSPost2010Prop31
280
     0
102
RTVSPost2010PropOp31
 70
     1
102
RTVSPost2010Prop32
280
     0
102
RTVSPost2010PropOp32
 70
     1
102
RTVSPost2010Prop33
280
     0
102
RTVSPost2010PropOp33
 70
     1
102
RTVSPost2010Prop34
280
     0
102
RTVSPost2010PropOp34
 70
     1
102
RTVSPost2010Prop35
280
     0
102
RTVSPost2010PropOp35
 70
     1
102
RTVSPost2010Prop36
280
     0
102
RTVSPost2010PropOp36
 70
     1
102
RTVSPost2010Prop37
 90
       50
102
RTVSPost2010PropOp37
 70
     1
102
RTVSPost2010Prop38
140
0.0
102
RTVSPost2010PropOp38
 70
     1
102
RTVSPost2010Prop39
140
1.0
102
RTVSPost2010PropOp39
 70
     1
102
RTVSPost2010Prop40
 90
        0
102
RTVSPost2010PropOp40
 70
     1
102
RTVSPost2010Prop41ColorIndex
 90
       18
102
RTVSPost2010Prop41ColorRGB
 90
        0
102
RTVSPost2010PropOp41
 70
     1
102
RTVSPost2010Prop42
 90
       50
102
RTVSPost2010PropOp42
 70
     1
102
RTVSPost2010Prop43
 90
        3
102
RTVSPost2010PropOp43
 70
     1
102
RTVSPost2010Prop44ColorIndex
 90
        5
102
RTVSPost2010Prop44ColorRGB
 90
      255
102
RTVSPost2010PropOp44
 70
     1
102
RTVSPost2010Prop45
280
     0
102
RTVSPost2010PropOp45
 70
     1
102
RTVSPost2010Prop46
 90
       50
102
RTVSPost2010PropOp46
 70
     1
102
RTVSPost2010Prop47
 90
       50
102
RTVSPost2010PropOp47
 70
     1
102
RTVSPost2010Prop48
 90
       50
102
RTVSPost2010PropOp48
 70
     1
102
RTVSPost2010Prop49
280
     0
102
RTVSPost2010PropOp49
 70
     1
102
RTVSPost2010Prop50
 90
       50
102
RTVSPost2010PropOp50
 70
     1
102
RTVSPost2010Prop51ColorIndex
 90
      256
102
RTVSPost2010Prop51ColorRGB
 90
-16777216
102
RTVSPost2010PropOp51
 70
     0
102
RTVSPost2010Prop52
140
1.0
102
RTVSPost2010PropOp52
 70
     0
102
RTVSPost2010Prop53
 90
        2
102
RTVSPost2010PropOp53
 70
     1
102
RTVSPost2010Prop54
  1
strokes_ogs.tif
102
RTVSPost2010PropOp54
 70
     1
102
RTVSPost2010Prop55
280
     0
102
RTVSPost2010PropOp55
 70
     1
102
RTVSPost2010Prop56
140
1.0
102
RTVSPost2010PropOp56
 70
     1
102
RTVSPost2010Prop57
140
1.0
102
RTVSPost2010PropOp57
 70
     1
102
RTVSPropertyOp0
 70
     1
102
RTVSPropertyOp1
 70
     1
102
RTVSPropertyOp2
 70
     1
102
RTVSPropertyOp3
 70
     1
102
RTVSPropertyOp4
 70
     1
102
RTVSPropertyOp5
 70
     1
102
RTVSPropertyOp6
 70
     1
102
RTVSPropertyOp7
 70
     1
102
RTVSPropertyOp8
 70
     1
102
RTVSPropertyOp9
 70
     1
102
RTVSPropertyOp10
 70
     1
102
RTVSPropertyOp11
 70
     1
102
RTVSPropertyOp12
 70
     1
102
RTVSPropertyOp13
 70
     1
102
RTVSPropertyOp14
 70
     1
102
RTVSPropertyOp15
 70
     1
102
RTVSPropertyOp16
 70
     1
102
RTVSPropertyOp17
 70
     1
102
RTVSPropertyOp18
 70
     1
102
RTVSPropertyOp19
 70
     1
102
RTVSPropertyOp20
 70
     1
102
RTVSPropertyOp21
 70
     1
102
RTVSPropertyOp22
 70
     1
102
RTVSPropertyOp23
 70
     1
102
RTVSPropertyOp24
 70
     1
102
RTVSPropertyOp25
 70
     1
102
RTVSPropertyOp26
 70
     1
102
RTVSPropertyOp27
 70
     1
102
RTVSPropertyOp28
 70
     1
102
RTVSPropertyOp29
 70
     1
102
RTVSPropertyOp30
 70
     1
102
RTVSPropertyOp31
 70
     1
102
RTVSPropertyOp32
 70
     1
102
RTVSPropertyOp33
 70
     1
102
RTVSPropertyOp34
 70
     1
102
RTVSPropertyOp35
 70
     1
102
RTVSPropertyOp36
 70
     1
102
RTVSPropertyOp37
 70
     1
102
RTVSPropertyOp38
 70
     1
102
RTVSPropertyOp39
 70
     1
102
RTVSPropertyOp40
 70
     1
102
RTVSPropertyOp41
 70
     1
102
RTVSPropertyOp42
 70
     1
102
RTVSPropertyOp43
 70
     1
102
RTVSPropertyOp44
 70
     1
102
RTVSPropertyOp45
 70
     1
102
RTVSPropertyOp46
 70
     1
102
RTVSPropertyOp47
 70
     1
102
RTVSPropertyOp48
 70
     1
102
RTVSPropertyOp49
 70
     1
102
RTVSPropertyOp50
 70
     1
102
RTVSPropertyOp51
 70
     0
102
RTVSPropertyOp52
 70
     0
102
RTVSPropertyOp53
 70
     1
102
RTVSPropertyOp54
 70
     1
102
RTVSPropertyOp55
 70
     1
102
RTVSPropertyOp56
 70
     1
102
RTVSPropertyOp57
 70
     1
102
RTVSPropertyOp58
 70
     1
102
RTVSPropertyOp59
 70
     1
102
RTVSPropertyOp60
 70
     1
102
RTVSPropertyOp61
 70
     1
102
RTVSPropertyOp62
 70
     1
  0
XRECORD
  5
2C00
102
{ACAD_REACTORS
330
2BFF
102
}
330
2BFF
100
AcDbXrecord
280
     1
102
RTVSPost2010Prop28
280
     0
102
RTVSPost2010PropOp28
 70
     1
102
RTVSPost2010Prop29
280
     1
102
RTVSPost2010PropOp29
 70
     1
102
RTVSPost2010Prop30
280
     1
102
RTVSPost2010PropOp30
 70
     1
102
RTVSPost2010Prop31
280
     0
102
RTVSPost2010PropOp31
 70
     1
102
RTVSPost2010Prop32
280
     0
102
RTVSPost2010PropOp32
 70
     1
102
RTVSPost2010Prop33
280
     0
102
RTVSPost2010PropOp33
 70
     1
102
RTVSPost2010Prop34
280
     0
102
RTVSPost2010PropOp34
 70
     1
102
RTVSPost2010Prop35
280
     0
102
RTVSPost2010PropOp35
 70
     1
102
RTVSPost2010Prop36
280
     0
102
RTVSPost2010PropOp36
 70
     1
102
RTVSPost2010Prop37
 90
       50
102
RTVSPost2010PropOp37
 70
     1
102
RTVSPost2010Prop38
140
0.0
102
RTVSPost2010PropOp38
 70
     1
102
RTVSPost2010Prop39
140
1.0
102
RTVSPost2010PropOp39
 70
     1
102
RTVSPost2010Prop40
 90
        0
102
RTVSPost2010PropOp40
 70
     1
102
RTVSPost2010Prop41ColorIndex
 90
       18
102
RTVSPost2010Prop41ColorRGB
 90
        0
102
RTVSPost2010PropOp41
 70
     1
102
RTVSPost2010Prop42
 90
       50
102
RTVSPost2010PropOp42
 70
     1
102
RTVSPost2010Prop43
 90
        3
102
RTVSPost2010PropOp43
 70
     1
102
RTVSPost2010Prop44ColorIndex
 90
        5
102
RTVSPost2010Prop44ColorRGB
 90
      255
102
RTVSPost2010PropOp44
 70
     1
102
RTVSPost2010Prop45
280
     0
102
RTVSPost2010PropOp45
 70
     1
102
RTVSPost2010Prop46
 90
       50
102
RTVSPost2010PropOp46
 70
     1
102
RTVSPost2010Prop47
 90
       50
102
RTVSPost2010PropOp47
 70
     1
102
RTVSPost2010Prop48
 90
       50
102
RTVSPost2010PropOp48
 70
     1
102
RTVSPost2010Prop49
280
     0
102
RTVSPost2010PropOp49
 70
     1
102
RTVSPost2010Prop50
 90
       50
102
RTVSPost2010PropOp50
 70
     1
102
RTVSPost2010Prop51ColorIndex
 90
      256
102
RTVSPost2010Prop51ColorRGB
 90
-16777216
102
RTVSPost2010PropOp51
 70
     0
102
RTVSPost2010Prop52
140
1.0
102
RTVSPost2010PropOp52
 70
     0
102
RTVSPost2010Prop53
 90
        2
102
RTVSPost2010PropOp53
 70
     1
102
RTVSPost2010Prop54
  1
strokes_ogs.tif
102
RTVSPost2010PropOp54
 70
     1
102
RTVSPost2010Prop55
280
     0
102
RTVSPost2010PropOp55
 70
     1
102
RTVSPost2010Prop56
140
1.0
102
RTVSPost2010PropOp56
 70
     1
102
RTVSPost2010Prop57
140
1.0
102
RTVSPost2010PropOp57
 70
     1
102
RTVSPropertyOp0
 70
     1
102
RTVSPropertyOp1
 70
     1
102
RTVSPropertyOp2
 70
     1
102
RTVSPropertyOp3
 70
     1
102
RTVSPropertyOp4
 70
     1
102
RTVSPropertyOp5
 70
     1
102
RTVSPropertyOp6
 70
     1
102
RTVSPropertyOp7
 70
     1
102
RTVSPropertyOp8
 70
     1
102
RTVSPropertyOp9
 70
     1
102
RTVSPropertyOp10
 70
     1
102
RTVSPropertyOp11
 70
     1
102
RTVSPropertyOp12
 70
     1
102
RTVSPropertyOp13
 70
     1
102
RTVSPropertyOp14
 70
     1
102
RTVSPropertyOp15
 70
     1
102
RTVSPropertyOp16
 70
     1
102
RTVSPropertyOp17
 70
     1
102
RTVSPropertyOp18
 70
     1
102
RTVSPropertyOp19
 70
     1
102
RTVSPropertyOp20
 70
     1
102
RTVSPropertyOp21
 70
     1
102
RTVSPropertyOp22
 70
     1
102
RTVSPropertyOp23
 70
     1
102
RTVSPropertyOp24
 70
     1
102
RTVSPropertyOp25
 70
     1
102
RTVSPropertyOp26
 70
     1
102
RTVSPropertyOp27
 70
     1
102
RTVSPropertyOp28
 70
     1
102
RTVSPropertyOp29
 70
     1
102
RTVSPropertyOp30
 70
     1
102
RTVSPropertyOp31
 70
     1
102
RTVSPropertyOp32
 70
     1
102
RTVSPropertyOp33
 70
     1
102
RTVSPropertyOp34
 70
     1
102
RTVSPropertyOp35
 70
     1
102
RTVSPropertyOp36
 70
     1
102
RTVSPropertyOp37
 70
     1
102
RTVSPropertyOp38
 70
     1
102
RTVSPropertyOp39
 70
     1
102
RTVSPropertyOp40
 70
     1
102
RTVSPropertyOp41
 70
     1
102
RTVSPropertyOp42
 70
     1
102
RTVSPropertyOp43
 70
     1
102
RTVSPropertyOp44
 70
     1
102
RTVSPropertyOp45
 70
     1
102
RTVSPropertyOp46
 70
     1
102
RTVSPropertyOp47
 70
     1
102
RTVSPropertyOp48
 70
     1
102
RTVSPropertyOp49
 70
     1
102
RTVSPropertyOp50
 70
     1
102
RTVSPropertyOp51
 70
     0
102
RTVSPropertyOp52
 70
     0
102
RTVSPropertyOp53
 70
     1
102
RTVSPropertyOp54
 70
     1
102
RTVSPropertyOp55
 70
     1
102
RTVSPropertyOp56
 70
     1
102
RTVSPropertyOp57
 70
     1
102
RTVSPropertyOp58
 70
     1
102
RTVSPropertyOp59
 70
     1
102
RTVSPropertyOp60
 70
     1
102
RTVSPropertyOp61
 70
     1
102
RTVSPropertyOp62
 70
     1
  0
XRECORD
  5
2C04
102
{ACAD_REACTORS
330
2C03
102
}
330
2C03
100
AcDbXrecord
280
     1
102
RTVSPost2010Prop28
280
     0
102
RTVSPost2010PropOp28
 70
     1
102
RTVSPost2010Prop29
280
     1
102
RTVSPost2010PropOp29
 70
     1
102
RTVSPost2010Prop30
280
     1
102
RTVSPost2010PropOp30
 70
     1
102
RTVSPost2010Prop31
280
     0
102
RTVSPost2010PropOp31
 70
     1
102
RTVSPost2010Prop32
280
     0
102
RTVSPost2010PropOp32
 70
     1
102
RTVSPost2010Prop33
280
     0
102
RTVSPost2010PropOp33
 70
     1
102
RTVSPost2010Prop34
280
     0
102
RTVSPost2010PropOp34
 70
     1
102
RTVSPost2010Prop35
280
     0
102
RTVSPost2010PropOp35
 70
     1
102
RTVSPost2010Prop36
280
     0
102
RTVSPost2010PropOp36
 70
     1
102
RTVSPost2010Prop37
 90
       50
102
RTVSPost2010PropOp37
 70
     1
102
RTVSPost2010Prop38
140
0.0
102
RTVSPost2010PropOp38
 70
     1
102
RTVSPost2010Prop39
140
1.0
102
RTVSPost2010PropOp39
 70
     1
102
RTVSPost2010Prop40
 90
        0
102
RTVSPost2010PropOp40
 70
     1
102
RTVSPost2010Prop41ColorIndex
 90
       18
102
RTVSPost2010Prop41ColorRGB
 90
        0
102
RTVSPost2010PropOp41
 70
     1
102
RTVSPost2010Prop42
 90
       50
102
RTVSPost2010PropOp42
 70
     1
102
RTVSPost2010Prop43
 90
        3
102
RTVSPost2010PropOp43
 70
     1
102
RTVSPost2010Prop44ColorIndex
 90
        5
102
RTVSPost2010Prop44ColorRGB
 90
      255
102
RTVSPost2010PropOp44
 70
     1
102
RTVSPost2010Prop45
280
     0
102
RTVSPost2010PropOp45
 70
     1
102
RTVSPost2010Prop46
 90
       50
102
RTVSPost2010PropOp46
 70
     1
102
RTVSPost2010Prop47
 90
       50
102
RTVSPost2010PropOp47
 70
     1
102
RTVSPost2010Prop48
 90
       50
102
RTVSPost2010PropOp48
 70
     1
102
RTVSPost2010Prop49
280
     0
102
RTVSPost2010PropOp49
 70
     1
102
RTVSPost2010Prop50
 90
       50
102
RTVSPost2010PropOp50
 70
     1
102
RTVSPost2010Prop51ColorIndex
 90
      256
102
RTVSPost2010Prop51ColorRGB
 90
-16777216
102
RTVSPost2010PropOp51
 70
     0
102
RTVSPost2010Prop52
140
1.0
102
RTVSPost2010PropOp52
 70
     0
102
RTVSPost2010Prop53
 90
        2
102
RTVSPost2010PropOp53
 70
     1
102
RTVSPost2010Prop54
  1
strokes_ogs.tif
102
RTVSPost2010PropOp54
 70
     1
102
RTVSPost2010Prop55
280
     0
102
RTVSPost2010PropOp55
 70
     1
102
RTVSPost2010Prop56
140
1.0
102
RTVSPost2010PropOp56
 70
     1
102
RTVSPost2010Prop57
140
1.0
102
RTVSPost2010PropOp57
 70
     1
102
RTVSPropertyOp0
 70
     1
102
RTVSPropertyOp1
 70
     1
102
RTVSPropertyOp2
 70
     1
102
RTVSPropertyOp3
 70
     1
102
RTVSPropertyOp4
 70
     1
102
RTVSPropertyOp5
 70
     1
102
RTVSPropertyOp6
 70
     1
102
RTVSPropertyOp7
 70
     1
102
RTVSPropertyOp8
 70
     1
102
RTVSPropertyOp9
 70
     1
102
RTVSPropertyOp10
 70
     1
102
RTVSPropertyOp11
 70
     1
102
RTVSPropertyOp12
 70
     1
102
RTVSPropertyOp13
 70
     1
102
RTVSPropertyOp14
 70
     1
102
RTVSPropertyOp15
 70
     1
102
RTVSPropertyOp16
 70
     1
102
RTVSPropertyOp17
 70
     1
102
RTVSPropertyOp18
 70
     1
102
RTVSPropertyOp19
 70
     1
102
RTVSPropertyOp20
 70
     1
102
RTVSPropertyOp21
 70
     1
102
RTVSPropertyOp22
 70
     1
102
RTVSPropertyOp23
 70
     1
102
RTVSPropertyOp24
 70
     1
102
RTVSPropertyOp25
 70
     1
102
RTVSPropertyOp26
 70
     1
102
RTVSPropertyOp27
 70
     1
102
RTVSPropertyOp28
 70
     1
102
RTVSPropertyOp29
 70
     1
102
RTVSPropertyOp30
 70
     1
102
RTVSPropertyOp31
 70
     1
102
RTVSPropertyOp32
 70
     1
102
RTVSPropertyOp33
 70
     1
102
RTVSPropertyOp34
 70
     1
102
RTVSPropertyOp35
 70
     1
102
RTVSPropertyOp36
 70
     1
102
RTVSPropertyOp37
 70
     1
102
RTVSPropertyOp38
 70
     1
102
RTVSPropertyOp39
 70
     1
102
RTVSPropertyOp40
 70
     1
102
RTVSPropertyOp41
 70
     1
102
RTVSPropertyOp42
 70
     1
102
RTVSPropertyOp43
 70
     1
102
RTVSPropertyOp44
 70
     1
102
RTVSPropertyOp45
 70
     1
102
RTVSPropertyOp46
 70
     1
102
RTVSPropertyOp47
 70
     1
102
RTVSPropertyOp48
 70
     1
102
RTVSPropertyOp49
 70
     1
102
RTVSPropertyOp50
 70
     1
102
RTVSPropertyOp51
 70
     0
102
RTVSPropertyOp52
 70
     0
102
RTVSPropertyOp53
 70
     1
102
RTVSPropertyOp54
 70
     1
102
RTVSPropertyOp55
 70
     1
102
RTVSPropertyOp56
 70
     1
102
RTVSPropertyOp57
 70
     1
102
RTVSPropertyOp58
 70
     1
102
RTVSPropertyOp59
 70
     1
102
RTVSPropertyOp60
 70
     1
102
RTVSPropertyOp61
 70
     1
102
RTVSPropertyOp62
 70
     1
  0
XRECORD
  5
2C1E
102
{ACAD_REACTORS
330
2C1D
102
}
330
2C1D
100
AcDbXrecord
280
     1
102
RTVSPost2010Prop28
280
     0
102
RTVSPost2010PropOp28
 70
     1
102
RTVSPost2010Prop29
280
     1
102
RTVSPost2010PropOp29
 70
     1
102
RTVSPost2010Prop30
280
     1
102
RTVSPost2010PropOp30
 70
     1
102
RTVSPost2010Prop31
280
     0
102
RTVSPost2010PropOp31
 70
     1
102
RTVSPost2010Prop32
280
     0
102
RTVSPost2010PropOp32
 70
     1
102
RTVSPost2010Prop33
280
     0
102
RTVSPost2010PropOp33
 70
     1
102
RTVSPost2010Prop34
280
     0
102
RTVSPost2010PropOp34
 70
     1
102
RTVSPost2010Prop35
280
     0
102
RTVSPost2010PropOp35
 70
     1
102
RTVSPost2010Prop36
280
     0
102
RTVSPost2010PropOp36
 70
     1
102
RTVSPost2010Prop37
 90
       50
102
RTVSPost2010PropOp37
 70
     0
102
RTVSPost2010Prop38
140
0.0
102
RTVSPost2010PropOp38
 70
     0
102
RTVSPost2010Prop39
140
1.0
102
RTVSPost2010PropOp39
 70
     0
102
RTVSPost2010Prop40
 90
        0
102
RTVSPost2010PropOp40
 70
     0
102
RTVSPost2010Prop41ColorIndex
 90
       18
102
RTVSPost2010Prop41ColorRGB
 90
        0
102
RTVSPost2010PropOp41
 70
     0
102
RTVSPost2010Prop42
 90
       50
102
RTVSPost2010PropOp42
 70
     0
102
RTVSPost2010Prop43
 90
        3
102
RTVSPost2010PropOp43
 70
     0
102
RTVSPost2010Prop44ColorIndex
 90
        5
102
RTVSPost2010Prop44ColorRGB
 90
      255
102
RTVSPost2010PropOp44
 70
     0
102
RTVSPost2010Prop45
280
     0
102
RTVSPost2010PropOp45
 70
     1
102
RTVSPost2010Prop46
 90
       50
102
RTVSPost2010PropOp46
 70
     0
102
RTVSPost2010Prop47
 90
       50
102
RTVSPost2010PropOp47
 70
     0
102
RTVSPost2010Prop48
 90
       50
102
RTVSPost2010PropOp48
 70
     0
102
RTVSPost2010Prop49
280
     0
102
RTVSPost2010PropOp49
 70
     1
102
RTVSPost2010Prop50
 90
       50
102
RTVSPost2010PropOp50
 70
     0
102
RTVSPost2010Prop51ColorIndex
 90
      256
102
RTVSPost2010Prop51ColorRGB
 90
-16777216
102
RTVSPost2010PropOp51
 70
     0
102
RTVSPost2010Prop52
140
1.0
102
RTVSPost2010PropOp52
 70
     0
102
RTVSPost2010Prop53
 90
        2
102
RTVSPost2010PropOp53
 70
     0
102
RTVSPost2010Prop54
  1
strokes_ogs.tif
102
RTVSPost2010PropOp54
 70
     0
102
RTVSPost2010Prop55
280
     0
102
RTVSPost2010PropOp55
 70
     1
102
RTVSPost2010Prop56
140
1.0
102
RTVSPost2010PropOp56
 70
     0
102
RTVSPost2010Prop57
140
1.0
102
RTVSPost2010PropOp57
 70
     0
102
RTVSPropertyOp0
 70
     0
102
RTVSPropertyOp1
 70
     0
102
RTVSPropertyOp2
 70
     0
102
RTVSPropertyOp3
 70
     0
102
RTVSPropertyOp4
 70
     0
102
RTVSPropertyOp5
 70
     0
102
RTVSPropertyOp6
 70
     0
102
RTVSPropertyOp7
 70
     0
102
RTVSPropertyOp8
 70
     0
102
RTVSPropertyOp9
 70
     0
102
RTVSPropertyOp10
 70
     0
102
RTVSPropertyOp11
 70
     0
102
RTVSPropertyOp12
 70
     0
102
RTVSPropertyOp13
 70
     0
102
RTVSPropertyOp14
 70
     2
102
RTVSPropertyOp15
 70
     0
102
RTVSPropertyOp16
 70
     0
102
RTVSPropertyOp17
 70
     0
102
RTVSPropertyOp18
 70
     0
102
RTVSPropertyOp19
 70
     0
102
RTVSPropertyOp20
 70
     0
102
RTVSPropertyOp21
 70
     0
102
RTVSPropertyOp22
 70
     0
102
RTVSPropertyOp23
 70
     0
102
RTVSPropertyOp24
 70
     0
102
RTVSPropertyOp25
 70
     0
102
RTVSPropertyOp26
 70
     0
102
RTVSPropertyOp27
 70
     0
102
RTVSPropertyOp28
 70
     1
102
RTVSPropertyOp29
 70
     1
102
RTVSPropertyOp30
 70
     1
102
RTVSPropertyOp31
 70
     1
102
RTVSPropertyOp32
 70
     1
102
RTVSPropertyOp33
 70
     1
102
RTVSPropertyOp34
 70
     1
102
RTVSPropertyOp35
 70
     1
102
RTVSPropertyOp36
 70
     1
102
RTVSPropertyOp37
 70
     0
102
RTVSPropertyOp38
 70
     0
102
RTVSPropertyOp39
 70
     0
102
RTVSPropertyOp40
 70
     0
102
RTVSPropertyOp41
 70
     0
102
RTVSPropertyOp42
 70
     0
102
RTVSPropertyOp43
 70
     0
102
RTVSPropertyOp44
 70
     0
102
RTVSPropertyOp45
 70
     1
102
RTVSPropertyOp46
 70
     0
102
RTVSPropertyOp47
 70
     0
102
RTVSPropertyOp48
 70
     0
102
RTVSPropertyOp49
 70
     1
102
RTVSPropertyOp50
 70
     0
102
RTVSPropertyOp51
 70
     0
102
RTVSPropertyOp52
 70
     0
102
RTVSPropertyOp53
 70
     0
102
RTVSPropertyOp54
 70
     0
102
RTVSPropertyOp55
 70
     1
102
RTVSPropertyOp56
 70
     0
102
RTVSPropertyOp57
 70
     0
102
RTVSPropertyOp58
 70
     0
102
RTVSPropertyOp59
 70
     0
102
RTVSPropertyOp60
 70
     0
102
RTVSPropertyOp61
 70
     0
102
RTVSPropertyOp62
 70
     0
  0
XRECORD
  5
2C0C
102
{ACAD_REACTORS
330
2C0B
102
}
330
2C0B
100
AcDbXrecord
280
     1
102
RTVSPost2010Prop28
280
     0
102
RTVSPost2010PropOp28
 70
     1
102
RTVSPost2010Prop29
280
     1
102
RTVSPost2010PropOp29
 70
     1
102
RTVSPost2010Prop30
280
     1
102
RTVSPost2010PropOp30
 70
     1
102
RTVSPost2010Prop31
280
     0
102
RTVSPost2010PropOp31
 70
     1
102
RTVSPost2010Prop32
280
     0
102
RTVSPost2010PropOp32
 70
     1
102
RTVSPost2010Prop33
280
     0
102
RTVSPost2010PropOp33
 70
     1
102
RTVSPost2010Prop34
280
     0
102
RTVSPost2010PropOp34
 70
     1
102
RTVSPost2010Prop35
280
     0
102
RTVSPost2010PropOp35
 70
     1
102
RTVSPost2010Prop36
280
     0
102
RTVSPost2010PropOp36
 70
     1
102
RTVSPost2010Prop37
 90
       50
102
RTVSPost2010PropOp37
 70
     1
102
RTVSPost2010Prop38
140
0.0
102
RTVSPost2010PropOp38
 70
     1
102
RTVSPost2010Prop39
140
1.0
102
RTVSPost2010PropOp39
 70
     1
102
RTVSPost2010Prop40
 90
        0
102
RTVSPost2010PropOp40
 70
     1
102
RTVSPost2010Prop41ColorIndex
 90
       18
102
RTVSPost2010Prop41ColorRGB
 90
        0
102
RTVSPost2010PropOp41
 70
     1
102
RTVSPost2010Prop42
 90
       50
102
RTVSPost2010PropOp42
 70
     1
102
RTVSPost2010Prop43
 90
        3
102
RTVSPost2010PropOp43
 70
     1
102
RTVSPost2010Prop44ColorIndex
 90
        5
102
RTVSPost2010Prop44ColorRGB
 90
      255
102
RTVSPost2010PropOp44
 70
     1
102
RTVSPost2010Prop45
280
     0
102
RTVSPost2010PropOp45
 70
     1
102
RTVSPost2010Prop46
 90
       50
102
RTVSPost2010PropOp46
 70
     1
102
RTVSPost2010Prop47
 90
       50
102
RTVSPost2010PropOp47
 70
     1
102
RTVSPost2010Prop48
 90
       50
102
RTVSPost2010PropOp48
 70
     1
102
RTVSPost2010Prop49
280
     0
102
RTVSPost2010PropOp49
 70
     1
102
RTVSPost2010Prop50
 90
       50
102
RTVSPost2010PropOp50
 70
     1
102
RTVSPost2010Prop51ColorIndex
 90
      256
102
RTVSPost2010Prop51ColorRGB
 90
-16777216
102
RTVSPost2010PropOp51
 70
     0
102
RTVSPost2010Prop52
140
1.0
102
RTVSPost2010PropOp52
 70
     0
102
RTVSPost2010Prop53
 90
        2
102
RTVSPost2010PropOp53
 70
     1
102
RTVSPost2010Prop54
  1
strokes_ogs.tif
102
RTVSPost2010PropOp54
 70
     1
102
RTVSPost2010Prop55
280
     0
102
RTVSPost2010PropOp55
 70
     1
102
RTVSPost2010Prop56
140
1.0
102
RTVSPost2010PropOp56
 70
     1
102
RTVSPost2010Prop57
140
1.0
102
RTVSPost2010PropOp57
 70
     1
102
RTVSPropertyOp0
 70
     1
102
RTVSPropertyOp1
 70
     1
102
RTVSPropertyOp2
 70
     1
102
RTVSPropertyOp3
 70
     1
102
RTVSPropertyOp4
 70
     1
102
RTVSPropertyOp5
 70
     1
102
RTVSPropertyOp6
 70
     1
102
RTVSPropertyOp7
 70
     1
102
RTVSPropertyOp8
 70
     1
102
RTVSPropertyOp9
 70
     1
102
RTVSPropertyOp10
 70
     1
102
RTVSPropertyOp11
 70
     1
102
RTVSPropertyOp12
 70
     1
102
RTVSPropertyOp13
 70
     1
102
RTVSPropertyOp14
 70
     1
102
RTVSPropertyOp15
 70
     1
102
RTVSPropertyOp16
 70
     1
102
RTVSPropertyOp17
 70
     1
102
RTVSPropertyOp18
 70
     1
102
RTVSPropertyOp19
 70
     1
102
RTVSPropertyOp20
 70
     1
102
RTVSPropertyOp21
 70
     1
102
RTVSPropertyOp22
 70
     1
102
RTVSPropertyOp23
 70
     1
102
RTVSPropertyOp24
 70
     1
102
RTVSPropertyOp25
 70
     1
102
RTVSPropertyOp26
 70
     1
102
RTVSPropertyOp27
 70
     1
102
RTVSPropertyOp28
 70
     1
102
RTVSPropertyOp29
 70
     1
102
RTVSPropertyOp30
 70
     1
102
RTVSPropertyOp31
 70
     1
102
RTVSPropertyOp32
 70
     1
102
RTVSPropertyOp33
 70
     1
102
RTVSPropertyOp34
 70
     1
102
RTVSPropertyOp35
 70
     1
102
RTVSPropertyOp36
 70
     1
102
RTVSPropertyOp37
 70
     1
102
RTVSPropertyOp38
 70
     1
102
RTVSPropertyOp39
 70
     1
102
RTVSPropertyOp40
 70
     1
102
RTVSPropertyOp41
 70
     1
102
RTVSPropertyOp42
 70
     1
102
RTVSPropertyOp43
 70
     1
102
RTVSPropertyOp44
 70
     1
102
RTVSPropertyOp45
 70
     1
102
RTVSPropertyOp46
 70
     1
102
RTVSPropertyOp47
 70
     1
102
RTVSPropertyOp48
 70
     1
102
RTVSPropertyOp49
 70
     1
102
RTVSPropertyOp50
 70
     1
102
RTVSPropertyOp51
 70
     0
102
RTVSPropertyOp52
 70
     0
102
RTVSPropertyOp53
 70
     1
102
RTVSPropertyOp54
 70
     1
102
RTVSPropertyOp55
 70
     1
102
RTVSPropertyOp56
 70
     1
102
RTVSPropertyOp57
 70
     1
102
RTVSPropertyOp58
 70
     1
102
RTVSPropertyOp59
 70
     1
102
RTVSPropertyOp60
 70
     1
102
RTVSPropertyOp61
 70
     1
102
RTVSPropertyOp62
 70
     1
  0
XRECORD
  5
2BF0
102
{ACAD_REACTORS
330
2BEF
102
}
330
2BEF
100
AcDbXrecord
280
     1
102
RTVSPost2010Prop28
280
     0
102
RTVSPost2010PropOp28
 70
     1
102
RTVSPost2010Prop29
280
     1
102
RTVSPost2010PropOp29
 70
     1
102
RTVSPost2010Prop30
280
     1
102
RTVSPost2010PropOp30
 70
     1
102
RTVSPost2010Prop31
280
     0
102
RTVSPost2010PropOp31
 70
     1
102
RTVSPost2010Prop32
280
     0
102
RTVSPost2010PropOp32
 70
     1
102
RTVSPost2010Prop33
280
     0
102
RTVSPost2010PropOp33
 70
     1
102
RTVSPost2010Prop34
280
     0
102
RTVSPost2010PropOp34
 70
     1
102
RTVSPost2010Prop35
280
     0
102
RTVSPost2010PropOp35
 70
     1
102
RTVSPost2010Prop36
280
     0
102
RTVSPost2010PropOp36
 70
     1
102
RTVSPost2010Prop37
 90
       50
102
RTVSPost2010PropOp37
 70
     1
102
RTVSPost2010Prop38
140
0.0
102
RTVSPost2010PropOp38
 70
     1
102
RTVSPost2010Prop39
140
1.0
102
RTVSPost2010PropOp39
 70
     1
102
RTVSPost2010Prop40
 90
        0
102
RTVSPost2010PropOp40
 70
     1
102
RTVSPost2010Prop41ColorIndex
 90
       18
102
RTVSPost2010Prop41ColorRGB
 90
        0
102
RTVSPost2010PropOp41
 70
     1
102
RTVSPost2010Prop42
 90
       50
102
RTVSPost2010PropOp42
 70
     1
102
RTVSPost2010Prop43
 90
        3
102
RTVSPost2010PropOp43
 70
     1
102
RTVSPost2010Prop44ColorIndex
 90
        5
102
RTVSPost2010Prop44ColorRGB
 90
      255
102
RTVSPost2010PropOp44
 70
     1
102
RTVSPost2010Prop45
280
     0
102
RTVSPost2010PropOp45
 70
     1
102
RTVSPost2010Prop46
 90
       50
102
RTVSPost2010PropOp46
 70
     1
102
RTVSPost2010Prop47
 90
       50
102
RTVSPost2010PropOp47
 70
     1
102
RTVSPost2010Prop48
 90
       50
102
RTVSPost2010PropOp48
 70
     1
102
RTVSPost2010Prop49
280
     0
102
RTVSPost2010PropOp49
 70
     1
102
RTVSPost2010Prop50
 90
       50
102
RTVSPost2010PropOp50
 70
     1
102
RTVSPost2010Prop51ColorIndex
 90
      256
102
RTVSPost2010Prop51ColorRGB
 90
-16777216
102
RTVSPost2010PropOp51
 70
     0
102
RTVSPost2010Prop52
140
1.0
102
RTVSPost2010PropOp52
 70
     0
102
RTVSPost2010Prop53
 90
        2
102
RTVSPost2010PropOp53
 70
     1
102
RTVSPost2010Prop54
  1
strokes_ogs.tif
102
RTVSPost2010PropOp54
 70
     1
102
RTVSPost2010Prop55
280
     0
102
RTVSPost2010PropOp55
 70
     1
102
RTVSPost2010Prop56
140
1.0
102
RTVSPost2010PropOp56
 70
     1
102
RTVSPost2010Prop57
140
1.0
102
RTVSPost2010PropOp57
 70
     1
102
RTVSPropertyOp0
 70
     1
102
RTVSPropertyOp1
 70
     1
102
RTVSPropertyOp2
 70
     1
102
RTVSPropertyOp3
 70
     1
102
RTVSPropertyOp4
 70
     1
102
RTVSPropertyOp5
 70
     1
102
RTVSPropertyOp6
 70
     1
102
RTVSPropertyOp7
 70
     1
102
RTVSPropertyOp8
 70
     1
102
RTVSPropertyOp9
 70
     1
102
RTVSPropertyOp10
 70
     1
102
RTVSPropertyOp11
 70
     1
102
RTVSPropertyOp12
 70
     1
102
RTVSPropertyOp13
 70
     1
102
RTVSPropertyOp14
 70
     1
102
RTVSPropertyOp15
 70
     1
102
RTVSPropertyOp16
 70
     1
102
RTVSPropertyOp17
 70
     1
102
RTVSPropertyOp18
 70
     1
102
RTVSPropertyOp19
 70
     1
102
RTVSPropertyOp20
 70
     1
102
RTVSPropertyOp21
 70
     1
102
RTVSPropertyOp22
 70
     1
102
RTVSPropertyOp23
 70
     1
102
RTVSPropertyOp24
 70
     1
102
RTVSPropertyOp25
 70
     1
102
RTVSPropertyOp26
 70
     1
102
RTVSPropertyOp27
 70
     1
102
RTVSPropertyOp28
 70
     1
102
RTVSPropertyOp29
 70
     1
102
RTVSPropertyOp30
 70
     1
102
RTVSPropertyOp31
 70
     1
102
RTVSPropertyOp32
 70
     1
102
RTVSPropertyOp33
 70
     1
102
RTVSPropertyOp34
 70
     1
102
RTVSPropertyOp35
 70
     1
102
RTVSPropertyOp36
 70
     1
102
RTVSPropertyOp37
 70
     1
102
RTVSPropertyOp38
 70
     1
102
RTVSPropertyOp39
 70
     1
102
RTVSPropertyOp40
 70
     1
102
RTVSPropertyOp41
 70
     1
102
RTVSPropertyOp42
 70
     1
102
RTVSPropertyOp43
 70
     1
102
RTVSPropertyOp44
 70
     1
102
RTVSPropertyOp45
 70
     1
102
RTVSPropertyOp46
 70
     1
102
RTVSPropertyOp47
 70
     1
102
RTVSPropertyOp48
 70
     1
102
RTVSPropertyOp49
 70
     1
102
RTVSPropertyOp50
 70
     1
102
RTVSPropertyOp51
 70
     0
102
RTVSPropertyOp52
 70
     0
102
RTVSPropertyOp53
 70
     1
102
RTVSPropertyOp54
 70
     1
102
RTVSPropertyOp55
 70
     1
102
RTVSPropertyOp56
 70
     1
102
RTVSPropertyOp57
 70
     1
102
RTVSPropertyOp58
 70
     1
102
RTVSPropertyOp59
 70
     1
102
RTVSPropertyOp60
 70
     1
102
RTVSPropertyOp61
 70
     1
102
RTVSPropertyOp62
 70
     1
  0
XRECORD
  5
2BF2
102
{ACAD_REACTORS
330
2BF1
102
}
330
2BF1
100
AcDbXrecord
280
     1
102
RTVSPost2010Prop28
280
     0
102
RTVSPost2010PropOp28
 70
     1
102
RTVSPost2010Prop29
280
     1
102
RTVSPost2010PropOp29
 70
     1
102
RTVSPost2010Prop30
280
     1
102
RTVSPost2010PropOp30
 70
     1
102
RTVSPost2010Prop31
280
     0
102
RTVSPost2010PropOp31
 70
     1
102
RTVSPost2010Prop32
280
     0
102
RTVSPost2010PropOp32
 70
     1
102
RTVSPost2010Prop33
280
     0
102
RTVSPost2010PropOp33
 70
     1
102
RTVSPost2010Prop34
280
     0
102
RTVSPost2010PropOp34
 70
     1
102
RTVSPost2010Prop35
280
     0
102
RTVSPost2010PropOp35
 70
     1
102
RTVSPost2010Prop36
280
     0
102
RTVSPost2010PropOp36
 70
     1
102
RTVSPost2010Prop37
 90
       50
102
RTVSPost2010PropOp37
 70
     1
102
RTVSPost2010Prop38
140
0.0
102
RTVSPost2010PropOp38
 70
     1
102
RTVSPost2010Prop39
140
1.0
102
RTVSPost2010PropOp39
 70
     1
102
RTVSPost2010Prop40
 90
        0
102
RTVSPost2010PropOp40
 70
     1
102
RTVSPost2010Prop41ColorIndex
 90
       18
102
RTVSPost2010Prop41ColorRGB
 90
        0
102
RTVSPost2010PropOp41
 70
     1
102
RTVSPost2010Prop42
 90
       50
102
RTVSPost2010PropOp42
 70
     1
102
RTVSPost2010Prop43
 90
        3
102
RTVSPost2010PropOp43
 70
     1
102
RTVSPost2010Prop44ColorIndex
 90
        5
102
RTVSPost2010Prop44ColorRGB
 90
      255
102
RTVSPost2010PropOp44
 70
     1
102
RTVSPost2010Prop45
280
     0
102
RTVSPost2010PropOp45
 70
     1
102
RTVSPost2010Prop46
 90
       50
102
RTVSPost2010PropOp46
 70
     1
102
RTVSPost2010Prop47
 90
       50
102
RTVSPost2010PropOp47
 70
     1
102
RTVSPost2010Prop48
 90
       50
102
RTVSPost2010PropOp48
 70
     1
102
RTVSPost2010Prop49
280
     0
102
RTVSPost2010PropOp49
 70
     1
102
RTVSPost2010Prop50
 90
       50
102
RTVSPost2010PropOp50
 70
     1
102
RTVSPost2010Prop51ColorIndex
 90
      256
102
RTVSPost2010Prop51ColorRGB
 90
-16777216
102
RTVSPost2010PropOp51
 70
     0
102
RTVSPost2010Prop52
140
1.0
102
RTVSPost2010PropOp52
 70
     0
102
RTVSPost2010Prop53
 90
        2
102
RTVSPost2010PropOp53
 70
     1
102
RTVSPost2010Prop54
  1
strokes_ogs.tif
102
RTVSPost2010PropOp54
 70
     1
102
RTVSPost2010Prop55
280
     0
102
RTVSPost2010PropOp55
 70
     1
102
RTVSPost2010Prop56
140
1.0
102
RTVSPost2010PropOp56
 70
     1
102
RTVSPost2010Prop57
140
1.0
102
RTVSPost2010PropOp57
 70
     1
102
RTVSPropertyOp0
 70
     1
102
RTVSPropertyOp1
 70
     1
102
RTVSPropertyOp2
 70
     1
102
RTVSPropertyOp3
 70
     1
102
RTVSPropertyOp4
 70
     1
102
RTVSPropertyOp5
 70
     1
102
RTVSPropertyOp6
 70
     1
102
RTVSPropertyOp7
 70
     1
102
RTVSPropertyOp8
 70
     1
102
RTVSPropertyOp9
 70
     1
102
RTVSPropertyOp10
 70
     1
102
RTVSPropertyOp11
 70
     1
102
RTVSPropertyOp12
 70
     1
102
RTVSPropertyOp13
 70
     1
102
RTVSPropertyOp14
 70
     1
102
RTVSPropertyOp15
 70
     1
102
RTVSPropertyOp16
 70
     1
102
RTVSPropertyOp17
 70
     1
102
RTVSPropertyOp18
 70
     1
102
RTVSPropertyOp19
 70
     1
102
RTVSPropertyOp20
 70
     1
102
RTVSPropertyOp21
 70
     1
102
RTVSPropertyOp22
 70
     1
102
RTVSPropertyOp23
 70
     1
102
RTVSPropertyOp24
 70
     1
102
RTVSPropertyOp25
 70
     1
102
RTVSPropertyOp26
 70
     1
102
RTVSPropertyOp27
 70
     1
102
RTVSPropertyOp28
 70
     1
102
RTVSPropertyOp29
 70
     1
102
RTVSPropertyOp30
 70
     1
102
RTVSPropertyOp31
 70
     1
102
RTVSPropertyOp32
 70
     1
102
RTVSPropertyOp33
 70
     1
102
RTVSPropertyOp34
 70
     1
102
RTVSPropertyOp35
 70
     1
102
RTVSPropertyOp36
 70
     1
102
RTVSPropertyOp37
 70
     1
102
RTVSPropertyOp38
 70
     1
102
RTVSPropertyOp39
 70
     1
102
RTVSPropertyOp40
 70
     1
102
RTVSPropertyOp41
 70
     1
102
RTVSPropertyOp42
 70
     1
102
RTVSPropertyOp43
 70
     1
102
RTVSPropertyOp44
 70
     1
102
RTVSPropertyOp45
 70
     1
102
RTVSPropertyOp46
 70
     1
102
RTVSPropertyOp47
 70
     1
102
RTVSPropertyOp48
 70
     1
102
RTVSPropertyOp49
 70
     1
102
RTVSPropertyOp50
 70
     1
102
RTVSPropertyOp51
 70
     0
102
RTVSPropertyOp52
 70
     0
102
RTVSPropertyOp53
 70
     1
102
RTVSPropertyOp54
 70
     1
102
RTVSPropertyOp55
 70
     1
102
RTVSPropertyOp56
 70
     1
102
RTVSPropertyOp57
 70
     1
102
RTVSPropertyOp58
 70
     1
102
RTVSPropertyOp59
 70
     1
102
RTVSPropertyOp60
 70
     1
102
RTVSPropertyOp61
 70
     1
102
RTVSPropertyOp62
 70
     1
  0
XRECORD
  5
2BF4
102
{ACAD_REACTORS
330
2BF3
102
}
330
2BF3
100
AcDbXrecord
280
     1
102
RTVSPost2010Prop28
280
     0
102
RTVSPost2010PropOp28
 70
     1
102
RTVSPost2010Prop29
280
     1
102
RTVSPost2010PropOp29
 70
     1
102
RTVSPost2010Prop30
280
     1
102
RTVSPost2010PropOp30
 70
     1
102
RTVSPost2010Prop31
280
     0
102
RTVSPost2010PropOp31
 70
     1
102
RTVSPost2010Prop32
280
     0
102
RTVSPost2010PropOp32
 70
     1
102
RTVSPost2010Prop33
280
     0
102
RTVSPost2010PropOp33
 70
     1
102
RTVSPost2010Prop34
280
     0
102
RTVSPost2010PropOp34
 70
     1
102
RTVSPost2010Prop35
280
     0
102
RTVSPost2010PropOp35
 70
     1
102
RTVSPost2010Prop36
280
     0
102
RTVSPost2010PropOp36
 70
     1
102
RTVSPost2010Prop37
 90
       50
102
RTVSPost2010PropOp37
 70
     1
102
RTVSPost2010Prop38
140
0.0
102
RTVSPost2010PropOp38
 70
     1
102
RTVSPost2010Prop39
140
1.0
102
RTVSPost2010PropOp39
 70
     1
102
RTVSPost2010Prop40
 90
        0
102
RTVSPost2010PropOp40
 70
     1
102
RTVSPost2010Prop41ColorIndex
 90
       18
102
RTVSPost2010Prop41ColorRGB
 90
        0
102
RTVSPost2010PropOp41
 70
     1
102
RTVSPost2010Prop42
 90
       50
102
RTVSPost2010PropOp42
 70
     1
102
RTVSPost2010Prop43
 90
        3
102
RTVSPost2010PropOp43
 70
     1
102
RTVSPost2010Prop44ColorIndex
 90
        5
102
RTVSPost2010Prop44ColorRGB
 90
      255
102
RTVSPost2010PropOp44
 70
     1
102
RTVSPost2010Prop45
280
     0
102
RTVSPost2010PropOp45
 70
     1
102
RTVSPost2010Prop46
 90
       50
102
RTVSPost2010PropOp46
 70
     1
102
RTVSPost2010Prop47
 90
       50
102
RTVSPost2010PropOp47
 70
     1
102
RTVSPost2010Prop48
 90
       50
102
RTVSPost2010PropOp48
 70
     1
102
RTVSPost2010Prop49
280
     0
102
RTVSPost2010PropOp49
 70
     1
102
RTVSPost2010Prop50
 90
       50
102
RTVSPost2010PropOp50
 70
     1
102
RTVSPost2010Prop51ColorIndex
 90
      256
102
RTVSPost2010Prop51ColorRGB
 90
-16777216
102
RTVSPost2010PropOp51
 70
     0
102
RTVSPost2010Prop52
140
1.0
102
RTVSPost2010PropOp52
 70
     0
102
RTVSPost2010Prop53
 90
        2
102
RTVSPost2010PropOp53
 70
     1
102
RTVSPost2010Prop54
  1
strokes_ogs.tif
102
RTVSPost2010PropOp54
 70
     1
102
RTVSPost2010Prop55
280
     0
102
RTVSPost2010PropOp55
 70
     1
102
RTVSPost2010Prop56
140
1.0
102
RTVSPost2010PropOp56
 70
     1
102
RTVSPost2010Prop57
140
1.0
102
RTVSPost2010PropOp57
 70
     1
102
RTVSPropertyOp0
 70
     1
102
RTVSPropertyOp1
 70
     1
102
RTVSPropertyOp2
 70
     1
102
RTVSPropertyOp3
 70
     1
102
RTVSPropertyOp4
 70
     1
102
RTVSPropertyOp5
 70
     1
102
RTVSPropertyOp6
 70
     1
102
RTVSPropertyOp7
 70
     1
102
RTVSPropertyOp8
 70
     1
102
RTVSPropertyOp9
 70
     1
102
RTVSPropertyOp10
 70
     1
102
RTVSPropertyOp11
 70
     1
102
RTVSPropertyOp12
 70
     1
102
RTVSPropertyOp13
 70
     1
102
RTVSPropertyOp14
 70
     1
102
RTVSPropertyOp15
 70
     1
102
RTVSPropertyOp16
 70
     1
102
RTVSPropertyOp17
 70
     1
102
RTVSPropertyOp18
 70
     1
102
RTVSPropertyOp19
 70
     1
102
RTVSPropertyOp20
 70
     1
102
RTVSPropertyOp21
 70
     1
102
RTVSPropertyOp22
 70
     1
102
RTVSPropertyOp23
 70
     1
102
RTVSPropertyOp24
 70
     1
102
RTVSPropertyOp25
 70
     1
102
RTVSPropertyOp26
 70
     1
102
RTVSPropertyOp27
 70
     1
102
RTVSPropertyOp28
 70
     1
102
RTVSPropertyOp29
 70
     1
102
RTVSPropertyOp30
 70
     1
102
RTVSPropertyOp31
 70
     1
102
RTVSPropertyOp32
 70
     1
102
RTVSPropertyOp33
 70
     1
102
RTVSPropertyOp34
 70
     1
102
RTVSPropertyOp35
 70
     1
102
RTVSPropertyOp36
 70
     1
102
RTVSPropertyOp37
 70
     1
102
RTVSPropertyOp38
 70
     1
102
RTVSPropertyOp39
 70
     1
102
RTVSPropertyOp40
 70
     1
102
RTVSPropertyOp41
 70
     1
102
RTVSPropertyOp42
 70
     1
102
RTVSPropertyOp43
 70
     1
102
RTVSPropertyOp44
 70
     1
102
RTVSPropertyOp45
 70
     1
102
RTVSPropertyOp46
 70
     1
102
RTVSPropertyOp47
 70
     1
102
RTVSPropertyOp48
 70
     1
102
RTVSPropertyOp49
 70
     1
102
RTVSPropertyOp50
 70
     1
102
RTVSPropertyOp51
 70
     0
102
RTVSPropertyOp52
 70
     0
102
RTVSPropertyOp53
 70
     1
102
RTVSPropertyOp54
 70
     1
102
RTVSPropertyOp55
 70
     1
102
RTVSPropertyOp56
 70
     1
102
RTVSPropertyOp57
 70
     1
102
RTVSPropertyOp58
 70
     1
102
RTVSPropertyOp59
 70
     1
102
RTVSPropertyOp60
 70
     1
102
RTVSPropertyOp61
 70
     1
102
RTVSPropertyOp62
 70
     1
  0
XRECORD
  5
2BF6
102
{ACAD_REACTORS
330
2BF5
102
}
330
2BF5
100
AcDbXrecord
280
     1
102
RTVSPost2010Prop28
280
     0
102
RTVSPost2010PropOp28
 70
     1
102
RTVSPost2010Prop29
280
     1
102
RTVSPost2010PropOp29
 70
     1
102
RTVSPost2010Prop30
280
     1
102
RTVSPost2010PropOp30
 70
     1
102
RTVSPost2010Prop31
280
     0
102
RTVSPost2010PropOp31
 70
     1
102
RTVSPost2010Prop32
280
     0
102
RTVSPost2010PropOp32
 70
     1
102
RTVSPost2010Prop33
280
     0
102
RTVSPost2010PropOp33
 70
     1
102
RTVSPost2010Prop34
280
     0
102
RTVSPost2010PropOp34
 70
     1
102
RTVSPost2010Prop35
280
     0
102
RTVSPost2010PropOp35
 70
     1
102
RTVSPost2010Prop36
280
     0
102
RTVSPost2010PropOp36
 70
     1
102
RTVSPost2010Prop37
 90
       50
102
RTVSPost2010PropOp37
 70
     1
102
RTVSPost2010Prop38
140
0.0
102
RTVSPost2010PropOp38
 70
     1
102
RTVSPost2010Prop39
140
1.0
102
RTVSPost2010PropOp39
 70
     1
102
RTVSPost2010Prop40
 90
        0
102
RTVSPost2010PropOp40
 70
     1
102
RTVSPost2010Prop41ColorIndex
 90
       18
102
RTVSPost2010Prop41ColorRGB
 90
        0
102
RTVSPost2010PropOp41
 70
     1
102
RTVSPost2010Prop42
 90
       50
102
RTVSPost2010PropOp42
 70
     1
102
RTVSPost2010Prop43
 90
        3
102
RTVSPost2010PropOp43
 70
     1
102
RTVSPost2010Prop44ColorIndex
 90
        5
102
RTVSPost2010Prop44ColorRGB
 90
      255
102
RTVSPost2010PropOp44
 70
     1
102
RTVSPost2010Prop45
280
     0
102
RTVSPost2010PropOp45
 70
     1
102
RTVSPost2010Prop46
 90
       50
102
RTVSPost2010PropOp46
 70
     1
102
RTVSPost2010Prop47
 90
       50
102
RTVSPost2010PropOp47
 70
     1
102
RTVSPost2010Prop48
 90
       50
102
RTVSPost2010PropOp48
 70
     1
102
RTVSPost2010Prop49
280
     0
102
RTVSPost2010PropOp49
 70
     1
102
RTVSPost2010Prop50
 90
       50
102
RTVSPost2010PropOp50
 70
     1
102
RTVSPost2010Prop51ColorIndex
 90
      256
102
RTVSPost2010Prop51ColorRGB
 90
-16777216
102
RTVSPost2010PropOp51
 70
     0
102
RTVSPost2010Prop52
140
1.0
102
RTVSPost2010PropOp52
 70
     0
102
RTVSPost2010Prop53
 90
        2
102
RTVSPost2010PropOp53
 70
     1
102
RTVSPost2010Prop54
  1
strokes_ogs.tif
102
RTVSPost2010PropOp54
 70
     1
102
RTVSPost2010Prop55
280
     0
102
RTVSPost2010PropOp55
 70
     1
102
RTVSPost2010Prop56
140
1.0
102
RTVSPost2010PropOp56
 70
     1
102
RTVSPost2010Prop57
140
1.0
102
RTVSPost2010PropOp57
 70
     1
102
RTVSPropertyOp0
 70
     1
102
RTVSPropertyOp1
 70
     1
102
RTVSPropertyOp2
 70
     1
102
RTVSPropertyOp3
 70
     1
102
RTVSPropertyOp4
 70
     1
102
RTVSPropertyOp5
 70
     1
102
RTVSPropertyOp6
 70
     1
102
RTVSPropertyOp7
 70
     1
102
RTVSPropertyOp8
 70
     1
102
RTVSPropertyOp9
 70
     1
102
RTVSPropertyOp10
 70
     1
102
RTVSPropertyOp11
 70
     1
102
RTVSPropertyOp12
 70
     1
102
RTVSPropertyOp13
 70
     1
102
RTVSPropertyOp14
 70
     1
102
RTVSPropertyOp15
 70
     1
102
RTVSPropertyOp16
 70
     1
102
RTVSPropertyOp17
 70
     1
102
RTVSPropertyOp18
 70
     1
102
RTVSPropertyOp19
 70
     1
102
RTVSPropertyOp20
 70
     1
102
RTVSPropertyOp21
 70
     1
102
RTVSPropertyOp22
 70
     1
102
RTVSPropertyOp23
 70
     1
102
RTVSPropertyOp24
 70
     1
102
RTVSPropertyOp25
 70
     1
102
RTVSPropertyOp26
 70
     1
102
RTVSPropertyOp27
 70
     1
102
RTVSPropertyOp28
 70
     1
102
RTVSPropertyOp29
 70
     1
102
RTVSPropertyOp30
 70
     1
102
RTVSPropertyOp31
 70
     1
102
RTVSPropertyOp32
 70
     1
102
RTVSPropertyOp33
 70
     1
102
RTVSPropertyOp34
 70
     1
102
RTVSPropertyOp35
 70
     1
102
RTVSPropertyOp36
 70
     1
102
RTVSPropertyOp37
 70
     1
102
RTVSPropertyOp38
 70
     1
102
RTVSPropertyOp39
 70
     1
102
RTVSPropertyOp40
 70
     1
102
RTVSPropertyOp41
 70
     1
102
RTVSPropertyOp42
 70
     1
102
RTVSPropertyOp43
 70
     1
102
RTVSPropertyOp44
 70
     1
102
RTVSPropertyOp45
 70
     1
102
RTVSPropertyOp46
 70
     1
102
RTVSPropertyOp47
 70
     1
102
RTVSPropertyOp48
 70
     1
102
RTVSPropertyOp49
 70
     1
102
RTVSPropertyOp50
 70
     1
102
RTVSPropertyOp51
 70
     0
102
RTVSPropertyOp52
 70
     0
102
RTVSPropertyOp53
 70
     1
102
RTVSPropertyOp54
 70
     1
102
RTVSPropertyOp55
 70
     1
102
RTVSPropertyOp56
 70
     1
102
RTVSPropertyOp57
 70
     1
102
RTVSPropertyOp58
 70
     1
102
RTVSPropertyOp59
 70
     1
102
RTVSPropertyOp60
 70
     1
102
RTVSPropertyOp61
 70
     1
102
RTVSPropertyOp62
 70
     1
  0
XRECORD
  5
2BFE
102
{ACAD_REACTORS
330
2BFD
102
}
330
2BFD
100
AcDbXrecord
280
     1
102
RTVSPost2010Prop28
280
     0
102
RTVSPost2010PropOp28
 70
     1
102
RTVSPost2010Prop29
280
     1
102
RTVSPost2010PropOp29
 70
     1
102
RTVSPost2010Prop30
280
     1
102
RTVSPost2010PropOp30
 70
     1
102
RTVSPost2010Prop31
280
     0
102
RTVSPost2010PropOp31
 70
     1
102
RTVSPost2010Prop32
280
     0
102
RTVSPost2010PropOp32
 70
     1
102
RTVSPost2010Prop33
280
     0
102
RTVSPost2010PropOp33
 70
     1
102
RTVSPost2010Prop34
280
     0
102
RTVSPost2010PropOp34
 70
     1
102
RTVSPost2010Prop35
280
     0
102
RTVSPost2010PropOp35
 70
     1
102
RTVSPost2010Prop36
280
     0
102
RTVSPost2010PropOp36
 70
     1
102
RTVSPost2010Prop37
 90
       50
102
RTVSPost2010PropOp37
 70
     1
102
RTVSPost2010Prop38
140
0.0
102
RTVSPost2010PropOp38
 70
     1
102
RTVSPost2010Prop39
140
1.0
102
RTVSPost2010PropOp39
 70
     1
102
RTVSPost2010Prop40
 90
        0
102
RTVSPost2010PropOp40
 70
     1
102
RTVSPost2010Prop41ColorIndex
 90
       18
102
RTVSPost2010Prop41ColorRGB
 90
        0
102
RTVSPost2010PropOp41
 70
     1
102
RTVSPost2010Prop42
 90
       50
102
RTVSPost2010PropOp42
 70
     1
102
RTVSPost2010Prop43
 90
        3
102
RTVSPost2010PropOp43
 70
     1
102
RTVSPost2010Prop44ColorIndex
 90
        5
102
RTVSPost2010Prop44ColorRGB
 90
      255
102
RTVSPost2010PropOp44
 70
     1
102
RTVSPost2010Prop45
280
     0
102
RTVSPost2010PropOp45
 70
     1
102
RTVSPost2010Prop46
 90
       50
102
RTVSPost2010PropOp46
 70
     1
102
RTVSPost2010Prop47
 90
       50
102
RTVSPost2010PropOp47
 70
     1
102
RTVSPost2010Prop48
 90
       50
102
RTVSPost2010PropOp48
 70
     1
102
RTVSPost2010Prop49
280
     0
102
RTVSPost2010PropOp49
 70
     1
102
RTVSPost2010Prop50
 90
       50
102
RTVSPost2010PropOp50
 70
     1
102
RTVSPost2010Prop51ColorIndex
 90
      256
102
RTVSPost2010Prop51ColorRGB
 90
-16777216
102
RTVSPost2010PropOp51
 70
     0
102
RTVSPost2010Prop52
140
1.0
102
RTVSPost2010PropOp52
 70
     0
102
RTVSPost2010Prop53
 90
        2
102
RTVSPost2010PropOp53
 70
     1
102
RTVSPost2010Prop54
  1
strokes_ogs.tif
102
RTVSPost2010PropOp54
 70
     1
102
RTVSPost2010Prop55
280
     0
102
RTVSPost2010PropOp55
 70
     1
102
RTVSPost2010Prop56
140
1.0
102
RTVSPost2010PropOp56
 70
     1
102
RTVSPost2010Prop57
140
1.0
102
RTVSPost2010PropOp57
 70
     1
102
RTVSPropertyOp0
 70
     1
102
RTVSPropertyOp1
 70
     1
102
RTVSPropertyOp2
 70
     1
102
RTVSPropertyOp3
 70
     1
102
RTVSPropertyOp4
 70
     1
102
RTVSPropertyOp5
 70
     1
102
RTVSPropertyOp6
 70
     1
102
RTVSPropertyOp7
 70
     1
102
RTVSPropertyOp8
 70
     1
102
RTVSPropertyOp9
 70
     1
102
RTVSPropertyOp10
 70
     1
102
RTVSPropertyOp11
 70
     1
102
RTVSPropertyOp12
 70
     1
102
RTVSPropertyOp13
 70
     1
102
RTVSPropertyOp14
 70
     1
102
RTVSPropertyOp15
 70
     1
102
RTVSPropertyOp16
 70
     1
102
RTVSPropertyOp17
 70
     1
102
RTVSPropertyOp18
 70
     1
102
RTVSPropertyOp19
 70
     1
102
RTVSPropertyOp20
 70
     1
102
RTVSPropertyOp21
 70
     1
102
RTVSPropertyOp22
 70
     1
102
RTVSPropertyOp23
 70
     1
102
RTVSPropertyOp24
 70
     1
102
RTVSPropertyOp25
 70
     1
102
RTVSPropertyOp26
 70
     1
102
RTVSPropertyOp27
 70
     1
102
RTVSPropertyOp28
 70
     1
102
RTVSPropertyOp29
 70
     1
102
RTVSPropertyOp30
 70
     1
102
RTVSPropertyOp31
 70
     1
102
RTVSPropertyOp32
 70
     1
102
RTVSPropertyOp33
 70
     1
102
RTVSPropertyOp34
 70
     1
102
RTVSPropertyOp35
 70
     1
102
RTVSPropertyOp36
 70
     1
102
RTVSPropertyOp37
 70
     1
102
RTVSPropertyOp38
 70
     1
102
RTVSPropertyOp39
 70
     1
102
RTVSPropertyOp40
 70
     1
102
RTVSPropertyOp41
 70
     1
102
RTVSPropertyOp42
 70
     1
102
RTVSPropertyOp43
 70
     1
102
RTVSPropertyOp44
 70
     1
102
RTVSPropertyOp45
 70
     1
102
RTVSPropertyOp46
 70
     1
102
RTVSPropertyOp47
 70
     1
102
RTVSPropertyOp48
 70
     1
102
RTVSPropertyOp49
 70
     1
102
RTVSPropertyOp50
 70
     1
102
RTVSPropertyOp51
 70
     0
102
RTVSPropertyOp52
 70
     0
102
RTVSPropertyOp53
 70
     1
102
RTVSPropertyOp54
 70
     1
102
RTVSPropertyOp55
 70
     1
102
RTVSPropertyOp56
 70
     1
102
RTVSPropertyOp57
 70
     1
102
RTVSPropertyOp58
 70
     1
102
RTVSPropertyOp59
 70
     1
102
RTVSPropertyOp60
 70
     1
102
RTVSPropertyOp61
 70
     1
102
RTVSPropertyOp62
 70
     1
  0
XRECORD
  5
2C1A
102
{ACAD_REACTORS
330
2C19
102
}
330
2C19
100
AcDbXrecord
280
     1
102
RTVSPost2010Prop28
280
     0
102
RTVSPost2010PropOp28
 70
     1
102
RTVSPost2010Prop29
280
     1
102
RTVSPost2010PropOp29
 70
     1
102
RTVSPost2010Prop30
280
     1
102
RTVSPost2010PropOp30
 70
     1
102
RTVSPost2010Prop31
280
     0
102
RTVSPost2010PropOp31
 70
     1
102
RTVSPost2010Prop32
280
     0
102
RTVSPost2010PropOp32
 70
     1
102
RTVSPost2010Prop33
280
     0
102
RTVSPost2010PropOp33
 70
     1
102
RTVSPost2010Prop34
280
     0
102
RTVSPost2010PropOp34
 70
     1
102
RTVSPost2010Prop35
280
     0
102
RTVSPost2010PropOp35
 70
     1
102
RTVSPost2010Prop36
280
     0
102
RTVSPost2010PropOp36
 70
     1
102
RTVSPost2010Prop37
 90
       50
102
RTVSPost2010PropOp37
 70
     0
102
RTVSPost2010Prop38
140
0.0
102
RTVSPost2010PropOp38
 70
     0
102
RTVSPost2010Prop39
140
1.0
102
RTVSPost2010PropOp39
 70
     0
102
RTVSPost2010Prop40
 90
        0
102
RTVSPost2010PropOp40
 70
     0
102
RTVSPost2010Prop41ColorIndex
 90
       18
102
RTVSPost2010Prop41ColorRGB
 90
        0
102
RTVSPost2010PropOp41
 70
     0
102
RTVSPost2010Prop42
 90
       50
102
RTVSPost2010PropOp42
 70
     0
102
RTVSPost2010Prop43
 90
        3
102
RTVSPost2010PropOp43
 70
     0
102
RTVSPost2010Prop44ColorIndex
 90
        5
102
RTVSPost2010Prop44ColorRGB
 90
      255
102
RTVSPost2010PropOp44
 70
     0
102
RTVSPost2010Prop45
280
     0
102
RTVSPost2010PropOp45
 70
     1
102
RTVSPost2010Prop46
 90
       50
102
RTVSPost2010PropOp46
 70
     0
102
RTVSPost2010Prop47
 90
       50
102
RTVSPost2010PropOp47
 70
     0
102
RTVSPost2010Prop48
 90
       50
102
RTVSPost2010PropOp48
 70
     0
102
RTVSPost2010Prop49
280
     0
102
RTVSPost2010PropOp49
 70
     1
102
RTVSPost2010Prop50
 90
       50
102
RTVSPost2010PropOp50
 70
     0
102
RTVSPost2010Prop51ColorIndex
 90
      256
102
RTVSPost2010Prop51ColorRGB
 90
-16777216
102
RTVSPost2010PropOp51
 70
     0
102
RTVSPost2010Prop52
140
1.0
102
RTVSPost2010PropOp52
 70
     0
102
RTVSPost2010Prop53
 90
        2
102
RTVSPost2010PropOp53
 70
     0
102
RTVSPost2010Prop54
  1
strokes_ogs.tif
102
RTVSPost2010PropOp54
 70
     0
102
RTVSPost2010Prop55
280
     0
102
RTVSPost2010PropOp55
 70
     1
102
RTVSPost2010Prop56
140
1.0
102
RTVSPost2010PropOp56
 70
     0
102
RTVSPost2010Prop57
140
1.0
102
RTVSPost2010PropOp57
 70
     0
102
RTVSPropertyOp0
 70
     0
102
RTVSPropertyOp1
 70
     0
102
RTVSPropertyOp2
 70
     0
102
RTVSPropertyOp3
 70
     0
102
RTVSPropertyOp4
 70
     0
102
RTVSPropertyOp5
 70
     0
102
RTVSPropertyOp6
 70
     0
102
RTVSPropertyOp7
 70
     0
102
RTVSPropertyOp8
 70
     0
102
RTVSPropertyOp9
 70
     0
102
RTVSPropertyOp10
 70
     0
102
RTVSPropertyOp11
 70
     0
102
RTVSPropertyOp12
 70
     0
102
RTVSPropertyOp13
 70
     0
102
RTVSPropertyOp14
 70
     2
102
RTVSPropertyOp15
 70
     0
102
RTVSPropertyOp16
 70
     0
102
RTVSPropertyOp17
 70
     0
102
RTVSPropertyOp18
 70
     0
102
RTVSPropertyOp19
 70
     0
102
RTVSPropertyOp20
 70
     0
102
RTVSPropertyOp21
 70
     0
102
RTVSPropertyOp22
 70
     0
102
RTVSPropertyOp23
 70
     0
102
RTVSPropertyOp24
 70
     0
102
RTVSPropertyOp25
 70
     0
102
RTVSPropertyOp26
 70
     0
102
RTVSPropertyOp27
 70
     0
102
RTVSPropertyOp28
 70
     1
102
RTVSPropertyOp29
 70
     1
102
RTVSPropertyOp30
 70
     1
102
RTVSPropertyOp31
 70
     1
102
RTVSPropertyOp32
 70
     1
102
RTVSPropertyOp33
 70
     1
102
RTVSPropertyOp34
 70
     1
102
RTVSPropertyOp35
 70
     1
102
RTVSPropertyOp36
 70
     1
102
RTVSPropertyOp37
 70
     0
102
RTVSPropertyOp38
 70
     0
102
RTVSPropertyOp39
 70
     0
102
RTVSPropertyOp40
 70
     0
102
RTVSPropertyOp41
 70
     0
102
RTVSPropertyOp42
 70
     0
102
RTVSPropertyOp43
 70
     0
102
RTVSPropertyOp44
 70
     0
102
RTVSPropertyOp45
 70
     1
102
RTVSPropertyOp46
 70
     0
102
RTVSPropertyOp47
 70
     0
102
RTVSPropertyOp48
 70
     0
102
RTVSPropertyOp49
 70
     1
102
RTVSPropertyOp50
 70
     0
102
RTVSPropertyOp51
 70
     0
102
RTVSPropertyOp52
 70
     0
102
RTVSPropertyOp53
 70
     0
102
RTVSPropertyOp54
 70
     0
102
RTVSPropertyOp55
 70
     1
102
RTVSPropertyOp56
 70
     0
102
RTVSPropertyOp57
 70
     0
102
RTVSPropertyOp58
 70
     0
102
RTVSPropertyOp59
 70
     0
102
RTVSPropertyOp60
 70
     0
102
RTVSPropertyOp61
 70
     0
102
RTVSPropertyOp62
 70
     0
  0
XRECORD
  5
2C0A
102
{ACAD_REACTORS
330
2C09
102
}
330
2C09
100
AcDbXrecord
280
     1
102
RTVSPost2010Prop28
280
     0
102
RTVSPost2010PropOp28
 70
     1
102
RTVSPost2010Prop29
280
     1
102
RTVSPost2010PropOp29
 70
     1
102
RTVSPost2010Prop30
280
     1
102
RTVSPost2010PropOp30
 70
     1
102
RTVSPost2010Prop31
280
     0
102
RTVSPost2010PropOp31
 70
     1
102
RTVSPost2010Prop32
280
     0
102
RTVSPost2010PropOp32
 70
     1
102
RTVSPost2010Prop33
280
     0
102
RTVSPost2010PropOp33
 70
     1
102
RTVSPost2010Prop34
280
     0
102
RTVSPost2010PropOp34
 70
     1
102
RTVSPost2010Prop35
280
     0
102
RTVSPost2010PropOp35
 70
     1
102
RTVSPost2010Prop36
280
     0
102
RTVSPost2010PropOp36
 70
     1
102
RTVSPost2010Prop37
 90
       50
102
RTVSPost2010PropOp37
 70
     1
102
RTVSPost2010Prop38
140
0.0
102
RTVSPost2010PropOp38
 70
     1
102
RTVSPost2010Prop39
140
1.0
102
RTVSPost2010PropOp39
 70
     1
102
RTVSPost2010Prop40
 90
        0
102
RTVSPost2010PropOp40
 70
     1
102
RTVSPost2010Prop41ColorIndex
 90
       18
102
RTVSPost2010Prop41ColorRGB
 90
        0
102
RTVSPost2010PropOp41
 70
     1
102
RTVSPost2010Prop42
 90
       50
102
RTVSPost2010PropOp42
 70
     1
102
RTVSPost2010Prop43
 90
        3
102
RTVSPost2010PropOp43
 70
     1
102
RTVSPost2010Prop44ColorIndex
 90
        5
102
RTVSPost2010Prop44ColorRGB
 90
      255
102
RTVSPost2010PropOp44
 70
     1
102
RTVSPost2010Prop45
280
     0
102
RTVSPost2010PropOp45
 70
     1
102
RTVSPost2010Prop46
 90
       50
102
RTVSPost2010PropOp46
 70
     1
102
RTVSPost2010Prop47
 90
       50
102
RTVSPost2010PropOp47
 70
     1
102
RTVSPost2010Prop48
 90
       50
102
RTVSPost2010PropOp48
 70
     1
102
RTVSPost2010Prop49
280
     0
102
RTVSPost2010PropOp49
 70
     1
102
RTVSPost2010Prop50
 90
       50
102
RTVSPost2010PropOp50
 70
     1
102
RTVSPost2010Prop51ColorIndex
 90
      256
102
RTVSPost2010Prop51ColorRGB
 90
-16777216
102
RTVSPost2010PropOp51
 70
     0
102
RTVSPost2010Prop52
140
1.0
102
RTVSPost2010PropOp52
 70
     0
102
RTVSPost2010Prop53
 90
        2
102
RTVSPost2010PropOp53
 70
     1
102
RTVSPost2010Prop54
  1
strokes_ogs.tif
102
RTVSPost2010PropOp54
 70
     1
102
RTVSPost2010Prop55
280
     0
102
RTVSPost2010PropOp55
 70
     1
102
RTVSPost2010Prop56
140
1.0
102
RTVSPost2010PropOp56
 70
     1
102
RTVSPost2010Prop57
140
1.0
102
RTVSPost2010PropOp57
 70
     1
102
RTVSPropertyOp0
 70
     1
102
RTVSPropertyOp1
 70
     1
102
RTVSPropertyOp2
 70
     1
102
RTVSPropertyOp3
 70
     1
102
RTVSPropertyOp4
 70
     1
102
RTVSPropertyOp5
 70
     1
102
RTVSPropertyOp6
 70
     1
102
RTVSPropertyOp7
 70
     1
102
RTVSPropertyOp8
 70
     1
102
RTVSPropertyOp9
 70
     1
102
RTVSPropertyOp10
 70
     1
102
RTVSPropertyOp11
 70
     1
102
RTVSPropertyOp12
 70
     1
102
RTVSPropertyOp13
 70
     1
102
RTVSPropertyOp14
 70
     1
102
RTVSPropertyOp15
 70
     1
102
RTVSPropertyOp16
 70
     1
102
RTVSPropertyOp17
 70
     1
102
RTVSPropertyOp18
 70
     1
102
RTVSPropertyOp19
 70
     1
102
RTVSPropertyOp20
 70
     1
102
RTVSPropertyOp21
 70
     1
102
RTVSPropertyOp22
 70
     1
102
RTVSPropertyOp23
 70
     1
102
RTVSPropertyOp24
 70
     1
102
RTVSPropertyOp25
 70
     1
102
RTVSPropertyOp26
 70
     1
102
RTVSPropertyOp27
 70
     1
102
RTVSPropertyOp28
 70
     1
102
RTVSPropertyOp29
 70
     1
102
RTVSPropertyOp30
 70
     1
102
RTVSPropertyOp31
 70
     1
102
RTVSPropertyOp32
 70
     1
102
RTVSPropertyOp33
 70
     1
102
RTVSPropertyOp34
 70
     1
102
RTVSPropertyOp35
 70
     1
102
RTVSPropertyOp36
 70
     1
102
RTVSPropertyOp37
 70
     1
102
RTVSPropertyOp38
 70
     1
102
RTVSPropertyOp39
 70
     1
102
RTVSPropertyOp40
 70
     1
102
RTVSPropertyOp41
 70
     1
102
RTVSPropertyOp42
 70
     1
102
RTVSPropertyOp43
 70
     1
102
RTVSPropertyOp44
 70
     1
102
RTVSPropertyOp45
 70
     1
102
RTVSPropertyOp46
 70
     1
102
RTVSPropertyOp47
 70
     1
102
RTVSPropertyOp48
 70
     1
102
RTVSPropertyOp49
 70
     1
102
RTVSPropertyOp50
 70
     1
102
RTVSPropertyOp51
 70
     0
102
RTVSPropertyOp52
 70
     0
102
RTVSPropertyOp53
 70
     1
102
RTVSPropertyOp54
 70
     1
102
RTVSPropertyOp55
 70
     1
102
RTVSPropertyOp56
 70
     1
102
RTVSPropertyOp57
 70
     1
102
RTVSPropertyOp58
 70
     1
102
RTVSPropertyOp59
 70
     1
102
RTVSPropertyOp60
 70
     1
102
RTVSPropertyOp61
 70
     1
102
RTVSPropertyOp62
 70
     1
  0
XRECORD
  5
2C1C
102
{ACAD_REACTORS
330
2C1B
102
}
330
2C1B
100
AcDbXrecord
280
     1
102
RTVSPost2010Prop28
280
     0
102
RTVSPost2010PropOp28
 70
     1
102
RTVSPost2010Prop29
280
     1
102
RTVSPost2010PropOp29
 70
     1
102
RTVSPost2010Prop30
280
     1
102
RTVSPost2010PropOp30
 70
     1
102
RTVSPost2010Prop31
280
     0
102
RTVSPost2010PropOp31
 70
     1
102
RTVSPost2010Prop32
280
     0
102
RTVSPost2010PropOp32
 70
     1
102
RTVSPost2010Prop33
280
     0
102
RTVSPost2010PropOp33
 70
     1
102
RTVSPost2010Prop34
280
     0
102
RTVSPost2010PropOp34
 70
     1
102
RTVSPost2010Prop35
280
     0
102
RTVSPost2010PropOp35
 70
     1
102
RTVSPost2010Prop36
280
     0
102
RTVSPost2010PropOp36
 70
     1
102
RTVSPost2010Prop37
 90
       50
102
RTVSPost2010PropOp37
 70
     0
102
RTVSPost2010Prop38
140
0.0
102
RTVSPost2010PropOp38
 70
     0
102
RTVSPost2010Prop39
140
1.0
102
RTVSPost2010PropOp39
 70
     0
102
RTVSPost2010Prop40
 90
        0
102
RTVSPost2010PropOp40
 70
     0
102
RTVSPost2010Prop41ColorIndex
 90
       18
102
RTVSPost2010Prop41ColorRGB
 90
        0
102
RTVSPost2010PropOp41
 70
     0
102
RTVSPost2010Prop42
 90
       50
102
RTVSPost2010PropOp42
 70
     0
102
RTVSPost2010Prop43
 90
        3
102
RTVSPost2010PropOp43
 70
     0
102
RTVSPost2010Prop44ColorIndex
 90
        5
102
RTVSPost2010Prop44ColorRGB
 90
      255
102
RTVSPost2010PropOp44
 70
     0
102
RTVSPost2010Prop45
280
     0
102
RTVSPost2010PropOp45
 70
     1
102
RTVSPost2010Prop46
 90
       50
102
RTVSPost2010PropOp46
 70
     0
102
RTVSPost2010Prop47
 90
       50
102
RTVSPost2010PropOp47
 70
     0
102
RTVSPost2010Prop48
 90
       50
102
RTVSPost2010PropOp48
 70
     0
102
RTVSPost2010Prop49
280
     0
102
RTVSPost2010PropOp49
 70
     1
102
RTVSPost2010Prop50
 90
       50
102
RTVSPost2010PropOp50
 70
     0
102
RTVSPost2010Prop51ColorIndex
 90
      256
102
RTVSPost2010Prop51ColorRGB
 90
-16777216
102
RTVSPost2010PropOp51
 70
     0
102
RTVSPost2010Prop52
140
1.0
102
RTVSPost2010PropOp52
 70
     0
102
RTVSPost2010Prop53
 90
        2
102
RTVSPost2010PropOp53
 70
     0
102
RTVSPost2010Prop54
  1
strokes_ogs.tif
102
RTVSPost2010PropOp54
 70
     0
102
RTVSPost2010Prop55
280
     0
102
RTVSPost2010PropOp55
 70
     1
102
RTVSPost2010Prop56
140
1.0
102
RTVSPost2010PropOp56
 70
     0
102
RTVSPost2010Prop57
140
1.0
102
RTVSPost2010PropOp57
 70
     0
102
RTVSPropertyOp0
 70
     0
102
RTVSPropertyOp1
 70
     0
102
RTVSPropertyOp2
 70
     0
102
RTVSPropertyOp3
 70
     0
102
RTVSPropertyOp4
 70
     0
102
RTVSPropertyOp5
 70
     0
102
RTVSPropertyOp6
 70
     0
102
RTVSPropertyOp7
 70
     0
102
RTVSPropertyOp8
 70
     0
102
RTVSPropertyOp9
 70
     0
102
RTVSPropertyOp10
 70
     0
102
RTVSPropertyOp11
 70
     0
102
RTVSPropertyOp12
 70
     0
102
RTVSPropertyOp13
 70
     0
102
RTVSPropertyOp14
 70
     2
102
RTVSPropertyOp15
 70
     0
102
RTVSPropertyOp16
 70
     0
102
RTVSPropertyOp17
 70
     0
102
RTVSPropertyOp18
 70
     0
102
RTVSPropertyOp19
 70
     0
102
RTVSPropertyOp20
 70
     0
102
RTVSPropertyOp21
 70
     0
102
RTVSPropertyOp22
 70
     0
102
RTVSPropertyOp23
 70
     0
102
RTVSPropertyOp24
 70
     0
102
RTVSPropertyOp25
 70
     0
102
RTVSPropertyOp26
 70
     0
102
RTVSPropertyOp27
 70
     0
102
RTVSPropertyOp28
 70
     1
102
RTVSPropertyOp29
 70
     1
102
RTVSPropertyOp30
 70
     1
102
RTVSPropertyOp31
 70
     1
102
RTVSPropertyOp32
 70
     1
102
RTVSPropertyOp33
 70
     1
102
RTVSPropertyOp34
 70
     1
102
RTVSPropertyOp35
 70
     1
102
RTVSPropertyOp36
 70
     1
102
RTVSPropertyOp37
 70
     0
102
RTVSPropertyOp38
 70
     0
102
RTVSPropertyOp39
 70
     0
102
RTVSPropertyOp40
 70
     0
102
RTVSPropertyOp41
 70
     0
102
RTVSPropertyOp42
 70
     0
102
RTVSPropertyOp43
 70
     0
102
RTVSPropertyOp44
 70
     0
102
RTVSPropertyOp45
 70
     1
102
RTVSPropertyOp46
 70
     0
102
RTVSPropertyOp47
 70
     0
102
RTVSPropertyOp48
 70
     0
102
RTVSPropertyOp49
 70
     1
102
RTVSPropertyOp50
 70
     0
102
RTVSPropertyOp51
 70
     0
102
RTVSPropertyOp52
 70
     0
102
RTVSPropertyOp53
 70
     0
102
RTVSPropertyOp54
 70
     0
102
RTVSPropertyOp55
 70
     1
102
RTVSPropertyOp56
 70
     0
102
RTVSPropertyOp57
 70
     0
102
RTVSPropertyOp58
 70
     0
102
RTVSPropertyOp59
 70
     0
102
RTVSPropertyOp60
 70
     0
102
RTVSPropertyOp61
 70
     0
102
RTVSPropertyOp62
 70
     0
  0
XRECORD
  5
2C02
102
{ACAD_REACTORS
330
2C01
102
}
330
2C01
100
AcDbXrecord
280
     1
102
RTVSPost2010Prop28
280
     0
102
RTVSPost2010PropOp28
 70
     1
102
RTVSPost2010Prop29
280
     1
102
RTVSPost2010PropOp29
 70
     1
102
RTVSPost2010Prop30
280
     1
102
RTVSPost2010PropOp30
 70
     1
102
RTVSPost2010Prop31
280
     0
102
RTVSPost2010PropOp31
 70
     1
102
RTVSPost2010Prop32
280
     0
102
RTVSPost2010PropOp32
 70
     1
102
RTVSPost2010Prop33
280
     0
102
RTVSPost2010PropOp33
 70
     1
102
RTVSPost2010Prop34
280
     0
102
RTVSPost2010PropOp34
 70
     1
102
RTVSPost2010Prop35
280
     0
102
RTVSPost2010PropOp35
 70
     1
102
RTVSPost2010Prop36
280
     0
102
RTVSPost2010PropOp36
 70
     1
102
RTVSPost2010Prop37
 90
       50
102
RTVSPost2010PropOp37
 70
     1
102
RTVSPost2010Prop38
140
0.0
102
RTVSPost2010PropOp38
 70
     1
102
RTVSPost2010Prop39
140
1.0
102
RTVSPost2010PropOp39
 70
     1
102
RTVSPost2010Prop40
 90
        0
102
RTVSPost2010PropOp40
 70
     1
102
RTVSPost2010Prop41ColorIndex
 90
       18
102
RTVSPost2010Prop41ColorRGB
 90
        0
102
RTVSPost2010PropOp41
 70
     1
102
RTVSPost2010Prop42
 90
       50
102
RTVSPost2010PropOp42
 70
     1
102
RTVSPost2010Prop43
 90
        3
102
RTVSPost2010PropOp43
 70
     1
102
RTVSPost2010Prop44ColorIndex
 90
        5
102
RTVSPost2010Prop44ColorRGB
 90
      255
102
RTVSPost2010PropOp44
 70
     1
102
RTVSPost2010Prop45
280
     0
102
RTVSPost2010PropOp45
 70
     1
102
RTVSPost2010Prop46
 90
       50
102
RTVSPost2010PropOp46
 70
     1
102
RTVSPost2010Prop47
 90
       50
102
RTVSPost2010PropOp47
 70
     1
102
RTVSPost2010Prop48
 90
       50
102
RTVSPost2010PropOp48
 70
     1
102
RTVSPost2010Prop49
280
     0
102
RTVSPost2010PropOp49
 70
     1
102
RTVSPost2010Prop50
 90
       50
102
RTVSPost2010PropOp50
 70
     1
102
RTVSPost2010Prop51ColorIndex
 90
      256
102
RTVSPost2010Prop51ColorRGB
 90
-16777216
102
RTVSPost2010PropOp51
 70
     0
102
RTVSPost2010Prop52
140
1.0
102
RTVSPost2010PropOp52
 70
     0
102
RTVSPost2010Prop53
 90
        2
102
RTVSPost2010PropOp53
 70
     1
102
RTVSPost2010Prop54
  1
strokes_ogs.tif
102
RTVSPost2010PropOp54
 70
     1
102
RTVSPost2010Prop55
280
     0
102
RTVSPost2010PropOp55
 70
     1
102
RTVSPost2010Prop56
140
1.0
102
RTVSPost2010PropOp56
 70
     1
102
RTVSPost2010Prop57
140
1.0
102
RTVSPost2010PropOp57
 70
     1
102
RTVSPropertyOp0
 70
     1
102
RTVSPropertyOp1
 70
     1
102
RTVSPropertyOp2
 70
     1
102
RTVSPropertyOp3
 70
     1
102
RTVSPropertyOp4
 70
     1
102
RTVSPropertyOp5
 70
     1
102
RTVSPropertyOp6
 70
     1
102
RTVSPropertyOp7
 70
     1
102
RTVSPropertyOp8
 70
     1
102
RTVSPropertyOp9
 70
     1
102
RTVSPropertyOp10
 70
     1
102
RTVSPropertyOp11
 70
     1
102
RTVSPropertyOp12
 70
     1
102
RTVSPropertyOp13
 70
     1
102
RTVSPropertyOp14
 70
     1
102
RTVSPropertyOp15
 70
     1
102
RTVSPropertyOp16
 70
     1
102
RTVSPropertyOp17
 70
     1
102
RTVSPropertyOp18
 70
     1
102
RTVSPropertyOp19
 70
     1
102
RTVSPropertyOp20
 70
     1
102
RTVSPropertyOp21
 70
     1
102
RTVSPropertyOp22
 70
     1
102
RTVSPropertyOp23
 70
     1
102
RTVSPropertyOp24
 70
     1
102
RTVSPropertyOp25
 70
     1
102
RTVSPropertyOp26
 70
     1
102
RTVSPropertyOp27
 70
     1
102
RTVSPropertyOp28
 70
     1
102
RTVSPropertyOp29
 70
     1
102
RTVSPropertyOp30
 70
     1
102
RTVSPropertyOp31
 70
     1
102
RTVSPropertyOp32
 70
     1
102
RTVSPropertyOp33
 70
     1
102
RTVSPropertyOp34
 70
     1
102
RTVSPropertyOp35
 70
     1
102
RTVSPropertyOp36
 70
     1
102
RTVSPropertyOp37
 70
     1
102
RTVSPropertyOp38
 70
     1
102
RTVSPropertyOp39
 70
     1
102
RTVSPropertyOp40
 70
     1
102
RTVSPropertyOp41
 70
     1
102
RTVSPropertyOp42
 70
     1
102
RTVSPropertyOp43
 70
     1
102
RTVSPropertyOp44
 70
     1
102
RTVSPropertyOp45
 70
     1
102
RTVSPropertyOp46
 70
     1
102
RTVSPropertyOp47
 70
     1
102
RTVSPropertyOp48
 70
     1
102
RTVSPropertyOp49
 70
     1
102
RTVSPropertyOp50
 70
     1
102
RTVSPropertyOp51
 70
     0
102
RTVSPropertyOp52
 70
     0
102
RTVSPropertyOp53
 70
     1
102
RTVSPropertyOp54
 70
     1
102
RTVSPropertyOp55
 70
     1
102
RTVSPropertyOp56
 70
     1
102
RTVSPropertyOp57
 70
     1
102
RTVSPropertyOp58
 70
     1
102
RTVSPropertyOp59
 70
     1
102
RTVSPropertyOp60
 70
     1
102
RTVSPropertyOp61
 70
     1
102
RTVSPropertyOp62
 70
     1
  0
XRECORD
  5
2C18
102
{ACAD_REACTORS
330
2C17
102
}
330
2C17
100
AcDbXrecord
280
     1
102
RTVSPost2010Prop28
280
     0
102
RTVSPost2010PropOp28
 70
     1
102
RTVSPost2010Prop29
280
     1
102
RTVSPost2010PropOp29
 70
     1
102
RTVSPost2010Prop30
280
     1
102
RTVSPost2010PropOp30
 70
     1
102
RTVSPost2010Prop31
280
     0
102
RTVSPost2010PropOp31
 70
     1
102
RTVSPost2010Prop32
280
     0
102
RTVSPost2010PropOp32
 70
     1
102
RTVSPost2010Prop33
280
     0
102
RTVSPost2010PropOp33
 70
     1
102
RTVSPost2010Prop34
280
     0
102
RTVSPost2010PropOp34
 70
     1
102
RTVSPost2010Prop35
280
     0
102
RTVSPost2010PropOp35
 70
     1
102
RTVSPost2010Prop36
280
     0
102
RTVSPost2010PropOp36
 70
     1
102
RTVSPost2010Prop37
 90
       50
102
RTVSPost2010PropOp37
 70
     1
102
RTVSPost2010Prop38
140
0.0
102
RTVSPost2010PropOp38
 70
     1
102
RTVSPost2010Prop39
140
1.0
102
RTVSPost2010PropOp39
 70
     1
102
RTVSPost2010Prop40
 90
        0
102
RTVSPost2010PropOp40
 70
     1
102
RTVSPost2010Prop41ColorIndex
 90
       18
102
RTVSPost2010Prop41ColorRGB
 90
        0
102
RTVSPost2010PropOp41
 70
     1
102
RTVSPost2010Prop42
 90
       50
102
RTVSPost2010PropOp42
 70
     1
102
RTVSPost2010Prop43
 90
        3
102
RTVSPost2010PropOp43
 70
     1
102
RTVSPost2010Prop44ColorIndex
 90
        5
102
RTVSPost2010Prop44ColorRGB
 90
      255
102
RTVSPost2010PropOp44
 70
     1
102
RTVSPost2010Prop45
280
     0
102
RTVSPost2010PropOp45
 70
     1
102
RTVSPost2010Prop46
 90
       50
102
RTVSPost2010PropOp46
 70
     1
102
RTVSPost2010Prop47
 90
       50
102
RTVSPost2010PropOp47
 70
     1
102
RTVSPost2010Prop48
 90
       50
102
RTVSPost2010PropOp48
 70
     1
102
RTVSPost2010Prop49
280
     0
102
RTVSPost2010PropOp49
 70
     1
102
RTVSPost2010Prop50
 90
       50
102
RTVSPost2010PropOp50
 70
     1
102
RTVSPost2010Prop51ColorIndex
 90
      256
102
RTVSPost2010Prop51ColorRGB
 90
-16777216
102
RTVSPost2010PropOp51
 70
     0
102
RTVSPost2010Prop52
140
1.0
102
RTVSPost2010PropOp52
 70
     0
102
RTVSPost2010Prop53
 90
        2
102
RTVSPost2010PropOp53
 70
     1
102
RTVSPost2010Prop54
  1
strokes_ogs.tif
102
RTVSPost2010PropOp54
 70
     1
102
RTVSPost2010Prop55
280
     0
102
RTVSPost2010PropOp55
 70
     1
102
RTVSPost2010Prop56
140
1.0
102
RTVSPost2010PropOp56
 70
     1
102
RTVSPost2010Prop57
140
1.0
102
RTVSPost2010PropOp57
 70
     1
102
RTVSPropertyOp0
 70
     1
102
RTVSPropertyOp1
 70
     1
102
RTVSPropertyOp2
 70
     1
102
RTVSPropertyOp3
 70
     1
102
RTVSPropertyOp4
 70
     1
102
RTVSPropertyOp5
 70
     1
102
RTVSPropertyOp6
 70
     1
102
RTVSPropertyOp7
 70
     1
102
RTVSPropertyOp8
 70
     1
102
RTVSPropertyOp9
 70
     1
102
RTVSPropertyOp10
 70
     1
102
RTVSPropertyOp11
 70
     1
102
RTVSPropertyOp12
 70
     1
102
RTVSPropertyOp13
 70
     1
102
RTVSPropertyOp14
 70
     1
102
RTVSPropertyOp15
 70
     1
102
RTVSPropertyOp16
 70
     1
102
RTVSPropertyOp17
 70
     1
102
RTVSPropertyOp18
 70
     1
102
RTVSPropertyOp19
 70
     1
102
RTVSPropertyOp20
 70
     1
102
RTVSPropertyOp21
 70
     1
102
RTVSPropertyOp22
 70
     1
102
RTVSPropertyOp23
 70
     1
102
RTVSPropertyOp24
 70
     1
102
RTVSPropertyOp25
 70
     1
102
RTVSPropertyOp26
 70
     1
102
RTVSPropertyOp27
 70
     1
102
RTVSPropertyOp28
 70
     1
102
RTVSPropertyOp29
 70
     1
102
RTVSPropertyOp30
 70
     1
102
RTVSPropertyOp31
 70
     1
102
RTVSPropertyOp32
 70
     1
102
RTVSPropertyOp33
 70
     1
102
RTVSPropertyOp34
 70
     1
102
RTVSPropertyOp35
 70
     1
102
RTVSPropertyOp36
 70
     1
102
RTVSPropertyOp37
 70
     1
102
RTVSPropertyOp38
 70
     1
102
RTVSPropertyOp39
 70
     1
102
RTVSPropertyOp40
 70
     1
102
RTVSPropertyOp41
 70
     1
102
RTVSPropertyOp42
 70
     1
102
RTVSPropertyOp43
 70
     1
102
RTVSPropertyOp44
 70
     1
102
RTVSPropertyOp45
 70
     1
102
RTVSPropertyOp46
 70
     1
102
RTVSPropertyOp47
 70
     1
102
RTVSPropertyOp48
 70
     1
102
RTVSPropertyOp49
 70
     1
102
RTVSPropertyOp50
 70
     1
102
RTVSPropertyOp51
 70
     0
102
RTVSPropertyOp52
 70
     0
102
RTVSPropertyOp53
 70
     1
102
RTVSPropertyOp54
 70
     1
102
RTVSPropertyOp55
 70
     1
102
RTVSPropertyOp56
 70
     1
102
RTVSPropertyOp57
 70
     1
102
RTVSPropertyOp58
 70
     1
102
RTVSPropertyOp59
 70
     1
102
RTVSPropertyOp60
 70
     1
102
RTVSPropertyOp61
 70
     1
102
RTVSPropertyOp62
 70
     1
  0
XRECORD
  5
2C16
102
{ACAD_REACTORS
330
2C15
102
}
330
2C15
100
AcDbXrecord
280
     1
102
RTVSPost2010Prop28
280
     0
102
RTVSPost2010PropOp28
 70
     1
102
RTVSPost2010Prop29
280
     1
102
RTVSPost2010PropOp29
 70
     1
102
RTVSPost2010Prop30
280
     1
102
RTVSPost2010PropOp30
 70
     1
102
RTVSPost2010Prop31
280
     0
102
RTVSPost2010PropOp31
 70
     1
102
RTVSPost2010Prop32
280
     0
102
RTVSPost2010PropOp32
 70
     1
102
RTVSPost2010Prop33
280
     0
102
RTVSPost2010PropOp33
 70
     1
102
RTVSPost2010Prop34
280
     0
102
RTVSPost2010PropOp34
 70
     1
102
RTVSPost2010Prop35
280
     0
102
RTVSPost2010PropOp35
 70
     1
102
RTVSPost2010Prop36
280
     0
102
RTVSPost2010PropOp36
 70
     1
102
RTVSPost2010Prop37
 90
       50
102
RTVSPost2010PropOp37
 70
     1
102
RTVSPost2010Prop38
140
0.0
102
RTVSPost2010PropOp38
 70
     1
102
RTVSPost2010Prop39
140
1.0
102
RTVSPost2010PropOp39
 70
     1
102
RTVSPost2010Prop40
 90
        0
102
RTVSPost2010PropOp40
 70
     1
102
RTVSPost2010Prop41ColorIndex
 90
       18
102
RTVSPost2010Prop41ColorRGB
 90
        0
102
RTVSPost2010PropOp41
 70
     1
102
RTVSPost2010Prop42
 90
       50
102
RTVSPost2010PropOp42
 70
     1
102
RTVSPost2010Prop43
 90
        3
102
RTVSPost2010PropOp43
 70
     1
102
RTVSPost2010Prop44ColorIndex
 90
        5
102
RTVSPost2010Prop44ColorRGB
 90
      255
102
RTVSPost2010PropOp44
 70
     1
102
RTVSPost2010Prop45
280
     0
102
RTVSPost2010PropOp45
 70
     1
102
RTVSPost2010Prop46
 90
       50
102
RTVSPost2010PropOp46
 70
     1
102
RTVSPost2010Prop47
 90
       50
102
RTVSPost2010PropOp47
 70
     1
102
RTVSPost2010Prop48
 90
       50
102
RTVSPost2010PropOp48
 70
     1
102
RTVSPost2010Prop49
280
     0
102
RTVSPost2010PropOp49
 70
     1
102
RTVSPost2010Prop50
 90
       50
102
RTVSPost2010PropOp50
 70
     1
102
RTVSPost2010Prop51ColorIndex
 90
      256
102
RTVSPost2010Prop51ColorRGB
 90
-16777216
102
RTVSPost2010PropOp51
 70
     0
102
RTVSPost2010Prop52
140
1.0
102
RTVSPost2010PropOp52
 70
     0
102
RTVSPost2010Prop53
 90
        2
102
RTVSPost2010PropOp53
 70
     1
102
RTVSPost2010Prop54
  1
strokes_ogs.tif
102
RTVSPost2010PropOp54
 70
     1
102
RTVSPost2010Prop55
280
     0
102
RTVSPost2010PropOp55
 70
     1
102
RTVSPost2010Prop56
140
1.0
102
RTVSPost2010PropOp56
 70
     1
102
RTVSPost2010Prop57
140
1.0
102
RTVSPost2010PropOp57
 70
     1
102
RTVSPropertyOp0
 70
     1
102
RTVSPropertyOp1
 70
     1
102
RTVSPropertyOp2
 70
     1
102
RTVSPropertyOp3
 70
     1
102
RTVSPropertyOp4
 70
     1
102
RTVSPropertyOp5
 70
     1
102
RTVSPropertyOp6
 70
     1
102
RTVSPropertyOp7
 70
     1
102
RTVSPropertyOp8
 70
     1
102
RTVSPropertyOp9
 70
     1
102
RTVSPropertyOp10
 70
     1
102
RTVSPropertyOp11
 70
     1
102
RTVSPropertyOp12
 70
     1
102
RTVSPropertyOp13
 70
     1
102
RTVSPropertyOp14
 70
     1
102
RTVSPropertyOp15
 70
     1
102
RTVSPropertyOp16
 70
     1
102
RTVSPropertyOp17
 70
     1
102
RTVSPropertyOp18
 70
     1
102
RTVSPropertyOp19
 70
     1
102
RTVSPropertyOp20
 70
     1
102
RTVSPropertyOp21
 70
     1
102
RTVSPropertyOp22
 70
     1
102
RTVSPropertyOp23
 70
     1
102
RTVSPropertyOp24
 70
     1
102
RTVSPropertyOp25
 70
     1
102
RTVSPropertyOp26
 70
     1
102
RTVSPropertyOp27
 70
     1
102
RTVSPropertyOp28
 70
     1
102
RTVSPropertyOp29
 70
     1
102
RTVSPropertyOp30
 70
     1
102
RTVSPropertyOp31
 70
     1
102
RTVSPropertyOp32
 70
     1
102
RTVSPropertyOp33
 70
     1
102
RTVSPropertyOp34
 70
     1
102
RTVSPropertyOp35
 70
     1
102
RTVSPropertyOp36
 70
     1
102
RTVSPropertyOp37
 70
     1
102
RTVSPropertyOp38
 70
     1
102
RTVSPropertyOp39
 70
     1
102
RTVSPropertyOp40
 70
     1
102
RTVSPropertyOp41
 70
     1
102
RTVSPropertyOp42
 70
     1
102
RTVSPropertyOp43
 70
     1
102
RTVSPropertyOp44
 70
     1
102
RTVSPropertyOp45
 70
     1
102
RTVSPropertyOp46
 70
     1
102
RTVSPropertyOp47
 70
     1
102
RTVSPropertyOp48
 70
     1
102
RTVSPropertyOp49
 70
     1
102
RTVSPropertyOp50
 70
     1
102
RTVSPropertyOp51
 70
     0
102
RTVSPropertyOp52
 70
     0
102
RTVSPropertyOp53
 70
     1
102
RTVSPropertyOp54
 70
     1
102
RTVSPropertyOp55
 70
     1
102
RTVSPropertyOp56
 70
     1
102
RTVSPropertyOp57
 70
     1
102
RTVSPropertyOp58
 70
     1
102
RTVSPropertyOp59
 70
     1
102
RTVSPropertyOp60
 70
     1
102
RTVSPropertyOp61
 70
     1
102
RTVSPropertyOp62
 70
     1
  0
XRECORD
  5
2C10
102
{ACAD_REACTORS
330
2C0F
102
}
330
2C0F
100
AcDbXrecord
280
     1
102
RTVSPost2010Prop28
280
     0
102
RTVSPost2010PropOp28
 70
     1
102
RTVSPost2010Prop29
280
     1
102
RTVSPost2010PropOp29
 70
     1
102
RTVSPost2010Prop30
280
     1
102
RTVSPost2010PropOp30
 70
     1
102
RTVSPost2010Prop31
280
     0
102
RTVSPost2010PropOp31
 70
     1
102
RTVSPost2010Prop32
280
     0
102
RTVSPost2010PropOp32
 70
     1
102
RTVSPost2010Prop33
280
     0
102
RTVSPost2010PropOp33
 70
     1
102
RTVSPost2010Prop34
280
     0
102
RTVSPost2010PropOp34
 70
     1
102
RTVSPost2010Prop35
280
     0
102
RTVSPost2010PropOp35
 70
     1
102
RTVSPost2010Prop36
280
     0
102
RTVSPost2010PropOp36
 70
     1
102
RTVSPost2010Prop37
 90
       50
102
RTVSPost2010PropOp37
 70
     1
102
RTVSPost2010Prop38
140
0.0
102
RTVSPost2010PropOp38
 70
     1
102
RTVSPost2010Prop39
140
1.0
102
RTVSPost2010PropOp39
 70
     1
102
RTVSPost2010Prop40
 90
        0
102
RTVSPost2010PropOp40
 70
     1
102
RTVSPost2010Prop41ColorIndex
 90
       18
102
RTVSPost2010Prop41ColorRGB
 90
        0
102
RTVSPost2010PropOp41
 70
     1
102
RTVSPost2010Prop42
 90
       50
102
RTVSPost2010PropOp42
 70
     1
102
RTVSPost2010Prop43
 90
        3
102
RTVSPost2010PropOp43
 70
     1
102
RTVSPost2010Prop44ColorIndex
 90
        5
102
RTVSPost2010Prop44ColorRGB
 90
      255
102
RTVSPost2010PropOp44
 70
     1
102
RTVSPost2010Prop45
280
     0
102
RTVSPost2010PropOp45
 70
     1
102
RTVSPost2010Prop46
 90
       50
102
RTVSPost2010PropOp46
 70
     1
102
RTVSPost2010Prop47
 90
       50
102
RTVSPost2010PropOp47
 70
     1
102
RTVSPost2010Prop48
 90
       50
102
RTVSPost2010PropOp48
 70
     1
102
RTVSPost2010Prop49
280
     0
102
RTVSPost2010PropOp49
 70
     1
102
RTVSPost2010Prop50
 90
       50
102
RTVSPost2010PropOp50
 70
     1
102
RTVSPost2010Prop51ColorIndex
 90
      256
102
RTVSPost2010Prop51ColorRGB
 90
-16777216
102
RTVSPost2010PropOp51
 70
     0
102
RTVSPost2010Prop52
140
1.0
102
RTVSPost2010PropOp52
 70
     0
102
RTVSPost2010Prop53
 90
        2
102
RTVSPost2010PropOp53
 70
     1
102
RTVSPost2010Prop54
  1
strokes_ogs.tif
102
RTVSPost2010PropOp54
 70
     1
102
RTVSPost2010Prop55
280
     0
102
RTVSPost2010PropOp55
 70
     1
102
RTVSPost2010Prop56
140
1.0
102
RTVSPost2010PropOp56
 70
     1
102
RTVSPost2010Prop57
140
1.0
102
RTVSPost2010PropOp57
 70
     1
102
RTVSPropertyOp0
 70
     1
102
RTVSPropertyOp1
 70
     1
102
RTVSPropertyOp2
 70
     1
102
RTVSPropertyOp3
 70
     1
102
RTVSPropertyOp4
 70
     1
102
RTVSPropertyOp5
 70
     1
102
RTVSPropertyOp6
 70
     1
102
RTVSPropertyOp7
 70
     1
102
RTVSPropertyOp8
 70
     1
102
RTVSPropertyOp9
 70
     1
102
RTVSPropertyOp10
 70
     1
102
RTVSPropertyOp11
 70
     1
102
RTVSPropertyOp12
 70
     1
102
RTVSPropertyOp13
 70
     1
102
RTVSPropertyOp14
 70
     1
102
RTVSPropertyOp15
 70
     1
102
RTVSPropertyOp16
 70
     1
102
RTVSPropertyOp17
 70
     1
102
RTVSPropertyOp18
 70
     1
102
RTVSPropertyOp19
 70
     1
102
RTVSPropertyOp20
 70
     1
102
RTVSPropertyOp21
 70
     1
102
RTVSPropertyOp22
 70
     1
102
RTVSPropertyOp23
 70
     1
102
RTVSPropertyOp24
 70
     1
102
RTVSPropertyOp25
 70
     1
102
RTVSPropertyOp26
 70
     1
102
RTVSPropertyOp27
 70
     1
102
RTVSPropertyOp28
 70
     1
102
RTVSPropertyOp29
 70
     1
102
RTVSPropertyOp30
 70
     1
102
RTVSPropertyOp31
 70
     1
102
RTVSPropertyOp32
 70
     1
102
RTVSPropertyOp33
 70
     1
102
RTVSPropertyOp34
 70
     1
102
RTVSPropertyOp35
 70
     1
102
RTVSPropertyOp36
 70
     1
102
RTVSPropertyOp37
 70
     1
102
RTVSPropertyOp38
 70
     1
102
RTVSPropertyOp39
 70
     1
102
RTVSPropertyOp40
 70
     1
102
RTVSPropertyOp41
 70
     1
102
RTVSPropertyOp42
 70
     1
102
RTVSPropertyOp43
 70
     1
102
RTVSPropertyOp44
 70
     1
102
RTVSPropertyOp45
 70
     1
102
RTVSPropertyOp46
 70
     1
102
RTVSPropertyOp47
 70
     1
102
RTVSPropertyOp48
 70
     1
102
RTVSPropertyOp49
 70
     1
102
RTVSPropertyOp50
 70
     1
102
RTVSPropertyOp51
 70
     0
102
RTVSPropertyOp52
 70
     0
102
RTVSPropertyOp53
 70
     1
102
RTVSPropertyOp54
 70
     1
102
RTVSPropertyOp55
 70
     1
102
RTVSPropertyOp56
 70
     1
102
RTVSPropertyOp57
 70
     1
102
RTVSPropertyOp58
 70
     1
102
RTVSPropertyOp59
 70
     1
102
RTVSPropertyOp60
 70
     1
102
RTVSPropertyOp61
 70
     1
102
RTVSPropertyOp62
 70
     1
  0
XRECORD
  5
2C12
102
{ACAD_REACTORS
330
2C11
102
}
330
2C11
100
AcDbXrecord
280
     1
102
RTVSPost2010Prop28
280
     0
102
RTVSPost2010PropOp28
 70
     1
102
RTVSPost2010Prop29
280
     1
102
RTVSPost2010PropOp29
 70
     1
102
RTVSPost2010Prop30
280
     1
102
RTVSPost2010PropOp30
 70
     1
102
RTVSPost2010Prop31
280
     0
102
RTVSPost2010PropOp31
 70
     1
102
RTVSPost2010Prop32
280
     0
102
RTVSPost2010PropOp32
 70
     1
102
RTVSPost2010Prop33
280
     0
102
RTVSPost2010PropOp33
 70
     1
102
RTVSPost2010Prop34
280
     0
102
RTVSPost2010PropOp34
 70
     1
102
RTVSPost2010Prop35
280
     0
102
RTVSPost2010PropOp35
 70
     1
102
RTVSPost2010Prop36
280
     0
102
RTVSPost2010PropOp36
 70
     1
102
RTVSPost2010Prop37
 90
       50
102
RTVSPost2010PropOp37
 70
     1
102
RTVSPost2010Prop38
140
0.0
102
RTVSPost2010PropOp38
 70
     1
102
RTVSPost2010Prop39
140
1.0
102
RTVSPost2010PropOp39
 70
     1
102
RTVSPost2010Prop40
 90
        0
102
RTVSPost2010PropOp40
 70
     1
102
RTVSPost2010Prop41ColorIndex
 90
       18
102
RTVSPost2010Prop41ColorRGB
 90
        0
102
RTVSPost2010PropOp41
 70
     1
102
RTVSPost2010Prop42
 90
       50
102
RTVSPost2010PropOp42
 70
     1
102
RTVSPost2010Prop43
 90
        3
102
RTVSPost2010PropOp43
 70
     1
102
RTVSPost2010Prop44ColorIndex
 90
        5
102
RTVSPost2010Prop44ColorRGB
 90
      255
102
RTVSPost2010PropOp44
 70
     1
102
RTVSPost2010Prop45
280
     0
102
RTVSPost2010PropOp45
 70
     1
102
RTVSPost2010Prop46
 90
       50
102
RTVSPost2010PropOp46
 70
     1
102
RTVSPost2010Prop47
 90
       50
102
RTVSPost2010PropOp47
 70
     1
102
RTVSPost2010Prop48
 90
       50
102
RTVSPost2010PropOp48
 70
     1
102
RTVSPost2010Prop49
280
     0
102
RTVSPost2010PropOp49
 70
     1
102
RTVSPost2010Prop50
 90
       50
102
RTVSPost2010PropOp50
 70
     1
102
RTVSPost2010Prop51ColorIndex
 90
      256
102
RTVSPost2010Prop51ColorRGB
 90
-16777216
102
RTVSPost2010PropOp51
 70
     0
102
RTVSPost2010Prop52
140
1.0
102
RTVSPost2010PropOp52
 70
     0
102
RTVSPost2010Prop53
 90
        2
102
RTVSPost2010PropOp53
 70
     1
102
RTVSPost2010Prop54
  1
strokes_ogs.tif
102
RTVSPost2010PropOp54
 70
     1
102
RTVSPost2010Prop55
280
     0
102
RTVSPost2010PropOp55
 70
     1
102
RTVSPost2010Prop56
140
1.0
102
RTVSPost2010PropOp56
 70
     1
102
RTVSPost2010Prop57
140
1.0
102
RTVSPost2010PropOp57
 70
     1
102
RTVSPropertyOp0
 70
     1
102
RTVSPropertyOp1
 70
     1
102
RTVSPropertyOp2
 70
     1
102
RTVSPropertyOp3
 70
     1
102
RTVSPropertyOp4
 70
     1
102
RTVSPropertyOp5
 70
     1
102
RTVSPropertyOp6
 70
     1
102
RTVSPropertyOp7
 70
     1
102
RTVSPropertyOp8
 70
     1
102
RTVSPropertyOp9
 70
     1
102
RTVSPropertyOp10
 70
     1
102
RTVSPropertyOp11
 70
     1
102
RTVSPropertyOp12
 70
     1
102
RTVSPropertyOp13
 70
     1
102
RTVSPropertyOp14
 70
     1
102
RTVSPropertyOp15
 70
     1
102
RTVSPropertyOp16
 70
     1
102
RTVSPropertyOp17
 70
     1
102
RTVSPropertyOp18
 70
     1
102
RTVSPropertyOp19
 70
     1
102
RTVSPropertyOp20
 70
     1
102
RTVSPropertyOp21
 70
     1
102
RTVSPropertyOp22
 70
     1
102
RTVSPropertyOp23
 70
     1
102
RTVSPropertyOp24
 70
     1
102
RTVSPropertyOp25
 70
     1
102
RTVSPropertyOp26
 70
     1
102
RTVSPropertyOp27
 70
     1
102
RTVSPropertyOp28
 70
     1
102
RTVSPropertyOp29
 70
     1
102
RTVSPropertyOp30
 70
     1
102
RTVSPropertyOp31
 70
     1
102
RTVSPropertyOp32
 70
     1
102
RTVSPropertyOp33
 70
     1
102
RTVSPropertyOp34
 70
     1
102
RTVSPropertyOp35
 70
     1
102
RTVSPropertyOp36
 70
     1
102
RTVSPropertyOp37
 70
     1
102
RTVSPropertyOp38
 70
     1
102
RTVSPropertyOp39
 70
     1
102
RTVSPropertyOp40
 70
     1
102
RTVSPropertyOp41
 70
     1
102
RTVSPropertyOp42
 70
     1
102
RTVSPropertyOp43
 70
     1
102
RTVSPropertyOp44
 70
     1
102
RTVSPropertyOp45
 70
     1
102
RTVSPropertyOp46
 70
     1
102
RTVSPropertyOp47
 70
     1
102
RTVSPropertyOp48
 70
     1
102
RTVSPropertyOp49
 70
     1
102
RTVSPropertyOp50
 70
     1
102
RTVSPropertyOp51
 70
     0
102
RTVSPropertyOp52
 70
     0
102
RTVSPropertyOp53
 70
     1
102
RTVSPropertyOp54
 70
     1
102
RTVSPropertyOp55
 70
     1
102
RTVSPropertyOp56
 70
     1
102
RTVSPropertyOp57
 70
     1
102
RTVSPropertyOp58
 70
     1
102
RTVSPropertyOp59
 70
     1
102
RTVSPropertyOp60
 70
     1
102
RTVSPropertyOp61
 70
     1
102
RTVSPropertyOp62
 70
     1
  0
XRECORD
  5
2C08
102
{ACAD_REACTORS
330
2C07
102
}
330
2C07
100
AcDbXrecord
280
     1
102
RTVSPost2010Prop28
280
     0
102
RTVSPost2010PropOp28
 70
     1
102
RTVSPost2010Prop29
280
     1
102
RTVSPost2010PropOp29
 70
     1
102
RTVSPost2010Prop30
280
     1
102
RTVSPost2010PropOp30
 70
     1
102
RTVSPost2010Prop31
280
     0
102
RTVSPost2010PropOp31
 70
     1
102
RTVSPost2010Prop32
280
     0
102
RTVSPost2010PropOp32
 70
     1
102
RTVSPost2010Prop33
280
     0
102
RTVSPost2010PropOp33
 70
     1
102
RTVSPost2010Prop34
280
     0
102
RTVSPost2010PropOp34
 70
     1
102
RTVSPost2010Prop35
280
     0
102
RTVSPost2010PropOp35
 70
     1
102
RTVSPost2010Prop36
280
     0
102
RTVSPost2010PropOp36
 70
     1
102
RTVSPost2010Prop37
 90
       50
102
RTVSPost2010PropOp37
 70
     1
102
RTVSPost2010Prop38
140
0.0
102
RTVSPost2010PropOp38
 70
     1
102
RTVSPost2010Prop39
140
1.0
102
RTVSPost2010PropOp39
 70
     1
102
RTVSPost2010Prop40
 90
        0
102
RTVSPost2010PropOp40
 70
     1
102
RTVSPost2010Prop41ColorIndex
 90
       18
102
RTVSPost2010Prop41ColorRGB
 90
        0
102
RTVSPost2010PropOp41
 70
     1
102
RTVSPost2010Prop42
 90
       50
102
RTVSPost2010PropOp42
 70
     1
102
RTVSPost2010Prop43
 90
        3
102
RTVSPost2010PropOp43
 70
     1
102
RTVSPost2010Prop44ColorIndex
 90
        5
102
RTVSPost2010Prop44ColorRGB
 90
      255
102
RTVSPost2010PropOp44
 70
     1
102
RTVSPost2010Prop45
280
     0
102
RTVSPost2010PropOp45
 70
     1
102
RTVSPost2010Prop46
 90
       50
102
RTVSPost2010PropOp46
 70
     1
102
RTVSPost2010Prop47
 90
       50
102
RTVSPost2010PropOp47
 70
     1
102
RTVSPost2010Prop48
 90
       50
102
RTVSPost2010PropOp48
 70
     1
102
RTVSPost2010Prop49
280
     0
102
RTVSPost2010PropOp49
 70
     1
102
RTVSPost2010Prop50
 90
       50
102
RTVSPost2010PropOp50
 70
     1
102
RTVSPost2010Prop51ColorIndex
 90
      256
102
RTVSPost2010Prop51ColorRGB
 90
-16777216
102
RTVSPost2010PropOp51
 70
     0
102
RTVSPost2010Prop52
140
1.0
102
RTVSPost2010PropOp52
 70
     0
102
RTVSPost2010Prop53
 90
        2
102
RTVSPost2010PropOp53
 70
     1
102
RTVSPost2010Prop54
  1
strokes_ogs.tif
102
RTVSPost2010PropOp54
 70
     1
102
RTVSPost2010Prop55
280
     0
102
RTVSPost2010PropOp55
 70
     1
102
RTVSPost2010Prop56
140
1.0
102
RTVSPost2010PropOp56
 70
     1
102
RTVSPost2010Prop57
140
1.0
102
RTVSPost2010PropOp57
 70
     1
102
RTVSPropertyOp0
 70
     1
102
RTVSPropertyOp1
 70
     1
102
RTVSPropertyOp2
 70
     1
102
RTVSPropertyOp3
 70
     1
102
RTVSPropertyOp4
 70
     1
102
RTVSPropertyOp5
 70
     1
102
RTVSPropertyOp6
 70
     1
102
RTVSPropertyOp7
 70
     1
102
RTVSPropertyOp8
 70
     1
102
RTVSPropertyOp9
 70
     1
102
RTVSPropertyOp10
 70
     1
102
RTVSPropertyOp11
 70
     1
102
RTVSPropertyOp12
 70
     1
102
RTVSPropertyOp13
 70
     1
102
RTVSPropertyOp14
 70
     1
102
RTVSPropertyOp15
 70
     1
102
RTVSPropertyOp16
 70
     1
102
RTVSPropertyOp17
 70
     1
102
RTVSPropertyOp18
 70
     1
102
RTVSPropertyOp19
 70
     1
102
RTVSPropertyOp20
 70
     1
102
RTVSPropertyOp21
 70
     1
102
RTVSPropertyOp22
 70
     1
102
RTVSPropertyOp23
 70
     1
102
RTVSPropertyOp24
 70
     1
102
RTVSPropertyOp25
 70
     1
102
RTVSPropertyOp26
 70
     1
102
RTVSPropertyOp27
 70
     1
102
RTVSPropertyOp28
 70
     1
102
RTVSPropertyOp29
 70
     1
102
RTVSPropertyOp30
 70
     1
102
RTVSPropertyOp31
 70
     1
102
RTVSPropertyOp32
 70
     1
102
RTVSPropertyOp33
 70
     1
102
RTVSPropertyOp34
 70
     1
102
RTVSPropertyOp35
 70
     1
102
RTVSPropertyOp36
 70
     1
102
RTVSPropertyOp37
 70
     1
102
RTVSPropertyOp38
 70
     1
102
RTVSPropertyOp39
 70
     1
102
RTVSPropertyOp40
 70
     1
102
RTVSPropertyOp41
 70
     1
102
RTVSPropertyOp42
 70
     1
102
RTVSPropertyOp43
 70
     1
102
RTVSPropertyOp44
 70
     1
102
RTVSPropertyOp45
 70
     1
102
RTVSPropertyOp46
 70
     1
102
RTVSPropertyOp47
 70
     1
102
RTVSPropertyOp48
 70
     1
102
RTVSPropertyOp49
 70
     1
102
RTVSPropertyOp50
 70
     1
102
RTVSPropertyOp51
 70
     0
102
RTVSPropertyOp52
 70
     0
102
RTVSPropertyOp53
 70
     1
102
RTVSPropertyOp54
 70
     1
102
RTVSPropertyOp55
 70
     1
102
RTVSPropertyOp56
 70
     1
102
RTVSPropertyOp57
 70
     1
102
RTVSPropertyOp58
 70
     1
102
RTVSPropertyOp59
 70
     1
102
RTVSPropertyOp60
 70
     1
102
RTVSPropertyOp61
 70
     1
102
RTVSPropertyOp62
 70
     1
  0
XRECORD
  5
2BFC
102
{ACAD_REACTORS
330
2BFB
102
}
330
2BFB
100
AcDbXrecord
280
     1
102
RTVSPost2010Prop28
280
     0
102
RTVSPost2010PropOp28
 70
     1
102
RTVSPost2010Prop29
280
     1
102
RTVSPost2010PropOp29
 70
     1
102
RTVSPost2010Prop30
280
     1
102
RTVSPost2010PropOp30
 70
     1
102
RTVSPost2010Prop31
280
     0
102
RTVSPost2010PropOp31
 70
     1
102
RTVSPost2010Prop32
280
     0
102
RTVSPost2010PropOp32
 70
     1
102
RTVSPost2010Prop33
280
     0
102
RTVSPost2010PropOp33
 70
     1
102
RTVSPost2010Prop34
280
     0
102
RTVSPost2010PropOp34
 70
     1
102
RTVSPost2010Prop35
280
     0
102
RTVSPost2010PropOp35
 70
     1
102
RTVSPost2010Prop36
280
     0
102
RTVSPost2010PropOp36
 70
     1
102
RTVSPost2010Prop37
 90
       50
102
RTVSPost2010PropOp37
 70
     1
102
RTVSPost2010Prop38
140
0.0
102
RTVSPost2010PropOp38
 70
     1
102
RTVSPost2010Prop39
140
1.0
102
RTVSPost2010PropOp39
 70
     1
102
RTVSPost2010Prop40
 90
        0
102
RTVSPost2010PropOp40
 70
     1
102
RTVSPost2010Prop41ColorIndex
 90
       18
102
RTVSPost2010Prop41ColorRGB
 90
        0
102
RTVSPost2010PropOp41
 70
     1
102
RTVSPost2010Prop42
 90
       50
102
RTVSPost2010PropOp42
 70
     1
102
RTVSPost2010Prop43
 90
        3
102
RTVSPost2010PropOp43
 70
     1
102
RTVSPost2010Prop44ColorIndex
 90
        5
102
RTVSPost2010Prop44ColorRGB
 90
      255
102
RTVSPost2010PropOp44
 70
     1
102
RTVSPost2010Prop45
280
     0
102
RTVSPost2010PropOp45
 70
     1
102
RTVSPost2010Prop46
 90
       50
102
RTVSPost2010PropOp46
 70
     1
102
RTVSPost2010Prop47
 90
       50
102
RTVSPost2010PropOp47
 70
     1
102
RTVSPost2010Prop48
 90
       50
102
RTVSPost2010PropOp48
 70
     1
102
RTVSPost2010Prop49
280
     0
102
RTVSPost2010PropOp49
 70
     1
102
RTVSPost2010Prop50
 90
       50
102
RTVSPost2010PropOp50
 70
     1
102
RTVSPost2010Prop51ColorIndex
 90
      256
102
RTVSPost2010Prop51ColorRGB
 90
-16777216
102
RTVSPost2010PropOp51
 70
     0
102
RTVSPost2010Prop52
140
1.0
102
RTVSPost2010PropOp52
 70
     0
102
RTVSPost2010Prop53
 90
        2
102
RTVSPost2010PropOp53
 70
     1
102
RTVSPost2010Prop54
  1
strokes_ogs.tif
102
RTVSPost2010PropOp54
 70
     1
102
RTVSPost2010Prop55
280
     0
102
RTVSPost2010PropOp55
 70
     1
102
RTVSPost2010Prop56
140
1.0
102
RTVSPost2010PropOp56
 70
     1
102
RTVSPost2010Prop57
140
1.0
102
RTVSPost2010PropOp57
 70
     1
102
RTVSPropertyOp0
 70
     1
102
RTVSPropertyOp1
 70
     1
102
RTVSPropertyOp2
 70
     1
102
RTVSPropertyOp3
 70
     1
102
RTVSPropertyOp4
 70
     1
102
RTVSPropertyOp5
 70
     1
102
RTVSPropertyOp6
 70
     1
102
RTVSPropertyOp7
 70
     1
102
RTVSPropertyOp8
 70
     1
102
RTVSPropertyOp9
 70
     1
102
RTVSPropertyOp10
 70
     1
102
RTVSPropertyOp11
 70
     1
102
RTVSPropertyOp12
 70
     1
102
RTVSPropertyOp13
 70
     1
102
RTVSPropertyOp14
 70
     1
102
RTVSPropertyOp15
 70
     1
102
RTVSPropertyOp16
 70
     1
102
RTVSPropertyOp17
 70
     1
102
RTVSPropertyOp18
 70
     1
102
RTVSPropertyOp19
 70
     1
102
RTVSPropertyOp20
 70
     1
102
RTVSPropertyOp21
 70
     1
102
RTVSPropertyOp22
 70
     1
102
RTVSPropertyOp23
 70
     1
102
RTVSPropertyOp24
 70
     1
102
RTVSPropertyOp25
 70
     1
102
RTVSPropertyOp26
 70
     1
102
RTVSPropertyOp27
 70
     1
102
RTVSPropertyOp28
 70
     1
102
RTVSPropertyOp29
 70
     1
102
RTVSPropertyOp30
 70
     1
102
RTVSPropertyOp31
 70
     1
102
RTVSPropertyOp32
 70
     1
102
RTVSPropertyOp33
 70
     1
102
RTVSPropertyOp34
 70
     1
102
RTVSPropertyOp35
 70
     1
102
RTVSPropertyOp36
 70
     1
102
RTVSPropertyOp37
 70
     1
102
RTVSPropertyOp38
 70
     1
102
RTVSPropertyOp39
 70
     1
102
RTVSPropertyOp40
 70
     1
102
RTVSPropertyOp41
 70
     1
102
RTVSPropertyOp42
 70
     1
102
RTVSPropertyOp43
 70
     1
102
RTVSPropertyOp44
 70
     1
102
RTVSPropertyOp45
 70
     1
102
RTVSPropertyOp46
 70
     1
102
RTVSPropertyOp47
 70
     1
102
RTVSPropertyOp48
 70
     1
102
RTVSPropertyOp49
 70
     1
102
RTVSPropertyOp50
 70
     1
102
RTVSPropertyOp51
 70
     0
102
RTVSPropertyOp52
 70
     0
102
RTVSPropertyOp53
 70
     1
102
RTVSPropertyOp54
 70
     1
102
RTVSPropertyOp55
 70
     1
102
RTVSPropertyOp56
 70
     1
102
RTVSPropertyOp57
 70
     1
102
RTVSPropertyOp58
 70
     1
102
RTVSPropertyOp59
 70
     1
102
RTVSPropertyOp60
 70
     1
102
RTVSPropertyOp61
 70
     1
102
RTVSPropertyOp62
 70
     1
  0
XRECORD
  5
2C14
102
{ACAD_REACTORS
330
2C13
102
}
330
2C13
100
AcDbXrecord
280
     1
102
RTVSPost2010Prop28
280
     0
102
RTVSPost2010PropOp28
 70
     1
102
RTVSPost2010Prop29
280
     1
102
RTVSPost2010PropOp29
 70
     1
102
RTVSPost2010Prop30
280
     1
102
RTVSPost2010PropOp30
 70
     1
102
RTVSPost2010Prop31
280
     0
102
RTVSPost2010PropOp31
 70
     1
102
RTVSPost2010Prop32
280
     0
102
RTVSPost2010PropOp32
 70
     1
102
RTVSPost2010Prop33
280
     0
102
RTVSPost2010PropOp33
 70
     1
102
RTVSPost2010Prop34
280
     0
102
RTVSPost2010PropOp34
 70
     1
102
RTVSPost2010Prop35
280
     0
102
RTVSPost2010PropOp35
 70
     1
102
RTVSPost2010Prop36
280
     0
102
RTVSPost2010PropOp36
 70
     1
102
RTVSPost2010Prop37
 90
       50
102
RTVSPost2010PropOp37
 70
     1
102
RTVSPost2010Prop38
140
0.0
102
RTVSPost2010PropOp38
 70
     1
102
RTVSPost2010Prop39
140
1.0
102
RTVSPost2010PropOp39
 70
     1
102
RTVSPost2010Prop40
 90
        0
102
RTVSPost2010PropOp40
 70
     1
102
RTVSPost2010Prop41ColorIndex
 90
       18
102
RTVSPost2010Prop41ColorRGB
 90
        0
102
RTVSPost2010PropOp41
 70
     1
102
RTVSPost2010Prop42
 90
       50
102
RTVSPost2010PropOp42
 70
     1
102
RTVSPost2010Prop43
 90
        3
102
RTVSPost2010PropOp43
 70
     1
102
RTVSPost2010Prop44ColorIndex
 90
        5
102
RTVSPost2010Prop44ColorRGB
 90
      255
102
RTVSPost2010PropOp44
 70
     1
102
RTVSPost2010Prop45
280
     0
102
RTVSPost2010PropOp45
 70
     1
102
RTVSPost2010Prop46
 90
       50
102
RTVSPost2010PropOp46
 70
     1
102
RTVSPost2010Prop47
 90
       50
102
RTVSPost2010PropOp47
 70
     1
102
RTVSPost2010Prop48
 90
       50
102
RTVSPost2010PropOp48
 70
     1
102
RTVSPost2010Prop49
280
     0
102
RTVSPost2010PropOp49
 70
     1
102
RTVSPost2010Prop50
 90
       50
102
RTVSPost2010PropOp50
 70
     1
102
RTVSPost2010Prop51ColorIndex
 90
      256
102
RTVSPost2010Prop51ColorRGB
 90
-16777216
102
RTVSPost2010PropOp51
 70
     0
102
RTVSPost2010Prop52
140
1.0
102
RTVSPost2010PropOp52
 70
     0
102
RTVSPost2010Prop53
 90
        2
102
RTVSPost2010PropOp53
 70
     1
102
RTVSPost2010Prop54
  1
strokes_ogs.tif
102
RTVSPost2010PropOp54
 70
     1
102
RTVSPost2010Prop55
280
     0
102
RTVSPost2010PropOp55
 70
     1
102
RTVSPost2010Prop56
140
1.0
102
RTVSPost2010PropOp56
 70
     1
102
RTVSPost2010Prop57
140
1.0
102
RTVSPost2010PropOp57
 70
     1
102
RTVSPropertyOp0
 70
     1
102
RTVSPropertyOp1
 70
     1
102
RTVSPropertyOp2
 70
     1
102
RTVSPropertyOp3
 70
     1
102
RTVSPropertyOp4
 70
     1
102
RTVSPropertyOp5
 70
     1
102
RTVSPropertyOp6
 70
     1
102
RTVSPropertyOp7
 70
     1
102
RTVSPropertyOp8
 70
     1
102
RTVSPropertyOp9
 70
     1
102
RTVSPropertyOp10
 70
     1
102
RTVSPropertyOp11
 70
     1
102
RTVSPropertyOp12
 70
     1
102
RTVSPropertyOp13
 70
     1
102
RTVSPropertyOp14
 70
     1
102
RTVSPropertyOp15
 70
     1
102
RTVSPropertyOp16
 70
     1
102
RTVSPropertyOp17
 70
     1
102
RTVSPropertyOp18
 70
     1
102
RTVSPropertyOp19
 70
     1
102
RTVSPropertyOp20
 70
     1
102
RTVSPropertyOp21
 70
     1
102
RTVSPropertyOp22
 70
     1
102
RTVSPropertyOp23
 70
     1
102
RTVSPropertyOp24
 70
     1
102
RTVSPropertyOp25
 70
     1
102
RTVSPropertyOp26
 70
     1
102
RTVSPropertyOp27
 70
     1
102
RTVSPropertyOp28
 70
     1
102
RTVSPropertyOp29
 70
     1
102
RTVSPropertyOp30
 70
     1
102
RTVSPropertyOp31
 70
     1
102
RTVSPropertyOp32
 70
     1
102
RTVSPropertyOp33
 70
     1
102
RTVSPropertyOp34
 70
     1
102
RTVSPropertyOp35
 70
     1
102
RTVSPropertyOp36
 70
     1
102
RTVSPropertyOp37
 70
     1
102
RTVSPropertyOp38
 70
     1
102
RTVSPropertyOp39
 70
     1
102
RTVSPropertyOp40
 70
     1
102
RTVSPropertyOp41
 70
     1
102
RTVSPropertyOp42
 70
     1
102
RTVSPropertyOp43
 70
     1
102
RTVSPropertyOp44
 70
     1
102
RTVSPropertyOp45
 70
     1
102
RTVSPropertyOp46
 70
     1
102
RTVSPropertyOp47
 70
     1
102
RTVSPropertyOp48
 70
     1
102
RTVSPropertyOp49
 70
     1
102
RTVSPropertyOp50
 70
     1
102
RTVSPropertyOp51
 70
     0
102
RTVSPropertyOp52
 70
     0
102
RTVSPropertyOp53
 70
     1
102
RTVSPropertyOp54
 70
     1
102
RTVSPropertyOp55
 70
     1
102
RTVSPropertyOp56
 70
     1
102
RTVSPropertyOp57
 70
     1
102
RTVSPropertyOp58
 70
     1
102
RTVSPropertyOp59
 70
     1
102
RTVSPropertyOp60
 70
     1
102
RTVSPropertyOp61
 70
     1
102
RTVSPropertyOp62
 70
     1
  0
ENDSEC
  0
EOF
