  0
SECTION
  2
HEADER
  9
$ACADVER
  1
AC1015
  9
$ACADMAINTVER
 70
    20
  9
$DWGCODEPAGE
  3
ANSI_932
  9
$INSBASE
 10
0.0
 20
0.0
 30
0.0
  9
$EXTMIN
 10
9.99995
 20
9.999999999999998
 30
0.0
  9
$EXTMAX
 10
476.4999999999999
 20
321.0
 30
0.0
  9
$LIMMIN
 10
0.0
 20
0.0
  9
$LIMMAX
 10
495.0
 20
341.25
  9
$ORTHOMODE
 70
     1
  9
$REGENMODE
 70
     1
  9
$FILLMODE
 70
     1
  9
$QTEXTMODE
 70
     0
  9
$MIRRTEXT
 70
     1
  9
$LTSCALE
 40
20.0
  9
$ATTMODE
 70
     1
  9
$TEXTSIZE
 40
5.0
  9
$TRACEWID
 40
1.0
  9
$TEXTSTYLE
  7
STANDARD
  9
$CLAYER
  8
0
  9
$CELTYPE
  6
BYLAYER
  9
$CECOLOR
 62
   256
  9
$CELTSCALE
 40
1.0
  9
$DISPSILH
 70
     0
  9
$DIMSCALE
 40
1.0
  9
$DIMASZ
 40
3.0
  9
$DIMEXO
 40
1.0
  9
$DIMDLI
 40
10.0
  9
$DIMRND
 40
0.0
  9
$DIMDLE
 40
0.0
  9
$DIMEXE
 40
1.0
  9
$DIMTP
 40
0.0
  9
$DIMTM
 40
0.0
  9
$DIMTXT
 40
3.2
  9
$DIMCEN
 40
0.0
  9
$DIMTSZ
 40
0.0
  9
$DIMTOL
 70
     0
  9
$DIMLIM
 70
     0
  9
$DIMTIH
 70
     0
  9
$DIMTOH
 70
     0
  9
$DIMSE1
 70
     0
  9
$DIMSE2
 70
     0
  9
$DIMTAD
 70
     3
  9
$DIMZIN
 70
     8
  9
$DIMBLK
  1

  9
$DIMASO
 70
     1
  9
$DIMSHO
 70
     1
  9
$DIMPOST
  1

  9
$DIMAPOST
  1

  9
$DIMALT
 70
     0
  9
$DIMALTD
 70
     2
  9
$DIMALTF
 40
25.4
  9
$DIMLFAC
 40
1.0
  9
$DIMTOFL
 70
     1
  9
$DIMTVP
 40
0.0
  9
$DIMTIX
 70
     0
  9
$DIMSOXD
 70
     0
  9
$DIMSAH
 70
     1
  9
$DIMBLK1
  1
OPEN
  9
$DIMBLK2
  1
OPEN
  9
$DIMSTYLE
  2
STANDARD
  9
$DIMCLRD
 70
     0
  9
$DIMCLRE
 70
     0
  9
$DIMCLRT
 70
     0
  9
$DIMTFAC
 40
1.0
  9
$DIMGAP
 40
1.0
  9
$DIMJUST
 70
     0
  9
$DIMSD1
 70
     0
  9
$DIMSD2
 70
     0
  9
$DIMTOLJ
 70
     1
  9
$DIMTZIN
 70
     0
  9
$DIMALTZ
 70
     0
  9
$DIMALTTZ
 70
     0
  9
$DIMUPT
 70
     0
  9
$DIMDEC
 70
     4
  9
$DIMTDEC
 70
     4
  9
$DIMALTU
 70
     2
  9
$DIMALTTD
 70
     2
  9
$DIMTXSTY
  7
STANDARD
  9
$DIMAUNIT
 70
     0
  9
$DIMADEC
 70
     0
  9
$DIMALTRND
 40
0.0
  9
$DIMAZIN
 70
     0
  9
$DIMDSEP
 70
    46
  9
$DIMATFIT
 70
     3
  9
$DIMFRAC
 70
     0
  9
$DIMLDRBLK
  1
OPEN
  9
$DIMLUNIT
 70
     2
  9
$DIMLWD
 70
    -2
  9
$DIMLWE
 70
    -2
  9
$DIMTMOVE
 70
     0
  9
$LUNITS
 70
     2
  9
$LUPREC
 70
     4
  9
$SKETCHINC
 40
1.0
  9
$FILLETRAD
 40
0.0
  9
$AUNITS
 70
     0
  9
$AUPREC
 70
     2
  9
$MENU
  1
.
  9
$ELEVATION
 40
0.0
  9
$PELEVATION
 40
0.0
  9
$THICKNESS
 40
0.0
  9
$LIMCHECK
 70
     0
  9
$CHAMFERA
 40
10.0
  9
$CHAMFERB
 40
10.0
  9
$CHAMFERC
 40
0.0
  9
$CHAMFERD
 40
0.0
  9
$SKPOLY
 70
     0
  9
$TDCREATE
 40
2451301.398548611
  9
$TDUCREATE
 40
2451301.023548611
  9
$TDUPDATE
 40
2457192.692557628
  9
$TDUUPDATE
 40
2457192.317557627
  9
$TDINDWG
 40
0.0233750810
  9
$TDUSRTIMER
 40
0.0233747338
  9
$USRTIMER
 70
     1
  9
$ANGBASE
 50
0.0
  9
$ANGDIR
 70
     0
  9
$PDMODE
 70
    34
  9
$PDSIZE
 40
0.0
  9
$PLINEWID
 40
0.0
  9
$SPLFRAME
 70
     0
  9
$SPLINETYPE
 70
     6
  9
$SPLINESEGS
 70
     8
  9
$HANDSEED
  5
FA63
  9
$SURFTAB1
 70
     6
  9
$SURFTAB2
 70
     6
  9
$SURFTYPE
 70
     6
  9
$SURFU
 70
     6
  9
$SURFV
 70
     6
  9
$UCSBASE
  2

  9
$UCSNAME
  2

  9
$UCSORG
 10
0.0
 20
0.0
 30
0.0
  9
$UCSXDIR
 10
1.0
 20
0.0
 30
0.0
  9
$UCSYDIR
 10
0.0
 20
1.0
 30
0.0
  9
$UCSORTHOREF
  2

  9
$UCSORTHOVIEW
 70
     0
  9
$UCSORGTOP
 10
0.0
 20
0.0
 30
0.0
  9
$UCSORGBOTTOM
 10
0.0
 20
0.0
 30
0.0
  9
$UCSORGLEFT
 10
0.0
 20
0.0
 30
0.0
  9
$UCSORGRIGHT
 10
0.0
 20
0.0
 30
0.0
  9
$UCSORGFRONT
 10
0.0
 20
0.0
 30
0.0
  9
$UCSORGBACK
 10
0.0
 20
0.0
 30
0.0
  9
$PUCSBASE
  2

  9
$PUCSNAME
  2

  9
$PUCSORG
 10
0.0
 20
0.0
 30
0.0
  9
$PUCSXDIR
 10
1.0
 20
0.0
 30
0.0
  9
$PUCSYDIR
 10
0.0
 20
1.0
 30
0.0
  9
$PUCSORTHOREF
  2

  9
$PUCSORTHOVIEW
 70
     0
  9
$PUCSORGTOP
 10
0.0
 20
0.0
 30
0.0
  9
$PUCSORGBOTTOM
 10
0.0
 20
0.0
 30
0.0
  9
$PUCSORGLEFT
 10
0.0
 20
0.0
 30
0.0
  9
$PUCSORGRIGHT
 10
0.0
 20
0.0
 30
0.0
  9
$PUCSORGFRONT
 10
0.0
 20
0.0
 30
0.0
  9
$PUCSORGBACK
 10
0.0
 20
0.0
 30
0.0
  9
$USERI1
 70
     0
  9
$USERI2
 70
     0
  9
$USERI3
 70
     0
  9
$USERI4
 70
     0
  9
$USERI5
 70
     0
  9
$USERR1
 40
0.0
  9
$USERR2
 40
0.0
  9
$USERR3
 40
0.0
  9
$USERR4
 40
0.0
  9
$USERR5
 40
0.0
  9
$WORLDVIEW
 70
     1
  9
$SHADEDGE
 70
     3
  9
$SHADEDIF
 70
    70
  9
$TILEMODE
 70
     1
  9
$MAXACTVP
 70
    16
  9
$PINSBASE
 10
0.0
 20
0.0
 30
0.0
  9
$PLIMCHECK
 70
     0
  9
$PEXTMIN
 10
1.000000000000000E+20
 20
1.000000000000000E+20
 30
1.000000000000000E+20
  9
$PEXTMAX
 10
-1.000000000000000E+20
 20
-1.000000000000000E+20
 30
-1.000000000000000E+20
  9
$PLIMMIN
 10
0.0
 20
0.0
  9
$PLIMMAX
 10
420.0
 20
297.0
  9
$UNITMODE
 70
     0
  9
$VISRETAIN
 70
     0
  9
$PLINEGEN
 70
     0
  9
$PSLTSCALE
 70
     0
  9
$TREEDEPTH
 70
  3020
  9
$CMLSTYLE
  2
STANDARD
  9
$CMLJUST
 70
     0
  9
$CMLSCALE
 40
1.0
  9
$PROXYGRAPHICS
 70
     1
  9
$MEASUREMENT
 70
     0
  9
$CELWEIGHT
370
    -1
  9
$ENDCAPS
280
     0
  9
$JOINSTYLE
280
     0
  9
$LWDISPLAY
290
     0
  9
$INSUNITS
 70
     0
  9
$HYPERLINKBASE
  1

  9
$STYLESHEET
  1

  9
$XEDIT
290
     1
  9
$CEPSNTYPE
380
     0
  9
$PSTYLEMODE
290
     1
  9
$FINGERPRINTGUID
  2
{6D329C48-84DD-41A4-A617-CF0CA4325FC9}
  9
$VERSIONGUID
  2
{AE2CCDE1-5900-4342-815E-B3360D1DB3A7}
  9
$EXTNAMES
290
     1
  9
$PSVPSCALE
 40
0.0
  9
$OLESTARTUP
290
     0
  0
ENDSEC
  0
SECTION
  2
CLASSES
  0
CLASS
  1
ACDBDICTIONARYWDFLT
  2
AcDbDictionaryWithDefault
  3
ObjectDBX Classes
 90
        0
280
     0
281
     0
  0
CLASS
  1
ACDBPLACEHOLDER
  2
AcDbPlaceHolder
  3
ObjectDBX Classes
 90
        0
280
     0
281
     0
  0
CLASS
  1
LAYOUT
  2
AcDbLayout
  3
ObjectDBX Classes
 90
        0
280
     0
281
     0
  0
CLASS
  1
DICTIONARYVAR
  2
AcDbDictionaryVar
  3
ObjectDBX Classes
 90
        0
280
     0
281
     0
  0
CLASS
  1
MATERIAL
  2
AcDbMaterial
  3
ObjectDBX Classes
 90
     1153
280
     0
281
     0
  0
CLASS
  1
VISUALSTYLE
  2
AcDbVisualStyle
  3
ObjectDBX Classes
 90
     4095
280
     0
281
     0
  0
CLASS
  1
TABLESTYLE
  2
AcDbTableStyle
  3
ObjectDBX Classes
 90
     4095
280
     0
281
     0
  0
CLASS
  1
SCALE
  2
AcDbScale
  3
ObjectDBX Classes
 90
     1153
280
     0
281
     0
  0
CLASS
  1
MLEADERSTYLE
  2
AcDbMLeaderStyle
  3
ACDB_MLEADERSTYLE_CLASS
 90
     4095
280
     0
281
     0
  0
CLASS
  1
ACDBSECTIONVIEWSTYLE
  2
AcDbSectionViewStyle
  3
ObjectDBX Classes
 90
     1025
280
     0
281
     0
  0
CLASS
  1
ACDBDETAILVIEWSTYLE
  2
AcDbDetailViewStyle
  3
ObjectDBX Classes
 90
     1025
280
     0
281
     0
  0
CLASS
  1
CELLSTYLEMAP
  2
AcDbCellStyleMap
  3
ObjectDBX Classes
 90
     1152
280
     0
281
     0
  0
ENDSEC
  0
SECTION
  2
TABLES
  0
TABLE
  2
VPORT
  5
F76D
330
0
100
AcDbSymbolTable
 70
     1
  0
VPORT
  5
F95A
330
F76D
100
AcDbSymbolTableRecord
100
AcDbViewportTableRecord
  2
*ACTIVE
 70
     0
 10
0.0
 20
0.0
 11
1.0
 21
1.0
 12
337.4645951816652
 22
165.4960449474991
 13
0.0
 23
0.0
 14
10.0
 24
10.0
 15
10.0
 25
10.0
 16
0.0
 26
0.0
 36
1.0
 17
0.0
 27
0.0
 37
0.0
 40
314.6223710855204
 41
2.35006605019815
 42
50.0
 43
0.0
 44
0.0
 50
0.0
 51
0.0
 71
     0
 72
   100
 73
     1
 74
     0
 75
     0
 76
     0
 77
     0
 78
     0
281
     0
 65
     1
110
0.0
120
0.0
130
0.0
111
1.0
121
0.0
131
0.0
112
0.0
122
1.0
132
0.0
 79
     0
146
0.0
1001
ACAD_NAV_VCDISPLAY
1070
     3
  0
ENDTAB
  0
TABLE
  2
LTYPE
  5
F76A
330
0
100
AcDbSymbolTable
 70
     4
  0
LTYPE
  5
F778
330
F76A
100
AcDbSymbolTableRecord
100
AcDbLinetypeTableRecord
  2
BYBLOCK
 70
     0
  3

 72
    65
 73
     0
 40
0.0
  0
LTYPE
  5
F779
330
F76A
100
AcDbSymbolTableRecord
100
AcDbLinetypeTableRecord
  2
BYLAYER
 70
     0
  3

 72
    65
 73
     0
 40
0.0
  0
LTYPE
  5
F77A
330
F76A
100
AcDbSymbolTableRecord
100
AcDbLinetypeTableRecord
  2
CONTINUOUS
 70
     0
  3
Solid line
 72
    65
 73
     0
 40
0.0
  0
LTYPE
  5
F788
330
F76A
100
AcDbSymbolTableRecord
100
AcDbLinetypeTableRecord
  2
DASHED
 70
     0
  3
__ __ __ __ __ __ __ __ __ __ __ __ __ __ __ __
 72
    65
 73
     2
 40
0.75
 49
0.5
 74
     0
 49
-0.25
 74
     0
  0
LTYPE
  5
F789
330
F76A
100
AcDbSymbolTableRecord
100
AcDbLinetypeTableRecord
  2
CENTER
 70
     0
  3
____ _ ____ _ ____ _ ____ _ ____ _ ____ _ ____ 
 72
    65
 73
     4
 40
2.0
 49
1.25
 74
     0
 49
-0.25
 74
     0
 49
0.25
 74
     0
 49
-0.25
 74
     0
  0
LTYPE
  5
F78A
330
F76A
100
AcDbSymbolTableRecord
100
AcDbLinetypeTableRecord
  2
PHANTOM
 70
     0
  3
______  __  __  ______  __  __  ______  __  __ 
 72
    65
 73
     6
 40
2.5
 49
1.25
 74
     0
 49
-0.25
 74
     0
 49
0.25
 74
     0
 49
-0.25
 74
     0
 49
0.25
 74
     0
 49
-0.25
 74
     0
  0
ENDTAB
  0
TABLE
  2
LAYER
  5
F767
330
0
100
AcDbSymbolTable
 70
     8
  0
LAYER
  5
F775
102
{ACAD_XDICTIONARY
360
F9C7
102
}
330
F767
100
AcDbSymbolTableRecord
100
AcDbLayerTableRecord
  2
0
 70
     0
 62
     7
  6
CONTINUOUS
370
    -3
390
F963
  0
LAYER
  5
F78B
102
{ACAD_XDICTIONARY
360
F9C9
102
}
330
F767
100
AcDbSymbolTableRecord
100
AcDbLayerTableRecord
  2
4
 70
     0
 62
     1
  6
CENTER
370
    -3
390
F963
  0
LAYER
  5
F78C
102
{ACAD_XDICTIONARY
360
F9CB
102
}
330
F767
100
AcDbSymbolTableRecord
100
AcDbLayerTableRecord
  2
5
 70
     0
 62
     6
  6
PHANTOM
370
    -3
390
F963
  0
LAYER
  5
F78D
102
{ACAD_XDICTIONARY
360
F9CD
102
}
330
F767
100
AcDbSymbolTableRecord
100
AcDbLayerTableRecord
  2
1
 70
     0
 62
     7
  6
CONTINUOUS
370
    -3
390
F963
  0
LAYER
  5
F78E
102
{ACAD_XDICTIONARY
360
F9CF
102
}
330
F767
100
AcDbSymbolTableRecord
100
AcDbLayerTableRecord
  2
2
 70
     0
 62
     4
  6
CONTINUOUS
370
    -3
390
F963
  0
LAYER
  5
F78F
102
{ACAD_XDICTIONARY
360
F9D1
102
}
330
F767
100
AcDbSymbolTableRecord
100
AcDbLayerTableRecord
  2
3
 70
     0
 62
     2
  6
DASHED
370
    -3
390
F963
  0
LAYER
  5
F790
102
{ACAD_XDICTIONARY
360
F9D3
102
}
330
F767
100
AcDbSymbolTableRecord
100
AcDbLayerTableRecord
  2
6
 70
     0
 62
     5
  6
CONTINUOUS
370
    -3
390
F963
  0
LAYER
  5
F791
102
{ACAD_XDICTIONARY
360
F9D5
102
}
330
F767
100
AcDbSymbolTableRecord
100
AcDbLayerTableRecord
  2
7
 70
     0
 62
     3
  6
CONTINUOUS
370
    -3
390
F963
  0
ENDTAB
  0
TABLE
  2
STYLE
  5
F768
330
0
100
AcDbSymbolTable
 70
     1
  0
STYLE
  5
F776
330
F768
100
AcDbSymbolTableRecord
100
AcDbTextStyleTableRecord
  2
STANDARD
 70
     0
 40
0.0
 41
1.0
 50
0.0
 71
     0
 42
5.0
  3
txt
  4

  0
ENDTAB
  0
TABLE
  2
VIEW
  5
F76B
330
0
100
AcDbSymbolTable
 70
     2
  0
VIEW
  5
F792
330
F76B
100
AcDbSymbolTableRecord
100
AcDbViewTableRecord
  2
7
 70
     0
 40
342.2793679999998
 10
334.425922
 20
171.1396839999999
 41
668.851844
 11
0.0
 21
0.0
 31
1.0
 12
0.0
 22
0.0
 32
0.0
 42
50.0
 43
0.0
 44
0.0
 50
0.0
 71
     0
281
     0
 72
     0
  0
VIEW
  5
F793
330
F76B
100
AcDbSymbolTableRecord
100
AcDbViewTableRecord
  2
1
 70
     0
 40
249.466496
 10
136.846708
 20
233.977284
 41
487.485198
 11
0.0
 21
0.0
 31
1.0
 12
0.0
 22
0.0
 32
0.0
 42
50.0
 43
0.0
 44
0.0
 50
0.0
 71
     0
281
     0
 72
     0
  0
ENDTAB
  0
TABLE
  2
UCS
  5
F76C
330
0
100
AcDbSymbolTable
 70
     0
  0
ENDTAB
  0
TABLE
  2
APPID
  5
F76E
330
0
100
AcDbSymbolTable
 70
     4
  0
APPID
  5
F777
330
F76E
100
AcDbSymbolTableRecord
100
AcDbRegAppTableRecord
  2
ACAD
 70
     0
  0
APPID
  5
F9B5
330
F76E
100
AcDbSymbolTableRecord
100
AcDbRegAppTableRecord
  2
ACAD_EXEMPT_FROM_CAD_STANDARDS
 70
     0
  0
APPID
  5
F9B7
330
F76E
100
AcDbSymbolTableRecord
100
AcDbRegAppTableRecord
  2
ACAD_NAV_VCDISPLAY
 70
     0
  0
APPID
  5
FA19
330
F76E
100
AcDbSymbolTableRecord
100
AcDbRegAppTableRecord
  2
ACAD_MLEADERVER
 70
     0
  0
ENDTAB
  0
TABLE
  2
DIMSTYLE
  5
F76F
330
0
100
AcDbSymbolTable
 70
     1
100
AcDbDimStyleTable
 71
     0
  0
DIMSTYLE
105
F795
330
F76F
100
AcDbSymbolTableRecord
100
AcDbDimStyleTableRecord
  2
STANDARD
 70
     0
 41
3.0
 42
1.0
 43
10.0
 44
1.0
 73
     0
 74
     0
 77
     3
 78
     8
140
3.2
141
0.0
147
1.0
172
     1
173
     1
284
     8
285
     8
286
     8
340
F776
  0
ENDTAB
  0
TABLE
  2
BLOCK_RECORD
  5
F766
330
0
100
AcDbSymbolTable
 70
     1
  0
BLOCK_RECORD
  5
F783
102
{ACAD_XDICTIONARY
360
F95D
102
}
330
F766
100
AcDbSymbolTableRecord
100
AcDbBlockTableRecord
  2
*MODEL_SPACE
340
F9B1
  0
BLOCK_RECORD
  5
F77F
102
{ACAD_XDICTIONARY
360
F95B
102
}
330
F766
100
AcDbSymbolTableRecord
100
AcDbBlockTableRecord
  2
*PAPER_SPACE
340
F9B2
  0
BLOCK_RECORD
  5
F79D
330
F766
100
AcDbSymbolTableRecord
100
AcDbBlockTableRecord
  2
_OPEN
340
0
  0
ENDTAB
  0
ENDSEC
  0
SECTION
  2
BLOCKS
  0
BLOCK
  5
F784
330
F783
100
AcDbEntity
  8
0
100
AcDbBlockBegin
  2
*MODEL_SPACE
 70
     0
 10
0.0
 20
0.0
 30
0.0
  3
*MODEL_SPACE
  1

  0
ENDBLK
  5
F785
330
F783
100
AcDbEntity
  8
0
100
AcDbBlockEnd
  0
BLOCK
  5
F780
330
F77F
100
AcDbEntity
 67
     1
  8
0
100
AcDbBlockBegin
  2
*PAPER_SPACE
 70
     0
 10
0.0
 20
0.0
 30
0.0
  3
*PAPER_SPACE
  1

  0
ENDBLK
  5
F781
330
F77F
100
AcDbEntity
 67
     1
  8
0
100
AcDbBlockEnd
  0
BLOCK
  5
F79E
330
F79D
100
AcDbEntity
  8
0
100
AcDbBlockBegin
  2
_OPEN
 70
     0
 10
0.0
 20
0.0
 30
0.0
  3
_OPEN
  1

  0
LINE
  5
F79F
330
F79D
100
AcDbEntity
  8
0
  6
ByBlock
 62
     0
100
AcDbLine
 10
-1.0
 20
0.166667
 30
0.0
 11
0.0
 21
0.0
 31
0.0
  0
LINE
  5
F7A0
330
F79D
100
AcDbEntity
  8
0
  6
ByBlock
 62
     0
100
AcDbLine
 10
0.0
 20
0.0
 30
0.0
 11
-1.0
 21
-0.166667
 31
0.0
  0
LINE
  5
F7A1
330
F79D
100
AcDbEntity
  8
0
  6
ByBlock
 62
     0
100
AcDbLine
 10
0.0
 20
0.0
 30
0.0
 11
-1.0
 21
0.0
 31
0.0
  0
ENDBLK
  5
F7A2
330
F79D
100
AcDbEntity
  8
0
100
AcDbBlockEnd
  0
ENDSEC
  0
SECTION
  2
ENTITIES
  0
TEXT
  5
F7A3
330
F783
100
AcDbEntity
  8
6
  6
Continuous
100
AcDbText
 10
27.97945
 20
10.0487
 30
0.0
 40
1.399999999999999
  1
6
 41
1.069393
100
AcDbText
  0
TEXT
  5
F7A4
330
F783
100
AcDbEntity
  8
1
  6
Continuous
100
AcDbText
 10
17.97945
 20
10.0487
 30
0.0
 40
1.399999999999999
  1
1
 41
1.069393
100
AcDbText
  0
TEXT
  5
F7A5
330
F783
100
AcDbEntity
  8
1
  6
Continuous
100
AcDbText
 10
9.99995
 20
10.0
 30
0.0
 40
1.399999999999999
  1
LAYER
 41
1.009912999999996
100
AcDbText
  0
TEXT
  5
F7A6
330
F783
100
AcDbEntity
  8
2
  6
Continuous
100
AcDbText
 10
19.97944999999998
 20
10.0487
 30
0.0
 40
1.399999999999999
  1
2
 41
1.069393
100
AcDbText
  0
TEXT
  5
F7A7
330
F783
100
AcDbEntity
  8
3
  6
DASHED
100
AcDbText
 10
21.97945
 20
10.0487
 30
0.0
 40
1.399999999999999
  1
3
 41
1.069393
100
AcDbText
  0
TEXT
  5
F7A8
330
F783
100
AcDbEntity
  8
4
  6
CENTER
100
AcDbText
 10
23.97944999999999
 20
10.0487
 30
0.0
 40
1.399999999999999
  1
4
 41
1.069393
100
AcDbText
  0
TEXT
  5
F7A9
330
F783
100
AcDbEntity
  8
5
  6
PHANTOM
100
AcDbText
 10
25.97945
 20
10.0487
 30
0.0
 40
1.399999999999999
  1
5
 41
1.069393
100
AcDbText
  0
TEXT
  5
F7AA
330
F783
100
AcDbEntity
  8
7
  6
Continuous
100
AcDbText
 10
10.00005
 20
26.0
 30
0.0
 40
3.0
  1
CODE No.19030
 41
1.003962999999999
100
AcDbText
  0
TEXT
  5
F7AB
330
F783
100
AcDbEntity
  8
7
  6
Continuous
100
AcDbText
 10
10.00005
 20
18.0
 30
0.0
 40
3.0
  1
TYPE No.TCA-TY50N12S (TY50N12S)
 41
1.002350999999997
100
AcDbText
  0
TEXT
  5
F7AC
330
F783
100
AcDbEntity
  8
7
  6
Continuous
100
AcDbText
 10
29.97944999999999
 20
10.0487
 30
0.0
 40
1.399999999999999
  1
7
 41
1.069393
100
AcDbText
  0
LINE
  5
F7AD
330
F783
100
AcDbEntity
  8
1
  6
Continuous
100
AcDbLine
 10
311.5
 20
183.0
 30
0.0
 11
327.4999999999999
 21
183.0
 31
0.0
  0
ARC
  5
F7AE
330
F783
100
AcDbEntity
  8
1
  6
Continuous
100
AcDbCircle
 10
319.5
 20
74.40582299999999
 30
0.0
 40
100.0
100
AcDbArc
 50
84.836393
 51
95.16360699999999
  0
LINE
  5
F7AF
330
F783
100
AcDbEntity
  8
1
  6
Continuous
100
AcDbLine
 10
311.5
 20
177.0
 30
0.0
 11
327.4999999999999
 21
177.0
 31
0.0
  0
LINE
  5
F7B0
330
F783
100
AcDbEntity
  8
1
  6
Continuous
100
AcDbLine
 10
329.0
 20
143.0
 30
0.0
 11
310.0
 21
143.0
 31
0.0
  0
LINE
  5
F7B1
330
F783
100
AcDbEntity
  8
4
  6
CENTER
100
AcDbLine
 10
349.0
 20
150.5
 30
0.0
 11
290.0
 21
150.5
 31
0.0
  0
ARC
  5
F7B2
330
F783
100
AcDbEntity
  8
1
  6
Continuous
100
AcDbCircle
 10
285.9975
 20
150.5
 30
0.0
 40
58.0025
100
AcDbArc
 50
337.115739
 51
22.884261
  0
LINE
  5
F7B3
330
F783
100
AcDbEntity
  8
1
  6
Continuous
100
AcDbLine
 10
330.0
 20
175.0
 30
0.0
 11
330.0
 21
126.0
 31
0.0
  0
LINE
  5
F7B4
330
F783
100
AcDbEntity
  8
1
  6
Continuous
100
AcDbLine
 10
342.0
 20
135.4
 30
0.0
 11
342.0
 21
165.5999999999998
 31
0.0
  0
LINE
  5
F7B5
330
F783
100
AcDbEntity
  8
1
  6
Continuous
100
AcDbLine
 10
328.5
 20
143.0
 30
0.0
 11
328.5
 21
176.0
 31
0.0
  0
ARC
  5
F7B6
330
F783
100
AcDbEntity
  8
1
  6
Continuous
100
AcDbCircle
 10
335.749585
 20
129.4999999999998
 30
0.0
 40
4.0
100
AcDbArc
 50
270.0
 51
337.115739
  0
LINE
  5
F7B7
330
F783
100
AcDbEntity
  8
1
  6
Continuous
100
AcDbLine
 10
330.5
 20
125.5
 30
0.0
 11
335.749585
 21
125.5
 31
0.0
  0
ARC
  5
F7B8
330
F783
100
AcDbEntity
  8
1
  6
Continuous
100
AcDbCircle
 10
330.5
 20
126.0
 30
0.0
 40
0.5
100
AcDbArc
 50
180.0
 51
270.0
  0
LINE
  5
F7B9
330
F783
100
AcDbEntity
  8
1
  6
Continuous
100
AcDbLine
 10
329.0
 20
158.4999999999998
 30
0.0
 11
329.0
 21
143.0
 31
0.0
  0
ARC
  5
F7BA
330
F783
100
AcDbEntity
  8
1
  6
Continuous
100
AcDbCircle
 10
330.0
 20
143.5
 30
0.0
 40
1.0
100
AcDbArc
 50
180.0
 51
270.0
  0
ARC
  5
F7BB
330
F783
100
AcDbEntity
  8
1
  6
Continuous
100
AcDbCircle
 10
330.0
 20
157.5
 30
0.0
 40
1.0
100
AcDbArc
 50
90.0
 51
180.0
  0
LINE
  5
F7BC
330
F783
100
AcDbEntity
  8
1
  6
Continuous
100
AcDbLine
 10
328.5
 20
158.4999999999998
 30
0.0
 11
329.0
 21
158.4999999999998
 31
0.0
  0
LINE
  5
F7BD
330
F783
100
AcDbEntity
  8
1
  6
Continuous
100
AcDbLine
 10
328.0
 20
177.5
 30
0.0
 11
328.0
 21
182.5
 31
0.0
  0
ARC
  5
F7BE
330
F783
100
AcDbEntity
  8
1
  6
Continuous
100
AcDbCircle
 10
335.749585
 20
171.5
 30
0.0
 40
4.0
100
AcDbArc
 50
22.884261
 51
90.0
  0
LINE
  5
F7BF
330
F783
100
AcDbEntity
  8
1
  6
Continuous
100
AcDbLine
 10
330.5
 20
175.5
 30
0.0
 11
335.749585
 21
175.5
 31
0.0
  0
ARC
  5
F7C0
330
F783
100
AcDbEntity
  8
1
  6
Continuous
100
AcDbCircle
 10
330.5
 20
175.0
 30
0.0
 40
0.5
100
AcDbArc
 50
90.0
 51
180.0
  0
ARC
  5
F7C1
330
F783
100
AcDbEntity
  8
1
  6
Continuous
100
AcDbCircle
 10
327.4999999999999
 20
177.5
 30
0.0
 40
0.5
100
AcDbArc
 50
270.0
 51
0.0
  0
ARC
  5
F7C2
330
F783
100
AcDbEntity
  8
1
  6
Continuous
100
AcDbCircle
 10
327.4999999999999
 20
176.0
 30
0.0
 40
1.0
100
AcDbArc
 50
0.0
 51
90.0
  0
ARC
  5
F7C3
330
F783
100
AcDbEntity
  8
1
  6
Continuous
100
AcDbCircle
 10
327.4999999999999
 20
182.5
 30
0.0
 40
0.5
100
AcDbArc
 50
0.0
 51
90.0
  0
LINE
  5
F7C4
330
F783
100
AcDbEntity
  8
1
  6
Continuous
100
AcDbLine
 10
297.0
 20
135.4
 30
0.0
 11
297.0
 21
165.5999999999998
 31
0.0
  0
ARC
  5
F7C5
330
F783
100
AcDbEntity
  8
1
  6
Continuous
100
AcDbCircle
 10
353.0025
 20
150.5
 30
0.0
 40
58.0025
100
AcDbArc
 50
157.1157389999999
 51
202.884261
  0
LINE
  5
F7C6
330
F783
100
AcDbEntity
  8
1
  6
Continuous
100
AcDbLine
 10
309.0
 20
175.0
 30
0.0
 11
309.0
 21
126.0
 31
0.0
  0
LINE
  5
F7C7
330
F783
100
AcDbEntity
  8
1
  6
Continuous
100
AcDbLine
 10
310.4999999999999
 20
143.0
 30
0.0
 11
310.4999999999999
 21
176.0
 31
0.0
  0
LINE
  5
F7C8
330
F783
100
AcDbEntity
  8
4
  6
CENTER
100
AcDbLine
 10
319.5
 20
202.0
 30
0.0
 11
319.5
 21
130.2499999999998
 31
0.0
  0
LINE
  5
F7C9
330
F783
100
AcDbEntity
  8
1
  6
Continuous
100
AcDbLine
 10
308.4999999999999
 20
125.5
 30
0.0
 11
303.2504149999998
 21
125.5
 31
0.0
  0
ARC
  5
F7CA
330
F783
100
AcDbEntity
  8
1
  6
Continuous
100
AcDbCircle
 10
303.2504149999998
 20
129.4999999999998
 30
0.0
 40
4.0
100
AcDbArc
 50
202.884261
 51
270.0
  0
ARC
  5
F7CB
330
F783
100
AcDbEntity
  8
1
  6
Continuous
100
AcDbCircle
 10
308.4999999999999
 20
126.0
 30
0.0
 40
0.5
100
AcDbArc
 50
270.0
 51
0.0
  0
LINE
  5
F7CC
330
F783
100
AcDbEntity
  8
1
  6
Continuous
100
AcDbLine
 10
310.0
 20
143.0
 30
0.0
 11
310.0
 21
158.4999999999998
 31
0.0
  0
ARC
  5
F7CD
330
F783
100
AcDbEntity
  8
1
  6
Continuous
100
AcDbCircle
 10
309.0
 20
143.5
 30
0.0
 40
1.0
100
AcDbArc
 50
270.0
 51
0.0
  0
ARC
  5
F7CE
330
F783
100
AcDbEntity
  8
1
  6
Continuous
100
AcDbCircle
 10
309.0
 20
157.5
 30
0.0
 40
1.0
100
AcDbArc
 50
0.0
 51
90.0
  0
LINE
  5
F7CF
330
F783
100
AcDbEntity
  8
1
  6
Continuous
100
AcDbLine
 10
310.0
 20
158.4999999999998
 30
0.0
 11
310.4999999999999
 21
158.4999999999998
 31
0.0
  0
LINE
  5
F7D0
330
F783
100
AcDbEntity
  8
1
  6
Continuous
100
AcDbLine
 10
311.0
 20
177.5
 30
0.0
 11
311.0
 21
182.5
 31
0.0
  0
ARC
  5
F7D1
330
F783
100
AcDbEntity
  8
1
  6
Continuous
100
AcDbCircle
 10
311.5
 20
177.5
 30
0.0
 40
0.5
100
AcDbArc
 50
180.0
 51
270.0
  0
ARC
  5
F7D2
330
F783
100
AcDbEntity
  8
1
  6
Continuous
100
AcDbCircle
 10
311.5
 20
176.0
 30
0.0
 40
1.0
100
AcDbArc
 50
90.0
 51
180.0
  0
LINE
  5
F7D3
330
F783
100
AcDbEntity
  8
1
  6
Continuous
100
AcDbLine
 10
308.4999999999999
 20
175.5
 30
0.0
 11
303.2504149999998
 21
175.5
 31
0.0
  0
ARC
  5
F7D4
330
F783
100
AcDbEntity
  8
1
  6
Continuous
100
AcDbCircle
 10
303.2504149999998
 20
171.5
 30
0.0
 40
4.0
100
AcDbArc
 50
90.0
 51
157.1157389999999
  0
ARC
  5
F7D5
330
F783
100
AcDbEntity
  8
1
  6
Continuous
100
AcDbCircle
 10
308.4999999999999
 20
175.0
 30
0.0
 40
0.5
100
AcDbArc
 50
0.0
 51
90.0
  0
ARC
  5
F7D6
330
F783
100
AcDbEntity
  8
1
  6
Continuous
100
AcDbCircle
 10
311.5
 20
182.5
 30
0.0
 40
0.5
100
AcDbArc
 50
90.0
 51
180.0
  0
ARC
  5
F7D7
330
F783
100
AcDbEntity
  8
1
  6
Continuous
100
AcDbCircle
 10
194.5
 20
84.00249999999997
 30
0.0
 40
58.0025
100
AcDbArc
 50
247.115739
 51
292.8842609999999
  0
ARC
  5
F7D8
330
F783
100
AcDbEntity
  8
1
  6
Continuous
100
AcDbCircle
 10
194.5
 20
16.99749999999999
 30
0.0
 40
58.0025
100
AcDbArc
 50
67.11573900000001
 51
112.884261
  0
LINE
  5
F7D9
330
F783
100
AcDbEntity
  8
1
  6
Continuous
100
AcDbLine
 10
171.246084
 20
59.5
 30
0.0
 11
218.0
 21
59.5
 31
0.0
  0
LINE
  5
F7DA
330
F783
100
AcDbEntity
  8
1
  6
Continuous
100
AcDbLine
 10
179.4
 20
73.0
 30
0.0
 11
209.6
 21
73.0
 31
0.0
  0
LINE
  5
F7DB
330
F783
100
AcDbEntity
  8
1
  6
Continuous
100
AcDbLine
 10
171.246084
 20
41.5
 30
0.0
 11
218.0
 21
41.5
 31
0.0
  0
LINE
  5
F7DC
330
F783
100
AcDbEntity
  8
1
  6
Continuous
100
AcDbLine
 10
179.4
 20
28.0
 30
0.0
 11
209.6
 21
28.0
 31
0.0
  0
LINE
  5
F7DD
330
F783
100
AcDbEntity
  8
4
  6
CENTER
100
AcDbLine
 10
227.0
 20
50.5
 30
0.0
 11
157.5164909999998
 21
50.5
 31
0.0
  0
ARC
  5
F7DE
330
F783
100
AcDbEntity
  8
1
  6
Continuous
100
AcDbCircle
 10
270.8402599999998
 20
50.5
 30
0.0
 40
100.0
100
AcDbArc
 50
174.836393
 51
185.1636069999999
  0
LINE
  5
F7DF
330
F783
100
AcDbEntity
  8
1
  6
Continuous
100
AcDbLine
 10
169.5
 20
39.5
 30
0.0
 11
169.5
 21
34.25041499999999
 31
0.0
  0
ARC
  5
F7E0
330
F783
100
AcDbEntity
  8
1
  6
Continuous
100
AcDbCircle
 10
173.5
 20
34.25041499999999
 30
0.0
 40
4.0
100
AcDbArc
 50
180.0
 51
247.115739
  0
ARC
  5
F7E1
330
F783
100
AcDbEntity
  8
1
  6
Continuous
100
AcDbCircle
 10
170.0
 20
39.5
 30
0.0
 40
0.5
100
AcDbArc
 50
90.0
 51
180.0
  0
ARC
  5
F7E2
330
F783
100
AcDbEntity
  8
1
  6
Continuous
100
AcDbCircle
 10
173.5
 20
66.74958499999999
 30
0.0
 40
4.0
100
AcDbArc
 50
112.884261
 51
180.0
  0
ARC
  5
F7E3
330
F783
100
AcDbEntity
  8
1
  6
Continuous
100
AcDbCircle
 10
170.0
 20
61.5
 30
0.0
 40
0.5
100
AcDbArc
 50
180.0
 51
270.0
  0
LINE
  5
F7E4
330
F783
100
AcDbEntity
  8
1
  6
Continuous
100
AcDbLine
 10
169.5
 20
61.5
 30
0.0
 11
169.5
 21
66.74958499999999
 31
0.0
  0
LINE
  5
F7E5
330
F783
100
AcDbEntity
  8
4
  6
CENTER
100
AcDbLine
 10
194.5
 20
80.0
 30
0.0
 11
194.5
 21
21.0
 31
0.0
  0
LINE
  5
F7E6
330
F783
100
AcDbEntity
  8
4
  6
CENTER
100
AcDbLine
 10
211.5
 20
77.6631
 30
0.0
 11
211.5
 21
23.3369
 31
0.0
  0
ARC
  5
F7E7
330
F783
100
AcDbEntity
  8
1
  6
Continuous
100
AcDbCircle
 10
213.5
 20
50.5
 30
0.0
 40
8.5
100
AcDbArc
 50
301.9657189999999
 51
58.03428100000001
  0
LINE
  5
F7E8
330
F783
100
AcDbEntity
  8
1
  6
Continuous
100
AcDbLine
 10
170.0
 20
40.0
 30
0.0
 11
219.0
 21
40.0
 31
0.0
  0
LINE
  5
F7E9
330
F783
100
AcDbEntity
  8
1
  6
Continuous
100
AcDbLine
 10
186.5
 20
41.0
 30
0.0
 11
202.4999999999999
 21
41.0
 31
0.0
  0
LINE
  5
F7EA
330
F783
100
AcDbEntity
  8
1
  6
Continuous
100
AcDbLine
 10
186.5
 20
41.5
 30
0.0
 11
186.5
 21
41.0
 31
0.0
  0
ARC
  5
F7EB
330
F783
100
AcDbEntity
  8
1
  6
Continuous
100
AcDbCircle
 10
187.5
 20
40.0
 30
0.0
 40
1.0
100
AcDbArc
 50
90.0
 51
180.0
  0
LINE
  5
F7EC
330
F783
100
AcDbEntity
  8
1
  6
Continuous
100
AcDbLine
 10
202.4999999999999
 20
41.5
 30
0.0
 11
202.4999999999999
 21
41.0
 31
0.0
  0
ARC
  5
F7ED
330
F783
100
AcDbEntity
  8
1
  6
Continuous
100
AcDbCircle
 10
201.5
 20
40.0
 30
0.0
 40
1.0
100
AcDbArc
 50
0.0
 51
90.0
  0
LINE
  5
F7EE
330
F783
100
AcDbEntity
  8
1
  6
Continuous
100
AcDbLine
 10
219.4999999999998
 20
39.5
 30
0.0
 11
219.4999999999998
 21
34.25041499999999
 31
0.0
  0
ARC
  5
F7EF
330
F783
100
AcDbEntity
  8
1
  6
Continuous
100
AcDbCircle
 10
215.5
 20
34.25041499999999
 30
0.0
 40
4.0
100
AcDbArc
 50
292.8842609999999
 51
0.0
  0
LINE
  5
F7F0
330
F783
100
AcDbEntity
  8
1
  6
Continuous
100
AcDbLine
 10
218.0
 20
41.5
 30
0.0
 11
218.0
 21
43.288897
 31
0.0
  0
ARC
  5
F7F1
330
F783
100
AcDbEntity
  8
1
  6
Continuous
100
AcDbCircle
 10
219.0
 20
39.5
 30
0.0
 40
0.5
100
AcDbArc
 50
0.0
 51
90.0
  0
LINE
  5
F7F2
330
F783
100
AcDbEntity
  8
1
  6
Continuous
100
AcDbLine
 10
170.0
 20
61.0
 30
0.0
 11
219.0
 21
61.0
 31
0.0
  0
LINE
  5
F7F3
330
F783
100
AcDbEntity
  8
1
  6
Continuous
100
AcDbLine
 10
186.5
 20
60.0
 30
0.0
 11
202.4999999999999
 21
60.0
 31
0.0
  0
LINE
  5
F7F4
330
F783
100
AcDbEntity
  8
1
  6
Continuous
100
AcDbLine
 10
186.5
 20
60.0
 30
0.0
 11
186.5
 21
59.5
 31
0.0
  0
ARC
  5
F7F5
330
F783
100
AcDbEntity
  8
1
  6
Continuous
100
AcDbCircle
 10
187.5
 20
61.0
 30
0.0
 40
1.0
100
AcDbArc
 50
180.0
 51
270.0
  0
LINE
  5
F7F6
330
F783
100
AcDbEntity
  8
1
  6
Continuous
100
AcDbLine
 10
202.4999999999999
 20
60.0
 30
0.0
 11
202.4999999999999
 21
59.5
 31
0.0
  0
ARC
  5
F7F7
330
F783
100
AcDbEntity
  8
1
  6
Continuous
100
AcDbCircle
 10
201.5
 20
61.0
 30
0.0
 40
1.0
100
AcDbArc
 50
270.0
 51
0.0
  0
ARC
  5
F7F8
330
F783
100
AcDbEntity
  8
1
  6
Continuous
100
AcDbCircle
 10
215.5
 20
66.74958499999999
 30
0.0
 40
4.0
100
AcDbArc
 50
0.0
 51
67.11573900000001
  0
LINE
  5
F7F9
330
F783
100
AcDbEntity
  8
1
  6
Continuous
100
AcDbLine
 10
218.0
 20
57.71110199999998
 30
0.0
 11
218.0
 21
59.5
 31
0.0
  0
ARC
  5
F7FA
330
F783
100
AcDbEntity
  8
1
  6
Continuous
100
AcDbCircle
 10
219.0
 20
61.5
 30
0.0
 40
0.5
100
AcDbArc
 50
270.0
 51
0.0
  0
LINE
  5
F7FB
330
F783
100
AcDbEntity
  8
1
  6
Continuous
100
AcDbLine
 10
219.4999999999998
 20
61.5
 30
0.0
 11
219.4999999999998
 21
66.74958499999999
 31
0.0
  0
ARC
  5
F7FC
330
F783
100
AcDbEntity
  8
1
  6
Continuous
100
AcDbCircle
 10
211.5
 20
50.5
 30
0.0
 40
6.275
100
AcDbArc
 50
17.63970099999999
 51
342.360299
  0
LINE
  5
F7FD
330
F783
100
AcDbEntity
  8
1
  6
Continuous
100
AcDbLine
 10
217.0034649999998
 20
51.75
 30
0.0
 11
215.3971149999999
 21
51.75
 31
0.0
  0
LINE
  5
F7FE
330
F783
100
AcDbEntity
  8
1
  6
Continuous
100
AcDbLine
 10
217.0034649999998
 20
49.25
 30
0.0
 11
215.3971149999999
 21
49.25
 31
0.0
  0
ARC
  5
F7FF
330
F783
100
AcDbEntity
  8
1
  6
Continuous
100
AcDbCircle
 10
253.572323
 20
147.207232
 30
0.0
 40
59.077677
100
AcDbArc
 50
356.9398239999999
 51
15.50497699999999
  0
ARC
  5
F800
330
F783
100
AcDbEntity
  8
1
  6
Continuous
100
AcDbCircle
 10
385.427677
 20
147.207232
 30
0.0
 40
59.077677
100
AcDbArc
 50
164.495023
 51
183.060176
  0
ARC
  5
F801
330
F783
100
AcDbEntity
  8
1
  6
Continuous
100
AcDbCircle
 10
313.5643299999999
 20
144.0
 30
0.0
 40
1.0
100
AcDbArc
 50
176.939824
 51
270.0
  0
ARC
  5
F802
330
F783
100
AcDbEntity
  8
1
  6
Continuous
100
AcDbCircle
 10
325.43567
 20
144.0
 30
0.0
 40
1.0
100
AcDbArc
 50
270.0
 51
3.060175999999998
  0
CIRCLE
  5
F803
330
F783
100
AcDbEntity
  8
1
  6
Continuous
100
AcDbCircle
 10
211.5
 20
50.5
 30
0.0
 40
4.0
  0
LINE
  5
F804
330
F783
100
AcDbEntity
  8
1
  6
Continuous
100
AcDbLine
 10
206.8811979999999
 20
50.5
 30
0.0
 11
209.1905989999999
 21
54.5
 31
0.0
  0
LINE
  5
F805
330
F783
100
AcDbEntity
  8
1
  6
Continuous
100
AcDbLine
 10
209.1905989999999
 20
46.5
 30
0.0
 11
206.8811979999999
 21
50.5
 31
0.0
  0
LINE
  5
F806
330
F783
100
AcDbEntity
  8
1
  6
Continuous
100
AcDbLine
 10
80.775
 20
139.55
 30
0.0
 11
68.22499999999999
 21
139.55
 31
0.0
  0
LINE
  5
F807
330
F783
100
AcDbEntity
  8
1
  6
Continuous
100
AcDbLine
 10
80.775
 20
141.05
 30
0.0
 11
68.22499999999999
 21
141.05
 31
0.0
  0
LINE
  5
F808
330
F783
100
AcDbEntity
  8
1
  6
Continuous
100
AcDbLine
 10
77.5
 20
143.0
 30
0.0
 11
77.5
 21
141.05
 31
0.0
  0
ARC
  5
F809
330
F783
100
AcDbEntity
  8
1
  6
Continuous
100
AcDbCircle
 10
76.5
 20
138.15
 30
0.0
 40
2.9
100
AcDbArc
 50
226.397181
 51
313.602819
  0
LINE
  5
F80A
330
F783
100
AcDbEntity
  8
1
  6
Continuous
100
AcDbLine
 10
78.5
 20
139.55
 30
0.0
 11
78.5
 21
135.25
 31
0.0
  0
LINE
  5
F80B
330
F783
100
AcDbEntity
  8
1
  6
Continuous
100
AcDbLine
 10
71.5
 20
143.0
 30
0.0
 11
71.5
 21
141.05
 31
0.0
  0
LINE
  5
F80C
330
F783
100
AcDbEntity
  8
1
  6
Continuous
100
AcDbLine
 10
68.22499999999999
 20
141.05
 30
0.0
 11
68.22499999999999
 21
139.55
 31
0.0
  0
LINE
  5
F80D
330
F783
100
AcDbEntity
  8
1
  6
Continuous
100
AcDbLine
 10
70.5
 20
139.55
 30
0.0
 11
70.5
 21
135.25
 31
0.0
  0
ARC
  5
F80E
330
F783
100
AcDbEntity
  8
1
  6
Continuous
100
AcDbCircle
 10
72.5
 20
138.15
 30
0.0
 40
2.9
100
AcDbArc
 50
226.397181
 51
313.602819
  0
LINE
  5
F80F
330
F783
100
AcDbEntity
  8
1
  6
Continuous
100
AcDbLine
 10
78.5
 20
135.25
 30
0.0
 11
70.5
 21
135.25
 31
0.0
  0
LINE
  5
F810
330
F783
100
AcDbEntity
  8
1
  6
Continuous
100
AcDbLine
 10
216.1188029999999
 20
50.5
 30
0.0
 11
213.8094009999999
 21
46.5
 31
0.0
  0
LINE
  5
F811
330
F783
100
AcDbEntity
  8
1
  6
Continuous
100
AcDbLine
 10
213.8094009999999
 20
46.5
 30
0.0
 11
209.1905989999999
 21
46.5
 31
0.0
  0
LINE
  5
F812
330
F783
100
AcDbEntity
  8
1
  6
Continuous
100
AcDbLine
 10
209.1905989999999
 20
54.5
 30
0.0
 11
213.8094009999999
 21
54.5
 31
0.0
  0
LINE
  5
F813
330
F783
100
AcDbEntity
  8
1
  6
Continuous
100
AcDbLine
 10
213.8094009999999
 20
54.5
 30
0.0
 11
216.1188029999999
 21
50.5
 31
0.0
  0
LINE
  5
F814
330
F783
100
AcDbEntity
  8
1
  6
Continuous
100
AcDbLine
 10
80.775
 20
141.05
 30
0.0
 11
80.775
 21
139.55
 31
0.0
  0
LINE
  5
F815
330
F783
100
AcDbEntity
  8
1
  6
Continuous
100
AcDbLine
 10
313.225
 20
139.55
 30
0.0
 11
325.7749999999999
 21
139.55
 31
0.0
  0
LINE
  5
F816
330
F783
100
AcDbEntity
  8
1
  6
Continuous
100
AcDbLine
 10
320.5
 20
141.05
 30
0.0
 11
325.7749999999999
 21
141.05
 31
0.0
  0
LINE
  5
F817
330
F783
100
AcDbEntity
  8
1
  6
Continuous
100
AcDbLine
 10
322.5
 20
143.0
 30
0.0
 11
322.5
 21
141.05
 31
0.0
  0
LINE
  5
F818
330
F783
100
AcDbEntity
  8
1
  6
Continuous
100
AcDbLine
 10
323.4999999999998
 20
139.55
 30
0.0
 11
323.4999999999998
 21
135.25
 31
0.0
  0
LINE
  5
F819
330
F783
100
AcDbEntity
  8
1
  6
Continuous
100
AcDbLine
 10
313.225
 20
141.05
 30
0.0
 11
318.5
 21
141.05
 31
0.0
  0
LINE
  5
F81A
330
F783
100
AcDbEntity
  8
1
  6
Continuous
100
AcDbLine
 10
313.225
 20
141.05
 30
0.0
 11
313.225
 21
139.55
 31
0.0
  0
ARC
  5
F81B
330
F783
100
AcDbEntity
  8
1
  6
Continuous
100
AcDbCircle
 10
317.5
 20
138.15
 30
0.0
 40
2.9
100
AcDbArc
 50
226.397181
 51
313.602819
  0
LINE
  5
F81C
330
F783
100
AcDbEntity
  8
1
  6
Continuous
100
AcDbLine
 10
319.5
 20
139.55
 30
0.0
 11
319.5
 21
136.05
 31
0.0
  0
LINE
  5
F81D
330
F783
100
AcDbEntity
  8
1
  6
Continuous
100
AcDbLine
 10
316.5
 20
143.0
 30
0.0
 11
316.5
 21
141.05
 31
0.0
  0
LINE
  5
F81E
330
F783
100
AcDbEntity
  8
1
  6
Continuous
100
AcDbLine
 10
318.5
 20
141.05
 30
0.0
 11
318.5
 21
139.55
 31
0.0
  0
LINE
  5
F81F
330
F783
100
AcDbEntity
  8
1
  6
Continuous
100
AcDbLine
 10
320.5
 20
141.05
 30
0.0
 11
320.5
 21
139.55
 31
0.0
  0
LINE
  5
F820
330
F783
100
AcDbEntity
  8
1
  6
Continuous
100
AcDbLine
 10
315.5
 20
139.55
 30
0.0
 11
315.5
 21
135.25
 31
0.0
  0
ARC
  5
F821
330
F783
100
AcDbEntity
  8
1
  6
Continuous
100
AcDbCircle
 10
321.4999999999998
 20
138.15
 30
0.0
 40
2.9
100
AcDbArc
 50
226.397181
 51
313.602819
  0
LINE
  5
F822
330
F783
100
AcDbEntity
  8
1
  6
Continuous
100
AcDbLine
 10
315.5
 20
135.25
 30
0.0
 11
323.4999999999998
 21
135.25
 31
0.0
  0
LINE
  5
F823
330
F783
100
AcDbEntity
  8
1
  6
Continuous
100
AcDbLine
 10
325.7749999999999
 20
141.05
 30
0.0
 11
325.7749999999999
 21
139.55
 31
0.0
  0
ARC
  5
F824
330
F783
100
AcDbEntity
  8
1
  6
Continuous
100
AcDbCircle
 10
217.0034649999998
 20
52.25
 30
0.0
 40
0.5
100
AcDbArc
 50
270.0
 51
17.63970099999999
  0
ARC
  5
F825
330
F783
100
AcDbEntity
  8
1
  6
Continuous
100
AcDbCircle
 10
217.0034649999998
 20
48.75
 30
0.0
 40
0.5
100
AcDbArc
 50
342.360299
 51
90.0
  0
LINE
  5
F826
330
F783
100
AcDbEntity
  8
1
  6
Continuous
100
AcDbLine
 10
169.5
 20
280.5
 30
0.0
 11
169.5
 21
275.2504149999999
 31
0.0
  0
LINE
  5
F827
330
F783
100
AcDbEntity
  8
1
  6
Continuous
100
AcDbLine
 10
219.4999999999998
 20
280.5
 30
0.0
 11
219.4999999999998
 21
275.2504149999999
 31
0.0
  0
LINE
  5
F828
330
F783
100
AcDbEntity
  8
4
  6
CENTER
100
AcDbLine
 10
211.5
 20
264.3369
 30
0.0
 11
211.5
 21
318.6630999999998
 31
0.0
  0
LINE
  5
F829
330
F783
100
AcDbEntity
  8
4
  6
CENTER
100
AcDbLine
 10
194.5
 20
321.0
 30
0.0
 11
194.5
 21
262.0
 31
0.0
  0
LINE
  5
F82A
330
F783
100
AcDbEntity
  8
4
  6
CENTER
100
AcDbLine
 10
226.567467
 20
150.5
 30
0.0
 11
164.5
 21
150.5
 31
0.0
  0
CIRCLE
  5
F82B
330
F783
100
AcDbEntity
  8
1
  6
Continuous
100
AcDbCircle
 10
194.5
 20
150.5
 30
0.0
 40
25.0
  0
CIRCLE
  5
F82C
330
F783
100
AcDbEntity
  8
1
  6
Continuous
100
AcDbCircle
 10
194.5
 20
150.5
 30
0.0
 40
15.09999999999999
  0
LINE
  5
F82D
330
F783
100
AcDbEntity
  8
4
  6
CENTER
100
AcDbLine
 10
211.5
 20
125.781586
 30
0.0
 11
211.5
 21
202.0
 31
0.0
  0
LINE
  5
F82E
330
F783
100
AcDbEntity
  8
4
  6
CENTER
100
AcDbLine
 10
194.5
 20
120.5
 30
0.0
 11
194.5
 21
180.4999999999998
 31
0.0
  0
LINE
  5
F82F
330
F783
100
AcDbEntity
  8
1
  6
Continuous
100
AcDbLine
 10
220.0553699999999
 20
176.0587219999999
 30
0.0
 11
221.9065839999999
 21
144.588083
 31
0.0
  0
LINE
  5
F830
330
F783
100
AcDbEntity
  8
1
  6
Continuous
100
AcDbLine
 10
220.409172
 20
143.0
 30
0.0
 11
218.34848
 21
143.0
 31
0.0
  0
ARC
  5
F831
330
F783
100
AcDbEntity
  8
1
  6
Continuous
100
AcDbCircle
 10
220.409172
 20
144.5
 30
0.0
 40
1.5
100
AcDbArc
 50
270.0
 51
3.366461
  0
LINE
  5
F832
330
F783
100
AcDbEntity
  8
1
  6
Continuous
100
AcDbLine
 10
220.5
 20
183.0
 30
0.0
 11
202.4999999999999
 21
183.0
 31
0.0
  0
LINE
  5
F833
330
F783
100
AcDbEntity
  8
1
  6
Continuous
100
AcDbLine
 10
202.4999999999999
 20
177.0
 30
0.0
 11
220.5
 21
177.0
 31
0.0
  0
ARC
  5
F834
330
F783
100
AcDbEntity
  8
1
  6
Continuous
100
AcDbCircle
 10
219.0570950000001
 20
176.0
 30
0.0
 40
1.0
100
AcDbArc
 50
3.366461
 51
90.0
  0
ARC
  5
F835
330
F783
100
AcDbEntity
  8
1
  6
Continuous
100
AcDbCircle
 10
217.854249
 20
180.0
 30
0.0
 40
4.0
100
AcDbArc
 50
311.409622
 51
48.590378
  0
ARC
  5
F836
330
F783
100
AcDbEntity
  8
1
  6
Continuous
100
AcDbCircle
 10
211.8122889999999
 20
180.0
 30
0.0
 40
4.0
100
AcDbArc
 50
311.409622
 51
48.590378
  0
ARC
  5
F837
330
F783
100
AcDbEntity
  8
1
  6
Continuous
100
AcDbCircle
 10
200.0
 20
176.4229629999999
 30
0.0
 40
3.0
100
AcDbArc
 50
315.1705810000001
 51
351.9749
  0
ARC
  5
F838
330
F783
100
AcDbEntity
  8
1
  6
Continuous
100
AcDbCircle
 10
211.1877119999999
 20
180.0
 30
0.0
 40
4.0
100
AcDbArc
 50
131.4096219999999
 51
228.5903779999999
  0
ARC
  5
F839
330
F783
100
AcDbEntity
  8
1
  6
Continuous
100
AcDbCircle
 10
204.0
 20
176.0
 30
0.0
 40
1.0
100
AcDbArc
 50
90.0
 51
180.0
  0
ARC
  5
F83A
330
F783
100
AcDbEntity
  8
1
  6
Continuous
100
AcDbCircle
 10
205.145752
 20
180.0
 30
0.0
 40
4.0
100
AcDbArc
 50
131.4096219999999
 51
228.5903779999999
  0
LINE
  5
F83B
330
F783
100
AcDbEntity
  8
1
  6
Continuous
100
AcDbLine
 10
64.0
 20
175.0
 30
0.0
 11
64.0
 21
126.0
 31
0.0
  0
LINE
  5
F83C
330
F783
100
AcDbEntity
  8
1
  6
Continuous
100
AcDbLine
 10
85.0
 20
175.0
 30
0.0
 11
85.0
 21
126.0
 31
0.0
  0
LINE
  5
F83D
330
F783
100
AcDbEntity
  8
4
  6
CENTER
100
AcDbLine
 10
74.5
 20
202.0
 30
0.0
 11
74.5
 21
130.2499999999998
 31
0.0
  0
LINE
  5
F83E
330
F783
100
AcDbEntity
  8
1
  6
Continuous
100
AcDbLine
 10
85.5
 20
125.5
 30
0.0
 11
90.74958499999999
 21
125.5
 31
0.0
  0
ARC
  5
F83F
330
F783
100
AcDbEntity
  8
1
  6
Continuous
100
AcDbCircle
 10
85.5
 20
126.0
 30
0.0
 40
0.5
100
AcDbArc
 50
180.0
 51
270.0
  0
LINE
  5
F840
330
F783
100
AcDbEntity
  8
1
  6
Continuous
100
AcDbLine
 10
63.5
 20
125.5
 30
0.0
 11
58.25041500000001
 21
125.5
 31
0.0
  0
ARC
  5
F841
330
F783
100
AcDbEntity
  8
1
  6
Continuous
100
AcDbCircle
 10
63.5
 20
126.0
 30
0.0
 40
0.5
100
AcDbArc
 50
270.0
 51
0.0
  0
LINE
  5
F842
330
F783
100
AcDbEntity
  8
4
  6
CENTER
100
AcDbLine
 10
45.0
 20
150.5
 30
0.0
 11
104.0
 21
150.5
 31
0.0
  0
ARC
  5
F843
330
F783
100
AcDbEntity
  8
1
  6
Continuous
100
AcDbCircle
 10
169.921611
 20
165.667627
 30
0.0
 40
1.0
100
AcDbArc
 50
336.219159
 51
95.34782599999996
  0
ARC
  5
F844
330
F783
100
AcDbEntity
  8
1
  6
Continuous
100
AcDbCircle
 10
167.2187609999998
 20
194.5413969999999
 30
0.0
 40
28.0
100
AcDbArc
 50
262.055411
 51
290.2749469999998
  0
ARC
  5
F845
330
F783
100
AcDbEntity
  8
1
  6
Continuous
100
AcDbCircle
 10
175.412178
 20
163.2481909999999
 30
0.0
 40
5.0
100
AcDbArc
 50
156.2191589999999
 51
217.6815799999999
  0
ARC
  5
F846
330
F783
100
AcDbEntity
  8
1
  6
Continuous
100
AcDbCircle
 10
167.2187609999998
 20
194.5413969999999
 30
0.0
 40
26.0
100
AcDbArc
 50
260.358623
 51
302.0679830000001
  0
ARC
  5
F847
330
F783
100
AcDbEntity
  8
1
  6
Continuous
100
AcDbCircle
 10
181.1820919999999
 20
172.254284
 30
0.0
 40
0.3
100
AcDbArc
 50
33.538524
 51
122.0679829999999
  0
ARC
  5
F848
330
F783
100
AcDbEntity
  8
1
  6
Continuous
100
AcDbCircle
 10
179.7651169999998
 20
171.3150389999999
 30
0.0
 40
2.0
100
AcDbArc
 50
18.554139
 51
33.538524
  0
ARC
  5
F849
330
F783
100
AcDbEntity
  8
1
  6
Continuous
100
AcDbCircle
 10
164.5
 20
168.3950199999999
 30
0.0
 40
2.0
100
AcDbArc
 50
172.6372709999999
 51
229.244997
  0
LINE
  5
F84A
330
F783
100
AcDbEntity
  8
1
  6
Continuous
100
AcDbLine
 10
65.5
 20
156.0
 30
0.0
 11
65.5
 21
176.0
 31
0.0
  0
LINE
  5
F84B
330
F783
100
AcDbEntity
  8
1
  6
Continuous
100
AcDbLine
 10
83.49999999999999
 20
156.0
 30
0.0
 11
83.49999999999999
 21
176.0
 31
0.0
  0
LINE
  5
F84C
330
F783
100
AcDbEntity
  8
1
  6
Continuous
100
AcDbLine
 10
65.0
 20
143.0
 30
0.0
 11
84.0
 21
143.0
 31
0.0
  0
LINE
  5
F84D
330
F783
100
AcDbEntity
  8
1
  6
Continuous
100
AcDbLine
 10
84.0
 20
143.0
 30
0.0
 11
84.0
 21
156.0
 31
0.0
  0
ARC
  5
F84E
330
F783
100
AcDbEntity
  8
1
  6
Continuous
100
AcDbCircle
 10
85.0
 20
143.5
 30
0.0
 40
1.0
100
AcDbArc
 50
180.0
 51
270.0
  0
ARC
  5
F84F
330
F783
100
AcDbEntity
  8
1
  6
Continuous
100
AcDbCircle
 10
85.0
 20
157.5
 30
0.0
 40
1.0
100
AcDbArc
 50
90.0
 51
138.5903779999999
  0
LINE
  5
F850
330
F783
100
AcDbEntity
  8
1
  6
Continuous
100
AcDbLine
 10
65.0
 20
156.0
 30
0.0
 11
65.0
 21
143.0
 31
0.0
  0
ARC
  5
F851
330
F783
100
AcDbEntity
  8
1
  6
Continuous
100
AcDbCircle
 10
64.0
 20
143.5
 30
0.0
 40
1.0
100
AcDbArc
 50
270.0
 51
0.0
  0
ARC
  5
F852
330
F783
100
AcDbEntity
  8
1
  6
Continuous
100
AcDbCircle
 10
64.0
 20
157.5
 30
0.0
 40
1.0
100
AcDbArc
 50
41.40962199999999
 51
90.0
  0
LINE
  5
F853
330
F783
100
AcDbEntity
  8
1
  6
Continuous
100
AcDbLine
 10
82.5
 20
183.0
 30
0.0
 11
66.5
 21
183.0
 31
0.0
  0
LINE
  5
F854
330
F783
100
AcDbEntity
  8
1
  6
Continuous
100
AcDbLine
 10
82.5
 20
177.0
 30
0.0
 11
66.5
 21
177.0
 31
0.0
  0
ARC
  5
F855
330
F783
100
AcDbEntity
  8
1
  6
Continuous
100
AcDbCircle
 10
74.5
 20
74.40582299999999
 30
0.0
 40
100.0
100
AcDbArc
 50
84.836393
 51
95.16360699999999
  0
LINE
  5
F856
330
F783
100
AcDbEntity
  8
1
  6
Continuous
100
AcDbLine
 10
85.5
 20
175.5
 30
0.0
 11
90.74958499999999
 21
175.5
 31
0.0
  0
ARC
  5
F857
330
F783
100
AcDbEntity
  8
1
  6
Continuous
100
AcDbCircle
 10
85.5
 20
175.0
 30
0.0
 40
0.5
100
AcDbArc
 50
90.0
 51
180.0
  0
LINE
  5
F858
330
F783
100
AcDbEntity
  8
1
  6
Continuous
100
AcDbLine
 10
83.0
 20
169.7341439999999
 30
0.0
 11
83.49999999999999
 21
169.7341439999999
 31
0.0
  0
LINE
  5
F859
330
F783
100
AcDbEntity
  8
1
  6
Continuous
100
AcDbLine
 10
80.15
 20
156.0
 30
0.0
 11
80.15
 21
166.72928
 31
0.0
  0
ARC
  5
F85A
330
F783
100
AcDbEntity
  8
1
  6
Continuous
100
AcDbCircle
 10
82.5
 20
176.0
 30
0.0
 40
1.0
100
AcDbArc
 50
0.0
 51
90.0
  0
ARC
  5
F85B
330
F783
100
AcDbEntity
  8
1
  6
Continuous
100
AcDbCircle
 10
82.5
 20
176.0
 30
0.0
 40
1.0
100
AcDbArc
 50
0.0
 51
90.0
  0
ARC
  5
F85C
330
F783
100
AcDbEntity
  8
1
  6
Continuous
100
AcDbCircle
 10
82.5
 20
182.5
 30
0.0
 40
0.5
100
AcDbArc
 50
0.0
 51
90.0
  0
ARC
  5
F85D
330
F783
100
AcDbEntity
  8
1
  6
Continuous
100
AcDbCircle
 10
82.5
 20
177.5
 30
0.0
 40
0.5
100
AcDbArc
 50
270.0
 51
0.0
  0
LINE
  5
F85E
330
F783
100
AcDbEntity
  8
1
  6
Continuous
100
AcDbLine
 10
83.0
 20
177.5
 30
0.0
 11
83.0
 21
182.5
 31
0.0
  0
LINE
  5
F85F
330
F783
100
AcDbEntity
  8
1
  6
Continuous
100
AcDbLine
 10
68.84999999999999
 20
166.72928
 30
0.0
 11
68.84999999999999
 21
156.0
 31
0.0
  0
LINE
  5
F860
330
F783
100
AcDbEntity
  8
1
  6
Continuous
100
AcDbLine
 10
66.0
 20
169.7341439999999
 30
0.0
 11
65.5
 21
169.7341439999999
 31
0.0
  0
ARC
  5
F861
330
F783
100
AcDbEntity
  8
1
  6
Continuous
100
AcDbCircle
 10
66.5
 20
182.5
 30
0.0
 40
0.5
100
AcDbArc
 50
90.0
 51
180.0
  0
ARC
  5
F862
330
F783
100
AcDbEntity
  8
1
  6
Continuous
100
AcDbCircle
 10
66.5
 20
176.0
 30
0.0
 40
1.0
100
AcDbArc
 50
90.0
 51
180.0
  0
ARC
  5
F863
330
F783
100
AcDbEntity
  8
1
  6
Continuous
100
AcDbCircle
 10
66.5
 20
177.5
 30
0.0
 40
0.5
100
AcDbArc
 50
180.0
 51
270.0
  0
ARC
  5
F864
330
F783
100
AcDbEntity
  8
1
  6
Continuous
100
AcDbCircle
 10
66.5
 20
176.0
 30
0.0
 40
1.0
100
AcDbArc
 50
90.0
 51
180.0
  0
LINE
  5
F865
330
F783
100
AcDbEntity
  8
1
  6
Continuous
100
AcDbLine
 10
66.0
 20
177.5
 30
0.0
 11
66.0
 21
182.5
 31
0.0
  0
ARC
  5
F866
330
F783
100
AcDbEntity
  8
1
  6
Continuous
100
AcDbCircle
 10
63.5
 20
175.0
 30
0.0
 40
0.5
100
AcDbArc
 50
0.0
 51
90.0
  0
LINE
  5
F867
330
F783
100
AcDbEntity
  8
1
  6
Continuous
100
AcDbLine
 10
63.5
 20
175.5
 30
0.0
 11
58.25041500000001
 21
175.5
 31
0.0
  0
LINE
  5
F868
330
F783
100
AcDbEntity
  8
1
  6
Continuous
100
AcDbLine
 10
52.0
 20
135.4
 30
0.0
 11
52.0
 21
165.5999999999998
 31
0.0
  0
LINE
  5
F869
330
F783
100
AcDbEntity
  8
1
  6
Continuous
100
AcDbLine
 10
179.4
 20
314.0
 30
0.0
 11
209.6
 21
314.0
 31
0.0
  0
LINE
  5
F86A
330
F783
100
AcDbEntity
  8
1
  6
Continuous
100
AcDbLine
 10
179.7763339999999
 20
300.4999999999999
 30
0.0
 11
218.0
 21
300.4999999999999
 31
0.0
  0
LINE
  5
F86B
330
F783
100
AcDbEntity
  8
1
  6
Continuous
100
AcDbLine
 10
186.5
 20
301.0
 30
0.0
 11
202.4999999999999
 21
301.0
 31
0.0
  0
LINE
  5
F86C
330
F783
100
AcDbEntity
  8
1
  6
Continuous
100
AcDbLine
 10
179.7763339999999
 20
282.5
 30
0.0
 11
218.0
 21
282.5
 31
0.0
  0
LINE
  5
F86D
330
F783
100
AcDbEntity
  8
1
  6
Continuous
100
AcDbLine
 10
186.5
 20
282.0
 30
0.0
 11
202.4999999999999
 21
282.0
 31
0.0
  0
LINE
  5
F86E
330
F783
100
AcDbEntity
  8
4
  6
CENTER
100
AcDbLine
 10
157.5164909999998
 20
291.5
 30
0.0
 11
227.0
 21
291.5
 31
0.0
  0
LINE
  5
F86F
330
F783
100
AcDbEntity
  8
1
  6
Continuous
100
AcDbLine
 10
216.767827
 20
300.0
 30
0.0
 11
206.2321739999999
 21
300.0
 31
0.0
  0
LINE
  5
F870
330
F783
100
AcDbEntity
  8
1
  6
Continuous
100
AcDbLine
 10
216.767827
 20
283.0
 30
0.0
 11
206.2321739999999
 21
283.0
 31
0.0
  0
ARC
  5
F871
330
F783
100
AcDbEntity
  8
1
  6
Continuous
100
AcDbCircle
 10
213.5
 20
291.5
 30
0.0
 40
8.5
100
AcDbArc
 50
314.309137
 51
45.69086300000001
  0
ARC
  5
F872
330
F783
100
AcDbEntity
  8
1
  6
Continuous
100
AcDbCircle
 10
211.5
 20
291.5
 30
0.0
 40
9.0
100
AcDbArc
 50
289.1881359999998
 51
70.81186399999999
  0
ARC
  5
F873
330
F783
100
AcDbEntity
  8
1
  6
Continuous
100
AcDbCircle
 10
211.5
 20
291.5
 30
0.0
 40
10.0
100
AcDbArc
 50
301.7883310000001
 51
58.21166899999997
  0
ARC
  5
F874
330
F783
100
AcDbEntity
  8
1
  6
Continuous
100
AcDbCircle
 10
219.0
 20
280.5
 30
0.0
 40
0.5
100
AcDbArc
 50
0.0
 51
90.0
  0
LINE
  5
F875
330
F783
100
AcDbEntity
  8
1
  6
Continuous
100
AcDbLine
 10
218.0
 20
282.5
 30
0.0
 11
218.0
 21
283.900658
 31
0.0
  0
LINE
  5
F876
330
F783
100
AcDbEntity
  8
1
  6
Continuous
100
AcDbLine
 10
218.0
 20
299.0993419999999
 30
0.0
 11
218.0
 21
300.4999999999999
 31
0.0
  0
ARC
  5
F877
330
F783
100
AcDbEntity
  8
1
  6
Continuous
100
AcDbCircle
 10
219.0
 20
302.4999999999999
 30
0.0
 40
0.5
100
AcDbArc
 50
270.0
 51
0.0
  0
LINE
  5
F878
330
F783
100
AcDbEntity
  8
1
  6
Continuous
100
AcDbLine
 10
219.4999999999998
 20
302.4999999999999
 30
0.0
 11
219.4999999999998
 21
307.749585
 31
0.0
  0
ARC
  5
F879
330
F783
100
AcDbEntity
  8
1
  6
Continuous
100
AcDbCircle
 10
211.5
 20
291.5
 30
0.0
 40
9.0
100
AcDbArc
 50
109.188136
 51
250.811864
  0
ARC
  5
F87A
330
F783
100
AcDbEntity
  8
1
  6
Continuous
100
AcDbCircle
 10
211.5
 20
291.5
 30
0.0
 40
10.0
100
AcDbArc
 50
121.7883309999999
 51
238.211669
  0
LINE
  5
F87B
330
F783
100
AcDbEntity
  8
1
  6
Continuous
100
AcDbLine
 10
202.4999999999999
 20
282.5
 30
0.0
 11
202.4999999999999
 21
282.0
 31
0.0
  0
ARC
  5
F87C
330
F783
100
AcDbEntity
  8
1
  6
Continuous
100
AcDbCircle
 10
201.5
 20
281.0
 30
0.0
 40
1.0
100
AcDbArc
 50
0.0
 51
90.0
  0
ARC
  5
F87D
330
F783
100
AcDbEntity
  8
1
  6
Continuous
100
AcDbCircle
 10
201.5
 20
302.0
 30
0.0
 40
1.0
100
AcDbArc
 50
270.0
 51
0.0
  0
LINE
  5
F87E
330
F783
100
AcDbEntity
  8
1
  6
Continuous
100
AcDbLine
 10
202.4999999999999
 20
301.0
 30
0.0
 11
202.4999999999999
 21
300.4999999999999
 31
0.0
  0
LINE
  5
F87F
330
F783
100
AcDbEntity
  8
1
  6
Continuous
100
AcDbLine
 10
179.7651169999998
 20
283.0
 30
0.0
 11
167.809658
 21
283.0
 31
0.0
  0
LINE
  5
F880
330
F783
100
AcDbEntity
  8
1
  6
Continuous
100
AcDbLine
 10
219.0
 20
281.0
 30
0.0
 11
170.0
 21
281.0
 31
0.0
  0
LINE
  5
F881
330
F783
100
AcDbEntity
  8
1
  6
Continuous
100
AcDbLine
 10
179.7763339999999
 20
282.5
 30
0.0
 11
179.7763339999999
 21
283.0000309999999
 31
0.0
  0
LINE
  5
F882
330
F783
100
AcDbEntity
  8
1
  6
Continuous
100
AcDbLine
 10
186.5
 20
282.5
 30
0.0
 11
186.5
 21
282.0
 31
0.0
  0
ARC
  5
F883
330
F783
100
AcDbEntity
  8
1
  6
Continuous
100
AcDbCircle
 10
187.5
 20
281.0
 30
0.0
 40
1.0
100
AcDbArc
 50
90.0
 51
180.0
  0
ARC
  5
F884
330
F783
100
AcDbEntity
  8
1
  6
Continuous
100
AcDbCircle
 10
170.0
 20
280.5
 30
0.0
 40
0.5
100
AcDbArc
 50
90.0
 51
180.0
  0
LINE
  5
F885
330
F783
100
AcDbEntity
  8
1
  6
Continuous
100
AcDbLine
 10
179.7651169999998
 20
300.0
 30
0.0
 11
167.809658
 21
300.0
 31
0.0
  0
LINE
  5
F886
330
F783
100
AcDbEntity
  8
1
  6
Continuous
100
AcDbLine
 10
219.0
 20
302.0
 30
0.0
 11
170.0
 21
302.0
 31
0.0
  0
ARC
  5
F887
330
F783
100
AcDbEntity
  8
1
  6
Continuous
100
AcDbCircle
 10
187.5
 20
302.0
 30
0.0
 40
1.0
100
AcDbArc
 50
180.0
 51
270.0
  0
LINE
  5
F888
330
F783
100
AcDbEntity
  8
1
  6
Continuous
100
AcDbLine
 10
186.5
 20
301.0
 30
0.0
 11
186.5
 21
300.4999999999999
 31
0.0
  0
LINE
  5
F889
330
F783
100
AcDbEntity
  8
1
  6
Continuous
100
AcDbLine
 10
179.7763339999999
 20
299.999969
 30
0.0
 11
179.7763339999999
 21
300.4999999999999
 31
0.0
  0
ARC
  5
F88A
330
F783
100
AcDbEntity
  8
1
  6
Continuous
100
AcDbCircle
 10
170.0
 20
302.4999999999999
 30
0.0
 40
0.5
100
AcDbArc
 50
180.0
 51
270.0
  0
LINE
  5
F88B
330
F783
100
AcDbEntity
  8
1
  6
Continuous
100
AcDbLine
 10
169.5
 20
302.4999999999999
 30
0.0
 11
169.5
 21
307.749585
 31
0.0
  0
ARC
  5
F88C
330
F783
100
AcDbEntity
  8
1
  6
Continuous
100
AcDbCircle
 10
194.5
 20
257.9975
 30
0.0
 40
58.0025
100
AcDbArc
 50
67.11573900000001
 51
112.884261
  0
ARC
  5
F88D
330
F783
100
AcDbEntity
  8
1
  6
Continuous
100
AcDbCircle
 10
173.5
 20
307.749585
 30
0.0
 40
4.0
100
AcDbArc
 50
112.884261
 51
180.0
  0
ARC
  5
F88E
330
F783
100
AcDbEntity
  8
1
  6
Continuous
100
AcDbCircle
 10
215.5
 20
307.749585
 30
0.0
 40
4.0
100
AcDbArc
 50
0.0
 51
67.11573900000001
  0
ARC
  5
F88F
330
F783
100
AcDbEntity
  8
1
  6
Continuous
100
AcDbCircle
 10
194.5
 20
325.0024999999999
 30
0.0
 40
58.0025
100
AcDbArc
 50
247.115739
 51
292.8842609999999
  0
LINE
  5
F890
330
F783
100
AcDbEntity
  8
1
  6
Continuous
100
AcDbLine
 10
179.4
 20
269.0
 30
0.0
 11
209.6
 21
269.0
 31
0.0
  0
ARC
  5
F891
330
F783
100
AcDbEntity
  8
1
  6
Continuous
100
AcDbCircle
 10
215.5
 20
275.2504149999999
 30
0.0
 40
4.0
100
AcDbArc
 50
292.8842609999999
 51
0.0
  0
ARC
  5
F892
330
F783
100
AcDbEntity
  8
1
  6
Continuous
100
AcDbCircle
 10
173.5
 20
275.2504149999999
 30
0.0
 40
4.0
100
AcDbArc
 50
180.0
 51
247.115739
  0
ARC
  5
F893
330
F783
100
AcDbEntity
  8
1
  6
Continuous
100
AcDbCircle
 10
162.8140169999998
 20
168.6128749999998
 30
0.0
 40
0.3
100
AcDbArc
 50
80.35862300000003
 51
172.6372709999999
  0
ARC
  5
F894
330
F783
100
AcDbEntity
  8
1
  6
Continuous
100
AcDbCircle
 10
163.390196
 20
167.1072559999998
 30
0.0
 40
0.3
100
AcDbArc
 50
229.244997
 51
262.055411
  0
ARC
  5
F895
330
F783
100
AcDbEntity
  8
1
  6
Continuous
100
AcDbCircle
 10
108.0025
 20
150.5
 30
0.0
 40
58.0025
100
AcDbArc
 50
157.1157389999999
 51
202.884261
  0
ARC
  5
F896
330
F783
100
AcDbEntity
  8
1
  6
Continuous
100
AcDbCircle
 10
58.25041500000001
 20
171.5
 30
0.0
 40
4.0
100
AcDbArc
 50
90.0
 51
157.1157389999999
  0
ARC
  5
F897
330
F783
100
AcDbEntity
  8
1
  6
Continuous
100
AcDbCircle
 10
58.25041500000001
 20
129.4999999999998
 30
0.0
 40
4.0
100
AcDbArc
 50
202.884261
 51
270.0
  0
ARC
  5
F898
330
F783
100
AcDbEntity
  8
1
  6
Continuous
100
AcDbCircle
 10
90.74958499999999
 20
171.5
 30
0.0
 40
4.0
100
AcDbArc
 50
22.884261
 51
90.0
  0
ARC
  5
F899
330
F783
100
AcDbEntity
  8
1
  6
Continuous
100
AcDbCircle
 10
40.9975
 20
150.5
 30
0.0
 40
58.0025
100
AcDbArc
 50
337.115739
 51
22.884261
  0
LINE
  5
F89A
330
F783
100
AcDbEntity
  8
1
  6
Continuous
100
AcDbLine
 10
97.0
 20
135.4
 30
0.0
 11
97.0
 21
165.5999999999998
 31
0.0
  0
ARC
  5
F89B
330
F783
100
AcDbEntity
  8
1
  6
Continuous
100
AcDbCircle
 10
90.74958499999999
 20
129.4999999999998
 30
0.0
 40
4.0
100
AcDbArc
 50
270.0
 51
337.115739
  0
LINE
  5
F89C
330
F783
100
AcDbEntity
  8
1
  6
Continuous
100
AcDbLine
 10
67.5
 20
172.5542839999999
 30
0.0
 11
81.5
 21
172.5542839999999
 31
0.0
  0
LINE
  5
F89D
330
F783
100
AcDbEntity
  8
1
  6
Continuous
100
AcDbLine
 10
67.74435699999999
 20
168.912875
 30
0.0
 11
81.255643
 21
168.912875
 31
0.0
  0
LINE
  5
F89E
330
F783
100
AcDbEntity
  8
1
  6
Continuous
100
AcDbLine
 10
81.255643
 20
166.810135
 30
0.0
 11
67.74435699999999
 21
166.810135
 31
0.0
  0
LINE
  5
F89F
330
F783
100
AcDbEntity
  8
1
  6
Continuous
100
AcDbLine
 10
67.24435699999999
 20
168.412875
 30
0.0
 11
67.24435699999999
 21
167.310135
 31
0.0
  0
LINE
  5
F8A0
330
F783
100
AcDbEntity
  8
1
  6
Continuous
100
AcDbLine
 10
81.75564300000003
 20
168.412875
 30
0.0
 11
81.75564300000003
 21
167.310135
 31
0.0
  0
ARC
  5
F8A1
330
F783
100
AcDbEntity
  8
1
  6
Continuous
100
AcDbCircle
 10
67.74435699999999
 20
168.412875
 30
0.0
 40
0.5
100
AcDbArc
 50
90.0
 51
180.0
  0
ARC
  5
F8A2
330
F783
100
AcDbEntity
  8
1
  6
Continuous
100
AcDbCircle
 10
81.255643
 20
168.412875
 30
0.0
 40
0.5
100
AcDbArc
 50
0.0
 51
90.0
  0
ARC
  5
F8A3
330
F783
100
AcDbEntity
  8
1
  6
Continuous
100
AcDbCircle
 10
81.255643
 20
167.310135
 30
0.0
 40
0.5
100
AcDbArc
 50
270.0
 51
0.0
  0
ARC
  5
F8A4
330
F783
100
AcDbEntity
  8
1
  6
Continuous
100
AcDbCircle
 10
67.74435699999999
 20
167.310135
 30
0.0
 40
0.5
100
AcDbArc
 50
180.0
 51
270.0
  0
ARC
  5
F8A5
330
F783
100
AcDbEntity
  8
1
  6
Continuous
100
AcDbCircle
 10
74.5
 20
251.5886669999999
 30
0.0
 40
85.04726999999999
100
AcDbArc
 50
265.3901389999999
 51
274.6098609999999
  0
LINE
  5
F8A6
330
F783
100
AcDbEntity
  8
1
  6
Continuous
100
AcDbLine
 10
66.0
 20
171.054284
 30
0.0
 11
66.0
 21
158.4999999999998
 31
0.0
  0
LINE
  5
F8A7
330
F783
100
AcDbEntity
  8
1
  6
Continuous
100
AcDbLine
 10
83.0
 20
171.054284
 30
0.0
 11
83.0
 21
158.4999999999998
 31
0.0
  0
ARC
  5
F8A8
330
F783
100
AcDbEntity
  8
1
  6
Continuous
100
AcDbCircle
 10
67.5
 20
171.054284
 30
0.0
 40
1.5
100
AcDbArc
 50
90.0
 51
180.0
  0
ARC
  5
F8A9
330
F783
100
AcDbEntity
  8
1
  6
Continuous
100
AcDbCircle
 10
81.5
 20
171.054284
 30
0.0
 40
1.5
100
AcDbArc
 50
0.0
 51
90.0
  0
ARC
  5
F8AA
330
F783
100
AcDbEntity
  8
1
  6
Continuous
100
AcDbCircle
 10
68.984752
 20
171.704448
 30
0.0
 40
3.054743
100
AcDbArc
 50
192.2886889999998
 51
246.0427249999999
  0
ARC
  5
F8AB
330
F783
100
AcDbEntity
  8
1
  6
Continuous
100
AcDbCircle
 10
68.90510500000001
 20
169.6080919999999
 30
0.0
 40
3.054743
100
AcDbArc
 50
198.0077959999999
 51
240.35861
  0
ARC
  5
F8AC
330
F783
100
AcDbEntity
  8
1
  6
Continuous
100
AcDbCircle
 10
80.015248
 20
171.704448
 30
0.0
 40
3.054743
100
AcDbArc
 50
293.9572749999999
 51
347.7113109999999
  0
ARC
  5
F8AD
330
F783
100
AcDbEntity
  8
1
  6
Continuous
100
AcDbCircle
 10
80.09489499999999
 20
169.6080919999999
 30
0.0
 40
3.054743
100
AcDbArc
 50
299.64139
 51
341.992204
  0
LINE
  5
F8AE
330
F783
100
AcDbEntity
  8
1
  6
Continuous
100
AcDbLine
 10
65.0
 20
156.0
 30
0.0
 11
68.84999999999999
 21
156.0
 31
0.0
  0
LINE
  5
F8AF
330
F783
100
AcDbEntity
  8
1
  6
Continuous
100
AcDbLine
 10
80.15
 20
156.0
 30
0.0
 11
84.0
 21
156.0
 31
0.0
  0
LINE
  5
F8B0
330
F783
100
AcDbEntity
  8
1
  6
Continuous
100
AcDbLine
 10
84.25
 20
163.25
 30
0.0
 11
84.25
 21
162.5
 31
0.0
  0
LINE
  5
F8B1
330
F783
100
AcDbEntity
  8
1
  6
Continuous
100
AcDbLine
 10
84.74999999999999
 20
159.0
 30
0.0
 11
85.0
 21
159.0
 31
0.0
  0
LINE
  5
F8B2
330
F783
100
AcDbEntity
  8
1
  6
Continuous
100
AcDbLine
 10
85.0
 20
162.0
 30
0.0
 11
84.74999999999999
 21
162.0
 31
0.0
  0
LINE
  5
F8B3
330
F783
100
AcDbEntity
  8
1
  6
Continuous
100
AcDbLine
 10
83.49999999999999
 20
164.0
 30
0.0
 11
83.49999999999999
 21
164.0
 31
0.0
  0
LINE
  5
F8B4
330
F783
100
AcDbEntity
  8
1
  6
Continuous
100
AcDbLine
 10
84.25
 20
158.4999999999998
 30
0.0
 11
84.25
 21
154.75
 31
0.0
  0
LINE
  5
F8B5
330
F783
100
AcDbEntity
  8
1
  6
Continuous
100
AcDbLine
 10
68.84999999999999
 20
158.0
 30
0.0
 11
80.15
 21
158.0
 31
0.0
  0
ARC
  5
F8B6
330
F783
100
AcDbEntity
  8
1
  6
Continuous
100
AcDbCircle
 10
84.74999999999999
 20
162.5
 30
0.0
 40
0.5
100
AcDbArc
 50
180.0
 51
270.0
  0
ARC
  5
F8B7
330
F783
100
AcDbEntity
  8
1
  6
Continuous
100
AcDbCircle
 10
84.74999999999999
 20
158.4999999999998
 30
0.0
 40
0.5
100
AcDbArc
 50
90.0
 51
180.0
  0
ARC
  5
F8B8
330
F783
100
AcDbEntity
  8
1
  6
Continuous
100
AcDbCircle
 10
83.49999999999999
 20
163.25
 30
0.0
 40
0.75
100
AcDbArc
 50
0.0
 51
90.0
  0
ARC
  5
F8B9
330
F783
100
AcDbEntity
  8
1
  6
Continuous
100
AcDbCircle
 10
83.49999999999999
 20
154.75
 30
0.0
 40
0.75
100
AcDbArc
 50
311.810315
 51
0.0
  0
ARC
  5
F8BA
330
F783
100
AcDbEntity
  8
1
  6
Continuous
100
AcDbCircle
 10
65.5
 20
163.25
 30
0.0
 40
0.75
100
AcDbArc
 50
90.0
 51
180.0
  0
LINE
  5
F8BB
330
F783
100
AcDbEntity
  8
1
  6
Continuous
100
AcDbLine
 10
64.75
 20
163.25
 30
0.0
 11
64.75
 21
162.5
 31
0.0
  0
ARC
  5
F8BC
330
F783
100
AcDbEntity
  8
1
  6
Continuous
100
AcDbCircle
 10
64.25
 20
162.5
 30
0.0
 40
0.5
100
AcDbArc
 50
270.0
 51
0.0
  0
LINE
  5
F8BD
330
F783
100
AcDbEntity
  8
1
  6
Continuous
100
AcDbLine
 10
64.0
 20
162.0
 30
0.0
 11
64.25
 21
162.0
 31
0.0
  0
ARC
  5
F8BE
330
F783
100
AcDbEntity
  8
1
  6
Continuous
100
AcDbCircle
 10
64.25
 20
158.4999999999998
 30
0.0
 40
0.5
100
AcDbArc
 50
0.0
 51
90.0
  0
LINE
  5
F8BF
330
F783
100
AcDbEntity
  8
1
  6
Continuous
100
AcDbLine
 10
64.25
 20
159.0
 30
0.0
 11
64.0
 21
159.0
 31
0.0
  0
LINE
  5
F8C0
330
F783
100
AcDbEntity
  8
1
  6
Continuous
100
AcDbLine
 10
64.75
 20
158.4999999999998
 30
0.0
 11
64.75
 21
154.75
 31
0.0
  0
ARC
  5
F8C1
330
F783
100
AcDbEntity
  8
1
  6
Continuous
100
AcDbCircle
 10
65.5
 20
154.75
 30
0.0
 40
0.75
100
AcDbArc
 50
180.0
 51
228.1896849999998
  0
LINE
  5
F8C2
330
F783
100
AcDbEntity
  8
1
  6
Continuous
100
AcDbLine
 10
80.15
 20
158.4999999999998
 30
0.0
 11
83.0
 21
158.4999999999998
 31
0.0
  0
LINE
  5
F8C3
330
F783
100
AcDbEntity
  8
1
  6
Continuous
100
AcDbLine
 10
66.0
 20
158.4999999999998
 30
0.0
 11
68.84999999999999
 21
158.4999999999998
 31
0.0
  0
LINE
  5
F8C4
330
F783
100
AcDbEntity
  8
1
  6
Continuous
100
AcDbLine
 10
162.5
 20
297.2832799999998
 30
0.0
 11
162.5
 21
285.71672
 31
0.0
  0
ARC
  5
F8C5
330
F783
100
AcDbEntity
  8
1
  6
Continuous
100
AcDbCircle
 10
164.5
 20
297.2832799999998
 30
0.0
 40
2.0
100
AcDbArc
 50
114.437936
 51
180.0
  0
LINE
  5
F8C6
330
F783
100
AcDbEntity
  8
1
  6
Continuous
100
AcDbLine
 10
181.7651169999998
 20
298.0
 30
0.0
 11
181.7651169999998
 21
285.0
 31
0.0
  0
LINE
  5
F8C7
330
F783
100
AcDbEntity
  8
1
  6
Continuous
100
AcDbLine
 10
181.432146
 20
298.0
 30
0.0
 11
181.432146
 21
285.0
 31
0.0
  0
ARC
  5
F8C8
330
F783
100
AcDbEntity
  8
1
  6
Continuous
100
AcDbCircle
 10
179.7651169999998
 20
298.0
 30
0.0
 40
2.0
100
AcDbArc
 50
0.0
 51
90.0
  0
ARC
  5
F8C9
330
F783
100
AcDbEntity
  8
1
  6
Continuous
100
AcDbCircle
 10
179.4321459999999
 20
298.0
 30
0.0
 40
2.0
100
AcDbArc
 50
0.0
 51
90.0
  0
ARC
  5
F8CA
330
F783
100
AcDbEntity
  8
1
  6
Continuous
100
AcDbCircle
 10
179.4321459999999
 20
285.0
 30
0.0
 40
2.0
100
AcDbArc
 50
270.0
 51
0.0
  0
ARC
  5
F8CB
330
F783
100
AcDbEntity
  8
1
  6
Continuous
100
AcDbCircle
 10
179.7651169999998
 20
285.0
 30
0.0
 40
2.0
100
AcDbArc
 50
270.0
 51
0.0
  0
ARC
  5
F8CC
330
F783
100
AcDbEntity
  8
1
  6
Continuous
100
AcDbCircle
 10
310.4999999999999
 20
163.25
 30
0.0
 40
0.75
100
AcDbArc
 50
90.0
 51
180.0
  0
ARC
  5
F8CD
330
F783
100
AcDbEntity
  8
1
  6
Continuous
100
AcDbCircle
 10
309.25
 20
162.5
 30
0.0
 40
0.5
100
AcDbArc
 50
270.0
 51
0.0
  0
LINE
  5
F8CE
330
F783
100
AcDbEntity
  8
1
  6
Continuous
100
AcDbLine
 10
310.4999999999999
 20
164.0
 30
0.0
 11
310.4999999999999
 21
164.0
 31
0.0
  0
LINE
  5
F8CF
330
F783
100
AcDbEntity
  8
1
  6
Continuous
100
AcDbLine
 10
309.0
 20
162.0
 30
0.0
 11
309.25
 21
162.0
 31
0.0
  0
LINE
  5
F8D0
330
F783
100
AcDbEntity
  8
1
  6
Continuous
100
AcDbLine
 10
309.75
 20
163.25
 30
0.0
 11
309.75
 21
162.5
 31
0.0
  0
ARC
  5
F8D1
330
F783
100
AcDbEntity
  8
1
  6
Continuous
100
AcDbCircle
 10
309.25
 20
158.4999999999998
 30
0.0
 40
0.5
100
AcDbArc
 50
0.0
 51
90.0
  0
LINE
  5
F8D2
330
F783
100
AcDbEntity
  8
1
  6
Continuous
100
AcDbLine
 10
309.75
 20
158.4999999999998
 30
0.0
 11
309.75
 21
158.1614379999998
 31
0.0
  0
LINE
  5
F8D3
330
F783
100
AcDbEntity
  8
1
  6
Continuous
100
AcDbLine
 10
330.0
 20
162.0
 30
0.0
 11
329.7499999999998
 21
162.0
 31
0.0
  0
ARC
  5
F8D4
330
F783
100
AcDbEntity
  8
1
  6
Continuous
100
AcDbCircle
 10
329.7499999999998
 20
162.5
 30
0.0
 40
0.5
100
AcDbArc
 50
180.0
 51
270.0
  0
LINE
  5
F8D5
330
F783
100
AcDbEntity
  8
1
  6
Continuous
100
AcDbLine
 10
329.2499999999999
 20
163.25
 30
0.0
 11
329.2499999999999
 21
162.5
 31
0.0
  0
ARC
  5
F8D6
330
F783
100
AcDbEntity
  8
1
  6
Continuous
100
AcDbCircle
 10
328.5
 20
163.25
 30
0.0
 40
0.75
100
AcDbArc
 50
0.0
 51
90.0
  0
LINE
  5
F8D7
330
F783
100
AcDbEntity
  8
1
  6
Continuous
100
AcDbLine
 10
329.7499999999998
 20
159.0
 30
0.0
 11
330.0
 21
159.0
 31
0.0
  0
LINE
  5
F8D8
330
F783
100
AcDbEntity
  8
1
  6
Continuous
100
AcDbLine
 10
329.2499999999999
 20
158.4999999999998
 30
0.0
 11
329.2499999999999
 21
158.1614379999998
 31
0.0
  0
LINE
  5
F8D9
330
F783
100
AcDbEntity
  8
1
  6
Continuous
100
AcDbLine
 10
309.25
 20
159.0
 30
0.0
 11
309.0
 21
159.0
 31
0.0
  0
ARC
  5
F8DA
330
F783
100
AcDbEntity
  8
1
  6
Continuous
100
AcDbCircle
 10
329.7499999999998
 20
158.4999999999998
 30
0.0
 40
0.5
100
AcDbArc
 50
90.0
 51
180.0
  0
LINE
  5
F8DB
330
F783
100
AcDbEntity
  8
1
  6
Continuous
100
AcDbLine
 10
171.2021649999998
 20
59.0
 30
0.0
 11
167.809658
 21
59.0
 31
0.0
  0
LINE
  5
F8DC
330
F783
100
AcDbEntity
  8
1
  6
Continuous
100
AcDbLine
 10
171.2021649999998
 20
42.0
 30
0.0
 11
167.809658
 21
42.0
 31
0.0
  0
ARC
  5
F8DD
330
F783
100
AcDbEntity
  8
1
  6
Continuous
100
AcDbCircle
 10
167.809658
 20
290.0
 30
0.0
 40
10.0
100
AcDbArc
 50
90.0
 51
114.437936
  0
ARC
  5
F8DE
330
F783
100
AcDbEntity
  8
1
  6
Continuous
100
AcDbCircle
 10
164.5
 20
285.71672
 30
0.0
 40
2.0
100
AcDbArc
 50
180.0
 51
245.562064
  0
ARC
  5
F8DF
330
F783
100
AcDbEntity
  8
1
  6
Continuous
100
AcDbCircle
 10
167.809658
 20
293.0
 30
0.0
 40
10.0
100
AcDbArc
 50
245.562064
 51
270.0
  0
LINE
  5
F8E0
330
F783
100
AcDbEntity
  8
1
  6
Continuous
100
AcDbLine
 10
162.5
 20
44.71672
 30
0.0
 11
162.5
 21
56.28327999999999
 31
0.0
  0
ARC
  5
F8E1
330
F783
100
AcDbEntity
  8
1
  6
Continuous
100
AcDbCircle
 10
164.5
 20
44.71672
 30
0.0
 40
2.0
100
AcDbArc
 50
180.0
 51
245.562064
  0
ARC
  5
F8E2
330
F783
100
AcDbEntity
  8
1
  6
Continuous
100
AcDbCircle
 10
167.809658
 20
52.0
 30
0.0
 40
10.0
100
AcDbArc
 50
245.562064
 51
270.0
  0
ARC
  5
F8E3
330
F783
100
AcDbEntity
  8
1
  6
Continuous
100
AcDbCircle
 10
167.809658
 20
49.0
 30
0.0
 40
10.0
100
AcDbArc
 50
90.0
 51
114.437936
  0
ARC
  5
F8E4
330
F783
100
AcDbEntity
  8
1
  6
Continuous
100
AcDbCircle
 10
164.5
 20
56.28327999999999
 30
0.0
 40
2.0
100
AcDbArc
 50
114.437936
 51
180.0
  0
LINE
  5
F8E5
330
F783
100
AcDbEntity
  8
1
  6
Continuous
100
AcDbLine
 10
74.5
 20
136.05
 30
0.0
 11
74.5
 21
139.55
 31
0.0
  0
ARC
  5
F8E6
330
F783
100
AcDbEntity
  8
1
  6
Continuous
100
AcDbCircle
 10
181.4865739999999
 20
298.269154
 30
0.0
 40
3.75
100
AcDbArc
 50
127.58965
 51
152.5122429999998
  0
ARC
  5
F8E7
330
F783
100
AcDbEntity
  8
1
  6
Continuous
100
AcDbCircle
 10
181.4999999999998
 20
298.2499999999999
 30
0.0
 40
3.75
100
AcDbArc
 50
36.869898
 51
90.0
  0
ARC
  5
F8E8
330
F783
100
AcDbEntity
  8
1
  6
Continuous
100
AcDbCircle
 10
181.7584469999999
 20
304.2983169999998
 30
0.0
 40
3.987448
100
AcDbArc
 50
215.196897
 51
230.069396
  0
ARC
  5
F8E9
330
F783
100
AcDbEntity
  8
1
  6
Continuous
100
AcDbCircle
 10
181.7584469999999
 20
278.701683
 30
0.0
 40
3.987448
100
AcDbArc
 50
129.9306039999999
 51
144.8031029999999
  0
ARC
  5
F8EA
330
F783
100
AcDbEntity
  8
1
  6
Continuous
100
AcDbCircle
 10
181.4865739999999
 20
284.7308459999998
 30
0.0
 40
3.75
100
AcDbArc
 50
207.4877569999999
 51
232.41035
  0
ARC
  5
F8EB
330
F783
100
AcDbEntity
  8
1
  6
Continuous
100
AcDbCircle
 10
181.4999999999998
 20
284.75
 30
0.0
 40
3.75
100
AcDbArc
 50
270.0
 51
323.130102
  0
ARC
  5
F8EC
330
F783
100
AcDbEntity
  8
1
  6
Continuous
100
AcDbCircle
 10
181.7584469999999
 20
63.29831699999999
 30
0.0
 40
3.987448
100
AcDbArc
 50
215.196897
 51
230.069396
  0
ARC
  5
F8ED
330
F783
100
AcDbEntity
  8
1
  6
Continuous
100
AcDbCircle
 10
181.4865739999999
 20
57.269154
 30
0.0
 40
3.75
100
AcDbArc
 50
127.58965
 51
143.495039
  0
ARC
  5
F8EE
330
F783
100
AcDbEntity
  8
1
  6
Continuous
100
AcDbCircle
 10
181.4999999999998
 20
57.25
 30
0.0
 40
3.75
100
AcDbArc
 50
36.869898
 51
90.0
  0
ARC
  5
F8EF
330
F783
100
AcDbEntity
  8
1
  6
Continuous
100
AcDbCircle
 10
181.7584469999999
 20
37.701683
 30
0.0
 40
3.987448
100
AcDbArc
 50
129.9306039999999
 51
144.8031029999999
  0
ARC
  5
F8F0
330
F783
100
AcDbEntity
  8
1
  6
Continuous
100
AcDbCircle
 10
181.4865739999999
 20
43.730846
 30
0.0
 40
3.75
100
AcDbArc
 50
216.504961
 51
232.41035
  0
ARC
  5
F8F1
330
F783
100
AcDbEntity
  8
1
  6
Continuous
100
AcDbCircle
 10
181.4999999999998
 20
43.75
 30
0.0
 40
3.75
100
AcDbArc
 50
270.0
 51
323.130102
  0
ARC
  5
F8F2
330
F783
100
AcDbEntity
  8
5
  6
PHANTOM
100
AcDbCircle
 10
167.686499
 20
152.680798
 30
0.0
 40
2.0
100
AcDbArc
 50
258.718392
 51
314.397699
  0
ARC
  5
F8F3
330
F783
100
AcDbEntity
  8
5
  6
PHANTOM
100
AcDbCircle
 10
170.6590379999999
 20
157.341579
 30
0.0
 40
1.0
100
AcDbArc
 50
84.20794499999997
 51
181.347826
  0
ARC
  5
F8F4
330
F783
100
AcDbEntity
  8
5
  6
PHANTOM
100
AcDbCircle
 10
168.3194679999998
 20
166.75396
 30
0.0
 40
0.5
100
AcDbArc
 50
200.744024
 51
330.113966
  0
ARC
  5
F8F5
330
F783
100
AcDbEntity
  8
5
  6
PHANTOM
100
AcDbCircle
 10
141.6670619999999
 20
156.659445
 30
0.0
 40
26.0
100
AcDbArc
 50
347.6038819999998
 51
28.067983
  0
ARC
  5
F8F6
330
F783
100
AcDbEntity
  8
5
  6
PHANTOM
100
AcDbCircle
 10
164.8739169999998
 20
169.0340919999998
 30
0.0
 40
0.3
100
AcDbArc
 50
119.5385239999999
 51
208.067983
  0
ARC
  5
F8F7
330
F783
100
AcDbEntity
  8
5
  6
PHANTOM
100
AcDbCircle
 10
166.414739
 20
169.103018
 30
0.0
 40
0.3
100
AcDbArc
 50
26.694064
 51
65.58410600000001
  0
ARC
  5
F8F8
330
F783
100
AcDbEntity
  8
5
  6
PHANTOM
100
AcDbCircle
 10
167.353925
 20
151.0136469999999
 30
0.0
 40
0.3
100
AcDbArc
 50
167.603882
 51
258.718392
  0
ARC
  5
F8F9
330
F783
100
AcDbEntity
  8
5
  6
PHANTOM
100
AcDbCircle
 10
168.8758769999998
 20
151.466147
 30
0.0
 40
0.3
100
AcDbArc
 50
314.397699
 51
349.194028
  0
ARC
  5
F8FA
330
F783
100
AcDbEntity
  8
5
  6
PHANTOM
100
AcDbCircle
 10
141.6670619999999
 20
156.659445
 30
0.0
 40
28.0
100
AcDbArc
 50
349.194028
 51
26.694064
  0
ARC
  5
F8FB
330
F783
100
AcDbEntity
  8
5
  6
PHANTOM
100
AcDbCircle
 10
165.7120319999999
 20
167.5550499999999
 30
0.0
 40
2.0
100
AcDbArc
 50
65.58410600000001
 51
119.5385239999999
  0
ARC
  5
F8FC
330
F783
100
AcDbEntity
  8
5
  6
PHANTOM
100
AcDbCircle
 10
174.388596
 20
163.266025
 30
0.0
 40
6.5
100
AcDbArc
 50
73.948274
 51
150.1139659999998
  0
LINE
  5
F8FD
330
F783
100
AcDbEntity
  8
5
  6
PHANTOM
100
AcDbLine
 10
176.1858789999998
 20
169.5126059999998
 30
0.0
 11
177.336099
 21
168.6769219999999
 31
0.0
  0
LINE
  5
F8FE
330
F783
100
AcDbEntity
  8
2
  6
Continuous
100
AcDbLine
 10
69.447
 20
184.640252
 30
0.0
 11
69.447
 21
195.9469999999998
 31
0.0
  0
LINE
  5
F8FF
330
F783
100
AcDbEntity
  8
1
  6
Continuous
100
AcDbLine
 10
68.5
 20
183.0
 30
0.0
 11
68.5
 21
195.0
 31
0.0
  0
LINE
  5
F900
330
F783
100
AcDbEntity
  8
2
  6
Continuous
100
AcDbLine
 10
79.55299999999998
 20
184.640252
 30
0.0
 11
79.55299999999998
 21
195.9469999999998
 31
0.0
  0
LINE
  5
F901
330
F783
100
AcDbEntity
  8
1
  6
Continuous
100
AcDbLine
 10
80.5
 20
195.0
 30
0.0
 11
80.5
 21
183.0
 31
0.0
  0
LINE
  5
F902
330
F783
100
AcDbEntity
  8
1
  6
Continuous
100
AcDbLine
 10
68.5
 20
195.0
 30
0.0
 11
80.5
 21
195.0
 31
0.0
  0
LINE
  5
F903
330
F783
100
AcDbEntity
  8
1
  6
Continuous
100
AcDbLine
 10
70.5
 20
197.0
 30
0.0
 11
78.5
 21
197.0
 31
0.0
  0
LINE
  5
F904
330
F783
100
AcDbEntity
  8
1
  6
Continuous
100
AcDbLine
 10
70.5
 20
197.0
 30
0.0
 11
68.5
 21
195.0
 31
0.0
  0
LINE
  5
F905
330
F783
100
AcDbEntity
  8
1
  6
Continuous
100
AcDbLine
 10
78.5
 20
197.0
 30
0.0
 11
80.5
 21
195.0
 31
0.0
  0
CIRCLE
  5
F906
330
F783
100
AcDbEntity
  8
1
  6
Continuous
100
AcDbCircle
 10
211.5
 20
291.5
 30
0.0
 40
4.0
  0
CIRCLE
  5
F907
330
F783
100
AcDbEntity
  8
2
  6
Continuous
100
AcDbCircle
 10
211.5
 20
291.5
 30
0.0
 40
5.052999999999999
  0
CIRCLE
  5
F908
330
F783
100
AcDbEntity
  8
1
  6
Continuous
100
AcDbCircle
 10
211.5
 20
291.5
 30
0.0
 40
6.0
  0
LINE
  5
F909
330
F783
100
AcDbEntity
  8
1
  6
Continuous
100
AcDbLine
 10
215.5
 20
197.0
 30
0.0
 11
217.5
 21
195.0
 31
0.0
  0
LINE
  5
F90A
330
F783
100
AcDbEntity
  8
1
  6
Continuous
100
AcDbLine
 10
205.5
 20
195.0
 30
0.0
 11
217.5
 21
195.0
 31
0.0
  0
LINE
  5
F90B
330
F783
100
AcDbEntity
  8
2
  6
Continuous
100
AcDbLine
 10
216.5529999999999
 20
184.640252
 30
0.0
 11
216.5529999999999
 21
195.9469999999998
 31
0.0
  0
LINE
  5
F90C
330
F783
100
AcDbEntity
  8
1
  6
Continuous
100
AcDbLine
 10
207.5
 20
197.0
 30
0.0
 11
205.5
 21
195.0
 31
0.0
  0
LINE
  5
F90D
330
F783
100
AcDbEntity
  8
1
  6
Continuous
100
AcDbLine
 10
205.5
 20
183.0
 30
0.0
 11
205.5
 21
195.0
 31
0.0
  0
LINE
  5
F90E
330
F783
100
AcDbEntity
  8
2
  6
Continuous
100
AcDbLine
 10
206.447
 20
184.640252
 30
0.0
 11
206.447
 21
195.9469999999998
 31
0.0
  0
LINE
  5
F90F
330
F783
100
AcDbEntity
  8
1
  6
Continuous
100
AcDbLine
 10
207.5
 20
197.0
 30
0.0
 11
215.5
 21
197.0
 31
0.0
  0
LINE
  5
F910
330
F783
100
AcDbEntity
  8
1
  6
Continuous
100
AcDbLine
 10
217.5
 20
195.0
 30
0.0
 11
217.5
 21
183.0
 31
0.0
  0
LINE
  5
F911
330
F783
100
AcDbEntity
  8
1
  6
Continuous
100
AcDbLine
 10
323.4999999999998
 20
197.0
 30
0.0
 11
325.4999999999999
 21
195.0
 31
0.0
  0
LINE
  5
F912
330
F783
100
AcDbEntity
  8
1
  6
Continuous
100
AcDbLine
 10
313.5
 20
195.0
 30
0.0
 11
325.4999999999999
 21
195.0
 31
0.0
  0
LINE
  5
F913
330
F783
100
AcDbEntity
  8
2
  6
Continuous
100
AcDbLine
 10
324.553
 20
184.640252
 30
0.0
 11
324.553
 21
195.9469999999998
 31
0.0
  0
LINE
  5
F914
330
F783
100
AcDbEntity
  8
1
  6
Continuous
100
AcDbLine
 10
315.5
 20
197.0
 30
0.0
 11
313.5
 21
195.0
 31
0.0
  0
LINE
  5
F915
330
F783
100
AcDbEntity
  8
1
  6
Continuous
100
AcDbLine
 10
313.5
 20
183.0
 30
0.0
 11
313.5
 21
195.0
 31
0.0
  0
LINE
  5
F916
330
F783
100
AcDbEntity
  8
2
  6
Continuous
100
AcDbLine
 10
314.447
 20
184.640252
 30
0.0
 11
314.447
 21
195.9469999999998
 31
0.0
  0
LINE
  5
F917
330
F783
100
AcDbEntity
  8
1
  6
Continuous
100
AcDbLine
 10
315.5
 20
197.0
 30
0.0
 11
323.4999999999998
 21
197.0
 31
0.0
  0
LINE
  5
F918
330
F783
100
AcDbEntity
  8
1
  6
Continuous
100
AcDbLine
 10
325.4999999999999
 20
195.0
 30
0.0
 11
325.4999999999999
 21
183.0
 31
0.0
  0
ARC
  5
F919
330
F783
100
AcDbEntity
  8
1
  6
Continuous
100
AcDbCircle
 10
435.0
 20
176.0
 30
0.0
 40
1.0
100
AcDbArc
 50
0.0
 51
90.0
  0
LINE
  5
F91A
330
F783
100
AcDbEntity
  8
1
  6
Continuous
100
AcDbLine
 10
418.9446299999998
 20
176.0587219999999
 30
0.0
 11
417.0934159999998
 21
144.588083
 31
0.0
  0
LINE
  5
F91B
330
F783
100
AcDbEntity
  8
4
  6
CENTER
100
AcDbLine
 10
444.5
 20
120.5
 30
0.0
 11
444.5
 21
180.4999999999998
 31
0.0
  0
LINE
  5
F91C
330
F783
100
AcDbEntity
  8
4
  6
CENTER
100
AcDbLine
 10
427.5
 20
125.781586
 30
0.0
 11
427.5
 21
202.0
 31
0.0
  0
CIRCLE
  5
F91D
330
F783
100
AcDbEntity
  8
1
  6
Continuous
100
AcDbCircle
 10
444.5
 20
150.5
 30
0.0
 40
15.09999999999999
  0
CIRCLE
  5
F91E
330
F783
100
AcDbEntity
  8
1
  6
Continuous
100
AcDbCircle
 10
444.5
 20
150.5
 30
0.0
 40
25.0
  0
LINE
  5
F91F
330
F783
100
AcDbEntity
  8
4
  6
CENTER
100
AcDbLine
 10
412.4325329999998
 20
150.5
 30
0.0
 11
474.5
 21
150.5
 31
0.0
  0
ARC
  5
F920
330
F783
100
AcDbEntity
  8
5
  6
PHANTOM
100
AcDbCircle
 10
497.332938
 20
156.659445
 30
0.0
 40
28.0
100
AcDbArc
 50
153.305936
 51
190.805972
  0
ARC
  5
F921
330
F783
100
AcDbEntity
  8
5
  6
PHANTOM
100
AcDbCircle
 10
497.332938
 20
156.659445
 30
0.0
 40
26.0
100
AcDbArc
 50
151.932017
 51
192.396118
  0
ARC
  5
F922
330
F783
100
AcDbEntity
  8
5
  6
PHANTOM
100
AcDbCircle
 10
470.124123
 20
151.466147
 30
0.0
 40
0.3
100
AcDbArc
 50
190.805972
 51
225.602301
  0
ARC
  5
F923
330
F783
100
AcDbEntity
  8
5
  6
PHANTOM
100
AcDbCircle
 10
471.646075
 20
151.0136469999999
 30
0.0
 40
0.3
100
AcDbArc
 50
281.281608
 51
12.396118
  0
ARC
  5
F924
330
F783
100
AcDbEntity
  8
5
  6
PHANTOM
100
AcDbCircle
 10
471.313501
 20
152.680798
 30
0.0
 40
2.0
100
AcDbArc
 50
225.602301
 51
281.281608
  0
ARC
  5
F925
330
F783
100
AcDbEntity
  8
5
  6
PHANTOM
100
AcDbCircle
 10
464.6114039999998
 20
163.266025
 30
0.0
 40
6.5
100
AcDbArc
 50
29.88603399999999
 51
106.051726
  0
ARC
  5
F926
330
F783
100
AcDbEntity
  8
1
  6
Continuous
100
AcDbCircle
 10
471.7812389999998
 20
194.5413969999999
 30
0.0
 40
26.0
100
AcDbArc
 50
237.932017
 51
279.641377
  0
ARC
  5
F927
330
F783
100
AcDbEntity
  8
1
  6
Continuous
100
AcDbCircle
 10
471.7812389999998
 20
194.5413969999999
 30
0.0
 40
28.0
100
AcDbArc
 50
249.725053
 51
277.944589
  0
ARC
  5
F928
330
F783
100
AcDbEntity
  8
5
  6
PHANTOM
100
AcDbCircle
 10
473.2879679999999
 20
167.5550499999999
 30
0.0
 40
2.0
100
AcDbArc
 50
60.46147600000001
 51
114.4158939999998
  0
ARC
  5
F929
330
F783
100
AcDbEntity
  8
5
  6
PHANTOM
100
AcDbCircle
 10
472.585261
 20
169.103018
 30
0.0
 40
0.3
100
AcDbArc
 50
114.4158939999998
 51
153.305936
  0
ARC
  5
F92A
330
F783
100
AcDbEntity
  8
5
  6
PHANTOM
100
AcDbCircle
 10
474.1260829999998
 20
169.0340919999998
 30
0.0
 40
0.3
100
AcDbArc
 50
331.9320169999999
 51
60.46147600000001
  0
ARC
  5
F92B
330
F783
100
AcDbEntity
  8
5
  6
PHANTOM
100
AcDbCircle
 10
470.6805319999999
 20
166.75396
 30
0.0
 40
0.5
100
AcDbArc
 50
209.8860339999998
 51
339.2559759999999
  0
ARC
  5
F92C
330
F783
100
AcDbEntity
  8
5
  6
PHANTOM
100
AcDbCircle
 10
468.3409619999998
 20
157.341579
 30
0.0
 40
1.0
100
AcDbArc
 50
358.652174
 51
95.792055
  0
ARC
  5
F92D
330
F783
100
AcDbEntity
  8
1
  6
Continuous
100
AcDbCircle
 10
475.609804
 20
167.1072559999998
 30
0.0
 40
0.3
100
AcDbArc
 50
277.944589
 51
310.755003
  0
ARC
  5
F92E
330
F783
100
AcDbEntity
  8
1
  6
Continuous
100
AcDbCircle
 10
476.185983
 20
168.6128749999998
 30
0.0
 40
0.3
100
AcDbArc
 50
7.362728999999997
 51
99.64137700000001
  0
ARC
  5
F92F
330
F783
100
AcDbEntity
  8
1
  6
Continuous
100
AcDbCircle
 10
474.5
 20
168.3950199999999
 30
0.0
 40
2.0
100
AcDbArc
 50
310.755003
 51
7.362728999999997
  0
ARC
  5
F930
330
F783
100
AcDbEntity
  8
1
  6
Continuous
100
AcDbCircle
 10
463.5878219999998
 20
163.2481909999999
 30
0.0
 40
5.0
100
AcDbArc
 50
322.3184199999999
 51
23.780841
  0
ARC
  5
F931
330
F783
100
AcDbEntity
  8
1
  6
Continuous
100
AcDbCircle
 10
469.0783889999998
 20
165.667627
 30
0.0
 40
1.0
100
AcDbArc
 50
84.652174
 51
203.7808409999999
  0
LINE
  5
F932
330
F783
100
AcDbEntity
  8
5
  6
PHANTOM
100
AcDbLine
 10
462.8141209999998
 20
169.5126059999998
 30
0.0
 11
461.6639009999998
 21
168.6769219999999
 31
0.0
  0
ARC
  5
F933
330
F783
100
AcDbEntity
  8
1
  6
Continuous
100
AcDbCircle
 10
459.234883
 20
171.3150389999999
 30
0.0
 40
2.0
100
AcDbArc
 50
146.461476
 51
161.4458609999998
  0
ARC
  5
F934
330
F783
100
AcDbEntity
  8
1
  6
Continuous
100
AcDbCircle
 10
457.8179079999999
 20
172.254284
 30
0.0
 40
0.3
100
AcDbArc
 50
57.932017
 51
146.461476
  0
ARC
  5
F935
330
F783
100
AcDbEntity
  8
1
  6
Continuous
100
AcDbCircle
 10
418.5908279999998
 20
144.5
 30
0.0
 40
1.5
100
AcDbArc
 50
176.6335389999999
 51
270.0
  0
LINE
  5
F936
330
F783
100
AcDbEntity
  8
1
  6
Continuous
100
AcDbLine
 10
418.5908279999998
 20
143.0
 30
0.0
 11
420.65152
 21
143.0
 31
0.0
  0
ARC
  5
F937
330
F783
100
AcDbEntity
  8
1
  6
Continuous
100
AcDbCircle
 10
439.0
 20
176.4229629999999
 30
0.0
 40
3.0
100
AcDbArc
 50
188.0251
 51
224.829419
  0
LINE
  5
F938
330
F783
100
AcDbEntity
  8
1
  6
Continuous
100
AcDbLine
 10
431.5
 20
197.0
 30
0.0
 11
433.4999999999998
 21
195.0
 31
0.0
  0
LINE
  5
F939
330
F783
100
AcDbEntity
  8
1
  6
Continuous
100
AcDbLine
 10
433.4999999999998
 20
195.0
 30
0.0
 11
421.4999999999998
 21
195.0
 31
0.0
  0
ARC
  5
F93A
330
F783
100
AcDbEntity
  8
1
  6
Continuous
100
AcDbCircle
 10
427.8122879999998
 20
180.0
 30
0.0
 40
4.0
100
AcDbArc
 50
311.409622
 51
48.590378
  0
LINE
  5
F93B
330
F783
100
AcDbEntity
  8
1
  6
Continuous
100
AcDbLine
 10
436.5
 20
177.0
 30
0.0
 11
418.5
 21
177.0
 31
0.0
  0
LINE
  5
F93C
330
F783
100
AcDbEntity
  8
1
  6
Continuous
100
AcDbLine
 10
418.5
 20
183.0
 30
0.0
 11
436.5
 21
183.0
 31
0.0
  0
LINE
  5
F93D
330
F783
100
AcDbEntity
  8
2
  6
Continuous
100
AcDbLine
 10
432.553
 20
184.640252
 30
0.0
 11
432.553
 21
195.9469999999998
 31
0.0
  0
LINE
  5
F93E
330
F783
100
AcDbEntity
  8
1
  6
Continuous
100
AcDbLine
 10
433.4999999999998
 20
183.0
 30
0.0
 11
433.4999999999998
 21
195.0
 31
0.0
  0
ARC
  5
F93F
330
F783
100
AcDbEntity
  8
1
  6
Continuous
100
AcDbCircle
 10
433.854248
 20
180.0
 30
0.0
 40
4.0
100
AcDbArc
 50
311.409622
 51
48.590378
  0
LINE
  5
F940
330
F783
100
AcDbEntity
  8
1
  6
Continuous
100
AcDbLine
 10
421.4999999999998
 20
195.0
 30
0.0
 11
421.4999999999998
 21
183.0
 31
0.0
  0
LINE
  5
F941
330
F783
100
AcDbEntity
  8
1
  6
Continuous
100
AcDbLine
 10
431.5
 20
197.0
 30
0.0
 11
423.5
 21
197.0
 31
0.0
  0
LINE
  5
F942
330
F783
100
AcDbEntity
  8
2
  6
Continuous
100
AcDbLine
 10
422.4469999999998
 20
184.640252
 30
0.0
 11
422.4469999999998
 21
195.9469999999998
 31
0.0
  0
LINE
  5
F943
330
F783
100
AcDbEntity
  8
1
  6
Continuous
100
AcDbLine
 10
423.5
 20
197.0
 30
0.0
 11
421.4999999999998
 21
195.0
 31
0.0
  0
ARC
  5
F944
330
F783
100
AcDbEntity
  8
1
  6
Continuous
100
AcDbCircle
 10
427.187711
 20
180.0
 30
0.0
 40
4.0
100
AcDbArc
 50
131.4096219999999
 51
228.5903779999999
  0
ARC
  5
F945
330
F783
100
AcDbEntity
  8
1
  6
Continuous
100
AcDbCircle
 10
421.1457509999998
 20
180.0
 30
0.0
 40
4.0
100
AcDbArc
 50
131.4096219999999
 51
228.5903779999999
  0
ARC
  5
F946
330
F783
100
AcDbEntity
  8
1
  6
Continuous
100
AcDbCircle
 10
419.9429049999998
 20
176.0
 30
0.0
 40
1.0
100
AcDbArc
 50
90.0
 51
176.6335389999999
  0
LINE
  5
F947
330
F783
100
AcDbEntity
  8
2
  6
Continuous
100
AcDbLine
 10
69.447
 20
184.640252
 30
0.0
 11
68.5
 21
183.0
 31
0.0
  0
LINE
  5
F948
330
F783
100
AcDbEntity
  8
1
  6
Continuous
100
AcDbLine
 10
80.5
 20
184.640252
 30
0.0
 11
68.5
 21
184.640252
 31
0.0
  0
LINE
  5
F949
330
F783
100
AcDbEntity
  8
2
  6
Continuous
100
AcDbLine
 10
79.55299999999998
 20
184.640252
 30
0.0
 11
80.5
 21
183.0
 31
0.0
  0
LINE
  5
F94A
330
F783
100
AcDbEntity
  8
1
  6
Continuous
100
AcDbLine
 10
217.5
 20
184.640252
 30
0.0
 11
205.5
 21
184.640252
 31
0.0
  0
LINE
  5
F94B
330
F783
100
AcDbEntity
  8
2
  6
Continuous
100
AcDbLine
 10
206.447
 20
184.640252
 30
0.0
 11
205.5
 21
183.0
 31
0.0
  0
LINE
  5
F94C
330
F783
100
AcDbEntity
  8
2
  6
Continuous
100
AcDbLine
 10
216.5529999999999
 20
184.640252
 30
0.0
 11
217.5
 21
183.0
 31
0.0
  0
LINE
  5
F94D
330
F783
100
AcDbEntity
  8
1
  6
Continuous
100
AcDbLine
 10
325.4999999999999
 20
184.640252
 30
0.0
 11
313.5
 21
184.640252
 31
0.0
  0
LINE
  5
F94E
330
F783
100
AcDbEntity
  8
2
  6
Continuous
100
AcDbLine
 10
314.447
 20
184.640252
 30
0.0
 11
313.5
 21
183.0
 31
0.0
  0
LINE
  5
F94F
330
F783
100
AcDbEntity
  8
2
  6
Continuous
100
AcDbLine
 10
324.553
 20
184.640252
 30
0.0
 11
325.4999999999999
 21
183.0
 31
0.0
  0
LINE
  5
F950
330
F783
100
AcDbEntity
  8
1
  6
Continuous
100
AcDbLine
 10
433.4999999999998
 20
184.640252
 30
0.0
 11
421.4999999999998
 21
184.640252
 31
0.0
  0
LINE
  5
F951
330
F783
100
AcDbEntity
  8
2
  6
Continuous
100
AcDbLine
 10
422.4469999999998
 20
184.640252
 30
0.0
 11
421.4999999999998
 21
183.0
 31
0.0
  0
LINE
  5
F952
330
F783
100
AcDbEntity
  8
2
  6
Continuous
100
AcDbLine
 10
432.553
 20
184.640252
 30
0.0
 11
433.4999999999998
 21
183.0
 31
0.0
  0
ENDSEC
  0
SECTION
  2
OBJECTS
  0
DICTIONARY
  5
F771
330
0
100
AcDbDictionary
281
     1
  3
ACAD_CIP_PREVIOUS_PRODUCT_INFO
350
F9B4
  3
ACAD_COLOR
350
F996
  3
ACAD_DETAILVIEWSTYLE
350
F9AF
  3
ACAD_GROUP
350
F772
  3
ACAD_LAYOUT
350
F77E
  3
ACAD_MATERIAL
350
F964
  3
ACAD_MLEADERSTYLE
350
F9AB
  3
ACAD_MLINESTYLE
350
F77B
  3
ACAD_PLOTSETTINGS
350
F77D
  3
ACAD_PLOTSTYLENAME
350
F962
  3
ACAD_SCALELIST
350
F999
  3
ACAD_SECTIONVIEWSTYLE
350
F9AD
  3
ACAD_TABLESTYLE
350
F997
  3
ACAD_VISUALSTYLE
350
F97D
  3
ACDB_RECOMPOSE_DATA
350
FA28
  3
AcDbVariableDictionary
350
F9D7
  3
DWGPROPS
350
FA29
  0
DICTIONARY
  5
F9C7
330
F775
100
AcDbDictionary
280
     1
281
     1
  3
ADSK_XREC_LAYER_RECONCILED
360
F9C8
  0
DICTIONARY
  5
F9C9
330
F78B
100
AcDbDictionary
280
     1
281
     1
  3
ADSK_XREC_LAYER_RECONCILED
360
F9CA
  0
DICTIONARY
  5
F9CB
330
F78C
100
AcDbDictionary
280
     1
281
     1
  3
ADSK_XREC_LAYER_RECONCILED
360
F9CC
  0
DICTIONARY
  5
F9CD
330
F78D
100
AcDbDictionary
280
     1
281
     1
  3
ADSK_XREC_LAYER_RECONCILED
360
F9CE
  0
DICTIONARY
  5
F9CF
330
F78E
100
AcDbDictionary
280
     1
281
     1
  3
ADSK_XREC_LAYER_RECONCILED
360
F9D0
  0
DICTIONARY
  5
F9D1
330
F78F
100
AcDbDictionary
280
     1
281
     1
  3
ADSK_XREC_LAYER_RECONCILED
360
F9D2
  0
DICTIONARY
  5
F9D3
330
F790
100
AcDbDictionary
280
     1
281
     1
  3
ADSK_XREC_LAYER_RECONCILED
360
F9D4
  0
DICTIONARY
  5
F9D5
330
F791
100
AcDbDictionary
280
     1
281
     1
  3
ADSK_XREC_LAYER_RECONCILED
360
F9D6
  0
DICTIONARY
  5
F95D
330
F783
100
AcDbDictionary
281
     1
  3
ACAD_LAYOUTSELFREF
350
F95E
  0
DICTIONARY
  5
F95B
330
F77F
100
AcDbDictionary
281
     1
  3
ACAD_LAYOUTSELFREF
350
F95C
  0
XRECORD
  5
F9B4
102
{ACAD_REACTORS
330
F771
102
}
330
F771
100
AcDbXrecord
280
     1
300
ACDLT
300
2014
300
ACDLT_F_S
  0
DICTIONARY
  5
F996
102
{ACAD_REACTORS
330
F771
102
}
330
F771
100
AcDbDictionary
281
     1
  0
DICTIONARY
  5
F9AF
102
{ACAD_REACTORS
330
F771
102
}
330
F771
100
AcDbDictionary
281
     1
  3
Imperial24
350
F9B0
  0
DICTIONARY
  5
F772
102
{ACAD_REACTORS
330
F771
102
}
330
F771
100
AcDbDictionary
281
     1
  0
DICTIONARY
  5
F77E
102
{ACAD_REACTORS
330
F771
102
}
330
F771
100
AcDbDictionary
281
     1
  3
Model
350
F9B1
  3
レイアウト1
350
F9B2
  0
DICTIONARY
  5
F964
102
{ACAD_REACTORS
330
F771
102
}
330
F771
100
AcDbDictionary
281
     1
  3
ByBlock
350
F96D
  3
ByLayer
350
F965
  3
Global
350
F975
  0
DICTIONARY
  5
F9AB
102
{ACAD_REACTORS
330
F771
102
}
330
F771
100
AcDbDictionary
281
     1
  3
Standard
350
F9AC
  0
DICTIONARY
  5
F77B
102
{ACAD_REACTORS
330
F771
102
}
330
F771
100
AcDbDictionary
281
     1
  3
STANDARD
350
F77C
  0
DICTIONARY
  5
F77D
102
{ACAD_REACTORS
330
F771
102
}
330
F771
100
AcDbDictionary
281
     1
  0
ACDBDICTIONARYWDFLT
  5
F962
102
{ACAD_REACTORS
330
F771
102
}
330
F771
100
AcDbDictionary
281
     1
  3
Normal
350
F963
100
AcDbDictionaryWithDefault
340
F963
  0
DICTIONARY
  5
F999
102
{ACAD_REACTORS
330
F771
102
}
330
F771
100
AcDbDictionary
281
     1
  3
A0
350
F99A
  3
A1
350
F99B
  3
A2
350
F99C
  3
A3
350
F99D
  3
A4
350
F99E
  3
A5
350
F99F
  3
A6
350
F9A0
  3
A7
350
F9A1
  3
A8
350
F9A2
  3
A9
350
F9A3
  3
B0
350
F9A4
  3
B1
350
F9A5
  3
B2
350
F9A6
  3
B3
350
F9A7
  3
B4
350
F9A8
  3
B5
350
F9A9
  3
B6
350
F9AA
  0
DICTIONARY
  5
F9AD
102
{ACAD_REACTORS
330
F771
102
}
330
F771
100
AcDbDictionary
281
     1
  3
Imperial24
350
F9AE
  0
DICTIONARY
  5
F997
102
{ACAD_REACTORS
330
F771
102
}
330
F771
100
AcDbDictionary
281
     1
  3
Standard
350
F998
  0
DICTIONARY
  5
F97D
102
{ACAD_REACTORS
330
F771
102
}
330
F771
100
AcDbDictionary
281
     1
  3
2dWireframe
350
F983
  3
Basic
350
F982
  3
Brighten
350
F989
  3
ColorChange
350
F98D
  3
Conceptual
350
F986
  3
Dim
350
F988
  3
EdgeColorOff
350
F995
  3
Facepattern
350
F98C
  3
Flat
350
F97E
  3
FlatWithEdges
350
F97F
  3
Gouraud
350
F980
  3
GouraudWithEdges
350
F981
  3
Hidden
350
F985
  3
JitterOff
350
F993
  3
Linepattern
350
F98B
  3
OverhangOff
350
F994
  3
Realistic
350
F987
  3
Shaded
350
F992
  3
Shaded with edges
350
F991
  3
Shades of Gray
350
F98E
  3
Sketchy
350
F98F
  3
Thicken
350
F98A
  3
Wireframe
350
F984
  3
X-Ray
350
F990
  0
XRECORD
  5
FA28
102
{ACAD_REACTORS
330
F771
102
}
330
F771
100
AcDbXrecord
280
     1
 90
        1
330
F998
  0
DICTIONARY
  5
F9D7
102
{ACAD_REACTORS
330
F771
102
}
330
F771
100
AcDbDictionary
281
     1
  3
CANNOSCALE
350
F9DC
  3
CMLEADERSTYLE
350
F9D9
  3
CTABLESTYLE
350
F9D8
  3
CVIEWDETAILSTYLE
350
F9DA
  3
CVIEWSECTIONSTYLE
350
F9DB
  3
DIMASSOC
350
F9DF
  3
INDEXCTL
350
F9DE
  3
SORTENTS
350
F9DD
  3
XCLIPFRAME
350
FA26
  0
XRECORD
  5
FA29
102
{ACAD_REACTORS
330
F771
102
}
330
F771
100
AcDbXrecord
280
     1
  1
DWGPROPS COOKIE
  2

  3

  4

  6

  7

  8
Yoshitsune
  9

300
=
301
=
302
=
303
=
304
=
305
=
306
=
307
=
308
=
309
=
 40
0.0233744097222222
 41
2451301.398548611
 42
2457192.692557628
  1

 90
        0
  0
XRECORD
  5
F9C8
102
{ACAD_REACTORS
330
F9C7
102
}
330
F9C7
100
AcDbXrecord
280
     1
290
     1
  0
XRECORD
  5
F9CA
102
{ACAD_REACTORS
330
F9C9
102
}
330
F9C9
100
AcDbXrecord
280
     1
290
     1
  0
XRECORD
  5
F9CC
102
{ACAD_REACTORS
330
F9CB
102
}
330
F9CB
100
AcDbXrecord
280
     1
290
     1
  0
XRECORD
  5
F9CE
102
{ACAD_REACTORS
330
F9CD
102
}
330
F9CD
100
AcDbXrecord
280
     1
290
     1
  0
XRECORD
  5
F9D0
102
{ACAD_REACTORS
330
F9CF
102
}
330
F9CF
100
AcDbXrecord
280
     1
290
     1
  0
XRECORD
  5
F9D2
102
{ACAD_REACTORS
330
F9D1
102
}
330
F9D1
100
AcDbXrecord
280
     1
290
     1
  0
XRECORD
  5
F9D4
102
{ACAD_REACTORS
330
F9D3
102
}
330
F9D3
100
AcDbXrecord
280
     1
290
     1
  0
XRECORD
  5
F9D6
102
{ACAD_REACTORS
330
F9D5
102
}
330
F9D5
100
AcDbXrecord
280
     1
290
     1
  0
XRECORD
  5
F95E
102
{ACAD_REACTORS
330
F95D
102
}
330
F95D
100
AcDbXrecord
280
     1
340
F783
  0
XRECORD
  5
F95C
102
{ACAD_REACTORS
330
F95B
102
}
330
F95B
100
AcDbXrecord
280
     1
340
F77F
  0
ACDBDETAILVIEWSTYLE
  5
F9B0
102
{ACAD_XDICTIONARY
360
FA5D
102
}
102
{ACAD_REACTORS
330
F9AF
102
}
330
F9AF
100
AcDbModelDocViewStyle
 70
     0
  3
Imperial24
290
     0
100
AcDbDetailViewStyle
 70
     0
 71
     0
 90
        3
 71
     1
340
F776
 40
0.24
340
0
 40
0.24
300

 40
0.36
280
     3
 71
     2
340
F77A
 90
       25
 71
     3
340
F776
 40
0.24
 90
        1
 40
0.75
 90
        1
300
%<\AcVar ViewType \f "%tc1">% %<\AcVar ViewDetailId>%\PSCALE %<\AcVar ViewScale \f "%sn">%
 71
     4
340
F77A
 90
       25
340
F77A
 90
       25
280
     0
  0
LAYOUT
  5
F9B1
102
{ACAD_XDICTIONARY
360
FA5F
102
}
102
{ACAD_REACTORS
330
F77E
102
}
330
F77E
100
AcDbPlotSettings
  1

  2
Canon LBP9100C
  4

  6

 40
0.0
 41
0.0
 42
0.0
 43
0.0
 44
0.0
 45
0.0
 46
0.0
 47
0.0
 48
0.0
 49
0.0
140
0.0
141
0.0
142
1.0
143
1.0
 70
  1712
 72
     0
 73
     0
 74
     0
  7

 75
     0
147
1.0
148
0.0
149
0.0
100
AcDbLayout
  1
Model
 70
     1
 71
     0
 10
0.0
 20
0.0
 11
12.0
 21
9.0
 12
0.0
 22
0.0
 32
0.0
 14
0.0
 24
0.0
 34
0.0
 15
0.0
 25
0.0
 35
0.0
146
0.0
 13
0.0
 23
0.0
 33
0.0
 16
1.0
 26
0.0
 36
0.0
 17
0.0
 27
1.0
 37
0.0
 76
     0
330
F783
331
F95A
  0
LAYOUT
  5
F9B2
102
{ACAD_XDICTIONARY
360
FA61
102
}
102
{ACAD_REACTORS
330
F77E
102
}
330
F77E
100
AcDbPlotSettings
  1

  2
Canon LBP9100C
  4

  6

 40
0.0
 41
0.0
 42
0.0
 43
0.0
 44
0.0
 45
0.0
 46
0.0
 47
0.0
 48
0.0
 49
0.0
140
0.0
141
0.0
142
1.0
143
1.0
 70
   688
 72
     0
 73
     0
 74
     5
  7

 75
    16
147
1.0
148
0.0
149
0.0
100
AcDbLayout
  1
レイアウト1
 70
     0
 71
     1
 10
0.0
 20
0.0
 11
420.0
 21
297.0
 12
0.0
 22
0.0
 32
0.0
 14
1.000000000000000E+20
 24
1.000000000000000E+20
 34
1.000000000000000E+20
 15
-1.000000000000000E+20
 25
-1.000000000000000E+20
 35
-1.000000000000000E+20
146
0.0
 13
0.0
 23
0.0
 33
0.0
 16
1.0
 26
0.0
 36
0.0
 17
0.0
 27
1.0
 37
0.0
 76
     0
330
F77F
  0
MATERIAL
  5
F96D
102
{ACAD_XDICTIONARY
360
F96E
102
}
102
{ACAD_REACTORS
330
F964
102
}
330
F964
100
AcDbMaterial
  1
ByBlock
 72
     0
 43
0.0208333333333333
 43
0.0
 43
0.0
 43
0.0
 43
0.0
 43
0.0208333333333333
 43
0.0
 43
0.0
 43
0.0
 43
0.0
 43
1.0
 43
0.0
 43
0.0
 43
0.0
 43
0.0
 43
1.0
 77
     0
 47
0.0208333333333333
 47
0.0
 47
0.0
 47
0.0
 47
0.0
 47
0.0208333333333333
 47
0.0
 47
0.0
 47
0.0
 47
0.0
 47
1.0
 47
0.0
 47
0.0
 47
0.0
 47
0.0
 47
1.0
171
     0
 49
0.0208333333333333
 49
0.0
 49
0.0
 49
0.0
 49
0.0
 49
0.0208333333333333
 49
0.0
 49
0.0
 49
0.0
 49
0.0
 49
1.0
 49
0.0
 49
0.0
 49
0.0
 49
0.0
 49
1.0
175
     0
142
0.0208333333333333
142
0.0
142
0.0
142
0.0
142
0.0
142
0.0208333333333333
142
0.0
142
0.0
142
0.0
142
0.0
142
1.0
142
0.0
142
0.0
142
0.0
142
0.0
142
1.0
179
     0
144
0.0208333333333333
144
0.0
144
0.0
144
0.0
144
0.0
144
0.0208333333333333
144
0.0
144
0.0
144
0.0
144
0.0
144
1.0
144
0.0
144
0.0
144
0.0
144
0.0
144
1.0
147
0.0208333333333333
147
0.0
147
0.0
147
0.0
147
0.0
147
0.0208333333333333
147
0.0
147
0.0
147
0.0
147
0.0
147
1.0
147
0.0
147
0.0
147
0.0
147
0.0
147
1.0
  0
MATERIAL
  5
F965
102
{ACAD_XDICTIONARY
360
F966
102
}
102
{ACAD_REACTORS
330
F964
102
}
330
F964
100
AcDbMaterial
  1
ByLayer
 72
     0
 43
0.0208333333333333
 43
0.0
 43
0.0
 43
0.0
 43
0.0
 43
0.0208333333333333
 43
0.0
 43
0.0
 43
0.0
 43
0.0
 43
1.0
 43
0.0
 43
0.0
 43
0.0
 43
0.0
 43
1.0
 77
     0
 47
0.0208333333333333
 47
0.0
 47
0.0
 47
0.0
 47
0.0
 47
0.0208333333333333
 47
0.0
 47
0.0
 47
0.0
 47
0.0
 47
1.0
 47
0.0
 47
0.0
 47
0.0
 47
0.0
 47
1.0
171
     0
 49
0.0208333333333333
 49
0.0
 49
0.0
 49
0.0
 49
0.0
 49
0.0208333333333333
 49
0.0
 49
0.0
 49
0.0
 49
0.0
 49
1.0
 49
0.0
 49
0.0
 49
0.0
 49
0.0
 49
1.0
175
     0
142
0.0208333333333333
142
0.0
142
0.0
142
0.0
142
0.0
142
0.0208333333333333
142
0.0
142
0.0
142
0.0
142
0.0
142
1.0
142
0.0
142
0.0
142
0.0
142
0.0
142
1.0
179
     0
144
0.0208333333333333
144
0.0
144
0.0
144
0.0
144
0.0
144
0.0208333333333333
144
0.0
144
0.0
144
0.0
144
0.0
144
1.0
144
0.0
144
0.0
144
0.0
144
0.0
144
1.0
147
0.0208333333333333
147
0.0
147
0.0
147
0.0
147
0.0
147
0.0208333333333333
147
0.0
147
0.0
147
0.0
147
0.0
147
1.0
147
0.0
147
0.0
147
0.0
147
0.0
147
1.0
  0
MATERIAL
  5
F975
102
{ACAD_XDICTIONARY
360
F976
102
}
102
{ACAD_REACTORS
330
F964
102
}
330
F964
100
AcDbMaterial
  1
Global
 72
     0
 43
0.0208333333333333
 43
0.0
 43
0.0
 43
0.0
 43
0.0
 43
0.0208333333333333
 43
0.0
 43
0.0
 43
0.0
 43
0.0
 43
1.0
 43
0.0
 43
0.0
 43
0.0
 43
0.0
 43
1.0
 77
     0
 47
0.0208333333333333
 47
0.0
 47
0.0
 47
0.0
 47
0.0
 47
0.0208333333333333
 47
0.0
 47
0.0
 47
0.0
 47
0.0
 47
1.0
 47
0.0
 47
0.0
 47
0.0
 47
0.0
 47
1.0
171
     0
 49
0.0208333333333333
 49
0.0
 49
0.0
 49
0.0
 49
0.0
 49
0.0208333333333333
 49
0.0
 49
0.0
 49
0.0
 49
0.0
 49
1.0
 49
0.0
 49
0.0
 49
0.0
 49
0.0
 49
1.0
175
     0
142
0.0208333333333333
142
0.0
142
0.0
142
0.0
142
0.0
142
0.0208333333333333
142
0.0
142
0.0
142
0.0
142
0.0
142
1.0
142
0.0
142
0.0
142
0.0
142
0.0
142
1.0
179
     0
144
0.0208333333333333
144
0.0
144
0.0
144
0.0
144
0.0
144
0.0208333333333333
144
0.0
144
0.0
144
0.0
144
0.0
144
1.0
144
0.0
144
0.0
144
0.0
144
0.0
144
1.0
147
0.0208333333333333
147
0.0
147
0.0
147
0.0
147
0.0
147
0.0208333333333333
147
0.0
147
0.0
147
0.0
147
0.0
147
1.0
147
0.0
147
0.0
147
0.0
147
0.0
147
1.0
  0
MLEADERSTYLE
  5
F9AC
102
{ACAD_REACTORS
330
F9AB
102
}
330
F9AB
100
AcDbMLeaderStyle
170
     2
171
     1
172
     0
 90
        2
 40
0.0
 41
0.0
173
     1
 91
-1056964608
340
F778
 92
       -2
290
     1
 42
0.09
291
     1
 43
0.36
  3
Standard
 44
0.18
300

342
F776
174
     1
178
     6
175
     1
176
     0
 93
-1056964608
 45
0.18
292
     0
297
     0
 46
0.18
 94
-1056964608
 47
1.0
 49
1.0
140
1.0
293
     1
141
0.0
294
     1
177
     0
142
1.0
295
     0
296
     0
143
0.125
1001
ACAD_MLEADERVER
1070
     2
  0
MLINESTYLE
  5
F77C
102
{ACAD_REACTORS
330
F77B
102
}
330
F77B
100
AcDbMlineStyle
  2
STANDARD
 70
     0
  3

 62
   256
 51
90.0
 52
90.0
 71
     2
 49
0.5
 62
   256
  6
BYLAYER
 49
-0.5
 62
   256
  6
BYLAYER
  0
ACDBPLACEHOLDER
  5
F963
102
{ACAD_REACTORS
330
F962
102
}
330
F962
  0
SCALE
  5
F99A
102
{ACAD_REACTORS
330
F999
102
}
330
F999
100
AcDbScale
 70
     0
300
1:1
140
1.0
141
1.0
290
     1
  0
SCALE
  5
F99B
102
{ACAD_REACTORS
330
F999
102
}
330
F999
100
AcDbScale
 70
     0
300
1/128" = 1'-0"
140
0.0078125
141
12.0
290
     0
  0
SCALE
  5
F99C
102
{ACAD_REACTORS
330
F999
102
}
330
F999
100
AcDbScale
 70
     0
300
1/64" = 1'-0"
140
0.015625
141
12.0
290
     0
  0
SCALE
  5
F99D
102
{ACAD_REACTORS
330
F999
102
}
330
F999
100
AcDbScale
 70
     0
300
1/32" = 1'-0"
140
0.03125
141
12.0
290
     0
  0
SCALE
  5
F99E
102
{ACAD_REACTORS
330
F999
102
}
330
F999
100
AcDbScale
 70
     0
300
1/16" = 1'-0"
140
0.0625
141
12.0
290
     0
  0
SCALE
  5
F99F
102
{ACAD_REACTORS
330
F999
102
}
330
F999
100
AcDbScale
 70
     0
300
3/32" = 1'-0"
140
0.09375
141
12.0
290
     0
  0
SCALE
  5
F9A0
102
{ACAD_REACTORS
330
F999
102
}
330
F999
100
AcDbScale
 70
     0
300
1/8" = 1'-0"
140
0.125
141
12.0
290
     0
  0
SCALE
  5
F9A1
102
{ACAD_REACTORS
330
F999
102
}
330
F999
100
AcDbScale
 70
     0
300
3/16" = 1'-0"
140
0.1875
141
12.0
290
     0
  0
SCALE
  5
F9A2
102
{ACAD_REACTORS
330
F999
102
}
330
F999
100
AcDbScale
 70
     0
300
1/4" = 1'-0"
140
0.25
141
12.0
290
     0
  0
SCALE
  5
F9A3
102
{ACAD_REACTORS
330
F999
102
}
330
F999
100
AcDbScale
 70
     0
300
3/8" = 1'-0"
140
0.375
141
12.0
290
     0
  0
SCALE
  5
F9A4
102
{ACAD_REACTORS
330
F999
102
}
330
F999
100
AcDbScale
 70
     0
300
1/2" = 1'-0"
140
0.5
141
12.0
290
     0
  0
SCALE
  5
F9A5
102
{ACAD_REACTORS
330
F999
102
}
330
F999
100
AcDbScale
 70
     0
300
3/4" = 1'-0"
140
0.75
141
12.0
290
     0
  0
SCALE
  5
F9A6
102
{ACAD_REACTORS
330
F999
102
}
330
F999
100
AcDbScale
 70
     0
300
1" = 1'-0"
140
1.0
141
12.0
290
     0
  0
SCALE
  5
F9A7
102
{ACAD_REACTORS
330
F999
102
}
330
F999
100
AcDbScale
 70
     0
300
1-1/2" = 1'-0"
140
1.5
141
12.0
290
     0
  0
SCALE
  5
F9A8
102
{ACAD_REACTORS
330
F999
102
}
330
F999
100
AcDbScale
 70
     0
300
3" = 1'-0"
140
3.0
141
12.0
290
     0
  0
SCALE
  5
F9A9
102
{ACAD_REACTORS
330
F999
102
}
330
F999
100
AcDbScale
 70
     0
300
6" = 1'-0"
140
6.0
141
12.0
290
     0
  0
SCALE
  5
F9AA
102
{ACAD_REACTORS
330
F999
102
}
330
F999
100
AcDbScale
 70
     0
300
1'-0" = 1'-0"
140
12.0
141
12.0
290
     0
  0
ACDBSECTIONVIEWSTYLE
  5
F9AE
102
{ACAD_XDICTIONARY
360
FA5B
102
}
102
{ACAD_REACTORS
330
F9AD
102
}
330
F9AD
100
AcDbModelDocViewStyle
 70
     0
  3
Imperial24
290
     0
100
AcDbSectionViewStyle
 70
     0
 71
     0
 90
       78
 71
     1
340
F776
 40
0.24
340
0
340
0
 40
0.24
300
I, O, Q, S, X, Z
 40
0.48
 90
        3
 40
0.18
 90
        1
 71
     2
340
F77A
 90
       25
340
F77A
 90
       50
 40
0.24
 40
0.0
 40
0.24
 71
     3
340
F776
 40
0.24
 90
        1
 40
0.75
 90
        1
300
%<\AcVar ViewType \f "%tc1">% %<\AcVar ViewSectionStartId>%-%<\AcVar ViewSectionEndId>%\PSCALE %<\AcVar ViewScale \f "%sn">%
 71
     4
300
ANSI31
 40
1.0
 90
        0
290
     0
290
     0
 90
        6
 40
0.0
 40
1.570796326794896
 40
0.2617993877991494
 40
1.308996938995747
 40
-0.2617993877991494
 40
1.832595714594045
  0
TABLESTYLE
  5
F998
102
{ACAD_XDICTIONARY
360
F9E1
102
}
102
{ACAD_REACTORS
330
F997
102
}
330
F997
100
AcDbTableStyle
  3
Standard
 70
     0
 71
     0
 40
0.06
 41
0.06
280
     0
281
     0
  7
STANDARD
140
0.18
170
     2
 62
     0
 63
     7
283
     0
274
    -2
284
     1
 64
     0
275
    -2
285
     1
 65
     0
276
    -2
286
     1
 66
     0
277
    -2
287
     1
 67
     0
278
    -2
288
     1
 68
     0
279
    -2
289
     1
 69
     0
  7
STANDARD
140
0.25
170
     5
 62
     0
 63
     7
283
     0
274
    -2
284
     1
 64
     0
275
    -2
285
     1
 65
     0
276
    -2
286
     1
 66
     0
277
    -2
287
     1
 67
     0
278
    -2
288
     1
 68
     0
279
    -2
289
     1
 69
     0
  7
STANDARD
140
0.18
170
     5
 62
     0
 63
     7
283
     0
274
    -2
284
     1
 64
     0
275
    -2
285
     1
 65
     0
276
    -2
286
     1
 66
     0
277
    -2
287
     1
 67
     0
278
    -2
288
     1
 68
     0
279
    -2
289
     1
 69
     0
  0
VISUALSTYLE
  5
F983
102
{ACAD_XDICTIONARY
360
FA34
102
}
102
{ACAD_REACTORS
330
F97D
102
}
330
F97D
100
AcDbVisualStyle
  2

 70
     4
 71
     0
 72
     2
 73
     0
 90
        0
 40
-0.6
 41
-30.0
 62
     5
 63
     7
 74
     1
 91
        4
 64
     7
 65
   257
 75
     1
175
     1
 42
1.0
 92
        0
 66
   257
 43
1.0
 76
     1
 77
     6
 78
     2
 67
     7
 79
     5
170
     0
171
     0
290
     0
174
     0
 93
        1
 44
0.0
173
     0
291
     0
 45
0.0
1001
ACAD
1000
AcDbSavedByObjectVersion
1070
     0
  0
VISUALSTYLE
  5
F982
102
{ACAD_XDICTIONARY
360
FA32
102
}
102
{ACAD_REACTORS
330
F97D
102
}
330
F97D
100
AcDbVisualStyle
  2

 70
     7
 71
     1
 72
     0
 73
     1
 90
        0
 40
-0.6
 41
-30.0
 62
     5
 63
     7
 74
     0
 91
        4
 64
     7
 65
   257
 75
     1
175
     1
 42
1.0
 92
        8
 66
     7
 43
1.0
 76
     1
 77
     6
 78
     2
 67
     7
 79
     5
170
     0
171
     0
290
     0
174
     0
 93
        1
 44
0.0
173
     0
291
     1
 45
0.0
1001
ACAD
1000
AcDbSavedByObjectVersion
1070
     0
  0
VISUALSTYLE
  5
F989
102
{ACAD_XDICTIONARY
360
FA40
102
}
102
{ACAD_REACTORS
330
F97D
102
}
330
F97D
100
AcDbVisualStyle
  2

 70
    12
 71
     2
 72
     2
 73
     0
 90
        0
 40
-0.6
 41
-30.0
 62
     5
 63
     7
 74
     1
 91
        4
 64
     7
 65
   257
 75
     1
175
     1
 42
1.0
 92
        8
 66
     7
 43
1.0
 76
     1
 77
     6
 78
     2
 67
     7
 79
     5
170
     0
171
     0
290
     0
174
     0
 93
        1
 44
50.0
173
     0
291
     1
 45
0.0
1001
ACAD
1000
AcDbSavedByObjectVersion
1070
     0
  0
VISUALSTYLE
  5
F98D
102
{ACAD_XDICTIONARY
360
FA48
102
}
102
{ACAD_REACTORS
330
F97D
102
}
330
F97D
100
AcDbVisualStyle
  2

 70
    16
 71
     2
 72
     2
 73
     3
 90
        0
 40
-0.6
 41
-30.0
 62
     5
 63
     8
 74
     1
 91
        4
 64
     7
 65
   257
 75
     1
175
     1
 42
1.0
 92
        8
 66
     8
 43
1.0
 76
     1
 77
     6
 78
     2
 67
     7
 79
     5
170
     0
171
     0
290
     0
174
     0
 93
        1
 44
0.0
173
     0
291
     1
 45
0.0
1001
ACAD
1000
AcDbSavedByObjectVersion
1070
     0
  0
VISUALSTYLE
  5
F986
102
{ACAD_XDICTIONARY
360
FA3A
102
}
102
{ACAD_REACTORS
330
F97D
102
}
330
F97D
100
AcDbVisualStyle
  2

 70
     9
 71
     3
 72
     2
 73
     0
 90
        0
 40
-0.6
 41
-30.0
 62
     5
 63
     7
 74
     2
 91
        2
 64
     7
 65
   257
 75
     1
175
     1
 42
179.0
 92
        8
 66
     7
 43
1.0
 76
     1
 77
     6
 78
     2
 67
     7
 79
     3
170
     0
171
     0
290
     0
174
     0
 93
        1
 44
0.0
173
     0
291
     0
 45
0.0
1001
ACAD
1000
AcDbSavedByObjectVersion
1070
     0
  0
VISUALSTYLE
  5
F988
102
{ACAD_XDICTIONARY
360
FA3E
102
}
102
{ACAD_REACTORS
330
F97D
102
}
330
F97D
100
AcDbVisualStyle
  2

 70
    11
 71
     2
 72
     2
 73
     0
 90
        0
 40
-0.6
 41
-30.0
 62
     5
 63
     7
 74
     1
 91
        4
 64
     7
 65
   257
 75
     1
175
     1
 42
1.0
 92
        8
 66
     7
 43
1.0
 76
     1
 77
     6
 78
     2
 67
     7
 79
     5
170
     0
171
     0
290
     0
174
     0
 93
        1
 44
-50.0
173
     0
291
     1
 45
0.0
1001
ACAD
1000
AcDbSavedByObjectVersion
1070
     0
  0
VISUALSTYLE
  5
F995
102
{ACAD_XDICTIONARY
360
FA58
102
}
102
{ACAD_REACTORS
330
F97D
102
}
330
F97D
100
AcDbVisualStyle
  2

 70
    22
 71
     2
 72
     2
 73
     0
 90
        0
 40
-0.6
 41
-30.0
 62
     5
 63
     7
 74
     1
 91
        4
 64
     7
 65
   257
 75
     1
175
     1
 42
1.0
 92
        8
 66
     7
 43
1.0
 76
     1
 77
     6
 78
     2
 67
     7
 79
     5
170
     0
171
     0
290
     0
174
     0
 93
        1
 44
0.0
173
     0
291
     1
 45
0.0
1001
ACAD
1000
AcDbSavedByObjectVersion
1070
     0
  0
VISUALSTYLE
  5
F98C
102
{ACAD_XDICTIONARY
360
FA46
102
}
102
{ACAD_REACTORS
330
F97D
102
}
330
F97D
100
AcDbVisualStyle
  2

 70
    15
 71
     2
 72
     2
 73
     0
 90
        0
 40
-0.6
 41
-30.0
 62
     5
 63
     7
 74
     1
 91
        4
 64
     7
 65
   257
 75
     1
175
     1
 42
1.0
 92
        8
 66
     7
 43
1.0
 76
     1
 77
     6
 78
     2
 67
     7
 79
     5
170
     0
171
     0
290
     0
174
     0
 93
        1
 44
0.0
173
     0
291
     1
 45
0.0
1001
ACAD
1000
AcDbSavedByObjectVersion
1070
     0
  0
VISUALSTYLE
  5
F97E
102
{ACAD_XDICTIONARY
360
FA2A
102
}
102
{ACAD_REACTORS
330
F97D
102
}
330
F97D
100
AcDbVisualStyle
  2

 70
     0
 71
     2
 72
     1
 73
     1
 90
        2
 40
-0.6
 41
30.0
 62
     5
 63
     7
 74
     0
 91
        0
 64
     7
 65
   257
 75
     1
175
     1
 42
1.0
 92
        8
 66
     7
 43
1.0
 76
     1
 77
     6
 78
     2
 67
     7
 79
     5
170
     0
171
     0
290
     0
174
     0
 93
       13
 44
0.0
173
     0
291
     1
 45
0.0
1001
ACAD
1000
AcDbSavedByObjectVersion
1070
     0
  0
VISUALSTYLE
  5
F97F
102
{ACAD_XDICTIONARY
360
FA2C
102
}
102
{ACAD_REACTORS
330
F97D
102
}
330
F97D
100
AcDbVisualStyle
  2

 70
     1
 71
     2
 72
     1
 73
     1
 90
        2
 40
-0.6
 41
30.0
 62
     5
 63
     7
 74
     1
 91
        0
 64
     7
 65
   257
 75
     1
175
     1
 42
1.0
 92
        0
 66
   257
 43
1.0
 76
     1
 77
     6
 78
     2
 67
     7
 79
     5
170
     0
171
     0
290
     0
174
     0
 93
       13
 44
0.0
173
     0
291
     1
 45
0.0
1001
ACAD
1000
AcDbSavedByObjectVersion
1070
     0
  0
VISUALSTYLE
  5
F980
102
{ACAD_XDICTIONARY
360
FA2E
102
}
102
{ACAD_REACTORS
330
F97D
102
}
330
F97D
100
AcDbVisualStyle
  2

 70
     2
 71
     2
 72
     2
 73
     1
 90
        2
 40
-0.6
 41
30.0
 62
     5
 63
     7
 74
     0
 91
        0
 64
     7
 65
   257
 75
     1
175
     1
 42
1.0
 92
        0
 66
     7
 43
1.0
 76
     1
 77
     6
 78
     2
 67
     7
 79
     5
170
     0
171
     0
290
     0
174
     0
 93
       13
 44
0.0
173
     0
291
     1
 45
0.0
1001
ACAD
1000
AcDbSavedByObjectVersion
1070
     0
  0
VISUALSTYLE
  5
F981
102
{ACAD_XDICTIONARY
360
FA30
102
}
102
{ACAD_REACTORS
330
F97D
102
}
330
F97D
100
AcDbVisualStyle
  2

 70
     3
 71
     2
 72
     2
 73
     1
 90
        2
 40
-0.6
 41
30.0
 62
     5
 63
     7
 74
     1
 91
        0
 64
     7
 65
   257
 75
     1
175
     1
 42
1.0
 92
        0
 66
   257
 43
1.0
 76
     1
 77
     6
 78
     2
 67
     7
 79
     5
170
     0
171
     0
290
     0
174
     0
 93
       13
 44
0.0
173
     0
291
     1
 45
0.0
1001
ACAD
1000
AcDbSavedByObjectVersion
1070
     0
  0
VISUALSTYLE
  5
F985
102
{ACAD_XDICTIONARY
360
FA38
102
}
102
{ACAD_REACTORS
330
F97D
102
}
330
F97D
100
AcDbVisualStyle
  2

 70
     6
 71
     1
 72
     2
 73
     2
 90
        0
 40
-0.6
 41
-30.0
 62
     5
 63
     7
 74
     2
 91
        2
 64
     7
 65
   257
 75
     2
175
     1
 42
40.0
 92
        0
 66
   257
 43
1.0
 76
     1
 77
     6
 78
     2
 67
     7
 79
     3
170
     0
171
     0
290
     0
174
     0
 93
        1
 44
0.0
173
     0
291
     0
 45
0.0
1001
ACAD
1000
AcDbSavedByObjectVersion
1070
     0
  0
VISUALSTYLE
  5
F993
102
{ACAD_XDICTIONARY
360
FA54
102
}
102
{ACAD_REACTORS
330
F97D
102
}
330
F97D
100
AcDbVisualStyle
  2

 70
    20
 71
     2
 72
     2
 73
     0
 90
        0
 40
-0.6
 41
-30.0
 62
     5
 63
     7
 74
     1
 91
        4
 64
     7
 65
   257
 75
     1
175
     1
 42
1.0
 92
       10
 66
     7
 43
1.0
 76
     1
 77
     6
 78
     2
 67
     7
 79
     5
170
     0
171
     0
290
     0
174
     0
 93
        1
 44
0.0
173
     0
291
     1
 45
0.0
1001
ACAD
1000
AcDbSavedByObjectVersion
1070
     0
  0
VISUALSTYLE
  5
F98B
102
{ACAD_XDICTIONARY
360
FA44
102
}
102
{ACAD_REACTORS
330
F97D
102
}
330
F97D
100
AcDbVisualStyle
  2

 70
    14
 71
     2
 72
     2
 73
     0
 90
        0
 40
-0.6
 41
-30.0
 62
     5
 63
     7
 74
     1
 91
        4
 64
     7
 65
   257
 75
     7
175
     7
 42
1.0
 92
        8
 66
     7
 43
1.0
 76
     1
 77
     6
 78
     2
 67
     7
 79
     5
170
     0
171
     0
290
     0
174
     0
 93
        1
 44
0.0
173
     0
291
     1
 45
0.0
1001
ACAD
1000
AcDbSavedByObjectVersion
1070
     0
  0
VISUALSTYLE
  5
F994
102
{ACAD_XDICTIONARY
360
FA56
102
}
102
{ACAD_REACTORS
330
F97D
102
}
330
F97D
100
AcDbVisualStyle
  2

 70
    21
 71
     2
 72
     2
 73
     0
 90
        0
 40
-0.6
 41
-30.0
 62
     5
 63
     7
 74
     1
 91
        4
 64
     7
 65
   257
 75
     1
175
     1
 42
1.0
 92
        9
 66
     7
 43
1.0
 76
     1
 77
     6
 78
     2
 67
     7
 79
     5
170
     0
171
     0
290
     0
174
     0
 93
        1
 44
0.0
173
     0
291
     1
 45
0.0
1001
ACAD
1000
AcDbSavedByObjectVersion
1070
     0
  0
VISUALSTYLE
  5
F987
102
{ACAD_XDICTIONARY
360
FA3C
102
}
102
{ACAD_REACTORS
330
F97D
102
}
330
F97D
100
AcDbVisualStyle
  2

 70
     8
 71
     2
 72
     3
 73
     0
 90
        2
 40
-0.6
 41
30.0
 62
     5
 63
     7
 74
     0
 91
        0
 64
     7
 65
   257
 75
     1
175
     1
 42
1.0
 92
        8
 66
   257
 43
1.0
 76
     1
 77
     6
 78
     2
 67
     7
 79
     3
170
     0
171
     0
290
     0
174
     0
 93
       13
 44
0.0
173
     0
291
     0
 45
0.0
1001
ACAD
1000
AcDbSavedByObjectVersion
1070
     0
  0
VISUALSTYLE
  5
F992
102
{ACAD_XDICTIONARY
360
FA52
102
}
102
{ACAD_REACTORS
330
F97D
102
}
330
F97D
100
AcDbVisualStyle
  2

 70
    27
 71
     2
 72
     2
 73
     1
 90
        2
 40
-0.6
 41
30.0
 62
     5
 63
     7
 74
     0
 91
        4
 64
     7
 65
   257
 75
     1
175
     1
 42
1.0
 92
        8
 66
   257
 43
1.0
 76
     1
 77
     6
 78
     2
 67
     8
 79
     3
170
     0
171
     0
290
     0
174
     0
 93
        5
 44
0.0
173
     0
291
     0
 45
0.0
1001
ACAD
1000
AcDbSavedByObjectVersion
1070
     0
  0
VISUALSTYLE
  5
F991
102
{ACAD_XDICTIONARY
360
FA50
102
}
102
{ACAD_REACTORS
330
F97D
102
}
330
F97D
100
AcDbVisualStyle
  2

 70
    26
 71
     2
 72
     2
 73
     1
 90
        2
 40
-0.6
 41
30.0
 62
     5
 63
     7
 74
     1
 91
       10
 64
     7
 65
   257
 75
     2
175
     1
 42
1.0
 92
        8
 66
   257
 43
1.0
 76
     1
 77
     6
 78
     2
 67
     7
 79
     3
170
     0
171
     0
290
     0
174
     0
 93
        5
 44
0.0
173
     0
291
     0
 45
0.0
1001
ACAD
1000
AcDbSavedByObjectVersion
1070
     0
  0
VISUALSTYLE
  5
F98E
102
{ACAD_XDICTIONARY
360
FA4A
102
}
102
{ACAD_REACTORS
330
F97D
102
}
330
F97D
100
AcDbVisualStyle
  2

 70
    23
 71
     2
 72
     2
 73
     3
 90
        0
 40
-0.6
 41
-30.0
 62
     5
 63
     7
 74
     2
 91
        2
 64
     7
 65
     7
 75
     1
175
     1
 42
40.0
 92
        8
 66
     7
 43
1.0
 76
     1
 77
     6
 78
     2
 67
     7
 79
     3
170
     0
171
     0
290
     0
174
     0
 93
        1
 44
0.0
173
     0
291
     0
 45
0.0
1001
ACAD
1000
AcDbSavedByObjectVersion
1070
     0
  0
VISUALSTYLE
  5
F98F
102
{ACAD_XDICTIONARY
360
FA4C
102
}
102
{ACAD_REACTORS
330
F97D
102
}
330
F97D
100
AcDbVisualStyle
  2

 70
    24
 71
     1
 72
     2
 73
     2
 90
        0
 40
-0.6
 41
-30.0
 62
     5
 63
     7
 74
     2
 91
        2
 64
     7
 65
     7
 75
     1
175
     1
 42
40.0
 92
       11
 66
     7
 43
1.0
 76
     1
 77
     6
 78
     2
 67
     7
 79
     6
170
     0
171
     0
290
     0
174
     0
 93
        1
 44
0.0
173
     0
291
     0
 45
0.0
1001
ACAD
1000
AcDbSavedByObjectVersion
1070
     0
  0
VISUALSTYLE
  5
F98A
102
{ACAD_XDICTIONARY
360
FA42
102
}
102
{ACAD_REACTORS
330
F97D
102
}
330
F97D
100
AcDbVisualStyle
  2

 70
    13
 71
     2
 72
     2
 73
     0
 90
        0
 40
-0.6
 41
-30.0
 62
     5
 63
     7
 74
     1
 91
        4
 64
     7
 65
   257
 75
     1
175
     1
 42
1.0
 92
       12
 66
     7
 43
1.0
 76
     1
 77
     6
 78
     2
 67
     7
 79
     5
170
     0
171
     0
290
     0
174
     0
 93
        1
 44
0.0
173
     0
291
     1
 45
0.0
1001
ACAD
1000
AcDbSavedByObjectVersion
1070
     0
  0
VISUALSTYLE
  5
F984
102
{ACAD_XDICTIONARY
360
FA36
102
}
102
{ACAD_REACTORS
330
F97D
102
}
330
F97D
100
AcDbVisualStyle
  2

 70
     5
 71
     0
 72
     2
 73
     0
 90
        0
 40
-0.6
 41
-30.0
 62
     5
 63
     7
 74
     1
 91
        4
 64
     7
 65
   257
 75
     1
175
     1
 42
1.0
 92
        0
 66
   257
 43
1.0
 76
     1
 77
     6
 78
     2
 67
     7
 79
     3
170
     0
171
     0
290
     0
174
     0
 93
        1
 44
0.0
173
     0
291
     0
 45
0.0
1001
ACAD
1000
AcDbSavedByObjectVersion
1070
     0
  0
VISUALSTYLE
  5
F990
102
{ACAD_XDICTIONARY
360
FA4E
102
}
102
{ACAD_REACTORS
330
F97D
102
}
330
F97D
100
AcDbVisualStyle
  2

 70
    25
 71
     2
 72
     2
 73
     1
 90
        1
 40
0.5
 41
-30.0
 62
     5
 63
     7
 74
     1
 91
        0
 64
     7
 65
   257
 75
     1
175
     1
 42
1.0
 92
        8
 66
     7
 43
1.0
 76
     1
 77
     6
 78
     2
 67
     7
 79
     3
170
     0
171
     0
290
     0
174
     0
 93
       13
 44
0.0
173
     0
291
     0
 45
0.0
1001
ACAD
1000
AcDbSavedByObjectVersion
1070
     0
  0
DICTIONARYVAR
  5
F9DC
102
{ACAD_REACTORS
330
F9D7
102
}
330
F9D7
100
DictionaryVariables
280
     0
  1
1:1
  0
DICTIONARYVAR
  5
F9D9
102
{ACAD_REACTORS
330
F9D7
102
}
330
F9D7
100
DictionaryVariables
280
     0
  1
STANDARD
  0
DICTIONARYVAR
  5
F9D8
102
{ACAD_REACTORS
330
F9D7
102
}
330
F9D7
100
DictionaryVariables
280
     0
  1
STANDARD
  0
DICTIONARYVAR
  5
F9DA
102
{ACAD_REACTORS
330
F9D7
102
}
330
F9D7
100
DictionaryVariables
280
     0
  1
Imperial24
  0
DICTIONARYVAR
  5
F9DB
102
{ACAD_REACTORS
330
F9D7
102
}
330
F9D7
100
DictionaryVariables
280
     0
  1
Imperial24
  0
DICTIONARYVAR
  5
F9DF
102
{ACAD_REACTORS
330
F9D7
102
}
330
F9D7
100
DictionaryVariables
280
     0
  1
1
  0
DICTIONARYVAR
  5
F9DE
102
{ACAD_REACTORS
330
F9D7
102
}
330
F9D7
100
DictionaryVariables
280
     0
  1
0
  0
DICTIONARYVAR
  5
F9DD
102
{ACAD_REACTORS
330
F9D7
102
}
330
F9D7
100
DictionaryVariables
280
     0
  1
127
  0
DICTIONARYVAR
  5
FA26
102
{ACAD_REACTORS
330
F9D7
102
}
330
F9D7
100
DictionaryVariables
280
     0
  1
2
  0
DICTIONARY
  5
FA5D
330
F9B0
100
AcDbDictionary
280
     1
281
     1
  3
ACAD_XREC_ROUNDTRIP
360
FA5E
  0
DICTIONARY
  5
FA5F
330
F9B1
100
AcDbDictionary
280
     1
281
     1
  3
ACAD_XREC_ROUNDTRIP
360
FA60
  0
DICTIONARY
  5
FA61
330
F9B2
100
AcDbDictionary
280
     1
281
     1
  3
ACAD_XREC_ROUNDTRIP
360
FA62
  0
DICTIONARY
  5
F96E
330
F96D
100
AcDbDictionary
280
     1
281
     1
  3
ACAD_XREC_ROUNDTRIP
360
F9E6
  3
BUMPTILE
360
F970
  3
DIFFUSETILE
360
F96F
  3
OPACITYTILE
360
F973
  3
REFLECTIONTILE
360
F972
  3
REFRACTIONTILE
360
F974
  3
SPECULARTILE
360
F971
  0
DICTIONARY
  5
F966
330
F965
100
AcDbDictionary
280
     1
281
     1
  3
ACAD_XREC_ROUNDTRIP
360
F9E5
  3
BUMPTILE
360
F968
  3
DIFFUSETILE
360
F967
  3
OPACITYTILE
360
F96B
  3
REFLECTIONTILE
360
F96A
  3
REFRACTIONTILE
360
F96C
  3
SPECULARTILE
360
F969
  0
DICTIONARY
  5
F976
330
F975
100
AcDbDictionary
280
     1
281
     1
  3
ACAD_XREC_ROUNDTRIP
360
F9E7
  3
BUMPTILE
360
F978
  3
DIFFUSETILE
360
F977
  3
OPACITYTILE
360
F97B
  3
REFLECTIONTILE
360
F97A
  3
REFRACTIONTILE
360
F97C
  3
SPECULARTILE
360
F979
  0
DICTIONARY
  5
FA5B
330
F9AE
100
AcDbDictionary
280
     1
281
     1
  3
ACAD_XREC_ROUNDTRIP
360
FA5C
  0
DICTIONARY
  5
F9E1
330
F998
100
AcDbDictionary
280
     1
281
     1
  3
ACAD_ROUNDTRIP_2008_TABLESTYLE_CELLSTYLEMAP
360
FA27
  3
ACAD_XREC_ROUNDTRIP
360
FA5A
  0
DICTIONARY
  5
FA34
330
F983
100
AcDbDictionary
280
     1
281
     1
  3
ACAD_XREC_ROUNDTRIP
360
FA35
  0
DICTIONARY
  5
FA32
330
F982
100
AcDbDictionary
280
     1
281
     1
  3
ACAD_XREC_ROUNDTRIP
360
FA33
  0
DICTIONARY
  5
FA40
330
F989
100
AcDbDictionary
280
     1
281
     1
  3
ACAD_XREC_ROUNDTRIP
360
FA41
  0
DICTIONARY
  5
FA48
330
F98D
100
AcDbDictionary
280
     1
281
     1
  3
ACAD_XREC_ROUNDTRIP
360
FA49
  0
DICTIONARY
  5
FA3A
330
F986
100
AcDbDictionary
280
     1
281
     1
  3
ACAD_XREC_ROUNDTRIP
360
FA3B
  0
DICTIONARY
  5
FA3E
330
F988
100
AcDbDictionary
280
     1
281
     1
  3
ACAD_XREC_ROUNDTRIP
360
FA3F
  0
DICTIONARY
  5
FA58
330
F995
100
AcDbDictionary
280
     1
281
     1
  3
ACAD_XREC_ROUNDTRIP
360
FA59
  0
DICTIONARY
  5
FA46
330
F98C
100
AcDbDictionary
280
     1
281
     1
  3
ACAD_XREC_ROUNDTRIP
360
FA47
  0
DICTIONARY
  5
FA2A
330
F97E
100
AcDbDictionary
280
     1
281
     1
  3
ACAD_XREC_ROUNDTRIP
360
FA2B
  0
DICTIONARY
  5
FA2C
330
F97F
100
AcDbDictionary
280
     1
281
     1
  3
ACAD_XREC_ROUNDTRIP
360
FA2D
  0
DICTIONARY
  5
FA2E
330
F980
100
AcDbDictionary
280
     1
281
     1
  3
ACAD_XREC_ROUNDTRIP
360
FA2F
  0
DICTIONARY
  5
FA30
330
F981
100
AcDbDictionary
280
     1
281
     1
  3
ACAD_XREC_ROUNDTRIP
360
FA31
  0
DICTIONARY
  5
FA38
330
F985
100
AcDbDictionary
280
     1
281
     1
  3
ACAD_XREC_ROUNDTRIP
360
FA39
  0
DICTIONARY
  5
FA54
330
F993
100
AcDbDictionary
280
     1
281
     1
  3
ACAD_XREC_ROUNDTRIP
360
FA55
  0
DICTIONARY
  5
FA44
330
F98B
100
AcDbDictionary
280
     1
281
     1
  3
ACAD_XREC_ROUNDTRIP
360
FA45
  0
DICTIONARY
  5
FA56
330
F994
100
AcDbDictionary
280
     1
281
     1
  3
ACAD_XREC_ROUNDTRIP
360
FA57
  0
DICTIONARY
  5
FA3C
330
F987
100
AcDbDictionary
280
     1
281
     1
  3
ACAD_XREC_ROUNDTRIP
360
FA3D
  0
DICTIONARY
  5
FA52
330
F992
100
AcDbDictionary
280
     1
281
     1
  3
ACAD_XREC_ROUNDTRIP
360
FA53
  0
DICTIONARY
  5
FA50
330
F991
100
AcDbDictionary
280
     1
281
     1
  3
ACAD_XREC_ROUNDTRIP
360
FA51
  0
DICTIONARY
  5
FA4A
330
F98E
100
AcDbDictionary
280
     1
281
     1
  3
ACAD_XREC_ROUNDTRIP
360
FA4B
  0
DICTIONARY
  5
FA4C
330
F98F
100
AcDbDictionary
280
     1
281
     1
  3
ACAD_XREC_ROUNDTRIP
360
FA4D
  0
DICTIONARY
  5
FA42
330
F98A
100
AcDbDictionary
280
     1
281
     1
  3
ACAD_XREC_ROUNDTRIP
360
FA43
  0
DICTIONARY
  5
FA36
330
F984
100
AcDbDictionary
280
     1
281
     1
  3
ACAD_XREC_ROUNDTRIP
360
FA37
  0
DICTIONARY
  5
FA4E
330
F990
100
AcDbDictionary
280
     1
281
     1
  3
ACAD_XREC_ROUNDTRIP
360
FA4F
  0
XRECORD
  5
FA5E
102
{ACAD_REACTORS
330
FA5D
102
}
330
FA5D
100
AcDbXrecord
280
     1
102
DISPLAYNAME
  1
Imperial24
102
FLAGS
 90
        0
  0
XRECORD
  5
FA60
102
{ACAD_REACTORS
330
FA5F
102
}
330
FA5F
100
AcDbXrecord
280
     1
102
SHADEPLOT
 70
     0
102
SHADEPLOTRESLEVEL
 70
     2
102
SHADEPLOTCUSTOMDPI
 70
   300
  0
XRECORD
  5
FA62
102
{ACAD_REACTORS
330
FA61
102
}
330
FA61
100
AcDbXrecord
280
     1
102
SHADEPLOT
 70
     0
102
SHADEPLOTRESLEVEL
 70
     2
102
SHADEPLOTCUSTOMDPI
 70
   300
  0
XRECORD
  5
F9E6
102
{ACAD_REACTORS
330
F96E
102
}
330
F96E
100
AcDbXrecord
280
     1
102
MATERIAL
148
0.0
149
0.0
149
0.0
 93
        0
 94
      127
282
     0
 72
     0
 77
     0
171
     0
175
     0
179
     0
273
     0
  0
XRECORD
  5
F970
102
{ACAD_REACTORS
330
F96E
102
}
330
F96E
100
AcDbXrecord
280
     1
270
     1
271
     1
  0
XRECORD
  5
F96F
102
{ACAD_REACTORS
330
F96E
102
}
330
F96E
100
AcDbXrecord
280
     1
270
     1
271
     1
  0
XRECORD
  5
F973
102
{ACAD_REACTORS
330
F96E
102
}
330
F96E
100
AcDbXrecord
280
     1
270
     1
271
     1
  0
XRECORD
  5
F972
102
{ACAD_REACTORS
330
F96E
102
}
330
F96E
100
AcDbXrecord
280
     1
270
     1
271
     1
  0
XRECORD
  5
F974
102
{ACAD_REACTORS
330
F96E
102
}
330
F96E
100
AcDbXrecord
280
     1
270
     1
271
     1
  0
XRECORD
  5
F971
102
{ACAD_REACTORS
330
F96E
102
}
330
F96E
100
AcDbXrecord
280
     1
270
     1
271
     1
  0
XRECORD
  5
F9E5
102
{ACAD_REACTORS
330
F966
102
}
330
F966
100
AcDbXrecord
280
     1
102
MATERIAL
148
0.0
149
0.0
149
0.0
 93
        0
 94
      127
282
     0
 72
     0
 77
     0
171
     0
175
     0
179
     0
273
     0
  0
XRECORD
  5
F968
102
{ACAD_REACTORS
330
F966
102
}
330
F966
100
AcDbXrecord
280
     1
270
     1
271
     1
  0
XRECORD
  5
F967
102
{ACAD_REACTORS
330
F966
102
}
330
F966
100
AcDbXrecord
280
     1
270
     1
271
     1
  0
XRECORD
  5
F96B
102
{ACAD_REACTORS
330
F966
102
}
330
F966
100
AcDbXrecord
280
     1
270
     1
271
     1
  0
XRECORD
  5
F96A
102
{ACAD_REACTORS
330
F966
102
}
330
F966
100
AcDbXrecord
280
     1
270
     1
271
     1
  0
XRECORD
  5
F96C
102
{ACAD_REACTORS
330
F966
102
}
330
F966
100
AcDbXrecord
280
     1
270
     1
271
     1
  0
XRECORD
  5
F969
102
{ACAD_REACTORS
330
F966
102
}
330
F966
100
AcDbXrecord
280
     1
270
     1
271
     1
  0
XRECORD
  5
F9E7
102
{ACAD_REACTORS
330
F976
102
}
330
F976
100
AcDbXrecord
280
     1
102
MATERIAL
148
0.0
149
0.0
149
0.0
 93
        0
 94
      127
282
     0
 72
     0
 77
     0
171
     0
175
     0
179
     0
273
     0
  0
XRECORD
  5
F978
102
{ACAD_REACTORS
330
F976
102
}
330
F976
100
AcDbXrecord
280
     1
270
     1
271
     1
  0
XRECORD
  5
F977
102
{ACAD_REACTORS
330
F976
102
}
330
F976
100
AcDbXrecord
280
     1
270
     1
271
     1
  0
XRECORD
  5
F97B
102
{ACAD_REACTORS
330
F976
102
}
330
F976
100
AcDbXrecord
280
     1
270
     1
271
     1
  0
XRECORD
  5
F97A
102
{ACAD_REACTORS
330
F976
102
}
330
F976
100
AcDbXrecord
280
     1
270
     1
271
     1
  0
XRECORD
  5
F97C
102
{ACAD_REACTORS
330
F976
102
}
330
F976
100
AcDbXrecord
280
     1
270
     1
271
     1
  0
XRECORD
  5
F979
102
{ACAD_REACTORS
330
F976
102
}
330
F976
100
AcDbXrecord
280
     1
270
     1
271
     1
  0
XRECORD
  5
FA5C
102
{ACAD_REACTORS
330
FA5B
102
}
330
FA5B
100
AcDbXrecord
280
     1
102
DISPLAYNAME
  1
Imperial24
102
FLAGS
 90
        0
  0
CELLSTYLEMAP
  5
FA27
102
{ACAD_REACTORS
330
F9E1
102
}
330
F9E1
100
AcDbCellStyleMap
 90
        3
300
CELLSTYLE
  1
TABLEFORMAT_BEGIN
 90
        5
170
     1
 91
        0
 92
    32768
 62
   257
 93
        1
300
CONTENTFORMAT
  1
CONTENTFORMAT_BEGIN
 90
        0
 91
        0
 92
      512
 93
        0
300

 40
0.0
140
1.0
 94
        5
 62
     0
340
F776
144
0.25
309
CONTENTFORMAT_END
171
     1
301
MARGIN
  1
CELLMARGIN_BEGIN
 40
0.06
 40
0.06
 40
0.06
 40
0.06
 40
0.18
 40
0.18
309
CELLMARGIN_END
 94
        6
 95
        1
302
GRIDFORMAT
  1
GRIDFORMAT_BEGIN
 90
        0
 91
        1
 62
     0
 92
       -2
340
0
 93
        0
 40
0.045
309
GRIDFORMAT_END
 95
        2
302
GRIDFORMAT
  1
GRIDFORMAT_BEGIN
 90
        0
 91
        1
 62
     0
 92
       -2
340
0
 93
        0
 40
0.045
309
GRIDFORMAT_END
 95
        4
302
GRIDFORMAT
  1
GRIDFORMAT_BEGIN
 90
        0
 91
        1
 62
     0
 92
       -2
340
0
 93
        0
 40
0.045
309
GRIDFORMAT_END
 95
        8
302
GRIDFORMAT
  1
GRIDFORMAT_BEGIN
 90
        0
 91
        1
 62
     0
 92
       -2
340
0
 93
        0
 40
0.045
309
GRIDFORMAT_END
 95
       16
302
GRIDFORMAT
  1
GRIDFORMAT_BEGIN
 90
        0
 91
        1
 62
     0
 92
       -2
340
0
 93
        0
 40
0.045
309
GRIDFORMAT_END
 95
       32
302
GRIDFORMAT
  1
GRIDFORMAT_BEGIN
 90
        0
 91
        1
 62
     0
 92
       -2
340
0
 93
        0
 40
0.045
309
GRIDFORMAT_END
309
TABLEFORMAT_END
  1
CELLSTYLE_BEGIN
 90
        1
 91
        1
300
_TITLE
309
CELLSTYLE_END
300
CELLSTYLE
  1
TABLEFORMAT_BEGIN
 90
        5
170
     1
 91
        0
 92
        0
 62
   257
 93
        1
300
CONTENTFORMAT
  1
CONTENTFORMAT_BEGIN
 90
        0
 91
        0
 92
      512
 93
        0
300

 40
0.0
140
1.0
 94
        5
 62
     0
340
F776
144
0.18
309
CONTENTFORMAT_END
171
     1
301
MARGIN
  1
CELLMARGIN_BEGIN
 40
0.06
 40
0.06
 40
0.06
 40
0.06
 40
0.18
 40
0.18
309
CELLMARGIN_END
 94
        6
 95
        1
302
GRIDFORMAT
  1
GRIDFORMAT_BEGIN
 90
        0
 91
        1
 62
     0
 92
       -2
340
0
 93
        0
 40
0.045
309
GRIDFORMAT_END
 95
        2
302
GRIDFORMAT
  1
GRIDFORMAT_BEGIN
 90
        0
 91
        1
 62
     0
 92
       -2
340
0
 93
        0
 40
0.045
309
GRIDFORMAT_END
 95
        4
302
GRIDFORMAT
  1
GRIDFORMAT_BEGIN
 90
        0
 91
        1
 62
     0
 92
       -2
340
0
 93
        0
 40
0.045
309
GRIDFORMAT_END
 95
        8
302
GRIDFORMAT
  1
GRIDFORMAT_BEGIN
 90
        0
 91
        1
 62
     0
 92
       -2
340
0
 93
        0
 40
0.045
309
GRIDFORMAT_END
 95
       16
302
GRIDFORMAT
  1
GRIDFORMAT_BEGIN
 90
        0
 91
        1
 62
     0
 92
       -2
340
0
 93
        0
 40
0.045
309
GRIDFORMAT_END
 95
       32
302
GRIDFORMAT
  1
GRIDFORMAT_BEGIN
 90
        0
 91
        1
 62
     0
 92
       -2
340
0
 93
        0
 40
0.045
309
GRIDFORMAT_END
309
TABLEFORMAT_END
  1
CELLSTYLE_BEGIN
 90
        2
 91
        1
300
_HEADER
309
CELLSTYLE_END
300
CELLSTYLE
  1
TABLEFORMAT_BEGIN
 90
        5
170
     1
 91
        0
 92
        0
 62
   257
 93
        1
300
CONTENTFORMAT
  1
CONTENTFORMAT_BEGIN
 90
        0
 91
        0
 92
      512
 93
        0
300

 40
0.0
140
1.0
 94
        2
 62
     0
340
F776
144
0.18
309
CONTENTFORMAT_END
171
     1
301
MARGIN
  1
CELLMARGIN_BEGIN
 40
0.06
 40
0.06
 40
0.06
 40
0.06
 40
0.18
 40
0.18
309
CELLMARGIN_END
 94
        6
 95
        1
302
GRIDFORMAT
  1
GRIDFORMAT_BEGIN
 90
        0
 91
        1
 62
     0
 92
       -2
340
0
 93
        0
 40
0.045
309
GRIDFORMAT_END
 95
        2
302
GRIDFORMAT
  1
GRIDFORMAT_BEGIN
 90
        0
 91
        1
 62
     0
 92
       -2
340
0
 93
        0
 40
0.045
309
GRIDFORMAT_END
 95
        4
302
GRIDFORMAT
  1
GRIDFORMAT_BEGIN
 90
        0
 91
        1
 62
     0
 92
       -2
340
0
 93
        0
 40
0.045
309
GRIDFORMAT_END
 95
        8
302
GRIDFORMAT
  1
GRIDFORMAT_BEGIN
 90
        0
 91
        1
 62
     0
 92
       -2
340
0
 93
        0
 40
0.045
309
GRIDFORMAT_END
 95
       16
302
GRIDFORMAT
  1
GRIDFORMAT_BEGIN
 90
        0
 91
        1
 62
     0
 92
       -2
340
0
 93
        0
 40
0.045
309
GRIDFORMAT_END
 95
       32
302
GRIDFORMAT
  1
GRIDFORMAT_BEGIN
 90
        0
 91
        1
 62
     0
 92
       -2
340
0
 93
        0
 40
0.045
309
GRIDFORMAT_END
309
TABLEFORMAT_END
  1
CELLSTYLE_BEGIN
 90
        3
 91
        2
300
_DATA
309
CELLSTYLE_END
  0
XRECORD
  5
FA5A
102
{ACAD_REACTORS
330
F9E1
102
}
330
F9E1
100
AcDbXrecord
280
     1
102
ACAD_ROUNDTRIP_PRE2007_TABLESTYLE
 90
      512
 91
        0
  1

 92
      512
 93
        0
  2

 94
      512
 95
        0
  3

  0
XRECORD
  5
FA35
102
{ACAD_REACTORS
330
FA34
102
}
330
FA34
100
AcDbXrecord
280
     1
102
RTVSPost2010Prop28
280
     1
102
RTVSPost2010PropOp28
 70
     1
102
RTVSPost2010Prop29
280
     1
102
RTVSPost2010PropOp29
 70
     1
102
RTVSPost2010Prop30
280
     0
102
RTVSPost2010PropOp30
 70
     1
102
RTVSPost2010Prop31
280
     0
102
RTVSPost2010PropOp31
 70
     1
102
RTVSPost2010Prop32
280
     0
102
RTVSPost2010PropOp32
 70
     1
102
RTVSPost2010Prop33
280
     0
102
RTVSPost2010PropOp33
 70
     1
102
RTVSPost2010Prop34
280
     0
102
RTVSPost2010PropOp34
 70
     1
102
RTVSPost2010Prop35
280
     0
102
RTVSPost2010PropOp35
 70
     1
102
RTVSPost2010Prop36
280
     0
102
RTVSPost2010PropOp36
 70
     1
102
RTVSPost2010Prop37
 90
       50
102
RTVSPost2010PropOp37
 70
     1
102
RTVSPost2010Prop38
140
0.0
102
RTVSPost2010PropOp38
 70
     1
102
RTVSPost2010Prop39
140
1.0
102
RTVSPost2010PropOp39
 70
     1
102
RTVSPost2010Prop40
 90
        0
102
RTVSPost2010PropOp40
 70
     1
102
RTVSPost2010Prop41ColorIndex
 90
       18
102
RTVSPost2010Prop41ColorRGB
 90
        0
102
RTVSPost2010PropOp41
 70
     1
102
RTVSPost2010Prop42
 90
       50
102
RTVSPost2010PropOp42
 70
     1
102
RTVSPost2010Prop43
 90
        3
102
RTVSPost2010PropOp43
 70
     1
102
RTVSPost2010Prop44ColorIndex
 90
        5
102
RTVSPost2010Prop44ColorRGB
 90
      255
102
RTVSPost2010PropOp44
 70
     1
102
RTVSPost2010Prop45
280
     0
102
RTVSPost2010PropOp45
 70
     1
102
RTVSPost2010Prop46
 90
       50
102
RTVSPost2010PropOp46
 70
     1
102
RTVSPost2010Prop47
 90
       50
102
RTVSPost2010PropOp47
 70
     1
102
RTVSPost2010Prop48
 90
       50
102
RTVSPost2010PropOp48
 70
     1
102
RTVSPost2010Prop49
280
     0
102
RTVSPost2010PropOp49
 70
     1
102
RTVSPost2010Prop50
 90
       50
102
RTVSPost2010PropOp50
 70
     1
102
RTVSPost2010Prop51ColorIndex
 90
      256
102
RTVSPost2010Prop51ColorRGB
 90
-16777216
102
RTVSPost2010PropOp51
 70
     0
102
RTVSPost2010Prop52
140
1.0
102
RTVSPost2010PropOp52
 70
     0
102
RTVSPost2010Prop53
 90
        2
102
RTVSPost2010PropOp53
 70
     1
102
RTVSPost2010Prop54
  1
strokes_ogs.tif
102
RTVSPost2010PropOp54
 70
     1
102
RTVSPost2010Prop55
280
     0
102
RTVSPost2010PropOp55
 70
     1
102
RTVSPost2010Prop56
140
1.0
102
RTVSPost2010PropOp56
 70
     1
102
RTVSPost2010Prop57
140
1.0
102
RTVSPost2010PropOp57
 70
     1
102
RTVSPropertyOp0
 70
     1
102
RTVSPropertyOp1
 70
     1
102
RTVSPropertyOp2
 70
     1
102
RTVSPropertyOp3
 70
     1
102
RTVSPropertyOp4
 70
     1
102
RTVSPropertyOp5
 70
     1
102
RTVSPropertyOp6
 70
     1
102
RTVSPropertyOp7
 70
     1
102
RTVSPropertyOp8
 70
     1
102
RTVSPropertyOp9
 70
     1
102
RTVSPropertyOp10
 70
     1
102
RTVSPropertyOp11
 70
     1
102
RTVSPropertyOp12
 70
     1
102
RTVSPropertyOp13
 70
     1
102
RTVSPropertyOp14
 70
     1
102
RTVSPropertyOp15
 70
     1
102
RTVSPropertyOp16
 70
     1
102
RTVSPropertyOp17
 70
     1
102
RTVSPropertyOp18
 70
     1
102
RTVSPropertyOp19
 70
     1
102
RTVSPropertyOp20
 70
     1
102
RTVSPropertyOp21
 70
     1
102
RTVSPropertyOp22
 70
     1
102
RTVSPropertyOp23
 70
     1
102
RTVSPropertyOp24
 70
     1
102
RTVSPropertyOp25
 70
     1
102
RTVSPropertyOp26
 70
     1
102
RTVSPropertyOp27
 70
     1
102
RTVSPropertyOp28
 70
     1
102
RTVSPropertyOp29
 70
     1
102
RTVSPropertyOp30
 70
     1
102
RTVSPropertyOp31
 70
     1
102
RTVSPropertyOp32
 70
     1
102
RTVSPropertyOp33
 70
     1
102
RTVSPropertyOp34
 70
     1
102
RTVSPropertyOp35
 70
     1
102
RTVSPropertyOp36
 70
     1
102
RTVSPropertyOp37
 70
     1
102
RTVSPropertyOp38
 70
     1
102
RTVSPropertyOp39
 70
     1
102
RTVSPropertyOp40
 70
     1
102
RTVSPropertyOp41
 70
     1
102
RTVSPropertyOp42
 70
     1
102
RTVSPropertyOp43
 70
     1
102
RTVSPropertyOp44
 70
     1
102
RTVSPropertyOp45
 70
     1
102
RTVSPropertyOp46
 70
     1
102
RTVSPropertyOp47
 70
     1
102
RTVSPropertyOp48
 70
     1
102
RTVSPropertyOp49
 70
     1
102
RTVSPropertyOp50
 70
     1
102
RTVSPropertyOp51
 70
     0
102
RTVSPropertyOp52
 70
     0
102
RTVSPropertyOp53
 70
     1
102
RTVSPropertyOp54
 70
     1
102
RTVSPropertyOp55
 70
     1
102
RTVSPropertyOp56
 70
     1
102
RTVSPropertyOp57
 70
     1
102
RTVSPropertyOp58
 70
     1
102
RTVSPropertyOp59
 70
     1
102
RTVSPropertyOp60
 70
     1
102
RTVSPropertyOp61
 70
     1
102
RTVSPropertyOp62
 70
     1
  0
XRECORD
  5
FA33
102
{ACAD_REACTORS
330
FA32
102
}
330
FA32
100
AcDbXrecord
280
     1
102
RTVSPost2010Prop28
280
     0
102
RTVSPost2010PropOp28
 70
     1
102
RTVSPost2010Prop29
280
     1
102
RTVSPost2010PropOp29
 70
     1
102
RTVSPost2010Prop30
280
     1
102
RTVSPost2010PropOp30
 70
     1
102
RTVSPost2010Prop31
280
     0
102
RTVSPost2010PropOp31
 70
     1
102
RTVSPost2010Prop32
280
     0
102
RTVSPost2010PropOp32
 70
     1
102
RTVSPost2010Prop33
280
     0
102
RTVSPost2010PropOp33
 70
     1
102
RTVSPost2010Prop34
280
     0
102
RTVSPost2010PropOp34
 70
     1
102
RTVSPost2010Prop35
280
     0
102
RTVSPost2010PropOp35
 70
     1
102
RTVSPost2010Prop36
280
     0
102
RTVSPost2010PropOp36
 70
     1
102
RTVSPost2010Prop37
 90
       50
102
RTVSPost2010PropOp37
 70
     1
102
RTVSPost2010Prop38
140
0.0
102
RTVSPost2010PropOp38
 70
     1
102
RTVSPost2010Prop39
140
1.0
102
RTVSPost2010PropOp39
 70
     1
102
RTVSPost2010Prop40
 90
        0
102
RTVSPost2010PropOp40
 70
     1
102
RTVSPost2010Prop41ColorIndex
 90
       18
102
RTVSPost2010Prop41ColorRGB
 90
        0
102
RTVSPost2010PropOp41
 70
     1
102
RTVSPost2010Prop42
 90
       50
102
RTVSPost2010PropOp42
 70
     1
102
RTVSPost2010Prop43
 90
        3
102
RTVSPost2010PropOp43
 70
     1
102
RTVSPost2010Prop44ColorIndex
 90
        5
102
RTVSPost2010Prop44ColorRGB
 90
      255
102
RTVSPost2010PropOp44
 70
     1
102
RTVSPost2010Prop45
280
     0
102
RTVSPost2010PropOp45
 70
     1
102
RTVSPost2010Prop46
 90
       50
102
RTVSPost2010PropOp46
 70
     1
102
RTVSPost2010Prop47
 90
       50
102
RTVSPost2010PropOp47
 70
     1
102
RTVSPost2010Prop48
 90
       50
102
RTVSPost2010PropOp48
 70
     1
102
RTVSPost2010Prop49
280
     0
102
RTVSPost2010PropOp49
 70
     1
102
RTVSPost2010Prop50
 90
       50
102
RTVSPost2010PropOp50
 70
     1
102
RTVSPost2010Prop51ColorIndex
 90
      256
102
RTVSPost2010Prop51ColorRGB
 90
-16777216
102
RTVSPost2010PropOp51
 70
     0
102
RTVSPost2010Prop52
140
1.0
102
RTVSPost2010PropOp52
 70
     0
102
RTVSPost2010Prop53
 90
        2
102
RTVSPost2010PropOp53
 70
     1
102
RTVSPost2010Prop54
  1
strokes_ogs.tif
102
RTVSPost2010PropOp54
 70
     1
102
RTVSPost2010Prop55
280
     0
102
RTVSPost2010PropOp55
 70
     1
102
RTVSPost2010Prop56
140
1.0
102
RTVSPost2010PropOp56
 70
     1
102
RTVSPost2010Prop57
140
1.0
102
RTVSPost2010PropOp57
 70
     1
102
RTVSPropertyOp0
 70
     1
102
RTVSPropertyOp1
 70
     1
102
RTVSPropertyOp2
 70
     1
102
RTVSPropertyOp3
 70
     1
102
RTVSPropertyOp4
 70
     1
102
RTVSPropertyOp5
 70
     1
102
RTVSPropertyOp6
 70
     1
102
RTVSPropertyOp7
 70
     1
102
RTVSPropertyOp8
 70
     1
102
RTVSPropertyOp9
 70
     1
102
RTVSPropertyOp10
 70
     1
102
RTVSPropertyOp11
 70
     1
102
RTVSPropertyOp12
 70
     1
102
RTVSPropertyOp13
 70
     1
102
RTVSPropertyOp14
 70
     1
102
RTVSPropertyOp15
 70
     1
102
RTVSPropertyOp16
 70
     1
102
RTVSPropertyOp17
 70
     1
102
RTVSPropertyOp18
 70
     1
102
RTVSPropertyOp19
 70
     1
102
RTVSPropertyOp20
 70
     1
102
RTVSPropertyOp21
 70
     1
102
RTVSPropertyOp22
 70
     1
102
RTVSPropertyOp23
 70
     1
102
RTVSPropertyOp24
 70
     1
102
RTVSPropertyOp25
 70
     1
102
RTVSPropertyOp26
 70
     1
102
RTVSPropertyOp27
 70
     1
102
RTVSPropertyOp28
 70
     1
102
RTVSPropertyOp29
 70
     1
102
RTVSPropertyOp30
 70
     1
102
RTVSPropertyOp31
 70
     1
102
RTVSPropertyOp32
 70
     1
102
RTVSPropertyOp33
 70
     1
102
RTVSPropertyOp34
 70
     1
102
RTVSPropertyOp35
 70
     1
102
RTVSPropertyOp36
 70
     1
102
RTVSPropertyOp37
 70
     1
102
RTVSPropertyOp38
 70
     1
102
RTVSPropertyOp39
 70
     1
102
RTVSPropertyOp40
 70
     1
102
RTVSPropertyOp41
 70
     1
102
RTVSPropertyOp42
 70
     1
102
RTVSPropertyOp43
 70
     1
102
RTVSPropertyOp44
 70
     1
102
RTVSPropertyOp45
 70
     1
102
RTVSPropertyOp46
 70
     1
102
RTVSPropertyOp47
 70
     1
102
RTVSPropertyOp48
 70
     1
102
RTVSPropertyOp49
 70
     1
102
RTVSPropertyOp50
 70
     1
102
RTVSPropertyOp51
 70
     0
102
RTVSPropertyOp52
 70
     0
102
RTVSPropertyOp53
 70
     1
102
RTVSPropertyOp54
 70
     1
102
RTVSPropertyOp55
 70
     1
102
RTVSPropertyOp56
 70
     1
102
RTVSPropertyOp57
 70
     1
102
RTVSPropertyOp58
 70
     1
102
RTVSPropertyOp59
 70
     1
102
RTVSPropertyOp60
 70
     1
102
RTVSPropertyOp61
 70
     1
102
RTVSPropertyOp62
 70
     1
  0
XRECORD
  5
FA41
102
{ACAD_REACTORS
330
FA40
102
}
330
FA40
100
AcDbXrecord
280
     1
102
RTVSPost2010Prop28
280
     0
102
RTVSPost2010PropOp28
 70
     1
102
RTVSPost2010Prop29
280
     1
102
RTVSPost2010PropOp29
 70
     1
102
RTVSPost2010Prop30
280
     1
102
RTVSPost2010PropOp30
 70
     1
102
RTVSPost2010Prop31
280
     0
102
RTVSPost2010PropOp31
 70
     1
102
RTVSPost2010Prop32
280
     0
102
RTVSPost2010PropOp32
 70
     1
102
RTVSPost2010Prop33
280
     0
102
RTVSPost2010PropOp33
 70
     1
102
RTVSPost2010Prop34
280
     0
102
RTVSPost2010PropOp34
 70
     1
102
RTVSPost2010Prop35
280
     0
102
RTVSPost2010PropOp35
 70
     1
102
RTVSPost2010Prop36
280
     0
102
RTVSPost2010PropOp36
 70
     1
102
RTVSPost2010Prop37
 90
       50
102
RTVSPost2010PropOp37
 70
     1
102
RTVSPost2010Prop38
140
0.0
102
RTVSPost2010PropOp38
 70
     1
102
RTVSPost2010Prop39
140
1.0
102
RTVSPost2010PropOp39
 70
     1
102
RTVSPost2010Prop40
 90
        0
102
RTVSPost2010PropOp40
 70
     1
102
RTVSPost2010Prop41ColorIndex
 90
       18
102
RTVSPost2010Prop41ColorRGB
 90
        0
102
RTVSPost2010PropOp41
 70
     1
102
RTVSPost2010Prop42
 90
       50
102
RTVSPost2010PropOp42
 70
     1
102
RTVSPost2010Prop43
 90
        3
102
RTVSPost2010PropOp43
 70
     1
102
RTVSPost2010Prop44ColorIndex
 90
        5
102
RTVSPost2010Prop44ColorRGB
 90
      255
102
RTVSPost2010PropOp44
 70
     1
102
RTVSPost2010Prop45
280
     0
102
RTVSPost2010PropOp45
 70
     1
102
RTVSPost2010Prop46
 90
       50
102
RTVSPost2010PropOp46
 70
     1
102
RTVSPost2010Prop47
 90
       50
102
RTVSPost2010PropOp47
 70
     1
102
RTVSPost2010Prop48
 90
       50
102
RTVSPost2010PropOp48
 70
     1
102
RTVSPost2010Prop49
280
     0
102
RTVSPost2010PropOp49
 70
     1
102
RTVSPost2010Prop50
 90
       50
102
RTVSPost2010PropOp50
 70
     1
102
RTVSPost2010Prop51ColorIndex
 90
      256
102
RTVSPost2010Prop51ColorRGB
 90
-16777216
102
RTVSPost2010PropOp51
 70
     0
102
RTVSPost2010Prop52
140
1.0
102
RTVSPost2010PropOp52
 70
     0
102
RTVSPost2010Prop53
 90
        2
102
RTVSPost2010PropOp53
 70
     1
102
RTVSPost2010Prop54
  1
strokes_ogs.tif
102
RTVSPost2010PropOp54
 70
     1
102
RTVSPost2010Prop55
280
     0
102
RTVSPost2010PropOp55
 70
     1
102
RTVSPost2010Prop56
140
1.0
102
RTVSPost2010PropOp56
 70
     1
102
RTVSPost2010Prop57
140
1.0
102
RTVSPost2010PropOp57
 70
     1
102
RTVSPropertyOp0
 70
     1
102
RTVSPropertyOp1
 70
     1
102
RTVSPropertyOp2
 70
     1
102
RTVSPropertyOp3
 70
     1
102
RTVSPropertyOp4
 70
     1
102
RTVSPropertyOp5
 70
     1
102
RTVSPropertyOp6
 70
     1
102
RTVSPropertyOp7
 70
     1
102
RTVSPropertyOp8
 70
     1
102
RTVSPropertyOp9
 70
     1
102
RTVSPropertyOp10
 70
     1
102
RTVSPropertyOp11
 70
     1
102
RTVSPropertyOp12
 70
     1
102
RTVSPropertyOp13
 70
     1
102
RTVSPropertyOp14
 70
     1
102
RTVSPropertyOp15
 70
     1
102
RTVSPropertyOp16
 70
     1
102
RTVSPropertyOp17
 70
     1
102
RTVSPropertyOp18
 70
     1
102
RTVSPropertyOp19
 70
     1
102
RTVSPropertyOp20
 70
     1
102
RTVSPropertyOp21
 70
     1
102
RTVSPropertyOp22
 70
     1
102
RTVSPropertyOp23
 70
     1
102
RTVSPropertyOp24
 70
     1
102
RTVSPropertyOp25
 70
     1
102
RTVSPropertyOp26
 70
     1
102
RTVSPropertyOp27
 70
     1
102
RTVSPropertyOp28
 70
     1
102
RTVSPropertyOp29
 70
     1
102
RTVSPropertyOp30
 70
     1
102
RTVSPropertyOp31
 70
     1
102
RTVSPropertyOp32
 70
     1
102
RTVSPropertyOp33
 70
     1
102
RTVSPropertyOp34
 70
     1
102
RTVSPropertyOp35
 70
     1
102
RTVSPropertyOp36
 70
     1
102
RTVSPropertyOp37
 70
     1
102
RTVSPropertyOp38
 70
     1
102
RTVSPropertyOp39
 70
     1
102
RTVSPropertyOp40
 70
     1
102
RTVSPropertyOp41
 70
     1
102
RTVSPropertyOp42
 70
     1
102
RTVSPropertyOp43
 70
     1
102
RTVSPropertyOp44
 70
     1
102
RTVSPropertyOp45
 70
     1
102
RTVSPropertyOp46
 70
     1
102
RTVSPropertyOp47
 70
     1
102
RTVSPropertyOp48
 70
     1
102
RTVSPropertyOp49
 70
     1
102
RTVSPropertyOp50
 70
     1
102
RTVSPropertyOp51
 70
     0
102
RTVSPropertyOp52
 70
     0
102
RTVSPropertyOp53
 70
     1
102
RTVSPropertyOp54
 70
     1
102
RTVSPropertyOp55
 70
     1
102
RTVSPropertyOp56
 70
     1
102
RTVSPropertyOp57
 70
     1
102
RTVSPropertyOp58
 70
     1
102
RTVSPropertyOp59
 70
     1
102
RTVSPropertyOp60
 70
     1
102
RTVSPropertyOp61
 70
     1
102
RTVSPropertyOp62
 70
     1
  0
XRECORD
  5
FA49
102
{ACAD_REACTORS
330
FA48
102
}
330
FA48
100
AcDbXrecord
280
     1
102
RTVSPost2010Prop28
280
     0
102
RTVSPost2010PropOp28
 70
     1
102
RTVSPost2010Prop29
280
     1
102
RTVSPost2010PropOp29
 70
     1
102
RTVSPost2010Prop30
280
     1
102
RTVSPost2010PropOp30
 70
     1
102
RTVSPost2010Prop31
280
     0
102
RTVSPost2010PropOp31
 70
     1
102
RTVSPost2010Prop32
280
     0
102
RTVSPost2010PropOp32
 70
     1
102
RTVSPost2010Prop33
280
     0
102
RTVSPost2010PropOp33
 70
     1
102
RTVSPost2010Prop34
280
     0
102
RTVSPost2010PropOp34
 70
     1
102
RTVSPost2010Prop35
280
     0
102
RTVSPost2010PropOp35
 70
     1
102
RTVSPost2010Prop36
280
     0
102
RTVSPost2010PropOp36
 70
     1
102
RTVSPost2010Prop37
 90
       50
102
RTVSPost2010PropOp37
 70
     1
102
RTVSPost2010Prop38
140
0.0
102
RTVSPost2010PropOp38
 70
     1
102
RTVSPost2010Prop39
140
1.0
102
RTVSPost2010PropOp39
 70
     1
102
RTVSPost2010Prop40
 90
        0
102
RTVSPost2010PropOp40
 70
     1
102
RTVSPost2010Prop41ColorIndex
 90
       18
102
RTVSPost2010Prop41ColorRGB
 90
        0
102
RTVSPost2010PropOp41
 70
     1
102
RTVSPost2010Prop42
 90
       50
102
RTVSPost2010PropOp42
 70
     1
102
RTVSPost2010Prop43
 90
        3
102
RTVSPost2010PropOp43
 70
     1
102
RTVSPost2010Prop44ColorIndex
 90
        5
102
RTVSPost2010Prop44ColorRGB
 90
      255
102
RTVSPost2010PropOp44
 70
     1
102
RTVSPost2010Prop45
280
     0
102
RTVSPost2010PropOp45
 70
     1
102
RTVSPost2010Prop46
 90
       50
102
RTVSPost2010PropOp46
 70
     1
102
RTVSPost2010Prop47
 90
       50
102
RTVSPost2010PropOp47
 70
     1
102
RTVSPost2010Prop48
 90
       50
102
RTVSPost2010PropOp48
 70
     1
102
RTVSPost2010Prop49
280
     0
102
RTVSPost2010PropOp49
 70
     1
102
RTVSPost2010Prop50
 90
       50
102
RTVSPost2010PropOp50
 70
     1
102
RTVSPost2010Prop51ColorIndex
 90
      256
102
RTVSPost2010Prop51ColorRGB
 90
-16777216
102
RTVSPost2010PropOp51
 70
     0
102
RTVSPost2010Prop52
140
1.0
102
RTVSPost2010PropOp52
 70
     0
102
RTVSPost2010Prop53
 90
        2
102
RTVSPost2010PropOp53
 70
     1
102
RTVSPost2010Prop54
  1
strokes_ogs.tif
102
RTVSPost2010PropOp54
 70
     1
102
RTVSPost2010Prop55
280
     0
102
RTVSPost2010PropOp55
 70
     1
102
RTVSPost2010Prop56
140
1.0
102
RTVSPost2010PropOp56
 70
     1
102
RTVSPost2010Prop57
140
1.0
102
RTVSPost2010PropOp57
 70
     1
102
RTVSPropertyOp0
 70
     1
102
RTVSPropertyOp1
 70
     1
102
RTVSPropertyOp2
 70
     1
102
RTVSPropertyOp3
 70
     1
102
RTVSPropertyOp4
 70
     1
102
RTVSPropertyOp5
 70
     1
102
RTVSPropertyOp6
 70
     1
102
RTVSPropertyOp7
 70
     1
102
RTVSPropertyOp8
 70
     1
102
RTVSPropertyOp9
 70
     1
102
RTVSPropertyOp10
 70
     1
102
RTVSPropertyOp11
 70
     1
102
RTVSPropertyOp12
 70
     1
102
RTVSPropertyOp13
 70
     1
102
RTVSPropertyOp14
 70
     1
102
RTVSPropertyOp15
 70
     1
102
RTVSPropertyOp16
 70
     1
102
RTVSPropertyOp17
 70
     1
102
RTVSPropertyOp18
 70
     1
102
RTVSPropertyOp19
 70
     1
102
RTVSPropertyOp20
 70
     1
102
RTVSPropertyOp21
 70
     1
102
RTVSPropertyOp22
 70
     1
102
RTVSPropertyOp23
 70
     1
102
RTVSPropertyOp24
 70
     1
102
RTVSPropertyOp25
 70
     1
102
RTVSPropertyOp26
 70
     1
102
RTVSPropertyOp27
 70
     1
102
RTVSPropertyOp28
 70
     1
102
RTVSPropertyOp29
 70
     1
102
RTVSPropertyOp30
 70
     1
102
RTVSPropertyOp31
 70
     1
102
RTVSPropertyOp32
 70
     1
102
RTVSPropertyOp33
 70
     1
102
RTVSPropertyOp34
 70
     1
102
RTVSPropertyOp35
 70
     1
102
RTVSPropertyOp36
 70
     1
102
RTVSPropertyOp37
 70
     1
102
RTVSPropertyOp38
 70
     1
102
RTVSPropertyOp39
 70
     1
102
RTVSPropertyOp40
 70
     1
102
RTVSPropertyOp41
 70
     1
102
RTVSPropertyOp42
 70
     1
102
RTVSPropertyOp43
 70
     1
102
RTVSPropertyOp44
 70
     1
102
RTVSPropertyOp45
 70
     1
102
RTVSPropertyOp46
 70
     1
102
RTVSPropertyOp47
 70
     1
102
RTVSPropertyOp48
 70
     1
102
RTVSPropertyOp49
 70
     1
102
RTVSPropertyOp50
 70
     1
102
RTVSPropertyOp51
 70
     0
102
RTVSPropertyOp52
 70
     0
102
RTVSPropertyOp53
 70
     1
102
RTVSPropertyOp54
 70
     1
102
RTVSPropertyOp55
 70
     1
102
RTVSPropertyOp56
 70
     1
102
RTVSPropertyOp57
 70
     1
102
RTVSPropertyOp58
 70
     1
102
RTVSPropertyOp59
 70
     1
102
RTVSPropertyOp60
 70
     1
102
RTVSPropertyOp61
 70
     1
102
RTVSPropertyOp62
 70
     1
  0
XRECORD
  5
FA3B
102
{ACAD_REACTORS
330
FA3A
102
}
330
FA3A
100
AcDbXrecord
280
     1
102
RTVSPost2010Prop28
280
     0
102
RTVSPost2010PropOp28
 70
     1
102
RTVSPost2010Prop29
280
     1
102
RTVSPost2010PropOp29
 70
     1
102
RTVSPost2010Prop30
280
     1
102
RTVSPost2010PropOp30
 70
     1
102
RTVSPost2010Prop31
280
     0
102
RTVSPost2010PropOp31
 70
     1
102
RTVSPost2010Prop32
280
     0
102
RTVSPost2010PropOp32
 70
     1
102
RTVSPost2010Prop33
280
     0
102
RTVSPost2010PropOp33
 70
     1
102
RTVSPost2010Prop34
280
     0
102
RTVSPost2010PropOp34
 70
     1
102
RTVSPost2010Prop35
280
     0
102
RTVSPost2010PropOp35
 70
     1
102
RTVSPost2010Prop36
280
     0
102
RTVSPost2010PropOp36
 70
     1
102
RTVSPost2010Prop37
 90
       50
102
RTVSPost2010PropOp37
 70
     1
102
RTVSPost2010Prop38
140
0.0
102
RTVSPost2010PropOp38
 70
     1
102
RTVSPost2010Prop39
140
1.0
102
RTVSPost2010PropOp39
 70
     1
102
RTVSPost2010Prop40
 90
        0
102
RTVSPost2010PropOp40
 70
     1
102
RTVSPost2010Prop41ColorIndex
 90
       18
102
RTVSPost2010Prop41ColorRGB
 90
        0
102
RTVSPost2010PropOp41
 70
     1
102
RTVSPost2010Prop42
 90
       50
102
RTVSPost2010PropOp42
 70
     1
102
RTVSPost2010Prop43
 90
        3
102
RTVSPost2010PropOp43
 70
     1
102
RTVSPost2010Prop44ColorIndex
 90
        5
102
RTVSPost2010Prop44ColorRGB
 90
      255
102
RTVSPost2010PropOp44
 70
     1
102
RTVSPost2010Prop45
280
     0
102
RTVSPost2010PropOp45
 70
     1
102
RTVSPost2010Prop46
 90
       50
102
RTVSPost2010PropOp46
 70
     1
102
RTVSPost2010Prop47
 90
       50
102
RTVSPost2010PropOp47
 70
     1
102
RTVSPost2010Prop48
 90
       50
102
RTVSPost2010PropOp48
 70
     1
102
RTVSPost2010Prop49
280
     0
102
RTVSPost2010PropOp49
 70
     1
102
RTVSPost2010Prop50
 90
       50
102
RTVSPost2010PropOp50
 70
     1
102
RTVSPost2010Prop51ColorIndex
 90
      256
102
RTVSPost2010Prop51ColorRGB
 90
-16777216
102
RTVSPost2010PropOp51
 70
     0
102
RTVSPost2010Prop52
140
1.0
102
RTVSPost2010PropOp52
 70
     0
102
RTVSPost2010Prop53
 90
        2
102
RTVSPost2010PropOp53
 70
     1
102
RTVSPost2010Prop54
  1
strokes_ogs.tif
102
RTVSPost2010PropOp54
 70
     1
102
RTVSPost2010Prop55
280
     0
102
RTVSPost2010PropOp55
 70
     1
102
RTVSPost2010Prop56
140
1.0
102
RTVSPost2010PropOp56
 70
     1
102
RTVSPost2010Prop57
140
1.0
102
RTVSPost2010PropOp57
 70
     1
102
RTVSPropertyOp0
 70
     1
102
RTVSPropertyOp1
 70
     1
102
RTVSPropertyOp2
 70
     1
102
RTVSPropertyOp3
 70
     1
102
RTVSPropertyOp4
 70
     1
102
RTVSPropertyOp5
 70
     1
102
RTVSPropertyOp6
 70
     1
102
RTVSPropertyOp7
 70
     1
102
RTVSPropertyOp8
 70
     1
102
RTVSPropertyOp9
 70
     1
102
RTVSPropertyOp10
 70
     1
102
RTVSPropertyOp11
 70
     1
102
RTVSPropertyOp12
 70
     1
102
RTVSPropertyOp13
 70
     1
102
RTVSPropertyOp14
 70
     1
102
RTVSPropertyOp15
 70
     1
102
RTVSPropertyOp16
 70
     1
102
RTVSPropertyOp17
 70
     1
102
RTVSPropertyOp18
 70
     1
102
RTVSPropertyOp19
 70
     1
102
RTVSPropertyOp20
 70
     1
102
RTVSPropertyOp21
 70
     1
102
RTVSPropertyOp22
 70
     1
102
RTVSPropertyOp23
 70
     1
102
RTVSPropertyOp24
 70
     1
102
RTVSPropertyOp25
 70
     1
102
RTVSPropertyOp26
 70
     1
102
RTVSPropertyOp27
 70
     1
102
RTVSPropertyOp28
 70
     1
102
RTVSPropertyOp29
 70
     1
102
RTVSPropertyOp30
 70
     1
102
RTVSPropertyOp31
 70
     1
102
RTVSPropertyOp32
 70
     1
102
RTVSPropertyOp33
 70
     1
102
RTVSPropertyOp34
 70
     1
102
RTVSPropertyOp35
 70
     1
102
RTVSPropertyOp36
 70
     1
102
RTVSPropertyOp37
 70
     1
102
RTVSPropertyOp38
 70
     1
102
RTVSPropertyOp39
 70
     1
102
RTVSPropertyOp40
 70
     1
102
RTVSPropertyOp41
 70
     1
102
RTVSPropertyOp42
 70
     1
102
RTVSPropertyOp43
 70
     1
102
RTVSPropertyOp44
 70
     1
102
RTVSPropertyOp45
 70
     1
102
RTVSPropertyOp46
 70
     1
102
RTVSPropertyOp47
 70
     1
102
RTVSPropertyOp48
 70
     1
102
RTVSPropertyOp49
 70
     1
102
RTVSPropertyOp50
 70
     1
102
RTVSPropertyOp51
 70
     0
102
RTVSPropertyOp52
 70
     0
102
RTVSPropertyOp53
 70
     1
102
RTVSPropertyOp54
 70
     1
102
RTVSPropertyOp55
 70
     1
102
RTVSPropertyOp56
 70
     1
102
RTVSPropertyOp57
 70
     1
102
RTVSPropertyOp58
 70
     1
102
RTVSPropertyOp59
 70
     1
102
RTVSPropertyOp60
 70
     1
102
RTVSPropertyOp61
 70
     1
102
RTVSPropertyOp62
 70
     1
  0
XRECORD
  5
FA3F
102
{ACAD_REACTORS
330
FA3E
102
}
330
FA3E
100
AcDbXrecord
280
     1
102
RTVSPost2010Prop28
280
     0
102
RTVSPost2010PropOp28
 70
     1
102
RTVSPost2010Prop29
280
     1
102
RTVSPost2010PropOp29
 70
     1
102
RTVSPost2010Prop30
280
     1
102
RTVSPost2010PropOp30
 70
     1
102
RTVSPost2010Prop31
280
     0
102
RTVSPost2010PropOp31
 70
     1
102
RTVSPost2010Prop32
280
     0
102
RTVSPost2010PropOp32
 70
     1
102
RTVSPost2010Prop33
280
     0
102
RTVSPost2010PropOp33
 70
     1
102
RTVSPost2010Prop34
280
     0
102
RTVSPost2010PropOp34
 70
     1
102
RTVSPost2010Prop35
280
     0
102
RTVSPost2010PropOp35
 70
     1
102
RTVSPost2010Prop36
280
     0
102
RTVSPost2010PropOp36
 70
     1
102
RTVSPost2010Prop37
 90
       50
102
RTVSPost2010PropOp37
 70
     1
102
RTVSPost2010Prop38
140
0.0
102
RTVSPost2010PropOp38
 70
     1
102
RTVSPost2010Prop39
140
1.0
102
RTVSPost2010PropOp39
 70
     1
102
RTVSPost2010Prop40
 90
        0
102
RTVSPost2010PropOp40
 70
     1
102
RTVSPost2010Prop41ColorIndex
 90
       18
102
RTVSPost2010Prop41ColorRGB
 90
        0
102
RTVSPost2010PropOp41
 70
     1
102
RTVSPost2010Prop42
 90
       50
102
RTVSPost2010PropOp42
 70
     1
102
RTVSPost2010Prop43
 90
        3
102
RTVSPost2010PropOp43
 70
     1
102
RTVSPost2010Prop44ColorIndex
 90
        5
102
RTVSPost2010Prop44ColorRGB
 90
      255
102
RTVSPost2010PropOp44
 70
     1
102
RTVSPost2010Prop45
280
     0
102
RTVSPost2010PropOp45
 70
     1
102
RTVSPost2010Prop46
 90
       50
102
RTVSPost2010PropOp46
 70
     1
102
RTVSPost2010Prop47
 90
       50
102
RTVSPost2010PropOp47
 70
     1
102
RTVSPost2010Prop48
 90
       50
102
RTVSPost2010PropOp48
 70
     1
102
RTVSPost2010Prop49
280
     0
102
RTVSPost2010PropOp49
 70
     1
102
RTVSPost2010Prop50
 90
       50
102
RTVSPost2010PropOp50
 70
     1
102
RTVSPost2010Prop51ColorIndex
 90
      256
102
RTVSPost2010Prop51ColorRGB
 90
-16777216
102
RTVSPost2010PropOp51
 70
     0
102
RTVSPost2010Prop52
140
1.0
102
RTVSPost2010PropOp52
 70
     0
102
RTVSPost2010Prop53
 90
        2
102
RTVSPost2010PropOp53
 70
     1
102
RTVSPost2010Prop54
  1
strokes_ogs.tif
102
RTVSPost2010PropOp54
 70
     1
102
RTVSPost2010Prop55
280
     0
102
RTVSPost2010PropOp55
 70
     1
102
RTVSPost2010Prop56
140
1.0
102
RTVSPost2010PropOp56
 70
     1
102
RTVSPost2010Prop57
140
1.0
102
RTVSPost2010PropOp57
 70
     1
102
RTVSPropertyOp0
 70
     1
102
RTVSPropertyOp1
 70
     1
102
RTVSPropertyOp2
 70
     1
102
RTVSPropertyOp3
 70
     1
102
RTVSPropertyOp4
 70
     1
102
RTVSPropertyOp5
 70
     1
102
RTVSPropertyOp6
 70
     1
102
RTVSPropertyOp7
 70
     1
102
RTVSPropertyOp8
 70
     1
102
RTVSPropertyOp9
 70
     1
102
RTVSPropertyOp10
 70
     1
102
RTVSPropertyOp11
 70
     1
102
RTVSPropertyOp12
 70
     1
102
RTVSPropertyOp13
 70
     1
102
RTVSPropertyOp14
 70
     1
102
RTVSPropertyOp15
 70
     1
102
RTVSPropertyOp16
 70
     1
102
RTVSPropertyOp17
 70
     1
102
RTVSPropertyOp18
 70
     1
102
RTVSPropertyOp19
 70
     1
102
RTVSPropertyOp20
 70
     1
102
RTVSPropertyOp21
 70
     1
102
RTVSPropertyOp22
 70
     1
102
RTVSPropertyOp23
 70
     1
102
RTVSPropertyOp24
 70
     1
102
RTVSPropertyOp25
 70
     1
102
RTVSPropertyOp26
 70
     1
102
RTVSPropertyOp27
 70
     1
102
RTVSPropertyOp28
 70
     1
102
RTVSPropertyOp29
 70
     1
102
RTVSPropertyOp30
 70
     1
102
RTVSPropertyOp31
 70
     1
102
RTVSPropertyOp32
 70
     1
102
RTVSPropertyOp33
 70
     1
102
RTVSPropertyOp34
 70
     1
102
RTVSPropertyOp35
 70
     1
102
RTVSPropertyOp36
 70
     1
102
RTVSPropertyOp37
 70
     1
102
RTVSPropertyOp38
 70
     1
102
RTVSPropertyOp39
 70
     1
102
RTVSPropertyOp40
 70
     1
102
RTVSPropertyOp41
 70
     1
102
RTVSPropertyOp42
 70
     1
102
RTVSPropertyOp43
 70
     1
102
RTVSPropertyOp44
 70
     1
102
RTVSPropertyOp45
 70
     1
102
RTVSPropertyOp46
 70
     1
102
RTVSPropertyOp47
 70
     1
102
RTVSPropertyOp48
 70
     1
102
RTVSPropertyOp49
 70
     1
102
RTVSPropertyOp50
 70
     1
102
RTVSPropertyOp51
 70
     0
102
RTVSPropertyOp52
 70
     0
102
RTVSPropertyOp53
 70
     1
102
RTVSPropertyOp54
 70
     1
102
RTVSPropertyOp55
 70
     1
102
RTVSPropertyOp56
 70
     1
102
RTVSPropertyOp57
 70
     1
102
RTVSPropertyOp58
 70
     1
102
RTVSPropertyOp59
 70
     1
102
RTVSPropertyOp60
 70
     1
102
RTVSPropertyOp61
 70
     1
102
RTVSPropertyOp62
 70
     1
  0
XRECORD
  5
FA59
102
{ACAD_REACTORS
330
FA58
102
}
330
FA58
100
AcDbXrecord
280
     1
102
RTVSPost2010Prop28
280
     0
102
RTVSPost2010PropOp28
 70
     1
102
RTVSPost2010Prop29
280
     1
102
RTVSPost2010PropOp29
 70
     1
102
RTVSPost2010Prop30
280
     1
102
RTVSPost2010PropOp30
 70
     1
102
RTVSPost2010Prop31
280
     0
102
RTVSPost2010PropOp31
 70
     1
102
RTVSPost2010Prop32
280
     0
102
RTVSPost2010PropOp32
 70
     1
102
RTVSPost2010Prop33
280
     0
102
RTVSPost2010PropOp33
 70
     1
102
RTVSPost2010Prop34
280
     0
102
RTVSPost2010PropOp34
 70
     1
102
RTVSPost2010Prop35
280
     0
102
RTVSPost2010PropOp35
 70
     1
102
RTVSPost2010Prop36
280
     0
102
RTVSPost2010PropOp36
 70
     1
102
RTVSPost2010Prop37
 90
       50
102
RTVSPost2010PropOp37
 70
     0
102
RTVSPost2010Prop38
140
0.0
102
RTVSPost2010PropOp38
 70
     0
102
RTVSPost2010Prop39
140
1.0
102
RTVSPost2010PropOp39
 70
     0
102
RTVSPost2010Prop40
 90
        0
102
RTVSPost2010PropOp40
 70
     0
102
RTVSPost2010Prop41ColorIndex
 90
       18
102
RTVSPost2010Prop41ColorRGB
 90
        0
102
RTVSPost2010PropOp41
 70
     0
102
RTVSPost2010Prop42
 90
       50
102
RTVSPost2010PropOp42
 70
     0
102
RTVSPost2010Prop43
 90
        3
102
RTVSPost2010PropOp43
 70
     0
102
RTVSPost2010Prop44ColorIndex
 90
        5
102
RTVSPost2010Prop44ColorRGB
 90
      255
102
RTVSPost2010PropOp44
 70
     0
102
RTVSPost2010Prop45
280
     0
102
RTVSPost2010PropOp45
 70
     1
102
RTVSPost2010Prop46
 90
       50
102
RTVSPost2010PropOp46
 70
     0
102
RTVSPost2010Prop47
 90
       50
102
RTVSPost2010PropOp47
 70
     0
102
RTVSPost2010Prop48
 90
       50
102
RTVSPost2010PropOp48
 70
     0
102
RTVSPost2010Prop49
280
     0
102
RTVSPost2010PropOp49
 70
     1
102
RTVSPost2010Prop50
 90
       50
102
RTVSPost2010PropOp50
 70
     0
102
RTVSPost2010Prop51ColorIndex
 90
      256
102
RTVSPost2010Prop51ColorRGB
 90
-16777216
102
RTVSPost2010PropOp51
 70
     0
102
RTVSPost2010Prop52
140
1.0
102
RTVSPost2010PropOp52
 70
     0
102
RTVSPost2010Prop53
 90
        2
102
RTVSPost2010PropOp53
 70
     0
102
RTVSPost2010Prop54
  1
strokes_ogs.tif
102
RTVSPost2010PropOp54
 70
     0
102
RTVSPost2010Prop55
280
     0
102
RTVSPost2010PropOp55
 70
     1
102
RTVSPost2010Prop56
140
1.0
102
RTVSPost2010PropOp56
 70
     0
102
RTVSPost2010Prop57
140
1.0
102
RTVSPost2010PropOp57
 70
     0
102
RTVSPropertyOp0
 70
     0
102
RTVSPropertyOp1
 70
     0
102
RTVSPropertyOp2
 70
     0
102
RTVSPropertyOp3
 70
     0
102
RTVSPropertyOp4
 70
     0
102
RTVSPropertyOp5
 70
     0
102
RTVSPropertyOp6
 70
     0
102
RTVSPropertyOp7
 70
     0
102
RTVSPropertyOp8
 70
     0
102
RTVSPropertyOp9
 70
     0
102
RTVSPropertyOp10
 70
     0
102
RTVSPropertyOp11
 70
     0
102
RTVSPropertyOp12
 70
     0
102
RTVSPropertyOp13
 70
     0
102
RTVSPropertyOp14
 70
     2
102
RTVSPropertyOp15
 70
     0
102
RTVSPropertyOp16
 70
     0
102
RTVSPropertyOp17
 70
     0
102
RTVSPropertyOp18
 70
     0
102
RTVSPropertyOp19
 70
     0
102
RTVSPropertyOp20
 70
     0
102
RTVSPropertyOp21
 70
     0
102
RTVSPropertyOp22
 70
     0
102
RTVSPropertyOp23
 70
     0
102
RTVSPropertyOp24
 70
     0
102
RTVSPropertyOp25
 70
     0
102
RTVSPropertyOp26
 70
     0
102
RTVSPropertyOp27
 70
     0
102
RTVSPropertyOp28
 70
     1
102
RTVSPropertyOp29
 70
     1
102
RTVSPropertyOp30
 70
     1
102
RTVSPropertyOp31
 70
     1
102
RTVSPropertyOp32
 70
     1
102
RTVSPropertyOp33
 70
     1
102
RTVSPropertyOp34
 70
     1
102
RTVSPropertyOp35
 70
     1
102
RTVSPropertyOp36
 70
     1
102
RTVSPropertyOp37
 70
     0
102
RTVSPropertyOp38
 70
     0
102
RTVSPropertyOp39
 70
     0
102
RTVSPropertyOp40
 70
     0
102
RTVSPropertyOp41
 70
     0
102
RTVSPropertyOp42
 70
     0
102
RTVSPropertyOp43
 70
     0
102
RTVSPropertyOp44
 70
     0
102
RTVSPropertyOp45
 70
     1
102
RTVSPropertyOp46
 70
     0
102
RTVSPropertyOp47
 70
     0
102
RTVSPropertyOp48
 70
     0
102
RTVSPropertyOp49
 70
     1
102
RTVSPropertyOp50
 70
     0
102
RTVSPropertyOp51
 70
     0
102
RTVSPropertyOp52
 70
     0
102
RTVSPropertyOp53
 70
     0
102
RTVSPropertyOp54
 70
     0
102
RTVSPropertyOp55
 70
     1
102
RTVSPropertyOp56
 70
     0
102
RTVSPropertyOp57
 70
     0
102
RTVSPropertyOp58
 70
     0
102
RTVSPropertyOp59
 70
     0
102
RTVSPropertyOp60
 70
     0
102
RTVSPropertyOp61
 70
     0
102
RTVSPropertyOp62
 70
     0
  0
XRECORD
  5
FA47
102
{ACAD_REACTORS
330
FA46
102
}
330
FA46
100
AcDbXrecord
280
     1
102
RTVSPost2010Prop28
280
     0
102
RTVSPost2010PropOp28
 70
     1
102
RTVSPost2010Prop29
280
     1
102
RTVSPost2010PropOp29
 70
     1
102
RTVSPost2010Prop30
280
     1
102
RTVSPost2010PropOp30
 70
     1
102
RTVSPost2010Prop31
280
     0
102
RTVSPost2010PropOp31
 70
     1
102
RTVSPost2010Prop32
280
     0
102
RTVSPost2010PropOp32
 70
     1
102
RTVSPost2010Prop33
280
     0
102
RTVSPost2010PropOp33
 70
     1
102
RTVSPost2010Prop34
280
     0
102
RTVSPost2010PropOp34
 70
     1
102
RTVSPost2010Prop35
280
     0
102
RTVSPost2010PropOp35
 70
     1
102
RTVSPost2010Prop36
280
     0
102
RTVSPost2010PropOp36
 70
     1
102
RTVSPost2010Prop37
 90
       50
102
RTVSPost2010PropOp37
 70
     1
102
RTVSPost2010Prop38
140
0.0
102
RTVSPost2010PropOp38
 70
     1
102
RTVSPost2010Prop39
140
1.0
102
RTVSPost2010PropOp39
 70
     1
102
RTVSPost2010Prop40
 90
        0
102
RTVSPost2010PropOp40
 70
     1
102
RTVSPost2010Prop41ColorIndex
 90
       18
102
RTVSPost2010Prop41ColorRGB
 90
        0
102
RTVSPost2010PropOp41
 70
     1
102
RTVSPost2010Prop42
 90
       50
102
RTVSPost2010PropOp42
 70
     1
102
RTVSPost2010Prop43
 90
        3
102
RTVSPost2010PropOp43
 70
     1
102
RTVSPost2010Prop44ColorIndex
 90
        5
102
RTVSPost2010Prop44ColorRGB
 90
      255
102
RTVSPost2010PropOp44
 70
     1
102
RTVSPost2010Prop45
280
     0
102
RTVSPost2010PropOp45
 70
     1
102
RTVSPost2010Prop46
 90
       50
102
RTVSPost2010PropOp46
 70
     1
102
RTVSPost2010Prop47
 90
       50
102
RTVSPost2010PropOp47
 70
     1
102
RTVSPost2010Prop48
 90
       50
102
RTVSPost2010PropOp48
 70
     1
102
RTVSPost2010Prop49
280
     0
102
RTVSPost2010PropOp49
 70
     1
102
RTVSPost2010Prop50
 90
       50
102
RTVSPost2010PropOp50
 70
     1
102
RTVSPost2010Prop51ColorIndex
 90
      256
102
RTVSPost2010Prop51ColorRGB
 90
-16777216
102
RTVSPost2010PropOp51
 70
     0
102
RTVSPost2010Prop52
140
1.0
102
RTVSPost2010PropOp52
 70
     0
102
RTVSPost2010Prop53
 90
        2
102
RTVSPost2010PropOp53
 70
     1
102
RTVSPost2010Prop54
  1
strokes_ogs.tif
102
RTVSPost2010PropOp54
 70
     1
102
RTVSPost2010Prop55
280
     0
102
RTVSPost2010PropOp55
 70
     1
102
RTVSPost2010Prop56
140
1.0
102
RTVSPost2010PropOp56
 70
     1
102
RTVSPost2010Prop57
140
1.0
102
RTVSPost2010PropOp57
 70
     1
102
RTVSPropertyOp0
 70
     1
102
RTVSPropertyOp1
 70
     1
102
RTVSPropertyOp2
 70
     1
102
RTVSPropertyOp3
 70
     1
102
RTVSPropertyOp4
 70
     1
102
RTVSPropertyOp5
 70
     1
102
RTVSPropertyOp6
 70
     1
102
RTVSPropertyOp7
 70
     1
102
RTVSPropertyOp8
 70
     1
102
RTVSPropertyOp9
 70
     1
102
RTVSPropertyOp10
 70
     1
102
RTVSPropertyOp11
 70
     1
102
RTVSPropertyOp12
 70
     1
102
RTVSPropertyOp13
 70
     1
102
RTVSPropertyOp14
 70
     1
102
RTVSPropertyOp15
 70
     1
102
RTVSPropertyOp16
 70
     1
102
RTVSPropertyOp17
 70
     1
102
RTVSPropertyOp18
 70
     1
102
RTVSPropertyOp19
 70
     1
102
RTVSPropertyOp20
 70
     1
102
RTVSPropertyOp21
 70
     1
102
RTVSPropertyOp22
 70
     1
102
RTVSPropertyOp23
 70
     1
102
RTVSPropertyOp24
 70
     1
102
RTVSPropertyOp25
 70
     1
102
RTVSPropertyOp26
 70
     1
102
RTVSPropertyOp27
 70
     1
102
RTVSPropertyOp28
 70
     1
102
RTVSPropertyOp29
 70
     1
102
RTVSPropertyOp30
 70
     1
102
RTVSPropertyOp31
 70
     1
102
RTVSPropertyOp32
 70
     1
102
RTVSPropertyOp33
 70
     1
102
RTVSPropertyOp34
 70
     1
102
RTVSPropertyOp35
 70
     1
102
RTVSPropertyOp36
 70
     1
102
RTVSPropertyOp37
 70
     1
102
RTVSPropertyOp38
 70
     1
102
RTVSPropertyOp39
 70
     1
102
RTVSPropertyOp40
 70
     1
102
RTVSPropertyOp41
 70
     1
102
RTVSPropertyOp42
 70
     1
102
RTVSPropertyOp43
 70
     1
102
RTVSPropertyOp44
 70
     1
102
RTVSPropertyOp45
 70
     1
102
RTVSPropertyOp46
 70
     1
102
RTVSPropertyOp47
 70
     1
102
RTVSPropertyOp48
 70
     1
102
RTVSPropertyOp49
 70
     1
102
RTVSPropertyOp50
 70
     1
102
RTVSPropertyOp51
 70
     0
102
RTVSPropertyOp52
 70
     0
102
RTVSPropertyOp53
 70
     1
102
RTVSPropertyOp54
 70
     1
102
RTVSPropertyOp55
 70
     1
102
RTVSPropertyOp56
 70
     1
102
RTVSPropertyOp57
 70
     1
102
RTVSPropertyOp58
 70
     1
102
RTVSPropertyOp59
 70
     1
102
RTVSPropertyOp60
 70
     1
102
RTVSPropertyOp61
 70
     1
102
RTVSPropertyOp62
 70
     1
  0
XRECORD
  5
FA2B
102
{ACAD_REACTORS
330
FA2A
102
}
330
FA2A
100
AcDbXrecord
280
     1
102
RTVSPost2010Prop28
280
     0
102
RTVSPost2010PropOp28
 70
     1
102
RTVSPost2010Prop29
280
     1
102
RTVSPost2010PropOp29
 70
     1
102
RTVSPost2010Prop30
280
     1
102
RTVSPost2010PropOp30
 70
     1
102
RTVSPost2010Prop31
280
     0
102
RTVSPost2010PropOp31
 70
     1
102
RTVSPost2010Prop32
280
     0
102
RTVSPost2010PropOp32
 70
     1
102
RTVSPost2010Prop33
280
     0
102
RTVSPost2010PropOp33
 70
     1
102
RTVSPost2010Prop34
280
     0
102
RTVSPost2010PropOp34
 70
     1
102
RTVSPost2010Prop35
280
     0
102
RTVSPost2010PropOp35
 70
     1
102
RTVSPost2010Prop36
280
     0
102
RTVSPost2010PropOp36
 70
     1
102
RTVSPost2010Prop37
 90
       50
102
RTVSPost2010PropOp37
 70
     1
102
RTVSPost2010Prop38
140
0.0
102
RTVSPost2010PropOp38
 70
     1
102
RTVSPost2010Prop39
140
1.0
102
RTVSPost2010PropOp39
 70
     1
102
RTVSPost2010Prop40
 90
        0
102
RTVSPost2010PropOp40
 70
     1
102
RTVSPost2010Prop41ColorIndex
 90
       18
102
RTVSPost2010Prop41ColorRGB
 90
        0
102
RTVSPost2010PropOp41
 70
     1
102
RTVSPost2010Prop42
 90
       50
102
RTVSPost2010PropOp42
 70
     1
102
RTVSPost2010Prop43
 90
        3
102
RTVSPost2010PropOp43
 70
     1
102
RTVSPost2010Prop44ColorIndex
 90
        5
102
RTVSPost2010Prop44ColorRGB
 90
      255
102
RTVSPost2010PropOp44
 70
     1
102
RTVSPost2010Prop45
280
     0
102
RTVSPost2010PropOp45
 70
     1
102
RTVSPost2010Prop46
 90
       50
102
RTVSPost2010PropOp46
 70
     1
102
RTVSPost2010Prop47
 90
       50
102
RTVSPost2010PropOp47
 70
     1
102
RTVSPost2010Prop48
 90
       50
102
RTVSPost2010PropOp48
 70
     1
102
RTVSPost2010Prop49
280
     0
102
RTVSPost2010PropOp49
 70
     1
102
RTVSPost2010Prop50
 90
       50
102
RTVSPost2010PropOp50
 70
     1
102
RTVSPost2010Prop51ColorIndex
 90
      256
102
RTVSPost2010Prop51ColorRGB
 90
-16777216
102
RTVSPost2010PropOp51
 70
     0
102
RTVSPost2010Prop52
140
1.0
102
RTVSPost2010PropOp52
 70
     0
102
RTVSPost2010Prop53
 90
        2
102
RTVSPost2010PropOp53
 70
     1
102
RTVSPost2010Prop54
  1
strokes_ogs.tif
102
RTVSPost2010PropOp54
 70
     1
102
RTVSPost2010Prop55
280
     0
102
RTVSPost2010PropOp55
 70
     1
102
RTVSPost2010Prop56
140
1.0
102
RTVSPost2010PropOp56
 70
     1
102
RTVSPost2010Prop57
140
1.0
102
RTVSPost2010PropOp57
 70
     1
102
RTVSPropertyOp0
 70
     1
102
RTVSPropertyOp1
 70
     1
102
RTVSPropertyOp2
 70
     1
102
RTVSPropertyOp3
 70
     1
102
RTVSPropertyOp4
 70
     1
102
RTVSPropertyOp5
 70
     1
102
RTVSPropertyOp6
 70
     1
102
RTVSPropertyOp7
 70
     1
102
RTVSPropertyOp8
 70
     1
102
RTVSPropertyOp9
 70
     1
102
RTVSPropertyOp10
 70
     1
102
RTVSPropertyOp11
 70
     1
102
RTVSPropertyOp12
 70
     1
102
RTVSPropertyOp13
 70
     1
102
RTVSPropertyOp14
 70
     1
102
RTVSPropertyOp15
 70
     1
102
RTVSPropertyOp16
 70
     1
102
RTVSPropertyOp17
 70
     1
102
RTVSPropertyOp18
 70
     1
102
RTVSPropertyOp19
 70
     1
102
RTVSPropertyOp20
 70
     1
102
RTVSPropertyOp21
 70
     1
102
RTVSPropertyOp22
 70
     1
102
RTVSPropertyOp23
 70
     1
102
RTVSPropertyOp24
 70
     1
102
RTVSPropertyOp25
 70
     1
102
RTVSPropertyOp26
 70
     1
102
RTVSPropertyOp27
 70
     1
102
RTVSPropertyOp28
 70
     1
102
RTVSPropertyOp29
 70
     1
102
RTVSPropertyOp30
 70
     1
102
RTVSPropertyOp31
 70
     1
102
RTVSPropertyOp32
 70
     1
102
RTVSPropertyOp33
 70
     1
102
RTVSPropertyOp34
 70
     1
102
RTVSPropertyOp35
 70
     1
102
RTVSPropertyOp36
 70
     1
102
RTVSPropertyOp37
 70
     1
102
RTVSPropertyOp38
 70
     1
102
RTVSPropertyOp39
 70
     1
102
RTVSPropertyOp40
 70
     1
102
RTVSPropertyOp41
 70
     1
102
RTVSPropertyOp42
 70
     1
102
RTVSPropertyOp43
 70
     1
102
RTVSPropertyOp44
 70
     1
102
RTVSPropertyOp45
 70
     1
102
RTVSPropertyOp46
 70
     1
102
RTVSPropertyOp47
 70
     1
102
RTVSPropertyOp48
 70
     1
102
RTVSPropertyOp49
 70
     1
102
RTVSPropertyOp50
 70
     1
102
RTVSPropertyOp51
 70
     0
102
RTVSPropertyOp52
 70
     0
102
RTVSPropertyOp53
 70
     1
102
RTVSPropertyOp54
 70
     1
102
RTVSPropertyOp55
 70
     1
102
RTVSPropertyOp56
 70
     1
102
RTVSPropertyOp57
 70
     1
102
RTVSPropertyOp58
 70
     1
102
RTVSPropertyOp59
 70
     1
102
RTVSPropertyOp60
 70
     1
102
RTVSPropertyOp61
 70
     1
102
RTVSPropertyOp62
 70
     1
  0
XRECORD
  5
FA2D
102
{ACAD_REACTORS
330
FA2C
102
}
330
FA2C
100
AcDbXrecord
280
     1
102
RTVSPost2010Prop28
280
     0
102
RTVSPost2010PropOp28
 70
     1
102
RTVSPost2010Prop29
280
     1
102
RTVSPost2010PropOp29
 70
     1
102
RTVSPost2010Prop30
280
     1
102
RTVSPost2010PropOp30
 70
     1
102
RTVSPost2010Prop31
280
     0
102
RTVSPost2010PropOp31
 70
     1
102
RTVSPost2010Prop32
280
     0
102
RTVSPost2010PropOp32
 70
     1
102
RTVSPost2010Prop33
280
     0
102
RTVSPost2010PropOp33
 70
     1
102
RTVSPost2010Prop34
280
     0
102
RTVSPost2010PropOp34
 70
     1
102
RTVSPost2010Prop35
280
     0
102
RTVSPost2010PropOp35
 70
     1
102
RTVSPost2010Prop36
280
     0
102
RTVSPost2010PropOp36
 70
     1
102
RTVSPost2010Prop37
 90
       50
102
RTVSPost2010PropOp37
 70
     1
102
RTVSPost2010Prop38
140
0.0
102
RTVSPost2010PropOp38
 70
     1
102
RTVSPost2010Prop39
140
1.0
102
RTVSPost2010PropOp39
 70
     1
102
RTVSPost2010Prop40
 90
        0
102
RTVSPost2010PropOp40
 70
     1
102
RTVSPost2010Prop41ColorIndex
 90
       18
102
RTVSPost2010Prop41ColorRGB
 90
        0
102
RTVSPost2010PropOp41
 70
     1
102
RTVSPost2010Prop42
 90
       50
102
RTVSPost2010PropOp42
 70
     1
102
RTVSPost2010Prop43
 90
        3
102
RTVSPost2010PropOp43
 70
     1
102
RTVSPost2010Prop44ColorIndex
 90
        5
102
RTVSPost2010Prop44ColorRGB
 90
      255
102
RTVSPost2010PropOp44
 70
     1
102
RTVSPost2010Prop45
280
     0
102
RTVSPost2010PropOp45
 70
     1
102
RTVSPost2010Prop46
 90
       50
102
RTVSPost2010PropOp46
 70
     1
102
RTVSPost2010Prop47
 90
       50
102
RTVSPost2010PropOp47
 70
     1
102
RTVSPost2010Prop48
 90
       50
102
RTVSPost2010PropOp48
 70
     1
102
RTVSPost2010Prop49
280
     0
102
RTVSPost2010PropOp49
 70
     1
102
RTVSPost2010Prop50
 90
       50
102
RTVSPost2010PropOp50
 70
     1
102
RTVSPost2010Prop51ColorIndex
 90
      256
102
RTVSPost2010Prop51ColorRGB
 90
-16777216
102
RTVSPost2010PropOp51
 70
     0
102
RTVSPost2010Prop52
140
1.0
102
RTVSPost2010PropOp52
 70
     0
102
RTVSPost2010Prop53
 90
        2
102
RTVSPost2010PropOp53
 70
     1
102
RTVSPost2010Prop54
  1
strokes_ogs.tif
102
RTVSPost2010PropOp54
 70
     1
102
RTVSPost2010Prop55
280
     0
102
RTVSPost2010PropOp55
 70
     1
102
RTVSPost2010Prop56
140
1.0
102
RTVSPost2010PropOp56
 70
     1
102
RTVSPost2010Prop57
140
1.0
102
RTVSPost2010PropOp57
 70
     1
102
RTVSPropertyOp0
 70
     1
102
RTVSPropertyOp1
 70
     1
102
RTVSPropertyOp2
 70
     1
102
RTVSPropertyOp3
 70
     1
102
RTVSPropertyOp4
 70
     1
102
RTVSPropertyOp5
 70
     1
102
RTVSPropertyOp6
 70
     1
102
RTVSPropertyOp7
 70
     1
102
RTVSPropertyOp8
 70
     1
102
RTVSPropertyOp9
 70
     1
102
RTVSPropertyOp10
 70
     1
102
RTVSPropertyOp11
 70
     1
102
RTVSPropertyOp12
 70
     1
102
RTVSPropertyOp13
 70
     1
102
RTVSPropertyOp14
 70
     1
102
RTVSPropertyOp15
 70
     1
102
RTVSPropertyOp16
 70
     1
102
RTVSPropertyOp17
 70
     1
102
RTVSPropertyOp18
 70
     1
102
RTVSPropertyOp19
 70
     1
102
RTVSPropertyOp20
 70
     1
102
RTVSPropertyOp21
 70
     1
102
RTVSPropertyOp22
 70
     1
102
RTVSPropertyOp23
 70
     1
102
RTVSPropertyOp24
 70
     1
102
RTVSPropertyOp25
 70
     1
102
RTVSPropertyOp26
 70
     1
102
RTVSPropertyOp27
 70
     1
102
RTVSPropertyOp28
 70
     1
102
RTVSPropertyOp29
 70
     1
102
RTVSPropertyOp30
 70
     1
102
RTVSPropertyOp31
 70
     1
102
RTVSPropertyOp32
 70
     1
102
RTVSPropertyOp33
 70
     1
102
RTVSPropertyOp34
 70
     1
102
RTVSPropertyOp35
 70
     1
102
RTVSPropertyOp36
 70
     1
102
RTVSPropertyOp37
 70
     1
102
RTVSPropertyOp38
 70
     1
102
RTVSPropertyOp39
 70
     1
102
RTVSPropertyOp40
 70
     1
102
RTVSPropertyOp41
 70
     1
102
RTVSPropertyOp42
 70
     1
102
RTVSPropertyOp43
 70
     1
102
RTVSPropertyOp44
 70
     1
102
RTVSPropertyOp45
 70
     1
102
RTVSPropertyOp46
 70
     1
102
RTVSPropertyOp47
 70
     1
102
RTVSPropertyOp48
 70
     1
102
RTVSPropertyOp49
 70
     1
102
RTVSPropertyOp50
 70
     1
102
RTVSPropertyOp51
 70
     0
102
RTVSPropertyOp52
 70
     0
102
RTVSPropertyOp53
 70
     1
102
RTVSPropertyOp54
 70
     1
102
RTVSPropertyOp55
 70
     1
102
RTVSPropertyOp56
 70
     1
102
RTVSPropertyOp57
 70
     1
102
RTVSPropertyOp58
 70
     1
102
RTVSPropertyOp59
 70
     1
102
RTVSPropertyOp60
 70
     1
102
RTVSPropertyOp61
 70
     1
102
RTVSPropertyOp62
 70
     1
  0
XRECORD
  5
FA2F
102
{ACAD_REACTORS
330
FA2E
102
}
330
FA2E
100
AcDbXrecord
280
     1
102
RTVSPost2010Prop28
280
     0
102
RTVSPost2010PropOp28
 70
     1
102
RTVSPost2010Prop29
280
     1
102
RTVSPost2010PropOp29
 70
     1
102
RTVSPost2010Prop30
280
     1
102
RTVSPost2010PropOp30
 70
     1
102
RTVSPost2010Prop31
280
     0
102
RTVSPost2010PropOp31
 70
     1
102
RTVSPost2010Prop32
280
     0
102
RTVSPost2010PropOp32
 70
     1
102
RTVSPost2010Prop33
280
     0
102
RTVSPost2010PropOp33
 70
     1
102
RTVSPost2010Prop34
280
     0
102
RTVSPost2010PropOp34
 70
     1
102
RTVSPost2010Prop35
280
     0
102
RTVSPost2010PropOp35
 70
     1
102
RTVSPost2010Prop36
280
     0
102
RTVSPost2010PropOp36
 70
     1
102
RTVSPost2010Prop37
 90
       50
102
RTVSPost2010PropOp37
 70
     1
102
RTVSPost2010Prop38
140
0.0
102
RTVSPost2010PropOp38
 70
     1
102
RTVSPost2010Prop39
140
1.0
102
RTVSPost2010PropOp39
 70
     1
102
RTVSPost2010Prop40
 90
        0
102
RTVSPost2010PropOp40
 70
     1
102
RTVSPost2010Prop41ColorIndex
 90
       18
102
RTVSPost2010Prop41ColorRGB
 90
        0
102
RTVSPost2010PropOp41
 70
     1
102
RTVSPost2010Prop42
 90
       50
102
RTVSPost2010PropOp42
 70
     1
102
RTVSPost2010Prop43
 90
        3
102
RTVSPost2010PropOp43
 70
     1
102
RTVSPost2010Prop44ColorIndex
 90
        5
102
RTVSPost2010Prop44ColorRGB
 90
      255
102
RTVSPost2010PropOp44
 70
     1
102
RTVSPost2010Prop45
280
     0
102
RTVSPost2010PropOp45
 70
     1
102
RTVSPost2010Prop46
 90
       50
102
RTVSPost2010PropOp46
 70
     1
102
RTVSPost2010Prop47
 90
       50
102
RTVSPost2010PropOp47
 70
     1
102
RTVSPost2010Prop48
 90
       50
102
RTVSPost2010PropOp48
 70
     1
102
RTVSPost2010Prop49
280
     0
102
RTVSPost2010PropOp49
 70
     1
102
RTVSPost2010Prop50
 90
       50
102
RTVSPost2010PropOp50
 70
     1
102
RTVSPost2010Prop51ColorIndex
 90
      256
102
RTVSPost2010Prop51ColorRGB
 90
-16777216
102
RTVSPost2010PropOp51
 70
     0
102
RTVSPost2010Prop52
140
1.0
102
RTVSPost2010PropOp52
 70
     0
102
RTVSPost2010Prop53
 90
        2
102
RTVSPost2010PropOp53
 70
     1
102
RTVSPost2010Prop54
  1
strokes_ogs.tif
102
RTVSPost2010PropOp54
 70
     1
102
RTVSPost2010Prop55
280
     0
102
RTVSPost2010PropOp55
 70
     1
102
RTVSPost2010Prop56
140
1.0
102
RTVSPost2010PropOp56
 70
     1
102
RTVSPost2010Prop57
140
1.0
102
RTVSPost2010PropOp57
 70
     1
102
RTVSPropertyOp0
 70
     1
102
RTVSPropertyOp1
 70
     1
102
RTVSPropertyOp2
 70
     1
102
RTVSPropertyOp3
 70
     1
102
RTVSPropertyOp4
 70
     1
102
RTVSPropertyOp5
 70
     1
102
RTVSPropertyOp6
 70
     1
102
RTVSPropertyOp7
 70
     1
102
RTVSPropertyOp8
 70
     1
102
RTVSPropertyOp9
 70
     1
102
RTVSPropertyOp10
 70
     1
102
RTVSPropertyOp11
 70
     1
102
RTVSPropertyOp12
 70
     1
102
RTVSPropertyOp13
 70
     1
102
RTVSPropertyOp14
 70
     1
102
RTVSPropertyOp15
 70
     1
102
RTVSPropertyOp16
 70
     1
102
RTVSPropertyOp17
 70
     1
102
RTVSPropertyOp18
 70
     1
102
RTVSPropertyOp19
 70
     1
102
RTVSPropertyOp20
 70
     1
102
RTVSPropertyOp21
 70
     1
102
RTVSPropertyOp22
 70
     1
102
RTVSPropertyOp23
 70
     1
102
RTVSPropertyOp24
 70
     1
102
RTVSPropertyOp25
 70
     1
102
RTVSPropertyOp26
 70
     1
102
RTVSPropertyOp27
 70
     1
102
RTVSPropertyOp28
 70
     1
102
RTVSPropertyOp29
 70
     1
102
RTVSPropertyOp30
 70
     1
102
RTVSPropertyOp31
 70
     1
102
RTVSPropertyOp32
 70
     1
102
RTVSPropertyOp33
 70
     1
102
RTVSPropertyOp34
 70
     1
102
RTVSPropertyOp35
 70
     1
102
RTVSPropertyOp36
 70
     1
102
RTVSPropertyOp37
 70
     1
102
RTVSPropertyOp38
 70
     1
102
RTVSPropertyOp39
 70
     1
102
RTVSPropertyOp40
 70
     1
102
RTVSPropertyOp41
 70
     1
102
RTVSPropertyOp42
 70
     1
102
RTVSPropertyOp43
 70
     1
102
RTVSPropertyOp44
 70
     1
102
RTVSPropertyOp45
 70
     1
102
RTVSPropertyOp46
 70
     1
102
RTVSPropertyOp47
 70
     1
102
RTVSPropertyOp48
 70
     1
102
RTVSPropertyOp49
 70
     1
102
RTVSPropertyOp50
 70
     1
102
RTVSPropertyOp51
 70
     0
102
RTVSPropertyOp52
 70
     0
102
RTVSPropertyOp53
 70
     1
102
RTVSPropertyOp54
 70
     1
102
RTVSPropertyOp55
 70
     1
102
RTVSPropertyOp56
 70
     1
102
RTVSPropertyOp57
 70
     1
102
RTVSPropertyOp58
 70
     1
102
RTVSPropertyOp59
 70
     1
102
RTVSPropertyOp60
 70
     1
102
RTVSPropertyOp61
 70
     1
102
RTVSPropertyOp62
 70
     1
  0
XRECORD
  5
FA31
102
{ACAD_REACTORS
330
FA30
102
}
330
FA30
100
AcDbXrecord
280
     1
102
RTVSPost2010Prop28
280
     0
102
RTVSPost2010PropOp28
 70
     1
102
RTVSPost2010Prop29
280
     1
102
RTVSPost2010PropOp29
 70
     1
102
RTVSPost2010Prop30
280
     1
102
RTVSPost2010PropOp30
 70
     1
102
RTVSPost2010Prop31
280
     0
102
RTVSPost2010PropOp31
 70
     1
102
RTVSPost2010Prop32
280
     0
102
RTVSPost2010PropOp32
 70
     1
102
RTVSPost2010Prop33
280
     0
102
RTVSPost2010PropOp33
 70
     1
102
RTVSPost2010Prop34
280
     0
102
RTVSPost2010PropOp34
 70
     1
102
RTVSPost2010Prop35
280
     0
102
RTVSPost2010PropOp35
 70
     1
102
RTVSPost2010Prop36
280
     0
102
RTVSPost2010PropOp36
 70
     1
102
RTVSPost2010Prop37
 90
       50
102
RTVSPost2010PropOp37
 70
     1
102
RTVSPost2010Prop38
140
0.0
102
RTVSPost2010PropOp38
 70
     1
102
RTVSPost2010Prop39
140
1.0
102
RTVSPost2010PropOp39
 70
     1
102
RTVSPost2010Prop40
 90
        0
102
RTVSPost2010PropOp40
 70
     1
102
RTVSPost2010Prop41ColorIndex
 90
       18
102
RTVSPost2010Prop41ColorRGB
 90
        0
102
RTVSPost2010PropOp41
 70
     1
102
RTVSPost2010Prop42
 90
       50
102
RTVSPost2010PropOp42
 70
     1
102
RTVSPost2010Prop43
 90
        3
102
RTVSPost2010PropOp43
 70
     1
102
RTVSPost2010Prop44ColorIndex
 90
        5
102
RTVSPost2010Prop44ColorRGB
 90
      255
102
RTVSPost2010PropOp44
 70
     1
102
RTVSPost2010Prop45
280
     0
102
RTVSPost2010PropOp45
 70
     1
102
RTVSPost2010Prop46
 90
       50
102
RTVSPost2010PropOp46
 70
     1
102
RTVSPost2010Prop47
 90
       50
102
RTVSPost2010PropOp47
 70
     1
102
RTVSPost2010Prop48
 90
       50
102
RTVSPost2010PropOp48
 70
     1
102
RTVSPost2010Prop49
280
     0
102
RTVSPost2010PropOp49
 70
     1
102
RTVSPost2010Prop50
 90
       50
102
RTVSPost2010PropOp50
 70
     1
102
RTVSPost2010Prop51ColorIndex
 90
      256
102
RTVSPost2010Prop51ColorRGB
 90
-16777216
102
RTVSPost2010PropOp51
 70
     0
102
RTVSPost2010Prop52
140
1.0
102
RTVSPost2010PropOp52
 70
     0
102
RTVSPost2010Prop53
 90
        2
102
RTVSPost2010PropOp53
 70
     1
102
RTVSPost2010Prop54
  1
strokes_ogs.tif
102
RTVSPost2010PropOp54
 70
     1
102
RTVSPost2010Prop55
280
     0
102
RTVSPost2010PropOp55
 70
     1
102
RTVSPost2010Prop56
140
1.0
102
RTVSPost2010PropOp56
 70
     1
102
RTVSPost2010Prop57
140
1.0
102
RTVSPost2010PropOp57
 70
     1
102
RTVSPropertyOp0
 70
     1
102
RTVSPropertyOp1
 70
     1
102
RTVSPropertyOp2
 70
     1
102
RTVSPropertyOp3
 70
     1
102
RTVSPropertyOp4
 70
     1
102
RTVSPropertyOp5
 70
     1
102
RTVSPropertyOp6
 70
     1
102
RTVSPropertyOp7
 70
     1
102
RTVSPropertyOp8
 70
     1
102
RTVSPropertyOp9
 70
     1
102
RTVSPropertyOp10
 70
     1
102
RTVSPropertyOp11
 70
     1
102
RTVSPropertyOp12
 70
     1
102
RTVSPropertyOp13
 70
     1
102
RTVSPropertyOp14
 70
     1
102
RTVSPropertyOp15
 70
     1
102
RTVSPropertyOp16
 70
     1
102
RTVSPropertyOp17
 70
     1
102
RTVSPropertyOp18
 70
     1
102
RTVSPropertyOp19
 70
     1
102
RTVSPropertyOp20
 70
     1
102
RTVSPropertyOp21
 70
     1
102
RTVSPropertyOp22
 70
     1
102
RTVSPropertyOp23
 70
     1
102
RTVSPropertyOp24
 70
     1
102
RTVSPropertyOp25
 70
     1
102
RTVSPropertyOp26
 70
     1
102
RTVSPropertyOp27
 70
     1
102
RTVSPropertyOp28
 70
     1
102
RTVSPropertyOp29
 70
     1
102
RTVSPropertyOp30
 70
     1
102
RTVSPropertyOp31
 70
     1
102
RTVSPropertyOp32
 70
     1
102
RTVSPropertyOp33
 70
     1
102
RTVSPropertyOp34
 70
     1
102
RTVSPropertyOp35
 70
     1
102
RTVSPropertyOp36
 70
     1
102
RTVSPropertyOp37
 70
     1
102
RTVSPropertyOp38
 70
     1
102
RTVSPropertyOp39
 70
     1
102
RTVSPropertyOp40
 70
     1
102
RTVSPropertyOp41
 70
     1
102
RTVSPropertyOp42
 70
     1
102
RTVSPropertyOp43
 70
     1
102
RTVSPropertyOp44
 70
     1
102
RTVSPropertyOp45
 70
     1
102
RTVSPropertyOp46
 70
     1
102
RTVSPropertyOp47
 70
     1
102
RTVSPropertyOp48
 70
     1
102
RTVSPropertyOp49
 70
     1
102
RTVSPropertyOp50
 70
     1
102
RTVSPropertyOp51
 70
     0
102
RTVSPropertyOp52
 70
     0
102
RTVSPropertyOp53
 70
     1
102
RTVSPropertyOp54
 70
     1
102
RTVSPropertyOp55
 70
     1
102
RTVSPropertyOp56
 70
     1
102
RTVSPropertyOp57
 70
     1
102
RTVSPropertyOp58
 70
     1
102
RTVSPropertyOp59
 70
     1
102
RTVSPropertyOp60
 70
     1
102
RTVSPropertyOp61
 70
     1
102
RTVSPropertyOp62
 70
     1
  0
XRECORD
  5
FA39
102
{ACAD_REACTORS
330
FA38
102
}
330
FA38
100
AcDbXrecord
280
     1
102
RTVSPost2010Prop28
280
     0
102
RTVSPost2010PropOp28
 70
     1
102
RTVSPost2010Prop29
280
     1
102
RTVSPost2010PropOp29
 70
     1
102
RTVSPost2010Prop30
280
     1
102
RTVSPost2010PropOp30
 70
     1
102
RTVSPost2010Prop31
280
     0
102
RTVSPost2010PropOp31
 70
     1
102
RTVSPost2010Prop32
280
     0
102
RTVSPost2010PropOp32
 70
     1
102
RTVSPost2010Prop33
280
     0
102
RTVSPost2010PropOp33
 70
     1
102
RTVSPost2010Prop34
280
     0
102
RTVSPost2010PropOp34
 70
     1
102
RTVSPost2010Prop35
280
     0
102
RTVSPost2010PropOp35
 70
     1
102
RTVSPost2010Prop36
280
     0
102
RTVSPost2010PropOp36
 70
     1
102
RTVSPost2010Prop37
 90
       50
102
RTVSPost2010PropOp37
 70
     1
102
RTVSPost2010Prop38
140
0.0
102
RTVSPost2010PropOp38
 70
     1
102
RTVSPost2010Prop39
140
1.0
102
RTVSPost2010PropOp39
 70
     1
102
RTVSPost2010Prop40
 90
        0
102
RTVSPost2010PropOp40
 70
     1
102
RTVSPost2010Prop41ColorIndex
 90
       18
102
RTVSPost2010Prop41ColorRGB
 90
        0
102
RTVSPost2010PropOp41
 70
     1
102
RTVSPost2010Prop42
 90
       50
102
RTVSPost2010PropOp42
 70
     1
102
RTVSPost2010Prop43
 90
        3
102
RTVSPost2010PropOp43
 70
     1
102
RTVSPost2010Prop44ColorIndex
 90
        5
102
RTVSPost2010Prop44ColorRGB
 90
      255
102
RTVSPost2010PropOp44
 70
     1
102
RTVSPost2010Prop45
280
     0
102
RTVSPost2010PropOp45
 70
     1
102
RTVSPost2010Prop46
 90
       50
102
RTVSPost2010PropOp46
 70
     1
102
RTVSPost2010Prop47
 90
       50
102
RTVSPost2010PropOp47
 70
     1
102
RTVSPost2010Prop48
 90
       50
102
RTVSPost2010PropOp48
 70
     1
102
RTVSPost2010Prop49
280
     0
102
RTVSPost2010PropOp49
 70
     1
102
RTVSPost2010Prop50
 90
       50
102
RTVSPost2010PropOp50
 70
     1
102
RTVSPost2010Prop51ColorIndex
 90
      256
102
RTVSPost2010Prop51ColorRGB
 90
-16777216
102
RTVSPost2010PropOp51
 70
     0
102
RTVSPost2010Prop52
140
1.0
102
RTVSPost2010PropOp52
 70
     0
102
RTVSPost2010Prop53
 90
        2
102
RTVSPost2010PropOp53
 70
     1
102
RTVSPost2010Prop54
  1
strokes_ogs.tif
102
RTVSPost2010PropOp54
 70
     1
102
RTVSPost2010Prop55
280
     0
102
RTVSPost2010PropOp55
 70
     1
102
RTVSPost2010Prop56
140
1.0
102
RTVSPost2010PropOp56
 70
     1
102
RTVSPost2010Prop57
140
1.0
102
RTVSPost2010PropOp57
 70
     1
102
RTVSPropertyOp0
 70
     1
102
RTVSPropertyOp1
 70
     1
102
RTVSPropertyOp2
 70
     1
102
RTVSPropertyOp3
 70
     1
102
RTVSPropertyOp4
 70
     1
102
RTVSPropertyOp5
 70
     1
102
RTVSPropertyOp6
 70
     1
102
RTVSPropertyOp7
 70
     1
102
RTVSPropertyOp8
 70
     1
102
RTVSPropertyOp9
 70
     1
102
RTVSPropertyOp10
 70
     1
102
RTVSPropertyOp11
 70
     1
102
RTVSPropertyOp12
 70
     1
102
RTVSPropertyOp13
 70
     1
102
RTVSPropertyOp14
 70
     1
102
RTVSPropertyOp15
 70
     1
102
RTVSPropertyOp16
 70
     1
102
RTVSPropertyOp17
 70
     1
102
RTVSPropertyOp18
 70
     1
102
RTVSPropertyOp19
 70
     1
102
RTVSPropertyOp20
 70
     1
102
RTVSPropertyOp21
 70
     1
102
RTVSPropertyOp22
 70
     1
102
RTVSPropertyOp23
 70
     1
102
RTVSPropertyOp24
 70
     1
102
RTVSPropertyOp25
 70
     1
102
RTVSPropertyOp26
 70
     1
102
RTVSPropertyOp27
 70
     1
102
RTVSPropertyOp28
 70
     1
102
RTVSPropertyOp29
 70
     1
102
RTVSPropertyOp30
 70
     1
102
RTVSPropertyOp31
 70
     1
102
RTVSPropertyOp32
 70
     1
102
RTVSPropertyOp33
 70
     1
102
RTVSPropertyOp34
 70
     1
102
RTVSPropertyOp35
 70
     1
102
RTVSPropertyOp36
 70
     1
102
RTVSPropertyOp37
 70
     1
102
RTVSPropertyOp38
 70
     1
102
RTVSPropertyOp39
 70
     1
102
RTVSPropertyOp40
 70
     1
102
RTVSPropertyOp41
 70
     1
102
RTVSPropertyOp42
 70
     1
102
RTVSPropertyOp43
 70
     1
102
RTVSPropertyOp44
 70
     1
102
RTVSPropertyOp45
 70
     1
102
RTVSPropertyOp46
 70
     1
102
RTVSPropertyOp47
 70
     1
102
RTVSPropertyOp48
 70
     1
102
RTVSPropertyOp49
 70
     1
102
RTVSPropertyOp50
 70
     1
102
RTVSPropertyOp51
 70
     0
102
RTVSPropertyOp52
 70
     0
102
RTVSPropertyOp53
 70
     1
102
RTVSPropertyOp54
 70
     1
102
RTVSPropertyOp55
 70
     1
102
RTVSPropertyOp56
 70
     1
102
RTVSPropertyOp57
 70
     1
102
RTVSPropertyOp58
 70
     1
102
RTVSPropertyOp59
 70
     1
102
RTVSPropertyOp60
 70
     1
102
RTVSPropertyOp61
 70
     1
102
RTVSPropertyOp62
 70
     1
  0
XRECORD
  5
FA55
102
{ACAD_REACTORS
330
FA54
102
}
330
FA54
100
AcDbXrecord
280
     1
102
RTVSPost2010Prop28
280
     0
102
RTVSPost2010PropOp28
 70
     1
102
RTVSPost2010Prop29
280
     1
102
RTVSPost2010PropOp29
 70
     1
102
RTVSPost2010Prop30
280
     1
102
RTVSPost2010PropOp30
 70
     1
102
RTVSPost2010Prop31
280
     0
102
RTVSPost2010PropOp31
 70
     1
102
RTVSPost2010Prop32
280
     0
102
RTVSPost2010PropOp32
 70
     1
102
RTVSPost2010Prop33
280
     0
102
RTVSPost2010PropOp33
 70
     1
102
RTVSPost2010Prop34
280
     0
102
RTVSPost2010PropOp34
 70
     1
102
RTVSPost2010Prop35
280
     0
102
RTVSPost2010PropOp35
 70
     1
102
RTVSPost2010Prop36
280
     0
102
RTVSPost2010PropOp36
 70
     1
102
RTVSPost2010Prop37
 90
       50
102
RTVSPost2010PropOp37
 70
     0
102
RTVSPost2010Prop38
140
0.0
102
RTVSPost2010PropOp38
 70
     0
102
RTVSPost2010Prop39
140
1.0
102
RTVSPost2010PropOp39
 70
     0
102
RTVSPost2010Prop40
 90
        0
102
RTVSPost2010PropOp40
 70
     0
102
RTVSPost2010Prop41ColorIndex
 90
       18
102
RTVSPost2010Prop41ColorRGB
 90
        0
102
RTVSPost2010PropOp41
 70
     0
102
RTVSPost2010Prop42
 90
       50
102
RTVSPost2010PropOp42
 70
     0
102
RTVSPost2010Prop43
 90
        3
102
RTVSPost2010PropOp43
 70
     0
102
RTVSPost2010Prop44ColorIndex
 90
        5
102
RTVSPost2010Prop44ColorRGB
 90
      255
102
RTVSPost2010PropOp44
 70
     0
102
RTVSPost2010Prop45
280
     0
102
RTVSPost2010PropOp45
 70
     1
102
RTVSPost2010Prop46
 90
       50
102
RTVSPost2010PropOp46
 70
     0
102
RTVSPost2010Prop47
 90
       50
102
RTVSPost2010PropOp47
 70
     0
102
RTVSPost2010Prop48
 90
       50
102
RTVSPost2010PropOp48
 70
     0
102
RTVSPost2010Prop49
280
     0
102
RTVSPost2010PropOp49
 70
     1
102
RTVSPost2010Prop50
 90
       50
102
RTVSPost2010PropOp50
 70
     0
102
RTVSPost2010Prop51ColorIndex
 90
      256
102
RTVSPost2010Prop51ColorRGB
 90
-16777216
102
RTVSPost2010PropOp51
 70
     0
102
RTVSPost2010Prop52
140
1.0
102
RTVSPost2010PropOp52
 70
     0
102
RTVSPost2010Prop53
 90
        2
102
RTVSPost2010PropOp53
 70
     0
102
RTVSPost2010Prop54
  1
strokes_ogs.tif
102
RTVSPost2010PropOp54
 70
     0
102
RTVSPost2010Prop55
280
     0
102
RTVSPost2010PropOp55
 70
     1
102
RTVSPost2010Prop56
140
1.0
102
RTVSPost2010PropOp56
 70
     0
102
RTVSPost2010Prop57
140
1.0
102
RTVSPost2010PropOp57
 70
     0
102
RTVSPropertyOp0
 70
     0
102
RTVSPropertyOp1
 70
     0
102
RTVSPropertyOp2
 70
     0
102
RTVSPropertyOp3
 70
     0
102
RTVSPropertyOp4
 70
     0
102
RTVSPropertyOp5
 70
     0
102
RTVSPropertyOp6
 70
     0
102
RTVSPropertyOp7
 70
     0
102
RTVSPropertyOp8
 70
     0
102
RTVSPropertyOp9
 70
     0
102
RTVSPropertyOp10
 70
     0
102
RTVSPropertyOp11
 70
     0
102
RTVSPropertyOp12
 70
     0
102
RTVSPropertyOp13
 70
     0
102
RTVSPropertyOp14
 70
     2
102
RTVSPropertyOp15
 70
     0
102
RTVSPropertyOp16
 70
     0
102
RTVSPropertyOp17
 70
     0
102
RTVSPropertyOp18
 70
     0
102
RTVSPropertyOp19
 70
     0
102
RTVSPropertyOp20
 70
     0
102
RTVSPropertyOp21
 70
     0
102
RTVSPropertyOp22
 70
     0
102
RTVSPropertyOp23
 70
     0
102
RTVSPropertyOp24
 70
     0
102
RTVSPropertyOp25
 70
     0
102
RTVSPropertyOp26
 70
     0
102
RTVSPropertyOp27
 70
     0
102
RTVSPropertyOp28
 70
     1
102
RTVSPropertyOp29
 70
     1
102
RTVSPropertyOp30
 70
     1
102
RTVSPropertyOp31
 70
     1
102
RTVSPropertyOp32
 70
     1
102
RTVSPropertyOp33
 70
     1
102
RTVSPropertyOp34
 70
     1
102
RTVSPropertyOp35
 70
     1
102
RTVSPropertyOp36
 70
     1
102
RTVSPropertyOp37
 70
     0
102
RTVSPropertyOp38
 70
     0
102
RTVSPropertyOp39
 70
     0
102
RTVSPropertyOp40
 70
     0
102
RTVSPropertyOp41
 70
     0
102
RTVSPropertyOp42
 70
     0
102
RTVSPropertyOp43
 70
     0
102
RTVSPropertyOp44
 70
     0
102
RTVSPropertyOp45
 70
     1
102
RTVSPropertyOp46
 70
     0
102
RTVSPropertyOp47
 70
     0
102
RTVSPropertyOp48
 70
     0
102
RTVSPropertyOp49
 70
     1
102
RTVSPropertyOp50
 70
     0
102
RTVSPropertyOp51
 70
     0
102
RTVSPropertyOp52
 70
     0
102
RTVSPropertyOp53
 70
     0
102
RTVSPropertyOp54
 70
     0
102
RTVSPropertyOp55
 70
     1
102
RTVSPropertyOp56
 70
     0
102
RTVSPropertyOp57
 70
     0
102
RTVSPropertyOp58
 70
     0
102
RTVSPropertyOp59
 70
     0
102
RTVSPropertyOp60
 70
     0
102
RTVSPropertyOp61
 70
     0
102
RTVSPropertyOp62
 70
     0
  0
XRECORD
  5
FA45
102
{ACAD_REACTORS
330
FA44
102
}
330
FA44
100
AcDbXrecord
280
     1
102
RTVSPost2010Prop28
280
     0
102
RTVSPost2010PropOp28
 70
     1
102
RTVSPost2010Prop29
280
     1
102
RTVSPost2010PropOp29
 70
     1
102
RTVSPost2010Prop30
280
     1
102
RTVSPost2010PropOp30
 70
     1
102
RTVSPost2010Prop31
280
     0
102
RTVSPost2010PropOp31
 70
     1
102
RTVSPost2010Prop32
280
     0
102
RTVSPost2010PropOp32
 70
     1
102
RTVSPost2010Prop33
280
     0
102
RTVSPost2010PropOp33
 70
     1
102
RTVSPost2010Prop34
280
     0
102
RTVSPost2010PropOp34
 70
     1
102
RTVSPost2010Prop35
280
     0
102
RTVSPost2010PropOp35
 70
     1
102
RTVSPost2010Prop36
280
     0
102
RTVSPost2010PropOp36
 70
     1
102
RTVSPost2010Prop37
 90
       50
102
RTVSPost2010PropOp37
 70
     1
102
RTVSPost2010Prop38
140
0.0
102
RTVSPost2010PropOp38
 70
     1
102
RTVSPost2010Prop39
140
1.0
102
RTVSPost2010PropOp39
 70
     1
102
RTVSPost2010Prop40
 90
        0
102
RTVSPost2010PropOp40
 70
     1
102
RTVSPost2010Prop41ColorIndex
 90
       18
102
RTVSPost2010Prop41ColorRGB
 90
        0
102
RTVSPost2010PropOp41
 70
     1
102
RTVSPost2010Prop42
 90
       50
102
RTVSPost2010PropOp42
 70
     1
102
RTVSPost2010Prop43
 90
        3
102
RTVSPost2010PropOp43
 70
     1
102
RTVSPost2010Prop44ColorIndex
 90
        5
102
RTVSPost2010Prop44ColorRGB
 90
      255
102
RTVSPost2010PropOp44
 70
     1
102
RTVSPost2010Prop45
280
     0
102
RTVSPost2010PropOp45
 70
     1
102
RTVSPost2010Prop46
 90
       50
102
RTVSPost2010PropOp46
 70
     1
102
RTVSPost2010Prop47
 90
       50
102
RTVSPost2010PropOp47
 70
     1
102
RTVSPost2010Prop48
 90
       50
102
RTVSPost2010PropOp48
 70
     1
102
RTVSPost2010Prop49
280
     0
102
RTVSPost2010PropOp49
 70
     1
102
RTVSPost2010Prop50
 90
       50
102
RTVSPost2010PropOp50
 70
     1
102
RTVSPost2010Prop51ColorIndex
 90
      256
102
RTVSPost2010Prop51ColorRGB
 90
-16777216
102
RTVSPost2010PropOp51
 70
     0
102
RTVSPost2010Prop52
140
1.0
102
RTVSPost2010PropOp52
 70
     0
102
RTVSPost2010Prop53
 90
        2
102
RTVSPost2010PropOp53
 70
     1
102
RTVSPost2010Prop54
  1
strokes_ogs.tif
102
RTVSPost2010PropOp54
 70
     1
102
RTVSPost2010Prop55
280
     0
102
RTVSPost2010PropOp55
 70
     1
102
RTVSPost2010Prop56
140
1.0
102
RTVSPost2010PropOp56
 70
     1
102
RTVSPost2010Prop57
140
1.0
102
RTVSPost2010PropOp57
 70
     1
102
RTVSPropertyOp0
 70
     1
102
RTVSPropertyOp1
 70
     1
102
RTVSPropertyOp2
 70
     1
102
RTVSPropertyOp3
 70
     1
102
RTVSPropertyOp4
 70
     1
102
RTVSPropertyOp5
 70
     1
102
RTVSPropertyOp6
 70
     1
102
RTVSPropertyOp7
 70
     1
102
RTVSPropertyOp8
 70
     1
102
RTVSPropertyOp9
 70
     1
102
RTVSPropertyOp10
 70
     1
102
RTVSPropertyOp11
 70
     1
102
RTVSPropertyOp12
 70
     1
102
RTVSPropertyOp13
 70
     1
102
RTVSPropertyOp14
 70
     1
102
RTVSPropertyOp15
 70
     1
102
RTVSPropertyOp16
 70
     1
102
RTVSPropertyOp17
 70
     1
102
RTVSPropertyOp18
 70
     1
102
RTVSPropertyOp19
 70
     1
102
RTVSPropertyOp20
 70
     1
102
RTVSPropertyOp21
 70
     1
102
RTVSPropertyOp22
 70
     1
102
RTVSPropertyOp23
 70
     1
102
RTVSPropertyOp24
 70
     1
102
RTVSPropertyOp25
 70
     1
102
RTVSPropertyOp26
 70
     1
102
RTVSPropertyOp27
 70
     1
102
RTVSPropertyOp28
 70
     1
102
RTVSPropertyOp29
 70
     1
102
RTVSPropertyOp30
 70
     1
102
RTVSPropertyOp31
 70
     1
102
RTVSPropertyOp32
 70
     1
102
RTVSPropertyOp33
 70
     1
102
RTVSPropertyOp34
 70
     1
102
RTVSPropertyOp35
 70
     1
102
RTVSPropertyOp36
 70
     1
102
RTVSPropertyOp37
 70
     1
102
RTVSPropertyOp38
 70
     1
102
RTVSPropertyOp39
 70
     1
102
RTVSPropertyOp40
 70
     1
102
RTVSPropertyOp41
 70
     1
102
RTVSPropertyOp42
 70
     1
102
RTVSPropertyOp43
 70
     1
102
RTVSPropertyOp44
 70
     1
102
RTVSPropertyOp45
 70
     1
102
RTVSPropertyOp46
 70
     1
102
RTVSPropertyOp47
 70
     1
102
RTVSPropertyOp48
 70
     1
102
RTVSPropertyOp49
 70
     1
102
RTVSPropertyOp50
 70
     1
102
RTVSPropertyOp51
 70
     0
102
RTVSPropertyOp52
 70
     0
102
RTVSPropertyOp53
 70
     1
102
RTVSPropertyOp54
 70
     1
102
RTVSPropertyOp55
 70
     1
102
RTVSPropertyOp56
 70
     1
102
RTVSPropertyOp57
 70
     1
102
RTVSPropertyOp58
 70
     1
102
RTVSPropertyOp59
 70
     1
102
RTVSPropertyOp60
 70
     1
102
RTVSPropertyOp61
 70
     1
102
RTVSPropertyOp62
 70
     1
  0
XRECORD
  5
FA57
102
{ACAD_REACTORS
330
FA56
102
}
330
FA56
100
AcDbXrecord
280
     1
102
RTVSPost2010Prop28
280
     0
102
RTVSPost2010PropOp28
 70
     1
102
RTVSPost2010Prop29
280
     1
102
RTVSPost2010PropOp29
 70
     1
102
RTVSPost2010Prop30
280
     1
102
RTVSPost2010PropOp30
 70
     1
102
RTVSPost2010Prop31
280
     0
102
RTVSPost2010PropOp31
 70
     1
102
RTVSPost2010Prop32
280
     0
102
RTVSPost2010PropOp32
 70
     1
102
RTVSPost2010Prop33
280
     0
102
RTVSPost2010PropOp33
 70
     1
102
RTVSPost2010Prop34
280
     0
102
RTVSPost2010PropOp34
 70
     1
102
RTVSPost2010Prop35
280
     0
102
RTVSPost2010PropOp35
 70
     1
102
RTVSPost2010Prop36
280
     0
102
RTVSPost2010PropOp36
 70
     1
102
RTVSPost2010Prop37
 90
       50
102
RTVSPost2010PropOp37
 70
     0
102
RTVSPost2010Prop38
140
0.0
102
RTVSPost2010PropOp38
 70
     0
102
RTVSPost2010Prop39
140
1.0
102
RTVSPost2010PropOp39
 70
     0
102
RTVSPost2010Prop40
 90
        0
102
RTVSPost2010PropOp40
 70
     0
102
RTVSPost2010Prop41ColorIndex
 90
       18
102
RTVSPost2010Prop41ColorRGB
 90
        0
102
RTVSPost2010PropOp41
 70
     0
102
RTVSPost2010Prop42
 90
       50
102
RTVSPost2010PropOp42
 70
     0
102
RTVSPost2010Prop43
 90
        3
102
RTVSPost2010PropOp43
 70
     0
102
RTVSPost2010Prop44ColorIndex
 90
        5
102
RTVSPost2010Prop44ColorRGB
 90
      255
102
RTVSPost2010PropOp44
 70
     0
102
RTVSPost2010Prop45
280
     0
102
RTVSPost2010PropOp45
 70
     1
102
RTVSPost2010Prop46
 90
       50
102
RTVSPost2010PropOp46
 70
     0
102
RTVSPost2010Prop47
 90
       50
102
RTVSPost2010PropOp47
 70
     0
102
RTVSPost2010Prop48
 90
       50
102
RTVSPost2010PropOp48
 70
     0
102
RTVSPost2010Prop49
280
     0
102
RTVSPost2010PropOp49
 70
     1
102
RTVSPost2010Prop50
 90
       50
102
RTVSPost2010PropOp50
 70
     0
102
RTVSPost2010Prop51ColorIndex
 90
      256
102
RTVSPost2010Prop51ColorRGB
 90
-16777216
102
RTVSPost2010PropOp51
 70
     0
102
RTVSPost2010Prop52
140
1.0
102
RTVSPost2010PropOp52
 70
     0
102
RTVSPost2010Prop53
 90
        2
102
RTVSPost2010PropOp53
 70
     0
102
RTVSPost2010Prop54
  1
strokes_ogs.tif
102
RTVSPost2010PropOp54
 70
     0
102
RTVSPost2010Prop55
280
     0
102
RTVSPost2010PropOp55
 70
     1
102
RTVSPost2010Prop56
140
1.0
102
RTVSPost2010PropOp56
 70
     0
102
RTVSPost2010Prop57
140
1.0
102
RTVSPost2010PropOp57
 70
     0
102
RTVSPropertyOp0
 70
     0
102
RTVSPropertyOp1
 70
     0
102
RTVSPropertyOp2
 70
     0
102
RTVSPropertyOp3
 70
     0
102
RTVSPropertyOp4
 70
     0
102
RTVSPropertyOp5
 70
     0
102
RTVSPropertyOp6
 70
     0
102
RTVSPropertyOp7
 70
     0
102
RTVSPropertyOp8
 70
     0
102
RTVSPropertyOp9
 70
     0
102
RTVSPropertyOp10
 70
     0
102
RTVSPropertyOp11
 70
     0
102
RTVSPropertyOp12
 70
     0
102
RTVSPropertyOp13
 70
     0
102
RTVSPropertyOp14
 70
     2
102
RTVSPropertyOp15
 70
     0
102
RTVSPropertyOp16
 70
     0
102
RTVSPropertyOp17
 70
     0
102
RTVSPropertyOp18
 70
     0
102
RTVSPropertyOp19
 70
     0
102
RTVSPropertyOp20
 70
     0
102
RTVSPropertyOp21
 70
     0
102
RTVSPropertyOp22
 70
     0
102
RTVSPropertyOp23
 70
     0
102
RTVSPropertyOp24
 70
     0
102
RTVSPropertyOp25
 70
     0
102
RTVSPropertyOp26
 70
     0
102
RTVSPropertyOp27
 70
     0
102
RTVSPropertyOp28
 70
     1
102
RTVSPropertyOp29
 70
     1
102
RTVSPropertyOp30
 70
     1
102
RTVSPropertyOp31
 70
     1
102
RTVSPropertyOp32
 70
     1
102
RTVSPropertyOp33
 70
     1
102
RTVSPropertyOp34
 70
     1
102
RTVSPropertyOp35
 70
     1
102
RTVSPropertyOp36
 70
     1
102
RTVSPropertyOp37
 70
     0
102
RTVSPropertyOp38
 70
     0
102
RTVSPropertyOp39
 70
     0
102
RTVSPropertyOp40
 70
     0
102
RTVSPropertyOp41
 70
     0
102
RTVSPropertyOp42
 70
     0
102
RTVSPropertyOp43
 70
     0
102
RTVSPropertyOp44
 70
     0
102
RTVSPropertyOp45
 70
     1
102
RTVSPropertyOp46
 70
     0
102
RTVSPropertyOp47
 70
     0
102
RTVSPropertyOp48
 70
     0
102
RTVSPropertyOp49
 70
     1
102
RTVSPropertyOp50
 70
     0
102
RTVSPropertyOp51
 70
     0
102
RTVSPropertyOp52
 70
     0
102
RTVSPropertyOp53
 70
     0
102
RTVSPropertyOp54
 70
     0
102
RTVSPropertyOp55
 70
     1
102
RTVSPropertyOp56
 70
     0
102
RTVSPropertyOp57
 70
     0
102
RTVSPropertyOp58
 70
     0
102
RTVSPropertyOp59
 70
     0
102
RTVSPropertyOp60
 70
     0
102
RTVSPropertyOp61
 70
     0
102
RTVSPropertyOp62
 70
     0
  0
XRECORD
  5
FA3D
102
{ACAD_REACTORS
330
FA3C
102
}
330
FA3C
100
AcDbXrecord
280
     1
102
RTVSPost2010Prop28
280
     0
102
RTVSPost2010PropOp28
 70
     1
102
RTVSPost2010Prop29
280
     1
102
RTVSPost2010PropOp29
 70
     1
102
RTVSPost2010Prop30
280
     1
102
RTVSPost2010PropOp30
 70
     1
102
RTVSPost2010Prop31
280
     0
102
RTVSPost2010PropOp31
 70
     1
102
RTVSPost2010Prop32
280
     0
102
RTVSPost2010PropOp32
 70
     1
102
RTVSPost2010Prop33
280
     0
102
RTVSPost2010PropOp33
 70
     1
102
RTVSPost2010Prop34
280
     0
102
RTVSPost2010PropOp34
 70
     1
102
RTVSPost2010Prop35
280
     0
102
RTVSPost2010PropOp35
 70
     1
102
RTVSPost2010Prop36
280
     0
102
RTVSPost2010PropOp36
 70
     1
102
RTVSPost2010Prop37
 90
       50
102
RTVSPost2010PropOp37
 70
     1
102
RTVSPost2010Prop38
140
0.0
102
RTVSPost2010PropOp38
 70
     1
102
RTVSPost2010Prop39
140
1.0
102
RTVSPost2010PropOp39
 70
     1
102
RTVSPost2010Prop40
 90
        0
102
RTVSPost2010PropOp40
 70
     1
102
RTVSPost2010Prop41ColorIndex
 90
       18
102
RTVSPost2010Prop41ColorRGB
 90
        0
102
RTVSPost2010PropOp41
 70
     1
102
RTVSPost2010Prop42
 90
       50
102
RTVSPost2010PropOp42
 70
     1
102
RTVSPost2010Prop43
 90
        3
102
RTVSPost2010PropOp43
 70
     1
102
RTVSPost2010Prop44ColorIndex
 90
        5
102
RTVSPost2010Prop44ColorRGB
 90
      255
102
RTVSPost2010PropOp44
 70
     1
102
RTVSPost2010Prop45
280
     0
102
RTVSPost2010PropOp45
 70
     1
102
RTVSPost2010Prop46
 90
       50
102
RTVSPost2010PropOp46
 70
     1
102
RTVSPost2010Prop47
 90
       50
102
RTVSPost2010PropOp47
 70
     1
102
RTVSPost2010Prop48
 90
       50
102
RTVSPost2010PropOp48
 70
     1
102
RTVSPost2010Prop49
280
     0
102
RTVSPost2010PropOp49
 70
     1
102
RTVSPost2010Prop50
 90
       50
102
RTVSPost2010PropOp50
 70
     1
102
RTVSPost2010Prop51ColorIndex
 90
      256
102
RTVSPost2010Prop51ColorRGB
 90
-16777216
102
RTVSPost2010PropOp51
 70
     0
102
RTVSPost2010Prop52
140
1.0
102
RTVSPost2010PropOp52
 70
     0
102
RTVSPost2010Prop53
 90
        2
102
RTVSPost2010PropOp53
 70
     1
102
RTVSPost2010Prop54
  1
strokes_ogs.tif
102
RTVSPost2010PropOp54
 70
     1
102
RTVSPost2010Prop55
280
     0
102
RTVSPost2010PropOp55
 70
     1
102
RTVSPost2010Prop56
140
1.0
102
RTVSPost2010PropOp56
 70
     1
102
RTVSPost2010Prop57
140
1.0
102
RTVSPost2010PropOp57
 70
     1
102
RTVSPropertyOp0
 70
     1
102
RTVSPropertyOp1
 70
     1
102
RTVSPropertyOp2
 70
     1
102
RTVSPropertyOp3
 70
     1
102
RTVSPropertyOp4
 70
     1
102
RTVSPropertyOp5
 70
     1
102
RTVSPropertyOp6
 70
     1
102
RTVSPropertyOp7
 70
     1
102
RTVSPropertyOp8
 70
     1
102
RTVSPropertyOp9
 70
     1
102
RTVSPropertyOp10
 70
     1
102
RTVSPropertyOp11
 70
     1
102
RTVSPropertyOp12
 70
     1
102
RTVSPropertyOp13
 70
     1
102
RTVSPropertyOp14
 70
     1
102
RTVSPropertyOp15
 70
     1
102
RTVSPropertyOp16
 70
     1
102
RTVSPropertyOp17
 70
     1
102
RTVSPropertyOp18
 70
     1
102
RTVSPropertyOp19
 70
     1
102
RTVSPropertyOp20
 70
     1
102
RTVSPropertyOp21
 70
     1
102
RTVSPropertyOp22
 70
     1
102
RTVSPropertyOp23
 70
     1
102
RTVSPropertyOp24
 70
     1
102
RTVSPropertyOp25
 70
     1
102
RTVSPropertyOp26
 70
     1
102
RTVSPropertyOp27
 70
     1
102
RTVSPropertyOp28
 70
     1
102
RTVSPropertyOp29
 70
     1
102
RTVSPropertyOp30
 70
     1
102
RTVSPropertyOp31
 70
     1
102
RTVSPropertyOp32
 70
     1
102
RTVSPropertyOp33
 70
     1
102
RTVSPropertyOp34
 70
     1
102
RTVSPropertyOp35
 70
     1
102
RTVSPropertyOp36
 70
     1
102
RTVSPropertyOp37
 70
     1
102
RTVSPropertyOp38
 70
     1
102
RTVSPropertyOp39
 70
     1
102
RTVSPropertyOp40
 70
     1
102
RTVSPropertyOp41
 70
     1
102
RTVSPropertyOp42
 70
     1
102
RTVSPropertyOp43
 70
     1
102
RTVSPropertyOp44
 70
     1
102
RTVSPropertyOp45
 70
     1
102
RTVSPropertyOp46
 70
     1
102
RTVSPropertyOp47
 70
     1
102
RTVSPropertyOp48
 70
     1
102
RTVSPropertyOp49
 70
     1
102
RTVSPropertyOp50
 70
     1
102
RTVSPropertyOp51
 70
     0
102
RTVSPropertyOp52
 70
     0
102
RTVSPropertyOp53
 70
     1
102
RTVSPropertyOp54
 70
     1
102
RTVSPropertyOp55
 70
     1
102
RTVSPropertyOp56
 70
     1
102
RTVSPropertyOp57
 70
     1
102
RTVSPropertyOp58
 70
     1
102
RTVSPropertyOp59
 70
     1
102
RTVSPropertyOp60
 70
     1
102
RTVSPropertyOp61
 70
     1
102
RTVSPropertyOp62
 70
     1
  0
XRECORD
  5
FA53
102
{ACAD_REACTORS
330
FA52
102
}
330
FA52
100
AcDbXrecord
280
     1
102
RTVSPost2010Prop28
280
     0
102
RTVSPost2010PropOp28
 70
     1
102
RTVSPost2010Prop29
280
     1
102
RTVSPost2010PropOp29
 70
     1
102
RTVSPost2010Prop30
280
     1
102
RTVSPost2010PropOp30
 70
     1
102
RTVSPost2010Prop31
280
     0
102
RTVSPost2010PropOp31
 70
     1
102
RTVSPost2010Prop32
280
     0
102
RTVSPost2010PropOp32
 70
     1
102
RTVSPost2010Prop33
280
     0
102
RTVSPost2010PropOp33
 70
     1
102
RTVSPost2010Prop34
280
     0
102
RTVSPost2010PropOp34
 70
     1
102
RTVSPost2010Prop35
280
     0
102
RTVSPost2010PropOp35
 70
     1
102
RTVSPost2010Prop36
280
     0
102
RTVSPost2010PropOp36
 70
     1
102
RTVSPost2010Prop37
 90
       50
102
RTVSPost2010PropOp37
 70
     1
102
RTVSPost2010Prop38
140
0.0
102
RTVSPost2010PropOp38
 70
     1
102
RTVSPost2010Prop39
140
1.0
102
RTVSPost2010PropOp39
 70
     1
102
RTVSPost2010Prop40
 90
        0
102
RTVSPost2010PropOp40
 70
     1
102
RTVSPost2010Prop41ColorIndex
 90
       18
102
RTVSPost2010Prop41ColorRGB
 90
        0
102
RTVSPost2010PropOp41
 70
     1
102
RTVSPost2010Prop42
 90
       50
102
RTVSPost2010PropOp42
 70
     1
102
RTVSPost2010Prop43
 90
        3
102
RTVSPost2010PropOp43
 70
     1
102
RTVSPost2010Prop44ColorIndex
 90
        5
102
RTVSPost2010Prop44ColorRGB
 90
      255
102
RTVSPost2010PropOp44
 70
     1
102
RTVSPost2010Prop45
280
     0
102
RTVSPost2010PropOp45
 70
     1
102
RTVSPost2010Prop46
 90
       50
102
RTVSPost2010PropOp46
 70
     1
102
RTVSPost2010Prop47
 90
       50
102
RTVSPost2010PropOp47
 70
     1
102
RTVSPost2010Prop48
 90
       50
102
RTVSPost2010PropOp48
 70
     1
102
RTVSPost2010Prop49
280
     0
102
RTVSPost2010PropOp49
 70
     1
102
RTVSPost2010Prop50
 90
       50
102
RTVSPost2010PropOp50
 70
     1
102
RTVSPost2010Prop51ColorIndex
 90
      256
102
RTVSPost2010Prop51ColorRGB
 90
-16777216
102
RTVSPost2010PropOp51
 70
     0
102
RTVSPost2010Prop52
140
1.0
102
RTVSPost2010PropOp52
 70
     0
102
RTVSPost2010Prop53
 90
        2
102
RTVSPost2010PropOp53
 70
     1
102
RTVSPost2010Prop54
  1
strokes_ogs.tif
102
RTVSPost2010PropOp54
 70
     1
102
RTVSPost2010Prop55
280
     0
102
RTVSPost2010PropOp55
 70
     1
102
RTVSPost2010Prop56
140
1.0
102
RTVSPost2010PropOp56
 70
     1
102
RTVSPost2010Prop57
140
1.0
102
RTVSPost2010PropOp57
 70
     1
102
RTVSPropertyOp0
 70
     1
102
RTVSPropertyOp1
 70
     1
102
RTVSPropertyOp2
 70
     1
102
RTVSPropertyOp3
 70
     1
102
RTVSPropertyOp4
 70
     1
102
RTVSPropertyOp5
 70
     1
102
RTVSPropertyOp6
 70
     1
102
RTVSPropertyOp7
 70
     1
102
RTVSPropertyOp8
 70
     1
102
RTVSPropertyOp9
 70
     1
102
RTVSPropertyOp10
 70
     1
102
RTVSPropertyOp11
 70
     1
102
RTVSPropertyOp12
 70
     1
102
RTVSPropertyOp13
 70
     1
102
RTVSPropertyOp14
 70
     1
102
RTVSPropertyOp15
 70
     1
102
RTVSPropertyOp16
 70
     1
102
RTVSPropertyOp17
 70
     1
102
RTVSPropertyOp18
 70
     1
102
RTVSPropertyOp19
 70
     1
102
RTVSPropertyOp20
 70
     1
102
RTVSPropertyOp21
 70
     1
102
RTVSPropertyOp22
 70
     1
102
RTVSPropertyOp23
 70
     1
102
RTVSPropertyOp24
 70
     1
102
RTVSPropertyOp25
 70
     1
102
RTVSPropertyOp26
 70
     1
102
RTVSPropertyOp27
 70
     1
102
RTVSPropertyOp28
 70
     1
102
RTVSPropertyOp29
 70
     1
102
RTVSPropertyOp30
 70
     1
102
RTVSPropertyOp31
 70
     1
102
RTVSPropertyOp32
 70
     1
102
RTVSPropertyOp33
 70
     1
102
RTVSPropertyOp34
 70
     1
102
RTVSPropertyOp35
 70
     1
102
RTVSPropertyOp36
 70
     1
102
RTVSPropertyOp37
 70
     1
102
RTVSPropertyOp38
 70
     1
102
RTVSPropertyOp39
 70
     1
102
RTVSPropertyOp40
 70
     1
102
RTVSPropertyOp41
 70
     1
102
RTVSPropertyOp42
 70
     1
102
RTVSPropertyOp43
 70
     1
102
RTVSPropertyOp44
 70
     1
102
RTVSPropertyOp45
 70
     1
102
RTVSPropertyOp46
 70
     1
102
RTVSPropertyOp47
 70
     1
102
RTVSPropertyOp48
 70
     1
102
RTVSPropertyOp49
 70
     1
102
RTVSPropertyOp50
 70
     1
102
RTVSPropertyOp51
 70
     0
102
RTVSPropertyOp52
 70
     0
102
RTVSPropertyOp53
 70
     1
102
RTVSPropertyOp54
 70
     1
102
RTVSPropertyOp55
 70
     1
102
RTVSPropertyOp56
 70
     1
102
RTVSPropertyOp57
 70
     1
102
RTVSPropertyOp58
 70
     1
102
RTVSPropertyOp59
 70
     1
102
RTVSPropertyOp60
 70
     1
102
RTVSPropertyOp61
 70
     1
102
RTVSPropertyOp62
 70
     1
  0
XRECORD
  5
FA51
102
{ACAD_REACTORS
330
FA50
102
}
330
FA50
100
AcDbXrecord
280
     1
102
RTVSPost2010Prop28
280
     0
102
RTVSPost2010PropOp28
 70
     1
102
RTVSPost2010Prop29
280
     1
102
RTVSPost2010PropOp29
 70
     1
102
RTVSPost2010Prop30
280
     1
102
RTVSPost2010PropOp30
 70
     1
102
RTVSPost2010Prop31
280
     0
102
RTVSPost2010PropOp31
 70
     1
102
RTVSPost2010Prop32
280
     0
102
RTVSPost2010PropOp32
 70
     1
102
RTVSPost2010Prop33
280
     0
102
RTVSPost2010PropOp33
 70
     1
102
RTVSPost2010Prop34
280
     0
102
RTVSPost2010PropOp34
 70
     1
102
RTVSPost2010Prop35
280
     0
102
RTVSPost2010PropOp35
 70
     1
102
RTVSPost2010Prop36
280
     0
102
RTVSPost2010PropOp36
 70
     1
102
RTVSPost2010Prop37
 90
       50
102
RTVSPost2010PropOp37
 70
     1
102
RTVSPost2010Prop38
140
0.0
102
RTVSPost2010PropOp38
 70
     1
102
RTVSPost2010Prop39
140
1.0
102
RTVSPost2010PropOp39
 70
     1
102
RTVSPost2010Prop40
 90
        0
102
RTVSPost2010PropOp40
 70
     1
102
RTVSPost2010Prop41ColorIndex
 90
       18
102
RTVSPost2010Prop41ColorRGB
 90
        0
102
RTVSPost2010PropOp41
 70
     1
102
RTVSPost2010Prop42
 90
       50
102
RTVSPost2010PropOp42
 70
     1
102
RTVSPost2010Prop43
 90
        3
102
RTVSPost2010PropOp43
 70
     1
102
RTVSPost2010Prop44ColorIndex
 90
        5
102
RTVSPost2010Prop44ColorRGB
 90
      255
102
RTVSPost2010PropOp44
 70
     1
102
RTVSPost2010Prop45
280
     0
102
RTVSPost2010PropOp45
 70
     1
102
RTVSPost2010Prop46
 90
       50
102
RTVSPost2010PropOp46
 70
     1
102
RTVSPost2010Prop47
 90
       50
102
RTVSPost2010PropOp47
 70
     1
102
RTVSPost2010Prop48
 90
       50
102
RTVSPost2010PropOp48
 70
     1
102
RTVSPost2010Prop49
280
     0
102
RTVSPost2010PropOp49
 70
     1
102
RTVSPost2010Prop50
 90
       50
102
RTVSPost2010PropOp50
 70
     1
102
RTVSPost2010Prop51ColorIndex
 90
      256
102
RTVSPost2010Prop51ColorRGB
 90
-16777216
102
RTVSPost2010PropOp51
 70
     0
102
RTVSPost2010Prop52
140
1.0
102
RTVSPost2010PropOp52
 70
     0
102
RTVSPost2010Prop53
 90
        2
102
RTVSPost2010PropOp53
 70
     1
102
RTVSPost2010Prop54
  1
strokes_ogs.tif
102
RTVSPost2010PropOp54
 70
     1
102
RTVSPost2010Prop55
280
     0
102
RTVSPost2010PropOp55
 70
     1
102
RTVSPost2010Prop56
140
1.0
102
RTVSPost2010PropOp56
 70
     1
102
RTVSPost2010Prop57
140
1.0
102
RTVSPost2010PropOp57
 70
     1
102
RTVSPropertyOp0
 70
     1
102
RTVSPropertyOp1
 70
     1
102
RTVSPropertyOp2
 70
     1
102
RTVSPropertyOp3
 70
     1
102
RTVSPropertyOp4
 70
     1
102
RTVSPropertyOp5
 70
     1
102
RTVSPropertyOp6
 70
     1
102
RTVSPropertyOp7
 70
     1
102
RTVSPropertyOp8
 70
     1
102
RTVSPropertyOp9
 70
     1
102
RTVSPropertyOp10
 70
     1
102
RTVSPropertyOp11
 70
     1
102
RTVSPropertyOp12
 70
     1
102
RTVSPropertyOp13
 70
     1
102
RTVSPropertyOp14
 70
     1
102
RTVSPropertyOp15
 70
     1
102
RTVSPropertyOp16
 70
     1
102
RTVSPropertyOp17
 70
     1
102
RTVSPropertyOp18
 70
     1
102
RTVSPropertyOp19
 70
     1
102
RTVSPropertyOp20
 70
     1
102
RTVSPropertyOp21
 70
     1
102
RTVSPropertyOp22
 70
     1
102
RTVSPropertyOp23
 70
     1
102
RTVSPropertyOp24
 70
     1
102
RTVSPropertyOp25
 70
     1
102
RTVSPropertyOp26
 70
     1
102
RTVSPropertyOp27
 70
     1
102
RTVSPropertyOp28
 70
     1
102
RTVSPropertyOp29
 70
     1
102
RTVSPropertyOp30
 70
     1
102
RTVSPropertyOp31
 70
     1
102
RTVSPropertyOp32
 70
     1
102
RTVSPropertyOp33
 70
     1
102
RTVSPropertyOp34
 70
     1
102
RTVSPropertyOp35
 70
     1
102
RTVSPropertyOp36
 70
     1
102
RTVSPropertyOp37
 70
     1
102
RTVSPropertyOp38
 70
     1
102
RTVSPropertyOp39
 70
     1
102
RTVSPropertyOp40
 70
     1
102
RTVSPropertyOp41
 70
     1
102
RTVSPropertyOp42
 70
     1
102
RTVSPropertyOp43
 70
     1
102
RTVSPropertyOp44
 70
     1
102
RTVSPropertyOp45
 70
     1
102
RTVSPropertyOp46
 70
     1
102
RTVSPropertyOp47
 70
     1
102
RTVSPropertyOp48
 70
     1
102
RTVSPropertyOp49
 70
     1
102
RTVSPropertyOp50
 70
     1
102
RTVSPropertyOp51
 70
     0
102
RTVSPropertyOp52
 70
     0
102
RTVSPropertyOp53
 70
     1
102
RTVSPropertyOp54
 70
     1
102
RTVSPropertyOp55
 70
     1
102
RTVSPropertyOp56
 70
     1
102
RTVSPropertyOp57
 70
     1
102
RTVSPropertyOp58
 70
     1
102
RTVSPropertyOp59
 70
     1
102
RTVSPropertyOp60
 70
     1
102
RTVSPropertyOp61
 70
     1
102
RTVSPropertyOp62
 70
     1
  0
XRECORD
  5
FA4B
102
{ACAD_REACTORS
330
FA4A
102
}
330
FA4A
100
AcDbXrecord
280
     1
102
RTVSPost2010Prop28
280
     0
102
RTVSPost2010PropOp28
 70
     1
102
RTVSPost2010Prop29
280
     1
102
RTVSPost2010PropOp29
 70
     1
102
RTVSPost2010Prop30
280
     1
102
RTVSPost2010PropOp30
 70
     1
102
RTVSPost2010Prop31
280
     0
102
RTVSPost2010PropOp31
 70
     1
102
RTVSPost2010Prop32
280
     0
102
RTVSPost2010PropOp32
 70
     1
102
RTVSPost2010Prop33
280
     0
102
RTVSPost2010PropOp33
 70
     1
102
RTVSPost2010Prop34
280
     0
102
RTVSPost2010PropOp34
 70
     1
102
RTVSPost2010Prop35
280
     0
102
RTVSPost2010PropOp35
 70
     1
102
RTVSPost2010Prop36
280
     0
102
RTVSPost2010PropOp36
 70
     1
102
RTVSPost2010Prop37
 90
       50
102
RTVSPost2010PropOp37
 70
     1
102
RTVSPost2010Prop38
140
0.0
102
RTVSPost2010PropOp38
 70
     1
102
RTVSPost2010Prop39
140
1.0
102
RTVSPost2010PropOp39
 70
     1
102
RTVSPost2010Prop40
 90
        0
102
RTVSPost2010PropOp40
 70
     1
102
RTVSPost2010Prop41ColorIndex
 90
       18
102
RTVSPost2010Prop41ColorRGB
 90
        0
102
RTVSPost2010PropOp41
 70
     1
102
RTVSPost2010Prop42
 90
       50
102
RTVSPost2010PropOp42
 70
     1
102
RTVSPost2010Prop43
 90
        3
102
RTVSPost2010PropOp43
 70
     1
102
RTVSPost2010Prop44ColorIndex
 90
        5
102
RTVSPost2010Prop44ColorRGB
 90
      255
102
RTVSPost2010PropOp44
 70
     1
102
RTVSPost2010Prop45
280
     0
102
RTVSPost2010PropOp45
 70
     1
102
RTVSPost2010Prop46
 90
       50
102
RTVSPost2010PropOp46
 70
     1
102
RTVSPost2010Prop47
 90
       50
102
RTVSPost2010PropOp47
 70
     1
102
RTVSPost2010Prop48
 90
       50
102
RTVSPost2010PropOp48
 70
     1
102
RTVSPost2010Prop49
280
     0
102
RTVSPost2010PropOp49
 70
     1
102
RTVSPost2010Prop50
 90
       50
102
RTVSPost2010PropOp50
 70
     1
102
RTVSPost2010Prop51ColorIndex
 90
      256
102
RTVSPost2010Prop51ColorRGB
 90
-16777216
102
RTVSPost2010PropOp51
 70
     0
102
RTVSPost2010Prop52
140
1.0
102
RTVSPost2010PropOp52
 70
     0
102
RTVSPost2010Prop53
 90
        2
102
RTVSPost2010PropOp53
 70
     1
102
RTVSPost2010Prop54
  1
strokes_ogs.tif
102
RTVSPost2010PropOp54
 70
     1
102
RTVSPost2010Prop55
280
     0
102
RTVSPost2010PropOp55
 70
     1
102
RTVSPost2010Prop56
140
1.0
102
RTVSPost2010PropOp56
 70
     1
102
RTVSPost2010Prop57
140
1.0
102
RTVSPost2010PropOp57
 70
     1
102
RTVSPropertyOp0
 70
     1
102
RTVSPropertyOp1
 70
     1
102
RTVSPropertyOp2
 70
     1
102
RTVSPropertyOp3
 70
     1
102
RTVSPropertyOp4
 70
     1
102
RTVSPropertyOp5
 70
     1
102
RTVSPropertyOp6
 70
     1
102
RTVSPropertyOp7
 70
     1
102
RTVSPropertyOp8
 70
     1
102
RTVSPropertyOp9
 70
     1
102
RTVSPropertyOp10
 70
     1
102
RTVSPropertyOp11
 70
     1
102
RTVSPropertyOp12
 70
     1
102
RTVSPropertyOp13
 70
     1
102
RTVSPropertyOp14
 70
     1
102
RTVSPropertyOp15
 70
     1
102
RTVSPropertyOp16
 70
     1
102
RTVSPropertyOp17
 70
     1
102
RTVSPropertyOp18
 70
     1
102
RTVSPropertyOp19
 70
     1
102
RTVSPropertyOp20
 70
     1
102
RTVSPropertyOp21
 70
     1
102
RTVSPropertyOp22
 70
     1
102
RTVSPropertyOp23
 70
     1
102
RTVSPropertyOp24
 70
     1
102
RTVSPropertyOp25
 70
     1
102
RTVSPropertyOp26
 70
     1
102
RTVSPropertyOp27
 70
     1
102
RTVSPropertyOp28
 70
     1
102
RTVSPropertyOp29
 70
     1
102
RTVSPropertyOp30
 70
     1
102
RTVSPropertyOp31
 70
     1
102
RTVSPropertyOp32
 70
     1
102
RTVSPropertyOp33
 70
     1
102
RTVSPropertyOp34
 70
     1
102
RTVSPropertyOp35
 70
     1
102
RTVSPropertyOp36
 70
     1
102
RTVSPropertyOp37
 70
     1
102
RTVSPropertyOp38
 70
     1
102
RTVSPropertyOp39
 70
     1
102
RTVSPropertyOp40
 70
     1
102
RTVSPropertyOp41
 70
     1
102
RTVSPropertyOp42
 70
     1
102
RTVSPropertyOp43
 70
     1
102
RTVSPropertyOp44
 70
     1
102
RTVSPropertyOp45
 70
     1
102
RTVSPropertyOp46
 70
     1
102
RTVSPropertyOp47
 70
     1
102
RTVSPropertyOp48
 70
     1
102
RTVSPropertyOp49
 70
     1
102
RTVSPropertyOp50
 70
     1
102
RTVSPropertyOp51
 70
     0
102
RTVSPropertyOp52
 70
     0
102
RTVSPropertyOp53
 70
     1
102
RTVSPropertyOp54
 70
     1
102
RTVSPropertyOp55
 70
     1
102
RTVSPropertyOp56
 70
     1
102
RTVSPropertyOp57
 70
     1
102
RTVSPropertyOp58
 70
     1
102
RTVSPropertyOp59
 70
     1
102
RTVSPropertyOp60
 70
     1
102
RTVSPropertyOp61
 70
     1
102
RTVSPropertyOp62
 70
     1
  0
XRECORD
  5
FA4D
102
{ACAD_REACTORS
330
FA4C
102
}
330
FA4C
100
AcDbXrecord
280
     1
102
RTVSPost2010Prop28
280
     0
102
RTVSPost2010PropOp28
 70
     1
102
RTVSPost2010Prop29
280
     1
102
RTVSPost2010PropOp29
 70
     1
102
RTVSPost2010Prop30
280
     1
102
RTVSPost2010PropOp30
 70
     1
102
RTVSPost2010Prop31
280
     0
102
RTVSPost2010PropOp31
 70
     1
102
RTVSPost2010Prop32
280
     0
102
RTVSPost2010PropOp32
 70
     1
102
RTVSPost2010Prop33
280
     0
102
RTVSPost2010PropOp33
 70
     1
102
RTVSPost2010Prop34
280
     0
102
RTVSPost2010PropOp34
 70
     1
102
RTVSPost2010Prop35
280
     0
102
RTVSPost2010PropOp35
 70
     1
102
RTVSPost2010Prop36
280
     0
102
RTVSPost2010PropOp36
 70
     1
102
RTVSPost2010Prop37
 90
       50
102
RTVSPost2010PropOp37
 70
     1
102
RTVSPost2010Prop38
140
0.0
102
RTVSPost2010PropOp38
 70
     1
102
RTVSPost2010Prop39
140
1.0
102
RTVSPost2010PropOp39
 70
     1
102
RTVSPost2010Prop40
 90
        0
102
RTVSPost2010PropOp40
 70
     1
102
RTVSPost2010Prop41ColorIndex
 90
       18
102
RTVSPost2010Prop41ColorRGB
 90
        0
102
RTVSPost2010PropOp41
 70
     1
102
RTVSPost2010Prop42
 90
       50
102
RTVSPost2010PropOp42
 70
     1
102
RTVSPost2010Prop43
 90
        3
102
RTVSPost2010PropOp43
 70
     1
102
RTVSPost2010Prop44ColorIndex
 90
        5
102
RTVSPost2010Prop44ColorRGB
 90
      255
102
RTVSPost2010PropOp44
 70
     1
102
RTVSPost2010Prop45
280
     0
102
RTVSPost2010PropOp45
 70
     1
102
RTVSPost2010Prop46
 90
       50
102
RTVSPost2010PropOp46
 70
     1
102
RTVSPost2010Prop47
 90
       50
102
RTVSPost2010PropOp47
 70
     1
102
RTVSPost2010Prop48
 90
       50
102
RTVSPost2010PropOp48
 70
     1
102
RTVSPost2010Prop49
280
     0
102
RTVSPost2010PropOp49
 70
     1
102
RTVSPost2010Prop50
 90
       50
102
RTVSPost2010PropOp50
 70
     1
102
RTVSPost2010Prop51ColorIndex
 90
      256
102
RTVSPost2010Prop51ColorRGB
 90
-16777216
102
RTVSPost2010PropOp51
 70
     0
102
RTVSPost2010Prop52
140
1.0
102
RTVSPost2010PropOp52
 70
     0
102
RTVSPost2010Prop53
 90
        2
102
RTVSPost2010PropOp53
 70
     1
102
RTVSPost2010Prop54
  1
strokes_ogs.tif
102
RTVSPost2010PropOp54
 70
     1
102
RTVSPost2010Prop55
280
     0
102
RTVSPost2010PropOp55
 70
     1
102
RTVSPost2010Prop56
140
1.0
102
RTVSPost2010PropOp56
 70
     1
102
RTVSPost2010Prop57
140
1.0
102
RTVSPost2010PropOp57
 70
     1
102
RTVSPropertyOp0
 70
     1
102
RTVSPropertyOp1
 70
     1
102
RTVSPropertyOp2
 70
     1
102
RTVSPropertyOp3
 70
     1
102
RTVSPropertyOp4
 70
     1
102
RTVSPropertyOp5
 70
     1
102
RTVSPropertyOp6
 70
     1
102
RTVSPropertyOp7
 70
     1
102
RTVSPropertyOp8
 70
     1
102
RTVSPropertyOp9
 70
     1
102
RTVSPropertyOp10
 70
     1
102
RTVSPropertyOp11
 70
     1
102
RTVSPropertyOp12
 70
     1
102
RTVSPropertyOp13
 70
     1
102
RTVSPropertyOp14
 70
     1
102
RTVSPropertyOp15
 70
     1
102
RTVSPropertyOp16
 70
     1
102
RTVSPropertyOp17
 70
     1
102
RTVSPropertyOp18
 70
     1
102
RTVSPropertyOp19
 70
     1
102
RTVSPropertyOp20
 70
     1
102
RTVSPropertyOp21
 70
     1
102
RTVSPropertyOp22
 70
     1
102
RTVSPropertyOp23
 70
     1
102
RTVSPropertyOp24
 70
     1
102
RTVSPropertyOp25
 70
     1
102
RTVSPropertyOp26
 70
     1
102
RTVSPropertyOp27
 70
     1
102
RTVSPropertyOp28
 70
     1
102
RTVSPropertyOp29
 70
     1
102
RTVSPropertyOp30
 70
     1
102
RTVSPropertyOp31
 70
     1
102
RTVSPropertyOp32
 70
     1
102
RTVSPropertyOp33
 70
     1
102
RTVSPropertyOp34
 70
     1
102
RTVSPropertyOp35
 70
     1
102
RTVSPropertyOp36
 70
     1
102
RTVSPropertyOp37
 70
     1
102
RTVSPropertyOp38
 70
     1
102
RTVSPropertyOp39
 70
     1
102
RTVSPropertyOp40
 70
     1
102
RTVSPropertyOp41
 70
     1
102
RTVSPropertyOp42
 70
     1
102
RTVSPropertyOp43
 70
     1
102
RTVSPropertyOp44
 70
     1
102
RTVSPropertyOp45
 70
     1
102
RTVSPropertyOp46
 70
     1
102
RTVSPropertyOp47
 70
     1
102
RTVSPropertyOp48
 70
     1
102
RTVSPropertyOp49
 70
     1
102
RTVSPropertyOp50
 70
     1
102
RTVSPropertyOp51
 70
     0
102
RTVSPropertyOp52
 70
     0
102
RTVSPropertyOp53
 70
     1
102
RTVSPropertyOp54
 70
     1
102
RTVSPropertyOp55
 70
     1
102
RTVSPropertyOp56
 70
     1
102
RTVSPropertyOp57
 70
     1
102
RTVSPropertyOp58
 70
     1
102
RTVSPropertyOp59
 70
     1
102
RTVSPropertyOp60
 70
     1
102
RTVSPropertyOp61
 70
     1
102
RTVSPropertyOp62
 70
     1
  0
XRECORD
  5
FA43
102
{ACAD_REACTORS
330
FA42
102
}
330
FA42
100
AcDbXrecord
280
     1
102
RTVSPost2010Prop28
280
     0
102
RTVSPost2010PropOp28
 70
     1
102
RTVSPost2010Prop29
280
     1
102
RTVSPost2010PropOp29
 70
     1
102
RTVSPost2010Prop30
280
     1
102
RTVSPost2010PropOp30
 70
     1
102
RTVSPost2010Prop31
280
     0
102
RTVSPost2010PropOp31
 70
     1
102
RTVSPost2010Prop32
280
     0
102
RTVSPost2010PropOp32
 70
     1
102
RTVSPost2010Prop33
280
     0
102
RTVSPost2010PropOp33
 70
     1
102
RTVSPost2010Prop34
280
     0
102
RTVSPost2010PropOp34
 70
     1
102
RTVSPost2010Prop35
280
     0
102
RTVSPost2010PropOp35
 70
     1
102
RTVSPost2010Prop36
280
     0
102
RTVSPost2010PropOp36
 70
     1
102
RTVSPost2010Prop37
 90
       50
102
RTVSPost2010PropOp37
 70
     1
102
RTVSPost2010Prop38
140
0.0
102
RTVSPost2010PropOp38
 70
     1
102
RTVSPost2010Prop39
140
1.0
102
RTVSPost2010PropOp39
 70
     1
102
RTVSPost2010Prop40
 90
        0
102
RTVSPost2010PropOp40
 70
     1
102
RTVSPost2010Prop41ColorIndex
 90
       18
102
RTVSPost2010Prop41ColorRGB
 90
        0
102
RTVSPost2010PropOp41
 70
     1
102
RTVSPost2010Prop42
 90
       50
102
RTVSPost2010PropOp42
 70
     1
102
RTVSPost2010Prop43
 90
        3
102
RTVSPost2010PropOp43
 70
     1
102
RTVSPost2010Prop44ColorIndex
 90
        5
102
RTVSPost2010Prop44ColorRGB
 90
      255
102
RTVSPost2010PropOp44
 70
     1
102
RTVSPost2010Prop45
280
     0
102
RTVSPost2010PropOp45
 70
     1
102
RTVSPost2010Prop46
 90
       50
102
RTVSPost2010PropOp46
 70
     1
102
RTVSPost2010Prop47
 90
       50
102
RTVSPost2010PropOp47
 70
     1
102
RTVSPost2010Prop48
 90
       50
102
RTVSPost2010PropOp48
 70
     1
102
RTVSPost2010Prop49
280
     0
102
RTVSPost2010PropOp49
 70
     1
102
RTVSPost2010Prop50
 90
       50
102
RTVSPost2010PropOp50
 70
     1
102
RTVSPost2010Prop51ColorIndex
 90
      256
102
RTVSPost2010Prop51ColorRGB
 90
-16777216
102
RTVSPost2010PropOp51
 70
     0
102
RTVSPost2010Prop52
140
1.0
102
RTVSPost2010PropOp52
 70
     0
102
RTVSPost2010Prop53
 90
        2
102
RTVSPost2010PropOp53
 70
     1
102
RTVSPost2010Prop54
  1
strokes_ogs.tif
102
RTVSPost2010PropOp54
 70
     1
102
RTVSPost2010Prop55
280
     0
102
RTVSPost2010PropOp55
 70
     1
102
RTVSPost2010Prop56
140
1.0
102
RTVSPost2010PropOp56
 70
     1
102
RTVSPost2010Prop57
140
1.0
102
RTVSPost2010PropOp57
 70
     1
102
RTVSPropertyOp0
 70
     1
102
RTVSPropertyOp1
 70
     1
102
RTVSPropertyOp2
 70
     1
102
RTVSPropertyOp3
 70
     1
102
RTVSPropertyOp4
 70
     1
102
RTVSPropertyOp5
 70
     1
102
RTVSPropertyOp6
 70
     1
102
RTVSPropertyOp7
 70
     1
102
RTVSPropertyOp8
 70
     1
102
RTVSPropertyOp9
 70
     1
102
RTVSPropertyOp10
 70
     1
102
RTVSPropertyOp11
 70
     1
102
RTVSPropertyOp12
 70
     1
102
RTVSPropertyOp13
 70
     1
102
RTVSPropertyOp14
 70
     1
102
RTVSPropertyOp15
 70
     1
102
RTVSPropertyOp16
 70
     1
102
RTVSPropertyOp17
 70
     1
102
RTVSPropertyOp18
 70
     1
102
RTVSPropertyOp19
 70
     1
102
RTVSPropertyOp20
 70
     1
102
RTVSPropertyOp21
 70
     1
102
RTVSPropertyOp22
 70
     1
102
RTVSPropertyOp23
 70
     1
102
RTVSPropertyOp24
 70
     1
102
RTVSPropertyOp25
 70
     1
102
RTVSPropertyOp26
 70
     1
102
RTVSPropertyOp27
 70
     1
102
RTVSPropertyOp28
 70
     1
102
RTVSPropertyOp29
 70
     1
102
RTVSPropertyOp30
 70
     1
102
RTVSPropertyOp31
 70
     1
102
RTVSPropertyOp32
 70
     1
102
RTVSPropertyOp33
 70
     1
102
RTVSPropertyOp34
 70
     1
102
RTVSPropertyOp35
 70
     1
102
RTVSPropertyOp36
 70
     1
102
RTVSPropertyOp37
 70
     1
102
RTVSPropertyOp38
 70
     1
102
RTVSPropertyOp39
 70
     1
102
RTVSPropertyOp40
 70
     1
102
RTVSPropertyOp41
 70
     1
102
RTVSPropertyOp42
 70
     1
102
RTVSPropertyOp43
 70
     1
102
RTVSPropertyOp44
 70
     1
102
RTVSPropertyOp45
 70
     1
102
RTVSPropertyOp46
 70
     1
102
RTVSPropertyOp47
 70
     1
102
RTVSPropertyOp48
 70
     1
102
RTVSPropertyOp49
 70
     1
102
RTVSPropertyOp50
 70
     1
102
RTVSPropertyOp51
 70
     0
102
RTVSPropertyOp52
 70
     0
102
RTVSPropertyOp53
 70
     1
102
RTVSPropertyOp54
 70
     1
102
RTVSPropertyOp55
 70
     1
102
RTVSPropertyOp56
 70
     1
102
RTVSPropertyOp57
 70
     1
102
RTVSPropertyOp58
 70
     1
102
RTVSPropertyOp59
 70
     1
102
RTVSPropertyOp60
 70
     1
102
RTVSPropertyOp61
 70
     1
102
RTVSPropertyOp62
 70
     1
  0
XRECORD
  5
FA37
102
{ACAD_REACTORS
330
FA36
102
}
330
FA36
100
AcDbXrecord
280
     1
102
RTVSPost2010Prop28
280
     0
102
RTVSPost2010PropOp28
 70
     1
102
RTVSPost2010Prop29
280
     1
102
RTVSPost2010PropOp29
 70
     1
102
RTVSPost2010Prop30
280
     1
102
RTVSPost2010PropOp30
 70
     1
102
RTVSPost2010Prop31
280
     0
102
RTVSPost2010PropOp31
 70
     1
102
RTVSPost2010Prop32
280
     0
102
RTVSPost2010PropOp32
 70
     1
102
RTVSPost2010Prop33
280
     0
102
RTVSPost2010PropOp33
 70
     1
102
RTVSPost2010Prop34
280
     0
102
RTVSPost2010PropOp34
 70
     1
102
RTVSPost2010Prop35
280
     0
102
RTVSPost2010PropOp35
 70
     1
102
RTVSPost2010Prop36
280
     0
102
RTVSPost2010PropOp36
 70
     1
102
RTVSPost2010Prop37
 90
       50
102
RTVSPost2010PropOp37
 70
     1
102
RTVSPost2010Prop38
140
0.0
102
RTVSPost2010PropOp38
 70
     1
102
RTVSPost2010Prop39
140
1.0
102
RTVSPost2010PropOp39
 70
     1
102
RTVSPost2010Prop40
 90
        0
102
RTVSPost2010PropOp40
 70
     1
102
RTVSPost2010Prop41ColorIndex
 90
       18
102
RTVSPost2010Prop41ColorRGB
 90
        0
102
RTVSPost2010PropOp41
 70
     1
102
RTVSPost2010Prop42
 90
       50
102
RTVSPost2010PropOp42
 70
     1
102
RTVSPost2010Prop43
 90
        3
102
RTVSPost2010PropOp43
 70
     1
102
RTVSPost2010Prop44ColorIndex
 90
        5
102
RTVSPost2010Prop44ColorRGB
 90
      255
102
RTVSPost2010PropOp44
 70
     1
102
RTVSPost2010Prop45
280
     0
102
RTVSPost2010PropOp45
 70
     1
102
RTVSPost2010Prop46
 90
       50
102
RTVSPost2010PropOp46
 70
     1
102
RTVSPost2010Prop47
 90
       50
102
RTVSPost2010PropOp47
 70
     1
102
RTVSPost2010Prop48
 90
       50
102
RTVSPost2010PropOp48
 70
     1
102
RTVSPost2010Prop49
280
     0
102
RTVSPost2010PropOp49
 70
     1
102
RTVSPost2010Prop50
 90
       50
102
RTVSPost2010PropOp50
 70
     1
102
RTVSPost2010Prop51ColorIndex
 90
      256
102
RTVSPost2010Prop51ColorRGB
 90
-16777216
102
RTVSPost2010PropOp51
 70
     0
102
RTVSPost2010Prop52
140
1.0
102
RTVSPost2010PropOp52
 70
     0
102
RTVSPost2010Prop53
 90
        2
102
RTVSPost2010PropOp53
 70
     1
102
RTVSPost2010Prop54
  1
strokes_ogs.tif
102
RTVSPost2010PropOp54
 70
     1
102
RTVSPost2010Prop55
280
     0
102
RTVSPost2010PropOp55
 70
     1
102
RTVSPost2010Prop56
140
1.0
102
RTVSPost2010PropOp56
 70
     1
102
RTVSPost2010Prop57
140
1.0
102
RTVSPost2010PropOp57
 70
     1
102
RTVSPropertyOp0
 70
     1
102
RTVSPropertyOp1
 70
     1
102
RTVSPropertyOp2
 70
     1
102
RTVSPropertyOp3
 70
     1
102
RTVSPropertyOp4
 70
     1
102
RTVSPropertyOp5
 70
     1
102
RTVSPropertyOp6
 70
     1
102
RTVSPropertyOp7
 70
     1
102
RTVSPropertyOp8
 70
     1
102
RTVSPropertyOp9
 70
     1
102
RTVSPropertyOp10
 70
     1
102
RTVSPropertyOp11
 70
     1
102
RTVSPropertyOp12
 70
     1
102
RTVSPropertyOp13
 70
     1
102
RTVSPropertyOp14
 70
     1
102
RTVSPropertyOp15
 70
     1
102
RTVSPropertyOp16
 70
     1
102
RTVSPropertyOp17
 70
     1
102
RTVSPropertyOp18
 70
     1
102
RTVSPropertyOp19
 70
     1
102
RTVSPropertyOp20
 70
     1
102
RTVSPropertyOp21
 70
     1
102
RTVSPropertyOp22
 70
     1
102
RTVSPropertyOp23
 70
     1
102
RTVSPropertyOp24
 70
     1
102
RTVSPropertyOp25
 70
     1
102
RTVSPropertyOp26
 70
     1
102
RTVSPropertyOp27
 70
     1
102
RTVSPropertyOp28
 70
     1
102
RTVSPropertyOp29
 70
     1
102
RTVSPropertyOp30
 70
     1
102
RTVSPropertyOp31
 70
     1
102
RTVSPropertyOp32
 70
     1
102
RTVSPropertyOp33
 70
     1
102
RTVSPropertyOp34
 70
     1
102
RTVSPropertyOp35
 70
     1
102
RTVSPropertyOp36
 70
     1
102
RTVSPropertyOp37
 70
     1
102
RTVSPropertyOp38
 70
     1
102
RTVSPropertyOp39
 70
     1
102
RTVSPropertyOp40
 70
     1
102
RTVSPropertyOp41
 70
     1
102
RTVSPropertyOp42
 70
     1
102
RTVSPropertyOp43
 70
     1
102
RTVSPropertyOp44
 70
     1
102
RTVSPropertyOp45
 70
     1
102
RTVSPropertyOp46
 70
     1
102
RTVSPropertyOp47
 70
     1
102
RTVSPropertyOp48
 70
     1
102
RTVSPropertyOp49
 70
     1
102
RTVSPropertyOp50
 70
     1
102
RTVSPropertyOp51
 70
     0
102
RTVSPropertyOp52
 70
     0
102
RTVSPropertyOp53
 70
     1
102
RTVSPropertyOp54
 70
     1
102
RTVSPropertyOp55
 70
     1
102
RTVSPropertyOp56
 70
     1
102
RTVSPropertyOp57
 70
     1
102
RTVSPropertyOp58
 70
     1
102
RTVSPropertyOp59
 70
     1
102
RTVSPropertyOp60
 70
     1
102
RTVSPropertyOp61
 70
     1
102
RTVSPropertyOp62
 70
     1
  0
XRECORD
  5
FA4F
102
{ACAD_REACTORS
330
FA4E
102
}
330
FA4E
100
AcDbXrecord
280
     1
102
RTVSPost2010Prop28
280
     0
102
RTVSPost2010PropOp28
 70
     1
102
RTVSPost2010Prop29
280
     1
102
RTVSPost2010PropOp29
 70
     1
102
RTVSPost2010Prop30
280
     1
102
RTVSPost2010PropOp30
 70
     1
102
RTVSPost2010Prop31
280
     0
102
RTVSPost2010PropOp31
 70
     1
102
RTVSPost2010Prop32
280
     0
102
RTVSPost2010PropOp32
 70
     1
102
RTVSPost2010Prop33
280
     0
102
RTVSPost2010PropOp33
 70
     1
102
RTVSPost2010Prop34
280
     0
102
RTVSPost2010PropOp34
 70
     1
102
RTVSPost2010Prop35
280
     0
102
RTVSPost2010PropOp35
 70
     1
102
RTVSPost2010Prop36
280
     0
102
RTVSPost2010PropOp36
 70
     1
102
RTVSPost2010Prop37
 90
       50
102
RTVSPost2010PropOp37
 70
     1
102
RTVSPost2010Prop38
140
0.0
102
RTVSPost2010PropOp38
 70
     1
102
RTVSPost2010Prop39
140
1.0
102
RTVSPost2010PropOp39
 70
     1
102
RTVSPost2010Prop40
 90
        0
102
RTVSPost2010PropOp40
 70
     1
102
RTVSPost2010Prop41ColorIndex
 90
       18
102
RTVSPost2010Prop41ColorRGB
 90
        0
102
RTVSPost2010PropOp41
 70
     1
102
RTVSPost2010Prop42
 90
       50
102
RTVSPost2010PropOp42
 70
     1
102
RTVSPost2010Prop43
 90
        3
102
RTVSPost2010PropOp43
 70
     1
102
RTVSPost2010Prop44ColorIndex
 90
        5
102
RTVSPost2010Prop44ColorRGB
 90
      255
102
RTVSPost2010PropOp44
 70
     1
102
RTVSPost2010Prop45
280
     0
102
RTVSPost2010PropOp45
 70
     1
102
RTVSPost2010Prop46
 90
       50
102
RTVSPost2010PropOp46
 70
     1
102
RTVSPost2010Prop47
 90
       50
102
RTVSPost2010PropOp47
 70
     1
102
RTVSPost2010Prop48
 90
       50
102
RTVSPost2010PropOp48
 70
     1
102
RTVSPost2010Prop49
280
     0
102
RTVSPost2010PropOp49
 70
     1
102
RTVSPost2010Prop50
 90
       50
102
RTVSPost2010PropOp50
 70
     1
102
RTVSPost2010Prop51ColorIndex
 90
      256
102
RTVSPost2010Prop51ColorRGB
 90
-16777216
102
RTVSPost2010PropOp51
 70
     0
102
RTVSPost2010Prop52
140
1.0
102
RTVSPost2010PropOp52
 70
     0
102
RTVSPost2010Prop53
 90
        2
102
RTVSPost2010PropOp53
 70
     1
102
RTVSPost2010Prop54
  1
strokes_ogs.tif
102
RTVSPost2010PropOp54
 70
     1
102
RTVSPost2010Prop55
280
     0
102
RTVSPost2010PropOp55
 70
     1
102
RTVSPost2010Prop56
140
1.0
102
RTVSPost2010PropOp56
 70
     1
102
RTVSPost2010Prop57
140
1.0
102
RTVSPost2010PropOp57
 70
     1
102
RTVSPropertyOp0
 70
     1
102
RTVSPropertyOp1
 70
     1
102
RTVSPropertyOp2
 70
     1
102
RTVSPropertyOp3
 70
     1
102
RTVSPropertyOp4
 70
     1
102
RTVSPropertyOp5
 70
     1
102
RTVSPropertyOp6
 70
     1
102
RTVSPropertyOp7
 70
     1
102
RTVSPropertyOp8
 70
     1
102
RTVSPropertyOp9
 70
     1
102
RTVSPropertyOp10
 70
     1
102
RTVSPropertyOp11
 70
     1
102
RTVSPropertyOp12
 70
     1
102
RTVSPropertyOp13
 70
     1
102
RTVSPropertyOp14
 70
     1
102
RTVSPropertyOp15
 70
     1
102
RTVSPropertyOp16
 70
     1
102
RTVSPropertyOp17
 70
     1
102
RTVSPropertyOp18
 70
     1
102
RTVSPropertyOp19
 70
     1
102
RTVSPropertyOp20
 70
     1
102
RTVSPropertyOp21
 70
     1
102
RTVSPropertyOp22
 70
     1
102
RTVSPropertyOp23
 70
     1
102
RTVSPropertyOp24
 70
     1
102
RTVSPropertyOp25
 70
     1
102
RTVSPropertyOp26
 70
     1
102
RTVSPropertyOp27
 70
     1
102
RTVSPropertyOp28
 70
     1
102
RTVSPropertyOp29
 70
     1
102
RTVSPropertyOp30
 70
     1
102
RTVSPropertyOp31
 70
     1
102
RTVSPropertyOp32
 70
     1
102
RTVSPropertyOp33
 70
     1
102
RTVSPropertyOp34
 70
     1
102
RTVSPropertyOp35
 70
     1
102
RTVSPropertyOp36
 70
     1
102
RTVSPropertyOp37
 70
     1
102
RTVSPropertyOp38
 70
     1
102
RTVSPropertyOp39
 70
     1
102
RTVSPropertyOp40
 70
     1
102
RTVSPropertyOp41
 70
     1
102
RTVSPropertyOp42
 70
     1
102
RTVSPropertyOp43
 70
     1
102
RTVSPropertyOp44
 70
     1
102
RTVSPropertyOp45
 70
     1
102
RTVSPropertyOp46
 70
     1
102
RTVSPropertyOp47
 70
     1
102
RTVSPropertyOp48
 70
     1
102
RTVSPropertyOp49
 70
     1
102
RTVSPropertyOp50
 70
     1
102
RTVSPropertyOp51
 70
     0
102
RTVSPropertyOp52
 70
     0
102
RTVSPropertyOp53
 70
     1
102
RTVSPropertyOp54
 70
     1
102
RTVSPropertyOp55
 70
     1
102
RTVSPropertyOp56
 70
     1
102
RTVSPropertyOp57
 70
     1
102
RTVSPropertyOp58
 70
     1
102
RTVSPropertyOp59
 70
     1
102
RTVSPropertyOp60
 70
     1
102
RTVSPropertyOp61
 70
     1
102
RTVSPropertyOp62
 70
     1
  0
ENDSEC
  0
EOF
