  0
SECTION
  2
HEADER
  9
$ACADVER
  1
AC1015
  9
$ACADMAINTVER
 70
    20
  9
$DWGCODEPAGE
  3
ANSI_932
  9
$INSBASE
 10
0.0
 20
0.0
 30
0.0
  9
$EXTMIN
 10
9.99995
 20
9.999999999999998
 30
0.0
  9
$EXTMAX
 10
476.4999999999999
 20
321.0
 30
0.0
  9
$LIMMIN
 10
0.0
 20
0.0
  9
$LIMMAX
 10
495.0
 20
341.25
  9
$ORTHOMODE
 70
     1
  9
$REGENMODE
 70
     1
  9
$FILLMODE
 70
     1
  9
$QTEXTMODE
 70
     0
  9
$MIRRTEXT
 70
     1
  9
$LTSCALE
 40
20.0
  9
$ATTMODE
 70
     1
  9
$TEXTSIZE
 40
5.0
  9
$TRACEWID
 40
1.0
  9
$TEXTSTYLE
  7
STANDARD
  9
$CLAYER
  8
0
  9
$CELTYPE
  6
BYLAYER
  9
$CECOLOR
 62
   256
  9
$CELTSCALE
 40
1.0
  9
$DISPSILH
 70
     0
  9
$DIMSCALE
 40
1.0
  9
$DIMASZ
 40
3.0
  9
$DIMEXO
 40
1.0
  9
$DIMDLI
 40
10.0
  9
$DIMRND
 40
0.0
  9
$DIMDLE
 40
0.0
  9
$DIMEXE
 40
1.0
  9
$DIMTP
 40
0.0
  9
$DIMTM
 40
0.0
  9
$DIMTXT
 40
3.2
  9
$DIMCEN
 40
0.0
  9
$DIMTSZ
 40
0.0
  9
$DIMTOL
 70
     0
  9
$DIMLIM
 70
     0
  9
$DIMTIH
 70
     0
  9
$DIMTOH
 70
     0
  9
$DIMSE1
 70
     0
  9
$DIMSE2
 70
     0
  9
$DIMTAD
 70
     3
  9
$DIMZIN
 70
     8
  9
$DIMBLK
  1

  9
$DIMASO
 70
     1
  9
$DIMSHO
 70
     1
  9
$DIMPOST
  1

  9
$DIMAPOST
  1

  9
$DIMALT
 70
     0
  9
$DIMALTD
 70
     2
  9
$DIMALTF
 40
25.4
  9
$DIMLFAC
 40
1.0
  9
$DIMTOFL
 70
     1
  9
$DIMTVP
 40
0.0
  9
$DIMTIX
 70
     0
  9
$DIMSOXD
 70
     0
  9
$DIMSAH
 70
     1
  9
$DIMBLK1
  1
OPEN
  9
$DIMBLK2
  1
OPEN
  9
$DIMSTYLE
  2
STANDARD
  9
$DIMCLRD
 70
     0
  9
$DIMCLRE
 70
     0
  9
$DIMCLRT
 70
     0
  9
$DIMTFAC
 40
1.0
  9
$DIMGAP
 40
1.0
  9
$DIMJUST
 70
     0
  9
$DIMSD1
 70
     0
  9
$DIMSD2
 70
     0
  9
$DIMTOLJ
 70
     1
  9
$DIMTZIN
 70
     0
  9
$DIMALTZ
 70
     0
  9
$DIMALTTZ
 70
     0
  9
$DIMUPT
 70
     0
  9
$DIMDEC
 70
     4
  9
$DIMTDEC
 70
     4
  9
$DIMALTU
 70
     2
  9
$DIMALTTD
 70
     2
  9
$DIMTXSTY
  7
STANDARD
  9
$DIMAUNIT
 70
     0
  9
$DIMADEC
 70
     0
  9
$DIMALTRND
 40
0.0
  9
$DIMAZIN
 70
     0
  9
$DIMDSEP
 70
    46
  9
$DIMATFIT
 70
     3
  9
$DIMFRAC
 70
     0
  9
$DIMLDRBLK
  1
OPEN
  9
$DIMLUNIT
 70
     2
  9
$DIMLWD
 70
    -2
  9
$DIMLWE
 70
    -2
  9
$DIMTMOVE
 70
     0
  9
$LUNITS
 70
     2
  9
$LUPREC
 70
     4
  9
$SKETCHINC
 40
1.0
  9
$FILLETRAD
 40
0.0
  9
$AUNITS
 70
     0
  9
$AUPREC
 70
     2
  9
$MENU
  1
.
  9
$ELEVATION
 40
0.0
  9
$PELEVATION
 40
0.0
  9
$THICKNESS
 40
0.0
  9
$LIMCHECK
 70
     0
  9
$CHAMFERA
 40
10.0
  9
$CHAMFERB
 40
10.0
  9
$CHAMFERC
 40
0.0
  9
$CHAMFERD
 40
0.0
  9
$SKPOLY
 70
     0
  9
$TDCREATE
 40
2451301.400364815
  9
$TDUCREATE
 40
2451301.025364815
  9
$TDUPDATE
 40
2457192.692607164
  9
$TDUUPDATE
 40
2457192.317607165
  9
$TDINDWG
 40
0.0021056944
  9
$TDUSRTIMER
 40
0.0021051736
  9
$USRTIMER
 70
     1
  9
$ANGBASE
 50
0.0
  9
$ANGDIR
 70
     0
  9
$PDMODE
 70
    34
  9
$PDSIZE
 40
0.0
  9
$PLINEWID
 40
0.0
  9
$SPLFRAME
 70
     0
  9
$SPLINETYPE
 70
     6
  9
$SPLINESEGS
 70
     8
  9
$HANDSEED
  5
FB91
  9
$SURFTAB1
 70
     6
  9
$SURFTAB2
 70
     6
  9
$SURFTYPE
 70
     6
  9
$SURFU
 70
     6
  9
$SURFV
 70
     6
  9
$UCSBASE
  2

  9
$UCSNAME
  2

  9
$UCSORG
 10
0.0
 20
0.0
 30
0.0
  9
$UCSXDIR
 10
1.0
 20
0.0
 30
0.0
  9
$UCSYDIR
 10
0.0
 20
1.0
 30
0.0
  9
$UCSORTHOREF
  2

  9
$UCSORTHOVIEW
 70
     0
  9
$UCSORGTOP
 10
0.0
 20
0.0
 30
0.0
  9
$UCSORGBOTTOM
 10
0.0
 20
0.0
 30
0.0
  9
$UCSORGLEFT
 10
0.0
 20
0.0
 30
0.0
  9
$UCSORGRIGHT
 10
0.0
 20
0.0
 30
0.0
  9
$UCSORGFRONT
 10
0.0
 20
0.0
 30
0.0
  9
$UCSORGBACK
 10
0.0
 20
0.0
 30
0.0
  9
$PUCSBASE
  2

  9
$PUCSNAME
  2

  9
$PUCSORG
 10
0.0
 20
0.0
 30
0.0
  9
$PUCSXDIR
 10
1.0
 20
0.0
 30
0.0
  9
$PUCSYDIR
 10
0.0
 20
1.0
 30
0.0
  9
$PUCSORTHOREF
  2

  9
$PUCSORTHOVIEW
 70
     0
  9
$PUCSORGTOP
 10
0.0
 20
0.0
 30
0.0
  9
$PUCSORGBOTTOM
 10
0.0
 20
0.0
 30
0.0
  9
$PUCSORGLEFT
 10
0.0
 20
0.0
 30
0.0
  9
$PUCSORGRIGHT
 10
0.0
 20
0.0
 30
0.0
  9
$PUCSORGFRONT
 10
0.0
 20
0.0
 30
0.0
  9
$PUCSORGBACK
 10
0.0
 20
0.0
 30
0.0
  9
$USERI1
 70
     0
  9
$USERI2
 70
     0
  9
$USERI3
 70
     0
  9
$USERI4
 70
     0
  9
$USERI5
 70
     0
  9
$USERR1
 40
0.0
  9
$USERR2
 40
0.0
  9
$USERR3
 40
0.0
  9
$USERR4
 40
0.0
  9
$USERR5
 40
0.0
  9
$WORLDVIEW
 70
     1
  9
$SHADEDGE
 70
     3
  9
$SHADEDIF
 70
    70
  9
$TILEMODE
 70
     1
  9
$MAXACTVP
 70
    16
  9
$PINSBASE
 10
0.0
 20
0.0
 30
0.0
  9
$PLIMCHECK
 70
     0
  9
$PEXTMIN
 10
1.000000000000000E+20
 20
1.000000000000000E+20
 30
1.000000000000000E+20
  9
$PEXTMAX
 10
-1.000000000000000E+20
 20
-1.000000000000000E+20
 30
-1.000000000000000E+20
  9
$PLIMMIN
 10
0.0
 20
0.0
  9
$PLIMMAX
 10
420.0
 20
297.0
  9
$UNITMODE
 70
     0
  9
$VISRETAIN
 70
     0
  9
$PLINEGEN
 70
     0
  9
$PSLTSCALE
 70
     0
  9
$TREEDEPTH
 70
  3020
  9
$CMLSTYLE
  2
STANDARD
  9
$CMLJUST
 70
     0
  9
$CMLSCALE
 40
1.0
  9
$PROXYGRAPHICS
 70
     1
  9
$MEASUREMENT
 70
     0
  9
$CELWEIGHT
370
    -1
  9
$ENDCAPS
280
     0
  9
$JOINSTYLE
280
     0
  9
$LWDISPLAY
290
     0
  9
$INSUNITS
 70
     0
  9
$HYPERLINKBASE
  1

  9
$STYLESHEET
  1

  9
$XEDIT
290
     1
  9
$CEPSNTYPE
380
     0
  9
$PSTYLEMODE
290
     1
  9
$FINGERPRINTGUID
  2
{8CD338B0-6793-4E1B-A399-4A3BF75D7D53}
  9
$VERSIONGUID
  2
{10432493-47D7-4AEB-A4FB-3CFBBDE7CE4E}
  9
$EXTNAMES
290
     1
  9
$PSVPSCALE
 40
0.0
  9
$OLESTARTUP
290
     0
  0
ENDSEC
  0
SECTION
  2
CLASSES
  0
CLASS
  1
ACDBDICTIONARYWDFLT
  2
AcDbDictionaryWithDefault
  3
ObjectDBX Classes
 90
        0
280
     0
281
     0
  0
CLASS
  1
ACDBPLACEHOLDER
  2
AcDbPlaceHolder
  3
ObjectDBX Classes
 90
        0
280
     0
281
     0
  0
CLASS
  1
LAYOUT
  2
AcDbLayout
  3
ObjectDBX Classes
 90
        0
280
     0
281
     0
  0
CLASS
  1
DICTIONARYVAR
  2
AcDbDictionaryVar
  3
ObjectDBX Classes
 90
        0
280
     0
281
     0
  0
CLASS
  1
MATERIAL
  2
AcDbMaterial
  3
ObjectDBX Classes
 90
     1153
280
     0
281
     0
  0
CLASS
  1
VISUALSTYLE
  2
AcDbVisualStyle
  3
ObjectDBX Classes
 90
     4095
280
     0
281
     0
  0
CLASS
  1
TABLESTYLE
  2
AcDbTableStyle
  3
ObjectDBX Classes
 90
     4095
280
     0
281
     0
  0
CLASS
  1
SCALE
  2
AcDbScale
  3
ObjectDBX Classes
 90
     1153
280
     0
281
     0
  0
CLASS
  1
MLEADERSTYLE
  2
AcDbMLeaderStyle
  3
ACDB_MLEADERSTYLE_CLASS
 90
     4095
280
     0
281
     0
  0
CLASS
  1
ACDBSECTIONVIEWSTYLE
  2
AcDbSectionViewStyle
  3
ObjectDBX Classes
 90
     1025
280
     0
281
     0
  0
CLASS
  1
ACDBDETAILVIEWSTYLE
  2
AcDbDetailViewStyle
  3
ObjectDBX Classes
 90
     1025
280
     0
281
     0
  0
CLASS
  1
CELLSTYLEMAP
  2
AcDbCellStyleMap
  3
ObjectDBX Classes
 90
     1152
280
     0
281
     0
  0
ENDSEC
  0
SECTION
  2
TABLES
  0
TABLE
  2
VPORT
  5
F8AA
330
0
100
AcDbSymbolTable
 70
     1
  0
VPORT
  5
FA97
330
F8AA
100
AcDbSymbolTableRecord
100
AcDbViewportTableRecord
  2
*ACTIVE
 70
     0
 10
0.0
 20
0.0
 11
1.0
 21
1.0
 12
337.465158721265
 22
165.4960449474991
 13
0.0
 23
0.0
 14
10.0
 24
10.0
 15
10.0
 25
10.0
 16
0.0
 26
0.0
 36
1.0
 17
0.0
 27
0.0
 37
0.0
 40
314.6305752159694
 41
2.35006605019815
 42
50.0
 43
0.0
 44
0.0
 50
0.0
 51
0.0
 71
     0
 72
   100
 73
     1
 74
     0
 75
     0
 76
     0
 77
     0
 78
     0
281
     0
 65
     1
110
0.0
120
0.0
130
0.0
111
1.0
121
0.0
131
0.0
112
0.0
122
1.0
132
0.0
 79
     0
146
0.0
1001
ACAD_NAV_VCDISPLAY
1070
     3
  0
ENDTAB
  0
TABLE
  2
LTYPE
  5
F8A7
330
0
100
AcDbSymbolTable
 70
     4
  0
LTYPE
  5
F8B5
330
F8A7
100
AcDbSymbolTableRecord
100
AcDbLinetypeTableRecord
  2
BYBLOCK
 70
     0
  3

 72
    65
 73
     0
 40
0.0
  0
LTYPE
  5
F8B6
330
F8A7
100
AcDbSymbolTableRecord
100
AcDbLinetypeTableRecord
  2
BYLAYER
 70
     0
  3

 72
    65
 73
     0
 40
0.0
  0
LTYPE
  5
F8B7
330
F8A7
100
AcDbSymbolTableRecord
100
AcDbLinetypeTableRecord
  2
CONTINUOUS
 70
     0
  3
Solid line
 72
    65
 73
     0
 40
0.0
  0
LTYPE
  5
F8C5
330
F8A7
100
AcDbSymbolTableRecord
100
AcDbLinetypeTableRecord
  2
DASHED
 70
     0
  3
__ __ __ __ __ __ __ __ __ __ __ __ __ __ __ __
 72
    65
 73
     2
 40
0.75
 49
0.5
 74
     0
 49
-0.25
 74
     0
  0
LTYPE
  5
F8C6
330
F8A7
100
AcDbSymbolTableRecord
100
AcDbLinetypeTableRecord
  2
CENTER
 70
     0
  3
____ _ ____ _ ____ _ ____ _ ____ _ ____ _ ____ 
 72
    65
 73
     4
 40
2.0
 49
1.25
 74
     0
 49
-0.25
 74
     0
 49
0.25
 74
     0
 49
-0.25
 74
     0
  0
LTYPE
  5
F8C7
330
F8A7
100
AcDbSymbolTableRecord
100
AcDbLinetypeTableRecord
  2
PHANTOM
 70
     0
  3
______  __  __  ______  __  __  ______  __  __ 
 72
    65
 73
     6
 40
2.5
 49
1.25
 74
     0
 49
-0.25
 74
     0
 49
0.25
 74
     0
 49
-0.25
 74
     0
 49
0.25
 74
     0
 49
-0.25
 74
     0
  0
ENDTAB
  0
TABLE
  2
LAYER
  5
F8A4
330
0
100
AcDbSymbolTable
 70
     8
  0
LAYER
  5
F8B2
102
{ACAD_XDICTIONARY
360
FAF4
102
}
330
F8A4
100
AcDbSymbolTableRecord
100
AcDbLayerTableRecord
  2
0
 70
     0
 62
     7
  6
CONTINUOUS
370
    -3
390
FAA0
  0
LAYER
  5
F8C8
102
{ACAD_XDICTIONARY
360
FAF6
102
}
330
F8A4
100
AcDbSymbolTableRecord
100
AcDbLayerTableRecord
  2
4
 70
     0
 62
     1
  6
CENTER
370
    -3
390
FAA0
  0
LAYER
  5
F8C9
102
{ACAD_XDICTIONARY
360
FAF8
102
}
330
F8A4
100
AcDbSymbolTableRecord
100
AcDbLayerTableRecord
  2
5
 70
     0
 62
     6
  6
PHANTOM
370
    -3
390
FAA0
  0
LAYER
  5
F8CA
102
{ACAD_XDICTIONARY
360
FAFA
102
}
330
F8A4
100
AcDbSymbolTableRecord
100
AcDbLayerTableRecord
  2
1
 70
     0
 62
     7
  6
CONTINUOUS
370
    -3
390
FAA0
  0
LAYER
  5
F8CB
102
{ACAD_XDICTIONARY
360
FAFC
102
}
330
F8A4
100
AcDbSymbolTableRecord
100
AcDbLayerTableRecord
  2
2
 70
     0
 62
     4
  6
CONTINUOUS
370
    -3
390
FAA0
  0
LAYER
  5
F8CC
102
{ACAD_XDICTIONARY
360
FAFE
102
}
330
F8A4
100
AcDbSymbolTableRecord
100
AcDbLayerTableRecord
  2
3
 70
     0
 62
     2
  6
DASHED
370
    -3
390
FAA0
  0
LAYER
  5
F8CD
102
{ACAD_XDICTIONARY
360
FB00
102
}
330
F8A4
100
AcDbSymbolTableRecord
100
AcDbLayerTableRecord
  2
6
 70
     0
 62
     5
  6
CONTINUOUS
370
    -3
390
FAA0
  0
LAYER
  5
F8CE
102
{ACAD_XDICTIONARY
360
FB02
102
}
330
F8A4
100
AcDbSymbolTableRecord
100
AcDbLayerTableRecord
  2
7
 70
     0
 62
     3
  6
CONTINUOUS
370
    -3
390
FAA0
  0
ENDTAB
  0
TABLE
  2
STYLE
  5
F8A5
330
0
100
AcDbSymbolTable
 70
     1
  0
STYLE
  5
F8B3
330
F8A5
100
AcDbSymbolTableRecord
100
AcDbTextStyleTableRecord
  2
STANDARD
 70
     0
 40
0.0
 41
1.0
 50
0.0
 71
     0
 42
5.0
  3
txt
  4

  0
ENDTAB
  0
TABLE
  2
VIEW
  5
F8A8
330
0
100
AcDbSymbolTable
 70
     2
  0
VIEW
  5
F8CF
330
F8A8
100
AcDbSymbolTableRecord
100
AcDbViewTableRecord
  2
7
 70
     0
 40
342.2793679999998
 10
334.425922
 20
171.1396839999999
 41
668.851844
 11
0.0
 21
0.0
 31
1.0
 12
0.0
 22
0.0
 32
0.0
 42
50.0
 43
0.0
 44
0.0
 50
0.0
 71
     0
281
     0
 72
     0
  0
VIEW
  5
F8D0
330
F8A8
100
AcDbSymbolTableRecord
100
AcDbViewTableRecord
  2
1
 70
     0
 40
249.466496
 10
136.846708
 20
233.977284
 41
487.485198
 11
0.0
 21
0.0
 31
1.0
 12
0.0
 22
0.0
 32
0.0
 42
50.0
 43
0.0
 44
0.0
 50
0.0
 71
     0
281
     0
 72
     0
  0
ENDTAB
  0
TABLE
  2
UCS
  5
F8A9
330
0
100
AcDbSymbolTable
 70
     0
  0
ENDTAB
  0
TABLE
  2
APPID
  5
F8AB
330
0
100
AcDbSymbolTable
 70
     4
  0
APPID
  5
F8B4
330
F8AB
100
AcDbSymbolTableRecord
100
AcDbRegAppTableRecord
  2
ACAD
 70
     0
  0
APPID
  5
FAF2
330
F8AB
100
AcDbSymbolTableRecord
100
AcDbRegAppTableRecord
  2
ACAD_EXEMPT_FROM_CAD_STANDARDS
 70
     0
  0
APPID
  5
FB0E
330
F8AB
100
AcDbSymbolTableRecord
100
AcDbRegAppTableRecord
  2
ACAD_NAV_VCDISPLAY
 70
     0
  0
APPID
  5
FB47
330
F8AB
100
AcDbSymbolTableRecord
100
AcDbRegAppTableRecord
  2
ACAD_MLEADERVER
 70
     0
  0
ENDTAB
  0
TABLE
  2
DIMSTYLE
  5
F8AC
330
0
100
AcDbSymbolTable
 70
     1
100
AcDbDimStyleTable
 71
     0
  0
DIMSTYLE
105
F8D2
330
F8AC
100
AcDbSymbolTableRecord
100
AcDbDimStyleTableRecord
  2
STANDARD
 70
     0
 41
3.0
 42
1.0
 43
10.0
 44
1.0
 73
     0
 74
     0
 77
     3
 78
     8
140
3.2
141
0.0
147
1.0
172
     1
173
     1
284
     8
285
     8
286
     8
340
F8B3
  0
ENDTAB
  0
TABLE
  2
BLOCK_RECORD
  5
F8A3
330
0
100
AcDbSymbolTable
 70
     1
  0
BLOCK_RECORD
  5
F8C0
102
{ACAD_XDICTIONARY
360
FA9A
102
}
330
F8A3
100
AcDbSymbolTableRecord
100
AcDbBlockTableRecord
  2
*MODEL_SPACE
340
FAEE
  0
BLOCK_RECORD
  5
F8BC
102
{ACAD_XDICTIONARY
360
FA98
102
}
330
F8A3
100
AcDbSymbolTableRecord
100
AcDbBlockTableRecord
  2
*PAPER_SPACE
340
FAEF
  0
BLOCK_RECORD
  5
F8DA
330
F8A3
100
AcDbSymbolTableRecord
100
AcDbBlockTableRecord
  2
_OPEN
340
0
  0
ENDTAB
  0
ENDSEC
  0
SECTION
  2
BLOCKS
  0
BLOCK
  5
F8C1
330
F8C0
100
AcDbEntity
  8
0
100
AcDbBlockBegin
  2
*MODEL_SPACE
 70
     0
 10
0.0
 20
0.0
 30
0.0
  3
*MODEL_SPACE
  1

  0
ENDBLK
  5
F8C2
330
F8C0
100
AcDbEntity
  8
0
100
AcDbBlockEnd
  0
BLOCK
  5
F8BD
330
F8BC
100
AcDbEntity
 67
     1
  8
0
100
AcDbBlockBegin
  2
*PAPER_SPACE
 70
     0
 10
0.0
 20
0.0
 30
0.0
  3
*PAPER_SPACE
  1

  0
ENDBLK
  5
F8BE
330
F8BC
100
AcDbEntity
 67
     1
  8
0
100
AcDbBlockEnd
  0
BLOCK
  5
F8DB
330
F8DA
100
AcDbEntity
  8
0
100
AcDbBlockBegin
  2
_OPEN
 70
     0
 10
0.0
 20
0.0
 30
0.0
  3
_OPEN
  1

  0
LINE
  5
F8DC
330
F8DA
100
AcDbEntity
  8
0
  6
ByBlock
 62
     0
100
AcDbLine
 10
-1.0
 20
0.166667
 30
0.0
 11
0.0
 21
0.0
 31
0.0
  0
LINE
  5
F8DD
330
F8DA
100
AcDbEntity
  8
0
  6
ByBlock
 62
     0
100
AcDbLine
 10
0.0
 20
0.0
 30
0.0
 11
-1.0
 21
-0.166667
 31
0.0
  0
LINE
  5
F8DE
330
F8DA
100
AcDbEntity
  8
0
  6
ByBlock
 62
     0
100
AcDbLine
 10
0.0
 20
0.0
 30
0.0
 11
-1.0
 21
0.0
 31
0.0
  0
ENDBLK
  5
F8DF
330
F8DA
100
AcDbEntity
  8
0
100
AcDbBlockEnd
  0
ENDSEC
  0
SECTION
  2
ENTITIES
  0
TEXT
  5
F8E0
330
F8C0
100
AcDbEntity
  8
6
  6
Continuous
100
AcDbText
 10
27.97945
 20
10.0487
 30
0.0
 40
1.399999999999999
  1
6
 41
1.069393
100
AcDbText
  0
TEXT
  5
F8E1
330
F8C0
100
AcDbEntity
  8
1
  6
Continuous
100
AcDbText
 10
17.97945
 20
10.0487
 30
0.0
 40
1.399999999999999
  1
1
 41
1.069393
100
AcDbText
  0
TEXT
  5
F8E2
330
F8C0
100
AcDbEntity
  8
1
  6
Continuous
100
AcDbText
 10
9.99995
 20
10.0
 30
0.0
 40
1.399999999999999
  1
LAYER
 41
1.009912999999996
100
AcDbText
  0
TEXT
  5
F8E3
330
F8C0
100
AcDbEntity
  8
2
  6
Continuous
100
AcDbText
 10
19.97944999999998
 20
10.0487
 30
0.0
 40
1.399999999999999
  1
2
 41
1.069393
100
AcDbText
  0
TEXT
  5
F8E4
330
F8C0
100
AcDbEntity
  8
3
  6
DASHED
100
AcDbText
 10
21.97945
 20
10.0487
 30
0.0
 40
1.399999999999999
  1
3
 41
1.069393
100
AcDbText
  0
TEXT
  5
F8E5
330
F8C0
100
AcDbEntity
  8
4
  6
CENTER
100
AcDbText
 10
23.97944999999999
 20
10.0487
 30
0.0
 40
1.399999999999999
  1
4
 41
1.069393
100
AcDbText
  0
TEXT
  5
F8E6
330
F8C0
100
AcDbEntity
  8
5
  6
PHANTOM
100
AcDbText
 10
25.97945
 20
10.0487
 30
0.0
 40
1.399999999999999
  1
5
 41
1.069393
100
AcDbText
  0
TEXT
  5
F8E7
330
F8C0
100
AcDbEntity
  8
7
  6
Continuous
100
AcDbText
 10
10.00005
 20
26.0
 30
0.0
 40
3.0
  1
CODE No.19028
 41
1.003962999999999
100
AcDbText
  0
TEXT
  5
F8E8
330
F8C0
100
AcDbEntity
  8
7
  6
Continuous
100
AcDbText
 10
10.00005
 20
18.0
 30
0.0
 40
3.0
  1
TYPE No.TCA-TY50N8S (TY50N8S)
 41
1.002350999999997
100
AcDbText
  0
TEXT
  5
F8E9
330
F8C0
100
AcDbEntity
  8
7
  6
Continuous
100
AcDbText
 10
29.97944999999999
 20
10.0487
 30
0.0
 40
1.399999999999999
  1
7
 41
1.069393
100
AcDbText
  0
LINE
  5
F8EA
330
F8C0
100
AcDbEntity
  8
1
  6
Continuous
100
AcDbLine
 10
311.5
 20
183.0
 30
0.0
 11
327.4999999999999
 21
183.0
 31
0.0
  0
ARC
  5
F8EB
330
F8C0
100
AcDbEntity
  8
1
  6
Continuous
100
AcDbCircle
 10
319.5
 20
74.40582299999999
 30
0.0
 40
100.0
100
AcDbArc
 50
84.836393
 51
95.16360699999999
  0
LINE
  5
F8EC
330
F8C0
100
AcDbEntity
  8
1
  6
Continuous
100
AcDbLine
 10
311.5
 20
177.0
 30
0.0
 11
327.4999999999999
 21
177.0
 31
0.0
  0
LINE
  5
F8ED
330
F8C0
100
AcDbEntity
  8
1
  6
Continuous
100
AcDbLine
 10
329.0
 20
143.0
 30
0.0
 11
310.0
 21
143.0
 31
0.0
  0
LINE
  5
F8EE
330
F8C0
100
AcDbEntity
  8
4
  6
CENTER
100
AcDbLine
 10
349.0
 20
150.5
 30
0.0
 11
290.0
 21
150.5
 31
0.0
  0
ARC
  5
F8EF
330
F8C0
100
AcDbEntity
  8
1
  6
Continuous
100
AcDbCircle
 10
285.9975
 20
150.5
 30
0.0
 40
58.0025
100
AcDbArc
 50
337.115739
 51
22.884261
  0
LINE
  5
F8F0
330
F8C0
100
AcDbEntity
  8
1
  6
Continuous
100
AcDbLine
 10
330.0
 20
175.0
 30
0.0
 11
330.0
 21
126.0
 31
0.0
  0
LINE
  5
F8F1
330
F8C0
100
AcDbEntity
  8
1
  6
Continuous
100
AcDbLine
 10
342.0
 20
135.4
 30
0.0
 11
342.0
 21
165.5999999999998
 31
0.0
  0
LINE
  5
F8F2
330
F8C0
100
AcDbEntity
  8
1
  6
Continuous
100
AcDbLine
 10
328.5
 20
143.0
 30
0.0
 11
328.5
 21
176.0
 31
0.0
  0
ARC
  5
F8F3
330
F8C0
100
AcDbEntity
  8
1
  6
Continuous
100
AcDbCircle
 10
335.749585
 20
129.4999999999998
 30
0.0
 40
4.0
100
AcDbArc
 50
270.0
 51
337.115739
  0
LINE
  5
F8F4
330
F8C0
100
AcDbEntity
  8
1
  6
Continuous
100
AcDbLine
 10
330.5
 20
125.5
 30
0.0
 11
335.749585
 21
125.5
 31
0.0
  0
ARC
  5
F8F5
330
F8C0
100
AcDbEntity
  8
1
  6
Continuous
100
AcDbCircle
 10
330.5
 20
126.0
 30
0.0
 40
0.5
100
AcDbArc
 50
180.0
 51
270.0
  0
LINE
  5
F8F6
330
F8C0
100
AcDbEntity
  8
1
  6
Continuous
100
AcDbLine
 10
329.0
 20
158.4999999999998
 30
0.0
 11
329.0
 21
143.0
 31
0.0
  0
ARC
  5
F8F7
330
F8C0
100
AcDbEntity
  8
1
  6
Continuous
100
AcDbCircle
 10
330.0
 20
143.5
 30
0.0
 40
1.0
100
AcDbArc
 50
180.0
 51
270.0
  0
ARC
  5
F8F8
330
F8C0
100
AcDbEntity
  8
1
  6
Continuous
100
AcDbCircle
 10
330.0
 20
157.5
 30
0.0
 40
1.0
100
AcDbArc
 50
90.0
 51
180.0
  0
LINE
  5
F8F9
330
F8C0
100
AcDbEntity
  8
1
  6
Continuous
100
AcDbLine
 10
328.5
 20
158.4999999999998
 30
0.0
 11
329.0
 21
158.4999999999998
 31
0.0
  0
LINE
  5
F8FA
330
F8C0
100
AcDbEntity
  8
1
  6
Continuous
100
AcDbLine
 10
328.0
 20
177.5
 30
0.0
 11
328.0
 21
182.5
 31
0.0
  0
ARC
  5
F8FB
330
F8C0
100
AcDbEntity
  8
1
  6
Continuous
100
AcDbCircle
 10
335.749585
 20
171.5
 30
0.0
 40
4.0
100
AcDbArc
 50
22.884261
 51
90.0
  0
LINE
  5
F8FC
330
F8C0
100
AcDbEntity
  8
1
  6
Continuous
100
AcDbLine
 10
330.5
 20
175.5
 30
0.0
 11
335.749585
 21
175.5
 31
0.0
  0
ARC
  5
F8FD
330
F8C0
100
AcDbEntity
  8
1
  6
Continuous
100
AcDbCircle
 10
330.5
 20
175.0
 30
0.0
 40
0.5
100
AcDbArc
 50
90.0
 51
180.0
  0
ARC
  5
F8FE
330
F8C0
100
AcDbEntity
  8
1
  6
Continuous
100
AcDbCircle
 10
327.4999999999999
 20
177.5
 30
0.0
 40
0.5
100
AcDbArc
 50
270.0
 51
0.0
  0
ARC
  5
F8FF
330
F8C0
100
AcDbEntity
  8
1
  6
Continuous
100
AcDbCircle
 10
327.4999999999999
 20
176.0
 30
0.0
 40
1.0
100
AcDbArc
 50
0.0
 51
90.0
  0
ARC
  5
F900
330
F8C0
100
AcDbEntity
  8
1
  6
Continuous
100
AcDbCircle
 10
327.4999999999999
 20
182.5
 30
0.0
 40
0.5
100
AcDbArc
 50
0.0
 51
90.0
  0
LINE
  5
F901
330
F8C0
100
AcDbEntity
  8
1
  6
Continuous
100
AcDbLine
 10
297.0
 20
135.4
 30
0.0
 11
297.0
 21
165.5999999999998
 31
0.0
  0
ARC
  5
F902
330
F8C0
100
AcDbEntity
  8
1
  6
Continuous
100
AcDbCircle
 10
353.0025
 20
150.5
 30
0.0
 40
58.0025
100
AcDbArc
 50
157.1157389999999
 51
202.884261
  0
LINE
  5
F903
330
F8C0
100
AcDbEntity
  8
1
  6
Continuous
100
AcDbLine
 10
309.0
 20
175.0
 30
0.0
 11
309.0
 21
126.0
 31
0.0
  0
LINE
  5
F904
330
F8C0
100
AcDbEntity
  8
1
  6
Continuous
100
AcDbLine
 10
310.4999999999999
 20
143.0
 30
0.0
 11
310.4999999999999
 21
176.0
 31
0.0
  0
LINE
  5
F905
330
F8C0
100
AcDbEntity
  8
4
  6
CENTER
100
AcDbLine
 10
319.5
 20
202.0
 30
0.0
 11
319.5
 21
130.2499999999998
 31
0.0
  0
LINE
  5
F906
330
F8C0
100
AcDbEntity
  8
1
  6
Continuous
100
AcDbLine
 10
308.4999999999999
 20
125.5
 30
0.0
 11
303.2504149999998
 21
125.5
 31
0.0
  0
ARC
  5
F907
330
F8C0
100
AcDbEntity
  8
1
  6
Continuous
100
AcDbCircle
 10
303.2504149999998
 20
129.4999999999998
 30
0.0
 40
4.0
100
AcDbArc
 50
202.884261
 51
270.0
  0
ARC
  5
F908
330
F8C0
100
AcDbEntity
  8
1
  6
Continuous
100
AcDbCircle
 10
308.4999999999999
 20
126.0
 30
0.0
 40
0.5
100
AcDbArc
 50
270.0
 51
0.0
  0
LINE
  5
F909
330
F8C0
100
AcDbEntity
  8
1
  6
Continuous
100
AcDbLine
 10
310.0
 20
143.0
 30
0.0
 11
310.0
 21
158.4999999999998
 31
0.0
  0
ARC
  5
F90A
330
F8C0
100
AcDbEntity
  8
1
  6
Continuous
100
AcDbCircle
 10
309.0
 20
143.5
 30
0.0
 40
1.0
100
AcDbArc
 50
270.0
 51
0.0
  0
ARC
  5
F90B
330
F8C0
100
AcDbEntity
  8
1
  6
Continuous
100
AcDbCircle
 10
309.0
 20
157.5
 30
0.0
 40
1.0
100
AcDbArc
 50
0.0
 51
90.0
  0
LINE
  5
F90C
330
F8C0
100
AcDbEntity
  8
1
  6
Continuous
100
AcDbLine
 10
310.0
 20
158.4999999999998
 30
0.0
 11
310.4999999999999
 21
158.4999999999998
 31
0.0
  0
LINE
  5
F90D
330
F8C0
100
AcDbEntity
  8
1
  6
Continuous
100
AcDbLine
 10
311.0
 20
177.5
 30
0.0
 11
311.0
 21
182.5
 31
0.0
  0
ARC
  5
F90E
330
F8C0
100
AcDbEntity
  8
1
  6
Continuous
100
AcDbCircle
 10
311.5
 20
177.5
 30
0.0
 40
0.5
100
AcDbArc
 50
180.0
 51
270.0
  0
ARC
  5
F90F
330
F8C0
100
AcDbEntity
  8
1
  6
Continuous
100
AcDbCircle
 10
311.5
 20
176.0
 30
0.0
 40
1.0
100
AcDbArc
 50
90.0
 51
180.0
  0
LINE
  5
F910
330
F8C0
100
AcDbEntity
  8
1
  6
Continuous
100
AcDbLine
 10
308.4999999999999
 20
175.5
 30
0.0
 11
303.2504149999998
 21
175.5
 31
0.0
  0
ARC
  5
F911
330
F8C0
100
AcDbEntity
  8
1
  6
Continuous
100
AcDbCircle
 10
303.2504149999998
 20
171.5
 30
0.0
 40
4.0
100
AcDbArc
 50
90.0
 51
157.1157389999999
  0
ARC
  5
F912
330
F8C0
100
AcDbEntity
  8
1
  6
Continuous
100
AcDbCircle
 10
308.4999999999999
 20
175.0
 30
0.0
 40
0.5
100
AcDbArc
 50
0.0
 51
90.0
  0
ARC
  5
F913
330
F8C0
100
AcDbEntity
  8
1
  6
Continuous
100
AcDbCircle
 10
311.5
 20
182.5
 30
0.0
 40
0.5
100
AcDbArc
 50
90.0
 51
180.0
  0
ARC
  5
F914
330
F8C0
100
AcDbEntity
  8
1
  6
Continuous
100
AcDbCircle
 10
194.5
 20
84.00249999999997
 30
0.0
 40
58.0025
100
AcDbArc
 50
247.115739
 51
292.8842609999999
  0
ARC
  5
F915
330
F8C0
100
AcDbEntity
  8
1
  6
Continuous
100
AcDbCircle
 10
194.5
 20
16.99749999999999
 30
0.0
 40
58.0025
100
AcDbArc
 50
67.11573900000001
 51
112.884261
  0
LINE
  5
F916
330
F8C0
100
AcDbEntity
  8
1
  6
Continuous
100
AcDbLine
 10
171.246084
 20
59.5
 30
0.0
 11
218.0
 21
59.5
 31
0.0
  0
LINE
  5
F917
330
F8C0
100
AcDbEntity
  8
1
  6
Continuous
100
AcDbLine
 10
179.4
 20
73.0
 30
0.0
 11
209.6
 21
73.0
 31
0.0
  0
LINE
  5
F918
330
F8C0
100
AcDbEntity
  8
1
  6
Continuous
100
AcDbLine
 10
171.246084
 20
41.5
 30
0.0
 11
218.0
 21
41.5
 31
0.0
  0
LINE
  5
F919
330
F8C0
100
AcDbEntity
  8
1
  6
Continuous
100
AcDbLine
 10
179.4
 20
28.0
 30
0.0
 11
209.6
 21
28.0
 31
0.0
  0
LINE
  5
F91A
330
F8C0
100
AcDbEntity
  8
4
  6
CENTER
100
AcDbLine
 10
227.0
 20
50.5
 30
0.0
 11
157.5164909999998
 21
50.5
 31
0.0
  0
ARC
  5
F91B
330
F8C0
100
AcDbEntity
  8
1
  6
Continuous
100
AcDbCircle
 10
270.8402599999998
 20
50.5
 30
0.0
 40
100.0
100
AcDbArc
 50
174.836393
 51
185.1636069999999
  0
LINE
  5
F91C
330
F8C0
100
AcDbEntity
  8
1
  6
Continuous
100
AcDbLine
 10
169.5
 20
39.5
 30
0.0
 11
169.5
 21
34.25041499999999
 31
0.0
  0
ARC
  5
F91D
330
F8C0
100
AcDbEntity
  8
1
  6
Continuous
100
AcDbCircle
 10
173.5
 20
34.25041499999999
 30
0.0
 40
4.0
100
AcDbArc
 50
180.0
 51
247.115739
  0
ARC
  5
F91E
330
F8C0
100
AcDbEntity
  8
1
  6
Continuous
100
AcDbCircle
 10
170.0
 20
39.5
 30
0.0
 40
0.5
100
AcDbArc
 50
90.0
 51
180.0
  0
ARC
  5
F91F
330
F8C0
100
AcDbEntity
  8
1
  6
Continuous
100
AcDbCircle
 10
173.5
 20
66.74958499999999
 30
0.0
 40
4.0
100
AcDbArc
 50
112.884261
 51
180.0
  0
ARC
  5
F920
330
F8C0
100
AcDbEntity
  8
1
  6
Continuous
100
AcDbCircle
 10
170.0
 20
61.5
 30
0.0
 40
0.5
100
AcDbArc
 50
180.0
 51
270.0
  0
LINE
  5
F921
330
F8C0
100
AcDbEntity
  8
1
  6
Continuous
100
AcDbLine
 10
169.5
 20
61.5
 30
0.0
 11
169.5
 21
66.74958499999999
 31
0.0
  0
LINE
  5
F922
330
F8C0
100
AcDbEntity
  8
4
  6
CENTER
100
AcDbLine
 10
194.5
 20
80.0
 30
0.0
 11
194.5
 21
21.0
 31
0.0
  0
LINE
  5
F923
330
F8C0
100
AcDbEntity
  8
4
  6
CENTER
100
AcDbLine
 10
211.5
 20
77.6631
 30
0.0
 11
211.5
 21
23.3369
 31
0.0
  0
ARC
  5
F924
330
F8C0
100
AcDbEntity
  8
1
  6
Continuous
100
AcDbCircle
 10
213.5
 20
50.5
 30
0.0
 40
8.5
100
AcDbArc
 50
301.9657189999999
 51
58.03428100000001
  0
LINE
  5
F925
330
F8C0
100
AcDbEntity
  8
1
  6
Continuous
100
AcDbLine
 10
170.0
 20
40.0
 30
0.0
 11
219.0
 21
40.0
 31
0.0
  0
LINE
  5
F926
330
F8C0
100
AcDbEntity
  8
1
  6
Continuous
100
AcDbLine
 10
186.5
 20
41.0
 30
0.0
 11
202.4999999999999
 21
41.0
 31
0.0
  0
LINE
  5
F927
330
F8C0
100
AcDbEntity
  8
1
  6
Continuous
100
AcDbLine
 10
186.5
 20
41.5
 30
0.0
 11
186.5
 21
41.0
 31
0.0
  0
ARC
  5
F928
330
F8C0
100
AcDbEntity
  8
1
  6
Continuous
100
AcDbCircle
 10
187.5
 20
40.0
 30
0.0
 40
1.0
100
AcDbArc
 50
90.0
 51
180.0
  0
LINE
  5
F929
330
F8C0
100
AcDbEntity
  8
1
  6
Continuous
100
AcDbLine
 10
202.4999999999999
 20
41.5
 30
0.0
 11
202.4999999999999
 21
41.0
 31
0.0
  0
ARC
  5
F92A
330
F8C0
100
AcDbEntity
  8
1
  6
Continuous
100
AcDbCircle
 10
201.5
 20
40.0
 30
0.0
 40
1.0
100
AcDbArc
 50
0.0
 51
90.0
  0
LINE
  5
F92B
330
F8C0
100
AcDbEntity
  8
1
  6
Continuous
100
AcDbLine
 10
219.4999999999998
 20
39.5
 30
0.0
 11
219.4999999999998
 21
34.25041499999999
 31
0.0
  0
ARC
  5
F92C
330
F8C0
100
AcDbEntity
  8
1
  6
Continuous
100
AcDbCircle
 10
215.5
 20
34.25041499999999
 30
0.0
 40
4.0
100
AcDbArc
 50
292.8842609999999
 51
0.0
  0
LINE
  5
F92D
330
F8C0
100
AcDbEntity
  8
1
  6
Continuous
100
AcDbLine
 10
218.0
 20
41.5
 30
0.0
 11
218.0
 21
43.288897
 31
0.0
  0
ARC
  5
F92E
330
F8C0
100
AcDbEntity
  8
1
  6
Continuous
100
AcDbCircle
 10
219.0
 20
39.5
 30
0.0
 40
0.5
100
AcDbArc
 50
0.0
 51
90.0
  0
LINE
  5
F92F
330
F8C0
100
AcDbEntity
  8
1
  6
Continuous
100
AcDbLine
 10
170.0
 20
61.0
 30
0.0
 11
219.0
 21
61.0
 31
0.0
  0
LINE
  5
F930
330
F8C0
100
AcDbEntity
  8
1
  6
Continuous
100
AcDbLine
 10
186.5
 20
60.0
 30
0.0
 11
202.4999999999999
 21
60.0
 31
0.0
  0
LINE
  5
F931
330
F8C0
100
AcDbEntity
  8
1
  6
Continuous
100
AcDbLine
 10
186.5
 20
60.0
 30
0.0
 11
186.5
 21
59.5
 31
0.0
  0
ARC
  5
F932
330
F8C0
100
AcDbEntity
  8
1
  6
Continuous
100
AcDbCircle
 10
187.5
 20
61.0
 30
0.0
 40
1.0
100
AcDbArc
 50
180.0
 51
270.0
  0
LINE
  5
F933
330
F8C0
100
AcDbEntity
  8
1
  6
Continuous
100
AcDbLine
 10
202.4999999999999
 20
60.0
 30
0.0
 11
202.4999999999999
 21
59.5
 31
0.0
  0
ARC
  5
F934
330
F8C0
100
AcDbEntity
  8
1
  6
Continuous
100
AcDbCircle
 10
201.5
 20
61.0
 30
0.0
 40
1.0
100
AcDbArc
 50
270.0
 51
0.0
  0
ARC
  5
F935
330
F8C0
100
AcDbEntity
  8
1
  6
Continuous
100
AcDbCircle
 10
215.5
 20
66.74958499999999
 30
0.0
 40
4.0
100
AcDbArc
 50
0.0
 51
67.11573900000001
  0
LINE
  5
F936
330
F8C0
100
AcDbEntity
  8
1
  6
Continuous
100
AcDbLine
 10
218.0
 20
57.71110199999998
 30
0.0
 11
218.0
 21
59.5
 31
0.0
  0
ARC
  5
F937
330
F8C0
100
AcDbEntity
  8
1
  6
Continuous
100
AcDbCircle
 10
219.0
 20
61.5
 30
0.0
 40
0.5
100
AcDbArc
 50
270.0
 51
0.0
  0
LINE
  5
F938
330
F8C0
100
AcDbEntity
  8
1
  6
Continuous
100
AcDbLine
 10
219.4999999999998
 20
61.5
 30
0.0
 11
219.4999999999998
 21
66.74958499999999
 31
0.0
  0
ARC
  5
F939
330
F8C0
100
AcDbEntity
  8
1
  6
Continuous
100
AcDbCircle
 10
211.5
 20
50.5
 30
0.0
 40
6.275
100
AcDbArc
 50
17.63970099999999
 51
342.360299
  0
LINE
  5
F93A
330
F8C0
100
AcDbEntity
  8
1
  6
Continuous
100
AcDbLine
 10
217.0034649999998
 20
51.75
 30
0.0
 11
215.3971149999999
 21
51.75
 31
0.0
  0
LINE
  5
F93B
330
F8C0
100
AcDbEntity
  8
1
  6
Continuous
100
AcDbLine
 10
217.0034649999998
 20
49.25
 30
0.0
 11
215.3971149999999
 21
49.25
 31
0.0
  0
ARC
  5
F93C
330
F8C0
100
AcDbEntity
  8
1
  6
Continuous
100
AcDbCircle
 10
253.572323
 20
147.207232
 30
0.0
 40
59.077677
100
AcDbArc
 50
356.9398239999999
 51
15.50497699999999
  0
ARC
  5
F93D
330
F8C0
100
AcDbEntity
  8
1
  6
Continuous
100
AcDbCircle
 10
385.427677
 20
147.207232
 30
0.0
 40
59.077677
100
AcDbArc
 50
164.495023
 51
183.060176
  0
ARC
  5
F93E
330
F8C0
100
AcDbEntity
  8
1
  6
Continuous
100
AcDbCircle
 10
313.5643299999999
 20
144.0
 30
0.0
 40
1.0
100
AcDbArc
 50
176.939824
 51
270.0
  0
ARC
  5
F93F
330
F8C0
100
AcDbEntity
  8
1
  6
Continuous
100
AcDbCircle
 10
325.43567
 20
144.0
 30
0.0
 40
1.0
100
AcDbArc
 50
270.0
 51
3.060175999999998
  0
CIRCLE
  5
F940
330
F8C0
100
AcDbEntity
  8
1
  6
Continuous
100
AcDbCircle
 10
211.5
 20
50.5
 30
0.0
 40
4.0
  0
LINE
  5
F941
330
F8C0
100
AcDbEntity
  8
1
  6
Continuous
100
AcDbLine
 10
206.8811979999999
 20
50.5
 30
0.0
 11
209.1905989999999
 21
54.5
 31
0.0
  0
LINE
  5
F942
330
F8C0
100
AcDbEntity
  8
1
  6
Continuous
100
AcDbLine
 10
209.1905989999999
 20
46.5
 30
0.0
 11
206.8811979999999
 21
50.5
 31
0.0
  0
LINE
  5
F943
330
F8C0
100
AcDbEntity
  8
1
  6
Continuous
100
AcDbLine
 10
80.775
 20
139.55
 30
0.0
 11
68.22499999999999
 21
139.55
 31
0.0
  0
LINE
  5
F944
330
F8C0
100
AcDbEntity
  8
1
  6
Continuous
100
AcDbLine
 10
80.775
 20
141.05
 30
0.0
 11
68.22499999999999
 21
141.05
 31
0.0
  0
LINE
  5
F945
330
F8C0
100
AcDbEntity
  8
1
  6
Continuous
100
AcDbLine
 10
77.5
 20
143.0
 30
0.0
 11
77.5
 21
141.05
 31
0.0
  0
ARC
  5
F946
330
F8C0
100
AcDbEntity
  8
1
  6
Continuous
100
AcDbCircle
 10
76.5
 20
138.15
 30
0.0
 40
2.9
100
AcDbArc
 50
226.397181
 51
313.602819
  0
LINE
  5
F947
330
F8C0
100
AcDbEntity
  8
1
  6
Continuous
100
AcDbLine
 10
78.5
 20
139.55
 30
0.0
 11
78.5
 21
135.25
 31
0.0
  0
LINE
  5
F948
330
F8C0
100
AcDbEntity
  8
1
  6
Continuous
100
AcDbLine
 10
71.5
 20
143.0
 30
0.0
 11
71.5
 21
141.05
 31
0.0
  0
LINE
  5
F949
330
F8C0
100
AcDbEntity
  8
1
  6
Continuous
100
AcDbLine
 10
68.22499999999999
 20
141.05
 30
0.0
 11
68.22499999999999
 21
139.55
 31
0.0
  0
LINE
  5
F94A
330
F8C0
100
AcDbEntity
  8
1
  6
Continuous
100
AcDbLine
 10
70.5
 20
139.55
 30
0.0
 11
70.5
 21
135.25
 31
0.0
  0
ARC
  5
F94B
330
F8C0
100
AcDbEntity
  8
1
  6
Continuous
100
AcDbCircle
 10
72.5
 20
138.15
 30
0.0
 40
2.9
100
AcDbArc
 50
226.397181
 51
313.602819
  0
LINE
  5
F94C
330
F8C0
100
AcDbEntity
  8
1
  6
Continuous
100
AcDbLine
 10
78.5
 20
135.25
 30
0.0
 11
70.5
 21
135.25
 31
0.0
  0
LINE
  5
F94D
330
F8C0
100
AcDbEntity
  8
1
  6
Continuous
100
AcDbLine
 10
216.1188029999999
 20
50.5
 30
0.0
 11
213.8094009999999
 21
46.5
 31
0.0
  0
LINE
  5
F94E
330
F8C0
100
AcDbEntity
  8
1
  6
Continuous
100
AcDbLine
 10
213.8094009999999
 20
46.5
 30
0.0
 11
209.1905989999999
 21
46.5
 31
0.0
  0
LINE
  5
F94F
330
F8C0
100
AcDbEntity
  8
1
  6
Continuous
100
AcDbLine
 10
209.1905989999999
 20
54.5
 30
0.0
 11
213.8094009999999
 21
54.5
 31
0.0
  0
LINE
  5
F950
330
F8C0
100
AcDbEntity
  8
1
  6
Continuous
100
AcDbLine
 10
213.8094009999999
 20
54.5
 30
0.0
 11
216.1188029999999
 21
50.5
 31
0.0
  0
LINE
  5
F951
330
F8C0
100
AcDbEntity
  8
1
  6
Continuous
100
AcDbLine
 10
80.775
 20
141.05
 30
0.0
 11
80.775
 21
139.55
 31
0.0
  0
LINE
  5
F952
330
F8C0
100
AcDbEntity
  8
1
  6
Continuous
100
AcDbLine
 10
313.225
 20
139.55
 30
0.0
 11
325.7749999999999
 21
139.55
 31
0.0
  0
LINE
  5
F953
330
F8C0
100
AcDbEntity
  8
1
  6
Continuous
100
AcDbLine
 10
320.75
 20
141.05
 30
0.0
 11
325.7749999999999
 21
141.05
 31
0.0
  0
LINE
  5
F954
330
F8C0
100
AcDbEntity
  8
1
  6
Continuous
100
AcDbLine
 10
322.5
 20
143.0
 30
0.0
 11
322.5
 21
141.05
 31
0.0
  0
LINE
  5
F955
330
F8C0
100
AcDbEntity
  8
1
  6
Continuous
100
AcDbLine
 10
323.4999999999998
 20
139.55
 30
0.0
 11
323.4999999999998
 21
135.25
 31
0.0
  0
LINE
  5
F956
330
F8C0
100
AcDbEntity
  8
1
  6
Continuous
100
AcDbLine
 10
313.225
 20
141.05
 30
0.0
 11
318.25
 21
141.05
 31
0.0
  0
LINE
  5
F957
330
F8C0
100
AcDbEntity
  8
1
  6
Continuous
100
AcDbLine
 10
313.225
 20
141.05
 30
0.0
 11
313.225
 21
139.55
 31
0.0
  0
ARC
  5
F958
330
F8C0
100
AcDbEntity
  8
1
  6
Continuous
100
AcDbCircle
 10
317.5
 20
138.15
 30
0.0
 40
2.9
100
AcDbArc
 50
226.397181
 51
313.602819
  0
LINE
  5
F959
330
F8C0
100
AcDbEntity
  8
1
  6
Continuous
100
AcDbLine
 10
319.5
 20
139.55
 30
0.0
 11
319.5
 21
136.05
 31
0.0
  0
LINE
  5
F95A
330
F8C0
100
AcDbEntity
  8
1
  6
Continuous
100
AcDbLine
 10
316.5
 20
143.0
 30
0.0
 11
316.5
 21
141.05
 31
0.0
  0
LINE
  5
F95B
330
F8C0
100
AcDbEntity
  8
1
  6
Continuous
100
AcDbLine
 10
318.25
 20
141.05
 30
0.0
 11
318.25
 21
139.55
 31
0.0
  0
LINE
  5
F95C
330
F8C0
100
AcDbEntity
  8
1
  6
Continuous
100
AcDbLine
 10
320.75
 20
141.05
 30
0.0
 11
320.75
 21
139.55
 31
0.0
  0
LINE
  5
F95D
330
F8C0
100
AcDbEntity
  8
1
  6
Continuous
100
AcDbLine
 10
315.5
 20
139.55
 30
0.0
 11
315.5
 21
135.25
 31
0.0
  0
ARC
  5
F95E
330
F8C0
100
AcDbEntity
  8
1
  6
Continuous
100
AcDbCircle
 10
321.4999999999998
 20
138.15
 30
0.0
 40
2.9
100
AcDbArc
 50
226.397181
 51
313.602819
  0
LINE
  5
F95F
330
F8C0
100
AcDbEntity
  8
1
  6
Continuous
100
AcDbLine
 10
315.5
 20
135.25
 30
0.0
 11
323.4999999999998
 21
135.25
 31
0.0
  0
LINE
  5
F960
330
F8C0
100
AcDbEntity
  8
1
  6
Continuous
100
AcDbLine
 10
325.7749999999999
 20
141.05
 30
0.0
 11
325.7749999999999
 21
139.55
 31
0.0
  0
ARC
  5
F961
330
F8C0
100
AcDbEntity
  8
1
  6
Continuous
100
AcDbCircle
 10
217.0034649999998
 20
52.25
 30
0.0
 40
0.5
100
AcDbArc
 50
270.0
 51
17.63970099999999
  0
ARC
  5
F962
330
F8C0
100
AcDbEntity
  8
1
  6
Continuous
100
AcDbCircle
 10
217.0034649999998
 20
48.75
 30
0.0
 40
0.5
100
AcDbArc
 50
342.360299
 51
90.0
  0
LINE
  5
F963
330
F8C0
100
AcDbEntity
  8
1
  6
Continuous
100
AcDbLine
 10
169.5
 20
280.5
 30
0.0
 11
169.5
 21
275.2504149999999
 31
0.0
  0
LINE
  5
F964
330
F8C0
100
AcDbEntity
  8
1
  6
Continuous
100
AcDbLine
 10
219.4999999999998
 20
280.5
 30
0.0
 11
219.4999999999998
 21
275.2504149999999
 31
0.0
  0
LINE
  5
F965
330
F8C0
100
AcDbEntity
  8
4
  6
CENTER
100
AcDbLine
 10
211.5
 20
264.3369
 30
0.0
 11
211.5
 21
318.6630999999998
 31
0.0
  0
LINE
  5
F966
330
F8C0
100
AcDbEntity
  8
4
  6
CENTER
100
AcDbLine
 10
194.5
 20
321.0
 30
0.0
 11
194.5
 21
262.0
 31
0.0
  0
LINE
  5
F967
330
F8C0
100
AcDbEntity
  8
4
  6
CENTER
100
AcDbLine
 10
226.567467
 20
150.5
 30
0.0
 11
164.5
 21
150.5
 31
0.0
  0
CIRCLE
  5
F968
330
F8C0
100
AcDbEntity
  8
1
  6
Continuous
100
AcDbCircle
 10
194.5
 20
150.5
 30
0.0
 40
25.0
  0
CIRCLE
  5
F969
330
F8C0
100
AcDbEntity
  8
1
  6
Continuous
100
AcDbCircle
 10
194.5
 20
150.5
 30
0.0
 40
15.09999999999999
  0
LINE
  5
F96A
330
F8C0
100
AcDbEntity
  8
4
  6
CENTER
100
AcDbLine
 10
211.5
 20
125.781586
 30
0.0
 11
211.5
 21
202.0
 31
0.0
  0
LINE
  5
F96B
330
F8C0
100
AcDbEntity
  8
4
  6
CENTER
100
AcDbLine
 10
194.5
 20
120.5
 30
0.0
 11
194.5
 21
180.4999999999998
 31
0.0
  0
LINE
  5
F96C
330
F8C0
100
AcDbEntity
  8
1
  6
Continuous
100
AcDbLine
 10
220.0553699999999
 20
176.0587219999999
 30
0.0
 11
221.9065839999999
 21
144.588083
 31
0.0
  0
LINE
  5
F96D
330
F8C0
100
AcDbEntity
  8
1
  6
Continuous
100
AcDbLine
 10
220.409172
 20
143.0
 30
0.0
 11
218.34848
 21
143.0
 31
0.0
  0
ARC
  5
F96E
330
F8C0
100
AcDbEntity
  8
1
  6
Continuous
100
AcDbCircle
 10
220.409172
 20
144.5
 30
0.0
 40
1.5
100
AcDbArc
 50
270.0
 51
3.366461
  0
LINE
  5
F96F
330
F8C0
100
AcDbEntity
  8
1
  6
Continuous
100
AcDbLine
 10
220.5
 20
183.0
 30
0.0
 11
202.4999999999999
 21
183.0
 31
0.0
  0
LINE
  5
F970
330
F8C0
100
AcDbEntity
  8
1
  6
Continuous
100
AcDbLine
 10
202.4999999999999
 20
177.0
 30
0.0
 11
220.5
 21
177.0
 31
0.0
  0
ARC
  5
F971
330
F8C0
100
AcDbEntity
  8
1
  6
Continuous
100
AcDbCircle
 10
219.0570950000001
 20
176.0
 30
0.0
 40
1.0
100
AcDbArc
 50
3.366461
 51
90.0
  0
ARC
  5
F972
330
F8C0
100
AcDbEntity
  8
1
  6
Continuous
100
AcDbCircle
 10
217.854249
 20
180.0
 30
0.0
 40
4.0
100
AcDbArc
 50
311.409622
 51
48.590378
  0
ARC
  5
F973
330
F8C0
100
AcDbEntity
  8
1
  6
Continuous
100
AcDbCircle
 10
211.8122889999999
 20
180.0
 30
0.0
 40
4.0
100
AcDbArc
 50
311.409622
 51
48.590378
  0
ARC
  5
F974
330
F8C0
100
AcDbEntity
  8
1
  6
Continuous
100
AcDbCircle
 10
200.0
 20
176.4229629999999
 30
0.0
 40
3.0
100
AcDbArc
 50
315.1705810000001
 51
351.9749
  0
ARC
  5
F975
330
F8C0
100
AcDbEntity
  8
1
  6
Continuous
100
AcDbCircle
 10
211.1877119999999
 20
180.0
 30
0.0
 40
4.0
100
AcDbArc
 50
131.4096219999999
 51
228.5903779999999
  0
ARC
  5
F976
330
F8C0
100
AcDbEntity
  8
1
  6
Continuous
100
AcDbCircle
 10
204.0
 20
176.0
 30
0.0
 40
1.0
100
AcDbArc
 50
90.0
 51
180.0
  0
ARC
  5
F977
330
F8C0
100
AcDbEntity
  8
1
  6
Continuous
100
AcDbCircle
 10
205.145752
 20
180.0
 30
0.0
 40
4.0
100
AcDbArc
 50
131.4096219999999
 51
228.5903779999999
  0
LINE
  5
F978
330
F8C0
100
AcDbEntity
  8
1
  6
Continuous
100
AcDbLine
 10
64.0
 20
175.0
 30
0.0
 11
64.0
 21
126.0
 31
0.0
  0
LINE
  5
F979
330
F8C0
100
AcDbEntity
  8
1
  6
Continuous
100
AcDbLine
 10
85.0
 20
175.0
 30
0.0
 11
85.0
 21
126.0
 31
0.0
  0
LINE
  5
F97A
330
F8C0
100
AcDbEntity
  8
4
  6
CENTER
100
AcDbLine
 10
74.5
 20
202.0
 30
0.0
 11
74.5
 21
130.2499999999998
 31
0.0
  0
LINE
  5
F97B
330
F8C0
100
AcDbEntity
  8
1
  6
Continuous
100
AcDbLine
 10
85.5
 20
125.5
 30
0.0
 11
90.74958499999999
 21
125.5
 31
0.0
  0
ARC
  5
F97C
330
F8C0
100
AcDbEntity
  8
1
  6
Continuous
100
AcDbCircle
 10
85.5
 20
126.0
 30
0.0
 40
0.5
100
AcDbArc
 50
180.0
 51
270.0
  0
LINE
  5
F97D
330
F8C0
100
AcDbEntity
  8
1
  6
Continuous
100
AcDbLine
 10
63.5
 20
125.5
 30
0.0
 11
58.25041500000001
 21
125.5
 31
0.0
  0
ARC
  5
F97E
330
F8C0
100
AcDbEntity
  8
1
  6
Continuous
100
AcDbCircle
 10
63.5
 20
126.0
 30
0.0
 40
0.5
100
AcDbArc
 50
270.0
 51
0.0
  0
LINE
  5
F97F
330
F8C0
100
AcDbEntity
  8
4
  6
CENTER
100
AcDbLine
 10
45.0
 20
150.5
 30
0.0
 11
104.0
 21
150.5
 31
0.0
  0
ARC
  5
F980
330
F8C0
100
AcDbEntity
  8
1
  6
Continuous
100
AcDbCircle
 10
169.921611
 20
165.667627
 30
0.0
 40
1.0
100
AcDbArc
 50
336.219159
 51
95.34782599999996
  0
ARC
  5
F981
330
F8C0
100
AcDbEntity
  8
1
  6
Continuous
100
AcDbCircle
 10
167.2187609999998
 20
194.5413969999999
 30
0.0
 40
28.0
100
AcDbArc
 50
262.055411
 51
290.2749469999998
  0
ARC
  5
F982
330
F8C0
100
AcDbEntity
  8
1
  6
Continuous
100
AcDbCircle
 10
175.412178
 20
163.2481909999999
 30
0.0
 40
5.0
100
AcDbArc
 50
156.2191589999999
 51
217.6815799999999
  0
ARC
  5
F983
330
F8C0
100
AcDbEntity
  8
1
  6
Continuous
100
AcDbCircle
 10
167.2187609999998
 20
194.5413969999999
 30
0.0
 40
26.0
100
AcDbArc
 50
260.358623
 51
302.0679830000001
  0
ARC
  5
F984
330
F8C0
100
AcDbEntity
  8
1
  6
Continuous
100
AcDbCircle
 10
181.1820919999999
 20
172.254284
 30
0.0
 40
0.3
100
AcDbArc
 50
33.538524
 51
122.0679829999999
  0
ARC
  5
F985
330
F8C0
100
AcDbEntity
  8
1
  6
Continuous
100
AcDbCircle
 10
179.7651169999998
 20
171.3150389999999
 30
0.0
 40
2.0
100
AcDbArc
 50
18.554139
 51
33.538524
  0
ARC
  5
F986
330
F8C0
100
AcDbEntity
  8
1
  6
Continuous
100
AcDbCircle
 10
164.5
 20
168.3950199999999
 30
0.0
 40
2.0
100
AcDbArc
 50
172.6372709999999
 51
229.244997
  0
LINE
  5
F987
330
F8C0
100
AcDbEntity
  8
1
  6
Continuous
100
AcDbLine
 10
65.5
 20
156.0
 30
0.0
 11
65.5
 21
176.0
 31
0.0
  0
LINE
  5
F988
330
F8C0
100
AcDbEntity
  8
1
  6
Continuous
100
AcDbLine
 10
83.49999999999999
 20
156.0
 30
0.0
 11
83.49999999999999
 21
176.0
 31
0.0
  0
LINE
  5
F989
330
F8C0
100
AcDbEntity
  8
1
  6
Continuous
100
AcDbLine
 10
65.0
 20
143.0
 30
0.0
 11
84.0
 21
143.0
 31
0.0
  0
LINE
  5
F98A
330
F8C0
100
AcDbEntity
  8
1
  6
Continuous
100
AcDbLine
 10
84.0
 20
143.0
 30
0.0
 11
84.0
 21
156.0
 31
0.0
  0
ARC
  5
F98B
330
F8C0
100
AcDbEntity
  8
1
  6
Continuous
100
AcDbCircle
 10
85.0
 20
143.5
 30
0.0
 40
1.0
100
AcDbArc
 50
180.0
 51
270.0
  0
ARC
  5
F98C
330
F8C0
100
AcDbEntity
  8
1
  6
Continuous
100
AcDbCircle
 10
85.0
 20
157.5
 30
0.0
 40
1.0
100
AcDbArc
 50
90.0
 51
138.5903779999999
  0
LINE
  5
F98D
330
F8C0
100
AcDbEntity
  8
1
  6
Continuous
100
AcDbLine
 10
65.0
 20
156.0
 30
0.0
 11
65.0
 21
143.0
 31
0.0
  0
ARC
  5
F98E
330
F8C0
100
AcDbEntity
  8
1
  6
Continuous
100
AcDbCircle
 10
64.0
 20
143.5
 30
0.0
 40
1.0
100
AcDbArc
 50
270.0
 51
0.0
  0
ARC
  5
F98F
330
F8C0
100
AcDbEntity
  8
1
  6
Continuous
100
AcDbCircle
 10
64.0
 20
157.5
 30
0.0
 40
1.0
100
AcDbArc
 50
41.40962199999999
 51
90.0
  0
LINE
  5
F990
330
F8C0
100
AcDbEntity
  8
1
  6
Continuous
100
AcDbLine
 10
82.5
 20
183.0
 30
0.0
 11
66.5
 21
183.0
 31
0.0
  0
LINE
  5
F991
330
F8C0
100
AcDbEntity
  8
1
  6
Continuous
100
AcDbLine
 10
82.5
 20
177.0
 30
0.0
 11
66.5
 21
177.0
 31
0.0
  0
ARC
  5
F992
330
F8C0
100
AcDbEntity
  8
1
  6
Continuous
100
AcDbCircle
 10
74.5
 20
74.40582299999999
 30
0.0
 40
100.0
100
AcDbArc
 50
84.836393
 51
95.16360699999999
  0
LINE
  5
F993
330
F8C0
100
AcDbEntity
  8
1
  6
Continuous
100
AcDbLine
 10
85.5
 20
175.5
 30
0.0
 11
90.74958499999999
 21
175.5
 31
0.0
  0
ARC
  5
F994
330
F8C0
100
AcDbEntity
  8
1
  6
Continuous
100
AcDbCircle
 10
85.5
 20
175.0
 30
0.0
 40
0.5
100
AcDbArc
 50
90.0
 51
180.0
  0
LINE
  5
F995
330
F8C0
100
AcDbEntity
  8
1
  6
Continuous
100
AcDbLine
 10
83.0
 20
169.7341439999999
 30
0.0
 11
83.49999999999999
 21
169.7341439999999
 31
0.0
  0
LINE
  5
F996
330
F8C0
100
AcDbEntity
  8
1
  6
Continuous
100
AcDbLine
 10
80.15
 20
156.0
 30
0.0
 11
80.15
 21
166.72928
 31
0.0
  0
ARC
  5
F997
330
F8C0
100
AcDbEntity
  8
1
  6
Continuous
100
AcDbCircle
 10
82.5
 20
176.0
 30
0.0
 40
1.0
100
AcDbArc
 50
0.0
 51
90.0
  0
ARC
  5
F998
330
F8C0
100
AcDbEntity
  8
1
  6
Continuous
100
AcDbCircle
 10
82.5
 20
176.0
 30
0.0
 40
1.0
100
AcDbArc
 50
0.0
 51
90.0
  0
ARC
  5
F999
330
F8C0
100
AcDbEntity
  8
1
  6
Continuous
100
AcDbCircle
 10
82.5
 20
182.5
 30
0.0
 40
0.5
100
AcDbArc
 50
0.0
 51
90.0
  0
ARC
  5
F99A
330
F8C0
100
AcDbEntity
  8
1
  6
Continuous
100
AcDbCircle
 10
82.5
 20
177.5
 30
0.0
 40
0.5
100
AcDbArc
 50
270.0
 51
0.0
  0
LINE
  5
F99B
330
F8C0
100
AcDbEntity
  8
1
  6
Continuous
100
AcDbLine
 10
83.0
 20
177.5
 30
0.0
 11
83.0
 21
182.5
 31
0.0
  0
LINE
  5
F99C
330
F8C0
100
AcDbEntity
  8
1
  6
Continuous
100
AcDbLine
 10
68.84999999999999
 20
166.72928
 30
0.0
 11
68.84999999999999
 21
156.0
 31
0.0
  0
LINE
  5
F99D
330
F8C0
100
AcDbEntity
  8
1
  6
Continuous
100
AcDbLine
 10
66.0
 20
169.7341439999999
 30
0.0
 11
65.5
 21
169.7341439999999
 31
0.0
  0
ARC
  5
F99E
330
F8C0
100
AcDbEntity
  8
1
  6
Continuous
100
AcDbCircle
 10
66.5
 20
182.5
 30
0.0
 40
0.5
100
AcDbArc
 50
90.0
 51
180.0
  0
ARC
  5
F99F
330
F8C0
100
AcDbEntity
  8
1
  6
Continuous
100
AcDbCircle
 10
66.5
 20
176.0
 30
0.0
 40
1.0
100
AcDbArc
 50
90.0
 51
180.0
  0
ARC
  5
F9A0
330
F8C0
100
AcDbEntity
  8
1
  6
Continuous
100
AcDbCircle
 10
66.5
 20
177.5
 30
0.0
 40
0.5
100
AcDbArc
 50
180.0
 51
270.0
  0
ARC
  5
F9A1
330
F8C0
100
AcDbEntity
  8
1
  6
Continuous
100
AcDbCircle
 10
66.5
 20
176.0
 30
0.0
 40
1.0
100
AcDbArc
 50
90.0
 51
180.0
  0
LINE
  5
F9A2
330
F8C0
100
AcDbEntity
  8
1
  6
Continuous
100
AcDbLine
 10
66.0
 20
177.5
 30
0.0
 11
66.0
 21
182.5
 31
0.0
  0
ARC
  5
F9A3
330
F8C0
100
AcDbEntity
  8
1
  6
Continuous
100
AcDbCircle
 10
63.5
 20
175.0
 30
0.0
 40
0.5
100
AcDbArc
 50
0.0
 51
90.0
  0
LINE
  5
F9A4
330
F8C0
100
AcDbEntity
  8
1
  6
Continuous
100
AcDbLine
 10
63.5
 20
175.5
 30
0.0
 11
58.25041500000001
 21
175.5
 31
0.0
  0
LINE
  5
F9A5
330
F8C0
100
AcDbEntity
  8
1
  6
Continuous
100
AcDbLine
 10
52.0
 20
135.4
 30
0.0
 11
52.0
 21
165.5999999999998
 31
0.0
  0
LINE
  5
F9A6
330
F8C0
100
AcDbEntity
  8
1
  6
Continuous
100
AcDbLine
 10
179.4
 20
314.0
 30
0.0
 11
209.6
 21
314.0
 31
0.0
  0
LINE
  5
F9A7
330
F8C0
100
AcDbEntity
  8
1
  6
Continuous
100
AcDbLine
 10
179.7763339999999
 20
300.4999999999999
 30
0.0
 11
218.0
 21
300.4999999999999
 31
0.0
  0
LINE
  5
F9A8
330
F8C0
100
AcDbEntity
  8
1
  6
Continuous
100
AcDbLine
 10
186.5
 20
301.0
 30
0.0
 11
202.4999999999999
 21
301.0
 31
0.0
  0
LINE
  5
F9A9
330
F8C0
100
AcDbEntity
  8
1
  6
Continuous
100
AcDbLine
 10
179.7763339999999
 20
282.5
 30
0.0
 11
218.0
 21
282.5
 31
0.0
  0
LINE
  5
F9AA
330
F8C0
100
AcDbEntity
  8
1
  6
Continuous
100
AcDbLine
 10
186.5
 20
282.0
 30
0.0
 11
202.4999999999999
 21
282.0
 31
0.0
  0
LINE
  5
F9AB
330
F8C0
100
AcDbEntity
  8
4
  6
CENTER
100
AcDbLine
 10
157.5164909999998
 20
291.5
 30
0.0
 11
227.0
 21
291.5
 31
0.0
  0
LINE
  5
F9AC
330
F8C0
100
AcDbEntity
  8
1
  6
Continuous
100
AcDbLine
 10
216.767827
 20
300.0
 30
0.0
 11
206.2321739999999
 21
300.0
 31
0.0
  0
LINE
  5
F9AD
330
F8C0
100
AcDbEntity
  8
1
  6
Continuous
100
AcDbLine
 10
216.767827
 20
283.0
 30
0.0
 11
206.2321739999999
 21
283.0
 31
0.0
  0
ARC
  5
F9AE
330
F8C0
100
AcDbEntity
  8
1
  6
Continuous
100
AcDbCircle
 10
213.5
 20
291.5
 30
0.0
 40
8.5
100
AcDbArc
 50
314.309137
 51
45.69086300000001
  0
ARC
  5
F9AF
330
F8C0
100
AcDbEntity
  8
1
  6
Continuous
100
AcDbCircle
 10
211.5
 20
291.5
 30
0.0
 40
9.0
100
AcDbArc
 50
289.1881359999998
 51
70.81186399999999
  0
ARC
  5
F9B0
330
F8C0
100
AcDbEntity
  8
1
  6
Continuous
100
AcDbCircle
 10
211.5
 20
291.5
 30
0.0
 40
10.0
100
AcDbArc
 50
301.7883310000001
 51
58.21166899999997
  0
ARC
  5
F9B1
330
F8C0
100
AcDbEntity
  8
1
  6
Continuous
100
AcDbCircle
 10
219.0
 20
280.5
 30
0.0
 40
0.5
100
AcDbArc
 50
0.0
 51
90.0
  0
LINE
  5
F9B2
330
F8C0
100
AcDbEntity
  8
1
  6
Continuous
100
AcDbLine
 10
218.0
 20
282.5
 30
0.0
 11
218.0
 21
283.900658
 31
0.0
  0
LINE
  5
F9B3
330
F8C0
100
AcDbEntity
  8
1
  6
Continuous
100
AcDbLine
 10
218.0
 20
299.0993419999999
 30
0.0
 11
218.0
 21
300.4999999999999
 31
0.0
  0
ARC
  5
F9B4
330
F8C0
100
AcDbEntity
  8
1
  6
Continuous
100
AcDbCircle
 10
219.0
 20
302.4999999999999
 30
0.0
 40
0.5
100
AcDbArc
 50
270.0
 51
0.0
  0
LINE
  5
F9B5
330
F8C0
100
AcDbEntity
  8
1
  6
Continuous
100
AcDbLine
 10
219.4999999999998
 20
302.4999999999999
 30
0.0
 11
219.4999999999998
 21
307.749585
 31
0.0
  0
ARC
  5
F9B6
330
F8C0
100
AcDbEntity
  8
1
  6
Continuous
100
AcDbCircle
 10
211.5
 20
291.5
 30
0.0
 40
9.0
100
AcDbArc
 50
109.188136
 51
250.811864
  0
ARC
  5
F9B7
330
F8C0
100
AcDbEntity
  8
1
  6
Continuous
100
AcDbCircle
 10
211.5
 20
291.5
 30
0.0
 40
10.0
100
AcDbArc
 50
121.7883309999999
 51
238.211669
  0
LINE
  5
F9B8
330
F8C0
100
AcDbEntity
  8
1
  6
Continuous
100
AcDbLine
 10
202.4999999999999
 20
282.5
 30
0.0
 11
202.4999999999999
 21
282.0
 31
0.0
  0
ARC
  5
F9B9
330
F8C0
100
AcDbEntity
  8
1
  6
Continuous
100
AcDbCircle
 10
201.5
 20
281.0
 30
0.0
 40
1.0
100
AcDbArc
 50
0.0
 51
90.0
  0
ARC
  5
F9BA
330
F8C0
100
AcDbEntity
  8
1
  6
Continuous
100
AcDbCircle
 10
201.5
 20
302.0
 30
0.0
 40
1.0
100
AcDbArc
 50
270.0
 51
0.0
  0
LINE
  5
F9BB
330
F8C0
100
AcDbEntity
  8
1
  6
Continuous
100
AcDbLine
 10
202.4999999999999
 20
301.0
 30
0.0
 11
202.4999999999999
 21
300.4999999999999
 31
0.0
  0
LINE
  5
F9BC
330
F8C0
100
AcDbEntity
  8
1
  6
Continuous
100
AcDbLine
 10
179.7651169999998
 20
283.0
 30
0.0
 11
167.809658
 21
283.0
 31
0.0
  0
LINE
  5
F9BD
330
F8C0
100
AcDbEntity
  8
1
  6
Continuous
100
AcDbLine
 10
219.0
 20
281.0
 30
0.0
 11
170.0
 21
281.0
 31
0.0
  0
LINE
  5
F9BE
330
F8C0
100
AcDbEntity
  8
1
  6
Continuous
100
AcDbLine
 10
179.7763339999999
 20
282.5
 30
0.0
 11
179.7763339999999
 21
283.0000309999999
 31
0.0
  0
LINE
  5
F9BF
330
F8C0
100
AcDbEntity
  8
1
  6
Continuous
100
AcDbLine
 10
186.5
 20
282.5
 30
0.0
 11
186.5
 21
282.0
 31
0.0
  0
ARC
  5
F9C0
330
F8C0
100
AcDbEntity
  8
1
  6
Continuous
100
AcDbCircle
 10
187.5
 20
281.0
 30
0.0
 40
1.0
100
AcDbArc
 50
90.0
 51
180.0
  0
ARC
  5
F9C1
330
F8C0
100
AcDbEntity
  8
1
  6
Continuous
100
AcDbCircle
 10
170.0
 20
280.5
 30
0.0
 40
0.5
100
AcDbArc
 50
90.0
 51
180.0
  0
LINE
  5
F9C2
330
F8C0
100
AcDbEntity
  8
1
  6
Continuous
100
AcDbLine
 10
179.7651169999998
 20
300.0
 30
0.0
 11
167.809658
 21
300.0
 31
0.0
  0
LINE
  5
F9C3
330
F8C0
100
AcDbEntity
  8
1
  6
Continuous
100
AcDbLine
 10
219.0
 20
302.0
 30
0.0
 11
170.0
 21
302.0
 31
0.0
  0
ARC
  5
F9C4
330
F8C0
100
AcDbEntity
  8
1
  6
Continuous
100
AcDbCircle
 10
187.5
 20
302.0
 30
0.0
 40
1.0
100
AcDbArc
 50
180.0
 51
270.0
  0
LINE
  5
F9C5
330
F8C0
100
AcDbEntity
  8
1
  6
Continuous
100
AcDbLine
 10
186.5
 20
301.0
 30
0.0
 11
186.5
 21
300.4999999999999
 31
0.0
  0
LINE
  5
F9C6
330
F8C0
100
AcDbEntity
  8
1
  6
Continuous
100
AcDbLine
 10
179.7763339999999
 20
299.999969
 30
0.0
 11
179.7763339999999
 21
300.4999999999999
 31
0.0
  0
ARC
  5
F9C7
330
F8C0
100
AcDbEntity
  8
1
  6
Continuous
100
AcDbCircle
 10
170.0
 20
302.4999999999999
 30
0.0
 40
0.5
100
AcDbArc
 50
180.0
 51
270.0
  0
LINE
  5
F9C8
330
F8C0
100
AcDbEntity
  8
1
  6
Continuous
100
AcDbLine
 10
169.5
 20
302.4999999999999
 30
0.0
 11
169.5
 21
307.749585
 31
0.0
  0
ARC
  5
F9C9
330
F8C0
100
AcDbEntity
  8
1
  6
Continuous
100
AcDbCircle
 10
194.5
 20
257.9975
 30
0.0
 40
58.0025
100
AcDbArc
 50
67.11573900000001
 51
112.884261
  0
ARC
  5
F9CA
330
F8C0
100
AcDbEntity
  8
1
  6
Continuous
100
AcDbCircle
 10
173.5
 20
307.749585
 30
0.0
 40
4.0
100
AcDbArc
 50
112.884261
 51
180.0
  0
ARC
  5
F9CB
330
F8C0
100
AcDbEntity
  8
1
  6
Continuous
100
AcDbCircle
 10
215.5
 20
307.749585
 30
0.0
 40
4.0
100
AcDbArc
 50
0.0
 51
67.11573900000001
  0
ARC
  5
F9CC
330
F8C0
100
AcDbEntity
  8
1
  6
Continuous
100
AcDbCircle
 10
194.5
 20
325.0024999999999
 30
0.0
 40
58.0025
100
AcDbArc
 50
247.115739
 51
292.8842609999999
  0
LINE
  5
F9CD
330
F8C0
100
AcDbEntity
  8
1
  6
Continuous
100
AcDbLine
 10
179.4
 20
269.0
 30
0.0
 11
209.6
 21
269.0
 31
0.0
  0
ARC
  5
F9CE
330
F8C0
100
AcDbEntity
  8
1
  6
Continuous
100
AcDbCircle
 10
215.5
 20
275.2504149999999
 30
0.0
 40
4.0
100
AcDbArc
 50
292.8842609999999
 51
0.0
  0
ARC
  5
F9CF
330
F8C0
100
AcDbEntity
  8
1
  6
Continuous
100
AcDbCircle
 10
173.5
 20
275.2504149999999
 30
0.0
 40
4.0
100
AcDbArc
 50
180.0
 51
247.115739
  0
ARC
  5
F9D0
330
F8C0
100
AcDbEntity
  8
1
  6
Continuous
100
AcDbCircle
 10
162.8140169999998
 20
168.6128749999998
 30
0.0
 40
0.3
100
AcDbArc
 50
80.35862300000003
 51
172.6372709999999
  0
ARC
  5
F9D1
330
F8C0
100
AcDbEntity
  8
1
  6
Continuous
100
AcDbCircle
 10
163.390196
 20
167.1072559999998
 30
0.0
 40
0.3
100
AcDbArc
 50
229.244997
 51
262.055411
  0
ARC
  5
F9D2
330
F8C0
100
AcDbEntity
  8
1
  6
Continuous
100
AcDbCircle
 10
108.0025
 20
150.5
 30
0.0
 40
58.0025
100
AcDbArc
 50
157.1157389999999
 51
202.884261
  0
ARC
  5
F9D3
330
F8C0
100
AcDbEntity
  8
1
  6
Continuous
100
AcDbCircle
 10
58.25041500000001
 20
171.5
 30
0.0
 40
4.0
100
AcDbArc
 50
90.0
 51
157.1157389999999
  0
ARC
  5
F9D4
330
F8C0
100
AcDbEntity
  8
1
  6
Continuous
100
AcDbCircle
 10
58.25041500000001
 20
129.4999999999998
 30
0.0
 40
4.0
100
AcDbArc
 50
202.884261
 51
270.0
  0
ARC
  5
F9D5
330
F8C0
100
AcDbEntity
  8
1
  6
Continuous
100
AcDbCircle
 10
90.74958499999999
 20
171.5
 30
0.0
 40
4.0
100
AcDbArc
 50
22.884261
 51
90.0
  0
ARC
  5
F9D6
330
F8C0
100
AcDbEntity
  8
1
  6
Continuous
100
AcDbCircle
 10
40.9975
 20
150.5
 30
0.0
 40
58.0025
100
AcDbArc
 50
337.115739
 51
22.884261
  0
LINE
  5
F9D7
330
F8C0
100
AcDbEntity
  8
1
  6
Continuous
100
AcDbLine
 10
97.0
 20
135.4
 30
0.0
 11
97.0
 21
165.5999999999998
 31
0.0
  0
ARC
  5
F9D8
330
F8C0
100
AcDbEntity
  8
1
  6
Continuous
100
AcDbCircle
 10
90.74958499999999
 20
129.4999999999998
 30
0.0
 40
4.0
100
AcDbArc
 50
270.0
 51
337.115739
  0
LINE
  5
F9D9
330
F8C0
100
AcDbEntity
  8
1
  6
Continuous
100
AcDbLine
 10
67.5
 20
172.5542839999999
 30
0.0
 11
81.5
 21
172.5542839999999
 31
0.0
  0
LINE
  5
F9DA
330
F8C0
100
AcDbEntity
  8
1
  6
Continuous
100
AcDbLine
 10
67.74435699999999
 20
168.912875
 30
0.0
 11
81.255643
 21
168.912875
 31
0.0
  0
LINE
  5
F9DB
330
F8C0
100
AcDbEntity
  8
1
  6
Continuous
100
AcDbLine
 10
81.255643
 20
166.810135
 30
0.0
 11
67.74435699999999
 21
166.810135
 31
0.0
  0
LINE
  5
F9DC
330
F8C0
100
AcDbEntity
  8
1
  6
Continuous
100
AcDbLine
 10
67.24435699999999
 20
168.412875
 30
0.0
 11
67.24435699999999
 21
167.310135
 31
0.0
  0
LINE
  5
F9DD
330
F8C0
100
AcDbEntity
  8
1
  6
Continuous
100
AcDbLine
 10
81.75564300000003
 20
168.412875
 30
0.0
 11
81.75564300000003
 21
167.310135
 31
0.0
  0
ARC
  5
F9DE
330
F8C0
100
AcDbEntity
  8
1
  6
Continuous
100
AcDbCircle
 10
67.74435699999999
 20
168.412875
 30
0.0
 40
0.5
100
AcDbArc
 50
90.0
 51
180.0
  0
ARC
  5
F9DF
330
F8C0
100
AcDbEntity
  8
1
  6
Continuous
100
AcDbCircle
 10
81.255643
 20
168.412875
 30
0.0
 40
0.5
100
AcDbArc
 50
0.0
 51
90.0
  0
ARC
  5
F9E0
330
F8C0
100
AcDbEntity
  8
1
  6
Continuous
100
AcDbCircle
 10
81.255643
 20
167.310135
 30
0.0
 40
0.5
100
AcDbArc
 50
270.0
 51
0.0
  0
ARC
  5
F9E1
330
F8C0
100
AcDbEntity
  8
1
  6
Continuous
100
AcDbCircle
 10
67.74435699999999
 20
167.310135
 30
0.0
 40
0.5
100
AcDbArc
 50
180.0
 51
270.0
  0
ARC
  5
F9E2
330
F8C0
100
AcDbEntity
  8
1
  6
Continuous
100
AcDbCircle
 10
74.5
 20
251.5886669999999
 30
0.0
 40
85.04726999999999
100
AcDbArc
 50
265.3901389999999
 51
274.6098609999999
  0
LINE
  5
F9E3
330
F8C0
100
AcDbEntity
  8
1
  6
Continuous
100
AcDbLine
 10
66.0
 20
171.054284
 30
0.0
 11
66.0
 21
158.4999999999998
 31
0.0
  0
LINE
  5
F9E4
330
F8C0
100
AcDbEntity
  8
1
  6
Continuous
100
AcDbLine
 10
83.0
 20
171.054284
 30
0.0
 11
83.0
 21
158.4999999999998
 31
0.0
  0
ARC
  5
F9E5
330
F8C0
100
AcDbEntity
  8
1
  6
Continuous
100
AcDbCircle
 10
67.5
 20
171.054284
 30
0.0
 40
1.5
100
AcDbArc
 50
90.0
 51
180.0
  0
ARC
  5
F9E6
330
F8C0
100
AcDbEntity
  8
1
  6
Continuous
100
AcDbCircle
 10
81.5
 20
171.054284
 30
0.0
 40
1.5
100
AcDbArc
 50
0.0
 51
90.0
  0
ARC
  5
F9E7
330
F8C0
100
AcDbEntity
  8
1
  6
Continuous
100
AcDbCircle
 10
68.984752
 20
171.704448
 30
0.0
 40
3.054743
100
AcDbArc
 50
192.2886889999998
 51
246.0427249999999
  0
ARC
  5
F9E8
330
F8C0
100
AcDbEntity
  8
1
  6
Continuous
100
AcDbCircle
 10
68.90510500000001
 20
169.6080919999999
 30
0.0
 40
3.054743
100
AcDbArc
 50
198.0077959999999
 51
240.35861
  0
ARC
  5
F9E9
330
F8C0
100
AcDbEntity
  8
1
  6
Continuous
100
AcDbCircle
 10
80.015248
 20
171.704448
 30
0.0
 40
3.054743
100
AcDbArc
 50
293.9572749999999
 51
347.7113109999999
  0
ARC
  5
F9EA
330
F8C0
100
AcDbEntity
  8
1
  6
Continuous
100
AcDbCircle
 10
80.09489499999999
 20
169.6080919999999
 30
0.0
 40
3.054743
100
AcDbArc
 50
299.64139
 51
341.992204
  0
LINE
  5
F9EB
330
F8C0
100
AcDbEntity
  8
1
  6
Continuous
100
AcDbLine
 10
65.0
 20
156.0
 30
0.0
 11
68.84999999999999
 21
156.0
 31
0.0
  0
LINE
  5
F9EC
330
F8C0
100
AcDbEntity
  8
1
  6
Continuous
100
AcDbLine
 10
80.15
 20
156.0
 30
0.0
 11
84.0
 21
156.0
 31
0.0
  0
LINE
  5
F9ED
330
F8C0
100
AcDbEntity
  8
1
  6
Continuous
100
AcDbLine
 10
84.25
 20
163.25
 30
0.0
 11
84.25
 21
162.5
 31
0.0
  0
LINE
  5
F9EE
330
F8C0
100
AcDbEntity
  8
1
  6
Continuous
100
AcDbLine
 10
84.74999999999999
 20
159.0
 30
0.0
 11
85.0
 21
159.0
 31
0.0
  0
LINE
  5
F9EF
330
F8C0
100
AcDbEntity
  8
1
  6
Continuous
100
AcDbLine
 10
85.0
 20
162.0
 30
0.0
 11
84.74999999999999
 21
162.0
 31
0.0
  0
LINE
  5
F9F0
330
F8C0
100
AcDbEntity
  8
1
  6
Continuous
100
AcDbLine
 10
83.49999999999999
 20
164.0
 30
0.0
 11
83.49999999999999
 21
164.0
 31
0.0
  0
LINE
  5
F9F1
330
F8C0
100
AcDbEntity
  8
1
  6
Continuous
100
AcDbLine
 10
84.25
 20
158.4999999999998
 30
0.0
 11
84.25
 21
154.75
 31
0.0
  0
LINE
  5
F9F2
330
F8C0
100
AcDbEntity
  8
1
  6
Continuous
100
AcDbLine
 10
68.84999999999999
 20
158.0
 30
0.0
 11
80.15
 21
158.0
 31
0.0
  0
ARC
  5
F9F3
330
F8C0
100
AcDbEntity
  8
1
  6
Continuous
100
AcDbCircle
 10
84.74999999999999
 20
162.5
 30
0.0
 40
0.5
100
AcDbArc
 50
180.0
 51
270.0
  0
ARC
  5
F9F4
330
F8C0
100
AcDbEntity
  8
1
  6
Continuous
100
AcDbCircle
 10
84.74999999999999
 20
158.4999999999998
 30
0.0
 40
0.5
100
AcDbArc
 50
90.0
 51
180.0
  0
ARC
  5
F9F5
330
F8C0
100
AcDbEntity
  8
1
  6
Continuous
100
AcDbCircle
 10
83.49999999999999
 20
163.25
 30
0.0
 40
0.75
100
AcDbArc
 50
0.0
 51
90.0
  0
ARC
  5
F9F6
330
F8C0
100
AcDbEntity
  8
1
  6
Continuous
100
AcDbCircle
 10
83.49999999999999
 20
154.75
 30
0.0
 40
0.75
100
AcDbArc
 50
311.810315
 51
0.0
  0
ARC
  5
F9F7
330
F8C0
100
AcDbEntity
  8
1
  6
Continuous
100
AcDbCircle
 10
65.5
 20
163.25
 30
0.0
 40
0.75
100
AcDbArc
 50
90.0
 51
180.0
  0
LINE
  5
F9F8
330
F8C0
100
AcDbEntity
  8
1
  6
Continuous
100
AcDbLine
 10
64.75
 20
163.25
 30
0.0
 11
64.75
 21
162.5
 31
0.0
  0
ARC
  5
F9F9
330
F8C0
100
AcDbEntity
  8
1
  6
Continuous
100
AcDbCircle
 10
64.25
 20
162.5
 30
0.0
 40
0.5
100
AcDbArc
 50
270.0
 51
0.0
  0
LINE
  5
F9FA
330
F8C0
100
AcDbEntity
  8
1
  6
Continuous
100
AcDbLine
 10
64.0
 20
162.0
 30
0.0
 11
64.25
 21
162.0
 31
0.0
  0
ARC
  5
F9FB
330
F8C0
100
AcDbEntity
  8
1
  6
Continuous
100
AcDbCircle
 10
64.25
 20
158.4999999999998
 30
0.0
 40
0.5
100
AcDbArc
 50
0.0
 51
90.0
  0
LINE
  5
F9FC
330
F8C0
100
AcDbEntity
  8
1
  6
Continuous
100
AcDbLine
 10
64.25
 20
159.0
 30
0.0
 11
64.0
 21
159.0
 31
0.0
  0
LINE
  5
F9FD
330
F8C0
100
AcDbEntity
  8
1
  6
Continuous
100
AcDbLine
 10
64.75
 20
158.4999999999998
 30
0.0
 11
64.75
 21
154.75
 31
0.0
  0
ARC
  5
F9FE
330
F8C0
100
AcDbEntity
  8
1
  6
Continuous
100
AcDbCircle
 10
65.5
 20
154.75
 30
0.0
 40
0.75
100
AcDbArc
 50
180.0
 51
228.1896849999998
  0
LINE
  5
F9FF
330
F8C0
100
AcDbEntity
  8
1
  6
Continuous
100
AcDbLine
 10
80.15
 20
158.4999999999998
 30
0.0
 11
83.0
 21
158.4999999999998
 31
0.0
  0
LINE
  5
FA00
330
F8C0
100
AcDbEntity
  8
1
  6
Continuous
100
AcDbLine
 10
66.0
 20
158.4999999999998
 30
0.0
 11
68.84999999999999
 21
158.4999999999998
 31
0.0
  0
LINE
  5
FA01
330
F8C0
100
AcDbEntity
  8
1
  6
Continuous
100
AcDbLine
 10
162.5
 20
297.2832799999998
 30
0.0
 11
162.5
 21
285.71672
 31
0.0
  0
ARC
  5
FA02
330
F8C0
100
AcDbEntity
  8
1
  6
Continuous
100
AcDbCircle
 10
164.5
 20
297.2832799999998
 30
0.0
 40
2.0
100
AcDbArc
 50
114.437936
 51
180.0
  0
LINE
  5
FA03
330
F8C0
100
AcDbEntity
  8
1
  6
Continuous
100
AcDbLine
 10
181.7651169999998
 20
298.0
 30
0.0
 11
181.7651169999998
 21
285.0
 31
0.0
  0
LINE
  5
FA04
330
F8C0
100
AcDbEntity
  8
1
  6
Continuous
100
AcDbLine
 10
181.432146
 20
298.0
 30
0.0
 11
181.432146
 21
285.0
 31
0.0
  0
ARC
  5
FA05
330
F8C0
100
AcDbEntity
  8
1
  6
Continuous
100
AcDbCircle
 10
179.7651169999998
 20
298.0
 30
0.0
 40
2.0
100
AcDbArc
 50
0.0
 51
90.0
  0
ARC
  5
FA06
330
F8C0
100
AcDbEntity
  8
1
  6
Continuous
100
AcDbCircle
 10
179.4321459999999
 20
298.0
 30
0.0
 40
2.0
100
AcDbArc
 50
0.0
 51
90.0
  0
ARC
  5
FA07
330
F8C0
100
AcDbEntity
  8
1
  6
Continuous
100
AcDbCircle
 10
179.4321459999999
 20
285.0
 30
0.0
 40
2.0
100
AcDbArc
 50
270.0
 51
0.0
  0
ARC
  5
FA08
330
F8C0
100
AcDbEntity
  8
1
  6
Continuous
100
AcDbCircle
 10
179.7651169999998
 20
285.0
 30
0.0
 40
2.0
100
AcDbArc
 50
270.0
 51
0.0
  0
ARC
  5
FA09
330
F8C0
100
AcDbEntity
  8
1
  6
Continuous
100
AcDbCircle
 10
310.4999999999999
 20
163.25
 30
0.0
 40
0.75
100
AcDbArc
 50
90.0
 51
180.0
  0
ARC
  5
FA0A
330
F8C0
100
AcDbEntity
  8
1
  6
Continuous
100
AcDbCircle
 10
309.25
 20
162.5
 30
0.0
 40
0.5
100
AcDbArc
 50
270.0
 51
0.0
  0
LINE
  5
FA0B
330
F8C0
100
AcDbEntity
  8
1
  6
Continuous
100
AcDbLine
 10
310.4999999999999
 20
164.0
 30
0.0
 11
310.4999999999999
 21
164.0
 31
0.0
  0
LINE
  5
FA0C
330
F8C0
100
AcDbEntity
  8
1
  6
Continuous
100
AcDbLine
 10
309.0
 20
162.0
 30
0.0
 11
309.25
 21
162.0
 31
0.0
  0
LINE
  5
FA0D
330
F8C0
100
AcDbEntity
  8
1
  6
Continuous
100
AcDbLine
 10
309.75
 20
163.25
 30
0.0
 11
309.75
 21
162.5
 31
0.0
  0
ARC
  5
FA0E
330
F8C0
100
AcDbEntity
  8
1
  6
Continuous
100
AcDbCircle
 10
309.25
 20
158.4999999999998
 30
0.0
 40
0.5
100
AcDbArc
 50
0.0
 51
90.0
  0
LINE
  5
FA0F
330
F8C0
100
AcDbEntity
  8
1
  6
Continuous
100
AcDbLine
 10
309.75
 20
158.4999999999998
 30
0.0
 11
309.75
 21
158.1614379999998
 31
0.0
  0
LINE
  5
FA10
330
F8C0
100
AcDbEntity
  8
1
  6
Continuous
100
AcDbLine
 10
330.0
 20
162.0
 30
0.0
 11
329.7499999999998
 21
162.0
 31
0.0
  0
ARC
  5
FA11
330
F8C0
100
AcDbEntity
  8
1
  6
Continuous
100
AcDbCircle
 10
329.7499999999998
 20
162.5
 30
0.0
 40
0.5
100
AcDbArc
 50
180.0
 51
270.0
  0
LINE
  5
FA12
330
F8C0
100
AcDbEntity
  8
1
  6
Continuous
100
AcDbLine
 10
329.2499999999999
 20
163.25
 30
0.0
 11
329.2499999999999
 21
162.5
 31
0.0
  0
ARC
  5
FA13
330
F8C0
100
AcDbEntity
  8
1
  6
Continuous
100
AcDbCircle
 10
328.5
 20
163.25
 30
0.0
 40
0.75
100
AcDbArc
 50
0.0
 51
90.0
  0
LINE
  5
FA14
330
F8C0
100
AcDbEntity
  8
1
  6
Continuous
100
AcDbLine
 10
329.7499999999998
 20
159.0
 30
0.0
 11
330.0
 21
159.0
 31
0.0
  0
LINE
  5
FA15
330
F8C0
100
AcDbEntity
  8
1
  6
Continuous
100
AcDbLine
 10
329.2499999999999
 20
158.4999999999998
 30
0.0
 11
329.2499999999999
 21
158.1614379999998
 31
0.0
  0
LINE
  5
FA16
330
F8C0
100
AcDbEntity
  8
1
  6
Continuous
100
AcDbLine
 10
309.25
 20
159.0
 30
0.0
 11
309.0
 21
159.0
 31
0.0
  0
ARC
  5
FA17
330
F8C0
100
AcDbEntity
  8
1
  6
Continuous
100
AcDbCircle
 10
329.7499999999998
 20
158.4999999999998
 30
0.0
 40
0.5
100
AcDbArc
 50
90.0
 51
180.0
  0
LINE
  5
FA18
330
F8C0
100
AcDbEntity
  8
1
  6
Continuous
100
AcDbLine
 10
171.2021649999998
 20
59.0
 30
0.0
 11
167.809658
 21
59.0
 31
0.0
  0
LINE
  5
FA19
330
F8C0
100
AcDbEntity
  8
1
  6
Continuous
100
AcDbLine
 10
171.2021649999998
 20
42.0
 30
0.0
 11
167.809658
 21
42.0
 31
0.0
  0
ARC
  5
FA1A
330
F8C0
100
AcDbEntity
  8
1
  6
Continuous
100
AcDbCircle
 10
167.809658
 20
290.0
 30
0.0
 40
10.0
100
AcDbArc
 50
90.0
 51
114.437936
  0
ARC
  5
FA1B
330
F8C0
100
AcDbEntity
  8
1
  6
Continuous
100
AcDbCircle
 10
164.5
 20
285.71672
 30
0.0
 40
2.0
100
AcDbArc
 50
180.0
 51
245.562064
  0
ARC
  5
FA1C
330
F8C0
100
AcDbEntity
  8
1
  6
Continuous
100
AcDbCircle
 10
167.809658
 20
293.0
 30
0.0
 40
10.0
100
AcDbArc
 50
245.562064
 51
270.0
  0
LINE
  5
FA1D
330
F8C0
100
AcDbEntity
  8
1
  6
Continuous
100
AcDbLine
 10
162.5
 20
44.71672
 30
0.0
 11
162.5
 21
56.28327999999999
 31
0.0
  0
ARC
  5
FA1E
330
F8C0
100
AcDbEntity
  8
1
  6
Continuous
100
AcDbCircle
 10
164.5
 20
44.71672
 30
0.0
 40
2.0
100
AcDbArc
 50
180.0
 51
245.562064
  0
ARC
  5
FA1F
330
F8C0
100
AcDbEntity
  8
1
  6
Continuous
100
AcDbCircle
 10
167.809658
 20
52.0
 30
0.0
 40
10.0
100
AcDbArc
 50
245.562064
 51
270.0
  0
ARC
  5
FA20
330
F8C0
100
AcDbEntity
  8
1
  6
Continuous
100
AcDbCircle
 10
167.809658
 20
49.0
 30
0.0
 40
10.0
100
AcDbArc
 50
90.0
 51
114.437936
  0
ARC
  5
FA21
330
F8C0
100
AcDbEntity
  8
1
  6
Continuous
100
AcDbCircle
 10
164.5
 20
56.28327999999999
 30
0.0
 40
2.0
100
AcDbArc
 50
114.437936
 51
180.0
  0
LINE
  5
FA22
330
F8C0
100
AcDbEntity
  8
1
  6
Continuous
100
AcDbLine
 10
74.5
 20
136.05
 30
0.0
 11
74.5
 21
139.55
 31
0.0
  0
ARC
  5
FA23
330
F8C0
100
AcDbEntity
  8
1
  6
Continuous
100
AcDbCircle
 10
181.4865739999999
 20
298.269154
 30
0.0
 40
3.75
100
AcDbArc
 50
127.58965
 51
152.5122429999998
  0
ARC
  5
FA24
330
F8C0
100
AcDbEntity
  8
1
  6
Continuous
100
AcDbCircle
 10
181.4999999999998
 20
298.2499999999999
 30
0.0
 40
3.75
100
AcDbArc
 50
36.869898
 51
90.0
  0
ARC
  5
FA25
330
F8C0
100
AcDbEntity
  8
1
  6
Continuous
100
AcDbCircle
 10
181.7584469999999
 20
304.2983169999998
 30
0.0
 40
3.987448
100
AcDbArc
 50
215.196897
 51
230.069396
  0
ARC
  5
FA26
330
F8C0
100
AcDbEntity
  8
1
  6
Continuous
100
AcDbCircle
 10
181.7584469999999
 20
278.701683
 30
0.0
 40
3.987448
100
AcDbArc
 50
129.9306039999999
 51
144.8031029999999
  0
ARC
  5
FA27
330
F8C0
100
AcDbEntity
  8
1
  6
Continuous
100
AcDbCircle
 10
181.4865739999999
 20
284.7308459999998
 30
0.0
 40
3.75
100
AcDbArc
 50
207.4877569999999
 51
232.41035
  0
ARC
  5
FA28
330
F8C0
100
AcDbEntity
  8
1
  6
Continuous
100
AcDbCircle
 10
181.4999999999998
 20
284.75
 30
0.0
 40
3.75
100
AcDbArc
 50
270.0
 51
323.130102
  0
ARC
  5
FA29
330
F8C0
100
AcDbEntity
  8
1
  6
Continuous
100
AcDbCircle
 10
181.7584469999999
 20
63.29831699999999
 30
0.0
 40
3.987448
100
AcDbArc
 50
215.196897
 51
230.069396
  0
ARC
  5
FA2A
330
F8C0
100
AcDbEntity
  8
1
  6
Continuous
100
AcDbCircle
 10
181.4865739999999
 20
57.269154
 30
0.0
 40
3.75
100
AcDbArc
 50
127.58965
 51
143.495039
  0
ARC
  5
FA2B
330
F8C0
100
AcDbEntity
  8
1
  6
Continuous
100
AcDbCircle
 10
181.4999999999998
 20
57.25
 30
0.0
 40
3.75
100
AcDbArc
 50
36.869898
 51
90.0
  0
ARC
  5
FA2C
330
F8C0
100
AcDbEntity
  8
1
  6
Continuous
100
AcDbCircle
 10
181.7584469999999
 20
37.701683
 30
0.0
 40
3.987448
100
AcDbArc
 50
129.9306039999999
 51
144.8031029999999
  0
ARC
  5
FA2D
330
F8C0
100
AcDbEntity
  8
1
  6
Continuous
100
AcDbCircle
 10
181.4865739999999
 20
43.730846
 30
0.0
 40
3.75
100
AcDbArc
 50
216.504961
 51
232.41035
  0
ARC
  5
FA2E
330
F8C0
100
AcDbEntity
  8
1
  6
Continuous
100
AcDbCircle
 10
181.4999999999998
 20
43.75
 30
0.0
 40
3.75
100
AcDbArc
 50
270.0
 51
323.130102
  0
ARC
  5
FA2F
330
F8C0
100
AcDbEntity
  8
5
  6
PHANTOM
100
AcDbCircle
 10
167.686499
 20
152.680798
 30
0.0
 40
2.0
100
AcDbArc
 50
258.718392
 51
314.397699
  0
ARC
  5
FA30
330
F8C0
100
AcDbEntity
  8
5
  6
PHANTOM
100
AcDbCircle
 10
170.6590379999999
 20
157.341579
 30
0.0
 40
1.0
100
AcDbArc
 50
84.20794499999997
 51
181.347826
  0
ARC
  5
FA31
330
F8C0
100
AcDbEntity
  8
5
  6
PHANTOM
100
AcDbCircle
 10
168.3194679999998
 20
166.75396
 30
0.0
 40
0.5
100
AcDbArc
 50
200.744024
 51
330.113966
  0
ARC
  5
FA32
330
F8C0
100
AcDbEntity
  8
5
  6
PHANTOM
100
AcDbCircle
 10
141.6670619999999
 20
156.659445
 30
0.0
 40
26.0
100
AcDbArc
 50
347.6038819999998
 51
28.067983
  0
ARC
  5
FA33
330
F8C0
100
AcDbEntity
  8
5
  6
PHANTOM
100
AcDbCircle
 10
164.8739169999998
 20
169.0340919999998
 30
0.0
 40
0.3
100
AcDbArc
 50
119.5385239999999
 51
208.067983
  0
ARC
  5
FA34
330
F8C0
100
AcDbEntity
  8
5
  6
PHANTOM
100
AcDbCircle
 10
166.414739
 20
169.103018
 30
0.0
 40
0.3
100
AcDbArc
 50
26.694064
 51
65.58410600000001
  0
ARC
  5
FA35
330
F8C0
100
AcDbEntity
  8
5
  6
PHANTOM
100
AcDbCircle
 10
167.353925
 20
151.0136469999999
 30
0.0
 40
0.3
100
AcDbArc
 50
167.603882
 51
258.718392
  0
ARC
  5
FA36
330
F8C0
100
AcDbEntity
  8
5
  6
PHANTOM
100
AcDbCircle
 10
168.8758769999998
 20
151.466147
 30
0.0
 40
0.3
100
AcDbArc
 50
314.397699
 51
349.194028
  0
ARC
  5
FA37
330
F8C0
100
AcDbEntity
  8
5
  6
PHANTOM
100
AcDbCircle
 10
141.6670619999999
 20
156.659445
 30
0.0
 40
28.0
100
AcDbArc
 50
349.194028
 51
26.694064
  0
ARC
  5
FA38
330
F8C0
100
AcDbEntity
  8
5
  6
PHANTOM
100
AcDbCircle
 10
165.7120319999999
 20
167.5550499999999
 30
0.0
 40
2.0
100
AcDbArc
 50
65.58410600000001
 51
119.5385239999999
  0
ARC
  5
FA39
330
F8C0
100
AcDbEntity
  8
5
  6
PHANTOM
100
AcDbCircle
 10
174.388596
 20
163.266025
 30
0.0
 40
6.5
100
AcDbArc
 50
73.948274
 51
150.1139659999998
  0
LINE
  5
FA3A
330
F8C0
100
AcDbEntity
  8
5
  6
PHANTOM
100
AcDbLine
 10
176.1858789999998
 20
169.5126059999998
 30
0.0
 11
177.336099
 21
168.6769219999999
 31
0.0
  0
LINE
  5
FA3B
330
F8C0
100
AcDbEntity
  8
1
  6
Continuous
100
AcDbLine
 10
77.29999999999998
 20
197.0
 30
0.0
 11
78.5
 21
195.8
 31
0.0
  0
LINE
  5
FA3C
330
F8C0
100
AcDbEntity
  8
1
  6
Continuous
100
AcDbLine
 10
70.5
 20
195.8
 30
0.0
 11
71.7
 21
197.0
 31
0.0
  0
LINE
  5
FA3D
330
F8C0
100
AcDbEntity
  8
1
  6
Continuous
100
AcDbLine
 10
70.5
 20
195.8
 30
0.0
 11
78.5
 21
195.8
 31
0.0
  0
LINE
  5
FA3E
330
F8C0
100
AcDbEntity
  8
1
  6
Continuous
100
AcDbLine
 10
78.5
 20
183.0
 30
0.0
 11
78.5
 21
195.8
 31
0.0
  0
LINE
  5
FA3F
330
F8C0
100
AcDbEntity
  8
2
  6
Continuous
100
AcDbLine
 10
77.82349999999998
 20
184.1717319999999
 30
0.0
 11
77.82349999999998
 21
196.4764999999999
 31
0.0
  0
LINE
  5
FA40
330
F8C0
100
AcDbEntity
  8
1
  6
Continuous
100
AcDbLine
 10
70.5
 20
183.0
 30
0.0
 11
70.5
 21
195.8
 31
0.0
  0
LINE
  5
FA41
330
F8C0
100
AcDbEntity
  8
2
  6
Continuous
100
AcDbLine
 10
71.17650000000002
 20
184.1717319999999
 30
0.0
 11
71.17650000000002
 21
196.4764999999999
 31
0.0
  0
LINE
  5
FA42
330
F8C0
100
AcDbEntity
  8
1
  6
Continuous
100
AcDbLine
 10
71.7
 20
197.0
 30
0.0
 11
77.29999999999998
 21
197.0
 31
0.0
  0
CIRCLE
  5
FA43
330
F8C0
100
AcDbEntity
  8
1
  6
Continuous
100
AcDbCircle
 10
211.5
 20
291.5
 30
0.0
 40
2.799999999999998
  0
CIRCLE
  5
FA44
330
F8C0
100
AcDbEntity
  8
2
  6
Continuous
100
AcDbCircle
 10
211.5
 20
291.5
 30
0.0
 40
3.3235
  0
CIRCLE
  5
FA45
330
F8C0
100
AcDbEntity
  8
1
  6
Continuous
100
AcDbCircle
 10
211.5
 20
291.5
 30
0.0
 40
4.0
  0
LINE
  5
FA46
330
F8C0
100
AcDbEntity
  8
1
  6
Continuous
100
AcDbLine
 10
208.6999999999999
 20
197.0
 30
0.0
 11
214.3
 21
197.0
 31
0.0
  0
LINE
  5
FA47
330
F8C0
100
AcDbEntity
  8
2
  6
Continuous
100
AcDbLine
 10
208.1764999999998
 20
184.1717319999999
 30
0.0
 11
208.1764999999998
 21
196.4764999999999
 31
0.0
  0
LINE
  5
FA48
330
F8C0
100
AcDbEntity
  8
1
  6
Continuous
100
AcDbLine
 10
207.5
 20
183.0
 30
0.0
 11
207.5
 21
195.8
 31
0.0
  0
LINE
  5
FA49
330
F8C0
100
AcDbEntity
  8
2
  6
Continuous
100
AcDbLine
 10
214.8235
 20
184.1717319999999
 30
0.0
 11
214.8235
 21
196.4764999999999
 31
0.0
  0
LINE
  5
FA4A
330
F8C0
100
AcDbEntity
  8
1
  6
Continuous
100
AcDbLine
 10
215.5
 20
183.0
 30
0.0
 11
215.5
 21
195.8
 31
0.0
  0
LINE
  5
FA4B
330
F8C0
100
AcDbEntity
  8
1
  6
Continuous
100
AcDbLine
 10
207.5
 20
195.8
 30
0.0
 11
215.5
 21
195.8
 31
0.0
  0
LINE
  5
FA4C
330
F8C0
100
AcDbEntity
  8
1
  6
Continuous
100
AcDbLine
 10
207.5
 20
195.8
 30
0.0
 11
208.6999999999999
 21
197.0
 31
0.0
  0
LINE
  5
FA4D
330
F8C0
100
AcDbEntity
  8
1
  6
Continuous
100
AcDbLine
 10
214.3
 20
197.0
 30
0.0
 11
215.5
 21
195.8
 31
0.0
  0
LINE
  5
FA4E
330
F8C0
100
AcDbEntity
  8
1
  6
Continuous
100
AcDbLine
 10
316.6999999999998
 20
197.0
 30
0.0
 11
322.3
 21
197.0
 31
0.0
  0
LINE
  5
FA4F
330
F8C0
100
AcDbEntity
  8
2
  6
Continuous
100
AcDbLine
 10
316.1764999999999
 20
184.1717319999999
 30
0.0
 11
316.1764999999999
 21
196.4764999999999
 31
0.0
  0
LINE
  5
FA50
330
F8C0
100
AcDbEntity
  8
1
  6
Continuous
100
AcDbLine
 10
315.5
 20
183.0
 30
0.0
 11
315.5
 21
195.8
 31
0.0
  0
LINE
  5
FA51
330
F8C0
100
AcDbEntity
  8
2
  6
Continuous
100
AcDbLine
 10
322.8235
 20
184.1717319999999
 30
0.0
 11
322.8235
 21
196.4764999999999
 31
0.0
  0
LINE
  5
FA52
330
F8C0
100
AcDbEntity
  8
1
  6
Continuous
100
AcDbLine
 10
323.4999999999998
 20
183.0
 30
0.0
 11
323.4999999999998
 21
195.8
 31
0.0
  0
LINE
  5
FA53
330
F8C0
100
AcDbEntity
  8
1
  6
Continuous
100
AcDbLine
 10
315.5
 20
195.8
 30
0.0
 11
323.4999999999998
 21
195.8
 31
0.0
  0
LINE
  5
FA54
330
F8C0
100
AcDbEntity
  8
1
  6
Continuous
100
AcDbLine
 10
315.5
 20
195.8
 30
0.0
 11
316.6999999999998
 21
197.0
 31
0.0
  0
LINE
  5
FA55
330
F8C0
100
AcDbEntity
  8
1
  6
Continuous
100
AcDbLine
 10
322.3
 20
197.0
 30
0.0
 11
323.4999999999998
 21
195.8
 31
0.0
  0
ARC
  5
FA56
330
F8C0
100
AcDbEntity
  8
1
  6
Continuous
100
AcDbCircle
 10
435.0
 20
176.0
 30
0.0
 40
1.0
100
AcDbArc
 50
0.0
 51
90.0
  0
LINE
  5
FA57
330
F8C0
100
AcDbEntity
  8
1
  6
Continuous
100
AcDbLine
 10
418.9446299999998
 20
176.0587219999999
 30
0.0
 11
417.0934159999998
 21
144.588083
 31
0.0
  0
LINE
  5
FA58
330
F8C0
100
AcDbEntity
  8
4
  6
CENTER
100
AcDbLine
 10
444.5
 20
120.5
 30
0.0
 11
444.5
 21
180.4999999999998
 31
0.0
  0
LINE
  5
FA59
330
F8C0
100
AcDbEntity
  8
4
  6
CENTER
100
AcDbLine
 10
427.5
 20
125.781586
 30
0.0
 11
427.5
 21
202.0
 31
0.0
  0
CIRCLE
  5
FA5A
330
F8C0
100
AcDbEntity
  8
1
  6
Continuous
100
AcDbCircle
 10
444.5
 20
150.5
 30
0.0
 40
15.09999999999999
  0
CIRCLE
  5
FA5B
330
F8C0
100
AcDbEntity
  8
1
  6
Continuous
100
AcDbCircle
 10
444.5
 20
150.5
 30
0.0
 40
25.0
  0
LINE
  5
FA5C
330
F8C0
100
AcDbEntity
  8
4
  6
CENTER
100
AcDbLine
 10
412.4325329999998
 20
150.5
 30
0.0
 11
474.5
 21
150.5
 31
0.0
  0
ARC
  5
FA5D
330
F8C0
100
AcDbEntity
  8
5
  6
PHANTOM
100
AcDbCircle
 10
497.332938
 20
156.659445
 30
0.0
 40
28.0
100
AcDbArc
 50
153.305936
 51
190.805972
  0
ARC
  5
FA5E
330
F8C0
100
AcDbEntity
  8
5
  6
PHANTOM
100
AcDbCircle
 10
497.332938
 20
156.659445
 30
0.0
 40
26.0
100
AcDbArc
 50
151.932017
 51
192.396118
  0
ARC
  5
FA5F
330
F8C0
100
AcDbEntity
  8
5
  6
PHANTOM
100
AcDbCircle
 10
470.124123
 20
151.466147
 30
0.0
 40
0.3
100
AcDbArc
 50
190.805972
 51
225.602301
  0
ARC
  5
FA60
330
F8C0
100
AcDbEntity
  8
5
  6
PHANTOM
100
AcDbCircle
 10
471.646075
 20
151.0136469999999
 30
0.0
 40
0.3
100
AcDbArc
 50
281.281608
 51
12.396118
  0
ARC
  5
FA61
330
F8C0
100
AcDbEntity
  8
5
  6
PHANTOM
100
AcDbCircle
 10
471.313501
 20
152.680798
 30
0.0
 40
2.0
100
AcDbArc
 50
225.602301
 51
281.281608
  0
ARC
  5
FA62
330
F8C0
100
AcDbEntity
  8
5
  6
PHANTOM
100
AcDbCircle
 10
464.6114039999998
 20
163.266025
 30
0.0
 40
6.5
100
AcDbArc
 50
29.88603399999999
 51
106.051726
  0
ARC
  5
FA63
330
F8C0
100
AcDbEntity
  8
1
  6
Continuous
100
AcDbCircle
 10
471.7812389999998
 20
194.5413969999999
 30
0.0
 40
26.0
100
AcDbArc
 50
237.932017
 51
279.641377
  0
ARC
  5
FA64
330
F8C0
100
AcDbEntity
  8
1
  6
Continuous
100
AcDbCircle
 10
471.7812389999998
 20
194.5413969999999
 30
0.0
 40
28.0
100
AcDbArc
 50
249.725053
 51
277.944589
  0
ARC
  5
FA65
330
F8C0
100
AcDbEntity
  8
5
  6
PHANTOM
100
AcDbCircle
 10
473.2879679999999
 20
167.5550499999999
 30
0.0
 40
2.0
100
AcDbArc
 50
60.46147600000001
 51
114.4158939999998
  0
ARC
  5
FA66
330
F8C0
100
AcDbEntity
  8
5
  6
PHANTOM
100
AcDbCircle
 10
472.585261
 20
169.103018
 30
0.0
 40
0.3
100
AcDbArc
 50
114.4158939999998
 51
153.305936
  0
ARC
  5
FA67
330
F8C0
100
AcDbEntity
  8
5
  6
PHANTOM
100
AcDbCircle
 10
474.1260829999998
 20
169.0340919999998
 30
0.0
 40
0.3
100
AcDbArc
 50
331.9320169999999
 51
60.46147600000001
  0
ARC
  5
FA68
330
F8C0
100
AcDbEntity
  8
5
  6
PHANTOM
100
AcDbCircle
 10
470.6805319999999
 20
166.75396
 30
0.0
 40
0.5
100
AcDbArc
 50
209.8860339999998
 51
339.2559759999999
  0
ARC
  5
FA69
330
F8C0
100
AcDbEntity
  8
5
  6
PHANTOM
100
AcDbCircle
 10
468.3409619999998
 20
157.341579
 30
0.0
 40
1.0
100
AcDbArc
 50
358.652174
 51
95.792055
  0
ARC
  5
FA6A
330
F8C0
100
AcDbEntity
  8
1
  6
Continuous
100
AcDbCircle
 10
475.609804
 20
167.1072559999998
 30
0.0
 40
0.3
100
AcDbArc
 50
277.944589
 51
310.755003
  0
ARC
  5
FA6B
330
F8C0
100
AcDbEntity
  8
1
  6
Continuous
100
AcDbCircle
 10
476.185983
 20
168.6128749999998
 30
0.0
 40
0.3
100
AcDbArc
 50
7.362728999999997
 51
99.64137700000001
  0
ARC
  5
FA6C
330
F8C0
100
AcDbEntity
  8
1
  6
Continuous
100
AcDbCircle
 10
474.5
 20
168.3950199999999
 30
0.0
 40
2.0
100
AcDbArc
 50
310.755003
 51
7.362728999999997
  0
ARC
  5
FA6D
330
F8C0
100
AcDbEntity
  8
1
  6
Continuous
100
AcDbCircle
 10
463.5878219999998
 20
163.2481909999999
 30
0.0
 40
5.0
100
AcDbArc
 50
322.3184199999999
 51
23.780841
  0
ARC
  5
FA6E
330
F8C0
100
AcDbEntity
  8
1
  6
Continuous
100
AcDbCircle
 10
469.0783889999998
 20
165.667627
 30
0.0
 40
1.0
100
AcDbArc
 50
84.652174
 51
203.7808409999999
  0
LINE
  5
FA6F
330
F8C0
100
AcDbEntity
  8
5
  6
PHANTOM
100
AcDbLine
 10
462.8141209999998
 20
169.5126059999998
 30
0.0
 11
461.6639009999998
 21
168.6769219999999
 31
0.0
  0
ARC
  5
FA70
330
F8C0
100
AcDbEntity
  8
1
  6
Continuous
100
AcDbCircle
 10
459.234883
 20
171.3150389999999
 30
0.0
 40
2.0
100
AcDbArc
 50
146.461476
 51
161.4458609999998
  0
ARC
  5
FA71
330
F8C0
100
AcDbEntity
  8
1
  6
Continuous
100
AcDbCircle
 10
457.8179079999999
 20
172.254284
 30
0.0
 40
0.3
100
AcDbArc
 50
57.932017
 51
146.461476
  0
ARC
  5
FA72
330
F8C0
100
AcDbEntity
  8
1
  6
Continuous
100
AcDbCircle
 10
418.5908279999998
 20
144.5
 30
0.0
 40
1.5
100
AcDbArc
 50
176.6335389999999
 51
270.0
  0
LINE
  5
FA73
330
F8C0
100
AcDbEntity
  8
1
  6
Continuous
100
AcDbLine
 10
418.5908279999998
 20
143.0
 30
0.0
 11
420.65152
 21
143.0
 31
0.0
  0
ARC
  5
FA74
330
F8C0
100
AcDbEntity
  8
1
  6
Continuous
100
AcDbCircle
 10
439.0
 20
176.4229629999999
 30
0.0
 40
3.0
100
AcDbArc
 50
188.0251
 51
224.829419
  0
ARC
  5
FA75
330
F8C0
100
AcDbEntity
  8
1
  6
Continuous
100
AcDbCircle
 10
427.8122879999998
 20
180.0
 30
0.0
 40
4.0
100
AcDbArc
 50
311.409622
 51
48.590378
  0
LINE
  5
FA76
330
F8C0
100
AcDbEntity
  8
1
  6
Continuous
100
AcDbLine
 10
436.5
 20
177.0
 30
0.0
 11
418.5
 21
177.0
 31
0.0
  0
LINE
  5
FA77
330
F8C0
100
AcDbEntity
  8
1
  6
Continuous
100
AcDbLine
 10
418.5
 20
183.0
 30
0.0
 11
436.5
 21
183.0
 31
0.0
  0
ARC
  5
FA78
330
F8C0
100
AcDbEntity
  8
1
  6
Continuous
100
AcDbCircle
 10
433.854248
 20
180.0
 30
0.0
 40
4.0
100
AcDbArc
 50
311.409622
 51
48.590378
  0
LINE
  5
FA79
330
F8C0
100
AcDbEntity
  8
1
  6
Continuous
100
AcDbLine
 10
424.6999999999998
 20
197.0
 30
0.0
 11
423.5
 21
195.8
 31
0.0
  0
LINE
  5
FA7A
330
F8C0
100
AcDbEntity
  8
1
  6
Continuous
100
AcDbLine
 10
431.5
 20
195.8
 30
0.0
 11
430.2999999999998
 21
197.0
 31
0.0
  0
LINE
  5
FA7B
330
F8C0
100
AcDbEntity
  8
1
  6
Continuous
100
AcDbLine
 10
431.5
 20
195.8
 30
0.0
 11
423.5
 21
195.8
 31
0.0
  0
LINE
  5
FA7C
330
F8C0
100
AcDbEntity
  8
1
  6
Continuous
100
AcDbLine
 10
423.5
 20
183.0
 30
0.0
 11
423.5
 21
195.8
 31
0.0
  0
LINE
  5
FA7D
330
F8C0
100
AcDbEntity
  8
2
  6
Continuous
100
AcDbLine
 10
424.1765
 20
184.1717319999999
 30
0.0
 11
424.1765
 21
196.4764999999999
 31
0.0
  0
LINE
  5
FA7E
330
F8C0
100
AcDbEntity
  8
1
  6
Continuous
100
AcDbLine
 10
431.5
 20
183.0
 30
0.0
 11
431.5
 21
195.8
 31
0.0
  0
LINE
  5
FA7F
330
F8C0
100
AcDbEntity
  8
2
  6
Continuous
100
AcDbLine
 10
430.8235
 20
184.1717319999999
 30
0.0
 11
430.8235
 21
196.4764999999999
 31
0.0
  0
LINE
  5
FA80
330
F8C0
100
AcDbEntity
  8
1
  6
Continuous
100
AcDbLine
 10
430.2999999999998
 20
197.0
 30
0.0
 11
424.6999999999998
 21
197.0
 31
0.0
  0
ARC
  5
FA81
330
F8C0
100
AcDbEntity
  8
1
  6
Continuous
100
AcDbCircle
 10
427.187711
 20
180.0
 30
0.0
 40
4.0
100
AcDbArc
 50
131.4096219999999
 51
228.5903779999999
  0
ARC
  5
FA82
330
F8C0
100
AcDbEntity
  8
1
  6
Continuous
100
AcDbCircle
 10
421.1457509999998
 20
180.0
 30
0.0
 40
4.0
100
AcDbArc
 50
131.4096219999999
 51
228.5903779999999
  0
ARC
  5
FA83
330
F8C0
100
AcDbEntity
  8
1
  6
Continuous
100
AcDbCircle
 10
419.9429049999998
 20
176.0
 30
0.0
 40
1.0
100
AcDbArc
 50
90.0
 51
176.6335389999999
  0
LINE
  5
FA84
330
F8C0
100
AcDbEntity
  8
2
  6
Continuous
100
AcDbLine
 10
71.17650000000002
 20
184.1717319999999
 30
0.0
 11
70.5
 21
183.0
 31
0.0
  0
LINE
  5
FA85
330
F8C0
100
AcDbEntity
  8
1
  6
Continuous
100
AcDbLine
 10
78.5
 20
184.1717319999999
 30
0.0
 11
70.5
 21
184.1717319999999
 31
0.0
  0
LINE
  5
FA86
330
F8C0
100
AcDbEntity
  8
2
  6
Continuous
100
AcDbLine
 10
77.82349999999998
 20
184.1717319999999
 30
0.0
 11
78.5
 21
183.0
 31
0.0
  0
LINE
  5
FA87
330
F8C0
100
AcDbEntity
  8
2
  6
Continuous
100
AcDbLine
 10
208.1764999999998
 20
184.1717319999999
 30
0.0
 11
207.5
 21
183.0
 31
0.0
  0
LINE
  5
FA88
330
F8C0
100
AcDbEntity
  8
1
  6
Continuous
100
AcDbLine
 10
215.5
 20
184.1717319999999
 30
0.0
 11
207.5
 21
184.1717319999999
 31
0.0
  0
LINE
  5
FA89
330
F8C0
100
AcDbEntity
  8
2
  6
Continuous
100
AcDbLine
 10
214.8235
 20
184.1717319999999
 30
0.0
 11
215.5
 21
183.0
 31
0.0
  0
LINE
  5
FA8A
330
F8C0
100
AcDbEntity
  8
2
  6
Continuous
100
AcDbLine
 10
316.1764999999999
 20
184.1717319999999
 30
0.0
 11
315.5
 21
183.0
 31
0.0
  0
LINE
  5
FA8B
330
F8C0
100
AcDbEntity
  8
1
  6
Continuous
100
AcDbLine
 10
323.4999999999998
 20
184.1717319999999
 30
0.0
 11
315.5
 21
184.1717319999999
 31
0.0
  0
LINE
  5
FA8C
330
F8C0
100
AcDbEntity
  8
2
  6
Continuous
100
AcDbLine
 10
322.8235
 20
184.1717319999999
 30
0.0
 11
323.4999999999998
 21
183.0
 31
0.0
  0
LINE
  5
FA8D
330
F8C0
100
AcDbEntity
  8
2
  6
Continuous
100
AcDbLine
 10
424.1765
 20
184.1717319999999
 30
0.0
 11
423.5
 21
183.0
 31
0.0
  0
LINE
  5
FA8E
330
F8C0
100
AcDbEntity
  8
1
  6
Continuous
100
AcDbLine
 10
431.5
 20
184.1717319999999
 30
0.0
 11
423.5
 21
184.1717319999999
 31
0.0
  0
LINE
  5
FA8F
330
F8C0
100
AcDbEntity
  8
2
  6
Continuous
100
AcDbLine
 10
430.8235
 20
184.1717319999999
 30
0.0
 11
431.5
 21
183.0
 31
0.0
  0
ENDSEC
  0
SECTION
  2
OBJECTS
  0
DICTIONARY
  5
F8AE
330
0
100
AcDbDictionary
281
     1
  3
ACAD_CIP_PREVIOUS_PRODUCT_INFO
350
FAF1
  3
ACAD_COLOR
350
FAD3
  3
ACAD_DETAILVIEWSTYLE
350
FAEC
  3
ACAD_GROUP
350
F8AF
  3
ACAD_LAYOUT
350
F8BB
  3
ACAD_MATERIAL
350
FAA1
  3
ACAD_MLEADERSTYLE
350
FAE8
  3
ACAD_MLINESTYLE
350
F8B8
  3
ACAD_PLOTSETTINGS
350
F8BA
  3
ACAD_PLOTSTYLENAME
350
FA9F
  3
ACAD_SCALELIST
350
FAD6
  3
ACAD_SECTIONVIEWSTYLE
350
FAEA
  3
ACAD_TABLESTYLE
350
FAD4
  3
ACAD_VISUALSTYLE
350
FABA
  3
ACDB_RECOMPOSE_DATA
350
FB56
  3
AcDbVariableDictionary
350
FB04
  3
DWGPROPS
350
FB57
  0
DICTIONARY
  5
FAF4
330
F8B2
100
AcDbDictionary
280
     1
281
     1
  3
ADSK_XREC_LAYER_RECONCILED
360
FAF5
  0
DICTIONARY
  5
FAF6
330
F8C8
100
AcDbDictionary
280
     1
281
     1
  3
ADSK_XREC_LAYER_RECONCILED
360
FAF7
  0
DICTIONARY
  5
FAF8
330
F8C9
100
AcDbDictionary
280
     1
281
     1
  3
ADSK_XREC_LAYER_RECONCILED
360
FAF9
  0
DICTIONARY
  5
FAFA
330
F8CA
100
AcDbDictionary
280
     1
281
     1
  3
ADSK_XREC_LAYER_RECONCILED
360
FAFB
  0
DICTIONARY
  5
FAFC
330
F8CB
100
AcDbDictionary
280
     1
281
     1
  3
ADSK_XREC_LAYER_RECONCILED
360
FAFD
  0
DICTIONARY
  5
FAFE
330
F8CC
100
AcDbDictionary
280
     1
281
     1
  3
ADSK_XREC_LAYER_RECONCILED
360
FAFF
  0
DICTIONARY
  5
FB00
330
F8CD
100
AcDbDictionary
280
     1
281
     1
  3
ADSK_XREC_LAYER_RECONCILED
360
FB01
  0
DICTIONARY
  5
FB02
330
F8CE
100
AcDbDictionary
280
     1
281
     1
  3
ADSK_XREC_LAYER_RECONCILED
360
FB03
  0
DICTIONARY
  5
FA9A
330
F8C0
100
AcDbDictionary
281
     1
  3
ACAD_LAYOUTSELFREF
350
FA9B
  0
DICTIONARY
  5
FA98
330
F8BC
100
AcDbDictionary
281
     1
  3
ACAD_LAYOUTSELFREF
350
FA99
  0
XRECORD
  5
FAF1
102
{ACAD_REACTORS
330
F8AE
102
}
330
F8AE
100
AcDbXrecord
280
     1
300
ACDLT
300
2014
300
ACDLT_F_S
  0
DICTIONARY
  5
FAD3
102
{ACAD_REACTORS
330
F8AE
102
}
330
F8AE
100
AcDbDictionary
281
     1
  0
DICTIONARY
  5
FAEC
102
{ACAD_REACTORS
330
F8AE
102
}
330
F8AE
100
AcDbDictionary
281
     1
  3
Imperial24
350
FAED
  0
DICTIONARY
  5
F8AF
102
{ACAD_REACTORS
330
F8AE
102
}
330
F8AE
100
AcDbDictionary
281
     1
  0
DICTIONARY
  5
F8BB
102
{ACAD_REACTORS
330
F8AE
102
}
330
F8AE
100
AcDbDictionary
281
     1
  3
Model
350
FAEE
  3
レイアウト1
350
FAEF
  0
DICTIONARY
  5
FAA1
102
{ACAD_REACTORS
330
F8AE
102
}
330
F8AE
100
AcDbDictionary
281
     1
  3
ByBlock
350
FAAA
  3
ByLayer
350
FAA2
  3
Global
350
FAB2
  0
DICTIONARY
  5
FAE8
102
{ACAD_REACTORS
330
F8AE
102
}
330
F8AE
100
AcDbDictionary
281
     1
  3
Standard
350
FAE9
  0
DICTIONARY
  5
F8B8
102
{ACAD_REACTORS
330
F8AE
102
}
330
F8AE
100
AcDbDictionary
281
     1
  3
STANDARD
350
F8B9
  0
DICTIONARY
  5
F8BA
102
{ACAD_REACTORS
330
F8AE
102
}
330
F8AE
100
AcDbDictionary
281
     1
  0
ACDBDICTIONARYWDFLT
  5
FA9F
102
{ACAD_REACTORS
330
F8AE
102
}
330
F8AE
100
AcDbDictionary
281
     1
  3
Normal
350
FAA0
100
AcDbDictionaryWithDefault
340
FAA0
  0
DICTIONARY
  5
FAD6
102
{ACAD_REACTORS
330
F8AE
102
}
330
F8AE
100
AcDbDictionary
281
     1
  3
A0
350
FAD7
  3
A1
350
FAD8
  3
A2
350
FAD9
  3
A3
350
FADA
  3
A4
350
FADB
  3
A5
350
FADC
  3
A6
350
FADD
  3
A7
350
FADE
  3
A8
350
FADF
  3
A9
350
FAE0
  3
B0
350
FAE1
  3
B1
350
FAE2
  3
B2
350
FAE3
  3
B3
350
FAE4
  3
B4
350
FAE5
  3
B5
350
FAE6
  3
B6
350
FAE7
  0
DICTIONARY
  5
FAEA
102
{ACAD_REACTORS
330
F8AE
102
}
330
F8AE
100
AcDbDictionary
281
     1
  3
Imperial24
350
FAEB
  0
DICTIONARY
  5
FAD4
102
{ACAD_REACTORS
330
F8AE
102
}
330
F8AE
100
AcDbDictionary
281
     1
  3
Standard
350
FAD5
  0
DICTIONARY
  5
FABA
102
{ACAD_REACTORS
330
F8AE
102
}
330
F8AE
100
AcDbDictionary
281
     1
  3
2dWireframe
350
FAC0
  3
Basic
350
FABF
  3
Brighten
350
FAC6
  3
ColorChange
350
FACA
  3
Conceptual
350
FAC3
  3
Dim
350
FAC5
  3
EdgeColorOff
350
FAD2
  3
Facepattern
350
FAC9
  3
Flat
350
FABB
  3
FlatWithEdges
350
FABC
  3
Gouraud
350
FABD
  3
GouraudWithEdges
350
FABE
  3
Hidden
350
FAC2
  3
JitterOff
350
FAD0
  3
Linepattern
350
FAC8
  3
OverhangOff
350
FAD1
  3
Realistic
350
FAC4
  3
Shaded
350
FACF
  3
Shaded with edges
350
FACE
  3
Shades of Gray
350
FACB
  3
Sketchy
350
FACC
  3
Thicken
350
FAC7
  3
Wireframe
350
FAC1
  3
X-Ray
350
FACD
  0
XRECORD
  5
FB56
102
{ACAD_REACTORS
330
F8AE
102
}
330
F8AE
100
AcDbXrecord
280
     1
 90
        1
330
FAD5
  0
DICTIONARY
  5
FB04
102
{ACAD_REACTORS
330
F8AE
102
}
330
F8AE
100
AcDbDictionary
281
     1
  3
CANNOSCALE
350
FB09
  3
CMLEADERSTYLE
350
FB06
  3
CTABLESTYLE
350
FB05
  3
CVIEWDETAILSTYLE
350
FB07
  3
CVIEWSECTIONSTYLE
350
FB08
  3
DIMASSOC
350
FB0C
  3
INDEXCTL
350
FB0B
  3
SORTENTS
350
FB0A
  3
XCLIPFRAME
350
FB54
  0
XRECORD
  5
FB57
102
{ACAD_REACTORS
330
F8AE
102
}
330
F8AE
100
AcDbXrecord
280
     1
  1
DWGPROPS COOKIE
  2

  3

  4

  6

  7

  8
Yoshitsune
  9

300
=
301
=
302
=
303
=
304
=
305
=
306
=
307
=
308
=
309
=
 40
0.0021050231481481
 41
2451301.400364815
 42
2457192.692607164
  1

 90
        0
  0
XRECORD
  5
FAF5
102
{ACAD_REACTORS
330
FAF4
102
}
330
FAF4
100
AcDbXrecord
280
     1
290
     1
  0
XRECORD
  5
FAF7
102
{ACAD_REACTORS
330
FAF6
102
}
330
FAF6
100
AcDbXrecord
280
     1
290
     1
  0
XRECORD
  5
FAF9
102
{ACAD_REACTORS
330
FAF8
102
}
330
FAF8
100
AcDbXrecord
280
     1
290
     1
  0
XRECORD
  5
FAFB
102
{ACAD_REACTORS
330
FAFA
102
}
330
FAFA
100
AcDbXrecord
280
     1
290
     1
  0
XRECORD
  5
FAFD
102
{ACAD_REACTORS
330
FAFC
102
}
330
FAFC
100
AcDbXrecord
280
     1
290
     1
  0
XRECORD
  5
FAFF
102
{ACAD_REACTORS
330
FAFE
102
}
330
FAFE
100
AcDbXrecord
280
     1
290
     1
  0
XRECORD
  5
FB01
102
{ACAD_REACTORS
330
FB00
102
}
330
FB00
100
AcDbXrecord
280
     1
290
     1
  0
XRECORD
  5
FB03
102
{ACAD_REACTORS
330
FB02
102
}
330
FB02
100
AcDbXrecord
280
     1
290
     1
  0
XRECORD
  5
FA9B
102
{ACAD_REACTORS
330
FA9A
102
}
330
FA9A
100
AcDbXrecord
280
     1
340
F8C0
  0
XRECORD
  5
FA99
102
{ACAD_REACTORS
330
FA98
102
}
330
FA98
100
AcDbXrecord
280
     1
340
F8BC
  0
ACDBDETAILVIEWSTYLE
  5
FAED
102
{ACAD_XDICTIONARY
360
FB8B
102
}
102
{ACAD_REACTORS
330
FAEC
102
}
330
FAEC
100
AcDbModelDocViewStyle
 70
     0
  3
Imperial24
290
     0
100
AcDbDetailViewStyle
 70
     0
 71
     0
 90
        3
 71
     1
340
F8B3
 40
0.24
340
0
 40
0.24
300

 40
0.36
280
     3
 71
     2
340
F8B7
 90
       25
 71
     3
340
F8B3
 40
0.24
 90
        1
 40
0.75
 90
        1
300
%<\AcVar ViewType \f "%tc1">% %<\AcVar ViewDetailId>%\PSCALE %<\AcVar ViewScale \f "%sn">%
 71
     4
340
F8B7
 90
       25
340
F8B7
 90
       25
280
     0
  0
LAYOUT
  5
FAEE
102
{ACAD_XDICTIONARY
360
FB8D
102
}
102
{ACAD_REACTORS
330
F8BB
102
}
330
F8BB
100
AcDbPlotSettings
  1

  2
Canon LBP9100C
  4

  6

 40
0.0
 41
0.0
 42
0.0
 43
0.0
 44
0.0
 45
0.0
 46
0.0
 47
0.0
 48
0.0
 49
0.0
140
0.0
141
0.0
142
1.0
143
1.0
 70
  1712
 72
     0
 73
     0
 74
     0
  7

 75
     0
147
1.0
148
0.0
149
0.0
100
AcDbLayout
  1
Model
 70
     1
 71
     0
 10
0.0
 20
0.0
 11
12.0
 21
9.0
 12
0.0
 22
0.0
 32
0.0
 14
0.0
 24
0.0
 34
0.0
 15
0.0
 25
0.0
 35
0.0
146
0.0
 13
0.0
 23
0.0
 33
0.0
 16
1.0
 26
0.0
 36
0.0
 17
0.0
 27
1.0
 37
0.0
 76
     0
330
F8C0
331
FA97
  0
LAYOUT
  5
FAEF
102
{ACAD_XDICTIONARY
360
FB8F
102
}
102
{ACAD_REACTORS
330
F8BB
102
}
330
F8BB
100
AcDbPlotSettings
  1

  2
Canon LBP9100C
  4

  6

 40
0.0
 41
0.0
 42
0.0
 43
0.0
 44
0.0
 45
0.0
 46
0.0
 47
0.0
 48
0.0
 49
0.0
140
0.0
141
0.0
142
1.0
143
1.0
 70
   688
 72
     0
 73
     0
 74
     5
  7

 75
    16
147
1.0
148
0.0
149
0.0
100
AcDbLayout
  1
レイアウト1
 70
     0
 71
     1
 10
0.0
 20
0.0
 11
420.0
 21
297.0
 12
0.0
 22
0.0
 32
0.0
 14
1.000000000000000E+20
 24
1.000000000000000E+20
 34
1.000000000000000E+20
 15
-1.000000000000000E+20
 25
-1.000000000000000E+20
 35
-1.000000000000000E+20
146
0.0
 13
0.0
 23
0.0
 33
0.0
 16
1.0
 26
0.0
 36
0.0
 17
0.0
 27
1.0
 37
0.0
 76
     0
330
F8BC
  0
MATERIAL
  5
FAAA
102
{ACAD_XDICTIONARY
360
FAAB
102
}
102
{ACAD_REACTORS
330
FAA1
102
}
330
FAA1
100
AcDbMaterial
  1
ByBlock
 72
     0
 43
0.0208333333333333
 43
0.0
 43
0.0
 43
0.0
 43
0.0
 43
0.0208333333333333
 43
0.0
 43
0.0
 43
0.0
 43
0.0
 43
1.0
 43
0.0
 43
0.0
 43
0.0
 43
0.0
 43
1.0
 77
     0
 47
0.0208333333333333
 47
0.0
 47
0.0
 47
0.0
 47
0.0
 47
0.0208333333333333
 47
0.0
 47
0.0
 47
0.0
 47
0.0
 47
1.0
 47
0.0
 47
0.0
 47
0.0
 47
0.0
 47
1.0
171
     0
 49
0.0208333333333333
 49
0.0
 49
0.0
 49
0.0
 49
0.0
 49
0.0208333333333333
 49
0.0
 49
0.0
 49
0.0
 49
0.0
 49
1.0
 49
0.0
 49
0.0
 49
0.0
 49
0.0
 49
1.0
175
     0
142
0.0208333333333333
142
0.0
142
0.0
142
0.0
142
0.0
142
0.0208333333333333
142
0.0
142
0.0
142
0.0
142
0.0
142
1.0
142
0.0
142
0.0
142
0.0
142
0.0
142
1.0
179
     0
144
0.0208333333333333
144
0.0
144
0.0
144
0.0
144
0.0
144
0.0208333333333333
144
0.0
144
0.0
144
0.0
144
0.0
144
1.0
144
0.0
144
0.0
144
0.0
144
0.0
144
1.0
147
0.0208333333333333
147
0.0
147
0.0
147
0.0
147
0.0
147
0.0208333333333333
147
0.0
147
0.0
147
0.0
147
0.0
147
1.0
147
0.0
147
0.0
147
0.0
147
0.0
147
1.0
  0
MATERIAL
  5
FAA2
102
{ACAD_XDICTIONARY
360
FAA3
102
}
102
{ACAD_REACTORS
330
FAA1
102
}
330
FAA1
100
AcDbMaterial
  1
ByLayer
 72
     0
 43
0.0208333333333333
 43
0.0
 43
0.0
 43
0.0
 43
0.0
 43
0.0208333333333333
 43
0.0
 43
0.0
 43
0.0
 43
0.0
 43
1.0
 43
0.0
 43
0.0
 43
0.0
 43
0.0
 43
1.0
 77
     0
 47
0.0208333333333333
 47
0.0
 47
0.0
 47
0.0
 47
0.0
 47
0.0208333333333333
 47
0.0
 47
0.0
 47
0.0
 47
0.0
 47
1.0
 47
0.0
 47
0.0
 47
0.0
 47
0.0
 47
1.0
171
     0
 49
0.0208333333333333
 49
0.0
 49
0.0
 49
0.0
 49
0.0
 49
0.0208333333333333
 49
0.0
 49
0.0
 49
0.0
 49
0.0
 49
1.0
 49
0.0
 49
0.0
 49
0.0
 49
0.0
 49
1.0
175
     0
142
0.0208333333333333
142
0.0
142
0.0
142
0.0
142
0.0
142
0.0208333333333333
142
0.0
142
0.0
142
0.0
142
0.0
142
1.0
142
0.0
142
0.0
142
0.0
142
0.0
142
1.0
179
     0
144
0.0208333333333333
144
0.0
144
0.0
144
0.0
144
0.0
144
0.0208333333333333
144
0.0
144
0.0
144
0.0
144
0.0
144
1.0
144
0.0
144
0.0
144
0.0
144
0.0
144
1.0
147
0.0208333333333333
147
0.0
147
0.0
147
0.0
147
0.0
147
0.0208333333333333
147
0.0
147
0.0
147
0.0
147
0.0
147
1.0
147
0.0
147
0.0
147
0.0
147
0.0
147
1.0
  0
MATERIAL
  5
FAB2
102
{ACAD_XDICTIONARY
360
FAB3
102
}
102
{ACAD_REACTORS
330
FAA1
102
}
330
FAA1
100
AcDbMaterial
  1
Global
 72
     0
 43
0.0208333333333333
 43
0.0
 43
0.0
 43
0.0
 43
0.0
 43
0.0208333333333333
 43
0.0
 43
0.0
 43
0.0
 43
0.0
 43
1.0
 43
0.0
 43
0.0
 43
0.0
 43
0.0
 43
1.0
 77
     0
 47
0.0208333333333333
 47
0.0
 47
0.0
 47
0.0
 47
0.0
 47
0.0208333333333333
 47
0.0
 47
0.0
 47
0.0
 47
0.0
 47
1.0
 47
0.0
 47
0.0
 47
0.0
 47
0.0
 47
1.0
171
     0
 49
0.0208333333333333
 49
0.0
 49
0.0
 49
0.0
 49
0.0
 49
0.0208333333333333
 49
0.0
 49
0.0
 49
0.0
 49
0.0
 49
1.0
 49
0.0
 49
0.0
 49
0.0
 49
0.0
 49
1.0
175
     0
142
0.0208333333333333
142
0.0
142
0.0
142
0.0
142
0.0
142
0.0208333333333333
142
0.0
142
0.0
142
0.0
142
0.0
142
1.0
142
0.0
142
0.0
142
0.0
142
0.0
142
1.0
179
     0
144
0.0208333333333333
144
0.0
144
0.0
144
0.0
144
0.0
144
0.0208333333333333
144
0.0
144
0.0
144
0.0
144
0.0
144
1.0
144
0.0
144
0.0
144
0.0
144
0.0
144
1.0
147
0.0208333333333333
147
0.0
147
0.0
147
0.0
147
0.0
147
0.0208333333333333
147
0.0
147
0.0
147
0.0
147
0.0
147
1.0
147
0.0
147
0.0
147
0.0
147
0.0
147
1.0
  0
MLEADERSTYLE
  5
FAE9
102
{ACAD_REACTORS
330
FAE8
102
}
330
FAE8
100
AcDbMLeaderStyle
170
     2
171
     1
172
     0
 90
        2
 40
0.0
 41
0.0
173
     1
 91
-1056964608
340
F8B5
 92
       -2
290
     1
 42
0.09
291
     1
 43
0.36
  3
Standard
 44
0.18
300

342
F8B3
174
     1
178
     6
175
     1
176
     0
 93
-1056964608
 45
0.18
292
     0
297
     0
 46
0.18
 94
-1056964608
 47
1.0
 49
1.0
140
1.0
293
     1
141
0.0
294
     1
177
     0
142
1.0
295
     0
296
     0
143
0.125
1001
ACAD_MLEADERVER
1070
     2
  0
MLINESTYLE
  5
F8B9
102
{ACAD_REACTORS
330
F8B8
102
}
330
F8B8
100
AcDbMlineStyle
  2
STANDARD
 70
     0
  3

 62
   256
 51
90.0
 52
90.0
 71
     2
 49
0.5
 62
   256
  6
BYLAYER
 49
-0.5
 62
   256
  6
BYLAYER
  0
ACDBPLACEHOLDER
  5
FAA0
102
{ACAD_REACTORS
330
FA9F
102
}
330
FA9F
  0
SCALE
  5
FAD7
102
{ACAD_REACTORS
330
FAD6
102
}
330
FAD6
100
AcDbScale
 70
     0
300
1:1
140
1.0
141
1.0
290
     1
  0
SCALE
  5
FAD8
102
{ACAD_REACTORS
330
FAD6
102
}
330
FAD6
100
AcDbScale
 70
     0
300
1/128" = 1'-0"
140
0.0078125
141
12.0
290
     0
  0
SCALE
  5
FAD9
102
{ACAD_REACTORS
330
FAD6
102
}
330
FAD6
100
AcDbScale
 70
     0
300
1/64" = 1'-0"
140
0.015625
141
12.0
290
     0
  0
SCALE
  5
FADA
102
{ACAD_REACTORS
330
FAD6
102
}
330
FAD6
100
AcDbScale
 70
     0
300
1/32" = 1'-0"
140
0.03125
141
12.0
290
     0
  0
SCALE
  5
FADB
102
{ACAD_REACTORS
330
FAD6
102
}
330
FAD6
100
AcDbScale
 70
     0
300
1/16" = 1'-0"
140
0.0625
141
12.0
290
     0
  0
SCALE
  5
FADC
102
{ACAD_REACTORS
330
FAD6
102
}
330
FAD6
100
AcDbScale
 70
     0
300
3/32" = 1'-0"
140
0.09375
141
12.0
290
     0
  0
SCALE
  5
FADD
102
{ACAD_REACTORS
330
FAD6
102
}
330
FAD6
100
AcDbScale
 70
     0
300
1/8" = 1'-0"
140
0.125
141
12.0
290
     0
  0
SCALE
  5
FADE
102
{ACAD_REACTORS
330
FAD6
102
}
330
FAD6
100
AcDbScale
 70
     0
300
3/16" = 1'-0"
140
0.1875
141
12.0
290
     0
  0
SCALE
  5
FADF
102
{ACAD_REACTORS
330
FAD6
102
}
330
FAD6
100
AcDbScale
 70
     0
300
1/4" = 1'-0"
140
0.25
141
12.0
290
     0
  0
SCALE
  5
FAE0
102
{ACAD_REACTORS
330
FAD6
102
}
330
FAD6
100
AcDbScale
 70
     0
300
3/8" = 1'-0"
140
0.375
141
12.0
290
     0
  0
SCALE
  5
FAE1
102
{ACAD_REACTORS
330
FAD6
102
}
330
FAD6
100
AcDbScale
 70
     0
300
1/2" = 1'-0"
140
0.5
141
12.0
290
     0
  0
SCALE
  5
FAE2
102
{ACAD_REACTORS
330
FAD6
102
}
330
FAD6
100
AcDbScale
 70
     0
300
3/4" = 1'-0"
140
0.75
141
12.0
290
     0
  0
SCALE
  5
FAE3
102
{ACAD_REACTORS
330
FAD6
102
}
330
FAD6
100
AcDbScale
 70
     0
300
1" = 1'-0"
140
1.0
141
12.0
290
     0
  0
SCALE
  5
FAE4
102
{ACAD_REACTORS
330
FAD6
102
}
330
FAD6
100
AcDbScale
 70
     0
300
1-1/2" = 1'-0"
140
1.5
141
12.0
290
     0
  0
SCALE
  5
FAE5
102
{ACAD_REACTORS
330
FAD6
102
}
330
FAD6
100
AcDbScale
 70
     0
300
3" = 1'-0"
140
3.0
141
12.0
290
     0
  0
SCALE
  5
FAE6
102
{ACAD_REACTORS
330
FAD6
102
}
330
FAD6
100
AcDbScale
 70
     0
300
6" = 1'-0"
140
6.0
141
12.0
290
     0
  0
SCALE
  5
FAE7
102
{ACAD_REACTORS
330
FAD6
102
}
330
FAD6
100
AcDbScale
 70
     0
300
1'-0" = 1'-0"
140
12.0
141
12.0
290
     0
  0
ACDBSECTIONVIEWSTYLE
  5
FAEB
102
{ACAD_XDICTIONARY
360
FB89
102
}
102
{ACAD_REACTORS
330
FAEA
102
}
330
FAEA
100
AcDbModelDocViewStyle
 70
     0
  3
Imperial24
290
     0
100
AcDbSectionViewStyle
 70
     0
 71
     0
 90
       78
 71
     1
340
F8B3
 40
0.24
340
0
340
0
 40
0.24
300
I, O, Q, S, X, Z
 40
0.48
 90
        3
 40
0.18
 90
        1
 71
     2
340
F8B7
 90
       25
340
F8B7
 90
       50
 40
0.24
 40
0.0
 40
0.24
 71
     3
340
F8B3
 40
0.24
 90
        1
 40
0.75
 90
        1
300
%<\AcVar ViewType \f "%tc1">% %<\AcVar ViewSectionStartId>%-%<\AcVar ViewSectionEndId>%\PSCALE %<\AcVar ViewScale \f "%sn">%
 71
     4
300
ANSI31
 40
1.0
 90
        0
290
     0
290
     0
 90
        6
 40
0.0
 40
1.570796326794896
 40
0.2617993877991494
 40
1.308996938995747
 40
-0.2617993877991494
 40
1.832595714594045
  0
TABLESTYLE
  5
FAD5
102
{ACAD_XDICTIONARY
360
FB0F
102
}
102
{ACAD_REACTORS
330
FAD4
102
}
330
FAD4
100
AcDbTableStyle
  3
Standard
 70
     0
 71
     0
 40
0.06
 41
0.06
280
     0
281
     0
  7
STANDARD
140
0.18
170
     2
 62
     0
 63
     7
283
     0
274
    -2
284
     1
 64
     0
275
    -2
285
     1
 65
     0
276
    -2
286
     1
 66
     0
277
    -2
287
     1
 67
     0
278
    -2
288
     1
 68
     0
279
    -2
289
     1
 69
     0
  7
STANDARD
140
0.25
170
     5
 62
     0
 63
     7
283
     0
274
    -2
284
     1
 64
     0
275
    -2
285
     1
 65
     0
276
    -2
286
     1
 66
     0
277
    -2
287
     1
 67
     0
278
    -2
288
     1
 68
     0
279
    -2
289
     1
 69
     0
  7
STANDARD
140
0.18
170
     5
 62
     0
 63
     7
283
     0
274
    -2
284
     1
 64
     0
275
    -2
285
     1
 65
     0
276
    -2
286
     1
 66
     0
277
    -2
287
     1
 67
     0
278
    -2
288
     1
 68
     0
279
    -2
289
     1
 69
     0
  0
VISUALSTYLE
  5
FAC0
102
{ACAD_XDICTIONARY
360
FB62
102
}
102
{ACAD_REACTORS
330
FABA
102
}
330
FABA
100
AcDbVisualStyle
  2

 70
     4
 71
     0
 72
     2
 73
     0
 90
        0
 40
-0.6
 41
-30.0
 62
     5
 63
     7
 74
     1
 91
        4
 64
     7
 65
   257
 75
     1
175
     1
 42
1.0
 92
        0
 66
   257
 43
1.0
 76
     1
 77
     6
 78
     2
 67
     7
 79
     5
170
     0
171
     0
290
     0
174
     0
 93
        1
 44
0.0
173
     0
291
     0
 45
0.0
1001
ACAD
1000
AcDbSavedByObjectVersion
1070
     0
  0
VISUALSTYLE
  5
FABF
102
{ACAD_XDICTIONARY
360
FB60
102
}
102
{ACAD_REACTORS
330
FABA
102
}
330
FABA
100
AcDbVisualStyle
  2

 70
     7
 71
     1
 72
     0
 73
     1
 90
        0
 40
-0.6
 41
-30.0
 62
     5
 63
     7
 74
     0
 91
        4
 64
     7
 65
   257
 75
     1
175
     1
 42
1.0
 92
        8
 66
     7
 43
1.0
 76
     1
 77
     6
 78
     2
 67
     7
 79
     5
170
     0
171
     0
290
     0
174
     0
 93
        1
 44
0.0
173
     0
291
     1
 45
0.0
1001
ACAD
1000
AcDbSavedByObjectVersion
1070
     0
  0
VISUALSTYLE
  5
FAC6
102
{ACAD_XDICTIONARY
360
FB6E
102
}
102
{ACAD_REACTORS
330
FABA
102
}
330
FABA
100
AcDbVisualStyle
  2

 70
    12
 71
     2
 72
     2
 73
     0
 90
        0
 40
-0.6
 41
-30.0
 62
     5
 63
     7
 74
     1
 91
        4
 64
     7
 65
   257
 75
     1
175
     1
 42
1.0
 92
        8
 66
     7
 43
1.0
 76
     1
 77
     6
 78
     2
 67
     7
 79
     5
170
     0
171
     0
290
     0
174
     0
 93
        1
 44
50.0
173
     0
291
     1
 45
0.0
1001
ACAD
1000
AcDbSavedByObjectVersion
1070
     0
  0
VISUALSTYLE
  5
FACA
102
{ACAD_XDICTIONARY
360
FB76
102
}
102
{ACAD_REACTORS
330
FABA
102
}
330
FABA
100
AcDbVisualStyle
  2

 70
    16
 71
     2
 72
     2
 73
     3
 90
        0
 40
-0.6
 41
-30.0
 62
     5
 63
     8
 74
     1
 91
        4
 64
     7
 65
   257
 75
     1
175
     1
 42
1.0
 92
        8
 66
     8
 43
1.0
 76
     1
 77
     6
 78
     2
 67
     7
 79
     5
170
     0
171
     0
290
     0
174
     0
 93
        1
 44
0.0
173
     0
291
     1
 45
0.0
1001
ACAD
1000
AcDbSavedByObjectVersion
1070
     0
  0
VISUALSTYLE
  5
FAC3
102
{ACAD_XDICTIONARY
360
FB68
102
}
102
{ACAD_REACTORS
330
FABA
102
}
330
FABA
100
AcDbVisualStyle
  2

 70
     9
 71
     3
 72
     2
 73
     0
 90
        0
 40
-0.6
 41
-30.0
 62
     5
 63
     7
 74
     2
 91
        2
 64
     7
 65
   257
 75
     1
175
     1
 42
179.0
 92
        8
 66
     7
 43
1.0
 76
     1
 77
     6
 78
     2
 67
     7
 79
     3
170
     0
171
     0
290
     0
174
     0
 93
        1
 44
0.0
173
     0
291
     0
 45
0.0
1001
ACAD
1000
AcDbSavedByObjectVersion
1070
     0
  0
VISUALSTYLE
  5
FAC5
102
{ACAD_XDICTIONARY
360
FB6C
102
}
102
{ACAD_REACTORS
330
FABA
102
}
330
FABA
100
AcDbVisualStyle
  2

 70
    11
 71
     2
 72
     2
 73
     0
 90
        0
 40
-0.6
 41
-30.0
 62
     5
 63
     7
 74
     1
 91
        4
 64
     7
 65
   257
 75
     1
175
     1
 42
1.0
 92
        8
 66
     7
 43
1.0
 76
     1
 77
     6
 78
     2
 67
     7
 79
     5
170
     0
171
     0
290
     0
174
     0
 93
        1
 44
-50.0
173
     0
291
     1
 45
0.0
1001
ACAD
1000
AcDbSavedByObjectVersion
1070
     0
  0
VISUALSTYLE
  5
FAD2
102
{ACAD_XDICTIONARY
360
FB86
102
}
102
{ACAD_REACTORS
330
FABA
102
}
330
FABA
100
AcDbVisualStyle
  2

 70
    22
 71
     2
 72
     2
 73
     0
 90
        0
 40
-0.6
 41
-30.0
 62
     5
 63
     7
 74
     1
 91
        4
 64
     7
 65
   257
 75
     1
175
     1
 42
1.0
 92
        8
 66
     7
 43
1.0
 76
     1
 77
     6
 78
     2
 67
     7
 79
     5
170
     0
171
     0
290
     0
174
     0
 93
        1
 44
0.0
173
     0
291
     1
 45
0.0
1001
ACAD
1000
AcDbSavedByObjectVersion
1070
     0
  0
VISUALSTYLE
  5
FAC9
102
{ACAD_XDICTIONARY
360
FB74
102
}
102
{ACAD_REACTORS
330
FABA
102
}
330
FABA
100
AcDbVisualStyle
  2

 70
    15
 71
     2
 72
     2
 73
     0
 90
        0
 40
-0.6
 41
-30.0
 62
     5
 63
     7
 74
     1
 91
        4
 64
     7
 65
   257
 75
     1
175
     1
 42
1.0
 92
        8
 66
     7
 43
1.0
 76
     1
 77
     6
 78
     2
 67
     7
 79
     5
170
     0
171
     0
290
     0
174
     0
 93
        1
 44
0.0
173
     0
291
     1
 45
0.0
1001
ACAD
1000
AcDbSavedByObjectVersion
1070
     0
  0
VISUALSTYLE
  5
FABB
102
{ACAD_XDICTIONARY
360
FB58
102
}
102
{ACAD_REACTORS
330
FABA
102
}
330
FABA
100
AcDbVisualStyle
  2

 70
     0
 71
     2
 72
     1
 73
     1
 90
        2
 40
-0.6
 41
30.0
 62
     5
 63
     7
 74
     0
 91
        0
 64
     7
 65
   257
 75
     1
175
     1
 42
1.0
 92
        8
 66
     7
 43
1.0
 76
     1
 77
     6
 78
     2
 67
     7
 79
     5
170
     0
171
     0
290
     0
174
     0
 93
       13
 44
0.0
173
     0
291
     1
 45
0.0
1001
ACAD
1000
AcDbSavedByObjectVersion
1070
     0
  0
VISUALSTYLE
  5
FABC
102
{ACAD_XDICTIONARY
360
FB5A
102
}
102
{ACAD_REACTORS
330
FABA
102
}
330
FABA
100
AcDbVisualStyle
  2

 70
     1
 71
     2
 72
     1
 73
     1
 90
        2
 40
-0.6
 41
30.0
 62
     5
 63
     7
 74
     1
 91
        0
 64
     7
 65
   257
 75
     1
175
     1
 42
1.0
 92
        0
 66
   257
 43
1.0
 76
     1
 77
     6
 78
     2
 67
     7
 79
     5
170
     0
171
     0
290
     0
174
     0
 93
       13
 44
0.0
173
     0
291
     1
 45
0.0
1001
ACAD
1000
AcDbSavedByObjectVersion
1070
     0
  0
VISUALSTYLE
  5
FABD
102
{ACAD_XDICTIONARY
360
FB5C
102
}
102
{ACAD_REACTORS
330
FABA
102
}
330
FABA
100
AcDbVisualStyle
  2

 70
     2
 71
     2
 72
     2
 73
     1
 90
        2
 40
-0.6
 41
30.0
 62
     5
 63
     7
 74
     0
 91
        0
 64
     7
 65
   257
 75
     1
175
     1
 42
1.0
 92
        0
 66
     7
 43
1.0
 76
     1
 77
     6
 78
     2
 67
     7
 79
     5
170
     0
171
     0
290
     0
174
     0
 93
       13
 44
0.0
173
     0
291
     1
 45
0.0
1001
ACAD
1000
AcDbSavedByObjectVersion
1070
     0
  0
VISUALSTYLE
  5
FABE
102
{ACAD_XDICTIONARY
360
FB5E
102
}
102
{ACAD_REACTORS
330
FABA
102
}
330
FABA
100
AcDbVisualStyle
  2

 70
     3
 71
     2
 72
     2
 73
     1
 90
        2
 40
-0.6
 41
30.0
 62
     5
 63
     7
 74
     1
 91
        0
 64
     7
 65
   257
 75
     1
175
     1
 42
1.0
 92
        0
 66
   257
 43
1.0
 76
     1
 77
     6
 78
     2
 67
     7
 79
     5
170
     0
171
     0
290
     0
174
     0
 93
       13
 44
0.0
173
     0
291
     1
 45
0.0
1001
ACAD
1000
AcDbSavedByObjectVersion
1070
     0
  0
VISUALSTYLE
  5
FAC2
102
{ACAD_XDICTIONARY
360
FB66
102
}
102
{ACAD_REACTORS
330
FABA
102
}
330
FABA
100
AcDbVisualStyle
  2

 70
     6
 71
     1
 72
     2
 73
     2
 90
        0
 40
-0.6
 41
-30.0
 62
     5
 63
     7
 74
     2
 91
        2
 64
     7
 65
   257
 75
     2
175
     1
 42
40.0
 92
        0
 66
   257
 43
1.0
 76
     1
 77
     6
 78
     2
 67
     7
 79
     3
170
     0
171
     0
290
     0
174
     0
 93
        1
 44
0.0
173
     0
291
     0
 45
0.0
1001
ACAD
1000
AcDbSavedByObjectVersion
1070
     0
  0
VISUALSTYLE
  5
FAD0
102
{ACAD_XDICTIONARY
360
FB82
102
}
102
{ACAD_REACTORS
330
FABA
102
}
330
FABA
100
AcDbVisualStyle
  2

 70
    20
 71
     2
 72
     2
 73
     0
 90
        0
 40
-0.6
 41
-30.0
 62
     5
 63
     7
 74
     1
 91
        4
 64
     7
 65
   257
 75
     1
175
     1
 42
1.0
 92
       10
 66
     7
 43
1.0
 76
     1
 77
     6
 78
     2
 67
     7
 79
     5
170
     0
171
     0
290
     0
174
     0
 93
        1
 44
0.0
173
     0
291
     1
 45
0.0
1001
ACAD
1000
AcDbSavedByObjectVersion
1070
     0
  0
VISUALSTYLE
  5
FAC8
102
{ACAD_XDICTIONARY
360
FB72
102
}
102
{ACAD_REACTORS
330
FABA
102
}
330
FABA
100
AcDbVisualStyle
  2

 70
    14
 71
     2
 72
     2
 73
     0
 90
        0
 40
-0.6
 41
-30.0
 62
     5
 63
     7
 74
     1
 91
        4
 64
     7
 65
   257
 75
     7
175
     7
 42
1.0
 92
        8
 66
     7
 43
1.0
 76
     1
 77
     6
 78
     2
 67
     7
 79
     5
170
     0
171
     0
290
     0
174
     0
 93
        1
 44
0.0
173
     0
291
     1
 45
0.0
1001
ACAD
1000
AcDbSavedByObjectVersion
1070
     0
  0
VISUALSTYLE
  5
FAD1
102
{ACAD_XDICTIONARY
360
FB84
102
}
102
{ACAD_REACTORS
330
FABA
102
}
330
FABA
100
AcDbVisualStyle
  2

 70
    21
 71
     2
 72
     2
 73
     0
 90
        0
 40
-0.6
 41
-30.0
 62
     5
 63
     7
 74
     1
 91
        4
 64
     7
 65
   257
 75
     1
175
     1
 42
1.0
 92
        9
 66
     7
 43
1.0
 76
     1
 77
     6
 78
     2
 67
     7
 79
     5
170
     0
171
     0
290
     0
174
     0
 93
        1
 44
0.0
173
     0
291
     1
 45
0.0
1001
ACAD
1000
AcDbSavedByObjectVersion
1070
     0
  0
VISUALSTYLE
  5
FAC4
102
{ACAD_XDICTIONARY
360
FB6A
102
}
102
{ACAD_REACTORS
330
FABA
102
}
330
FABA
100
AcDbVisualStyle
  2

 70
     8
 71
     2
 72
     3
 73
     0
 90
        2
 40
-0.6
 41
30.0
 62
     5
 63
     7
 74
     0
 91
        0
 64
     7
 65
   257
 75
     1
175
     1
 42
1.0
 92
        8
 66
   257
 43
1.0
 76
     1
 77
     6
 78
     2
 67
     7
 79
     3
170
     0
171
     0
290
     0
174
     0
 93
       13
 44
0.0
173
     0
291
     0
 45
0.0
1001
ACAD
1000
AcDbSavedByObjectVersion
1070
     0
  0
VISUALSTYLE
  5
FACF
102
{ACAD_XDICTIONARY
360
FB80
102
}
102
{ACAD_REACTORS
330
FABA
102
}
330
FABA
100
AcDbVisualStyle
  2

 70
    27
 71
     2
 72
     2
 73
     1
 90
        2
 40
-0.6
 41
30.0
 62
     5
 63
     7
 74
     0
 91
        4
 64
     7
 65
   257
 75
     1
175
     1
 42
1.0
 92
        8
 66
   257
 43
1.0
 76
     1
 77
     6
 78
     2
 67
     8
 79
     3
170
     0
171
     0
290
     0
174
     0
 93
        5
 44
0.0
173
     0
291
     0
 45
0.0
1001
ACAD
1000
AcDbSavedByObjectVersion
1070
     0
  0
VISUALSTYLE
  5
FACE
102
{ACAD_XDICTIONARY
360
FB7E
102
}
102
{ACAD_REACTORS
330
FABA
102
}
330
FABA
100
AcDbVisualStyle
  2

 70
    26
 71
     2
 72
     2
 73
     1
 90
        2
 40
-0.6
 41
30.0
 62
     5
 63
     7
 74
     1
 91
       10
 64
     7
 65
   257
 75
     2
175
     1
 42
1.0
 92
        8
 66
   257
 43
1.0
 76
     1
 77
     6
 78
     2
 67
     7
 79
     3
170
     0
171
     0
290
     0
174
     0
 93
        5
 44
0.0
173
     0
291
     0
 45
0.0
1001
ACAD
1000
AcDbSavedByObjectVersion
1070
     0
  0
VISUALSTYLE
  5
FACB
102
{ACAD_XDICTIONARY
360
FB78
102
}
102
{ACAD_REACTORS
330
FABA
102
}
330
FABA
100
AcDbVisualStyle
  2

 70
    23
 71
     2
 72
     2
 73
     3
 90
        0
 40
-0.6
 41
-30.0
 62
     5
 63
     7
 74
     2
 91
        2
 64
     7
 65
     7
 75
     1
175
     1
 42
40.0
 92
        8
 66
     7
 43
1.0
 76
     1
 77
     6
 78
     2
 67
     7
 79
     3
170
     0
171
     0
290
     0
174
     0
 93
        1
 44
0.0
173
     0
291
     0
 45
0.0
1001
ACAD
1000
AcDbSavedByObjectVersion
1070
     0
  0
VISUALSTYLE
  5
FACC
102
{ACAD_XDICTIONARY
360
FB7A
102
}
102
{ACAD_REACTORS
330
FABA
102
}
330
FABA
100
AcDbVisualStyle
  2

 70
    24
 71
     1
 72
     2
 73
     2
 90
        0
 40
-0.6
 41
-30.0
 62
     5
 63
     7
 74
     2
 91
        2
 64
     7
 65
     7
 75
     1
175
     1
 42
40.0
 92
       11
 66
     7
 43
1.0
 76
     1
 77
     6
 78
     2
 67
     7
 79
     6
170
     0
171
     0
290
     0
174
     0
 93
        1
 44
0.0
173
     0
291
     0
 45
0.0
1001
ACAD
1000
AcDbSavedByObjectVersion
1070
     0
  0
VISUALSTYLE
  5
FAC7
102
{ACAD_XDICTIONARY
360
FB70
102
}
102
{ACAD_REACTORS
330
FABA
102
}
330
FABA
100
AcDbVisualStyle
  2

 70
    13
 71
     2
 72
     2
 73
     0
 90
        0
 40
-0.6
 41
-30.0
 62
     5
 63
     7
 74
     1
 91
        4
 64
     7
 65
   257
 75
     1
175
     1
 42
1.0
 92
       12
 66
     7
 43
1.0
 76
     1
 77
     6
 78
     2
 67
     7
 79
     5
170
     0
171
     0
290
     0
174
     0
 93
        1
 44
0.0
173
     0
291
     1
 45
0.0
1001
ACAD
1000
AcDbSavedByObjectVersion
1070
     0
  0
VISUALSTYLE
  5
FAC1
102
{ACAD_XDICTIONARY
360
FB64
102
}
102
{ACAD_REACTORS
330
FABA
102
}
330
FABA
100
AcDbVisualStyle
  2

 70
     5
 71
     0
 72
     2
 73
     0
 90
        0
 40
-0.6
 41
-30.0
 62
     5
 63
     7
 74
     1
 91
        4
 64
     7
 65
   257
 75
     1
175
     1
 42
1.0
 92
        0
 66
   257
 43
1.0
 76
     1
 77
     6
 78
     2
 67
     7
 79
     3
170
     0
171
     0
290
     0
174
     0
 93
        1
 44
0.0
173
     0
291
     0
 45
0.0
1001
ACAD
1000
AcDbSavedByObjectVersion
1070
     0
  0
VISUALSTYLE
  5
FACD
102
{ACAD_XDICTIONARY
360
FB7C
102
}
102
{ACAD_REACTORS
330
FABA
102
}
330
FABA
100
AcDbVisualStyle
  2

 70
    25
 71
     2
 72
     2
 73
     1
 90
        1
 40
0.5
 41
-30.0
 62
     5
 63
     7
 74
     1
 91
        0
 64
     7
 65
   257
 75
     1
175
     1
 42
1.0
 92
        8
 66
     7
 43
1.0
 76
     1
 77
     6
 78
     2
 67
     7
 79
     3
170
     0
171
     0
290
     0
174
     0
 93
       13
 44
0.0
173
     0
291
     0
 45
0.0
1001
ACAD
1000
AcDbSavedByObjectVersion
1070
     0
  0
DICTIONARYVAR
  5
FB09
102
{ACAD_REACTORS
330
FB04
102
}
330
FB04
100
DictionaryVariables
280
     0
  1
1:1
  0
DICTIONARYVAR
  5
FB06
102
{ACAD_REACTORS
330
FB04
102
}
330
FB04
100
DictionaryVariables
280
     0
  1
STANDARD
  0
DICTIONARYVAR
  5
FB05
102
{ACAD_REACTORS
330
FB04
102
}
330
FB04
100
DictionaryVariables
280
     0
  1
STANDARD
  0
DICTIONARYVAR
  5
FB07
102
{ACAD_REACTORS
330
FB04
102
}
330
FB04
100
DictionaryVariables
280
     0
  1
Imperial24
  0
DICTIONARYVAR
  5
FB08
102
{ACAD_REACTORS
330
FB04
102
}
330
FB04
100
DictionaryVariables
280
     0
  1
Imperial24
  0
DICTIONARYVAR
  5
FB0C
102
{ACAD_REACTORS
330
FB04
102
}
330
FB04
100
DictionaryVariables
280
     0
  1
1
  0
DICTIONARYVAR
  5
FB0B
102
{ACAD_REACTORS
330
FB04
102
}
330
FB04
100
DictionaryVariables
280
     0
  1
0
  0
DICTIONARYVAR
  5
FB0A
102
{ACAD_REACTORS
330
FB04
102
}
330
FB04
100
DictionaryVariables
280
     0
  1
127
  0
DICTIONARYVAR
  5
FB54
102
{ACAD_REACTORS
330
FB04
102
}
330
FB04
100
DictionaryVariables
280
     0
  1
2
  0
DICTIONARY
  5
FB8B
330
FAED
100
AcDbDictionary
280
     1
281
     1
  3
ACAD_XREC_ROUNDTRIP
360
FB8C
  0
DICTIONARY
  5
FB8D
330
FAEE
100
AcDbDictionary
280
     1
281
     1
  3
ACAD_XREC_ROUNDTRIP
360
FB8E
  0
DICTIONARY
  5
FB8F
330
FAEF
100
AcDbDictionary
280
     1
281
     1
  3
ACAD_XREC_ROUNDTRIP
360
FB90
  0
DICTIONARY
  5
FAAB
330
FAAA
100
AcDbDictionary
280
     1
281
     1
  3
ACAD_XREC_ROUNDTRIP
360
FB14
  3
BUMPTILE
360
FAAD
  3
DIFFUSETILE
360
FAAC
  3
OPACITYTILE
360
FAB0
  3
REFLECTIONTILE
360
FAAF
  3
REFRACTIONTILE
360
FAB1
  3
SPECULARTILE
360
FAAE
  0
DICTIONARY
  5
FAA3
330
FAA2
100
AcDbDictionary
280
     1
281
     1
  3
ACAD_XREC_ROUNDTRIP
360
FB13
  3
BUMPTILE
360
FAA5
  3
DIFFUSETILE
360
FAA4
  3
OPACITYTILE
360
FAA8
  3
REFLECTIONTILE
360
FAA7
  3
REFRACTIONTILE
360
FAA9
  3
SPECULARTILE
360
FAA6
  0
DICTIONARY
  5
FAB3
330
FAB2
100
AcDbDictionary
280
     1
281
     1
  3
ACAD_XREC_ROUNDTRIP
360
FB15
  3
BUMPTILE
360
FAB5
  3
DIFFUSETILE
360
FAB4
  3
OPACITYTILE
360
FAB8
  3
REFLECTIONTILE
360
FAB7
  3
REFRACTIONTILE
360
FAB9
  3
SPECULARTILE
360
FAB6
  0
DICTIONARY
  5
FB89
330
FAEB
100
AcDbDictionary
280
     1
281
     1
  3
ACAD_XREC_ROUNDTRIP
360
FB8A
  0
DICTIONARY
  5
FB0F
330
FAD5
100
AcDbDictionary
280
     1
281
     1
  3
ACAD_ROUNDTRIP_2008_TABLESTYLE_CELLSTYLEMAP
360
FB55
  3
ACAD_XREC_ROUNDTRIP
360
FB88
  0
DICTIONARY
  5
FB62
330
FAC0
100
AcDbDictionary
280
     1
281
     1
  3
ACAD_XREC_ROUNDTRIP
360
FB63
  0
DICTIONARY
  5
FB60
330
FABF
100
AcDbDictionary
280
     1
281
     1
  3
ACAD_XREC_ROUNDTRIP
360
FB61
  0
DICTIONARY
  5
FB6E
330
FAC6
100
AcDbDictionary
280
     1
281
     1
  3
ACAD_XREC_ROUNDTRIP
360
FB6F
  0
DICTIONARY
  5
FB76
330
FACA
100
AcDbDictionary
280
     1
281
     1
  3
ACAD_XREC_ROUNDTRIP
360
FB77
  0
DICTIONARY
  5
FB68
330
FAC3
100
AcDbDictionary
280
     1
281
     1
  3
ACAD_XREC_ROUNDTRIP
360
FB69
  0
DICTIONARY
  5
FB6C
330
FAC5
100
AcDbDictionary
280
     1
281
     1
  3
ACAD_XREC_ROUNDTRIP
360
FB6D
  0
DICTIONARY
  5
FB86
330
FAD2
100
AcDbDictionary
280
     1
281
     1
  3
ACAD_XREC_ROUNDTRIP
360
FB87
  0
DICTIONARY
  5
FB74
330
FAC9
100
AcDbDictionary
280
     1
281
     1
  3
ACAD_XREC_ROUNDTRIP
360
FB75
  0
DICTIONARY
  5
FB58
330
FABB
100
AcDbDictionary
280
     1
281
     1
  3
ACAD_XREC_ROUNDTRIP
360
FB59
  0
DICTIONARY
  5
FB5A
330
FABC
100
AcDbDictionary
280
     1
281
     1
  3
ACAD_XREC_ROUNDTRIP
360
FB5B
  0
DICTIONARY
  5
FB5C
330
FABD
100
AcDbDictionary
280
     1
281
     1
  3
ACAD_XREC_ROUNDTRIP
360
FB5D
  0
DICTIONARY
  5
FB5E
330
FABE
100
AcDbDictionary
280
     1
281
     1
  3
ACAD_XREC_ROUNDTRIP
360
FB5F
  0
DICTIONARY
  5
FB66
330
FAC2
100
AcDbDictionary
280
     1
281
     1
  3
ACAD_XREC_ROUNDTRIP
360
FB67
  0
DICTIONARY
  5
FB82
330
FAD0
100
AcDbDictionary
280
     1
281
     1
  3
ACAD_XREC_ROUNDTRIP
360
FB83
  0
DICTIONARY
  5
FB72
330
FAC8
100
AcDbDictionary
280
     1
281
     1
  3
ACAD_XREC_ROUNDTRIP
360
FB73
  0
DICTIONARY
  5
FB84
330
FAD1
100
AcDbDictionary
280
     1
281
     1
  3
ACAD_XREC_ROUNDTRIP
360
FB85
  0
DICTIONARY
  5
FB6A
330
FAC4
100
AcDbDictionary
280
     1
281
     1
  3
ACAD_XREC_ROUNDTRIP
360
FB6B
  0
DICTIONARY
  5
FB80
330
FACF
100
AcDbDictionary
280
     1
281
     1
  3
ACAD_XREC_ROUNDTRIP
360
FB81
  0
DICTIONARY
  5
FB7E
330
FACE
100
AcDbDictionary
280
     1
281
     1
  3
ACAD_XREC_ROUNDTRIP
360
FB7F
  0
DICTIONARY
  5
FB78
330
FACB
100
AcDbDictionary
280
     1
281
     1
  3
ACAD_XREC_ROUNDTRIP
360
FB79
  0
DICTIONARY
  5
FB7A
330
FACC
100
AcDbDictionary
280
     1
281
     1
  3
ACAD_XREC_ROUNDTRIP
360
FB7B
  0
DICTIONARY
  5
FB70
330
FAC7
100
AcDbDictionary
280
     1
281
     1
  3
ACAD_XREC_ROUNDTRIP
360
FB71
  0
DICTIONARY
  5
FB64
330
FAC1
100
AcDbDictionary
280
     1
281
     1
  3
ACAD_XREC_ROUNDTRIP
360
FB65
  0
DICTIONARY
  5
FB7C
330
FACD
100
AcDbDictionary
280
     1
281
     1
  3
ACAD_XREC_ROUNDTRIP
360
FB7D
  0
XRECORD
  5
FB8C
102
{ACAD_REACTORS
330
FB8B
102
}
330
FB8B
100
AcDbXrecord
280
     1
102
DISPLAYNAME
  1
Imperial24
102
FLAGS
 90
        0
  0
XRECORD
  5
FB8E
102
{ACAD_REACTORS
330
FB8D
102
}
330
FB8D
100
AcDbXrecord
280
     1
102
SHADEPLOT
 70
     0
102
SHADEPLOTRESLEVEL
 70
     2
102
SHADEPLOTCUSTOMDPI
 70
   300
  0
XRECORD
  5
FB90
102
{ACAD_REACTORS
330
FB8F
102
}
330
FB8F
100
AcDbXrecord
280
     1
102
SHADEPLOT
 70
     0
102
SHADEPLOTRESLEVEL
 70
     2
102
SHADEPLOTCUSTOMDPI
 70
   300
  0
XRECORD
  5
FB14
102
{ACAD_REACTORS
330
FAAB
102
}
330
FAAB
100
AcDbXrecord
280
     1
102
MATERIAL
148
0.0
149
0.0
149
0.0
 93
        0
 94
      127
282
     0
 72
     0
 77
     0
171
     0
175
     0
179
     0
273
     0
  0
XRECORD
  5
FAAD
102
{ACAD_REACTORS
330
FAAB
102
}
330
FAAB
100
AcDbXrecord
280
     1
270
     1
271
     1
  0
XRECORD
  5
FAAC
102
{ACAD_REACTORS
330
FAAB
102
}
330
FAAB
100
AcDbXrecord
280
     1
270
     1
271
     1
  0
XRECORD
  5
FAB0
102
{ACAD_REACTORS
330
FAAB
102
}
330
FAAB
100
AcDbXrecord
280
     1
270
     1
271
     1
  0
XRECORD
  5
FAAF
102
{ACAD_REACTORS
330
FAAB
102
}
330
FAAB
100
AcDbXrecord
280
     1
270
     1
271
     1
  0
XRECORD
  5
FAB1
102
{ACAD_REACTORS
330
FAAB
102
}
330
FAAB
100
AcDbXrecord
280
     1
270
     1
271
     1
  0
XRECORD
  5
FAAE
102
{ACAD_REACTORS
330
FAAB
102
}
330
FAAB
100
AcDbXrecord
280
     1
270
     1
271
     1
  0
XRECORD
  5
FB13
102
{ACAD_REACTORS
330
FAA3
102
}
330
FAA3
100
AcDbXrecord
280
     1
102
MATERIAL
148
0.0
149
0.0
149
0.0
 93
        0
 94
      127
282
     0
 72
     0
 77
     0
171
     0
175
     0
179
     0
273
     0
  0
XRECORD
  5
FAA5
102
{ACAD_REACTORS
330
FAA3
102
}
330
FAA3
100
AcDbXrecord
280
     1
270
     1
271
     1
  0
XRECORD
  5
FAA4
102
{ACAD_REACTORS
330
FAA3
102
}
330
FAA3
100
AcDbXrecord
280
     1
270
     1
271
     1
  0
XRECORD
  5
FAA8
102
{ACAD_REACTORS
330
FAA3
102
}
330
FAA3
100
AcDbXrecord
280
     1
270
     1
271
     1
  0
XRECORD
  5
FAA7
102
{ACAD_REACTORS
330
FAA3
102
}
330
FAA3
100
AcDbXrecord
280
     1
270
     1
271
     1
  0
XRECORD
  5
FAA9
102
{ACAD_REACTORS
330
FAA3
102
}
330
FAA3
100
AcDbXrecord
280
     1
270
     1
271
     1
  0
XRECORD
  5
FAA6
102
{ACAD_REACTORS
330
FAA3
102
}
330
FAA3
100
AcDbXrecord
280
     1
270
     1
271
     1
  0
XRECORD
  5
FB15
102
{ACAD_REACTORS
330
FAB3
102
}
330
FAB3
100
AcDbXrecord
280
     1
102
MATERIAL
148
0.0
149
0.0
149
0.0
 93
        0
 94
      127
282
     0
 72
     0
 77
     0
171
     0
175
     0
179
     0
273
     0
  0
XRECORD
  5
FAB5
102
{ACAD_REACTORS
330
FAB3
102
}
330
FAB3
100
AcDbXrecord
280
     1
270
     1
271
     1
  0
XRECORD
  5
FAB4
102
{ACAD_REACTORS
330
FAB3
102
}
330
FAB3
100
AcDbXrecord
280
     1
270
     1
271
     1
  0
XRECORD
  5
FAB8
102
{ACAD_REACTORS
330
FAB3
102
}
330
FAB3
100
AcDbXrecord
280
     1
270
     1
271
     1
  0
XRECORD
  5
FAB7
102
{ACAD_REACTORS
330
FAB3
102
}
330
FAB3
100
AcDbXrecord
280
     1
270
     1
271
     1
  0
XRECORD
  5
FAB9
102
{ACAD_REACTORS
330
FAB3
102
}
330
FAB3
100
AcDbXrecord
280
     1
270
     1
271
     1
  0
XRECORD
  5
FAB6
102
{ACAD_REACTORS
330
FAB3
102
}
330
FAB3
100
AcDbXrecord
280
     1
270
     1
271
     1
  0
XRECORD
  5
FB8A
102
{ACAD_REACTORS
330
FB89
102
}
330
FB89
100
AcDbXrecord
280
     1
102
DISPLAYNAME
  1
Imperial24
102
FLAGS
 90
        0
  0
CELLSTYLEMAP
  5
FB55
102
{ACAD_REACTORS
330
FB0F
102
}
330
FB0F
100
AcDbCellStyleMap
 90
        3
300
CELLSTYLE
  1
TABLEFORMAT_BEGIN
 90
        5
170
     1
 91
        0
 92
    32768
 62
   257
 93
        1
300
CONTENTFORMAT
  1
CONTENTFORMAT_BEGIN
 90
        0
 91
        0
 92
      512
 93
        0
300

 40
0.0
140
1.0
 94
        5
 62
     0
340
F8B3
144
0.25
309
CONTENTFORMAT_END
171
     1
301
MARGIN
  1
CELLMARGIN_BEGIN
 40
0.06
 40
0.06
 40
0.06
 40
0.06
 40
0.18
 40
0.18
309
CELLMARGIN_END
 94
        6
 95
        1
302
GRIDFORMAT
  1
GRIDFORMAT_BEGIN
 90
        0
 91
        1
 62
     0
 92
       -2
340
0
 93
        0
 40
0.045
309
GRIDFORMAT_END
 95
        2
302
GRIDFORMAT
  1
GRIDFORMAT_BEGIN
 90
        0
 91
        1
 62
     0
 92
       -2
340
0
 93
        0
 40
0.045
309
GRIDFORMAT_END
 95
        4
302
GRIDFORMAT
  1
GRIDFORMAT_BEGIN
 90
        0
 91
        1
 62
     0
 92
       -2
340
0
 93
        0
 40
0.045
309
GRIDFORMAT_END
 95
        8
302
GRIDFORMAT
  1
GRIDFORMAT_BEGIN
 90
        0
 91
        1
 62
     0
 92
       -2
340
0
 93
        0
 40
0.045
309
GRIDFORMAT_END
 95
       16
302
GRIDFORMAT
  1
GRIDFORMAT_BEGIN
 90
        0
 91
        1
 62
     0
 92
       -2
340
0
 93
        0
 40
0.045
309
GRIDFORMAT_END
 95
       32
302
GRIDFORMAT
  1
GRIDFORMAT_BEGIN
 90
        0
 91
        1
 62
     0
 92
       -2
340
0
 93
        0
 40
0.045
309
GRIDFORMAT_END
309
TABLEFORMAT_END
  1
CELLSTYLE_BEGIN
 90
        1
 91
        1
300
_TITLE
309
CELLSTYLE_END
300
CELLSTYLE
  1
TABLEFORMAT_BEGIN
 90
        5
170
     1
 91
        0
 92
        0
 62
   257
 93
        1
300
CONTENTFORMAT
  1
CONTENTFORMAT_BEGIN
 90
        0
 91
        0
 92
      512
 93
        0
300

 40
0.0
140
1.0
 94
        5
 62
     0
340
F8B3
144
0.18
309
CONTENTFORMAT_END
171
     1
301
MARGIN
  1
CELLMARGIN_BEGIN
 40
0.06
 40
0.06
 40
0.06
 40
0.06
 40
0.18
 40
0.18
309
CELLMARGIN_END
 94
        6
 95
        1
302
GRIDFORMAT
  1
GRIDFORMAT_BEGIN
 90
        0
 91
        1
 62
     0
 92
       -2
340
0
 93
        0
 40
0.045
309
GRIDFORMAT_END
 95
        2
302
GRIDFORMAT
  1
GRIDFORMAT_BEGIN
 90
        0
 91
        1
 62
     0
 92
       -2
340
0
 93
        0
 40
0.045
309
GRIDFORMAT_END
 95
        4
302
GRIDFORMAT
  1
GRIDFORMAT_BEGIN
 90
        0
 91
        1
 62
     0
 92
       -2
340
0
 93
        0
 40
0.045
309
GRIDFORMAT_END
 95
        8
302
GRIDFORMAT
  1
GRIDFORMAT_BEGIN
 90
        0
 91
        1
 62
     0
 92
       -2
340
0
 93
        0
 40
0.045
309
GRIDFORMAT_END
 95
       16
302
GRIDFORMAT
  1
GRIDFORMAT_BEGIN
 90
        0
 91
        1
 62
     0
 92
       -2
340
0
 93
        0
 40
0.045
309
GRIDFORMAT_END
 95
       32
302
GRIDFORMAT
  1
GRIDFORMAT_BEGIN
 90
        0
 91
        1
 62
     0
 92
       -2
340
0
 93
        0
 40
0.045
309
GRIDFORMAT_END
309
TABLEFORMAT_END
  1
CELLSTYLE_BEGIN
 90
        2
 91
        1
300
_HEADER
309
CELLSTYLE_END
300
CELLSTYLE
  1
TABLEFORMAT_BEGIN
 90
        5
170
     1
 91
        0
 92
        0
 62
   257
 93
        1
300
CONTENTFORMAT
  1
CONTENTFORMAT_BEGIN
 90
        0
 91
        0
 92
      512
 93
        0
300

 40
0.0
140
1.0
 94
        2
 62
     0
340
F8B3
144
0.18
309
CONTENTFORMAT_END
171
     1
301
MARGIN
  1
CELLMARGIN_BEGIN
 40
0.06
 40
0.06
 40
0.06
 40
0.06
 40
0.18
 40
0.18
309
CELLMARGIN_END
 94
        6
 95
        1
302
GRIDFORMAT
  1
GRIDFORMAT_BEGIN
 90
        0
 91
        1
 62
     0
 92
       -2
340
0
 93
        0
 40
0.045
309
GRIDFORMAT_END
 95
        2
302
GRIDFORMAT
  1
GRIDFORMAT_BEGIN
 90
        0
 91
        1
 62
     0
 92
       -2
340
0
 93
        0
 40
0.045
309
GRIDFORMAT_END
 95
        4
302
GRIDFORMAT
  1
GRIDFORMAT_BEGIN
 90
        0
 91
        1
 62
     0
 92
       -2
340
0
 93
        0
 40
0.045
309
GRIDFORMAT_END
 95
        8
302
GRIDFORMAT
  1
GRIDFORMAT_BEGIN
 90
        0
 91
        1
 62
     0
 92
       -2
340
0
 93
        0
 40
0.045
309
GRIDFORMAT_END
 95
       16
302
GRIDFORMAT
  1
GRIDFORMAT_BEGIN
 90
        0
 91
        1
 62
     0
 92
       -2
340
0
 93
        0
 40
0.045
309
GRIDFORMAT_END
 95
       32
302
GRIDFORMAT
  1
GRIDFORMAT_BEGIN
 90
        0
 91
        1
 62
     0
 92
       -2
340
0
 93
        0
 40
0.045
309
GRIDFORMAT_END
309
TABLEFORMAT_END
  1
CELLSTYLE_BEGIN
 90
        3
 91
        2
300
_DATA
309
CELLSTYLE_END
  0
XRECORD
  5
FB88
102
{ACAD_REACTORS
330
FB0F
102
}
330
FB0F
100
AcDbXrecord
280
     1
102
ACAD_ROUNDTRIP_PRE2007_TABLESTYLE
 90
      512
 91
        0
  1

 92
      512
 93
        0
  2

 94
      512
 95
        0
  3

  0
XRECORD
  5
FB63
102
{ACAD_REACTORS
330
FB62
102
}
330
FB62
100
AcDbXrecord
280
     1
102
RTVSPost2010Prop28
280
     1
102
RTVSPost2010PropOp28
 70
     1
102
RTVSPost2010Prop29
280
     1
102
RTVSPost2010PropOp29
 70
     1
102
RTVSPost2010Prop30
280
     0
102
RTVSPost2010PropOp30
 70
     1
102
RTVSPost2010Prop31
280
     0
102
RTVSPost2010PropOp31
 70
     1
102
RTVSPost2010Prop32
280
     0
102
RTVSPost2010PropOp32
 70
     1
102
RTVSPost2010Prop33
280
     0
102
RTVSPost2010PropOp33
 70
     1
102
RTVSPost2010Prop34
280
     0
102
RTVSPost2010PropOp34
 70
     1
102
RTVSPost2010Prop35
280
     0
102
RTVSPost2010PropOp35
 70
     1
102
RTVSPost2010Prop36
280
     0
102
RTVSPost2010PropOp36
 70
     1
102
RTVSPost2010Prop37
 90
       50
102
RTVSPost2010PropOp37
 70
     1
102
RTVSPost2010Prop38
140
0.0
102
RTVSPost2010PropOp38
 70
     1
102
RTVSPost2010Prop39
140
1.0
102
RTVSPost2010PropOp39
 70
     1
102
RTVSPost2010Prop40
 90
        0
102
RTVSPost2010PropOp40
 70
     1
102
RTVSPost2010Prop41ColorIndex
 90
       18
102
RTVSPost2010Prop41ColorRGB
 90
        0
102
RTVSPost2010PropOp41
 70
     1
102
RTVSPost2010Prop42
 90
       50
102
RTVSPost2010PropOp42
 70
     1
102
RTVSPost2010Prop43
 90
        3
102
RTVSPost2010PropOp43
 70
     1
102
RTVSPost2010Prop44ColorIndex
 90
        5
102
RTVSPost2010Prop44ColorRGB
 90
      255
102
RTVSPost2010PropOp44
 70
     1
102
RTVSPost2010Prop45
280
     0
102
RTVSPost2010PropOp45
 70
     1
102
RTVSPost2010Prop46
 90
       50
102
RTVSPost2010PropOp46
 70
     1
102
RTVSPost2010Prop47
 90
       50
102
RTVSPost2010PropOp47
 70
     1
102
RTVSPost2010Prop48
 90
       50
102
RTVSPost2010PropOp48
 70
     1
102
RTVSPost2010Prop49
280
     0
102
RTVSPost2010PropOp49
 70
     1
102
RTVSPost2010Prop50
 90
       50
102
RTVSPost2010PropOp50
 70
     1
102
RTVSPost2010Prop51ColorIndex
 90
      256
102
RTVSPost2010Prop51ColorRGB
 90
-16777216
102
RTVSPost2010PropOp51
 70
     0
102
RTVSPost2010Prop52
140
1.0
102
RTVSPost2010PropOp52
 70
     0
102
RTVSPost2010Prop53
 90
        2
102
RTVSPost2010PropOp53
 70
     1
102
RTVSPost2010Prop54
  1
strokes_ogs.tif
102
RTVSPost2010PropOp54
 70
     1
102
RTVSPost2010Prop55
280
     0
102
RTVSPost2010PropOp55
 70
     1
102
RTVSPost2010Prop56
140
1.0
102
RTVSPost2010PropOp56
 70
     1
102
RTVSPost2010Prop57
140
1.0
102
RTVSPost2010PropOp57
 70
     1
102
RTVSPropertyOp0
 70
     1
102
RTVSPropertyOp1
 70
     1
102
RTVSPropertyOp2
 70
     1
102
RTVSPropertyOp3
 70
     1
102
RTVSPropertyOp4
 70
     1
102
RTVSPropertyOp5
 70
     1
102
RTVSPropertyOp6
 70
     1
102
RTVSPropertyOp7
 70
     1
102
RTVSPropertyOp8
 70
     1
102
RTVSPropertyOp9
 70
     1
102
RTVSPropertyOp10
 70
     1
102
RTVSPropertyOp11
 70
     1
102
RTVSPropertyOp12
 70
     1
102
RTVSPropertyOp13
 70
     1
102
RTVSPropertyOp14
 70
     1
102
RTVSPropertyOp15
 70
     1
102
RTVSPropertyOp16
 70
     1
102
RTVSPropertyOp17
 70
     1
102
RTVSPropertyOp18
 70
     1
102
RTVSPropertyOp19
 70
     1
102
RTVSPropertyOp20
 70
     1
102
RTVSPropertyOp21
 70
     1
102
RTVSPropertyOp22
 70
     1
102
RTVSPropertyOp23
 70
     1
102
RTVSPropertyOp24
 70
     1
102
RTVSPropertyOp25
 70
     1
102
RTVSPropertyOp26
 70
     1
102
RTVSPropertyOp27
 70
     1
102
RTVSPropertyOp28
 70
     1
102
RTVSPropertyOp29
 70
     1
102
RTVSPropertyOp30
 70
     1
102
RTVSPropertyOp31
 70
     1
102
RTVSPropertyOp32
 70
     1
102
RTVSPropertyOp33
 70
     1
102
RTVSPropertyOp34
 70
     1
102
RTVSPropertyOp35
 70
     1
102
RTVSPropertyOp36
 70
     1
102
RTVSPropertyOp37
 70
     1
102
RTVSPropertyOp38
 70
     1
102
RTVSPropertyOp39
 70
     1
102
RTVSPropertyOp40
 70
     1
102
RTVSPropertyOp41
 70
     1
102
RTVSPropertyOp42
 70
     1
102
RTVSPropertyOp43
 70
     1
102
RTVSPropertyOp44
 70
     1
102
RTVSPropertyOp45
 70
     1
102
RTVSPropertyOp46
 70
     1
102
RTVSPropertyOp47
 70
     1
102
RTVSPropertyOp48
 70
     1
102
RTVSPropertyOp49
 70
     1
102
RTVSPropertyOp50
 70
     1
102
RTVSPropertyOp51
 70
     0
102
RTVSPropertyOp52
 70
     0
102
RTVSPropertyOp53
 70
     1
102
RTVSPropertyOp54
 70
     1
102
RTVSPropertyOp55
 70
     1
102
RTVSPropertyOp56
 70
     1
102
RTVSPropertyOp57
 70
     1
102
RTVSPropertyOp58
 70
     1
102
RTVSPropertyOp59
 70
     1
102
RTVSPropertyOp60
 70
     1
102
RTVSPropertyOp61
 70
     1
102
RTVSPropertyOp62
 70
     1
  0
XRECORD
  5
FB61
102
{ACAD_REACTORS
330
FB60
102
}
330
FB60
100
AcDbXrecord
280
     1
102
RTVSPost2010Prop28
280
     0
102
RTVSPost2010PropOp28
 70
     1
102
RTVSPost2010Prop29
280
     1
102
RTVSPost2010PropOp29
 70
     1
102
RTVSPost2010Prop30
280
     1
102
RTVSPost2010PropOp30
 70
     1
102
RTVSPost2010Prop31
280
     0
102
RTVSPost2010PropOp31
 70
     1
102
RTVSPost2010Prop32
280
     0
102
RTVSPost2010PropOp32
 70
     1
102
RTVSPost2010Prop33
280
     0
102
RTVSPost2010PropOp33
 70
     1
102
RTVSPost2010Prop34
280
     0
102
RTVSPost2010PropOp34
 70
     1
102
RTVSPost2010Prop35
280
     0
102
RTVSPost2010PropOp35
 70
     1
102
RTVSPost2010Prop36
280
     0
102
RTVSPost2010PropOp36
 70
     1
102
RTVSPost2010Prop37
 90
       50
102
RTVSPost2010PropOp37
 70
     1
102
RTVSPost2010Prop38
140
0.0
102
RTVSPost2010PropOp38
 70
     1
102
RTVSPost2010Prop39
140
1.0
102
RTVSPost2010PropOp39
 70
     1
102
RTVSPost2010Prop40
 90
        0
102
RTVSPost2010PropOp40
 70
     1
102
RTVSPost2010Prop41ColorIndex
 90
       18
102
RTVSPost2010Prop41ColorRGB
 90
        0
102
RTVSPost2010PropOp41
 70
     1
102
RTVSPost2010Prop42
 90
       50
102
RTVSPost2010PropOp42
 70
     1
102
RTVSPost2010Prop43
 90
        3
102
RTVSPost2010PropOp43
 70
     1
102
RTVSPost2010Prop44ColorIndex
 90
        5
102
RTVSPost2010Prop44ColorRGB
 90
      255
102
RTVSPost2010PropOp44
 70
     1
102
RTVSPost2010Prop45
280
     0
102
RTVSPost2010PropOp45
 70
     1
102
RTVSPost2010Prop46
 90
       50
102
RTVSPost2010PropOp46
 70
     1
102
RTVSPost2010Prop47
 90
       50
102
RTVSPost2010PropOp47
 70
     1
102
RTVSPost2010Prop48
 90
       50
102
RTVSPost2010PropOp48
 70
     1
102
RTVSPost2010Prop49
280
     0
102
RTVSPost2010PropOp49
 70
     1
102
RTVSPost2010Prop50
 90
       50
102
RTVSPost2010PropOp50
 70
     1
102
RTVSPost2010Prop51ColorIndex
 90
      256
102
RTVSPost2010Prop51ColorRGB
 90
-16777216
102
RTVSPost2010PropOp51
 70
     0
102
RTVSPost2010Prop52
140
1.0
102
RTVSPost2010PropOp52
 70
     0
102
RTVSPost2010Prop53
 90
        2
102
RTVSPost2010PropOp53
 70
     1
102
RTVSPost2010Prop54
  1
strokes_ogs.tif
102
RTVSPost2010PropOp54
 70
     1
102
RTVSPost2010Prop55
280
     0
102
RTVSPost2010PropOp55
 70
     1
102
RTVSPost2010Prop56
140
1.0
102
RTVSPost2010PropOp56
 70
     1
102
RTVSPost2010Prop57
140
1.0
102
RTVSPost2010PropOp57
 70
     1
102
RTVSPropertyOp0
 70
     1
102
RTVSPropertyOp1
 70
     1
102
RTVSPropertyOp2
 70
     1
102
RTVSPropertyOp3
 70
     1
102
RTVSPropertyOp4
 70
     1
102
RTVSPropertyOp5
 70
     1
102
RTVSPropertyOp6
 70
     1
102
RTVSPropertyOp7
 70
     1
102
RTVSPropertyOp8
 70
     1
102
RTVSPropertyOp9
 70
     1
102
RTVSPropertyOp10
 70
     1
102
RTVSPropertyOp11
 70
     1
102
RTVSPropertyOp12
 70
     1
102
RTVSPropertyOp13
 70
     1
102
RTVSPropertyOp14
 70
     1
102
RTVSPropertyOp15
 70
     1
102
RTVSPropertyOp16
 70
     1
102
RTVSPropertyOp17
 70
     1
102
RTVSPropertyOp18
 70
     1
102
RTVSPropertyOp19
 70
     1
102
RTVSPropertyOp20
 70
     1
102
RTVSPropertyOp21
 70
     1
102
RTVSPropertyOp22
 70
     1
102
RTVSPropertyOp23
 70
     1
102
RTVSPropertyOp24
 70
     1
102
RTVSPropertyOp25
 70
     1
102
RTVSPropertyOp26
 70
     1
102
RTVSPropertyOp27
 70
     1
102
RTVSPropertyOp28
 70
     1
102
RTVSPropertyOp29
 70
     1
102
RTVSPropertyOp30
 70
     1
102
RTVSPropertyOp31
 70
     1
102
RTVSPropertyOp32
 70
     1
102
RTVSPropertyOp33
 70
     1
102
RTVSPropertyOp34
 70
     1
102
RTVSPropertyOp35
 70
     1
102
RTVSPropertyOp36
 70
     1
102
RTVSPropertyOp37
 70
     1
102
RTVSPropertyOp38
 70
     1
102
RTVSPropertyOp39
 70
     1
102
RTVSPropertyOp40
 70
     1
102
RTVSPropertyOp41
 70
     1
102
RTVSPropertyOp42
 70
     1
102
RTVSPropertyOp43
 70
     1
102
RTVSPropertyOp44
 70
     1
102
RTVSPropertyOp45
 70
     1
102
RTVSPropertyOp46
 70
     1
102
RTVSPropertyOp47
 70
     1
102
RTVSPropertyOp48
 70
     1
102
RTVSPropertyOp49
 70
     1
102
RTVSPropertyOp50
 70
     1
102
RTVSPropertyOp51
 70
     0
102
RTVSPropertyOp52
 70
     0
102
RTVSPropertyOp53
 70
     1
102
RTVSPropertyOp54
 70
     1
102
RTVSPropertyOp55
 70
     1
102
RTVSPropertyOp56
 70
     1
102
RTVSPropertyOp57
 70
     1
102
RTVSPropertyOp58
 70
     1
102
RTVSPropertyOp59
 70
     1
102
RTVSPropertyOp60
 70
     1
102
RTVSPropertyOp61
 70
     1
102
RTVSPropertyOp62
 70
     1
  0
XRECORD
  5
FB6F
102
{ACAD_REACTORS
330
FB6E
102
}
330
FB6E
100
AcDbXrecord
280
     1
102
RTVSPost2010Prop28
280
     0
102
RTVSPost2010PropOp28
 70
     1
102
RTVSPost2010Prop29
280
     1
102
RTVSPost2010PropOp29
 70
     1
102
RTVSPost2010Prop30
280
     1
102
RTVSPost2010PropOp30
 70
     1
102
RTVSPost2010Prop31
280
     0
102
RTVSPost2010PropOp31
 70
     1
102
RTVSPost2010Prop32
280
     0
102
RTVSPost2010PropOp32
 70
     1
102
RTVSPost2010Prop33
280
     0
102
RTVSPost2010PropOp33
 70
     1
102
RTVSPost2010Prop34
280
     0
102
RTVSPost2010PropOp34
 70
     1
102
RTVSPost2010Prop35
280
     0
102
RTVSPost2010PropOp35
 70
     1
102
RTVSPost2010Prop36
280
     0
102
RTVSPost2010PropOp36
 70
     1
102
RTVSPost2010Prop37
 90
       50
102
RTVSPost2010PropOp37
 70
     1
102
RTVSPost2010Prop38
140
0.0
102
RTVSPost2010PropOp38
 70
     1
102
RTVSPost2010Prop39
140
1.0
102
RTVSPost2010PropOp39
 70
     1
102
RTVSPost2010Prop40
 90
        0
102
RTVSPost2010PropOp40
 70
     1
102
RTVSPost2010Prop41ColorIndex
 90
       18
102
RTVSPost2010Prop41ColorRGB
 90
        0
102
RTVSPost2010PropOp41
 70
     1
102
RTVSPost2010Prop42
 90
       50
102
RTVSPost2010PropOp42
 70
     1
102
RTVSPost2010Prop43
 90
        3
102
RTVSPost2010PropOp43
 70
     1
102
RTVSPost2010Prop44ColorIndex
 90
        5
102
RTVSPost2010Prop44ColorRGB
 90
      255
102
RTVSPost2010PropOp44
 70
     1
102
RTVSPost2010Prop45
280
     0
102
RTVSPost2010PropOp45
 70
     1
102
RTVSPost2010Prop46
 90
       50
102
RTVSPost2010PropOp46
 70
     1
102
RTVSPost2010Prop47
 90
       50
102
RTVSPost2010PropOp47
 70
     1
102
RTVSPost2010Prop48
 90
       50
102
RTVSPost2010PropOp48
 70
     1
102
RTVSPost2010Prop49
280
     0
102
RTVSPost2010PropOp49
 70
     1
102
RTVSPost2010Prop50
 90
       50
102
RTVSPost2010PropOp50
 70
     1
102
RTVSPost2010Prop51ColorIndex
 90
      256
102
RTVSPost2010Prop51ColorRGB
 90
-16777216
102
RTVSPost2010PropOp51
 70
     0
102
RTVSPost2010Prop52
140
1.0
102
RTVSPost2010PropOp52
 70
     0
102
RTVSPost2010Prop53
 90
        2
102
RTVSPost2010PropOp53
 70
     1
102
RTVSPost2010Prop54
  1
strokes_ogs.tif
102
RTVSPost2010PropOp54
 70
     1
102
RTVSPost2010Prop55
280
     0
102
RTVSPost2010PropOp55
 70
     1
102
RTVSPost2010Prop56
140
1.0
102
RTVSPost2010PropOp56
 70
     1
102
RTVSPost2010Prop57
140
1.0
102
RTVSPost2010PropOp57
 70
     1
102
RTVSPropertyOp0
 70
     1
102
RTVSPropertyOp1
 70
     1
102
RTVSPropertyOp2
 70
     1
102
RTVSPropertyOp3
 70
     1
102
RTVSPropertyOp4
 70
     1
102
RTVSPropertyOp5
 70
     1
102
RTVSPropertyOp6
 70
     1
102
RTVSPropertyOp7
 70
     1
102
RTVSPropertyOp8
 70
     1
102
RTVSPropertyOp9
 70
     1
102
RTVSPropertyOp10
 70
     1
102
RTVSPropertyOp11
 70
     1
102
RTVSPropertyOp12
 70
     1
102
RTVSPropertyOp13
 70
     1
102
RTVSPropertyOp14
 70
     1
102
RTVSPropertyOp15
 70
     1
102
RTVSPropertyOp16
 70
     1
102
RTVSPropertyOp17
 70
     1
102
RTVSPropertyOp18
 70
     1
102
RTVSPropertyOp19
 70
     1
102
RTVSPropertyOp20
 70
     1
102
RTVSPropertyOp21
 70
     1
102
RTVSPropertyOp22
 70
     1
102
RTVSPropertyOp23
 70
     1
102
RTVSPropertyOp24
 70
     1
102
RTVSPropertyOp25
 70
     1
102
RTVSPropertyOp26
 70
     1
102
RTVSPropertyOp27
 70
     1
102
RTVSPropertyOp28
 70
     1
102
RTVSPropertyOp29
 70
     1
102
RTVSPropertyOp30
 70
     1
102
RTVSPropertyOp31
 70
     1
102
RTVSPropertyOp32
 70
     1
102
RTVSPropertyOp33
 70
     1
102
RTVSPropertyOp34
 70
     1
102
RTVSPropertyOp35
 70
     1
102
RTVSPropertyOp36
 70
     1
102
RTVSPropertyOp37
 70
     1
102
RTVSPropertyOp38
 70
     1
102
RTVSPropertyOp39
 70
     1
102
RTVSPropertyOp40
 70
     1
102
RTVSPropertyOp41
 70
     1
102
RTVSPropertyOp42
 70
     1
102
RTVSPropertyOp43
 70
     1
102
RTVSPropertyOp44
 70
     1
102
RTVSPropertyOp45
 70
     1
102
RTVSPropertyOp46
 70
     1
102
RTVSPropertyOp47
 70
     1
102
RTVSPropertyOp48
 70
     1
102
RTVSPropertyOp49
 70
     1
102
RTVSPropertyOp50
 70
     1
102
RTVSPropertyOp51
 70
     0
102
RTVSPropertyOp52
 70
     0
102
RTVSPropertyOp53
 70
     1
102
RTVSPropertyOp54
 70
     1
102
RTVSPropertyOp55
 70
     1
102
RTVSPropertyOp56
 70
     1
102
RTVSPropertyOp57
 70
     1
102
RTVSPropertyOp58
 70
     1
102
RTVSPropertyOp59
 70
     1
102
RTVSPropertyOp60
 70
     1
102
RTVSPropertyOp61
 70
     1
102
RTVSPropertyOp62
 70
     1
  0
XRECORD
  5
FB77
102
{ACAD_REACTORS
330
FB76
102
}
330
FB76
100
AcDbXrecord
280
     1
102
RTVSPost2010Prop28
280
     0
102
RTVSPost2010PropOp28
 70
     1
102
RTVSPost2010Prop29
280
     1
102
RTVSPost2010PropOp29
 70
     1
102
RTVSPost2010Prop30
280
     1
102
RTVSPost2010PropOp30
 70
     1
102
RTVSPost2010Prop31
280
     0
102
RTVSPost2010PropOp31
 70
     1
102
RTVSPost2010Prop32
280
     0
102
RTVSPost2010PropOp32
 70
     1
102
RTVSPost2010Prop33
280
     0
102
RTVSPost2010PropOp33
 70
     1
102
RTVSPost2010Prop34
280
     0
102
RTVSPost2010PropOp34
 70
     1
102
RTVSPost2010Prop35
280
     0
102
RTVSPost2010PropOp35
 70
     1
102
RTVSPost2010Prop36
280
     0
102
RTVSPost2010PropOp36
 70
     1
102
RTVSPost2010Prop37
 90
       50
102
RTVSPost2010PropOp37
 70
     1
102
RTVSPost2010Prop38
140
0.0
102
RTVSPost2010PropOp38
 70
     1
102
RTVSPost2010Prop39
140
1.0
102
RTVSPost2010PropOp39
 70
     1
102
RTVSPost2010Prop40
 90
        0
102
RTVSPost2010PropOp40
 70
     1
102
RTVSPost2010Prop41ColorIndex
 90
       18
102
RTVSPost2010Prop41ColorRGB
 90
        0
102
RTVSPost2010PropOp41
 70
     1
102
RTVSPost2010Prop42
 90
       50
102
RTVSPost2010PropOp42
 70
     1
102
RTVSPost2010Prop43
 90
        3
102
RTVSPost2010PropOp43
 70
     1
102
RTVSPost2010Prop44ColorIndex
 90
        5
102
RTVSPost2010Prop44ColorRGB
 90
      255
102
RTVSPost2010PropOp44
 70
     1
102
RTVSPost2010Prop45
280
     0
102
RTVSPost2010PropOp45
 70
     1
102
RTVSPost2010Prop46
 90
       50
102
RTVSPost2010PropOp46
 70
     1
102
RTVSPost2010Prop47
 90
       50
102
RTVSPost2010PropOp47
 70
     1
102
RTVSPost2010Prop48
 90
       50
102
RTVSPost2010PropOp48
 70
     1
102
RTVSPost2010Prop49
280
     0
102
RTVSPost2010PropOp49
 70
     1
102
RTVSPost2010Prop50
 90
       50
102
RTVSPost2010PropOp50
 70
     1
102
RTVSPost2010Prop51ColorIndex
 90
      256
102
RTVSPost2010Prop51ColorRGB
 90
-16777216
102
RTVSPost2010PropOp51
 70
     0
102
RTVSPost2010Prop52
140
1.0
102
RTVSPost2010PropOp52
 70
     0
102
RTVSPost2010Prop53
 90
        2
102
RTVSPost2010PropOp53
 70
     1
102
RTVSPost2010Prop54
  1
strokes_ogs.tif
102
RTVSPost2010PropOp54
 70
     1
102
RTVSPost2010Prop55
280
     0
102
RTVSPost2010PropOp55
 70
     1
102
RTVSPost2010Prop56
140
1.0
102
RTVSPost2010PropOp56
 70
     1
102
RTVSPost2010Prop57
140
1.0
102
RTVSPost2010PropOp57
 70
     1
102
RTVSPropertyOp0
 70
     1
102
RTVSPropertyOp1
 70
     1
102
RTVSPropertyOp2
 70
     1
102
RTVSPropertyOp3
 70
     1
102
RTVSPropertyOp4
 70
     1
102
RTVSPropertyOp5
 70
     1
102
RTVSPropertyOp6
 70
     1
102
RTVSPropertyOp7
 70
     1
102
RTVSPropertyOp8
 70
     1
102
RTVSPropertyOp9
 70
     1
102
RTVSPropertyOp10
 70
     1
102
RTVSPropertyOp11
 70
     1
102
RTVSPropertyOp12
 70
     1
102
RTVSPropertyOp13
 70
     1
102
RTVSPropertyOp14
 70
     1
102
RTVSPropertyOp15
 70
     1
102
RTVSPropertyOp16
 70
     1
102
RTVSPropertyOp17
 70
     1
102
RTVSPropertyOp18
 70
     1
102
RTVSPropertyOp19
 70
     1
102
RTVSPropertyOp20
 70
     1
102
RTVSPropertyOp21
 70
     1
102
RTVSPropertyOp22
 70
     1
102
RTVSPropertyOp23
 70
     1
102
RTVSPropertyOp24
 70
     1
102
RTVSPropertyOp25
 70
     1
102
RTVSPropertyOp26
 70
     1
102
RTVSPropertyOp27
 70
     1
102
RTVSPropertyOp28
 70
     1
102
RTVSPropertyOp29
 70
     1
102
RTVSPropertyOp30
 70
     1
102
RTVSPropertyOp31
 70
     1
102
RTVSPropertyOp32
 70
     1
102
RTVSPropertyOp33
 70
     1
102
RTVSPropertyOp34
 70
     1
102
RTVSPropertyOp35
 70
     1
102
RTVSPropertyOp36
 70
     1
102
RTVSPropertyOp37
 70
     1
102
RTVSPropertyOp38
 70
     1
102
RTVSPropertyOp39
 70
     1
102
RTVSPropertyOp40
 70
     1
102
RTVSPropertyOp41
 70
     1
102
RTVSPropertyOp42
 70
     1
102
RTVSPropertyOp43
 70
     1
102
RTVSPropertyOp44
 70
     1
102
RTVSPropertyOp45
 70
     1
102
RTVSPropertyOp46
 70
     1
102
RTVSPropertyOp47
 70
     1
102
RTVSPropertyOp48
 70
     1
102
RTVSPropertyOp49
 70
     1
102
RTVSPropertyOp50
 70
     1
102
RTVSPropertyOp51
 70
     0
102
RTVSPropertyOp52
 70
     0
102
RTVSPropertyOp53
 70
     1
102
RTVSPropertyOp54
 70
     1
102
RTVSPropertyOp55
 70
     1
102
RTVSPropertyOp56
 70
     1
102
RTVSPropertyOp57
 70
     1
102
RTVSPropertyOp58
 70
     1
102
RTVSPropertyOp59
 70
     1
102
RTVSPropertyOp60
 70
     1
102
RTVSPropertyOp61
 70
     1
102
RTVSPropertyOp62
 70
     1
  0
XRECORD
  5
FB69
102
{ACAD_REACTORS
330
FB68
102
}
330
FB68
100
AcDbXrecord
280
     1
102
RTVSPost2010Prop28
280
     0
102
RTVSPost2010PropOp28
 70
     1
102
RTVSPost2010Prop29
280
     1
102
RTVSPost2010PropOp29
 70
     1
102
RTVSPost2010Prop30
280
     1
102
RTVSPost2010PropOp30
 70
     1
102
RTVSPost2010Prop31
280
     0
102
RTVSPost2010PropOp31
 70
     1
102
RTVSPost2010Prop32
280
     0
102
RTVSPost2010PropOp32
 70
     1
102
RTVSPost2010Prop33
280
     0
102
RTVSPost2010PropOp33
 70
     1
102
RTVSPost2010Prop34
280
     0
102
RTVSPost2010PropOp34
 70
     1
102
RTVSPost2010Prop35
280
     0
102
RTVSPost2010PropOp35
 70
     1
102
RTVSPost2010Prop36
280
     0
102
RTVSPost2010PropOp36
 70
     1
102
RTVSPost2010Prop37
 90
       50
102
RTVSPost2010PropOp37
 70
     1
102
RTVSPost2010Prop38
140
0.0
102
RTVSPost2010PropOp38
 70
     1
102
RTVSPost2010Prop39
140
1.0
102
RTVSPost2010PropOp39
 70
     1
102
RTVSPost2010Prop40
 90
        0
102
RTVSPost2010PropOp40
 70
     1
102
RTVSPost2010Prop41ColorIndex
 90
       18
102
RTVSPost2010Prop41ColorRGB
 90
        0
102
RTVSPost2010PropOp41
 70
     1
102
RTVSPost2010Prop42
 90
       50
102
RTVSPost2010PropOp42
 70
     1
102
RTVSPost2010Prop43
 90
        3
102
RTVSPost2010PropOp43
 70
     1
102
RTVSPost2010Prop44ColorIndex
 90
        5
102
RTVSPost2010Prop44ColorRGB
 90
      255
102
RTVSPost2010PropOp44
 70
     1
102
RTVSPost2010Prop45
280
     0
102
RTVSPost2010PropOp45
 70
     1
102
RTVSPost2010Prop46
 90
       50
102
RTVSPost2010PropOp46
 70
     1
102
RTVSPost2010Prop47
 90
       50
102
RTVSPost2010PropOp47
 70
     1
102
RTVSPost2010Prop48
 90
       50
102
RTVSPost2010PropOp48
 70
     1
102
RTVSPost2010Prop49
280
     0
102
RTVSPost2010PropOp49
 70
     1
102
RTVSPost2010Prop50
 90
       50
102
RTVSPost2010PropOp50
 70
     1
102
RTVSPost2010Prop51ColorIndex
 90
      256
102
RTVSPost2010Prop51ColorRGB
 90
-16777216
102
RTVSPost2010PropOp51
 70
     0
102
RTVSPost2010Prop52
140
1.0
102
RTVSPost2010PropOp52
 70
     0
102
RTVSPost2010Prop53
 90
        2
102
RTVSPost2010PropOp53
 70
     1
102
RTVSPost2010Prop54
  1
strokes_ogs.tif
102
RTVSPost2010PropOp54
 70
     1
102
RTVSPost2010Prop55
280
     0
102
RTVSPost2010PropOp55
 70
     1
102
RTVSPost2010Prop56
140
1.0
102
RTVSPost2010PropOp56
 70
     1
102
RTVSPost2010Prop57
140
1.0
102
RTVSPost2010PropOp57
 70
     1
102
RTVSPropertyOp0
 70
     1
102
RTVSPropertyOp1
 70
     1
102
RTVSPropertyOp2
 70
     1
102
RTVSPropertyOp3
 70
     1
102
RTVSPropertyOp4
 70
     1
102
RTVSPropertyOp5
 70
     1
102
RTVSPropertyOp6
 70
     1
102
RTVSPropertyOp7
 70
     1
102
RTVSPropertyOp8
 70
     1
102
RTVSPropertyOp9
 70
     1
102
RTVSPropertyOp10
 70
     1
102
RTVSPropertyOp11
 70
     1
102
RTVSPropertyOp12
 70
     1
102
RTVSPropertyOp13
 70
     1
102
RTVSPropertyOp14
 70
     1
102
RTVSPropertyOp15
 70
     1
102
RTVSPropertyOp16
 70
     1
102
RTVSPropertyOp17
 70
     1
102
RTVSPropertyOp18
 70
     1
102
RTVSPropertyOp19
 70
     1
102
RTVSPropertyOp20
 70
     1
102
RTVSPropertyOp21
 70
     1
102
RTVSPropertyOp22
 70
     1
102
RTVSPropertyOp23
 70
     1
102
RTVSPropertyOp24
 70
     1
102
RTVSPropertyOp25
 70
     1
102
RTVSPropertyOp26
 70
     1
102
RTVSPropertyOp27
 70
     1
102
RTVSPropertyOp28
 70
     1
102
RTVSPropertyOp29
 70
     1
102
RTVSPropertyOp30
 70
     1
102
RTVSPropertyOp31
 70
     1
102
RTVSPropertyOp32
 70
     1
102
RTVSPropertyOp33
 70
     1
102
RTVSPropertyOp34
 70
     1
102
RTVSPropertyOp35
 70
     1
102
RTVSPropertyOp36
 70
     1
102
RTVSPropertyOp37
 70
     1
102
RTVSPropertyOp38
 70
     1
102
RTVSPropertyOp39
 70
     1
102
RTVSPropertyOp40
 70
     1
102
RTVSPropertyOp41
 70
     1
102
RTVSPropertyOp42
 70
     1
102
RTVSPropertyOp43
 70
     1
102
RTVSPropertyOp44
 70
     1
102
RTVSPropertyOp45
 70
     1
102
RTVSPropertyOp46
 70
     1
102
RTVSPropertyOp47
 70
     1
102
RTVSPropertyOp48
 70
     1
102
RTVSPropertyOp49
 70
     1
102
RTVSPropertyOp50
 70
     1
102
RTVSPropertyOp51
 70
     0
102
RTVSPropertyOp52
 70
     0
102
RTVSPropertyOp53
 70
     1
102
RTVSPropertyOp54
 70
     1
102
RTVSPropertyOp55
 70
     1
102
RTVSPropertyOp56
 70
     1
102
RTVSPropertyOp57
 70
     1
102
RTVSPropertyOp58
 70
     1
102
RTVSPropertyOp59
 70
     1
102
RTVSPropertyOp60
 70
     1
102
RTVSPropertyOp61
 70
     1
102
RTVSPropertyOp62
 70
     1
  0
XRECORD
  5
FB6D
102
{ACAD_REACTORS
330
FB6C
102
}
330
FB6C
100
AcDbXrecord
280
     1
102
RTVSPost2010Prop28
280
     0
102
RTVSPost2010PropOp28
 70
     1
102
RTVSPost2010Prop29
280
     1
102
RTVSPost2010PropOp29
 70
     1
102
RTVSPost2010Prop30
280
     1
102
RTVSPost2010PropOp30
 70
     1
102
RTVSPost2010Prop31
280
     0
102
RTVSPost2010PropOp31
 70
     1
102
RTVSPost2010Prop32
280
     0
102
RTVSPost2010PropOp32
 70
     1
102
RTVSPost2010Prop33
280
     0
102
RTVSPost2010PropOp33
 70
     1
102
RTVSPost2010Prop34
280
     0
102
RTVSPost2010PropOp34
 70
     1
102
RTVSPost2010Prop35
280
     0
102
RTVSPost2010PropOp35
 70
     1
102
RTVSPost2010Prop36
280
     0
102
RTVSPost2010PropOp36
 70
     1
102
RTVSPost2010Prop37
 90
       50
102
RTVSPost2010PropOp37
 70
     1
102
RTVSPost2010Prop38
140
0.0
102
RTVSPost2010PropOp38
 70
     1
102
RTVSPost2010Prop39
140
1.0
102
RTVSPost2010PropOp39
 70
     1
102
RTVSPost2010Prop40
 90
        0
102
RTVSPost2010PropOp40
 70
     1
102
RTVSPost2010Prop41ColorIndex
 90
       18
102
RTVSPost2010Prop41ColorRGB
 90
        0
102
RTVSPost2010PropOp41
 70
     1
102
RTVSPost2010Prop42
 90
       50
102
RTVSPost2010PropOp42
 70
     1
102
RTVSPost2010Prop43
 90
        3
102
RTVSPost2010PropOp43
 70
     1
102
RTVSPost2010Prop44ColorIndex
 90
        5
102
RTVSPost2010Prop44ColorRGB
 90
      255
102
RTVSPost2010PropOp44
 70
     1
102
RTVSPost2010Prop45
280
     0
102
RTVSPost2010PropOp45
 70
     1
102
RTVSPost2010Prop46
 90
       50
102
RTVSPost2010PropOp46
 70
     1
102
RTVSPost2010Prop47
 90
       50
102
RTVSPost2010PropOp47
 70
     1
102
RTVSPost2010Prop48
 90
       50
102
RTVSPost2010PropOp48
 70
     1
102
RTVSPost2010Prop49
280
     0
102
RTVSPost2010PropOp49
 70
     1
102
RTVSPost2010Prop50
 90
       50
102
RTVSPost2010PropOp50
 70
     1
102
RTVSPost2010Prop51ColorIndex
 90
      256
102
RTVSPost2010Prop51ColorRGB
 90
-16777216
102
RTVSPost2010PropOp51
 70
     0
102
RTVSPost2010Prop52
140
1.0
102
RTVSPost2010PropOp52
 70
     0
102
RTVSPost2010Prop53
 90
        2
102
RTVSPost2010PropOp53
 70
     1
102
RTVSPost2010Prop54
  1
strokes_ogs.tif
102
RTVSPost2010PropOp54
 70
     1
102
RTVSPost2010Prop55
280
     0
102
RTVSPost2010PropOp55
 70
     1
102
RTVSPost2010Prop56
140
1.0
102
RTVSPost2010PropOp56
 70
     1
102
RTVSPost2010Prop57
140
1.0
102
RTVSPost2010PropOp57
 70
     1
102
RTVSPropertyOp0
 70
     1
102
RTVSPropertyOp1
 70
     1
102
RTVSPropertyOp2
 70
     1
102
RTVSPropertyOp3
 70
     1
102
RTVSPropertyOp4
 70
     1
102
RTVSPropertyOp5
 70
     1
102
RTVSPropertyOp6
 70
     1
102
RTVSPropertyOp7
 70
     1
102
RTVSPropertyOp8
 70
     1
102
RTVSPropertyOp9
 70
     1
102
RTVSPropertyOp10
 70
     1
102
RTVSPropertyOp11
 70
     1
102
RTVSPropertyOp12
 70
     1
102
RTVSPropertyOp13
 70
     1
102
RTVSPropertyOp14
 70
     1
102
RTVSPropertyOp15
 70
     1
102
RTVSPropertyOp16
 70
     1
102
RTVSPropertyOp17
 70
     1
102
RTVSPropertyOp18
 70
     1
102
RTVSPropertyOp19
 70
     1
102
RTVSPropertyOp20
 70
     1
102
RTVSPropertyOp21
 70
     1
102
RTVSPropertyOp22
 70
     1
102
RTVSPropertyOp23
 70
     1
102
RTVSPropertyOp24
 70
     1
102
RTVSPropertyOp25
 70
     1
102
RTVSPropertyOp26
 70
     1
102
RTVSPropertyOp27
 70
     1
102
RTVSPropertyOp28
 70
     1
102
RTVSPropertyOp29
 70
     1
102
RTVSPropertyOp30
 70
     1
102
RTVSPropertyOp31
 70
     1
102
RTVSPropertyOp32
 70
     1
102
RTVSPropertyOp33
 70
     1
102
RTVSPropertyOp34
 70
     1
102
RTVSPropertyOp35
 70
     1
102
RTVSPropertyOp36
 70
     1
102
RTVSPropertyOp37
 70
     1
102
RTVSPropertyOp38
 70
     1
102
RTVSPropertyOp39
 70
     1
102
RTVSPropertyOp40
 70
     1
102
RTVSPropertyOp41
 70
     1
102
RTVSPropertyOp42
 70
     1
102
RTVSPropertyOp43
 70
     1
102
RTVSPropertyOp44
 70
     1
102
RTVSPropertyOp45
 70
     1
102
RTVSPropertyOp46
 70
     1
102
RTVSPropertyOp47
 70
     1
102
RTVSPropertyOp48
 70
     1
102
RTVSPropertyOp49
 70
     1
102
RTVSPropertyOp50
 70
     1
102
RTVSPropertyOp51
 70
     0
102
RTVSPropertyOp52
 70
     0
102
RTVSPropertyOp53
 70
     1
102
RTVSPropertyOp54
 70
     1
102
RTVSPropertyOp55
 70
     1
102
RTVSPropertyOp56
 70
     1
102
RTVSPropertyOp57
 70
     1
102
RTVSPropertyOp58
 70
     1
102
RTVSPropertyOp59
 70
     1
102
RTVSPropertyOp60
 70
     1
102
RTVSPropertyOp61
 70
     1
102
RTVSPropertyOp62
 70
     1
  0
XRECORD
  5
FB87
102
{ACAD_REACTORS
330
FB86
102
}
330
FB86
100
AcDbXrecord
280
     1
102
RTVSPost2010Prop28
280
     0
102
RTVSPost2010PropOp28
 70
     1
102
RTVSPost2010Prop29
280
     1
102
RTVSPost2010PropOp29
 70
     1
102
RTVSPost2010Prop30
280
     1
102
RTVSPost2010PropOp30
 70
     1
102
RTVSPost2010Prop31
280
     0
102
RTVSPost2010PropOp31
 70
     1
102
RTVSPost2010Prop32
280
     0
102
RTVSPost2010PropOp32
 70
     1
102
RTVSPost2010Prop33
280
     0
102
RTVSPost2010PropOp33
 70
     1
102
RTVSPost2010Prop34
280
     0
102
RTVSPost2010PropOp34
 70
     1
102
RTVSPost2010Prop35
280
     0
102
RTVSPost2010PropOp35
 70
     1
102
RTVSPost2010Prop36
280
     0
102
RTVSPost2010PropOp36
 70
     1
102
RTVSPost2010Prop37
 90
       50
102
RTVSPost2010PropOp37
 70
     0
102
RTVSPost2010Prop38
140
0.0
102
RTVSPost2010PropOp38
 70
     0
102
RTVSPost2010Prop39
140
1.0
102
RTVSPost2010PropOp39
 70
     0
102
RTVSPost2010Prop40
 90
        0
102
RTVSPost2010PropOp40
 70
     0
102
RTVSPost2010Prop41ColorIndex
 90
       18
102
RTVSPost2010Prop41ColorRGB
 90
        0
102
RTVSPost2010PropOp41
 70
     0
102
RTVSPost2010Prop42
 90
       50
102
RTVSPost2010PropOp42
 70
     0
102
RTVSPost2010Prop43
 90
        3
102
RTVSPost2010PropOp43
 70
     0
102
RTVSPost2010Prop44ColorIndex
 90
        5
102
RTVSPost2010Prop44ColorRGB
 90
      255
102
RTVSPost2010PropOp44
 70
     0
102
RTVSPost2010Prop45
280
     0
102
RTVSPost2010PropOp45
 70
     1
102
RTVSPost2010Prop46
 90
       50
102
RTVSPost2010PropOp46
 70
     0
102
RTVSPost2010Prop47
 90
       50
102
RTVSPost2010PropOp47
 70
     0
102
RTVSPost2010Prop48
 90
       50
102
RTVSPost2010PropOp48
 70
     0
102
RTVSPost2010Prop49
280
     0
102
RTVSPost2010PropOp49
 70
     1
102
RTVSPost2010Prop50
 90
       50
102
RTVSPost2010PropOp50
 70
     0
102
RTVSPost2010Prop51ColorIndex
 90
      256
102
RTVSPost2010Prop51ColorRGB
 90
-16777216
102
RTVSPost2010PropOp51
 70
     0
102
RTVSPost2010Prop52
140
1.0
102
RTVSPost2010PropOp52
 70
     0
102
RTVSPost2010Prop53
 90
        2
102
RTVSPost2010PropOp53
 70
     0
102
RTVSPost2010Prop54
  1
strokes_ogs.tif
102
RTVSPost2010PropOp54
 70
     0
102
RTVSPost2010Prop55
280
     0
102
RTVSPost2010PropOp55
 70
     1
102
RTVSPost2010Prop56
140
1.0
102
RTVSPost2010PropOp56
 70
     0
102
RTVSPost2010Prop57
140
1.0
102
RTVSPost2010PropOp57
 70
     0
102
RTVSPropertyOp0
 70
     0
102
RTVSPropertyOp1
 70
     0
102
RTVSPropertyOp2
 70
     0
102
RTVSPropertyOp3
 70
     0
102
RTVSPropertyOp4
 70
     0
102
RTVSPropertyOp5
 70
     0
102
RTVSPropertyOp6
 70
     0
102
RTVSPropertyOp7
 70
     0
102
RTVSPropertyOp8
 70
     0
102
RTVSPropertyOp9
 70
     0
102
RTVSPropertyOp10
 70
     0
102
RTVSPropertyOp11
 70
     0
102
RTVSPropertyOp12
 70
     0
102
RTVSPropertyOp13
 70
     0
102
RTVSPropertyOp14
 70
     2
102
RTVSPropertyOp15
 70
     0
102
RTVSPropertyOp16
 70
     0
102
RTVSPropertyOp17
 70
     0
102
RTVSPropertyOp18
 70
     0
102
RTVSPropertyOp19
 70
     0
102
RTVSPropertyOp20
 70
     0
102
RTVSPropertyOp21
 70
     0
102
RTVSPropertyOp22
 70
     0
102
RTVSPropertyOp23
 70
     0
102
RTVSPropertyOp24
 70
     0
102
RTVSPropertyOp25
 70
     0
102
RTVSPropertyOp26
 70
     0
102
RTVSPropertyOp27
 70
     0
102
RTVSPropertyOp28
 70
     1
102
RTVSPropertyOp29
 70
     1
102
RTVSPropertyOp30
 70
     1
102
RTVSPropertyOp31
 70
     1
102
RTVSPropertyOp32
 70
     1
102
RTVSPropertyOp33
 70
     1
102
RTVSPropertyOp34
 70
     1
102
RTVSPropertyOp35
 70
     1
102
RTVSPropertyOp36
 70
     1
102
RTVSPropertyOp37
 70
     0
102
RTVSPropertyOp38
 70
     0
102
RTVSPropertyOp39
 70
     0
102
RTVSPropertyOp40
 70
     0
102
RTVSPropertyOp41
 70
     0
102
RTVSPropertyOp42
 70
     0
102
RTVSPropertyOp43
 70
     0
102
RTVSPropertyOp44
 70
     0
102
RTVSPropertyOp45
 70
     1
102
RTVSPropertyOp46
 70
     0
102
RTVSPropertyOp47
 70
     0
102
RTVSPropertyOp48
 70
     0
102
RTVSPropertyOp49
 70
     1
102
RTVSPropertyOp50
 70
     0
102
RTVSPropertyOp51
 70
     0
102
RTVSPropertyOp52
 70
     0
102
RTVSPropertyOp53
 70
     0
102
RTVSPropertyOp54
 70
     0
102
RTVSPropertyOp55
 70
     1
102
RTVSPropertyOp56
 70
     0
102
RTVSPropertyOp57
 70
     0
102
RTVSPropertyOp58
 70
     0
102
RTVSPropertyOp59
 70
     0
102
RTVSPropertyOp60
 70
     0
102
RTVSPropertyOp61
 70
     0
102
RTVSPropertyOp62
 70
     0
  0
XRECORD
  5
FB75
102
{ACAD_REACTORS
330
FB74
102
}
330
FB74
100
AcDbXrecord
280
     1
102
RTVSPost2010Prop28
280
     0
102
RTVSPost2010PropOp28
 70
     1
102
RTVSPost2010Prop29
280
     1
102
RTVSPost2010PropOp29
 70
     1
102
RTVSPost2010Prop30
280
     1
102
RTVSPost2010PropOp30
 70
     1
102
RTVSPost2010Prop31
280
     0
102
RTVSPost2010PropOp31
 70
     1
102
RTVSPost2010Prop32
280
     0
102
RTVSPost2010PropOp32
 70
     1
102
RTVSPost2010Prop33
280
     0
102
RTVSPost2010PropOp33
 70
     1
102
RTVSPost2010Prop34
280
     0
102
RTVSPost2010PropOp34
 70
     1
102
RTVSPost2010Prop35
280
     0
102
RTVSPost2010PropOp35
 70
     1
102
RTVSPost2010Prop36
280
     0
102
RTVSPost2010PropOp36
 70
     1
102
RTVSPost2010Prop37
 90
       50
102
RTVSPost2010PropOp37
 70
     1
102
RTVSPost2010Prop38
140
0.0
102
RTVSPost2010PropOp38
 70
     1
102
RTVSPost2010Prop39
140
1.0
102
RTVSPost2010PropOp39
 70
     1
102
RTVSPost2010Prop40
 90
        0
102
RTVSPost2010PropOp40
 70
     1
102
RTVSPost2010Prop41ColorIndex
 90
       18
102
RTVSPost2010Prop41ColorRGB
 90
        0
102
RTVSPost2010PropOp41
 70
     1
102
RTVSPost2010Prop42
 90
       50
102
RTVSPost2010PropOp42
 70
     1
102
RTVSPost2010Prop43
 90
        3
102
RTVSPost2010PropOp43
 70
     1
102
RTVSPost2010Prop44ColorIndex
 90
        5
102
RTVSPost2010Prop44ColorRGB
 90
      255
102
RTVSPost2010PropOp44
 70
     1
102
RTVSPost2010Prop45
280
     0
102
RTVSPost2010PropOp45
 70
     1
102
RTVSPost2010Prop46
 90
       50
102
RTVSPost2010PropOp46
 70
     1
102
RTVSPost2010Prop47
 90
       50
102
RTVSPost2010PropOp47
 70
     1
102
RTVSPost2010Prop48
 90
       50
102
RTVSPost2010PropOp48
 70
     1
102
RTVSPost2010Prop49
280
     0
102
RTVSPost2010PropOp49
 70
     1
102
RTVSPost2010Prop50
 90
       50
102
RTVSPost2010PropOp50
 70
     1
102
RTVSPost2010Prop51ColorIndex
 90
      256
102
RTVSPost2010Prop51ColorRGB
 90
-16777216
102
RTVSPost2010PropOp51
 70
     0
102
RTVSPost2010Prop52
140
1.0
102
RTVSPost2010PropOp52
 70
     0
102
RTVSPost2010Prop53
 90
        2
102
RTVSPost2010PropOp53
 70
     1
102
RTVSPost2010Prop54
  1
strokes_ogs.tif
102
RTVSPost2010PropOp54
 70
     1
102
RTVSPost2010Prop55
280
     0
102
RTVSPost2010PropOp55
 70
     1
102
RTVSPost2010Prop56
140
1.0
102
RTVSPost2010PropOp56
 70
     1
102
RTVSPost2010Prop57
140
1.0
102
RTVSPost2010PropOp57
 70
     1
102
RTVSPropertyOp0
 70
     1
102
RTVSPropertyOp1
 70
     1
102
RTVSPropertyOp2
 70
     1
102
RTVSPropertyOp3
 70
     1
102
RTVSPropertyOp4
 70
     1
102
RTVSPropertyOp5
 70
     1
102
RTVSPropertyOp6
 70
     1
102
RTVSPropertyOp7
 70
     1
102
RTVSPropertyOp8
 70
     1
102
RTVSPropertyOp9
 70
     1
102
RTVSPropertyOp10
 70
     1
102
RTVSPropertyOp11
 70
     1
102
RTVSPropertyOp12
 70
     1
102
RTVSPropertyOp13
 70
     1
102
RTVSPropertyOp14
 70
     1
102
RTVSPropertyOp15
 70
     1
102
RTVSPropertyOp16
 70
     1
102
RTVSPropertyOp17
 70
     1
102
RTVSPropertyOp18
 70
     1
102
RTVSPropertyOp19
 70
     1
102
RTVSPropertyOp20
 70
     1
102
RTVSPropertyOp21
 70
     1
102
RTVSPropertyOp22
 70
     1
102
RTVSPropertyOp23
 70
     1
102
RTVSPropertyOp24
 70
     1
102
RTVSPropertyOp25
 70
     1
102
RTVSPropertyOp26
 70
     1
102
RTVSPropertyOp27
 70
     1
102
RTVSPropertyOp28
 70
     1
102
RTVSPropertyOp29
 70
     1
102
RTVSPropertyOp30
 70
     1
102
RTVSPropertyOp31
 70
     1
102
RTVSPropertyOp32
 70
     1
102
RTVSPropertyOp33
 70
     1
102
RTVSPropertyOp34
 70
     1
102
RTVSPropertyOp35
 70
     1
102
RTVSPropertyOp36
 70
     1
102
RTVSPropertyOp37
 70
     1
102
RTVSPropertyOp38
 70
     1
102
RTVSPropertyOp39
 70
     1
102
RTVSPropertyOp40
 70
     1
102
RTVSPropertyOp41
 70
     1
102
RTVSPropertyOp42
 70
     1
102
RTVSPropertyOp43
 70
     1
102
RTVSPropertyOp44
 70
     1
102
RTVSPropertyOp45
 70
     1
102
RTVSPropertyOp46
 70
     1
102
RTVSPropertyOp47
 70
     1
102
RTVSPropertyOp48
 70
     1
102
RTVSPropertyOp49
 70
     1
102
RTVSPropertyOp50
 70
     1
102
RTVSPropertyOp51
 70
     0
102
RTVSPropertyOp52
 70
     0
102
RTVSPropertyOp53
 70
     1
102
RTVSPropertyOp54
 70
     1
102
RTVSPropertyOp55
 70
     1
102
RTVSPropertyOp56
 70
     1
102
RTVSPropertyOp57
 70
     1
102
RTVSPropertyOp58
 70
     1
102
RTVSPropertyOp59
 70
     1
102
RTVSPropertyOp60
 70
     1
102
RTVSPropertyOp61
 70
     1
102
RTVSPropertyOp62
 70
     1
  0
XRECORD
  5
FB59
102
{ACAD_REACTORS
330
FB58
102
}
330
FB58
100
AcDbXrecord
280
     1
102
RTVSPost2010Prop28
280
     0
102
RTVSPost2010PropOp28
 70
     1
102
RTVSPost2010Prop29
280
     1
102
RTVSPost2010PropOp29
 70
     1
102
RTVSPost2010Prop30
280
     1
102
RTVSPost2010PropOp30
 70
     1
102
RTVSPost2010Prop31
280
     0
102
RTVSPost2010PropOp31
 70
     1
102
RTVSPost2010Prop32
280
     0
102
RTVSPost2010PropOp32
 70
     1
102
RTVSPost2010Prop33
280
     0
102
RTVSPost2010PropOp33
 70
     1
102
RTVSPost2010Prop34
280
     0
102
RTVSPost2010PropOp34
 70
     1
102
RTVSPost2010Prop35
280
     0
102
RTVSPost2010PropOp35
 70
     1
102
RTVSPost2010Prop36
280
     0
102
RTVSPost2010PropOp36
 70
     1
102
RTVSPost2010Prop37
 90
       50
102
RTVSPost2010PropOp37
 70
     1
102
RTVSPost2010Prop38
140
0.0
102
RTVSPost2010PropOp38
 70
     1
102
RTVSPost2010Prop39
140
1.0
102
RTVSPost2010PropOp39
 70
     1
102
RTVSPost2010Prop40
 90
        0
102
RTVSPost2010PropOp40
 70
     1
102
RTVSPost2010Prop41ColorIndex
 90
       18
102
RTVSPost2010Prop41ColorRGB
 90
        0
102
RTVSPost2010PropOp41
 70
     1
102
RTVSPost2010Prop42
 90
       50
102
RTVSPost2010PropOp42
 70
     1
102
RTVSPost2010Prop43
 90
        3
102
RTVSPost2010PropOp43
 70
     1
102
RTVSPost2010Prop44ColorIndex
 90
        5
102
RTVSPost2010Prop44ColorRGB
 90
      255
102
RTVSPost2010PropOp44
 70
     1
102
RTVSPost2010Prop45
280
     0
102
RTVSPost2010PropOp45
 70
     1
102
RTVSPost2010Prop46
 90
       50
102
RTVSPost2010PropOp46
 70
     1
102
RTVSPost2010Prop47
 90
       50
102
RTVSPost2010PropOp47
 70
     1
102
RTVSPost2010Prop48
 90
       50
102
RTVSPost2010PropOp48
 70
     1
102
RTVSPost2010Prop49
280
     0
102
RTVSPost2010PropOp49
 70
     1
102
RTVSPost2010Prop50
 90
       50
102
RTVSPost2010PropOp50
 70
     1
102
RTVSPost2010Prop51ColorIndex
 90
      256
102
RTVSPost2010Prop51ColorRGB
 90
-16777216
102
RTVSPost2010PropOp51
 70
     0
102
RTVSPost2010Prop52
140
1.0
102
RTVSPost2010PropOp52
 70
     0
102
RTVSPost2010Prop53
 90
        2
102
RTVSPost2010PropOp53
 70
     1
102
RTVSPost2010Prop54
  1
strokes_ogs.tif
102
RTVSPost2010PropOp54
 70
     1
102
RTVSPost2010Prop55
280
     0
102
RTVSPost2010PropOp55
 70
     1
102
RTVSPost2010Prop56
140
1.0
102
RTVSPost2010PropOp56
 70
     1
102
RTVSPost2010Prop57
140
1.0
102
RTVSPost2010PropOp57
 70
     1
102
RTVSPropertyOp0
 70
     1
102
RTVSPropertyOp1
 70
     1
102
RTVSPropertyOp2
 70
     1
102
RTVSPropertyOp3
 70
     1
102
RTVSPropertyOp4
 70
     1
102
RTVSPropertyOp5
 70
     1
102
RTVSPropertyOp6
 70
     1
102
RTVSPropertyOp7
 70
     1
102
RTVSPropertyOp8
 70
     1
102
RTVSPropertyOp9
 70
     1
102
RTVSPropertyOp10
 70
     1
102
RTVSPropertyOp11
 70
     1
102
RTVSPropertyOp12
 70
     1
102
RTVSPropertyOp13
 70
     1
102
RTVSPropertyOp14
 70
     1
102
RTVSPropertyOp15
 70
     1
102
RTVSPropertyOp16
 70
     1
102
RTVSPropertyOp17
 70
     1
102
RTVSPropertyOp18
 70
     1
102
RTVSPropertyOp19
 70
     1
102
RTVSPropertyOp20
 70
     1
102
RTVSPropertyOp21
 70
     1
102
RTVSPropertyOp22
 70
     1
102
RTVSPropertyOp23
 70
     1
102
RTVSPropertyOp24
 70
     1
102
RTVSPropertyOp25
 70
     1
102
RTVSPropertyOp26
 70
     1
102
RTVSPropertyOp27
 70
     1
102
RTVSPropertyOp28
 70
     1
102
RTVSPropertyOp29
 70
     1
102
RTVSPropertyOp30
 70
     1
102
RTVSPropertyOp31
 70
     1
102
RTVSPropertyOp32
 70
     1
102
RTVSPropertyOp33
 70
     1
102
RTVSPropertyOp34
 70
     1
102
RTVSPropertyOp35
 70
     1
102
RTVSPropertyOp36
 70
     1
102
RTVSPropertyOp37
 70
     1
102
RTVSPropertyOp38
 70
     1
102
RTVSPropertyOp39
 70
     1
102
RTVSPropertyOp40
 70
     1
102
RTVSPropertyOp41
 70
     1
102
RTVSPropertyOp42
 70
     1
102
RTVSPropertyOp43
 70
     1
102
RTVSPropertyOp44
 70
     1
102
RTVSPropertyOp45
 70
     1
102
RTVSPropertyOp46
 70
     1
102
RTVSPropertyOp47
 70
     1
102
RTVSPropertyOp48
 70
     1
102
RTVSPropertyOp49
 70
     1
102
RTVSPropertyOp50
 70
     1
102
RTVSPropertyOp51
 70
     0
102
RTVSPropertyOp52
 70
     0
102
RTVSPropertyOp53
 70
     1
102
RTVSPropertyOp54
 70
     1
102
RTVSPropertyOp55
 70
     1
102
RTVSPropertyOp56
 70
     1
102
RTVSPropertyOp57
 70
     1
102
RTVSPropertyOp58
 70
     1
102
RTVSPropertyOp59
 70
     1
102
RTVSPropertyOp60
 70
     1
102
RTVSPropertyOp61
 70
     1
102
RTVSPropertyOp62
 70
     1
  0
XRECORD
  5
FB5B
102
{ACAD_REACTORS
330
FB5A
102
}
330
FB5A
100
AcDbXrecord
280
     1
102
RTVSPost2010Prop28
280
     0
102
RTVSPost2010PropOp28
 70
     1
102
RTVSPost2010Prop29
280
     1
102
RTVSPost2010PropOp29
 70
     1
102
RTVSPost2010Prop30
280
     1
102
RTVSPost2010PropOp30
 70
     1
102
RTVSPost2010Prop31
280
     0
102
RTVSPost2010PropOp31
 70
     1
102
RTVSPost2010Prop32
280
     0
102
RTVSPost2010PropOp32
 70
     1
102
RTVSPost2010Prop33
280
     0
102
RTVSPost2010PropOp33
 70
     1
102
RTVSPost2010Prop34
280
     0
102
RTVSPost2010PropOp34
 70
     1
102
RTVSPost2010Prop35
280
     0
102
RTVSPost2010PropOp35
 70
     1
102
RTVSPost2010Prop36
280
     0
102
RTVSPost2010PropOp36
 70
     1
102
RTVSPost2010Prop37
 90
       50
102
RTVSPost2010PropOp37
 70
     1
102
RTVSPost2010Prop38
140
0.0
102
RTVSPost2010PropOp38
 70
     1
102
RTVSPost2010Prop39
140
1.0
102
RTVSPost2010PropOp39
 70
     1
102
RTVSPost2010Prop40
 90
        0
102
RTVSPost2010PropOp40
 70
     1
102
RTVSPost2010Prop41ColorIndex
 90
       18
102
RTVSPost2010Prop41ColorRGB
 90
        0
102
RTVSPost2010PropOp41
 70
     1
102
RTVSPost2010Prop42
 90
       50
102
RTVSPost2010PropOp42
 70
     1
102
RTVSPost2010Prop43
 90
        3
102
RTVSPost2010PropOp43
 70
     1
102
RTVSPost2010Prop44ColorIndex
 90
        5
102
RTVSPost2010Prop44ColorRGB
 90
      255
102
RTVSPost2010PropOp44
 70
     1
102
RTVSPost2010Prop45
280
     0
102
RTVSPost2010PropOp45
 70
     1
102
RTVSPost2010Prop46
 90
       50
102
RTVSPost2010PropOp46
 70
     1
102
RTVSPost2010Prop47
 90
       50
102
RTVSPost2010PropOp47
 70
     1
102
RTVSPost2010Prop48
 90
       50
102
RTVSPost2010PropOp48
 70
     1
102
RTVSPost2010Prop49
280
     0
102
RTVSPost2010PropOp49
 70
     1
102
RTVSPost2010Prop50
 90
       50
102
RTVSPost2010PropOp50
 70
     1
102
RTVSPost2010Prop51ColorIndex
 90
      256
102
RTVSPost2010Prop51ColorRGB
 90
-16777216
102
RTVSPost2010PropOp51
 70
     0
102
RTVSPost2010Prop52
140
1.0
102
RTVSPost2010PropOp52
 70
     0
102
RTVSPost2010Prop53
 90
        2
102
RTVSPost2010PropOp53
 70
     1
102
RTVSPost2010Prop54
  1
strokes_ogs.tif
102
RTVSPost2010PropOp54
 70
     1
102
RTVSPost2010Prop55
280
     0
102
RTVSPost2010PropOp55
 70
     1
102
RTVSPost2010Prop56
140
1.0
102
RTVSPost2010PropOp56
 70
     1
102
RTVSPost2010Prop57
140
1.0
102
RTVSPost2010PropOp57
 70
     1
102
RTVSPropertyOp0
 70
     1
102
RTVSPropertyOp1
 70
     1
102
RTVSPropertyOp2
 70
     1
102
RTVSPropertyOp3
 70
     1
102
RTVSPropertyOp4
 70
     1
102
RTVSPropertyOp5
 70
     1
102
RTVSPropertyOp6
 70
     1
102
RTVSPropertyOp7
 70
     1
102
RTVSPropertyOp8
 70
     1
102
RTVSPropertyOp9
 70
     1
102
RTVSPropertyOp10
 70
     1
102
RTVSPropertyOp11
 70
     1
102
RTVSPropertyOp12
 70
     1
102
RTVSPropertyOp13
 70
     1
102
RTVSPropertyOp14
 70
     1
102
RTVSPropertyOp15
 70
     1
102
RTVSPropertyOp16
 70
     1
102
RTVSPropertyOp17
 70
     1
102
RTVSPropertyOp18
 70
     1
102
RTVSPropertyOp19
 70
     1
102
RTVSPropertyOp20
 70
     1
102
RTVSPropertyOp21
 70
     1
102
RTVSPropertyOp22
 70
     1
102
RTVSPropertyOp23
 70
     1
102
RTVSPropertyOp24
 70
     1
102
RTVSPropertyOp25
 70
     1
102
RTVSPropertyOp26
 70
     1
102
RTVSPropertyOp27
 70
     1
102
RTVSPropertyOp28
 70
     1
102
RTVSPropertyOp29
 70
     1
102
RTVSPropertyOp30
 70
     1
102
RTVSPropertyOp31
 70
     1
102
RTVSPropertyOp32
 70
     1
102
RTVSPropertyOp33
 70
     1
102
RTVSPropertyOp34
 70
     1
102
RTVSPropertyOp35
 70
     1
102
RTVSPropertyOp36
 70
     1
102
RTVSPropertyOp37
 70
     1
102
RTVSPropertyOp38
 70
     1
102
RTVSPropertyOp39
 70
     1
102
RTVSPropertyOp40
 70
     1
102
RTVSPropertyOp41
 70
     1
102
RTVSPropertyOp42
 70
     1
102
RTVSPropertyOp43
 70
     1
102
RTVSPropertyOp44
 70
     1
102
RTVSPropertyOp45
 70
     1
102
RTVSPropertyOp46
 70
     1
102
RTVSPropertyOp47
 70
     1
102
RTVSPropertyOp48
 70
     1
102
RTVSPropertyOp49
 70
     1
102
RTVSPropertyOp50
 70
     1
102
RTVSPropertyOp51
 70
     0
102
RTVSPropertyOp52
 70
     0
102
RTVSPropertyOp53
 70
     1
102
RTVSPropertyOp54
 70
     1
102
RTVSPropertyOp55
 70
     1
102
RTVSPropertyOp56
 70
     1
102
RTVSPropertyOp57
 70
     1
102
RTVSPropertyOp58
 70
     1
102
RTVSPropertyOp59
 70
     1
102
RTVSPropertyOp60
 70
     1
102
RTVSPropertyOp61
 70
     1
102
RTVSPropertyOp62
 70
     1
  0
XRECORD
  5
FB5D
102
{ACAD_REACTORS
330
FB5C
102
}
330
FB5C
100
AcDbXrecord
280
     1
102
RTVSPost2010Prop28
280
     0
102
RTVSPost2010PropOp28
 70
     1
102
RTVSPost2010Prop29
280
     1
102
RTVSPost2010PropOp29
 70
     1
102
RTVSPost2010Prop30
280
     1
102
RTVSPost2010PropOp30
 70
     1
102
RTVSPost2010Prop31
280
     0
102
RTVSPost2010PropOp31
 70
     1
102
RTVSPost2010Prop32
280
     0
102
RTVSPost2010PropOp32
 70
     1
102
RTVSPost2010Prop33
280
     0
102
RTVSPost2010PropOp33
 70
     1
102
RTVSPost2010Prop34
280
     0
102
RTVSPost2010PropOp34
 70
     1
102
RTVSPost2010Prop35
280
     0
102
RTVSPost2010PropOp35
 70
     1
102
RTVSPost2010Prop36
280
     0
102
RTVSPost2010PropOp36
 70
     1
102
RTVSPost2010Prop37
 90
       50
102
RTVSPost2010PropOp37
 70
     1
102
RTVSPost2010Prop38
140
0.0
102
RTVSPost2010PropOp38
 70
     1
102
RTVSPost2010Prop39
140
1.0
102
RTVSPost2010PropOp39
 70
     1
102
RTVSPost2010Prop40
 90
        0
102
RTVSPost2010PropOp40
 70
     1
102
RTVSPost2010Prop41ColorIndex
 90
       18
102
RTVSPost2010Prop41ColorRGB
 90
        0
102
RTVSPost2010PropOp41
 70
     1
102
RTVSPost2010Prop42
 90
       50
102
RTVSPost2010PropOp42
 70
     1
102
RTVSPost2010Prop43
 90
        3
102
RTVSPost2010PropOp43
 70
     1
102
RTVSPost2010Prop44ColorIndex
 90
        5
102
RTVSPost2010Prop44ColorRGB
 90
      255
102
RTVSPost2010PropOp44
 70
     1
102
RTVSPost2010Prop45
280
     0
102
RTVSPost2010PropOp45
 70
     1
102
RTVSPost2010Prop46
 90
       50
102
RTVSPost2010PropOp46
 70
     1
102
RTVSPost2010Prop47
 90
       50
102
RTVSPost2010PropOp47
 70
     1
102
RTVSPost2010Prop48
 90
       50
102
RTVSPost2010PropOp48
 70
     1
102
RTVSPost2010Prop49
280
     0
102
RTVSPost2010PropOp49
 70
     1
102
RTVSPost2010Prop50
 90
       50
102
RTVSPost2010PropOp50
 70
     1
102
RTVSPost2010Prop51ColorIndex
 90
      256
102
RTVSPost2010Prop51ColorRGB
 90
-16777216
102
RTVSPost2010PropOp51
 70
     0
102
RTVSPost2010Prop52
140
1.0
102
RTVSPost2010PropOp52
 70
     0
102
RTVSPost2010Prop53
 90
        2
102
RTVSPost2010PropOp53
 70
     1
102
RTVSPost2010Prop54
  1
strokes_ogs.tif
102
RTVSPost2010PropOp54
 70
     1
102
RTVSPost2010Prop55
280
     0
102
RTVSPost2010PropOp55
 70
     1
102
RTVSPost2010Prop56
140
1.0
102
RTVSPost2010PropOp56
 70
     1
102
RTVSPost2010Prop57
140
1.0
102
RTVSPost2010PropOp57
 70
     1
102
RTVSPropertyOp0
 70
     1
102
RTVSPropertyOp1
 70
     1
102
RTVSPropertyOp2
 70
     1
102
RTVSPropertyOp3
 70
     1
102
RTVSPropertyOp4
 70
     1
102
RTVSPropertyOp5
 70
     1
102
RTVSPropertyOp6
 70
     1
102
RTVSPropertyOp7
 70
     1
102
RTVSPropertyOp8
 70
     1
102
RTVSPropertyOp9
 70
     1
102
RTVSPropertyOp10
 70
     1
102
RTVSPropertyOp11
 70
     1
102
RTVSPropertyOp12
 70
     1
102
RTVSPropertyOp13
 70
     1
102
RTVSPropertyOp14
 70
     1
102
RTVSPropertyOp15
 70
     1
102
RTVSPropertyOp16
 70
     1
102
RTVSPropertyOp17
 70
     1
102
RTVSPropertyOp18
 70
     1
102
RTVSPropertyOp19
 70
     1
102
RTVSPropertyOp20
 70
     1
102
RTVSPropertyOp21
 70
     1
102
RTVSPropertyOp22
 70
     1
102
RTVSPropertyOp23
 70
     1
102
RTVSPropertyOp24
 70
     1
102
RTVSPropertyOp25
 70
     1
102
RTVSPropertyOp26
 70
     1
102
RTVSPropertyOp27
 70
     1
102
RTVSPropertyOp28
 70
     1
102
RTVSPropertyOp29
 70
     1
102
RTVSPropertyOp30
 70
     1
102
RTVSPropertyOp31
 70
     1
102
RTVSPropertyOp32
 70
     1
102
RTVSPropertyOp33
 70
     1
102
RTVSPropertyOp34
 70
     1
102
RTVSPropertyOp35
 70
     1
102
RTVSPropertyOp36
 70
     1
102
RTVSPropertyOp37
 70
     1
102
RTVSPropertyOp38
 70
     1
102
RTVSPropertyOp39
 70
     1
102
RTVSPropertyOp40
 70
     1
102
RTVSPropertyOp41
 70
     1
102
RTVSPropertyOp42
 70
     1
102
RTVSPropertyOp43
 70
     1
102
RTVSPropertyOp44
 70
     1
102
RTVSPropertyOp45
 70
     1
102
RTVSPropertyOp46
 70
     1
102
RTVSPropertyOp47
 70
     1
102
RTVSPropertyOp48
 70
     1
102
RTVSPropertyOp49
 70
     1
102
RTVSPropertyOp50
 70
     1
102
RTVSPropertyOp51
 70
     0
102
RTVSPropertyOp52
 70
     0
102
RTVSPropertyOp53
 70
     1
102
RTVSPropertyOp54
 70
     1
102
RTVSPropertyOp55
 70
     1
102
RTVSPropertyOp56
 70
     1
102
RTVSPropertyOp57
 70
     1
102
RTVSPropertyOp58
 70
     1
102
RTVSPropertyOp59
 70
     1
102
RTVSPropertyOp60
 70
     1
102
RTVSPropertyOp61
 70
     1
102
RTVSPropertyOp62
 70
     1
  0
XRECORD
  5
FB5F
102
{ACAD_REACTORS
330
FB5E
102
}
330
FB5E
100
AcDbXrecord
280
     1
102
RTVSPost2010Prop28
280
     0
102
RTVSPost2010PropOp28
 70
     1
102
RTVSPost2010Prop29
280
     1
102
RTVSPost2010PropOp29
 70
     1
102
RTVSPost2010Prop30
280
     1
102
RTVSPost2010PropOp30
 70
     1
102
RTVSPost2010Prop31
280
     0
102
RTVSPost2010PropOp31
 70
     1
102
RTVSPost2010Prop32
280
     0
102
RTVSPost2010PropOp32
 70
     1
102
RTVSPost2010Prop33
280
     0
102
RTVSPost2010PropOp33
 70
     1
102
RTVSPost2010Prop34
280
     0
102
RTVSPost2010PropOp34
 70
     1
102
RTVSPost2010Prop35
280
     0
102
RTVSPost2010PropOp35
 70
     1
102
RTVSPost2010Prop36
280
     0
102
RTVSPost2010PropOp36
 70
     1
102
RTVSPost2010Prop37
 90
       50
102
RTVSPost2010PropOp37
 70
     1
102
RTVSPost2010Prop38
140
0.0
102
RTVSPost2010PropOp38
 70
     1
102
RTVSPost2010Prop39
140
1.0
102
RTVSPost2010PropOp39
 70
     1
102
RTVSPost2010Prop40
 90
        0
102
RTVSPost2010PropOp40
 70
     1
102
RTVSPost2010Prop41ColorIndex
 90
       18
102
RTVSPost2010Prop41ColorRGB
 90
        0
102
RTVSPost2010PropOp41
 70
     1
102
RTVSPost2010Prop42
 90
       50
102
RTVSPost2010PropOp42
 70
     1
102
RTVSPost2010Prop43
 90
        3
102
RTVSPost2010PropOp43
 70
     1
102
RTVSPost2010Prop44ColorIndex
 90
        5
102
RTVSPost2010Prop44ColorRGB
 90
      255
102
RTVSPost2010PropOp44
 70
     1
102
RTVSPost2010Prop45
280
     0
102
RTVSPost2010PropOp45
 70
     1
102
RTVSPost2010Prop46
 90
       50
102
RTVSPost2010PropOp46
 70
     1
102
RTVSPost2010Prop47
 90
       50
102
RTVSPost2010PropOp47
 70
     1
102
RTVSPost2010Prop48
 90
       50
102
RTVSPost2010PropOp48
 70
     1
102
RTVSPost2010Prop49
280
     0
102
RTVSPost2010PropOp49
 70
     1
102
RTVSPost2010Prop50
 90
       50
102
RTVSPost2010PropOp50
 70
     1
102
RTVSPost2010Prop51ColorIndex
 90
      256
102
RTVSPost2010Prop51ColorRGB
 90
-16777216
102
RTVSPost2010PropOp51
 70
     0
102
RTVSPost2010Prop52
140
1.0
102
RTVSPost2010PropOp52
 70
     0
102
RTVSPost2010Prop53
 90
        2
102
RTVSPost2010PropOp53
 70
     1
102
RTVSPost2010Prop54
  1
strokes_ogs.tif
102
RTVSPost2010PropOp54
 70
     1
102
RTVSPost2010Prop55
280
     0
102
RTVSPost2010PropOp55
 70
     1
102
RTVSPost2010Prop56
140
1.0
102
RTVSPost2010PropOp56
 70
     1
102
RTVSPost2010Prop57
140
1.0
102
RTVSPost2010PropOp57
 70
     1
102
RTVSPropertyOp0
 70
     1
102
RTVSPropertyOp1
 70
     1
102
RTVSPropertyOp2
 70
     1
102
RTVSPropertyOp3
 70
     1
102
RTVSPropertyOp4
 70
     1
102
RTVSPropertyOp5
 70
     1
102
RTVSPropertyOp6
 70
     1
102
RTVSPropertyOp7
 70
     1
102
RTVSPropertyOp8
 70
     1
102
RTVSPropertyOp9
 70
     1
102
RTVSPropertyOp10
 70
     1
102
RTVSPropertyOp11
 70
     1
102
RTVSPropertyOp12
 70
     1
102
RTVSPropertyOp13
 70
     1
102
RTVSPropertyOp14
 70
     1
102
RTVSPropertyOp15
 70
     1
102
RTVSPropertyOp16
 70
     1
102
RTVSPropertyOp17
 70
     1
102
RTVSPropertyOp18
 70
     1
102
RTVSPropertyOp19
 70
     1
102
RTVSPropertyOp20
 70
     1
102
RTVSPropertyOp21
 70
     1
102
RTVSPropertyOp22
 70
     1
102
RTVSPropertyOp23
 70
     1
102
RTVSPropertyOp24
 70
     1
102
RTVSPropertyOp25
 70
     1
102
RTVSPropertyOp26
 70
     1
102
RTVSPropertyOp27
 70
     1
102
RTVSPropertyOp28
 70
     1
102
RTVSPropertyOp29
 70
     1
102
RTVSPropertyOp30
 70
     1
102
RTVSPropertyOp31
 70
     1
102
RTVSPropertyOp32
 70
     1
102
RTVSPropertyOp33
 70
     1
102
RTVSPropertyOp34
 70
     1
102
RTVSPropertyOp35
 70
     1
102
RTVSPropertyOp36
 70
     1
102
RTVSPropertyOp37
 70
     1
102
RTVSPropertyOp38
 70
     1
102
RTVSPropertyOp39
 70
     1
102
RTVSPropertyOp40
 70
     1
102
RTVSPropertyOp41
 70
     1
102
RTVSPropertyOp42
 70
     1
102
RTVSPropertyOp43
 70
     1
102
RTVSPropertyOp44
 70
     1
102
RTVSPropertyOp45
 70
     1
102
RTVSPropertyOp46
 70
     1
102
RTVSPropertyOp47
 70
     1
102
RTVSPropertyOp48
 70
     1
102
RTVSPropertyOp49
 70
     1
102
RTVSPropertyOp50
 70
     1
102
RTVSPropertyOp51
 70
     0
102
RTVSPropertyOp52
 70
     0
102
RTVSPropertyOp53
 70
     1
102
RTVSPropertyOp54
 70
     1
102
RTVSPropertyOp55
 70
     1
102
RTVSPropertyOp56
 70
     1
102
RTVSPropertyOp57
 70
     1
102
RTVSPropertyOp58
 70
     1
102
RTVSPropertyOp59
 70
     1
102
RTVSPropertyOp60
 70
     1
102
RTVSPropertyOp61
 70
     1
102
RTVSPropertyOp62
 70
     1
  0
XRECORD
  5
FB67
102
{ACAD_REACTORS
330
FB66
102
}
330
FB66
100
AcDbXrecord
280
     1
102
RTVSPost2010Prop28
280
     0
102
RTVSPost2010PropOp28
 70
     1
102
RTVSPost2010Prop29
280
     1
102
RTVSPost2010PropOp29
 70
     1
102
RTVSPost2010Prop30
280
     1
102
RTVSPost2010PropOp30
 70
     1
102
RTVSPost2010Prop31
280
     0
102
RTVSPost2010PropOp31
 70
     1
102
RTVSPost2010Prop32
280
     0
102
RTVSPost2010PropOp32
 70
     1
102
RTVSPost2010Prop33
280
     0
102
RTVSPost2010PropOp33
 70
     1
102
RTVSPost2010Prop34
280
     0
102
RTVSPost2010PropOp34
 70
     1
102
RTVSPost2010Prop35
280
     0
102
RTVSPost2010PropOp35
 70
     1
102
RTVSPost2010Prop36
280
     0
102
RTVSPost2010PropOp36
 70
     1
102
RTVSPost2010Prop37
 90
       50
102
RTVSPost2010PropOp37
 70
     1
102
RTVSPost2010Prop38
140
0.0
102
RTVSPost2010PropOp38
 70
     1
102
RTVSPost2010Prop39
140
1.0
102
RTVSPost2010PropOp39
 70
     1
102
RTVSPost2010Prop40
 90
        0
102
RTVSPost2010PropOp40
 70
     1
102
RTVSPost2010Prop41ColorIndex
 90
       18
102
RTVSPost2010Prop41ColorRGB
 90
        0
102
RTVSPost2010PropOp41
 70
     1
102
RTVSPost2010Prop42
 90
       50
102
RTVSPost2010PropOp42
 70
     1
102
RTVSPost2010Prop43
 90
        3
102
RTVSPost2010PropOp43
 70
     1
102
RTVSPost2010Prop44ColorIndex
 90
        5
102
RTVSPost2010Prop44ColorRGB
 90
      255
102
RTVSPost2010PropOp44
 70
     1
102
RTVSPost2010Prop45
280
     0
102
RTVSPost2010PropOp45
 70
     1
102
RTVSPost2010Prop46
 90
       50
102
RTVSPost2010PropOp46
 70
     1
102
RTVSPost2010Prop47
 90
       50
102
RTVSPost2010PropOp47
 70
     1
102
RTVSPost2010Prop48
 90
       50
102
RTVSPost2010PropOp48
 70
     1
102
RTVSPost2010Prop49
280
     0
102
RTVSPost2010PropOp49
 70
     1
102
RTVSPost2010Prop50
 90
       50
102
RTVSPost2010PropOp50
 70
     1
102
RTVSPost2010Prop51ColorIndex
 90
      256
102
RTVSPost2010Prop51ColorRGB
 90
-16777216
102
RTVSPost2010PropOp51
 70
     0
102
RTVSPost2010Prop52
140
1.0
102
RTVSPost2010PropOp52
 70
     0
102
RTVSPost2010Prop53
 90
        2
102
RTVSPost2010PropOp53
 70
     1
102
RTVSPost2010Prop54
  1
strokes_ogs.tif
102
RTVSPost2010PropOp54
 70
     1
102
RTVSPost2010Prop55
280
     0
102
RTVSPost2010PropOp55
 70
     1
102
RTVSPost2010Prop56
140
1.0
102
RTVSPost2010PropOp56
 70
     1
102
RTVSPost2010Prop57
140
1.0
102
RTVSPost2010PropOp57
 70
     1
102
RTVSPropertyOp0
 70
     1
102
RTVSPropertyOp1
 70
     1
102
RTVSPropertyOp2
 70
     1
102
RTVSPropertyOp3
 70
     1
102
RTVSPropertyOp4
 70
     1
102
RTVSPropertyOp5
 70
     1
102
RTVSPropertyOp6
 70
     1
102
RTVSPropertyOp7
 70
     1
102
RTVSPropertyOp8
 70
     1
102
RTVSPropertyOp9
 70
     1
102
RTVSPropertyOp10
 70
     1
102
RTVSPropertyOp11
 70
     1
102
RTVSPropertyOp12
 70
     1
102
RTVSPropertyOp13
 70
     1
102
RTVSPropertyOp14
 70
     1
102
RTVSPropertyOp15
 70
     1
102
RTVSPropertyOp16
 70
     1
102
RTVSPropertyOp17
 70
     1
102
RTVSPropertyOp18
 70
     1
102
RTVSPropertyOp19
 70
     1
102
RTVSPropertyOp20
 70
     1
102
RTVSPropertyOp21
 70
     1
102
RTVSPropertyOp22
 70
     1
102
RTVSPropertyOp23
 70
     1
102
RTVSPropertyOp24
 70
     1
102
RTVSPropertyOp25
 70
     1
102
RTVSPropertyOp26
 70
     1
102
RTVSPropertyOp27
 70
     1
102
RTVSPropertyOp28
 70
     1
102
RTVSPropertyOp29
 70
     1
102
RTVSPropertyOp30
 70
     1
102
RTVSPropertyOp31
 70
     1
102
RTVSPropertyOp32
 70
     1
102
RTVSPropertyOp33
 70
     1
102
RTVSPropertyOp34
 70
     1
102
RTVSPropertyOp35
 70
     1
102
RTVSPropertyOp36
 70
     1
102
RTVSPropertyOp37
 70
     1
102
RTVSPropertyOp38
 70
     1
102
RTVSPropertyOp39
 70
     1
102
RTVSPropertyOp40
 70
     1
102
RTVSPropertyOp41
 70
     1
102
RTVSPropertyOp42
 70
     1
102
RTVSPropertyOp43
 70
     1
102
RTVSPropertyOp44
 70
     1
102
RTVSPropertyOp45
 70
     1
102
RTVSPropertyOp46
 70
     1
102
RTVSPropertyOp47
 70
     1
102
RTVSPropertyOp48
 70
     1
102
RTVSPropertyOp49
 70
     1
102
RTVSPropertyOp50
 70
     1
102
RTVSPropertyOp51
 70
     0
102
RTVSPropertyOp52
 70
     0
102
RTVSPropertyOp53
 70
     1
102
RTVSPropertyOp54
 70
     1
102
RTVSPropertyOp55
 70
     1
102
RTVSPropertyOp56
 70
     1
102
RTVSPropertyOp57
 70
     1
102
RTVSPropertyOp58
 70
     1
102
RTVSPropertyOp59
 70
     1
102
RTVSPropertyOp60
 70
     1
102
RTVSPropertyOp61
 70
     1
102
RTVSPropertyOp62
 70
     1
  0
XRECORD
  5
FB83
102
{ACAD_REACTORS
330
FB82
102
}
330
FB82
100
AcDbXrecord
280
     1
102
RTVSPost2010Prop28
280
     0
102
RTVSPost2010PropOp28
 70
     1
102
RTVSPost2010Prop29
280
     1
102
RTVSPost2010PropOp29
 70
     1
102
RTVSPost2010Prop30
280
     1
102
RTVSPost2010PropOp30
 70
     1
102
RTVSPost2010Prop31
280
     0
102
RTVSPost2010PropOp31
 70
     1
102
RTVSPost2010Prop32
280
     0
102
RTVSPost2010PropOp32
 70
     1
102
RTVSPost2010Prop33
280
     0
102
RTVSPost2010PropOp33
 70
     1
102
RTVSPost2010Prop34
280
     0
102
RTVSPost2010PropOp34
 70
     1
102
RTVSPost2010Prop35
280
     0
102
RTVSPost2010PropOp35
 70
     1
102
RTVSPost2010Prop36
280
     0
102
RTVSPost2010PropOp36
 70
     1
102
RTVSPost2010Prop37
 90
       50
102
RTVSPost2010PropOp37
 70
     0
102
RTVSPost2010Prop38
140
0.0
102
RTVSPost2010PropOp38
 70
     0
102
RTVSPost2010Prop39
140
1.0
102
RTVSPost2010PropOp39
 70
     0
102
RTVSPost2010Prop40
 90
        0
102
RTVSPost2010PropOp40
 70
     0
102
RTVSPost2010Prop41ColorIndex
 90
       18
102
RTVSPost2010Prop41ColorRGB
 90
        0
102
RTVSPost2010PropOp41
 70
     0
102
RTVSPost2010Prop42
 90
       50
102
RTVSPost2010PropOp42
 70
     0
102
RTVSPost2010Prop43
 90
        3
102
RTVSPost2010PropOp43
 70
     0
102
RTVSPost2010Prop44ColorIndex
 90
        5
102
RTVSPost2010Prop44ColorRGB
 90
      255
102
RTVSPost2010PropOp44
 70
     0
102
RTVSPost2010Prop45
280
     0
102
RTVSPost2010PropOp45
 70
     1
102
RTVSPost2010Prop46
 90
       50
102
RTVSPost2010PropOp46
 70
     0
102
RTVSPost2010Prop47
 90
       50
102
RTVSPost2010PropOp47
 70
     0
102
RTVSPost2010Prop48
 90
       50
102
RTVSPost2010PropOp48
 70
     0
102
RTVSPost2010Prop49
280
     0
102
RTVSPost2010PropOp49
 70
     1
102
RTVSPost2010Prop50
 90
       50
102
RTVSPost2010PropOp50
 70
     0
102
RTVSPost2010Prop51ColorIndex
 90
      256
102
RTVSPost2010Prop51ColorRGB
 90
-16777216
102
RTVSPost2010PropOp51
 70
     0
102
RTVSPost2010Prop52
140
1.0
102
RTVSPost2010PropOp52
 70
     0
102
RTVSPost2010Prop53
 90
        2
102
RTVSPost2010PropOp53
 70
     0
102
RTVSPost2010Prop54
  1
strokes_ogs.tif
102
RTVSPost2010PropOp54
 70
     0
102
RTVSPost2010Prop55
280
     0
102
RTVSPost2010PropOp55
 70
     1
102
RTVSPost2010Prop56
140
1.0
102
RTVSPost2010PropOp56
 70
     0
102
RTVSPost2010Prop57
140
1.0
102
RTVSPost2010PropOp57
 70
     0
102
RTVSPropertyOp0
 70
     0
102
RTVSPropertyOp1
 70
     0
102
RTVSPropertyOp2
 70
     0
102
RTVSPropertyOp3
 70
     0
102
RTVSPropertyOp4
 70
     0
102
RTVSPropertyOp5
 70
     0
102
RTVSPropertyOp6
 70
     0
102
RTVSPropertyOp7
 70
     0
102
RTVSPropertyOp8
 70
     0
102
RTVSPropertyOp9
 70
     0
102
RTVSPropertyOp10
 70
     0
102
RTVSPropertyOp11
 70
     0
102
RTVSPropertyOp12
 70
     0
102
RTVSPropertyOp13
 70
     0
102
RTVSPropertyOp14
 70
     2
102
RTVSPropertyOp15
 70
     0
102
RTVSPropertyOp16
 70
     0
102
RTVSPropertyOp17
 70
     0
102
RTVSPropertyOp18
 70
     0
102
RTVSPropertyOp19
 70
     0
102
RTVSPropertyOp20
 70
     0
102
RTVSPropertyOp21
 70
     0
102
RTVSPropertyOp22
 70
     0
102
RTVSPropertyOp23
 70
     0
102
RTVSPropertyOp24
 70
     0
102
RTVSPropertyOp25
 70
     0
102
RTVSPropertyOp26
 70
     0
102
RTVSPropertyOp27
 70
     0
102
RTVSPropertyOp28
 70
     1
102
RTVSPropertyOp29
 70
     1
102
RTVSPropertyOp30
 70
     1
102
RTVSPropertyOp31
 70
     1
102
RTVSPropertyOp32
 70
     1
102
RTVSPropertyOp33
 70
     1
102
RTVSPropertyOp34
 70
     1
102
RTVSPropertyOp35
 70
     1
102
RTVSPropertyOp36
 70
     1
102
RTVSPropertyOp37
 70
     0
102
RTVSPropertyOp38
 70
     0
102
RTVSPropertyOp39
 70
     0
102
RTVSPropertyOp40
 70
     0
102
RTVSPropertyOp41
 70
     0
102
RTVSPropertyOp42
 70
     0
102
RTVSPropertyOp43
 70
     0
102
RTVSPropertyOp44
 70
     0
102
RTVSPropertyOp45
 70
     1
102
RTVSPropertyOp46
 70
     0
102
RTVSPropertyOp47
 70
     0
102
RTVSPropertyOp48
 70
     0
102
RTVSPropertyOp49
 70
     1
102
RTVSPropertyOp50
 70
     0
102
RTVSPropertyOp51
 70
     0
102
RTVSPropertyOp52
 70
     0
102
RTVSPropertyOp53
 70
     0
102
RTVSPropertyOp54
 70
     0
102
RTVSPropertyOp55
 70
     1
102
RTVSPropertyOp56
 70
     0
102
RTVSPropertyOp57
 70
     0
102
RTVSPropertyOp58
 70
     0
102
RTVSPropertyOp59
 70
     0
102
RTVSPropertyOp60
 70
     0
102
RTVSPropertyOp61
 70
     0
102
RTVSPropertyOp62
 70
     0
  0
XRECORD
  5
FB73
102
{ACAD_REACTORS
330
FB72
102
}
330
FB72
100
AcDbXrecord
280
     1
102
RTVSPost2010Prop28
280
     0
102
RTVSPost2010PropOp28
 70
     1
102
RTVSPost2010Prop29
280
     1
102
RTVSPost2010PropOp29
 70
     1
102
RTVSPost2010Prop30
280
     1
102
RTVSPost2010PropOp30
 70
     1
102
RTVSPost2010Prop31
280
     0
102
RTVSPost2010PropOp31
 70
     1
102
RTVSPost2010Prop32
280
     0
102
RTVSPost2010PropOp32
 70
     1
102
RTVSPost2010Prop33
280
     0
102
RTVSPost2010PropOp33
 70
     1
102
RTVSPost2010Prop34
280
     0
102
RTVSPost2010PropOp34
 70
     1
102
RTVSPost2010Prop35
280
     0
102
RTVSPost2010PropOp35
 70
     1
102
RTVSPost2010Prop36
280
     0
102
RTVSPost2010PropOp36
 70
     1
102
RTVSPost2010Prop37
 90
       50
102
RTVSPost2010PropOp37
 70
     1
102
RTVSPost2010Prop38
140
0.0
102
RTVSPost2010PropOp38
 70
     1
102
RTVSPost2010Prop39
140
1.0
102
RTVSPost2010PropOp39
 70
     1
102
RTVSPost2010Prop40
 90
        0
102
RTVSPost2010PropOp40
 70
     1
102
RTVSPost2010Prop41ColorIndex
 90
       18
102
RTVSPost2010Prop41ColorRGB
 90
        0
102
RTVSPost2010PropOp41
 70
     1
102
RTVSPost2010Prop42
 90
       50
102
RTVSPost2010PropOp42
 70
     1
102
RTVSPost2010Prop43
 90
        3
102
RTVSPost2010PropOp43
 70
     1
102
RTVSPost2010Prop44ColorIndex
 90
        5
102
RTVSPost2010Prop44ColorRGB
 90
      255
102
RTVSPost2010PropOp44
 70
     1
102
RTVSPost2010Prop45
280
     0
102
RTVSPost2010PropOp45
 70
     1
102
RTVSPost2010Prop46
 90
       50
102
RTVSPost2010PropOp46
 70
     1
102
RTVSPost2010Prop47
 90
       50
102
RTVSPost2010PropOp47
 70
     1
102
RTVSPost2010Prop48
 90
       50
102
RTVSPost2010PropOp48
 70
     1
102
RTVSPost2010Prop49
280
     0
102
RTVSPost2010PropOp49
 70
     1
102
RTVSPost2010Prop50
 90
       50
102
RTVSPost2010PropOp50
 70
     1
102
RTVSPost2010Prop51ColorIndex
 90
      256
102
RTVSPost2010Prop51ColorRGB
 90
-16777216
102
RTVSPost2010PropOp51
 70
     0
102
RTVSPost2010Prop52
140
1.0
102
RTVSPost2010PropOp52
 70
     0
102
RTVSPost2010Prop53
 90
        2
102
RTVSPost2010PropOp53
 70
     1
102
RTVSPost2010Prop54
  1
strokes_ogs.tif
102
RTVSPost2010PropOp54
 70
     1
102
RTVSPost2010Prop55
280
     0
102
RTVSPost2010PropOp55
 70
     1
102
RTVSPost2010Prop56
140
1.0
102
RTVSPost2010PropOp56
 70
     1
102
RTVSPost2010Prop57
140
1.0
102
RTVSPost2010PropOp57
 70
     1
102
RTVSPropertyOp0
 70
     1
102
RTVSPropertyOp1
 70
     1
102
RTVSPropertyOp2
 70
     1
102
RTVSPropertyOp3
 70
     1
102
RTVSPropertyOp4
 70
     1
102
RTVSPropertyOp5
 70
     1
102
RTVSPropertyOp6
 70
     1
102
RTVSPropertyOp7
 70
     1
102
RTVSPropertyOp8
 70
     1
102
RTVSPropertyOp9
 70
     1
102
RTVSPropertyOp10
 70
     1
102
RTVSPropertyOp11
 70
     1
102
RTVSPropertyOp12
 70
     1
102
RTVSPropertyOp13
 70
     1
102
RTVSPropertyOp14
 70
     1
102
RTVSPropertyOp15
 70
     1
102
RTVSPropertyOp16
 70
     1
102
RTVSPropertyOp17
 70
     1
102
RTVSPropertyOp18
 70
     1
102
RTVSPropertyOp19
 70
     1
102
RTVSPropertyOp20
 70
     1
102
RTVSPropertyOp21
 70
     1
102
RTVSPropertyOp22
 70
     1
102
RTVSPropertyOp23
 70
     1
102
RTVSPropertyOp24
 70
     1
102
RTVSPropertyOp25
 70
     1
102
RTVSPropertyOp26
 70
     1
102
RTVSPropertyOp27
 70
     1
102
RTVSPropertyOp28
 70
     1
102
RTVSPropertyOp29
 70
     1
102
RTVSPropertyOp30
 70
     1
102
RTVSPropertyOp31
 70
     1
102
RTVSPropertyOp32
 70
     1
102
RTVSPropertyOp33
 70
     1
102
RTVSPropertyOp34
 70
     1
102
RTVSPropertyOp35
 70
     1
102
RTVSPropertyOp36
 70
     1
102
RTVSPropertyOp37
 70
     1
102
RTVSPropertyOp38
 70
     1
102
RTVSPropertyOp39
 70
     1
102
RTVSPropertyOp40
 70
     1
102
RTVSPropertyOp41
 70
     1
102
RTVSPropertyOp42
 70
     1
102
RTVSPropertyOp43
 70
     1
102
RTVSPropertyOp44
 70
     1
102
RTVSPropertyOp45
 70
     1
102
RTVSPropertyOp46
 70
     1
102
RTVSPropertyOp47
 70
     1
102
RTVSPropertyOp48
 70
     1
102
RTVSPropertyOp49
 70
     1
102
RTVSPropertyOp50
 70
     1
102
RTVSPropertyOp51
 70
     0
102
RTVSPropertyOp52
 70
     0
102
RTVSPropertyOp53
 70
     1
102
RTVSPropertyOp54
 70
     1
102
RTVSPropertyOp55
 70
     1
102
RTVSPropertyOp56
 70
     1
102
RTVSPropertyOp57
 70
     1
102
RTVSPropertyOp58
 70
     1
102
RTVSPropertyOp59
 70
     1
102
RTVSPropertyOp60
 70
     1
102
RTVSPropertyOp61
 70
     1
102
RTVSPropertyOp62
 70
     1
  0
XRECORD
  5
FB85
102
{ACAD_REACTORS
330
FB84
102
}
330
FB84
100
AcDbXrecord
280
     1
102
RTVSPost2010Prop28
280
     0
102
RTVSPost2010PropOp28
 70
     1
102
RTVSPost2010Prop29
280
     1
102
RTVSPost2010PropOp29
 70
     1
102
RTVSPost2010Prop30
280
     1
102
RTVSPost2010PropOp30
 70
     1
102
RTVSPost2010Prop31
280
     0
102
RTVSPost2010PropOp31
 70
     1
102
RTVSPost2010Prop32
280
     0
102
RTVSPost2010PropOp32
 70
     1
102
RTVSPost2010Prop33
280
     0
102
RTVSPost2010PropOp33
 70
     1
102
RTVSPost2010Prop34
280
     0
102
RTVSPost2010PropOp34
 70
     1
102
RTVSPost2010Prop35
280
     0
102
RTVSPost2010PropOp35
 70
     1
102
RTVSPost2010Prop36
280
     0
102
RTVSPost2010PropOp36
 70
     1
102
RTVSPost2010Prop37
 90
       50
102
RTVSPost2010PropOp37
 70
     0
102
RTVSPost2010Prop38
140
0.0
102
RTVSPost2010PropOp38
 70
     0
102
RTVSPost2010Prop39
140
1.0
102
RTVSPost2010PropOp39
 70
     0
102
RTVSPost2010Prop40
 90
        0
102
RTVSPost2010PropOp40
 70
     0
102
RTVSPost2010Prop41ColorIndex
 90
       18
102
RTVSPost2010Prop41ColorRGB
 90
        0
102
RTVSPost2010PropOp41
 70
     0
102
RTVSPost2010Prop42
 90
       50
102
RTVSPost2010PropOp42
 70
     0
102
RTVSPost2010Prop43
 90
        3
102
RTVSPost2010PropOp43
 70
     0
102
RTVSPost2010Prop44ColorIndex
 90
        5
102
RTVSPost2010Prop44ColorRGB
 90
      255
102
RTVSPost2010PropOp44
 70
     0
102
RTVSPost2010Prop45
280
     0
102
RTVSPost2010PropOp45
 70
     1
102
RTVSPost2010Prop46
 90
       50
102
RTVSPost2010PropOp46
 70
     0
102
RTVSPost2010Prop47
 90
       50
102
RTVSPost2010PropOp47
 70
     0
102
RTVSPost2010Prop48
 90
       50
102
RTVSPost2010PropOp48
 70
     0
102
RTVSPost2010Prop49
280
     0
102
RTVSPost2010PropOp49
 70
     1
102
RTVSPost2010Prop50
 90
       50
102
RTVSPost2010PropOp50
 70
     0
102
RTVSPost2010Prop51ColorIndex
 90
      256
102
RTVSPost2010Prop51ColorRGB
 90
-16777216
102
RTVSPost2010PropOp51
 70
     0
102
RTVSPost2010Prop52
140
1.0
102
RTVSPost2010PropOp52
 70
     0
102
RTVSPost2010Prop53
 90
        2
102
RTVSPost2010PropOp53
 70
     0
102
RTVSPost2010Prop54
  1
strokes_ogs.tif
102
RTVSPost2010PropOp54
 70
     0
102
RTVSPost2010Prop55
280
     0
102
RTVSPost2010PropOp55
 70
     1
102
RTVSPost2010Prop56
140
1.0
102
RTVSPost2010PropOp56
 70
     0
102
RTVSPost2010Prop57
140
1.0
102
RTVSPost2010PropOp57
 70
     0
102
RTVSPropertyOp0
 70
     0
102
RTVSPropertyOp1
 70
     0
102
RTVSPropertyOp2
 70
     0
102
RTVSPropertyOp3
 70
     0
102
RTVSPropertyOp4
 70
     0
102
RTVSPropertyOp5
 70
     0
102
RTVSPropertyOp6
 70
     0
102
RTVSPropertyOp7
 70
     0
102
RTVSPropertyOp8
 70
     0
102
RTVSPropertyOp9
 70
     0
102
RTVSPropertyOp10
 70
     0
102
RTVSPropertyOp11
 70
     0
102
RTVSPropertyOp12
 70
     0
102
RTVSPropertyOp13
 70
     0
102
RTVSPropertyOp14
 70
     2
102
RTVSPropertyOp15
 70
     0
102
RTVSPropertyOp16
 70
     0
102
RTVSPropertyOp17
 70
     0
102
RTVSPropertyOp18
 70
     0
102
RTVSPropertyOp19
 70
     0
102
RTVSPropertyOp20
 70
     0
102
RTVSPropertyOp21
 70
     0
102
RTVSPropertyOp22
 70
     0
102
RTVSPropertyOp23
 70
     0
102
RTVSPropertyOp24
 70
     0
102
RTVSPropertyOp25
 70
     0
102
RTVSPropertyOp26
 70
     0
102
RTVSPropertyOp27
 70
     0
102
RTVSPropertyOp28
 70
     1
102
RTVSPropertyOp29
 70
     1
102
RTVSPropertyOp30
 70
     1
102
RTVSPropertyOp31
 70
     1
102
RTVSPropertyOp32
 70
     1
102
RTVSPropertyOp33
 70
     1
102
RTVSPropertyOp34
 70
     1
102
RTVSPropertyOp35
 70
     1
102
RTVSPropertyOp36
 70
     1
102
RTVSPropertyOp37
 70
     0
102
RTVSPropertyOp38
 70
     0
102
RTVSPropertyOp39
 70
     0
102
RTVSPropertyOp40
 70
     0
102
RTVSPropertyOp41
 70
     0
102
RTVSPropertyOp42
 70
     0
102
RTVSPropertyOp43
 70
     0
102
RTVSPropertyOp44
 70
     0
102
RTVSPropertyOp45
 70
     1
102
RTVSPropertyOp46
 70
     0
102
RTVSPropertyOp47
 70
     0
102
RTVSPropertyOp48
 70
     0
102
RTVSPropertyOp49
 70
     1
102
RTVSPropertyOp50
 70
     0
102
RTVSPropertyOp51
 70
     0
102
RTVSPropertyOp52
 70
     0
102
RTVSPropertyOp53
 70
     0
102
RTVSPropertyOp54
 70
     0
102
RTVSPropertyOp55
 70
     1
102
RTVSPropertyOp56
 70
     0
102
RTVSPropertyOp57
 70
     0
102
RTVSPropertyOp58
 70
     0
102
RTVSPropertyOp59
 70
     0
102
RTVSPropertyOp60
 70
     0
102
RTVSPropertyOp61
 70
     0
102
RTVSPropertyOp62
 70
     0
  0
XRECORD
  5
FB6B
102
{ACAD_REACTORS
330
FB6A
102
}
330
FB6A
100
AcDbXrecord
280
     1
102
RTVSPost2010Prop28
280
     0
102
RTVSPost2010PropOp28
 70
     1
102
RTVSPost2010Prop29
280
     1
102
RTVSPost2010PropOp29
 70
     1
102
RTVSPost2010Prop30
280
     1
102
RTVSPost2010PropOp30
 70
     1
102
RTVSPost2010Prop31
280
     0
102
RTVSPost2010PropOp31
 70
     1
102
RTVSPost2010Prop32
280
     0
102
RTVSPost2010PropOp32
 70
     1
102
RTVSPost2010Prop33
280
     0
102
RTVSPost2010PropOp33
 70
     1
102
RTVSPost2010Prop34
280
     0
102
RTVSPost2010PropOp34
 70
     1
102
RTVSPost2010Prop35
280
     0
102
RTVSPost2010PropOp35
 70
     1
102
RTVSPost2010Prop36
280
     0
102
RTVSPost2010PropOp36
 70
     1
102
RTVSPost2010Prop37
 90
       50
102
RTVSPost2010PropOp37
 70
     1
102
RTVSPost2010Prop38
140
0.0
102
RTVSPost2010PropOp38
 70
     1
102
RTVSPost2010Prop39
140
1.0
102
RTVSPost2010PropOp39
 70
     1
102
RTVSPost2010Prop40
 90
        0
102
RTVSPost2010PropOp40
 70
     1
102
RTVSPost2010Prop41ColorIndex
 90
       18
102
RTVSPost2010Prop41ColorRGB
 90
        0
102
RTVSPost2010PropOp41
 70
     1
102
RTVSPost2010Prop42
 90
       50
102
RTVSPost2010PropOp42
 70
     1
102
RTVSPost2010Prop43
 90
        3
102
RTVSPost2010PropOp43
 70
     1
102
RTVSPost2010Prop44ColorIndex
 90
        5
102
RTVSPost2010Prop44ColorRGB
 90
      255
102
RTVSPost2010PropOp44
 70
     1
102
RTVSPost2010Prop45
280
     0
102
RTVSPost2010PropOp45
 70
     1
102
RTVSPost2010Prop46
 90
       50
102
RTVSPost2010PropOp46
 70
     1
102
RTVSPost2010Prop47
 90
       50
102
RTVSPost2010PropOp47
 70
     1
102
RTVSPost2010Prop48
 90
       50
102
RTVSPost2010PropOp48
 70
     1
102
RTVSPost2010Prop49
280
     0
102
RTVSPost2010PropOp49
 70
     1
102
RTVSPost2010Prop50
 90
       50
102
RTVSPost2010PropOp50
 70
     1
102
RTVSPost2010Prop51ColorIndex
 90
      256
102
RTVSPost2010Prop51ColorRGB
 90
-16777216
102
RTVSPost2010PropOp51
 70
     0
102
RTVSPost2010Prop52
140
1.0
102
RTVSPost2010PropOp52
 70
     0
102
RTVSPost2010Prop53
 90
        2
102
RTVSPost2010PropOp53
 70
     1
102
RTVSPost2010Prop54
  1
strokes_ogs.tif
102
RTVSPost2010PropOp54
 70
     1
102
RTVSPost2010Prop55
280
     0
102
RTVSPost2010PropOp55
 70
     1
102
RTVSPost2010Prop56
140
1.0
102
RTVSPost2010PropOp56
 70
     1
102
RTVSPost2010Prop57
140
1.0
102
RTVSPost2010PropOp57
 70
     1
102
RTVSPropertyOp0
 70
     1
102
RTVSPropertyOp1
 70
     1
102
RTVSPropertyOp2
 70
     1
102
RTVSPropertyOp3
 70
     1
102
RTVSPropertyOp4
 70
     1
102
RTVSPropertyOp5
 70
     1
102
RTVSPropertyOp6
 70
     1
102
RTVSPropertyOp7
 70
     1
102
RTVSPropertyOp8
 70
     1
102
RTVSPropertyOp9
 70
     1
102
RTVSPropertyOp10
 70
     1
102
RTVSPropertyOp11
 70
     1
102
RTVSPropertyOp12
 70
     1
102
RTVSPropertyOp13
 70
     1
102
RTVSPropertyOp14
 70
     1
102
RTVSPropertyOp15
 70
     1
102
RTVSPropertyOp16
 70
     1
102
RTVSPropertyOp17
 70
     1
102
RTVSPropertyOp18
 70
     1
102
RTVSPropertyOp19
 70
     1
102
RTVSPropertyOp20
 70
     1
102
RTVSPropertyOp21
 70
     1
102
RTVSPropertyOp22
 70
     1
102
RTVSPropertyOp23
 70
     1
102
RTVSPropertyOp24
 70
     1
102
RTVSPropertyOp25
 70
     1
102
RTVSPropertyOp26
 70
     1
102
RTVSPropertyOp27
 70
     1
102
RTVSPropertyOp28
 70
     1
102
RTVSPropertyOp29
 70
     1
102
RTVSPropertyOp30
 70
     1
102
RTVSPropertyOp31
 70
     1
102
RTVSPropertyOp32
 70
     1
102
RTVSPropertyOp33
 70
     1
102
RTVSPropertyOp34
 70
     1
102
RTVSPropertyOp35
 70
     1
102
RTVSPropertyOp36
 70
     1
102
RTVSPropertyOp37
 70
     1
102
RTVSPropertyOp38
 70
     1
102
RTVSPropertyOp39
 70
     1
102
RTVSPropertyOp40
 70
     1
102
RTVSPropertyOp41
 70
     1
102
RTVSPropertyOp42
 70
     1
102
RTVSPropertyOp43
 70
     1
102
RTVSPropertyOp44
 70
     1
102
RTVSPropertyOp45
 70
     1
102
RTVSPropertyOp46
 70
     1
102
RTVSPropertyOp47
 70
     1
102
RTVSPropertyOp48
 70
     1
102
RTVSPropertyOp49
 70
     1
102
RTVSPropertyOp50
 70
     1
102
RTVSPropertyOp51
 70
     0
102
RTVSPropertyOp52
 70
     0
102
RTVSPropertyOp53
 70
     1
102
RTVSPropertyOp54
 70
     1
102
RTVSPropertyOp55
 70
     1
102
RTVSPropertyOp56
 70
     1
102
RTVSPropertyOp57
 70
     1
102
RTVSPropertyOp58
 70
     1
102
RTVSPropertyOp59
 70
     1
102
RTVSPropertyOp60
 70
     1
102
RTVSPropertyOp61
 70
     1
102
RTVSPropertyOp62
 70
     1
  0
XRECORD
  5
FB81
102
{ACAD_REACTORS
330
FB80
102
}
330
FB80
100
AcDbXrecord
280
     1
102
RTVSPost2010Prop28
280
     0
102
RTVSPost2010PropOp28
 70
     1
102
RTVSPost2010Prop29
280
     1
102
RTVSPost2010PropOp29
 70
     1
102
RTVSPost2010Prop30
280
     1
102
RTVSPost2010PropOp30
 70
     1
102
RTVSPost2010Prop31
280
     0
102
RTVSPost2010PropOp31
 70
     1
102
RTVSPost2010Prop32
280
     0
102
RTVSPost2010PropOp32
 70
     1
102
RTVSPost2010Prop33
280
     0
102
RTVSPost2010PropOp33
 70
     1
102
RTVSPost2010Prop34
280
     0
102
RTVSPost2010PropOp34
 70
     1
102
RTVSPost2010Prop35
280
     0
102
RTVSPost2010PropOp35
 70
     1
102
RTVSPost2010Prop36
280
     0
102
RTVSPost2010PropOp36
 70
     1
102
RTVSPost2010Prop37
 90
       50
102
RTVSPost2010PropOp37
 70
     1
102
RTVSPost2010Prop38
140
0.0
102
RTVSPost2010PropOp38
 70
     1
102
RTVSPost2010Prop39
140
1.0
102
RTVSPost2010PropOp39
 70
     1
102
RTVSPost2010Prop40
 90
        0
102
RTVSPost2010PropOp40
 70
     1
102
RTVSPost2010Prop41ColorIndex
 90
       18
102
RTVSPost2010Prop41ColorRGB
 90
        0
102
RTVSPost2010PropOp41
 70
     1
102
RTVSPost2010Prop42
 90
       50
102
RTVSPost2010PropOp42
 70
     1
102
RTVSPost2010Prop43
 90
        3
102
RTVSPost2010PropOp43
 70
     1
102
RTVSPost2010Prop44ColorIndex
 90
        5
102
RTVSPost2010Prop44ColorRGB
 90
      255
102
RTVSPost2010PropOp44
 70
     1
102
RTVSPost2010Prop45
280
     0
102
RTVSPost2010PropOp45
 70
     1
102
RTVSPost2010Prop46
 90
       50
102
RTVSPost2010PropOp46
 70
     1
102
RTVSPost2010Prop47
 90
       50
102
RTVSPost2010PropOp47
 70
     1
102
RTVSPost2010Prop48
 90
       50
102
RTVSPost2010PropOp48
 70
     1
102
RTVSPost2010Prop49
280
     0
102
RTVSPost2010PropOp49
 70
     1
102
RTVSPost2010Prop50
 90
       50
102
RTVSPost2010PropOp50
 70
     1
102
RTVSPost2010Prop51ColorIndex
 90
      256
102
RTVSPost2010Prop51ColorRGB
 90
-16777216
102
RTVSPost2010PropOp51
 70
     0
102
RTVSPost2010Prop52
140
1.0
102
RTVSPost2010PropOp52
 70
     0
102
RTVSPost2010Prop53
 90
        2
102
RTVSPost2010PropOp53
 70
     1
102
RTVSPost2010Prop54
  1
strokes_ogs.tif
102
RTVSPost2010PropOp54
 70
     1
102
RTVSPost2010Prop55
280
     0
102
RTVSPost2010PropOp55
 70
     1
102
RTVSPost2010Prop56
140
1.0
102
RTVSPost2010PropOp56
 70
     1
102
RTVSPost2010Prop57
140
1.0
102
RTVSPost2010PropOp57
 70
     1
102
RTVSPropertyOp0
 70
     1
102
RTVSPropertyOp1
 70
     1
102
RTVSPropertyOp2
 70
     1
102
RTVSPropertyOp3
 70
     1
102
RTVSPropertyOp4
 70
     1
102
RTVSPropertyOp5
 70
     1
102
RTVSPropertyOp6
 70
     1
102
RTVSPropertyOp7
 70
     1
102
RTVSPropertyOp8
 70
     1
102
RTVSPropertyOp9
 70
     1
102
RTVSPropertyOp10
 70
     1
102
RTVSPropertyOp11
 70
     1
102
RTVSPropertyOp12
 70
     1
102
RTVSPropertyOp13
 70
     1
102
RTVSPropertyOp14
 70
     1
102
RTVSPropertyOp15
 70
     1
102
RTVSPropertyOp16
 70
     1
102
RTVSPropertyOp17
 70
     1
102
RTVSPropertyOp18
 70
     1
102
RTVSPropertyOp19
 70
     1
102
RTVSPropertyOp20
 70
     1
102
RTVSPropertyOp21
 70
     1
102
RTVSPropertyOp22
 70
     1
102
RTVSPropertyOp23
 70
     1
102
RTVSPropertyOp24
 70
     1
102
RTVSPropertyOp25
 70
     1
102
RTVSPropertyOp26
 70
     1
102
RTVSPropertyOp27
 70
     1
102
RTVSPropertyOp28
 70
     1
102
RTVSPropertyOp29
 70
     1
102
RTVSPropertyOp30
 70
     1
102
RTVSPropertyOp31
 70
     1
102
RTVSPropertyOp32
 70
     1
102
RTVSPropertyOp33
 70
     1
102
RTVSPropertyOp34
 70
     1
102
RTVSPropertyOp35
 70
     1
102
RTVSPropertyOp36
 70
     1
102
RTVSPropertyOp37
 70
     1
102
RTVSPropertyOp38
 70
     1
102
RTVSPropertyOp39
 70
     1
102
RTVSPropertyOp40
 70
     1
102
RTVSPropertyOp41
 70
     1
102
RTVSPropertyOp42
 70
     1
102
RTVSPropertyOp43
 70
     1
102
RTVSPropertyOp44
 70
     1
102
RTVSPropertyOp45
 70
     1
102
RTVSPropertyOp46
 70
     1
102
RTVSPropertyOp47
 70
     1
102
RTVSPropertyOp48
 70
     1
102
RTVSPropertyOp49
 70
     1
102
RTVSPropertyOp50
 70
     1
102
RTVSPropertyOp51
 70
     0
102
RTVSPropertyOp52
 70
     0
102
RTVSPropertyOp53
 70
     1
102
RTVSPropertyOp54
 70
     1
102
RTVSPropertyOp55
 70
     1
102
RTVSPropertyOp56
 70
     1
102
RTVSPropertyOp57
 70
     1
102
RTVSPropertyOp58
 70
     1
102
RTVSPropertyOp59
 70
     1
102
RTVSPropertyOp60
 70
     1
102
RTVSPropertyOp61
 70
     1
102
RTVSPropertyOp62
 70
     1
  0
XRECORD
  5
FB7F
102
{ACAD_REACTORS
330
FB7E
102
}
330
FB7E
100
AcDbXrecord
280
     1
102
RTVSPost2010Prop28
280
     0
102
RTVSPost2010PropOp28
 70
     1
102
RTVSPost2010Prop29
280
     1
102
RTVSPost2010PropOp29
 70
     1
102
RTVSPost2010Prop30
280
     1
102
RTVSPost2010PropOp30
 70
     1
102
RTVSPost2010Prop31
280
     0
102
RTVSPost2010PropOp31
 70
     1
102
RTVSPost2010Prop32
280
     0
102
RTVSPost2010PropOp32
 70
     1
102
RTVSPost2010Prop33
280
     0
102
RTVSPost2010PropOp33
 70
     1
102
RTVSPost2010Prop34
280
     0
102
RTVSPost2010PropOp34
 70
     1
102
RTVSPost2010Prop35
280
     0
102
RTVSPost2010PropOp35
 70
     1
102
RTVSPost2010Prop36
280
     0
102
RTVSPost2010PropOp36
 70
     1
102
RTVSPost2010Prop37
 90
       50
102
RTVSPost2010PropOp37
 70
     1
102
RTVSPost2010Prop38
140
0.0
102
RTVSPost2010PropOp38
 70
     1
102
RTVSPost2010Prop39
140
1.0
102
RTVSPost2010PropOp39
 70
     1
102
RTVSPost2010Prop40
 90
        0
102
RTVSPost2010PropOp40
 70
     1
102
RTVSPost2010Prop41ColorIndex
 90
       18
102
RTVSPost2010Prop41ColorRGB
 90
        0
102
RTVSPost2010PropOp41
 70
     1
102
RTVSPost2010Prop42
 90
       50
102
RTVSPost2010PropOp42
 70
     1
102
RTVSPost2010Prop43
 90
        3
102
RTVSPost2010PropOp43
 70
     1
102
RTVSPost2010Prop44ColorIndex
 90
        5
102
RTVSPost2010Prop44ColorRGB
 90
      255
102
RTVSPost2010PropOp44
 70
     1
102
RTVSPost2010Prop45
280
     0
102
RTVSPost2010PropOp45
 70
     1
102
RTVSPost2010Prop46
 90
       50
102
RTVSPost2010PropOp46
 70
     1
102
RTVSPost2010Prop47
 90
       50
102
RTVSPost2010PropOp47
 70
     1
102
RTVSPost2010Prop48
 90
       50
102
RTVSPost2010PropOp48
 70
     1
102
RTVSPost2010Prop49
280
     0
102
RTVSPost2010PropOp49
 70
     1
102
RTVSPost2010Prop50
 90
       50
102
RTVSPost2010PropOp50
 70
     1
102
RTVSPost2010Prop51ColorIndex
 90
      256
102
RTVSPost2010Prop51ColorRGB
 90
-16777216
102
RTVSPost2010PropOp51
 70
     0
102
RTVSPost2010Prop52
140
1.0
102
RTVSPost2010PropOp52
 70
     0
102
RTVSPost2010Prop53
 90
        2
102
RTVSPost2010PropOp53
 70
     1
102
RTVSPost2010Prop54
  1
strokes_ogs.tif
102
RTVSPost2010PropOp54
 70
     1
102
RTVSPost2010Prop55
280
     0
102
RTVSPost2010PropOp55
 70
     1
102
RTVSPost2010Prop56
140
1.0
102
RTVSPost2010PropOp56
 70
     1
102
RTVSPost2010Prop57
140
1.0
102
RTVSPost2010PropOp57
 70
     1
102
RTVSPropertyOp0
 70
     1
102
RTVSPropertyOp1
 70
     1
102
RTVSPropertyOp2
 70
     1
102
RTVSPropertyOp3
 70
     1
102
RTVSPropertyOp4
 70
     1
102
RTVSPropertyOp5
 70
     1
102
RTVSPropertyOp6
 70
     1
102
RTVSPropertyOp7
 70
     1
102
RTVSPropertyOp8
 70
     1
102
RTVSPropertyOp9
 70
     1
102
RTVSPropertyOp10
 70
     1
102
RTVSPropertyOp11
 70
     1
102
RTVSPropertyOp12
 70
     1
102
RTVSPropertyOp13
 70
     1
102
RTVSPropertyOp14
 70
     1
102
RTVSPropertyOp15
 70
     1
102
RTVSPropertyOp16
 70
     1
102
RTVSPropertyOp17
 70
     1
102
RTVSPropertyOp18
 70
     1
102
RTVSPropertyOp19
 70
     1
102
RTVSPropertyOp20
 70
     1
102
RTVSPropertyOp21
 70
     1
102
RTVSPropertyOp22
 70
     1
102
RTVSPropertyOp23
 70
     1
102
RTVSPropertyOp24
 70
     1
102
RTVSPropertyOp25
 70
     1
102
RTVSPropertyOp26
 70
     1
102
RTVSPropertyOp27
 70
     1
102
RTVSPropertyOp28
 70
     1
102
RTVSPropertyOp29
 70
     1
102
RTVSPropertyOp30
 70
     1
102
RTVSPropertyOp31
 70
     1
102
RTVSPropertyOp32
 70
     1
102
RTVSPropertyOp33
 70
     1
102
RTVSPropertyOp34
 70
     1
102
RTVSPropertyOp35
 70
     1
102
RTVSPropertyOp36
 70
     1
102
RTVSPropertyOp37
 70
     1
102
RTVSPropertyOp38
 70
     1
102
RTVSPropertyOp39
 70
     1
102
RTVSPropertyOp40
 70
     1
102
RTVSPropertyOp41
 70
     1
102
RTVSPropertyOp42
 70
     1
102
RTVSPropertyOp43
 70
     1
102
RTVSPropertyOp44
 70
     1
102
RTVSPropertyOp45
 70
     1
102
RTVSPropertyOp46
 70
     1
102
RTVSPropertyOp47
 70
     1
102
RTVSPropertyOp48
 70
     1
102
RTVSPropertyOp49
 70
     1
102
RTVSPropertyOp50
 70
     1
102
RTVSPropertyOp51
 70
     0
102
RTVSPropertyOp52
 70
     0
102
RTVSPropertyOp53
 70
     1
102
RTVSPropertyOp54
 70
     1
102
RTVSPropertyOp55
 70
     1
102
RTVSPropertyOp56
 70
     1
102
RTVSPropertyOp57
 70
     1
102
RTVSPropertyOp58
 70
     1
102
RTVSPropertyOp59
 70
     1
102
RTVSPropertyOp60
 70
     1
102
RTVSPropertyOp61
 70
     1
102
RTVSPropertyOp62
 70
     1
  0
XRECORD
  5
FB79
102
{ACAD_REACTORS
330
FB78
102
}
330
FB78
100
AcDbXrecord
280
     1
102
RTVSPost2010Prop28
280
     0
102
RTVSPost2010PropOp28
 70
     1
102
RTVSPost2010Prop29
280
     1
102
RTVSPost2010PropOp29
 70
     1
102
RTVSPost2010Prop30
280
     1
102
RTVSPost2010PropOp30
 70
     1
102
RTVSPost2010Prop31
280
     0
102
RTVSPost2010PropOp31
 70
     1
102
RTVSPost2010Prop32
280
     0
102
RTVSPost2010PropOp32
 70
     1
102
RTVSPost2010Prop33
280
     0
102
RTVSPost2010PropOp33
 70
     1
102
RTVSPost2010Prop34
280
     0
102
RTVSPost2010PropOp34
 70
     1
102
RTVSPost2010Prop35
280
     0
102
RTVSPost2010PropOp35
 70
     1
102
RTVSPost2010Prop36
280
     0
102
RTVSPost2010PropOp36
 70
     1
102
RTVSPost2010Prop37
 90
       50
102
RTVSPost2010PropOp37
 70
     1
102
RTVSPost2010Prop38
140
0.0
102
RTVSPost2010PropOp38
 70
     1
102
RTVSPost2010Prop39
140
1.0
102
RTVSPost2010PropOp39
 70
     1
102
RTVSPost2010Prop40
 90
        0
102
RTVSPost2010PropOp40
 70
     1
102
RTVSPost2010Prop41ColorIndex
 90
       18
102
RTVSPost2010Prop41ColorRGB
 90
        0
102
RTVSPost2010PropOp41
 70
     1
102
RTVSPost2010Prop42
 90
       50
102
RTVSPost2010PropOp42
 70
     1
102
RTVSPost2010Prop43
 90
        3
102
RTVSPost2010PropOp43
 70
     1
102
RTVSPost2010Prop44ColorIndex
 90
        5
102
RTVSPost2010Prop44ColorRGB
 90
      255
102
RTVSPost2010PropOp44
 70
     1
102
RTVSPost2010Prop45
280
     0
102
RTVSPost2010PropOp45
 70
     1
102
RTVSPost2010Prop46
 90
       50
102
RTVSPost2010PropOp46
 70
     1
102
RTVSPost2010Prop47
 90
       50
102
RTVSPost2010PropOp47
 70
     1
102
RTVSPost2010Prop48
 90
       50
102
RTVSPost2010PropOp48
 70
     1
102
RTVSPost2010Prop49
280
     0
102
RTVSPost2010PropOp49
 70
     1
102
RTVSPost2010Prop50
 90
       50
102
RTVSPost2010PropOp50
 70
     1
102
RTVSPost2010Prop51ColorIndex
 90
      256
102
RTVSPost2010Prop51ColorRGB
 90
-16777216
102
RTVSPost2010PropOp51
 70
     0
102
RTVSPost2010Prop52
140
1.0
102
RTVSPost2010PropOp52
 70
     0
102
RTVSPost2010Prop53
 90
        2
102
RTVSPost2010PropOp53
 70
     1
102
RTVSPost2010Prop54
  1
strokes_ogs.tif
102
RTVSPost2010PropOp54
 70
     1
102
RTVSPost2010Prop55
280
     0
102
RTVSPost2010PropOp55
 70
     1
102
RTVSPost2010Prop56
140
1.0
102
RTVSPost2010PropOp56
 70
     1
102
RTVSPost2010Prop57
140
1.0
102
RTVSPost2010PropOp57
 70
     1
102
RTVSPropertyOp0
 70
     1
102
RTVSPropertyOp1
 70
     1
102
RTVSPropertyOp2
 70
     1
102
RTVSPropertyOp3
 70
     1
102
RTVSPropertyOp4
 70
     1
102
RTVSPropertyOp5
 70
     1
102
RTVSPropertyOp6
 70
     1
102
RTVSPropertyOp7
 70
     1
102
RTVSPropertyOp8
 70
     1
102
RTVSPropertyOp9
 70
     1
102
RTVSPropertyOp10
 70
     1
102
RTVSPropertyOp11
 70
     1
102
RTVSPropertyOp12
 70
     1
102
RTVSPropertyOp13
 70
     1
102
RTVSPropertyOp14
 70
     1
102
RTVSPropertyOp15
 70
     1
102
RTVSPropertyOp16
 70
     1
102
RTVSPropertyOp17
 70
     1
102
RTVSPropertyOp18
 70
     1
102
RTVSPropertyOp19
 70
     1
102
RTVSPropertyOp20
 70
     1
102
RTVSPropertyOp21
 70
     1
102
RTVSPropertyOp22
 70
     1
102
RTVSPropertyOp23
 70
     1
102
RTVSPropertyOp24
 70
     1
102
RTVSPropertyOp25
 70
     1
102
RTVSPropertyOp26
 70
     1
102
RTVSPropertyOp27
 70
     1
102
RTVSPropertyOp28
 70
     1
102
RTVSPropertyOp29
 70
     1
102
RTVSPropertyOp30
 70
     1
102
RTVSPropertyOp31
 70
     1
102
RTVSPropertyOp32
 70
     1
102
RTVSPropertyOp33
 70
     1
102
RTVSPropertyOp34
 70
     1
102
RTVSPropertyOp35
 70
     1
102
RTVSPropertyOp36
 70
     1
102
RTVSPropertyOp37
 70
     1
102
RTVSPropertyOp38
 70
     1
102
RTVSPropertyOp39
 70
     1
102
RTVSPropertyOp40
 70
     1
102
RTVSPropertyOp41
 70
     1
102
RTVSPropertyOp42
 70
     1
102
RTVSPropertyOp43
 70
     1
102
RTVSPropertyOp44
 70
     1
102
RTVSPropertyOp45
 70
     1
102
RTVSPropertyOp46
 70
     1
102
RTVSPropertyOp47
 70
     1
102
RTVSPropertyOp48
 70
     1
102
RTVSPropertyOp49
 70
     1
102
RTVSPropertyOp50
 70
     1
102
RTVSPropertyOp51
 70
     0
102
RTVSPropertyOp52
 70
     0
102
RTVSPropertyOp53
 70
     1
102
RTVSPropertyOp54
 70
     1
102
RTVSPropertyOp55
 70
     1
102
RTVSPropertyOp56
 70
     1
102
RTVSPropertyOp57
 70
     1
102
RTVSPropertyOp58
 70
     1
102
RTVSPropertyOp59
 70
     1
102
RTVSPropertyOp60
 70
     1
102
RTVSPropertyOp61
 70
     1
102
RTVSPropertyOp62
 70
     1
  0
XRECORD
  5
FB7B
102
{ACAD_REACTORS
330
FB7A
102
}
330
FB7A
100
AcDbXrecord
280
     1
102
RTVSPost2010Prop28
280
     0
102
RTVSPost2010PropOp28
 70
     1
102
RTVSPost2010Prop29
280
     1
102
RTVSPost2010PropOp29
 70
     1
102
RTVSPost2010Prop30
280
     1
102
RTVSPost2010PropOp30
 70
     1
102
RTVSPost2010Prop31
280
     0
102
RTVSPost2010PropOp31
 70
     1
102
RTVSPost2010Prop32
280
     0
102
RTVSPost2010PropOp32
 70
     1
102
RTVSPost2010Prop33
280
     0
102
RTVSPost2010PropOp33
 70
     1
102
RTVSPost2010Prop34
280
     0
102
RTVSPost2010PropOp34
 70
     1
102
RTVSPost2010Prop35
280
     0
102
RTVSPost2010PropOp35
 70
     1
102
RTVSPost2010Prop36
280
     0
102
RTVSPost2010PropOp36
 70
     1
102
RTVSPost2010Prop37
 90
       50
102
RTVSPost2010PropOp37
 70
     1
102
RTVSPost2010Prop38
140
0.0
102
RTVSPost2010PropOp38
 70
     1
102
RTVSPost2010Prop39
140
1.0
102
RTVSPost2010PropOp39
 70
     1
102
RTVSPost2010Prop40
 90
        0
102
RTVSPost2010PropOp40
 70
     1
102
RTVSPost2010Prop41ColorIndex
 90
       18
102
RTVSPost2010Prop41ColorRGB
 90
        0
102
RTVSPost2010PropOp41
 70
     1
102
RTVSPost2010Prop42
 90
       50
102
RTVSPost2010PropOp42
 70
     1
102
RTVSPost2010Prop43
 90
        3
102
RTVSPost2010PropOp43
 70
     1
102
RTVSPost2010Prop44ColorIndex
 90
        5
102
RTVSPost2010Prop44ColorRGB
 90
      255
102
RTVSPost2010PropOp44
 70
     1
102
RTVSPost2010Prop45
280
     0
102
RTVSPost2010PropOp45
 70
     1
102
RTVSPost2010Prop46
 90
       50
102
RTVSPost2010PropOp46
 70
     1
102
RTVSPost2010Prop47
 90
       50
102
RTVSPost2010PropOp47
 70
     1
102
RTVSPost2010Prop48
 90
       50
102
RTVSPost2010PropOp48
 70
     1
102
RTVSPost2010Prop49
280
     0
102
RTVSPost2010PropOp49
 70
     1
102
RTVSPost2010Prop50
 90
       50
102
RTVSPost2010PropOp50
 70
     1
102
RTVSPost2010Prop51ColorIndex
 90
      256
102
RTVSPost2010Prop51ColorRGB
 90
-16777216
102
RTVSPost2010PropOp51
 70
     0
102
RTVSPost2010Prop52
140
1.0
102
RTVSPost2010PropOp52
 70
     0
102
RTVSPost2010Prop53
 90
        2
102
RTVSPost2010PropOp53
 70
     1
102
RTVSPost2010Prop54
  1
strokes_ogs.tif
102
RTVSPost2010PropOp54
 70
     1
102
RTVSPost2010Prop55
280
     0
102
RTVSPost2010PropOp55
 70
     1
102
RTVSPost2010Prop56
140
1.0
102
RTVSPost2010PropOp56
 70
     1
102
RTVSPost2010Prop57
140
1.0
102
RTVSPost2010PropOp57
 70
     1
102
RTVSPropertyOp0
 70
     1
102
RTVSPropertyOp1
 70
     1
102
RTVSPropertyOp2
 70
     1
102
RTVSPropertyOp3
 70
     1
102
RTVSPropertyOp4
 70
     1
102
RTVSPropertyOp5
 70
     1
102
RTVSPropertyOp6
 70
     1
102
RTVSPropertyOp7
 70
     1
102
RTVSPropertyOp8
 70
     1
102
RTVSPropertyOp9
 70
     1
102
RTVSPropertyOp10
 70
     1
102
RTVSPropertyOp11
 70
     1
102
RTVSPropertyOp12
 70
     1
102
RTVSPropertyOp13
 70
     1
102
RTVSPropertyOp14
 70
     1
102
RTVSPropertyOp15
 70
     1
102
RTVSPropertyOp16
 70
     1
102
RTVSPropertyOp17
 70
     1
102
RTVSPropertyOp18
 70
     1
102
RTVSPropertyOp19
 70
     1
102
RTVSPropertyOp20
 70
     1
102
RTVSPropertyOp21
 70
     1
102
RTVSPropertyOp22
 70
     1
102
RTVSPropertyOp23
 70
     1
102
RTVSPropertyOp24
 70
     1
102
RTVSPropertyOp25
 70
     1
102
RTVSPropertyOp26
 70
     1
102
RTVSPropertyOp27
 70
     1
102
RTVSPropertyOp28
 70
     1
102
RTVSPropertyOp29
 70
     1
102
RTVSPropertyOp30
 70
     1
102
RTVSPropertyOp31
 70
     1
102
RTVSPropertyOp32
 70
     1
102
RTVSPropertyOp33
 70
     1
102
RTVSPropertyOp34
 70
     1
102
RTVSPropertyOp35
 70
     1
102
RTVSPropertyOp36
 70
     1
102
RTVSPropertyOp37
 70
     1
102
RTVSPropertyOp38
 70
     1
102
RTVSPropertyOp39
 70
     1
102
RTVSPropertyOp40
 70
     1
102
RTVSPropertyOp41
 70
     1
102
RTVSPropertyOp42
 70
     1
102
RTVSPropertyOp43
 70
     1
102
RTVSPropertyOp44
 70
     1
102
RTVSPropertyOp45
 70
     1
102
RTVSPropertyOp46
 70
     1
102
RTVSPropertyOp47
 70
     1
102
RTVSPropertyOp48
 70
     1
102
RTVSPropertyOp49
 70
     1
102
RTVSPropertyOp50
 70
     1
102
RTVSPropertyOp51
 70
     0
102
RTVSPropertyOp52
 70
     0
102
RTVSPropertyOp53
 70
     1
102
RTVSPropertyOp54
 70
     1
102
RTVSPropertyOp55
 70
     1
102
RTVSPropertyOp56
 70
     1
102
RTVSPropertyOp57
 70
     1
102
RTVSPropertyOp58
 70
     1
102
RTVSPropertyOp59
 70
     1
102
RTVSPropertyOp60
 70
     1
102
RTVSPropertyOp61
 70
     1
102
RTVSPropertyOp62
 70
     1
  0
XRECORD
  5
FB71
102
{ACAD_REACTORS
330
FB70
102
}
330
FB70
100
AcDbXrecord
280
     1
102
RTVSPost2010Prop28
280
     0
102
RTVSPost2010PropOp28
 70
     1
102
RTVSPost2010Prop29
280
     1
102
RTVSPost2010PropOp29
 70
     1
102
RTVSPost2010Prop30
280
     1
102
RTVSPost2010PropOp30
 70
     1
102
RTVSPost2010Prop31
280
     0
102
RTVSPost2010PropOp31
 70
     1
102
RTVSPost2010Prop32
280
     0
102
RTVSPost2010PropOp32
 70
     1
102
RTVSPost2010Prop33
280
     0
102
RTVSPost2010PropOp33
 70
     1
102
RTVSPost2010Prop34
280
     0
102
RTVSPost2010PropOp34
 70
     1
102
RTVSPost2010Prop35
280
     0
102
RTVSPost2010PropOp35
 70
     1
102
RTVSPost2010Prop36
280
     0
102
RTVSPost2010PropOp36
 70
     1
102
RTVSPost2010Prop37
 90
       50
102
RTVSPost2010PropOp37
 70
     1
102
RTVSPost2010Prop38
140
0.0
102
RTVSPost2010PropOp38
 70
     1
102
RTVSPost2010Prop39
140
1.0
102
RTVSPost2010PropOp39
 70
     1
102
RTVSPost2010Prop40
 90
        0
102
RTVSPost2010PropOp40
 70
     1
102
RTVSPost2010Prop41ColorIndex
 90
       18
102
RTVSPost2010Prop41ColorRGB
 90
        0
102
RTVSPost2010PropOp41
 70
     1
102
RTVSPost2010Prop42
 90
       50
102
RTVSPost2010PropOp42
 70
     1
102
RTVSPost2010Prop43
 90
        3
102
RTVSPost2010PropOp43
 70
     1
102
RTVSPost2010Prop44ColorIndex
 90
        5
102
RTVSPost2010Prop44ColorRGB
 90
      255
102
RTVSPost2010PropOp44
 70
     1
102
RTVSPost2010Prop45
280
     0
102
RTVSPost2010PropOp45
 70
     1
102
RTVSPost2010Prop46
 90
       50
102
RTVSPost2010PropOp46
 70
     1
102
RTVSPost2010Prop47
 90
       50
102
RTVSPost2010PropOp47
 70
     1
102
RTVSPost2010Prop48
 90
       50
102
RTVSPost2010PropOp48
 70
     1
102
RTVSPost2010Prop49
280
     0
102
RTVSPost2010PropOp49
 70
     1
102
RTVSPost2010Prop50
 90
       50
102
RTVSPost2010PropOp50
 70
     1
102
RTVSPost2010Prop51ColorIndex
 90
      256
102
RTVSPost2010Prop51ColorRGB
 90
-16777216
102
RTVSPost2010PropOp51
 70
     0
102
RTVSPost2010Prop52
140
1.0
102
RTVSPost2010PropOp52
 70
     0
102
RTVSPost2010Prop53
 90
        2
102
RTVSPost2010PropOp53
 70
     1
102
RTVSPost2010Prop54
  1
strokes_ogs.tif
102
RTVSPost2010PropOp54
 70
     1
102
RTVSPost2010Prop55
280
     0
102
RTVSPost2010PropOp55
 70
     1
102
RTVSPost2010Prop56
140
1.0
102
RTVSPost2010PropOp56
 70
     1
102
RTVSPost2010Prop57
140
1.0
102
RTVSPost2010PropOp57
 70
     1
102
RTVSPropertyOp0
 70
     1
102
RTVSPropertyOp1
 70
     1
102
RTVSPropertyOp2
 70
     1
102
RTVSPropertyOp3
 70
     1
102
RTVSPropertyOp4
 70
     1
102
RTVSPropertyOp5
 70
     1
102
RTVSPropertyOp6
 70
     1
102
RTVSPropertyOp7
 70
     1
102
RTVSPropertyOp8
 70
     1
102
RTVSPropertyOp9
 70
     1
102
RTVSPropertyOp10
 70
     1
102
RTVSPropertyOp11
 70
     1
102
RTVSPropertyOp12
 70
     1
102
RTVSPropertyOp13
 70
     1
102
RTVSPropertyOp14
 70
     1
102
RTVSPropertyOp15
 70
     1
102
RTVSPropertyOp16
 70
     1
102
RTVSPropertyOp17
 70
     1
102
RTVSPropertyOp18
 70
     1
102
RTVSPropertyOp19
 70
     1
102
RTVSPropertyOp20
 70
     1
102
RTVSPropertyOp21
 70
     1
102
RTVSPropertyOp22
 70
     1
102
RTVSPropertyOp23
 70
     1
102
RTVSPropertyOp24
 70
     1
102
RTVSPropertyOp25
 70
     1
102
RTVSPropertyOp26
 70
     1
102
RTVSPropertyOp27
 70
     1
102
RTVSPropertyOp28
 70
     1
102
RTVSPropertyOp29
 70
     1
102
RTVSPropertyOp30
 70
     1
102
RTVSPropertyOp31
 70
     1
102
RTVSPropertyOp32
 70
     1
102
RTVSPropertyOp33
 70
     1
102
RTVSPropertyOp34
 70
     1
102
RTVSPropertyOp35
 70
     1
102
RTVSPropertyOp36
 70
     1
102
RTVSPropertyOp37
 70
     1
102
RTVSPropertyOp38
 70
     1
102
RTVSPropertyOp39
 70
     1
102
RTVSPropertyOp40
 70
     1
102
RTVSPropertyOp41
 70
     1
102
RTVSPropertyOp42
 70
     1
102
RTVSPropertyOp43
 70
     1
102
RTVSPropertyOp44
 70
     1
102
RTVSPropertyOp45
 70
     1
102
RTVSPropertyOp46
 70
     1
102
RTVSPropertyOp47
 70
     1
102
RTVSPropertyOp48
 70
     1
102
RTVSPropertyOp49
 70
     1
102
RTVSPropertyOp50
 70
     1
102
RTVSPropertyOp51
 70
     0
102
RTVSPropertyOp52
 70
     0
102
RTVSPropertyOp53
 70
     1
102
RTVSPropertyOp54
 70
     1
102
RTVSPropertyOp55
 70
     1
102
RTVSPropertyOp56
 70
     1
102
RTVSPropertyOp57
 70
     1
102
RTVSPropertyOp58
 70
     1
102
RTVSPropertyOp59
 70
     1
102
RTVSPropertyOp60
 70
     1
102
RTVSPropertyOp61
 70
     1
102
RTVSPropertyOp62
 70
     1
  0
XRECORD
  5
FB65
102
{ACAD_REACTORS
330
FB64
102
}
330
FB64
100
AcDbXrecord
280
     1
102
RTVSPost2010Prop28
280
     0
102
RTVSPost2010PropOp28
 70
     1
102
RTVSPost2010Prop29
280
     1
102
RTVSPost2010PropOp29
 70
     1
102
RTVSPost2010Prop30
280
     1
102
RTVSPost2010PropOp30
 70
     1
102
RTVSPost2010Prop31
280
     0
102
RTVSPost2010PropOp31
 70
     1
102
RTVSPost2010Prop32
280
     0
102
RTVSPost2010PropOp32
 70
     1
102
RTVSPost2010Prop33
280
     0
102
RTVSPost2010PropOp33
 70
     1
102
RTVSPost2010Prop34
280
     0
102
RTVSPost2010PropOp34
 70
     1
102
RTVSPost2010Prop35
280
     0
102
RTVSPost2010PropOp35
 70
     1
102
RTVSPost2010Prop36
280
     0
102
RTVSPost2010PropOp36
 70
     1
102
RTVSPost2010Prop37
 90
       50
102
RTVSPost2010PropOp37
 70
     1
102
RTVSPost2010Prop38
140
0.0
102
RTVSPost2010PropOp38
 70
     1
102
RTVSPost2010Prop39
140
1.0
102
RTVSPost2010PropOp39
 70
     1
102
RTVSPost2010Prop40
 90
        0
102
RTVSPost2010PropOp40
 70
     1
102
RTVSPost2010Prop41ColorIndex
 90
       18
102
RTVSPost2010Prop41ColorRGB
 90
        0
102
RTVSPost2010PropOp41
 70
     1
102
RTVSPost2010Prop42
 90
       50
102
RTVSPost2010PropOp42
 70
     1
102
RTVSPost2010Prop43
 90
        3
102
RTVSPost2010PropOp43
 70
     1
102
RTVSPost2010Prop44ColorIndex
 90
        5
102
RTVSPost2010Prop44ColorRGB
 90
      255
102
RTVSPost2010PropOp44
 70
     1
102
RTVSPost2010Prop45
280
     0
102
RTVSPost2010PropOp45
 70
     1
102
RTVSPost2010Prop46
 90
       50
102
RTVSPost2010PropOp46
 70
     1
102
RTVSPost2010Prop47
 90
       50
102
RTVSPost2010PropOp47
 70
     1
102
RTVSPost2010Prop48
 90
       50
102
RTVSPost2010PropOp48
 70
     1
102
RTVSPost2010Prop49
280
     0
102
RTVSPost2010PropOp49
 70
     1
102
RTVSPost2010Prop50
 90
       50
102
RTVSPost2010PropOp50
 70
     1
102
RTVSPost2010Prop51ColorIndex
 90
      256
102
RTVSPost2010Prop51ColorRGB
 90
-16777216
102
RTVSPost2010PropOp51
 70
     0
102
RTVSPost2010Prop52
140
1.0
102
RTVSPost2010PropOp52
 70
     0
102
RTVSPost2010Prop53
 90
        2
102
RTVSPost2010PropOp53
 70
     1
102
RTVSPost2010Prop54
  1
strokes_ogs.tif
102
RTVSPost2010PropOp54
 70
     1
102
RTVSPost2010Prop55
280
     0
102
RTVSPost2010PropOp55
 70
     1
102
RTVSPost2010Prop56
140
1.0
102
RTVSPost2010PropOp56
 70
     1
102
RTVSPost2010Prop57
140
1.0
102
RTVSPost2010PropOp57
 70
     1
102
RTVSPropertyOp0
 70
     1
102
RTVSPropertyOp1
 70
     1
102
RTVSPropertyOp2
 70
     1
102
RTVSPropertyOp3
 70
     1
102
RTVSPropertyOp4
 70
     1
102
RTVSPropertyOp5
 70
     1
102
RTVSPropertyOp6
 70
     1
102
RTVSPropertyOp7
 70
     1
102
RTVSPropertyOp8
 70
     1
102
RTVSPropertyOp9
 70
     1
102
RTVSPropertyOp10
 70
     1
102
RTVSPropertyOp11
 70
     1
102
RTVSPropertyOp12
 70
     1
102
RTVSPropertyOp13
 70
     1
102
RTVSPropertyOp14
 70
     1
102
RTVSPropertyOp15
 70
     1
102
RTVSPropertyOp16
 70
     1
102
RTVSPropertyOp17
 70
     1
102
RTVSPropertyOp18
 70
     1
102
RTVSPropertyOp19
 70
     1
102
RTVSPropertyOp20
 70
     1
102
RTVSPropertyOp21
 70
     1
102
RTVSPropertyOp22
 70
     1
102
RTVSPropertyOp23
 70
     1
102
RTVSPropertyOp24
 70
     1
102
RTVSPropertyOp25
 70
     1
102
RTVSPropertyOp26
 70
     1
102
RTVSPropertyOp27
 70
     1
102
RTVSPropertyOp28
 70
     1
102
RTVSPropertyOp29
 70
     1
102
RTVSPropertyOp30
 70
     1
102
RTVSPropertyOp31
 70
     1
102
RTVSPropertyOp32
 70
     1
102
RTVSPropertyOp33
 70
     1
102
RTVSPropertyOp34
 70
     1
102
RTVSPropertyOp35
 70
     1
102
RTVSPropertyOp36
 70
     1
102
RTVSPropertyOp37
 70
     1
102
RTVSPropertyOp38
 70
     1
102
RTVSPropertyOp39
 70
     1
102
RTVSPropertyOp40
 70
     1
102
RTVSPropertyOp41
 70
     1
102
RTVSPropertyOp42
 70
     1
102
RTVSPropertyOp43
 70
     1
102
RTVSPropertyOp44
 70
     1
102
RTVSPropertyOp45
 70
     1
102
RTVSPropertyOp46
 70
     1
102
RTVSPropertyOp47
 70
     1
102
RTVSPropertyOp48
 70
     1
102
RTVSPropertyOp49
 70
     1
102
RTVSPropertyOp50
 70
     1
102
RTVSPropertyOp51
 70
     0
102
RTVSPropertyOp52
 70
     0
102
RTVSPropertyOp53
 70
     1
102
RTVSPropertyOp54
 70
     1
102
RTVSPropertyOp55
 70
     1
102
RTVSPropertyOp56
 70
     1
102
RTVSPropertyOp57
 70
     1
102
RTVSPropertyOp58
 70
     1
102
RTVSPropertyOp59
 70
     1
102
RTVSPropertyOp60
 70
     1
102
RTVSPropertyOp61
 70
     1
102
RTVSPropertyOp62
 70
     1
  0
XRECORD
  5
FB7D
102
{ACAD_REACTORS
330
FB7C
102
}
330
FB7C
100
AcDbXrecord
280
     1
102
RTVSPost2010Prop28
280
     0
102
RTVSPost2010PropOp28
 70
     1
102
RTVSPost2010Prop29
280
     1
102
RTVSPost2010PropOp29
 70
     1
102
RTVSPost2010Prop30
280
     1
102
RTVSPost2010PropOp30
 70
     1
102
RTVSPost2010Prop31
280
     0
102
RTVSPost2010PropOp31
 70
     1
102
RTVSPost2010Prop32
280
     0
102
RTVSPost2010PropOp32
 70
     1
102
RTVSPost2010Prop33
280
     0
102
RTVSPost2010PropOp33
 70
     1
102
RTVSPost2010Prop34
280
     0
102
RTVSPost2010PropOp34
 70
     1
102
RTVSPost2010Prop35
280
     0
102
RTVSPost2010PropOp35
 70
     1
102
RTVSPost2010Prop36
280
     0
102
RTVSPost2010PropOp36
 70
     1
102
RTVSPost2010Prop37
 90
       50
102
RTVSPost2010PropOp37
 70
     1
102
RTVSPost2010Prop38
140
0.0
102
RTVSPost2010PropOp38
 70
     1
102
RTVSPost2010Prop39
140
1.0
102
RTVSPost2010PropOp39
 70
     1
102
RTVSPost2010Prop40
 90
        0
102
RTVSPost2010PropOp40
 70
     1
102
RTVSPost2010Prop41ColorIndex
 90
       18
102
RTVSPost2010Prop41ColorRGB
 90
        0
102
RTVSPost2010PropOp41
 70
     1
102
RTVSPost2010Prop42
 90
       50
102
RTVSPost2010PropOp42
 70
     1
102
RTVSPost2010Prop43
 90
        3
102
RTVSPost2010PropOp43
 70
     1
102
RTVSPost2010Prop44ColorIndex
 90
        5
102
RTVSPost2010Prop44ColorRGB
 90
      255
102
RTVSPost2010PropOp44
 70
     1
102
RTVSPost2010Prop45
280
     0
102
RTVSPost2010PropOp45
 70
     1
102
RTVSPost2010Prop46
 90
       50
102
RTVSPost2010PropOp46
 70
     1
102
RTVSPost2010Prop47
 90
       50
102
RTVSPost2010PropOp47
 70
     1
102
RTVSPost2010Prop48
 90
       50
102
RTVSPost2010PropOp48
 70
     1
102
RTVSPost2010Prop49
280
     0
102
RTVSPost2010PropOp49
 70
     1
102
RTVSPost2010Prop50
 90
       50
102
RTVSPost2010PropOp50
 70
     1
102
RTVSPost2010Prop51ColorIndex
 90
      256
102
RTVSPost2010Prop51ColorRGB
 90
-16777216
102
RTVSPost2010PropOp51
 70
     0
102
RTVSPost2010Prop52
140
1.0
102
RTVSPost2010PropOp52
 70
     0
102
RTVSPost2010Prop53
 90
        2
102
RTVSPost2010PropOp53
 70
     1
102
RTVSPost2010Prop54
  1
strokes_ogs.tif
102
RTVSPost2010PropOp54
 70
     1
102
RTVSPost2010Prop55
280
     0
102
RTVSPost2010PropOp55
 70
     1
102
RTVSPost2010Prop56
140
1.0
102
RTVSPost2010PropOp56
 70
     1
102
RTVSPost2010Prop57
140
1.0
102
RTVSPost2010PropOp57
 70
     1
102
RTVSPropertyOp0
 70
     1
102
RTVSPropertyOp1
 70
     1
102
RTVSPropertyOp2
 70
     1
102
RTVSPropertyOp3
 70
     1
102
RTVSPropertyOp4
 70
     1
102
RTVSPropertyOp5
 70
     1
102
RTVSPropertyOp6
 70
     1
102
RTVSPropertyOp7
 70
     1
102
RTVSPropertyOp8
 70
     1
102
RTVSPropertyOp9
 70
     1
102
RTVSPropertyOp10
 70
     1
102
RTVSPropertyOp11
 70
     1
102
RTVSPropertyOp12
 70
     1
102
RTVSPropertyOp13
 70
     1
102
RTVSPropertyOp14
 70
     1
102
RTVSPropertyOp15
 70
     1
102
RTVSPropertyOp16
 70
     1
102
RTVSPropertyOp17
 70
     1
102
RTVSPropertyOp18
 70
     1
102
RTVSPropertyOp19
 70
     1
102
RTVSPropertyOp20
 70
     1
102
RTVSPropertyOp21
 70
     1
102
RTVSPropertyOp22
 70
     1
102
RTVSPropertyOp23
 70
     1
102
RTVSPropertyOp24
 70
     1
102
RTVSPropertyOp25
 70
     1
102
RTVSPropertyOp26
 70
     1
102
RTVSPropertyOp27
 70
     1
102
RTVSPropertyOp28
 70
     1
102
RTVSPropertyOp29
 70
     1
102
RTVSPropertyOp30
 70
     1
102
RTVSPropertyOp31
 70
     1
102
RTVSPropertyOp32
 70
     1
102
RTVSPropertyOp33
 70
     1
102
RTVSPropertyOp34
 70
     1
102
RTVSPropertyOp35
 70
     1
102
RTVSPropertyOp36
 70
     1
102
RTVSPropertyOp37
 70
     1
102
RTVSPropertyOp38
 70
     1
102
RTVSPropertyOp39
 70
     1
102
RTVSPropertyOp40
 70
     1
102
RTVSPropertyOp41
 70
     1
102
RTVSPropertyOp42
 70
     1
102
RTVSPropertyOp43
 70
     1
102
RTVSPropertyOp44
 70
     1
102
RTVSPropertyOp45
 70
     1
102
RTVSPropertyOp46
 70
     1
102
RTVSPropertyOp47
 70
     1
102
RTVSPropertyOp48
 70
     1
102
RTVSPropertyOp49
 70
     1
102
RTVSPropertyOp50
 70
     1
102
RTVSPropertyOp51
 70
     0
102
RTVSPropertyOp52
 70
     0
102
RTVSPropertyOp53
 70
     1
102
RTVSPropertyOp54
 70
     1
102
RTVSPropertyOp55
 70
     1
102
RTVSPropertyOp56
 70
     1
102
RTVSPropertyOp57
 70
     1
102
RTVSPropertyOp58
 70
     1
102
RTVSPropertyOp59
 70
     1
102
RTVSPropertyOp60
 70
     1
102
RTVSPropertyOp61
 70
     1
102
RTVSPropertyOp62
 70
     1
  0
ENDSEC
  0
EOF
