  0
SECTION
  2
HEADER
  9
$ACADVER
  1
AC1015
  9
$ACADMAINTVER
 70
    20
  9
$DWGCODEPAGE
  3
ANSI_932
  9
$INSBASE
 10
0.0
 20
0.0
 30
0.0
  9
$EXTMIN
 10
9.999997526638502
 20
10.0
 30
0.0
  9
$EXTMAX
 10
323.9477189144273
 20
238.7421527994593
 30
0.0
  9
$LIMMIN
 10
0.0000015376081137
 20
-0.0000001931532552
  9
$LIMMAX
 10
396.0000015376081
 20
272.9999998068465
  9
$ORTHOMODE
 70
     1
  9
$REGENMODE
 70
     1
  9
$FILLMODE
 70
     1
  9
$QTEXTMODE
 70
     0
  9
$MIRRTEXT
 70
     1
  9
$LTSCALE
 40
1.0
  9
$ATTMODE
 70
     1
  9
$TEXTSIZE
 40
2.5
  9
$TRACEWID
 40
1.0
  9
$TEXTSTYLE
  7
STANDARD
  9
$CLAYER
  8
0
  9
$CELTYPE
  6
BYLAYER
  9
$CECOLOR
 62
   256
  9
$CELTSCALE
 40
1.0
  9
$DISPSILH
 70
     0
  9
$DIMSCALE
 40
1.0
  9
$DIMASZ
 40
3.0
  9
$DIMEXO
 40
1.0
  9
$DIMDLI
 40
10.0
  9
$DIMRND
 40
0.0
  9
$DIMDLE
 40
0.0
  9
$DIMEXE
 40
1.0
  9
$DIMTP
 40
0.0
  9
$DIMTM
 40
0.0
  9
$DIMTXT
 40
3.2
  9
$DIMCEN
 40
0.0
  9
$DIMTSZ
 40
0.0
  9
$DIMTOL
 70
     0
  9
$DIMLIM
 70
     0
  9
$DIMTIH
 70
     0
  9
$DIMTOH
 70
     0
  9
$DIMSE1
 70
     0
  9
$DIMSE2
 70
     0
  9
$DIMTAD
 70
     3
  9
$DIMZIN
 70
     8
  9
$DIMBLK
  1

  9
$DIMASO
 70
     1
  9
$DIMSHO
 70
     1
  9
$DIMPOST
  1

  9
$DIMAPOST
  1

  9
$DIMALT
 70
     0
  9
$DIMALTD
 70
     2
  9
$DIMALTF
 40
25.4
  9
$DIMLFAC
 40
1.0
  9
$DIMTOFL
 70
     1
  9
$DIMTVP
 40
0.0
  9
$DIMTIX
 70
     0
  9
$DIMSOXD
 70
     0
  9
$DIMSAH
 70
     1
  9
$DIMBLK1
  1
OPEN
  9
$DIMBLK2
  1
OPEN
  9
$DIMSTYLE
  2
STANDARD
  9
$DIMCLRD
 70
     0
  9
$DIMCLRE
 70
     0
  9
$DIMCLRT
 70
     0
  9
$DIMTFAC
 40
1.0
  9
$DIMGAP
 40
1.0
  9
$DIMJUST
 70
     0
  9
$DIMSD1
 70
     0
  9
$DIMSD2
 70
     0
  9
$DIMTOLJ
 70
     1
  9
$DIMTZIN
 70
     0
  9
$DIMALTZ
 70
     0
  9
$DIMALTTZ
 70
     0
  9
$DIMUPT
 70
     0
  9
$DIMDEC
 70
     4
  9
$DIMTDEC
 70
     4
  9
$DIMALTU
 70
     2
  9
$DIMALTTD
 70
     2
  9
$DIMTXSTY
  7
STANDARD
  9
$DIMAUNIT
 70
     0
  9
$DIMADEC
 70
     0
  9
$DIMALTRND
 40
0.0
  9
$DIMAZIN
 70
     0
  9
$DIMDSEP
 70
    46
  9
$DIMATFIT
 70
     3
  9
$DIMFRAC
 70
     0
  9
$DIMLDRBLK
  1
OPEN
  9
$DIMLUNIT
 70
     2
  9
$DIMLWD
 70
    -2
  9
$DIMLWE
 70
    -2
  9
$DIMTMOVE
 70
     0
  9
$LUNITS
 70
     2
  9
$LUPREC
 70
     4
  9
$SKETCHINC
 40
1.0
  9
$FILLETRAD
 40
0.0
  9
$AUNITS
 70
     0
  9
$AUPREC
 70
     0
  9
$MENU
  1
.
  9
$ELEVATION
 40
0.0
  9
$PELEVATION
 40
0.0
  9
$THICKNESS
 40
0.0
  9
$LIMCHECK
 70
     0
  9
$CHAMFERA
 40
10.0
  9
$CHAMFERB
 40
10.0
  9
$CHAMFERC
 40
20.0
  9
$CHAMFERD
 40
0.0
  9
$SKPOLY
 70
     0
  9
$TDCREATE
 40
2454168.445695706
  9
$TDUCREATE
 40
2454168.070695706
  9
$TDUPDATE
 40
2457192.700182581
  9
$TDUUPDATE
 40
2457192.325182581
  9
$TDINDWG
 40
0.0304174074
  9
$TDUSRTIMER
 40
0.0304174074
  9
$USRTIMER
 70
     1
  9
$ANGBASE
 50
0.0
  9
$ANGDIR
 70
     0
  9
$PDMODE
 70
     0
  9
$PDSIZE
 40
0.0
  9
$PLINEWID
 40
0.0
  9
$SPLFRAME
 70
     0
  9
$SPLINETYPE
 70
     6
  9
$SPLINESEGS
 70
     8
  9
$HANDSEED
  5
A27
  9
$SURFTAB1
 70
     6
  9
$SURFTAB2
 70
     6
  9
$SURFTYPE
 70
     6
  9
$SURFU
 70
     6
  9
$SURFV
 70
     6
  9
$UCSBASE
  2

  9
$UCSNAME
  2

  9
$UCSORG
 10
0.0
 20
0.0
 30
0.0
  9
$UCSXDIR
 10
1.0
 20
0.0
 30
0.0
  9
$UCSYDIR
 10
0.0
 20
1.0
 30
0.0
  9
$UCSORTHOREF
  2

  9
$UCSORTHOVIEW
 70
     0
  9
$UCSORGTOP
 10
0.0
 20
0.0
 30
0.0
  9
$UCSORGBOTTOM
 10
0.0
 20
0.0
 30
0.0
  9
$UCSORGLEFT
 10
0.0
 20
0.0
 30
0.0
  9
$UCSORGRIGHT
 10
0.0
 20
0.0
 30
0.0
  9
$UCSORGFRONT
 10
0.0
 20
0.0
 30
0.0
  9
$UCSORGBACK
 10
0.0
 20
0.0
 30
0.0
  9
$PUCSBASE
  2

  9
$PUCSNAME
  2

  9
$PUCSORG
 10
0.0
 20
0.0
 30
0.0
  9
$PUCSXDIR
 10
1.0
 20
0.0
 30
0.0
  9
$PUCSYDIR
 10
0.0
 20
1.0
 30
0.0
  9
$PUCSORTHOREF
  2

  9
$PUCSORTHOVIEW
 70
     0
  9
$PUCSORGTOP
 10
0.0
 20
0.0
 30
0.0
  9
$PUCSORGBOTTOM
 10
0.0
 20
0.0
 30
0.0
  9
$PUCSORGLEFT
 10
0.0
 20
0.0
 30
0.0
  9
$PUCSORGRIGHT
 10
0.0
 20
0.0
 30
0.0
  9
$PUCSORGFRONT
 10
0.0
 20
0.0
 30
0.0
  9
$PUCSORGBACK
 10
0.0
 20
0.0
 30
0.0
  9
$USERI1
 70
     0
  9
$USERI2
 70
     0
  9
$USERI3
 70
     0
  9
$USERI4
 70
     0
  9
$USERI5
 70
     0
  9
$USERR1
 40
0.0
  9
$USERR2
 40
0.0
  9
$USERR3
 40
0.0
  9
$USERR4
 40
0.0
  9
$USERR5
 40
0.0
  9
$WORLDVIEW
 70
     1
  9
$SHADEDGE
 70
     3
  9
$SHADEDIF
 70
    70
  9
$TILEMODE
 70
     1
  9
$MAXACTVP
 70
    48
  9
$PINSBASE
 10
0.0
 20
0.0
 30
0.0
  9
$PLIMCHECK
 70
     0
  9
$PEXTMIN
 10
1.000000000000000E+20
 20
1.000000000000000E+20
 30
1.000000000000000E+20
  9
$PEXTMAX
 10
-1.000000000000000E+20
 20
-1.000000000000000E+20
 30
-1.000000000000000E+20
  9
$PLIMMIN
 10
0.0
 20
0.0
  9
$PLIMMAX
 10
420.0
 20
297.0
  9
$UNITMODE
 70
     0
  9
$VISRETAIN
 70
     1
  9
$PLINEGEN
 70
     0
  9
$PSLTSCALE
 70
     1
  9
$TREEDEPTH
 70
  3020
  9
$CMLSTYLE
  2
STANDARD
  9
$CMLJUST
 70
     0
  9
$CMLSCALE
 40
20.0
  9
$PROXYGRAPHICS
 70
     1
  9
$MEASUREMENT
 70
     0
  9
$CELWEIGHT
370
    -1
  9
$ENDCAPS
280
     0
  9
$JOINSTYLE
280
     0
  9
$LWDISPLAY
290
     0
  9
$INSUNITS
 70
     0
  9
$HYPERLINKBASE
  1

  9
$STYLESHEET
  1

  9
$XEDIT
290
     1
  9
$CEPSNTYPE
380
     0
  9
$PSTYLEMODE
290
     1
  9
$FINGERPRINTGUID
  2
{A12ADAB3-8523-47CB-8BB5-F0C521781FBD}
  9
$VERSIONGUID
  2
{8874B84E-EE46-412A-90C4-92869674B9A0}
  9
$EXTNAMES
290
     1
  9
$PSVPSCALE
 40
0.0
  9
$OLESTARTUP
290
     0
  0
ENDSEC
  0
SECTION
  2
CLASSES
  0
CLASS
  1
ACDBDICTIONARYWDFLT
  2
AcDbDictionaryWithDefault
  3
ObjectDBX Classes
 90
        0
280
     0
281
     0
  0
CLASS
  1
ACDBPLACEHOLDER
  2
AcDbPlaceHolder
  3
ObjectDBX Classes
 90
        0
280
     0
281
     0
  0
CLASS
  1
LAYOUT
  2
AcDbLayout
  3
ObjectDBX Classes
 90
        0
280
     0
281
     0
  0
CLASS
  1
DICTIONARYVAR
  2
AcDbDictionaryVar
  3
ObjectDBX Classes
 90
        0
280
     0
281
     0
  0
CLASS
  1
MATERIAL
  2
AcDbMaterial
  3
ObjectDBX Classes
 90
     1153
280
     0
281
     0
  0
CLASS
  1
VISUALSTYLE
  2
AcDbVisualStyle
  3
ObjectDBX Classes
 90
     4095
280
     0
281
     0
  0
CLASS
  1
TABLESTYLE
  2
AcDbTableStyle
  3
ObjectDBX Classes
 90
     4095
280
     0
281
     0
  0
CLASS
  1
SCALE
  2
AcDbScale
  3
ObjectDBX Classes
 90
     1153
280
     0
281
     0
  0
CLASS
  1
MLEADERSTYLE
  2
AcDbMLeaderStyle
  3
ACDB_MLEADERSTYLE_CLASS
 90
     4095
280
     0
281
     0
  0
CLASS
  1
ACDBSECTIONVIEWSTYLE
  2
AcDbSectionViewStyle
  3
ObjectDBX Classes
 90
     1025
280
     0
281
     0
  0
CLASS
  1
ACDBDETAILVIEWSTYLE
  2
AcDbDetailViewStyle
  3
ObjectDBX Classes
 90
     1025
280
     0
281
     0
  0
CLASS
  1
CELLSTYLEMAP
  2
AcDbCellStyleMap
  3
ObjectDBX Classes
 90
     1152
280
     0
281
     0
  0
ENDSEC
  0
SECTION
  2
TABLES
  0
TABLE
  2
VPORT
  5
8
330
0
100
AcDbSymbolTable
 70
     1
  0
VPORT
  5
971
330
8
100
AcDbSymbolTableRecord
100
AcDbViewportTableRecord
  2
*ACTIVE
 70
     0
 10
0.0
 20
0.0
 11
1.0
 21
1.0
 12
261.7227888687453
 22
124.3675465098932
 13
0.0
 23
0.0
 14
10.0
 24
10.0
 15
10.0
 25
10.0
 16
0.0
 26
0.0
 36
1.0
 17
0.0
 27
0.0
 37
0.0
 40
230.4962317234222
 41
2.35006605019815
 42
50.0
 43
0.0
 44
0.0
 50
0.0
 51
0.0
 71
     0
 72
   100
 73
     1
 74
     0
 75
     0
 76
     0
 77
     0
 78
     0
281
     0
 65
     1
110
0.0
120
0.0
130
0.0
111
1.0
121
0.0
131
0.0
112
0.0
122
1.0
132
0.0
 79
     0
146
0.0
1001
ACAD_NAV_VCDISPLAY
1070
     3
  0
ENDTAB
  0
TABLE
  2
LTYPE
  5
5
330
0
100
AcDbSymbolTable
 70
     4
  0
LTYPE
  5
12
330
5
100
AcDbSymbolTableRecord
100
AcDbLinetypeTableRecord
  2
BYBLOCK
 70
     0
  3

 72
    65
 73
     0
 40
0.0
  0
LTYPE
  5
13
330
5
100
AcDbSymbolTableRecord
100
AcDbLinetypeTableRecord
  2
BYLAYER
 70
     0
  3

 72
    65
 73
     0
 40
0.0
  0
LTYPE
  5
14
330
5
100
AcDbSymbolTableRecord
100
AcDbLinetypeTableRecord
  2
CONTINUOUS
 70
     0
  3
Solid line
 72
    65
 73
     0
 40
0.0
  0
LTYPE
  5
4B
330
5
100
AcDbSymbolTableRecord
100
AcDbLinetypeTableRecord
  2
DASHED
 70
     0
  3
Dashed __ __ __ __ __ __ __ __ __ __ __ __ __ _
 72
    65
 73
     2
 40
19.04999999999999
 49
12.7
 74
     0
 49
-6.349999999999998
 74
     0
  0
LTYPE
  5
4C
330
5
100
AcDbSymbolTableRecord
100
AcDbLinetypeTableRecord
  2
CENTER
 70
     0
  3
Center ____ _ ____ _ ____ _ ____ _ ____ _ ____
 72
    65
 73
     4
 40
50.8
 49
31.75
 74
     0
 49
-6.349999999999998
 74
     0
 49
6.349999999999998
 74
     0
 49
-6.349999999999998
 74
     0
  0
LTYPE
  5
4D
330
5
100
AcDbSymbolTableRecord
100
AcDbLinetypeTableRecord
  2
PHANTOM
 70
     0
  3
Phantom ______  __  __  ______  __  __  ______
 72
    65
 73
     6
 40
63.5
 49
31.75
 74
     0
 49
-6.349999999999998
 74
     0
 49
6.349999999999998
 74
     0
 49
-6.349999999999998
 74
     0
 49
6.349999999999998
 74
     0
 49
-6.349999999999998
 74
     0
  0
ENDTAB
  0
TABLE
  2
LAYER
  5
2
330
0
100
AcDbSymbolTable
 70
     8
  0
LAYER
  5
E
102
{ACAD_XDICTIONARY
360
9CB
102
}
330
2
100
AcDbSymbolTableRecord
100
AcDbLayerTableRecord
  2
0
 70
     0
 62
     7
  6
CONTINUOUS
370
    -3
390
97A
  0
LAYER
  5
4E
102
{ACAD_XDICTIONARY
360
9CD
102
}
330
2
100
AcDbSymbolTableRecord
100
AcDbLayerTableRecord
  2
4
 70
     0
 62
     1
  6
CENTER
370
    -3
390
97A
  0
LAYER
  5
4F
102
{ACAD_XDICTIONARY
360
9CF
102
}
330
2
100
AcDbSymbolTableRecord
100
AcDbLayerTableRecord
  2
5
 70
     0
 62
     6
  6
PHANTOM
370
    -3
390
97A
  0
LAYER
  5
50
102
{ACAD_XDICTIONARY
360
9D1
102
}
330
2
100
AcDbSymbolTableRecord
100
AcDbLayerTableRecord
  2
1
 70
     0
 62
     7
  6
CONTINUOUS
370
    -3
390
97A
  0
LAYER
  5
51
102
{ACAD_XDICTIONARY
360
9D3
102
}
330
2
100
AcDbSymbolTableRecord
100
AcDbLayerTableRecord
  2
2
 70
     0
 62
     4
  6
CONTINUOUS
370
    -3
390
97A
  0
LAYER
  5
52
102
{ACAD_XDICTIONARY
360
9D5
102
}
330
2
100
AcDbSymbolTableRecord
100
AcDbLayerTableRecord
  2
3
 70
     0
 62
     2
  6
DASHED
370
    -3
390
97A
  0
LAYER
  5
53
102
{ACAD_XDICTIONARY
360
9D7
102
}
330
2
100
AcDbSymbolTableRecord
100
AcDbLayerTableRecord
  2
6
 70
     0
 62
     5
  6
CONTINUOUS
370
    -3
390
97A
  0
LAYER
  5
54
102
{ACAD_XDICTIONARY
360
9D9
102
}
330
2
100
AcDbSymbolTableRecord
100
AcDbLayerTableRecord
  2
7
 70
     0
 62
     3
  6
CONTINUOUS
370
    -3
390
97A
  0
ENDTAB
  0
TABLE
  2
STYLE
  5
3
330
0
100
AcDbSymbolTable
 70
     1
  0
STYLE
  5
F
330
3
100
AcDbSymbolTableRecord
100
AcDbTextStyleTableRecord
  2
STANDARD
 70
     0
 40
0.0
 41
1.0
 50
0.0
 71
     0
 42
2.5
  3
simplex.shx
  4

  0
ENDTAB
  0
TABLE
  2
VIEW
  5
6
330
0
100
AcDbSymbolTable
 70
     0
  0
ENDTAB
  0
TABLE
  2
UCS
  5
7
330
0
100
AcDbSymbolTable
 70
     0
  0
ENDTAB
  0
TABLE
  2
APPID
  5
9
330
0
100
AcDbSymbolTable
 70
     5
  0
APPID
  5
10
330
9
100
AcDbSymbolTableRecord
100
AcDbRegAppTableRecord
  2
ACAD
 70
     0
  0
APPID
  5
3E
330
9
100
AcDbSymbolTableRecord
100
AcDbRegAppTableRecord
  2
CONTENTTABDATA
 70
     0
  0
APPID
  5
3F
330
9
100
AcDbSymbolTableRecord
100
AcDbRegAppTableRecord
  2
CONTENTCURRENTTAB
 70
     0
  0
APPID
  5
9E5
330
9
100
AcDbSymbolTableRecord
100
AcDbRegAppTableRecord
  2
ACAD_NAV_VCDISPLAY
 70
     0
  0
APPID
  5
A1E
330
9
100
AcDbSymbolTableRecord
100
AcDbRegAppTableRecord
  2
ACAD_MLEADERVER
 70
     0
  0
ENDTAB
  0
TABLE
  2
DIMSTYLE
  5
A
330
0
100
AcDbSymbolTable
 70
     1
100
AcDbDimStyleTable
 71
     0
  0
DIMSTYLE
105
1D
330
A
100
AcDbSymbolTableRecord
100
AcDbDimStyleTableRecord
  2
STANDARD
 70
     0
 41
3.0
 42
1.0
 43
10.0
 44
1.0
 73
     0
 74
     0
 77
     3
 78
     8
140
3.2
141
0.0
147
1.0
172
     1
173
     1
340
F
341
2E
343
2E
344
2E
  0
ENDTAB
  0
TABLE
  2
BLOCK_RECORD
  5
1
330
0
100
AcDbSymbolTable
 70
     1
  0
BLOCK_RECORD
  5
18
102
{ACAD_XDICTIONARY
360
974
102
}
330
1
100
AcDbSymbolTableRecord
100
AcDbBlockTableRecord
  2
*MODEL_SPACE
340
9C8
  0
BLOCK_RECORD
  5
15
102
{ACAD_XDICTIONARY
360
972
102
}
330
1
100
AcDbSymbolTableRecord
100
AcDbBlockTableRecord
  2
*PAPER_SPACE
340
9C9
  0
BLOCK_RECORD
  5
2E
330
1
100
AcDbSymbolTableRecord
100
AcDbBlockTableRecord
  2
_OPEN
340
0
  0
ENDTAB
  0
ENDSEC
  0
SECTION
  2
BLOCKS
  0
BLOCK
  5
19
330
18
100
AcDbEntity
  8
0
100
AcDbBlockBegin
  2
*MODEL_SPACE
 70
     0
 10
0.0
 20
0.0
 30
0.0
  3
*MODEL_SPACE
  1

  0
ENDBLK
  5
1A
330
18
100
AcDbEntity
  8
0
100
AcDbBlockEnd
  0
BLOCK
  5
16
330
15
100
AcDbEntity
 67
     1
  8
0
100
AcDbBlockBegin
  2
*PAPER_SPACE
 70
     0
 10
0.0
 20
0.0
 30
0.0
  3
*PAPER_SPACE
  1

  0
ENDBLK
  5
17
330
15
100
AcDbEntity
 67
     1
  8
0
100
AcDbBlockEnd
  0
BLOCK
  5
2F
330
2E
100
AcDbEntity
  8
0
100
AcDbBlockBegin
  2
_OPEN
 70
     0
 10
0.0
 20
0.0
 30
0.0
  3
_OPEN
  1

  0
LINE
  5
30
330
2E
100
AcDbEntity
  8
0
  6
ByBlock
 62
     0
100
AcDbLine
 10
-1.0
 20
0.1666666666666666
 30
0.0
 11
0.0
 21
0.0
 31
0.0
  0
LINE
  5
31
330
2E
100
AcDbEntity
  8
0
  6
ByBlock
 62
     0
100
AcDbLine
 10
0.0
 20
0.0
 30
0.0
 11
-1.0
 21
-0.1666666666666666
 31
0.0
  0
LINE
  5
32
330
2E
100
AcDbEntity
  8
0
  6
ByBlock
 62
     0
100
AcDbLine
 10
0.0
 20
0.0
 30
0.0
 11
-1.0
 21
0.0
 31
0.0
  0
ENDBLK
  5
33
330
2E
100
AcDbEntity
  8
0
100
AcDbBlockEnd
  0
ENDSEC
  0
SECTION
  2
ENTITIES
  0
TEXT
  5
63
330
18
100
AcDbEntity
  8
4
  6
CENTER
 48
0.25
100
AcDbText
 10
23.97950852663849
 20
10.0
 30
0.0
 40
1.399999999999999
  1
4
100
AcDbText
  0
TEXT
  5
66
330
18
100
AcDbEntity
  8
1
  6
Continuous
 48
0.25
100
AcDbText
 10
9.999997526638502
 20
10.00000076076889
 30
0.0
 40
1.399999999999999
  1
LAYER
100
AcDbText
  0
TEXT
  5
67
330
18
100
AcDbEntity
  8
2
  6
Continuous
 48
0.25
100
AcDbText
 10
19.9795085266385
 20
10.0
 30
0.0
 40
1.399999999999999
  1
2
100
AcDbText
  0
TEXT
  5
68
330
18
100
AcDbEntity
  8
3
  6
DASHED
 48
0.25
100
AcDbText
 10
21.9795085266385
 20
10.0
 30
0.0
 40
1.399999999999999
  1
3
100
AcDbText
  0
TEXT
  5
69
330
18
100
AcDbEntity
  8
1
  6
Continuous
 48
0.25
100
AcDbText
 10
17.9795085266385
 20
10.0
 30
0.0
 40
1.399999999999999
  1
1
100
AcDbText
  0
TEXT
  5
6A
330
18
100
AcDbEntity
  8
5
  6
PHANTOM
 48
0.25
100
AcDbText
 10
25.9795085266385
 20
10.0
 30
0.0
 40
1.399999999999999
  1
5
100
AcDbText
  0
TEXT
  5
6B
330
18
100
AcDbEntity
  8
6
  6
Continuous
 48
0.25
100
AcDbText
 10
27.9795085266385
 20
10.0
 30
0.0
 40
1.399999999999999
  1
6
100
AcDbText
  0
TEXT
  5
6C
330
18
100
AcDbEntity
  8
7
  6
Continuous
 48
0.25
100
AcDbText
 10
29.9795085266385
 20
10.0
 30
0.0
 40
1.399999999999999
  1
7
100
AcDbText
  0
LINE
  5
36E
330
18
100
AcDbEntity
  8
1
  6
Continuous
100
AcDbLine
 10
202.0302246001429
 20
146.7343803541177
 30
0.0
 11
189.5702172479357
 21
146.7343803541177
 31
0.0
  0
LINE
  5
36F
330
18
100
AcDbEntity
  8
1
  6
Continuous
100
AcDbLine
 10
207.1702220542504
 20
142.3343801451288
 30
0.0
 11
189.5402951254193
 21
141.4113473216296
 31
0.0
  0
LINE
  5
370
330
18
100
AcDbEntity
  8
1
  6
Continuous
100
AcDbLine
 10
189.5702180678529
 20
125.9343793661707
 30
0.0
 11
202.0302246001427
 21
125.9343793661707
 31
0.0
  0
LINE
  5
371
330
18
100
AcDbEntity
  8
1
  6
Continuous
100
AcDbLine
 10
189.5402951254105
 20
131.2574123986593
 30
0.0
 11
207.1702220542504
 21
130.3343795751596
 31
0.0
  0
LINE
  5
372
330
18
100
AcDbEntity
  8
4
  6
CENTER
 48
0.2
100
AcDbLine
 10
184.5202211157924
 20
136.3343798601442
 30
0.0
 11
238.7202226426137
 21
136.3343798601442
 31
0.0
  0
ARC
  5
373
330
18
100
AcDbEntity
  8
1
  6
Continuous
100
AcDbCircle
 10
189.5765930371877
 20
132.7558376459786
 30
0.0
 40
1.498864823859707
100
AcDbArc
 50
179.9297939411368
 51
268.6123361833679
  0
LINE
  5
374
330
18
100
AcDbEntity
  8
1
  6
Continuous
100
AcDbLine
 10
188.0702211470493
 20
127.4341343900028
 30
0.0
 11
188.0702211470493
 21
145.2343802828715
 31
0.0
  0
LINE
  5
375
330
18
100
AcDbEntity
  8
1
  6
Continuous
100
AcDbLine
 10
187.4202211157924
 20
144.3844380875207
 30
0.0
 11
187.4202211157924
 21
128.2843216326021
 31
0.0
  0
LINE
  5
376
330
18
100
AcDbEntity
  8
1
  6
Continuous
100
AcDbLine
 10
142.7997979394231
 20
141.0202440045551
 30
0.0
 11
142.7997979394231
 21
131.6474732091624
 31
0.0
  0
LINE
  5
377
330
18
100
AcDbEntity
  8
1
  6
Continuous
100
AcDbLine
 10
111.3916743982444
 20
141.0202440045551
 30
0.0
 11
111.3916743982444
 21
131.6474732091624
 31
0.0
  0
LINE
  5
378
330
18
100
AcDbEntity
  8
1
  6
Continuous
100
AcDbLine
 10
24.1212499634147
 20
129.8843796493046
 30
0.0
 11
24.12124996341481
 21
135.6397871164851
 31
0.0
  0
LINE
  5
379
330
18
100
AcDbEntity
  8
1
  6
Continuous
100
AcDbLine
 10
24.42124921472441
 20
132.3843796725292
 30
0.0
 11
28.12124939046509
 21
132.1343796606549
 31
0.0
  0
LINE
  5
37A
330
18
100
AcDbEntity
  8
1
  6
Continuous
100
AcDbLine
 10
22.97124990879262
 20
129.5843795395364
 30
0.0
 11
22.97124990879262
 21
143.084380180752
 31
0.0
  0
LINE
  5
37B
330
18
100
AcDbEntity
  8
1
  6
Continuous
100
AcDbLine
 10
23.9712499562388
 20
129.8843795537855
 30
0.0
 11
23.9712499562388
 21
142.7843801665028
 31
0.0
  0
LINE
  5
37C
330
18
100
AcDbEntity
  8
1
  6
Continuous
100
AcDbLine
 10
22.4712498850439
 20
130.1968795686285
 30
0.0
 11
22.4712498850439
 21
142.4718801516599
 31
0.0
  0
LINE
  5
37D
330
18
100
AcDbEntity
  8
1
  6
Continuous
100
AcDbLine
 10
18.47124969505421
 20
140.6183880432827
 30
0.0
 11
18.47124969505409
 21
132.0495893007186
 31
0.0
  0
LINE
  5
37E
330
18
100
AcDbEntity
  8
1
  6
Continuous
100
AcDbLine
 10
47.02125028341729
 20
130.3343795751596
 30
0.0
 11
47.02125028341729
 21
142.3343801451288
 31
0.0
  0
LINE
  5
37F
330
18
100
AcDbEntity
  8
1
  6
Continuous
100
AcDbLine
 10
45.32125058889085
 20
148.3343804301136
 30
0.0
 11
45.32125058889085
 21
124.3343792901747
 31
0.0
  0
LINE
  5
380
330
18
100
AcDbEntity
  8
1
  6
Continuous
100
AcDbLine
 10
44.1212505318939
 20
122.8343792189286
 30
0.0
 11
44.1212505318939
 21
149.8343805013598
 31
0.0
  0
LINE
  5
381
330
18
100
AcDbEntity
  8
1
  6
Continuous
100
AcDbLine
 10
40.1212503419041
 20
122.8343792189286
 30
0.0
 11
40.1212503419041
 21
149.8343805013597
 31
0.0
  0
LINE
  5
382
330
18
100
AcDbEntity
  8
1
  6
Continuous
100
AcDbLine
 10
33.12125000942194
 20
134.1595234397509
 30
0.0
 11
33.12125000942228
 21
126.3343793759796
 31
0.0
  0
LINE
  5
383
330
18
100
AcDbEntity
  8
1
  6
Continuous
100
AcDbLine
 10
29.12124981943213
 20
126.4343793899194
 30
0.0
 11
29.12124981943213
 21
133.5343797271513
 31
0.0
  0
LINE
  5
384
330
18
100
AcDbEntity
  8
1
  6
Continuous
100
AcDbLine
 10
28.12124892400186
 20
144.7824560772143
 30
0.0
 11
28.12124892400186
 21
127.4343802853498
 31
0.0
  0
LINE
  5
385
330
18
100
AcDbEntity
  8
1
  6
Continuous
100
AcDbLine
 10
46.12125062688881
 20
120.3343791001847
 30
0.0
 11
46.12125062688881
 21
152.3343806201033
 31
0.0
  0
ARC
  5
386
330
18
100
AcDbEntity
  8
1
  6
Continuous
100
AcDbCircle
 10
64.61487930048005
 20
132.7558376459786
 30
0.0
 40
1.498864823859707
100
AcDbArc
 50
271.387663816632
 51
0.0702060588631867
  0
LINE
  5
387
330
18
100
AcDbEntity
  8
1
  6
Continuous
100
AcDbLine
 10
66.77125122187542
 20
144.3844380875207
 30
0.0
 11
66.77125122187542
 21
128.2843216325288
 31
0.0
  0
LINE
  5
388
330
18
100
AcDbEntity
  8
1
  6
Continuous
100
AcDbLine
 10
66.12125119061838
 20
127.4341343900028
 30
0.0
 11
66.12125119061838
 21
145.2343802828715
 31
0.0
  0
LINE
  5
389
330
18
100
AcDbEntity
  8
4
  6
CENTER
 48
0.2
100
AcDbLine
 10
127.0957361688339
 20
117.334379100185
 30
0.0
 11
127.0957361688339
 21
155.3343806201033
 31
0.0
  0
CIRCLE
  5
38A
330
18
100
AcDbEntity
  8
1
  6
Continuous
100
AcDbCircle
 10
127.0957361688339
 20
136.3343798601442
 30
0.0
 40
8.350000396603718
  0
LINE
  5
38B
330
18
100
AcDbEntity
  8
1
  6
Continuous
100
AcDbLine
 10
152.0957373562704
 20
131.8029587240182
 30
0.0
 11
152.0957373562704
 21
140.8658009962701
 31
0.0
  0
LINE
  5
38C
330
18
100
AcDbEntity
  8
1
  6
Continuous
100
AcDbLine
 10
102.0957349813975
 20
131.8029587240182
 30
0.0
 11
102.0957349813975
 21
140.8658009962701
 31
0.0
  0
CIRCLE
  5
38D
330
18
100
AcDbEntity
  8
1
  6
Continuous
100
AcDbCircle
 10
127.0957361688339
 20
136.3343798601442
 30
0.0
 40
8.600000408478088
  0
TEXT
  5
390
330
18
100
AcDbEntity
  8
7
  6
Continuous
 48
0.25
100
AcDbText
 10
9.999999383704562
 20
18.00000039987883
 30
0.0
 40
3.0
  1
TYPE No.TEA-1000-U150
100
AcDbText
  0
TEXT
  5
391
330
18
100
AcDbEntity
  8
7
  6
Continuous
 48
0.25
100
AcDbText
 10
9.999999383704562
 20
26.00000039987884
 30
0.0
 40
3.0
  1
CODE No.13340
100
AcDbText
  0
LINE
  5
399
330
18
100
AcDbEntity
  8
1
  6
Continuous
100
AcDbLine
 10
40.1212503419041
 20
122.8343792189286
 30
0.0
 11
44.1212505318939
 21
122.8343792189286
 31
0.0
  0
LINE
  5
39A
330
18
100
AcDbEntity
  8
1
  6
Continuous
100
AcDbLine
 10
18.97124971880282
 20
131.5495892769698
 30
0.0
 11
22.4712498850439
 21
131.5495892769698
 31
0.0
  0
ARC
  5
39B
330
18
100
AcDbEntity
  8
1
  6
Continuous
100
AcDbCircle
 10
18.97124971880282
 20
132.0495893007186
 30
0.0
 40
0.5000000237487168
100
AcDbArc
 50
180.0
 51
270.0
  0
LINE
  5
39C
330
18
100
AcDbEntity
  8
1
  6
Continuous
100
AcDbLine
 10
23.97124995626506
 20
131.3933930405143
 30
0.0
 11
24.1212499634147
 21
131.3933930405143
 31
0.0
  0
LINE
  5
39D
330
18
100
AcDbEntity
  8
1
  6
Continuous
100
AcDbLine
 10
23.97124995626461
 20
130.7485158231417
 30
0.0
 11
24.1212499634147
 21
130.7485158231417
 31
0.0
  0
LINE
  5
39E
330
18
100
AcDbEntity
  8
1
  6
Continuous
100
AcDbLine
 10
23.97124995626461
 20
130.2733622579506
 30
0.0
 11
24.1212499634147
 21
130.2733622579506
 31
0.0
  0
LINE
  5
39F
330
18
100
AcDbEntity
  8
1
  6
Continuous
100
AcDbLine
 10
23.97124995626484
 20
129.9823696455789
 30
0.0
 11
24.1212499634147
 21
129.9823696455789
 31
0.0
  0
ARC
  5
3A0
330
18
100
AcDbEntity
  8
1
  6
Continuous
100
AcDbCircle
 10
23.67124994204084
 20
129.8843795537855
 30
0.0
 40
0.3000000142492439
100
AcDbArc
 50
270.0
 51
0.000000000000007
  0
LINE
  5
3A1
330
18
100
AcDbEntity
  8
1
  6
Continuous
100
AcDbLine
 10
23.97124995626484
 20
129.8843796493046
 30
0.0
 11
24.1212499634147
 21
129.8843796493046
 31
0.0
  0
LINE
  5
3A2
330
18
100
AcDbEntity
  8
1
  6
Continuous
100
AcDbLine
 10
22.97124990879262
 20
129.5843795395364
 30
0.0
 11
22.47114988504381
 21
130.1970020686286
 31
0.0
  0
LINE
  5
3A3
330
18
100
AcDbEntity
  8
1
  6
Continuous
100
AcDbLine
 10
23.67124994204084
 20
129.5843795395364
 30
0.0
 11
22.97124990879262
 21
129.5843795395364
 31
0.0
  0
LINE
  5
3A4
330
18
100
AcDbEntity
  8
1
  6
Continuous
100
AcDbLine
 10
40.1212503419041
 20
131.751803996059
 30
0.0
 11
33.12125000942205
 21
131.7518039717933
 31
0.0
  0
LINE
  5
3A5
330
18
100
AcDbEntity
  8
1
  6
Continuous
100
AcDbLine
 10
34.22124803111546
 20
125.7343792613038
 30
0.0
 11
36.22125295015678
 21
125.7343792613038
 31
0.0
  0
LINE
  5
3A6
330
18
100
AcDbEntity
  8
1
  6
Continuous
100
AcDbLine
 10
40.1212503419041
 20
126.3343793667896
 30
0.0
 11
33.12125000942205
 21
126.3343793759796
 31
0.0
  0
LINE
  5
3A7
330
18
100
AcDbEntity
  8
1
  6
Continuous
100
AcDbLine
 10
37.14558701434759
 20
125.9843773073223
 30
0.0
 11
35.22125049063641
 21
125.9843792731788
 31
0.0
  0
LINE
  5
3A8
330
18
100
AcDbEntity
  8
1
  6
Continuous
100
AcDbLine
 10
29.12124981943339
 20
126.4343793899182
 30
0.0
 11
28.12124892400186
 21
127.4343802853498
 31
0.0
  0
LINE
  5
3A9
330
18
100
AcDbEntity
  8
1
  6
Continuous
100
AcDbLine
 10
32.02143741266207
 20
126.4343793899194
 30
0.0
 11
29.12124981943213
 21
126.4343793899194
 31
0.0
  0
LINE
  5
3AA
330
18
100
AcDbEntity
  8
1
  6
Continuous
100
AcDbLine
 10
33.2969139669251
 20
125.9843773073225
 30
0.0
 11
35.22125049063641
 21
125.9843792731788
 31
0.0
  0
LINE
  5
3AB
330
18
100
AcDbEntity
  8
1
  6
Continuous
100
AcDbLine
 10
33.29691394945825
 20
125.9843773375756
 30
0.0
 11
32.91831146108688
 21
126.6401360833069
 31
0.0
  0
ARC
  5
3AC
330
18
100
AcDbEntity
  8
1
  6
Continuous
100
AcDbCircle
 10
35.01266367989285
 20
115.4507536122858
 30
0.0
 40
11.38369848947221
100
AcDbArc
 50
99.56410891501178
 51
105.2351001075215
  0
ARC
  5
3AD
330
18
100
AcDbEntity
  8
1
  6
Continuous
100
AcDbCircle
 10
35.71333853878206
 20
133.0849820151563
 30
0.0
 40
7.500512977657701
100
AcDbArc
 50
251.2058718640203
 51
258.5254997507755
  0
LINE
  5
3AE
330
18
100
AcDbEntity
  8
1
  6
Continuous
100
AcDbLine
 10
37.34766080820998
 20
126.3343793851699
 30
0.0
 11
37.14558699688109
 21
125.9843772770692
 31
0.0
  0
ARC
  5
3AF
330
18
100
AcDbEntity
  8
1
  6
Continuous
100
AcDbCircle
 10
34.72916244249176
 20
133.0849820151529
 30
0.0
 40
7.500512977654116
100
AcDbArc
 50
281.4745002492177
 51
288.7941281359798
  0
LINE
  5
3B0
330
18
100
AcDbEntity
  8
1
  6
Continuous
100
AcDbLine
 10
64.6212542698149
 20
125.9343793661707
 30
0.0
 11
52.16124773752502
 21
125.9343793661707
 31
0.0
  0
LINE
  5
3B1
330
18
100
AcDbEntity
  8
1
  6
Continuous
100
AcDbLine
 10
64.65117721225722
 20
131.2574123986593
 30
0.0
 11
47.02125028341729
 21
130.3343795751596
 31
0.0
  0
LINE
  5
3B2
330
18
100
AcDbEntity
  8
1
  6
Continuous
100
AcDbLine
 10
47.72125070288473
 20
120.3343791001849
 30
0.0
 11
52.12135091187359
 21
124.3344701992652
 31
0.0
  0
LINE
  5
3B3
330
18
100
AcDbEntity
  8
1
  6
Continuous
100
AcDbLine
 10
47.72125070288473
 20
120.3343791001848
 30
0.0
 11
47.72125070288472
 21
130.3710288117809
 31
0.0
  0
LINE
  5
3B4
330
18
100
AcDbEntity
  8
1
  6
Continuous
100
AcDbLine
 10
46.12125062688881
 20
120.3343791001847
 30
0.0
 11
47.72125070288473
 21
120.3343791001847
 31
0.0
  0
LINE
  5
3B5
330
18
100
AcDbEntity
  8
1
  6
Continuous
100
AcDbLine
 10
45.32125058889085
 20
126.3343793667896
 30
0.0
 11
44.1212505318939
 21
126.3343793667896
 31
0.0
  0
LINE
  5
3B6
330
18
100
AcDbEntity
  8
1
  6
Continuous
100
AcDbLine
 10
46.12125062688881
 20
124.3343792901747
 30
0.0
 11
45.32125058889085
 21
124.3343792901747
 31
0.0
  0
LINE
  5
3B7
330
18
100
AcDbEntity
  8
1
  6
Continuous
100
AcDbLine
 10
46.12125062688881
 20
130.1497211279624
 30
0.0
 11
45.32125058889085
 21
130.1497211279624
 31
0.0
  0
LINE
  5
3B8
330
18
100
AcDbEntity
  8
1
  6
Continuous
100
AcDbLine
 10
45.32125058889085
 20
131.751803996059
 30
0.0
 11
44.1212505318939
 21
131.751803996059
 31
0.0
  0
LINE
  5
3B9
330
18
100
AcDbEntity
  8
1
  6
Continuous
100
AcDbLine
 10
52.12125091187353
 20
130.6013953148694
 30
0.0
 11
52.12125091187353
 21
124.3343792901743
 31
0.0
  0
LINE
  5
3BA
330
18
100
AcDbEntity
  8
1
  6
Continuous
100
AcDbLine
 10
52.16124773752506
 20
125.9343793661707
 30
0.0
 11
52.12125091187353
 21
125.9181741011087
 31
0.0
  0
ARC
  5
3BB
330
18
100
AcDbEntity
  8
1
  6
Continuous
100
AcDbCircle
 10
66.47125121320297
 20
128.2843794777897
 30
0.0
 40
0.3000000142492325
100
AcDbArc
 50
269.999999999987
 51
359.9889524168474
  0
ARC
  5
3BC
330
18
100
AcDbEntity
  8
1
  6
Continuous
100
AcDbCircle
 10
64.6212511193722
 20
127.4343794374169
 30
0.0
 40
1.500000071246175
100
AcDbArc
 50
270.0001203380379
 51
359.9906398786667
  0
LINE
  5
3BD
330
18
100
AcDbEntity
  8
1
  6
Continuous
100
AcDbLine
 10
66.47125121320286
 20
127.9843794635405
 30
0.0
 11
66.12125117060234
 21
127.9843794635405
 31
0.0
  0
LINE
  5
3BE
330
18
100
AcDbEntity
  8
1
  6
Continuous
100
AcDbLine
 10
136.9957366390585
 20
49.66220759267479
 30
0.0
 11
136.9957366390585
 21
46.76220745493218
 31
0.0
  0
LINE
  5
3BF
330
18
100
AcDbEntity
  8
1
  6
Continuous
100
AcDbLine
 10
117.5999471776182
 20
48.26220753185831
 30
0.0
 11
117.5999471776182
 21
46.76220745493218
 31
0.0
  0
LINE
  5
3C0
330
18
100
AcDbEntity
  8
4
  6
CENTER
 48
0.2
100
AcDbLine
 10
127.0957361688339
 20
87.31351138167793
 30
0.0
 11
127.0957361688339
 21
33.92660692082914
 31
0.0
  0
LINE
  5
3C1
330
18
100
AcDbEntity
  8
1
  6
Continuous
100
AcDbLine
 10
136.9957366390598
 20
46.76220745493342
 30
0.0
 11
135.9957357436283
 21
45.7622065595019
 31
0.0
  0
LINE
  5
3C2
330
18
100
AcDbEntity
  8
1
  6
Continuous
100
AcDbLine
 10
136.9957366390585
 20
46.76220745493218
 30
0.0
 11
117.5999471776182
 21
46.76220745493218
 31
0.0
  0
LINE
  5
3C3
330
18
100
AcDbEntity
  8
1
  6
Continuous
100
AcDbLine
 10
120.9582358773183
 20
40.1122075205439
 30
0.0
 11
120.345735848226
 21
40.61220754429263
 31
0.0
  0
LINE
  5
3C4
330
18
100
AcDbEntity
  8
1
  6
Continuous
100
AcDbLine
 10
120.6457359400842
 20
41.7622075989147
 30
0.0
 11
126.4011434251747
 21
41.7622075989147
 31
0.0
  0
LINE
  5
3C5
330
18
100
AcDbEntity
  8
1
  6
Continuous
100
AcDbLine
 10
133.5457364751923
 20
41.61220759179005
 30
0.0
 11
120.6457358624752
 21
41.61220759179005
 31
0.0
  0
LINE
  5
3C6
330
18
100
AcDbEntity
  8
1
  6
Continuous
100
AcDbLine
 10
133.8457364894417
 20
40.61220754429263
 30
0.0
 11
120.345735848226
 21
40.61220754429263
 31
0.0
  0
LINE
  5
3C7
330
18
100
AcDbEntity
  8
1
  6
Continuous
100
AcDbLine
 10
118.6476599517638
 20
45.76220655950188
 30
0.0
 11
135.9957357436283
 21
45.7622065595019
 31
0.0
  0
ARC
  5
3C8
330
18
100
AcDbEntity
  8
1
  6
Continuous
100
AcDbCircle
 10
120.6457358624752
 20
41.31220757754082
 30
0.0
 40
0.3000000142492439
100
AcDbArc
 50
90.0
 51
179.999999999997
  0
LINE
  5
3C9
330
18
100
AcDbEntity
  8
1
  6
Continuous
100
AcDbLine
 10
120.345735848226
 20
40.61220754429263
 30
0.0
 11
120.345735848226
 21
41.31220757754085
 31
0.0
  0
LINE
  5
3CA
330
18
100
AcDbEntity
  8
1
  6
Continuous
100
AcDbLine
 10
120.6457359400842
 20
41.61220759176496
 30
0.0
 11
120.6457359400842
 21
41.7622075989147
 31
0.0
  0
LINE
  5
3CB
330
18
100
AcDbEntity
  8
1
  6
Continuous
100
AcDbLine
 10
117.5999471776182
 20
46.76220745493234
 30
0.0
 11
118.6476599517638
 21
45.76220655950188
 31
0.0
  0
ARC
  5
3CC
330
18
100
AcDbEntity
  8
1
  6
Continuous
100
AcDbCircle
 10
129.536470369224
 20
36.37482184295584
 30
0.0
 40
0.2646911067857573
100
AcDbArc
 50
277.1817144754475
 51
337.3332128846836
  0
ARC
  5
3CD
330
18
100
AcDbEntity
  8
1
  6
Continuous
100
AcDbCircle
 10
132.0764050403157
 20
36.65741374343957
 30
0.0
 40
0.5462053467178583
100
AcDbArc
 50
266.5342739585773
 51
355.252515332513
  0
ARC
  5
3CE
330
18
100
AcDbEntity
  8
1
  6
Continuous
100
AcDbCircle
 10
128.1457362187061
 20
36.41220734480333
 30
0.0
 40
0.3000000142492283
100
AcDbArc
 50
180.0
 51
270.0
  0
ARC
  5
3CF
330
18
100
AcDbEntity
  8
1
  6
Continuous
100
AcDbCircle
 10
126.0457361189615
 20
36.41220734480333
 30
0.0
 40
0.3000000142492283
100
AcDbArc
 50
270.0
 51
0.0
  0
ARC
  5
3D0
330
18
100
AcDbEntity
  8
1
  6
Continuous
100
AcDbCircle
 10
124.6550019684437
 20
36.37482184295584
 30
0.0
 40
0.2646911067857573
100
AcDbArc
 50
202.6667871153163
 51
262.8182855245522
  0
ARC
  5
3D1
330
18
100
AcDbEntity
  8
1
  6
Continuous
100
AcDbCircle
 10
122.1150672973519
 20
36.65741374343957
 30
0.0
 40
0.5462053467178583
100
AcDbArc
 50
184.7474846674866
 51
273.4657260414226
  0
LINE
  5
3D2
330
18
100
AcDbEntity
  8
1
  6
Continuous
100
AcDbLine
 10
128.1457362187061
 20
36.11220733055411
 30
0.0
 11
132.0433861345766
 21
36.11220733055411
 31
0.0
  0
LINE
  5
3D3
330
18
100
AcDbEntity
  8
1
  6
Continuous
100
AcDbLine
 10
126.0457361189615
 20
36.11220733055411
 30
0.0
 11
122.148086203091
 21
36.11220733055411
 31
0.0
  0
LINE
  5
3D4
330
18
100
AcDbEntity
  8
1
  6
Continuous
100
AcDbLine
 10
133.2332364603493
 20
40.1122075205439
 30
0.0
 11
120.9582358773183
 21
40.1122075205439
 31
0.0
  0
LINE
  5
3D5
330
18
100
AcDbEntity
  8
1
  6
Continuous
100
AcDbLine
 10
123.1457359812187
 20
42.0622068502244
 30
0.0
 11
131.0457363564488
 21
42.0622068502244
 31
0.0
  0
ARC
  5
3D6
330
18
100
AcDbEntity
  8
1
  6
Continuous
100
AcDbCircle
 10
125.0611759095188
 20
36.59992627641635
 30
0.0
 40
0.7280434615948062
100
AcDbArc
 50
179.0334542607282
 51
206.6986791117837
  0
LINE
  5
3D7
330
18
100
AcDbEntity
  8
1
  6
Continuous
100
AcDbLine
 10
124.3332360376223
 20
36.61220735430282
 30
0.0
 11
124.3332360376223
 21
40.1122075205439
 31
0.0
  0
LINE
  5
3D8
330
18
100
AcDbEntity
  8
1
  6
Continuous
100
AcDbLine
 10
121.5707359064103
 20
36.61220735430282
 30
0.0
 11
121.5707360507481
 21
40.1122075205439
 31
0.0
  0
LINE
  5
3D9
330
18
100
AcDbEntity
  8
1
  6
Continuous
100
AcDbLine
 10
127.845736204457
 20
38.6122074492977
 30
0.0
 11
126.3457361332108
 21
38.6122074492977
 31
0.0
  0
LINE
  5
3DA
330
18
100
AcDbEntity
  8
1
  6
Continuous
100
AcDbLine
 10
127.845736204457
 20
36.41220734480333
 30
0.0
 11
127.845736204457
 21
38.6122074492977
 31
0.0
  0
LINE
  5
3DB
330
18
100
AcDbEntity
  8
1
  6
Continuous
100
AcDbLine
 10
126.3457361332108
 20
36.41220734480333
 30
0.0
 11
126.3457361332108
 21
38.6122074492977
 31
0.0
  0
LINE
  5
3DC
330
18
100
AcDbEntity
  8
1
  6
Continuous
100
AcDbLine
 10
124.3457360382159
 20
41.76220759891466
 30
0.0
 11
124.3457360382159
 21
42.0622068502244
 31
0.0
  0
LINE
  5
3DD
330
18
100
AcDbEntity
  8
1
  6
Continuous
100
AcDbLine
 10
122.8957359693446
 20
45.762207025965
 30
0.0
 11
123.1457359812189
 21
42.06220685022443
 31
0.0
  0
LINE
  5
3DE
330
18
100
AcDbEntity
  8
1
  6
Continuous
100
AcDbLine
 10
121.0347185666402
 20
41.61220759176482
 30
0.0
 11
121.0347185666402
 21
41.7622075989147
 31
0.0
  0
LINE
  5
3DF
330
18
100
AcDbEntity
  8
1
  6
Continuous
100
AcDbLine
 10
120.7437259542687
 20
41.61220759176496
 30
0.0
 11
120.7437259542687
 21
41.7622075989147
 31
0.0
  0
LINE
  5
3E0
330
18
100
AcDbEntity
  8
1
  6
Continuous
100
AcDbLine
 10
123.8707360634135
 20
41.61220759176538
 30
0.0
 11
123.8707360634135
 21
41.7622075989147
 31
0.0
  0
LINE
  5
3E1
330
18
100
AcDbEntity
  8
1
  6
Continuous
100
AcDbLine
 10
122.9497559508306
 20
41.61220759176486
 30
0.0
 11
122.9497559508306
 21
41.7622075989147
 31
0.0
  0
LINE
  5
3E2
330
18
100
AcDbEntity
  8
1
  6
Continuous
100
AcDbLine
 10
122.1547493492034
 20
41.61220759176486
 30
0.0
 11
122.1547493492034
 21
41.7622075989147
 31
0.0
  0
LINE
  5
3E3
330
18
100
AcDbEntity
  8
1
  6
Continuous
100
AcDbLine
 10
121.5098721318317
 20
41.61220759176482
 30
0.0
 11
121.5098721318317
 21
41.7622075989147
 31
0.0
  0
LINE
  5
3E4
330
18
100
AcDbEntity
  8
1
  6
Continuous
100
AcDbLine
 10
124.1124492491001
 20
42.06220685022443
 30
0.0
 11
124.4760986649212
 21
45.76220702596507
 31
0.0
  0
LINE
  5
3E5
330
18
100
AcDbEntity
  8
2
  6
Continuous
100
AcDbLine
 10
124.6162360382157
 20
41.76220721744493
 30
0.0
 11
124.6162360382157
 21
42.0622068502244
 31
0.0
  0
LINE
  5
3E6
330
18
100
AcDbEntity
  8
1
  6
Continuous
100
AcDbLine
 10
128.2157669513975
 20
41.61220759176507
 30
0.0
 11
128.2157669513975
 21
41.7622075989147
 31
0.0
  0
LINE
  5
3E7
330
18
100
AcDbEntity
  8
1
  6
Continuous
100
AcDbLine
 10
128.2157669513973
 20
41.7622075989147
 30
0.0
 11
127.0957361688339
 21
41.7622075989147
 31
0.0
  0
LINE
  5
3E8
330
18
100
AcDbEntity
  8
1
  6
Continuous
100
AcDbLine
 10
127.0957361688339
 20
41.61220759176449
 30
0.0
 11
127.0957361688339
 21
41.7622075989147
 31
0.0
  0
LINE
  5
3E9
330
18
100
AcDbEntity
  8
1
  6
Continuous
100
AcDbLine
 10
125.9757053862702
 20
41.61220759176449
 30
0.0
 11
125.9757053862702
 21
41.7622075989147
 31
0.0
  0
LINE
  5
3EA
330
18
100
AcDbEntity
  8
1
  6
Continuous
100
AcDbLine
 10
124.8897061722721
 20
41.61220759176541
 30
0.0
 11
124.8897061722721
 21
41.7622075989147
 31
0.0
  0
LINE
  5
3EB
330
18
100
AcDbEntity
  8
1
  6
Continuous
100
AcDbLine
 10
126.4011434251748
 20
41.61220759179008
 30
0.0
 11
126.4011434251748
 21
41.7622075989147
 31
0.0
  0
ARC
  5
3EC
330
18
100
AcDbEntity
  8
1
  6
Continuous
100
AcDbCircle
 10
133.5457364751923
 20
41.31220757754082
 30
0.0
 40
0.3000000142492439
100
AcDbArc
 50
0.0000000000028638
 51
90.0
  0
ARC
  5
3ED
330
18
100
AcDbEntity
  8
1
  6
Continuous
100
AcDbCircle
 10
129.1302964281488
 20
36.59992627641635
 30
0.0
 40
0.7280434615948062
100
AcDbArc
 50
333.3013208882162
 51
0.9665457392717204
  0
LINE
  5
3EE
330
18
100
AcDbEntity
  8
1
  6
Continuous
100
AcDbLine
 10
129.8582363000455
 20
36.61220735430282
 30
0.0
 11
129.8582363000455
 21
40.1122075205439
 31
0.0
  0
LINE
  5
3EF
330
18
100
AcDbEntity
  8
1
  6
Continuous
100
AcDbLine
 10
133.8457364894416
 20
40.61220754429263
 30
0.0
 11
133.2331139603494
 21
40.11210752054386
 31
0.0
  0
LINE
  5
3F0
330
18
100
AcDbEntity
  8
1
  6
Continuous
100
AcDbLine
 10
133.8457364894417
 20
41.31220757754085
 30
0.0
 11
133.8457364894417
 21
40.61220754429263
 31
0.0
  0
LINE
  5
3F1
330
18
100
AcDbEntity
  8
1
  6
Continuous
100
AcDbLine
 10
132.6207364312573
 20
36.61220735430282
 30
0.0
 11
132.6207362869196
 21
40.1122075205439
 31
0.0
  0
LINE
  5
3F2
330
18
100
AcDbEntity
  8
1
  6
Continuous
100
AcDbLine
 10
133.5457363796734
 20
41.7622075989147
 30
0.0
 11
128.4638168071171
 21
41.7622075989147
 31
0.0
  0
LINE
  5
3F3
330
18
100
AcDbEntity
  8
2
  6
Continuous
100
AcDbLine
 10
129.5752362994519
 20
41.76220721744493
 30
0.0
 11
129.5752362994519
 21
42.0622068502244
 31
0.0
  0
LINE
  5
3F4
330
18
100
AcDbEntity
  8
1
  6
Continuous
100
AcDbLine
 10
129.7153736727458
 20
45.762207025965
 30
0.0
 11
130.0790230885676
 21
42.06220685022443
 31
0.0
  0
LINE
  5
3F5
330
18
100
AcDbEntity
  8
1
  6
Continuous
100
AcDbLine
 10
129.3017661653956
 20
41.61220759176507
 30
0.0
 11
129.3017661653956
 21
41.7622075989147
 31
0.0
  0
LINE
  5
3F6
330
18
100
AcDbEntity
  8
1
  6
Continuous
100
AcDbLine
 10
130.320736274254
 20
41.61220759176453
 30
0.0
 11
130.320736274254
 21
41.7622075989147
 31
0.0
  0
LINE
  5
3F7
330
18
100
AcDbEntity
  8
1
  6
Continuous
100
AcDbLine
 10
131.241716386837
 20
41.61220759176453
 30
0.0
 11
131.241716386837
 21
41.7622075989147
 31
0.0
  0
LINE
  5
3F8
330
18
100
AcDbEntity
  8
1
  6
Continuous
100
AcDbLine
 10
132.036722988464
 20
41.61220759176449
 30
0.0
 11
132.036722988464
 21
41.7622075989147
 31
0.0
  0
LINE
  5
3F9
330
18
100
AcDbEntity
  8
1
  6
Continuous
100
AcDbLine
 10
129.8457362994519
 20
42.06220685022446
 30
0.0
 11
129.8457362994519
 21
41.7622075989147
 31
0.0
  0
LINE
  5
3FA
330
18
100
AcDbEntity
  8
1
  6
Continuous
100
AcDbLine
 10
128.4638168071171
 20
41.61220759179008
 30
0.0
 11
128.4638168071171
 21
41.7622075989147
 31
0.0
  0
LINE
  5
3FB
330
18
100
AcDbEntity
  8
1
  6
Continuous
100
AcDbLine
 10
131.0457363564488
 20
42.0622068502244
 30
0.0
 11
131.2957363683232
 21
45.7622070259651
 31
0.0
  0
LINE
  5
3FC
330
18
100
AcDbEntity
  8
1
  6
Continuous
100
AcDbLine
 10
133.1567537710276
 20
41.61220759176524
 30
0.0
 11
133.1567537710276
 21
41.7622075989147
 31
0.0
  0
LINE
  5
3FD
330
18
100
AcDbEntity
  8
1
  6
Continuous
100
AcDbLine
 10
132.6816002058359
 20
41.61220759176449
 30
0.0
 11
132.6816002058359
 21
41.7622075989147
 31
0.0
  0
LINE
  5
3FE
330
18
100
AcDbEntity
  8
1
  6
Continuous
100
AcDbLine
 10
133.5457363796734
 20
41.6122075917644
 30
0.0
 11
133.5457363796734
 21
41.7622075989147
 31
0.0
  0
LINE
  5
3FF
330
18
100
AcDbEntity
  8
1
  6
Continuous
100
AcDbLine
 10
133.447746383399
 20
41.61220759176524
 30
0.0
 11
133.447746383399
 21
41.7622075989147
 31
0.0
  0
LINE
  5
400
330
18
100
AcDbEntity
  8
1
  6
Continuous
100
AcDbLine
 10
141.1929808348969
 20
83.76220882611844
 30
0.0
 11
112.9984915027606
 21
83.76220882611844
 31
0.0
  0
LINE
  5
401
330
18
100
AcDbEntity
  8
1
  6
Continuous
100
AcDbLine
 10
134.7882693370908
 20
70.6622082039018
 30
0.0
 11
137.8897605837755
 21
70.6622082039018
 31
0.0
  0
LINE
  5
402
330
18
100
AcDbEntity
  8
1
  6
Continuous
100
AcDbLine
 10
111.49683832462
 20
65.36220833838477
 30
0.0
 11
142.6946340130477
 21
65.36220833838477
 31
0.0
  0
LINE
  5
403
330
18
100
AcDbEntity
  8
1
  6
Continuous
100
AcDbLine
 10
143.095736928793
 20
63.76220826238885
 30
0.0
 11
111.0957354088746
 21
63.76220826238885
 31
0.0
  0
LINE
  5
404
330
18
100
AcDbEntity
  8
1
  6
Continuous
100
AcDbLine
 10
115.0957355988643
 20
62.96220822439089
 30
0.0
 11
139.0957367388033
 21
62.96220822439089
 31
0.0
  0
LINE
  5
405
330
18
100
AcDbEntity
  8
1
  6
Continuous
100
AcDbLine
 10
138.9766934659833
 20
69.76220854737359
 30
0.0
 11
115.2147788716843
 21
69.76220854737355
 31
0.0
  0
LINE
  5
406
330
18
100
AcDbEntity
  8
1
  6
Continuous
100
AcDbLine
 10
129.2705925892272
 20
50.76220764492203
 30
0.0
 11
137.0957366484034
 21
50.76220764492192
 31
0.0
  0
LINE
  5
407
330
18
100
AcDbEntity
  8
1
  6
Continuous
100
AcDbLine
 10
142.684194177366
 20
57.76220797740414
 30
0.0
 11
111.5072781603015
 21
57.76220797740415
 31
0.0
  0
LINE
  5
408
330
18
100
AcDbEntity
  8
1
  6
Continuous
100
AcDbLine
 10
142.684194177366
 20
61.76220816739395
 30
0.0
 11
111.5072781603019
 21
61.76220816739395
 31
0.0
  0
ARC
  5
409
330
18
100
AcDbEntity
  8
1
  6
Continuous
100
AcDbCircle
 10
137.7586468934149
 20
126.6325398625017
 30
0.0
 40
4.016079573138664
100
AcDbArc
 50
90.02480356728321
 51
137.7032417223773
  0
ARC
  5
40A
330
18
100
AcDbEntity
  8
1
  6
Continuous
100
AcDbCircle
 10
127.0957361688339
 20
136.3343798601442
 30
0.0
 40
12.00000056996969
100
AcDbArc
 50
208.288291193991
 51
331.7116595472569
  0
ARC
  5
40B
330
18
100
AcDbEntity
  8
1
  6
Continuous
100
AcDbCircle
 10
127.0957361688339
 20
136.3343798601442
 30
0.0
 40
16.00000075995917
100
AcDbArc
 50
201.5057424094234
 51
338.5000718462976
  0
LINE
  5
40C
330
18
100
AcDbEntity
  8
1
  6
Continuous
100
AcDbLine
 10
111.5108068114911
 20
64.66220791891709
 30
0.0
 11
102.0957349813975
 21
64.66220791891709
 31
0.0
  0
LINE
  5
40D
330
18
100
AcDbEntity
  8
1
  6
Continuous
100
AcDbLine
 10
110.2846796207833
 20
82.04096820916836
 30
0.0
 11
102.0957349813975
 21
64.66220791891709
 31
0.0
  0
LINE
  5
40E
330
18
100
AcDbEntity
  8
1
  6
Continuous
100
AcDbLine
 10
111.4882230381721
 20
65.79394473061173
 30
0.0
 11
114.7333225553359
 21
69.36355419949258
 31
0.0
  0
LINE
  5
40F
330
18
100
AcDbEntity
  8
1
  6
Continuous
100
AcDbLine
 10
111.4708968710219
 20
66.66220801391438
 30
0.0
 11
116.3017117538921
 21
70.6622082039018
 31
0.0
  0
LINE
  5
410
330
18
100
AcDbEntity
  8
1
  6
Continuous
100
AcDbLine
 10
117.0957356938594
 20
50.76220764492215
 30
0.0
 11
124.9208797484407
 21
50.76220764492192
 31
0.0
  0
LINE
  5
411
330
18
100
AcDbEntity
  8
1
  6
Continuous
100
AcDbLine
 10
117.0957356938594
 20
57.76220797740415
 30
0.0
 11
117.0957356938594
 21
50.76220764492215
 31
0.0
  0
LINE
  5
412
330
18
100
AcDbEntity
  8
1
  6
Continuous
100
AcDbLine
 10
117.195735698609
 20
48.56220754043061
 30
0.0
 11
117.195735698609
 21
49.66220759267479
 31
0.0
  0
ARC
  5
413
330
18
100
AcDbEntity
  8
1
  6
Continuous
100
AcDbCircle
 10
117.4957357128583
 20
48.56220754042759
 30
0.0
 40
0.3000000142492096
100
AcDbArc
 50
179.9999999994247
 51
269.9888506783572
  0
ARC
  5
414
330
18
100
AcDbEntity
  8
1
  6
Continuous
100
AcDbCircle
 10
106.5572449564998
 20
52.57774092950501
 30
0.0
 40
11.03076696826251
100
AcDbArc
 50
344.6740898252572
 51
350.5266911763273
  0
LINE
  5
415
330
18
100
AcDbEntity
  8
1
  6
Continuous
100
AcDbLine
 10
117.4956773351358
 20
48.26220753185831
 30
0.0
 11
117.5999471776182
 21
48.26220753185831
 31
0.0
  0
LINE
  5
416
330
18
100
AcDbEntity
  8
1
  6
Continuous
100
AcDbLine
 10
111.5072781603015
 20
57.76220797740415
 30
0.0
 11
111.5072781603015
 21
61.76220816739395
 31
0.0
  0
LINE
  5
417
330
18
100
AcDbEntity
  8
1
  6
Continuous
100
AcDbLine
 10
111.5108068114927
 20
64.66220791891718
 30
0.0
 11
111.4708968710191
 21
66.66220801391189
 31
0.0
  0
LINE
  5
418
330
18
100
AcDbEntity
  8
1
  6
Continuous
100
AcDbLine
 10
111.0957354088746
 20
63.76220826238885
 30
0.0
 11
111.0957354088746
 21
64.66220791891709
 31
0.0
  0
LINE
  5
419
330
18
100
AcDbEntity
  8
1
  6
Continuous
100
AcDbLine
 10
117.0957356938594
 20
62.96220822439089
 30
0.0
 11
117.0957356938594
 21
61.76220816739395
 31
0.0
  0
LINE
  5
41A
330
18
100
AcDbEntity
  8
1
  6
Continuous
100
AcDbLine
 10
119.3015071645678
 20
57.76220797740415
 30
0.0
 11
119.3015071645678
 21
61.76220816739395
 31
0.0
  0
LINE
  5
41B
330
18
100
AcDbEntity
  8
1
  6
Continuous
100
AcDbLine
 10
115.0957355988645
 20
63.76220826238885
 30
0.0
 11
115.0957355988645
 21
62.96220822439089
 31
0.0
  0
LINE
  5
41C
330
18
100
AcDbEntity
  8
1
  6
Continuous
100
AcDbLine
 10
131.6783120571846
 20
57.76220797740415
 30
0.0
 11
131.6783120693174
 21
50.76220764492198
 31
0.0
  0
LINE
  5
41D
330
18
100
AcDbEntity
  8
1
  6
Continuous
100
AcDbLine
 10
122.5131602762718
 20
57.76220797740415
 30
0.0
 11
122.5131602662445
 21
50.76220764492198
 31
0.0
  0
CIRCLE
  5
41E
330
18
100
AcDbEntity
  8
1
  6
Continuous
100
AcDbCircle
 10
127.0957385808545
 20
52.86221295017767
 30
0.0
 40
1.924337658700613
  0
ARC
  5
41F
330
18
100
AcDbEntity
  8
1
  6
Continuous
100
AcDbCircle
 10
127.0957361688339
 20
53.16220775891586
 30
0.0
 40
2.700000128243115
100
AcDbArc
 50
0.0
 51
180.0
  0
ARC
  5
420
330
18
100
AcDbEntity
  8
1
  6
Continuous
100
AcDbCircle
 10
127.0957361688339
 20
52.3622077209179
 30
0.0
 40
2.700000128243122
100
AcDbArc
 50
180.0
 51
0.0
  0
CIRCLE
  5
421
330
18
100
AcDbEntity
  8
1
  6
Continuous
100
AcDbCircle
 10
127.0957385808545
 20
52.86220812613642
 30
0.0
 40
2.500000118744791
  0
ARC
  5
422
330
18
100
AcDbEntity
  8
1
  6
Continuous
100
AcDbCircle
 10
127.0957385808545
 20
52.86220812613642
 30
0.0
 40
1.000000047499685
100
AcDbArc
 50
269.9998618013967
 51
90.00013819859676
  0
ARC
  5
423
330
18
100
AcDbEntity
  8
1
  6
Continuous
100
AcDbCircle
 10
127.095733756813
 20
52.86220812613642
 30
0.0
 40
1.00000004749967
100
AcDbArc
 50
89.99986180140323
 51
270.0001381986032
  0
LINE
  5
424
330
18
100
AcDbEntity
  8
1
  6
Continuous
100
AcDbLine
 10
124.3957360405907
 20
52.3622077209179
 30
0.0
 11
124.3957360405907
 21
53.16220775891586
 31
0.0
  0
LINE
  5
425
330
18
100
AcDbEntity
  8
1
  6
Continuous
100
AcDbLine
 10
129.795736297077
 20
53.16220775891586
 30
0.0
 11
129.795736297077
 21
52.3622077209179
 31
0.0
  0
LINE
  5
426
330
18
100
AcDbEntity
  8
1
  6
Continuous
100
AcDbLine
 10
122.5131602762718
 20
62.96220822439089
 30
0.0
 11
122.5131602762718
 21
61.76220816739395
 31
0.0
  0
LINE
  5
427
330
18
100
AcDbEntity
  8
1
  6
Continuous
100
AcDbLine
 10
120.9110774366521
 20
63.76220826238885
 30
0.0
 11
120.911077436652
 21
62.96220822439089
 31
0.0
  0
LINE
  5
428
330
18
100
AcDbEntity
  8
1
  6
Continuous
100
AcDbLine
 10
131.6783120571846
 20
62.96220822439089
 30
0.0
 11
131.6783120571846
 21
61.76220816739395
 31
0.0
  0
LINE
  5
429
330
18
100
AcDbEntity
  8
1
  6
Continuous
100
AcDbLine
 10
134.8899651730995
 20
57.76220797740415
 30
0.0
 11
134.8899651730995
 21
61.76220816739395
 31
0.0
  0
LINE
  5
42A
330
18
100
AcDbEntity
  8
1
  6
Continuous
100
AcDbLine
 10
133.2803949010155
 20
63.76220826238885
 30
0.0
 11
133.2803949010157
 21
62.96220822439089
 31
0.0
  0
LINE
  5
42B
330
18
100
AcDbEntity
  8
1
  6
Continuous
100
AcDbLine
 10
119.0457305601386
 20
84.4122088629067
 30
0.0
 11
135.1457365511884
 21
84.4122088629067
 31
0.0
  0
LINE
  5
42C
330
18
100
AcDbEntity
  8
1
  6
Continuous
100
AcDbLine
 10
116.4345584042187
 20
70.66220820260574
 30
0.0
 11
115.909590122424
 21
82.34063407531163
 31
0.0
  0
LINE
  5
42D
330
18
100
AcDbEntity
  8
1
  6
Continuous
100
AcDbLine
 10
119.4032030005769
 20
70.6622082039018
 30
0.0
 11
116.3017117538921
 21
70.6622082039018
 31
0.0
  0
LINE
  5
42E
330
18
100
AcDbEntity
  8
1
  6
Continuous
100
AcDbLine
 10
116.6957356748604
 20
69.76220854737352
 30
0.0
 11
116.6957356748604
 21
70.6622082039018
 31
0.0
  0
ARC
  5
42F
330
18
100
AcDbEntity
  8
1
  6
Continuous
100
AcDbCircle
 10
112.9984915027606
 20
80.76220868362611
 30
0.0
 40
3.000000142492316
100
AcDbArc
 50
90.0
 51
154.7699923983392
  0
ARC
  5
430
330
18
100
AcDbEntity
  8
1
  6
Continuous
100
AcDbCircle
 10
119.0457357864794
 20
84.11220884870298
 30
0.0
 40
0.3000000142492325
100
AcDbArc
 50
90.00049907875489
 51
180.0000000000085
  0
LINE
  5
431
330
18
100
AcDbEntity
  8
1
  6
Continuous
100
AcDbLine
 10
118.7457357722301
 20
83.76220882611844
 30
0.0
 11
118.7457357722301
 21
84.11220884870294
 31
0.0
  0
ARC
  5
432
330
18
100
AcDbEntity
  8
1
  6
Continuous
100
AcDbCircle
 10
135.1457365511884
 20
84.11220884870298
 30
0.0
 40
0.3000000142492325
100
AcDbArc
 50
359.9999999999913
 51
90.0
  0
LINE
  5
433
330
18
100
AcDbEntity
  8
1
  6
Continuous
100
AcDbLine
 10
135.4457365654376
 20
84.11220884870294
 30
0.0
 11
135.4457365654376
 21
83.76220882611844
 31
0.0
  0
LINE
  5
434
330
18
100
AcDbEntity
  8
1
  6
Continuous
100
AcDbLine
 10
111.5108068114911
 20
130.3343795751595
 30
0.0
 11
103.7169643932616
 21
130.3343795751595
 31
0.0
  0
ARC
  5
435
330
18
100
AcDbEntity
  8
1
  6
Continuous
100
AcDbCircle
 10
103.6400832878936
 20
131.8786700914055
 30
0.0
 40
1.546203060056777
100
AcDbArc
 50
182.8066670469095
 51
272.8500654823304
  0
ARC
  5
436
330
18
100
AcDbEntity
  8
1
  6
Continuous
100
AcDbCircle
 10
127.0957361688339
 20
136.3343798601442
 30
0.0
 40
10.40000049396825
100
AcDbArc
 50
222.2985387616477
 51
317.7014466227231
  0
ARC
  5
437
330
18
100
AcDbEntity
  8
1
  6
Continuous
100
AcDbCircle
 10
211.4042096474014
 20
-2118.915368282329
 30
0.0
 40
2251.573261809184
100
AcDbArc
 50
92.42079321547391
 51
92.54383843517507
  0
LINE
  5
438
330
18
100
AcDbEntity
  8
1
  6
Continuous
100
AcDbLine
 10
111.5108068114927
 20
130.3343795751595
 30
0.0
 11
111.4708968710191
 21
130.4390916220178
 31
0.0
  0
ARC
  5
439
330
18
100
AcDbEntity
  8
1
  6
Continuous
100
AcDbCircle
 10
116.4328564704638
 20
126.6326135992195
 30
0.0
 40
4.016007001395743
100
AcDbArc
 50
42.2963158896079
 51
89.9757187614203
  0
LINE
  5
43A
330
18
100
AcDbEntity
  8
1
  6
Continuous
100
AcDbLine
 10
116.434558404215
 20
130.6485157157232
 30
0.0
 11
116.3017117538945
 21
130.6485157157289
 31
0.0
  0
LINE
  5
43B
330
18
100
AcDbEntity
  8
1
  6
Continuous
100
AcDbLine
 10
142.7205754666456
 20
66.66220801391438
 30
0.0
 11
137.8897605837755
 21
70.6622082039018
 31
0.0
  0
LINE
  5
43C
330
18
100
AcDbEntity
  8
1
  6
Continuous
100
AcDbLine
 10
142.7032492994956
 20
65.79394473061164
 30
0.0
 11
139.4581497823318
 21
69.36355419949264
 31
0.0
  0
LINE
  5
43D
330
18
100
AcDbEntity
  8
1
  6
Continuous
100
AcDbLine
 10
152.0957373562704
 20
64.66220791891712
 30
0.0
 11
143.9067927168861
 21
82.04096820916545
 31
0.0
  0
LINE
  5
43E
330
18
100
AcDbEntity
  8
1
  6
Continuous
100
AcDbLine
 10
152.0957373562704
 20
64.66220791891712
 30
0.0
 11
142.6806655261765
 21
64.66220791891709
 31
0.0
  0
LINE
  5
43F
330
18
100
AcDbEntity
  8
1
  6
Continuous
100
AcDbLine
 10
137.0957366529984
 20
57.76220797740415
 30
0.0
 11
137.0957366484034
 21
50.76220764492192
 31
0.0
  0
ARC
  5
440
330
18
100
AcDbEntity
  8
1
  6
Continuous
100
AcDbCircle
 10
147.6342236848337
 20
52.57774011683997
 30
0.0
 40
11.03076318858256
100
AcDbArc
 50
189.4733078201072
 51
195.3259111783112
  0
LINE
  5
441
330
18
100
AcDbEntity
  8
1
  6
Continuous
100
AcDbLine
 10
137.0957366529984
 20
62.96220822439089
 30
0.0
 11
137.0957366529984
 21
61.76220816739395
 31
0.0
  0
LINE
  5
442
330
18
100
AcDbEntity
  8
1
  6
Continuous
100
AcDbLine
 10
142.684194177366
 20
57.76220797740414
 30
0.0
 11
142.684194177366
 21
61.76220816739395
 31
0.0
  0
LINE
  5
443
330
18
100
AcDbEntity
  8
1
  6
Continuous
100
AcDbLine
 10
139.0957367388033
 20
63.76220826238885
 30
0.0
 11
139.0957367388033
 21
62.96220822439089
 31
0.0
  0
LINE
  5
444
330
18
100
AcDbEntity
  8
1
  6
Continuous
100
AcDbLine
 10
143.0957369287931
 20
64.66220791891709
 30
0.0
 11
143.0957369287931
 21
63.76220826238885
 31
0.0
  0
LINE
  5
445
330
18
100
AcDbEntity
  8
1
  6
Continuous
100
AcDbLine
 10
142.6806655261749
 20
64.66220791891718
 30
0.0
 11
142.7205754666487
 21
66.66220801391189
 31
0.0
  0
LINE
  5
446
330
18
100
AcDbEntity
  8
1
  6
Continuous
100
AcDbLine
 10
137.756913933449
 20
70.66220820260574
 30
0.0
 11
138.2818822152436
 21
82.34063407531163
 31
0.0
  0
LINE
  5
447
330
18
100
AcDbEntity
  8
1
  6
Continuous
100
AcDbLine
 10
137.4957366628074
 20
69.76220854737357
 30
0.0
 11
137.4957366628074
 21
70.6622082039018
 31
0.0
  0
ARC
  5
448
330
18
100
AcDbEntity
  8
1
  6
Continuous
100
AcDbCircle
 10
141.1929808349069
 20
80.76220868362609
 30
0.0
 40
3.000000142492317
100
AcDbArc
 50
25.2300083525507
 51
90.00000244499792
  0
ARC
  5
449
330
18
100
AcDbEntity
  8
1
  6
Continuous
100
AcDbCircle
 10
150.5513889593779
 20
131.8786701912019
 30
0.0
 40
1.54620315523522
100
AcDbArc
 50
267.1499380471083
 51
357.1933294235182
  0
LINE
  5
44A
330
18
100
AcDbEntity
  8
1
  6
Continuous
100
AcDbLine
 10
150.4745079444061
 20
130.3343795751595
 30
0.0
 11
142.6806655261765
 21
130.3343795751595
 31
0.0
  0
ARC
  5
44B
330
18
100
AcDbEntity
  8
1
  6
Continuous
100
AcDbCircle
 10
42.19419175133237
 20
-2132.595818642909
 30
0.0
 40
2265.266553609238
100
AcDbArc
 50
87.4565334625062
 51
87.57883488685386
  0
LINE
  5
44C
330
18
100
AcDbEntity
  8
1
  6
Continuous
100
AcDbLine
 10
137.8897605837731
 20
130.648515715729
 30
0.0
 11
137.7569083169022
 21
130.6485157157235
 31
0.0
  0
LINE
  5
44D
330
18
100
AcDbEntity
  8
1
  6
Continuous
100
AcDbLine
 10
142.7205754666487
 20
130.4390916220178
 30
0.0
 11
142.6806655261749
 21
130.3343795751595
 31
0.0
  0
ARC
  5
44E
330
18
100
AcDbEntity
  8
1
  6
Continuous
100
AcDbCircle
 10
189.5702212182956
 20
127.4343794374169
 30
0.0
 40
1.500000071246175
100
AcDbArc
 50
180.0093601213334
 51
269.999879661962
  0
ARC
  5
44F
330
18
100
AcDbEntity
  8
1
  6
Continuous
100
AcDbCircle
 10
187.7202211244646
 20
128.2843794777897
 30
0.0
 40
0.3000000142492325
100
AcDbArc
 50
180.0110475831523
 51
270.0000000000065
  0
LINE
  5
450
330
18
100
AcDbEntity
  8
1
  6
Continuous
100
AcDbLine
 10
187.7202211244648
 20
127.9843794635405
 30
0.0
 11
188.0702211670655
 21
127.9843794635405
 31
0.0
  0
LINE
  5
451
330
18
100
AcDbEntity
  8
1
  6
Continuous
100
AcDbLine
 10
23.78340792716642
 20
214.621196215087
 30
0.0
 11
23.78340792716642
 21
222.6989431062601
 31
0.0
  0
LINE
  5
452
330
18
100
AcDbEntity
  8
1
  6
Continuous
100
AcDbLine
 10
44.78340919231765
 20
214.6211959432456
 30
0.0
 11
44.78340919231765
 21
222.6989433781012
 31
0.0
  0
LINE
  5
453
330
18
100
AcDbEntity
  8
1
  6
Continuous
100
AcDbLine
 10
66.89279455915721
 20
215.4600695086816
 30
0.0
 11
70.39309546993251
 21
218.6600696606734
 31
0.0
  0
LINE
  5
454
330
18
100
AcDbEntity
  8
1
  6
Continuous
100
AcDbLine
 10
45.78340919231766
 20
214.4395837990182
 30
0.0
 11
45.78340919231766
 21
222.8805555223284
 31
0.0
  0
LINE
  5
455
330
18
100
AcDbEntity
  8
1
  6
Continuous
100
AcDbLine
 10
30.68340844103374
 20
220.8100697627929
 30
0.0
 11
30.68340844103374
 21
216.510069558554
 31
0.0
  0
LINE
  5
456
330
18
100
AcDbEntity
  8
1
  6
Continuous
100
AcDbLine
 10
25.683403435017
 20
216.510069558554
 30
0.0
 11
25.683403435017
 21
220.8100697627929
 31
0.0
  0
LINE
  5
457
330
18
100
AcDbEntity
  8
1
  6
Continuous
100
AcDbLine
 10
22.78340792716642
 20
214.4395840839376
 30
0.0
 11
22.78340792716642
 21
222.8805552374094
 31
0.0
  0
LINE
  5
458
330
18
100
AcDbEntity
  8
1
  6
Continuous
100
AcDbLine
 10
40.1212503419041
 20
149.8343805013597
 30
0.0
 11
44.1212505318939
 21
149.8343805013597
 31
0.0
  0
LINE
  5
459
330
18
100
AcDbEntity
  8
1
  6
Continuous
100
AcDbLine
 10
40.1212503419041
 20
136.3343798601441
 30
0.0
 11
44.1212505318939
 21
136.3343798601441
 31
0.0
  0
LINE
  5
45A
330
18
100
AcDbEntity
  8
4
  6
CENTER
 48
0.2
100
AcDbLine
 10
69.67125122187542
 20
136.3343798601442
 30
0.0
 11
15.47124969505409
 21
136.3343798601442
 31
0.0
  0
LINE
  5
45B
330
18
100
AcDbEntity
  8
1
  6
Continuous
100
AcDbLine
 10
28.12124939046498
 20
140.5343800596335
 30
0.0
 11
24.42124921472441
 21
140.2843800477591
 31
0.0
  0
LINE
  5
45C
330
18
100
AcDbEntity
  8
1
  6
Continuous
100
AcDbLine
 10
28.12124939046498
 20
133.7147423562321
 30
0.0
 11
24.42124921472441
 21
133.3510929404103
 31
0.0
  0
LINE
  5
45D
330
18
100
AcDbEntity
  8
1
  6
Continuous
100
AcDbLine
 10
24.42124921472441
 20
139.3176667798779
 30
0.0
 11
28.12124939046509
 21
138.9540173640569
 31
0.0
  0
ARC
  5
45E
330
18
100
AcDbEntity
  8
1
  6
Continuous
100
AcDbCircle
 10
23.67124994204084
 20
142.7843801665028
 30
0.0
 40
0.3000000142492439
100
AcDbArc
 50
0.000000000000007
 51
90.0
  0
LINE
  5
45F
330
18
100
AcDbEntity
  8
1
  6
Continuous
100
AcDbLine
 10
22.4712498850439
 20
142.4718801516599
 30
0.0
 11
22.97124990879262
 21
143.084380180752
 31
0.0
  0
LINE
  5
460
330
18
100
AcDbEntity
  8
1
  6
Continuous
100
AcDbLine
 10
18.97124903526128
 20
141.1191704433184
 30
0.0
 11
22.47124920150223
 21
141.1191709433185
 31
0.0
  0
LINE
  5
461
330
18
100
AcDbEntity
  8
1
  6
Continuous
100
AcDbLine
 10
18.47124969505409
 20
136.3343798244299
 30
0.0
 11
22.4712498850439
 21
136.3343801101442
 31
0.0
  0
ARC
  5
462
330
18
100
AcDbEntity
  8
1
  6
Continuous
100
AcDbCircle
 10
18.97124910668981
 20
140.6191704195697
 30
0.0
 40
0.5000000237487168
100
AcDbArc
 50
90.00000818510669
 51
180.0896537508018
  0
LINE
  5
463
330
18
100
AcDbEntity
  8
1
  6
Continuous
100
AcDbLine
 10
24.42124921472441
 20
140.2843800477591
 30
0.0
 11
24.42124921472441
 21
132.3843796725292
 31
0.0
  0
LINE
  5
464
330
18
100
AcDbEntity
  8
1
  6
Continuous
100
AcDbLine
 10
23.97124995626437
 20
136.3343798601442
 30
0.0
 11
24.1212499634147
 21
136.3343798601442
 31
0.0
  0
LINE
  5
465
330
18
100
AcDbEntity
  8
1
  6
Continuous
100
AcDbLine
 10
23.97124995626437
 20
135.2143490775806
 30
0.0
 11
24.1212499634147
 21
135.2143490775806
 31
0.0
  0
LINE
  5
466
330
18
100
AcDbEntity
  8
1
  6
Continuous
100
AcDbLine
 10
23.97124995626484
 20
134.1283498635824
 30
0.0
 11
24.1212499634147
 21
134.1283498635824
 31
0.0
  0
LINE
  5
467
330
18
100
AcDbEntity
  8
1
  6
Continuous
100
AcDbLine
 10
23.97124995626506
 20
132.1883996421407
 30
0.0
 11
24.1212499634147
 21
132.1883996421407
 31
0.0
  0
LINE
  5
468
330
18
100
AcDbEntity
  8
1
  6
Continuous
100
AcDbLine
 10
23.97124995626484
 20
133.1093797547245
 30
0.0
 11
24.1212499634147
 21
133.1093797547245
 31
0.0
  0
LINE
  5
469
330
18
100
AcDbEntity
  8
1
  6
Continuous
100
AcDbLine
 10
23.97124995626518
 20
137.4544106427078
 30
0.0
 11
24.1212499634147
 21
137.4544106427078
 31
0.0
  0
LINE
  5
46A
330
18
100
AcDbEntity
  8
1
  6
Continuous
100
AcDbLine
 10
23.97124995629007
 20
135.6397871164851
 30
0.0
 11
24.12124996341481
 21
135.6397871164851
 31
0.0
  0
LINE
  5
46B
330
18
100
AcDbEntity
  8
2
  6
Continuous
100
AcDbLine
 10
24.42124921472441
 20
133.8548797295262
 30
0.0
 11
24.12124958194488
 21
133.8548797295262
 31
0.0
  0
LINE
  5
46C
330
18
100
AcDbEntity
  8
1
  6
Continuous
100
AcDbLine
 10
24.1212499634147
 20
136.3343798601442
 30
0.0
 11
24.1212499634147
 21
137.4544106427077
 31
0.0
  0
LINE
  5
46D
330
18
100
AcDbEntity
  8
1
  6
Continuous
100
AcDbLine
 10
24.42124921472441
 20
133.5843797295262
 30
0.0
 11
24.1212499634147
 21
133.5843797295262
 31
0.0
  0
LINE
  5
46E
330
18
100
AcDbEntity
  8
1
  6
Continuous
100
AcDbLine
 10
23.97124995626449
 20
140.4803600781477
 30
0.0
 11
24.1212499634147
 21
140.4803600781477
 31
0.0
  0
LINE
  5
46F
330
18
100
AcDbEntity
  8
1
  6
Continuous
100
AcDbLine
 10
23.97124995626449
 20
141.2753666797741
 30
0.0
 11
24.1212499634147
 21
141.2753666797741
 31
0.0
  0
LINE
  5
470
330
18
100
AcDbEntity
  8
1
  6
Continuous
100
AcDbLine
 10
23.97124995626449
 20
141.9202438971465
 30
0.0
 11
24.1212499634147
 21
141.9202438971465
 31
0.0
  0
LINE
  5
471
330
18
100
AcDbEntity
  8
1
  6
Continuous
100
AcDbLine
 10
23.97124995626506
 20
142.3953974623377
 30
0.0
 11
24.1212499634147
 21
142.3953974623377
 31
0.0
  0
LINE
  5
472
330
18
100
AcDbEntity
  8
1
  6
Continuous
100
AcDbLine
 10
23.97124995626506
 20
142.6863900747095
 30
0.0
 11
24.1212499634147
 21
142.6863900747095
 31
0.0
  0
LINE
  5
473
330
18
100
AcDbEntity
  8
1
  6
Continuous
100
AcDbLine
 10
23.97124995626449
 20
142.7843800709837
 30
0.0
 11
24.1212499634147
 21
142.7843800709837
 31
0.0
  0
LINE
  5
474
330
18
100
AcDbEntity
  8
1
  6
Continuous
100
AcDbLine
 10
23.97124995629007
 20
137.7024604984274
 30
0.0
 11
24.1212499634147
 21
137.7024604984274
 31
0.0
  0
LINE
  5
475
330
18
100
AcDbEntity
  8
1
  6
Continuous
100
AcDbLine
 10
23.97124995626518
 20
138.540409856706
 30
0.0
 11
24.1212499634147
 21
138.540409856706
 31
0.0
  0
LINE
  5
476
330
18
100
AcDbEntity
  8
1
  6
Continuous
100
AcDbLine
 10
23.97124995626449
 20
139.5593799655639
 30
0.0
 11
24.1212499634147
 21
139.5593799655639
 31
0.0
  0
LINE
  5
477
330
18
100
AcDbEntity
  8
2
  6
Continuous
100
AcDbLine
 10
24.12124958194488
 20
138.8138799907621
 30
0.0
 11
24.42124921472441
 21
138.8138799907621
 31
0.0
  0
LINE
  5
478
330
18
100
AcDbEntity
  8
1
  6
Continuous
100
AcDbLine
 10
24.1212499634147
 20
139.0843799907622
 30
0.0
 11
24.42124921472441
 21
139.0843799907622
 31
0.0
  0
LINE
  5
479
330
18
100
AcDbEntity
  8
1
  6
Continuous
100
AcDbLine
 10
24.1212499634147
 20
142.7843800709837
 30
0.0
 11
24.1212499634147
 21
137.7024604984269
 31
0.0
  0
LINE
  5
47A
330
18
100
AcDbEntity
  8
1
  6
Continuous
100
AcDbLine
 10
22.97124990879262
 20
143.084380180752
 30
0.0
 11
22.97133154144569
 21
143.084480180752
 31
0.0
  0
LINE
  5
47B
330
18
100
AcDbEntity
  8
1
  6
Continuous
100
AcDbLine
 10
22.97124990879262
 20
143.084380180752
 30
0.0
 11
23.67124994204084
 21
143.084380180752
 31
0.0
  0
LINE
  5
47C
330
18
100
AcDbEntity
  8
1
  6
Continuous
100
AcDbLine
 10
30.1212498669297
 20
143.2921097053382
 30
0.0
 11
30.12124986692958
 21
142.2343801403791
 31
0.0
  0
LINE
  5
47D
330
18
100
AcDbEntity
  8
1
  6
Continuous
100
AcDbLine
 10
30.42124949970911
 20
133.5343797271513
 30
0.0
 11
30.42124949970923
 21
143.7343802116253
 31
0.0
  0
LINE
  5
47E
330
18
100
AcDbEntity
  8
1
  6
Continuous
100
AcDbLine
 10
30.62124989635833
 20
145.9344386938422
 30
0.0
 11
30.62124989635492
 21
133.5343797271513
 31
0.0
  0
LINE
  5
47F
330
18
100
AcDbEntity
  8
1
  6
Continuous
100
AcDbLine
 10
33.12125000942194
 20
146.3343803351186
 30
0.0
 11
33.12125000942194
 21
138.5092362805374
 31
0.0
  0
LINE
  5
480
330
18
100
AcDbEntity
  8
1
  6
Continuous
100
AcDbLine
 10
40.1212503419041
 20
140.9169557527063
 30
0.0
 11
33.12125000942194
 21
140.9169557627335
 31
0.0
  0
ARC
  5
481
330
18
100
AcDbEntity
  8
1
  6
Continuous
100
AcDbCircle
 10
35.52125012341582
 20
136.3343798601442
 30
0.0
 40
2.700000128243122
100
AcDbArc
 50
270.0
 51
90.0
  0
ARC
  5
482
330
18
100
AcDbEntity
  8
1
  6
Continuous
100
AcDbCircle
 10
34.72125008541786
 20
136.3343798601442
 30
0.0
 40
2.700000128243109
100
AcDbArc
 50
90.0
 51
270.0
  0
LINE
  5
483
330
18
100
AcDbEntity
  8
1
  6
Continuous
100
AcDbLine
 10
30.62124989635492
 20
133.5343797271513
 30
0.0
 11
28.12124939046498
 21
133.5343797271513
 31
0.0
  0
LINE
  5
484
330
18
100
AcDbEntity
  8
1
  6
Continuous
100
AcDbLine
 10
34.72125008541786
 20
133.6343797319011
 30
0.0
 11
35.52125012341582
 21
133.6343797319011
 31
0.0
  0
LINE
  5
485
330
18
100
AcDbEntity
  8
1
  6
Continuous
100
AcDbLine
 10
30.42124949970911
 20
142.2343801403791
 30
0.0
 11
28.12124939046498
 21
142.2343801403791
 31
0.0
  0
LINE
  5
486
330
18
100
AcDbEntity
  8
1
  6
Continuous
100
AcDbLine
 10
35.52125012341582
 20
139.0343799883873
 30
0.0
 11
34.72125008541786
 21
139.0343799883873
 31
0.0
  0
LINE
  5
487
330
18
100
AcDbEntity
  8
1
  6
Continuous
100
AcDbLine
 10
40.1212503419041
 20
146.3343803351186
 30
0.0
 11
33.12125000942194
 21
146.3343803351186
 31
0.0
  0
LINE
  5
488
330
18
100
AcDbEntity
  8
1
  6
Continuous
100
AcDbLine
 10
30.92124990493061
 20
146.234380330369
 30
0.0
 11
32.02143741691577
 21
146.234380330369
 31
0.0
  0
LINE
  5
489
330
18
100
AcDbEntity
  8
1
  6
Continuous
100
AcDbLine
 10
30.62124989067831
 20
143.7343802116253
 30
0.0
 11
30.42124949970923
 21
143.7343802116253
 31
0.0
  0
LINE
  5
48A
330
18
100
AcDbEntity
  8
1
  6
Continuous
100
AcDbLine
 10
30.42124949970923
 20
143.2921097053382
 30
0.0
 11
30.1212498669297
 21
143.2921097053382
 31
0.0
  0
LINE
  5
48B
330
18
100
AcDbEntity
  8
1
  6
Continuous
100
AcDbLine
 10
29.12124981943225
 20
145.8301688513599
 30
0.0
 11
28.12124892400186
 21
144.7824560772143
 31
0.0
  0
ARC
  5
48C
330
18
100
AcDbEntity
  8
1
  6
Continuous
100
AcDbCircle
 10
30.92124990492766
 20
145.9343803161197
 30
0.0
 40
0.3000000142492096
100
AcDbArc
 50
89.99999999942678
 51
179.9888506877259
  0
LINE
  5
48D
330
18
100
AcDbEntity
  8
1
  6
Continuous
100
AcDbLine
 10
29.12124981943225
 20
145.8301688513598
 30
0.0
 11
30.62124989635833
 21
145.8301688513598
 31
0.0
  0
ARC
  5
48E
330
18
100
AcDbEntity
  8
1
  6
Continuous
100
AcDbCircle
 10
34.93318248395314
 20
156.8542360620709
 30
0.0
 40
11.01179345509075
100
AcDbArc
 50
254.6674722070353
 51
260.5292126234783
  0
LINE
  5
48F
330
18
100
AcDbEntity
  8
1
  6
Continuous
100
AcDbLine
 10
47.02125028341729
 20
142.3343801451288
 30
0.0
 11
64.65117721224848
 21
141.4113473216296
 31
0.0
  0
LINE
  5
490
330
18
100
AcDbEntity
  8
1
  6
Continuous
100
AcDbLine
 10
52.16124773752496
 20
146.7343803541177
 30
0.0
 11
64.62125508973199
 21
146.7343803541177
 31
0.0
  0
LINE
  5
491
330
18
100
AcDbEntity
  8
1
  6
Continuous
100
AcDbLine
 10
52.12125091187353
 20
142.067364405419
 30
0.0
 11
52.12125091187353
 21
148.3343804301138
 31
0.0
  0
LINE
  5
492
330
18
100
AcDbEntity
  8
1
  6
Continuous
100
AcDbLine
 10
47.72125070288473
 20
152.3343806201033
 30
0.0
 11
47.72125070288473
 21
142.2977309085075
 31
0.0
  0
LINE
  5
493
330
18
100
AcDbEntity
  8
1
  6
Continuous
100
AcDbLine
 10
46.12125062688881
 20
142.519038592326
 30
0.0
 11
45.32125058889085
 21
142.519038592326
 31
0.0
  0
LINE
  5
494
330
18
100
AcDbEntity
  8
1
  6
Continuous
100
AcDbLine
 10
45.32125058889085
 20
140.9169557527063
 30
0.0
 11
44.1212505318939
 21
140.9169557527063
 31
0.0
  0
LINE
  5
495
330
18
100
AcDbEntity
  8
1
  6
Continuous
100
AcDbLine
 10
47.72125070288473
 20
152.3343806201032
 30
0.0
 11
52.12135091187359
 21
148.3342895210229
 31
0.0
  0
LINE
  5
496
330
18
100
AcDbEntity
  8
1
  6
Continuous
100
AcDbLine
 10
45.32125058889085
 20
146.3343803351186
 30
0.0
 11
44.1212505318939
 21
146.3343803351186
 31
0.0
  0
LINE
  5
497
330
18
100
AcDbEntity
  8
1
  6
Continuous
100
AcDbLine
 10
46.12125062688881
 20
152.3343806201034
 30
0.0
 11
47.72125070288473
 21
152.3343806201034
 31
0.0
  0
LINE
  5
498
330
18
100
AcDbEntity
  8
1
  6
Continuous
100
AcDbLine
 10
46.12125062688881
 20
148.3343804301136
 30
0.0
 11
45.32125058889085
 21
148.3343804301136
 31
0.0
  0
LINE
  5
499
330
18
100
AcDbEntity
  8
1
  6
Continuous
100
AcDbLine
 10
52.16112965555954
 20
146.7343803541177
 30
0.0
 11
52.16114809938574
 21
146.7343803541177
 31
0.0
  0
LINE
  5
49A
330
18
100
AcDbEntity
  8
1
  6
Continuous
100
AcDbLine
 10
52.16124773752493
 20
146.7343803541177
 30
0.0
 11
52.12125091187353
 21
146.7505856191796
 31
0.0
  0
LINE
  5
49B
330
18
100
AcDbEntity
  8
1
  6
Continuous
100
AcDbLine
 10
66.11374299912265
 20
132.7576742448802
 30
0.0
 11
66.12125119061849
 21
132.757900115969
 31
0.0
  0
LINE
  5
49C
330
18
100
AcDbEntity
  8
1
  6
Continuous
100
AcDbLine
 10
66.11374299912253
 20
139.9110854754085
 30
0.0
 11
66.12125119061838
 21
139.9108596043198
 31
0.0
  0
ARC
  5
49D
330
18
100
AcDbEntity
  8
1
  6
Continuous
100
AcDbCircle
 10
64.61487930047994
 20
139.91292207431
 30
0.0
 40
1.498864823859707
100
AcDbArc
 50
359.9297939411385
 51
88.61233618369379
  0
ARC
  5
49E
330
18
100
AcDbEntity
  8
1
  6
Continuous
100
AcDbCircle
 10
66.47125121320297
 20
144.3843802424987
 30
0.0
 40
0.3000000142492325
100
AcDbArc
 50
0.0004990787569159
 51
90.00000000001303
  0
LINE
  5
49F
330
18
100
AcDbEntity
  8
1
  6
Continuous
100
AcDbLine
 10
66.12125118713875
 20
144.6843802567479
 30
0.0
 11
66.47125121320286
 21
144.6843802567479
 31
0.0
  0
ARC
  5
4A0
330
18
100
AcDbEntity
  8
1
  6
Continuous
100
AcDbCircle
 10
64.6212511193722
 20
145.2343802828715
 30
0.0
 40
1.500000071246184
100
AcDbArc
 50
0.0
 51
89.99984834343397
  0
ARC
  5
4A1
330
18
100
AcDbEntity
  8
1
  6
Continuous
100
AcDbCircle
 10
34.28340861202457
 20
218.6600696606734
 30
0.0
 40
11.25000058184376
100
AcDbArc
 50
289.6757786254907
 51
338.9605307469579
  0
ARC
  5
4A2
330
18
100
AcDbEntity
  8
1
  6
Continuous
100
AcDbCircle
 10
34.28340861202457
 20
218.6600696606734
 30
0.0
 40
12.25000058184376
100
AcDbArc
 50
288.8479456753971
 51
339.8469262054472
  0
ARC
  5
4A3
330
18
100
AcDbEntity
  8
1
  6
Continuous
100
AcDbCircle
 10
34.28340861202457
 20
218.6600696606734
 30
0.0
 40
11.25000058184379
100
AcDbArc
 50
201.0394677696759
 51
250.3242213745093
  0
ARC
  5
4A4
330
18
100
AcDbEntity
  8
1
  6
Continuous
100
AcDbCircle
 10
28.18340832229011
 20
216.510069558554
 30
0.0
 40
2.500000118743622
100
AcDbArc
 50
180.0
 51
0.0
  0
ARC
  5
4A5
330
18
100
AcDbEntity
  8
1
  6
Continuous
100
AcDbCircle
 10
34.28340861202457
 20
218.6600696606734
 30
0.0
 40
12.2500005818438
100
AcDbArc
 50
200.1530723750171
 51
251.1520543246028
  0
LINE
  5
4A6
330
18
100
AcDbEntity
  8
1
  6
Continuous
100
AcDbLine
 10
38.07125262834018
 20
208.0669232537013
 30
0.0
 11
30.49556459570897
 21
208.0669232537013
 31
0.0
  0
LINE
  5
4A7
330
18
100
AcDbEntity
  8
1
  6
Continuous
100
AcDbLine
 10
38.24086621024104
 20
207.0669232537013
 30
0.0
 11
30.32595101380809
 21
207.0669232537013
 31
0.0
  0
LINE
  5
4A8
330
18
100
AcDbEntity
  8
1
  6
Continuous
100
AcDbLine
 10
66.89279455915709
 20
215.4600695086816
 30
0.0
 11
49.28340932448634
 21
215.4600695086816
 31
0.0
  0
LINE
  5
4A9
330
18
100
AcDbEntity
  8
1
  6
Continuous
100
AcDbLine
 10
45.74453702971971
 20
214.3351361758355
 30
0.0
 11
48.70321126224019
 21
213.8543516130511
 31
0.0
  0
LINE
  5
4AA
330
18
100
AcDbEntity
  8
1
  6
Continuous
100
AcDbLine
 10
49.28340932448634
 20
214.3478780038043
 30
0.0
 11
49.28340932448634
 21
215.4600695086816
 31
0.0
  0
ARC
  5
4AB
330
18
100
AcDbEntity
  8
1
  6
Continuous
100
AcDbCircle
 10
48.78340930073761
 20
214.3478780038043
 30
0.0
 40
0.5000000237487239
100
AcDbArc
 50
260.7701137562937
 51
0.0
  0
ARC
  5
4AC
330
18
100
AcDbEntity
  8
1
  6
Continuous
100
AcDbCircle
 10
34.28340861202457
 20
218.6600696606734
 30
0.0
 40
11.25000058184378
100
AcDbArc
 50
21.03946925304182
 51
68.96053176476086
  0
LINE
  5
4AD
330
18
100
AcDbEntity
  8
4
  6
CENTER
 48
0.2
100
AcDbLine
 10
19.78340792716642
 20
218.6134967832073
 30
0.0
 11
73.39309546993252
 21
218.6134967832073
 31
0.0
  0
ARC
  5
4AE
330
18
100
AcDbEntity
  8
1
  6
Continuous
100
AcDbCircle
 10
34.28340861202457
 20
218.6600696606734
 30
0.0
 40
12.25000058184378
100
AcDbArc
 50
20.15307379455185
 51
69.84692717945565
  0
ARC
  5
4AF
330
18
100
AcDbEntity
  8
1
  6
Continuous
100
AcDbCircle
 10
34.28340861202457
 20
218.6600696606734
 30
0.0
 40
11.25000058184374
100
AcDbArc
 50
111.0394682352391
 51
158.9605322303231
  0
ARC
  5
4B0
330
18
100
AcDbEntity
  8
1
  6
Continuous
100
AcDbCircle
 10
28.18340832229011
 20
220.8100697627929
 30
0.0
 40
2.500000118743622
100
AcDbArc
 50
0.0
 51
180.0
  0
ARC
  5
4B1
330
18
100
AcDbEntity
  8
1
  6
Continuous
100
AcDbCircle
 10
34.28340861202457
 20
218.6600696606734
 30
0.0
 40
12.25000058184374
100
AcDbArc
 50
110.1530728205443
 51
159.846927624982
  0
LINE
  5
4B2
330
18
100
AcDbEntity
  8
1
  6
Continuous
100
AcDbLine
 10
38.32228214292968
 20
229.1600703127134
 30
0.0
 11
30.24453508111947
 21
229.1600703127134
 31
0.0
  0
LINE
  5
4B3
330
18
100
AcDbEntity
  8
1
  6
Continuous
100
AcDbLine
 10
38.50389427818356
 20
230.1600703127134
 30
0.0
 11
30.06292294586558
 21
230.1600703127134
 31
0.0
  0
LINE
  5
4B4
330
18
100
AcDbEntity
  8
1
  6
Continuous
100
AcDbLine
 10
68.78341025068687
 20
221.960069817415
 30
0.0
 11
49.28340932448634
 21
221.960069817415
 31
0.0
  0
LINE
  5
4B5
330
18
100
AcDbEntity
  8
1
  6
Continuous
100
AcDbLine
 10
49.28340932448634
 20
221.960069817415
 30
0.0
 11
49.28340932448634
 21
222.9722613175427
 31
0.0
  0
LINE
  5
4B6
330
18
100
AcDbEntity
  8
1
  6
Continuous
100
AcDbLine
 10
48.70321126224019
 20
223.4657877082959
 30
0.0
 11
45.74453702971971
 21
222.9850031455113
 31
0.0
  0
ARC
  5
4B7
330
18
100
AcDbEntity
  8
1
  6
Continuous
100
AcDbCircle
 10
48.78340930073761
 20
222.9722613175426
 30
0.0
 40
0.500000023748725
100
AcDbArc
 50
0.0000000000227818
 51
99.22988624372608
  0
LINE
  5
4B8
330
18
100
AcDbEntity
  8
1
  6
Continuous
100
AcDbLine
 10
70.40967258242995
 20
220.4159634690379
 30
0.0
 11
68.78341025068664
 21
221.960069817415
 31
0.0
  0
ARC
  5
4B9
330
18
100
AcDbEntity
  8
1
  6
Continuous
100
AcDbCircle
 10
69.5834102886846
 20
219.5457389240332
 30
0.0
 40
1.200000056996928
100
AcDbArc
 50
312.4337781267584
 51
46.48441343900119
  0
CIRCLE
  5
4BA
330
18
100
AcDbEntity
  8
1
  6
Continuous
100
AcDbCircle
 10
127.0957385808545
 20
219.806551594152
 30
0.0
 40
2.500000118744791
  0
LINE
  5
4BB
330
18
100
AcDbEntity
  8
4
  6
CENTER
 48
0.2
100
AcDbLine
 10
127.0957361688339
 20
185.3552483386105
 30
0.0
 11
127.0957361688339
 21
238.7421527994593
 31
0.0
  0
ARC
  5
4BC
330
18
100
AcDbEntity
  8
1
  6
Continuous
100
AcDbCircle
 10
127.0957361688339
 20
219.5065519613725
 30
0.0
 40
2.700000128243115
100
AcDbArc
 50
180.0
 51
0.0
  0
LINE
  5
4BD
330
18
100
AcDbEntity
  8
1
  6
Continuous
100
AcDbLine
 10
137.0957366529984
 20
214.9065517428843
 30
0.0
 11
137.0957366484034
 21
221.9065520753665
 31
0.0
  0
LINE
  5
4BE
330
18
100
AcDbEntity
  8
1
  6
Continuous
100
AcDbLine
 10
122.5131602762718
 20
214.9065517428843
 30
0.0
 11
122.5131602662445
 21
221.9065520753664
 31
0.0
  0
LINE
  5
4BF
330
18
100
AcDbEntity
  8
1
  6
Continuous
100
AcDbLine
 10
131.6783120571846
 20
214.9065517428843
 30
0.0
 11
131.6783120693174
 21
221.9065520753664
 31
0.0
  0
LINE
  5
4C0
330
18
100
AcDbEntity
  8
1
  6
Continuous
100
AcDbLine
 10
117.0957356938594
 20
214.9065517428843
 30
0.0
 11
117.0957356938594
 21
221.9065520753662
 31
0.0
  0
LINE
  5
4C1
330
18
100
AcDbEntity
  8
1
  6
Continuous
100
AcDbLine
 10
134.7882693370908
 20
202.0065515163866
 30
0.0
 11
137.8897605837755
 21
202.0065515163866
 31
0.0
  0
LINE
  5
4C2
330
18
100
AcDbEntity
  8
4
  6
CENTER
 48
0.2
100
AcDbLine
 10
99.09573498139765
 20
136.3343798601442
 30
0.0
 11
155.0957373562704
 21
136.3343798601442
 31
0.0
  0
LINE
  5
4C3
330
18
100
AcDbEntity
  8
1
  6
Continuous
100
AcDbLine
 10
138.9766934659832
 20
202.9065511729148
 30
0.0
 11
115.2147788716843
 21
202.9065511729149
 31
0.0
  0
LINE
  5
4C4
330
18
100
AcDbEntity
  8
1
  6
Continuous
100
AcDbLine
 10
141.1929808348969
 20
188.90655089417
 30
0.0
 11
112.9984915027606
 21
188.90655089417
 31
0.0
  0
LINE
  5
4C5
330
18
100
AcDbEntity
  8
1
  6
Continuous
100
AcDbLine
 10
142.684194177366
 20
214.9065517428843
 30
0.0
 11
111.5072781603015
 21
214.9065517428843
 31
0.0
  0
LINE
  5
4C6
330
18
100
AcDbEntity
  8
1
  6
Continuous
100
AcDbLine
 10
115.0957355988643
 20
209.7065514958975
 30
0.0
 11
139.0957367388033
 21
209.7065514958975
 31
0.0
  0
LINE
  5
4C7
330
18
100
AcDbEntity
  8
1
  6
Continuous
100
AcDbLine
 10
142.684194177366
 20
210.9065515528944
 30
0.0
 11
111.5072781603019
 21
210.9065515528944
 31
0.0
  0
LINE
  5
4C8
330
18
100
AcDbEntity
  8
1
  6
Continuous
100
AcDbLine
 10
143.095736928793
 20
208.9065514578995
 30
0.0
 11
111.0957354088746
 21
208.9065514578995
 31
0.0
  0
LINE
  5
4C9
330
18
100
AcDbEntity
  8
1
  6
Continuous
100
AcDbLine
 10
111.49683832462
 20
207.3065513819036
 30
0.0
 11
142.6946340130477
 21
207.3065513819037
 31
0.0
  0
ARC
  5
4CA
330
18
100
AcDbEntity
  8
1
  6
Continuous
100
AcDbCircle
 10
137.7586468934149
 20
146.0362198577866
 30
0.0
 40
4.016079573138664
100
AcDbArc
 50
222.2967582776226
 51
269.9751964327168
  0
ARC
  5
4CB
330
18
100
AcDbEntity
  8
1
  6
Continuous
100
AcDbCircle
 10
127.0957361688339
 20
136.3343798601441
 30
0.0
 40
16.00000075995917
100
AcDbArc
 50
21.49992815370232
 51
158.4942575905765
  0
ARC
  5
4CC
330
18
100
AcDbEntity
  8
1
  6
Continuous
100
AcDbCircle
 10
127.0957361688339
 20
136.3343798601442
 30
0.0
 40
12.00000056996969
100
AcDbArc
 50
28.28834045274301
 51
151.7116699077309
  0
LINE
  5
4CD
330
18
100
AcDbEntity
  8
1
  6
Continuous
100
AcDbLine
 10
111.5108068114911
 20
142.3343801451289
 30
0.0
 11
103.7169643932616
 21
142.3343801451289
 31
0.0
  0
ARC
  5
4CE
330
18
100
AcDbEntity
  8
1
  6
Continuous
100
AcDbCircle
 10
103.640083324551
 20
140.7900895884156
 30
0.0
 40
1.546203098651735
100
AcDbArc
 50
87.14993594892062
 51
177.1933315218556
  0
ARC
  5
4CF
330
18
100
AcDbEntity
  8
1
  6
Continuous
100
AcDbCircle
 10
127.0957361688339
 20
136.3343798601442
 30
0.0
 40
10.40000049396825
100
AcDbArc
 50
42.29855337727684
 51
137.7014612383522
  0
ARC
  5
4D0
330
18
100
AcDbEntity
  8
1
  6
Continuous
100
AcDbCircle
 10
116.4328564704638
 20
146.0361461210688
 30
0.0
 40
4.016007001395743
100
AcDbArc
 50
270.0242812385796
 51
317.7036841103921
  0
ARC
  5
4D1
330
18
100
AcDbEntity
  8
1
  6
Continuous
100
AcDbCircle
 10
211.4042096474014
 20
2391.584128002619
 30
0.0
 40
2251.573261809184
100
AcDbArc
 50
267.4561615648249
 51
267.579206784526
  0
LINE
  5
4D2
330
18
100
AcDbEntity
  8
1
  6
Continuous
100
AcDbLine
 10
111.5108068114927
 20
142.3343801451289
 30
0.0
 11
111.4708968710191
 21
142.2296680982705
 31
0.0
  0
LINE
  5
4D3
330
18
100
AcDbEntity
  8
1
  6
Continuous
100
AcDbLine
 10
116.434558404215
 20
142.0202440045651
 30
0.0
 11
116.3017117538945
 21
142.0202440045594
 31
0.0
  0
LINE
  5
4D4
330
18
100
AcDbEntity
  8
1
  6
Continuous
100
AcDbLine
 10
134.2457365084406
 20
137.5843799195159
 30
0.0
 11
122.4457359479706
 21
137.5843799195159
 31
0.0
  0
ARC
  5
4D5
330
18
100
AcDbEntity
  8
1
  6
Continuous
100
AcDbCircle
 10
127.0957361688339
 20
136.3343798601442
 30
0.0
 40
4.40000020898888
100
AcDbArc
 50
16.50451552136291
 51
163.495484478637
  0
LINE
  5
4D6
330
18
100
AcDbEntity
  8
1
  6
Continuous
100
AcDbLine
 10
122.4457359479706
 20
135.0843798007724
 30
0.0
 11
134.2457365084406
 21
135.0843798007724
 31
0.0
  0
LINE
  5
4D7
330
18
100
AcDbEntity
  8
1
  6
Continuous
100
AcDbLine
 10
122.4457359479706
 20
137.5843799195159
 30
0.0
 11
122.4457359479706
 21
135.0843798007724
 31
0.0
  0
LINE
  5
4D8
330
18
100
AcDbEntity
  8
1
  6
Continuous
100
AcDbLine
 10
134.2457365084406
 20
135.0843798007724
 30
0.0
 11
134.2457365084406
 21
137.5843799195159
 31
0.0
  0
LINE
  5
4D9
330
18
100
AcDbEntity
  8
1
  6
Continuous
100
AcDbLine
 10
111.5108068114911
 20
208.0065518013713
 30
0.0
 11
102.0957349813975
 21
208.0065518013713
 31
0.0
  0
LINE
  5
4DA
330
18
100
AcDbEntity
  8
1
  6
Continuous
100
AcDbLine
 10
110.2846796207833
 20
190.6277915111201
 30
0.0
 11
102.0957349813975
 21
208.0065518013713
 31
0.0
  0
LINE
  5
4DB
330
18
100
AcDbEntity
  8
1
  6
Continuous
100
AcDbLine
 10
116.4345584042187
 20
202.0065515176827
 30
0.0
 11
115.909590122424
 21
190.3281256449768
 31
0.0
  0
LINE
  5
4DC
330
18
100
AcDbEntity
  8
1
  6
Continuous
100
AcDbLine
 10
119.0457305601386
 20
188.2565508573817
 30
0.0
 11
135.1457365511884
 21
188.2565508573817
 31
0.0
  0
ARC
  5
4DD
330
18
100
AcDbEntity
  8
1
  6
Continuous
100
AcDbCircle
 10
112.9984915027606
 20
191.9065510366623
 30
0.0
 40
3.000000142492316
100
AcDbArc
 50
205.2300076016608
 51
270.0
  0
ARC
  5
4DE
330
18
100
AcDbEntity
  8
1
  6
Continuous
100
AcDbCircle
 10
119.0457357864794
 20
188.5565508715854
 30
0.0
 40
0.3000000142492325
100
AcDbArc
 50
179.9999999999914
 51
269.9995009212451
  0
LINE
  5
4DF
330
18
100
AcDbEntity
  8
1
  6
Continuous
100
AcDbLine
 10
118.7457357722301
 20
188.90655089417
 30
0.0
 11
118.7457357722301
 21
188.5565508715855
 31
0.0
  0
LINE
  5
4E0
330
18
100
AcDbEntity
  8
1
  6
Continuous
100
AcDbLine
 10
135.4457365654376
 20
188.5565508715855
 30
0.0
 11
135.4457365654376
 21
188.90655089417
 31
0.0
  0
ARC
  5
4E1
330
18
100
AcDbEntity
  8
1
  6
Continuous
100
AcDbCircle
 10
135.1457365511884
 20
188.5565508715854
 30
0.0
 40
0.3000000142492325
100
AcDbArc
 50
270.0
 51
0.0000000000085493
  0
LINE
  5
4E2
330
18
100
AcDbEntity
  8
1
  6
Continuous
100
AcDbLine
 10
111.5108068114927
 20
208.0065518013712
 30
0.0
 11
111.4708968710191
 21
206.0065517063765
 31
0.0
  0
LINE
  5
4E3
330
18
100
AcDbEntity
  8
1
  6
Continuous
100
AcDbLine
 10
111.4882230381722
 20
206.8748149896767
 30
0.0
 11
114.733322555336
 21
203.3052055207956
 31
0.0
  0
LINE
  5
4E4
330
18
100
AcDbEntity
  8
1
  6
Continuous
100
AcDbLine
 10
111.4708968710219
 20
206.006551706374
 30
0.0
 11
116.3017117538921
 21
202.0065515163866
 31
0.0
  0
LINE
  5
4E5
330
18
100
AcDbEntity
  8
1
  6
Continuous
100
AcDbLine
 10
119.4032030005769
 20
202.0065515163866
 30
0.0
 11
116.3017117538921
 21
202.0065515163866
 31
0.0
  0
LINE
  5
4E6
330
18
100
AcDbEntity
  8
1
  6
Continuous
100
AcDbLine
 10
116.6957356748604
 20
202.9065511729149
 30
0.0
 11
116.6957356748604
 21
202.0065515163866
 31
0.0
  0
LINE
  5
4E7
330
18
100
AcDbEntity
  8
1
  6
Continuous
100
AcDbLine
 10
111.5072781603015
 20
214.9065517428843
 30
0.0
 11
111.5072781603015
 21
210.9065515528944
 31
0.0
  0
LINE
  5
4E8
330
18
100
AcDbEntity
  8
1
  6
Continuous
100
AcDbLine
 10
111.0957354088746
 20
208.9065514578995
 30
0.0
 11
111.0957354088746
 21
208.0065518013713
 31
0.0
  0
LINE
  5
4E9
330
18
100
AcDbEntity
  8
1
  6
Continuous
100
AcDbLine
 10
119.3015071645678
 20
214.9065517428843
 30
0.0
 11
119.3015071645678
 21
210.9065515528944
 31
0.0
  0
LINE
  5
4EA
330
18
100
AcDbEntity
  8
1
  6
Continuous
100
AcDbLine
 10
115.0957355988645
 20
208.9065514578995
 30
0.0
 11
115.0957355988645
 21
209.7065514958975
 31
0.0
  0
LINE
  5
4EB
330
18
100
AcDbEntity
  8
1
  6
Continuous
100
AcDbLine
 10
117.0957356938594
 20
209.7065514958975
 30
0.0
 11
117.0957356938594
 21
210.9065515528944
 31
0.0
  0
LINE
  5
4EC
330
18
100
AcDbEntity
  8
1
  6
Continuous
100
AcDbLine
 10
122.5131602762718
 20
209.7065514958975
 30
0.0
 11
122.5131602762718
 21
210.9065515528944
 31
0.0
  0
LINE
  5
4ED
330
18
100
AcDbEntity
  8
1
  6
Continuous
100
AcDbLine
 10
120.9110774366521
 20
208.9065514578995
 30
0.0
 11
120.911077436652
 21
209.7065514958975
 31
0.0
  0
LINE
  5
4EE
330
18
100
AcDbEntity
  8
1
  6
Continuous
100
AcDbLine
 10
134.8899651730995
 20
214.9065517428843
 30
0.0
 11
134.8899651730995
 21
210.9065515528944
 31
0.0
  0
LINE
  5
4EF
330
18
100
AcDbEntity
  8
1
  6
Continuous
100
AcDbLine
 10
131.6783120571846
 20
209.7065514958975
 30
0.0
 11
131.6783120571846
 21
210.9065515528944
 31
0.0
  0
LINE
  5
4F0
330
18
100
AcDbEntity
  8
1
  6
Continuous
100
AcDbLine
 10
133.2803949010155
 20
208.9065514578995
 30
0.0
 11
133.2803949010157
 21
209.7065514958975
 31
0.0
  0
ARC
  5
4F1
330
18
100
AcDbEntity
  8
1
  6
Continuous
100
AcDbCircle
 10
150.5513888022513
 20
140.7900893556315
 30
0.0
 40
1.546203320662985
100
AcDbArc
 50
2.806676711184194
 51
92.85005581806125
  0
LINE
  5
4F2
330
18
100
AcDbEntity
  8
1
  6
Continuous
100
AcDbLine
 10
150.4745079444061
 20
142.3343801451289
 30
0.0
 11
142.6806655261765
 21
142.3343801451289
 31
0.0
  0
ARC
  5
4F3
330
18
100
AcDbEntity
  8
1
  6
Continuous
100
AcDbCircle
 10
42.19419175133237
 20
2405.264578363199
 30
0.0
 40
2265.266553609238
100
AcDbArc
 50
272.4211651131461
 51
272.5434665374938
  0
LINE
  5
4F4
330
18
100
AcDbEntity
  8
1
  6
Continuous
100
AcDbLine
 10
137.8897605837731
 20
142.0202440045593
 30
0.0
 11
137.7569083169022
 21
142.0202440045649
 31
0.0
  0
LINE
  5
4F5
330
18
100
AcDbEntity
  8
1
  6
Continuous
100
AcDbLine
 10
142.7205754666487
 20
142.2296680982705
 30
0.0
 11
142.6806655261749
 21
142.3343801451289
 31
0.0
  0
LINE
  5
4F6
330
18
100
AcDbEntity
  8
1
  6
Continuous
100
AcDbLine
 10
188.0777293385452
 20
132.7576742448802
 30
0.0
 11
188.0702211470492
 21
132.757900115969
 31
0.0
  0
LINE
  5
4F7
330
18
100
AcDbEntity
  8
1
  6
Continuous
100
AcDbLine
 10
188.0777293385453
 20
139.9110854754085
 30
0.0
 11
188.0702211470493
 21
139.9108596043198
 31
0.0
  0
ARC
  5
4F8
330
18
100
AcDbEntity
  8
1
  6
Continuous
100
AcDbCircle
 10
189.5765930371877
 20
139.91292207431
 30
0.0
 40
1.498864823859707
100
AcDbArc
 50
91.38766381630622
 51
180.0702060588615
  0
ARC
  5
4F9
330
18
100
AcDbEntity
  8
1
  6
Continuous
100
AcDbCircle
 10
189.5702212182956
 20
145.2343802828715
 30
0.0
 40
1.500000071246184
100
AcDbArc
 50
90.00015165656604
 51
180.0
  0
ARC
  5
4FA
330
18
100
AcDbEntity
  8
1
  6
Continuous
100
AcDbCircle
 10
187.7202211244646
 20
144.3843802424987
 30
0.0
 40
0.3000000142492325
100
AcDbArc
 50
89.99999999999348
 51
179.9995009212429
  0
LINE
  5
4FB
330
18
100
AcDbEntity
  8
1
  6
Continuous
100
AcDbLine
 10
188.0702211505289
 20
144.6843802567479
 30
0.0
 11
187.7202211244648
 21
144.6843802567479
 31
0.0
  0
LINE
  5
4FC
330
18
100
AcDbEntity
  8
1
  6
Continuous
100
AcDbLine
 10
137.756913933449
 20
202.0065515176827
 30
0.0
 11
138.2818822152436
 21
190.3281256449768
 31
0.0
  0
LINE
  5
4FD
330
18
100
AcDbEntity
  8
1
  6
Continuous
100
AcDbLine
 10
152.0957373562704
 20
208.0065518013713
 30
0.0
 11
143.9067927168861
 21
190.627791511123
 31
0.0
  0
ARC
  5
4FE
330
18
100
AcDbEntity
  8
1
  6
Continuous
100
AcDbCircle
 10
141.1929808349069
 20
191.9065510366623
 30
0.0
 40
3.000000142492317
100
AcDbArc
 50
269.9999975549955
 51
334.7699916474492
  0
LINE
  5
4FF
330
18
100
AcDbEntity
  8
1
  6
Continuous
100
AcDbLine
 10
152.0957373562704
 20
208.0065518013713
 30
0.0
 11
142.6806655261765
 21
208.0065518013713
 31
0.0
  0
LINE
  5
500
330
18
100
AcDbEntity
  8
1
  6
Continuous
100
AcDbLine
 10
142.6806655261749
 20
208.0065518013712
 30
0.0
 11
142.7205754666487
 21
206.0065517063765
 31
0.0
  0
LINE
  5
501
330
18
100
AcDbEntity
  8
1
  6
Continuous
100
AcDbLine
 10
142.7032492994956
 20
206.8748149896767
 30
0.0
 11
139.4581497823314
 21
203.3052055207956
 31
0.0
  0
LINE
  5
502
330
18
100
AcDbEntity
  8
1
  6
Continuous
100
AcDbLine
 10
142.7205754666456
 20
206.006551706374
 30
0.0
 11
137.8897605837755
 21
202.0065515163866
 31
0.0
  0
LINE
  5
503
330
18
100
AcDbEntity
  8
1
  6
Continuous
100
AcDbLine
 10
137.4957366628074
 20
202.9065511729148
 30
0.0
 11
137.4957366628074
 21
202.0065515163866
 31
0.0
  0
LINE
  5
504
330
18
100
AcDbEntity
  8
1
  6
Continuous
100
AcDbLine
 10
142.684194177366
 20
214.9065517428843
 30
0.0
 11
142.684194177366
 21
210.9065515528944
 31
0.0
  0
LINE
  5
505
330
18
100
AcDbEntity
  8
1
  6
Continuous
100
AcDbLine
 10
137.0957366529984
 20
209.7065514958975
 30
0.0
 11
137.0957366529984
 21
210.9065515528944
 31
0.0
  0
LINE
  5
506
330
18
100
AcDbEntity
  8
1
  6
Continuous
100
AcDbLine
 10
139.0957367388033
 20
208.9065514578995
 30
0.0
 11
139.0957367388033
 21
209.7065514958975
 31
0.0
  0
LINE
  5
507
330
18
100
AcDbEntity
  8
1
  6
Continuous
100
AcDbLine
 10
143.0957369287931
 20
208.0065518013713
 30
0.0
 11
143.0957369287931
 21
208.9065514578995
 31
0.0
  0
LINE
  5
508
330
18
100
AcDbEntity
  8
1
  6
Continuous
100
AcDbLine
 10
136.9957366390598
 20
225.906552265355
 30
0.0
 11
135.9957357436283
 21
226.9065531607865
 31
0.0
  0
LINE
  5
509
330
18
100
AcDbEntity
  8
1
  6
Continuous
100
AcDbLine
 10
129.2705925892272
 20
221.9065520753664
 30
0.0
 11
137.0957366484034
 21
221.9065520753665
 31
0.0
  0
LINE
  5
50A
330
18
100
AcDbEntity
  8
1
  6
Continuous
100
AcDbLine
 10
136.9957366390585
 20
225.9065522653562
 30
0.0
 11
129.8957363018265
 21
225.9065522653562
 31
0.0
  0
LINE
  5
50B
330
18
100
AcDbEntity
  8
1
  6
Continuous
100
AcDbLine
 10
120.6457359400842
 20
230.9065521213736
 30
0.0
 11
126.4011434251747
 21
230.9065521213736
 31
0.0
  0
LINE
  5
50C
330
18
100
AcDbEntity
  8
1
  6
Continuous
100
AcDbLine
 10
133.5457364751923
 20
231.0565521284983
 30
0.0
 11
120.6457358624752
 21
231.0565521284983
 31
0.0
  0
LINE
  5
50D
330
18
100
AcDbEntity
  8
1
  6
Continuous
100
AcDbLine
 10
133.8457364894417
 20
232.0565521759958
 30
0.0
 11
120.345735848226
 21
232.0565521759958
 31
0.0
  0
LINE
  5
50E
330
18
100
AcDbEntity
  8
1
  6
Continuous
100
AcDbLine
 10
120.9582358773183
 20
232.5565521997445
 30
0.0
 11
120.345735848226
 21
232.0565521759958
 31
0.0
  0
LINE
  5
50F
330
18
100
AcDbEntity
  8
1
  6
Continuous
100
AcDbLine
 10
117.0957356938594
 20
221.9065520753662
 30
0.0
 11
124.9208797484407
 21
221.9065520753665
 31
0.0
  0
LINE
  5
510
330
18
100
AcDbEntity
  8
1
  6
Continuous
100
AcDbLine
 10
118.6476599517638
 20
226.9065531607865
 30
0.0
 11
135.9957357436283
 21
226.9065531607865
 31
0.0
  0
LINE
  5
511
330
18
100
AcDbEntity
  8
1
  6
Continuous
100
AcDbLine
 10
120.1380063236397
 20
224.9065522178589
 30
0.0
 11
121.1957358885988
 21
224.9065522178588
 31
0.0
  0
LINE
  5
512
330
18
100
AcDbEntity
  8
1
  6
Continuous
100
AcDbLine
 10
119.6957358173526
 20
224.6065525850792
 30
0.0
 11
129.8957363018265
 21
224.6065525850791
 31
0.0
  0
LINE
  5
513
330
18
100
AcDbEntity
  8
1
  6
Continuous
100
AcDbLine
 10
117.4956773351358
 20
224.4065521884301
 30
0.0
 11
129.8957533286625
 21
224.40655218843
 31
0.0
  0
ARC
  5
514
330
18
100
AcDbEntity
  8
1
  6
Continuous
100
AcDbCircle
 10
106.5572449564998
 20
220.0910187907834
 30
0.0
 40
11.03076696826251
100
AcDbArc
 50
9.473308823672532
 51
15.32591017474263
  0
LINE
  5
515
330
18
100
AcDbEntity
  8
1
  6
Continuous
100
AcDbLine
 10
119.6957358173526
 20
224.6065525850792
 30
0.0
 11
119.6957358173526
 21
224.4065521941101
 31
0.0
  0
ARC
  5
516
330
18
100
AcDbEntity
  8
1
  6
Continuous
100
AcDbCircle
 10
117.4957357128583
 20
224.1065521798608
 30
0.0
 40
0.3000000142492096
100
AcDbArc
 50
90.01114932163631
 51
180.0000000005751
  0
LINE
  5
517
330
18
100
AcDbEntity
  8
1
  6
Continuous
100
AcDbLine
 10
120.1380063236395
 20
224.6065525850792
 30
0.0
 11
120.1380063236397
 21
224.9065522178589
 31
0.0
  0
LINE
  5
518
330
18
100
AcDbEntity
  8
1
  6
Continuous
100
AcDbLine
 10
117.5999471776182
 20
225.9065522653561
 30
0.0
 11
118.6476599517638
 21
226.9065531607865
 31
0.0
  0
LINE
  5
519
330
18
100
AcDbEntity
  8
1
  6
Continuous
100
AcDbLine
 10
117.5999471776182
 20
224.4065521884301
 30
0.0
 11
117.5999471776182
 21
225.9065522653556
 31
0.0
  0
LINE
  5
51A
330
18
100
AcDbEntity
  8
1
  6
Continuous
100
AcDbLine
 10
117.195735698609
 20
224.1065521798578
 30
0.0
 11
117.195735698609
 21
223.0065521276136
 31
0.0
  0
ARC
  5
51B
330
18
100
AcDbEntity
  8
1
  6
Continuous
100
AcDbCircle
 10
120.6457358624752
 20
231.3565521427476
 30
0.0
 40
0.3000000142492439
100
AcDbArc
 50
180.0000000000028
 51
270.0
  0
LINE
  5
51C
330
18
100
AcDbEntity
  8
1
  6
Continuous
100
AcDbLine
 10
120.6457359400842
 20
231.0565521285234
 30
0.0
 11
120.6457359400842
 21
230.9065521213736
 31
0.0
  0
LINE
  5
51D
330
18
100
AcDbEntity
  8
1
  6
Continuous
100
AcDbLine
 10
120.345735848226
 20
232.0565521759958
 30
0.0
 11
120.345735848226
 21
231.3565521427476
 31
0.0
  0
LINE
  5
51E
330
18
100
AcDbEntity
  8
1
  6
Continuous
100
AcDbLine
 10
131.0457363564488
 20
230.606552870064
 30
0.0
 11
131.2957363683232
 21
226.9065526943233
 31
0.0
  0
LINE
  5
51F
330
18
100
AcDbEntity
  8
1
  6
Continuous
100
AcDbLine
 10
129.7153736727458
 20
226.9065526943234
 30
0.0
 11
130.0790230885676
 21
230.606552870064
 31
0.0
  0
LINE
  5
520
330
18
100
AcDbEntity
  8
1
  6
Continuous
100
AcDbLine
 10
122.8957359693446
 20
226.9065526943234
 30
0.0
 11
123.1457359812189
 21
230.606552870064
 31
0.0
  0
LINE
  5
521
330
18
100
AcDbEntity
  8
1
  6
Continuous
100
AcDbLine
 10
124.1124492491001
 20
230.606552870064
 30
0.0
 11
124.4760986649212
 21
226.9065526943234
 31
0.0
  0
ARC
  5
522
330
18
100
AcDbEntity
  8
1
  6
Continuous
100
AcDbCircle
 10
127.0957361688339
 20
220.3065519993705
 30
0.0
 40
2.700000128243122
100
AcDbArc
 50
0.0
 51
180.0
  0
LINE
  5
523
330
18
100
AcDbEntity
  8
1
  6
Continuous
100
AcDbLine
 10
124.3957360405907
 20
220.3065519993705
 30
0.0
 11
124.3957360405907
 21
219.5065519613725
 31
0.0
  0
ARC
  5
524
330
18
100
AcDbEntity
  8
1
  6
Continuous
100
AcDbCircle
 10
127.095733756813
 20
219.806551594152
 30
0.0
 40
1.00000004749967
100
AcDbArc
 50
89.9998618013967
 51
270.0001381985967
  0
ARC
  5
525
330
18
100
AcDbEntity
  8
1
  6
Continuous
100
AcDbCircle
 10
127.0957385808545
 20
219.806551594152
 30
0.0
 40
1.000000047499685
100
AcDbArc
 50
269.9998618013967
 51
90.00013819859676
  0
LINE
  5
526
330
18
100
AcDbEntity
  8
1
  6
Continuous
100
AcDbLine
 10
121.1957358885988
 20
226.9065526943233
 30
0.0
 11
121.1957358885988
 21
224.6065525850792
 31
0.0
  0
LINE
  5
527
330
18
100
AcDbEntity
  8
1
  6
Continuous
100
AcDbLine
 10
129.795736297077
 20
219.5065519613725
 30
0.0
 11
129.795736297077
 21
220.3065519993705
 31
0.0
  0
LINE
  5
528
330
18
100
AcDbEntity
  8
1
  6
Continuous
100
AcDbLine
 10
129.8957363018267
 20
224.40655218843
 30
0.0
 11
129.8957363018267
 21
226.9065523128538
 31
0.0
  0
LINE
  5
529
330
18
100
AcDbEntity
  8
1
  6
Continuous
100
AcDbLine
 10
128.1457362187061
 20
236.5565523897343
 30
0.0
 11
132.0433861345766
 21
236.5565523897343
 31
0.0
  0
LINE
  5
52A
330
18
100
AcDbEntity
  8
1
  6
Continuous
100
AcDbLine
 10
123.1457359812187
 20
230.606552870064
 30
0.0
 11
131.0457363564488
 21
230.606552870064
 31
0.0
  0
LINE
  5
52B
330
18
100
AcDbEntity
  8
1
  6
Continuous
100
AcDbLine
 10
133.2332364603493
 20
232.5565521997445
 30
0.0
 11
120.9582358773183
 21
232.5565521997445
 31
0.0
  0
LINE
  5
52C
330
18
100
AcDbEntity
  8
1
  6
Continuous
100
AcDbLine
 10
121.5707359064103
 20
236.0565523659856
 30
0.0
 11
121.5707360507481
 21
232.5565521997445
 31
0.0
  0
LINE
  5
52D
330
18
100
AcDbEntity
  8
1
  6
Continuous
100
AcDbLine
 10
124.3332360376223
 20
236.0565523659856
 30
0.0
 11
124.3332360376223
 21
232.5565521997445
 31
0.0
  0
LINE
  5
52E
330
18
100
AcDbEntity
  8
1
  6
Continuous
100
AcDbLine
 10
124.3457360382159
 20
230.9065521213736
 30
0.0
 11
124.3457360382159
 21
230.606552870064
 31
0.0
  0
LINE
  5
52F
330
18
100
AcDbEntity
  8
1
  6
Continuous
100
AcDbLine
 10
121.5098721318317
 20
231.0565521285236
 30
0.0
 11
121.5098721318317
 21
230.9065521213736
 31
0.0
  0
LINE
  5
530
330
18
100
AcDbEntity
  8
1
  6
Continuous
100
AcDbLine
 10
122.1547493492034
 20
231.0565521285235
 30
0.0
 11
122.1547493492034
 21
230.9065521213736
 31
0.0
  0
LINE
  5
531
330
18
100
AcDbEntity
  8
1
  6
Continuous
100
AcDbLine
 10
122.9497559508306
 20
231.0565521285235
 30
0.0
 11
122.9497559508306
 21
230.9065521213736
 31
0.0
  0
LINE
  5
532
330
18
100
AcDbEntity
  8
1
  6
Continuous
100
AcDbLine
 10
123.8707360634135
 20
231.056552128523
 30
0.0
 11
123.8707360634135
 21
230.9065521213736
 31
0.0
  0
LINE
  5
533
330
18
100
AcDbEntity
  8
1
  6
Continuous
100
AcDbLine
 10
120.7437259542687
 20
231.0565521285234
 30
0.0
 11
120.7437259542687
 21
230.9065521213736
 31
0.0
  0
LINE
  5
534
330
18
100
AcDbEntity
  8
1
  6
Continuous
100
AcDbLine
 10
121.0347185666402
 20
231.0565521285236
 30
0.0
 11
121.0347185666402
 21
230.9065521213736
 31
0.0
  0
LINE
  5
535
330
18
100
AcDbEntity
  8
2
  6
Continuous
100
AcDbLine
 10
124.6162360382157
 20
230.9065525028435
 30
0.0
 11
124.6162360382157
 21
230.606552870064
 31
0.0
  0
LINE
  5
536
330
18
100
AcDbEntity
  8
1
  6
Continuous
100
AcDbLine
 10
126.4011434251748
 20
231.0565521284983
 30
0.0
 11
126.4011434251748
 21
230.9065521213736
 31
0.0
  0
LINE
  5
537
330
18
100
AcDbEntity
  8
1
  6
Continuous
100
AcDbLine
 10
124.8897061722721
 20
231.056552128523
 30
0.0
 11
124.8897061722721
 21
230.9065521213736
 31
0.0
  0
LINE
  5
538
330
18
100
AcDbEntity
  8
1
  6
Continuous
100
AcDbLine
 10
125.9757053862702
 20
231.0565521285239
 30
0.0
 11
125.9757053862702
 21
230.9065521213736
 31
0.0
  0
LINE
  5
539
330
18
100
AcDbEntity
  8
1
  6
Continuous
100
AcDbLine
 10
127.0957361688339
 20
231.0565521285239
 30
0.0
 11
127.0957361688339
 21
230.9065521213736
 31
0.0
  0
LINE
  5
53A
330
18
100
AcDbEntity
  8
1
  6
Continuous
100
AcDbLine
 10
128.2157669513973
 20
230.9065521213736
 30
0.0
 11
127.0957361688339
 21
230.9065521213736
 31
0.0
  0
LINE
  5
53B
330
18
100
AcDbEntity
  8
1
  6
Continuous
100
AcDbLine
 10
128.2157669513975
 20
231.0565521285233
 30
0.0
 11
128.2157669513975
 21
230.9065521213736
 31
0.0
  0
ARC
  5
53C
330
18
100
AcDbEntity
  8
1
  6
Continuous
100
AcDbCircle
 10
124.6550019684437
 20
236.2939378773326
 30
0.0
 40
0.2646911067857573
100
AcDbArc
 50
97.18171447544774
 51
157.3332128846835
  0
LINE
  5
53D
330
18
100
AcDbEntity
  8
1
  6
Continuous
100
AcDbLine
 10
126.0457361189615
 20
236.5565523897343
 30
0.0
 11
122.148086203091
 21
236.5565523897343
 31
0.0
  0
ARC
  5
53E
330
18
100
AcDbEntity
  8
1
  6
Continuous
100
AcDbCircle
 10
125.0611759095188
 20
236.0688334438721
 30
0.0
 40
0.7280434615948062
100
AcDbArc
 50
153.3013208882162
 51
180.9665457392716
  0
ARC
  5
53F
330
18
100
AcDbEntity
  8
1
  6
Continuous
100
AcDbCircle
 10
122.1150672973519
 20
236.0113459768489
 30
0.0
 40
0.5462053467178583
100
AcDbArc
 50
86.53427395857738
 51
175.252515332513
  0
ARC
  5
540
330
18
100
AcDbEntity
  8
1
  6
Continuous
100
AcDbCircle
 10
126.0457361189615
 20
236.2565523754851
 30
0.0
 40
0.3000000142492283
100
AcDbArc
 50
0.000000000000007
 51
90.0
  0
LINE
  5
541
330
18
100
AcDbEntity
  8
1
  6
Continuous
100
AcDbLine
 10
126.3457361332108
 20
236.2565523754851
 30
0.0
 11
126.3457361332108
 21
234.0565522709907
 31
0.0
  0
ARC
  5
542
330
18
100
AcDbEntity
  8
1
  6
Continuous
100
AcDbCircle
 10
128.1457362187061
 20
236.2565523754851
 30
0.0
 40
0.3000000142492283
100
AcDbArc
 50
90.0
 51
180.0
  0
LINE
  5
543
330
18
100
AcDbEntity
  8
1
  6
Continuous
100
AcDbLine
 10
127.845736204457
 20
234.0565522709907
 30
0.0
 11
126.3457361332108
 21
234.0565522709907
 31
0.0
  0
LINE
  5
544
330
18
100
AcDbEntity
  8
1
  6
Continuous
100
AcDbLine
 10
127.845736204457
 20
236.2565523754851
 30
0.0
 11
127.845736204457
 21
234.0565522709907
 31
0.0
  0
LINE
  5
545
330
18
100
AcDbEntity
  8
1
  6
Continuous
100
AcDbLine
 10
129.8582363000455
 20
236.0565523659856
 30
0.0
 11
129.8582363000455
 21
232.5565521997445
 31
0.0
  0
LINE
  5
546
330
18
100
AcDbEntity
  8
1
  6
Continuous
100
AcDbLine
 10
132.6207364312573
 20
236.0565523659856
 30
0.0
 11
132.6207362869196
 21
232.5565521997445
 31
0.0
  0
LINE
  5
547
330
18
100
AcDbEntity
  8
1
  6
Continuous
100
AcDbLine
 10
133.5457363796734
 20
230.9065521213736
 30
0.0
 11
128.4638168071171
 21
230.9065521213736
 31
0.0
  0
LINE
  5
548
330
18
100
AcDbEntity
  8
2
  6
Continuous
100
AcDbLine
 10
129.5752362994519
 20
230.9065525028435
 30
0.0
 11
129.5752362994519
 21
230.606552870064
 31
0.0
  0
LINE
  5
549
330
18
100
AcDbEntity
  8
1
  6
Continuous
100
AcDbLine
 10
129.8457362994519
 20
230.6065528700639
 30
0.0
 11
129.8457362994519
 21
230.9065521213736
 31
0.0
  0
LINE
  5
54A
330
18
100
AcDbEntity
  8
1
  6
Continuous
100
AcDbLine
 10
132.036722988464
 20
231.0565521285239
 30
0.0
 11
132.036722988464
 21
230.9065521213736
 31
0.0
  0
LINE
  5
54B
330
18
100
AcDbEntity
  8
1
  6
Continuous
100
AcDbLine
 10
131.241716386837
 20
231.0565521285239
 30
0.0
 11
131.241716386837
 21
230.9065521213736
 31
0.0
  0
LINE
  5
54C
330
18
100
AcDbEntity
  8
1
  6
Continuous
100
AcDbLine
 10
130.320736274254
 20
231.0565521285239
 30
0.0
 11
130.320736274254
 21
230.9065521213736
 31
0.0
  0
LINE
  5
54D
330
18
100
AcDbEntity
  8
1
  6
Continuous
100
AcDbLine
 10
128.4638168071171
 20
231.0565521284983
 30
0.0
 11
128.4638168071171
 21
230.9065521213736
 31
0.0
  0
LINE
  5
54E
330
18
100
AcDbEntity
  8
1
  6
Continuous
100
AcDbLine
 10
129.3017661653956
 20
231.0565521285233
 30
0.0
 11
129.3017661653956
 21
230.9065521213736
 31
0.0
  0
ARC
  5
54F
330
18
100
AcDbEntity
  8
1
  6
Continuous
100
AcDbCircle
 10
133.5457364751923
 20
231.3565521427476
 30
0.0
 40
0.3000000142492439
100
AcDbArc
 50
270.0
 51
359.9999999999971
  0
LINE
  5
550
330
18
100
AcDbEntity
  8
1
  6
Continuous
100
AcDbLine
 10
133.447746383399
 20
231.0565521285232
 30
0.0
 11
133.447746383399
 21
230.9065521213736
 31
0.0
  0
LINE
  5
551
330
18
100
AcDbEntity
  8
1
  6
Continuous
100
AcDbLine
 10
133.5457363796734
 20
231.056552128524
 30
0.0
 11
133.5457363796734
 21
230.9065521213736
 31
0.0
  0
LINE
  5
552
330
18
100
AcDbEntity
  8
1
  6
Continuous
100
AcDbLine
 10
132.6816002058359
 20
231.0565521285239
 30
0.0
 11
132.6816002058359
 21
230.9065521213736
 31
0.0
  0
LINE
  5
553
330
18
100
AcDbEntity
  8
1
  6
Continuous
100
AcDbLine
 10
133.1567537710276
 20
231.0565521285232
 30
0.0
 11
133.1567537710276
 21
230.9065521213736
 31
0.0
  0
LINE
  5
554
330
18
100
AcDbEntity
  8
1
  6
Continuous
100
AcDbLine
 10
133.8457364894417
 20
231.3565521427476
 30
0.0
 11
133.8457364894417
 21
232.0565521759958
 31
0.0
  0
LINE
  5
555
330
18
100
AcDbEntity
  8
1
  6
Continuous
100
AcDbLine
 10
133.8457364894416
 20
232.0565521759958
 30
0.0
 11
133.2331139603494
 21
232.5566521997445
 31
0.0
  0
ARC
  5
556
330
18
100
AcDbEntity
  8
1
  6
Continuous
100
AcDbCircle
 10
132.0764050403157
 20
236.0113459768489
 30
0.0
 40
0.5462053467178583
100
AcDbArc
 50
4.74748466748683
 51
93.46572604142263
  0
ARC
  5
557
330
18
100
AcDbEntity
  8
1
  6
Continuous
100
AcDbCircle
 10
129.1302964281488
 20
236.0688334438721
 30
0.0
 40
0.7280434615948062
100
AcDbArc
 50
359.0334542607282
 51
26.69867911178375
  0
ARC
  5
558
330
18
100
AcDbEntity
  8
1
  6
Continuous
100
AcDbCircle
 10
129.536470369224
 20
236.2939378773326
 30
0.0
 40
0.2646911067857573
100
AcDbArc
 50
22.66678711531636
 51
82.81828552455229
  0
ARC
  5
559
330
18
100
AcDbEntity
  8
1
  6
Continuous
100
AcDbCircle
 10
147.6342236848337
 20
220.0910196034484
 30
0.0
 40
11.03076318858256
100
AcDbArc
 50
164.6740888216885
 51
170.5266921798926
  0
LINE
  5
55A
330
18
100
AcDbEntity
  8
1
  6
Continuous
100
AcDbLine
 10
136.9957366390585
 20
223.0065521276136
 30
0.0
 11
136.9957366390585
 21
225.9065522653562
 31
0.0
  0
LINE
  5
55B
330
18
100
AcDbEntity
  8
1
  6
Continuous
100
AcDbLine
 10
208.870221748777
 20
148.3343804301136
 30
0.0
 11
208.870221748777
 21
124.3343792901747
 31
0.0
  0
LINE
  5
55C
330
18
100
AcDbEntity
  8
1
  6
Continuous
100
AcDbLine
 10
208.070221710779
 20
120.3343791001847
 30
0.0
 11
208.070221710779
 21
152.3343806201033
 31
0.0
  0
LINE
  5
55D
330
18
100
AcDbEntity
  8
1
  6
Continuous
100
AcDbLine
 10
207.1702220542504
 20
130.3343795751596
 30
0.0
 11
207.1702220542504
 21
142.3343801451288
 31
0.0
  0
CIRCLE
  5
55E
330
18
100
AcDbEntity
  8
1
  6
Continuous
100
AcDbCircle
 10
295.9477177269906
 20
136.3343798601442
 30
0.0
 40
6.750000320607794
  0
CIRCLE
  5
55F
330
18
100
AcDbEntity
  8
1
  6
Continuous
100
AcDbCircle
 10
295.9477177269906
 20
136.3343798601442
 30
0.0
 40
6.137500291515642
  0
ARC
  5
560
330
18
100
AcDbEntity
  8
2
  6
Continuous
100
AcDbCircle
 10
295.9477177269924
 20
136.3343798601439
 30
0.0
 40
10.18800048390211
100
AcDbArc
 50
282.325918946419
 51
347.674081053573
  0
ARC
  5
561
330
18
100
AcDbEntity
  8
2
  6
Continuous
100
AcDbCircle
 10
295.9477177269889
 20
136.3343798601439
 30
0.0
 40
10.18800048390211
100
AcDbArc
 50
192.3259189464268
 51
257.6740810535809
  0
LINE
  5
562
330
18
100
AcDbEntity
  8
1
  6
Continuous
100
AcDbLine
 10
296.6977177626137
 20
135.3343798126467
 30
0.0
 11
296.6977177626137
 21
131.849589291219
 31
0.0
  0
ARC
  5
563
330
18
100
AcDbEntity
  8
1
  6
Continuous
100
AcDbCircle
 10
296.9977177768629
 20
132.1645475311738
 30
0.0
 40
0.3000000142492335
100
AcDbArc
 50
104.1337367206809
 51
176.3016729043089
  0
ARC
  5
564
330
18
100
AcDbEntity
  8
1
  6
Continuous
100
AcDbCircle
 10
295.9477177269906
 20
136.3343798601442
 30
0.0
 40
16.70000079320754
100
AcDbArc
 50
338.9439268188529
 51
21.05607318114711
  0
LINE
  5
565
330
18
100
AcDbEntity
  8
1
  6
Continuous
100
AcDbLine
 10
320.9477189144273
 20
131.8029587240182
 30
0.0
 11
320.9477189144273
 21
140.8658009962701
 31
0.0
  0
LINE
  5
566
330
18
100
AcDbEntity
  8
4
  6
CENTER
 48
0.2
100
AcDbLine
 10
295.9477177269906
 20
117.3343791001849
 30
0.0
 11
295.9477177269906
 21
155.3343806201033
 31
0.0
  0
ARC
  5
567
330
18
100
AcDbEntity
  8
2
  6
Continuous
100
AcDbCircle
 10
295.9477177269906
 20
136.3343798601442
 30
0.0
 40
11.00000052247196
100
AcDbArc
 50
335.3800227862448
 51
24.61997727120504
  0
LINE
  5
568
330
18
100
AcDbEntity
  8
1
  6
Continuous
100
AcDbLine
 10
305.9477182111551
 20
131.7518039675818
 30
0.0
 11
305.9477181761727
 21
140.9169557627335
 31
0.0
  0
LINE
  5
569
330
18
100
AcDbEntity
  8
1
  6
Continuous
100
AcDbLine
 10
298.710217858203
 20
131.5495892769698
 30
0.0
 11
301.4727179894145
 21
136.3343798601438
 31
0.0
  0
LINE
  5
56A
330
18
100
AcDbEntity
  8
1
  6
Continuous
100
AcDbLine
 10
311.5361757355227
 20
136.3343798601443
 30
0.0
 11
303.7419467312564
 21
122.8343792189286
 31
0.0
  0
ARC
  5
56B
330
18
100
AcDbEntity
  8
1
  6
Continuous
100
AcDbCircle
 10
294.8977176771183
 20
132.1645475311738
 30
0.0
 40
0.3000000142492335
100
AcDbArc
 50
3.698327095690971
 51
75.86626327931901
  0
LINE
  5
56C
330
18
100
AcDbEntity
  8
1
  6
Continuous
100
AcDbLine
 10
295.1977176913675
 20
135.3343798126467
 30
0.0
 11
295.1977176913675
 21
131.849589291219
 31
0.0
  0
ARC
  5
56D
330
18
100
AcDbEntity
  8
1
  6
Continuous
100
AcDbCircle
 10
295.9477177269908
 20
136.3343798601442
 30
0.0
 40
16.70000079320754
100
AcDbArc
 50
158.9439268188528
 51
201.0560731811471
  0
LINE
  5
56E
330
18
100
AcDbEntity
  8
1
  6
Continuous
100
AcDbLine
 10
270.9477165395538
 20
131.8029587240182
 30
0.0
 11
270.9477165395538
 21
140.8658009962701
 31
0.0
  0
LINE
  5
56F
330
18
100
AcDbEntity
  8
1
  6
Continuous
100
AcDbLine
 10
285.9477172520162
 20
140.9169557627335
 30
0.0
 11
285.9477172520162
 21
131.7518039475277
 31
0.0
  0
LINE
  5
570
330
18
100
AcDbEntity
  8
1
  6
Continuous
100
AcDbLine
 10
290.4227174645672
 20
136.3343798601442
 30
0.0
 11
293.1852175957791
 21
131.5495892769699
 31
0.0
  0
ARC
  5
571
330
18
100
AcDbEntity
  8
2
  6
Continuous
100
AcDbCircle
 10
295.9477177269906
 20
136.3343798601442
 30
0.0
 40
11.00000052247196
100
AcDbArc
 50
155.3800227287946
 51
204.6199773286576
  0
LINE
  5
572
330
18
100
AcDbEntity
  8
1
  6
Continuous
100
AcDbLine
 10
288.1534887227248
 20
122.8343792189285
 30
0.0
 11
280.3592597184584
 21
136.3343798601439
 31
0.0
  0
LINE
  5
573
330
18
100
AcDbEntity
  8
1
  6
Continuous
100
AcDbLine
 10
235.7202226426135
 20
140.6183880432827
 30
0.0
 11
235.7202226426137
 21
132.0495893007186
 31
0.0
  0
LINE
  5
574
330
18
100
AcDbEntity
  8
1
  6
Continuous
100
AcDbLine
 10
230.2202223814289
 20
129.8843795537855
 30
0.0
 11
230.2202223814289
 21
142.7843801665028
 31
0.0
  0
LINE
  5
575
330
18
100
AcDbEntity
  8
1
  6
Continuous
100
AcDbLine
 10
229.7702231229433
 20
132.3843796725292
 30
0.0
 11
226.0702229472027
 21
132.1343796606549
 31
0.0
  0
LINE
  5
576
330
18
100
AcDbEntity
  8
1
  6
Continuous
100
AcDbLine
 10
230.0702223742531
 20
129.8843796493046
 30
0.0
 11
230.0702223742529
 21
135.6397871164851
 31
0.0
  0
LINE
  5
577
330
18
100
AcDbEntity
  8
1
  6
Continuous
100
AcDbLine
 10
221.0702223282459
 20
134.1595234397509
 30
0.0
 11
221.0702223282454
 21
126.3343793759796
 31
0.0
  0
LINE
  5
578
330
18
100
AcDbEntity
  8
1
  6
Continuous
100
AcDbLine
 10
231.7202224526239
 20
130.1968795686285
 30
0.0
 11
231.7202224526239
 21
142.4718801516599
 31
0.0
  0
LINE
  5
579
330
18
100
AcDbEntity
  8
1
  6
Continuous
100
AcDbLine
 10
225.0702225182357
 20
126.4343793899194
 30
0.0
 11
225.0702225182357
 21
145.8301688513598
 31
0.0
  0
LINE
  5
57A
330
18
100
AcDbEntity
  8
1
  6
Continuous
100
AcDbLine
 10
226.070223413666
 20
144.7824560772143
 30
0.0
 11
226.070223413666
 21
127.4343802853498
 31
0.0
  0
LINE
  5
57B
330
18
100
AcDbEntity
  8
1
  6
Continuous
100
AcDbLine
 10
231.2202224288752
 20
129.5843795395364
 30
0.0
 11
231.2202224288752
 21
143.084380180752
 31
0.0
  0
LINE
  5
57C
330
18
100
AcDbEntity
  8
1
  6
Continuous
100
AcDbLine
 10
210.0702218057739
 20
122.8343792189286
 30
0.0
 11
210.0702218057739
 21
149.8343805013598
 31
0.0
  0
LINE
  5
57D
330
18
100
AcDbEntity
  8
1
  6
Continuous
100
AcDbLine
 10
214.0702219957636
 20
122.8343792189286
 30
0.0
 11
214.0702219957636
 21
149.8343805013597
 31
0.0
  0
CIRCLE
  5
57E
330
18
100
AcDbEntity
  8
1
  6
Continuous
100
AcDbCircle
 10
295.9477177269906
 20
136.3343798601441
 30
0.0
 40
16.00000075995917
  0
ARC
  5
57F
330
18
100
AcDbEntity
  8
1
  6
Continuous
100
AcDbCircle
 10
295.9477177269906
 20
136.3343798601442
 30
0.0
 40
9.900000470224767
100
AcDbArc
 50
180.0
 51
343.5709217632714
  0
ARC
  5
580
330
18
100
AcDbEntity
  8
1
  6
Continuous
100
AcDbCircle
 10
295.9477177269906
 20
136.3343798601442
 30
0.0
 40
8.900000422727336
100
AcDbArc
 50
180.0
 51
341.6629252192182
  0
LINE
  5
581
330
18
100
AcDbEntity
  8
1
  6
Continuous
100
AcDbLine
 10
214.0702219957636
 20
122.8343792189286
 30
0.0
 11
210.0702218057739
 21
122.8343792189286
 31
0.0
  0
LINE
  5
582
330
18
100
AcDbEntity
  8
1
  6
Continuous
100
AcDbLine
 10
206.4702216347831
 20
120.3343791001849
 30
0.0
 11
202.0701214257941
 21
124.3344701992652
 31
0.0
  0
LINE
  5
583
330
18
100
AcDbEntity
  8
1
  6
Continuous
100
AcDbLine
 10
206.4702216347831
 20
120.3343791001848
 30
0.0
 11
206.4702216347831
 21
130.3710288117809
 31
0.0
  0
LINE
  5
584
330
18
100
AcDbEntity
  8
1
  6
Continuous
100
AcDbLine
 10
208.070221710779
 20
120.3343791001847
 30
0.0
 11
206.4702216347831
 21
120.3343791001847
 31
0.0
  0
LINE
  5
585
330
18
100
AcDbEntity
  8
1
  6
Continuous
100
AcDbLine
 10
202.0702214257942
 20
130.6013953148694
 30
0.0
 11
202.0702214257943
 21
124.3343792901743
 31
0.0
  0
LINE
  5
586
330
18
100
AcDbEntity
  8
1
  6
Continuous
100
AcDbLine
 10
202.0302246001426
 20
125.9343793661707
 30
0.0
 11
202.0702214257943
 21
125.9181741011087
 31
0.0
  0
LINE
  5
587
330
18
100
AcDbEntity
  8
1
  6
Continuous
100
AcDbLine
 10
208.870221748777
 20
126.3343793667896
 30
0.0
 11
210.0702218057739
 21
126.3343793667896
 31
0.0
  0
LINE
  5
588
330
18
100
AcDbEntity
  8
1
  6
Continuous
100
AcDbLine
 10
208.070221710779
 20
124.3343792901747
 30
0.0
 11
208.870221748777
 21
124.3343792901747
 31
0.0
  0
LINE
  5
589
330
18
100
AcDbEntity
  8
1
  6
Continuous
100
AcDbLine
 10
208.870221748777
 20
131.751803996059
 30
0.0
 11
210.0702218057739
 21
131.751803996059
 31
0.0
  0
LINE
  5
58A
330
18
100
AcDbEntity
  8
1
  6
Continuous
100
AcDbLine
 10
208.070221710779
 20
130.1497211279624
 30
0.0
 11
208.870221748777
 21
130.1497211279624
 31
0.0
  0
ARC
  5
58B
330
18
100
AcDbEntity
  8
1
  6
Continuous
100
AcDbCircle
 10
219.1788086577748
 20
115.4507536122858
 30
0.0
 40
11.38369848947221
100
AcDbArc
 50
74.76489989247847
 51
80.43589108498823
  0
LINE
  5
58C
330
18
100
AcDbEntity
  8
1
  6
Continuous
100
AcDbLine
 10
220.8945583882094
 20
125.9843773375756
 30
0.0
 11
221.2731608765808
 21
126.6401360833069
 31
0.0
  0
ARC
  5
58D
330
18
100
AcDbEntity
  8
1
  6
Continuous
100
AcDbCircle
 10
219.4623098951759
 20
133.0849820151529
 30
0.0
 40
7.500512977654116
100
AcDbArc
 50
251.2058718640201
 51
258.5254997507822
  0
LINE
  5
58E
330
18
100
AcDbEntity
  8
1
  6
Continuous
100
AcDbLine
 10
217.0458853233201
 20
125.9843773073223
 30
0.0
 11
218.9702218470314
 21
125.9843792731788
 31
0.0
  0
LINE
  5
58F
330
18
100
AcDbEntity
  8
1
  6
Continuous
100
AcDbLine
 10
214.0702219957636
 20
126.3343793667896
 30
0.0
 11
221.0702223282457
 21
126.3343793759796
 31
0.0
  0
LINE
  5
590
330
18
100
AcDbEntity
  8
1
  6
Continuous
100
AcDbLine
 10
216.8438115294577
 20
126.3343793851699
 30
0.0
 11
217.0458853407866
 21
125.9843772770692
 31
0.0
  0
ARC
  5
591
330
18
100
AcDbEntity
  8
1
  6
Continuous
100
AcDbCircle
 10
218.4781337988857
 20
133.0849820151563
 30
0.0
 40
7.500512977657701
100
AcDbArc
 50
281.4745002492244
 51
288.7941281359796
  0
LINE
  5
592
330
18
100
AcDbEntity
  8
1
  6
Continuous
100
AcDbLine
 10
219.9702243065518
 20
125.7343792613038
 30
0.0
 11
217.9702193875109
 21
125.7343792613038
 31
0.0
  0
LINE
  5
593
330
18
100
AcDbEntity
  8
1
  6
Continuous
100
AcDbLine
 10
220.8945583707426
 20
125.9843773073225
 30
0.0
 11
218.9702218470314
 21
125.9843792731788
 31
0.0
  0
LINE
  5
594
330
18
100
AcDbEntity
  8
1
  6
Continuous
100
AcDbLine
 10
214.0702219957636
 20
131.751803996059
 30
0.0
 11
221.0702223282457
 21
131.7518039717933
 31
0.0
  0
LINE
  5
595
330
18
100
AcDbEntity
  8
1
  6
Continuous
100
AcDbLine
 10
225.0702225182343
 20
126.4343793899182
 30
0.0
 11
226.070223413666
 21
127.4343802853498
 31
0.0
  0
LINE
  5
596
330
18
100
AcDbEntity
  8
1
  6
Continuous
100
AcDbLine
 10
222.1700349250056
 20
126.4343793899194
 30
0.0
 11
225.0702225182357
 21
126.4343793899194
 31
0.0
  0
LINE
  5
597
330
18
100
AcDbEntity
  8
1
  6
Continuous
100
AcDbLine
 10
235.220222618865
 20
131.5495892769698
 30
0.0
 11
231.7202224526239
 21
131.5495892769698
 31
0.0
  0
ARC
  5
598
330
18
100
AcDbEntity
  8
1
  6
Continuous
100
AcDbCircle
 10
230.5202223956269
 20
129.8843795537855
 30
0.0
 40
0.3000000142492439
100
AcDbArc
 50
180.0
 51
269.9999999999934
  0
LINE
  5
599
330
18
100
AcDbEntity
  8
1
  6
Continuous
100
AcDbLine
 10
230.220222381403
 20
129.8843796493046
 30
0.0
 11
230.0702223742531
 21
129.8843796493046
 31
0.0
  0
LINE
  5
59A
330
18
100
AcDbEntity
  8
1
  6
Continuous
100
AcDbLine
 10
230.220222381403
 20
129.9823696455789
 30
0.0
 11
230.0702223742531
 21
129.9823696455789
 31
0.0
  0
LINE
  5
59B
330
18
100
AcDbEntity
  8
1
  6
Continuous
100
AcDbLine
 10
230.2202223814032
 20
130.2733622579506
 30
0.0
 11
230.0702223742531
 21
130.2733622579506
 31
0.0
  0
LINE
  5
59C
330
18
100
AcDbEntity
  8
1
  6
Continuous
100
AcDbLine
 10
230.2202223814032
 20
130.7485158231417
 30
0.0
 11
230.0702223742531
 21
130.7485158231417
 31
0.0
  0
LINE
  5
59D
330
18
100
AcDbEntity
  8
1
  6
Continuous
100
AcDbLine
 10
230.2202223814027
 20
131.3933930405143
 30
0.0
 11
230.0702223742531
 21
131.3933930405143
 31
0.0
  0
LINE
  5
59E
330
18
100
AcDbEntity
  8
1
  6
Continuous
100
AcDbLine
 10
230.5202223956269
 20
129.5843795395364
 30
0.0
 11
231.2202224288752
 21
129.5843795395364
 31
0.0
  0
LINE
  5
59F
330
18
100
AcDbEntity
  8
1
  6
Continuous
100
AcDbLine
 10
231.2202224288752
 20
129.5843795395364
 30
0.0
 11
231.7203224526239
 21
130.1970020686286
 31
0.0
  0
ARC
  5
5A0
330
18
100
AcDbEntity
  8
1
  6
Continuous
100
AcDbCircle
 10
235.220222618865
 20
132.0495893007186
 30
0.0
 40
0.5000000237487168
100
AcDbArc
 50
269.9999999999934
 51
0.0
  0
ARC
  5
5A1
330
18
100
AcDbEntity
  8
1
  6
Continuous
100
AcDbCircle
 10
295.9477177269906
 20
136.3343798601441
 30
0.0
 40
11.00000052247195
100
AcDbArc
 50
204.6199772137545
 51
245.3800227862446
  0
LINE
  5
5A2
330
18
100
AcDbEntity
  8
1
  6
Continuous
100
AcDbLine
 10
303.7419467312564
 20
122.8343792189286
 30
0.0
 11
288.1534887227248
 21
122.8343792189285
 31
0.0
  0
LINE
  5
5A3
330
18
100
AcDbEntity
  8
1
  6
Continuous
100
AcDbLine
 10
272.5689459514184
 20
130.3343795751595
 30
0.0
 11
280.3627883696476
 21
130.3343795751595
 31
0.0
  0
ARC
  5
5A4
330
18
100
AcDbEntity
  8
1
  6
Continuous
100
AcDbCircle
 10
272.4920650935731
 20
131.8786703646567
 30
0.0
 40
1.54620332066293
100
AcDbArc
 50
182.8066767111767
 51
272.8500558180482
  0
ARC
  5
5A5
330
18
100
AcDbEntity
  8
1
  6
Continuous
100
AcDbCircle
 10
428.8822486946683
 20
-3225.053696692906
 30
0.0
 40
3358.77979911264
100
AcDbArc
 50
92.52243320134077
 51
92.53502854287743
  0
ARC
  5
5A6
330
18
100
AcDbEntity
  8
1
  6
Continuous
100
AcDbCircle
 10
295.9477177269906
 20
136.3343798601441
 30
0.0
 40
11.00000052247195
100
AcDbArc
 50
294.6199772137553
 51
335.3800227862452
  0
LINE
  5
5A7
330
18
100
AcDbEntity
  8
1
  6
Continuous
100
AcDbLine
 10
293.1852175957789
 20
131.5495892769698
 30
0.0
 11
298.710217858203
 21
131.5495892769698
 31
0.0
  0
LINE
  5
5A8
330
18
100
AcDbEntity
  8
1
  6
Continuous
100
AcDbLine
 10
298.0741280445641
 20
126.3343793851697
 30
0.0
 11
300.5302936153415
 21
126.3343793851697
 31
0.0
  0
ARC
  5
5A9
330
18
100
AcDbEntity
  8
2
  6
Continuous
100
AcDbCircle
 10
295.9477177269906
 20
136.3343798601442
 30
0.0
 40
11.00000052247196
100
AcDbArc
 50
245.3800226713442
 51
294.6199772137553
  0
ARC
  5
5AA
330
18
100
AcDbEntity
  8
1
  6
Continuous
100
AcDbCircle
 10
296.4398052225179
 20
133.0849495038861
 30
0.0
 40
7.500480526418672
100
AcDbArc
 50
251.2058294152463
 51
258.5254725398054
  0
LINE
  5
5AB
330
18
100
AcDbEntity
  8
1
  6
Continuous
100
AcDbLine
 10
294.0233800682916
 20
125.9843792731787
 30
0.0
 11
295.9477184415352
 21
125.9843773073224
 31
0.0
  0
LINE
  5
5AC
330
18
100
AcDbEntity
  8
1
  6
Continuous
100
AcDbLine
 10
293.7728613065975
 20
126.4182904966821
 30
0.0
 11
294.0233800682916
 21
125.9843792731787
 31
0.0
  0
LINE
  5
5AD
330
18
100
AcDbEntity
  8
1
  6
Continuous
100
AcDbLine
 10
293.7728613065975
 20
126.3343793851696
 30
0.0
 11
293.7728613065975
 21
126.6762222272864
 31
0.0
  0
LINE
  5
5AE
330
18
100
AcDbEntity
  8
1
  6
Continuous
100
AcDbLine
 10
291.3651418344285
 20
126.3343793759796
 30
0.0
 11
293.8213074093104
 21
126.3343793853545
 31
0.0
  0
ARC
  5
5AF
330
18
100
AcDbEntity
  8
1
  6
Continuous
100
AcDbCircle
 10
295.455630231463
 20
133.0849495038858
 30
0.0
 40
7.500480526418455
100
AcDbArc
 50
281.4745274602011
 51
288.79417058476
  0
LINE
  5
5B0
330
18
100
AcDbEntity
  8
1
  6
Continuous
100
AcDbLine
 10
297.8720553856898
 20
125.9843792731787
 30
0.0
 11
298.1225741473837
 21
126.4182904966822
 31
0.0
  0
LINE
  5
5B1
330
18
100
AcDbEntity
  8
1
  6
Continuous
100
AcDbLine
 10
295.9477184415353
 20
125.9843773073222
 30
0.0
 11
297.8720553856898
 21
125.9843792731787
 31
0.0
  0
LINE
  5
5B2
330
18
100
AcDbEntity
  8
1
  6
Continuous
100
AcDbLine
 10
294.9477176794936
 20
125.7343792613037
 30
0.0
 11
296.9477177744873
 21
125.7343792613037
 31
0.0
  0
LINE
  5
5B3
330
18
100
AcDbEntity
  8
1
  6
Continuous
100
AcDbLine
 10
298.1225741473837
 20
126.3343793851696
 30
0.0
 11
298.1225741473837
 21
126.6762222272864
 31
0.0
  0
ARC
  5
5B4
330
18
100
AcDbEntity
  8
1
  6
Continuous
100
AcDbCircle
 10
296.9977177768629
 20
131.849589291219
 30
0.0
 40
0.3000000142492345
100
AcDbArc
 50
180.0
 51
270.0000000000065
  0
ARC
  5
5B5
330
18
100
AcDbEntity
  8
1
  6
Continuous
100
AcDbCircle
 10
294.8977176771183
 20
131.849589291219
 30
0.0
 40
0.3000000142492345
100
AcDbArc
 50
269.9999999999934
 51
0.0
  0
LINE
  5
5B6
330
18
100
AcDbEntity
  8
1
  6
Continuous
100
AcDbLine
 10
319.3264895025628
 20
130.3343795751595
 30
0.0
 11
311.5326470843334
 21
130.3343795751595
 31
0.0
  0
ARC
  5
5B7
330
18
100
AcDbEntity
  8
1
  6
Continuous
100
AcDbCircle
 10
163.0131867593128
 20
-3225.053696692906
 30
0.0
 40
3358.77979911264
100
AcDbArc
 50
87.46497145712258
 51
87.47756679865922
  0
ARC
  5
5B8
330
18
100
AcDbEntity
  8
1
  6
Continuous
100
AcDbCircle
 10
319.4033703604083
 20
131.8786703646567
 30
0.0
 40
1.54620332066293
100
AcDbArc
 50
267.1499441819517
 51
357.1933232888231
  0
LINE
  5
5B9
330
18
100
AcDbEntity
  8
4
  6
CENTER
 48
0.2
100
AcDbLine
 10
323.9477189144273
 20
136.3343798601442
 30
0.0
 11
267.9477165395538
 21
136.3343798601442
 31
0.0
  0
LINE
  5
5BA
330
18
100
AcDbEntity
  8
1
  6
Continuous
100
AcDbLine
 10
229.7702231229433
 20
139.3176667798779
 30
0.0
 11
226.0702229472027
 21
138.9540173640569
 31
0.0
  0
LINE
  5
5BB
330
18
100
AcDbEntity
  8
1
  6
Continuous
100
AcDbLine
 10
226.0702229472027
 20
140.5343800596335
 30
0.0
 11
229.7702231229433
 21
140.2843800477591
 31
0.0
  0
LINE
  5
5BC
330
18
100
AcDbEntity
  8
1
  6
Continuous
100
AcDbLine
 10
226.0702229472027
 20
133.7147423562321
 30
0.0
 11
229.7702231229433
 21
133.3510929404103
 31
0.0
  0
LINE
  5
5BD
330
18
100
AcDbEntity
  8
1
  6
Continuous
100
AcDbLine
 10
214.0702219957636
 20
149.8343805013597
 30
0.0
 11
210.0702218057739
 21
149.8343805013597
 31
0.0
  0
LINE
  5
5BE
330
18
100
AcDbEntity
  8
1
  6
Continuous
100
AcDbLine
 10
214.0702219957636
 20
136.3343798601441
 30
0.0
 11
210.0702218057739
 21
136.3343798601441
 31
0.0
  0
LINE
  5
5BF
330
18
100
AcDbEntity
  8
1
  6
Continuous
100
AcDbLine
 10
202.0702214257942
 20
142.067364405419
 30
0.0
 11
202.0702214257943
 21
148.3343804301138
 31
0.0
  0
LINE
  5
5C0
330
18
100
AcDbEntity
  8
1
  6
Continuous
100
AcDbLine
 10
206.4702216347831
 20
152.3343806201033
 30
0.0
 11
206.470221634783
 21
142.2977309085075
 31
0.0
  0
LINE
  5
5C1
330
18
100
AcDbEntity
  8
1
  6
Continuous
100
AcDbLine
 10
208.870221748777
 20
140.9169557527063
 30
0.0
 11
210.0702218057739
 21
140.9169557527063
 31
0.0
  0
LINE
  5
5C2
330
18
100
AcDbEntity
  8
1
  6
Continuous
100
AcDbLine
 10
208.070221710779
 20
142.519038592326
 30
0.0
 11
208.870221748777
 21
142.519038592326
 31
0.0
  0
LINE
  5
5C3
330
18
100
AcDbEntity
  8
1
  6
Continuous
100
AcDbLine
 10
206.4702216347831
 20
152.3343806201032
 30
0.0
 11
202.0701214257941
 21
148.3342895210229
 31
0.0
  0
LINE
  5
5C4
330
18
100
AcDbEntity
  8
1
  6
Continuous
100
AcDbLine
 10
202.0302246001429
 20
146.7343803541177
 30
0.0
 11
202.0702214257943
 21
146.7505856191796
 31
0.0
  0
LINE
  5
5C5
330
18
100
AcDbEntity
  8
1
  6
Continuous
100
AcDbLine
 10
202.0303426821083
 20
146.7343803541177
 30
0.0
 11
202.0303242382821
 21
146.7343803541177
 31
0.0
  0
LINE
  5
5C6
330
18
100
AcDbEntity
  8
1
  6
Continuous
100
AcDbLine
 10
208.870221748777
 20
146.3343803351186
 30
0.0
 11
210.0702218057739
 21
146.3343803351186
 31
0.0
  0
LINE
  5
5C7
330
18
100
AcDbEntity
  8
1
  6
Continuous
100
AcDbLine
 10
208.070221710779
 20
148.3343804301136
 30
0.0
 11
208.870221748777
 21
148.3343804301136
 31
0.0
  0
LINE
  5
5C8
330
18
100
AcDbEntity
  8
1
  6
Continuous
100
AcDbLine
 10
208.070221710779
 20
152.3343806201034
 30
0.0
 11
206.4702216347831
 21
152.3343806201034
 31
0.0
  0
LINE
  5
5C9
330
18
100
AcDbEntity
  8
1
  6
Continuous
100
AcDbLine
 10
221.0702223282459
 20
146.3343803351186
 30
0.0
 11
221.0702223282459
 21
138.5092362805374
 31
0.0
  0
ARC
  5
5CA
330
18
100
AcDbEntity
  8
1
  6
Continuous
100
AcDbCircle
 10
219.4702222522499
 20
136.3343798601442
 30
0.0
 40
2.700000128243109
100
AcDbArc
 50
270.0
 51
90.0
  0
ARC
  5
5CB
330
18
100
AcDbEntity
  8
1
  6
Continuous
100
AcDbCircle
 10
218.670222214252
 20
136.3343798601442
 30
0.0
 40
2.700000128243122
100
AcDbArc
 50
90.0
 51
270.0
  0
LINE
  5
5CC
330
18
100
AcDbEntity
  8
1
  6
Continuous
100
AcDbLine
 10
219.4702222522499
 20
133.6343797319011
 30
0.0
 11
218.670222214252
 21
133.6343797319011
 31
0.0
  0
LINE
  5
5CD
330
18
100
AcDbEntity
  8
1
  6
Continuous
100
AcDbLine
 10
214.0702219957636
 20
140.9169557527063
 30
0.0
 11
221.0702223282459
 21
140.9169557627335
 31
0.0
  0
LINE
  5
5CE
330
18
100
AcDbEntity
  8
1
  6
Continuous
100
AcDbLine
 10
218.670222214252
 20
139.0343799883873
 30
0.0
 11
219.4702222522499
 21
139.0343799883873
 31
0.0
  0
ARC
  5
5CF
330
18
100
AcDbEntity
  8
1
  6
Continuous
100
AcDbCircle
 10
219.2582898537147
 20
156.8542360620709
 30
0.0
 40
11.01179345509075
100
AcDbArc
 50
279.4707873765215
 51
285.3325277929647
  0
LINE
  5
5D0
330
18
100
AcDbEntity
  8
1
  6
Continuous
100
AcDbLine
 10
214.0702219957636
 20
146.3343803351186
 30
0.0
 11
221.0702223282459
 21
146.3343803351186
 31
0.0
  0
LINE
  5
5D1
330
18
100
AcDbEntity
  8
1
  6
Continuous
100
AcDbLine
 10
225.0702225182355
 20
145.8301688513599
 30
0.0
 11
226.070223413666
 21
144.7824560772143
 31
0.0
  0
ARC
  5
5D2
330
18
100
AcDbEntity
  8
1
  6
Continuous
100
AcDbCircle
 10
223.2702224327401
 20
145.9343803161197
 30
0.0
 40
0.3000000142492096
100
AcDbArc
 50
0.0111493122740062
 51
90.00000000057324
  0
LINE
  5
5D3
330
18
100
AcDbEntity
  8
1
  6
Continuous
100
AcDbLine
 10
223.5702224413095
 20
145.9344386938422
 30
0.0
 11
223.5702224413095
 21
145.8301688513598
 31
0.0
  0
LINE
  5
5D4
330
18
100
AcDbEntity
  8
1
  6
Continuous
100
AcDbLine
 10
225.0702225182355
 20
145.8301688513598
 30
0.0
 11
223.5702224413095
 21
145.8301688513598
 31
0.0
  0
LINE
  5
5D5
330
18
100
AcDbEntity
  8
1
  6
Continuous
100
AcDbLine
 10
223.2702224327371
 20
146.234380330369
 30
0.0
 11
222.1700349207519
 21
146.234380330369
 31
0.0
  0
ARC
  5
5D6
330
18
100
AcDbEntity
  8
1
  6
Continuous
100
AcDbCircle
 10
230.5202223956269
 20
142.7843801665028
 30
0.0
 40
0.3000000142492439
100
AcDbArc
 50
90.0
 51
180.0
  0
LINE
  5
5D7
330
18
100
AcDbEntity
  8
1
  6
Continuous
100
AcDbLine
 10
231.7202224526239
 20
142.4718801516599
 30
0.0
 11
231.2202224288752
 21
143.084380180752
 31
0.0
  0
LINE
  5
5D8
330
18
100
AcDbEntity
  8
1
  6
Continuous
100
AcDbLine
 10
229.7702231229433
 20
140.2843800477591
 30
0.0
 11
229.7702231229433
 21
132.3843796725292
 31
0.0
  0
LINE
  5
5D9
330
18
100
AcDbEntity
  8
1
  6
Continuous
100
AcDbLine
 10
235.7202226426137
 20
136.3343798244299
 30
0.0
 11
231.7202224526239
 21
136.3343801101442
 31
0.0
  0
LINE
  5
5DA
330
18
100
AcDbEntity
  8
2
  6
Continuous
100
AcDbLine
 10
229.7702231229433
 20
133.8548797295262
 30
0.0
 11
230.0702227557228
 21
133.8548797295262
 31
0.0
  0
LINE
  5
5DB
330
18
100
AcDbEntity
  8
1
  6
Continuous
100
AcDbLine
 10
230.2202223814025
 20
137.4544106427078
 30
0.0
 11
230.0702223742531
 21
137.4544106427078
 31
0.0
  0
LINE
  5
5DC
330
18
100
AcDbEntity
  8
1
  6
Continuous
100
AcDbLine
 10
229.7702231229433
 20
133.5843797295262
 30
0.0
 11
230.0702223742531
 21
133.5843797295262
 31
0.0
  0
LINE
  5
5DD
330
18
100
AcDbEntity
  8
1
  6
Continuous
100
AcDbLine
 10
230.220222381403
 20
133.1093797547245
 30
0.0
 11
230.0702223742531
 21
133.1093797547245
 31
0.0
  0
LINE
  5
5DE
330
18
100
AcDbEntity
  8
1
  6
Continuous
100
AcDbLine
 10
230.2202223814027
 20
132.1883996421407
 30
0.0
 11
230.0702223742531
 21
132.1883996421407
 31
0.0
  0
LINE
  5
5DF
330
18
100
AcDbEntity
  8
1
  6
Continuous
100
AcDbLine
 10
230.220222381403
 20
134.1283498635824
 30
0.0
 11
230.0702223742531
 21
134.1283498635824
 31
0.0
  0
LINE
  5
5E0
330
18
100
AcDbEntity
  8
1
  6
Continuous
100
AcDbLine
 10
230.2202223813777
 20
135.6397871164851
 30
0.0
 11
230.0702223742529
 21
135.6397871164851
 31
0.0
  0
LINE
  5
5E1
330
18
100
AcDbEntity
  8
1
  6
Continuous
100
AcDbLine
 10
230.2202223814034
 20
135.2143490775806
 30
0.0
 11
230.0702223742531
 21
135.2143490775806
 31
0.0
  0
LINE
  5
5E2
330
18
100
AcDbEntity
  8
1
  6
Continuous
100
AcDbLine
 10
230.2202223814034
 20
136.3343798601442
 30
0.0
 11
230.0702223742531
 21
136.3343798601442
 31
0.0
  0
LINE
  5
5E3
330
18
100
AcDbEntity
  8
1
  6
Continuous
100
AcDbLine
 10
230.0702223742531
 20
136.3343798601442
 30
0.0
 11
230.0702223742531
 21
137.4544106427077
 31
0.0
  0
LINE
  5
5E4
330
18
100
AcDbEntity
  8
1
  6
Continuous
100
AcDbLine
 10
235.2202233024064
 20
141.1191704433184
 30
0.0
 11
231.7202231361654
 21
141.1191709433185
 31
0.0
  0
LINE
  5
5E5
330
18
100
AcDbEntity
  8
2
  6
Continuous
100
AcDbLine
 10
230.0702227557228
 20
138.8138799907621
 30
0.0
 11
229.7702231229433
 21
138.8138799907621
 31
0.0
  0
LINE
  5
5E6
330
18
100
AcDbEntity
  8
1
  6
Continuous
100
AcDbLine
 10
230.2202223814032
 20
142.7843800709837
 30
0.0
 11
230.0702223742531
 21
142.7843800709837
 31
0.0
  0
LINE
  5
5E7
330
18
100
AcDbEntity
  8
1
  6
Continuous
100
AcDbLine
 10
230.2202223814027
 20
142.6863900747095
 30
0.0
 11
230.0702223742531
 21
142.6863900747095
 31
0.0
  0
LINE
  5
5E8
330
18
100
AcDbEntity
  8
1
  6
Continuous
100
AcDbLine
 10
230.0702223742531
 20
139.0843799907622
 30
0.0
 11
229.7702231229433
 21
139.0843799907622
 31
0.0
  0
LINE
  5
5E9
330
18
100
AcDbEntity
  8
1
  6
Continuous
100
AcDbLine
 10
230.2202223814027
 20
142.3953974623377
 30
0.0
 11
230.0702223742531
 21
142.3953974623377
 31
0.0
  0
LINE
  5
5EA
330
18
100
AcDbEntity
  8
1
  6
Continuous
100
AcDbLine
 10
230.2202223814032
 20
141.9202438971465
 30
0.0
 11
230.0702223742531
 21
141.9202438971465
 31
0.0
  0
LINE
  5
5EB
330
18
100
AcDbEntity
  8
1
  6
Continuous
100
AcDbLine
 10
230.2202223814032
 20
141.2753666797741
 30
0.0
 11
230.0702223742531
 21
141.2753666797741
 31
0.0
  0
LINE
  5
5EC
330
18
100
AcDbEntity
  8
1
  6
Continuous
100
AcDbLine
 10
230.2202223814032
 20
140.4803600781477
 30
0.0
 11
230.0702223742531
 21
140.4803600781477
 31
0.0
  0
LINE
  5
5ED
330
18
100
AcDbEntity
  8
1
  6
Continuous
100
AcDbLine
 10
230.2202223814032
 20
139.5593799655639
 30
0.0
 11
230.0702223742531
 21
139.5593799655639
 31
0.0
  0
LINE
  5
5EE
330
18
100
AcDbEntity
  8
1
  6
Continuous
100
AcDbLine
 10
230.2202223814025
 20
138.540409856706
 30
0.0
 11
230.0702223742531
 21
138.540409856706
 31
0.0
  0
LINE
  5
5EF
330
18
100
AcDbEntity
  8
1
  6
Continuous
100
AcDbLine
 10
230.0702223742531
 20
142.7843800709837
 30
0.0
 11
230.0702223742531
 21
137.7024604984269
 31
0.0
  0
LINE
  5
5F0
330
18
100
AcDbEntity
  8
1
  6
Continuous
100
AcDbLine
 10
230.2202223813777
 20
137.7024604984274
 30
0.0
 11
230.0702223742531
 21
137.7024604984274
 31
0.0
  0
ARC
  5
5F1
330
18
100
AcDbEntity
  8
1
  6
Continuous
100
AcDbCircle
 10
235.2202232309779
 20
140.6191704195697
 30
0.0
 40
0.5000000237487168
100
AcDbArc
 50
359.9103462491981
 51
89.99999181489332
  0
LINE
  5
5F2
330
18
100
AcDbEntity
  8
1
  6
Continuous
100
AcDbLine
 10
231.2202224288752
 20
143.084380180752
 30
0.0
 11
230.5202223956269
 21
143.084380180752
 31
0.0
  0
LINE
  5
5F3
330
18
100
AcDbEntity
  8
1
  6
Continuous
100
AcDbLine
 10
231.2202224288752
 20
143.084380180752
 30
0.0
 11
231.220140796222
 21
143.084480180752
 31
0.0
  0
LINE
  5
5F4
330
18
100
AcDbEntity
  8
1
  6
Continuous
100
AcDbLine
 10
293.1852175957784
 20
141.1191704433188
 30
0.0
 11
290.4227174645665
 21
136.3343798601445
 31
0.0
  0
ARC
  5
5F5
330
18
100
AcDbEntity
  8
2
  6
Continuous
100
AcDbCircle
 10
295.9477177269889
 20
136.3343798601444
 30
0.0
 40
10.18800048390211
100
AcDbArc
 50
102.325918946419
 51
167.6740810535736
  0
ARC
  5
5F6
330
18
100
AcDbEntity
  8
1
  6
Continuous
100
AcDbCircle
 10
295.9477177269906
 20
136.3343798601442
 30
0.0
 40
11.0000005224719
100
AcDbArc
 50
114.6199772712055
 51
155.3800227287949
  0
ARC
  5
5F7
330
18
100
AcDbEntity
  8
1
  6
Continuous
100
AcDbCircle
 10
295.9477177269906
 20
136.3343798601442
 30
0.0
 40
9.900000470224759
100
AcDbArc
 50
106.4290782367292
 51
180.0
  0
ARC
  5
5F8
330
18
100
AcDbEntity
  8
1
  6
Continuous
100
AcDbCircle
 10
295.9477177269906
 20
136.3343798601442
 30
0.0
 40
8.89999957479446
100
AcDbArc
 50
108.337075685399
 51
180.0
  0
LINE
  5
5F9
330
18
100
AcDbEntity
  8
1
  6
Continuous
100
AcDbLine
 10
288.153488722725
 20
149.8343805013597
 30
0.0
 11
303.7419467312567
 21
149.8343805013598
 31
0.0
  0
LINE
  5
5FA
330
18
100
AcDbEntity
  8
1
  6
Continuous
100
AcDbLine
 10
272.5689459514184
 20
142.3343801451289
 30
0.0
 11
280.3627883696476
 21
142.3343801451289
 31
0.0
  0
ARC
  5
5FB
330
18
100
AcDbEntity
  8
1
  6
Continuous
100
AcDbCircle
 10
272.4920650935731
 20
140.7900893556317
 30
0.0
 40
1.54620332066293
100
AcDbArc
 50
87.14994418195177
 51
177.1933232888231
  0
LINE
  5
5FC
330
18
100
AcDbEntity
  8
1
  6
Continuous
100
AcDbLine
 10
280.3592597184584
 20
136.3343798601439
 30
0.0
 11
288.153488722725
 21
149.8343805013597
 31
0.0
  0
ARC
  5
5FD
330
18
100
AcDbEntity
  8
1
  6
Continuous
100
AcDbCircle
 10
428.8822486946683
 20
3497.722456413196
 30
0.0
 40
3358.77979911264
100
AcDbArc
 50
267.4649714571225
 51
267.4775667986592
  0
ARC
  5
5FE
330
18
100
AcDbEntity
  8
1
  6
Continuous
100
AcDbCircle
 10
295.9477177269908
 20
136.3343798601442
 30
0.0
 40
10.18800048390404
100
AcDbArc
 50
168.9759240421289
 51
191.024075957874
  0
LINE
  5
5FF
330
18
100
AcDbEntity
  8
1
  6
Continuous
100
AcDbLine
 10
285.9477172520162
 20
134.1595234397509
 30
0.0
 11
286.289560094133
 21
134.1595234397509
 31
0.0
  0
LINE
  5
600
330
18
100
AcDbEntity
  8
1
  6
Continuous
100
AcDbLine
 10
285.9477172520162
 20
138.5092362805373
 30
0.0
 11
286.289560094133
 21
138.5092362805373
 31
0.0
  0
ARC
  5
601
330
18
100
AcDbEntity
  8
2
  6
Continuous
100
AcDbCircle
 10
295.9477177269924
 20
136.3343798601444
 30
0.0
 40
10.18800048390211
100
AcDbArc
 50
12.32591894642631
 51
77.6740810535809
  0
ARC
  5
602
330
18
100
AcDbEntity
  8
1
  6
Continuous
100
AcDbCircle
 10
295.9477177269906
 20
136.3343798601442
 30
0.0
 40
11.0000005224719
100
AcDbArc
 50
24.61997727120504
 51
65.38002272879444
  0
LINE
  5
603
330
18
100
AcDbEntity
  8
1
  6
Continuous
100
AcDbLine
 10
303.7419467312567
 20
149.8343805013598
 30
0.0
 11
311.5361757355227
 21
136.3343798601443
 31
0.0
  0
ARC
  5
604
330
18
100
AcDbEntity
  8
1
  6
Continuous
100
AcDbCircle
 10
295.9477177269906
 20
136.3343798601442
 30
0.0
 40
9.900000470224773
100
AcDbArc
 50
343.5709217632711
 51
106.4290782367292
  0
ARC
  5
605
330
18
100
AcDbEntity
  8
1
  6
Continuous
100
AcDbCircle
 10
295.9477177269906
 20
136.3343798601441
 30
0.0
 40
9.600058833698003
100
AcDbArc
 50
343.0422366999952
 51
106.9577633000021
  0
LINE
  5
606
330
18
100
AcDbEntity
  8
1
  6
Continuous
100
AcDbLine
 10
293.1477175939977
 20
145.8301688513597
 30
0.0
 11
293.1477175939977
 21
142.4762446896111
 31
0.0
  0
ARC
  5
607
330
18
100
AcDbEntity
  8
1
  6
Continuous
100
AcDbCircle
 10
295.9477177269906
 20
136.3343798601442
 30
0.0
 40
7.400000351481136
100
AcDbArc
 50
337.766728201701
 51
112.2332717982973
  0
ARC
  5
608
330
18
100
AcDbEntity
  8
1
  6
Continuous
100
AcDbCircle
 10
295.9477177269906
 20
136.3343798601441
 30
0.0
 40
7.500000356230887
100
AcDbArc
 50
338.0786599384547
 51
111.9213400615451
  0
ARC
  5
609
330
18
100
AcDbEntity
  8
1
  6
Continuous
100
AcDbCircle
 10
295.9477177269906
 20
136.3343798601442
 30
0.0
 40
4.000000189989808
100
AcDbArc
 50
284.1337367207015
 51
75.86626327929858
  0
LINE
  5
60A
330
18
100
AcDbEntity
  8
1
  6
Continuous
100
AcDbLine
 10
298.7102178582023
 20
141.1191704433185
 30
0.0
 11
293.1852175957789
 21
141.1191704433185
 31
0.0
  0
LINE
  5
60B
330
18
100
AcDbEntity
  8
1
  6
Continuous
100
AcDbLine
 10
296.6977177626137
 20
140.8191704290693
 30
0.0
 11
296.6977177626137
 21
137.3343799076416
 31
0.0
  0
ARC
  5
60C
330
18
100
AcDbEntity
  8
1
  6
Continuous
100
AcDbCircle
 10
295.9477177269906
 20
136.3343798601442
 30
0.0
 40
4.000000189989808
100
AcDbArc
 50
104.1337367207014
 51
255.8662632792921
  0
LINE
  5
60D
330
18
100
AcDbEntity
  8
1
  6
Continuous
100
AcDbLine
 10
295.4477177032419
 20
138.2843799527642
 30
0.0
 11
295.4477177032419
 21
137.1343798981421
 31
0.0
  0
LINE
  5
60E
330
18
100
AcDbEntity
  8
1
  6
Continuous
100
AcDbLine
 10
296.4477177507394
 20
137.1343798981421
 30
0.0
 11
296.4477177507394
 21
138.2843799527642
 31
0.0
  0
LINE
  5
60F
330
18
100
AcDbEntity
  8
1
  6
Continuous
100
AcDbLine
 10
295.1977176913675
 20
140.8191704290693
 30
0.0
 11
295.1977176913675
 21
137.3343799076416
 31
0.0
  0
LINE
  5
610
330
18
100
AcDbEntity
  8
1
  6
Continuous
100
AcDbLine
 10
295.1477176889926
 20
135.8343798363954
 30
0.0
 11
293.9977176343414
 21
135.8343798363954
 31
0.0
  0
LINE
  5
611
330
18
100
AcDbEntity
  8
1
  6
Continuous
100
AcDbLine
 10
293.9977176343706
 20
136.8343798838929
 30
0.0
 11
295.1477176889926
 21
136.8343798838929
 31
0.0
  0
ARC
  5
612
330
18
100
AcDbEntity
  8
1
  6
Continuous
100
AcDbCircle
 10
293.9977176343706
 20
136.1343798506447
 30
0.0
 40
0.3000000142492376
100
AcDbArc
 50
180.0000000000004
 51
269.9999999944437
  0
ARC
  5
613
330
18
100
AcDbEntity
  8
1
  6
Continuous
100
AcDbCircle
 10
293.9977176343706
 20
136.5343798696437
 30
0.0
 40
0.3000000142492365
100
AcDbArc
 50
90.0
 51
179.9999999925228
  0
LINE
  5
614
330
18
100
AcDbEntity
  8
1
  6
Continuous
100
AcDbLine
 10
293.6977176201213
 20
136.1343798506447
 30
0.0
 11
293.6977176201213
 21
136.5343798696828
 31
0.0
  0
ARC
  5
615
330
18
100
AcDbEntity
  8
1
  6
Continuous
100
AcDbCircle
 10
297.1977177863624
 20
137.3343799076416
 30
0.0
 40
0.5000000237487257
100
AcDbArc
 50
180.0
 51
270.0000000759701
  0
ARC
  5
616
330
18
100
AcDbEntity
  8
1
  6
Continuous
100
AcDbCircle
 10
297.1977177863624
 20
135.3343798126467
 30
0.0
 40
0.5000000237487252
100
AcDbArc
 50
90.0
 51
180.0
  0
ARC
  5
617
330
18
100
AcDbEntity
  8
1
  6
Continuous
100
AcDbCircle
 10
295.1477176889926
 20
137.1343798981421
 30
0.0
 40
0.3000000142492361
100
AcDbArc
 50
270.0
 51
0.0
  0
ARC
  5
618
330
18
100
AcDbEntity
  8
1
  6
Continuous
100
AcDbCircle
 10
296.7477177649886
 20
137.1343798981421
 30
0.0
 40
0.3000000142492361
100
AcDbArc
 50
180.0
 51
270.0
  0
ARC
  5
619
330
18
100
AcDbEntity
  8
1
  6
Continuous
100
AcDbCircle
 10
296.7477177649886
 20
135.5343798221462
 30
0.0
 40
0.3000000142492361
100
AcDbArc
 50
90.0
 51
180.0
  0
ARC
  5
61A
330
18
100
AcDbEntity
  8
1
  6
Continuous
100
AcDbCircle
 10
296.1477177364901
 20
134.3843797675241
 30
0.0
 40
0.3000000142492363
100
AcDbArc
 50
270.0
 51
359.9999999999996
  0
ARC
  5
61B
330
18
100
AcDbEntity
  8
1
  6
Continuous
100
AcDbCircle
 10
295.7477177174911
 20
134.3843797675241
 30
0.0
 40
0.3000000142492394
100
AcDbArc
 50
180.0
 51
270.0
  0
ARC
  5
61C
330
18
100
AcDbEntity
  8
1
  6
Continuous
100
AcDbCircle
 10
295.1477176889926
 20
135.5343798221462
 30
0.0
 40
0.3000000142492361
100
AcDbArc
 50
0.0
 51
90.0
  0
ARC
  5
61D
330
18
100
AcDbEntity
  8
1
  6
Continuous
100
AcDbCircle
 10
294.6977176676188
 20
135.3343798126467
 30
0.0
 40
0.5000000237487252
100
AcDbArc
 50
0.0
 51
90.0
  0
ARC
  5
61E
330
18
100
AcDbEntity
  8
1
  6
Continuous
100
AcDbCircle
 10
294.6977176676188
 20
137.3343799076416
 30
0.0
 40
0.5000000237487257
100
AcDbArc
 50
269.9999999240233
 51
0.0
  0
ARC
  5
61F
330
18
100
AcDbEntity
  8
1
  6
Continuous
100
AcDbCircle
 10
297.8977178196107
 20
136.5343798696437
 30
0.0
 40
0.300000014249234
100
AcDbArc
 50
0.0000000085249043
 51
89.99999999797422
  0
ARC
  5
620
330
18
100
AcDbEntity
  8
1
  6
Continuous
100
AcDbCircle
 10
297.8977178196107
 20
136.1343798506447
 30
0.0
 40
0.3000000142492365
100
AcDbArc
 50
270.0000000084939
 51
359.9999999979872
  0
LINE
  5
621
330
18
100
AcDbEntity
  8
1
  6
Continuous
100
AcDbLine
 10
296.4477177507394
 20
134.3843797675241
 30
0.0
 11
296.4477177507394
 21
135.5343798221462
 31
0.0
  0
LINE
  5
622
330
18
100
AcDbEntity
  8
1
  6
Continuous
100
AcDbLine
 10
295.7477177174911
 20
134.0843797532749
 30
0.0
 11
296.1477177364901
 21
134.0843797532749
 31
0.0
  0
LINE
  5
623
330
18
100
AcDbEntity
  8
1
  6
Continuous
100
AcDbLine
 10
295.4477177032419
 20
135.5343798221462
 30
0.0
 11
295.4477177032419
 21
134.3843797675241
 31
0.0
  0
LINE
  5
624
330
18
100
AcDbEntity
  8
1
  6
Continuous
100
AcDbLine
 10
296.7477177649886
 20
136.8343798838929
 30
0.0
 11
297.8977178196211
 21
136.8343798838929
 31
0.0
  0
LINE
  5
625
330
18
100
AcDbEntity
  8
1
  6
Continuous
100
AcDbLine
 10
297.8977178196552
 20
135.8343798363954
 30
0.0
 11
296.7477177649886
 21
135.8343798363954
 31
0.0
  0
LINE
  5
626
330
18
100
AcDbEntity
  8
1
  6
Continuous
100
AcDbLine
 10
298.1977178338599
 20
136.5343798696883
 30
0.0
 11
298.1977178338599
 21
136.1343798506341
 31
0.0
  0
ARC
  5
627
330
18
100
AcDbEntity
  8
1
  6
Continuous
100
AcDbCircle
 10
296.9977177768629
 20
140.5042121891145
 30
0.0
 40
0.3000000142492326
100
AcDbArc
 50
183.6757588470107
 51
255.8662632792854
  0
ARC
  5
628
330
18
100
AcDbEntity
  8
1
  6
Continuous
100
AcDbCircle
 10
296.9977177768629
 20
140.8191704290693
 30
0.0
 40
0.3000000142492345
100
AcDbArc
 50
90.0
 51
180.0
  0
ARC
  5
629
330
18
100
AcDbEntity
  8
1
  6
Continuous
100
AcDbCircle
 10
296.9977177768629
 20
140.5042121891145
 30
0.0
 40
0.3000000142492335
100
AcDbArc
 50
180.0
 51
183.6984732073477
  0
ARC
  5
62A
330
18
100
AcDbEntity
  8
1
  6
Continuous
100
AcDbCircle
 10
294.8977176771183
 20
140.5042121891145
 30
0.0
 40
0.3000000142492335
100
AcDbArc
 50
356.3015267926521
 51
0.000000000000007
  0
ARC
  5
62B
330
18
100
AcDbEntity
  8
1
  6
Continuous
100
AcDbCircle
 10
295.7477177174911
 20
138.2843799527642
 30
0.0
 40
0.3000000142492363
100
AcDbArc
 50
90.0
 51
179.9999999999995
  0
ARC
  5
62C
330
18
100
AcDbEntity
  8
1
  6
Continuous
100
AcDbCircle
 10
296.1477177364901
 20
138.2843799527642
 30
0.0
 40
0.3000000142492394
100
AcDbArc
 50
0.0
 51
90.0
  0
ARC
  5
62D
330
18
100
AcDbEntity
  8
1
  6
Continuous
100
AcDbCircle
 10
294.8977176771183
 20
140.8191704290693
 30
0.0
 40
0.3000000142492345
100
AcDbArc
 50
0.0
 51
90.0
  0
ARC
  5
62E
330
18
100
AcDbEntity
  8
1
  6
Continuous
100
AcDbCircle
 10
294.8977176771183
 20
140.5042121891145
 30
0.0
 40
0.3000000142492326
100
AcDbArc
 50
284.1337367207145
 51
356.3242411529892
  0
LINE
  5
62F
330
18
100
AcDbEntity
  8
1
  6
Continuous
100
AcDbLine
 10
296.1477177364901
 20
138.5843799670134
 30
0.0
 11
295.7477177174911
 21
138.5843799670134
 31
0.0
  0
ARC
  5
630
330
18
100
AcDbEntity
  8
1
  6
Continuous
100
AcDbCircle
 10
295.9477177269906
 20
136.3343798601442
 30
0.0
 40
10.18800048390404
100
AcDbArc
 50
348.9759240421258
 51
11.024075957871
  0
LINE
  5
631
330
18
100
AcDbEntity
  8
1
  6
Continuous
100
AcDbLine
 10
301.472717989414
 20
136.3343798601441
 30
0.0
 11
298.7102178582023
 21
141.1191704433185
 31
0.0
  0
LINE
  5
632
330
18
100
AcDbEntity
  8
1
  6
Continuous
100
AcDbLine
 10
305.4435067182063
 20
133.5343797271513
 30
0.0
 11
302.0895825564577
 21
133.5343797271512
 31
0.0
  0
LINE
  5
633
330
18
100
AcDbEntity
  8
1
  6
Continuous
100
AcDbLine
 10
305.6058753598485
 20
134.1595234397509
 30
0.0
 11
305.9477182019652
 21
134.1595234397509
 31
0.0
  0
LINE
  5
634
330
18
100
AcDbEntity
  8
1
  6
Continuous
100
AcDbLine
 10
305.6058753598482
 20
138.5092362805373
 30
0.0
 11
305.9477182019652
 21
138.5092362805373
 31
0.0
  0
LINE
  5
635
330
18
100
AcDbEntity
  8
1
  6
Continuous
100
AcDbLine
 10
300.5302936396073
 20
146.3343803351186
 30
0.0
 11
291.3651418143741
 21
146.3343803351186
 31
0.0
  0
ARC
  5
636
330
18
100
AcDbEntity
  8
2
  6
Continuous
100
AcDbCircle
 10
295.9477177269906
 20
136.3343798601442
 30
0.0
 40
11.00000052247196
100
AcDbArc
 50
65.38002267134382
 51
114.6199773286559
  0
ARC
  5
637
330
18
100
AcDbEntity
  8
1
  6
Continuous
100
AcDbCircle
 10
295.9477177269906
 20
136.3343798601441
 30
0.0
 40
10.18800048390404
100
AcDbArc
 50
78.97592404212928
 51
101.0240759578708
  0
ARC
  5
638
330
18
100
AcDbEntity
  8
1
  6
Continuous
100
AcDbCircle
 10
295.9477177269906
 20
136.3343798601441
 30
0.0
 40
10.1880004839041
100
AcDbArc
 50
78.97326996035037
 51
101.0011625625582
  0
LINE
  5
639
330
18
100
AcDbEntity
  8
1
  6
Continuous
100
AcDbLine
 10
293.7728613065975
 20
145.9925374930018
 30
0.0
 11
293.7728613065975
 21
146.3343803351186
 31
0.0
  0
LINE
  5
63A
330
18
100
AcDbEntity
  8
1
  6
Continuous
100
AcDbLine
 10
298.1225741473837
 20
145.9925374930017
 30
0.0
 11
298.1225741473837
 21
146.3343803351186
 31
0.0
  0
LINE
  5
63B
330
18
100
AcDbEntity
  8
1
  6
Continuous
100
AcDbLine
 10
319.3264895025628
 20
142.3343801451289
 30
0.0
 11
311.5326470843334
 21
142.3343801451289
 31
0.0
  0
ARC
  5
63C
330
18
100
AcDbEntity
  8
1
  6
Continuous
100
AcDbCircle
 10
163.0131867593128
 20
3497.722456413196
 30
0.0
 40
3358.77979911264
100
AcDbArc
 50
272.5224332013407
 51
272.5350285428774
  0
ARC
  5
63D
330
18
100
AcDbEntity
  8
1
  6
Continuous
100
AcDbCircle
 10
319.4033703604083
 20
140.7900893556317
 30
0.0
 40
1.54620332066293
100
AcDbArc
 50
2.806676711176868
 51
92.85005581804821
  0
ENDSEC
  0
SECTION
  2
OBJECTS
  0
DICTIONARY
  5
C
330
0
100
AcDbDictionary
281
     1
  3
ACAD_CIP_PREVIOUS_PRODUCT_INFO
350
9CA
  3
ACAD_COLOR
350
9AD
  3
ACAD_DETAILVIEWSTYLE
350
9C6
  3
ACAD_GROUP
350
D
  3
ACAD_LAYOUT
350
94
  3
ACAD_MATERIAL
350
97B
  3
ACAD_MLEADERSTYLE
350
9C2
  3
ACAD_MLINESTYLE
350
1B
  3
ACAD_PLOTSETTINGS
350
95
  3
ACAD_PLOTSTYLENAME
350
979
  3
ACAD_SCALELIST
350
9B0
  3
ACAD_SECTIONVIEWSTYLE
350
9C4
  3
ACAD_TABLESTYLE
350
9AE
  3
ACAD_VISUALSTYLE
350
994
  3
ACDB_RECOMPOSE_DATA
350
9E8
  3
AcDbVariableDictionary
350
9DB
  3
CONTENTDICTIONARY
350
3D
  3
DWGPROPS
350
9E9
  0
DICTIONARY
  5
9CB
330
E
100
AcDbDictionary
280
     1
281
     1
  3
ADSK_XREC_LAYER_RECONCILED
360
9CC
  0
DICTIONARY
  5
9CD
330
4E
100
AcDbDictionary
280
     1
281
     1
  3
ADSK_XREC_LAYER_RECONCILED
360
9CE
  0
DICTIONARY
  5
9CF
330
4F
100
AcDbDictionary
280
     1
281
     1
  3
ADSK_XREC_LAYER_RECONCILED
360
9D0
  0
DICTIONARY
  5
9D1
330
50
100
AcDbDictionary
280
     1
281
     1
  3
ADSK_XREC_LAYER_RECONCILED
360
9D2
  0
DICTIONARY
  5
9D3
330
51
100
AcDbDictionary
280
     1
281
     1
  3
ADSK_XREC_LAYER_RECONCILED
360
9D4
  0
DICTIONARY
  5
9D5
330
52
100
AcDbDictionary
280
     1
281
     1
  3
ADSK_XREC_LAYER_RECONCILED
360
9D6
  0
DICTIONARY
  5
9D7
330
53
100
AcDbDictionary
280
     1
281
     1
  3
ADSK_XREC_LAYER_RECONCILED
360
9D8
  0
DICTIONARY
  5
9D9
330
54
100
AcDbDictionary
280
     1
281
     1
  3
ADSK_XREC_LAYER_RECONCILED
360
9DA
  0
DICTIONARY
  5
974
330
18
100
AcDbDictionary
281
     1
  3
ACAD_LAYOUTSELFREF
350
975
  0
DICTIONARY
  5
972
330
15
100
AcDbDictionary
281
     1
  3
ACAD_LAYOUTSELFREF
350
973
  0
XRECORD
  5
9CA
102
{ACAD_REACTORS
330
C
102
}
330
C
100
AcDbXrecord
280
     1
300
ACDLT
300
2014
300
ACDLT_F_S
  0
DICTIONARY
  5
9AD
102
{ACAD_REACTORS
330
C
102
}
330
C
100
AcDbDictionary
281
     1
  0
DICTIONARY
  5
9C6
102
{ACAD_REACTORS
330
C
102
}
330
C
100
AcDbDictionary
281
     1
  3
Imperial24
350
9C7
  0
DICTIONARY
  5
D
102
{ACAD_REACTORS
330
C
102
}
330
C
100
AcDbDictionary
281
     1
  0
DICTIONARY
  5
94
102
{ACAD_REACTORS
330
C
102
}
330
C
100
AcDbDictionary
281
     1
  3
Model
350
9C8
  3
レイアウト1
350
9C9
  0
DICTIONARY
  5
97B
102
{ACAD_REACTORS
330
C
102
}
330
C
100
AcDbDictionary
281
     1
  3
ByBlock
350
984
  3
ByLayer
350
97C
  3
Global
350
98C
  0
DICTIONARY
  5
9C2
102
{ACAD_REACTORS
330
C
102
}
330
C
100
AcDbDictionary
281
     1
  3
Standard
350
9C3
  0
DICTIONARY
  5
1B
102
{ACAD_REACTORS
330
C
102
}
330
C
100
AcDbDictionary
281
     1
  3
STANDARD
350
1C
  0
DICTIONARY
  5
95
102
{ACAD_REACTORS
330
C
102
}
330
C
100
AcDbDictionary
281
     1
  0
ACDBDICTIONARYWDFLT
  5
979
102
{ACAD_REACTORS
330
C
102
}
330
C
100
AcDbDictionary
281
     1
  3
Normal
350
97A
100
AcDbDictionaryWithDefault
340
97A
  0
DICTIONARY
  5
9B0
102
{ACAD_REACTORS
330
C
102
}
330
C
100
AcDbDictionary
281
     1
  3
A0
350
9B1
  3
A1
350
9B2
  3
A2
350
9B3
  3
A3
350
9B4
  3
A4
350
9B5
  3
A5
350
9B6
  3
A6
350
9B7
  3
A7
350
9B8
  3
A8
350
9B9
  3
A9
350
9BA
  3
B0
350
9BB
  3
B1
350
9BC
  3
B2
350
9BD
  3
B3
350
9BE
  3
B4
350
9BF
  3
B5
350
9C0
  3
B6
350
9C1
  0
DICTIONARY
  5
9C4
102
{ACAD_REACTORS
330
C
102
}
330
C
100
AcDbDictionary
281
     1
  3
Imperial24
350
9C5
  0
DICTIONARY
  5
9AE
102
{ACAD_REACTORS
330
C
102
}
330
C
100
AcDbDictionary
281
     1
  3
Standard
350
9AF
  0
DICTIONARY
  5
994
102
{ACAD_REACTORS
330
C
102
}
330
C
100
AcDbDictionary
281
     1
  3
2dWireframe
350
99A
  3
Basic
350
999
  3
Brighten
350
9A0
  3
ColorChange
350
9A4
  3
Conceptual
350
99D
  3
Dim
350
99F
  3
EdgeColorOff
350
9AC
  3
Facepattern
350
9A3
  3
Flat
350
995
  3
FlatWithEdges
350
996
  3
Gouraud
350
997
  3
GouraudWithEdges
350
998
  3
Hidden
350
99C
  3
JitterOff
350
9AA
  3
Linepattern
350
9A2
  3
OverhangOff
350
9AB
  3
Realistic
350
99E
  3
Shaded
350
9A9
  3
Shaded with edges
350
9A8
  3
Shades of Gray
350
9A5
  3
Sketchy
350
9A6
  3
Thicken
350
9A1
  3
Wireframe
350
99B
  3
X-Ray
350
9A7
  0
XRECORD
  5
9E8
102
{ACAD_REACTORS
330
C
102
}
330
C
100
AcDbXrecord
280
     1
 90
        1
330
9AF
  0
DICTIONARY
  5
9DB
102
{ACAD_REACTORS
330
C
102
}
330
C
100
AcDbDictionary
281
     1
  3
CANNOSCALE
350
9E0
  3
CMLEADERSTYLE
350
9DD
  3
CTABLESTYLE
350
9DC
  3
CVIEWDETAILSTYLE
350
9DE
  3
CVIEWSECTIONSTYLE
350
9DF
  3
DIMASSOC
350
9E3
  3
INDEXCTL
350
9E2
  3
SORTENTS
350
9E1
  3
XCLIPFRAME
350
9E4
  0
DICTIONARY
  5
3D
102
{ACAD_REACTORS
330
C
102
}
330
C
100
AcDbDictionary
281
     1
  0
XRECORD
  5
9E9
102
{ACAD_REACTORS
330
C
102
}
330
C
100
AcDbXrecord
280
     1
  1
DWGPROPS COOKIE
  2

  3

  4

  6

  7

  8
Yoshitsune
  9

300
=
301
=
302
=
303
=
304
=
305
=
306
=
307
=
308
=
309
=
 40
0.030416724537037
 41
2454168.445695706
 42
2457192.700182581
  1

 90
        0
  0
XRECORD
  5
9CC
102
{ACAD_REACTORS
330
9CB
102
}
330
9CB
100
AcDbXrecord
280
     1
290
     1
  0
XRECORD
  5
9CE
102
{ACAD_REACTORS
330
9CD
102
}
330
9CD
100
AcDbXrecord
280
     1
290
     1
  0
XRECORD
  5
9D0
102
{ACAD_REACTORS
330
9CF
102
}
330
9CF
100
AcDbXrecord
280
     1
290
     1
  0
XRECORD
  5
9D2
102
{ACAD_REACTORS
330
9D1
102
}
330
9D1
100
AcDbXrecord
280
     1
290
     1
  0
XRECORD
  5
9D4
102
{ACAD_REACTORS
330
9D3
102
}
330
9D3
100
AcDbXrecord
280
     1
290
     1
  0
XRECORD
  5
9D6
102
{ACAD_REACTORS
330
9D5
102
}
330
9D5
100
AcDbXrecord
280
     1
290
     1
  0
XRECORD
  5
9D8
102
{ACAD_REACTORS
330
9D7
102
}
330
9D7
100
AcDbXrecord
280
     1
290
     1
  0
XRECORD
  5
9DA
102
{ACAD_REACTORS
330
9D9
102
}
330
9D9
100
AcDbXrecord
280
     1
290
     1
  0
XRECORD
  5
975
102
{ACAD_REACTORS
330
974
102
}
330
974
100
AcDbXrecord
280
     1
340
18
  0
XRECORD
  5
973
102
{ACAD_REACTORS
330
972
102
}
330
972
100
AcDbXrecord
280
     1
340
15
  0
ACDBDETAILVIEWSTYLE
  5
9C7
102
{ACAD_XDICTIONARY
360
A21
102
}
102
{ACAD_REACTORS
330
9C6
102
}
330
9C6
100
AcDbModelDocViewStyle
 70
     0
  3
Imperial24
290
     0
100
AcDbDetailViewStyle
 70
     0
 71
     0
 90
        3
 71
     1
340
F
 40
0.24
340
0
 40
0.24
300

 40
0.36
280
     3
 71
     2
340
14
 90
       25
 71
     3
340
F
 40
0.24
 90
        1
 40
0.75
 90
        1
300
%<\AcVar ViewType \f "%tc1">% %<\AcVar ViewDetailId>%\PSCALE %<\AcVar ViewScale \f "%sn">%
 71
     4
340
14
 90
       25
340
14
 90
       25
280
     0
  0
LAYOUT
  5
9C8
102
{ACAD_XDICTIONARY
360
A23
102
}
102
{ACAD_REACTORS
330
94
102
}
330
94
100
AcDbPlotSettings
  1

  2
Canon LBP9100C
  4

  6

 40
0.0
 41
0.0
 42
0.0
 43
0.0
 44
0.0
 45
0.0
 46
0.0
 47
0.0
 48
0.0
 49
0.0
140
0.0
141
0.0
142
1.0
143
1.0
 70
  1712
 72
     0
 73
     0
 74
     0
  7

 75
     0
147
1.0
148
0.0
149
0.0
100
AcDbLayout
  1
Model
 70
     1
 71
     0
 10
0.0
 20
0.0
 11
12.0
 21
9.0
 12
0.0
 22
0.0
 32
0.0
 14
0.0
 24
0.0
 34
0.0
 15
0.0
 25
0.0
 35
0.0
146
0.0
 13
0.0
 23
0.0
 33
0.0
 16
1.0
 26
0.0
 36
0.0
 17
0.0
 27
1.0
 37
0.0
 76
     0
330
18
331
971
  0
LAYOUT
  5
9C9
102
{ACAD_XDICTIONARY
360
A25
102
}
102
{ACAD_REACTORS
330
94
102
}
330
94
100
AcDbPlotSettings
  1

  2
Canon LBP9100C
  4

  6

 40
0.0
 41
0.0
 42
0.0
 43
0.0
 44
0.0
 45
0.0
 46
0.0
 47
0.0
 48
0.0
 49
0.0
140
0.0
141
0.0
142
1.0
143
1.0
 70
   688
 72
     0
 73
     0
 74
     5
  7

 75
    16
147
1.0
148
0.0
149
0.0
100
AcDbLayout
  1
レイアウト1
 70
     1
 71
     1
 10
0.0
 20
0.0
 11
420.0
 21
297.0
 12
0.0
 22
0.0
 32
0.0
 14
1.000000000000000E+20
 24
1.000000000000000E+20
 34
1.000000000000000E+20
 15
-1.000000000000000E+20
 25
-1.000000000000000E+20
 35
-1.000000000000000E+20
146
0.0
 13
0.0
 23
0.0
 33
0.0
 16
1.0
 26
0.0
 36
0.0
 17
0.0
 27
1.0
 37
0.0
 76
     0
330
15
  0
MATERIAL
  5
984
102
{ACAD_XDICTIONARY
360
985
102
}
102
{ACAD_REACTORS
330
97B
102
}
330
97B
100
AcDbMaterial
  1
ByBlock
 72
     0
 43
0.0208333333333333
 43
0.0
 43
0.0
 43
0.0
 43
0.0
 43
0.0208333333333333
 43
0.0
 43
0.0
 43
0.0
 43
0.0
 43
1.0
 43
0.0
 43
0.0
 43
0.0
 43
0.0
 43
1.0
 77
     0
 47
0.0208333333333333
 47
0.0
 47
0.0
 47
0.0
 47
0.0
 47
0.0208333333333333
 47
0.0
 47
0.0
 47
0.0
 47
0.0
 47
1.0
 47
0.0
 47
0.0
 47
0.0
 47
0.0
 47
1.0
171
     0
 49
0.0208333333333333
 49
0.0
 49
0.0
 49
0.0
 49
0.0
 49
0.0208333333333333
 49
0.0
 49
0.0
 49
0.0
 49
0.0
 49
1.0
 49
0.0
 49
0.0
 49
0.0
 49
0.0
 49
1.0
175
     0
142
0.0208333333333333
142
0.0
142
0.0
142
0.0
142
0.0
142
0.0208333333333333
142
0.0
142
0.0
142
0.0
142
0.0
142
1.0
142
0.0
142
0.0
142
0.0
142
0.0
142
1.0
179
     0
144
0.0208333333333333
144
0.0
144
0.0
144
0.0
144
0.0
144
0.0208333333333333
144
0.0
144
0.0
144
0.0
144
0.0
144
1.0
144
0.0
144
0.0
144
0.0
144
0.0
144
1.0
147
0.0208333333333333
147
0.0
147
0.0
147
0.0
147
0.0
147
0.0208333333333333
147
0.0
147
0.0
147
0.0
147
0.0
147
1.0
147
0.0
147
0.0
147
0.0
147
0.0
147
1.0
  0
MATERIAL
  5
97C
102
{ACAD_XDICTIONARY
360
97D
102
}
102
{ACAD_REACTORS
330
97B
102
}
330
97B
100
AcDbMaterial
  1
ByLayer
 72
     0
 43
0.0208333333333333
 43
0.0
 43
0.0
 43
0.0
 43
0.0
 43
0.0208333333333333
 43
0.0
 43
0.0
 43
0.0
 43
0.0
 43
1.0
 43
0.0
 43
0.0
 43
0.0
 43
0.0
 43
1.0
 77
     0
 47
0.0208333333333333
 47
0.0
 47
0.0
 47
0.0
 47
0.0
 47
0.0208333333333333
 47
0.0
 47
0.0
 47
0.0
 47
0.0
 47
1.0
 47
0.0
 47
0.0
 47
0.0
 47
0.0
 47
1.0
171
     0
 49
0.0208333333333333
 49
0.0
 49
0.0
 49
0.0
 49
0.0
 49
0.0208333333333333
 49
0.0
 49
0.0
 49
0.0
 49
0.0
 49
1.0
 49
0.0
 49
0.0
 49
0.0
 49
0.0
 49
1.0
175
     0
142
0.0208333333333333
142
0.0
142
0.0
142
0.0
142
0.0
142
0.0208333333333333
142
0.0
142
0.0
142
0.0
142
0.0
142
1.0
142
0.0
142
0.0
142
0.0
142
0.0
142
1.0
179
     0
144
0.0208333333333333
144
0.0
144
0.0
144
0.0
144
0.0
144
0.0208333333333333
144
0.0
144
0.0
144
0.0
144
0.0
144
1.0
144
0.0
144
0.0
144
0.0
144
0.0
144
1.0
147
0.0208333333333333
147
0.0
147
0.0
147
0.0
147
0.0
147
0.0208333333333333
147
0.0
147
0.0
147
0.0
147
0.0
147
1.0
147
0.0
147
0.0
147
0.0
147
0.0
147
1.0
  0
MATERIAL
  5
98C
102
{ACAD_XDICTIONARY
360
98D
102
}
102
{ACAD_REACTORS
330
97B
102
}
330
97B
100
AcDbMaterial
  1
Global
 72
     0
 43
0.0208333333333333
 43
0.0
 43
0.0
 43
0.0
 43
0.0
 43
0.0208333333333333
 43
0.0
 43
0.0
 43
0.0
 43
0.0
 43
1.0
 43
0.0
 43
0.0
 43
0.0
 43
0.0
 43
1.0
 77
     0
 47
0.0208333333333333
 47
0.0
 47
0.0
 47
0.0
 47
0.0
 47
0.0208333333333333
 47
0.0
 47
0.0
 47
0.0
 47
0.0
 47
1.0
 47
0.0
 47
0.0
 47
0.0
 47
0.0
 47
1.0
171
     0
 49
0.0208333333333333
 49
0.0
 49
0.0
 49
0.0
 49
0.0
 49
0.0208333333333333
 49
0.0
 49
0.0
 49
0.0
 49
0.0
 49
1.0
 49
0.0
 49
0.0
 49
0.0
 49
0.0
 49
1.0
175
     0
142
0.0208333333333333
142
0.0
142
0.0
142
0.0
142
0.0
142
0.0208333333333333
142
0.0
142
0.0
142
0.0
142
0.0
142
1.0
142
0.0
142
0.0
142
0.0
142
0.0
142
1.0
179
     0
144
0.0208333333333333
144
0.0
144
0.0
144
0.0
144
0.0
144
0.0208333333333333
144
0.0
144
0.0
144
0.0
144
0.0
144
1.0
144
0.0
144
0.0
144
0.0
144
0.0
144
1.0
147
0.0208333333333333
147
0.0
147
0.0
147
0.0
147
0.0
147
0.0208333333333333
147
0.0
147
0.0
147
0.0
147
0.0
147
1.0
147
0.0
147
0.0
147
0.0
147
0.0
147
1.0
  0
MLEADERSTYLE
  5
9C3
102
{ACAD_REACTORS
330
9C2
102
}
330
9C2
100
AcDbMLeaderStyle
170
     2
171
     1
172
     0
 90
        2
 40
0.0
 41
0.0
173
     1
 91
-1056964608
340
12
 92
       -2
290
     1
 42
0.09
291
     1
 43
0.36
  3
Standard
 44
0.18
300

342
F
174
     1
178
     6
175
     1
176
     0
 93
-1056964608
 45
0.18
292
     0
297
     0
 46
0.18
 94
-1056964608
 47
1.0
 49
1.0
140
1.0
293
     1
141
0.0
294
     1
177
     0
142
1.0
295
     0
296
     0
143
0.125
1001
ACAD_MLEADERVER
1070
     2
  0
MLINESTYLE
  5
1C
102
{ACAD_REACTORS
330
1B
102
}
330
1B
100
AcDbMlineStyle
  2
STANDARD
 70
     0
  3

 62
   256
 51
90.0
 52
90.0
 71
     2
 49
0.5
 62
   256
  6
BYLAYER
 49
-0.5
 62
   256
  6
BYLAYER
  0
ACDBPLACEHOLDER
  5
97A
102
{ACAD_REACTORS
330
979
102
}
330
979
  0
SCALE
  5
9B1
102
{ACAD_REACTORS
330
9B0
102
}
330
9B0
100
AcDbScale
 70
     0
300
1:1
140
1.0
141
1.0
290
     1
  0
SCALE
  5
9B2
102
{ACAD_REACTORS
330
9B0
102
}
330
9B0
100
AcDbScale
 70
     0
300
1/128" = 1'-0"
140
0.0078125
141
12.0
290
     0
  0
SCALE
  5
9B3
102
{ACAD_REACTORS
330
9B0
102
}
330
9B0
100
AcDbScale
 70
     0
300
1/64" = 1'-0"
140
0.015625
141
12.0
290
     0
  0
SCALE
  5
9B4
102
{ACAD_REACTORS
330
9B0
102
}
330
9B0
100
AcDbScale
 70
     0
300
1/32" = 1'-0"
140
0.03125
141
12.0
290
     0
  0
SCALE
  5
9B5
102
{ACAD_REACTORS
330
9B0
102
}
330
9B0
100
AcDbScale
 70
     0
300
1/16" = 1'-0"
140
0.0625
141
12.0
290
     0
  0
SCALE
  5
9B6
102
{ACAD_REACTORS
330
9B0
102
}
330
9B0
100
AcDbScale
 70
     0
300
3/32" = 1'-0"
140
0.09375
141
12.0
290
     0
  0
SCALE
  5
9B7
102
{ACAD_REACTORS
330
9B0
102
}
330
9B0
100
AcDbScale
 70
     0
300
1/8" = 1'-0"
140
0.125
141
12.0
290
     0
  0
SCALE
  5
9B8
102
{ACAD_REACTORS
330
9B0
102
}
330
9B0
100
AcDbScale
 70
     0
300
3/16" = 1'-0"
140
0.1875
141
12.0
290
     0
  0
SCALE
  5
9B9
102
{ACAD_REACTORS
330
9B0
102
}
330
9B0
100
AcDbScale
 70
     0
300
1/4" = 1'-0"
140
0.25
141
12.0
290
     0
  0
SCALE
  5
9BA
102
{ACAD_REACTORS
330
9B0
102
}
330
9B0
100
AcDbScale
 70
     0
300
3/8" = 1'-0"
140
0.375
141
12.0
290
     0
  0
SCALE
  5
9BB
102
{ACAD_REACTORS
330
9B0
102
}
330
9B0
100
AcDbScale
 70
     0
300
1/2" = 1'-0"
140
0.5
141
12.0
290
     0
  0
SCALE
  5
9BC
102
{ACAD_REACTORS
330
9B0
102
}
330
9B0
100
AcDbScale
 70
     0
300
3/4" = 1'-0"
140
0.75
141
12.0
290
     0
  0
SCALE
  5
9BD
102
{ACAD_REACTORS
330
9B0
102
}
330
9B0
100
AcDbScale
 70
     0
300
1" = 1'-0"
140
1.0
141
12.0
290
     0
  0
SCALE
  5
9BE
102
{ACAD_REACTORS
330
9B0
102
}
330
9B0
100
AcDbScale
 70
     0
300
1-1/2" = 1'-0"
140
1.5
141
12.0
290
     0
  0
SCALE
  5
9BF
102
{ACAD_REACTORS
330
9B0
102
}
330
9B0
100
AcDbScale
 70
     0
300
3" = 1'-0"
140
3.0
141
12.0
290
     0
  0
SCALE
  5
9C0
102
{ACAD_REACTORS
330
9B0
102
}
330
9B0
100
AcDbScale
 70
     0
300
6" = 1'-0"
140
6.0
141
12.0
290
     0
  0
SCALE
  5
9C1
102
{ACAD_REACTORS
330
9B0
102
}
330
9B0
100
AcDbScale
 70
     0
300
1'-0" = 1'-0"
140
12.0
141
12.0
290
     0
  0
ACDBSECTIONVIEWSTYLE
  5
9C5
102
{ACAD_XDICTIONARY
360
A1F
102
}
102
{ACAD_REACTORS
330
9C4
102
}
330
9C4
100
AcDbModelDocViewStyle
 70
     0
  3
Imperial24
290
     0
100
AcDbSectionViewStyle
 70
     0
 71
     0
 90
       78
 71
     1
340
F
 40
0.24
340
0
340
0
 40
0.24
300
I, O, Q, S, X, Z
 40
0.48
 90
        3
 40
0.18
 90
        1
 71
     2
340
14
 90
       25
340
14
 90
       50
 40
0.24
 40
0.0
 40
0.24
 71
     3
340
F
 40
0.24
 90
        1
 40
0.75
 90
        1
300
%<\AcVar ViewType \f "%tc1">% %<\AcVar ViewSectionStartId>%-%<\AcVar ViewSectionEndId>%\PSCALE %<\AcVar ViewScale \f "%sn">%
 71
     4
300
ANSI31
 40
1.0
 90
        0
290
     0
290
     0
 90
        6
 40
0.0
 40
1.570796326794896
 40
0.2617993877991494
 40
1.308996938995747
 40
-0.2617993877991494
 40
1.832595714594046
  0
TABLESTYLE
  5
9AF
102
{ACAD_XDICTIONARY
360
9E6
102
}
102
{ACAD_REACTORS
330
9AE
102
}
330
9AE
100
AcDbTableStyle
  3
Standard
 70
     0
 71
     0
 40
0.06
 41
0.06
280
     0
281
     0
  7
STANDARD
140
0.18
170
     2
 62
     0
 63
     7
283
     0
274
    -2
284
     1
 64
     0
275
    -2
285
     1
 65
     0
276
    -2
286
     1
 66
     0
277
    -2
287
     1
 67
     0
278
    -2
288
     1
 68
     0
279
    -2
289
     1
 69
     0
  7
STANDARD
140
0.25
170
     5
 62
     0
 63
     7
283
     0
274
    -2
284
     1
 64
     0
275
    -2
285
     1
 65
     0
276
    -2
286
     1
 66
     0
277
    -2
287
     1
 67
     0
278
    -2
288
     1
 68
     0
279
    -2
289
     1
 69
     0
  7
STANDARD
140
0.18
170
     5
 62
     0
 63
     7
283
     0
274
    -2
284
     1
 64
     0
275
    -2
285
     1
 65
     0
276
    -2
286
     1
 66
     0
277
    -2
287
     1
 67
     0
278
    -2
288
     1
 68
     0
279
    -2
289
     1
 69
     0
  0
VISUALSTYLE
  5
99A
102
{ACAD_XDICTIONARY
360
9F7
102
}
102
{ACAD_REACTORS
330
994
102
}
330
994
100
AcDbVisualStyle
  2
2dWireframe
 70
     4
 71
     0
 72
     2
 73
     0
 90
        0
 40
-0.6
 41
-30.0
 62
     5
 63
     7
 74
     1
 91
        4
 64
     7
 65
   257
 75
     1
175
     1
 42
1.0
 92
        0
 66
   257
 43
1.0
 76
     1
 77
     6
 78
     2
 67
     7
 79
     5
170
     0
171
     0
290
     0
174
     0
 93
        1
 44
0.0
173
     0
291
     0
 45
0.0
1001
ACAD
1000
AcDbSavedByObjectVersion
1070
     0
  0
VISUALSTYLE
  5
999
102
{ACAD_XDICTIONARY
360
9F5
102
}
102
{ACAD_REACTORS
330
994
102
}
330
994
100
AcDbVisualStyle
  2
Basic
 70
     7
 71
     1
 72
     0
 73
     1
 90
        0
 40
-0.6
 41
-30.0
 62
     5
 63
     7
 74
     0
 91
        4
 64
     7
 65
   257
 75
     1
175
     1
 42
1.0
 92
        8
 66
     7
 43
1.0
 76
     1
 77
     6
 78
     2
 67
     7
 79
     5
170
     0
171
     0
290
     0
174
     0
 93
        1
 44
0.0
173
     0
291
     1
 45
0.0
1001
ACAD
1000
AcDbSavedByObjectVersion
1070
     0
  0
VISUALSTYLE
  5
9A0
102
{ACAD_XDICTIONARY
360
A03
102
}
102
{ACAD_REACTORS
330
994
102
}
330
994
100
AcDbVisualStyle
  2
Brighten
 70
    12
 71
     2
 72
     2
 73
     0
 90
        0
 40
-0.6
 41
-30.0
 62
     5
 63
     7
 74
     1
 91
        4
 64
     7
 65
   257
 75
     1
175
     1
 42
1.0
 92
        8
 66
     7
 43
1.0
 76
     1
 77
     6
 78
     2
 67
     7
 79
     5
170
     0
171
     0
290
     0
174
     0
 93
        1
 44
50.0
173
     0
291
     1
 45
0.0
1001
ACAD
1000
AcDbSavedByObjectVersion
1070
     0
  0
VISUALSTYLE
  5
9A4
102
{ACAD_XDICTIONARY
360
A0B
102
}
102
{ACAD_REACTORS
330
994
102
}
330
994
100
AcDbVisualStyle
  2
ColorChange
 70
    16
 71
     2
 72
     2
 73
     3
 90
        0
 40
-0.6
 41
-30.0
 62
     5
 63
     8
 74
     1
 91
        4
 64
     7
 65
   257
 75
     1
175
     1
 42
1.0
 92
        8
 66
     8
 43
1.0
 76
     1
 77
     6
 78
     2
 67
     7
 79
     5
170
     0
171
     0
290
     0
174
     0
 93
        1
 44
0.0
173
     0
291
     1
 45
0.0
1001
ACAD
1000
AcDbSavedByObjectVersion
1070
     0
  0
VISUALSTYLE
  5
99D
102
{ACAD_XDICTIONARY
360
9FD
102
}
102
{ACAD_REACTORS
330
994
102
}
330
994
100
AcDbVisualStyle
  2
Conceptual
 70
     9
 71
     3
 72
     2
 73
     0
 90
        0
 40
-0.6
 41
-30.0
 62
     5
 63
     7
 74
     2
 91
        2
 64
     7
 65
   257
 75
     1
175
     1
 42
179.0
 92
        8
 66
     7
 43
1.0
 76
     1
 77
     6
 78
     2
 67
     7
 79
     3
170
     0
171
     0
290
     0
174
     0
 93
        1
 44
0.0
173
     0
291
     0
 45
0.0
1001
ACAD
1000
AcDbSavedByObjectVersion
1070
     0
  0
VISUALSTYLE
  5
99F
102
{ACAD_XDICTIONARY
360
A01
102
}
102
{ACAD_REACTORS
330
994
102
}
330
994
100
AcDbVisualStyle
  2
Dim
 70
    11
 71
     2
 72
     2
 73
     0
 90
        0
 40
-0.6
 41
-30.0
 62
     5
 63
     7
 74
     1
 91
        4
 64
     7
 65
   257
 75
     1
175
     1
 42
1.0
 92
        8
 66
     7
 43
1.0
 76
     1
 77
     6
 78
     2
 67
     7
 79
     5
170
     0
171
     0
290
     0
174
     0
 93
        1
 44
-50.0
173
     0
291
     1
 45
0.0
1001
ACAD
1000
AcDbSavedByObjectVersion
1070
     0
  0
VISUALSTYLE
  5
9AC
102
{ACAD_XDICTIONARY
360
A1B
102
}
102
{ACAD_REACTORS
330
994
102
}
330
994
100
AcDbVisualStyle
  2
EdgeColorOff
 70
    22
 71
     2
 72
     2
 73
     0
 90
        0
 40
-0.6
 41
-30.0
 62
     5
 63
     7
 74
     1
 91
        4
 64
     7
 65
   257
 75
     1
175
     1
 42
1.0
 92
        8
 66
     7
 43
1.0
 76
     1
 77
     6
 78
     2
 67
     7
 79
     5
170
     0
171
     0
290
     0
174
     0
 93
        1
 44
0.0
173
     0
291
     1
 45
0.0
1001
ACAD
1000
AcDbSavedByObjectVersion
1070
     0
  0
VISUALSTYLE
  5
9A3
102
{ACAD_XDICTIONARY
360
A09
102
}
102
{ACAD_REACTORS
330
994
102
}
330
994
100
AcDbVisualStyle
  2
Facepattern
 70
    15
 71
     2
 72
     2
 73
     0
 90
        0
 40
-0.6
 41
-30.0
 62
     5
 63
     7
 74
     1
 91
        4
 64
     7
 65
   257
 75
     1
175
     1
 42
1.0
 92
        8
 66
     7
 43
1.0
 76
     1
 77
     6
 78
     2
 67
     7
 79
     5
170
     0
171
     0
290
     0
174
     0
 93
        1
 44
0.0
173
     0
291
     1
 45
0.0
1001
ACAD
1000
AcDbSavedByObjectVersion
1070
     0
  0
VISUALSTYLE
  5
995
102
{ACAD_XDICTIONARY
360
9ED
102
}
102
{ACAD_REACTORS
330
994
102
}
330
994
100
AcDbVisualStyle
  2
Flat
 70
     0
 71
     2
 72
     1
 73
     1
 90
        2
 40
-0.6
 41
30.0
 62
     5
 63
     7
 74
     0
 91
        0
 64
     7
 65
   257
 75
     1
175
     1
 42
1.0
 92
        8
 66
     7
 43
1.0
 76
     1
 77
     6
 78
     2
 67
     7
 79
     5
170
     0
171
     0
290
     0
174
     0
 93
       13
 44
0.0
173
     0
291
     1
 45
0.0
1001
ACAD
1000
AcDbSavedByObjectVersion
1070
     0
  0
VISUALSTYLE
  5
996
102
{ACAD_XDICTIONARY
360
9EF
102
}
102
{ACAD_REACTORS
330
994
102
}
330
994
100
AcDbVisualStyle
  2
FlatWithEdges
 70
     1
 71
     2
 72
     1
 73
     1
 90
        2
 40
-0.6
 41
30.0
 62
     5
 63
     7
 74
     1
 91
        0
 64
     7
 65
   257
 75
     1
175
     1
 42
1.0
 92
        0
 66
   257
 43
1.0
 76
     1
 77
     6
 78
     2
 67
     7
 79
     5
170
     0
171
     0
290
     0
174
     0
 93
       13
 44
0.0
173
     0
291
     1
 45
0.0
1001
ACAD
1000
AcDbSavedByObjectVersion
1070
     0
  0
VISUALSTYLE
  5
997
102
{ACAD_XDICTIONARY
360
9F1
102
}
102
{ACAD_REACTORS
330
994
102
}
330
994
100
AcDbVisualStyle
  2
Gouraud
 70
     2
 71
     2
 72
     2
 73
     1
 90
        2
 40
-0.6
 41
30.0
 62
     5
 63
     7
 74
     0
 91
        0
 64
     7
 65
   257
 75
     1
175
     1
 42
1.0
 92
        0
 66
     7
 43
1.0
 76
     1
 77
     6
 78
     2
 67
     7
 79
     5
170
     0
171
     0
290
     0
174
     0
 93
       13
 44
0.0
173
     0
291
     1
 45
0.0
1001
ACAD
1000
AcDbSavedByObjectVersion
1070
     0
  0
VISUALSTYLE
  5
998
102
{ACAD_XDICTIONARY
360
9F3
102
}
102
{ACAD_REACTORS
330
994
102
}
330
994
100
AcDbVisualStyle
  2
GouraudWithEdges
 70
     3
 71
     2
 72
     2
 73
     1
 90
        2
 40
-0.6
 41
30.0
 62
     5
 63
     7
 74
     1
 91
        0
 64
     7
 65
   257
 75
     1
175
     1
 42
1.0
 92
        0
 66
   257
 43
1.0
 76
     1
 77
     6
 78
     2
 67
     7
 79
     5
170
     0
171
     0
290
     0
174
     0
 93
       13
 44
0.0
173
     0
291
     1
 45
0.0
1001
ACAD
1000
AcDbSavedByObjectVersion
1070
     0
  0
VISUALSTYLE
  5
99C
102
{ACAD_XDICTIONARY
360
9FB
102
}
102
{ACAD_REACTORS
330
994
102
}
330
994
100
AcDbVisualStyle
  2
Hidden
 70
     6
 71
     1
 72
     2
 73
     2
 90
        0
 40
-0.6
 41
-30.0
 62
     5
 63
     7
 74
     2
 91
        2
 64
     7
 65
   257
 75
     2
175
     1
 42
40.0
 92
        0
 66
   257
 43
1.0
 76
     1
 77
     6
 78
     2
 67
     7
 79
     3
170
     0
171
     0
290
     0
174
     0
 93
        1
 44
0.0
173
     0
291
     0
 45
0.0
1001
ACAD
1000
AcDbSavedByObjectVersion
1070
     0
  0
VISUALSTYLE
  5
9AA
102
{ACAD_XDICTIONARY
360
A17
102
}
102
{ACAD_REACTORS
330
994
102
}
330
994
100
AcDbVisualStyle
  2
JitterOff
 70
    20
 71
     2
 72
     2
 73
     0
 90
        0
 40
-0.6
 41
-30.0
 62
     5
 63
     7
 74
     1
 91
        4
 64
     7
 65
   257
 75
     1
175
     1
 42
1.0
 92
       10
 66
     7
 43
1.0
 76
     1
 77
     6
 78
     2
 67
     7
 79
     5
170
     0
171
     0
290
     0
174
     0
 93
        1
 44
0.0
173
     0
291
     1
 45
0.0
1001
ACAD
1000
AcDbSavedByObjectVersion
1070
     0
  0
VISUALSTYLE
  5
9A2
102
{ACAD_XDICTIONARY
360
A07
102
}
102
{ACAD_REACTORS
330
994
102
}
330
994
100
AcDbVisualStyle
  2
Linepattern
 70
    14
 71
     2
 72
     2
 73
     0
 90
        0
 40
-0.6
 41
-30.0
 62
     5
 63
     7
 74
     1
 91
        4
 64
     7
 65
   257
 75
     7
175
     7
 42
1.0
 92
        8
 66
     7
 43
1.0
 76
     1
 77
     6
 78
     2
 67
     7
 79
     5
170
     0
171
     0
290
     0
174
     0
 93
        1
 44
0.0
173
     0
291
     1
 45
0.0
1001
ACAD
1000
AcDbSavedByObjectVersion
1070
     0
  0
VISUALSTYLE
  5
9AB
102
{ACAD_XDICTIONARY
360
A19
102
}
102
{ACAD_REACTORS
330
994
102
}
330
994
100
AcDbVisualStyle
  2
OverhangOff
 70
    21
 71
     2
 72
     2
 73
     0
 90
        0
 40
-0.6
 41
-30.0
 62
     5
 63
     7
 74
     1
 91
        4
 64
     7
 65
   257
 75
     1
175
     1
 42
1.0
 92
        9
 66
     7
 43
1.0
 76
     1
 77
     6
 78
     2
 67
     7
 79
     5
170
     0
171
     0
290
     0
174
     0
 93
        1
 44
0.0
173
     0
291
     1
 45
0.0
1001
ACAD
1000
AcDbSavedByObjectVersion
1070
     0
  0
VISUALSTYLE
  5
99E
102
{ACAD_XDICTIONARY
360
9FF
102
}
102
{ACAD_REACTORS
330
994
102
}
330
994
100
AcDbVisualStyle
  2
Realistic
 70
     8
 71
     2
 72
     3
 73
     0
 90
        2
 40
-0.6
 41
30.0
 62
     5
 63
     7
 74
     0
 91
        0
 64
     7
 65
   257
 75
     1
175
     1
 42
1.0
 92
        8
 66
   257
 43
1.0
 76
     1
 77
     6
 78
     2
 67
     7
 79
     3
170
     0
171
     0
290
     0
174
     0
 93
       13
 44
0.0
173
     0
291
     0
 45
0.0
1001
ACAD
1000
AcDbSavedByObjectVersion
1070
     0
  0
VISUALSTYLE
  5
9A9
102
{ACAD_XDICTIONARY
360
A15
102
}
102
{ACAD_REACTORS
330
994
102
}
330
994
100
AcDbVisualStyle
  2
Shaded
 70
    27
 71
     2
 72
     2
 73
     1
 90
        2
 40
-0.6
 41
30.0
 62
     5
 63
     7
 74
     0
 91
        4
 64
     7
 65
   257
 75
     1
175
     1
 42
1.0
 92
        8
 66
   257
 43
1.0
 76
     1
 77
     6
 78
     2
 67
     8
 79
     3
170
     0
171
     0
290
     0
174
     0
 93
        5
 44
0.0
173
     0
291
     0
 45
0.0
1001
ACAD
1000
AcDbSavedByObjectVersion
1070
     0
  0
VISUALSTYLE
  5
9A8
102
{ACAD_XDICTIONARY
360
A13
102
}
102
{ACAD_REACTORS
330
994
102
}
330
994
100
AcDbVisualStyle
  2
Shaded with edges
 70
    26
 71
     2
 72
     2
 73
     1
 90
        2
 40
-0.6
 41
30.0
 62
     5
 63
     7
 74
     1
 91
       10
 64
     7
 65
   257
 75
     2
175
     1
 42
1.0
 92
        8
 66
   257
 43
1.0
 76
     1
 77
     6
 78
     2
 67
     7
 79
     3
170
     0
171
     0
290
     0
174
     0
 93
        5
 44
0.0
173
     0
291
     0
 45
0.0
1001
ACAD
1000
AcDbSavedByObjectVersion
1070
     0
  0
VISUALSTYLE
  5
9A5
102
{ACAD_XDICTIONARY
360
A0D
102
}
102
{ACAD_REACTORS
330
994
102
}
330
994
100
AcDbVisualStyle
  2
Shades of Gray
 70
    23
 71
     2
 72
     2
 73
     3
 90
        0
 40
-0.6
 41
-30.0
 62
     5
 63
     7
 74
     2
 91
        2
 64
     7
 65
     7
 75
     1
175
     1
 42
40.0
 92
        8
 66
     7
 43
1.0
 76
     1
 77
     6
 78
     2
 67
     7
 79
     3
170
     0
171
     0
290
     0
174
     0
 93
        1
 44
0.0
173
     0
291
     0
 45
0.0
1001
ACAD
1000
AcDbSavedByObjectVersion
1070
     0
  0
VISUALSTYLE
  5
9A6
102
{ACAD_XDICTIONARY
360
A0F
102
}
102
{ACAD_REACTORS
330
994
102
}
330
994
100
AcDbVisualStyle
  2
Sketchy
 70
    24
 71
     1
 72
     2
 73
     2
 90
        0
 40
-0.6
 41
-30.0
 62
     5
 63
     7
 74
     2
 91
        2
 64
     7
 65
     7
 75
     1
175
     1
 42
40.0
 92
       11
 66
     7
 43
1.0
 76
     1
 77
     6
 78
     2
 67
     7
 79
     6
170
     0
171
     0
290
     0
174
     0
 93
        1
 44
0.0
173
     0
291
     0
 45
0.0
1001
ACAD
1000
AcDbSavedByObjectVersion
1070
     0
  0
VISUALSTYLE
  5
9A1
102
{ACAD_XDICTIONARY
360
A05
102
}
102
{ACAD_REACTORS
330
994
102
}
330
994
100
AcDbVisualStyle
  2
Thicken
 70
    13
 71
     2
 72
     2
 73
     0
 90
        0
 40
-0.6
 41
-30.0
 62
     5
 63
     7
 74
     1
 91
        4
 64
     7
 65
   257
 75
     1
175
     1
 42
1.0
 92
       12
 66
     7
 43
1.0
 76
     1
 77
     6
 78
     2
 67
     7
 79
     5
170
     0
171
     0
290
     0
174
     0
 93
        1
 44
0.0
173
     0
291
     1
 45
0.0
1001
ACAD
1000
AcDbSavedByObjectVersion
1070
     0
  0
VISUALSTYLE
  5
99B
102
{ACAD_XDICTIONARY
360
9F9
102
}
102
{ACAD_REACTORS
330
994
102
}
330
994
100
AcDbVisualStyle
  2
Wireframe
 70
     5
 71
     0
 72
     2
 73
     0
 90
        0
 40
-0.6
 41
-30.0
 62
     5
 63
     7
 74
     1
 91
        4
 64
     7
 65
   257
 75
     1
175
     1
 42
1.0
 92
        0
 66
   257
 43
1.0
 76
     1
 77
     6
 78
     2
 67
     7
 79
     3
170
     0
171
     0
290
     0
174
     0
 93
        1
 44
0.0
173
     0
291
     0
 45
0.0
1001
ACAD
1000
AcDbSavedByObjectVersion
1070
     0
  0
VISUALSTYLE
  5
9A7
102
{ACAD_XDICTIONARY
360
A11
102
}
102
{ACAD_REACTORS
330
994
102
}
330
994
100
AcDbVisualStyle
  2
X-Ray
 70
    25
 71
     2
 72
     2
 73
     1
 90
        1
 40
0.5
 41
-30.0
 62
     5
 63
     7
 74
     1
 91
        0
 64
     7
 65
   257
 75
     1
175
     1
 42
1.0
 92
        8
 66
     7
 43
1.0
 76
     1
 77
     6
 78
     2
 67
     7
 79
     3
170
     0
171
     0
290
     0
174
     0
 93
       13
 44
0.0
173
     0
291
     0
 45
0.0
1001
ACAD
1000
AcDbSavedByObjectVersion
1070
     0
  0
DICTIONARYVAR
  5
9E0
102
{ACAD_REACTORS
330
9DB
102
}
330
9DB
100
DictionaryVariables
280
     0
  1
1:1
  0
DICTIONARYVAR
  5
9DD
102
{ACAD_REACTORS
330
9DB
102
}
330
9DB
100
DictionaryVariables
280
     0
  1
STANDARD
  0
DICTIONARYVAR
  5
9DC
102
{ACAD_REACTORS
330
9DB
102
}
330
9DB
100
DictionaryVariables
280
     0
  1
STANDARD
  0
DICTIONARYVAR
  5
9DE
102
{ACAD_REACTORS
330
9DB
102
}
330
9DB
100
DictionaryVariables
280
     0
  1
Imperial24
  0
DICTIONARYVAR
  5
9DF
102
{ACAD_REACTORS
330
9DB
102
}
330
9DB
100
DictionaryVariables
280
     0
  1
Imperial24
  0
DICTIONARYVAR
  5
9E3
102
{ACAD_REACTORS
330
9DB
102
}
330
9DB
100
DictionaryVariables
280
     0
  1
1
  0
DICTIONARYVAR
  5
9E2
102
{ACAD_REACTORS
330
9DB
102
}
330
9DB
100
DictionaryVariables
280
     0
  1
0
  0
DICTIONARYVAR
  5
9E1
102
{ACAD_REACTORS
330
9DB
102
}
330
9DB
100
DictionaryVariables
280
     0
  1
127
  0
DICTIONARYVAR
  5
9E4
102
{ACAD_REACTORS
330
9DB
102
}
330
9DB
100
DictionaryVariables
280
     0
  1
2
  0
DICTIONARY
  5
A21
330
9C7
100
AcDbDictionary
280
     1
281
     1
  3
ACAD_XREC_ROUNDTRIP
360
A22
  0
DICTIONARY
  5
A23
330
9C8
100
AcDbDictionary
280
     1
281
     1
  3
ACAD_XREC_ROUNDTRIP
360
A24
  0
DICTIONARY
  5
A25
330
9C9
100
AcDbDictionary
280
     1
281
     1
  3
ACAD_XREC_ROUNDTRIP
360
A26
  0
DICTIONARY
  5
985
330
984
100
AcDbDictionary
280
     1
281
     1
  3
ACAD_XREC_ROUNDTRIP
360
9EB
  3
BUMPTILE
360
987
  3
DIFFUSETILE
360
986
  3
OPACITYTILE
360
98A
  3
REFLECTIONTILE
360
989
  3
REFRACTIONTILE
360
98B
  3
SPECULARTILE
360
988
  0
DICTIONARY
  5
97D
330
97C
100
AcDbDictionary
280
     1
281
     1
  3
ACAD_XREC_ROUNDTRIP
360
9EA
  3
BUMPTILE
360
97F
  3
DIFFUSETILE
360
97E
  3
OPACITYTILE
360
982
  3
REFLECTIONTILE
360
981
  3
REFRACTIONTILE
360
983
  3
SPECULARTILE
360
980
  0
DICTIONARY
  5
98D
330
98C
100
AcDbDictionary
280
     1
281
     1
  3
ACAD_XREC_ROUNDTRIP
360
9EC
  3
BUMPTILE
360
98F
  3
DIFFUSETILE
360
98E
  3
OPACITYTILE
360
992
  3
REFLECTIONTILE
360
991
  3
REFRACTIONTILE
360
993
  3
SPECULARTILE
360
990
  0
DICTIONARY
  5
A1F
330
9C5
100
AcDbDictionary
280
     1
281
     1
  3
ACAD_XREC_ROUNDTRIP
360
A20
  0
DICTIONARY
  5
9E6
330
9AF
100
AcDbDictionary
280
     1
281
     1
  3
ACAD_ROUNDTRIP_2008_TABLESTYLE_CELLSTYLEMAP
360
9E7
  3
ACAD_XREC_ROUNDTRIP
360
A1D
  0
DICTIONARY
  5
9F7
330
99A
100
AcDbDictionary
280
     1
281
     1
  3
ACAD_XREC_ROUNDTRIP
360
9F8
  0
DICTIONARY
  5
9F5
330
999
100
AcDbDictionary
280
     1
281
     1
  3
ACAD_XREC_ROUNDTRIP
360
9F6
  0
DICTIONARY
  5
A03
330
9A0
100
AcDbDictionary
280
     1
281
     1
  3
ACAD_XREC_ROUNDTRIP
360
A04
  0
DICTIONARY
  5
A0B
330
9A4
100
AcDbDictionary
280
     1
281
     1
  3
ACAD_XREC_ROUNDTRIP
360
A0C
  0
DICTIONARY
  5
9FD
330
99D
100
AcDbDictionary
280
     1
281
     1
  3
ACAD_XREC_ROUNDTRIP
360
9FE
  0
DICTIONARY
  5
A01
330
99F
100
AcDbDictionary
280
     1
281
     1
  3
ACAD_XREC_ROUNDTRIP
360
A02
  0
DICTIONARY
  5
A1B
330
9AC
100
AcDbDictionary
280
     1
281
     1
  3
ACAD_XREC_ROUNDTRIP
360
A1C
  0
DICTIONARY
  5
A09
330
9A3
100
AcDbDictionary
280
     1
281
     1
  3
ACAD_XREC_ROUNDTRIP
360
A0A
  0
DICTIONARY
  5
9ED
330
995
100
AcDbDictionary
280
     1
281
     1
  3
ACAD_XREC_ROUNDTRIP
360
9EE
  0
DICTIONARY
  5
9EF
330
996
100
AcDbDictionary
280
     1
281
     1
  3
ACAD_XREC_ROUNDTRIP
360
9F0
  0
DICTIONARY
  5
9F1
330
997
100
AcDbDictionary
280
     1
281
     1
  3
ACAD_XREC_ROUNDTRIP
360
9F2
  0
DICTIONARY
  5
9F3
330
998
100
AcDbDictionary
280
     1
281
     1
  3
ACAD_XREC_ROUNDTRIP
360
9F4
  0
DICTIONARY
  5
9FB
330
99C
100
AcDbDictionary
280
     1
281
     1
  3
ACAD_XREC_ROUNDTRIP
360
9FC
  0
DICTIONARY
  5
A17
330
9AA
100
AcDbDictionary
280
     1
281
     1
  3
ACAD_XREC_ROUNDTRIP
360
A18
  0
DICTIONARY
  5
A07
330
9A2
100
AcDbDictionary
280
     1
281
     1
  3
ACAD_XREC_ROUNDTRIP
360
A08
  0
DICTIONARY
  5
A19
330
9AB
100
AcDbDictionary
280
     1
281
     1
  3
ACAD_XREC_ROUNDTRIP
360
A1A
  0
DICTIONARY
  5
9FF
330
99E
100
AcDbDictionary
280
     1
281
     1
  3
ACAD_XREC_ROUNDTRIP
360
A00
  0
DICTIONARY
  5
A15
330
9A9
100
AcDbDictionary
280
     1
281
     1
  3
ACAD_XREC_ROUNDTRIP
360
A16
  0
DICTIONARY
  5
A13
330
9A8
100
AcDbDictionary
280
     1
281
     1
  3
ACAD_XREC_ROUNDTRIP
360
A14
  0
DICTIONARY
  5
A0D
330
9A5
100
AcDbDictionary
280
     1
281
     1
  3
ACAD_XREC_ROUNDTRIP
360
A0E
  0
DICTIONARY
  5
A0F
330
9A6
100
AcDbDictionary
280
     1
281
     1
  3
ACAD_XREC_ROUNDTRIP
360
A10
  0
DICTIONARY
  5
A05
330
9A1
100
AcDbDictionary
280
     1
281
     1
  3
ACAD_XREC_ROUNDTRIP
360
A06
  0
DICTIONARY
  5
9F9
330
99B
100
AcDbDictionary
280
     1
281
     1
  3
ACAD_XREC_ROUNDTRIP
360
9FA
  0
DICTIONARY
  5
A11
330
9A7
100
AcDbDictionary
280
     1
281
     1
  3
ACAD_XREC_ROUNDTRIP
360
A12
  0
XRECORD
  5
A22
102
{ACAD_REACTORS
330
A21
102
}
330
A21
100
AcDbXrecord
280
     1
102
DISPLAYNAME
  1
Imperial24
102
FLAGS
 90
        0
  0
XRECORD
  5
A24
102
{ACAD_REACTORS
330
A23
102
}
330
A23
100
AcDbXrecord
280
     1
102
SHADEPLOT
 70
     0
102
SHADEPLOTRESLEVEL
 70
     2
102
SHADEPLOTCUSTOMDPI
 70
   300
  0
XRECORD
  5
A26
102
{ACAD_REACTORS
330
A25
102
}
330
A25
100
AcDbXrecord
280
     1
102
SHADEPLOT
 70
     0
102
SHADEPLOTRESLEVEL
 70
     2
102
SHADEPLOTCUSTOMDPI
 70
   300
  0
XRECORD
  5
9EB
102
{ACAD_REACTORS
330
985
102
}
330
985
100
AcDbXrecord
280
     1
102
MATERIAL
148
0.0
149
0.0
149
0.0
 93
        0
 94
      127
282
     0
 72
     0
 77
     0
171
     0
175
     0
179
     0
273
     0
  0
XRECORD
  5
987
102
{ACAD_REACTORS
330
985
102
}
330
985
100
AcDbXrecord
280
     1
270
     1
271
     1
  0
XRECORD
  5
986
102
{ACAD_REACTORS
330
985
102
}
330
985
100
AcDbXrecord
280
     1
270
     1
271
     1
  0
XRECORD
  5
98A
102
{ACAD_REACTORS
330
985
102
}
330
985
100
AcDbXrecord
280
     1
270
     1
271
     1
  0
XRECORD
  5
989
102
{ACAD_REACTORS
330
985
102
}
330
985
100
AcDbXrecord
280
     1
270
     1
271
     1
  0
XRECORD
  5
98B
102
{ACAD_REACTORS
330
985
102
}
330
985
100
AcDbXrecord
280
     1
270
     1
271
     1
  0
XRECORD
  5
988
102
{ACAD_REACTORS
330
985
102
}
330
985
100
AcDbXrecord
280
     1
270
     1
271
     1
  0
XRECORD
  5
9EA
102
{ACAD_REACTORS
330
97D
102
}
330
97D
100
AcDbXrecord
280
     1
102
MATERIAL
148
0.0
149
0.0
149
0.0
 93
        0
 94
      127
282
     0
 72
     0
 77
     0
171
     0
175
     0
179
     0
273
     0
  0
XRECORD
  5
97F
102
{ACAD_REACTORS
330
97D
102
}
330
97D
100
AcDbXrecord
280
     1
270
     1
271
     1
  0
XRECORD
  5
97E
102
{ACAD_REACTORS
330
97D
102
}
330
97D
100
AcDbXrecord
280
     1
270
     1
271
     1
  0
XRECORD
  5
982
102
{ACAD_REACTORS
330
97D
102
}
330
97D
100
AcDbXrecord
280
     1
270
     1
271
     1
  0
XRECORD
  5
981
102
{ACAD_REACTORS
330
97D
102
}
330
97D
100
AcDbXrecord
280
     1
270
     1
271
     1
  0
XRECORD
  5
983
102
{ACAD_REACTORS
330
97D
102
}
330
97D
100
AcDbXrecord
280
     1
270
     1
271
     1
  0
XRECORD
  5
980
102
{ACAD_REACTORS
330
97D
102
}
330
97D
100
AcDbXrecord
280
     1
270
     1
271
     1
  0
XRECORD
  5
9EC
102
{ACAD_REACTORS
330
98D
102
}
330
98D
100
AcDbXrecord
280
     1
102
MATERIAL
148
0.0
149
0.0
149
0.0
 93
        0
 94
      127
282
     0
 72
     0
 77
     0
171
     0
175
     0
179
     0
273
     0
  0
XRECORD
  5
98F
102
{ACAD_REACTORS
330
98D
102
}
330
98D
100
AcDbXrecord
280
     1
270
     1
271
     1
  0
XRECORD
  5
98E
102
{ACAD_REACTORS
330
98D
102
}
330
98D
100
AcDbXrecord
280
     1
270
     1
271
     1
  0
XRECORD
  5
992
102
{ACAD_REACTORS
330
98D
102
}
330
98D
100
AcDbXrecord
280
     1
270
     1
271
     1
  0
XRECORD
  5
991
102
{ACAD_REACTORS
330
98D
102
}
330
98D
100
AcDbXrecord
280
     1
270
     1
271
     1
  0
XRECORD
  5
993
102
{ACAD_REACTORS
330
98D
102
}
330
98D
100
AcDbXrecord
280
     1
270
     1
271
     1
  0
XRECORD
  5
990
102
{ACAD_REACTORS
330
98D
102
}
330
98D
100
AcDbXrecord
280
     1
270
     1
271
     1
  0
XRECORD
  5
A20
102
{ACAD_REACTORS
330
A1F
102
}
330
A1F
100
AcDbXrecord
280
     1
102
DISPLAYNAME
  1
Imperial24
102
FLAGS
 90
        0
  0
CELLSTYLEMAP
  5
9E7
102
{ACAD_REACTORS
330
9E6
102
}
330
9E6
100
AcDbCellStyleMap
 90
        3
300
CELLSTYLE
  1
TABLEFORMAT_BEGIN
 90
        5
170
     1
 91
        0
 92
    32768
 62
   257
 93
        1
300
CONTENTFORMAT
  1
CONTENTFORMAT_BEGIN
 90
        0
 91
        0
 92
      512
 93
        0
300

 40
0.0
140
1.0
 94
        5
 62
     0
340
F
144
0.25
309
CONTENTFORMAT_END
171
     0
 94
        0
309
TABLEFORMAT_END
  1
CELLSTYLE_BEGIN
 90
        1
 91
        1
300
_TITLE
309
CELLSTYLE_END
300
CELLSTYLE
  1
TABLEFORMAT_BEGIN
 90
        5
170
     1
 91
        0
 92
        0
 62
   257
 93
        1
300
CONTENTFORMAT
  1
CONTENTFORMAT_BEGIN
 90
        0
 91
        0
 92
      512
 93
        0
300

 40
0.0
140
1.0
 94
        5
 62
     0
340
F
144
0.18
309
CONTENTFORMAT_END
171
     0
 94
        0
309
TABLEFORMAT_END
  1
CELLSTYLE_BEGIN
 90
        2
 91
        1
300
_HEADER
309
CELLSTYLE_END
300
CELLSTYLE
  1
TABLEFORMAT_BEGIN
 90
        5
170
     1
 91
        0
 92
        0
 62
   257
 93
        1
300
CONTENTFORMAT
  1
CONTENTFORMAT_BEGIN
 90
        0
 91
        0
 92
      512
 93
        0
300

 40
0.0
140
1.0
 94
        2
 62
     0
340
F
144
0.18
309
CONTENTFORMAT_END
171
     0
 94
        0
309
TABLEFORMAT_END
  1
CELLSTYLE_BEGIN
 90
        3
 91
        2
300
_DATA
309
CELLSTYLE_END
  0
XRECORD
  5
A1D
102
{ACAD_REACTORS
330
9E6
102
}
330
9E6
100
AcDbXrecord
280
     1
102
ACAD_ROUNDTRIP_PRE2007_TABLESTYLE
 90
      512
 91
        0
  1

 92
      512
 93
        0
  2

 94
      512
 95
        0
  3

  0
XRECORD
  5
9F8
102
{ACAD_REACTORS
330
9F7
102
}
330
9F7
100
AcDbXrecord
280
     1
102
RTVSPost2010Prop28
280
     1
102
RTVSPost2010PropOp28
 70
     1
102
RTVSPost2010Prop29
280
     1
102
RTVSPost2010PropOp29
 70
     1
102
RTVSPost2010Prop30
280
     0
102
RTVSPost2010PropOp30
 70
     1
102
RTVSPost2010Prop31
280
     0
102
RTVSPost2010PropOp31
 70
     1
102
RTVSPost2010Prop32
280
     0
102
RTVSPost2010PropOp32
 70
     1
102
RTVSPost2010Prop33
280
     0
102
RTVSPost2010PropOp33
 70
     1
102
RTVSPost2010Prop34
280
     0
102
RTVSPost2010PropOp34
 70
     1
102
RTVSPost2010Prop35
280
     0
102
RTVSPost2010PropOp35
 70
     1
102
RTVSPost2010Prop36
280
     0
102
RTVSPost2010PropOp36
 70
     1
102
RTVSPost2010Prop37
 90
       50
102
RTVSPost2010PropOp37
 70
     1
102
RTVSPost2010Prop38
140
0.0
102
RTVSPost2010PropOp38
 70
     1
102
RTVSPost2010Prop39
140
1.0
102
RTVSPost2010PropOp39
 70
     1
102
RTVSPost2010Prop40
 90
        0
102
RTVSPost2010PropOp40
 70
     1
102
RTVSPost2010Prop41ColorIndex
 90
       18
102
RTVSPost2010Prop41ColorRGB
 90
        0
102
RTVSPost2010PropOp41
 70
     1
102
RTVSPost2010Prop42
 90
       50
102
RTVSPost2010PropOp42
 70
     1
102
RTVSPost2010Prop43
 90
        3
102
RTVSPost2010PropOp43
 70
     1
102
RTVSPost2010Prop44ColorIndex
 90
        5
102
RTVSPost2010Prop44ColorRGB
 90
      255
102
RTVSPost2010PropOp44
 70
     1
102
RTVSPost2010Prop45
280
     0
102
RTVSPost2010PropOp45
 70
     1
102
RTVSPost2010Prop46
 90
       50
102
RTVSPost2010PropOp46
 70
     1
102
RTVSPost2010Prop47
 90
       50
102
RTVSPost2010PropOp47
 70
     1
102
RTVSPost2010Prop48
 90
       50
102
RTVSPost2010PropOp48
 70
     1
102
RTVSPost2010Prop49
280
     0
102
RTVSPost2010PropOp49
 70
     1
102
RTVSPost2010Prop50
 90
       50
102
RTVSPost2010PropOp50
 70
     1
102
RTVSPost2010Prop51ColorIndex
 90
      256
102
RTVSPost2010Prop51ColorRGB
 90
-16777216
102
RTVSPost2010PropOp51
 70
     0
102
RTVSPost2010Prop52
140
1.0
102
RTVSPost2010PropOp52
 70
     0
102
RTVSPost2010Prop53
 90
        2
102
RTVSPost2010PropOp53
 70
     1
102
RTVSPost2010Prop54
  1
strokes_ogs.tif
102
RTVSPost2010PropOp54
 70
     1
102
RTVSPost2010Prop55
280
     0
102
RTVSPost2010PropOp55
 70
     1
102
RTVSPost2010Prop56
140
1.0
102
RTVSPost2010PropOp56
 70
     1
102
RTVSPost2010Prop57
140
1.0
102
RTVSPost2010PropOp57
 70
     1
102
RTVSPropertyOp0
 70
     1
102
RTVSPropertyOp1
 70
     1
102
RTVSPropertyOp2
 70
     1
102
RTVSPropertyOp3
 70
     1
102
RTVSPropertyOp4
 70
     1
102
RTVSPropertyOp5
 70
     1
102
RTVSPropertyOp6
 70
     1
102
RTVSPropertyOp7
 70
     1
102
RTVSPropertyOp8
 70
     1
102
RTVSPropertyOp9
 70
     1
102
RTVSPropertyOp10
 70
     1
102
RTVSPropertyOp11
 70
     1
102
RTVSPropertyOp12
 70
     1
102
RTVSPropertyOp13
 70
     1
102
RTVSPropertyOp14
 70
     1
102
RTVSPropertyOp15
 70
     1
102
RTVSPropertyOp16
 70
     1
102
RTVSPropertyOp17
 70
     1
102
RTVSPropertyOp18
 70
     1
102
RTVSPropertyOp19
 70
     1
102
RTVSPropertyOp20
 70
     1
102
RTVSPropertyOp21
 70
     1
102
RTVSPropertyOp22
 70
     1
102
RTVSPropertyOp23
 70
     1
102
RTVSPropertyOp24
 70
     1
102
RTVSPropertyOp25
 70
     1
102
RTVSPropertyOp26
 70
     1
102
RTVSPropertyOp27
 70
     1
102
RTVSPropertyOp28
 70
     1
102
RTVSPropertyOp29
 70
     1
102
RTVSPropertyOp30
 70
     1
102
RTVSPropertyOp31
 70
     1
102
RTVSPropertyOp32
 70
     1
102
RTVSPropertyOp33
 70
     1
102
RTVSPropertyOp34
 70
     1
102
RTVSPropertyOp35
 70
     1
102
RTVSPropertyOp36
 70
     1
102
RTVSPropertyOp37
 70
     1
102
RTVSPropertyOp38
 70
     1
102
RTVSPropertyOp39
 70
     1
102
RTVSPropertyOp40
 70
     1
102
RTVSPropertyOp41
 70
     1
102
RTVSPropertyOp42
 70
     1
102
RTVSPropertyOp43
 70
     1
102
RTVSPropertyOp44
 70
     1
102
RTVSPropertyOp45
 70
     1
102
RTVSPropertyOp46
 70
     1
102
RTVSPropertyOp47
 70
     1
102
RTVSPropertyOp48
 70
     1
102
RTVSPropertyOp49
 70
     1
102
RTVSPropertyOp50
 70
     1
102
RTVSPropertyOp51
 70
     0
102
RTVSPropertyOp52
 70
     0
102
RTVSPropertyOp53
 70
     1
102
RTVSPropertyOp54
 70
     1
102
RTVSPropertyOp55
 70
     1
102
RTVSPropertyOp56
 70
     1
102
RTVSPropertyOp57
 70
     1
102
RTVSPropertyOp58
 70
     1
102
RTVSPropertyOp59
 70
     1
102
RTVSPropertyOp60
 70
     1
102
RTVSPropertyOp61
 70
     1
102
RTVSPropertyOp62
 70
     1
  0
XRECORD
  5
9F6
102
{ACAD_REACTORS
330
9F5
102
}
330
9F5
100
AcDbXrecord
280
     1
102
RTVSPost2010Prop28
280
     0
102
RTVSPost2010PropOp28
 70
     1
102
RTVSPost2010Prop29
280
     1
102
RTVSPost2010PropOp29
 70
     1
102
RTVSPost2010Prop30
280
     1
102
RTVSPost2010PropOp30
 70
     1
102
RTVSPost2010Prop31
280
     0
102
RTVSPost2010PropOp31
 70
     1
102
RTVSPost2010Prop32
280
     0
102
RTVSPost2010PropOp32
 70
     1
102
RTVSPost2010Prop33
280
     0
102
RTVSPost2010PropOp33
 70
     1
102
RTVSPost2010Prop34
280
     0
102
RTVSPost2010PropOp34
 70
     1
102
RTVSPost2010Prop35
280
     0
102
RTVSPost2010PropOp35
 70
     1
102
RTVSPost2010Prop36
280
     0
102
RTVSPost2010PropOp36
 70
     1
102
RTVSPost2010Prop37
 90
       50
102
RTVSPost2010PropOp37
 70
     1
102
RTVSPost2010Prop38
140
0.0
102
RTVSPost2010PropOp38
 70
     1
102
RTVSPost2010Prop39
140
1.0
102
RTVSPost2010PropOp39
 70
     1
102
RTVSPost2010Prop40
 90
        0
102
RTVSPost2010PropOp40
 70
     1
102
RTVSPost2010Prop41ColorIndex
 90
       18
102
RTVSPost2010Prop41ColorRGB
 90
        0
102
RTVSPost2010PropOp41
 70
     1
102
RTVSPost2010Prop42
 90
       50
102
RTVSPost2010PropOp42
 70
     1
102
RTVSPost2010Prop43
 90
        3
102
RTVSPost2010PropOp43
 70
     1
102
RTVSPost2010Prop44ColorIndex
 90
        5
102
RTVSPost2010Prop44ColorRGB
 90
      255
102
RTVSPost2010PropOp44
 70
     1
102
RTVSPost2010Prop45
280
     0
102
RTVSPost2010PropOp45
 70
     1
102
RTVSPost2010Prop46
 90
       50
102
RTVSPost2010PropOp46
 70
     1
102
RTVSPost2010Prop47
 90
       50
102
RTVSPost2010PropOp47
 70
     1
102
RTVSPost2010Prop48
 90
       50
102
RTVSPost2010PropOp48
 70
     1
102
RTVSPost2010Prop49
280
     0
102
RTVSPost2010PropOp49
 70
     1
102
RTVSPost2010Prop50
 90
       50
102
RTVSPost2010PropOp50
 70
     1
102
RTVSPost2010Prop51ColorIndex
 90
      256
102
RTVSPost2010Prop51ColorRGB
 90
-16777216
102
RTVSPost2010PropOp51
 70
     0
102
RTVSPost2010Prop52
140
1.0
102
RTVSPost2010PropOp52
 70
     0
102
RTVSPost2010Prop53
 90
        2
102
RTVSPost2010PropOp53
 70
     1
102
RTVSPost2010Prop54
  1
strokes_ogs.tif
102
RTVSPost2010PropOp54
 70
     1
102
RTVSPost2010Prop55
280
     0
102
RTVSPost2010PropOp55
 70
     1
102
RTVSPost2010Prop56
140
1.0
102
RTVSPost2010PropOp56
 70
     1
102
RTVSPost2010Prop57
140
1.0
102
RTVSPost2010PropOp57
 70
     1
102
RTVSPropertyOp0
 70
     1
102
RTVSPropertyOp1
 70
     1
102
RTVSPropertyOp2
 70
     1
102
RTVSPropertyOp3
 70
     1
102
RTVSPropertyOp4
 70
     1
102
RTVSPropertyOp5
 70
     1
102
RTVSPropertyOp6
 70
     1
102
RTVSPropertyOp7
 70
     1
102
RTVSPropertyOp8
 70
     1
102
RTVSPropertyOp9
 70
     1
102
RTVSPropertyOp10
 70
     1
102
RTVSPropertyOp11
 70
     1
102
RTVSPropertyOp12
 70
     1
102
RTVSPropertyOp13
 70
     1
102
RTVSPropertyOp14
 70
     1
102
RTVSPropertyOp15
 70
     1
102
RTVSPropertyOp16
 70
     1
102
RTVSPropertyOp17
 70
     1
102
RTVSPropertyOp18
 70
     1
102
RTVSPropertyOp19
 70
     1
102
RTVSPropertyOp20
 70
     1
102
RTVSPropertyOp21
 70
     1
102
RTVSPropertyOp22
 70
     1
102
RTVSPropertyOp23
 70
     1
102
RTVSPropertyOp24
 70
     1
102
RTVSPropertyOp25
 70
     1
102
RTVSPropertyOp26
 70
     1
102
RTVSPropertyOp27
 70
     1
102
RTVSPropertyOp28
 70
     1
102
RTVSPropertyOp29
 70
     1
102
RTVSPropertyOp30
 70
     1
102
RTVSPropertyOp31
 70
     1
102
RTVSPropertyOp32
 70
     1
102
RTVSPropertyOp33
 70
     1
102
RTVSPropertyOp34
 70
     1
102
RTVSPropertyOp35
 70
     1
102
RTVSPropertyOp36
 70
     1
102
RTVSPropertyOp37
 70
     1
102
RTVSPropertyOp38
 70
     1
102
RTVSPropertyOp39
 70
     1
102
RTVSPropertyOp40
 70
     1
102
RTVSPropertyOp41
 70
     1
102
RTVSPropertyOp42
 70
     1
102
RTVSPropertyOp43
 70
     1
102
RTVSPropertyOp44
 70
     1
102
RTVSPropertyOp45
 70
     1
102
RTVSPropertyOp46
 70
     1
102
RTVSPropertyOp47
 70
     1
102
RTVSPropertyOp48
 70
     1
102
RTVSPropertyOp49
 70
     1
102
RTVSPropertyOp50
 70
     1
102
RTVSPropertyOp51
 70
     0
102
RTVSPropertyOp52
 70
     0
102
RTVSPropertyOp53
 70
     1
102
RTVSPropertyOp54
 70
     1
102
RTVSPropertyOp55
 70
     1
102
RTVSPropertyOp56
 70
     1
102
RTVSPropertyOp57
 70
     1
102
RTVSPropertyOp58
 70
     1
102
RTVSPropertyOp59
 70
     1
102
RTVSPropertyOp60
 70
     1
102
RTVSPropertyOp61
 70
     1
102
RTVSPropertyOp62
 70
     1
  0
XRECORD
  5
A04
102
{ACAD_REACTORS
330
A03
102
}
330
A03
100
AcDbXrecord
280
     1
102
RTVSPost2010Prop28
280
     0
102
RTVSPost2010PropOp28
 70
     1
102
RTVSPost2010Prop29
280
     1
102
RTVSPost2010PropOp29
 70
     1
102
RTVSPost2010Prop30
280
     1
102
RTVSPost2010PropOp30
 70
     1
102
RTVSPost2010Prop31
280
     0
102
RTVSPost2010PropOp31
 70
     1
102
RTVSPost2010Prop32
280
     0
102
RTVSPost2010PropOp32
 70
     1
102
RTVSPost2010Prop33
280
     0
102
RTVSPost2010PropOp33
 70
     1
102
RTVSPost2010Prop34
280
     0
102
RTVSPost2010PropOp34
 70
     1
102
RTVSPost2010Prop35
280
     0
102
RTVSPost2010PropOp35
 70
     1
102
RTVSPost2010Prop36
280
     0
102
RTVSPost2010PropOp36
 70
     1
102
RTVSPost2010Prop37
 90
       50
102
RTVSPost2010PropOp37
 70
     1
102
RTVSPost2010Prop38
140
0.0
102
RTVSPost2010PropOp38
 70
     1
102
RTVSPost2010Prop39
140
1.0
102
RTVSPost2010PropOp39
 70
     1
102
RTVSPost2010Prop40
 90
        0
102
RTVSPost2010PropOp40
 70
     1
102
RTVSPost2010Prop41ColorIndex
 90
       18
102
RTVSPost2010Prop41ColorRGB
 90
        0
102
RTVSPost2010PropOp41
 70
     1
102
RTVSPost2010Prop42
 90
       50
102
RTVSPost2010PropOp42
 70
     1
102
RTVSPost2010Prop43
 90
        3
102
RTVSPost2010PropOp43
 70
     1
102
RTVSPost2010Prop44ColorIndex
 90
        5
102
RTVSPost2010Prop44ColorRGB
 90
      255
102
RTVSPost2010PropOp44
 70
     1
102
RTVSPost2010Prop45
280
     0
102
RTVSPost2010PropOp45
 70
     1
102
RTVSPost2010Prop46
 90
       50
102
RTVSPost2010PropOp46
 70
     1
102
RTVSPost2010Prop47
 90
       50
102
RTVSPost2010PropOp47
 70
     1
102
RTVSPost2010Prop48
 90
       50
102
RTVSPost2010PropOp48
 70
     1
102
RTVSPost2010Prop49
280
     0
102
RTVSPost2010PropOp49
 70
     1
102
RTVSPost2010Prop50
 90
       50
102
RTVSPost2010PropOp50
 70
     1
102
RTVSPost2010Prop51ColorIndex
 90
      256
102
RTVSPost2010Prop51ColorRGB
 90
-16777216
102
RTVSPost2010PropOp51
 70
     0
102
RTVSPost2010Prop52
140
1.0
102
RTVSPost2010PropOp52
 70
     0
102
RTVSPost2010Prop53
 90
        2
102
RTVSPost2010PropOp53
 70
     1
102
RTVSPost2010Prop54
  1
strokes_ogs.tif
102
RTVSPost2010PropOp54
 70
     1
102
RTVSPost2010Prop55
280
     0
102
RTVSPost2010PropOp55
 70
     1
102
RTVSPost2010Prop56
140
1.0
102
RTVSPost2010PropOp56
 70
     1
102
RTVSPost2010Prop57
140
1.0
102
RTVSPost2010PropOp57
 70
     1
102
RTVSPropertyOp0
 70
     1
102
RTVSPropertyOp1
 70
     1
102
RTVSPropertyOp2
 70
     1
102
RTVSPropertyOp3
 70
     1
102
RTVSPropertyOp4
 70
     1
102
RTVSPropertyOp5
 70
     1
102
RTVSPropertyOp6
 70
     1
102
RTVSPropertyOp7
 70
     1
102
RTVSPropertyOp8
 70
     1
102
RTVSPropertyOp9
 70
     1
102
RTVSPropertyOp10
 70
     1
102
RTVSPropertyOp11
 70
     1
102
RTVSPropertyOp12
 70
     1
102
RTVSPropertyOp13
 70
     1
102
RTVSPropertyOp14
 70
     1
102
RTVSPropertyOp15
 70
     1
102
RTVSPropertyOp16
 70
     1
102
RTVSPropertyOp17
 70
     1
102
RTVSPropertyOp18
 70
     1
102
RTVSPropertyOp19
 70
     1
102
RTVSPropertyOp20
 70
     1
102
RTVSPropertyOp21
 70
     1
102
RTVSPropertyOp22
 70
     1
102
RTVSPropertyOp23
 70
     1
102
RTVSPropertyOp24
 70
     1
102
RTVSPropertyOp25
 70
     1
102
RTVSPropertyOp26
 70
     1
102
RTVSPropertyOp27
 70
     1
102
RTVSPropertyOp28
 70
     1
102
RTVSPropertyOp29
 70
     1
102
RTVSPropertyOp30
 70
     1
102
RTVSPropertyOp31
 70
     1
102
RTVSPropertyOp32
 70
     1
102
RTVSPropertyOp33
 70
     1
102
RTVSPropertyOp34
 70
     1
102
RTVSPropertyOp35
 70
     1
102
RTVSPropertyOp36
 70
     1
102
RTVSPropertyOp37
 70
     1
102
RTVSPropertyOp38
 70
     1
102
RTVSPropertyOp39
 70
     1
102
RTVSPropertyOp40
 70
     1
102
RTVSPropertyOp41
 70
     1
102
RTVSPropertyOp42
 70
     1
102
RTVSPropertyOp43
 70
     1
102
RTVSPropertyOp44
 70
     1
102
RTVSPropertyOp45
 70
     1
102
RTVSPropertyOp46
 70
     1
102
RTVSPropertyOp47
 70
     1
102
RTVSPropertyOp48
 70
     1
102
RTVSPropertyOp49
 70
     1
102
RTVSPropertyOp50
 70
     1
102
RTVSPropertyOp51
 70
     0
102
RTVSPropertyOp52
 70
     0
102
RTVSPropertyOp53
 70
     1
102
RTVSPropertyOp54
 70
     1
102
RTVSPropertyOp55
 70
     1
102
RTVSPropertyOp56
 70
     1
102
RTVSPropertyOp57
 70
     1
102
RTVSPropertyOp58
 70
     1
102
RTVSPropertyOp59
 70
     1
102
RTVSPropertyOp60
 70
     1
102
RTVSPropertyOp61
 70
     1
102
RTVSPropertyOp62
 70
     1
  0
XRECORD
  5
A0C
102
{ACAD_REACTORS
330
A0B
102
}
330
A0B
100
AcDbXrecord
280
     1
102
RTVSPost2010Prop28
280
     0
102
RTVSPost2010PropOp28
 70
     1
102
RTVSPost2010Prop29
280
     1
102
RTVSPost2010PropOp29
 70
     1
102
RTVSPost2010Prop30
280
     1
102
RTVSPost2010PropOp30
 70
     1
102
RTVSPost2010Prop31
280
     0
102
RTVSPost2010PropOp31
 70
     1
102
RTVSPost2010Prop32
280
     0
102
RTVSPost2010PropOp32
 70
     1
102
RTVSPost2010Prop33
280
     0
102
RTVSPost2010PropOp33
 70
     1
102
RTVSPost2010Prop34
280
     0
102
RTVSPost2010PropOp34
 70
     1
102
RTVSPost2010Prop35
280
     0
102
RTVSPost2010PropOp35
 70
     1
102
RTVSPost2010Prop36
280
     0
102
RTVSPost2010PropOp36
 70
     1
102
RTVSPost2010Prop37
 90
       50
102
RTVSPost2010PropOp37
 70
     1
102
RTVSPost2010Prop38
140
0.0
102
RTVSPost2010PropOp38
 70
     1
102
RTVSPost2010Prop39
140
1.0
102
RTVSPost2010PropOp39
 70
     1
102
RTVSPost2010Prop40
 90
        0
102
RTVSPost2010PropOp40
 70
     1
102
RTVSPost2010Prop41ColorIndex
 90
       18
102
RTVSPost2010Prop41ColorRGB
 90
        0
102
RTVSPost2010PropOp41
 70
     1
102
RTVSPost2010Prop42
 90
       50
102
RTVSPost2010PropOp42
 70
     1
102
RTVSPost2010Prop43
 90
        3
102
RTVSPost2010PropOp43
 70
     1
102
RTVSPost2010Prop44ColorIndex
 90
        5
102
RTVSPost2010Prop44ColorRGB
 90
      255
102
RTVSPost2010PropOp44
 70
     1
102
RTVSPost2010Prop45
280
     0
102
RTVSPost2010PropOp45
 70
     1
102
RTVSPost2010Prop46
 90
       50
102
RTVSPost2010PropOp46
 70
     1
102
RTVSPost2010Prop47
 90
       50
102
RTVSPost2010PropOp47
 70
     1
102
RTVSPost2010Prop48
 90
       50
102
RTVSPost2010PropOp48
 70
     1
102
RTVSPost2010Prop49
280
     0
102
RTVSPost2010PropOp49
 70
     1
102
RTVSPost2010Prop50
 90
       50
102
RTVSPost2010PropOp50
 70
     1
102
RTVSPost2010Prop51ColorIndex
 90
      256
102
RTVSPost2010Prop51ColorRGB
 90
-16777216
102
RTVSPost2010PropOp51
 70
     0
102
RTVSPost2010Prop52
140
1.0
102
RTVSPost2010PropOp52
 70
     0
102
RTVSPost2010Prop53
 90
        2
102
RTVSPost2010PropOp53
 70
     1
102
RTVSPost2010Prop54
  1
strokes_ogs.tif
102
RTVSPost2010PropOp54
 70
     1
102
RTVSPost2010Prop55
280
     0
102
RTVSPost2010PropOp55
 70
     1
102
RTVSPost2010Prop56
140
1.0
102
RTVSPost2010PropOp56
 70
     1
102
RTVSPost2010Prop57
140
1.0
102
RTVSPost2010PropOp57
 70
     1
102
RTVSPropertyOp0
 70
     1
102
RTVSPropertyOp1
 70
     1
102
RTVSPropertyOp2
 70
     1
102
RTVSPropertyOp3
 70
     1
102
RTVSPropertyOp4
 70
     1
102
RTVSPropertyOp5
 70
     1
102
RTVSPropertyOp6
 70
     1
102
RTVSPropertyOp7
 70
     1
102
RTVSPropertyOp8
 70
     1
102
RTVSPropertyOp9
 70
     1
102
RTVSPropertyOp10
 70
     1
102
RTVSPropertyOp11
 70
     1
102
RTVSPropertyOp12
 70
     1
102
RTVSPropertyOp13
 70
     1
102
RTVSPropertyOp14
 70
     1
102
RTVSPropertyOp15
 70
     1
102
RTVSPropertyOp16
 70
     1
102
RTVSPropertyOp17
 70
     1
102
RTVSPropertyOp18
 70
     1
102
RTVSPropertyOp19
 70
     1
102
RTVSPropertyOp20
 70
     1
102
RTVSPropertyOp21
 70
     1
102
RTVSPropertyOp22
 70
     1
102
RTVSPropertyOp23
 70
     1
102
RTVSPropertyOp24
 70
     1
102
RTVSPropertyOp25
 70
     1
102
RTVSPropertyOp26
 70
     1
102
RTVSPropertyOp27
 70
     1
102
RTVSPropertyOp28
 70
     1
102
RTVSPropertyOp29
 70
     1
102
RTVSPropertyOp30
 70
     1
102
RTVSPropertyOp31
 70
     1
102
RTVSPropertyOp32
 70
     1
102
RTVSPropertyOp33
 70
     1
102
RTVSPropertyOp34
 70
     1
102
RTVSPropertyOp35
 70
     1
102
RTVSPropertyOp36
 70
     1
102
RTVSPropertyOp37
 70
     1
102
RTVSPropertyOp38
 70
     1
102
RTVSPropertyOp39
 70
     1
102
RTVSPropertyOp40
 70
     1
102
RTVSPropertyOp41
 70
     1
102
RTVSPropertyOp42
 70
     1
102
RTVSPropertyOp43
 70
     1
102
RTVSPropertyOp44
 70
     1
102
RTVSPropertyOp45
 70
     1
102
RTVSPropertyOp46
 70
     1
102
RTVSPropertyOp47
 70
     1
102
RTVSPropertyOp48
 70
     1
102
RTVSPropertyOp49
 70
     1
102
RTVSPropertyOp50
 70
     1
102
RTVSPropertyOp51
 70
     0
102
RTVSPropertyOp52
 70
     0
102
RTVSPropertyOp53
 70
     1
102
RTVSPropertyOp54
 70
     1
102
RTVSPropertyOp55
 70
     1
102
RTVSPropertyOp56
 70
     1
102
RTVSPropertyOp57
 70
     1
102
RTVSPropertyOp58
 70
     1
102
RTVSPropertyOp59
 70
     1
102
RTVSPropertyOp60
 70
     1
102
RTVSPropertyOp61
 70
     1
102
RTVSPropertyOp62
 70
     1
  0
XRECORD
  5
9FE
102
{ACAD_REACTORS
330
9FD
102
}
330
9FD
100
AcDbXrecord
280
     1
102
RTVSPost2010Prop28
280
     0
102
RTVSPost2010PropOp28
 70
     1
102
RTVSPost2010Prop29
280
     1
102
RTVSPost2010PropOp29
 70
     1
102
RTVSPost2010Prop30
280
     1
102
RTVSPost2010PropOp30
 70
     1
102
RTVSPost2010Prop31
280
     0
102
RTVSPost2010PropOp31
 70
     1
102
RTVSPost2010Prop32
280
     0
102
RTVSPost2010PropOp32
 70
     1
102
RTVSPost2010Prop33
280
     0
102
RTVSPost2010PropOp33
 70
     1
102
RTVSPost2010Prop34
280
     0
102
RTVSPost2010PropOp34
 70
     1
102
RTVSPost2010Prop35
280
     0
102
RTVSPost2010PropOp35
 70
     1
102
RTVSPost2010Prop36
280
     0
102
RTVSPost2010PropOp36
 70
     1
102
RTVSPost2010Prop37
 90
       50
102
RTVSPost2010PropOp37
 70
     1
102
RTVSPost2010Prop38
140
0.0
102
RTVSPost2010PropOp38
 70
     1
102
RTVSPost2010Prop39
140
1.0
102
RTVSPost2010PropOp39
 70
     1
102
RTVSPost2010Prop40
 90
        0
102
RTVSPost2010PropOp40
 70
     1
102
RTVSPost2010Prop41ColorIndex
 90
       18
102
RTVSPost2010Prop41ColorRGB
 90
        0
102
RTVSPost2010PropOp41
 70
     1
102
RTVSPost2010Prop42
 90
       50
102
RTVSPost2010PropOp42
 70
     1
102
RTVSPost2010Prop43
 90
        3
102
RTVSPost2010PropOp43
 70
     1
102
RTVSPost2010Prop44ColorIndex
 90
        5
102
RTVSPost2010Prop44ColorRGB
 90
      255
102
RTVSPost2010PropOp44
 70
     1
102
RTVSPost2010Prop45
280
     0
102
RTVSPost2010PropOp45
 70
     1
102
RTVSPost2010Prop46
 90
       50
102
RTVSPost2010PropOp46
 70
     1
102
RTVSPost2010Prop47
 90
       50
102
RTVSPost2010PropOp47
 70
     1
102
RTVSPost2010Prop48
 90
       50
102
RTVSPost2010PropOp48
 70
     1
102
RTVSPost2010Prop49
280
     0
102
RTVSPost2010PropOp49
 70
     1
102
RTVSPost2010Prop50
 90
       50
102
RTVSPost2010PropOp50
 70
     1
102
RTVSPost2010Prop51ColorIndex
 90
      256
102
RTVSPost2010Prop51ColorRGB
 90
-16777216
102
RTVSPost2010PropOp51
 70
     0
102
RTVSPost2010Prop52
140
1.0
102
RTVSPost2010PropOp52
 70
     0
102
RTVSPost2010Prop53
 90
        2
102
RTVSPost2010PropOp53
 70
     1
102
RTVSPost2010Prop54
  1
strokes_ogs.tif
102
RTVSPost2010PropOp54
 70
     1
102
RTVSPost2010Prop55
280
     0
102
RTVSPost2010PropOp55
 70
     1
102
RTVSPost2010Prop56
140
1.0
102
RTVSPost2010PropOp56
 70
     1
102
RTVSPost2010Prop57
140
1.0
102
RTVSPost2010PropOp57
 70
     1
102
RTVSPropertyOp0
 70
     1
102
RTVSPropertyOp1
 70
     1
102
RTVSPropertyOp2
 70
     1
102
RTVSPropertyOp3
 70
     1
102
RTVSPropertyOp4
 70
     1
102
RTVSPropertyOp5
 70
     1
102
RTVSPropertyOp6
 70
     1
102
RTVSPropertyOp7
 70
     1
102
RTVSPropertyOp8
 70
     1
102
RTVSPropertyOp9
 70
     1
102
RTVSPropertyOp10
 70
     1
102
RTVSPropertyOp11
 70
     1
102
RTVSPropertyOp12
 70
     1
102
RTVSPropertyOp13
 70
     1
102
RTVSPropertyOp14
 70
     1
102
RTVSPropertyOp15
 70
     1
102
RTVSPropertyOp16
 70
     1
102
RTVSPropertyOp17
 70
     1
102
RTVSPropertyOp18
 70
     1
102
RTVSPropertyOp19
 70
     1
102
RTVSPropertyOp20
 70
     1
102
RTVSPropertyOp21
 70
     1
102
RTVSPropertyOp22
 70
     1
102
RTVSPropertyOp23
 70
     1
102
RTVSPropertyOp24
 70
     1
102
RTVSPropertyOp25
 70
     1
102
RTVSPropertyOp26
 70
     1
102
RTVSPropertyOp27
 70
     1
102
RTVSPropertyOp28
 70
     1
102
RTVSPropertyOp29
 70
     1
102
RTVSPropertyOp30
 70
     1
102
RTVSPropertyOp31
 70
     1
102
RTVSPropertyOp32
 70
     1
102
RTVSPropertyOp33
 70
     1
102
RTVSPropertyOp34
 70
     1
102
RTVSPropertyOp35
 70
     1
102
RTVSPropertyOp36
 70
     1
102
RTVSPropertyOp37
 70
     1
102
RTVSPropertyOp38
 70
     1
102
RTVSPropertyOp39
 70
     1
102
RTVSPropertyOp40
 70
     1
102
RTVSPropertyOp41
 70
     1
102
RTVSPropertyOp42
 70
     1
102
RTVSPropertyOp43
 70
     1
102
RTVSPropertyOp44
 70
     1
102
RTVSPropertyOp45
 70
     1
102
RTVSPropertyOp46
 70
     1
102
RTVSPropertyOp47
 70
     1
102
RTVSPropertyOp48
 70
     1
102
RTVSPropertyOp49
 70
     1
102
RTVSPropertyOp50
 70
     1
102
RTVSPropertyOp51
 70
     0
102
RTVSPropertyOp52
 70
     0
102
RTVSPropertyOp53
 70
     1
102
RTVSPropertyOp54
 70
     1
102
RTVSPropertyOp55
 70
     1
102
RTVSPropertyOp56
 70
     1
102
RTVSPropertyOp57
 70
     1
102
RTVSPropertyOp58
 70
     1
102
RTVSPropertyOp59
 70
     1
102
RTVSPropertyOp60
 70
     1
102
RTVSPropertyOp61
 70
     1
102
RTVSPropertyOp62
 70
     1
  0
XRECORD
  5
A02
102
{ACAD_REACTORS
330
A01
102
}
330
A01
100
AcDbXrecord
280
     1
102
RTVSPost2010Prop28
280
     0
102
RTVSPost2010PropOp28
 70
     1
102
RTVSPost2010Prop29
280
     1
102
RTVSPost2010PropOp29
 70
     1
102
RTVSPost2010Prop30
280
     1
102
RTVSPost2010PropOp30
 70
     1
102
RTVSPost2010Prop31
280
     0
102
RTVSPost2010PropOp31
 70
     1
102
RTVSPost2010Prop32
280
     0
102
RTVSPost2010PropOp32
 70
     1
102
RTVSPost2010Prop33
280
     0
102
RTVSPost2010PropOp33
 70
     1
102
RTVSPost2010Prop34
280
     0
102
RTVSPost2010PropOp34
 70
     1
102
RTVSPost2010Prop35
280
     0
102
RTVSPost2010PropOp35
 70
     1
102
RTVSPost2010Prop36
280
     0
102
RTVSPost2010PropOp36
 70
     1
102
RTVSPost2010Prop37
 90
       50
102
RTVSPost2010PropOp37
 70
     1
102
RTVSPost2010Prop38
140
0.0
102
RTVSPost2010PropOp38
 70
     1
102
RTVSPost2010Prop39
140
1.0
102
RTVSPost2010PropOp39
 70
     1
102
RTVSPost2010Prop40
 90
        0
102
RTVSPost2010PropOp40
 70
     1
102
RTVSPost2010Prop41ColorIndex
 90
       18
102
RTVSPost2010Prop41ColorRGB
 90
        0
102
RTVSPost2010PropOp41
 70
     1
102
RTVSPost2010Prop42
 90
       50
102
RTVSPost2010PropOp42
 70
     1
102
RTVSPost2010Prop43
 90
        3
102
RTVSPost2010PropOp43
 70
     1
102
RTVSPost2010Prop44ColorIndex
 90
        5
102
RTVSPost2010Prop44ColorRGB
 90
      255
102
RTVSPost2010PropOp44
 70
     1
102
RTVSPost2010Prop45
280
     0
102
RTVSPost2010PropOp45
 70
     1
102
RTVSPost2010Prop46
 90
       50
102
RTVSPost2010PropOp46
 70
     1
102
RTVSPost2010Prop47
 90
       50
102
RTVSPost2010PropOp47
 70
     1
102
RTVSPost2010Prop48
 90
       50
102
RTVSPost2010PropOp48
 70
     1
102
RTVSPost2010Prop49
280
     0
102
RTVSPost2010PropOp49
 70
     1
102
RTVSPost2010Prop50
 90
       50
102
RTVSPost2010PropOp50
 70
     1
102
RTVSPost2010Prop51ColorIndex
 90
      256
102
RTVSPost2010Prop51ColorRGB
 90
-16777216
102
RTVSPost2010PropOp51
 70
     0
102
RTVSPost2010Prop52
140
1.0
102
RTVSPost2010PropOp52
 70
     0
102
RTVSPost2010Prop53
 90
        2
102
RTVSPost2010PropOp53
 70
     1
102
RTVSPost2010Prop54
  1
strokes_ogs.tif
102
RTVSPost2010PropOp54
 70
     1
102
RTVSPost2010Prop55
280
     0
102
RTVSPost2010PropOp55
 70
     1
102
RTVSPost2010Prop56
140
1.0
102
RTVSPost2010PropOp56
 70
     1
102
RTVSPost2010Prop57
140
1.0
102
RTVSPost2010PropOp57
 70
     1
102
RTVSPropertyOp0
 70
     1
102
RTVSPropertyOp1
 70
     1
102
RTVSPropertyOp2
 70
     1
102
RTVSPropertyOp3
 70
     1
102
RTVSPropertyOp4
 70
     1
102
RTVSPropertyOp5
 70
     1
102
RTVSPropertyOp6
 70
     1
102
RTVSPropertyOp7
 70
     1
102
RTVSPropertyOp8
 70
     1
102
RTVSPropertyOp9
 70
     1
102
RTVSPropertyOp10
 70
     1
102
RTVSPropertyOp11
 70
     1
102
RTVSPropertyOp12
 70
     1
102
RTVSPropertyOp13
 70
     1
102
RTVSPropertyOp14
 70
     1
102
RTVSPropertyOp15
 70
     1
102
RTVSPropertyOp16
 70
     1
102
RTVSPropertyOp17
 70
     1
102
RTVSPropertyOp18
 70
     1
102
RTVSPropertyOp19
 70
     1
102
RTVSPropertyOp20
 70
     1
102
RTVSPropertyOp21
 70
     1
102
RTVSPropertyOp22
 70
     1
102
RTVSPropertyOp23
 70
     1
102
RTVSPropertyOp24
 70
     1
102
RTVSPropertyOp25
 70
     1
102
RTVSPropertyOp26
 70
     1
102
RTVSPropertyOp27
 70
     1
102
RTVSPropertyOp28
 70
     1
102
RTVSPropertyOp29
 70
     1
102
RTVSPropertyOp30
 70
     1
102
RTVSPropertyOp31
 70
     1
102
RTVSPropertyOp32
 70
     1
102
RTVSPropertyOp33
 70
     1
102
RTVSPropertyOp34
 70
     1
102
RTVSPropertyOp35
 70
     1
102
RTVSPropertyOp36
 70
     1
102
RTVSPropertyOp37
 70
     1
102
RTVSPropertyOp38
 70
     1
102
RTVSPropertyOp39
 70
     1
102
RTVSPropertyOp40
 70
     1
102
RTVSPropertyOp41
 70
     1
102
RTVSPropertyOp42
 70
     1
102
RTVSPropertyOp43
 70
     1
102
RTVSPropertyOp44
 70
     1
102
RTVSPropertyOp45
 70
     1
102
RTVSPropertyOp46
 70
     1
102
RTVSPropertyOp47
 70
     1
102
RTVSPropertyOp48
 70
     1
102
RTVSPropertyOp49
 70
     1
102
RTVSPropertyOp50
 70
     1
102
RTVSPropertyOp51
 70
     0
102
RTVSPropertyOp52
 70
     0
102
RTVSPropertyOp53
 70
     1
102
RTVSPropertyOp54
 70
     1
102
RTVSPropertyOp55
 70
     1
102
RTVSPropertyOp56
 70
     1
102
RTVSPropertyOp57
 70
     1
102
RTVSPropertyOp58
 70
     1
102
RTVSPropertyOp59
 70
     1
102
RTVSPropertyOp60
 70
     1
102
RTVSPropertyOp61
 70
     1
102
RTVSPropertyOp62
 70
     1
  0
XRECORD
  5
A1C
102
{ACAD_REACTORS
330
A1B
102
}
330
A1B
100
AcDbXrecord
280
     1
102
RTVSPost2010Prop28
280
     0
102
RTVSPost2010PropOp28
 70
     1
102
RTVSPost2010Prop29
280
     1
102
RTVSPost2010PropOp29
 70
     1
102
RTVSPost2010Prop30
280
     1
102
RTVSPost2010PropOp30
 70
     1
102
RTVSPost2010Prop31
280
     0
102
RTVSPost2010PropOp31
 70
     1
102
RTVSPost2010Prop32
280
     0
102
RTVSPost2010PropOp32
 70
     1
102
RTVSPost2010Prop33
280
     0
102
RTVSPost2010PropOp33
 70
     1
102
RTVSPost2010Prop34
280
     0
102
RTVSPost2010PropOp34
 70
     1
102
RTVSPost2010Prop35
280
     0
102
RTVSPost2010PropOp35
 70
     1
102
RTVSPost2010Prop36
280
     0
102
RTVSPost2010PropOp36
 70
     1
102
RTVSPost2010Prop37
 90
       50
102
RTVSPost2010PropOp37
 70
     0
102
RTVSPost2010Prop38
140
0.0
102
RTVSPost2010PropOp38
 70
     0
102
RTVSPost2010Prop39
140
1.0
102
RTVSPost2010PropOp39
 70
     0
102
RTVSPost2010Prop40
 90
        0
102
RTVSPost2010PropOp40
 70
     0
102
RTVSPost2010Prop41ColorIndex
 90
       18
102
RTVSPost2010Prop41ColorRGB
 90
        0
102
RTVSPost2010PropOp41
 70
     0
102
RTVSPost2010Prop42
 90
       50
102
RTVSPost2010PropOp42
 70
     0
102
RTVSPost2010Prop43
 90
        3
102
RTVSPost2010PropOp43
 70
     0
102
RTVSPost2010Prop44ColorIndex
 90
        5
102
RTVSPost2010Prop44ColorRGB
 90
      255
102
RTVSPost2010PropOp44
 70
     0
102
RTVSPost2010Prop45
280
     0
102
RTVSPost2010PropOp45
 70
     1
102
RTVSPost2010Prop46
 90
       50
102
RTVSPost2010PropOp46
 70
     0
102
RTVSPost2010Prop47
 90
       50
102
RTVSPost2010PropOp47
 70
     0
102
RTVSPost2010Prop48
 90
       50
102
RTVSPost2010PropOp48
 70
     0
102
RTVSPost2010Prop49
280
     0
102
RTVSPost2010PropOp49
 70
     1
102
RTVSPost2010Prop50
 90
       50
102
RTVSPost2010PropOp50
 70
     0
102
RTVSPost2010Prop51ColorIndex
 90
      256
102
RTVSPost2010Prop51ColorRGB
 90
-16777216
102
RTVSPost2010PropOp51
 70
     0
102
RTVSPost2010Prop52
140
1.0
102
RTVSPost2010PropOp52
 70
     0
102
RTVSPost2010Prop53
 90
        2
102
RTVSPost2010PropOp53
 70
     0
102
RTVSPost2010Prop54
  1
strokes_ogs.tif
102
RTVSPost2010PropOp54
 70
     0
102
RTVSPost2010Prop55
280
     0
102
RTVSPost2010PropOp55
 70
     1
102
RTVSPost2010Prop56
140
1.0
102
RTVSPost2010PropOp56
 70
     0
102
RTVSPost2010Prop57
140
1.0
102
RTVSPost2010PropOp57
 70
     0
102
RTVSPropertyOp0
 70
     0
102
RTVSPropertyOp1
 70
     0
102
RTVSPropertyOp2
 70
     0
102
RTVSPropertyOp3
 70
     0
102
RTVSPropertyOp4
 70
     0
102
RTVSPropertyOp5
 70
     0
102
RTVSPropertyOp6
 70
     0
102
RTVSPropertyOp7
 70
     0
102
RTVSPropertyOp8
 70
     0
102
RTVSPropertyOp9
 70
     0
102
RTVSPropertyOp10
 70
     0
102
RTVSPropertyOp11
 70
     0
102
RTVSPropertyOp12
 70
     0
102
RTVSPropertyOp13
 70
     0
102
RTVSPropertyOp14
 70
     2
102
RTVSPropertyOp15
 70
     0
102
RTVSPropertyOp16
 70
     0
102
RTVSPropertyOp17
 70
     0
102
RTVSPropertyOp18
 70
     0
102
RTVSPropertyOp19
 70
     0
102
RTVSPropertyOp20
 70
     0
102
RTVSPropertyOp21
 70
     0
102
RTVSPropertyOp22
 70
     0
102
RTVSPropertyOp23
 70
     0
102
RTVSPropertyOp24
 70
     0
102
RTVSPropertyOp25
 70
     0
102
RTVSPropertyOp26
 70
     0
102
RTVSPropertyOp27
 70
     0
102
RTVSPropertyOp28
 70
     1
102
RTVSPropertyOp29
 70
     1
102
RTVSPropertyOp30
 70
     1
102
RTVSPropertyOp31
 70
     1
102
RTVSPropertyOp32
 70
     1
102
RTVSPropertyOp33
 70
     1
102
RTVSPropertyOp34
 70
     1
102
RTVSPropertyOp35
 70
     1
102
RTVSPropertyOp36
 70
     1
102
RTVSPropertyOp37
 70
     0
102
RTVSPropertyOp38
 70
     0
102
RTVSPropertyOp39
 70
     0
102
RTVSPropertyOp40
 70
     0
102
RTVSPropertyOp41
 70
     0
102
RTVSPropertyOp42
 70
     0
102
RTVSPropertyOp43
 70
     0
102
RTVSPropertyOp44
 70
     0
102
RTVSPropertyOp45
 70
     1
102
RTVSPropertyOp46
 70
     0
102
RTVSPropertyOp47
 70
     0
102
RTVSPropertyOp48
 70
     0
102
RTVSPropertyOp49
 70
     1
102
RTVSPropertyOp50
 70
     0
102
RTVSPropertyOp51
 70
     0
102
RTVSPropertyOp52
 70
     0
102
RTVSPropertyOp53
 70
     0
102
RTVSPropertyOp54
 70
     0
102
RTVSPropertyOp55
 70
     1
102
RTVSPropertyOp56
 70
     0
102
RTVSPropertyOp57
 70
     0
102
RTVSPropertyOp58
 70
     0
102
RTVSPropertyOp59
 70
     0
102
RTVSPropertyOp60
 70
     0
102
RTVSPropertyOp61
 70
     0
102
RTVSPropertyOp62
 70
     0
  0
XRECORD
  5
A0A
102
{ACAD_REACTORS
330
A09
102
}
330
A09
100
AcDbXrecord
280
     1
102
RTVSPost2010Prop28
280
     0
102
RTVSPost2010PropOp28
 70
     1
102
RTVSPost2010Prop29
280
     1
102
RTVSPost2010PropOp29
 70
     1
102
RTVSPost2010Prop30
280
     1
102
RTVSPost2010PropOp30
 70
     1
102
RTVSPost2010Prop31
280
     0
102
RTVSPost2010PropOp31
 70
     1
102
RTVSPost2010Prop32
280
     0
102
RTVSPost2010PropOp32
 70
     1
102
RTVSPost2010Prop33
280
     0
102
RTVSPost2010PropOp33
 70
     1
102
RTVSPost2010Prop34
280
     0
102
RTVSPost2010PropOp34
 70
     1
102
RTVSPost2010Prop35
280
     0
102
RTVSPost2010PropOp35
 70
     1
102
RTVSPost2010Prop36
280
     0
102
RTVSPost2010PropOp36
 70
     1
102
RTVSPost2010Prop37
 90
       50
102
RTVSPost2010PropOp37
 70
     1
102
RTVSPost2010Prop38
140
0.0
102
RTVSPost2010PropOp38
 70
     1
102
RTVSPost2010Prop39
140
1.0
102
RTVSPost2010PropOp39
 70
     1
102
RTVSPost2010Prop40
 90
        0
102
RTVSPost2010PropOp40
 70
     1
102
RTVSPost2010Prop41ColorIndex
 90
       18
102
RTVSPost2010Prop41ColorRGB
 90
        0
102
RTVSPost2010PropOp41
 70
     1
102
RTVSPost2010Prop42
 90
       50
102
RTVSPost2010PropOp42
 70
     1
102
RTVSPost2010Prop43
 90
        3
102
RTVSPost2010PropOp43
 70
     1
102
RTVSPost2010Prop44ColorIndex
 90
        5
102
RTVSPost2010Prop44ColorRGB
 90
      255
102
RTVSPost2010PropOp44
 70
     1
102
RTVSPost2010Prop45
280
     0
102
RTVSPost2010PropOp45
 70
     1
102
RTVSPost2010Prop46
 90
       50
102
RTVSPost2010PropOp46
 70
     1
102
RTVSPost2010Prop47
 90
       50
102
RTVSPost2010PropOp47
 70
     1
102
RTVSPost2010Prop48
 90
       50
102
RTVSPost2010PropOp48
 70
     1
102
RTVSPost2010Prop49
280
     0
102
RTVSPost2010PropOp49
 70
     1
102
RTVSPost2010Prop50
 90
       50
102
RTVSPost2010PropOp50
 70
     1
102
RTVSPost2010Prop51ColorIndex
 90
      256
102
RTVSPost2010Prop51ColorRGB
 90
-16777216
102
RTVSPost2010PropOp51
 70
     0
102
RTVSPost2010Prop52
140
1.0
102
RTVSPost2010PropOp52
 70
     0
102
RTVSPost2010Prop53
 90
        2
102
RTVSPost2010PropOp53
 70
     1
102
RTVSPost2010Prop54
  1
strokes_ogs.tif
102
RTVSPost2010PropOp54
 70
     1
102
RTVSPost2010Prop55
280
     0
102
RTVSPost2010PropOp55
 70
     1
102
RTVSPost2010Prop56
140
1.0
102
RTVSPost2010PropOp56
 70
     1
102
RTVSPost2010Prop57
140
1.0
102
RTVSPost2010PropOp57
 70
     1
102
RTVSPropertyOp0
 70
     1
102
RTVSPropertyOp1
 70
     1
102
RTVSPropertyOp2
 70
     1
102
RTVSPropertyOp3
 70
     1
102
RTVSPropertyOp4
 70
     1
102
RTVSPropertyOp5
 70
     1
102
RTVSPropertyOp6
 70
     1
102
RTVSPropertyOp7
 70
     1
102
RTVSPropertyOp8
 70
     1
102
RTVSPropertyOp9
 70
     1
102
RTVSPropertyOp10
 70
     1
102
RTVSPropertyOp11
 70
     1
102
RTVSPropertyOp12
 70
     1
102
RTVSPropertyOp13
 70
     1
102
RTVSPropertyOp14
 70
     1
102
RTVSPropertyOp15
 70
     1
102
RTVSPropertyOp16
 70
     1
102
RTVSPropertyOp17
 70
     1
102
RTVSPropertyOp18
 70
     1
102
RTVSPropertyOp19
 70
     1
102
RTVSPropertyOp20
 70
     1
102
RTVSPropertyOp21
 70
     1
102
RTVSPropertyOp22
 70
     1
102
RTVSPropertyOp23
 70
     1
102
RTVSPropertyOp24
 70
     1
102
RTVSPropertyOp25
 70
     1
102
RTVSPropertyOp26
 70
     1
102
RTVSPropertyOp27
 70
     1
102
RTVSPropertyOp28
 70
     1
102
RTVSPropertyOp29
 70
     1
102
RTVSPropertyOp30
 70
     1
102
RTVSPropertyOp31
 70
     1
102
RTVSPropertyOp32
 70
     1
102
RTVSPropertyOp33
 70
     1
102
RTVSPropertyOp34
 70
     1
102
RTVSPropertyOp35
 70
     1
102
RTVSPropertyOp36
 70
     1
102
RTVSPropertyOp37
 70
     1
102
RTVSPropertyOp38
 70
     1
102
RTVSPropertyOp39
 70
     1
102
RTVSPropertyOp40
 70
     1
102
RTVSPropertyOp41
 70
     1
102
RTVSPropertyOp42
 70
     1
102
RTVSPropertyOp43
 70
     1
102
RTVSPropertyOp44
 70
     1
102
RTVSPropertyOp45
 70
     1
102
RTVSPropertyOp46
 70
     1
102
RTVSPropertyOp47
 70
     1
102
RTVSPropertyOp48
 70
     1
102
RTVSPropertyOp49
 70
     1
102
RTVSPropertyOp50
 70
     1
102
RTVSPropertyOp51
 70
     0
102
RTVSPropertyOp52
 70
     0
102
RTVSPropertyOp53
 70
     1
102
RTVSPropertyOp54
 70
     1
102
RTVSPropertyOp55
 70
     1
102
RTVSPropertyOp56
 70
     1
102
RTVSPropertyOp57
 70
     1
102
RTVSPropertyOp58
 70
     1
102
RTVSPropertyOp59
 70
     1
102
RTVSPropertyOp60
 70
     1
102
RTVSPropertyOp61
 70
     1
102
RTVSPropertyOp62
 70
     1
  0
XRECORD
  5
9EE
102
{ACAD_REACTORS
330
9ED
102
}
330
9ED
100
AcDbXrecord
280
     1
102
RTVSPost2010Prop28
280
     0
102
RTVSPost2010PropOp28
 70
     1
102
RTVSPost2010Prop29
280
     1
102
RTVSPost2010PropOp29
 70
     1
102
RTVSPost2010Prop30
280
     1
102
RTVSPost2010PropOp30
 70
     1
102
RTVSPost2010Prop31
280
     0
102
RTVSPost2010PropOp31
 70
     1
102
RTVSPost2010Prop32
280
     0
102
RTVSPost2010PropOp32
 70
     1
102
RTVSPost2010Prop33
280
     0
102
RTVSPost2010PropOp33
 70
     1
102
RTVSPost2010Prop34
280
     0
102
RTVSPost2010PropOp34
 70
     1
102
RTVSPost2010Prop35
280
     0
102
RTVSPost2010PropOp35
 70
     1
102
RTVSPost2010Prop36
280
     0
102
RTVSPost2010PropOp36
 70
     1
102
RTVSPost2010Prop37
 90
       50
102
RTVSPost2010PropOp37
 70
     1
102
RTVSPost2010Prop38
140
0.0
102
RTVSPost2010PropOp38
 70
     1
102
RTVSPost2010Prop39
140
1.0
102
RTVSPost2010PropOp39
 70
     1
102
RTVSPost2010Prop40
 90
        0
102
RTVSPost2010PropOp40
 70
     1
102
RTVSPost2010Prop41ColorIndex
 90
       18
102
RTVSPost2010Prop41ColorRGB
 90
        0
102
RTVSPost2010PropOp41
 70
     1
102
RTVSPost2010Prop42
 90
       50
102
RTVSPost2010PropOp42
 70
     1
102
RTVSPost2010Prop43
 90
        3
102
RTVSPost2010PropOp43
 70
     1
102
RTVSPost2010Prop44ColorIndex
 90
        5
102
RTVSPost2010Prop44ColorRGB
 90
      255
102
RTVSPost2010PropOp44
 70
     1
102
RTVSPost2010Prop45
280
     0
102
RTVSPost2010PropOp45
 70
     1
102
RTVSPost2010Prop46
 90
       50
102
RTVSPost2010PropOp46
 70
     1
102
RTVSPost2010Prop47
 90
       50
102
RTVSPost2010PropOp47
 70
     1
102
RTVSPost2010Prop48
 90
       50
102
RTVSPost2010PropOp48
 70
     1
102
RTVSPost2010Prop49
280
     0
102
RTVSPost2010PropOp49
 70
     1
102
RTVSPost2010Prop50
 90
       50
102
RTVSPost2010PropOp50
 70
     1
102
RTVSPost2010Prop51ColorIndex
 90
      256
102
RTVSPost2010Prop51ColorRGB
 90
-16777216
102
RTVSPost2010PropOp51
 70
     0
102
RTVSPost2010Prop52
140
1.0
102
RTVSPost2010PropOp52
 70
     0
102
RTVSPost2010Prop53
 90
        2
102
RTVSPost2010PropOp53
 70
     1
102
RTVSPost2010Prop54
  1
strokes_ogs.tif
102
RTVSPost2010PropOp54
 70
     1
102
RTVSPost2010Prop55
280
     0
102
RTVSPost2010PropOp55
 70
     1
102
RTVSPost2010Prop56
140
1.0
102
RTVSPost2010PropOp56
 70
     1
102
RTVSPost2010Prop57
140
1.0
102
RTVSPost2010PropOp57
 70
     1
102
RTVSPropertyOp0
 70
     1
102
RTVSPropertyOp1
 70
     1
102
RTVSPropertyOp2
 70
     1
102
RTVSPropertyOp3
 70
     1
102
RTVSPropertyOp4
 70
     1
102
RTVSPropertyOp5
 70
     1
102
RTVSPropertyOp6
 70
     1
102
RTVSPropertyOp7
 70
     1
102
RTVSPropertyOp8
 70
     1
102
RTVSPropertyOp9
 70
     1
102
RTVSPropertyOp10
 70
     1
102
RTVSPropertyOp11
 70
     1
102
RTVSPropertyOp12
 70
     1
102
RTVSPropertyOp13
 70
     1
102
RTVSPropertyOp14
 70
     1
102
RTVSPropertyOp15
 70
     1
102
RTVSPropertyOp16
 70
     1
102
RTVSPropertyOp17
 70
     1
102
RTVSPropertyOp18
 70
     1
102
RTVSPropertyOp19
 70
     1
102
RTVSPropertyOp20
 70
     1
102
RTVSPropertyOp21
 70
     1
102
RTVSPropertyOp22
 70
     1
102
RTVSPropertyOp23
 70
     1
102
RTVSPropertyOp24
 70
     1
102
RTVSPropertyOp25
 70
     1
102
RTVSPropertyOp26
 70
     1
102
RTVSPropertyOp27
 70
     1
102
RTVSPropertyOp28
 70
     1
102
RTVSPropertyOp29
 70
     1
102
RTVSPropertyOp30
 70
     1
102
RTVSPropertyOp31
 70
     1
102
RTVSPropertyOp32
 70
     1
102
RTVSPropertyOp33
 70
     1
102
RTVSPropertyOp34
 70
     1
102
RTVSPropertyOp35
 70
     1
102
RTVSPropertyOp36
 70
     1
102
RTVSPropertyOp37
 70
     1
102
RTVSPropertyOp38
 70
     1
102
RTVSPropertyOp39
 70
     1
102
RTVSPropertyOp40
 70
     1
102
RTVSPropertyOp41
 70
     1
102
RTVSPropertyOp42
 70
     1
102
RTVSPropertyOp43
 70
     1
102
RTVSPropertyOp44
 70
     1
102
RTVSPropertyOp45
 70
     1
102
RTVSPropertyOp46
 70
     1
102
RTVSPropertyOp47
 70
     1
102
RTVSPropertyOp48
 70
     1
102
RTVSPropertyOp49
 70
     1
102
RTVSPropertyOp50
 70
     1
102
RTVSPropertyOp51
 70
     0
102
RTVSPropertyOp52
 70
     0
102
RTVSPropertyOp53
 70
     1
102
RTVSPropertyOp54
 70
     1
102
RTVSPropertyOp55
 70
     1
102
RTVSPropertyOp56
 70
     1
102
RTVSPropertyOp57
 70
     1
102
RTVSPropertyOp58
 70
     1
102
RTVSPropertyOp59
 70
     1
102
RTVSPropertyOp60
 70
     1
102
RTVSPropertyOp61
 70
     1
102
RTVSPropertyOp62
 70
     1
  0
XRECORD
  5
9F0
102
{ACAD_REACTORS
330
9EF
102
}
330
9EF
100
AcDbXrecord
280
     1
102
RTVSPost2010Prop28
280
     0
102
RTVSPost2010PropOp28
 70
     1
102
RTVSPost2010Prop29
280
     1
102
RTVSPost2010PropOp29
 70
     1
102
RTVSPost2010Prop30
280
     1
102
RTVSPost2010PropOp30
 70
     1
102
RTVSPost2010Prop31
280
     0
102
RTVSPost2010PropOp31
 70
     1
102
RTVSPost2010Prop32
280
     0
102
RTVSPost2010PropOp32
 70
     1
102
RTVSPost2010Prop33
280
     0
102
RTVSPost2010PropOp33
 70
     1
102
RTVSPost2010Prop34
280
     0
102
RTVSPost2010PropOp34
 70
     1
102
RTVSPost2010Prop35
280
     0
102
RTVSPost2010PropOp35
 70
     1
102
RTVSPost2010Prop36
280
     0
102
RTVSPost2010PropOp36
 70
     1
102
RTVSPost2010Prop37
 90
       50
102
RTVSPost2010PropOp37
 70
     1
102
RTVSPost2010Prop38
140
0.0
102
RTVSPost2010PropOp38
 70
     1
102
RTVSPost2010Prop39
140
1.0
102
RTVSPost2010PropOp39
 70
     1
102
RTVSPost2010Prop40
 90
        0
102
RTVSPost2010PropOp40
 70
     1
102
RTVSPost2010Prop41ColorIndex
 90
       18
102
RTVSPost2010Prop41ColorRGB
 90
        0
102
RTVSPost2010PropOp41
 70
     1
102
RTVSPost2010Prop42
 90
       50
102
RTVSPost2010PropOp42
 70
     1
102
RTVSPost2010Prop43
 90
        3
102
RTVSPost2010PropOp43
 70
     1
102
RTVSPost2010Prop44ColorIndex
 90
        5
102
RTVSPost2010Prop44ColorRGB
 90
      255
102
RTVSPost2010PropOp44
 70
     1
102
RTVSPost2010Prop45
280
     0
102
RTVSPost2010PropOp45
 70
     1
102
RTVSPost2010Prop46
 90
       50
102
RTVSPost2010PropOp46
 70
     1
102
RTVSPost2010Prop47
 90
       50
102
RTVSPost2010PropOp47
 70
     1
102
RTVSPost2010Prop48
 90
       50
102
RTVSPost2010PropOp48
 70
     1
102
RTVSPost2010Prop49
280
     0
102
RTVSPost2010PropOp49
 70
     1
102
RTVSPost2010Prop50
 90
       50
102
RTVSPost2010PropOp50
 70
     1
102
RTVSPost2010Prop51ColorIndex
 90
      256
102
RTVSPost2010Prop51ColorRGB
 90
-16777216
102
RTVSPost2010PropOp51
 70
     0
102
RTVSPost2010Prop52
140
1.0
102
RTVSPost2010PropOp52
 70
     0
102
RTVSPost2010Prop53
 90
        2
102
RTVSPost2010PropOp53
 70
     1
102
RTVSPost2010Prop54
  1
strokes_ogs.tif
102
RTVSPost2010PropOp54
 70
     1
102
RTVSPost2010Prop55
280
     0
102
RTVSPost2010PropOp55
 70
     1
102
RTVSPost2010Prop56
140
1.0
102
RTVSPost2010PropOp56
 70
     1
102
RTVSPost2010Prop57
140
1.0
102
RTVSPost2010PropOp57
 70
     1
102
RTVSPropertyOp0
 70
     1
102
RTVSPropertyOp1
 70
     1
102
RTVSPropertyOp2
 70
     1
102
RTVSPropertyOp3
 70
     1
102
RTVSPropertyOp4
 70
     1
102
RTVSPropertyOp5
 70
     1
102
RTVSPropertyOp6
 70
     1
102
RTVSPropertyOp7
 70
     1
102
RTVSPropertyOp8
 70
     1
102
RTVSPropertyOp9
 70
     1
102
RTVSPropertyOp10
 70
     1
102
RTVSPropertyOp11
 70
     1
102
RTVSPropertyOp12
 70
     1
102
RTVSPropertyOp13
 70
     1
102
RTVSPropertyOp14
 70
     1
102
RTVSPropertyOp15
 70
     1
102
RTVSPropertyOp16
 70
     1
102
RTVSPropertyOp17
 70
     1
102
RTVSPropertyOp18
 70
     1
102
RTVSPropertyOp19
 70
     1
102
RTVSPropertyOp20
 70
     1
102
RTVSPropertyOp21
 70
     1
102
RTVSPropertyOp22
 70
     1
102
RTVSPropertyOp23
 70
     1
102
RTVSPropertyOp24
 70
     1
102
RTVSPropertyOp25
 70
     1
102
RTVSPropertyOp26
 70
     1
102
RTVSPropertyOp27
 70
     1
102
RTVSPropertyOp28
 70
     1
102
RTVSPropertyOp29
 70
     1
102
RTVSPropertyOp30
 70
     1
102
RTVSPropertyOp31
 70
     1
102
RTVSPropertyOp32
 70
     1
102
RTVSPropertyOp33
 70
     1
102
RTVSPropertyOp34
 70
     1
102
RTVSPropertyOp35
 70
     1
102
RTVSPropertyOp36
 70
     1
102
RTVSPropertyOp37
 70
     1
102
RTVSPropertyOp38
 70
     1
102
RTVSPropertyOp39
 70
     1
102
RTVSPropertyOp40
 70
     1
102
RTVSPropertyOp41
 70
     1
102
RTVSPropertyOp42
 70
     1
102
RTVSPropertyOp43
 70
     1
102
RTVSPropertyOp44
 70
     1
102
RTVSPropertyOp45
 70
     1
102
RTVSPropertyOp46
 70
     1
102
RTVSPropertyOp47
 70
     1
102
RTVSPropertyOp48
 70
     1
102
RTVSPropertyOp49
 70
     1
102
RTVSPropertyOp50
 70
     1
102
RTVSPropertyOp51
 70
     0
102
RTVSPropertyOp52
 70
     0
102
RTVSPropertyOp53
 70
     1
102
RTVSPropertyOp54
 70
     1
102
RTVSPropertyOp55
 70
     1
102
RTVSPropertyOp56
 70
     1
102
RTVSPropertyOp57
 70
     1
102
RTVSPropertyOp58
 70
     1
102
RTVSPropertyOp59
 70
     1
102
RTVSPropertyOp60
 70
     1
102
RTVSPropertyOp61
 70
     1
102
RTVSPropertyOp62
 70
     1
  0
XRECORD
  5
9F2
102
{ACAD_REACTORS
330
9F1
102
}
330
9F1
100
AcDbXrecord
280
     1
102
RTVSPost2010Prop28
280
     0
102
RTVSPost2010PropOp28
 70
     1
102
RTVSPost2010Prop29
280
     1
102
RTVSPost2010PropOp29
 70
     1
102
RTVSPost2010Prop30
280
     1
102
RTVSPost2010PropOp30
 70
     1
102
RTVSPost2010Prop31
280
     0
102
RTVSPost2010PropOp31
 70
     1
102
RTVSPost2010Prop32
280
     0
102
RTVSPost2010PropOp32
 70
     1
102
RTVSPost2010Prop33
280
     0
102
RTVSPost2010PropOp33
 70
     1
102
RTVSPost2010Prop34
280
     0
102
RTVSPost2010PropOp34
 70
     1
102
RTVSPost2010Prop35
280
     0
102
RTVSPost2010PropOp35
 70
     1
102
RTVSPost2010Prop36
280
     0
102
RTVSPost2010PropOp36
 70
     1
102
RTVSPost2010Prop37
 90
       50
102
RTVSPost2010PropOp37
 70
     1
102
RTVSPost2010Prop38
140
0.0
102
RTVSPost2010PropOp38
 70
     1
102
RTVSPost2010Prop39
140
1.0
102
RTVSPost2010PropOp39
 70
     1
102
RTVSPost2010Prop40
 90
        0
102
RTVSPost2010PropOp40
 70
     1
102
RTVSPost2010Prop41ColorIndex
 90
       18
102
RTVSPost2010Prop41ColorRGB
 90
        0
102
RTVSPost2010PropOp41
 70
     1
102
RTVSPost2010Prop42
 90
       50
102
RTVSPost2010PropOp42
 70
     1
102
RTVSPost2010Prop43
 90
        3
102
RTVSPost2010PropOp43
 70
     1
102
RTVSPost2010Prop44ColorIndex
 90
        5
102
RTVSPost2010Prop44ColorRGB
 90
      255
102
RTVSPost2010PropOp44
 70
     1
102
RTVSPost2010Prop45
280
     0
102
RTVSPost2010PropOp45
 70
     1
102
RTVSPost2010Prop46
 90
       50
102
RTVSPost2010PropOp46
 70
     1
102
RTVSPost2010Prop47
 90
       50
102
RTVSPost2010PropOp47
 70
     1
102
RTVSPost2010Prop48
 90
       50
102
RTVSPost2010PropOp48
 70
     1
102
RTVSPost2010Prop49
280
     0
102
RTVSPost2010PropOp49
 70
     1
102
RTVSPost2010Prop50
 90
       50
102
RTVSPost2010PropOp50
 70
     1
102
RTVSPost2010Prop51ColorIndex
 90
      256
102
RTVSPost2010Prop51ColorRGB
 90
-16777216
102
RTVSPost2010PropOp51
 70
     0
102
RTVSPost2010Prop52
140
1.0
102
RTVSPost2010PropOp52
 70
     0
102
RTVSPost2010Prop53
 90
        2
102
RTVSPost2010PropOp53
 70
     1
102
RTVSPost2010Prop54
  1
strokes_ogs.tif
102
RTVSPost2010PropOp54
 70
     1
102
RTVSPost2010Prop55
280
     0
102
RTVSPost2010PropOp55
 70
     1
102
RTVSPost2010Prop56
140
1.0
102
RTVSPost2010PropOp56
 70
     1
102
RTVSPost2010Prop57
140
1.0
102
RTVSPost2010PropOp57
 70
     1
102
RTVSPropertyOp0
 70
     1
102
RTVSPropertyOp1
 70
     1
102
RTVSPropertyOp2
 70
     1
102
RTVSPropertyOp3
 70
     1
102
RTVSPropertyOp4
 70
     1
102
RTVSPropertyOp5
 70
     1
102
RTVSPropertyOp6
 70
     1
102
RTVSPropertyOp7
 70
     1
102
RTVSPropertyOp8
 70
     1
102
RTVSPropertyOp9
 70
     1
102
RTVSPropertyOp10
 70
     1
102
RTVSPropertyOp11
 70
     1
102
RTVSPropertyOp12
 70
     1
102
RTVSPropertyOp13
 70
     1
102
RTVSPropertyOp14
 70
     1
102
RTVSPropertyOp15
 70
     1
102
RTVSPropertyOp16
 70
     1
102
RTVSPropertyOp17
 70
     1
102
RTVSPropertyOp18
 70
     1
102
RTVSPropertyOp19
 70
     1
102
RTVSPropertyOp20
 70
     1
102
RTVSPropertyOp21
 70
     1
102
RTVSPropertyOp22
 70
     1
102
RTVSPropertyOp23
 70
     1
102
RTVSPropertyOp24
 70
     1
102
RTVSPropertyOp25
 70
     1
102
RTVSPropertyOp26
 70
     1
102
RTVSPropertyOp27
 70
     1
102
RTVSPropertyOp28
 70
     1
102
RTVSPropertyOp29
 70
     1
102
RTVSPropertyOp30
 70
     1
102
RTVSPropertyOp31
 70
     1
102
RTVSPropertyOp32
 70
     1
102
RTVSPropertyOp33
 70
     1
102
RTVSPropertyOp34
 70
     1
102
RTVSPropertyOp35
 70
     1
102
RTVSPropertyOp36
 70
     1
102
RTVSPropertyOp37
 70
     1
102
RTVSPropertyOp38
 70
     1
102
RTVSPropertyOp39
 70
     1
102
RTVSPropertyOp40
 70
     1
102
RTVSPropertyOp41
 70
     1
102
RTVSPropertyOp42
 70
     1
102
RTVSPropertyOp43
 70
     1
102
RTVSPropertyOp44
 70
     1
102
RTVSPropertyOp45
 70
     1
102
RTVSPropertyOp46
 70
     1
102
RTVSPropertyOp47
 70
     1
102
RTVSPropertyOp48
 70
     1
102
RTVSPropertyOp49
 70
     1
102
RTVSPropertyOp50
 70
     1
102
RTVSPropertyOp51
 70
     0
102
RTVSPropertyOp52
 70
     0
102
RTVSPropertyOp53
 70
     1
102
RTVSPropertyOp54
 70
     1
102
RTVSPropertyOp55
 70
     1
102
RTVSPropertyOp56
 70
     1
102
RTVSPropertyOp57
 70
     1
102
RTVSPropertyOp58
 70
     1
102
RTVSPropertyOp59
 70
     1
102
RTVSPropertyOp60
 70
     1
102
RTVSPropertyOp61
 70
     1
102
RTVSPropertyOp62
 70
     1
  0
XRECORD
  5
9F4
102
{ACAD_REACTORS
330
9F3
102
}
330
9F3
100
AcDbXrecord
280
     1
102
RTVSPost2010Prop28
280
     0
102
RTVSPost2010PropOp28
 70
     1
102
RTVSPost2010Prop29
280
     1
102
RTVSPost2010PropOp29
 70
     1
102
RTVSPost2010Prop30
280
     1
102
RTVSPost2010PropOp30
 70
     1
102
RTVSPost2010Prop31
280
     0
102
RTVSPost2010PropOp31
 70
     1
102
RTVSPost2010Prop32
280
     0
102
RTVSPost2010PropOp32
 70
     1
102
RTVSPost2010Prop33
280
     0
102
RTVSPost2010PropOp33
 70
     1
102
RTVSPost2010Prop34
280
     0
102
RTVSPost2010PropOp34
 70
     1
102
RTVSPost2010Prop35
280
     0
102
RTVSPost2010PropOp35
 70
     1
102
RTVSPost2010Prop36
280
     0
102
RTVSPost2010PropOp36
 70
     1
102
RTVSPost2010Prop37
 90
       50
102
RTVSPost2010PropOp37
 70
     1
102
RTVSPost2010Prop38
140
0.0
102
RTVSPost2010PropOp38
 70
     1
102
RTVSPost2010Prop39
140
1.0
102
RTVSPost2010PropOp39
 70
     1
102
RTVSPost2010Prop40
 90
        0
102
RTVSPost2010PropOp40
 70
     1
102
RTVSPost2010Prop41ColorIndex
 90
       18
102
RTVSPost2010Prop41ColorRGB
 90
        0
102
RTVSPost2010PropOp41
 70
     1
102
RTVSPost2010Prop42
 90
       50
102
RTVSPost2010PropOp42
 70
     1
102
RTVSPost2010Prop43
 90
        3
102
RTVSPost2010PropOp43
 70
     1
102
RTVSPost2010Prop44ColorIndex
 90
        5
102
RTVSPost2010Prop44ColorRGB
 90
      255
102
RTVSPost2010PropOp44
 70
     1
102
RTVSPost2010Prop45
280
     0
102
RTVSPost2010PropOp45
 70
     1
102
RTVSPost2010Prop46
 90
       50
102
RTVSPost2010PropOp46
 70
     1
102
RTVSPost2010Prop47
 90
       50
102
RTVSPost2010PropOp47
 70
     1
102
RTVSPost2010Prop48
 90
       50
102
RTVSPost2010PropOp48
 70
     1
102
RTVSPost2010Prop49
280
     0
102
RTVSPost2010PropOp49
 70
     1
102
RTVSPost2010Prop50
 90
       50
102
RTVSPost2010PropOp50
 70
     1
102
RTVSPost2010Prop51ColorIndex
 90
      256
102
RTVSPost2010Prop51ColorRGB
 90
-16777216
102
RTVSPost2010PropOp51
 70
     0
102
RTVSPost2010Prop52
140
1.0
102
RTVSPost2010PropOp52
 70
     0
102
RTVSPost2010Prop53
 90
        2
102
RTVSPost2010PropOp53
 70
     1
102
RTVSPost2010Prop54
  1
strokes_ogs.tif
102
RTVSPost2010PropOp54
 70
     1
102
RTVSPost2010Prop55
280
     0
102
RTVSPost2010PropOp55
 70
     1
102
RTVSPost2010Prop56
140
1.0
102
RTVSPost2010PropOp56
 70
     1
102
RTVSPost2010Prop57
140
1.0
102
RTVSPost2010PropOp57
 70
     1
102
RTVSPropertyOp0
 70
     1
102
RTVSPropertyOp1
 70
     1
102
RTVSPropertyOp2
 70
     1
102
RTVSPropertyOp3
 70
     1
102
RTVSPropertyOp4
 70
     1
102
RTVSPropertyOp5
 70
     1
102
RTVSPropertyOp6
 70
     1
102
RTVSPropertyOp7
 70
     1
102
RTVSPropertyOp8
 70
     1
102
RTVSPropertyOp9
 70
     1
102
RTVSPropertyOp10
 70
     1
102
RTVSPropertyOp11
 70
     1
102
RTVSPropertyOp12
 70
     1
102
RTVSPropertyOp13
 70
     1
102
RTVSPropertyOp14
 70
     1
102
RTVSPropertyOp15
 70
     1
102
RTVSPropertyOp16
 70
     1
102
RTVSPropertyOp17
 70
     1
102
RTVSPropertyOp18
 70
     1
102
RTVSPropertyOp19
 70
     1
102
RTVSPropertyOp20
 70
     1
102
RTVSPropertyOp21
 70
     1
102
RTVSPropertyOp22
 70
     1
102
RTVSPropertyOp23
 70
     1
102
RTVSPropertyOp24
 70
     1
102
RTVSPropertyOp25
 70
     1
102
RTVSPropertyOp26
 70
     1
102
RTVSPropertyOp27
 70
     1
102
RTVSPropertyOp28
 70
     1
102
RTVSPropertyOp29
 70
     1
102
RTVSPropertyOp30
 70
     1
102
RTVSPropertyOp31
 70
     1
102
RTVSPropertyOp32
 70
     1
102
RTVSPropertyOp33
 70
     1
102
RTVSPropertyOp34
 70
     1
102
RTVSPropertyOp35
 70
     1
102
RTVSPropertyOp36
 70
     1
102
RTVSPropertyOp37
 70
     1
102
RTVSPropertyOp38
 70
     1
102
RTVSPropertyOp39
 70
     1
102
RTVSPropertyOp40
 70
     1
102
RTVSPropertyOp41
 70
     1
102
RTVSPropertyOp42
 70
     1
102
RTVSPropertyOp43
 70
     1
102
RTVSPropertyOp44
 70
     1
102
RTVSPropertyOp45
 70
     1
102
RTVSPropertyOp46
 70
     1
102
RTVSPropertyOp47
 70
     1
102
RTVSPropertyOp48
 70
     1
102
RTVSPropertyOp49
 70
     1
102
RTVSPropertyOp50
 70
     1
102
RTVSPropertyOp51
 70
     0
102
RTVSPropertyOp52
 70
     0
102
RTVSPropertyOp53
 70
     1
102
RTVSPropertyOp54
 70
     1
102
RTVSPropertyOp55
 70
     1
102
RTVSPropertyOp56
 70
     1
102
RTVSPropertyOp57
 70
     1
102
RTVSPropertyOp58
 70
     1
102
RTVSPropertyOp59
 70
     1
102
RTVSPropertyOp60
 70
     1
102
RTVSPropertyOp61
 70
     1
102
RTVSPropertyOp62
 70
     1
  0
XRECORD
  5
9FC
102
{ACAD_REACTORS
330
9FB
102
}
330
9FB
100
AcDbXrecord
280
     1
102
RTVSPost2010Prop28
280
     0
102
RTVSPost2010PropOp28
 70
     1
102
RTVSPost2010Prop29
280
     1
102
RTVSPost2010PropOp29
 70
     1
102
RTVSPost2010Prop30
280
     1
102
RTVSPost2010PropOp30
 70
     1
102
RTVSPost2010Prop31
280
     0
102
RTVSPost2010PropOp31
 70
     1
102
RTVSPost2010Prop32
280
     0
102
RTVSPost2010PropOp32
 70
     1
102
RTVSPost2010Prop33
280
     0
102
RTVSPost2010PropOp33
 70
     1
102
RTVSPost2010Prop34
280
     0
102
RTVSPost2010PropOp34
 70
     1
102
RTVSPost2010Prop35
280
     0
102
RTVSPost2010PropOp35
 70
     1
102
RTVSPost2010Prop36
280
     0
102
RTVSPost2010PropOp36
 70
     1
102
RTVSPost2010Prop37
 90
       50
102
RTVSPost2010PropOp37
 70
     1
102
RTVSPost2010Prop38
140
0.0
102
RTVSPost2010PropOp38
 70
     1
102
RTVSPost2010Prop39
140
1.0
102
RTVSPost2010PropOp39
 70
     1
102
RTVSPost2010Prop40
 90
        0
102
RTVSPost2010PropOp40
 70
     1
102
RTVSPost2010Prop41ColorIndex
 90
       18
102
RTVSPost2010Prop41ColorRGB
 90
        0
102
RTVSPost2010PropOp41
 70
     1
102
RTVSPost2010Prop42
 90
       50
102
RTVSPost2010PropOp42
 70
     1
102
RTVSPost2010Prop43
 90
        3
102
RTVSPost2010PropOp43
 70
     1
102
RTVSPost2010Prop44ColorIndex
 90
        5
102
RTVSPost2010Prop44ColorRGB
 90
      255
102
RTVSPost2010PropOp44
 70
     1
102
RTVSPost2010Prop45
280
     0
102
RTVSPost2010PropOp45
 70
     1
102
RTVSPost2010Prop46
 90
       50
102
RTVSPost2010PropOp46
 70
     1
102
RTVSPost2010Prop47
 90
       50
102
RTVSPost2010PropOp47
 70
     1
102
RTVSPost2010Prop48
 90
       50
102
RTVSPost2010PropOp48
 70
     1
102
RTVSPost2010Prop49
280
     0
102
RTVSPost2010PropOp49
 70
     1
102
RTVSPost2010Prop50
 90
       50
102
RTVSPost2010PropOp50
 70
     1
102
RTVSPost2010Prop51ColorIndex
 90
      256
102
RTVSPost2010Prop51ColorRGB
 90
-16777216
102
RTVSPost2010PropOp51
 70
     0
102
RTVSPost2010Prop52
140
1.0
102
RTVSPost2010PropOp52
 70
     0
102
RTVSPost2010Prop53
 90
        2
102
RTVSPost2010PropOp53
 70
     1
102
RTVSPost2010Prop54
  1
strokes_ogs.tif
102
RTVSPost2010PropOp54
 70
     1
102
RTVSPost2010Prop55
280
     0
102
RTVSPost2010PropOp55
 70
     1
102
RTVSPost2010Prop56
140
1.0
102
RTVSPost2010PropOp56
 70
     1
102
RTVSPost2010Prop57
140
1.0
102
RTVSPost2010PropOp57
 70
     1
102
RTVSPropertyOp0
 70
     1
102
RTVSPropertyOp1
 70
     1
102
RTVSPropertyOp2
 70
     1
102
RTVSPropertyOp3
 70
     1
102
RTVSPropertyOp4
 70
     1
102
RTVSPropertyOp5
 70
     1
102
RTVSPropertyOp6
 70
     1
102
RTVSPropertyOp7
 70
     1
102
RTVSPropertyOp8
 70
     1
102
RTVSPropertyOp9
 70
     1
102
RTVSPropertyOp10
 70
     1
102
RTVSPropertyOp11
 70
     1
102
RTVSPropertyOp12
 70
     1
102
RTVSPropertyOp13
 70
     1
102
RTVSPropertyOp14
 70
     1
102
RTVSPropertyOp15
 70
     1
102
RTVSPropertyOp16
 70
     1
102
RTVSPropertyOp17
 70
     1
102
RTVSPropertyOp18
 70
     1
102
RTVSPropertyOp19
 70
     1
102
RTVSPropertyOp20
 70
     1
102
RTVSPropertyOp21
 70
     1
102
RTVSPropertyOp22
 70
     1
102
RTVSPropertyOp23
 70
     1
102
RTVSPropertyOp24
 70
     1
102
RTVSPropertyOp25
 70
     1
102
RTVSPropertyOp26
 70
     1
102
RTVSPropertyOp27
 70
     1
102
RTVSPropertyOp28
 70
     1
102
RTVSPropertyOp29
 70
     1
102
RTVSPropertyOp30
 70
     1
102
RTVSPropertyOp31
 70
     1
102
RTVSPropertyOp32
 70
     1
102
RTVSPropertyOp33
 70
     1
102
RTVSPropertyOp34
 70
     1
102
RTVSPropertyOp35
 70
     1
102
RTVSPropertyOp36
 70
     1
102
RTVSPropertyOp37
 70
     1
102
RTVSPropertyOp38
 70
     1
102
RTVSPropertyOp39
 70
     1
102
RTVSPropertyOp40
 70
     1
102
RTVSPropertyOp41
 70
     1
102
RTVSPropertyOp42
 70
     1
102
RTVSPropertyOp43
 70
     1
102
RTVSPropertyOp44
 70
     1
102
RTVSPropertyOp45
 70
     1
102
RTVSPropertyOp46
 70
     1
102
RTVSPropertyOp47
 70
     1
102
RTVSPropertyOp48
 70
     1
102
RTVSPropertyOp49
 70
     1
102
RTVSPropertyOp50
 70
     1
102
RTVSPropertyOp51
 70
     0
102
RTVSPropertyOp52
 70
     0
102
RTVSPropertyOp53
 70
     1
102
RTVSPropertyOp54
 70
     1
102
RTVSPropertyOp55
 70
     1
102
RTVSPropertyOp56
 70
     1
102
RTVSPropertyOp57
 70
     1
102
RTVSPropertyOp58
 70
     1
102
RTVSPropertyOp59
 70
     1
102
RTVSPropertyOp60
 70
     1
102
RTVSPropertyOp61
 70
     1
102
RTVSPropertyOp62
 70
     1
  0
XRECORD
  5
A18
102
{ACAD_REACTORS
330
A17
102
}
330
A17
100
AcDbXrecord
280
     1
102
RTVSPost2010Prop28
280
     0
102
RTVSPost2010PropOp28
 70
     1
102
RTVSPost2010Prop29
280
     1
102
RTVSPost2010PropOp29
 70
     1
102
RTVSPost2010Prop30
280
     1
102
RTVSPost2010PropOp30
 70
     1
102
RTVSPost2010Prop31
280
     0
102
RTVSPost2010PropOp31
 70
     1
102
RTVSPost2010Prop32
280
     0
102
RTVSPost2010PropOp32
 70
     1
102
RTVSPost2010Prop33
280
     0
102
RTVSPost2010PropOp33
 70
     1
102
RTVSPost2010Prop34
280
     0
102
RTVSPost2010PropOp34
 70
     1
102
RTVSPost2010Prop35
280
     0
102
RTVSPost2010PropOp35
 70
     1
102
RTVSPost2010Prop36
280
     0
102
RTVSPost2010PropOp36
 70
     1
102
RTVSPost2010Prop37
 90
       50
102
RTVSPost2010PropOp37
 70
     0
102
RTVSPost2010Prop38
140
0.0
102
RTVSPost2010PropOp38
 70
     0
102
RTVSPost2010Prop39
140
1.0
102
RTVSPost2010PropOp39
 70
     0
102
RTVSPost2010Prop40
 90
        0
102
RTVSPost2010PropOp40
 70
     0
102
RTVSPost2010Prop41ColorIndex
 90
       18
102
RTVSPost2010Prop41ColorRGB
 90
        0
102
RTVSPost2010PropOp41
 70
     0
102
RTVSPost2010Prop42
 90
       50
102
RTVSPost2010PropOp42
 70
     0
102
RTVSPost2010Prop43
 90
        3
102
RTVSPost2010PropOp43
 70
     0
102
RTVSPost2010Prop44ColorIndex
 90
        5
102
RTVSPost2010Prop44ColorRGB
 90
      255
102
RTVSPost2010PropOp44
 70
     0
102
RTVSPost2010Prop45
280
     0
102
RTVSPost2010PropOp45
 70
     1
102
RTVSPost2010Prop46
 90
       50
102
RTVSPost2010PropOp46
 70
     0
102
RTVSPost2010Prop47
 90
       50
102
RTVSPost2010PropOp47
 70
     0
102
RTVSPost2010Prop48
 90
       50
102
RTVSPost2010PropOp48
 70
     0
102
RTVSPost2010Prop49
280
     0
102
RTVSPost2010PropOp49
 70
     1
102
RTVSPost2010Prop50
 90
       50
102
RTVSPost2010PropOp50
 70
     0
102
RTVSPost2010Prop51ColorIndex
 90
      256
102
RTVSPost2010Prop51ColorRGB
 90
-16777216
102
RTVSPost2010PropOp51
 70
     0
102
RTVSPost2010Prop52
140
1.0
102
RTVSPost2010PropOp52
 70
     0
102
RTVSPost2010Prop53
 90
        2
102
RTVSPost2010PropOp53
 70
     0
102
RTVSPost2010Prop54
  1
strokes_ogs.tif
102
RTVSPost2010PropOp54
 70
     0
102
RTVSPost2010Prop55
280
     0
102
RTVSPost2010PropOp55
 70
     1
102
RTVSPost2010Prop56
140
1.0
102
RTVSPost2010PropOp56
 70
     0
102
RTVSPost2010Prop57
140
1.0
102
RTVSPost2010PropOp57
 70
     0
102
RTVSPropertyOp0
 70
     0
102
RTVSPropertyOp1
 70
     0
102
RTVSPropertyOp2
 70
     0
102
RTVSPropertyOp3
 70
     0
102
RTVSPropertyOp4
 70
     0
102
RTVSPropertyOp5
 70
     0
102
RTVSPropertyOp6
 70
     0
102
RTVSPropertyOp7
 70
     0
102
RTVSPropertyOp8
 70
     0
102
RTVSPropertyOp9
 70
     0
102
RTVSPropertyOp10
 70
     0
102
RTVSPropertyOp11
 70
     0
102
RTVSPropertyOp12
 70
     0
102
RTVSPropertyOp13
 70
     0
102
RTVSPropertyOp14
 70
     2
102
RTVSPropertyOp15
 70
     0
102
RTVSPropertyOp16
 70
     0
102
RTVSPropertyOp17
 70
     0
102
RTVSPropertyOp18
 70
     0
102
RTVSPropertyOp19
 70
     0
102
RTVSPropertyOp20
 70
     0
102
RTVSPropertyOp21
 70
     0
102
RTVSPropertyOp22
 70
     0
102
RTVSPropertyOp23
 70
     0
102
RTVSPropertyOp24
 70
     0
102
RTVSPropertyOp25
 70
     0
102
RTVSPropertyOp26
 70
     0
102
RTVSPropertyOp27
 70
     0
102
RTVSPropertyOp28
 70
     1
102
RTVSPropertyOp29
 70
     1
102
RTVSPropertyOp30
 70
     1
102
RTVSPropertyOp31
 70
     1
102
RTVSPropertyOp32
 70
     1
102
RTVSPropertyOp33
 70
     1
102
RTVSPropertyOp34
 70
     1
102
RTVSPropertyOp35
 70
     1
102
RTVSPropertyOp36
 70
     1
102
RTVSPropertyOp37
 70
     0
102
RTVSPropertyOp38
 70
     0
102
RTVSPropertyOp39
 70
     0
102
RTVSPropertyOp40
 70
     0
102
RTVSPropertyOp41
 70
     0
102
RTVSPropertyOp42
 70
     0
102
RTVSPropertyOp43
 70
     0
102
RTVSPropertyOp44
 70
     0
102
RTVSPropertyOp45
 70
     1
102
RTVSPropertyOp46
 70
     0
102
RTVSPropertyOp47
 70
     0
102
RTVSPropertyOp48
 70
     0
102
RTVSPropertyOp49
 70
     1
102
RTVSPropertyOp50
 70
     0
102
RTVSPropertyOp51
 70
     0
102
RTVSPropertyOp52
 70
     0
102
RTVSPropertyOp53
 70
     0
102
RTVSPropertyOp54
 70
     0
102
RTVSPropertyOp55
 70
     1
102
RTVSPropertyOp56
 70
     0
102
RTVSPropertyOp57
 70
     0
102
RTVSPropertyOp58
 70
     0
102
RTVSPropertyOp59
 70
     0
102
RTVSPropertyOp60
 70
     0
102
RTVSPropertyOp61
 70
     0
102
RTVSPropertyOp62
 70
     0
  0
XRECORD
  5
A08
102
{ACAD_REACTORS
330
A07
102
}
330
A07
100
AcDbXrecord
280
     1
102
RTVSPost2010Prop28
280
     0
102
RTVSPost2010PropOp28
 70
     1
102
RTVSPost2010Prop29
280
     1
102
RTVSPost2010PropOp29
 70
     1
102
RTVSPost2010Prop30
280
     1
102
RTVSPost2010PropOp30
 70
     1
102
RTVSPost2010Prop31
280
     0
102
RTVSPost2010PropOp31
 70
     1
102
RTVSPost2010Prop32
280
     0
102
RTVSPost2010PropOp32
 70
     1
102
RTVSPost2010Prop33
280
     0
102
RTVSPost2010PropOp33
 70
     1
102
RTVSPost2010Prop34
280
     0
102
RTVSPost2010PropOp34
 70
     1
102
RTVSPost2010Prop35
280
     0
102
RTVSPost2010PropOp35
 70
     1
102
RTVSPost2010Prop36
280
     0
102
RTVSPost2010PropOp36
 70
     1
102
RTVSPost2010Prop37
 90
       50
102
RTVSPost2010PropOp37
 70
     1
102
RTVSPost2010Prop38
140
0.0
102
RTVSPost2010PropOp38
 70
     1
102
RTVSPost2010Prop39
140
1.0
102
RTVSPost2010PropOp39
 70
     1
102
RTVSPost2010Prop40
 90
        0
102
RTVSPost2010PropOp40
 70
     1
102
RTVSPost2010Prop41ColorIndex
 90
       18
102
RTVSPost2010Prop41ColorRGB
 90
        0
102
RTVSPost2010PropOp41
 70
     1
102
RTVSPost2010Prop42
 90
       50
102
RTVSPost2010PropOp42
 70
     1
102
RTVSPost2010Prop43
 90
        3
102
RTVSPost2010PropOp43
 70
     1
102
RTVSPost2010Prop44ColorIndex
 90
        5
102
RTVSPost2010Prop44ColorRGB
 90
      255
102
RTVSPost2010PropOp44
 70
     1
102
RTVSPost2010Prop45
280
     0
102
RTVSPost2010PropOp45
 70
     1
102
RTVSPost2010Prop46
 90
       50
102
RTVSPost2010PropOp46
 70
     1
102
RTVSPost2010Prop47
 90
       50
102
RTVSPost2010PropOp47
 70
     1
102
RTVSPost2010Prop48
 90
       50
102
RTVSPost2010PropOp48
 70
     1
102
RTVSPost2010Prop49
280
     0
102
RTVSPost2010PropOp49
 70
     1
102
RTVSPost2010Prop50
 90
       50
102
RTVSPost2010PropOp50
 70
     1
102
RTVSPost2010Prop51ColorIndex
 90
      256
102
RTVSPost2010Prop51ColorRGB
 90
-16777216
102
RTVSPost2010PropOp51
 70
     0
102
RTVSPost2010Prop52
140
1.0
102
RTVSPost2010PropOp52
 70
     0
102
RTVSPost2010Prop53
 90
        2
102
RTVSPost2010PropOp53
 70
     1
102
RTVSPost2010Prop54
  1
strokes_ogs.tif
102
RTVSPost2010PropOp54
 70
     1
102
RTVSPost2010Prop55
280
     0
102
RTVSPost2010PropOp55
 70
     1
102
RTVSPost2010Prop56
140
1.0
102
RTVSPost2010PropOp56
 70
     1
102
RTVSPost2010Prop57
140
1.0
102
RTVSPost2010PropOp57
 70
     1
102
RTVSPropertyOp0
 70
     1
102
RTVSPropertyOp1
 70
     1
102
RTVSPropertyOp2
 70
     1
102
RTVSPropertyOp3
 70
     1
102
RTVSPropertyOp4
 70
     1
102
RTVSPropertyOp5
 70
     1
102
RTVSPropertyOp6
 70
     1
102
RTVSPropertyOp7
 70
     1
102
RTVSPropertyOp8
 70
     1
102
RTVSPropertyOp9
 70
     1
102
RTVSPropertyOp10
 70
     1
102
RTVSPropertyOp11
 70
     1
102
RTVSPropertyOp12
 70
     1
102
RTVSPropertyOp13
 70
     1
102
RTVSPropertyOp14
 70
     1
102
RTVSPropertyOp15
 70
     1
102
RTVSPropertyOp16
 70
     1
102
RTVSPropertyOp17
 70
     1
102
RTVSPropertyOp18
 70
     1
102
RTVSPropertyOp19
 70
     1
102
RTVSPropertyOp20
 70
     1
102
RTVSPropertyOp21
 70
     1
102
RTVSPropertyOp22
 70
     1
102
RTVSPropertyOp23
 70
     1
102
RTVSPropertyOp24
 70
     1
102
RTVSPropertyOp25
 70
     1
102
RTVSPropertyOp26
 70
     1
102
RTVSPropertyOp27
 70
     1
102
RTVSPropertyOp28
 70
     1
102
RTVSPropertyOp29
 70
     1
102
RTVSPropertyOp30
 70
     1
102
RTVSPropertyOp31
 70
     1
102
RTVSPropertyOp32
 70
     1
102
RTVSPropertyOp33
 70
     1
102
RTVSPropertyOp34
 70
     1
102
RTVSPropertyOp35
 70
     1
102
RTVSPropertyOp36
 70
     1
102
RTVSPropertyOp37
 70
     1
102
RTVSPropertyOp38
 70
     1
102
RTVSPropertyOp39
 70
     1
102
RTVSPropertyOp40
 70
     1
102
RTVSPropertyOp41
 70
     1
102
RTVSPropertyOp42
 70
     1
102
RTVSPropertyOp43
 70
     1
102
RTVSPropertyOp44
 70
     1
102
RTVSPropertyOp45
 70
     1
102
RTVSPropertyOp46
 70
     1
102
RTVSPropertyOp47
 70
     1
102
RTVSPropertyOp48
 70
     1
102
RTVSPropertyOp49
 70
     1
102
RTVSPropertyOp50
 70
     1
102
RTVSPropertyOp51
 70
     0
102
RTVSPropertyOp52
 70
     0
102
RTVSPropertyOp53
 70
     1
102
RTVSPropertyOp54
 70
     1
102
RTVSPropertyOp55
 70
     1
102
RTVSPropertyOp56
 70
     1
102
RTVSPropertyOp57
 70
     1
102
RTVSPropertyOp58
 70
     1
102
RTVSPropertyOp59
 70
     1
102
RTVSPropertyOp60
 70
     1
102
RTVSPropertyOp61
 70
     1
102
RTVSPropertyOp62
 70
     1
  0
XRECORD
  5
A1A
102
{ACAD_REACTORS
330
A19
102
}
330
A19
100
AcDbXrecord
280
     1
102
RTVSPost2010Prop28
280
     0
102
RTVSPost2010PropOp28
 70
     1
102
RTVSPost2010Prop29
280
     1
102
RTVSPost2010PropOp29
 70
     1
102
RTVSPost2010Prop30
280
     1
102
RTVSPost2010PropOp30
 70
     1
102
RTVSPost2010Prop31
280
     0
102
RTVSPost2010PropOp31
 70
     1
102
RTVSPost2010Prop32
280
     0
102
RTVSPost2010PropOp32
 70
     1
102
RTVSPost2010Prop33
280
     0
102
RTVSPost2010PropOp33
 70
     1
102
RTVSPost2010Prop34
280
     0
102
RTVSPost2010PropOp34
 70
     1
102
RTVSPost2010Prop35
280
     0
102
RTVSPost2010PropOp35
 70
     1
102
RTVSPost2010Prop36
280
     0
102
RTVSPost2010PropOp36
 70
     1
102
RTVSPost2010Prop37
 90
       50
102
RTVSPost2010PropOp37
 70
     0
102
RTVSPost2010Prop38
140
0.0
102
RTVSPost2010PropOp38
 70
     0
102
RTVSPost2010Prop39
140
1.0
102
RTVSPost2010PropOp39
 70
     0
102
RTVSPost2010Prop40
 90
        0
102
RTVSPost2010PropOp40
 70
     0
102
RTVSPost2010Prop41ColorIndex
 90
       18
102
RTVSPost2010Prop41ColorRGB
 90
        0
102
RTVSPost2010PropOp41
 70
     0
102
RTVSPost2010Prop42
 90
       50
102
RTVSPost2010PropOp42
 70
     0
102
RTVSPost2010Prop43
 90
        3
102
RTVSPost2010PropOp43
 70
     0
102
RTVSPost2010Prop44ColorIndex
 90
        5
102
RTVSPost2010Prop44ColorRGB
 90
      255
102
RTVSPost2010PropOp44
 70
     0
102
RTVSPost2010Prop45
280
     0
102
RTVSPost2010PropOp45
 70
     1
102
RTVSPost2010Prop46
 90
       50
102
RTVSPost2010PropOp46
 70
     0
102
RTVSPost2010Prop47
 90
       50
102
RTVSPost2010PropOp47
 70
     0
102
RTVSPost2010Prop48
 90
       50
102
RTVSPost2010PropOp48
 70
     0
102
RTVSPost2010Prop49
280
     0
102
RTVSPost2010PropOp49
 70
     1
102
RTVSPost2010Prop50
 90
       50
102
RTVSPost2010PropOp50
 70
     0
102
RTVSPost2010Prop51ColorIndex
 90
      256
102
RTVSPost2010Prop51ColorRGB
 90
-16777216
102
RTVSPost2010PropOp51
 70
     0
102
RTVSPost2010Prop52
140
1.0
102
RTVSPost2010PropOp52
 70
     0
102
RTVSPost2010Prop53
 90
        2
102
RTVSPost2010PropOp53
 70
     0
102
RTVSPost2010Prop54
  1
strokes_ogs.tif
102
RTVSPost2010PropOp54
 70
     0
102
RTVSPost2010Prop55
280
     0
102
RTVSPost2010PropOp55
 70
     1
102
RTVSPost2010Prop56
140
1.0
102
RTVSPost2010PropOp56
 70
     0
102
RTVSPost2010Prop57
140
1.0
102
RTVSPost2010PropOp57
 70
     0
102
RTVSPropertyOp0
 70
     0
102
RTVSPropertyOp1
 70
     0
102
RTVSPropertyOp2
 70
     0
102
RTVSPropertyOp3
 70
     0
102
RTVSPropertyOp4
 70
     0
102
RTVSPropertyOp5
 70
     0
102
RTVSPropertyOp6
 70
     0
102
RTVSPropertyOp7
 70
     0
102
RTVSPropertyOp8
 70
     0
102
RTVSPropertyOp9
 70
     0
102
RTVSPropertyOp10
 70
     0
102
RTVSPropertyOp11
 70
     0
102
RTVSPropertyOp12
 70
     0
102
RTVSPropertyOp13
 70
     0
102
RTVSPropertyOp14
 70
     2
102
RTVSPropertyOp15
 70
     0
102
RTVSPropertyOp16
 70
     0
102
RTVSPropertyOp17
 70
     0
102
RTVSPropertyOp18
 70
     0
102
RTVSPropertyOp19
 70
     0
102
RTVSPropertyOp20
 70
     0
102
RTVSPropertyOp21
 70
     0
102
RTVSPropertyOp22
 70
     0
102
RTVSPropertyOp23
 70
     0
102
RTVSPropertyOp24
 70
     0
102
RTVSPropertyOp25
 70
     0
102
RTVSPropertyOp26
 70
     0
102
RTVSPropertyOp27
 70
     0
102
RTVSPropertyOp28
 70
     1
102
RTVSPropertyOp29
 70
     1
102
RTVSPropertyOp30
 70
     1
102
RTVSPropertyOp31
 70
     1
102
RTVSPropertyOp32
 70
     1
102
RTVSPropertyOp33
 70
     1
102
RTVSPropertyOp34
 70
     1
102
RTVSPropertyOp35
 70
     1
102
RTVSPropertyOp36
 70
     1
102
RTVSPropertyOp37
 70
     0
102
RTVSPropertyOp38
 70
     0
102
RTVSPropertyOp39
 70
     0
102
RTVSPropertyOp40
 70
     0
102
RTVSPropertyOp41
 70
     0
102
RTVSPropertyOp42
 70
     0
102
RTVSPropertyOp43
 70
     0
102
RTVSPropertyOp44
 70
     0
102
RTVSPropertyOp45
 70
     1
102
RTVSPropertyOp46
 70
     0
102
RTVSPropertyOp47
 70
     0
102
RTVSPropertyOp48
 70
     0
102
RTVSPropertyOp49
 70
     1
102
RTVSPropertyOp50
 70
     0
102
RTVSPropertyOp51
 70
     0
102
RTVSPropertyOp52
 70
     0
102
RTVSPropertyOp53
 70
     0
102
RTVSPropertyOp54
 70
     0
102
RTVSPropertyOp55
 70
     1
102
RTVSPropertyOp56
 70
     0
102
RTVSPropertyOp57
 70
     0
102
RTVSPropertyOp58
 70
     0
102
RTVSPropertyOp59
 70
     0
102
RTVSPropertyOp60
 70
     0
102
RTVSPropertyOp61
 70
     0
102
RTVSPropertyOp62
 70
     0
  0
XRECORD
  5
A00
102
{ACAD_REACTORS
330
9FF
102
}
330
9FF
100
AcDbXrecord
280
     1
102
RTVSPost2010Prop28
280
     0
102
RTVSPost2010PropOp28
 70
     1
102
RTVSPost2010Prop29
280
     1
102
RTVSPost2010PropOp29
 70
     1
102
RTVSPost2010Prop30
280
     1
102
RTVSPost2010PropOp30
 70
     1
102
RTVSPost2010Prop31
280
     0
102
RTVSPost2010PropOp31
 70
     1
102
RTVSPost2010Prop32
280
     0
102
RTVSPost2010PropOp32
 70
     1
102
RTVSPost2010Prop33
280
     0
102
RTVSPost2010PropOp33
 70
     1
102
RTVSPost2010Prop34
280
     0
102
RTVSPost2010PropOp34
 70
     1
102
RTVSPost2010Prop35
280
     0
102
RTVSPost2010PropOp35
 70
     1
102
RTVSPost2010Prop36
280
     0
102
RTVSPost2010PropOp36
 70
     1
102
RTVSPost2010Prop37
 90
       50
102
RTVSPost2010PropOp37
 70
     1
102
RTVSPost2010Prop38
140
0.0
102
RTVSPost2010PropOp38
 70
     1
102
RTVSPost2010Prop39
140
1.0
102
RTVSPost2010PropOp39
 70
     1
102
RTVSPost2010Prop40
 90
        0
102
RTVSPost2010PropOp40
 70
     1
102
RTVSPost2010Prop41ColorIndex
 90
       18
102
RTVSPost2010Prop41ColorRGB
 90
        0
102
RTVSPost2010PropOp41
 70
     1
102
RTVSPost2010Prop42
 90
       50
102
RTVSPost2010PropOp42
 70
     1
102
RTVSPost2010Prop43
 90
        3
102
RTVSPost2010PropOp43
 70
     1
102
RTVSPost2010Prop44ColorIndex
 90
        5
102
RTVSPost2010Prop44ColorRGB
 90
      255
102
RTVSPost2010PropOp44
 70
     1
102
RTVSPost2010Prop45
280
     0
102
RTVSPost2010PropOp45
 70
     1
102
RTVSPost2010Prop46
 90
       50
102
RTVSPost2010PropOp46
 70
     1
102
RTVSPost2010Prop47
 90
       50
102
RTVSPost2010PropOp47
 70
     1
102
RTVSPost2010Prop48
 90
       50
102
RTVSPost2010PropOp48
 70
     1
102
RTVSPost2010Prop49
280
     0
102
RTVSPost2010PropOp49
 70
     1
102
RTVSPost2010Prop50
 90
       50
102
RTVSPost2010PropOp50
 70
     1
102
RTVSPost2010Prop51ColorIndex
 90
      256
102
RTVSPost2010Prop51ColorRGB
 90
-16777216
102
RTVSPost2010PropOp51
 70
     0
102
RTVSPost2010Prop52
140
1.0
102
RTVSPost2010PropOp52
 70
     0
102
RTVSPost2010Prop53
 90
        2
102
RTVSPost2010PropOp53
 70
     1
102
RTVSPost2010Prop54
  1
strokes_ogs.tif
102
RTVSPost2010PropOp54
 70
     1
102
RTVSPost2010Prop55
280
     0
102
RTVSPost2010PropOp55
 70
     1
102
RTVSPost2010Prop56
140
1.0
102
RTVSPost2010PropOp56
 70
     1
102
RTVSPost2010Prop57
140
1.0
102
RTVSPost2010PropOp57
 70
     1
102
RTVSPropertyOp0
 70
     1
102
RTVSPropertyOp1
 70
     1
102
RTVSPropertyOp2
 70
     1
102
RTVSPropertyOp3
 70
     1
102
RTVSPropertyOp4
 70
     1
102
RTVSPropertyOp5
 70
     1
102
RTVSPropertyOp6
 70
     1
102
RTVSPropertyOp7
 70
     1
102
RTVSPropertyOp8
 70
     1
102
RTVSPropertyOp9
 70
     1
102
RTVSPropertyOp10
 70
     1
102
RTVSPropertyOp11
 70
     1
102
RTVSPropertyOp12
 70
     1
102
RTVSPropertyOp13
 70
     1
102
RTVSPropertyOp14
 70
     1
102
RTVSPropertyOp15
 70
     1
102
RTVSPropertyOp16
 70
     1
102
RTVSPropertyOp17
 70
     1
102
RTVSPropertyOp18
 70
     1
102
RTVSPropertyOp19
 70
     1
102
RTVSPropertyOp20
 70
     1
102
RTVSPropertyOp21
 70
     1
102
RTVSPropertyOp22
 70
     1
102
RTVSPropertyOp23
 70
     1
102
RTVSPropertyOp24
 70
     1
102
RTVSPropertyOp25
 70
     1
102
RTVSPropertyOp26
 70
     1
102
RTVSPropertyOp27
 70
     1
102
RTVSPropertyOp28
 70
     1
102
RTVSPropertyOp29
 70
     1
102
RTVSPropertyOp30
 70
     1
102
RTVSPropertyOp31
 70
     1
102
RTVSPropertyOp32
 70
     1
102
RTVSPropertyOp33
 70
     1
102
RTVSPropertyOp34
 70
     1
102
RTVSPropertyOp35
 70
     1
102
RTVSPropertyOp36
 70
     1
102
RTVSPropertyOp37
 70
     1
102
RTVSPropertyOp38
 70
     1
102
RTVSPropertyOp39
 70
     1
102
RTVSPropertyOp40
 70
     1
102
RTVSPropertyOp41
 70
     1
102
RTVSPropertyOp42
 70
     1
102
RTVSPropertyOp43
 70
     1
102
RTVSPropertyOp44
 70
     1
102
RTVSPropertyOp45
 70
     1
102
RTVSPropertyOp46
 70
     1
102
RTVSPropertyOp47
 70
     1
102
RTVSPropertyOp48
 70
     1
102
RTVSPropertyOp49
 70
     1
102
RTVSPropertyOp50
 70
     1
102
RTVSPropertyOp51
 70
     0
102
RTVSPropertyOp52
 70
     0
102
RTVSPropertyOp53
 70
     1
102
RTVSPropertyOp54
 70
     1
102
RTVSPropertyOp55
 70
     1
102
RTVSPropertyOp56
 70
     1
102
RTVSPropertyOp57
 70
     1
102
RTVSPropertyOp58
 70
     1
102
RTVSPropertyOp59
 70
     1
102
RTVSPropertyOp60
 70
     1
102
RTVSPropertyOp61
 70
     1
102
RTVSPropertyOp62
 70
     1
  0
XRECORD
  5
A16
102
{ACAD_REACTORS
330
A15
102
}
330
A15
100
AcDbXrecord
280
     1
102
RTVSPost2010Prop28
280
     0
102
RTVSPost2010PropOp28
 70
     1
102
RTVSPost2010Prop29
280
     1
102
RTVSPost2010PropOp29
 70
     1
102
RTVSPost2010Prop30
280
     1
102
RTVSPost2010PropOp30
 70
     1
102
RTVSPost2010Prop31
280
     0
102
RTVSPost2010PropOp31
 70
     1
102
RTVSPost2010Prop32
280
     0
102
RTVSPost2010PropOp32
 70
     1
102
RTVSPost2010Prop33
280
     0
102
RTVSPost2010PropOp33
 70
     1
102
RTVSPost2010Prop34
280
     0
102
RTVSPost2010PropOp34
 70
     1
102
RTVSPost2010Prop35
280
     0
102
RTVSPost2010PropOp35
 70
     1
102
RTVSPost2010Prop36
280
     0
102
RTVSPost2010PropOp36
 70
     1
102
RTVSPost2010Prop37
 90
       50
102
RTVSPost2010PropOp37
 70
     1
102
RTVSPost2010Prop38
140
0.0
102
RTVSPost2010PropOp38
 70
     1
102
RTVSPost2010Prop39
140
1.0
102
RTVSPost2010PropOp39
 70
     1
102
RTVSPost2010Prop40
 90
        0
102
RTVSPost2010PropOp40
 70
     1
102
RTVSPost2010Prop41ColorIndex
 90
       18
102
RTVSPost2010Prop41ColorRGB
 90
        0
102
RTVSPost2010PropOp41
 70
     1
102
RTVSPost2010Prop42
 90
       50
102
RTVSPost2010PropOp42
 70
     1
102
RTVSPost2010Prop43
 90
        3
102
RTVSPost2010PropOp43
 70
     1
102
RTVSPost2010Prop44ColorIndex
 90
        5
102
RTVSPost2010Prop44ColorRGB
 90
      255
102
RTVSPost2010PropOp44
 70
     1
102
RTVSPost2010Prop45
280
     0
102
RTVSPost2010PropOp45
 70
     1
102
RTVSPost2010Prop46
 90
       50
102
RTVSPost2010PropOp46
 70
     1
102
RTVSPost2010Prop47
 90
       50
102
RTVSPost2010PropOp47
 70
     1
102
RTVSPost2010Prop48
 90
       50
102
RTVSPost2010PropOp48
 70
     1
102
RTVSPost2010Prop49
280
     0
102
RTVSPost2010PropOp49
 70
     1
102
RTVSPost2010Prop50
 90
       50
102
RTVSPost2010PropOp50
 70
     1
102
RTVSPost2010Prop51ColorIndex
 90
      256
102
RTVSPost2010Prop51ColorRGB
 90
-16777216
102
RTVSPost2010PropOp51
 70
     0
102
RTVSPost2010Prop52
140
1.0
102
RTVSPost2010PropOp52
 70
     0
102
RTVSPost2010Prop53
 90
        2
102
RTVSPost2010PropOp53
 70
     1
102
RTVSPost2010Prop54
  1
strokes_ogs.tif
102
RTVSPost2010PropOp54
 70
     1
102
RTVSPost2010Prop55
280
     0
102
RTVSPost2010PropOp55
 70
     1
102
RTVSPost2010Prop56
140
1.0
102
RTVSPost2010PropOp56
 70
     1
102
RTVSPost2010Prop57
140
1.0
102
RTVSPost2010PropOp57
 70
     1
102
RTVSPropertyOp0
 70
     1
102
RTVSPropertyOp1
 70
     1
102
RTVSPropertyOp2
 70
     1
102
RTVSPropertyOp3
 70
     1
102
RTVSPropertyOp4
 70
     1
102
RTVSPropertyOp5
 70
     1
102
RTVSPropertyOp6
 70
     1
102
RTVSPropertyOp7
 70
     1
102
RTVSPropertyOp8
 70
     1
102
RTVSPropertyOp9
 70
     1
102
RTVSPropertyOp10
 70
     1
102
RTVSPropertyOp11
 70
     1
102
RTVSPropertyOp12
 70
     1
102
RTVSPropertyOp13
 70
     1
102
RTVSPropertyOp14
 70
     1
102
RTVSPropertyOp15
 70
     1
102
RTVSPropertyOp16
 70
     1
102
RTVSPropertyOp17
 70
     1
102
RTVSPropertyOp18
 70
     1
102
RTVSPropertyOp19
 70
     1
102
RTVSPropertyOp20
 70
     1
102
RTVSPropertyOp21
 70
     1
102
RTVSPropertyOp22
 70
     1
102
RTVSPropertyOp23
 70
     1
102
RTVSPropertyOp24
 70
     1
102
RTVSPropertyOp25
 70
     1
102
RTVSPropertyOp26
 70
     1
102
RTVSPropertyOp27
 70
     1
102
RTVSPropertyOp28
 70
     1
102
RTVSPropertyOp29
 70
     1
102
RTVSPropertyOp30
 70
     1
102
RTVSPropertyOp31
 70
     1
102
RTVSPropertyOp32
 70
     1
102
RTVSPropertyOp33
 70
     1
102
RTVSPropertyOp34
 70
     1
102
RTVSPropertyOp35
 70
     1
102
RTVSPropertyOp36
 70
     1
102
RTVSPropertyOp37
 70
     1
102
RTVSPropertyOp38
 70
     1
102
RTVSPropertyOp39
 70
     1
102
RTVSPropertyOp40
 70
     1
102
RTVSPropertyOp41
 70
     1
102
RTVSPropertyOp42
 70
     1
102
RTVSPropertyOp43
 70
     1
102
RTVSPropertyOp44
 70
     1
102
RTVSPropertyOp45
 70
     1
102
RTVSPropertyOp46
 70
     1
102
RTVSPropertyOp47
 70
     1
102
RTVSPropertyOp48
 70
     1
102
RTVSPropertyOp49
 70
     1
102
RTVSPropertyOp50
 70
     1
102
RTVSPropertyOp51
 70
     0
102
RTVSPropertyOp52
 70
     0
102
RTVSPropertyOp53
 70
     1
102
RTVSPropertyOp54
 70
     1
102
RTVSPropertyOp55
 70
     1
102
RTVSPropertyOp56
 70
     1
102
RTVSPropertyOp57
 70
     1
102
RTVSPropertyOp58
 70
     1
102
RTVSPropertyOp59
 70
     1
102
RTVSPropertyOp60
 70
     1
102
RTVSPropertyOp61
 70
     1
102
RTVSPropertyOp62
 70
     1
  0
XRECORD
  5
A14
102
{ACAD_REACTORS
330
A13
102
}
330
A13
100
AcDbXrecord
280
     1
102
RTVSPost2010Prop28
280
     0
102
RTVSPost2010PropOp28
 70
     1
102
RTVSPost2010Prop29
280
     1
102
RTVSPost2010PropOp29
 70
     1
102
RTVSPost2010Prop30
280
     1
102
RTVSPost2010PropOp30
 70
     1
102
RTVSPost2010Prop31
280
     0
102
RTVSPost2010PropOp31
 70
     1
102
RTVSPost2010Prop32
280
     0
102
RTVSPost2010PropOp32
 70
     1
102
RTVSPost2010Prop33
280
     0
102
RTVSPost2010PropOp33
 70
     1
102
RTVSPost2010Prop34
280
     0
102
RTVSPost2010PropOp34
 70
     1
102
RTVSPost2010Prop35
280
     0
102
RTVSPost2010PropOp35
 70
     1
102
RTVSPost2010Prop36
280
     0
102
RTVSPost2010PropOp36
 70
     1
102
RTVSPost2010Prop37
 90
       50
102
RTVSPost2010PropOp37
 70
     1
102
RTVSPost2010Prop38
140
0.0
102
RTVSPost2010PropOp38
 70
     1
102
RTVSPost2010Prop39
140
1.0
102
RTVSPost2010PropOp39
 70
     1
102
RTVSPost2010Prop40
 90
        0
102
RTVSPost2010PropOp40
 70
     1
102
RTVSPost2010Prop41ColorIndex
 90
       18
102
RTVSPost2010Prop41ColorRGB
 90
        0
102
RTVSPost2010PropOp41
 70
     1
102
RTVSPost2010Prop42
 90
       50
102
RTVSPost2010PropOp42
 70
     1
102
RTVSPost2010Prop43
 90
        3
102
RTVSPost2010PropOp43
 70
     1
102
RTVSPost2010Prop44ColorIndex
 90
        5
102
RTVSPost2010Prop44ColorRGB
 90
      255
102
RTVSPost2010PropOp44
 70
     1
102
RTVSPost2010Prop45
280
     0
102
RTVSPost2010PropOp45
 70
     1
102
RTVSPost2010Prop46
 90
       50
102
RTVSPost2010PropOp46
 70
     1
102
RTVSPost2010Prop47
 90
       50
102
RTVSPost2010PropOp47
 70
     1
102
RTVSPost2010Prop48
 90
       50
102
RTVSPost2010PropOp48
 70
     1
102
RTVSPost2010Prop49
280
     0
102
RTVSPost2010PropOp49
 70
     1
102
RTVSPost2010Prop50
 90
       50
102
RTVSPost2010PropOp50
 70
     1
102
RTVSPost2010Prop51ColorIndex
 90
      256
102
RTVSPost2010Prop51ColorRGB
 90
-16777216
102
RTVSPost2010PropOp51
 70
     0
102
RTVSPost2010Prop52
140
1.0
102
RTVSPost2010PropOp52
 70
     0
102
RTVSPost2010Prop53
 90
        2
102
RTVSPost2010PropOp53
 70
     1
102
RTVSPost2010Prop54
  1
strokes_ogs.tif
102
RTVSPost2010PropOp54
 70
     1
102
RTVSPost2010Prop55
280
     0
102
RTVSPost2010PropOp55
 70
     1
102
RTVSPost2010Prop56
140
1.0
102
RTVSPost2010PropOp56
 70
     1
102
RTVSPost2010Prop57
140
1.0
102
RTVSPost2010PropOp57
 70
     1
102
RTVSPropertyOp0
 70
     1
102
RTVSPropertyOp1
 70
     1
102
RTVSPropertyOp2
 70
     1
102
RTVSPropertyOp3
 70
     1
102
RTVSPropertyOp4
 70
     1
102
RTVSPropertyOp5
 70
     1
102
RTVSPropertyOp6
 70
     1
102
RTVSPropertyOp7
 70
     1
102
RTVSPropertyOp8
 70
     1
102
RTVSPropertyOp9
 70
     1
102
RTVSPropertyOp10
 70
     1
102
RTVSPropertyOp11
 70
     1
102
RTVSPropertyOp12
 70
     1
102
RTVSPropertyOp13
 70
     1
102
RTVSPropertyOp14
 70
     1
102
RTVSPropertyOp15
 70
     1
102
RTVSPropertyOp16
 70
     1
102
RTVSPropertyOp17
 70
     1
102
RTVSPropertyOp18
 70
     1
102
RTVSPropertyOp19
 70
     1
102
RTVSPropertyOp20
 70
     1
102
RTVSPropertyOp21
 70
     1
102
RTVSPropertyOp22
 70
     1
102
RTVSPropertyOp23
 70
     1
102
RTVSPropertyOp24
 70
     1
102
RTVSPropertyOp25
 70
     1
102
RTVSPropertyOp26
 70
     1
102
RTVSPropertyOp27
 70
     1
102
RTVSPropertyOp28
 70
     1
102
RTVSPropertyOp29
 70
     1
102
RTVSPropertyOp30
 70
     1
102
RTVSPropertyOp31
 70
     1
102
RTVSPropertyOp32
 70
     1
102
RTVSPropertyOp33
 70
     1
102
RTVSPropertyOp34
 70
     1
102
RTVSPropertyOp35
 70
     1
102
RTVSPropertyOp36
 70
     1
102
RTVSPropertyOp37
 70
     1
102
RTVSPropertyOp38
 70
     1
102
RTVSPropertyOp39
 70
     1
102
RTVSPropertyOp40
 70
     1
102
RTVSPropertyOp41
 70
     1
102
RTVSPropertyOp42
 70
     1
102
RTVSPropertyOp43
 70
     1
102
RTVSPropertyOp44
 70
     1
102
RTVSPropertyOp45
 70
     1
102
RTVSPropertyOp46
 70
     1
102
RTVSPropertyOp47
 70
     1
102
RTVSPropertyOp48
 70
     1
102
RTVSPropertyOp49
 70
     1
102
RTVSPropertyOp50
 70
     1
102
RTVSPropertyOp51
 70
     0
102
RTVSPropertyOp52
 70
     0
102
RTVSPropertyOp53
 70
     1
102
RTVSPropertyOp54
 70
     1
102
RTVSPropertyOp55
 70
     1
102
RTVSPropertyOp56
 70
     1
102
RTVSPropertyOp57
 70
     1
102
RTVSPropertyOp58
 70
     1
102
RTVSPropertyOp59
 70
     1
102
RTVSPropertyOp60
 70
     1
102
RTVSPropertyOp61
 70
     1
102
RTVSPropertyOp62
 70
     1
  0
XRECORD
  5
A0E
102
{ACAD_REACTORS
330
A0D
102
}
330
A0D
100
AcDbXrecord
280
     1
102
RTVSPost2010Prop28
280
     0
102
RTVSPost2010PropOp28
 70
     1
102
RTVSPost2010Prop29
280
     1
102
RTVSPost2010PropOp29
 70
     1
102
RTVSPost2010Prop30
280
     1
102
RTVSPost2010PropOp30
 70
     1
102
RTVSPost2010Prop31
280
     0
102
RTVSPost2010PropOp31
 70
     1
102
RTVSPost2010Prop32
280
     0
102
RTVSPost2010PropOp32
 70
     1
102
RTVSPost2010Prop33
280
     0
102
RTVSPost2010PropOp33
 70
     1
102
RTVSPost2010Prop34
280
     0
102
RTVSPost2010PropOp34
 70
     1
102
RTVSPost2010Prop35
280
     0
102
RTVSPost2010PropOp35
 70
     1
102
RTVSPost2010Prop36
280
     0
102
RTVSPost2010PropOp36
 70
     1
102
RTVSPost2010Prop37
 90
       50
102
RTVSPost2010PropOp37
 70
     1
102
RTVSPost2010Prop38
140
0.0
102
RTVSPost2010PropOp38
 70
     1
102
RTVSPost2010Prop39
140
1.0
102
RTVSPost2010PropOp39
 70
     1
102
RTVSPost2010Prop40
 90
        0
102
RTVSPost2010PropOp40
 70
     1
102
RTVSPost2010Prop41ColorIndex
 90
       18
102
RTVSPost2010Prop41ColorRGB
 90
        0
102
RTVSPost2010PropOp41
 70
     1
102
RTVSPost2010Prop42
 90
       50
102
RTVSPost2010PropOp42
 70
     1
102
RTVSPost2010Prop43
 90
        3
102
RTVSPost2010PropOp43
 70
     1
102
RTVSPost2010Prop44ColorIndex
 90
        5
102
RTVSPost2010Prop44ColorRGB
 90
      255
102
RTVSPost2010PropOp44
 70
     1
102
RTVSPost2010Prop45
280
     0
102
RTVSPost2010PropOp45
 70
     1
102
RTVSPost2010Prop46
 90
       50
102
RTVSPost2010PropOp46
 70
     1
102
RTVSPost2010Prop47
 90
       50
102
RTVSPost2010PropOp47
 70
     1
102
RTVSPost2010Prop48
 90
       50
102
RTVSPost2010PropOp48
 70
     1
102
RTVSPost2010Prop49
280
     0
102
RTVSPost2010PropOp49
 70
     1
102
RTVSPost2010Prop50
 90
       50
102
RTVSPost2010PropOp50
 70
     1
102
RTVSPost2010Prop51ColorIndex
 90
      256
102
RTVSPost2010Prop51ColorRGB
 90
-16777216
102
RTVSPost2010PropOp51
 70
     0
102
RTVSPost2010Prop52
140
1.0
102
RTVSPost2010PropOp52
 70
     0
102
RTVSPost2010Prop53
 90
        2
102
RTVSPost2010PropOp53
 70
     1
102
RTVSPost2010Prop54
  1
strokes_ogs.tif
102
RTVSPost2010PropOp54
 70
     1
102
RTVSPost2010Prop55
280
     0
102
RTVSPost2010PropOp55
 70
     1
102
RTVSPost2010Prop56
140
1.0
102
RTVSPost2010PropOp56
 70
     1
102
RTVSPost2010Prop57
140
1.0
102
RTVSPost2010PropOp57
 70
     1
102
RTVSPropertyOp0
 70
     1
102
RTVSPropertyOp1
 70
     1
102
RTVSPropertyOp2
 70
     1
102
RTVSPropertyOp3
 70
     1
102
RTVSPropertyOp4
 70
     1
102
RTVSPropertyOp5
 70
     1
102
RTVSPropertyOp6
 70
     1
102
RTVSPropertyOp7
 70
     1
102
RTVSPropertyOp8
 70
     1
102
RTVSPropertyOp9
 70
     1
102
RTVSPropertyOp10
 70
     1
102
RTVSPropertyOp11
 70
     1
102
RTVSPropertyOp12
 70
     1
102
RTVSPropertyOp13
 70
     1
102
RTVSPropertyOp14
 70
     1
102
RTVSPropertyOp15
 70
     1
102
RTVSPropertyOp16
 70
     1
102
RTVSPropertyOp17
 70
     1
102
RTVSPropertyOp18
 70
     1
102
RTVSPropertyOp19
 70
     1
102
RTVSPropertyOp20
 70
     1
102
RTVSPropertyOp21
 70
     1
102
RTVSPropertyOp22
 70
     1
102
RTVSPropertyOp23
 70
     1
102
RTVSPropertyOp24
 70
     1
102
RTVSPropertyOp25
 70
     1
102
RTVSPropertyOp26
 70
     1
102
RTVSPropertyOp27
 70
     1
102
RTVSPropertyOp28
 70
     1
102
RTVSPropertyOp29
 70
     1
102
RTVSPropertyOp30
 70
     1
102
RTVSPropertyOp31
 70
     1
102
RTVSPropertyOp32
 70
     1
102
RTVSPropertyOp33
 70
     1
102
RTVSPropertyOp34
 70
     1
102
RTVSPropertyOp35
 70
     1
102
RTVSPropertyOp36
 70
     1
102
RTVSPropertyOp37
 70
     1
102
RTVSPropertyOp38
 70
     1
102
RTVSPropertyOp39
 70
     1
102
RTVSPropertyOp40
 70
     1
102
RTVSPropertyOp41
 70
     1
102
RTVSPropertyOp42
 70
     1
102
RTVSPropertyOp43
 70
     1
102
RTVSPropertyOp44
 70
     1
102
RTVSPropertyOp45
 70
     1
102
RTVSPropertyOp46
 70
     1
102
RTVSPropertyOp47
 70
     1
102
RTVSPropertyOp48
 70
     1
102
RTVSPropertyOp49
 70
     1
102
RTVSPropertyOp50
 70
     1
102
RTVSPropertyOp51
 70
     0
102
RTVSPropertyOp52
 70
     0
102
RTVSPropertyOp53
 70
     1
102
RTVSPropertyOp54
 70
     1
102
RTVSPropertyOp55
 70
     1
102
RTVSPropertyOp56
 70
     1
102
RTVSPropertyOp57
 70
     1
102
RTVSPropertyOp58
 70
     1
102
RTVSPropertyOp59
 70
     1
102
RTVSPropertyOp60
 70
     1
102
RTVSPropertyOp61
 70
     1
102
RTVSPropertyOp62
 70
     1
  0
XRECORD
  5
A10
102
{ACAD_REACTORS
330
A0F
102
}
330
A0F
100
AcDbXrecord
280
     1
102
RTVSPost2010Prop28
280
     0
102
RTVSPost2010PropOp28
 70
     1
102
RTVSPost2010Prop29
280
     1
102
RTVSPost2010PropOp29
 70
     1
102
RTVSPost2010Prop30
280
     1
102
RTVSPost2010PropOp30
 70
     1
102
RTVSPost2010Prop31
280
     0
102
RTVSPost2010PropOp31
 70
     1
102
RTVSPost2010Prop32
280
     0
102
RTVSPost2010PropOp32
 70
     1
102
RTVSPost2010Prop33
280
     0
102
RTVSPost2010PropOp33
 70
     1
102
RTVSPost2010Prop34
280
     0
102
RTVSPost2010PropOp34
 70
     1
102
RTVSPost2010Prop35
280
     0
102
RTVSPost2010PropOp35
 70
     1
102
RTVSPost2010Prop36
280
     0
102
RTVSPost2010PropOp36
 70
     1
102
RTVSPost2010Prop37
 90
       50
102
RTVSPost2010PropOp37
 70
     1
102
RTVSPost2010Prop38
140
0.0
102
RTVSPost2010PropOp38
 70
     1
102
RTVSPost2010Prop39
140
1.0
102
RTVSPost2010PropOp39
 70
     1
102
RTVSPost2010Prop40
 90
        0
102
RTVSPost2010PropOp40
 70
     1
102
RTVSPost2010Prop41ColorIndex
 90
       18
102
RTVSPost2010Prop41ColorRGB
 90
        0
102
RTVSPost2010PropOp41
 70
     1
102
RTVSPost2010Prop42
 90
       50
102
RTVSPost2010PropOp42
 70
     1
102
RTVSPost2010Prop43
 90
        3
102
RTVSPost2010PropOp43
 70
     1
102
RTVSPost2010Prop44ColorIndex
 90
        5
102
RTVSPost2010Prop44ColorRGB
 90
      255
102
RTVSPost2010PropOp44
 70
     1
102
RTVSPost2010Prop45
280
     0
102
RTVSPost2010PropOp45
 70
     1
102
RTVSPost2010Prop46
 90
       50
102
RTVSPost2010PropOp46
 70
     1
102
RTVSPost2010Prop47
 90
       50
102
RTVSPost2010PropOp47
 70
     1
102
RTVSPost2010Prop48
 90
       50
102
RTVSPost2010PropOp48
 70
     1
102
RTVSPost2010Prop49
280
     0
102
RTVSPost2010PropOp49
 70
     1
102
RTVSPost2010Prop50
 90
       50
102
RTVSPost2010PropOp50
 70
     1
102
RTVSPost2010Prop51ColorIndex
 90
      256
102
RTVSPost2010Prop51ColorRGB
 90
-16777216
102
RTVSPost2010PropOp51
 70
     0
102
RTVSPost2010Prop52
140
1.0
102
RTVSPost2010PropOp52
 70
     0
102
RTVSPost2010Prop53
 90
        2
102
RTVSPost2010PropOp53
 70
     1
102
RTVSPost2010Prop54
  1
strokes_ogs.tif
102
RTVSPost2010PropOp54
 70
     1
102
RTVSPost2010Prop55
280
     0
102
RTVSPost2010PropOp55
 70
     1
102
RTVSPost2010Prop56
140
1.0
102
RTVSPost2010PropOp56
 70
     1
102
RTVSPost2010Prop57
140
1.0
102
RTVSPost2010PropOp57
 70
     1
102
RTVSPropertyOp0
 70
     1
102
RTVSPropertyOp1
 70
     1
102
RTVSPropertyOp2
 70
     1
102
RTVSPropertyOp3
 70
     1
102
RTVSPropertyOp4
 70
     1
102
RTVSPropertyOp5
 70
     1
102
RTVSPropertyOp6
 70
     1
102
RTVSPropertyOp7
 70
     1
102
RTVSPropertyOp8
 70
     1
102
RTVSPropertyOp9
 70
     1
102
RTVSPropertyOp10
 70
     1
102
RTVSPropertyOp11
 70
     1
102
RTVSPropertyOp12
 70
     1
102
RTVSPropertyOp13
 70
     1
102
RTVSPropertyOp14
 70
     1
102
RTVSPropertyOp15
 70
     1
102
RTVSPropertyOp16
 70
     1
102
RTVSPropertyOp17
 70
     1
102
RTVSPropertyOp18
 70
     1
102
RTVSPropertyOp19
 70
     1
102
RTVSPropertyOp20
 70
     1
102
RTVSPropertyOp21
 70
     1
102
RTVSPropertyOp22
 70
     1
102
RTVSPropertyOp23
 70
     1
102
RTVSPropertyOp24
 70
     1
102
RTVSPropertyOp25
 70
     1
102
RTVSPropertyOp26
 70
     1
102
RTVSPropertyOp27
 70
     1
102
RTVSPropertyOp28
 70
     1
102
RTVSPropertyOp29
 70
     1
102
RTVSPropertyOp30
 70
     1
102
RTVSPropertyOp31
 70
     1
102
RTVSPropertyOp32
 70
     1
102
RTVSPropertyOp33
 70
     1
102
RTVSPropertyOp34
 70
     1
102
RTVSPropertyOp35
 70
     1
102
RTVSPropertyOp36
 70
     1
102
RTVSPropertyOp37
 70
     1
102
RTVSPropertyOp38
 70
     1
102
RTVSPropertyOp39
 70
     1
102
RTVSPropertyOp40
 70
     1
102
RTVSPropertyOp41
 70
     1
102
RTVSPropertyOp42
 70
     1
102
RTVSPropertyOp43
 70
     1
102
RTVSPropertyOp44
 70
     1
102
RTVSPropertyOp45
 70
     1
102
RTVSPropertyOp46
 70
     1
102
RTVSPropertyOp47
 70
     1
102
RTVSPropertyOp48
 70
     1
102
RTVSPropertyOp49
 70
     1
102
RTVSPropertyOp50
 70
     1
102
RTVSPropertyOp51
 70
     0
102
RTVSPropertyOp52
 70
     0
102
RTVSPropertyOp53
 70
     1
102
RTVSPropertyOp54
 70
     1
102
RTVSPropertyOp55
 70
     1
102
RTVSPropertyOp56
 70
     1
102
RTVSPropertyOp57
 70
     1
102
RTVSPropertyOp58
 70
     1
102
RTVSPropertyOp59
 70
     1
102
RTVSPropertyOp60
 70
     1
102
RTVSPropertyOp61
 70
     1
102
RTVSPropertyOp62
 70
     1
  0
XRECORD
  5
A06
102
{ACAD_REACTORS
330
A05
102
}
330
A05
100
AcDbXrecord
280
     1
102
RTVSPost2010Prop28
280
     0
102
RTVSPost2010PropOp28
 70
     1
102
RTVSPost2010Prop29
280
     1
102
RTVSPost2010PropOp29
 70
     1
102
RTVSPost2010Prop30
280
     1
102
RTVSPost2010PropOp30
 70
     1
102
RTVSPost2010Prop31
280
     0
102
RTVSPost2010PropOp31
 70
     1
102
RTVSPost2010Prop32
280
     0
102
RTVSPost2010PropOp32
 70
     1
102
RTVSPost2010Prop33
280
     0
102
RTVSPost2010PropOp33
 70
     1
102
RTVSPost2010Prop34
280
     0
102
RTVSPost2010PropOp34
 70
     1
102
RTVSPost2010Prop35
280
     0
102
RTVSPost2010PropOp35
 70
     1
102
RTVSPost2010Prop36
280
     0
102
RTVSPost2010PropOp36
 70
     1
102
RTVSPost2010Prop37
 90
       50
102
RTVSPost2010PropOp37
 70
     1
102
RTVSPost2010Prop38
140
0.0
102
RTVSPost2010PropOp38
 70
     1
102
RTVSPost2010Prop39
140
1.0
102
RTVSPost2010PropOp39
 70
     1
102
RTVSPost2010Prop40
 90
        0
102
RTVSPost2010PropOp40
 70
     1
102
RTVSPost2010Prop41ColorIndex
 90
       18
102
RTVSPost2010Prop41ColorRGB
 90
        0
102
RTVSPost2010PropOp41
 70
     1
102
RTVSPost2010Prop42
 90
       50
102
RTVSPost2010PropOp42
 70
     1
102
RTVSPost2010Prop43
 90
        3
102
RTVSPost2010PropOp43
 70
     1
102
RTVSPost2010Prop44ColorIndex
 90
        5
102
RTVSPost2010Prop44ColorRGB
 90
      255
102
RTVSPost2010PropOp44
 70
     1
102
RTVSPost2010Prop45
280
     0
102
RTVSPost2010PropOp45
 70
     1
102
RTVSPost2010Prop46
 90
       50
102
RTVSPost2010PropOp46
 70
     1
102
RTVSPost2010Prop47
 90
       50
102
RTVSPost2010PropOp47
 70
     1
102
RTVSPost2010Prop48
 90
       50
102
RTVSPost2010PropOp48
 70
     1
102
RTVSPost2010Prop49
280
     0
102
RTVSPost2010PropOp49
 70
     1
102
RTVSPost2010Prop50
 90
       50
102
RTVSPost2010PropOp50
 70
     1
102
RTVSPost2010Prop51ColorIndex
 90
      256
102
RTVSPost2010Prop51ColorRGB
 90
-16777216
102
RTVSPost2010PropOp51
 70
     0
102
RTVSPost2010Prop52
140
1.0
102
RTVSPost2010PropOp52
 70
     0
102
RTVSPost2010Prop53
 90
        2
102
RTVSPost2010PropOp53
 70
     1
102
RTVSPost2010Prop54
  1
strokes_ogs.tif
102
RTVSPost2010PropOp54
 70
     1
102
RTVSPost2010Prop55
280
     0
102
RTVSPost2010PropOp55
 70
     1
102
RTVSPost2010Prop56
140
1.0
102
RTVSPost2010PropOp56
 70
     1
102
RTVSPost2010Prop57
140
1.0
102
RTVSPost2010PropOp57
 70
     1
102
RTVSPropertyOp0
 70
     1
102
RTVSPropertyOp1
 70
     1
102
RTVSPropertyOp2
 70
     1
102
RTVSPropertyOp3
 70
     1
102
RTVSPropertyOp4
 70
     1
102
RTVSPropertyOp5
 70
     1
102
RTVSPropertyOp6
 70
     1
102
RTVSPropertyOp7
 70
     1
102
RTVSPropertyOp8
 70
     1
102
RTVSPropertyOp9
 70
     1
102
RTVSPropertyOp10
 70
     1
102
RTVSPropertyOp11
 70
     1
102
RTVSPropertyOp12
 70
     1
102
RTVSPropertyOp13
 70
     1
102
RTVSPropertyOp14
 70
     1
102
RTVSPropertyOp15
 70
     1
102
RTVSPropertyOp16
 70
     1
102
RTVSPropertyOp17
 70
     1
102
RTVSPropertyOp18
 70
     1
102
RTVSPropertyOp19
 70
     1
102
RTVSPropertyOp20
 70
     1
102
RTVSPropertyOp21
 70
     1
102
RTVSPropertyOp22
 70
     1
102
RTVSPropertyOp23
 70
     1
102
RTVSPropertyOp24
 70
     1
102
RTVSPropertyOp25
 70
     1
102
RTVSPropertyOp26
 70
     1
102
RTVSPropertyOp27
 70
     1
102
RTVSPropertyOp28
 70
     1
102
RTVSPropertyOp29
 70
     1
102
RTVSPropertyOp30
 70
     1
102
RTVSPropertyOp31
 70
     1
102
RTVSPropertyOp32
 70
     1
102
RTVSPropertyOp33
 70
     1
102
RTVSPropertyOp34
 70
     1
102
RTVSPropertyOp35
 70
     1
102
RTVSPropertyOp36
 70
     1
102
RTVSPropertyOp37
 70
     1
102
RTVSPropertyOp38
 70
     1
102
RTVSPropertyOp39
 70
     1
102
RTVSPropertyOp40
 70
     1
102
RTVSPropertyOp41
 70
     1
102
RTVSPropertyOp42
 70
     1
102
RTVSPropertyOp43
 70
     1
102
RTVSPropertyOp44
 70
     1
102
RTVSPropertyOp45
 70
     1
102
RTVSPropertyOp46
 70
     1
102
RTVSPropertyOp47
 70
     1
102
RTVSPropertyOp48
 70
     1
102
RTVSPropertyOp49
 70
     1
102
RTVSPropertyOp50
 70
     1
102
RTVSPropertyOp51
 70
     0
102
RTVSPropertyOp52
 70
     0
102
RTVSPropertyOp53
 70
     1
102
RTVSPropertyOp54
 70
     1
102
RTVSPropertyOp55
 70
     1
102
RTVSPropertyOp56
 70
     1
102
RTVSPropertyOp57
 70
     1
102
RTVSPropertyOp58
 70
     1
102
RTVSPropertyOp59
 70
     1
102
RTVSPropertyOp60
 70
     1
102
RTVSPropertyOp61
 70
     1
102
RTVSPropertyOp62
 70
     1
  0
XRECORD
  5
9FA
102
{ACAD_REACTORS
330
9F9
102
}
330
9F9
100
AcDbXrecord
280
     1
102
RTVSPost2010Prop28
280
     0
102
RTVSPost2010PropOp28
 70
     1
102
RTVSPost2010Prop29
280
     1
102
RTVSPost2010PropOp29
 70
     1
102
RTVSPost2010Prop30
280
     1
102
RTVSPost2010PropOp30
 70
     1
102
RTVSPost2010Prop31
280
     0
102
RTVSPost2010PropOp31
 70
     1
102
RTVSPost2010Prop32
280
     0
102
RTVSPost2010PropOp32
 70
     1
102
RTVSPost2010Prop33
280
     0
102
RTVSPost2010PropOp33
 70
     1
102
RTVSPost2010Prop34
280
     0
102
RTVSPost2010PropOp34
 70
     1
102
RTVSPost2010Prop35
280
     0
102
RTVSPost2010PropOp35
 70
     1
102
RTVSPost2010Prop36
280
     0
102
RTVSPost2010PropOp36
 70
     1
102
RTVSPost2010Prop37
 90
       50
102
RTVSPost2010PropOp37
 70
     1
102
RTVSPost2010Prop38
140
0.0
102
RTVSPost2010PropOp38
 70
     1
102
RTVSPost2010Prop39
140
1.0
102
RTVSPost2010PropOp39
 70
     1
102
RTVSPost2010Prop40
 90
        0
102
RTVSPost2010PropOp40
 70
     1
102
RTVSPost2010Prop41ColorIndex
 90
       18
102
RTVSPost2010Prop41ColorRGB
 90
        0
102
RTVSPost2010PropOp41
 70
     1
102
RTVSPost2010Prop42
 90
       50
102
RTVSPost2010PropOp42
 70
     1
102
RTVSPost2010Prop43
 90
        3
102
RTVSPost2010PropOp43
 70
     1
102
RTVSPost2010Prop44ColorIndex
 90
        5
102
RTVSPost2010Prop44ColorRGB
 90
      255
102
RTVSPost2010PropOp44
 70
     1
102
RTVSPost2010Prop45
280
     0
102
RTVSPost2010PropOp45
 70
     1
102
RTVSPost2010Prop46
 90
       50
102
RTVSPost2010PropOp46
 70
     1
102
RTVSPost2010Prop47
 90
       50
102
RTVSPost2010PropOp47
 70
     1
102
RTVSPost2010Prop48
 90
       50
102
RTVSPost2010PropOp48
 70
     1
102
RTVSPost2010Prop49
280
     0
102
RTVSPost2010PropOp49
 70
     1
102
RTVSPost2010Prop50
 90
       50
102
RTVSPost2010PropOp50
 70
     1
102
RTVSPost2010Prop51ColorIndex
 90
      256
102
RTVSPost2010Prop51ColorRGB
 90
-16777216
102
RTVSPost2010PropOp51
 70
     0
102
RTVSPost2010Prop52
140
1.0
102
RTVSPost2010PropOp52
 70
     0
102
RTVSPost2010Prop53
 90
        2
102
RTVSPost2010PropOp53
 70
     1
102
RTVSPost2010Prop54
  1
strokes_ogs.tif
102
RTVSPost2010PropOp54
 70
     1
102
RTVSPost2010Prop55
280
     0
102
RTVSPost2010PropOp55
 70
     1
102
RTVSPost2010Prop56
140
1.0
102
RTVSPost2010PropOp56
 70
     1
102
RTVSPost2010Prop57
140
1.0
102
RTVSPost2010PropOp57
 70
     1
102
RTVSPropertyOp0
 70
     1
102
RTVSPropertyOp1
 70
     1
102
RTVSPropertyOp2
 70
     1
102
RTVSPropertyOp3
 70
     1
102
RTVSPropertyOp4
 70
     1
102
RTVSPropertyOp5
 70
     1
102
RTVSPropertyOp6
 70
     1
102
RTVSPropertyOp7
 70
     1
102
RTVSPropertyOp8
 70
     1
102
RTVSPropertyOp9
 70
     1
102
RTVSPropertyOp10
 70
     1
102
RTVSPropertyOp11
 70
     1
102
RTVSPropertyOp12
 70
     1
102
RTVSPropertyOp13
 70
     1
102
RTVSPropertyOp14
 70
     1
102
RTVSPropertyOp15
 70
     1
102
RTVSPropertyOp16
 70
     1
102
RTVSPropertyOp17
 70
     1
102
RTVSPropertyOp18
 70
     1
102
RTVSPropertyOp19
 70
     1
102
RTVSPropertyOp20
 70
     1
102
RTVSPropertyOp21
 70
     1
102
RTVSPropertyOp22
 70
     1
102
RTVSPropertyOp23
 70
     1
102
RTVSPropertyOp24
 70
     1
102
RTVSPropertyOp25
 70
     1
102
RTVSPropertyOp26
 70
     1
102
RTVSPropertyOp27
 70
     1
102
RTVSPropertyOp28
 70
     1
102
RTVSPropertyOp29
 70
     1
102
RTVSPropertyOp30
 70
     1
102
RTVSPropertyOp31
 70
     1
102
RTVSPropertyOp32
 70
     1
102
RTVSPropertyOp33
 70
     1
102
RTVSPropertyOp34
 70
     1
102
RTVSPropertyOp35
 70
     1
102
RTVSPropertyOp36
 70
     1
102
RTVSPropertyOp37
 70
     1
102
RTVSPropertyOp38
 70
     1
102
RTVSPropertyOp39
 70
     1
102
RTVSPropertyOp40
 70
     1
102
RTVSPropertyOp41
 70
     1
102
RTVSPropertyOp42
 70
     1
102
RTVSPropertyOp43
 70
     1
102
RTVSPropertyOp44
 70
     1
102
RTVSPropertyOp45
 70
     1
102
RTVSPropertyOp46
 70
     1
102
RTVSPropertyOp47
 70
     1
102
RTVSPropertyOp48
 70
     1
102
RTVSPropertyOp49
 70
     1
102
RTVSPropertyOp50
 70
     1
102
RTVSPropertyOp51
 70
     0
102
RTVSPropertyOp52
 70
     0
102
RTVSPropertyOp53
 70
     1
102
RTVSPropertyOp54
 70
     1
102
RTVSPropertyOp55
 70
     1
102
RTVSPropertyOp56
 70
     1
102
RTVSPropertyOp57
 70
     1
102
RTVSPropertyOp58
 70
     1
102
RTVSPropertyOp59
 70
     1
102
RTVSPropertyOp60
 70
     1
102
RTVSPropertyOp61
 70
     1
102
RTVSPropertyOp62
 70
     1
  0
XRECORD
  5
A12
102
{ACAD_REACTORS
330
A11
102
}
330
A11
100
AcDbXrecord
280
     1
102
RTVSPost2010Prop28
280
     0
102
RTVSPost2010PropOp28
 70
     1
102
RTVSPost2010Prop29
280
     1
102
RTVSPost2010PropOp29
 70
     1
102
RTVSPost2010Prop30
280
     1
102
RTVSPost2010PropOp30
 70
     1
102
RTVSPost2010Prop31
280
     0
102
RTVSPost2010PropOp31
 70
     1
102
RTVSPost2010Prop32
280
     0
102
RTVSPost2010PropOp32
 70
     1
102
RTVSPost2010Prop33
280
     0
102
RTVSPost2010PropOp33
 70
     1
102
RTVSPost2010Prop34
280
     0
102
RTVSPost2010PropOp34
 70
     1
102
RTVSPost2010Prop35
280
     0
102
RTVSPost2010PropOp35
 70
     1
102
RTVSPost2010Prop36
280
     0
102
RTVSPost2010PropOp36
 70
     1
102
RTVSPost2010Prop37
 90
       50
102
RTVSPost2010PropOp37
 70
     1
102
RTVSPost2010Prop38
140
0.0
102
RTVSPost2010PropOp38
 70
     1
102
RTVSPost2010Prop39
140
1.0
102
RTVSPost2010PropOp39
 70
     1
102
RTVSPost2010Prop40
 90
        0
102
RTVSPost2010PropOp40
 70
     1
102
RTVSPost2010Prop41ColorIndex
 90
       18
102
RTVSPost2010Prop41ColorRGB
 90
        0
102
RTVSPost2010PropOp41
 70
     1
102
RTVSPost2010Prop42
 90
       50
102
RTVSPost2010PropOp42
 70
     1
102
RTVSPost2010Prop43
 90
        3
102
RTVSPost2010PropOp43
 70
     1
102
RTVSPost2010Prop44ColorIndex
 90
        5
102
RTVSPost2010Prop44ColorRGB
 90
      255
102
RTVSPost2010PropOp44
 70
     1
102
RTVSPost2010Prop45
280
     0
102
RTVSPost2010PropOp45
 70
     1
102
RTVSPost2010Prop46
 90
       50
102
RTVSPost2010PropOp46
 70
     1
102
RTVSPost2010Prop47
 90
       50
102
RTVSPost2010PropOp47
 70
     1
102
RTVSPost2010Prop48
 90
       50
102
RTVSPost2010PropOp48
 70
     1
102
RTVSPost2010Prop49
280
     0
102
RTVSPost2010PropOp49
 70
     1
102
RTVSPost2010Prop50
 90
       50
102
RTVSPost2010PropOp50
 70
     1
102
RTVSPost2010Prop51ColorIndex
 90
      256
102
RTVSPost2010Prop51ColorRGB
 90
-16777216
102
RTVSPost2010PropOp51
 70
     0
102
RTVSPost2010Prop52
140
1.0
102
RTVSPost2010PropOp52
 70
     0
102
RTVSPost2010Prop53
 90
        2
102
RTVSPost2010PropOp53
 70
     1
102
RTVSPost2010Prop54
  1
strokes_ogs.tif
102
RTVSPost2010PropOp54
 70
     1
102
RTVSPost2010Prop55
280
     0
102
RTVSPost2010PropOp55
 70
     1
102
RTVSPost2010Prop56
140
1.0
102
RTVSPost2010PropOp56
 70
     1
102
RTVSPost2010Prop57
140
1.0
102
RTVSPost2010PropOp57
 70
     1
102
RTVSPropertyOp0
 70
     1
102
RTVSPropertyOp1
 70
     1
102
RTVSPropertyOp2
 70
     1
102
RTVSPropertyOp3
 70
     1
102
RTVSPropertyOp4
 70
     1
102
RTVSPropertyOp5
 70
     1
102
RTVSPropertyOp6
 70
     1
102
RTVSPropertyOp7
 70
     1
102
RTVSPropertyOp8
 70
     1
102
RTVSPropertyOp9
 70
     1
102
RTVSPropertyOp10
 70
     1
102
RTVSPropertyOp11
 70
     1
102
RTVSPropertyOp12
 70
     1
102
RTVSPropertyOp13
 70
     1
102
RTVSPropertyOp14
 70
     1
102
RTVSPropertyOp15
 70
     1
102
RTVSPropertyOp16
 70
     1
102
RTVSPropertyOp17
 70
     1
102
RTVSPropertyOp18
 70
     1
102
RTVSPropertyOp19
 70
     1
102
RTVSPropertyOp20
 70
     1
102
RTVSPropertyOp21
 70
     1
102
RTVSPropertyOp22
 70
     1
102
RTVSPropertyOp23
 70
     1
102
RTVSPropertyOp24
 70
     1
102
RTVSPropertyOp25
 70
     1
102
RTVSPropertyOp26
 70
     1
102
RTVSPropertyOp27
 70
     1
102
RTVSPropertyOp28
 70
     1
102
RTVSPropertyOp29
 70
     1
102
RTVSPropertyOp30
 70
     1
102
RTVSPropertyOp31
 70
     1
102
RTVSPropertyOp32
 70
     1
102
RTVSPropertyOp33
 70
     1
102
RTVSPropertyOp34
 70
     1
102
RTVSPropertyOp35
 70
     1
102
RTVSPropertyOp36
 70
     1
102
RTVSPropertyOp37
 70
     1
102
RTVSPropertyOp38
 70
     1
102
RTVSPropertyOp39
 70
     1
102
RTVSPropertyOp40
 70
     1
102
RTVSPropertyOp41
 70
     1
102
RTVSPropertyOp42
 70
     1
102
RTVSPropertyOp43
 70
     1
102
RTVSPropertyOp44
 70
     1
102
RTVSPropertyOp45
 70
     1
102
RTVSPropertyOp46
 70
     1
102
RTVSPropertyOp47
 70
     1
102
RTVSPropertyOp48
 70
     1
102
RTVSPropertyOp49
 70
     1
102
RTVSPropertyOp50
 70
     1
102
RTVSPropertyOp51
 70
     0
102
RTVSPropertyOp52
 70
     0
102
RTVSPropertyOp53
 70
     1
102
RTVSPropertyOp54
 70
     1
102
RTVSPropertyOp55
 70
     1
102
RTVSPropertyOp56
 70
     1
102
RTVSPropertyOp57
 70
     1
102
RTVSPropertyOp58
 70
     1
102
RTVSPropertyOp59
 70
     1
102
RTVSPropertyOp60
 70
     1
102
RTVSPropertyOp61
 70
     1
102
RTVSPropertyOp62
 70
     1
  0
ENDSEC
  0
EOF
