  0
SECTION
  2
HEADER
  9
$ACADVER
  1
AC1015
  9
$ACADMAINTVER
 70
    20
  9
$DWGCODEPAGE
  3
ANSI_932
  9
$INSBASE
 10
0.0
 20
0.0
 30
0.0
  9
$EXTMIN
 10
9.9999975266385
 20
10.0
 30
0.0
  9
$EXTMAX
 10
293.9168130324767
 20
224.7559889852583
 30
0.0
  9
$LIMMIN
 10
0.0000015376081137
 20
-0.0000001931532552
  9
$LIMMAX
 10
396.0000015376081
 20
272.9999998068465
  9
$ORTHOMODE
 70
     1
  9
$REGENMODE
 70
     1
  9
$FILLMODE
 70
     1
  9
$QTEXTMODE
 70
     0
  9
$MIRRTEXT
 70
     1
  9
$LTSCALE
 40
1.0
  9
$ATTMODE
 70
     1
  9
$TEXTSIZE
 40
2.5
  9
$TRACEWID
 40
1.0
  9
$TEXTSTYLE
  7
STANDARD
  9
$CLAYER
  8
0
  9
$CELTYPE
  6
BYLAYER
  9
$CECOLOR
 62
   256
  9
$CELTSCALE
 40
1.0
  9
$DISPSILH
 70
     0
  9
$DIMSCALE
 40
1.0
  9
$DIMASZ
 40
3.0
  9
$DIMEXO
 40
1.0
  9
$DIMDLI
 40
10.0
  9
$DIMRND
 40
0.0
  9
$DIMDLE
 40
0.0
  9
$DIMEXE
 40
1.0
  9
$DIMTP
 40
0.0
  9
$DIMTM
 40
0.0
  9
$DIMTXT
 40
3.2
  9
$DIMCEN
 40
0.0
  9
$DIMTSZ
 40
0.0
  9
$DIMTOL
 70
     0
  9
$DIMLIM
 70
     0
  9
$DIMTIH
 70
     0
  9
$DIMTOH
 70
     0
  9
$DIMSE1
 70
     0
  9
$DIMSE2
 70
     0
  9
$DIMTAD
 70
     3
  9
$DIMZIN
 70
     8
  9
$DIMBLK
  1

  9
$DIMASO
 70
     1
  9
$DIMSHO
 70
     1
  9
$DIMPOST
  1

  9
$DIMAPOST
  1

  9
$DIMALT
 70
     0
  9
$DIMALTD
 70
     2
  9
$DIMALTF
 40
25.4
  9
$DIMLFAC
 40
1.0
  9
$DIMTOFL
 70
     1
  9
$DIMTVP
 40
0.0
  9
$DIMTIX
 70
     0
  9
$DIMSOXD
 70
     0
  9
$DIMSAH
 70
     1
  9
$DIMBLK1
  1
OPEN
  9
$DIMBLK2
  1
OPEN
  9
$DIMSTYLE
  2
STANDARD
  9
$DIMCLRD
 70
     0
  9
$DIMCLRE
 70
     0
  9
$DIMCLRT
 70
     0
  9
$DIMTFAC
 40
1.0
  9
$DIMGAP
 40
1.0
  9
$DIMJUST
 70
     0
  9
$DIMSD1
 70
     0
  9
$DIMSD2
 70
     0
  9
$DIMTOLJ
 70
     1
  9
$DIMTZIN
 70
     0
  9
$DIMALTZ
 70
     0
  9
$DIMALTTZ
 70
     0
  9
$DIMUPT
 70
     0
  9
$DIMDEC
 70
     4
  9
$DIMTDEC
 70
     4
  9
$DIMALTU
 70
     2
  9
$DIMALTTD
 70
     2
  9
$DIMTXSTY
  7
STANDARD
  9
$DIMAUNIT
 70
     0
  9
$DIMADEC
 70
     0
  9
$DIMALTRND
 40
0.0
  9
$DIMAZIN
 70
     0
  9
$DIMDSEP
 70
    46
  9
$DIMATFIT
 70
     3
  9
$DIMFRAC
 70
     0
  9
$DIMLDRBLK
  1
OPEN
  9
$DIMLUNIT
 70
     2
  9
$DIMLWD
 70
    -2
  9
$DIMLWE
 70
    -2
  9
$DIMTMOVE
 70
     0
  9
$LUNITS
 70
     2
  9
$LUPREC
 70
     4
  9
$SKETCHINC
 40
1.0
  9
$FILLETRAD
 40
0.0
  9
$AUNITS
 70
     0
  9
$AUPREC
 70
     0
  9
$MENU
  1
.
  9
$ELEVATION
 40
0.0
  9
$PELEVATION
 40
0.0
  9
$THICKNESS
 40
0.0
  9
$LIMCHECK
 70
     0
  9
$CHAMFERA
 40
10.0
  9
$CHAMFERB
 40
10.0
  9
$CHAMFERC
 40
20.0
  9
$CHAMFERD
 40
0.0
  9
$SKPOLY
 70
     0
  9
$TDCREATE
 40
2453720.892934201
  9
$TDUCREATE
 40
2453720.517934201
  9
$TDUPDATE
 40
2457192.700535880
  9
$TDUUPDATE
 40
2457192.325535880
  9
$TDINDWG
 40
0.1237370139
  9
$TDUSRTIMER
 40
0.1237370023
  9
$USRTIMER
 70
     1
  9
$ANGBASE
 50
0.0
  9
$ANGDIR
 70
     0
  9
$PDMODE
 70
     0
  9
$PDSIZE
 40
0.0
  9
$PLINEWID
 40
0.0
  9
$SPLFRAME
 70
     0
  9
$SPLINETYPE
 70
     6
  9
$SPLINESEGS
 70
     8
  9
$HANDSEED
  5
3335
  9
$SURFTAB1
 70
     6
  9
$SURFTAB2
 70
     6
  9
$SURFTYPE
 70
     6
  9
$SURFU
 70
     6
  9
$SURFV
 70
     6
  9
$UCSBASE
  2

  9
$UCSNAME
  2

  9
$UCSORG
 10
0.0
 20
0.0
 30
0.0
  9
$UCSXDIR
 10
1.0
 20
0.0
 30
0.0
  9
$UCSYDIR
 10
0.0
 20
1.0
 30
0.0
  9
$UCSORTHOREF
  2

  9
$UCSORTHOVIEW
 70
     0
  9
$UCSORGTOP
 10
0.0
 20
0.0
 30
0.0
  9
$UCSORGBOTTOM
 10
0.0
 20
0.0
 30
0.0
  9
$UCSORGLEFT
 10
0.0
 20
0.0
 30
0.0
  9
$UCSORGRIGHT
 10
0.0
 20
0.0
 30
0.0
  9
$UCSORGFRONT
 10
0.0
 20
0.0
 30
0.0
  9
$UCSORGBACK
 10
0.0
 20
0.0
 30
0.0
  9
$PUCSBASE
  2

  9
$PUCSNAME
  2

  9
$PUCSORG
 10
0.0
 20
0.0
 30
0.0
  9
$PUCSXDIR
 10
1.0
 20
0.0
 30
0.0
  9
$PUCSYDIR
 10
0.0
 20
1.0
 30
0.0
  9
$PUCSORTHOREF
  2

  9
$PUCSORTHOVIEW
 70
     0
  9
$PUCSORGTOP
 10
0.0
 20
0.0
 30
0.0
  9
$PUCSORGBOTTOM
 10
0.0
 20
0.0
 30
0.0
  9
$PUCSORGLEFT
 10
0.0
 20
0.0
 30
0.0
  9
$PUCSORGRIGHT
 10
0.0
 20
0.0
 30
0.0
  9
$PUCSORGFRONT
 10
0.0
 20
0.0
 30
0.0
  9
$PUCSORGBACK
 10
0.0
 20
0.0
 30
0.0
  9
$USERI1
 70
     0
  9
$USERI2
 70
     0
  9
$USERI3
 70
     0
  9
$USERI4
 70
     0
  9
$USERI5
 70
     0
  9
$USERR1
 40
0.0
  9
$USERR2
 40
0.0
  9
$USERR3
 40
0.0
  9
$USERR4
 40
0.0
  9
$USERR5
 40
0.0
  9
$WORLDVIEW
 70
     1
  9
$SHADEDGE
 70
     3
  9
$SHADEDIF
 70
    70
  9
$TILEMODE
 70
     1
  9
$MAXACTVP
 70
    48
  9
$PINSBASE
 10
0.0
 20
0.0
 30
0.0
  9
$PLIMCHECK
 70
     0
  9
$PEXTMIN
 10
1.000000000000000E+20
 20
1.000000000000000E+20
 30
1.000000000000000E+20
  9
$PEXTMAX
 10
-1.000000000000000E+20
 20
-1.000000000000000E+20
 30
-1.000000000000000E+20
  9
$PLIMMIN
 10
0.0
 20
0.0
  9
$PLIMMAX
 10
420.0
 20
297.0
  9
$UNITMODE
 70
     0
  9
$VISRETAIN
 70
     1
  9
$PLINEGEN
 70
     0
  9
$PSLTSCALE
 70
     1
  9
$TREEDEPTH
 70
  3020
  9
$CMLSTYLE
  2
STANDARD
  9
$CMLJUST
 70
     0
  9
$CMLSCALE
 40
20.0
  9
$PROXYGRAPHICS
 70
     1
  9
$MEASUREMENT
 70
     0
  9
$CELWEIGHT
370
    -1
  9
$ENDCAPS
280
     0
  9
$JOINSTYLE
280
     0
  9
$LWDISPLAY
290
     0
  9
$INSUNITS
 70
     0
  9
$HYPERLINKBASE
  1

  9
$STYLESHEET
  1

  9
$XEDIT
290
     1
  9
$CEPSNTYPE
380
     0
  9
$PSTYLEMODE
290
     1
  9
$FINGERPRINTGUID
  2
{DFD90814-FF5C-4BF4-A363-811D3D106C67}
  9
$VERSIONGUID
  2
{E2B58041-EEB3-4156-BE70-D63D5F5698C8}
  9
$EXTNAMES
290
     1
  9
$PSVPSCALE
 40
0.0
  9
$OLESTARTUP
290
     0
  0
ENDSEC
  0
SECTION
  2
CLASSES
  0
CLASS
  1
ACDBDICTIONARYWDFLT
  2
AcDbDictionaryWithDefault
  3
ObjectDBX Classes
 90
        0
280
     0
281
     0
  0
CLASS
  1
ACDBPLACEHOLDER
  2
AcDbPlaceHolder
  3
ObjectDBX Classes
 90
        0
280
     0
281
     0
  0
CLASS
  1
LAYOUT
  2
AcDbLayout
  3
ObjectDBX Classes
 90
        0
280
     0
281
     0
  0
CLASS
  1
DICTIONARYVAR
  2
AcDbDictionaryVar
  3
ObjectDBX Classes
 90
        0
280
     0
281
     0
  0
CLASS
  1
MATERIAL
  2
AcDbMaterial
  3
ObjectDBX Classes
 90
     1153
280
     0
281
     0
  0
CLASS
  1
VISUALSTYLE
  2
AcDbVisualStyle
  3
ObjectDBX Classes
 90
     4095
280
     0
281
     0
  0
CLASS
  1
TABLESTYLE
  2
AcDbTableStyle
  3
ObjectDBX Classes
 90
     4095
280
     0
281
     0
  0
CLASS
  1
SCALE
  2
AcDbScale
  3
ObjectDBX Classes
 90
     1153
280
     0
281
     0
  0
CLASS
  1
MLEADERSTYLE
  2
AcDbMLeaderStyle
  3
ACDB_MLEADERSTYLE_CLASS
 90
     4095
280
     0
281
     0
  0
CLASS
  1
ACDBSECTIONVIEWSTYLE
  2
AcDbSectionViewStyle
  3
ObjectDBX Classes
 90
     1025
280
     0
281
     0
  0
CLASS
  1
ACDBDETAILVIEWSTYLE
  2
AcDbDetailViewStyle
  3
ObjectDBX Classes
 90
     1025
280
     0
281
     0
  0
CLASS
  1
CELLSTYLEMAP
  2
AcDbCellStyleMap
  3
ObjectDBX Classes
 90
     1152
280
     0
281
     0
  0
ENDSEC
  0
SECTION
  2
TABLES
  0
TABLE
  2
VPORT
  5
8
330
0
100
AcDbSymbolTable
 70
     1
  0
VPORT
  5
327F
330
8
100
AcDbSymbolTableRecord
100
AcDbViewportTableRecord
  2
*ACTIVE
 70
     0
 10
0.0
 20
0.0
 11
1.0
 21
1.0
 12
220.9829694285692
 22
117.3796696096683
 13
0.0
 23
0.0
 14
10.0
 24
10.0
 15
10.0
 25
10.0
 16
0.0
 26
0.0
 36
1.0
 17
0.0
 27
0.0
 37
0.0
 40
216.8296679857183
 41
2.35006605019815
 42
50.0
 43
0.0
 44
0.0
 50
0.0
 51
0.0
 71
     0
 72
   100
 73
     1
 74
     0
 75
     0
 76
     0
 77
     0
 78
     0
281
     0
 65
     1
110
0.0
120
0.0
130
0.0
111
1.0
121
0.0
131
0.0
112
0.0
122
1.0
132
0.0
 79
     0
146
0.0
1001
ACAD_NAV_VCDISPLAY
1070
     3
  0
ENDTAB
  0
TABLE
  2
LTYPE
  5
5
330
0
100
AcDbSymbolTable
 70
     4
  0
LTYPE
  5
12
330
5
100
AcDbSymbolTableRecord
100
AcDbLinetypeTableRecord
  2
BYBLOCK
 70
     0
  3

 72
    65
 73
     0
 40
0.0
  0
LTYPE
  5
13
330
5
100
AcDbSymbolTableRecord
100
AcDbLinetypeTableRecord
  2
BYLAYER
 70
     0
  3

 72
    65
 73
     0
 40
0.0
  0
LTYPE
  5
14
330
5
100
AcDbSymbolTableRecord
100
AcDbLinetypeTableRecord
  2
CONTINUOUS
 70
     0
  3
Solid line
 72
    65
 73
     0
 40
0.0
  0
LTYPE
  5
4B
330
5
100
AcDbSymbolTableRecord
100
AcDbLinetypeTableRecord
  2
DASHED
 70
     0
  3
Dashed __ __ __ __ __ __ __ __ __ __ __ __ __ _
 72
    65
 73
     2
 40
19.04999999999999
 49
12.7
 74
     0
 49
-6.349999999999998
 74
     0
  0
LTYPE
  5
4C
330
5
100
AcDbSymbolTableRecord
100
AcDbLinetypeTableRecord
  2
CENTER
 70
     0
  3
Center ____ _ ____ _ ____ _ ____ _ ____ _ ____
 72
    65
 73
     4
 40
50.8
 49
31.75
 74
     0
 49
-6.349999999999998
 74
     0
 49
6.349999999999998
 74
     0
 49
-6.349999999999998
 74
     0
  0
LTYPE
  5
4D
330
5
100
AcDbSymbolTableRecord
100
AcDbLinetypeTableRecord
  2
PHANTOM
 70
     0
  3
Phantom ______  __  __  ______  __  __  ______
 72
    65
 73
     6
 40
63.5
 49
31.75
 74
     0
 49
-6.349999999999998
 74
     0
 49
6.349999999999998
 74
     0
 49
-6.349999999999998
 74
     0
 49
6.349999999999998
 74
     0
 49
-6.349999999999998
 74
     0
  0
ENDTAB
  0
TABLE
  2
LAYER
  5
2
330
0
100
AcDbSymbolTable
 70
     8
  0
LAYER
  5
E
102
{ACAD_XDICTIONARY
360
32D9
102
}
330
2
100
AcDbSymbolTableRecord
100
AcDbLayerTableRecord
  2
0
 70
     0
 62
     7
  6
CONTINUOUS
370
    -3
390
3288
  0
LAYER
  5
4E
102
{ACAD_XDICTIONARY
360
32DB
102
}
330
2
100
AcDbSymbolTableRecord
100
AcDbLayerTableRecord
  2
4
 70
     0
 62
     1
  6
CENTER
370
    -3
390
3288
  0
LAYER
  5
4F
102
{ACAD_XDICTIONARY
360
32DD
102
}
330
2
100
AcDbSymbolTableRecord
100
AcDbLayerTableRecord
  2
5
 70
     0
 62
     6
  6
PHANTOM
370
    -3
390
3288
  0
LAYER
  5
50
102
{ACAD_XDICTIONARY
360
32DF
102
}
330
2
100
AcDbSymbolTableRecord
100
AcDbLayerTableRecord
  2
1
 70
     0
 62
     7
  6
CONTINUOUS
370
    -3
390
3288
  0
LAYER
  5
51
102
{ACAD_XDICTIONARY
360
32E1
102
}
330
2
100
AcDbSymbolTableRecord
100
AcDbLayerTableRecord
  2
2
 70
     0
 62
     4
  6
CONTINUOUS
370
    -3
390
3288
  0
LAYER
  5
52
102
{ACAD_XDICTIONARY
360
32E3
102
}
330
2
100
AcDbSymbolTableRecord
100
AcDbLayerTableRecord
  2
3
 70
     0
 62
     2
  6
DASHED
370
    -3
390
3288
  0
LAYER
  5
53
102
{ACAD_XDICTIONARY
360
32E5
102
}
330
2
100
AcDbSymbolTableRecord
100
AcDbLayerTableRecord
  2
6
 70
     0
 62
     5
  6
CONTINUOUS
370
    -3
390
3288
  0
LAYER
  5
54
102
{ACAD_XDICTIONARY
360
32E7
102
}
330
2
100
AcDbSymbolTableRecord
100
AcDbLayerTableRecord
  2
7
 70
     0
 62
     3
  6
CONTINUOUS
370
    -3
390
3288
  0
ENDTAB
  0
TABLE
  2
STYLE
  5
3
330
0
100
AcDbSymbolTable
 70
     1
  0
STYLE
  5
F
330
3
100
AcDbSymbolTableRecord
100
AcDbTextStyleTableRecord
  2
STANDARD
 70
     0
 40
0.0
 41
1.0
 50
0.0
 71
     0
 42
2.5
  3
simplex.shx
  4

  0
ENDTAB
  0
TABLE
  2
VIEW
  5
6
330
0
100
AcDbSymbolTable
 70
     0
  0
ENDTAB
  0
TABLE
  2
UCS
  5
7
330
0
100
AcDbSymbolTable
 70
     0
  0
ENDTAB
  0
TABLE
  2
APPID
  5
9
330
0
100
AcDbSymbolTable
 70
     5
  0
APPID
  5
10
330
9
100
AcDbSymbolTableRecord
100
AcDbRegAppTableRecord
  2
ACAD
 70
     0
  0
APPID
  5
3E
330
9
100
AcDbSymbolTableRecord
100
AcDbRegAppTableRecord
  2
CONTENTTABDATA
 70
     0
  0
APPID
  5
3F
330
9
100
AcDbSymbolTableRecord
100
AcDbRegAppTableRecord
  2
CONTENTCURRENTTAB
 70
     0
  0
APPID
  5
32F3
330
9
100
AcDbSymbolTableRecord
100
AcDbRegAppTableRecord
  2
ACAD_NAV_VCDISPLAY
 70
     0
  0
APPID
  5
332C
330
9
100
AcDbSymbolTableRecord
100
AcDbRegAppTableRecord
  2
ACAD_MLEADERVER
 70
     0
  0
ENDTAB
  0
TABLE
  2
DIMSTYLE
  5
A
330
0
100
AcDbSymbolTable
 70
     1
100
AcDbDimStyleTable
 71
     0
  0
DIMSTYLE
105
1D
330
A
100
AcDbSymbolTableRecord
100
AcDbDimStyleTableRecord
  2
STANDARD
 70
     0
 41
3.0
 42
1.0
 43
10.0
 44
1.0
 73
     0
 74
     0
 77
     3
 78
     8
140
3.2
141
0.0
147
1.0
172
     1
173
     1
340
F
341
2E
343
2E
344
2E
  0
ENDTAB
  0
TABLE
  2
BLOCK_RECORD
  5
1
330
0
100
AcDbSymbolTable
 70
     1
  0
BLOCK_RECORD
  5
18
102
{ACAD_XDICTIONARY
360
3282
102
}
330
1
100
AcDbSymbolTableRecord
100
AcDbBlockTableRecord
  2
*MODEL_SPACE
340
32D6
  0
BLOCK_RECORD
  5
15
102
{ACAD_XDICTIONARY
360
3280
102
}
330
1
100
AcDbSymbolTableRecord
100
AcDbBlockTableRecord
  2
*PAPER_SPACE
340
32D7
  0
BLOCK_RECORD
  5
2E
330
1
100
AcDbSymbolTableRecord
100
AcDbBlockTableRecord
  2
_OPEN
340
0
  0
ENDTAB
  0
ENDSEC
  0
SECTION
  2
BLOCKS
  0
BLOCK
  5
19
330
18
100
AcDbEntity
  8
0
100
AcDbBlockBegin
  2
*MODEL_SPACE
 70
     0
 10
0.0
 20
0.0
 30
0.0
  3
*MODEL_SPACE
  1

  0
ENDBLK
  5
1A
330
18
100
AcDbEntity
  8
0
100
AcDbBlockEnd
  0
BLOCK
  5
16
330
15
100
AcDbEntity
 67
     1
  8
0
100
AcDbBlockBegin
  2
*PAPER_SPACE
 70
     0
 10
0.0
 20
0.0
 30
0.0
  3
*PAPER_SPACE
  1

  0
ENDBLK
  5
17
330
15
100
AcDbEntity
 67
     1
  8
0
100
AcDbBlockEnd
  0
BLOCK
  5
2F
330
2E
100
AcDbEntity
  8
0
100
AcDbBlockBegin
  2
_OPEN
 70
     0
 10
0.0
 20
0.0
 30
0.0
  3
_OPEN
  1

  0
LINE
  5
30
330
2E
100
AcDbEntity
  8
0
  6
ByBlock
 62
     0
100
AcDbLine
 10
-1.0
 20
0.1666666666666666
 30
0.0
 11
0.0
 21
0.0
 31
0.0
  0
LINE
  5
31
330
2E
100
AcDbEntity
  8
0
  6
ByBlock
 62
     0
100
AcDbLine
 10
0.0
 20
0.0
 30
0.0
 11
-1.0
 21
-0.1666666666666666
 31
0.0
  0
LINE
  5
32
330
2E
100
AcDbEntity
  8
0
  6
ByBlock
 62
     0
100
AcDbLine
 10
0.0
 20
0.0
 30
0.0
 11
-1.0
 21
0.0
 31
0.0
  0
ENDBLK
  5
33
330
2E
100
AcDbEntity
  8
0
100
AcDbBlockEnd
  0
ENDSEC
  0
SECTION
  2
ENTITIES
  0
TEXT
  5
63
330
18
100
AcDbEntity
  8
4
  6
CENTER
 48
0.25
100
AcDbText
 10
23.97950852663849
 20
10.0
 30
0.0
 40
1.399999999999999
  1
4
100
AcDbText
  0
TEXT
  5
64
330
18
100
AcDbEntity
  8
7
  6
Continuous
 48
0.25
100
AcDbText
 10
9.999997526638502
 20
26.0000007607689
 30
0.0
 40
3.0
  1
CODE No.13344
100
AcDbText
  0
TEXT
  5
65
330
18
100
AcDbEntity
  8
7
  6
Continuous
 48
0.25
100
AcDbText
 10
9.999997526638502
 20
18.00000076076889
 30
0.0
 40
3.0
  1
TYPE No.TEA-1022-U39
100
AcDbText
  0
TEXT
  5
66
330
18
100
AcDbEntity
  8
1
  6
Continuous
 48
0.25
100
AcDbText
 10
9.999997526638502
 20
10.00000076076889
 30
0.0
 40
1.399999999999999
  1
LAYER
100
AcDbText
  0
TEXT
  5
67
330
18
100
AcDbEntity
  8
2
  6
Continuous
 48
0.25
100
AcDbText
 10
19.9795085266385
 20
10.0
 30
0.0
 40
1.399999999999999
  1
2
100
AcDbText
  0
TEXT
  5
68
330
18
100
AcDbEntity
  8
3
  6
DASHED
 48
0.25
100
AcDbText
 10
21.9795085266385
 20
10.0
 30
0.0
 40
1.399999999999999
  1
3
100
AcDbText
  0
TEXT
  5
69
330
18
100
AcDbEntity
  8
1
  6
Continuous
 48
0.25
100
AcDbText
 10
17.9795085266385
 20
10.0
 30
0.0
 40
1.399999999999999
  1
1
100
AcDbText
  0
TEXT
  5
6A
330
18
100
AcDbEntity
  8
5
  6
PHANTOM
 48
0.25
100
AcDbText
 10
25.9795085266385
 20
10.0
 30
0.0
 40
1.399999999999999
  1
5
100
AcDbText
  0
TEXT
  5
6B
330
18
100
AcDbEntity
  8
6
  6
Continuous
 48
0.25
100
AcDbText
 10
27.9795085266385
 20
10.0
 30
0.0
 40
1.399999999999999
  1
6
100
AcDbText
  0
TEXT
  5
6C
330
18
100
AcDbEntity
  8
7
  6
Continuous
 48
0.25
100
AcDbText
 10
29.9795085266385
 20
10.0
 30
0.0
 40
1.399999999999999
  1
7
100
AcDbText
  0
LINE
  5
22EE
330
18
100
AcDbEntity
  8
1
  6
Continuous
100
AcDbLine
 10
62.33534624293515
 20
208.7074044769937
 30
0.0
 11
48.03534556372124
 21
208.7074044769937
 31
0.0
  0
LINE
  5
22F2
330
18
100
AcDbEntity
  8
1
  6
Continuous
100
AcDbLine
 10
36.95583060077507
 20
193.9074034470441
 30
0.0
 11
28.41486015021101
 21
193.9074034470441
 31
0.0
  0
LINE
  5
22F3
330
18
100
AcDbEntity
  8
1
  6
Continuous
100
AcDbLine
 10
36.95583059180967
 20
216.9074049722921
 30
0.0
 11
28.51485869132153
 21
216.9074049722921
 31
0.0
  0
ARC
  5
2311
330
18
100
AcDbEntity
  8
1
  6
Continuous
100
AcDbCircle
 10
32.63534521373019
 20
205.4074043202521
 30
0.0
 40
12.25000058184375
100
AcDbArc
 50
110.1530742571094
 51
159.8469257428906
  0
LINE
  5
2321
330
18
100
AcDbEntity
  8
1
  6
Continuous
100
AcDbLine
 10
28.41485925923421
 20
216.9074048664727
 30
0.0
 11
28.51420818595346
 21
216.9074048664728
 31
0.0
  0
ARC
  5
2355
330
18
100
AcDbEntity
  8
1
  6
Continuous
100
AcDbCircle
 10
32.63534521373019
 20
205.4074043202521
 30
0.0
 40
12.25000058184375
100
AcDbArc
 50
200.1530742571093
 51
249.8469257428904
  0
ARC
  5
235B
330
18
100
AcDbEntity
  8
1
  6
Continuous
100
AcDbCircle
 10
26.63534435654086
 20
207.5574044223716
 30
0.0
 40
2.500000118743622
100
AcDbArc
 50
0.0
 51
180.0
  0
ARC
  5
235C
330
18
100
AcDbEntity
  8
1
  6
Continuous
100
AcDbCircle
 10
26.63534435654086
 20
203.2574042181326
 30
0.0
 40
2.500000118743621
100
AcDbArc
 50
180.0
 51
0.0
  0
LINE
  5
2368
330
18
100
AcDbEntity
  8
1
  6
Continuous
100
AcDbLine
 10
21.13534466750962
 20
201.186918365756
 30
0.0
 11
21.13534466750952
 21
209.6278902747481
 31
0.0
  0
LINE
  5
236C
330
18
100
AcDbEntity
  8
1
  6
Continuous
100
AcDbLine
 10
24.13533946926782
 20
203.2574042181326
 30
0.0
 11
24.13533946926782
 21
207.5574044223716
 31
0.0
  0
ARC
  5
238B
330
18
100
AcDbEntity
  8
1
  6
Continuous
100
AcDbCircle
 10
32.73534464627259
 20
205.4074043202536
 30
0.0
 40
11.25000053434318
100
AcDbArc
 50
111.0394697813031
 51
158.9605302186778
  0
LINE
  5
23A6
330
18
100
AcDbEntity
  8
1
  6
Continuous
100
AcDbLine
 10
22.2353441475521
 20
209.4462781174406
 30
0.0
 11
22.2353441475521
 21
201.3682398874345
 31
0.0
  0
LINE
  5
245F
330
18
100
AcDbEntity
  8
1
  6
Continuous
100
AcDbLine
 10
29.13534447528451
 20
207.5574044223716
 30
0.0
 11
29.13534447528451
 21
203.2574042181326
 31
0.0
  0
ARC
  5
280D
330
18
100
AcDbEntity
  8
1
  6
Continuous
100
AcDbCircle
 10
32.73534464627533
 20
205.4074043202521
 30
0.0
 40
12.25000058184375
100
AcDbArc
 50
20.15307425721883
 51
69.84692588121212
  0
LINE
  5
2816
330
18
100
AcDbEntity
  8
1
  6
Continuous
100
AcDbLine
 10
61.23534619068076
 20
203.1574042133828
 30
0.0
 11
48.53534556372121
 21
203.1574042133828
 31
0.0
  0
LINE
  5
2817
330
18
100
AcDbEntity
  8
1
  6
Continuous
100
AcDbLine
 10
44.21158528951013
 20
201.1287651320739
 30
0.0
 11
47.45514750147509
 21
200.6016862726298
 31
0.0
  0
LINE
  5
2818
330
18
100
AcDbEntity
  8
1
  6
Continuous
100
AcDbLine
 10
47.45514750147509
 20
210.2131223678744
 30
0.0
 11
44.21158707931323
 21
209.6860437992733
 31
0.0
  0
LINE
  5
281D
330
18
100
AcDbEntity
  8
1
  6
Continuous
100
AcDbLine
 10
44.23534522656836
 20
201.1869183657826
 30
0.0
 11
44.23534522656836
 21
209.6278902747471
 31
0.0
  0
ARC
  5
29A1
330
18
100
AcDbEntity
  8
1
  6
Continuous
100
AcDbCircle
 10
32.73534464627537
 20
205.407404320252
 30
0.0
 40
12.25000058184369
100
AcDbArc
 50
290.1530742572205
 51
339.8469257427499
  0
LINE
  5
2A68
330
18
100
AcDbEntity
  8
1
  6
Continuous
100
AcDbLine
 10
43.23534514499857
 20
201.3685305230766
 30
0.0
 11
43.23534514499857
 21
209.4462781174395
 31
0.0
  0
ARC
  5
2A80
330
18
100
AcDbEntity
  8
1
  6
Continuous
100
AcDbCircle
 10
32.73534464628146
 20
205.4074043202495
 30
0.0
 40
11.25000053433964
100
AcDbArc
 50
291.0394697812685
 51
338.9605302186105
  0
LINE
  5
2AA8
330
18
100
AcDbEntity
  8
1
  6
Continuous
100
AcDbLine
 10
48.03534556372124
 20
208.7074044769937
 30
0.0
 11
48.03534556372124
 21
209.7195959771214
 31
0.0
  0
ARC
  5
2AA9
330
18
100
AcDbEntity
  8
1
  6
Continuous
100
AcDbCircle
 10
47.5353455399725
 20
209.7195959771212
 30
0.0
 40
0.5000000237487248
100
AcDbArc
 50
0.0000000000219713
 51
99.22988624372765
  0
LINE
  5
2AAC
330
18
100
AcDbEntity
  8
1
  6
Continuous
100
AcDbLine
 10
48.03534556372124
 20
201.095212663383
 30
0.0
 11
48.03534556372121
 21
202.6574042133828
 31
0.0
  0
ARC
  5
2AAD
330
18
100
AcDbEntity
  8
1
  6
Continuous
100
AcDbCircle
 10
47.5353455399725
 20
201.095212663383
 30
0.0
 40
0.5000000237487244
100
AcDbArc
 50
260.7701137562921
 51
0.0
  0
LINE
  5
2AB1
330
18
100
AcDbEntity
  8
1
  6
Continuous
100
AcDbLine
 10
63.12243937834971
 20
207.7922893109591
 30
0.0
 11
62.33534624293479
 21
208.7074044769937
 31
0.0
  0
LINE
  5
2AB2
330
18
100
AcDbEntity
  8
1
  6
Continuous
100
AcDbLine
 10
63.74512229903558
 20
207.0683259593347
 30
0.0
 11
63.12243937834757
 21
207.7922893109585
 31
0.0
  0
LINE
  5
2AB3
330
18
100
AcDbEntity
  8
1
  6
Continuous
100
AcDbLine
 10
63.22029680568562
 20
205.0047915119549
 30
0.0
 11
63.65288965833439
 21
205.4074043202525
 31
0.0
  0
LINE
  5
2AB4
330
18
100
AcDbEntity
  8
1
  6
Continuous
100
AcDbLine
 10
61.23534619068076
 20
203.1574042133828
 30
0.0
 11
63.22029680568768
 21
205.0047915119527
 31
0.0
  0
ARC
  5
2AB5
330
18
100
AcDbEntity
  8
1
  6
Continuous
100
AcDbCircle
 10
62.83534626668351
 20
206.2858250278639
 30
0.0
 40
1.20000005699694
100
AcDbArc
 50
326.0378331790624
 51
13.74621936416456
  0
ARC
  5
2AB6
330
18
100
AcDbEntity
  8
1
  6
Continuous
100
AcDbCircle
 10
62.83534626668362
 20
206.2858250278639
 30
0.0
 40
1.200000056996807
100
AcDbArc
 50
13.74621936412446
 51
40.69891738267903
  0
ARC
  5
2AB7
330
18
100
AcDbEntity
  8
1
  6
Continuous
100
AcDbCircle
 10
62.83534626668316
 20
206.2858250278641
 30
0.0
 40
1.20000005699736
100
AcDbArc
 50
312.9442275029553
 51
326.0378331790007
  0
LINE
  5
2AB8
330
18
100
AcDbEntity
  8
1
  6
Continuous
100
AcDbLine
 10
122.8736760271912
 20
47.09349547974953
 30
0.0
 11
122.8736760271912
 21
48.59349555099583
 31
0.0
  0
LINE
  5
2AB9
330
18
100
AcDbEntity
  8
1
  6
Continuous
100
AcDbLine
 10
109.4801239522768
 20
47.09349545600509
 30
0.0
 11
109.4801239522768
 21
48.59349555099572
 31
0.0
  0
ARC
  5
2ABA
330
18
100
AcDbEntity
  8
1
  6
Continuous
100
AcDbCircle
 10
122.3736760034424
 20
47.09349547974953
 30
0.0
 40
0.5000000237487247
100
AcDbArc
 50
270.0060066134914
 51
0.0000000000032569
  0
LINE
  5
2ABB
330
18
100
AcDbEntity
  8
1
  6
Continuous
100
AcDbLine
 10
121.2736759511952
 20
44.04349571635208
 30
0.0
 11
110.4736754382228
 21
44.04349571635208
 31
0.0
  0
LINE
  5
2ABF
330
18
100
AcDbEntity
  8
1
  6
Continuous
100
AcDbLine
 10
110.4736754382228
 20
44.14349572110181
 30
0.0
 11
110.4736754382228
 21
44.04349571635208
 31
0.0
  0
LINE
  5
2AC1
330
18
100
AcDbEntity
  8
1
  6
Continuous
100
AcDbLine
 10
110.77367545928
 20
44.44349573533481
 30
0.0
 11
110.77367545928
 21
44.59349574247561
 31
0.0
  0
LINE
  5
2AC3
330
18
100
AcDbEntity
  8
1
  6
Continuous
100
AcDbLine
 10
110.8511559240416
 20
44.44349573533486
 30
0.0
 11
110.8511559240416
 21
44.59349574247568
 31
0.0
  0
ARC
  5
2AC4
330
18
100
AcDbEntity
  8
1
  6
Continuous
100
AcDbCircle
 10
110.773675452472
 20
44.14349572110181
 30
0.0
 40
0.30000001424924
100
AcDbArc
 50
90.00042171058428
 51
179.9999999999974
  0
LINE
  5
2AC6
330
18
100
AcDbEntity
  8
1
  6
Continuous
100
AcDbLine
 10
118.0911758000346
 20
40.54349555011099
 30
0.0
 11
118.0911758000346
 21
44.04349571635208
 31
0.0
  0
LINE
  5
2AC7
330
18
100
AcDbEntity
  8
1
  6
Continuous
100
AcDbLine
 10
120.3086759053602
 20
40.54349554698193
 30
0.0
 11
120.3086757610227
 21
44.04349571635208
 31
0.0
  0
LINE
  5
2AC8
330
18
100
AcDbEntity
  8
1
  6
Continuous
100
AcDbLine
 10
111.4386754840578
 20
40.54349554698193
 30
0.0
 11
111.4386756283954
 21
44.04349571635208
 31
0.0
  0
LINE
  5
2AC9
330
18
100
AcDbEntity
  8
1
  6
Continuous
100
AcDbLine
 10
113.6561755893835
 20
40.54349552636225
 30
0.0
 11
113.6561755893835
 21
44.04349571635208
 31
0.0
  0
ARC
  5
2ACA
330
18
100
AcDbEntity
  8
1
  6
Continuous
100
AcDbCircle
 10
116.9236757445813
 20
40.3434955406115
 30
0.0
 40
0.3000000142492338
100
AcDbArc
 50
179.9999916657555
 51
270.0
  0
LINE
  5
2ACC
330
18
100
AcDbEntity
  8
1
  6
Continuous
100
AcDbLine
 10
114.8236756448367
 20
40.04349552636226
 30
0.0
 11
111.9386754840578
 21
40.04349552636226
 31
0.0
  0
LINE
  5
2ACD
330
18
100
AcDbEntity
  8
1
  6
Continuous
100
AcDbLine
 10
114.8236756448367
 20
40.04349552636226
 30
0.0
 11
114.8236756448367
 21
40.5434955502127
 31
0.0
  0
LINE
  5
2ACF
330
18
100
AcDbEntity
  8
1
  6
Continuous
100
AcDbLine
 10
116.623675730332
 20
42.54349564510589
 30
0.0
 11
116.623675730332
 21
40.3434955406115
 31
0.0
  0
LINE
  5
2AD0
330
18
100
AcDbEntity
  8
1
  6
Continuous
100
AcDbLine
 10
115.1236756590859
 20
42.54349564510589
 30
0.0
 11
116.623675730332
 21
42.54349564510589
 31
0.0
  0
LINE
  5
2AD1
330
18
100
AcDbEntity
  8
1
  6
Continuous
100
AcDbLine
 10
115.1236756590859
 20
40.3434955406115
 30
0.0
 11
115.1236756590859
 21
42.54349564510589
 31
0.0
  0
LINE
  5
2AD2
330
18
100
AcDbEntity
  8
1
  6
Continuous
100
AcDbLine
 10
114.8236756448367
 20
40.54349555031432
 30
0.0
 11
115.1225637974136
 21
40.54349555031432
 31
0.0
  0
ARC
  5
2AD7
330
18
100
AcDbEntity
  8
1
  6
Continuous
100
AcDbCircle
 10
114.8236756448367
 20
40.3434955406115
 30
0.0
 40
0.3000000142492318
100
AcDbArc
 50
269.9999999999983
 51
0.0
  0
LINE
  5
2ADD
330
18
100
AcDbEntity
  8
1
  6
Continuous
100
AcDbLine
 10
116.9236757445813
 20
40.543495550332
 30
0.0
 11
116.9236757445813
 21
40.04349552636226
 31
0.0
  0
LINE
  5
2AE3
330
18
100
AcDbEntity
  8
1
  6
Continuous
100
AcDbLine
 10
118.8736758372014
 20
44.69349503196963
 30
0.0
 11
112.8736755522167
 21
44.69349503196963
 31
0.0
  0
LINE
  5
2AE9
330
18
100
AcDbEntity
  8
1
  6
Continuous
100
AcDbLine
 10
110.7736732444004
 20
44.4434957353186
 30
0.0
 11
120.973675936946
 21
44.4434957353186
 31
0.0
  0
LINE
  5
2AEC
330
18
100
AcDbEntity
  8
1
  6
Continuous
100
AcDbLine
 10
114.9880699479989
 20
44.44349573533481
 30
0.0
 11
114.9880699479989
 21
44.59349574247568
 31
0.0
  0
LINE
  5
2AED
330
18
100
AcDbEntity
  8
1
  6
Continuous
100
AcDbLine
 10
114.9880699479987
 20
44.59349574247561
 30
0.0
 11
115.873675694709
 21
44.59349574247561
 31
0.0
  0
LINE
  5
2AEE
330
18
100
AcDbEntity
  8
1
  6
Continuous
100
AcDbLine
 10
115.873675694709
 20
44.44349573533486
 30
0.0
 11
115.873675694709
 21
44.59349574247568
 31
0.0
  0
LINE
  5
2AEF
330
18
100
AcDbEntity
  8
1
  6
Continuous
100
AcDbLine
 10
116.3946202524533
 20
44.44349573535106
 30
0.0
 11
116.3946202524533
 21
44.59349574247568
 31
0.0
  0
LINE
  5
2AF0
330
18
100
AcDbEntity
  8
1
  6
Continuous
100
AcDbLine
 10
116.3946202524533
 20
44.59349574247568
 30
0.0
 11
120.973675928567
 21
44.59349574247568
 31
0.0
  0
LINE
  5
2AF1
330
18
100
AcDbEntity
  8
1
  6
Continuous
100
AcDbLine
 10
116.7592814414192
 20
44.44349573533486
 30
0.0
 11
116.7592814414192
 21
44.59349574247568
 31
0.0
  0
LINE
  5
2AF2
330
18
100
AcDbEntity
  8
1
  6
Continuous
100
AcDbLine
 10
113.32367557778
 20
44.44349573533503
 30
0.0
 11
113.32367557778
 21
44.59349574247568
 31
0.0
  0
LINE
  5
2AF4
330
18
100
AcDbEntity
  8
1
  6
Continuous
100
AcDbLine
 10
114.1293728837639
 20
44.44349573533481
 30
0.0
 11
114.1293728837639
 21
44.59349574247568
 31
0.0
  0
LINE
  5
2AF5
330
18
100
AcDbEntity
  8
1
  6
Continuous
100
AcDbLine
 10
110.77367545928
 20
44.59349574247568
 30
0.0
 11
114.8476152159967
 21
44.59349574247568
 31
0.0
  0
LINE
  5
2AF6
330
18
100
AcDbEntity
  8
1
  6
Continuous
100
AcDbLine
 10
114.8476152159967
 20
44.44349573535106
 30
0.0
 11
114.8476152159967
 21
44.59349574247568
 31
0.0
  0
LINE
  5
2AF7
330
18
100
AcDbEntity
  8
1
  6
Continuous
100
AcDbLine
 10
111.966848855657
 20
44.44349573533486
 30
0.0
 11
111.966848855657
 21
44.59349574247568
 31
0.0
  0
LINE
  5
2AF9
330
18
100
AcDbEntity
  8
1
  6
Continuous
100
AcDbLine
 10
112.5954587349868
 20
44.44349573533503
 30
0.0
 11
112.5954587349868
 21
44.59349574247568
 31
0.0
  0
LINE
  5
2AFB
330
18
100
AcDbEntity
  8
1
  6
Continuous
100
AcDbLine
 10
111.0812431089466
 20
44.44349573533486
 30
0.0
 11
111.0812431089466
 21
44.59349574247568
 31
0.0
  0
LINE
  5
2AFD
330
18
100
AcDbEntity
  8
1
  6
Continuous
100
AcDbLine
 10
111.4569459328812
 20
44.44349573533486
 30
0.0
 11
111.4569459328812
 21
44.59349574247568
 31
0.0
  0
LINE
  5
2AFF
330
18
100
AcDbEntity
  8
1
  6
Continuous
100
AcDbLine
 10
113.4736755807151
 20
44.69349503196963
 30
0.0
 11
113.4736755807151
 21
44.59349574247568
 31
0.0
  0
LINE
  5
2B00
330
18
100
AcDbEntity
  8
1
  6
Continuous
100
AcDbLine
 10
112.8736755522167
 20
44.69349503196963
 30
0.0
 11
112.8736755522167
 21
46.59349512221478
 31
0.0
  0
LINE
  5
2B01
330
18
100
AcDbEntity
  8
1
  6
Continuous
100
AcDbLine
 10
121.2736759511952
 20
44.04349571635208
 30
0.0
 11
121.2736759511952
 21
44.14349572110181
 31
0.0
  0
LINE
  5
2B09
330
18
100
AcDbEntity
  8
1
  6
Continuous
100
AcDbLine
 10
117.6179785056541
 20
44.44349573533503
 30
0.0
 11
117.6179785056541
 21
44.59349574247568
 31
0.0
  0
LINE
  5
2B0B
330
18
100
AcDbEntity
  8
1
  6
Continuous
100
AcDbLine
 10
118.423675811638
 20
44.44349573533503
 30
0.0
 11
118.423675811638
 21
44.59349574247568
 31
0.0
  0
LINE
  5
2B0D
330
18
100
AcDbEntity
  8
1
  6
Continuous
100
AcDbLine
 10
119.1518926544312
 20
44.44349573533525
 30
0.0
 11
119.1518926544312
 21
44.59349574247568
 31
0.0
  0
LINE
  5
2B0E
330
18
100
AcDbEntity
  8
1
  6
Continuous
100
AcDbLine
 10
119.7805025337613
 20
44.44349573533525
 30
0.0
 11
119.7805025337613
 21
44.59349574247568
 31
0.0
  0
LINE
  5
2B10
330
18
100
AcDbEntity
  8
1
  6
Continuous
100
AcDbLine
 10
120.2904054565367
 20
44.44349573533481
 30
0.0
 11
120.2904054565367
 21
44.59349574247568
 31
0.0
  0
LINE
  5
2B12
330
18
100
AcDbEntity
  8
1
  6
Continuous
100
AcDbLine
 10
118.2736758087029
 20
44.59349574247568
 30
0.0
 11
118.2736758087029
 21
44.69349503196963
 31
0.0
  0
LINE
  5
2B13
330
18
100
AcDbEntity
  8
1
  6
Continuous
100
AcDbLine
 10
120.6661082804713
 20
44.44349573533481
 30
0.0
 11
120.6661082804713
 21
44.59349574247568
 31
0.0
  0
LINE
  5
2B15
330
18
100
AcDbEntity
  8
1
  6
Continuous
100
AcDbLine
 10
120.8961954653764
 20
44.44349573533486
 30
0.0
 11
120.8961954653764
 21
44.59349574247568
 31
0.0
  0
LINE
  5
2B17
330
18
100
AcDbEntity
  8
1
  6
Continuous
100
AcDbLine
 10
120.973675928567
 20
44.44349573533486
 30
0.0
 11
120.973675928567
 21
44.59349574247568
 31
0.0
  0
ARC
  5
2B19
330
18
100
AcDbEntity
  8
1
  6
Continuous
100
AcDbCircle
 10
120.973675936946
 20
44.14349572110181
 30
0.0
 40
0.30000001424924
100
AcDbArc
 50
0.0000000000024427
 51
90.0
  0
LINE
  5
2B1A
330
18
100
AcDbEntity
  8
1
  6
Continuous
100
AcDbLine
 10
109.9801239522768
 20
46.59349545874841
 30
0.0
 11
122.3737284209084
 21
46.59349545874841
 31
0.0
  0
LINE
  5
2B1C
330
18
100
AcDbEntity
  8
1
  6
Continuous
100
AcDbLine
 10
118.8736758372014
 20
46.59349512221478
 30
0.0
 11
118.8736758372014
 21
44.69349503196963
 31
0.0
  0
LINE
  5
2B1F
330
18
100
AcDbEntity
  8
1
  6
Continuous
100
AcDbLine
 10
126.3736761934322
 20
59.59349607346763
 30
0.0
 11
105.3736751959858
 21
59.59349607346763
 31
0.0
  0
LINE
  5
2B22
330
18
100
AcDbEntity
  8
1
  6
Continuous
100
AcDbLine
 10
104.873675172237
 20
60.09349609721642
 30
0.0
 11
126.873676217181
 21
60.09349609721642
 31
0.0
  0
LINE
  5
2B23
330
18
100
AcDbEntity
  8
1
  6
Continuous
100
AcDbLine
 10
122.8736760271912
 20
48.59349555099583
 30
0.0
 11
108.8737753622269
 21
48.59349555099583
 31
0.0
  0
LINE
  5
2B25
330
18
100
AcDbEntity
  8
1
  6
Continuous
100
AcDbLine
 10
122.3879803576385
 20
63.59349592967146
 30
0.0
 11
124.5319593370566
 21
63.59349592967146
 31
0.0
  0
ARC
  5
2B27
330
18
100
AcDbEntity
  8
1
  6
Continuous
100
AcDbCircle
 10
122.4736760081922
 20
73.79349698560497
 30
0.0
 40
0.2500000118743642
100
AcDbArc
 50
0.0000000000024427
 51
90.00844658489995
  0
LINE
  5
2B28
330
18
100
AcDbEntity
  8
1
  6
Continuous
100
AcDbLine
 10
99.87367493474948
 20
61.093495810928
 30
0.0
 11
104.5880336153786
 21
71.89366297018669
 31
0.0
  0
LINE
  5
2B29
330
18
100
AcDbEntity
  8
1
  6
Continuous
100
AcDbLine
 10
113.6625409089057
 20
59.59349607346763
 30
0.0
 11
113.6625409089057
 21
58.09349600222152
 31
0.0
  0
LINE
  5
2B2A
330
18
100
AcDbEntity
  8
1
  6
Continuous
100
AcDbLine
 10
118.0848104805123
 20
59.59349607346763
 30
0.0
 11
118.0848104805123
 21
58.09349600222152
 31
0.0
  0
LINE
  5
2B2B
330
18
100
AcDbEntity
  8
2
  6
Continuous
100
AcDbLine
 10
108.1853150736998
 20
59.59349607346763
 30
0.0
 11
108.1853150736998
 21
58.09349600222152
 31
0.0
  0
LINE
  5
2B2C
330
18
100
AcDbEntity
  8
1
  6
Continuous
100
AcDbLine
 10
107.8736753147294
 20
59.59349607346763
 30
0.0
 11
107.8736753147294
 21
58.09349600222152
 31
0.0
  0
LINE
  5
2B31
330
18
100
AcDbEntity
  8
2
  6
Continuous
100
AcDbLine
 10
108.1853150736998
 20
55.09349585972916
 30
0.0
 11
108.1853150736998
 21
49.28185583952278
 31
0.0
  0
LINE
  5
2B35
330
18
100
AcDbEntity
  8
1
  6
Continuous
100
AcDbLine
 10
107.8736753147294
 20
49.59349559849318
 30
0.0
 11
108.8737753622269
 21
48.5933955509957
 31
0.0
  0
LINE
  5
2B37
330
18
100
AcDbEntity
  8
1
  6
Continuous
100
AcDbLine
 10
107.8736753147294
 20
49.59349559849318
 30
0.0
 11
108.1853150736999
 21
49.59349559849318
 31
0.0
  0
LINE
  5
2B38
330
18
100
AcDbEntity
  8
1
  6
Continuous
100
AcDbLine
 10
107.8736753147294
 20
55.09349585972916
 30
0.0
 11
107.8736753147294
 21
49.59349559849318
 31
0.0
  0
LINE
  5
2B3C
330
18
100
AcDbEntity
  8
1
  6
Continuous
100
AcDbLine
 10
126.8433313303416
 20
58.09349600222152
 30
0.0
 11
104.9040200590767
 21
58.09349600222152
 31
0.0
  0
LINE
  5
2B3D
330
18
100
AcDbEntity
  8
1
  6
Continuous
100
AcDbLine
 10
126.8433313303416
 20
55.09349585972916
 30
0.0
 11
104.9040200590783
 21
55.09349585972916
 31
0.0
  0
LINE
  5
2B3E
330
18
100
AcDbEntity
  8
1
  6
Continuous
100
AcDbLine
 10
104.9040200590763
 20
58.09349600222152
 30
0.0
 11
104.9040200590763
 21
55.09349585972916
 31
0.0
  0
LINE
  5
2B3F
330
18
100
AcDbEntity
  8
1
  6
Continuous
100
AcDbLine
 10
110.3888478768927
 20
58.09349600222152
 30
0.0
 11
110.3888478768927
 21
55.09349585972916
 31
0.0
  0
LINE
  5
2B41
330
18
100
AcDbEntity
  8
1
  6
Continuous
100
AcDbLine
 10
113.6625409089057
 20
55.09349585972916
 30
0.0
 11
113.6625409089057
 21
49.59349559849306
 31
0.0
  0
LINE
  5
2B42
330
18
100
AcDbEntity
  8
1
  6
Continuous
100
AcDbLine
 10
118.0848104805123
 20
55.09349585972916
 30
0.0
 11
118.0848104805123
 21
49.59349559849318
 31
0.0
  0
LINE
  5
2B43
330
18
100
AcDbEntity
  8
1
  6
Continuous
100
AcDbLine
 10
113.6625409089054
 20
49.59349559849318
 30
0.0
 11
118.0848104805126
 21
49.59349559849318
 31
0.0
  0
LINE
  5
2B45
330
18
100
AcDbEntity
  8
1
  6
Continuous
100
AcDbLine
 10
121.3585035125233
 20
58.09349600222152
 30
0.0
 11
121.3585035125233
 21
55.09349585972916
 31
0.0
  0
LINE
  5
2B47
330
18
100
AcDbEntity
  8
1
  6
Continuous
100
AcDbLine
 10
107.623675302855
 20
63.59349592959649
 30
0.0
 11
107.623675302855
 21
63.09349623970877
 31
0.0
  0
LINE
  5
2B48
330
18
100
AcDbEntity
  8
1
  6
Continuous
100
AcDbLine
 10
105.0771069487294
 20
62.09349585842557
 30
0.0
 11
106.991622641882
 21
63.44101075198057
 31
0.0
  0
LINE
  5
2B4A
330
18
100
AcDbEntity
  8
1
  6
Continuous
100
AcDbLine
 10
106.873775267232
 20
63.09359623970873
 30
0.0
 11
105.0885995927354
 21
61.30842056521226
 31
0.0
  0
LINE
  5
2B4B
330
18
100
AcDbEntity
  8
1
  6
Continuous
100
AcDbLine
 10
104.873675172237
 20
61.09349614471387
 30
0.0
 11
104.873575172237
 21
61.09339614471384
 31
0.0
  0
LINE
  5
2B4C
330
18
100
AcDbEntity
  8
1
  6
Continuous
100
AcDbLine
 10
104.873675172237
 20
61.09349614471387
 30
0.0
 11
104.873675172237
 21
60.09349609721642
 31
0.0
  0
LINE
  5
2B4D
330
18
100
AcDbEntity
  8
1
  6
Continuous
100
AcDbLine
 10
105.0771069487291
 20
62.09349585842528
 30
0.0
 11
105.0917458561709
 21
61.09349581092779
 31
0.0
  0
LINE
  5
2B4F
330
18
100
AcDbEntity
  8
1
  6
Continuous
100
AcDbLine
 10
99.87367493475204
 20
61.09349581092782
 30
0.0
 11
131.8736764546682
 21
61.09349581092782
 31
0.0
  0
LINE
  5
2B50
330
18
100
AcDbEntity
  8
1
  6
Continuous
100
AcDbLine
 10
105.3736751959858
 20
60.09349609721642
 30
0.0
 11
105.3736751959858
 21
59.59349607346763
 31
0.0
  0
LINE
  5
2B51
330
18
100
AcDbEntity
  8
1
  6
Continuous
100
AcDbLine
 10
106.8736752672322
 20
63.09349623970877
 30
0.0
 11
124.8735761221861
 21
63.09349623970877
 31
0.0
  0
LINE
  5
2B52
330
18
100
AcDbEntity
  8
1
  6
Continuous
100
AcDbLine
 10
107.2153921029546
 20
63.59349595581146
 30
0.0
 11
106.9916202064281
 21
63.44101365591075
 31
0.0
  0
LINE
  5
2B53
330
18
100
AcDbEntity
  8
1
  6
Continuous
100
AcDbLine
 10
107.2153921229761
 20
63.59349592967146
 30
0.0
 11
109.3593718179037
 21
63.59349592967146
 31
0.0
  0
LINE
  5
2B54
330
18
100
AcDbEntity
  8
1
  6
Continuous
100
AcDbLine
 10
106.9916200327169
 20
63.44101360568253
 30
0.0
 11
107.2153920323393
 21
63.59349595581216
 31
0.0
  0
LINE
  5
2B56
330
18
100
AcDbEntity
  8
1
  6
Continuous
100
AcDbLine
 10
109.2736385258899
 20
74.04349699476274
 30
0.0
 11
122.4736391530113
 21
74.04349699476274
 31
0.0
  0
ARC
  5
2B57
330
18
100
AcDbEntity
  8
1
  6
Continuous
100
AcDbCircle
 10
107.3375064265347
 20
70.69349626690336
 30
0.0
 40
3.000000142492336
100
AcDbArc
 50
113.7273146607419
 51
156.4183493131604
  0
ARC
  5
2B58
330
18
100
AcDbEntity
  8
1
  6
Continuous
100
AcDbCircle
 10
107.3375064265347
 20
70.69349626690331
 30
0.0
 40
3.000000142492408
100
AcDbArc
 50
90.0
 51
113.7273155730977
  0
LINE
  5
2B59
330
18
100
AcDbEntity
  8
1
  6
Continuous
100
AcDbLine
 10
107.3375064261494
 20
73.69349640939572
 30
0.0
 11
124.4098449628832
 21
73.69349640939572
 31
0.0
  0
LINE
  5
2B5B
330
18
100
AcDbEntity
  8
1
  6
Continuous
100
AcDbLine
 10
109.0236753693515
 20
73.79349698560503
 30
0.0
 11
109.0236753693515
 21
73.69349640939572
 31
0.0
  0
ARC
  5
2B5C
330
18
100
AcDbEntity
  8
1
  6
Continuous
100
AcDbCircle
 10
109.2736753812258
 20
73.79349698560497
 30
0.0
 40
0.2500000118743642
100
AcDbArc
 50
90.00844661683517
 51
179.9999999999966
  0
LINE
  5
2B5F
330
18
100
AcDbEntity
  8
1
  6
Continuous
100
AcDbLine
 10
127.1593177740402
 20
71.89366297018388
 30
0.0
 11
131.8736764546682
 21
61.09349581092782
 31
0.0
  0
LINE
  5
2B60
330
18
100
AcDbEntity
  8
2
  6
Continuous
100
AcDbLine
 10
123.5620363157182
 20
59.59349607346763
 30
0.0
 11
123.5620363157182
 21
58.09349600222152
 31
0.0
  0
LINE
  5
2B61
330
18
100
AcDbEntity
  8
1
  6
Continuous
100
AcDbLine
 10
123.8736760746886
 20
58.09349600222152
 30
0.0
 11
123.8736760746886
 21
59.59349607346763
 31
0.0
  0
LINE
  5
2B62
330
18
100
AcDbEntity
  8
2
  6
Continuous
100
AcDbLine
 10
123.5620363157182
 20
55.09349585972916
 30
0.0
 11
123.5620363157182
 21
49.28185583952271
 31
0.0
  0
LINE
  5
2B63
330
18
100
AcDbEntity
  8
1
  6
Continuous
100
AcDbLine
 10
123.8736760746886
 20
49.59349559849318
 30
0.0
 11
123.8736760746886
 21
55.09349585972916
 31
0.0
  0
LINE
  5
2B64
330
18
100
AcDbEntity
  8
1
  6
Continuous
100
AcDbLine
 10
123.5620363157182
 20
49.59349559849318
 30
0.0
 11
123.8736760746886
 21
49.59349559849318
 31
0.0
  0
LINE
  5
2B65
330
18
100
AcDbEntity
  8
1
  6
Continuous
100
AcDbLine
 10
122.8736760271913
 20
48.59349555099583
 30
0.0
 11
123.8736760746886
 21
49.59349559849318
 31
0.0
  0
LINE
  5
2B68
330
18
100
AcDbEntity
  8
1
  6
Continuous
100
AcDbLine
 10
126.8433313303416
 20
58.09349600222152
 30
0.0
 11
126.8433313303416
 21
55.09349585972916
 31
0.0
  0
LINE
  5
2B69
330
18
100
AcDbEntity
  8
1
  6
Continuous
100
AcDbLine
 10
124.123676086563
 20
63.09349623970877
 30
0.0
 11
124.123676086563
 21
63.59349592959649
 31
0.0
  0
LINE
  5
2B6A
330
18
100
AcDbEntity
  8
1
  6
Continuous
100
AcDbLine
 10
124.7557288839053
 20
63.44101065722458
 30
0.0
 11
126.6702444406886
 21
62.09349585842557
 31
0.0
  0
LINE
  5
2B6B
330
18
100
AcDbEntity
  8
1
  6
Continuous
100
AcDbLine
 10
126.6702444406886
 20
62.09349585842557
 30
0.0
 11
124.755728747536
 21
63.44101075198057
 31
0.0
  0
LINE
  5
2B6D
330
18
100
AcDbEntity
  8
1
  6
Continuous
100
AcDbLine
 10
126.3736761934322
 20
59.59349607346763
 30
0.0
 11
126.3736761934322
 21
60.09349609721642
 31
0.0
  0
LINE
  5
2B6E
330
18
100
AcDbEntity
  8
1
  6
Continuous
100
AcDbLine
 10
126.873776217181
 20
61.09339614471384
 30
0.0
 11
126.873676217181
 21
61.09349614471387
 31
0.0
  0
LINE
  5
2B6F
330
18
100
AcDbEntity
  8
1
  6
Continuous
100
AcDbLine
 10
126.6587517966825
 20
61.30842056521226
 30
0.0
 11
124.8735761221861
 21
63.09359623970873
 31
0.0
  0
LINE
  5
2B71
330
18
100
AcDbEntity
  8
1
  6
Continuous
100
AcDbLine
 10
126.873676217181
 20
60.09349609721642
 30
0.0
 11
126.873676217181
 21
61.09349614471387
 31
0.0
  0
LINE
  5
2B72
330
18
100
AcDbEntity
  8
1
  6
Continuous
100
AcDbLine
 10
126.6556055332471
 20
61.09349581092779
 30
0.0
 11
126.6702444406889
 21
62.09349585842528
 31
0.0
  0
LINE
  5
2B74
330
18
100
AcDbEntity
  8
1
  6
Continuous
100
AcDbLine
 10
124.7557313567004
 20
63.44101360568306
 30
0.0
 11
124.5319593570787
 21
63.59349595581216
 31
0.0
  0
LINE
  5
2B75
330
18
100
AcDbEntity
  8
1
  6
Continuous
100
AcDbLine
 10
124.5319592864634
 20
63.59349595581146
 30
0.0
 11
124.7557311829899
 21
63.44101365591069
 31
0.0
  0
ARC
  5
2B76
330
18
100
AcDbEntity
  8
1
  6
Continuous
100
AcDbCircle
 10
124.4098449628833
 20
70.69349626690336
 30
0.0
 40
3.000000142492355
100
AcDbArc
 50
23.5816504885805
 51
66.27262572167342
  0
ARC
  5
2B77
330
18
100
AcDbEntity
  8
1
  6
Continuous
100
AcDbCircle
 10
124.4098449628833
 20
70.69349626690336
 30
0.0
 40
3.000000142492348
100
AcDbArc
 50
66.27262480923739
 51
90.0
  0
LINE
  5
2B78
330
18
100
AcDbEntity
  8
1
  6
Continuous
100
AcDbLine
 10
122.7236760200665
 20
73.69349640939572
 30
0.0
 11
122.7236760200665
 21
73.79349698560503
 31
0.0
  0
LINE
  5
2B79
330
18
100
AcDbEntity
  8
1
  6
Continuous
100
AcDbLine
 10
35.81479095356923
 20
131.3383936164427
 30
0.0
 11
30.31479069233324
 21
131.3383936164427
 31
0.0
  0
LINE
  5
2B7A
330
18
100
AcDbEntity
  8
1
  6
Continuous
100
AcDbLine
 10
35.81479095356923
 20
135.7606631880493
 30
0.0
 11
30.31479069233324
 21
135.7606631880493
 31
0.0
  0
LINE
  5
2B7B
330
18
100
AcDbEntity
  8
2
  6
Continuous
100
AcDbLine
 10
35.81479095356923
 20
125.8611677812368
 30
0.0
 11
30.00315093336281
 21
125.8611677812368
 31
0.0
  0
LINE
  5
2B7C
330
18
100
AcDbEntity
  8
2
  6
Continuous
100
AcDbLine
 10
35.81479095356923
 20
141.2378890232552
 30
0.0
 11
30.00315093336282
 21
141.2378890232552
 31
0.0
  0
LINE
  5
2B7D
330
18
100
AcDbEntity
  8
1
  6
Continuous
100
AcDbLine
 10
30.31479069233324
 20
125.5495280222664
 30
0.0
 11
35.81479095356923
 21
125.5495280222664
 31
0.0
  0
ARC
  5
2B7E
330
18
100
AcDbEntity
  8
1
  6
Continuous
100
AcDbCircle
 10
33.16479082770098
 20
133.549528402246
 30
0.0
 40
2.000000094994903
100
AcDbArc
 50
90.0
 51
270.0
  0
LINE
  5
2B80
330
18
100
AcDbEntity
  8
1
  6
Continuous
100
AcDbLine
 10
24.76479081019215
 20
128.1495281457597
 30
0.0
 11
24.76479081019215
 21
138.9495286587322
 31
0.0
  0
LINE
  5
2B85
330
18
100
AcDbEntity
  8
1
  6
Continuous
100
AcDbLine
 10
25.4147901258097
 20
130.5495282597536
 30
0.0
 11
25.4147901258097
 21
136.5495285447382
 31
0.0
  0
LINE
  5
2B87
330
18
100
AcDbEntity
  8
1
  6
Continuous
100
AcDbLine
 10
30.31479069233324
 20
135.7606631880496
 30
0.0
 11
30.31479069233324
 21
131.3383936164424
 31
0.0
  0
LINE
  5
2B89
330
18
100
AcDbEntity
  8
1
  6
Continuous
100
AcDbLine
 10
29.3147906448358
 20
126.5495280697638
 30
0.0
 11
30.31479069233324
 21
125.5495280222664
 31
0.0
  0
LINE
  5
2B8B
330
18
100
AcDbEntity
  8
1
  6
Continuous
100
AcDbLine
 10
30.31479069233324
 20
125.8611677812369
 30
0.0
 11
30.31479069233324
 21
125.5495280222663
 31
0.0
  0
LINE
  5
2B8E
330
18
100
AcDbEntity
  8
1
  6
Continuous
100
AcDbLine
 10
25.4147901258097
 20
130.5495282597536
 30
0.0
 11
27.31479021605486
 21
130.5495282597536
 31
0.0
  0
LINE
  5
2B8F
330
18
100
AcDbEntity
  8
1
  6
Continuous
100
AcDbLine
 10
24.76479081019215
 20
128.1495281457597
 30
0.0
 11
24.8647908149419
 21
128.1495281457597
 31
0.0
  0
LINE
  5
2B93
330
18
100
AcDbEntity
  8
1
  6
Continuous
100
AcDbLine
 10
25.1647908291751
 20
138.649528644483
 30
0.0
 11
25.1647908291751
 21
128.449528160009
 31
0.0
  0
LINE
  5
2B96
330
18
100
AcDbEntity
  8
1
  6
Continuous
100
AcDbLine
 10
25.16479082917493
 20
130.9995282853173
 30
0.0
 11
25.31479083631575
 21
130.9995282853173
 31
0.0
  0
LINE
  5
2B97
330
18
100
AcDbEntity
  8
1
  6
Continuous
100
AcDbLine
 10
21.26479062020234
 20
129.7087055540328
 30
0.0
 11
24.76479081019215
 21
129.7087055540327
 31
0.0
  0
LINE
  5
2B98
330
18
100
AcDbEntity
  8
1
  6
Continuous
100
AcDbLine
 10
25.16479082917493
 20
130.2713114425237
 30
0.0
 11
25.31479083631575
 21
130.2713114425237
 31
0.0
  0
LINE
  5
2B9A
330
18
100
AcDbEntity
  8
1
  6
Continuous
100
AcDbLine
 10
25.1647908291751
 20
129.6427015631934
 30
0.0
 11
25.31479083631575
 21
129.6427015631934
 31
0.0
  0
LINE
  5
2B9C
330
18
100
AcDbEntity
  8
1
  6
Continuous
100
AcDbLine
 10
25.1647908291751
 20
129.1327986404188
 30
0.0
 11
25.31479083631575
 21
129.1327986404188
 31
0.0
  0
LINE
  5
2B9E
330
18
100
AcDbEntity
  8
1
  6
Continuous
100
AcDbLine
 10
25.16479082917487
 20
128.7570958164832
 30
0.0
 11
25.31479083631575
 21
128.7570958164832
 31
0.0
  0
LINE
  5
2BA0
330
18
100
AcDbEntity
  8
1
  6
Continuous
100
AcDbLine
 10
25.31479083631575
 20
131.1495282882521
 30
0.0
 11
25.4147901258097
 21
131.1495282882521
 31
0.0
  0
LINE
  5
2BA1
330
18
100
AcDbEntity
  8
1
  6
Continuous
100
AcDbLine
 10
25.16479082917487
 20
128.5270086315791
 30
0.0
 11
25.31479083631575
 21
128.5270086315791
 31
0.0
  0
LINE
  5
2BA3
330
18
100
AcDbEntity
  8
1
  6
Continuous
100
AcDbLine
 10
25.16479082917498
 20
128.449528168388
 30
0.0
 11
25.31479083631575
 21
128.449528168388
 31
0.0
  0
ARC
  5
2BA5
330
18
100
AcDbEntity
  8
1
  6
Continuous
100
AcDbCircle
 10
24.8647908149419
 20
128.449528160009
 30
0.0
 40
0.30000001424924
100
AcDbArc
 50
270.0000000000024
 51
0.0
  0
LINE
  5
2BA9
330
18
100
AcDbEntity
  8
1
  6
Continuous
100
AcDbLine
 10
27.81479057358967
 20
126.5495280697638
 30
0.0
 11
29.31479064483596
 21
126.5495280697638
 31
0.0
  0
LINE
  5
2BAA
330
18
100
AcDbEntity
  8
1
  6
Continuous
100
AcDbLine
 10
27.31479054984089
 20
130.6995282668785
 30
0.0
 11
29.31479064483579
 21
130.6995282668785
 31
0.0
  0
ARC
  5
2BAD
330
18
100
AcDbEntity
  8
1
  6
Continuous
100
AcDbCircle
 10
27.81479057358962
 20
127.0495280935125
 30
0.0
 40
0.5000000237487247
100
AcDbArc
 50
180.0001184337469
 51
270.0000000000041
  0
ARC
  5
2BAF
330
18
100
AcDbEntity
  8
1
  6
Continuous
100
AcDbCircle
 10
21.26479064395107
 20
136.8903512267106
 30
0.0
 40
0.5000000237487271
100
AcDbArc
 50
90.0
 51
180.0
  0
LINE
  5
2BB1
330
18
100
AcDbEntity
  8
1
  6
Continuous
100
AcDbLine
 10
20.76479062020234
 20
130.2087055540328
 30
0.0
 11
20.76479062020234
 21
136.8903512267106
 31
0.0
  0
LINE
  5
2BB6
330
18
100
AcDbEntity
  8
1
  6
Continuous
100
AcDbLine
 10
25.4147901258097
 20
136.5495285447382
 30
0.0
 11
27.31479021605486
 21
136.5495285447382
 31
0.0
  0
LINE
  5
2BBC
330
18
100
AcDbEntity
  8
1
  6
Continuous
100
AcDbLine
 10
25.31479083631569
 20
133.549528402246
 30
0.0
 11
25.31479083631569
 21
132.6639226555356
 31
0.0
  0
LINE
  5
2BBD
330
18
100
AcDbEntity
  8
1
  6
Continuous
100
AcDbLine
 10
25.16479082917493
 20
132.6639226555356
 30
0.0
 11
25.31479083631575
 21
132.6639226555356
 31
0.0
  0
LINE
  5
2BBE
330
18
100
AcDbEntity
  8
1
  6
Continuous
100
AcDbLine
 10
25.16479082917487
 20
133.549528402246
 30
0.0
 11
25.31479083631575
 21
133.549528402246
 31
0.0
  0
LINE
  5
2BBF
330
18
100
AcDbEntity
  8
1
  6
Continuous
100
AcDbLine
 10
25.16479082917487
 20
134.4351341489564
 30
0.0
 11
25.31479083631575
 21
134.4351341489564
 31
0.0
  0
LINE
  5
2BC0
330
18
100
AcDbEntity
  8
1
  6
Continuous
100
AcDbLine
 10
25.16479082917487
 20
135.2938312131909
 30
0.0
 11
25.31479083631575
 21
135.2938312131909
 31
0.0
  0
LINE
  5
2BC2
330
18
100
AcDbEntity
  8
1
  6
Continuous
100
AcDbLine
 10
25.31479083631575
 20
138.649528636104
 30
0.0
 11
25.31479083631575
 21
134.0704729599903
 31
0.0
  0
LINE
  5
2BC3
330
18
100
AcDbEntity
  8
1
  6
Continuous
100
AcDbLine
 10
25.16479082919113
 20
134.0704729599905
 30
0.0
 11
25.31479083631575
 21
134.0704729599905
 31
0.0
  0
LINE
  5
2BC4
330
18
100
AcDbEntity
  8
1
  6
Continuous
100
AcDbLine
 10
25.16479082919113
 20
132.5234679235338
 30
0.0
 11
25.31479083631575
 21
132.5234679235338
 31
0.0
  0
LINE
  5
2BC5
330
18
100
AcDbEntity
  8
1
  6
Continuous
100
AcDbLine
 10
25.31479083631575
 20
132.5234679235337
 30
0.0
 11
25.31479083631575
 21
128.449528168388
 31
0.0
  0
LINE
  5
2BC6
330
18
100
AcDbEntity
  8
1
  6
Continuous
100
AcDbLine
 10
25.16479082917493
 20
131.8052255913011
 30
0.0
 11
25.31479083631575
 21
131.8052255913011
 31
0.0
  0
LINE
  5
2BC8
330
18
100
AcDbEntity
  8
1
  6
Continuous
100
AcDbLine
 10
25.16479082917487
 20
136.0995285191747
 30
0.0
 11
25.31479083631575
 21
136.0995285191747
 31
0.0
  0
LINE
  5
2BCA
330
18
100
AcDbEntity
  8
1
  6
Continuous
100
AcDbLine
 10
25.4147901258097
 20
135.9495285162399
 30
0.0
 11
25.31479083631575
 21
135.9495285162399
 31
0.0
  0
LINE
  5
2BCB
330
18
100
AcDbEntity
  8
1
  6
Continuous
100
AcDbLine
 10
24.8647908149419
 20
138.9495286587323
 30
0.0
 11
24.76479081019215
 21
138.9495286587323
 31
0.0
  0
LINE
  5
2BD1
330
18
100
AcDbEntity
  8
1
  6
Continuous
100
AcDbLine
 10
21.26479064395107
 20
137.3903512504593
 30
0.0
 11
24.76479081019215
 21
137.3903512504593
 31
0.0
  0
LINE
  5
2BD2
330
18
100
AcDbEntity
  8
1
  6
Continuous
100
AcDbLine
 10
25.16479082917538
 20
136.8277453619683
 30
0.0
 11
25.31479083631575
 21
136.8277453619683
 31
0.0
  0
LINE
  5
2BD3
330
18
100
AcDbEntity
  8
1
  6
Continuous
100
AcDbLine
 10
25.16479082917538
 20
137.4563552412985
 30
0.0
 11
25.31479083631575
 21
137.4563552412985
 31
0.0
  0
LINE
  5
2BD5
330
18
100
AcDbEntity
  8
1
  6
Continuous
100
AcDbLine
 10
25.16479082917527
 20
137.9662581640734
 30
0.0
 11
25.31479083631575
 21
137.9662581640734
 31
0.0
  0
LINE
  5
2BD7
330
18
100
AcDbEntity
  8
1
  6
Continuous
100
AcDbLine
 10
25.16479082917527
 20
138.3419609880087
 30
0.0
 11
25.31479083631575
 21
138.3419609880087
 31
0.0
  0
LINE
  5
2BD9
330
18
100
AcDbEntity
  8
1
  6
Continuous
100
AcDbLine
 10
25.16479082917522
 20
138.5720481729129
 30
0.0
 11
25.31479083631575
 21
138.5720481729129
 31
0.0
  0
LINE
  5
2BDB
330
18
100
AcDbEntity
  8
1
  6
Continuous
100
AcDbLine
 10
25.16479082917522
 20
138.649528636104
 30
0.0
 11
25.31479083631575
 21
138.649528636104
 31
0.0
  0
ARC
  5
2BDD
330
18
100
AcDbEntity
  8
1
  6
Continuous
100
AcDbCircle
 10
24.8647908149419
 20
138.649528644483
 30
0.0
 40
0.30000001424924
100
AcDbArc
 50
0.0
 51
89.99999999999756
  0
LINE
  5
2BDE
330
18
100
AcDbEntity
  8
1
  6
Continuous
100
AcDbLine
 10
29.31479064483568
 20
138.474528636171
 30
0.0
 11
27.31479021605497
 21
138.474528636171
 31
0.0
  0
LINE
  5
2BDF
330
18
100
AcDbEntity
  8
1
  6
Continuous
100
AcDbLine
 10
27.81479054984089
 20
139.9430801446781
 30
0.0
 11
29.31479064483585
 21
139.943080144678
 31
0.0
  0
LINE
  5
2BE1
330
18
100
AcDbEntity
  8
1
  6
Continuous
100
AcDbLine
 10
30.31479069233324
 20
141.5495287822256
 30
0.0
 11
29.31469064483577
 21
140.5494287347281
 31
0.0
  0
LINE
  5
2BE2
330
18
100
AcDbEntity
  8
1
  6
Continuous
100
AcDbLine
 10
30.31479069233324
 20
141.5495287822256
 30
0.0
 11
30.31479069233324
 21
141.2378890232551
 31
0.0
  0
LINE
  5
2BE3
330
18
100
AcDbEntity
  8
1
  6
Continuous
100
AcDbLine
 10
29.31479064483579
 20
140.5495287337108
 30
0.0
 11
29.3147906448358
 21
126.5495280697638
 31
0.0
  0
LINE
  5
2BE4
330
18
100
AcDbEntity
  8
1
  6
Continuous
100
AcDbLine
 10
31.16487734432473
 20
141.5495287822256
 30
0.0
 11
30.31479069233324
 21
141.5495287822256
 31
0.0
  0
LINE
  5
2BE6
330
18
100
AcDbEntity
  8
1
  6
Continuous
100
AcDbLine
 10
27.31479054984089
 20
139.443080144678
 30
0.0
 11
27.31479054984089
 21
127.0495270599831
 31
0.0
  0
LINE
  5
2BEB
330
18
100
AcDbEntity
  8
1
  6
Continuous
100
AcDbLine
 10
40.3147911673077
 20
123.0495279035227
 30
0.0
 11
40.3147911673077
 21
144.0495289009693
 31
0.0
  0
ARC
  5
2BEC
330
18
100
AcDbEntity
  8
1
  6
Continuous
100
AcDbCircle
 10
52.91479143198961
 20
140.2995287228538
 30
0.0
 40
1.50000007124617
100
AcDbArc
 50
13.49091083049211
 51
90.00008059642242
  0
LINE
  5
2BED
330
18
100
AcDbEntity
  8
1
  6
Continuous
100
AcDbLine
 10
40.81479119105647
 20
144.549528924718
 30
0.0
 11
40.81479119105647
 21
122.549527879774
 31
0.0
  0
LINE
  5
2BEF
330
18
100
AcDbEntity
  8
1
  6
Continuous
100
AcDbLine
 10
43.81479133354884
 20
142.5495288297228
 30
0.0
 11
43.81479133354883
 21
137.4701634958553
 31
0.0
  0
LINE
  5
2BF0
330
18
100
AcDbEntity
  8
1
  6
Continuous
100
AcDbLine
 10
38.81479109606157
 20
124.0495279510202
 30
0.0
 11
38.81479109606157
 21
143.0495288534706
 31
0.0
  0
LINE
  5
2BF1
330
18
100
AcDbEntity
  8
1
  6
Continuous
100
AcDbLine
 10
35.81479095356923
 20
124.0495279510202
 30
0.0
 11
35.81479095356923
 21
143.0495288534706
 31
0.0
  0
LINE
  5
2BF2
330
18
100
AcDbEntity
  8
1
  6
Continuous
100
AcDbLine
 10
54.7647920886028
 20
140.1495655710651
 30
0.0
 11
54.7647920886028
 21
126.9494912334269
 31
0.0
  0
LINE
  5
2BF5
330
18
100
AcDbEntity
  8
1
  6
Continuous
100
AcDbLine
 10
41.8147909047679
 20
129.5495282122566
 30
0.0
 11
52.84773278082612
 21
129.9873433660686
 31
0.0
  0
LINE
  5
2BF6
330
18
100
AcDbEntity
  8
1
  6
Continuous
100
AcDbLine
 10
43.81479133354884
 20
125.299528010392
 30
0.0
 11
52.91478897302578
 21
125.2995280103921
 31
0.0
  0
LINE
  5
2BF8
330
18
100
AcDbEntity
  8
1
  6
Continuous
100
AcDbLine
 10
43.81479133354884
 20
129.6288933086369
 30
0.0
 11
43.81479133354884
 21
124.5495279747689
 31
0.0
  0
LINE
  5
2BF9
330
18
100
AcDbEntity
  8
1
  6
Continuous
100
AcDbLine
 10
38.81479109606157
 20
124.0495279510202
 30
0.0
 11
35.81479095356923
 21
124.0495279510202
 31
0.0
  0
LINE
  5
2BFA
330
18
100
AcDbEntity
  8
1
  6
Continuous
100
AcDbLine
 10
40.3147911673077
 20
123.0495279035227
 30
0.0
 11
40.81479119105647
 21
123.0495279035227
 31
0.0
  0
LINE
  5
2BFB
330
18
100
AcDbEntity
  8
1
  6
Continuous
100
AcDbLine
 10
40.81479119105647
 20
122.549527879774
 30
0.0
 11
41.81479123855392
 21
122.549527879774
 31
0.0
  0
LINE
  5
2BFF
330
18
100
AcDbEntity
  8
1
  6
Continuous
100
AcDbLine
 10
41.8147909047679
 20
122.549527545988
 30
0.0
 11
43.81489133354887
 21
124.5496279747689
 31
0.0
  0
LINE
  5
2C00
330
18
100
AcDbEntity
  8
2
  6
Continuous
100
AcDbLine
 10
40.3147911673077
 20
125.8611677812368
 30
0.0
 11
38.81479109606157
 21
125.8611677812368
 31
0.0
  0
LINE
  5
2C01
330
18
100
AcDbEntity
  8
1
  6
Continuous
100
AcDbLine
 10
38.81479109606157
 20
125.5495280222664
 30
0.0
 11
40.3147911673077
 21
125.5495280222664
 31
0.0
  0
LINE
  5
2C03
330
18
100
AcDbEntity
  8
1
  6
Continuous
100
AcDbLine
 10
44.31479102351153
 20
129.6400357017264
 30
0.0
 11
44.31479102351153
 21
128.4872135864992
 31
0.0
  0
LINE
  5
2C05
330
18
100
AcDbEntity
  8
1
  6
Continuous
100
AcDbLine
 10
40.3147911673077
 20
131.3383936164427
 30
0.0
 11
38.81479109606157
 21
131.3383936164427
 31
0.0
  0
ARC
  5
2C06
330
18
100
AcDbEntity
  8
1
  6
Continuous
100
AcDbCircle
 10
52.91479143198961
 20
126.7995280816382
 30
0.0
 40
1.500000071246176
100
AcDbArc
 50
269.9999060745045
 51
346.5104377084144
  0
LINE
  5
2C07
330
18
100
AcDbEntity
  8
1
  6
Continuous
100
AcDbLine
 10
54.37338671585064
 20
126.6995280768884
 30
0.0
 11
54.5147920794451
 21
126.6995280768884
 31
0.0
  0
ARC
  5
2C08
330
18
100
AcDbEntity
  8
1
  6
Continuous
100
AcDbCircle
 10
54.5147920794451
 20
126.9495280887628
 30
0.0
 40
0.2500000118743642
100
AcDbArc
 50
270.0000000000032
 51
359.9915533821992
  0
LINE
  5
2C12
330
18
100
AcDbEntity
  8
1
  6
Continuous
100
AcDbLine
 10
52.84773278082841
 20
137.1117134384235
 30
0.0
 11
41.8147909047679
 21
137.5495285922355
 31
0.0
  0
LINE
  5
2C13
330
18
100
AcDbEntity
  8
1
  6
Continuous
100
AcDbLine
 10
41.8147909047679
 20
144.549529258504
 30
0.0
 11
41.8147909047679
 21
122.549527545988
 31
0.0
  0
LINE
  5
2C14
330
18
100
AcDbEntity
  8
1
  6
Continuous
100
AcDbLine
 10
38.81479109606157
 20
133.5495284022448
 30
0.0
 11
35.81479095356923
 21
133.5495284022448
 31
0.0
  0
ARC
  5
2C15
330
18
100
AcDbEntity
  8
1
  6
Continuous
100
AcDbCircle
 10
33.16479082770098
 20
133.549528402246
 30
0.0
 40
2.000000094994901
100
AcDbArc
 50
270.0
 51
90.0
  0
LINE
  5
2C16
330
18
100
AcDbEntity
  8
1
  6
Continuous
100
AcDbLine
 10
40.3147911673077
 20
135.7606631880493
 30
0.0
 11
38.81479109606157
 21
135.7606631880493
 31
0.0
  0
LINE
  5
2C17
330
18
100
AcDbEntity
  8
1
  6
Continuous
100
AcDbLine
 10
35.81479095356923
 20
141.5495287822256
 30
0.0
 11
35.16470379335522
 21
141.5495287822256
 31
0.0
  0
LINE
  5
2C19
330
18
100
AcDbEntity
  8
1
  6
Continuous
100
AcDbLine
 10
44.31479102351153
 20
138.6118432237322
 30
0.0
 11
44.31479102351153
 21
137.4590209463731
 31
0.0
  0
LINE
  5
2C1C
330
18
100
AcDbEntity
  8
2
  6
Continuous
100
AcDbLine
 10
40.3147911673077
 20
141.2378890232552
 30
0.0
 11
38.81479109606157
 21
141.2378890232552
 31
0.0
  0
LINE
  5
2C1D
330
18
100
AcDbEntity
  8
1
  6
Continuous
100
AcDbLine
 10
40.3147911673077
 20
141.5495287822256
 30
0.0
 11
38.81479109606157
 21
141.5495287822256
 31
0.0
  0
LINE
  5
2C23
330
18
100
AcDbEntity
  8
1
  6
Continuous
100
AcDbLine
 10
54.5147920794451
 20
140.3995287276035
 30
0.0
 11
54.37338671585064
 21
140.3995287276035
 31
0.0
  0
ARC
  5
2C24
330
18
100
AcDbEntity
  8
1
  6
Continuous
100
AcDbCircle
 10
54.5147920794451
 20
140.1495287157292
 30
0.0
 40
0.2500000118743642
100
AcDbArc
 50
0.0149798108108082
 51
89.99999999999673
  0
LINE
  5
2C28
330
18
100
AcDbEntity
  8
1
  6
Continuous
100
AcDbLine
 10
54.37338671585064
 20
140.6495287394779
 30
0.0
 11
54.37338671585064
 21
126.4496257334552
 31
0.0
  0
LINE
  5
2C29
330
18
100
AcDbEntity
  8
1
  6
Continuous
100
AcDbLine
 10
52.9147893219801
 20
141.7995287941
 30
0.0
 11
43.81479133354884
 21
141.7995287941
 31
0.0
  0
LINE
  5
2C2A
330
18
100
AcDbEntity
  8
1
  6
Continuous
100
AcDbLine
 10
38.81479109606157
 20
143.0495288534706
 30
0.0
 11
35.81479095356923
 21
143.0495288534706
 31
0.0
  0
LINE
  5
2C2B
330
18
100
AcDbEntity
  8
1
  6
Continuous
100
AcDbLine
 10
40.81479119105647
 20
144.0495289009692
 30
0.0
 11
40.3147911673077
 21
144.0495289009692
 31
0.0
  0
LINE
  5
2C2E
330
18
100
AcDbEntity
  8
1
  6
Continuous
100
AcDbLine
 10
43.81489133354881
 20
142.5494288297231
 30
0.0
 11
41.8147909047679
 21
144.549529258504
 31
0.0
  0
ARC
  5
2C31
330
18
100
AcDbEntity
  8
1
  6
Continuous
100
AcDbCircle
 10
124.7613382077805
 20
140.4556471985493
 30
0.0
 40
3.005392249048276
100
AcDbArc
 50
219.2675310393223
 51
265.6227832966563
  0
ARC
  5
2C32
330
18
100
AcDbEntity
  8
1
  6
Continuous
100
AcDbCircle
 10
124.7613371889689
 20
126.6434177329603
 30
0.0
 40
3.005384218524247
100
AcDbArc
 50
94.37720758946293
 51
140.5081074018293
  0
LINE
  5
2C3A
330
18
100
AcDbEntity
  8
1
  6
Continuous
100
AcDbLine
 10
99.87367512326541
 20
135.9495285922358
 30
0.0
 11
99.87367512326541
 21
131.1495282122562
 31
0.0
  0
LINE
  5
2C3B
330
18
100
AcDbEntity
  8
1
  6
Continuous
100
AcDbLine
 10
120.3236760945886
 20
132.4395283495238
 30
0.0
 11
120.3236760945886
 21
134.6595284549682
 31
0.0
  0
LINE
  5
2C3C
330
18
100
AcDbEntity
  8
1
  6
Continuous
100
AcDbLine
 10
113.6736757787306
 20
134.6595284549682
 30
0.0
 11
113.6736757787306
 21
132.4395283495238
 31
0.0
  0
ARC
  5
2C48
330
18
100
AcDbEntity
  8
1
  6
Continuous
100
AcDbCircle
 10
115.8737119482959
 20
133.5495210525409
 30
0.0
 40
8.499992187405746
100
AcDbArc
 50
210.9226537778293
 51
329.1849409515457
  0
ARC
  5
2C49
330
18
100
AcDbEntity
  8
1
  6
Continuous
100
AcDbCircle
 10
115.873675883225
 20
133.549528402246
 30
0.0
 40
8.250000391851964
100
AcDbArc
 50
217.3321481082767
 51
322.7495551077065
  0
ARC
  5
2C4C
330
18
100
AcDbEntity
  8
1
  6
Continuous
100
AcDbCircle
 10
115.873675883225
 20
133.549528402246
 30
0.0
 40
8.600000408478083
100
AcDbArc
 50
209.6707521688454
 51
314.9999999999997
  0
ARC
  5
2C4D
330
18
100
AcDbEntity
  8
1
  6
Continuous
100
AcDbCircle
 10
106.9860135586176
 20
126.6434096057684
 30
0.0
 40
3.005392249226046
100
AcDbArc
 50
39.26752691395559
 51
85.62278329592549
  0
ARC
  5
2C4E
330
18
100
AcDbEntity
  8
1
  6
Continuous
100
AcDbCircle
 10
115.8736758832249
 20
133.5495284022459
 30
0.0
 40
9.000000427476898
100
AcDbArc
 50
206.5774920354998
 51
333.4770077094042
  0
ARC
  5
2C4F
330
18
100
AcDbEntity
  8
1
  6
Continuous
100
AcDbCircle
 10
115.873675883225
 20
133.549528402246
 30
0.0
 40
11.00000052247206
100
AcDbArc
 50
201.0329162574912
 51
338.9804263692099
  0
LINE
  5
2C51
330
18
100
AcDbEntity
  8
1
  6
Continuous
100
AcDbLine
 10
105.0771071372453
 20
129.5892107538236
 30
0.0
 11
106.991622830398
 21
129.6426835670599
 31
0.0
  0
LINE
  5
2C52
330
18
100
AcDbEntity
  8
1
  6
Continuous
100
AcDbLine
 10
105.0771071372451
 20
129.5892107538235
 30
0.0
 11
105.0917460446869
 21
129.5495282122562
 31
0.0
  0
LINE
  5
2C53
330
18
100
AcDbEntity
  8
1
  6
Continuous
100
AcDbLine
 10
101.4736751232653
 20
129.5495282122562
 30
0.0
 11
105.0917460446888
 21
129.5495282122562
 31
0.0
  0
LINE
  5
2C54
330
18
100
AcDbEntity
  8
1
  6
Continuous
100
AcDbLine
 10
109.4578747711091
 20
131.1495282882521
 30
0.0
 11
109.1916100169286
 21
131.1495282882521
 31
0.0
  0
LINE
  5
2C55
330
18
100
AcDbEntity
  8
1
  6
Continuous
100
AcDbLine
 10
107.2153922914706
 20
129.6400357042314
 30
0.0
 11
106.9916203949441
 21
129.6426987205332
 31
0.0
  0
ARC
  5
2C58
330
18
100
AcDbEntity
  8
1
  6
Continuous
100
AcDbCircle
 10
115.873675883225
 20
133.549528402246
 30
0.0
 40
8.600000408478083
100
AcDbArc
 50
314.9999999999997
 51
330.2513452017397
  0
ARC
  5
2C5C
330
18
100
AcDbEntity
  8
1
  6
Continuous
100
AcDbCircle
 10
116.4736759117234
 20
133.549528402246
 30
0.0
 40
2.700000128242768
100
AcDbArc
 50
204.2746521945865
 51
335.7253478054134
  0
LINE
  5
2C60
330
18
100
AcDbEntity
  8
1
  6
Continuous
100
AcDbLine
 10
113.6736757787306
 20
132.4395283495238
 30
0.0
 11
120.3236760945886
 21
132.4395283495238
 31
0.0
  0
LINE
  5
2C61
330
18
100
AcDbEntity
  8
1
  6
Continuous
100
AcDbLine
 10
122.5557417495212
 20
131.1495282882521
 30
0.0
 11
122.2894769953409
 21
131.1495282882521
 31
0.0
  0
ARC
  5
2C63
330
18
100
AcDbEntity
  8
1
  6
Continuous
100
AcDbCircle
 10
115.8737002574498
 20
133.5495677663409
 30
0.0
 40
8.499960770563996
100
AcDbArc
 50
30.81515193800459
 51
149.0398067114442
  0
ARC
  5
2C64
330
18
100
AcDbEntity
  8
1
  6
Continuous
100
AcDbCircle
 10
115.873675883225
 20
133.549528402246
 30
0.0
 40
8.250000391852486
100
AcDbArc
 50
37.33214660583993
 51
142.7495551205016
  0
ARC
  5
2C67
330
18
100
AcDbEntity
  8
1
  6
Continuous
100
AcDbCircle
 10
115.873675883225
 20
133.549528402246
 30
0.0
 40
8.600000408478083
100
AcDbArc
 50
29.75113771412967
 51
150.2880363968774
  0
ARC
  5
2C68
330
18
100
AcDbEntity
  8
1
  6
Continuous
100
AcDbCircle
 10
115.8736758832251
 20
133.5495284022459
 30
0.0
 40
9.000000427477212
100
AcDbArc
 50
26.52299280687119
 51
153.4168002948416
  0
ARC
  5
2C69
330
18
100
AcDbEntity
  8
1
  6
Continuous
100
AcDbCircle
 10
115.873675883225
 20
133.549528402246
 30
0.0
 40
11.00000052247197
100
AcDbArc
 50
21.01957363086436
 51
158.9670837554055
  0
LINE
  5
2C6A
330
18
100
AcDbEntity
  8
1
  6
Continuous
100
AcDbLine
 10
106.991622694028
 20
137.4563732411923
 30
0.0
 11
105.0771071372453
 21
137.5098460506685
 31
0.0
  0
LINE
  5
2C6B
330
18
100
AcDbEntity
  8
1
  6
Continuous
100
AcDbLine
 10
101.4736751232653
 20
137.5495285922358
 30
0.0
 11
105.0917460446888
 21
137.5495285922358
 31
0.0
  0
LINE
  5
2C6C
330
18
100
AcDbEntity
  8
1
  6
Continuous
100
AcDbLine
 10
105.0917460446869
 20
137.5495285922359
 30
0.0
 11
105.0771071372451
 21
137.5098460506685
 31
0.0
  0
LINE
  5
2C6E
330
18
100
AcDbEntity
  8
1
  6
Continuous
100
AcDbLine
 10
106.9916202212329
 20
137.4563578553659
 30
0.0
 11
107.2153922208552
 21
137.459020943868
 31
0.0
  0
ARC
  5
2C70
330
18
100
AcDbEntity
  8
1
  6
Continuous
100
AcDbCircle
 10
106.9860145774704
 20
140.4556390715517
 30
0.0
 40
3.005384218544969
100
AcDbArc
 50
274.3772075896369
 51
320.5081073665071
  0
ARC
  5
2C74
330
18
100
AcDbEntity
  8
1
  6
Continuous
100
AcDbCircle
 10
116.4736759117234
 20
133.549528402246
 30
0.0
 40
2.700000128242834
100
AcDbArc
 50
24.2746521945875
 51
155.7253478054124
  0
LINE
  5
2C7B
330
18
100
AcDbEntity
  8
1
  6
Continuous
100
AcDbLine
 10
120.3236760945886
 20
134.6595284549682
 30
0.0
 11
113.6736757787306
 21
134.6595284549682
 31
0.0
  0
LINE
  5
2C7E
330
18
100
AcDbEntity
  8
1
  6
Continuous
100
AcDbLine
 10
131.8736766431842
 20
135.9495285922358
 30
0.0
 11
131.8736766431842
 21
131.1495282122562
 31
0.0
  0
LINE
  5
2C7F
330
18
100
AcDbEntity
  8
1
  6
Continuous
100
AcDbLine
 10
126.6556057217611
 20
129.5495282122562
 30
0.0
 11
130.2736766431842
 21
129.5495282122562
 31
0.0
  0
LINE
  5
2C80
330
18
100
AcDbEntity
  8
1
  6
Continuous
100
AcDbLine
 10
124.7557315452164
 20
129.6426989491261
 30
0.0
 11
124.5319595455947
 21
129.640035860624
 31
0.0
  0
LINE
  5
2C81
330
18
100
AcDbEntity
  8
1
  6
Continuous
100
AcDbLine
 10
126.655605721763
 20
129.5495282122562
 30
0.0
 11
126.6702446292048
 21
129.5892107538235
 31
0.0
  0
LINE
  5
2C82
330
18
100
AcDbEntity
  8
1
  6
Continuous
100
AcDbLine
 10
124.7557290724213
 20
129.6426835632997
 30
0.0
 11
126.6702446292046
 21
129.5892107538236
 31
0.0
  0
LINE
  5
2C84
330
18
100
AcDbEntity
  8
1
  6
Continuous
100
AcDbLine
 10
126.6556057217611
 20
137.5495285922358
 30
0.0
 11
130.2736766431842
 21
137.5495285922358
 31
0.0
  0
LINE
  5
2C85
330
18
100
AcDbEntity
  8
1
  6
Continuous
100
AcDbLine
 10
124.5319594749794
 20
137.4590211002606
 30
0.0
 11
124.7557313715059
 21
137.4563580839588
 31
0.0
  0
LINE
  5
2C86
330
18
100
AcDbEntity
  8
1
  6
Continuous
100
AcDbLine
 10
126.6702446292046
 20
137.5098460506685
 30
0.0
 11
124.755728936052
 21
137.4563732374322
 31
0.0
  0
LINE
  5
2C87
330
18
100
AcDbEntity
  8
1
  6
Continuous
100
AcDbLine
 10
126.6702446292048
 20
137.5098460506685
 30
0.0
 11
126.655605721763
 21
137.5495285922359
 31
0.0
  0
LINE
  5
2C89
330
18
100
AcDbEntity
  8
1
  6
Continuous
100
AcDbLine
 10
278.4016400903325
 20
143.0495288534717
 30
0.0
 11
267.4319844547007
 21
143.0495288534717
 31
0.0
  0
LINE
  5
2C8A
330
18
100
AcDbEntity
  8
1
  6
Continuous
100
AcDbLine
 10
267.4319844547018
 20
124.0495279510201
 30
0.0
 11
278.4016400903335
 21
124.0495279510201
 31
0.0
  0
LINE
  5
2C8D
330
18
100
AcDbEntity
  8
1
  6
Continuous
100
AcDbLine
 10
268.4818120618657
 20
133.5495284022458
 30
0.0
 11
270.6993121671914
 21
129.7087055540325
 31
0.0
  0
LINE
  5
2C8E
330
18
100
AcDbEntity
  8
1
  6
Continuous
100
AcDbLine
 10
270.6993121671913
 20
137.3903512504593
 30
0.0
 11
268.4818120618656
 21
133.5495284022461
 31
0.0
  0
ARC
  5
2C8F
330
18
100
AcDbEntity
  8
1
  6
Continuous
100
AcDbCircle
 10
272.916812272517
 20
133.5495284022459
 30
0.0
 40
3.000000142492361
100
AcDbArc
 50
108.5530161417737
 51
251.446983858227
  0
ARC
  5
2C90
330
18
100
AcDbEntity
  8
1
  6
Continuous
100
AcDbCircle
 10
272.916812272517
 20
133.5495284022459
 30
0.0
 40
3.300062042068863
100
AcDbArc
 50
108.552643922189
 51
251.4473560778109
  0
CIRCLE
  5
2C91
330
18
100
AcDbEntity
  8
1
  6
Continuous
100
AcDbCircle
 10
272.916812272517
 20
133.5495284022459
 30
0.0
 40
5.400000256486244
  0
ARC
  5
2C92
330
18
100
AcDbEntity
  8
1
  6
Continuous
100
AcDbCircle
 10
272.916812272517
 20
133.5495284022459
 30
0.0
 40
10.50000049872325
100
AcDbArc
 50
244.7912347032412
 51
295.2087652967587
  0
ARC
  5
2C93
330
18
100
AcDbEntity
  8
1
  6
Continuous
100
AcDbCircle
 10
272.916812272517
 20
133.5495284022459
 30
0.0
 40
10.50000049872325
100
AcDbArc
 50
64.79123470324122
 51
115.2087652967587
  0
LINE
  5
2C94
330
18
100
AcDbEntity
  8
1
  6
Continuous
100
AcDbLine
 10
265.2284516515082
 20
135.7606631880495
 30
0.0
 11
270.7056774867136
 21
141.2378890232549
 31
0.0
  0
LINE
  5
2C95
330
18
100
AcDbEntity
  8
1
  6
Continuous
100
AcDbLine
 10
265.2284516515082
 20
131.3383936164423
 30
0.0
 11
270.7056774867136
 21
125.861167781237
 31
0.0
  0
ARC
  5
2C96
330
18
100
AcDbEntity
  8
1
  6
Continuous
100
AcDbCircle
 10
272.916812272517
 20
133.5495284022459
 30
0.0
 40
6.500002375792365
100
AcDbArc
 50
224.9999956033395
 51
333.9942420694893
  0
ARC
  5
2C97
330
18
100
AcDbEntity
  8
1
  6
Continuous
100
AcDbCircle
 10
272.916812272517
 20
133.5495284022459
 30
0.0
 40
7.000000332482147
100
AcDbArc
 50
114.0254794728655
 51
314.9999999999997
  0
ARC
  5
2C98
330
18
100
AcDbEntity
  8
1
  6
Continuous
100
AcDbCircle
 10
272.916812272517
 20
133.5495284022459
 30
0.0
 40
7.000000332482147
100
AcDbArc
 50
45.00000000000028
 51
114.0254794728655
  0
CIRCLE
  5
2C99
330
18
100
AcDbEntity
  8
1
  6
Continuous
100
AcDbCircle
 10
272.916812272517
 20
133.5495284022459
 30
0.0
 40
11.00000052247196
  0
LINE
  5
2C9A
330
18
100
AcDbEntity
  8
1
  6
Continuous
100
AcDbLine
 10
261.9471567812236
 20
133.5495281522468
 30
0.0
 11
267.4319844547007
 21
124.0495279510201
 31
0.0
  0
ARC
  5
2C9B
330
18
100
AcDbEntity
  8
1
  6
Continuous
100
AcDbCircle
 10
272.916812272517
 20
133.5495284022459
 30
0.0
 40
10.50000049872325
100
AcDbArc
 50
184.8082478384252
 51
235.1932384075223
  0
LINE
  5
2C9E
330
18
100
AcDbEntity
  8
1
  6
Continuous
100
AcDbLine
 10
190.1800145535369
 20
124.549627974769
 30
0.0
 11
192.1801146485319
 21
122.549527879774
 31
0.0
  0
LINE
  5
2C9F
330
18
100
AcDbEntity
  8
1
  6
Continuous
100
AcDbLine
 10
193.1801146960293
 20
122.549527879774
 30
0.0
 11
193.1801146960293
 21
144.549528924718
 31
0.0
  0
LINE
  5
2CA0
330
18
100
AcDbEntity
  8
1
  6
Continuous
100
AcDbLine
 10
193.1801146960293
 20
123.0495279035227
 30
0.0
 11
193.6801147197781
 21
123.0495279035227
 31
0.0
  0
LINE
  5
2CA3
330
18
100
AcDbEntity
  8
1
  6
Continuous
100
AcDbLine
 10
192.1801146485318
 20
122.549527879774
 30
0.0
 11
193.1801146960293
 21
122.549527879774
 31
0.0
  0
LINE
  5
2CA4
330
18
100
AcDbEntity
  8
1
  6
Continuous
100
AcDbLine
 10
192.1801146485319
 20
144.549528924718
 30
0.0
 11
190.1800145535369
 21
142.5494288297231
 31
0.0
  0
LINE
  5
2CA5
330
18
100
AcDbEntity
  8
1
  6
Continuous
100
AcDbLine
 10
192.1801146485318
 20
122.549527879774
 30
0.0
 11
192.1801146485319
 21
144.549528924718
 31
0.0
  0
LINE
  5
2CA7
330
18
100
AcDbEntity
  8
1
  6
Continuous
100
AcDbLine
 10
193.6801147197781
 20
135.7606631880493
 30
0.0
 11
195.1801147910242
 21
135.7606631880493
 31
0.0
  0
LINE
  5
2CA8
330
18
100
AcDbEntity
  8
1
  6
Continuous
100
AcDbLine
 10
193.6801147197781
 20
131.3383936164427
 30
0.0
 11
195.1801147910242
 21
131.3383936164427
 31
0.0
  0
LINE
  5
2CA9
330
18
100
AcDbEntity
  8
2
  6
Continuous
100
AcDbLine
 10
193.6801147197781
 20
141.2378890232552
 30
0.0
 11
195.1801147910242
 21
141.2378890232552
 31
0.0
  0
LINE
  5
2CAA
330
18
100
AcDbEntity
  8
2
  6
Continuous
100
AcDbLine
 10
193.6801147197781
 20
125.8611677812368
 30
0.0
 11
195.1801147910242
 21
125.8611677812368
 31
0.0
  0
LINE
  5
2CAB
330
18
100
AcDbEntity
  8
1
  6
Continuous
100
AcDbLine
 10
195.1801147910242
 20
141.5495287822256
 30
0.0
 11
193.6801147197781
 21
141.5495287822256
 31
0.0
  0
LINE
  5
2CAC
330
18
100
AcDbEntity
  8
1
  6
Continuous
100
AcDbLine
 10
193.6801147197781
 20
125.5495280222664
 30
0.0
 11
195.1801147910242
 21
125.5495280222664
 31
0.0
  0
LINE
  5
2CAD
330
18
100
AcDbEntity
  8
1
  6
Continuous
100
AcDbLine
 10
193.6801147197781
 20
144.0495289009692
 30
0.0
 11
193.6801147197781
 21
123.0495279035227
 31
0.0
  0
LINE
  5
2CAE
330
18
100
AcDbEntity
  8
1
  6
Continuous
100
AcDbLine
 10
179.2301138043107
 20
126.9494627269977
 30
0.0
 11
179.2301138043107
 21
140.1495940774943
 31
0.0
  0
LINE
  5
2CB1
330
18
100
AcDbEntity
  8
1
  6
Continuous
100
AcDbLine
 10
181.1471731100576
 20
129.9873433659173
 30
0.0
 11
192.1801149823179
 21
129.5495282122562
 31
0.0
  0
LINE
  5
2CB2
330
18
100
AcDbEntity
  8
1
  6
Continuous
100
AcDbLine
 10
181.08011691406
 20
125.299528010392
 30
0.0
 11
190.180114553537
 21
125.299528010392
 31
0.0
  0
LINE
  5
2CB4
330
18
100
AcDbEntity
  8
1
  6
Continuous
100
AcDbLine
 10
179.4801138076406
 20
126.6995280768884
 30
0.0
 11
179.6215191712351
 21
126.6995280768884
 31
0.0
  0
ARC
  5
2CB5
330
18
100
AcDbEntity
  8
1
  6
Continuous
100
AcDbCircle
 10
179.4801138076406
 20
126.9495280887628
 30
0.0
 40
0.2500000118743642
100
AcDbArc
 50
180.0149798111137
 51
269.9999999999967
  0
ARC
  5
2CB6
330
18
100
AcDbEntity
  8
1
  6
Continuous
100
AcDbCircle
 10
181.0801144550961
 20
126.7995280816382
 30
0.0
 40
1.500000071246176
100
AcDbArc
 50
193.490873730222
 51
270.0000939254954
  0
LINE
  5
2CBE
330
18
100
AcDbEntity
  8
1
  6
Continuous
100
AcDbLine
 10
189.6801148635743
 20
128.4872135807598
 30
0.0
 11
189.6801148635743
 21
129.6400358581189
 31
0.0
  0
LINE
  5
2CBF
330
18
100
AcDbEntity
  8
1
  6
Continuous
100
AcDbLine
 10
190.180114553537
 20
124.5495279747689
 30
0.0
 11
190.180114553537
 21
129.6266409340231
 31
0.0
  0
LINE
  5
2CC3
330
18
100
AcDbEntity
  8
1
  6
Continuous
100
AcDbLine
 10
192.1801149823179
 20
137.5495285922358
 30
0.0
 11
181.1471731100569
 21
137.1117134385746
 31
0.0
  0
LINE
  5
2CC4
330
18
100
AcDbEntity
  8
1
  6
Continuous
100
AcDbLine
 10
190.180114553537
 20
141.7995287941
 30
0.0
 11
181.0801165651057
 21
141.7995287941
 31
0.0
  0
LINE
  5
2CC5
330
18
100
AcDbEntity
  8
1
  6
Continuous
100
AcDbLine
 10
179.6215191712351
 20
126.4495923473366
 30
0.0
 11
179.6215191712351
 21
140.6495286703993
 31
0.0
  0
LINE
  5
2CCE
330
18
100
AcDbEntity
  8
1
  6
Continuous
100
AcDbLine
 10
179.6215191712351
 20
140.3995287276035
 30
0.0
 11
179.4801138076406
 21
140.3995287276035
 31
0.0
  0
ARC
  5
2CCF
330
18
100
AcDbEntity
  8
1
  6
Continuous
100
AcDbCircle
 10
179.4801138076406
 20
140.1495287157292
 30
0.0
 40
0.2500000118743642
100
AcDbArc
 50
90.00000000000325
 51
179.9915533827356
  0
ARC
  5
2CD0
330
18
100
AcDbEntity
  8
1
  6
Continuous
100
AcDbCircle
 10
181.0801144550961
 20
140.2995287228538
 30
0.0
 40
1.50000007124617
100
AcDbArc
 50
89.99991940357759
 51
166.510399541425
  0
LINE
  5
2CD1
330
18
100
AcDbEntity
  8
1
  6
Continuous
100
AcDbLine
 10
190.180114553537
 20
137.4724158749285
 30
0.0
 11
190.180114553537
 21
142.5495288297231
 31
0.0
  0
LINE
  5
2CD4
330
18
100
AcDbEntity
  8
1
  6
Continuous
100
AcDbLine
 10
189.6801148635743
 20
137.4590211027656
 30
0.0
 11
189.6801148635743
 21
138.6118432179928
 31
0.0
  0
LINE
  5
2CD5
330
18
100
AcDbEntity
  8
1
  6
Continuous
100
AcDbLine
 10
193.6801147197781
 20
144.0495289009692
 30
0.0
 11
193.1801146960293
 21
144.0495289009692
 31
0.0
  0
LINE
  5
2CD7
330
18
100
AcDbEntity
  8
1
  6
Continuous
100
AcDbLine
 10
195.1801147910242
 20
143.0495288534718
 30
0.0
 11
195.1801147910243
 21
124.0495279510214
 31
0.0
  0
LINE
  5
2CD8
330
18
100
AcDbEntity
  8
1
  6
Continuous
100
AcDbLine
 10
198.1801149335166
 20
143.0495288534718
 30
0.0
 11
198.1801149335166
 21
124.0495279510214
 31
0.0
  0
LINE
  5
2CD9
330
18
100
AcDbEntity
  8
1
  6
Continuous
100
AcDbLine
 10
209.2301150768937
 20
138.9495286587322
 30
0.0
 11
209.2301150768937
 21
128.1495281457597
 31
0.0
  0
LINE
  5
2CDB
330
18
100
AcDbEntity
  8
1
  6
Continuous
100
AcDbLine
 10
208.6801150507701
 20
128.449528168388
 30
0.0
 11
208.6801150507701
 21
133.0285838445016
 31
0.0
  0
LINE
  5
2CDC
330
18
100
AcDbEntity
  8
1
  6
Continuous
100
AcDbLine
 10
213.2301152668835
 20
136.8903512504592
 30
0.0
 11
213.2301152668835
 21
130.2082626061904
 31
0.0
  0
LINE
  5
2CDD
330
18
100
AcDbEntity
  8
1
  6
Continuous
100
AcDbLine
 10
208.5801157612761
 20
130.5495282597536
 30
0.0
 11
208.5801157612761
 21
136.5495285447382
 31
0.0
  0
LINE
  5
2CDF
330
18
100
AcDbEntity
  8
1
  6
Continuous
100
AcDbLine
 10
203.6801151947526
 20
131.3383936164427
 30
0.0
 11
203.6801151947526
 21
135.7606631880493
 31
0.0
  0
LINE
  5
2CE0
330
18
100
AcDbEntity
  8
1
  6
Continuous
100
AcDbLine
 10
206.6801153344973
 20
127.0495805106817
 30
0.0
 11
206.6801153344972
 21
139.443080144678
 31
0.0
  0
LINE
  5
2CE1
330
18
100
AcDbEntity
  8
1
  6
Continuous
100
AcDbLine
 10
204.6801152422499
 20
126.5495280697638
 30
0.0
 11
206.1801153134962
 21
126.5495280697638
 31
0.0
  0
LINE
  5
2CE5
330
18
100
AcDbEntity
  8
2
  6
Continuous
100
AcDbLine
 10
198.1801149335166
 20
125.8611677812368
 30
0.0
 11
203.991754953723
 21
125.8611677812368
 31
0.0
  0
LINE
  5
2CE6
330
18
100
AcDbEntity
  8
1
  6
Continuous
100
AcDbLine
 10
198.1801149335166
 20
125.5495280222664
 30
0.0
 11
203.6801151947526
 21
125.5495280222664
 31
0.0
  0
LINE
  5
2CE7
330
18
100
AcDbEntity
  8
1
  6
Continuous
100
AcDbLine
 10
195.1801147910243
 20
124.0495279510214
 30
0.0
 11
198.1801149335166
 21
124.0495279510214
 31
0.0
  0
LINE
  5
2CEA
330
18
100
AcDbEntity
  8
1
  6
Continuous
100
AcDbLine
 10
203.6801151947526
 20
125.5495280222664
 30
0.0
 11
204.68011524225
 21
126.5495280697638
 31
0.0
  0
LINE
  5
2CEB
330
18
100
AcDbEntity
  8
1
  6
Continuous
100
AcDbLine
 10
203.6801151947526
 20
125.5495280222664
 30
0.0
 11
203.6801151947526
 21
125.8611677812369
 31
0.0
  0
LINE
  5
2CEE
330
18
100
AcDbEntity
  8
1
  6
Continuous
100
AcDbLine
 10
198.1801149335166
 20
131.3383936164427
 30
0.0
 11
203.6801151947526
 21
131.3383936164427
 31
0.0
  0
LINE
  5
2CEF
330
18
100
AcDbEntity
  8
1
  6
Continuous
100
AcDbLine
 10
195.1801147910242
 20
133.5495284022472
 30
0.0
 11
198.1801149335166
 21
133.5495284022472
 31
0.0
  0
LINE
  5
2CF2
330
18
100
AcDbEntity
  8
1
  6
Continuous
100
AcDbLine
 10
209.130115072144
 20
128.1495281457597
 30
0.0
 11
209.2301150768937
 21
128.1495281457597
 31
0.0
  0
LINE
  5
2CF5
330
18
100
AcDbEntity
  8
1
  6
Continuous
100
AcDbLine
 10
208.8301150579109
 20
128.5270086315791
 30
0.0
 11
208.6801150507701
 21
128.5270086315791
 31
0.0
  0
LINE
  5
2CF7
330
18
100
AcDbEntity
  8
1
  6
Continuous
100
AcDbLine
 10
208.8301150579106
 20
128.7570958164832
 30
0.0
 11
208.6801150507701
 21
128.7570958164832
 31
0.0
  0
LINE
  5
2CF8
330
18
100
AcDbEntity
  8
1
  6
Continuous
100
AcDbLine
 10
208.8301150579272
 20
128.449528168388
 30
0.0
 11
208.6801150507701
 21
128.449528168388
 31
0.0
  0
ARC
  5
2CFA
330
18
100
AcDbEntity
  8
1
  6
Continuous
100
AcDbCircle
 10
209.130115072144
 20
128.449528160009
 30
0.0
 40
0.30000001424924
100
AcDbArc
 50
180.0004205701409
 51
269.9999999999975
  0
ARC
  5
2CFD
330
18
100
AcDbEntity
  8
1
  6
Continuous
100
AcDbCircle
 10
206.1801153134962
 20
127.0495280935125
 30
0.0
 40
0.5000000237487247
100
AcDbArc
 50
269.9999999999959
 51
0.0060065648625215
  0
LINE
  5
2CFE
330
18
100
AcDbEntity
  8
1
  6
Continuous
100
AcDbLine
 10
212.7301152431348
 20
133.5495284022459
 30
0.0
 11
209.2301150768937
 21
133.549528152246
 31
0.0
  0
LINE
  5
2CFF
330
18
100
AcDbEntity
  8
1
  6
Continuous
100
AcDbLine
 10
212.7301152431348
 20
129.7087055540327
 30
0.0
 11
209.2301150768937
 21
129.7087055540327
 31
0.0
  0
LINE
  5
2D06
330
18
100
AcDbEntity
  8
1
  6
Continuous
100
AcDbLine
 10
208.8301150579109
 20
133.549528402246
 30
0.0
 11
208.6801150507701
 21
133.549528402246
 31
0.0
  0
LINE
  5
2D07
330
18
100
AcDbEntity
  8
1
  6
Continuous
100
AcDbLine
 10
208.8301150579109
 20
131.8052255913011
 30
0.0
 11
208.6801150507701
 21
131.8052255913011
 31
0.0
  0
LINE
  5
2D09
330
18
100
AcDbEntity
  8
1
  6
Continuous
100
AcDbLine
 10
208.8301150579109
 20
132.6639226555356
 30
0.0
 11
208.6801150507701
 21
132.6639226555356
 31
0.0
  0
LINE
  5
2D0B
330
18
100
AcDbEntity
  8
1
  6
Continuous
100
AcDbLine
 10
208.8301150578947
 20
133.0285838445016
 30
0.0
 11
208.6801150507701
 21
133.0285838445016
 31
0.0
  0
LINE
  5
2D0C
330
18
100
AcDbEntity
  8
1
  6
Continuous
100
AcDbLine
 10
208.8301150579109
 20
130.9995282853172
 30
0.0
 11
208.6801150507701
 21
130.9995282853172
 31
0.0
  0
LINE
  5
2D0E
330
18
100
AcDbEntity
  8
1
  6
Continuous
100
AcDbLine
 10
208.8301150579104
 20
130.2713114425241
 30
0.0
 11
208.6801150507701
 21
130.2713114425241
 31
0.0
  0
LINE
  5
2D10
330
18
100
AcDbEntity
  8
1
  6
Continuous
100
AcDbLine
 10
208.8301150579106
 20
129.1327986404189
 30
0.0
 11
208.6801150507701
 21
129.1327986404189
 31
0.0
  0
LINE
  5
2D12
330
18
100
AcDbEntity
  8
1
  6
Continuous
100
AcDbLine
 10
208.8301150579104
 20
129.6427015631934
 30
0.0
 11
208.6801150507701
 21
129.6427015631934
 31
0.0
  0
LINE
  5
2D14
330
18
100
AcDbEntity
  8
1
  6
Continuous
100
AcDbLine
 10
208.5801157612761
 20
131.1495282882521
 30
0.0
 11
208.6801150507701
 21
131.1495282882521
 31
0.0
  0
LINE
  5
2D15
330
18
100
AcDbEntity
  8
1
  6
Continuous
100
AcDbLine
 10
206.6801156710309
 20
130.5495282597536
 30
0.0
 11
208.5801157612761
 21
130.5495282597536
 31
0.0
  0
ARC
  5
2D17
330
18
100
AcDbEntity
  8
1
  6
Continuous
100
AcDbCircle
 10
212.7301152431348
 20
130.2087055777814
 30
0.0
 40
0.5000000237487284
100
AcDbArc
 50
270.0
 51
359.9999999999983
  0
LINE
  5
2D19
330
18
100
AcDbEntity
  8
1
  6
Continuous
100
AcDbLine
 10
206.1801153344972
 20
139.9430801446781
 30
0.0
 11
204.6801152422499
 21
139.9430801446781
 31
0.0
  0
LINE
  5
2D1C
330
18
100
AcDbEntity
  8
1
  6
Continuous
100
AcDbLine
 10
198.1801149335166
 20
135.7606631880493
 30
0.0
 11
203.6801151947526
 21
135.7606631880493
 31
0.0
  0
LINE
  5
2D1E
330
18
100
AcDbEntity
  8
2
  6
Continuous
100
AcDbLine
 10
198.1801149335166
 20
141.2378890232552
 30
0.0
 11
203.991754953723
 21
141.2378890232551
 31
0.0
  0
LINE
  5
2D20
330
18
100
AcDbEntity
  8
1
  6
Continuous
100
AcDbLine
 10
195.1801147910242
 20
143.0495288534718
 30
0.0
 11
198.1801149335166
 21
143.0495288534718
 31
0.0
  0
LINE
  5
2D21
330
18
100
AcDbEntity
  8
1
  6
Continuous
100
AcDbLine
 10
198.8302020937305
 20
141.5495287822256
 30
0.0
 11
198.1801149335166
 21
141.5495287822256
 31
0.0
  0
LINE
  5
2D22
330
18
100
AcDbEntity
  8
1
  6
Continuous
100
AcDbLine
 10
204.68011524225
 20
126.5495280697638
 30
0.0
 11
204.68011524225
 21
140.5495287337108
 31
0.0
  0
LINE
  5
2D23
330
18
100
AcDbEntity
  8
1
  6
Continuous
100
AcDbLine
 10
203.6801151947526
 20
141.2378890232551
 30
0.0
 11
203.6801151947526
 21
141.5495287822256
 31
0.0
  0
LINE
  5
2D24
330
18
100
AcDbEntity
  8
1
  6
Continuous
100
AcDbLine
 10
204.6802152422501
 20
140.5494287347281
 30
0.0
 11
203.6801151947526
 21
141.5495287822256
 31
0.0
  0
LINE
  5
2D27
330
18
100
AcDbEntity
  8
1
  6
Continuous
100
AcDbLine
 10
203.6801151947526
 20
141.5495287822256
 30
0.0
 11
202.830028542761
 21
141.5495287822256
 31
0.0
  0
LINE
  5
2D29
330
18
100
AcDbEntity
  8
1
  6
Continuous
100
AcDbLine
 10
212.7301152668835
 20
137.3903512504592
 30
0.0
 11
209.2301150768937
 21
137.3903512504593
 31
0.0
  0
LINE
  5
2D2A
330
18
100
AcDbEntity
  8
1
  6
Continuous
100
AcDbLine
 10
209.2301150768937
 20
138.9495286587323
 30
0.0
 11
209.130115072144
 21
138.9495286587323
 31
0.0
  0
LINE
  5
2D2B
330
18
100
AcDbEntity
  8
1
  6
Continuous
100
AcDbLine
 10
208.8301150579272
 20
128.449528168388
 30
0.0
 11
208.8301150579271
 21
138.649528636104
 31
0.0
  0
LINE
  5
2D33
330
18
100
AcDbEntity
  8
1
  6
Continuous
100
AcDbLine
 10
208.8301150579109
 20
134.4351341489564
 30
0.0
 11
208.6801150507701
 21
134.4351341489564
 31
0.0
  0
LINE
  5
2D34
330
18
100
AcDbEntity
  8
1
  6
Continuous
100
AcDbLine
 10
208.8301150579109
 20
135.2938312131909
 30
0.0
 11
208.6801150507701
 21
135.2938312131909
 31
0.0
  0
LINE
  5
2D36
330
18
100
AcDbEntity
  8
1
  6
Continuous
100
AcDbLine
 10
208.8301150579106
 20
136.0995285191747
 30
0.0
 11
208.6801150507701
 21
136.0995285191747
 31
0.0
  0
LINE
  5
2D37
330
18
100
AcDbEntity
  8
1
  6
Continuous
100
AcDbLine
 10
208.8301150578947
 20
134.5755888809582
 30
0.0
 11
208.6801150507701
 21
134.5755888809582
 31
0.0
  0
LINE
  5
2D38
330
18
100
AcDbEntity
  8
1
  6
Continuous
100
AcDbLine
 10
208.6801150507701
 20
138.649528636104
 30
0.0
 11
208.6801150507701
 21
134.5755888809583
 31
0.0
  0
LINE
  5
2D3A
330
18
100
AcDbEntity
  8
1
  6
Continuous
100
AcDbLine
 10
208.8301150579106
 20
136.8277453619679
 30
0.0
 11
208.6801150507701
 21
136.8277453619679
 31
0.0
  0
LINE
  5
2D3C
330
18
100
AcDbEntity
  8
1
  6
Continuous
100
AcDbLine
 10
208.8301150579109
 20
137.4563552412985
 30
0.0
 11
208.6801150507701
 21
137.4563552412985
 31
0.0
  0
LINE
  5
2D3D
330
18
100
AcDbEntity
  8
1
  6
Continuous
100
AcDbLine
 10
208.8301150579109
 20
137.9662581640734
 30
0.0
 11
208.6801150507701
 21
137.9662581640734
 31
0.0
  0
LINE
  5
2D3F
330
18
100
AcDbEntity
  8
1
  6
Continuous
100
AcDbLine
 10
208.8301150579106
 20
138.3419609880087
 30
0.0
 11
208.6801150507701
 21
138.3419609880087
 31
0.0
  0
LINE
  5
2D41
330
18
100
AcDbEntity
  8
1
  6
Continuous
100
AcDbLine
 10
208.6801150507701
 20
135.9495285162399
 30
0.0
 11
208.5801157612761
 21
135.9495285162399
 31
0.0
  0
LINE
  5
2D43
330
18
100
AcDbEntity
  8
1
  6
Continuous
100
AcDbLine
 10
208.8301150579106
 20
138.5720481729129
 30
0.0
 11
208.6801150507701
 21
138.5720481729129
 31
0.0
  0
LINE
  5
2D45
330
18
100
AcDbEntity
  8
1
  6
Continuous
100
AcDbLine
 10
208.8301150579271
 20
138.649528636104
 30
0.0
 11
208.6801150507701
 21
138.649528636104
 31
0.0
  0
ARC
  5
2D46
330
18
100
AcDbEntity
  8
1
  6
Continuous
100
AcDbCircle
 10
209.130115072144
 20
138.649528644483
 30
0.0
 40
0.30000001424924
100
AcDbArc
 50
90.00000000000246
 51
180.0
  0
LINE
  5
2D47
330
18
100
AcDbEntity
  8
1
  6
Continuous
100
AcDbLine
 10
206.6801156710309
 20
136.5495285447382
 30
0.0
 11
208.5801157612761
 21
136.5495285447382
 31
0.0
  0
LINE
  5
2D4B
330
18
100
AcDbEntity
  8
1
  6
Continuous
100
AcDbLine
 10
193.1801146960293
 20
144.549528924718
 30
0.0
 11
192.1801146485319
 21
144.549528924718
 31
0.0
  0
LINE
  5
2D4D
330
18
100
AcDbEntity
  8
1
  6
Continuous
100
AcDbLine
 10
267.4319844547007
 20
143.0495288534717
 30
0.0
 11
261.9471566368864
 21
133.5495284022459
 31
0.0
  0
ARC
  5
2D4E
330
18
100
AcDbEntity
  8
1
  6
Continuous
100
AcDbCircle
 10
272.916812272517
 20
133.5495284022459
 30
0.0
 40
10.50000049872325
100
AcDbArc
 50
124.8155292166612
 51
175.200985481825
  0
LINE
  5
2D4F
330
18
100
AcDbEntity
  8
1
  6
Continuous
100
AcDbLine
 10
256.9168115125579
 20
135.9495285922357
 30
0.0
 11
256.9168115125579
 21
131.1495282122561
 31
0.0
  0
ARC
  5
2D50
330
18
100
AcDbEntity
  8
1
  6
Continuous
100
AcDbCircle
 10
272.916812272517
 20
133.5495284022459
 30
0.0
 40
11.50000054622062
100
AcDbArc
 50
159.6455936017587
 51
200.3544063982403
  0
ARC
  5
2D51
330
18
100
AcDbEntity
  8
1
  6
Continuous
100
AcDbCircle
 10
272.916812272517
 20
133.5495284022459
 30
0.0
 40
6.500052726199387
100
AcDbArc
 50
116.0057623750293
 51
224.9999956033395
  0
LINE
  5
2D53
330
18
100
AcDbEntity
  8
1
  6
Continuous
100
AcDbLine
 10
262.134882433981
 20
129.5495282122561
 30
0.0
 11
258.5168115125579
 21
129.5495282122561
 31
0.0
  0
LINE
  5
2D55
330
18
100
AcDbEntity
  8
1
  6
Continuous
100
AcDbLine
 10
262.653004580854
 20
129.6042115281835
 30
0.0
 11
262.1202435265374
 21
129.5892107538235
 31
0.0
  0
LINE
  5
2D58
330
18
100
AcDbEntity
  8
1
  6
Continuous
100
AcDbLine
 10
262.134882433981
 20
137.5495285922357
 30
0.0
 11
258.5168115125579
 21
137.5495285922357
 31
0.0
  0
LINE
  5
2D5A
330
18
100
AcDbEntity
  8
1
  6
Continuous
100
AcDbLine
 10
270.0668121371496
 20
138.1361940755272
 30
0.0
 11
270.0668121371496
 21
139.9430801446779
 31
0.0
  0
LINE
  5
2D5B
330
18
100
AcDbEntity
  8
1
  6
Continuous
100
AcDbLine
 10
262.1202435265374
 20
137.5098460506684
 30
0.0
 11
262.654919172203
 21
137.4947913124392
 31
0.0
  0
LINE
  5
2D5E
330
18
100
AcDbEntity
  8
1
  6
Continuous
100
AcDbLine
 10
278.4016400903334
 20
124.0495279510201
 30
0.0
 11
283.8864679081477
 21
133.5495284022459
 31
0.0
  0
ARC
  5
2D5F
330
18
100
AcDbEntity
  8
1
  6
Continuous
100
AcDbCircle
 10
272.916812272517
 20
133.5495284022459
 30
0.0
 40
10.50000049872325
100
AcDbArc
 50
304.8111904289477
 51
355.19624068671
  0
LINE
  5
2D60
330
18
100
AcDbEntity
  8
1
  6
Continuous
100
AcDbLine
 10
283.8864677638107
 20
133.549528652245
 30
0.0
 11
278.4016400903334
 21
143.0495288534717
 31
0.0
  0
LINE
  5
2D61
330
18
100
AcDbEntity
  8
1
  6
Continuous
100
AcDbLine
 10
277.3518124831686
 20
133.549528402246
 30
0.0
 11
275.1343123778429
 21
137.3903512504593
 31
0.0
  0
LINE
  5
2D62
330
18
100
AcDbEntity
  8
1
  6
Continuous
100
AcDbLine
 10
273.6668123081402
 20
134.5495284497434
 30
0.0
 11
273.6668123081402
 21
137.09035123621
 31
0.0
  0
LINE
  5
2D63
330
18
100
AcDbEntity
  8
1
  6
Continuous
100
AcDbLine
 10
272.165745444494
 20
137.1156284477734
 30
0.0
 11
272.166812236894
 21
134.5495284497434
 31
0.0
  0
LINE
  5
2D64
330
18
100
AcDbEntity
  8
1
  6
Continuous
100
AcDbLine
 10
273.4168122962659
 20
134.3495284402439
 30
0.0
 11
273.4168122962659
 21
135.499528494866
 31
0.0
  0
LINE
  5
2D65
330
18
100
AcDbEntity
  8
1
  6
Continuous
100
AcDbLine
 10
272.4168122487685
 20
135.499528494866
 30
0.0
 11
272.4168122487685
 21
134.3495284402439
 31
0.0
  0
ARC
  5
2D66
330
18
100
AcDbEntity
  8
1
  6
Continuous
100
AcDbCircle
 10
272.916812272517
 20
133.5495284022459
 30
0.0
 40
3.300062042068861
100
AcDbArc
 50
288.5526439221879
 51
71.44735607781206
  0
ARC
  5
2D67
330
18
100
AcDbEntity
  8
1
  6
Continuous
100
AcDbCircle
 10
272.916812272517
 20
133.5495284022459
 30
0.0
 40
3.000000142492357
100
AcDbArc
 50
288.5530161417737
 51
71.44698385822706
  0
ARC
  5
2D68
330
18
100
AcDbEntity
  8
1
  6
Continuous
100
AcDbCircle
 10
272.916812272517
 20
133.5495284022459
 30
0.0
 40
10.50000049872325
100
AcDbArc
 50
4.81264672759592
 51
55.19775667439086
  0
LINE
  5
2D69
330
18
100
AcDbEntity
  8
1
  6
Continuous
100
AcDbLine
 10
288.9168130324767
 20
135.9495285922357
 30
0.0
 11
288.9168130324767
 21
131.1495282122561
 31
0.0
  0
ARC
  5
2D6A
330
18
100
AcDbEntity
  8
1
  6
Continuous
100
AcDbCircle
 10
272.9168122725173
 20
133.5495284022459
 30
0.0
 40
11.50000054622062
100
AcDbArc
 50
339.6455936017586
 51
20.35440639824037
  0
ARC
  5
2D6B
330
18
100
AcDbEntity
  8
1
  6
Continuous
100
AcDbCircle
 10
272.916812272517
 20
133.5495284022459
 30
0.0
 40
7.000000332482151
100
AcDbArc
 50
335.9745205271344
 51
45.00000000000028
  0
LINE
  5
2D6E
330
18
100
AcDbEntity
  8
1
  6
Continuous
100
AcDbLine
 10
275.1279470583207
 20
125.861167781237
 30
0.0
 11
280.6051728935262
 21
131.3383936164424
 31
0.0
  0
ARC
  5
2D6F
330
18
100
AcDbEntity
  8
1
  6
Continuous
100
AcDbCircle
 10
272.916812272517
 20
133.5495284022459
 30
0.0
 40
7.000000332482147
100
AcDbArc
 50
314.9999999999997
 51
335.974520527138
  0
LINE
  5
2D72
330
18
100
AcDbEntity
  8
1
  6
Continuous
100
AcDbLine
 10
275.134312377843
 20
129.7087055540325
 30
0.0
 11
277.3518124831686
 21
133.5495284022458
 31
0.0
  0
LINE
  5
2D74
330
18
100
AcDbEntity
  8
1
  6
Continuous
100
AcDbLine
 10
271.8668122226448
 20
129.7087055540326
 30
0.0
 11
271.8668122226448
 21
130.4209649336911
 31
0.0
  0
LINE
  5
2D76
330
18
100
AcDbEntity
  8
1
  6
Continuous
100
AcDbLine
 10
273.9668123223895
 20
130.4209649336911
 30
0.0
 11
273.9668123223895
 21
129.7087055540326
 31
0.0
  0
LINE
  5
2D77
330
18
100
AcDbEntity
  8
1
  6
Continuous
100
AcDbLine
 10
270.6993121671913
 20
129.7087055540326
 30
0.0
 11
275.1343123778426
 21
129.7087055540326
 31
0.0
  0
LINE
  5
2D7B
330
18
100
AcDbEntity
  8
1
  6
Continuous
100
AcDbLine
 10
272.166812236894
 20
132.5495283547485
 30
0.0
 11
272.166812236894
 21
130.0087055682819
 31
0.0
  0
LINE
  5
2D7C
330
18
100
AcDbEntity
  8
1
  6
Continuous
100
AcDbLine
 10
270.9668121798971
 20
134.0495284259947
 30
0.0
 11
271.6668122123403
 21
134.0495284259947
 31
0.0
  0
LINE
  5
2D7D
330
18
100
AcDbEntity
  8
1
  6
Continuous
100
AcDbLine
 10
274.166812332292
 20
134.0495284259947
 30
0.0
 11
274.8668123651176
 21
134.0495284259947
 31
0.0
  0
LINE
  5
2D80
330
18
100
AcDbEntity
  8
1
  6
Continuous
100
AcDbLine
 10
270.6668121656479
 20
133.3495283927464
 30
0.0
 11
270.6668121656479
 21
133.7495284116716
 31
0.0
  0
LINE
  5
2D81
330
18
100
AcDbEntity
  8
1
  6
Continuous
100
AcDbLine
 10
272.1168122345192
 20
133.0495283784972
 30
0.0
 11
270.966812179952
 21
133.0495283784972
 31
0.0
  0
LINE
  5
2D83
330
18
100
AcDbEntity
  8
1
  6
Continuous
100
AcDbLine
 10
275.1668123793864
 20
133.7495284118011
 30
0.0
 11
275.1668123793864
 21
133.3495283927659
 31
0.0
  0
LINE
  5
2D87
330
18
100
AcDbEntity
  8
1
  6
Continuous
100
AcDbLine
 10
274.8668123651928
 20
133.0495283784972
 30
0.0
 11
273.7168123105151
 21
133.0495283784972
 31
0.0
  0
LINE
  5
2D88
330
18
100
AcDbEntity
  8
1
  6
Continuous
100
AcDbLine
 10
272.1168122345192
 20
134.0495284259947
 30
0.0
 11
271.6668122129441
 21
134.0495284259947
 31
0.0
  0
LINE
  5
2D89
330
18
100
AcDbEntity
  8
1
  6
Continuous
100
AcDbLine
 10
274.1668123319897
 20
134.0495284259947
 30
0.0
 11
273.7168123105151
 21
134.0495284259947
 31
0.0
  0
LINE
  5
2D8B
330
18
100
AcDbEntity
  8
1
  6
Continuous
100
AcDbLine
 10
272.4168122487685
 20
132.749528364248
 30
0.0
 11
272.4168122487685
 21
131.5995283096259
 31
0.0
  0
LINE
  5
2D8C
330
18
100
AcDbEntity
  8
1
  6
Continuous
100
AcDbLine
 10
272.7168122630176
 20
131.2995282953767
 30
0.0
 11
273.1168122820166
 21
131.2995282953767
 31
0.0
  0
LINE
  5
2D8D
330
18
100
AcDbEntity
  8
1
  6
Continuous
100
AcDbLine
 10
273.4168122962659
 20
131.5995283096259
 30
0.0
 11
273.4168122962659
 21
132.749528364248
 31
0.0
  0
ARC
  5
2D91
330
18
100
AcDbEntity
  8
1
  6
Continuous
100
AcDbCircle
 10
273.9668123223895
 20
130.4210302114582
 30
0.0
 40
0.3000000142492338
100
AcDbArc
 50
108.5528884675
 51
177.4229341947014
  0
ARC
  5
2D92
330
18
100
AcDbEntity
  8
1
  6
Continuous
100
AcDbCircle
 10
271.8668122226448
 20
130.4210302114582
 30
0.0
 40
0.3000000142492341
100
AcDbArc
 50
359.9999852788327
 51
2.577065805295263
  0
ARC
  5
2D93
330
18
100
AcDbEntity
  8
1
  6
Continuous
100
AcDbCircle
 10
271.8668122226448
 20
130.4210302114582
 30
0.0
 40
0.3000000142492341
100
AcDbArc
 50
2.577065805295263
 51
71.44711153249629
  0
ARC
  5
2D94
330
18
100
AcDbEntity
  8
1
  6
Continuous
100
AcDbCircle
 10
-87.20129346574255
 20
131.1034879387966
 30
0.0
 40
360.8710029882074
100
AcDbArc
 50
359.8220127804245
 51
0.2295896147844523
  0
ARC
  5
2D95
330
18
100
AcDbEntity
  8
1
  6
Continuous
100
AcDbCircle
 10
273.9668123223895
 20
130.0087055682819
 30
0.0
 40
0.3000000142492361
100
AcDbArc
 50
184.9941574914175
 51
270.0
  0
ARC
  5
2D96
330
18
100
AcDbEntity
  8
1
  6
Continuous
100
AcDbCircle
 10
271.8668122226448
 20
130.0087055682819
 30
0.0
 40
0.3000000142492367
100
AcDbArc
 50
269.9999999999975
 51
0.0
  0
ARC
  5
2D9A
330
18
100
AcDbEntity
  8
1
  6
Continuous
100
AcDbCircle
 10
274.8668123651372
 20
133.7495284117454
 30
0.0
 40
0.3000000142492321
100
AcDbArc
 50
0.0000000106304824
 51
90.00000000372427
  0
ARC
  5
2D9B
330
18
100
AcDbEntity
  8
1
  6
Continuous
100
AcDbCircle
 10
270.9668121798971
 20
133.3495283927464
 30
0.0
 40
0.3000000142492329
100
AcDbArc
 50
180.0
 51
270.0000000104863
  0
ARC
  5
2D9C
330
18
100
AcDbEntity
  8
1
  6
Continuous
100
AcDbCircle
 10
274.8668123651372
 20
133.3495283927464
 30
0.0
 40
0.3000000142492357
100
AcDbArc
 50
270.0000000106255
 51
0.0000000037209945
  0
ARC
  5
2D9D
330
18
100
AcDbEntity
  8
1
  6
Continuous
100
AcDbCircle
 10
270.9668121798971
 20
133.7495284117454
 30
0.0
 40
0.300000014249237
100
AcDbArc
 50
90.0
 51
180.0000000140926
  0
ARC
  5
2D9E
330
18
100
AcDbEntity
  8
1
  6
Continuous
100
AcDbCircle
 10
274.1668123318889
 20
134.5495284497434
 30
0.0
 40
0.5000000237487257
100
AcDbArc
 50
180.0
 51
270.000000046181
  0
ARC
  5
2D9F
330
18
100
AcDbEntity
  8
1
  6
Continuous
100
AcDbCircle
 10
274.1668123318889
 20
132.5495283547485
 30
0.0
 40
0.5000000237487265
100
AcDbArc
 50
90.0
 51
180.0
  0
ARC
  5
2DA0
330
18
100
AcDbEntity
  8
1
  6
Continuous
100
AcDbCircle
 10
271.6668122131453
 20
134.5495284497434
 30
0.0
 40
0.5000000237487257
100
AcDbArc
 50
269.9999999077535
 51
0.0
  0
ARC
  5
2DA1
330
18
100
AcDbEntity
  8
1
  6
Continuous
100
AcDbCircle
 10
271.6668122131453
 20
132.5495283547485
 30
0.0
 40
0.5000000237487252
100
AcDbArc
 50
0.0
 51
90.00000000000083
  0
ARC
  5
2DA2
330
18
100
AcDbEntity
  8
1
  6
Continuous
100
AcDbCircle
 10
273.7168123105151
 20
134.3495284402439
 30
0.0
 40
0.3000000142492361
100
AcDbArc
 50
180.0
 51
270.0
  0
ARC
  5
2DA3
330
18
100
AcDbEntity
  8
1
  6
Continuous
100
AcDbCircle
 10
272.1168122345192
 20
134.3495284402439
 30
0.0
 40
0.3000000142492361
100
AcDbArc
 50
270.0
 51
0.0
  0
ARC
  5
2DA4
330
18
100
AcDbEntity
  8
1
  6
Continuous
100
AcDbCircle
 10
272.1168122345192
 20
132.749528364248
 30
0.0
 40
0.3000000142492361
100
AcDbArc
 50
0.0
 51
90.0
  0
ARC
  5
2DA5
330
18
100
AcDbEntity
  8
1
  6
Continuous
100
AcDbCircle
 10
272.7168122630176
 20
131.5995283096259
 30
0.0
 40
0.3000000142492395
100
AcDbArc
 50
180.0
 51
269.9999999999983
  0
ARC
  5
2DA6
330
18
100
AcDbEntity
  8
1
  6
Continuous
100
AcDbCircle
 10
273.1168122820166
 20
131.5995283096259
 30
0.0
 40
0.3000000142492363
100
AcDbArc
 50
270.0
 51
0.0
  0
ARC
  5
2DA7
330
18
100
AcDbEntity
  8
1
  6
Continuous
100
AcDbCircle
 10
273.7168123105151
 20
132.749528364248
 30
0.0
 40
0.3000000142492361
100
AcDbArc
 50
90.0
 51
180.0
  0
LINE
  5
2DAB
330
18
100
AcDbEntity
  8
1
  6
Continuous
100
AcDbLine
 10
277.5034779457985
 20
130.6995282668785
 30
0.0
 11
279.3103640149491
 21
130.6995282668785
 31
0.0
  0
LINE
  5
2DAE
330
18
100
AcDbEntity
  8
1
  6
Continuous
100
AcDbLine
 10
287.3168130324767
 20
129.5495282122561
 30
0.0
 11
283.6987421110533
 21
129.5495282122561
 31
0.0
  0
LINE
  5
2DAF
330
18
100
AcDbEntity
  8
1
  6
Continuous
100
AcDbLine
 10
283.7133810184969
 20
129.5892107538235
 30
0.0
 11
283.1834928216668
 21
129.6041308584972
 31
0.0
  0
LINE
  5
2DB1
330
18
100
AcDbEntity
  8
1
  6
Continuous
100
AcDbLine
 10
275.1279470583207
 20
141.2378890232549
 30
0.0
 11
280.6051728935261
 21
135.7606631880495
 31
0.0
  0
LINE
  5
2DB4
330
18
100
AcDbEntity
  8
1
  6
Continuous
100
AcDbLine
 10
273.9668123223895
 20
137.3903512504592
 30
0.0
 11
273.9668123223895
 21
136.6780918708008
 31
0.0
  0
LINE
  5
2DB5
330
18
100
AcDbEntity
  8
1
  6
Continuous
100
AcDbLine
 10
275.1343123778426
 20
137.3903512504592
 30
0.0
 11
270.6993121671913
 21
137.3903512504592
 31
0.0
  0
LINE
  5
2DB6
330
18
100
AcDbEntity
  8
1
  6
Continuous
100
AcDbLine
 10
271.8668122226448
 20
136.6780918708008
 30
0.0
 11
271.8668122226448
 21
137.3903512504592
 31
0.0
  0
LINE
  5
2DBC
330
18
100
AcDbEntity
  8
1
  6
Continuous
100
AcDbLine
 10
273.1168122820166
 20
135.7995285091152
 30
0.0
 11
272.7168122630176
 21
135.7995285091152
 31
0.0
  0
ARC
  5
2DBE
330
18
100
AcDbEntity
  8
1
  6
Continuous
100
AcDbCircle
 10
271.8668122226448
 20
136.6780265930336
 30
0.0
 40
0.3000000142492341
100
AcDbArc
 50
288.5528884675011
 51
357.4229341947031
  0
ARC
  5
2DBF
330
18
100
AcDbEntity
  8
1
  6
Continuous
100
AcDbCircle
 10
273.9668123223895
 20
136.6780265930336
 30
0.0
 40
0.3000000142492341
100
AcDbArc
 50
179.9999852787921
 51
182.5770658052952
  0
ARC
  5
2DC0
330
18
100
AcDbEntity
  8
1
  6
Continuous
100
AcDbCircle
 10
273.9668123223895
 20
136.6780265930336
 30
0.0
 40
0.3000000142492341
100
AcDbArc
 50
182.5770658052952
 51
251.4471115324962
  0
ARC
  5
2DC2
330
18
100
AcDbEntity
  8
1
  6
Continuous
100
AcDbCircle
 10
271.8668122226448
 20
137.09035123621
 30
0.0
 40
0.3000000142492367
100
AcDbArc
 50
4.833321988067726
 51
89.9999999999992
  0
ARC
  5
2DC3
330
18
100
AcDbEntity
  8
1
  6
Continuous
100
AcDbCircle
 10
273.9668123223895
 20
137.09035123621
 30
0.0
 40
0.3000000142492367
100
AcDbArc
 50
89.99999999999836
 51
180.0000083342428
  0
ARC
  5
2DC4
330
18
100
AcDbEntity
  8
1
  6
Continuous
100
AcDbCircle
 10
273.1168122820166
 20
135.499528494866
 30
0.0
 40
0.3000000142492395
100
AcDbArc
 50
0.0
 51
89.9999999999992
  0
ARC
  5
2DC5
330
18
100
AcDbEntity
  8
1
  6
Continuous
100
AcDbCircle
 10
272.7168122630176
 20
135.499528494866
 30
0.0
 40
0.3000000142492363
100
AcDbArc
 50
90.0
 51
179.9999999999991
  0
LINE
  5
2DCB
330
18
100
AcDbEntity
  8
1
  6
Continuous
100
AcDbLine
 10
287.3168130324767
 20
137.5495285922357
 30
0.0
 11
283.6987421110533
 21
137.5495285922357
 31
0.0
  0
LINE
  5
2DCC
330
18
100
AcDbEntity
  8
1
  6
Continuous
100
AcDbLine
 10
283.1770405020296
 20
137.4947445291915
 30
0.0
 11
283.7133810184967
 21
137.5098460506684
 31
0.0
  0
LINE
  5
2E83
330
18
100
AcDbEntity
  8
1
  6
Continuous
100
AcDbLine
 10
104.9040194785177
 20
201.7059886209337
 30
0.0
 11
126.8433307497826
 21
201.7059886209337
 31
0.0
  0
LINE
  5
2E84
330
18
100
AcDbEntity
  8
1
  6
Continuous
100
AcDbLine
 10
104.9040194785177
 20
204.7059887634261
 30
0.0
 11
126.843330749781
 21
204.7059887634261
 31
0.0
  0
LINE
  5
2E85
330
18
100
AcDbEntity
  8
1
  6
Continuous
100
AcDbLine
 10
105.3736746154271
 20
200.2059885496876
 30
0.0
 11
126.3736756128736
 21
200.2059885496876
 31
0.0
  0
LINE
  5
2E86
330
18
100
AcDbEntity
  8
1
  6
Continuous
100
AcDbLine
 10
124.5319586858832
 20
196.2059886934838
 30
0.0
 11
122.3879789909556
 21
196.2059886934838
 31
0.0
  0
LINE
  5
2E87
330
18
100
AcDbEntity
  8
1
  6
Continuous
100
AcDbLine
 10
124.4098443823269
 20
186.1059882137595
 30
0.0
 11
122.3342903235327
 21
186.1059882137595
 31
0.0
  0
LINE
  5
2E88
330
18
100
AcDbEntity
  8
1
  6
Continuous
100
AcDbLine
 10
124.8736755416272
 20
196.7059883834465
 30
0.0
 11
106.8737746866733
 21
196.7059883834465
 31
0.0
  0
LINE
  5
2E8A
330
18
100
AcDbEntity
  8
1
  6
Continuous
100
AcDbLine
 10
126.8736756366223
 20
199.7059885259388
 30
0.0
 11
104.8736745916784
 21
199.7059885259388
 31
0.0
  0
LINE
  5
2E8B
330
18
100
AcDbEntity
  8
1
  6
Continuous
100
AcDbLine
 10
104.9040194785177
 20
201.7059886209337
 30
0.0
 11
104.9040194785177
 21
204.7059887634261
 31
0.0
  0
LINE
  5
2E8C
330
18
100
AcDbEntity
  8
1
  6
Continuous
100
AcDbLine
 10
110.388847296336
 20
201.7059886209337
 30
0.0
 11
110.388847296336
 21
204.7059887634261
 31
0.0
  0
LINE
  5
2E8D
330
18
100
AcDbEntity
  8
1
  6
Continuous
100
AcDbLine
 10
121.3585029319667
 20
201.7059886209337
 30
0.0
 11
121.3585029319667
 21
204.7059887634261
 31
0.0
  0
LINE
  5
2E8E
330
18
100
AcDbEntity
  8
1
  6
Continuous
100
AcDbLine
 10
104.5880330348188
 20
187.9058216529712
 30
0.0
 11
99.87367435419077
 21
198.7059888122274
 31
0.0
  0
LINE
  5
2E90
330
18
100
AcDbEntity
  8
1
  6
Continuous
100
AcDbLine
 10
115.8736757386621
 20
185.7559876283925
 30
0.0
 11
109.2736379453312
 21
185.7559876283925
 31
0.0
  0
LINE
  5
2E91
330
18
100
AcDbEntity
  8
1
  6
Continuous
100
AcDbLine
 10
121.6402636539161
 20
186.1473930011446
 30
0.0
 11
110.108242382396
 21
186.1473930011447
 31
0.0
  0
ARC
  5
2E92
330
18
100
AcDbEntity
  8
1
  6
Continuous
100
AcDbCircle
 10
107.3375058459761
 20
189.1059883562519
 30
0.0
 40
3.000000142492325
100
AcDbArc
 50
246.2726248092366
 51
270.0
  0
ARC
  5
2E93
330
18
100
AcDbEntity
  8
1
  6
Continuous
100
AcDbCircle
 10
107.3375058459761
 20
189.1059883562518
 30
0.0
 40
3.000000142492317
100
AcDbArc
 50
203.5816504885804
 51
246.2726257216734
  0
LINE
  5
2E94
330
18
100
AcDbEntity
  8
1
  6
Continuous
100
AcDbLine
 10
109.0236747887928
 20
186.1059882137595
 30
0.0
 11
109.0236747887928
 21
186.0059876375501
 31
0.0
  0
ARC
  5
2E95
330
18
100
AcDbEntity
  8
1
  6
Continuous
100
AcDbCircle
 10
109.2736748006672
 20
186.0059876375501
 30
0.0
 40
0.2500000118743642
100
AcDbArc
 50
180.0000000000032
 51
269.9915533831648
  0
LINE
  5
2E96
330
18
100
AcDbEntity
  8
1
  6
Continuous
100
AcDbLine
 10
109.4130606266179
 20
186.1059882137595
 30
0.0
 11
107.3375058454539
 21
186.1059882137595
 31
0.0
  0
LINE
  5
2E99
330
18
100
AcDbEntity
  8
1
  6
Continuous
100
AcDbLine
 10
122.4737407893987
 20
185.7559876342202
 30
0.0
 11
115.8736757386648
 21
185.7559876342202
 31
0.0
  0
LINE
  5
2E9A
330
18
100
AcDbEntity
  8
1
  6
Continuous
100
AcDbLine
 10
122.7236754395079
 20
186.0059876375501
 30
0.0
 11
122.7236754395079
 21
186.1059882137595
 31
0.0
  0
ARC
  5
2E9B
330
18
100
AcDbEntity
  8
1
  6
Continuous
100
AcDbCircle
 10
122.4736754276335
 20
186.0059876375501
 30
0.0
 40
0.2500000118743642
100
AcDbArc
 50
270.0149798113784
 51
359.9999999999967
  0
LINE
  5
2EA1
330
18
100
AcDbEntity
  8
1
  6
Continuous
100
AcDbLine
 10
104.8736745916784
 20
199.7059885259388
 30
0.0
 11
104.8736745916784
 21
198.7059888122266
 31
0.0
  0
LINE
  5
2EA2
330
18
100
AcDbEntity
  8
1
  6
Continuous
100
AcDbLine
 10
106.9916219249533
 20
196.3584739659311
 30
0.0
 11
105.0771063681707
 21
197.7059887647297
 31
0.0
  0
LINE
  5
2EA3
330
18
100
AcDbEntity
  8
1
  6
Continuous
100
AcDbLine
 10
105.0885990121768
 20
198.4910640579429
 30
0.0
 11
106.8737746866733
 21
196.7058883834465
 31
0.0
  0
LINE
  5
2EA5
330
18
100
AcDbEntity
  8
1
  6
Continuous
100
AcDbLine
 10
99.87367435419077
 20
198.7059888122274
 30
0.0
 11
131.8736758741096
 21
198.7059888122276
 31
0.0
  0
LINE
  5
2EA6
330
18
100
AcDbEntity
  8
1
  6
Continuous
100
AcDbLine
 10
105.0917452756123
 20
198.7059888122274
 30
0.0
 11
105.0771063681705
 21
197.7059887647299
 31
0.0
  0
LINE
  5
2EA7
330
18
100
AcDbEntity
  8
1
  6
Continuous
100
AcDbLine
 10
104.8735745916783
 20
198.7060884784414
 30
0.0
 11
104.873674257893
 21
198.7059888122266
 31
0.0
  0
LINE
  5
2EA8
330
18
100
AcDbEntity
  8
1
  6
Continuous
100
AcDbLine
 10
107.6236747222964
 20
196.7059883834465
 30
0.0
 11
107.6236747222964
 21
196.2059886935588
 31
0.0
  0
LINE
  5
2EA9
330
18
100
AcDbEntity
  8
1
  6
Continuous
100
AcDbLine
 10
106.9916194521583
 20
196.3584710174727
 30
0.0
 11
107.2153914517806
 21
196.2059886673429
 31
0.0
  0
LINE
  5
2EAA
330
18
100
AcDbEntity
  8
1
  6
Continuous
100
AcDbLine
 10
109.3593704512209
 20
196.2059886934838
 30
0.0
 11
107.2153914718027
 21
196.2059886934838
 31
0.0
  0
LINE
  5
2EAB
330
18
100
AcDbEntity
  8
1
  6
Continuous
100
AcDbLine
 10
107.2153915223959
 20
196.2059886673436
 30
0.0
 11
106.9916196258694
 21
196.3584709672445
 31
0.0
  0
LINE
  5
2EAE
330
18
100
AcDbEntity
  8
1
  6
Continuous
100
AcDbLine
 10
105.3736746154271
 20
200.2059885496876
 30
0.0
 11
105.3736746154271
 21
199.7059885259388
 31
0.0
  0
LINE
  5
2EAF
330
18
100
AcDbEntity
  8
2
  6
Continuous
100
AcDbLine
 10
108.1853144931412
 20
200.2059885496876
 30
0.0
 11
108.1853144931412
 21
201.7059886209337
 31
0.0
  0
LINE
  5
2EB0
330
18
100
AcDbEntity
  8
1
  6
Continuous
100
AcDbLine
 10
107.8736747341707
 20
201.7059886209337
 30
0.0
 11
107.8736747341707
 21
200.2059885496876
 31
0.0
  0
LINE
  5
2EB1
330
18
100
AcDbEntity
  8
1
  6
Continuous
100
AcDbLine
 10
113.6625403283471
 20
200.2059885496876
 30
0.0
 11
113.6625403283471
 21
201.7059886209337
 31
0.0
  0
LINE
  5
2EB2
330
18
100
AcDbEntity
  8
1
  6
Continuous
100
AcDbLine
 10
118.0848098999536
 20
200.2059885496876
 30
0.0
 11
118.0848098999536
 21
201.7059886209337
 31
0.0
  0
LINE
  5
2EB3
330
18
100
AcDbEntity
  8
2
  6
Continuous
100
AcDbLine
 10
123.5620357351595
 20
200.2059885496876
 30
0.0
 11
123.5620357351595
 21
201.7059886209337
 31
0.0
  0
LINE
  5
2EB4
330
18
100
AcDbEntity
  8
1
  6
Continuous
100
AcDbLine
 10
123.8736754941299
 20
200.2059885496876
 30
0.0
 11
123.8736754941299
 21
201.7059886209337
 31
0.0
  0
LINE
  5
2EB5
330
18
100
AcDbEntity
  8
1
  6
Continuous
100
AcDbLine
 10
118.8736752566427
 20
213.2059895009405
 30
0.0
 11
118.8736752566427
 21
215.1059895911856
 31
0.0
  0
LINE
  5
2EB6
330
18
100
AcDbEntity
  8
1
  6
Continuous
100
AcDbLine
 10
112.873674971658
 20
215.1059895911856
 30
0.0
 11
112.873674971658
 21
213.2059895009405
 31
0.0
  0
LINE
  5
2EBB
330
18
100
AcDbEntity
  8
2
  6
Continuous
100
AcDbLine
 10
108.1853144931412
 20
204.7059887634261
 30
0.0
 11
108.1853144931412
 21
210.5176287836324
 31
0.0
  0
LINE
  5
2EBC
330
18
100
AcDbEntity
  8
1
  6
Continuous
100
AcDbLine
 10
107.8736747341707
 20
210.205989024662
 30
0.0
 11
107.8736747341707
 21
209.3559023726706
 31
0.0
  0
LINE
  5
2EBE
330
18
100
AcDbEntity
  8
1
  6
Continuous
100
AcDbLine
 10
107.8736747341707
 20
205.3560754059181
 30
0.0
 11
107.8736747341707
 21
204.7059887634261
 31
0.0
  0
LINE
  5
2EC1
330
18
100
AcDbEntity
  8
1
  6
Continuous
100
AcDbLine
 10
110.9486748802255
 20
213.2059895009404
 30
0.0
 11
110.9486748802254
 21
211.2059890721596
 31
0.0
  0
LINE
  5
2EC2
330
18
100
AcDbEntity
  8
1
  6
Continuous
100
AcDbLine
 10
109.4801233717182
 20
212.7059891671544
 30
0.0
 11
109.4801233717182
 21
211.2059890721595
 31
0.0
  0
LINE
  5
2EC3
330
18
100
AcDbEntity
  8
1
  6
Continuous
100
AcDbLine
 10
122.8736754466325
 20
211.2059890721595
 30
0.0
 11
108.8736747826856
 21
211.2059890721595
 31
0.0
  0
LINE
  5
2EC4
330
18
100
AcDbEntity
  8
1
  6
Continuous
100
AcDbLine
 10
108.1853144931412
 20
210.205989024662
 30
0.0
 11
107.8736747341707
 21
210.205989024662
 31
0.0
  0
LINE
  5
2EC5
330
18
100
AcDbEntity
  8
1
  6
Continuous
100
AcDbLine
 10
108.8737747816682
 20
211.2060890721595
 30
0.0
 11
107.8736747341707
 21
210.205989024662
 31
0.0
  0
LINE
  5
2EC8
330
18
100
AcDbEntity
  8
1
  6
Continuous
100
AcDbLine
 10
122.3737278404773
 20
213.205989167154
 30
0.0
 11
109.9801233717182
 21
213.2059891671544
 31
0.0
  0
LINE
  5
2ECB
330
18
100
AcDbEntity
  8
1
  6
Continuous
100
AcDbLine
 10
113.6625403283471
 20
204.7059887634261
 30
0.0
 11
113.6625403283471
 21
210.205989024662
 31
0.0
  0
LINE
  5
2ECC
330
18
100
AcDbEntity
  8
1
  6
Continuous
100
AcDbLine
 10
118.0848098999536
 20
204.7059887634261
 30
0.0
 11
118.0848098999536
 21
210.205989024662
 31
0.0
  0
LINE
  5
2ECD
330
18
100
AcDbEntity
  8
2
  6
Continuous
100
AcDbLine
 10
123.5620357351595
 20
204.7059887634261
 30
0.0
 11
123.5620357351595
 21
210.5176287836325
 31
0.0
  0
LINE
  5
2ECE
330
18
100
AcDbEntity
  8
1
  6
Continuous
100
AcDbLine
 10
123.8736754941299
 20
204.7059887634261
 30
0.0
 11
123.8736754941299
 21
210.2059890246621
 31
0.0
  0
ARC
  5
2ED6
330
18
100
AcDbEntity
  8
1
  6
Continuous
100
AcDbCircle
 10
115.8736751141503
 20
207.3559887462432
 30
0.0
 40
1.75000008312054
100
AcDbArc
 50
180.0000195448421
 51
270.0
  0
LINE
  5
2EDC
330
18
100
AcDbEntity
  8
1
  6
Continuous
100
AcDbLine
 10
118.084809899954
 20
210.205989024662
 30
0.0
 11
113.6625403283467
 21
210.205989024662
 31
0.0
  0
LINE
  5
2EDF
330
18
100
AcDbEntity
  8
1
  6
Continuous
100
AcDbLine
 10
122.8736754466325
 20
211.2059890721594
 30
0.0
 11
122.8736754466325
 21
212.7059891434057
 31
0.0
  0
LINE
  5
2EE1
330
18
100
AcDbEntity
  8
1
  6
Continuous
100
AcDbLine
 10
118.7236752495178
 20
213.2059891671541
 30
0.0
 11
118.7236752495178
 21
211.2059890721595
 31
0.0
  0
LINE
  5
2EE5
330
18
100
AcDbEntity
  8
1
  6
Continuous
100
AcDbLine
 10
123.8736754941299
 20
210.2059890246621
 30
0.0
 11
122.8736754466326
 21
211.2059890721594
 31
0.0
  0
LINE
  5
2EE6
330
18
100
AcDbEntity
  8
1
  6
Continuous
100
AcDbLine
 10
123.8736754941299
 20
210.205989024662
 30
0.0
 11
123.5620357351595
 21
210.205989024662
 31
0.0
  0
ARC
  5
2EE8
330
18
100
AcDbEntity
  8
1
  6
Continuous
100
AcDbCircle
 10
122.3736754228838
 20
212.7059891434057
 30
0.0
 40
0.5000000237487247
100
AcDbArc
 50
359.9999999999967
 51
89.99399338650857
  0
LINE
  5
2EEA
330
18
100
AcDbEntity
  8
1
  6
Continuous
100
AcDbLine
 10
110.4736748576641
 20
215.7559889068032
 30
0.0
 11
121.2736753706366
 21
215.7559889068032
 31
0.0
  0
LINE
  5
2EEE
330
18
100
AcDbEntity
  8
1
  6
Continuous
100
AcDbLine
 10
110.4736748576641
 20
215.7559889068032
 30
0.0
 11
110.4736748576641
 21
215.6559889020534
 31
0.0
  0
LINE
  5
2EF3
330
18
100
AcDbEntity
  8
1
  6
Continuous
100
AcDbLine
 10
111.4386749034991
 20
219.2559890730442
 30
0.0
 11
111.4386750478367
 21
215.7559889068032
 31
0.0
  0
LINE
  5
2EF4
330
18
100
AcDbEntity
  8
1
  6
Continuous
100
AcDbLine
 10
111.4569453523226
 20
215.3559888878204
 30
0.0
 11
111.4569453523226
 21
215.2059888806796
 31
0.0
  0
LINE
  5
2EF5
330
18
100
AcDbEntity
  8
1
  6
Continuous
100
AcDbLine
 10
111.9668482750983
 20
215.3559888878199
 30
0.0
 11
111.9668482750983
 21
215.2059888806796
 31
0.0
  0
LINE
  5
2EF8
330
18
100
AcDbEntity
  8
1
  6
Continuous
100
AcDbLine
 10
111.081242528388
 20
215.3559888878204
 30
0.0
 11
111.081242528388
 21
215.2059888806796
 31
0.0
  0
LINE
  5
2EF9
330
18
100
AcDbEntity
  8
1
  6
Continuous
100
AcDbLine
 10
110.8511553434829
 20
215.3559888878205
 30
0.0
 11
110.8511553434829
 21
215.2059888806796
 31
0.0
  0
LINE
  5
2EFB
330
18
100
AcDbEntity
  8
1
  6
Continuous
100
AcDbLine
 10
110.7736748787214
 20
215.3559888878205
 30
0.0
 11
110.7736748787214
 21
215.2059888806796
 31
0.0
  0
ARC
  5
2EFD
330
18
100
AcDbEntity
  8
1
  6
Continuous
100
AcDbCircle
 10
110.7736748719133
 20
215.6559889020534
 30
0.0
 40
0.30000001424924
100
AcDbArc
 50
180.0000000000024
 51
270.0
  0
LINE
  5
2F03
330
18
100
AcDbEntity
  8
1
  6
Continuous
100
AcDbLine
 10
118.8736752566427
 20
215.1059895911856
 30
0.0
 11
112.873674971658
 21
215.1059895911856
 31
0.0
  0
LINE
  5
2F05
330
18
100
AcDbEntity
  8
1
  6
Continuous
100
AcDbLine
 10
120.9736775590087
 20
215.3559888878042
 30
0.0
 11
110.7736748719133
 21
215.3559888878042
 31
0.0
  0
LINE
  5
2F0A
330
18
100
AcDbEntity
  8
1
  6
Continuous
100
AcDbLine
 10
116.7592808608607
 20
215.3559888878202
 30
0.0
 11
116.7592808608607
 21
215.2059888806796
 31
0.0
  0
LINE
  5
2F0B
330
18
100
AcDbEntity
  8
1
  6
Continuous
100
AcDbLine
 10
116.7592808608607
 20
215.2059888806796
 30
0.0
 11
115.8736751141503
 21
215.2059888806796
 31
0.0
  0
LINE
  5
2F0C
330
18
100
AcDbEntity
  8
1
  6
Continuous
100
AcDbLine
 10
115.8736751141503
 20
215.3559888878201
 30
0.0
 11
115.8736751141503
 21
215.2059888806796
 31
0.0
  0
LINE
  5
2F0D
330
18
100
AcDbEntity
  8
1
  6
Continuous
100
AcDbLine
 10
114.98806936744
 20
215.3559888878201
 30
0.0
 11
114.98806936744
 21
215.2059888806796
 31
0.0
  0
LINE
  5
2F0F
330
18
100
AcDbEntity
  8
1
  6
Continuous
100
AcDbLine
 10
114.1293723032052
 20
215.35598888782
 30
0.0
 11
114.1293723032052
 21
215.2059888806796
 31
0.0
  0
LINE
  5
2F10
330
18
100
AcDbEntity
  8
1
  6
Continuous
100
AcDbLine
 10
115.3527305564061
 20
215.3559888878042
 30
0.0
 11
115.3527305564061
 21
215.2059888806796
 31
0.0
  0
LINE
  5
2F11
330
18
100
AcDbEntity
  8
1
  6
Continuous
100
AcDbLine
 10
110.7736748787214
 20
215.2059888806796
 30
0.0
 11
115.3527305564059
 21
215.2059888806796
 31
0.0
  0
LINE
  5
2F12
330
18
100
AcDbEntity
  8
1
  6
Continuous
100
AcDbLine
 10
117.6179779250955
 20
215.3559888878202
 30
0.0
 11
117.6179779250955
 21
215.2059888806796
 31
0.0
  0
LINE
  5
2F13
330
18
100
AcDbEntity
  8
1
  6
Continuous
100
AcDbLine
 10
116.8997355928626
 20
215.2059888806796
 30
0.0
 11
120.9736753480083
 21
215.2059888806796
 31
0.0
  0
LINE
  5
2F14
330
18
100
AcDbEntity
  8
1
  6
Continuous
100
AcDbLine
 10
116.8997355928626
 20
215.3559888878042
 30
0.0
 11
116.8997355928626
 21
215.2059888806796
 31
0.0
  0
LINE
  5
2F16
330
18
100
AcDbEntity
  8
1
  6
Continuous
100
AcDbLine
 10
113.3236749972218
 20
215.35598888782
 30
0.0
 11
113.3236749972218
 21
215.2059888806796
 31
0.0
  0
LINE
  5
2F18
330
18
100
AcDbEntity
  8
1
  6
Continuous
100
AcDbLine
 10
112.5954581544281
 20
215.3559888878199
 30
0.0
 11
112.5954581544281
 21
215.2059888806796
 31
0.0
  0
LINE
  5
2F19
330
18
100
AcDbEntity
  8
1
  6
Continuous
100
AcDbLine
 10
116.9236751640227
 20
219.755989096793
 30
0.0
 11
116.9236751640227
 21
219.2559890729784
 31
0.0
  0
LINE
  5
2F1A
330
18
100
AcDbEntity
  8
1
  6
Continuous
100
AcDbLine
 10
116.9236751640227
 20
219.755989096793
 30
0.0
 11
119.8086765738251
 21
219.755989096793
 31
0.0
  0
LINE
  5
2F1B
330
18
100
AcDbEntity
  8
1
  6
Continuous
100
AcDbLine
 10
116.6236751497734
 20
217.2559889780493
 30
0.0
 11
115.1236750785272
 21
217.2559889780493
 31
0.0
  0
LINE
  5
2F1C
330
18
100
AcDbEntity
  8
1
  6
Continuous
100
AcDbLine
 10
115.1236750785272
 20
217.2559889780493
 30
0.0
 11
115.1236750785272
 21
219.4559890825437
 31
0.0
  0
LINE
  5
2F1D
330
18
100
AcDbEntity
  8
1
  6
Continuous
100
AcDbLine
 10
114.823675064278
 20
219.2559890730442
 30
0.0
 11
114.823675064278
 21
219.755989096793
 31
0.0
  0
LINE
  5
2F1E
330
18
100
AcDbEntity
  8
1
  6
Continuous
100
AcDbLine
 10
111.9386761525226
 20
219.755989096793
 30
0.0
 11
114.823675064278
 21
219.755989096793
 31
0.0
  0
LINE
  5
2F1F
330
18
100
AcDbEntity
  8
1
  6
Continuous
100
AcDbLine
 10
116.6236751497734
 20
219.4559890825437
 30
0.0
 11
116.6236751497734
 21
217.2559889780493
 31
0.0
  0
LINE
  5
2F20
330
18
100
AcDbEntity
  8
1
  6
Continuous
100
AcDbLine
 10
116.9236751640227
 20
219.2559890729126
 30
0.0
 11
116.6247866703481
 21
219.2559890729126
 31
0.0
  0
LINE
  5
2F21
330
18
100
AcDbEntity
  8
1
  6
Continuous
100
AcDbLine
 10
118.0911752194758
 20
219.2559890730442
 30
0.0
 11
118.0911752194759
 21
215.7559889068032
 31
0.0
  0
LINE
  5
2F22
330
18
100
AcDbEntity
  8
1
  6
Continuous
100
AcDbLine
 10
113.6561750088247
 20
219.2559890730442
 30
0.0
 11
113.6561750088247
 21
215.7559889068032
 31
0.0
  0
LINE
  5
2F26
330
18
100
AcDbEntity
  8
1
  6
Continuous
100
AcDbLine
 10
113.4736750001565
 20
215.2059888806796
 30
0.0
 11
113.4736750001565
 21
215.1059895911856
 31
0.0
  0
ARC
  5
2F28
330
18
100
AcDbEntity
  8
1
  6
Continuous
100
AcDbCircle
 10
116.9236751640227
 20
219.4559890825437
 30
0.0
 40
0.3000000142492318
100
AcDbArc
 50
89.9999999999992
 51
180.0000083345009
  0
ARC
  5
2F29
330
18
100
AcDbEntity
  8
1
  6
Continuous
100
AcDbCircle
 10
114.823675064278
 20
219.4559890825437
 30
0.0
 40
0.3000000142492312
100
AcDbArc
 50
0.0000000000016284
 51
90.00000000000161
  0
LINE
  5
2F2F
330
18
100
AcDbEntity
  8
1
  6
Continuous
100
AcDbLine
 10
121.2736753706366
 20
215.6559889020534
 30
0.0
 11
121.2736753706366
 21
215.7559889068032
 31
0.0
  0
LINE
  5
2F36
330
18
100
AcDbEntity
  8
1
  6
Continuous
100
AcDbLine
 10
118.4236752310789
 20
215.3559888878203
 30
0.0
 11
118.4236752310789
 21
215.2059888806796
 31
0.0
  0
LINE
  5
2F37
330
18
100
AcDbEntity
  8
1
  6
Continuous
100
AcDbLine
 10
119.7805019532027
 20
215.3559888878201
 30
0.0
 11
119.7805019532027
 21
215.2059888806796
 31
0.0
  0
LINE
  5
2F39
330
18
100
AcDbEntity
  8
1
  6
Continuous
100
AcDbLine
 10
119.1518920738726
 20
215.3559888878203
 30
0.0
 11
119.1518920738726
 21
215.2059888806796
 31
0.0
  0
LINE
  5
2F3B
330
18
100
AcDbEntity
  8
1
  6
Continuous
100
AcDbLine
 10
120.3086753248016
 20
219.2559890730442
 30
0.0
 11
120.308675180464
 21
215.7559889068032
 31
0.0
  0
LINE
  5
2F3C
330
18
100
AcDbEntity
  8
1
  6
Continuous
100
AcDbLine
 10
120.2904048759781
 20
215.3559888878201
 30
0.0
 11
120.2904048759781
 21
215.2059888806796
 31
0.0
  0
LINE
  5
2F3E
330
18
100
AcDbEntity
  8
1
  6
Continuous
100
AcDbLine
 10
120.6661076999126
 20
215.3559888878204
 30
0.0
 11
120.6661076999126
 21
215.2059888806796
 31
0.0
  0
LINE
  5
2F40
330
18
100
AcDbEntity
  8
1
  6
Continuous
100
AcDbLine
 10
118.2736752281442
 20
215.1059895911856
 30
0.0
 11
118.2736752281442
 21
215.2059888806796
 31
0.0
  0
LINE
  5
2F41
330
18
100
AcDbEntity
  8
1
  6
Continuous
100
AcDbLine
 10
120.8961948848178
 20
215.3559888878204
 30
0.0
 11
120.8961948848178
 21
215.2059888806796
 31
0.0
  0
LINE
  5
2F43
330
18
100
AcDbEntity
  8
1
  6
Continuous
100
AcDbLine
 10
120.9736753480083
 20
215.3559888878203
 30
0.0
 11
120.9736753480083
 21
215.2059888806796
 31
0.0
  0
ARC
  5
2F45
330
18
100
AcDbEntity
  8
1
  6
Continuous
100
AcDbCircle
 10
120.9736753563873
 20
215.6559889020534
 30
0.0
 40
0.30000001424924
100
AcDbArc
 50
270.0004206696624
 51
359.9999999999975
  0
LINE
  5
2F47
330
18
100
AcDbEntity
  8
1
  6
Continuous
100
AcDbLine
 10
126.843330749783
 20
201.7059886209337
 30
0.0
 11
126.843330749783
 21
204.7059887634261
 31
0.0
  0
LINE
  5
2F48
330
18
100
AcDbEntity
  8
1
  6
Continuous
100
AcDbLine
 10
131.8736758741096
 20
198.7059888122274
 30
0.0
 11
127.1593171934804
 21
187.9058216529687
 31
0.0
  0
ARC
  5
2F49
330
18
100
AcDbEntity
  8
1
  6
Continuous
100
AcDbCircle
 10
124.4098443823246
 20
189.1059883562519
 30
0.0
 40
3.000000142492348
100
AcDbArc
 50
293.7273146607418
 51
336.4183493131605
  0
ARC
  5
2F4A
330
18
100
AcDbEntity
  8
1
  6
Continuous
100
AcDbCircle
 10
124.4098443823246
 20
189.1059883562519
 30
0.0
 40
3.000000142492383
100
AcDbArc
 50
269.9999992027968
 51
293.7273155730988
  0
LINE
  5
2F4B
330
18
100
AcDbEntity
  8
1
  6
Continuous
100
AcDbLine
 10
126.8736756366223
 20
198.7059888122266
 30
0.0
 11
126.8736756366223
 21
199.7059885259388
 31
0.0
  0
LINE
  5
2F4D
330
18
100
AcDbEntity
  8
1
  6
Continuous
100
AcDbLine
 10
124.1236755060043
 20
196.2059886935588
 30
0.0
 11
124.1236755060043
 21
196.7059883834465
 31
0.0
  0
LINE
  5
2F4E
330
18
100
AcDbEntity
  8
1
  6
Continuous
100
AcDbLine
 10
124.5319587059048
 20
196.2059886673436
 30
0.0
 11
124.7557306024313
 21
196.3584709672445
 31
0.0
  0
LINE
  5
2F4F
330
18
100
AcDbEntity
  8
1
  6
Continuous
100
AcDbLine
 10
126.67024386013
 20
197.7059887647297
 30
0.0
 11
124.7557281669773
 21
196.3584738711747
 31
0.0
  0
LINE
  5
2F50
330
18
100
AcDbEntity
  8
1
  6
Continuous
100
AcDbLine
 10
126.6702438601302
 20
197.7059887647299
 30
0.0
 11
126.6556049526884
 21
198.7059888122274
 31
0.0
  0
LINE
  5
2F51
330
18
100
AcDbEntity
  8
1
  6
Continuous
100
AcDbLine
 10
124.7557307761417
 20
196.3584710174722
 30
0.0
 11
124.5319587765201
 21
196.2059886673429
 31
0.0
  0
LINE
  5
2F52
330
18
100
AcDbEntity
  8
1
  6
Continuous
100
AcDbLine
 10
124.7557283033467
 20
196.3584739659306
 30
0.0
 11
126.67024386013
 21
197.7059887647297
 31
0.0
  0
LINE
  5
2F53
330
18
100
AcDbEntity
  8
1
  6
Continuous
100
AcDbLine
 10
124.8735755416274
 20
196.7058883834465
 30
0.0
 11
126.6587512161239
 21
198.4910640579429
 31
0.0
  0
LINE
  5
2F54
330
18
100
AcDbEntity
  8
1
  6
Continuous
100
AcDbLine
 10
126.8736759704077
 20
198.7059888122266
 30
0.0
 11
126.8737756366223
 21
198.7060884784414
 31
0.0
  0
LINE
  5
2F56
330
18
100
AcDbEntity
  8
1
  6
Continuous
100
AcDbLine
 10
126.3736756128736
 20
199.7059885259388
 30
0.0
 11
126.3736756128736
 21
200.2059885496876
 31
0.0
  0
LINE
  5
2F5D
330
18
100
AcDbEntity
  8
4
  6
CENTER
 48
0.2
100
AcDbLine
 10
15.76479062020234
 20
133.549528402246
 30
0.0
 11
61.19598408640678
 21
133.549528402246
 31
0.0
  0
LINE
  5
2F5E
330
18
100
AcDbEntity
  8
4
  6
CENTER
 48
0.2
100
AcDbLine
 10
95.4736751517642
 20
133.549528402246
 30
0.0
 11
137.473676671683
 21
133.549528402246
 31
0.0
  0
LINE
  5
2F5F
330
18
100
AcDbEntity
  8
4
  6
CENTER
 48
0.2
100
AcDbLine
 10
115.873675883225
 20
118.09983673626
 30
0.0
 11
115.873675883225
 21
148.2690910925571
 31
0.0
  0
LINE
  5
2F60
330
18
100
AcDbEntity
  8
4
  6
CENTER
 48
0.2
100
AcDbLine
 10
218.2301152668835
 20
133.5495284022459
 30
0.0
 11
174.2301138043107
 21
133.5495284022459
 31
0.0
  0
LINE
  5
2F61
330
18
100
AcDbEntity
  8
4
  6
CENTER
 48
0.2
100
AcDbLine
 10
272.916812272517
 20
118.0998367362599
 30
0.0
 11
272.916812272517
 21
148.2690910925571
 31
0.0
  0
LINE
  5
2F62
330
18
100
AcDbEntity
  8
4
  6
CENTER
 48
0.2
100
AcDbLine
 10
251.9168115125578
 20
133.5495284022459
 30
0.0
 11
293.9168130324767
 21
133.5495284022459
 31
0.0
  0
LINE
  5
2F63
330
18
100
AcDbEntity
  8
4
  6
CENTER
 48
0.2
100
AcDbLine
 10
115.8736746110715
 20
224.7559889852583
 30
0.0
 11
115.873675883225
 21
180.7559876283925
 31
0.0
  0
LINE
  5
2F65
330
18
100
AcDbEntity
  8
4
  6
CENTER
 48
0.2
100
AcDbLine
 10
115.873675883225
 20
79.04349698893509
 30
0.0
 11
115.873675883225
 21
35.04349552636227
 31
0.0
  0
LINE
  5
2F67
330
18
100
AcDbEntity
  8
4
  6
CENTER
 48
0.2
100
AcDbLine
 10
16.13534466750957
 20
205.4074043202521
 30
0.0
 11
69.00097562360037
 21
205.4074043202521
 31
0.0
  0
ARC
  5
2F68
330
18
100
AcDbEntity
  8
1
  6
Continuous
100
AcDbCircle
 10
32.73534464627259
 20
205.4074043202506
 30
0.0
 40
11.25000053434318
100
AcDbArc
 50
201.0394697816134
 51
248.9605302186959
  0
LINE
  5
2F69
330
18
100
AcDbEntity
  8
1
  6
Continuous
100
AcDbLine
 10
36.7742184434573
 20
194.9074038215289
 30
0.0
 11
28.69647084908888
 21
194.9074038215289
 31
0.0
  0
ARC
  5
2F6E
330
18
100
AcDbEntity
  8
1
  6
Continuous
100
AcDbCircle
 10
32.73534464628146
 20
205.4074043202547
 30
0.0
 40
11.25000053433964
100
AcDbArc
 50
21.03946978131783
 51
68.96053021873143
  0
LINE
  5
2F6F
330
18
100
AcDbEntity
  8
1
  6
Continuous
100
AcDbLine
 10
36.7742184434573
 20
215.9074048189754
 30
0.0
 11
28.69647084908899
 21
215.9074048189754
 31
0.0
  0
CIRCLE
  5
2FA2
330
18
100
AcDbEntity
  8
1
  6
Continuous
100
AcDbCircle
 10
115.8737119482959
 20
133.5495210525409
 30
0.0
 40
6.850031529329731
  0
CIRCLE
  5
2FA3
330
18
100
AcDbEntity
  8
1
  6
Continuous
100
AcDbCircle
 10
115.873675883225
 20
133.549528402246
 30
0.0
 40
7.100000337231924
  0
ARC
  5
2FA9
330
18
100
AcDbEntity
  8
1
  6
Continuous
100
AcDbCircle
 10
101.4736751232653
 20
135.9495285922358
 30
0.0
 40
1.6
100
AcDbArc
 50
90.0
 51
180.0
  0
ARC
  5
2FAA
330
18
100
AcDbEntity
  8
1
  6
Continuous
100
AcDbCircle
 10
101.4736751232653
 20
131.1495282122562
 30
0.0
 40
1.6
100
AcDbArc
 50
180.0
 51
270.0
  0
ARC
  5
2FAB
330
18
100
AcDbEntity
  8
1
  6
Continuous
100
AcDbCircle
 10
130.2736766431842
 20
135.9495285922358
 30
0.0
 40
1.6
100
AcDbArc
 50
0.0
 51
90.0
  0
ARC
  5
2FAC
330
18
100
AcDbEntity
  8
1
  6
Continuous
100
AcDbCircle
 10
130.2736766431842
 20
131.1495282122562
 30
0.0
 40
1.6
100
AcDbArc
 50
270.0
 51
0.0
  0
ARC
  5
2FAE
330
18
100
AcDbEntity
  8
1
  6
Continuous
100
AcDbCircle
 10
200.8301153182458
 20
149.2948119275663
 30
0.0
 40
7.999316464991819
100
AcDbArc
 50
255.5218656235197
 51
284.4781343764799
  0
ARC
  5
2FAF
330
18
100
AcDbEntity
  8
1
  6
Continuous
100
AcDbCircle
 10
200.4301150403857
 20
138.4992761056522
 30
0.0
 40
4.250000201864192
100
AcDbArc
 50
319.8808331015994
 51
40.11916689840022
  0
ARC
  5
2FB0
330
18
100
AcDbEntity
  8
1
  6
Continuous
100
AcDbCircle
 10
206.1801153344972
 20
139.443080144678
 30
0.0
 40
0.5
100
AcDbArc
 50
0.0000000000006107
 51
89.99999999999891
  0
ARC
  5
2FB1
330
18
100
AcDbEntity
  8
1
  6
Continuous
100
AcDbCircle
 10
212.7301152668835
 20
136.8903512504592
 30
0.0
 40
0.5
100
AcDbArc
 50
0.0
 51
89.99999999999955
  0
ARC
  5
2FB4
330
18
100
AcDbEntity
  8
1
  6
Continuous
100
AcDbCircle
 10
200.4301153315462
 20
128.599780331194
 30
0.0
 40
4.250000201864192
100
AcDbArc
 50
319.8808364719269
 51
40.11917026872767
  0
ARC
  5
2FB6
330
18
100
AcDbEntity
  8
1
  6
Continuous
100
AcDbCircle
 10
212.7301154634018
 20
130.2087059099137
 30
0.0
 40
0.5
100
AcDbArc
 50
270.0000033703276
 51
0.0000033703271595
  0
LINE
  5
2FB8
330
18
100
AcDbEntity
  8
1
  6
Continuous
100
AcDbLine
 10
20.76479062020234
 20
133.549528402246
 30
0.0
 11
24.76479081019215
 21
133.549528402246
 31
0.0
  0
ARC
  5
2FB9
330
18
100
AcDbEntity
  8
1
  6
Continuous
100
AcDbCircle
 10
21.26479062020234
 20
130.2087055540328
 30
0.0
 40
0.5
100
AcDbArc
 50
180.0
 51
269.9999999999995
  0
ARC
  5
2FBA
330
18
100
AcDbEntity
  8
1
  6
Continuous
100
AcDbCircle
 10
27.81479054984089
 20
139.443080144678
 30
0.0
 40
0.5
100
AcDbArc
 50
90.0
 51
180.0
  0
ARC
  5
2FBC
330
18
100
AcDbEntity
  8
1
  6
Continuous
100
AcDbCircle
 10
33.16479056883997
 20
149.2948119275681
 30
0.0
 40
7.999316464993602
100
AcDbArc
 50
255.5218656235232
 51
284.4781343764767
  0
ARC
  5
2FBD
330
18
100
AcDbEntity
  8
1
  6
Continuous
100
AcDbCircle
 10
33.56448462809118
 20
138.4992761056522
 30
0.0
 40
4.249766039273636
100
AcDbArc
 50
139.878172799897
 51
220.1218272001032
  0
ARC
  5
2FBE
330
18
100
AcDbEntity
  8
1
  6
Continuous
100
AcDbCircle
 10
33.56448500883959
 20
128.5997810257381
 30
0.0
 40
4.249766039273636
100
AcDbArc
 50
139.8781772072486
 51
220.1218316074548
  0
ARC
  5
2FC1
330
18
100
AcDbEntity
  8
1
  6
Continuous
100
AcDbCircle
 10
52.9561389779081
 20
135.6574366560987
 30
0.0
 40
1.458311648164924
100
AcDbArc
 50
13.62909447651007
 51
94.26311641464449
  0
ARC
  5
2FC2
330
18
100
AcDbEntity
  8
1
  6
Continuous
100
AcDbCircle
 10
52.9561389779081
 20
131.4416201483933
 30
0.0
 40
1.458311648164924
100
AcDbArc
 50
265.7368835852651
 51
346.3709055234899
  0
ARC
  5
2FC4
330
18
100
AcDbEntity
  8
1
  6
Continuous
100
AcDbCircle
 10
181.0387669150054
 20
131.4416201483933
 30
0.0
 40
1.458311648164924
100
AcDbArc
 50
193.62909447651
 51
274.2631163347664
  0
ARC
  5
2FC5
330
18
100
AcDbEntity
  8
1
  6
Continuous
100
AcDbCircle
 10
181.0387669150054
 20
135.6574366560986
 30
0.0
 40
1.458311648164924
100
AcDbArc
 50
85.73688366526484
 51
166.3709055234899
  0
LINE
  5
2FC6
330
18
100
AcDbEntity
  8
1
  6
Continuous
100
AcDbLine
 10
208.6801150507701
 20
134.4351341489564
 30
0.0
 11
208.6801150507701
 21
133.549528402246
 31
0.0
  0
ARC
  5
2FC7
330
18
100
AcDbEntity
  8
1
  6
Continuous
100
AcDbCircle
 10
258.5168115125579
 20
135.9495285922357
 30
0.0
 40
1.6
100
AcDbArc
 50
90.0
 51
180.0
  0
ARC
  5
2FC8
330
18
100
AcDbEntity
  8
1
  6
Continuous
100
AcDbCircle
 10
258.5168115125579
 20
131.1495282122561
 30
0.0
 40
1.6
100
AcDbArc
 50
180.0000000000006
 51
270.0
  0
ARC
  5
2FC9
330
18
100
AcDbEntity
  8
1
  6
Continuous
100
AcDbCircle
 10
287.3168130324767
 20
135.9495285922357
 30
0.0
 40
1.6
100
AcDbArc
 50
0.0
 51
90.0
  0
ARC
  5
2FCA
330
18
100
AcDbEntity
  8
1
  6
Continuous
100
AcDbCircle
 10
287.3168130324767
 20
131.1495282122561
 30
0.0
 40
1.6
100
AcDbArc
 50
270.0
 51
0.0
  0
ARC
  5
2FD2
330
18
100
AcDbEntity
  8
1
  6
Continuous
100
AcDbCircle
 10
110.9239279913026
 20
52.84349575285964
 30
0.0
 40
4.25000020186385
100
AcDbArc
 50
229.8808331015984
 51
310.1191668984053
  0
ARC
  5
2FD3
330
18
100
AcDbEntity
  8
1
  6
Continuous
100
AcDbCircle
 10
120.8234233981154
 20
52.84349575285983
 30
0.0
 40
4.250000201864009
100
AcDbArc
 50
229.8808331015962
 51
310.1191668984
  0
ARC
  5
2FD4
330
18
100
AcDbEntity
  8
1
  6
Continuous
100
AcDbCircle
 10
109.9801239522768
 20
47.09349545600509
 30
0.0
 40
0.5
100
AcDbArc
 50
180.0
 51
270.0
  0
LINE
  5
2FD5
330
18
100
AcDbEntity
  8
1
  6
Continuous
100
AcDbLine
 10
115.1236756590859
 20
42.54349564510586
 30
0.0
 11
114.8236756448367
 21
42.84349565935513
 31
0.0
  0
LINE
  5
2FD6
330
18
100
AcDbEntity
  8
1
  6
Continuous
100
AcDbLine
 10
116.623675730332
 20
42.54349564510589
 30
0.0
 11
116.9236757445813
 21
42.84349565935513
 31
0.0
  0
ARC
  5
2FD7
330
18
100
AcDbEntity
  8
1
  6
Continuous
100
AcDbCircle
 10
111.9386754840578
 20
40.54349552636227
 30
0.0
 40
0.5
100
AcDbArc
 50
179.9999976371613
 51
270.0
  0
ARC
  5
2FD8
330
18
100
AcDbEntity
  8
1
  6
Continuous
100
AcDbCircle
 10
119.8086759053603
 20
40.54349552636227
 30
0.0
 40
0.5
100
AcDbArc
 50
270.0
 51
0.0000023628386274
  0
ARC
  5
2FDA
330
18
100
AcDbEntity
  8
1
  6
Continuous
100
AcDbCircle
 10
114.1561755893835
 20
40.54349552636225
 30
0.0
 40
0.5
100
AcDbArc
 50
180.0
 51
270.0
  0
LINE
  5
2FDB
330
18
100
AcDbEntity
  8
1
  6
Continuous
100
AcDbLine
 10
116.9236761216133
 20
40.04349552636226
 30
0.0
 11
119.8086762823921
 21
40.04349552636226
 31
0.0
  0
ARC
  5
2FDC
330
18
100
AcDbEntity
  8
1
  6
Continuous
100
AcDbCircle
 10
117.5911761770665
 20
40.54349552636225
 30
0.0
 40
0.5
100
AcDbArc
 50
270.0
 51
0.000000000000007
  0
ARC
  5
2FE0
330
18
100
AcDbEntity
  8
1
  6
Continuous
100
AcDbCircle
 10
120.8234240665802
 20
206.9559888702956
 30
0.0
 40
4.25000020186385
100
AcDbArc
 50
49.88083310159844
 51
130.1191668984055
  0
ARC
  5
2FE1
330
18
100
AcDbEntity
  8
1
  6
Continuous
100
AcDbCircle
 10
110.9239286597675
 20
206.9559888702954
 30
0.0
 40
4.250000201864009
100
AcDbArc
 50
49.88083310159627
 51
130.1191668983999
  0
ARC
  5
2FE2
330
18
100
AcDbEntity
  8
1
  6
Continuous
100
AcDbCircle
 10
119.8086765738251
 20
219.255989096793
 30
0.0
 40
0.5
100
AcDbArc
 50
359.9999976371614
 51
90.0
  0
ARC
  5
2FE3
330
18
100
AcDbEntity
  8
1
  6
Continuous
100
AcDbCircle
 10
117.5911764684994
 20
219.255989096793
 30
0.0
 40
0.5
100
AcDbArc
 50
0.0
 51
90.0
  0
ARC
  5
2FE4
330
18
100
AcDbEntity
  8
1
  6
Continuous
100
AcDbCircle
 10
114.1561758808164
 20
219.255989096793
 30
0.0
 40
0.5
100
AcDbArc
 50
90.0
 51
180.0
  0
ARC
  5
2FE5
330
18
100
AcDbEntity
  8
1
  6
Continuous
100
AcDbCircle
 10
111.9386761525226
 20
219.255989096793
 30
0.0
 40
0.5
100
AcDbArc
 50
90.0
 51
180.0000023628386
  0
LINE
  5
2FE6
330
18
100
AcDbEntity
  8
1
  6
Continuous
100
AcDbLine
 10
116.6236763987969
 20
217.2559889780493
 30
0.0
 11
116.9236764130462
 21
216.9559889638001
 31
0.0
  0
LINE
  5
2FE7
330
18
100
AcDbEntity
  8
1
  6
Continuous
100
AcDbLine
 10
115.1236763275508
 20
217.2559889780493
 30
0.0
 11
114.8236763133015
 21
216.9559889638001
 31
0.0
  0
ARC
  5
2FE9
330
18
100
AcDbEntity
  8
1
  6
Continuous
100
AcDbCircle
 10
109.9801233717182
 20
212.7059891671544
 30
0.0
 40
0.5
100
AcDbArc
 50
90.0
 51
180.0
  0
CIRCLE
  5
2FFE
330
18
100
AcDbEntity
  8
1
  6
Continuous
100
AcDbCircle
 10
115.8736751141501
 20
207.355988746243
 30
0.0
 40
1.3
  0
CIRCLE
  5
301E
330
18
100
AcDbEntity
  8
1
  6
Continuous
100
AcDbCircle
 10
115.8736751141501
 20
207.355988746243
 30
0.0
 40
2.0
  0
CIRCLE
  5
3035
330
18
100
AcDbEntity
  8
1
  6
Continuous
100
AcDbCircle
 10
115.8736751141501
 20
207.355988746243
 30
0.0
 40
1.75
  0
LINE
  5
3037
330
18
100
AcDbEntity
  8
1
  6
Continuous
100
AcDbLine
 10
109.4130606266179
 20
186.1059882137595
 30
0.0
 11
110.1082423783504
 21
186.1473731990214
 31
0.0
  0
LINE
  5
3038
330
18
100
AcDbEntity
  8
1
  6
Continuous
100
AcDbLine
 10
121.6402636539161
 20
186.1473930011446
 30
0.0
 11
122.3342903235327
 21
186.1059882137595
 31
0.0
  0
ARC
  5
3039
330
18
100
AcDbEntity
  8
1
  6
Continuous
100
AcDbCircle
 10
100.1277064048679
 20
207.3559879511062
 30
0.0
 40
8.000000399930558
100
AcDbArc
 50
345.5224911453567
 51
14.47750981050434
  0
LINE
  5
303A
330
18
100
AcDbEntity
  8
1
  6
Continuous
100
AcDbLine
 10
114.8236743761587
 20
219.2559890121962
 30
0.0
 11
115.1225628698333
 21
219.2559890294794
 31
0.0
  0
LINE
  5
303B
330
18
100
AcDbEntity
  8
1
  6
Continuous
100
AcDbLine
 10
116.9236761216133
 20
40.54349555031432
 30
0.0
 11
116.6247879690363
 21
40.54349555031432
 31
0.0
  0
ARC
  5
3181
330
18
100
AcDbEntity
  8
1
  6
Continuous
100
AcDbCircle
 10
272.916812272517
 20
133.5495284022459
 30
0.0
 40
8.0
100
AcDbArc
 50
73.9550243718574
 51
106.0449756281425
  0
ARC
  5
319D
330
18
100
AcDbEntity
  8
2
  6
Continuous
100
AcDbCircle
 10
272.916812272517
 20
133.5495284022459
 30
0.0
 40
7.688360621008995
100
AcDbArc
 50
69.43000187164449
 51
110.5699981283555
  0
ARC
  5
319F
330
18
100
AcDbEntity
  8
2
  6
Continuous
100
AcDbCircle
 10
272.916812272517
 20
133.5495284022459
 30
0.0
 40
7.688360621008995
100
AcDbArc
 50
159.4300018716449
 51
200.569998128356
  0
ARC
  5
31A0
330
18
100
AcDbEntity
  8
2
  6
Continuous
100
AcDbCircle
 10
272.916812272517
 20
133.5495284022459
 30
0.0
 40
7.688360621008995
100
AcDbArc
 50
249.4300018716444
 51
290.5699981283555
  0
LINE
  5
31A2
330
18
100
AcDbEntity
  8
1
  6
Continuous
100
AcDbLine
 10
122.5637055271297
 20
187.8235090154175
 30
0.0
 11
122.5637055271297
 21
194.9037400115048
 31
0.0
  0
LINE
  5
31A3
330
18
100
AcDbEntity
  8
1
  6
Continuous
100
AcDbLine
 10
109.1836458306397
 20
187.8235086285655
 30
0.0
 11
109.1836454212242
 21
194.9037396246527
 31
0.0
  0
LINE
  5
31A4
330
18
100
AcDbEntity
  8
1
  6
Continuous
100
AcDbLine
 10
122.5637059358102
 20
71.97597598876206
 30
0.0
 11
122.5637063452257
 21
64.89574499267482
 31
0.0
  0
LINE
  5
31A5
330
18
100
AcDbEntity
  8
1
  6
Continuous
100
AcDbLine
 10
109.1836462393202
 20
71.97597560191002
 30
0.0
 11
109.1836462393202
 21
64.89574460582277
 31
0.0
  0
ARC
  5
31E3
330
18
100
AcDbEntity
  8
1
  6
Continuous
100
AcDbCircle
 10
48.5353455637212
 20
202.6574042133828
 30
0.0
 40
0.5
100
AcDbArc
 50
89.9999999999995
 51
180.0
  0
ARC
  5
3224
330
18
100
AcDbEntity
  8
2
  6
Continuous
100
AcDbCircle
 10
272.916812272517
 20
133.5495284022459
 30
0.0
 40
7.688360621008995
100
AcDbArc
 50
339.4300018716439
 51
20.56999812835509
  0
ARC
  5
3225
330
18
100
AcDbEntity
  8
2
  6
Continuous
100
AcDbCircle
 10
272.916812272517
 20
133.5495284022459
 30
0.0
 40
8.000000379979455
100
AcDbArc
 50
106.0449756281425
 51
163.9550243718579
  0
ARC
  5
3226
330
18
100
AcDbEntity
  8
1
  6
Continuous
100
AcDbCircle
 10
272.916812272517
 20
133.5495284022459
 30
0.0
 40
7.688360621008984
100
AcDbArc
 50
110.5699981283555
 51
159.4300018716449
  0
ARC
  5
3227
330
18
100
AcDbEntity
  8
1
  6
Continuous
100
AcDbCircle
 10
272.916812272517
 20
133.5495284022459
 30
0.0
 40
8.0
100
AcDbArc
 50
163.9550243718573
 51
196.0449756281426
  0
ARC
  5
3228
330
18
100
AcDbEntity
  8
2
  6
Continuous
100
AcDbCircle
 10
272.916812272517
 20
133.5495284022459
 30
0.0
 40
8.000000379979455
100
AcDbArc
 50
196.044975628142
 51
253.9550243718573
  0
ARC
  5
3229
330
18
100
AcDbEntity
  8
1
  6
Continuous
100
AcDbCircle
 10
272.916812272517
 20
133.5495284022459
 30
0.0
 40
7.688360621008984
100
AcDbArc
 50
200.569998128355
 51
249.4300018716444
  0
ARC
  5
322A
330
18
100
AcDbEntity
  8
1
  6
Continuous
100
AcDbCircle
 10
272.916812272517
 20
133.5495284022459
 30
0.0
 40
8.0
100
AcDbArc
 50
343.9550243718573
 51
16.04497562814263
  0
ARC
  5
322B
330
18
100
AcDbEntity
  8
2
  6
Continuous
100
AcDbCircle
 10
272.916812272517
 20
133.5495284022459
 30
0.0
 40
8.000000379979455
100
AcDbArc
 50
286.0449756281426
 51
343.9550243718579
  0
ARC
  5
322C
330
18
100
AcDbEntity
  8
2
  6
Continuous
100
AcDbCircle
 10
272.916812272517
 20
133.5495284022459
 30
0.0
 40
8.000000379979455
100
AcDbArc
 50
16.04497562814209
 51
73.9550243718574
  0
ARC
  5
322D
330
18
100
AcDbEntity
  8
1
  6
Continuous
100
AcDbCircle
 10
272.916812272517
 20
133.5495284022459
 30
0.0
 40
7.688360621008984
100
AcDbArc
 50
20.56999812835509
 51
69.43000187164447
  0
ARC
  5
322E
330
18
100
AcDbEntity
  8
2
  6
Continuous
100
AcDbCircle
 10
272.916812272517
 20
133.5495284022459
 30
0.0
 40
7.688360621008995
100
AcDbArc
 50
339.4300018716439
 51
20.56999812835509
  0
ARC
  5
322F
330
18
100
AcDbEntity
  8
1
  6
Continuous
100
AcDbCircle
 10
272.916812272517
 20
133.5495284022459
 30
0.0
 40
7.688360621008984
100
AcDbArc
 50
290.5699981283555
 51
339.4300018716448
  0
ARC
  5
3230
330
18
100
AcDbEntity
  8
1
  6
Continuous
100
AcDbCircle
 10
272.916812272517
 20
133.5495284022459
 30
0.0
 40
8.0
100
AcDbArc
 50
253.9550243718573
 51
286.0449756281426
  0
LINE
  5
3271
330
18
100
AcDbEntity
  8
1
  6
Continuous
100
AcDbLine
 10
41.8147909047679
 20
144.5495289247179
 30
0.0
 11
40.81479119105647
 21
144.549528924718
 31
0.0
  0
ENDSEC
  0
SECTION
  2
OBJECTS
  0
DICTIONARY
  5
C
330
0
100
AcDbDictionary
281
     1
  3
ACAD_CIP_PREVIOUS_PRODUCT_INFO
350
32D8
  3
ACAD_COLOR
350
32BB
  3
ACAD_DETAILVIEWSTYLE
350
32D4
  3
ACAD_GROUP
350
D
  3
ACAD_LAYOUT
350
94
  3
ACAD_MATERIAL
350
3289
  3
ACAD_MLEADERSTYLE
350
32D0
  3
ACAD_MLINESTYLE
350
1B
  3
ACAD_PLOTSETTINGS
350
95
  3
ACAD_PLOTSTYLENAME
350
3287
  3
ACAD_SCALELIST
350
32BE
  3
ACAD_SECTIONVIEWSTYLE
350
32D2
  3
ACAD_TABLESTYLE
350
32BC
  3
ACAD_VISUALSTYLE
350
32A2
  3
ACDB_RECOMPOSE_DATA
350
32F6
  3
AcDbVariableDictionary
350
32E9
  3
CONTENTDICTIONARY
350
3D
  3
DWGPROPS
350
32F7
  0
DICTIONARY
  5
32D9
330
E
100
AcDbDictionary
280
     1
281
     1
  3
ADSK_XREC_LAYER_RECONCILED
360
32DA
  0
DICTIONARY
  5
32DB
330
4E
100
AcDbDictionary
280
     1
281
     1
  3
ADSK_XREC_LAYER_RECONCILED
360
32DC
  0
DICTIONARY
  5
32DD
330
4F
100
AcDbDictionary
280
     1
281
     1
  3
ADSK_XREC_LAYER_RECONCILED
360
32DE
  0
DICTIONARY
  5
32DF
330
50
100
AcDbDictionary
280
     1
281
     1
  3
ADSK_XREC_LAYER_RECONCILED
360
32E0
  0
DICTIONARY
  5
32E1
330
51
100
AcDbDictionary
280
     1
281
     1
  3
ADSK_XREC_LAYER_RECONCILED
360
32E2
  0
DICTIONARY
  5
32E3
330
52
100
AcDbDictionary
280
     1
281
     1
  3
ADSK_XREC_LAYER_RECONCILED
360
32E4
  0
DICTIONARY
  5
32E5
330
53
100
AcDbDictionary
280
     1
281
     1
  3
ADSK_XREC_LAYER_RECONCILED
360
32E6
  0
DICTIONARY
  5
32E7
330
54
100
AcDbDictionary
280
     1
281
     1
  3
ADSK_XREC_LAYER_RECONCILED
360
32E8
  0
DICTIONARY
  5
3282
330
18
100
AcDbDictionary
281
     1
  3
ACAD_LAYOUTSELFREF
350
3283
  0
DICTIONARY
  5
3280
330
15
100
AcDbDictionary
281
     1
  3
ACAD_LAYOUTSELFREF
350
3281
  0
XRECORD
  5
32D8
102
{ACAD_REACTORS
330
C
102
}
330
C
100
AcDbXrecord
280
     1
300
ACDLT
300
2014
300
ACDLT_F_S
  0
DICTIONARY
  5
32BB
102
{ACAD_REACTORS
330
C
102
}
330
C
100
AcDbDictionary
281
     1
  0
DICTIONARY
  5
32D4
102
{ACAD_REACTORS
330
C
102
}
330
C
100
AcDbDictionary
281
     1
  3
Imperial24
350
32D5
  0
DICTIONARY
  5
D
102
{ACAD_REACTORS
330
C
102
}
330
C
100
AcDbDictionary
281
     1
  0
DICTIONARY
  5
94
102
{ACAD_REACTORS
330
C
102
}
330
C
100
AcDbDictionary
281
     1
  3
Model
350
32D6
  3
レイアウト1
350
32D7
  0
DICTIONARY
  5
3289
102
{ACAD_REACTORS
330
C
102
}
330
C
100
AcDbDictionary
281
     1
  3
ByBlock
350
3292
  3
ByLayer
350
328A
  3
Global
350
329A
  0
DICTIONARY
  5
32D0
102
{ACAD_REACTORS
330
C
102
}
330
C
100
AcDbDictionary
281
     1
  3
Standard
350
32D1
  0
DICTIONARY
  5
1B
102
{ACAD_REACTORS
330
C
102
}
330
C
100
AcDbDictionary
281
     1
  3
STANDARD
350
1C
  0
DICTIONARY
  5
95
102
{ACAD_REACTORS
330
C
102
}
330
C
100
AcDbDictionary
281
     1
  0
ACDBDICTIONARYWDFLT
  5
3287
102
{ACAD_REACTORS
330
C
102
}
330
C
100
AcDbDictionary
281
     1
  3
Normal
350
3288
100
AcDbDictionaryWithDefault
340
3288
  0
DICTIONARY
  5
32BE
102
{ACAD_REACTORS
330
C
102
}
330
C
100
AcDbDictionary
281
     1
  3
A0
350
32BF
  3
A1
350
32C0
  3
A2
350
32C1
  3
A3
350
32C2
  3
A4
350
32C3
  3
A5
350
32C4
  3
A6
350
32C5
  3
A7
350
32C6
  3
A8
350
32C7
  3
A9
350
32C8
  3
B0
350
32C9
  3
B1
350
32CA
  3
B2
350
32CB
  3
B3
350
32CC
  3
B4
350
32CD
  3
B5
350
32CE
  3
B6
350
32CF
  0
DICTIONARY
  5
32D2
102
{ACAD_REACTORS
330
C
102
}
330
C
100
AcDbDictionary
281
     1
  3
Imperial24
350
32D3
  0
DICTIONARY
  5
32BC
102
{ACAD_REACTORS
330
C
102
}
330
C
100
AcDbDictionary
281
     1
  3
Standard
350
32BD
  0
DICTIONARY
  5
32A2
102
{ACAD_REACTORS
330
C
102
}
330
C
100
AcDbDictionary
281
     1
  3
2dWireframe
350
32A8
  3
Basic
350
32A7
  3
Brighten
350
32AE
  3
ColorChange
350
32B2
  3
Conceptual
350
32AB
  3
Dim
350
32AD
  3
EdgeColorOff
350
32BA
  3
Facepattern
350
32B1
  3
Flat
350
32A3
  3
FlatWithEdges
350
32A4
  3
Gouraud
350
32A5
  3
GouraudWithEdges
350
32A6
  3
Hidden
350
32AA
  3
JitterOff
350
32B8
  3
Linepattern
350
32B0
  3
OverhangOff
350
32B9
  3
Realistic
350
32AC
  3
Shaded
350
32B7
  3
Shaded with edges
350
32B6
  3
Shades of Gray
350
32B3
  3
Sketchy
350
32B4
  3
Thicken
350
32AF
  3
Wireframe
350
32A9
  3
X-Ray
350
32B5
  0
XRECORD
  5
32F6
102
{ACAD_REACTORS
330
C
102
}
330
C
100
AcDbXrecord
280
     1
 90
        1
330
32BD
  0
DICTIONARY
  5
32E9
102
{ACAD_REACTORS
330
C
102
}
330
C
100
AcDbDictionary
281
     1
  3
CANNOSCALE
350
32EE
  3
CMLEADERSTYLE
350
32EB
  3
CTABLESTYLE
350
32EA
  3
CVIEWDETAILSTYLE
350
32EC
  3
CVIEWSECTIONSTYLE
350
32ED
  3
DIMASSOC
350
32F1
  3
INDEXCTL
350
32F0
  3
SORTENTS
350
32EF
  3
XCLIPFRAME
350
32F2
  0
DICTIONARY
  5
3D
102
{ACAD_REACTORS
330
C
102
}
330
C
100
AcDbDictionary
281
     1
  0
XRECORD
  5
32F7
102
{ACAD_REACTORS
330
C
102
}
330
C
100
AcDbXrecord
280
     1
  1
DWGPROPS COOKIE
  2

  3

  4

  6

  7

  8
Yoshitsune
  9

300
=
301
=
302
=
303
=
304
=
305
=
306
=
307
=
308
=
309
=
 40
0.1237363310185185
 41
2453720.892934201
 42
2457192.70053588
  1

 90
        0
  0
XRECORD
  5
32DA
102
{ACAD_REACTORS
330
32D9
102
}
330
32D9
100
AcDbXrecord
280
     1
290
     1
  0
XRECORD
  5
32DC
102
{ACAD_REACTORS
330
32DB
102
}
330
32DB
100
AcDbXrecord
280
     1
290
     1
  0
XRECORD
  5
32DE
102
{ACAD_REACTORS
330
32DD
102
}
330
32DD
100
AcDbXrecord
280
     1
290
     1
  0
XRECORD
  5
32E0
102
{ACAD_REACTORS
330
32DF
102
}
330
32DF
100
AcDbXrecord
280
     1
290
     1
  0
XRECORD
  5
32E2
102
{ACAD_REACTORS
330
32E1
102
}
330
32E1
100
AcDbXrecord
280
     1
290
     1
  0
XRECORD
  5
32E4
102
{ACAD_REACTORS
330
32E3
102
}
330
32E3
100
AcDbXrecord
280
     1
290
     1
  0
XRECORD
  5
32E6
102
{ACAD_REACTORS
330
32E5
102
}
330
32E5
100
AcDbXrecord
280
     1
290
     1
  0
XRECORD
  5
32E8
102
{ACAD_REACTORS
330
32E7
102
}
330
32E7
100
AcDbXrecord
280
     1
290
     1
  0
XRECORD
  5
3283
102
{ACAD_REACTORS
330
3282
102
}
330
3282
100
AcDbXrecord
280
     1
340
18
  0
XRECORD
  5
3281
102
{ACAD_REACTORS
330
3280
102
}
330
3280
100
AcDbXrecord
280
     1
340
15
  0
ACDBDETAILVIEWSTYLE
  5
32D5
102
{ACAD_XDICTIONARY
360
332F
102
}
102
{ACAD_REACTORS
330
32D4
102
}
330
32D4
100
AcDbModelDocViewStyle
 70
     0
  3
Imperial24
290
     0
100
AcDbDetailViewStyle
 70
     0
 71
     0
 90
        3
 71
     1
340
F
 40
0.24
340
0
 40
0.24
300

 40
0.36
280
     3
 71
     2
340
14
 90
       25
 71
     3
340
F
 40
0.24
 90
        1
 40
0.75
 90
        1
300
%<\AcVar ViewType \f "%tc1">% %<\AcVar ViewDetailId>%\PSCALE %<\AcVar ViewScale \f "%sn">%
 71
     4
340
14
 90
       25
340
14
 90
       25
280
     0
  0
LAYOUT
  5
32D6
102
{ACAD_XDICTIONARY
360
3331
102
}
102
{ACAD_REACTORS
330
94
102
}
330
94
100
AcDbPlotSettings
  1

  2
Canon LBP9100C
  4

  6

 40
0.0
 41
0.0
 42
0.0
 43
0.0
 44
0.0
 45
0.0
 46
0.0
 47
0.0
 48
0.0
 49
0.0
140
0.0
141
0.0
142
1.0
143
1.0
 70
  1712
 72
     0
 73
     0
 74
     0
  7

 75
     0
147
1.0
148
0.0
149
0.0
100
AcDbLayout
  1
Model
 70
     1
 71
     0
 10
0.0
 20
0.0
 11
12.0
 21
9.0
 12
0.0
 22
0.0
 32
0.0
 14
0.0
 24
0.0
 34
0.0
 15
0.0
 25
0.0
 35
0.0
146
0.0
 13
0.0
 23
0.0
 33
0.0
 16
1.0
 26
0.0
 36
0.0
 17
0.0
 27
1.0
 37
0.0
 76
     0
330
18
331
327F
  0
LAYOUT
  5
32D7
102
{ACAD_XDICTIONARY
360
3333
102
}
102
{ACAD_REACTORS
330
94
102
}
330
94
100
AcDbPlotSettings
  1

  2
Canon LBP9100C
  4

  6

 40
0.0
 41
0.0
 42
0.0
 43
0.0
 44
0.0
 45
0.0
 46
0.0
 47
0.0
 48
0.0
 49
0.0
140
0.0
141
0.0
142
1.0
143
1.0
 70
   688
 72
     0
 73
     0
 74
     5
  7

 75
    16
147
1.0
148
0.0
149
0.0
100
AcDbLayout
  1
レイアウト1
 70
     1
 71
     1
 10
0.0
 20
0.0
 11
420.0
 21
297.0
 12
0.0
 22
0.0
 32
0.0
 14
1.000000000000000E+20
 24
1.000000000000000E+20
 34
1.000000000000000E+20
 15
-1.000000000000000E+20
 25
-1.000000000000000E+20
 35
-1.000000000000000E+20
146
0.0
 13
0.0
 23
0.0
 33
0.0
 16
1.0
 26
0.0
 36
0.0
 17
0.0
 27
1.0
 37
0.0
 76
     0
330
15
  0
MATERIAL
  5
3292
102
{ACAD_XDICTIONARY
360
3293
102
}
102
{ACAD_REACTORS
330
3289
102
}
330
3289
100
AcDbMaterial
  1
ByBlock
 72
     0
 43
0.0208333333333333
 43
0.0
 43
0.0
 43
0.0
 43
0.0
 43
0.0208333333333333
 43
0.0
 43
0.0
 43
0.0
 43
0.0
 43
1.0
 43
0.0
 43
0.0
 43
0.0
 43
0.0
 43
1.0
 77
     0
 47
0.0208333333333333
 47
0.0
 47
0.0
 47
0.0
 47
0.0
 47
0.0208333333333333
 47
0.0
 47
0.0
 47
0.0
 47
0.0
 47
1.0
 47
0.0
 47
0.0
 47
0.0
 47
0.0
 47
1.0
171
     0
 49
0.0208333333333333
 49
0.0
 49
0.0
 49
0.0
 49
0.0
 49
0.0208333333333333
 49
0.0
 49
0.0
 49
0.0
 49
0.0
 49
1.0
 49
0.0
 49
0.0
 49
0.0
 49
0.0
 49
1.0
175
     0
142
0.0208333333333333
142
0.0
142
0.0
142
0.0
142
0.0
142
0.0208333333333333
142
0.0
142
0.0
142
0.0
142
0.0
142
1.0
142
0.0
142
0.0
142
0.0
142
0.0
142
1.0
179
     0
144
0.0208333333333333
144
0.0
144
0.0
144
0.0
144
0.0
144
0.0208333333333333
144
0.0
144
0.0
144
0.0
144
0.0
144
1.0
144
0.0
144
0.0
144
0.0
144
0.0
144
1.0
147
0.0208333333333333
147
0.0
147
0.0
147
0.0
147
0.0
147
0.0208333333333333
147
0.0
147
0.0
147
0.0
147
0.0
147
1.0
147
0.0
147
0.0
147
0.0
147
0.0
147
1.0
  0
MATERIAL
  5
328A
102
{ACAD_XDICTIONARY
360
328B
102
}
102
{ACAD_REACTORS
330
3289
102
}
330
3289
100
AcDbMaterial
  1
ByLayer
 72
     0
 43
0.0208333333333333
 43
0.0
 43
0.0
 43
0.0
 43
0.0
 43
0.0208333333333333
 43
0.0
 43
0.0
 43
0.0
 43
0.0
 43
1.0
 43
0.0
 43
0.0
 43
0.0
 43
0.0
 43
1.0
 77
     0
 47
0.0208333333333333
 47
0.0
 47
0.0
 47
0.0
 47
0.0
 47
0.0208333333333333
 47
0.0
 47
0.0
 47
0.0
 47
0.0
 47
1.0
 47
0.0
 47
0.0
 47
0.0
 47
0.0
 47
1.0
171
     0
 49
0.0208333333333333
 49
0.0
 49
0.0
 49
0.0
 49
0.0
 49
0.0208333333333333
 49
0.0
 49
0.0
 49
0.0
 49
0.0
 49
1.0
 49
0.0
 49
0.0
 49
0.0
 49
0.0
 49
1.0
175
     0
142
0.0208333333333333
142
0.0
142
0.0
142
0.0
142
0.0
142
0.0208333333333333
142
0.0
142
0.0
142
0.0
142
0.0
142
1.0
142
0.0
142
0.0
142
0.0
142
0.0
142
1.0
179
     0
144
0.0208333333333333
144
0.0
144
0.0
144
0.0
144
0.0
144
0.0208333333333333
144
0.0
144
0.0
144
0.0
144
0.0
144
1.0
144
0.0
144
0.0
144
0.0
144
0.0
144
1.0
147
0.0208333333333333
147
0.0
147
0.0
147
0.0
147
0.0
147
0.0208333333333333
147
0.0
147
0.0
147
0.0
147
0.0
147
1.0
147
0.0
147
0.0
147
0.0
147
0.0
147
1.0
  0
MATERIAL
  5
329A
102
{ACAD_XDICTIONARY
360
329B
102
}
102
{ACAD_REACTORS
330
3289
102
}
330
3289
100
AcDbMaterial
  1
Global
 72
     0
 43
0.0208333333333333
 43
0.0
 43
0.0
 43
0.0
 43
0.0
 43
0.0208333333333333
 43
0.0
 43
0.0
 43
0.0
 43
0.0
 43
1.0
 43
0.0
 43
0.0
 43
0.0
 43
0.0
 43
1.0
 77
     0
 47
0.0208333333333333
 47
0.0
 47
0.0
 47
0.0
 47
0.0
 47
0.0208333333333333
 47
0.0
 47
0.0
 47
0.0
 47
0.0
 47
1.0
 47
0.0
 47
0.0
 47
0.0
 47
0.0
 47
1.0
171
     0
 49
0.0208333333333333
 49
0.0
 49
0.0
 49
0.0
 49
0.0
 49
0.0208333333333333
 49
0.0
 49
0.0
 49
0.0
 49
0.0
 49
1.0
 49
0.0
 49
0.0
 49
0.0
 49
0.0
 49
1.0
175
     0
142
0.0208333333333333
142
0.0
142
0.0
142
0.0
142
0.0
142
0.0208333333333333
142
0.0
142
0.0
142
0.0
142
0.0
142
1.0
142
0.0
142
0.0
142
0.0
142
0.0
142
1.0
179
     0
144
0.0208333333333333
144
0.0
144
0.0
144
0.0
144
0.0
144
0.0208333333333333
144
0.0
144
0.0
144
0.0
144
0.0
144
1.0
144
0.0
144
0.0
144
0.0
144
0.0
144
1.0
147
0.0208333333333333
147
0.0
147
0.0
147
0.0
147
0.0
147
0.0208333333333333
147
0.0
147
0.0
147
0.0
147
0.0
147
1.0
147
0.0
147
0.0
147
0.0
147
0.0
147
1.0
  0
MLEADERSTYLE
  5
32D1
102
{ACAD_REACTORS
330
32D0
102
}
330
32D0
100
AcDbMLeaderStyle
170
     2
171
     1
172
     0
 90
        2
 40
0.0
 41
0.0
173
     1
 91
-1056964608
340
12
 92
       -2
290
     1
 42
0.09
291
     1
 43
0.36
  3
Standard
 44
0.18
300

342
F
174
     1
178
     6
175
     1
176
     0
 93
-1056964608
 45
0.18
292
     0
297
     0
 46
0.18
 94
-1056964608
 47
1.0
 49
1.0
140
1.0
293
     1
141
0.0
294
     1
177
     0
142
1.0
295
     0
296
     0
143
0.125
1001
ACAD_MLEADERVER
1070
     2
  0
MLINESTYLE
  5
1C
102
{ACAD_REACTORS
330
1B
102
}
330
1B
100
AcDbMlineStyle
  2
STANDARD
 70
     0
  3

 62
   256
 51
90.0
 52
90.0
 71
     2
 49
0.5
 62
   256
  6
BYLAYER
 49
-0.5
 62
   256
  6
BYLAYER
  0
ACDBPLACEHOLDER
  5
3288
102
{ACAD_REACTORS
330
3287
102
}
330
3287
  0
SCALE
  5
32BF
102
{ACAD_REACTORS
330
32BE
102
}
330
32BE
100
AcDbScale
 70
     0
300
1:1
140
1.0
141
1.0
290
     1
  0
SCALE
  5
32C0
102
{ACAD_REACTORS
330
32BE
102
}
330
32BE
100
AcDbScale
 70
     0
300
1/128" = 1'-0"
140
0.0078125
141
12.0
290
     0
  0
SCALE
  5
32C1
102
{ACAD_REACTORS
330
32BE
102
}
330
32BE
100
AcDbScale
 70
     0
300
1/64" = 1'-0"
140
0.015625
141
12.0
290
     0
  0
SCALE
  5
32C2
102
{ACAD_REACTORS
330
32BE
102
}
330
32BE
100
AcDbScale
 70
     0
300
1/32" = 1'-0"
140
0.03125
141
12.0
290
     0
  0
SCALE
  5
32C3
102
{ACAD_REACTORS
330
32BE
102
}
330
32BE
100
AcDbScale
 70
     0
300
1/16" = 1'-0"
140
0.0625
141
12.0
290
     0
  0
SCALE
  5
32C4
102
{ACAD_REACTORS
330
32BE
102
}
330
32BE
100
AcDbScale
 70
     0
300
3/32" = 1'-0"
140
0.09375
141
12.0
290
     0
  0
SCALE
  5
32C5
102
{ACAD_REACTORS
330
32BE
102
}
330
32BE
100
AcDbScale
 70
     0
300
1/8" = 1'-0"
140
0.125
141
12.0
290
     0
  0
SCALE
  5
32C6
102
{ACAD_REACTORS
330
32BE
102
}
330
32BE
100
AcDbScale
 70
     0
300
3/16" = 1'-0"
140
0.1875
141
12.0
290
     0
  0
SCALE
  5
32C7
102
{ACAD_REACTORS
330
32BE
102
}
330
32BE
100
AcDbScale
 70
     0
300
1/4" = 1'-0"
140
0.25
141
12.0
290
     0
  0
SCALE
  5
32C8
102
{ACAD_REACTORS
330
32BE
102
}
330
32BE
100
AcDbScale
 70
     0
300
3/8" = 1'-0"
140
0.375
141
12.0
290
     0
  0
SCALE
  5
32C9
102
{ACAD_REACTORS
330
32BE
102
}
330
32BE
100
AcDbScale
 70
     0
300
1/2" = 1'-0"
140
0.5
141
12.0
290
     0
  0
SCALE
  5
32CA
102
{ACAD_REACTORS
330
32BE
102
}
330
32BE
100
AcDbScale
 70
     0
300
3/4" = 1'-0"
140
0.75
141
12.0
290
     0
  0
SCALE
  5
32CB
102
{ACAD_REACTORS
330
32BE
102
}
330
32BE
100
AcDbScale
 70
     0
300
1" = 1'-0"
140
1.0
141
12.0
290
     0
  0
SCALE
  5
32CC
102
{ACAD_REACTORS
330
32BE
102
}
330
32BE
100
AcDbScale
 70
     0
300
1-1/2" = 1'-0"
140
1.5
141
12.0
290
     0
  0
SCALE
  5
32CD
102
{ACAD_REACTORS
330
32BE
102
}
330
32BE
100
AcDbScale
 70
     0
300
3" = 1'-0"
140
3.0
141
12.0
290
     0
  0
SCALE
  5
32CE
102
{ACAD_REACTORS
330
32BE
102
}
330
32BE
100
AcDbScale
 70
     0
300
6" = 1'-0"
140
6.0
141
12.0
290
     0
  0
SCALE
  5
32CF
102
{ACAD_REACTORS
330
32BE
102
}
330
32BE
100
AcDbScale
 70
     0
300
1'-0" = 1'-0"
140
12.0
141
12.0
290
     0
  0
ACDBSECTIONVIEWSTYLE
  5
32D3
102
{ACAD_XDICTIONARY
360
332D
102
}
102
{ACAD_REACTORS
330
32D2
102
}
330
32D2
100
AcDbModelDocViewStyle
 70
     0
  3
Imperial24
290
     0
100
AcDbSectionViewStyle
 70
     0
 71
     0
 90
       78
 71
     1
340
F
 40
0.24
340
0
340
0
 40
0.24
300
I, O, Q, S, X, Z
 40
0.48
 90
        3
 40
0.18
 90
        1
 71
     2
340
14
 90
       25
340
14
 90
       50
 40
0.24
 40
0.0
 40
0.24
 71
     3
340
F
 40
0.24
 90
        1
 40
0.75
 90
        1
300
%<\AcVar ViewType \f "%tc1">% %<\AcVar ViewSectionStartId>%-%<\AcVar ViewSectionEndId>%\PSCALE %<\AcVar ViewScale \f "%sn">%
 71
     4
300
ANSI31
 40
1.0
 90
        0
290
     0
290
     0
 90
        6
 40
0.0
 40
1.570796326794896
 40
0.2617993877991494
 40
1.308996938995747
 40
-0.2617993877991494
 40
1.832595714594046
  0
TABLESTYLE
  5
32BD
102
{ACAD_XDICTIONARY
360
32F4
102
}
102
{ACAD_REACTORS
330
32BC
102
}
330
32BC
100
AcDbTableStyle
  3
Standard
 70
     0
 71
     0
 40
0.06
 41
0.06
280
     0
281
     0
  7
STANDARD
140
0.18
170
     2
 62
     0
 63
     7
283
     0
274
    -2
284
     1
 64
     0
275
    -2
285
     1
 65
     0
276
    -2
286
     1
 66
     0
277
    -2
287
     1
 67
     0
278
    -2
288
     1
 68
     0
279
    -2
289
     1
 69
     0
  7
STANDARD
140
0.25
170
     5
 62
     0
 63
     7
283
     0
274
    -2
284
     1
 64
     0
275
    -2
285
     1
 65
     0
276
    -2
286
     1
 66
     0
277
    -2
287
     1
 67
     0
278
    -2
288
     1
 68
     0
279
    -2
289
     1
 69
     0
  7
STANDARD
140
0.18
170
     5
 62
     0
 63
     7
283
     0
274
    -2
284
     1
 64
     0
275
    -2
285
     1
 65
     0
276
    -2
286
     1
 66
     0
277
    -2
287
     1
 67
     0
278
    -2
288
     1
 68
     0
279
    -2
289
     1
 69
     0
  0
VISUALSTYLE
  5
32A8
102
{ACAD_XDICTIONARY
360
3305
102
}
102
{ACAD_REACTORS
330
32A2
102
}
330
32A2
100
AcDbVisualStyle
  2
2dWireframe
 70
     4
 71
     0
 72
     2
 73
     0
 90
        0
 40
-0.6
 41
-30.0
 62
     5
 63
     7
 74
     1
 91
        4
 64
     7
 65
   257
 75
     1
175
     1
 42
1.0
 92
        0
 66
   257
 43
1.0
 76
     1
 77
     6
 78
     2
 67
     7
 79
     5
170
     0
171
     0
290
     0
174
     0
 93
        1
 44
0.0
173
     0
291
     0
 45
0.0
1001
ACAD
1000
AcDbSavedByObjectVersion
1070
     0
  0
VISUALSTYLE
  5
32A7
102
{ACAD_XDICTIONARY
360
3303
102
}
102
{ACAD_REACTORS
330
32A2
102
}
330
32A2
100
AcDbVisualStyle
  2
Basic
 70
     7
 71
     1
 72
     0
 73
     1
 90
        0
 40
-0.6
 41
-30.0
 62
     5
 63
     7
 74
     0
 91
        4
 64
     7
 65
   257
 75
     1
175
     1
 42
1.0
 92
        8
 66
     7
 43
1.0
 76
     1
 77
     6
 78
     2
 67
     7
 79
     5
170
     0
171
     0
290
     0
174
     0
 93
        1
 44
0.0
173
     0
291
     1
 45
0.0
1001
ACAD
1000
AcDbSavedByObjectVersion
1070
     0
  0
VISUALSTYLE
  5
32AE
102
{ACAD_XDICTIONARY
360
3311
102
}
102
{ACAD_REACTORS
330
32A2
102
}
330
32A2
100
AcDbVisualStyle
  2
Brighten
 70
    12
 71
     2
 72
     2
 73
     0
 90
        0
 40
-0.6
 41
-30.0
 62
     5
 63
     7
 74
     1
 91
        4
 64
     7
 65
   257
 75
     1
175
     1
 42
1.0
 92
        8
 66
     7
 43
1.0
 76
     1
 77
     6
 78
     2
 67
     7
 79
     5
170
     0
171
     0
290
     0
174
     0
 93
        1
 44
50.0
173
     0
291
     1
 45
0.0
1001
ACAD
1000
AcDbSavedByObjectVersion
1070
     0
  0
VISUALSTYLE
  5
32B2
102
{ACAD_XDICTIONARY
360
3319
102
}
102
{ACAD_REACTORS
330
32A2
102
}
330
32A2
100
AcDbVisualStyle
  2
ColorChange
 70
    16
 71
     2
 72
     2
 73
     3
 90
        0
 40
-0.6
 41
-30.0
 62
     5
 63
     8
 74
     1
 91
        4
 64
     7
 65
   257
 75
     1
175
     1
 42
1.0
 92
        8
 66
     8
 43
1.0
 76
     1
 77
     6
 78
     2
 67
     7
 79
     5
170
     0
171
     0
290
     0
174
     0
 93
        1
 44
0.0
173
     0
291
     1
 45
0.0
1001
ACAD
1000
AcDbSavedByObjectVersion
1070
     0
  0
VISUALSTYLE
  5
32AB
102
{ACAD_XDICTIONARY
360
330B
102
}
102
{ACAD_REACTORS
330
32A2
102
}
330
32A2
100
AcDbVisualStyle
  2
Conceptual
 70
     9
 71
     3
 72
     2
 73
     0
 90
        0
 40
-0.6
 41
-30.0
 62
     5
 63
     7
 74
     2
 91
        2
 64
     7
 65
   257
 75
     1
175
     1
 42
179.0
 92
        8
 66
     7
 43
1.0
 76
     1
 77
     6
 78
     2
 67
     7
 79
     3
170
     0
171
     0
290
     0
174
     0
 93
        1
 44
0.0
173
     0
291
     0
 45
0.0
1001
ACAD
1000
AcDbSavedByObjectVersion
1070
     0
  0
VISUALSTYLE
  5
32AD
102
{ACAD_XDICTIONARY
360
330F
102
}
102
{ACAD_REACTORS
330
32A2
102
}
330
32A2
100
AcDbVisualStyle
  2
Dim
 70
    11
 71
     2
 72
     2
 73
     0
 90
        0
 40
-0.6
 41
-30.0
 62
     5
 63
     7
 74
     1
 91
        4
 64
     7
 65
   257
 75
     1
175
     1
 42
1.0
 92
        8
 66
     7
 43
1.0
 76
     1
 77
     6
 78
     2
 67
     7
 79
     5
170
     0
171
     0
290
     0
174
     0
 93
        1
 44
-50.0
173
     0
291
     1
 45
0.0
1001
ACAD
1000
AcDbSavedByObjectVersion
1070
     0
  0
VISUALSTYLE
  5
32BA
102
{ACAD_XDICTIONARY
360
3329
102
}
102
{ACAD_REACTORS
330
32A2
102
}
330
32A2
100
AcDbVisualStyle
  2
EdgeColorOff
 70
    22
 71
     2
 72
     2
 73
     0
 90
        0
 40
-0.6
 41
-30.0
 62
     5
 63
     7
 74
     1
 91
        4
 64
     7
 65
   257
 75
     1
175
     1
 42
1.0
 92
        8
 66
     7
 43
1.0
 76
     1
 77
     6
 78
     2
 67
     7
 79
     5
170
     0
171
     0
290
     0
174
     0
 93
        1
 44
0.0
173
     0
291
     1
 45
0.0
1001
ACAD
1000
AcDbSavedByObjectVersion
1070
     0
  0
VISUALSTYLE
  5
32B1
102
{ACAD_XDICTIONARY
360
3317
102
}
102
{ACAD_REACTORS
330
32A2
102
}
330
32A2
100
AcDbVisualStyle
  2
Facepattern
 70
    15
 71
     2
 72
     2
 73
     0
 90
        0
 40
-0.6
 41
-30.0
 62
     5
 63
     7
 74
     1
 91
        4
 64
     7
 65
   257
 75
     1
175
     1
 42
1.0
 92
        8
 66
     7
 43
1.0
 76
     1
 77
     6
 78
     2
 67
     7
 79
     5
170
     0
171
     0
290
     0
174
     0
 93
        1
 44
0.0
173
     0
291
     1
 45
0.0
1001
ACAD
1000
AcDbSavedByObjectVersion
1070
     0
  0
VISUALSTYLE
  5
32A3
102
{ACAD_XDICTIONARY
360
32FB
102
}
102
{ACAD_REACTORS
330
32A2
102
}
330
32A2
100
AcDbVisualStyle
  2
Flat
 70
     0
 71
     2
 72
     1
 73
     1
 90
        2
 40
-0.6
 41
30.0
 62
     5
 63
     7
 74
     0
 91
        0
 64
     7
 65
   257
 75
     1
175
     1
 42
1.0
 92
        8
 66
     7
 43
1.0
 76
     1
 77
     6
 78
     2
 67
     7
 79
     5
170
     0
171
     0
290
     0
174
     0
 93
       13
 44
0.0
173
     0
291
     1
 45
0.0
1001
ACAD
1000
AcDbSavedByObjectVersion
1070
     0
  0
VISUALSTYLE
  5
32A4
102
{ACAD_XDICTIONARY
360
32FD
102
}
102
{ACAD_REACTORS
330
32A2
102
}
330
32A2
100
AcDbVisualStyle
  2
FlatWithEdges
 70
     1
 71
     2
 72
     1
 73
     1
 90
        2
 40
-0.6
 41
30.0
 62
     5
 63
     7
 74
     1
 91
        0
 64
     7
 65
   257
 75
     1
175
     1
 42
1.0
 92
        0
 66
   257
 43
1.0
 76
     1
 77
     6
 78
     2
 67
     7
 79
     5
170
     0
171
     0
290
     0
174
     0
 93
       13
 44
0.0
173
     0
291
     1
 45
0.0
1001
ACAD
1000
AcDbSavedByObjectVersion
1070
     0
  0
VISUALSTYLE
  5
32A5
102
{ACAD_XDICTIONARY
360
32FF
102
}
102
{ACAD_REACTORS
330
32A2
102
}
330
32A2
100
AcDbVisualStyle
  2
Gouraud
 70
     2
 71
     2
 72
     2
 73
     1
 90
        2
 40
-0.6
 41
30.0
 62
     5
 63
     7
 74
     0
 91
        0
 64
     7
 65
   257
 75
     1
175
     1
 42
1.0
 92
        0
 66
     7
 43
1.0
 76
     1
 77
     6
 78
     2
 67
     7
 79
     5
170
     0
171
     0
290
     0
174
     0
 93
       13
 44
0.0
173
     0
291
     1
 45
0.0
1001
ACAD
1000
AcDbSavedByObjectVersion
1070
     0
  0
VISUALSTYLE
  5
32A6
102
{ACAD_XDICTIONARY
360
3301
102
}
102
{ACAD_REACTORS
330
32A2
102
}
330
32A2
100
AcDbVisualStyle
  2
GouraudWithEdges
 70
     3
 71
     2
 72
     2
 73
     1
 90
        2
 40
-0.6
 41
30.0
 62
     5
 63
     7
 74
     1
 91
        0
 64
     7
 65
   257
 75
     1
175
     1
 42
1.0
 92
        0
 66
   257
 43
1.0
 76
     1
 77
     6
 78
     2
 67
     7
 79
     5
170
     0
171
     0
290
     0
174
     0
 93
       13
 44
0.0
173
     0
291
     1
 45
0.0
1001
ACAD
1000
AcDbSavedByObjectVersion
1070
     0
  0
VISUALSTYLE
  5
32AA
102
{ACAD_XDICTIONARY
360
3309
102
}
102
{ACAD_REACTORS
330
32A2
102
}
330
32A2
100
AcDbVisualStyle
  2
Hidden
 70
     6
 71
     1
 72
     2
 73
     2
 90
        0
 40
-0.6
 41
-30.0
 62
     5
 63
     7
 74
     2
 91
        2
 64
     7
 65
   257
 75
     2
175
     1
 42
40.0
 92
        0
 66
   257
 43
1.0
 76
     1
 77
     6
 78
     2
 67
     7
 79
     3
170
     0
171
     0
290
     0
174
     0
 93
        1
 44
0.0
173
     0
291
     0
 45
0.0
1001
ACAD
1000
AcDbSavedByObjectVersion
1070
     0
  0
VISUALSTYLE
  5
32B8
102
{ACAD_XDICTIONARY
360
3325
102
}
102
{ACAD_REACTORS
330
32A2
102
}
330
32A2
100
AcDbVisualStyle
  2
JitterOff
 70
    20
 71
     2
 72
     2
 73
     0
 90
        0
 40
-0.6
 41
-30.0
 62
     5
 63
     7
 74
     1
 91
        4
 64
     7
 65
   257
 75
     1
175
     1
 42
1.0
 92
       10
 66
     7
 43
1.0
 76
     1
 77
     6
 78
     2
 67
     7
 79
     5
170
     0
171
     0
290
     0
174
     0
 93
        1
 44
0.0
173
     0
291
     1
 45
0.0
1001
ACAD
1000
AcDbSavedByObjectVersion
1070
     0
  0
VISUALSTYLE
  5
32B0
102
{ACAD_XDICTIONARY
360
3315
102
}
102
{ACAD_REACTORS
330
32A2
102
}
330
32A2
100
AcDbVisualStyle
  2
Linepattern
 70
    14
 71
     2
 72
     2
 73
     0
 90
        0
 40
-0.6
 41
-30.0
 62
     5
 63
     7
 74
     1
 91
        4
 64
     7
 65
   257
 75
     7
175
     7
 42
1.0
 92
        8
 66
     7
 43
1.0
 76
     1
 77
     6
 78
     2
 67
     7
 79
     5
170
     0
171
     0
290
     0
174
     0
 93
        1
 44
0.0
173
     0
291
     1
 45
0.0
1001
ACAD
1000
AcDbSavedByObjectVersion
1070
     0
  0
VISUALSTYLE
  5
32B9
102
{ACAD_XDICTIONARY
360
3327
102
}
102
{ACAD_REACTORS
330
32A2
102
}
330
32A2
100
AcDbVisualStyle
  2
OverhangOff
 70
    21
 71
     2
 72
     2
 73
     0
 90
        0
 40
-0.6
 41
-30.0
 62
     5
 63
     7
 74
     1
 91
        4
 64
     7
 65
   257
 75
     1
175
     1
 42
1.0
 92
        9
 66
     7
 43
1.0
 76
     1
 77
     6
 78
     2
 67
     7
 79
     5
170
     0
171
     0
290
     0
174
     0
 93
        1
 44
0.0
173
     0
291
     1
 45
0.0
1001
ACAD
1000
AcDbSavedByObjectVersion
1070
     0
  0
VISUALSTYLE
  5
32AC
102
{ACAD_XDICTIONARY
360
330D
102
}
102
{ACAD_REACTORS
330
32A2
102
}
330
32A2
100
AcDbVisualStyle
  2
Realistic
 70
     8
 71
     2
 72
     3
 73
     0
 90
        2
 40
-0.6
 41
30.0
 62
     5
 63
     7
 74
     0
 91
        0
 64
     7
 65
   257
 75
     1
175
     1
 42
1.0
 92
        8
 66
   257
 43
1.0
 76
     1
 77
     6
 78
     2
 67
     7
 79
     3
170
     0
171
     0
290
     0
174
     0
 93
       13
 44
0.0
173
     0
291
     0
 45
0.0
1001
ACAD
1000
AcDbSavedByObjectVersion
1070
     0
  0
VISUALSTYLE
  5
32B7
102
{ACAD_XDICTIONARY
360
3323
102
}
102
{ACAD_REACTORS
330
32A2
102
}
330
32A2
100
AcDbVisualStyle
  2
Shaded
 70
    27
 71
     2
 72
     2
 73
     1
 90
        2
 40
-0.6
 41
30.0
 62
     5
 63
     7
 74
     0
 91
        4
 64
     7
 65
   257
 75
     1
175
     1
 42
1.0
 92
        8
 66
   257
 43
1.0
 76
     1
 77
     6
 78
     2
 67
     8
 79
     3
170
     0
171
     0
290
     0
174
     0
 93
        5
 44
0.0
173
     0
291
     0
 45
0.0
1001
ACAD
1000
AcDbSavedByObjectVersion
1070
     0
  0
VISUALSTYLE
  5
32B6
102
{ACAD_XDICTIONARY
360
3321
102
}
102
{ACAD_REACTORS
330
32A2
102
}
330
32A2
100
AcDbVisualStyle
  2
Shaded with edges
 70
    26
 71
     2
 72
     2
 73
     1
 90
        2
 40
-0.6
 41
30.0
 62
     5
 63
     7
 74
     1
 91
       10
 64
     7
 65
   257
 75
     2
175
     1
 42
1.0
 92
        8
 66
   257
 43
1.0
 76
     1
 77
     6
 78
     2
 67
     7
 79
     3
170
     0
171
     0
290
     0
174
     0
 93
        5
 44
0.0
173
     0
291
     0
 45
0.0
1001
ACAD
1000
AcDbSavedByObjectVersion
1070
     0
  0
VISUALSTYLE
  5
32B3
102
{ACAD_XDICTIONARY
360
331B
102
}
102
{ACAD_REACTORS
330
32A2
102
}
330
32A2
100
AcDbVisualStyle
  2
Shades of Gray
 70
    23
 71
     2
 72
     2
 73
     3
 90
        0
 40
-0.6
 41
-30.0
 62
     5
 63
     7
 74
     2
 91
        2
 64
     7
 65
     7
 75
     1
175
     1
 42
40.0
 92
        8
 66
     7
 43
1.0
 76
     1
 77
     6
 78
     2
 67
     7
 79
     3
170
     0
171
     0
290
     0
174
     0
 93
        1
 44
0.0
173
     0
291
     0
 45
0.0
1001
ACAD
1000
AcDbSavedByObjectVersion
1070
     0
  0
VISUALSTYLE
  5
32B4
102
{ACAD_XDICTIONARY
360
331D
102
}
102
{ACAD_REACTORS
330
32A2
102
}
330
32A2
100
AcDbVisualStyle
  2
Sketchy
 70
    24
 71
     1
 72
     2
 73
     2
 90
        0
 40
-0.6
 41
-30.0
 62
     5
 63
     7
 74
     2
 91
        2
 64
     7
 65
     7
 75
     1
175
     1
 42
40.0
 92
       11
 66
     7
 43
1.0
 76
     1
 77
     6
 78
     2
 67
     7
 79
     6
170
     0
171
     0
290
     0
174
     0
 93
        1
 44
0.0
173
     0
291
     0
 45
0.0
1001
ACAD
1000
AcDbSavedByObjectVersion
1070
     0
  0
VISUALSTYLE
  5
32AF
102
{ACAD_XDICTIONARY
360
3313
102
}
102
{ACAD_REACTORS
330
32A2
102
}
330
32A2
100
AcDbVisualStyle
  2
Thicken
 70
    13
 71
     2
 72
     2
 73
     0
 90
        0
 40
-0.6
 41
-30.0
 62
     5
 63
     7
 74
     1
 91
        4
 64
     7
 65
   257
 75
     1
175
     1
 42
1.0
 92
       12
 66
     7
 43
1.0
 76
     1
 77
     6
 78
     2
 67
     7
 79
     5
170
     0
171
     0
290
     0
174
     0
 93
        1
 44
0.0
173
     0
291
     1
 45
0.0
1001
ACAD
1000
AcDbSavedByObjectVersion
1070
     0
  0
VISUALSTYLE
  5
32A9
102
{ACAD_XDICTIONARY
360
3307
102
}
102
{ACAD_REACTORS
330
32A2
102
}
330
32A2
100
AcDbVisualStyle
  2
Wireframe
 70
     5
 71
     0
 72
     2
 73
     0
 90
        0
 40
-0.6
 41
-30.0
 62
     5
 63
     7
 74
     1
 91
        4
 64
     7
 65
   257
 75
     1
175
     1
 42
1.0
 92
        0
 66
   257
 43
1.0
 76
     1
 77
     6
 78
     2
 67
     7
 79
     3
170
     0
171
     0
290
     0
174
     0
 93
        1
 44
0.0
173
     0
291
     0
 45
0.0
1001
ACAD
1000
AcDbSavedByObjectVersion
1070
     0
  0
VISUALSTYLE
  5
32B5
102
{ACAD_XDICTIONARY
360
331F
102
}
102
{ACAD_REACTORS
330
32A2
102
}
330
32A2
100
AcDbVisualStyle
  2
X-Ray
 70
    25
 71
     2
 72
     2
 73
     1
 90
        1
 40
0.5
 41
-30.0
 62
     5
 63
     7
 74
     1
 91
        0
 64
     7
 65
   257
 75
     1
175
     1
 42
1.0
 92
        8
 66
     7
 43
1.0
 76
     1
 77
     6
 78
     2
 67
     7
 79
     3
170
     0
171
     0
290
     0
174
     0
 93
       13
 44
0.0
173
     0
291
     0
 45
0.0
1001
ACAD
1000
AcDbSavedByObjectVersion
1070
     0
  0
DICTIONARYVAR
  5
32EE
102
{ACAD_REACTORS
330
32E9
102
}
330
32E9
100
DictionaryVariables
280
     0
  1
1:1
  0
DICTIONARYVAR
  5
32EB
102
{ACAD_REACTORS
330
32E9
102
}
330
32E9
100
DictionaryVariables
280
     0
  1
STANDARD
  0
DICTIONARYVAR
  5
32EA
102
{ACAD_REACTORS
330
32E9
102
}
330
32E9
100
DictionaryVariables
280
     0
  1
STANDARD
  0
DICTIONARYVAR
  5
32EC
102
{ACAD_REACTORS
330
32E9
102
}
330
32E9
100
DictionaryVariables
280
     0
  1
Imperial24
  0
DICTIONARYVAR
  5
32ED
102
{ACAD_REACTORS
330
32E9
102
}
330
32E9
100
DictionaryVariables
280
     0
  1
Imperial24
  0
DICTIONARYVAR
  5
32F1
102
{ACAD_REACTORS
330
32E9
102
}
330
32E9
100
DictionaryVariables
280
     0
  1
1
  0
DICTIONARYVAR
  5
32F0
102
{ACAD_REACTORS
330
32E9
102
}
330
32E9
100
DictionaryVariables
280
     0
  1
0
  0
DICTIONARYVAR
  5
32EF
102
{ACAD_REACTORS
330
32E9
102
}
330
32E9
100
DictionaryVariables
280
     0
  1
127
  0
DICTIONARYVAR
  5
32F2
102
{ACAD_REACTORS
330
32E9
102
}
330
32E9
100
DictionaryVariables
280
     0
  1
2
  0
DICTIONARY
  5
332F
330
32D5
100
AcDbDictionary
280
     1
281
     1
  3
ACAD_XREC_ROUNDTRIP
360
3330
  0
DICTIONARY
  5
3331
330
32D6
100
AcDbDictionary
280
     1
281
     1
  3
ACAD_XREC_ROUNDTRIP
360
3332
  0
DICTIONARY
  5
3333
330
32D7
100
AcDbDictionary
280
     1
281
     1
  3
ACAD_XREC_ROUNDTRIP
360
3334
  0
DICTIONARY
  5
3293
330
3292
100
AcDbDictionary
280
     1
281
     1
  3
ACAD_XREC_ROUNDTRIP
360
32F9
  3
BUMPTILE
360
3295
  3
DIFFUSETILE
360
3294
  3
OPACITYTILE
360
3298
  3
REFLECTIONTILE
360
3297
  3
REFRACTIONTILE
360
3299
  3
SPECULARTILE
360
3296
  0
DICTIONARY
  5
328B
330
328A
100
AcDbDictionary
280
     1
281
     1
  3
ACAD_XREC_ROUNDTRIP
360
32F8
  3
BUMPTILE
360
328D
  3
DIFFUSETILE
360
328C
  3
OPACITYTILE
360
3290
  3
REFLECTIONTILE
360
328F
  3
REFRACTIONTILE
360
3291
  3
SPECULARTILE
360
328E
  0
DICTIONARY
  5
329B
330
329A
100
AcDbDictionary
280
     1
281
     1
  3
ACAD_XREC_ROUNDTRIP
360
32FA
  3
BUMPTILE
360
329D
  3
DIFFUSETILE
360
329C
  3
OPACITYTILE
360
32A0
  3
REFLECTIONTILE
360
329F
  3
REFRACTIONTILE
360
32A1
  3
SPECULARTILE
360
329E
  0
DICTIONARY
  5
332D
330
32D3
100
AcDbDictionary
280
     1
281
     1
  3
ACAD_XREC_ROUNDTRIP
360
332E
  0
DICTIONARY
  5
32F4
330
32BD
100
AcDbDictionary
280
     1
281
     1
  3
ACAD_ROUNDTRIP_2008_TABLESTYLE_CELLSTYLEMAP
360
32F5
  3
ACAD_XREC_ROUNDTRIP
360
332B
  0
DICTIONARY
  5
3305
330
32A8
100
AcDbDictionary
280
     1
281
     1
  3
ACAD_XREC_ROUNDTRIP
360
3306
  0
DICTIONARY
  5
3303
330
32A7
100
AcDbDictionary
280
     1
281
     1
  3
ACAD_XREC_ROUNDTRIP
360
3304
  0
DICTIONARY
  5
3311
330
32AE
100
AcDbDictionary
280
     1
281
     1
  3
ACAD_XREC_ROUNDTRIP
360
3312
  0
DICTIONARY
  5
3319
330
32B2
100
AcDbDictionary
280
     1
281
     1
  3
ACAD_XREC_ROUNDTRIP
360
331A
  0
DICTIONARY
  5
330B
330
32AB
100
AcDbDictionary
280
     1
281
     1
  3
ACAD_XREC_ROUNDTRIP
360
330C
  0
DICTIONARY
  5
330F
330
32AD
100
AcDbDictionary
280
     1
281
     1
  3
ACAD_XREC_ROUNDTRIP
360
3310
  0
DICTIONARY
  5
3329
330
32BA
100
AcDbDictionary
280
     1
281
     1
  3
ACAD_XREC_ROUNDTRIP
360
332A
  0
DICTIONARY
  5
3317
330
32B1
100
AcDbDictionary
280
     1
281
     1
  3
ACAD_XREC_ROUNDTRIP
360
3318
  0
DICTIONARY
  5
32FB
330
32A3
100
AcDbDictionary
280
     1
281
     1
  3
ACAD_XREC_ROUNDTRIP
360
32FC
  0
DICTIONARY
  5
32FD
330
32A4
100
AcDbDictionary
280
     1
281
     1
  3
ACAD_XREC_ROUNDTRIP
360
32FE
  0
DICTIONARY
  5
32FF
330
32A5
100
AcDbDictionary
280
     1
281
     1
  3
ACAD_XREC_ROUNDTRIP
360
3300
  0
DICTIONARY
  5
3301
330
32A6
100
AcDbDictionary
280
     1
281
     1
  3
ACAD_XREC_ROUNDTRIP
360
3302
  0
DICTIONARY
  5
3309
330
32AA
100
AcDbDictionary
280
     1
281
     1
  3
ACAD_XREC_ROUNDTRIP
360
330A
  0
DICTIONARY
  5
3325
330
32B8
100
AcDbDictionary
280
     1
281
     1
  3
ACAD_XREC_ROUNDTRIP
360
3326
  0
DICTIONARY
  5
3315
330
32B0
100
AcDbDictionary
280
     1
281
     1
  3
ACAD_XREC_ROUNDTRIP
360
3316
  0
DICTIONARY
  5
3327
330
32B9
100
AcDbDictionary
280
     1
281
     1
  3
ACAD_XREC_ROUNDTRIP
360
3328
  0
DICTIONARY
  5
330D
330
32AC
100
AcDbDictionary
280
     1
281
     1
  3
ACAD_XREC_ROUNDTRIP
360
330E
  0
DICTIONARY
  5
3323
330
32B7
100
AcDbDictionary
280
     1
281
     1
  3
ACAD_XREC_ROUNDTRIP
360
3324
  0
DICTIONARY
  5
3321
330
32B6
100
AcDbDictionary
280
     1
281
     1
  3
ACAD_XREC_ROUNDTRIP
360
3322
  0
DICTIONARY
  5
331B
330
32B3
100
AcDbDictionary
280
     1
281
     1
  3
ACAD_XREC_ROUNDTRIP
360
331C
  0
DICTIONARY
  5
331D
330
32B4
100
AcDbDictionary
280
     1
281
     1
  3
ACAD_XREC_ROUNDTRIP
360
331E
  0
DICTIONARY
  5
3313
330
32AF
100
AcDbDictionary
280
     1
281
     1
  3
ACAD_XREC_ROUNDTRIP
360
3314
  0
DICTIONARY
  5
3307
330
32A9
100
AcDbDictionary
280
     1
281
     1
  3
ACAD_XREC_ROUNDTRIP
360
3308
  0
DICTIONARY
  5
331F
330
32B5
100
AcDbDictionary
280
     1
281
     1
  3
ACAD_XREC_ROUNDTRIP
360
3320
  0
XRECORD
  5
3330
102
{ACAD_REACTORS
330
332F
102
}
330
332F
100
AcDbXrecord
280
     1
102
DISPLAYNAME
  1
Imperial24
102
FLAGS
 90
        0
  0
XRECORD
  5
3332
102
{ACAD_REACTORS
330
3331
102
}
330
3331
100
AcDbXrecord
280
     1
102
SHADEPLOT
 70
     0
102
SHADEPLOTRESLEVEL
 70
     2
102
SHADEPLOTCUSTOMDPI
 70
   300
  0
XRECORD
  5
3334
102
{ACAD_REACTORS
330
3333
102
}
330
3333
100
AcDbXrecord
280
     1
102
SHADEPLOT
 70
     0
102
SHADEPLOTRESLEVEL
 70
     2
102
SHADEPLOTCUSTOMDPI
 70
   300
  0
XRECORD
  5
32F9
102
{ACAD_REACTORS
330
3293
102
}
330
3293
100
AcDbXrecord
280
     1
102
MATERIAL
148
0.0
149
0.0
149
0.0
 93
        0
 94
      127
282
     0
 72
     0
 77
     0
171
     0
175
     0
179
     0
273
     0
  0
XRECORD
  5
3295
102
{ACAD_REACTORS
330
3293
102
}
330
3293
100
AcDbXrecord
280
     1
270
     1
271
     1
  0
XRECORD
  5
3294
102
{ACAD_REACTORS
330
3293
102
}
330
3293
100
AcDbXrecord
280
     1
270
     1
271
     1
  0
XRECORD
  5
3298
102
{ACAD_REACTORS
330
3293
102
}
330
3293
100
AcDbXrecord
280
     1
270
     1
271
     1
  0
XRECORD
  5
3297
102
{ACAD_REACTORS
330
3293
102
}
330
3293
100
AcDbXrecord
280
     1
270
     1
271
     1
  0
XRECORD
  5
3299
102
{ACAD_REACTORS
330
3293
102
}
330
3293
100
AcDbXrecord
280
     1
270
     1
271
     1
  0
XRECORD
  5
3296
102
{ACAD_REACTORS
330
3293
102
}
330
3293
100
AcDbXrecord
280
     1
270
     1
271
     1
  0
XRECORD
  5
32F8
102
{ACAD_REACTORS
330
328B
102
}
330
328B
100
AcDbXrecord
280
     1
102
MATERIAL
148
0.0
149
0.0
149
0.0
 93
        0
 94
      127
282
     0
 72
     0
 77
     0
171
     0
175
     0
179
     0
273
     0
  0
XRECORD
  5
328D
102
{ACAD_REACTORS
330
328B
102
}
330
328B
100
AcDbXrecord
280
     1
270
     1
271
     1
  0
XRECORD
  5
328C
102
{ACAD_REACTORS
330
328B
102
}
330
328B
100
AcDbXrecord
280
     1
270
     1
271
     1
  0
XRECORD
  5
3290
102
{ACAD_REACTORS
330
328B
102
}
330
328B
100
AcDbXrecord
280
     1
270
     1
271
     1
  0
XRECORD
  5
328F
102
{ACAD_REACTORS
330
328B
102
}
330
328B
100
AcDbXrecord
280
     1
270
     1
271
     1
  0
XRECORD
  5
3291
102
{ACAD_REACTORS
330
328B
102
}
330
328B
100
AcDbXrecord
280
     1
270
     1
271
     1
  0
XRECORD
  5
328E
102
{ACAD_REACTORS
330
328B
102
}
330
328B
100
AcDbXrecord
280
     1
270
     1
271
     1
  0
XRECORD
  5
32FA
102
{ACAD_REACTORS
330
329B
102
}
330
329B
100
AcDbXrecord
280
     1
102
MATERIAL
148
0.0
149
0.0
149
0.0
 93
        0
 94
      127
282
     0
 72
     0
 77
     0
171
     0
175
     0
179
     0
273
     0
  0
XRECORD
  5
329D
102
{ACAD_REACTORS
330
329B
102
}
330
329B
100
AcDbXrecord
280
     1
270
     1
271
     1
  0
XRECORD
  5
329C
102
{ACAD_REACTORS
330
329B
102
}
330
329B
100
AcDbXrecord
280
     1
270
     1
271
     1
  0
XRECORD
  5
32A0
102
{ACAD_REACTORS
330
329B
102
}
330
329B
100
AcDbXrecord
280
     1
270
     1
271
     1
  0
XRECORD
  5
329F
102
{ACAD_REACTORS
330
329B
102
}
330
329B
100
AcDbXrecord
280
     1
270
     1
271
     1
  0
XRECORD
  5
32A1
102
{ACAD_REACTORS
330
329B
102
}
330
329B
100
AcDbXrecord
280
     1
270
     1
271
     1
  0
XRECORD
  5
329E
102
{ACAD_REACTORS
330
329B
102
}
330
329B
100
AcDbXrecord
280
     1
270
     1
271
     1
  0
XRECORD
  5
332E
102
{ACAD_REACTORS
330
332D
102
}
330
332D
100
AcDbXrecord
280
     1
102
DISPLAYNAME
  1
Imperial24
102
FLAGS
 90
        0
  0
CELLSTYLEMAP
  5
32F5
102
{ACAD_REACTORS
330
32F4
102
}
330
32F4
100
AcDbCellStyleMap
 90
        3
300
CELLSTYLE
  1
TABLEFORMAT_BEGIN
 90
        5
170
     1
 91
        0
 92
    32768
 62
   257
 93
        1
300
CONTENTFORMAT
  1
CONTENTFORMAT_BEGIN
 90
        0
 91
        0
 92
      512
 93
        0
300

 40
0.0
140
1.0
 94
        5
 62
     0
340
F
144
0.25
309
CONTENTFORMAT_END
171
     0
 94
        0
309
TABLEFORMAT_END
  1
CELLSTYLE_BEGIN
 90
        1
 91
        1
300
_TITLE
309
CELLSTYLE_END
300
CELLSTYLE
  1
TABLEFORMAT_BEGIN
 90
        5
170
     1
 91
        0
 92
        0
 62
   257
 93
        1
300
CONTENTFORMAT
  1
CONTENTFORMAT_BEGIN
 90
        0
 91
        0
 92
      512
 93
        0
300

 40
0.0
140
1.0
 94
        5
 62
     0
340
F
144
0.18
309
CONTENTFORMAT_END
171
     0
 94
        0
309
TABLEFORMAT_END
  1
CELLSTYLE_BEGIN
 90
        2
 91
        1
300
_HEADER
309
CELLSTYLE_END
300
CELLSTYLE
  1
TABLEFORMAT_BEGIN
 90
        5
170
     1
 91
        0
 92
        0
 62
   257
 93
        1
300
CONTENTFORMAT
  1
CONTENTFORMAT_BEGIN
 90
        0
 91
        0
 92
      512
 93
        0
300

 40
0.0
140
1.0
 94
        2
 62
     0
340
F
144
0.18
309
CONTENTFORMAT_END
171
     0
 94
        0
309
TABLEFORMAT_END
  1
CELLSTYLE_BEGIN
 90
        3
 91
        2
300
_DATA
309
CELLSTYLE_END
  0
XRECORD
  5
332B
102
{ACAD_REACTORS
330
32F4
102
}
330
32F4
100
AcDbXrecord
280
     1
102
ACAD_ROUNDTRIP_PRE2007_TABLESTYLE
 90
      512
 91
        0
  1

 92
      512
 93
        0
  2

 94
      512
 95
        0
  3

  0
XRECORD
  5
3306
102
{ACAD_REACTORS
330
3305
102
}
330
3305
100
AcDbXrecord
280
     1
102
RTVSPost2010Prop28
280
     1
102
RTVSPost2010PropOp28
 70
     1
102
RTVSPost2010Prop29
280
     1
102
RTVSPost2010PropOp29
 70
     1
102
RTVSPost2010Prop30
280
     0
102
RTVSPost2010PropOp30
 70
     1
102
RTVSPost2010Prop31
280
     0
102
RTVSPost2010PropOp31
 70
     1
102
RTVSPost2010Prop32
280
     0
102
RTVSPost2010PropOp32
 70
     1
102
RTVSPost2010Prop33
280
     0
102
RTVSPost2010PropOp33
 70
     1
102
RTVSPost2010Prop34
280
     0
102
RTVSPost2010PropOp34
 70
     1
102
RTVSPost2010Prop35
280
     0
102
RTVSPost2010PropOp35
 70
     1
102
RTVSPost2010Prop36
280
     0
102
RTVSPost2010PropOp36
 70
     1
102
RTVSPost2010Prop37
 90
       50
102
RTVSPost2010PropOp37
 70
     1
102
RTVSPost2010Prop38
140
0.0
102
RTVSPost2010PropOp38
 70
     1
102
RTVSPost2010Prop39
140
1.0
102
RTVSPost2010PropOp39
 70
     1
102
RTVSPost2010Prop40
 90
        0
102
RTVSPost2010PropOp40
 70
     1
102
RTVSPost2010Prop41ColorIndex
 90
       18
102
RTVSPost2010Prop41ColorRGB
 90
        0
102
RTVSPost2010PropOp41
 70
     1
102
RTVSPost2010Prop42
 90
       50
102
RTVSPost2010PropOp42
 70
     1
102
RTVSPost2010Prop43
 90
        3
102
RTVSPost2010PropOp43
 70
     1
102
RTVSPost2010Prop44ColorIndex
 90
        5
102
RTVSPost2010Prop44ColorRGB
 90
      255
102
RTVSPost2010PropOp44
 70
     1
102
RTVSPost2010Prop45
280
     0
102
RTVSPost2010PropOp45
 70
     1
102
RTVSPost2010Prop46
 90
       50
102
RTVSPost2010PropOp46
 70
     1
102
RTVSPost2010Prop47
 90
       50
102
RTVSPost2010PropOp47
 70
     1
102
RTVSPost2010Prop48
 90
       50
102
RTVSPost2010PropOp48
 70
     1
102
RTVSPost2010Prop49
280
     0
102
RTVSPost2010PropOp49
 70
     1
102
RTVSPost2010Prop50
 90
       50
102
RTVSPost2010PropOp50
 70
     1
102
RTVSPost2010Prop51ColorIndex
 90
      256
102
RTVSPost2010Prop51ColorRGB
 90
-16777216
102
RTVSPost2010PropOp51
 70
     0
102
RTVSPost2010Prop52
140
1.0
102
RTVSPost2010PropOp52
 70
     0
102
RTVSPost2010Prop53
 90
        2
102
RTVSPost2010PropOp53
 70
     1
102
RTVSPost2010Prop54
  1
strokes_ogs.tif
102
RTVSPost2010PropOp54
 70
     1
102
RTVSPost2010Prop55
280
     0
102
RTVSPost2010PropOp55
 70
     1
102
RTVSPost2010Prop56
140
1.0
102
RTVSPost2010PropOp56
 70
     1
102
RTVSPost2010Prop57
140
1.0
102
RTVSPost2010PropOp57
 70
     1
102
RTVSPropertyOp0
 70
     1
102
RTVSPropertyOp1
 70
     1
102
RTVSPropertyOp2
 70
     1
102
RTVSPropertyOp3
 70
     1
102
RTVSPropertyOp4
 70
     1
102
RTVSPropertyOp5
 70
     1
102
RTVSPropertyOp6
 70
     1
102
RTVSPropertyOp7
 70
     1
102
RTVSPropertyOp8
 70
     1
102
RTVSPropertyOp9
 70
     1
102
RTVSPropertyOp10
 70
     1
102
RTVSPropertyOp11
 70
     1
102
RTVSPropertyOp12
 70
     1
102
RTVSPropertyOp13
 70
     1
102
RTVSPropertyOp14
 70
     1
102
RTVSPropertyOp15
 70
     1
102
RTVSPropertyOp16
 70
     1
102
RTVSPropertyOp17
 70
     1
102
RTVSPropertyOp18
 70
     1
102
RTVSPropertyOp19
 70
     1
102
RTVSPropertyOp20
 70
     1
102
RTVSPropertyOp21
 70
     1
102
RTVSPropertyOp22
 70
     1
102
RTVSPropertyOp23
 70
     1
102
RTVSPropertyOp24
 70
     1
102
RTVSPropertyOp25
 70
     1
102
RTVSPropertyOp26
 70
     1
102
RTVSPropertyOp27
 70
     1
102
RTVSPropertyOp28
 70
     1
102
RTVSPropertyOp29
 70
     1
102
RTVSPropertyOp30
 70
     1
102
RTVSPropertyOp31
 70
     1
102
RTVSPropertyOp32
 70
     1
102
RTVSPropertyOp33
 70
     1
102
RTVSPropertyOp34
 70
     1
102
RTVSPropertyOp35
 70
     1
102
RTVSPropertyOp36
 70
     1
102
RTVSPropertyOp37
 70
     1
102
RTVSPropertyOp38
 70
     1
102
RTVSPropertyOp39
 70
     1
102
RTVSPropertyOp40
 70
     1
102
RTVSPropertyOp41
 70
     1
102
RTVSPropertyOp42
 70
     1
102
RTVSPropertyOp43
 70
     1
102
RTVSPropertyOp44
 70
     1
102
RTVSPropertyOp45
 70
     1
102
RTVSPropertyOp46
 70
     1
102
RTVSPropertyOp47
 70
     1
102
RTVSPropertyOp48
 70
     1
102
RTVSPropertyOp49
 70
     1
102
RTVSPropertyOp50
 70
     1
102
RTVSPropertyOp51
 70
     0
102
RTVSPropertyOp52
 70
     0
102
RTVSPropertyOp53
 70
     1
102
RTVSPropertyOp54
 70
     1
102
RTVSPropertyOp55
 70
     1
102
RTVSPropertyOp56
 70
     1
102
RTVSPropertyOp57
 70
     1
102
RTVSPropertyOp58
 70
     1
102
RTVSPropertyOp59
 70
     1
102
RTVSPropertyOp60
 70
     1
102
RTVSPropertyOp61
 70
     1
102
RTVSPropertyOp62
 70
     1
  0
XRECORD
  5
3304
102
{ACAD_REACTORS
330
3303
102
}
330
3303
100
AcDbXrecord
280
     1
102
RTVSPost2010Prop28
280
     0
102
RTVSPost2010PropOp28
 70
     1
102
RTVSPost2010Prop29
280
     1
102
RTVSPost2010PropOp29
 70
     1
102
RTVSPost2010Prop30
280
     1
102
RTVSPost2010PropOp30
 70
     1
102
RTVSPost2010Prop31
280
     0
102
RTVSPost2010PropOp31
 70
     1
102
RTVSPost2010Prop32
280
     0
102
RTVSPost2010PropOp32
 70
     1
102
RTVSPost2010Prop33
280
     0
102
RTVSPost2010PropOp33
 70
     1
102
RTVSPost2010Prop34
280
     0
102
RTVSPost2010PropOp34
 70
     1
102
RTVSPost2010Prop35
280
     0
102
RTVSPost2010PropOp35
 70
     1
102
RTVSPost2010Prop36
280
     0
102
RTVSPost2010PropOp36
 70
     1
102
RTVSPost2010Prop37
 90
       50
102
RTVSPost2010PropOp37
 70
     1
102
RTVSPost2010Prop38
140
0.0
102
RTVSPost2010PropOp38
 70
     1
102
RTVSPost2010Prop39
140
1.0
102
RTVSPost2010PropOp39
 70
     1
102
RTVSPost2010Prop40
 90
        0
102
RTVSPost2010PropOp40
 70
     1
102
RTVSPost2010Prop41ColorIndex
 90
       18
102
RTVSPost2010Prop41ColorRGB
 90
        0
102
RTVSPost2010PropOp41
 70
     1
102
RTVSPost2010Prop42
 90
       50
102
RTVSPost2010PropOp42
 70
     1
102
RTVSPost2010Prop43
 90
        3
102
RTVSPost2010PropOp43
 70
     1
102
RTVSPost2010Prop44ColorIndex
 90
        5
102
RTVSPost2010Prop44ColorRGB
 90
      255
102
RTVSPost2010PropOp44
 70
     1
102
RTVSPost2010Prop45
280
     0
102
RTVSPost2010PropOp45
 70
     1
102
RTVSPost2010Prop46
 90
       50
102
RTVSPost2010PropOp46
 70
     1
102
RTVSPost2010Prop47
 90
       50
102
RTVSPost2010PropOp47
 70
     1
102
RTVSPost2010Prop48
 90
       50
102
RTVSPost2010PropOp48
 70
     1
102
RTVSPost2010Prop49
280
     0
102
RTVSPost2010PropOp49
 70
     1
102
RTVSPost2010Prop50
 90
       50
102
RTVSPost2010PropOp50
 70
     1
102
RTVSPost2010Prop51ColorIndex
 90
      256
102
RTVSPost2010Prop51ColorRGB
 90
-16777216
102
RTVSPost2010PropOp51
 70
     0
102
RTVSPost2010Prop52
140
1.0
102
RTVSPost2010PropOp52
 70
     0
102
RTVSPost2010Prop53
 90
        2
102
RTVSPost2010PropOp53
 70
     1
102
RTVSPost2010Prop54
  1
strokes_ogs.tif
102
RTVSPost2010PropOp54
 70
     1
102
RTVSPost2010Prop55
280
     0
102
RTVSPost2010PropOp55
 70
     1
102
RTVSPost2010Prop56
140
1.0
102
RTVSPost2010PropOp56
 70
     1
102
RTVSPost2010Prop57
140
1.0
102
RTVSPost2010PropOp57
 70
     1
102
RTVSPropertyOp0
 70
     1
102
RTVSPropertyOp1
 70
     1
102
RTVSPropertyOp2
 70
     1
102
RTVSPropertyOp3
 70
     1
102
RTVSPropertyOp4
 70
     1
102
RTVSPropertyOp5
 70
     1
102
RTVSPropertyOp6
 70
     1
102
RTVSPropertyOp7
 70
     1
102
RTVSPropertyOp8
 70
     1
102
RTVSPropertyOp9
 70
     1
102
RTVSPropertyOp10
 70
     1
102
RTVSPropertyOp11
 70
     1
102
RTVSPropertyOp12
 70
     1
102
RTVSPropertyOp13
 70
     1
102
RTVSPropertyOp14
 70
     1
102
RTVSPropertyOp15
 70
     1
102
RTVSPropertyOp16
 70
     1
102
RTVSPropertyOp17
 70
     1
102
RTVSPropertyOp18
 70
     1
102
RTVSPropertyOp19
 70
     1
102
RTVSPropertyOp20
 70
     1
102
RTVSPropertyOp21
 70
     1
102
RTVSPropertyOp22
 70
     1
102
RTVSPropertyOp23
 70
     1
102
RTVSPropertyOp24
 70
     1
102
RTVSPropertyOp25
 70
     1
102
RTVSPropertyOp26
 70
     1
102
RTVSPropertyOp27
 70
     1
102
RTVSPropertyOp28
 70
     1
102
RTVSPropertyOp29
 70
     1
102
RTVSPropertyOp30
 70
     1
102
RTVSPropertyOp31
 70
     1
102
RTVSPropertyOp32
 70
     1
102
RTVSPropertyOp33
 70
     1
102
RTVSPropertyOp34
 70
     1
102
RTVSPropertyOp35
 70
     1
102
RTVSPropertyOp36
 70
     1
102
RTVSPropertyOp37
 70
     1
102
RTVSPropertyOp38
 70
     1
102
RTVSPropertyOp39
 70
     1
102
RTVSPropertyOp40
 70
     1
102
RTVSPropertyOp41
 70
     1
102
RTVSPropertyOp42
 70
     1
102
RTVSPropertyOp43
 70
     1
102
RTVSPropertyOp44
 70
     1
102
RTVSPropertyOp45
 70
     1
102
RTVSPropertyOp46
 70
     1
102
RTVSPropertyOp47
 70
     1
102
RTVSPropertyOp48
 70
     1
102
RTVSPropertyOp49
 70
     1
102
RTVSPropertyOp50
 70
     1
102
RTVSPropertyOp51
 70
     0
102
RTVSPropertyOp52
 70
     0
102
RTVSPropertyOp53
 70
     1
102
RTVSPropertyOp54
 70
     1
102
RTVSPropertyOp55
 70
     1
102
RTVSPropertyOp56
 70
     1
102
RTVSPropertyOp57
 70
     1
102
RTVSPropertyOp58
 70
     1
102
RTVSPropertyOp59
 70
     1
102
RTVSPropertyOp60
 70
     1
102
RTVSPropertyOp61
 70
     1
102
RTVSPropertyOp62
 70
     1
  0
XRECORD
  5
3312
102
{ACAD_REACTORS
330
3311
102
}
330
3311
100
AcDbXrecord
280
     1
102
RTVSPost2010Prop28
280
     0
102
RTVSPost2010PropOp28
 70
     1
102
RTVSPost2010Prop29
280
     1
102
RTVSPost2010PropOp29
 70
     1
102
RTVSPost2010Prop30
280
     1
102
RTVSPost2010PropOp30
 70
     1
102
RTVSPost2010Prop31
280
     0
102
RTVSPost2010PropOp31
 70
     1
102
RTVSPost2010Prop32
280
     0
102
RTVSPost2010PropOp32
 70
     1
102
RTVSPost2010Prop33
280
     0
102
RTVSPost2010PropOp33
 70
     1
102
RTVSPost2010Prop34
280
     0
102
RTVSPost2010PropOp34
 70
     1
102
RTVSPost2010Prop35
280
     0
102
RTVSPost2010PropOp35
 70
     1
102
RTVSPost2010Prop36
280
     0
102
RTVSPost2010PropOp36
 70
     1
102
RTVSPost2010Prop37
 90
       50
102
RTVSPost2010PropOp37
 70
     1
102
RTVSPost2010Prop38
140
0.0
102
RTVSPost2010PropOp38
 70
     1
102
RTVSPost2010Prop39
140
1.0
102
RTVSPost2010PropOp39
 70
     1
102
RTVSPost2010Prop40
 90
        0
102
RTVSPost2010PropOp40
 70
     1
102
RTVSPost2010Prop41ColorIndex
 90
       18
102
RTVSPost2010Prop41ColorRGB
 90
        0
102
RTVSPost2010PropOp41
 70
     1
102
RTVSPost2010Prop42
 90
       50
102
RTVSPost2010PropOp42
 70
     1
102
RTVSPost2010Prop43
 90
        3
102
RTVSPost2010PropOp43
 70
     1
102
RTVSPost2010Prop44ColorIndex
 90
        5
102
RTVSPost2010Prop44ColorRGB
 90
      255
102
RTVSPost2010PropOp44
 70
     1
102
RTVSPost2010Prop45
280
     0
102
RTVSPost2010PropOp45
 70
     1
102
RTVSPost2010Prop46
 90
       50
102
RTVSPost2010PropOp46
 70
     1
102
RTVSPost2010Prop47
 90
       50
102
RTVSPost2010PropOp47
 70
     1
102
RTVSPost2010Prop48
 90
       50
102
RTVSPost2010PropOp48
 70
     1
102
RTVSPost2010Prop49
280
     0
102
RTVSPost2010PropOp49
 70
     1
102
RTVSPost2010Prop50
 90
       50
102
RTVSPost2010PropOp50
 70
     1
102
RTVSPost2010Prop51ColorIndex
 90
      256
102
RTVSPost2010Prop51ColorRGB
 90
-16777216
102
RTVSPost2010PropOp51
 70
     0
102
RTVSPost2010Prop52
140
1.0
102
RTVSPost2010PropOp52
 70
     0
102
RTVSPost2010Prop53
 90
        2
102
RTVSPost2010PropOp53
 70
     1
102
RTVSPost2010Prop54
  1
strokes_ogs.tif
102
RTVSPost2010PropOp54
 70
     1
102
RTVSPost2010Prop55
280
     0
102
RTVSPost2010PropOp55
 70
     1
102
RTVSPost2010Prop56
140
1.0
102
RTVSPost2010PropOp56
 70
     1
102
RTVSPost2010Prop57
140
1.0
102
RTVSPost2010PropOp57
 70
     1
102
RTVSPropertyOp0
 70
     1
102
RTVSPropertyOp1
 70
     1
102
RTVSPropertyOp2
 70
     1
102
RTVSPropertyOp3
 70
     1
102
RTVSPropertyOp4
 70
     1
102
RTVSPropertyOp5
 70
     1
102
RTVSPropertyOp6
 70
     1
102
RTVSPropertyOp7
 70
     1
102
RTVSPropertyOp8
 70
     1
102
RTVSPropertyOp9
 70
     1
102
RTVSPropertyOp10
 70
     1
102
RTVSPropertyOp11
 70
     1
102
RTVSPropertyOp12
 70
     1
102
RTVSPropertyOp13
 70
     1
102
RTVSPropertyOp14
 70
     1
102
RTVSPropertyOp15
 70
     1
102
RTVSPropertyOp16
 70
     1
102
RTVSPropertyOp17
 70
     1
102
RTVSPropertyOp18
 70
     1
102
RTVSPropertyOp19
 70
     1
102
RTVSPropertyOp20
 70
     1
102
RTVSPropertyOp21
 70
     1
102
RTVSPropertyOp22
 70
     1
102
RTVSPropertyOp23
 70
     1
102
RTVSPropertyOp24
 70
     1
102
RTVSPropertyOp25
 70
     1
102
RTVSPropertyOp26
 70
     1
102
RTVSPropertyOp27
 70
     1
102
RTVSPropertyOp28
 70
     1
102
RTVSPropertyOp29
 70
     1
102
RTVSPropertyOp30
 70
     1
102
RTVSPropertyOp31
 70
     1
102
RTVSPropertyOp32
 70
     1
102
RTVSPropertyOp33
 70
     1
102
RTVSPropertyOp34
 70
     1
102
RTVSPropertyOp35
 70
     1
102
RTVSPropertyOp36
 70
     1
102
RTVSPropertyOp37
 70
     1
102
RTVSPropertyOp38
 70
     1
102
RTVSPropertyOp39
 70
     1
102
RTVSPropertyOp40
 70
     1
102
RTVSPropertyOp41
 70
     1
102
RTVSPropertyOp42
 70
     1
102
RTVSPropertyOp43
 70
     1
102
RTVSPropertyOp44
 70
     1
102
RTVSPropertyOp45
 70
     1
102
RTVSPropertyOp46
 70
     1
102
RTVSPropertyOp47
 70
     1
102
RTVSPropertyOp48
 70
     1
102
RTVSPropertyOp49
 70
     1
102
RTVSPropertyOp50
 70
     1
102
RTVSPropertyOp51
 70
     0
102
RTVSPropertyOp52
 70
     0
102
RTVSPropertyOp53
 70
     1
102
RTVSPropertyOp54
 70
     1
102
RTVSPropertyOp55
 70
     1
102
RTVSPropertyOp56
 70
     1
102
RTVSPropertyOp57
 70
     1
102
RTVSPropertyOp58
 70
     1
102
RTVSPropertyOp59
 70
     1
102
RTVSPropertyOp60
 70
     1
102
RTVSPropertyOp61
 70
     1
102
RTVSPropertyOp62
 70
     1
  0
XRECORD
  5
331A
102
{ACAD_REACTORS
330
3319
102
}
330
3319
100
AcDbXrecord
280
     1
102
RTVSPost2010Prop28
280
     0
102
RTVSPost2010PropOp28
 70
     1
102
RTVSPost2010Prop29
280
     1
102
RTVSPost2010PropOp29
 70
     1
102
RTVSPost2010Prop30
280
     1
102
RTVSPost2010PropOp30
 70
     1
102
RTVSPost2010Prop31
280
     0
102
RTVSPost2010PropOp31
 70
     1
102
RTVSPost2010Prop32
280
     0
102
RTVSPost2010PropOp32
 70
     1
102
RTVSPost2010Prop33
280
     0
102
RTVSPost2010PropOp33
 70
     1
102
RTVSPost2010Prop34
280
     0
102
RTVSPost2010PropOp34
 70
     1
102
RTVSPost2010Prop35
280
     0
102
RTVSPost2010PropOp35
 70
     1
102
RTVSPost2010Prop36
280
     0
102
RTVSPost2010PropOp36
 70
     1
102
RTVSPost2010Prop37
 90
       50
102
RTVSPost2010PropOp37
 70
     1
102
RTVSPost2010Prop38
140
0.0
102
RTVSPost2010PropOp38
 70
     1
102
RTVSPost2010Prop39
140
1.0
102
RTVSPost2010PropOp39
 70
     1
102
RTVSPost2010Prop40
 90
        0
102
RTVSPost2010PropOp40
 70
     1
102
RTVSPost2010Prop41ColorIndex
 90
       18
102
RTVSPost2010Prop41ColorRGB
 90
        0
102
RTVSPost2010PropOp41
 70
     1
102
RTVSPost2010Prop42
 90
       50
102
RTVSPost2010PropOp42
 70
     1
102
RTVSPost2010Prop43
 90
        3
102
RTVSPost2010PropOp43
 70
     1
102
RTVSPost2010Prop44ColorIndex
 90
        5
102
RTVSPost2010Prop44ColorRGB
 90
      255
102
RTVSPost2010PropOp44
 70
     1
102
RTVSPost2010Prop45
280
     0
102
RTVSPost2010PropOp45
 70
     1
102
RTVSPost2010Prop46
 90
       50
102
RTVSPost2010PropOp46
 70
     1
102
RTVSPost2010Prop47
 90
       50
102
RTVSPost2010PropOp47
 70
     1
102
RTVSPost2010Prop48
 90
       50
102
RTVSPost2010PropOp48
 70
     1
102
RTVSPost2010Prop49
280
     0
102
RTVSPost2010PropOp49
 70
     1
102
RTVSPost2010Prop50
 90
       50
102
RTVSPost2010PropOp50
 70
     1
102
RTVSPost2010Prop51ColorIndex
 90
      256
102
RTVSPost2010Prop51ColorRGB
 90
-16777216
102
RTVSPost2010PropOp51
 70
     0
102
RTVSPost2010Prop52
140
1.0
102
RTVSPost2010PropOp52
 70
     0
102
RTVSPost2010Prop53
 90
        2
102
RTVSPost2010PropOp53
 70
     1
102
RTVSPost2010Prop54
  1
strokes_ogs.tif
102
RTVSPost2010PropOp54
 70
     1
102
RTVSPost2010Prop55
280
     0
102
RTVSPost2010PropOp55
 70
     1
102
RTVSPost2010Prop56
140
1.0
102
RTVSPost2010PropOp56
 70
     1
102
RTVSPost2010Prop57
140
1.0
102
RTVSPost2010PropOp57
 70
     1
102
RTVSPropertyOp0
 70
     1
102
RTVSPropertyOp1
 70
     1
102
RTVSPropertyOp2
 70
     1
102
RTVSPropertyOp3
 70
     1
102
RTVSPropertyOp4
 70
     1
102
RTVSPropertyOp5
 70
     1
102
RTVSPropertyOp6
 70
     1
102
RTVSPropertyOp7
 70
     1
102
RTVSPropertyOp8
 70
     1
102
RTVSPropertyOp9
 70
     1
102
RTVSPropertyOp10
 70
     1
102
RTVSPropertyOp11
 70
     1
102
RTVSPropertyOp12
 70
     1
102
RTVSPropertyOp13
 70
     1
102
RTVSPropertyOp14
 70
     1
102
RTVSPropertyOp15
 70
     1
102
RTVSPropertyOp16
 70
     1
102
RTVSPropertyOp17
 70
     1
102
RTVSPropertyOp18
 70
     1
102
RTVSPropertyOp19
 70
     1
102
RTVSPropertyOp20
 70
     1
102
RTVSPropertyOp21
 70
     1
102
RTVSPropertyOp22
 70
     1
102
RTVSPropertyOp23
 70
     1
102
RTVSPropertyOp24
 70
     1
102
RTVSPropertyOp25
 70
     1
102
RTVSPropertyOp26
 70
     1
102
RTVSPropertyOp27
 70
     1
102
RTVSPropertyOp28
 70
     1
102
RTVSPropertyOp29
 70
     1
102
RTVSPropertyOp30
 70
     1
102
RTVSPropertyOp31
 70
     1
102
RTVSPropertyOp32
 70
     1
102
RTVSPropertyOp33
 70
     1
102
RTVSPropertyOp34
 70
     1
102
RTVSPropertyOp35
 70
     1
102
RTVSPropertyOp36
 70
     1
102
RTVSPropertyOp37
 70
     1
102
RTVSPropertyOp38
 70
     1
102
RTVSPropertyOp39
 70
     1
102
RTVSPropertyOp40
 70
     1
102
RTVSPropertyOp41
 70
     1
102
RTVSPropertyOp42
 70
     1
102
RTVSPropertyOp43
 70
     1
102
RTVSPropertyOp44
 70
     1
102
RTVSPropertyOp45
 70
     1
102
RTVSPropertyOp46
 70
     1
102
RTVSPropertyOp47
 70
     1
102
RTVSPropertyOp48
 70
     1
102
RTVSPropertyOp49
 70
     1
102
RTVSPropertyOp50
 70
     1
102
RTVSPropertyOp51
 70
     0
102
RTVSPropertyOp52
 70
     0
102
RTVSPropertyOp53
 70
     1
102
RTVSPropertyOp54
 70
     1
102
RTVSPropertyOp55
 70
     1
102
RTVSPropertyOp56
 70
     1
102
RTVSPropertyOp57
 70
     1
102
RTVSPropertyOp58
 70
     1
102
RTVSPropertyOp59
 70
     1
102
RTVSPropertyOp60
 70
     1
102
RTVSPropertyOp61
 70
     1
102
RTVSPropertyOp62
 70
     1
  0
XRECORD
  5
330C
102
{ACAD_REACTORS
330
330B
102
}
330
330B
100
AcDbXrecord
280
     1
102
RTVSPost2010Prop28
280
     0
102
RTVSPost2010PropOp28
 70
     1
102
RTVSPost2010Prop29
280
     1
102
RTVSPost2010PropOp29
 70
     1
102
RTVSPost2010Prop30
280
     1
102
RTVSPost2010PropOp30
 70
     1
102
RTVSPost2010Prop31
280
     0
102
RTVSPost2010PropOp31
 70
     1
102
RTVSPost2010Prop32
280
     0
102
RTVSPost2010PropOp32
 70
     1
102
RTVSPost2010Prop33
280
     0
102
RTVSPost2010PropOp33
 70
     1
102
RTVSPost2010Prop34
280
     0
102
RTVSPost2010PropOp34
 70
     1
102
RTVSPost2010Prop35
280
     0
102
RTVSPost2010PropOp35
 70
     1
102
RTVSPost2010Prop36
280
     0
102
RTVSPost2010PropOp36
 70
     1
102
RTVSPost2010Prop37
 90
       50
102
RTVSPost2010PropOp37
 70
     1
102
RTVSPost2010Prop38
140
0.0
102
RTVSPost2010PropOp38
 70
     1
102
RTVSPost2010Prop39
140
1.0
102
RTVSPost2010PropOp39
 70
     1
102
RTVSPost2010Prop40
 90
        0
102
RTVSPost2010PropOp40
 70
     1
102
RTVSPost2010Prop41ColorIndex
 90
       18
102
RTVSPost2010Prop41ColorRGB
 90
        0
102
RTVSPost2010PropOp41
 70
     1
102
RTVSPost2010Prop42
 90
       50
102
RTVSPost2010PropOp42
 70
     1
102
RTVSPost2010Prop43
 90
        3
102
RTVSPost2010PropOp43
 70
     1
102
RTVSPost2010Prop44ColorIndex
 90
        5
102
RTVSPost2010Prop44ColorRGB
 90
      255
102
RTVSPost2010PropOp44
 70
     1
102
RTVSPost2010Prop45
280
     0
102
RTVSPost2010PropOp45
 70
     1
102
RTVSPost2010Prop46
 90
       50
102
RTVSPost2010PropOp46
 70
     1
102
RTVSPost2010Prop47
 90
       50
102
RTVSPost2010PropOp47
 70
     1
102
RTVSPost2010Prop48
 90
       50
102
RTVSPost2010PropOp48
 70
     1
102
RTVSPost2010Prop49
280
     0
102
RTVSPost2010PropOp49
 70
     1
102
RTVSPost2010Prop50
 90
       50
102
RTVSPost2010PropOp50
 70
     1
102
RTVSPost2010Prop51ColorIndex
 90
      256
102
RTVSPost2010Prop51ColorRGB
 90
-16777216
102
RTVSPost2010PropOp51
 70
     0
102
RTVSPost2010Prop52
140
1.0
102
RTVSPost2010PropOp52
 70
     0
102
RTVSPost2010Prop53
 90
        2
102
RTVSPost2010PropOp53
 70
     1
102
RTVSPost2010Prop54
  1
strokes_ogs.tif
102
RTVSPost2010PropOp54
 70
     1
102
RTVSPost2010Prop55
280
     0
102
RTVSPost2010PropOp55
 70
     1
102
RTVSPost2010Prop56
140
1.0
102
RTVSPost2010PropOp56
 70
     1
102
RTVSPost2010Prop57
140
1.0
102
RTVSPost2010PropOp57
 70
     1
102
RTVSPropertyOp0
 70
     1
102
RTVSPropertyOp1
 70
     1
102
RTVSPropertyOp2
 70
     1
102
RTVSPropertyOp3
 70
     1
102
RTVSPropertyOp4
 70
     1
102
RTVSPropertyOp5
 70
     1
102
RTVSPropertyOp6
 70
     1
102
RTVSPropertyOp7
 70
     1
102
RTVSPropertyOp8
 70
     1
102
RTVSPropertyOp9
 70
     1
102
RTVSPropertyOp10
 70
     1
102
RTVSPropertyOp11
 70
     1
102
RTVSPropertyOp12
 70
     1
102
RTVSPropertyOp13
 70
     1
102
RTVSPropertyOp14
 70
     1
102
RTVSPropertyOp15
 70
     1
102
RTVSPropertyOp16
 70
     1
102
RTVSPropertyOp17
 70
     1
102
RTVSPropertyOp18
 70
     1
102
RTVSPropertyOp19
 70
     1
102
RTVSPropertyOp20
 70
     1
102
RTVSPropertyOp21
 70
     1
102
RTVSPropertyOp22
 70
     1
102
RTVSPropertyOp23
 70
     1
102
RTVSPropertyOp24
 70
     1
102
RTVSPropertyOp25
 70
     1
102
RTVSPropertyOp26
 70
     1
102
RTVSPropertyOp27
 70
     1
102
RTVSPropertyOp28
 70
     1
102
RTVSPropertyOp29
 70
     1
102
RTVSPropertyOp30
 70
     1
102
RTVSPropertyOp31
 70
     1
102
RTVSPropertyOp32
 70
     1
102
RTVSPropertyOp33
 70
     1
102
RTVSPropertyOp34
 70
     1
102
RTVSPropertyOp35
 70
     1
102
RTVSPropertyOp36
 70
     1
102
RTVSPropertyOp37
 70
     1
102
RTVSPropertyOp38
 70
     1
102
RTVSPropertyOp39
 70
     1
102
RTVSPropertyOp40
 70
     1
102
RTVSPropertyOp41
 70
     1
102
RTVSPropertyOp42
 70
     1
102
RTVSPropertyOp43
 70
     1
102
RTVSPropertyOp44
 70
     1
102
RTVSPropertyOp45
 70
     1
102
RTVSPropertyOp46
 70
     1
102
RTVSPropertyOp47
 70
     1
102
RTVSPropertyOp48
 70
     1
102
RTVSPropertyOp49
 70
     1
102
RTVSPropertyOp50
 70
     1
102
RTVSPropertyOp51
 70
     0
102
RTVSPropertyOp52
 70
     0
102
RTVSPropertyOp53
 70
     1
102
RTVSPropertyOp54
 70
     1
102
RTVSPropertyOp55
 70
     1
102
RTVSPropertyOp56
 70
     1
102
RTVSPropertyOp57
 70
     1
102
RTVSPropertyOp58
 70
     1
102
RTVSPropertyOp59
 70
     1
102
RTVSPropertyOp60
 70
     1
102
RTVSPropertyOp61
 70
     1
102
RTVSPropertyOp62
 70
     1
  0
XRECORD
  5
3310
102
{ACAD_REACTORS
330
330F
102
}
330
330F
100
AcDbXrecord
280
     1
102
RTVSPost2010Prop28
280
     0
102
RTVSPost2010PropOp28
 70
     1
102
RTVSPost2010Prop29
280
     1
102
RTVSPost2010PropOp29
 70
     1
102
RTVSPost2010Prop30
280
     1
102
RTVSPost2010PropOp30
 70
     1
102
RTVSPost2010Prop31
280
     0
102
RTVSPost2010PropOp31
 70
     1
102
RTVSPost2010Prop32
280
     0
102
RTVSPost2010PropOp32
 70
     1
102
RTVSPost2010Prop33
280
     0
102
RTVSPost2010PropOp33
 70
     1
102
RTVSPost2010Prop34
280
     0
102
RTVSPost2010PropOp34
 70
     1
102
RTVSPost2010Prop35
280
     0
102
RTVSPost2010PropOp35
 70
     1
102
RTVSPost2010Prop36
280
     0
102
RTVSPost2010PropOp36
 70
     1
102
RTVSPost2010Prop37
 90
       50
102
RTVSPost2010PropOp37
 70
     1
102
RTVSPost2010Prop38
140
0.0
102
RTVSPost2010PropOp38
 70
     1
102
RTVSPost2010Prop39
140
1.0
102
RTVSPost2010PropOp39
 70
     1
102
RTVSPost2010Prop40
 90
        0
102
RTVSPost2010PropOp40
 70
     1
102
RTVSPost2010Prop41ColorIndex
 90
       18
102
RTVSPost2010Prop41ColorRGB
 90
        0
102
RTVSPost2010PropOp41
 70
     1
102
RTVSPost2010Prop42
 90
       50
102
RTVSPost2010PropOp42
 70
     1
102
RTVSPost2010Prop43
 90
        3
102
RTVSPost2010PropOp43
 70
     1
102
RTVSPost2010Prop44ColorIndex
 90
        5
102
RTVSPost2010Prop44ColorRGB
 90
      255
102
RTVSPost2010PropOp44
 70
     1
102
RTVSPost2010Prop45
280
     0
102
RTVSPost2010PropOp45
 70
     1
102
RTVSPost2010Prop46
 90
       50
102
RTVSPost2010PropOp46
 70
     1
102
RTVSPost2010Prop47
 90
       50
102
RTVSPost2010PropOp47
 70
     1
102
RTVSPost2010Prop48
 90
       50
102
RTVSPost2010PropOp48
 70
     1
102
RTVSPost2010Prop49
280
     0
102
RTVSPost2010PropOp49
 70
     1
102
RTVSPost2010Prop50
 90
       50
102
RTVSPost2010PropOp50
 70
     1
102
RTVSPost2010Prop51ColorIndex
 90
      256
102
RTVSPost2010Prop51ColorRGB
 90
-16777216
102
RTVSPost2010PropOp51
 70
     0
102
RTVSPost2010Prop52
140
1.0
102
RTVSPost2010PropOp52
 70
     0
102
RTVSPost2010Prop53
 90
        2
102
RTVSPost2010PropOp53
 70
     1
102
RTVSPost2010Prop54
  1
strokes_ogs.tif
102
RTVSPost2010PropOp54
 70
     1
102
RTVSPost2010Prop55
280
     0
102
RTVSPost2010PropOp55
 70
     1
102
RTVSPost2010Prop56
140
1.0
102
RTVSPost2010PropOp56
 70
     1
102
RTVSPost2010Prop57
140
1.0
102
RTVSPost2010PropOp57
 70
     1
102
RTVSPropertyOp0
 70
     1
102
RTVSPropertyOp1
 70
     1
102
RTVSPropertyOp2
 70
     1
102
RTVSPropertyOp3
 70
     1
102
RTVSPropertyOp4
 70
     1
102
RTVSPropertyOp5
 70
     1
102
RTVSPropertyOp6
 70
     1
102
RTVSPropertyOp7
 70
     1
102
RTVSPropertyOp8
 70
     1
102
RTVSPropertyOp9
 70
     1
102
RTVSPropertyOp10
 70
     1
102
RTVSPropertyOp11
 70
     1
102
RTVSPropertyOp12
 70
     1
102
RTVSPropertyOp13
 70
     1
102
RTVSPropertyOp14
 70
     1
102
RTVSPropertyOp15
 70
     1
102
RTVSPropertyOp16
 70
     1
102
RTVSPropertyOp17
 70
     1
102
RTVSPropertyOp18
 70
     1
102
RTVSPropertyOp19
 70
     1
102
RTVSPropertyOp20
 70
     1
102
RTVSPropertyOp21
 70
     1
102
RTVSPropertyOp22
 70
     1
102
RTVSPropertyOp23
 70
     1
102
RTVSPropertyOp24
 70
     1
102
RTVSPropertyOp25
 70
     1
102
RTVSPropertyOp26
 70
     1
102
RTVSPropertyOp27
 70
     1
102
RTVSPropertyOp28
 70
     1
102
RTVSPropertyOp29
 70
     1
102
RTVSPropertyOp30
 70
     1
102
RTVSPropertyOp31
 70
     1
102
RTVSPropertyOp32
 70
     1
102
RTVSPropertyOp33
 70
     1
102
RTVSPropertyOp34
 70
     1
102
RTVSPropertyOp35
 70
     1
102
RTVSPropertyOp36
 70
     1
102
RTVSPropertyOp37
 70
     1
102
RTVSPropertyOp38
 70
     1
102
RTVSPropertyOp39
 70
     1
102
RTVSPropertyOp40
 70
     1
102
RTVSPropertyOp41
 70
     1
102
RTVSPropertyOp42
 70
     1
102
RTVSPropertyOp43
 70
     1
102
RTVSPropertyOp44
 70
     1
102
RTVSPropertyOp45
 70
     1
102
RTVSPropertyOp46
 70
     1
102
RTVSPropertyOp47
 70
     1
102
RTVSPropertyOp48
 70
     1
102
RTVSPropertyOp49
 70
     1
102
RTVSPropertyOp50
 70
     1
102
RTVSPropertyOp51
 70
     0
102
RTVSPropertyOp52
 70
     0
102
RTVSPropertyOp53
 70
     1
102
RTVSPropertyOp54
 70
     1
102
RTVSPropertyOp55
 70
     1
102
RTVSPropertyOp56
 70
     1
102
RTVSPropertyOp57
 70
     1
102
RTVSPropertyOp58
 70
     1
102
RTVSPropertyOp59
 70
     1
102
RTVSPropertyOp60
 70
     1
102
RTVSPropertyOp61
 70
     1
102
RTVSPropertyOp62
 70
     1
  0
XRECORD
  5
332A
102
{ACAD_REACTORS
330
3329
102
}
330
3329
100
AcDbXrecord
280
     1
102
RTVSPost2010Prop28
280
     0
102
RTVSPost2010PropOp28
 70
     1
102
RTVSPost2010Prop29
280
     1
102
RTVSPost2010PropOp29
 70
     1
102
RTVSPost2010Prop30
280
     1
102
RTVSPost2010PropOp30
 70
     1
102
RTVSPost2010Prop31
280
     0
102
RTVSPost2010PropOp31
 70
     1
102
RTVSPost2010Prop32
280
     0
102
RTVSPost2010PropOp32
 70
     1
102
RTVSPost2010Prop33
280
     0
102
RTVSPost2010PropOp33
 70
     1
102
RTVSPost2010Prop34
280
     0
102
RTVSPost2010PropOp34
 70
     1
102
RTVSPost2010Prop35
280
     0
102
RTVSPost2010PropOp35
 70
     1
102
RTVSPost2010Prop36
280
     0
102
RTVSPost2010PropOp36
 70
     1
102
RTVSPost2010Prop37
 90
       50
102
RTVSPost2010PropOp37
 70
     0
102
RTVSPost2010Prop38
140
0.0
102
RTVSPost2010PropOp38
 70
     0
102
RTVSPost2010Prop39
140
1.0
102
RTVSPost2010PropOp39
 70
     0
102
RTVSPost2010Prop40
 90
        0
102
RTVSPost2010PropOp40
 70
     0
102
RTVSPost2010Prop41ColorIndex
 90
       18
102
RTVSPost2010Prop41ColorRGB
 90
        0
102
RTVSPost2010PropOp41
 70
     0
102
RTVSPost2010Prop42
 90
       50
102
RTVSPost2010PropOp42
 70
     0
102
RTVSPost2010Prop43
 90
        3
102
RTVSPost2010PropOp43
 70
     0
102
RTVSPost2010Prop44ColorIndex
 90
        5
102
RTVSPost2010Prop44ColorRGB
 90
      255
102
RTVSPost2010PropOp44
 70
     0
102
RTVSPost2010Prop45
280
     0
102
RTVSPost2010PropOp45
 70
     1
102
RTVSPost2010Prop46
 90
       50
102
RTVSPost2010PropOp46
 70
     0
102
RTVSPost2010Prop47
 90
       50
102
RTVSPost2010PropOp47
 70
     0
102
RTVSPost2010Prop48
 90
       50
102
RTVSPost2010PropOp48
 70
     0
102
RTVSPost2010Prop49
280
     0
102
RTVSPost2010PropOp49
 70
     1
102
RTVSPost2010Prop50
 90
       50
102
RTVSPost2010PropOp50
 70
     0
102
RTVSPost2010Prop51ColorIndex
 90
      256
102
RTVSPost2010Prop51ColorRGB
 90
-16777216
102
RTVSPost2010PropOp51
 70
     0
102
RTVSPost2010Prop52
140
1.0
102
RTVSPost2010PropOp52
 70
     0
102
RTVSPost2010Prop53
 90
        2
102
RTVSPost2010PropOp53
 70
     0
102
RTVSPost2010Prop54
  1
strokes_ogs.tif
102
RTVSPost2010PropOp54
 70
     0
102
RTVSPost2010Prop55
280
     0
102
RTVSPost2010PropOp55
 70
     1
102
RTVSPost2010Prop56
140
1.0
102
RTVSPost2010PropOp56
 70
     0
102
RTVSPost2010Prop57
140
1.0
102
RTVSPost2010PropOp57
 70
     0
102
RTVSPropertyOp0
 70
     0
102
RTVSPropertyOp1
 70
     0
102
RTVSPropertyOp2
 70
     0
102
RTVSPropertyOp3
 70
     0
102
RTVSPropertyOp4
 70
     0
102
RTVSPropertyOp5
 70
     0
102
RTVSPropertyOp6
 70
     0
102
RTVSPropertyOp7
 70
     0
102
RTVSPropertyOp8
 70
     0
102
RTVSPropertyOp9
 70
     0
102
RTVSPropertyOp10
 70
     0
102
RTVSPropertyOp11
 70
     0
102
RTVSPropertyOp12
 70
     0
102
RTVSPropertyOp13
 70
     0
102
RTVSPropertyOp14
 70
     2
102
RTVSPropertyOp15
 70
     0
102
RTVSPropertyOp16
 70
     0
102
RTVSPropertyOp17
 70
     0
102
RTVSPropertyOp18
 70
     0
102
RTVSPropertyOp19
 70
     0
102
RTVSPropertyOp20
 70
     0
102
RTVSPropertyOp21
 70
     0
102
RTVSPropertyOp22
 70
     0
102
RTVSPropertyOp23
 70
     0
102
RTVSPropertyOp24
 70
     0
102
RTVSPropertyOp25
 70
     0
102
RTVSPropertyOp26
 70
     0
102
RTVSPropertyOp27
 70
     0
102
RTVSPropertyOp28
 70
     1
102
RTVSPropertyOp29
 70
     1
102
RTVSPropertyOp30
 70
     1
102
RTVSPropertyOp31
 70
     1
102
RTVSPropertyOp32
 70
     1
102
RTVSPropertyOp33
 70
     1
102
RTVSPropertyOp34
 70
     1
102
RTVSPropertyOp35
 70
     1
102
RTVSPropertyOp36
 70
     1
102
RTVSPropertyOp37
 70
     0
102
RTVSPropertyOp38
 70
     0
102
RTVSPropertyOp39
 70
     0
102
RTVSPropertyOp40
 70
     0
102
RTVSPropertyOp41
 70
     0
102
RTVSPropertyOp42
 70
     0
102
RTVSPropertyOp43
 70
     0
102
RTVSPropertyOp44
 70
     0
102
RTVSPropertyOp45
 70
     1
102
RTVSPropertyOp46
 70
     0
102
RTVSPropertyOp47
 70
     0
102
RTVSPropertyOp48
 70
     0
102
RTVSPropertyOp49
 70
     1
102
RTVSPropertyOp50
 70
     0
102
RTVSPropertyOp51
 70
     0
102
RTVSPropertyOp52
 70
     0
102
RTVSPropertyOp53
 70
     0
102
RTVSPropertyOp54
 70
     0
102
RTVSPropertyOp55
 70
     1
102
RTVSPropertyOp56
 70
     0
102
RTVSPropertyOp57
 70
     0
102
RTVSPropertyOp58
 70
     0
102
RTVSPropertyOp59
 70
     0
102
RTVSPropertyOp60
 70
     0
102
RTVSPropertyOp61
 70
     0
102
RTVSPropertyOp62
 70
     0
  0
XRECORD
  5
3318
102
{ACAD_REACTORS
330
3317
102
}
330
3317
100
AcDbXrecord
280
     1
102
RTVSPost2010Prop28
280
     0
102
RTVSPost2010PropOp28
 70
     1
102
RTVSPost2010Prop29
280
     1
102
RTVSPost2010PropOp29
 70
     1
102
RTVSPost2010Prop30
280
     1
102
RTVSPost2010PropOp30
 70
     1
102
RTVSPost2010Prop31
280
     0
102
RTVSPost2010PropOp31
 70
     1
102
RTVSPost2010Prop32
280
     0
102
RTVSPost2010PropOp32
 70
     1
102
RTVSPost2010Prop33
280
     0
102
RTVSPost2010PropOp33
 70
     1
102
RTVSPost2010Prop34
280
     0
102
RTVSPost2010PropOp34
 70
     1
102
RTVSPost2010Prop35
280
     0
102
RTVSPost2010PropOp35
 70
     1
102
RTVSPost2010Prop36
280
     0
102
RTVSPost2010PropOp36
 70
     1
102
RTVSPost2010Prop37
 90
       50
102
RTVSPost2010PropOp37
 70
     1
102
RTVSPost2010Prop38
140
0.0
102
RTVSPost2010PropOp38
 70
     1
102
RTVSPost2010Prop39
140
1.0
102
RTVSPost2010PropOp39
 70
     1
102
RTVSPost2010Prop40
 90
        0
102
RTVSPost2010PropOp40
 70
     1
102
RTVSPost2010Prop41ColorIndex
 90
       18
102
RTVSPost2010Prop41ColorRGB
 90
        0
102
RTVSPost2010PropOp41
 70
     1
102
RTVSPost2010Prop42
 90
       50
102
RTVSPost2010PropOp42
 70
     1
102
RTVSPost2010Prop43
 90
        3
102
RTVSPost2010PropOp43
 70
     1
102
RTVSPost2010Prop44ColorIndex
 90
        5
102
RTVSPost2010Prop44ColorRGB
 90
      255
102
RTVSPost2010PropOp44
 70
     1
102
RTVSPost2010Prop45
280
     0
102
RTVSPost2010PropOp45
 70
     1
102
RTVSPost2010Prop46
 90
       50
102
RTVSPost2010PropOp46
 70
     1
102
RTVSPost2010Prop47
 90
       50
102
RTVSPost2010PropOp47
 70
     1
102
RTVSPost2010Prop48
 90
       50
102
RTVSPost2010PropOp48
 70
     1
102
RTVSPost2010Prop49
280
     0
102
RTVSPost2010PropOp49
 70
     1
102
RTVSPost2010Prop50
 90
       50
102
RTVSPost2010PropOp50
 70
     1
102
RTVSPost2010Prop51ColorIndex
 90
      256
102
RTVSPost2010Prop51ColorRGB
 90
-16777216
102
RTVSPost2010PropOp51
 70
     0
102
RTVSPost2010Prop52
140
1.0
102
RTVSPost2010PropOp52
 70
     0
102
RTVSPost2010Prop53
 90
        2
102
RTVSPost2010PropOp53
 70
     1
102
RTVSPost2010Prop54
  1
strokes_ogs.tif
102
RTVSPost2010PropOp54
 70
     1
102
RTVSPost2010Prop55
280
     0
102
RTVSPost2010PropOp55
 70
     1
102
RTVSPost2010Prop56
140
1.0
102
RTVSPost2010PropOp56
 70
     1
102
RTVSPost2010Prop57
140
1.0
102
RTVSPost2010PropOp57
 70
     1
102
RTVSPropertyOp0
 70
     1
102
RTVSPropertyOp1
 70
     1
102
RTVSPropertyOp2
 70
     1
102
RTVSPropertyOp3
 70
     1
102
RTVSPropertyOp4
 70
     1
102
RTVSPropertyOp5
 70
     1
102
RTVSPropertyOp6
 70
     1
102
RTVSPropertyOp7
 70
     1
102
RTVSPropertyOp8
 70
     1
102
RTVSPropertyOp9
 70
     1
102
RTVSPropertyOp10
 70
     1
102
RTVSPropertyOp11
 70
     1
102
RTVSPropertyOp12
 70
     1
102
RTVSPropertyOp13
 70
     1
102
RTVSPropertyOp14
 70
     1
102
RTVSPropertyOp15
 70
     1
102
RTVSPropertyOp16
 70
     1
102
RTVSPropertyOp17
 70
     1
102
RTVSPropertyOp18
 70
     1
102
RTVSPropertyOp19
 70
     1
102
RTVSPropertyOp20
 70
     1
102
RTVSPropertyOp21
 70
     1
102
RTVSPropertyOp22
 70
     1
102
RTVSPropertyOp23
 70
     1
102
RTVSPropertyOp24
 70
     1
102
RTVSPropertyOp25
 70
     1
102
RTVSPropertyOp26
 70
     1
102
RTVSPropertyOp27
 70
     1
102
RTVSPropertyOp28
 70
     1
102
RTVSPropertyOp29
 70
     1
102
RTVSPropertyOp30
 70
     1
102
RTVSPropertyOp31
 70
     1
102
RTVSPropertyOp32
 70
     1
102
RTVSPropertyOp33
 70
     1
102
RTVSPropertyOp34
 70
     1
102
RTVSPropertyOp35
 70
     1
102
RTVSPropertyOp36
 70
     1
102
RTVSPropertyOp37
 70
     1
102
RTVSPropertyOp38
 70
     1
102
RTVSPropertyOp39
 70
     1
102
RTVSPropertyOp40
 70
     1
102
RTVSPropertyOp41
 70
     1
102
RTVSPropertyOp42
 70
     1
102
RTVSPropertyOp43
 70
     1
102
RTVSPropertyOp44
 70
     1
102
RTVSPropertyOp45
 70
     1
102
RTVSPropertyOp46
 70
     1
102
RTVSPropertyOp47
 70
     1
102
RTVSPropertyOp48
 70
     1
102
RTVSPropertyOp49
 70
     1
102
RTVSPropertyOp50
 70
     1
102
RTVSPropertyOp51
 70
     0
102
RTVSPropertyOp52
 70
     0
102
RTVSPropertyOp53
 70
     1
102
RTVSPropertyOp54
 70
     1
102
RTVSPropertyOp55
 70
     1
102
RTVSPropertyOp56
 70
     1
102
RTVSPropertyOp57
 70
     1
102
RTVSPropertyOp58
 70
     1
102
RTVSPropertyOp59
 70
     1
102
RTVSPropertyOp60
 70
     1
102
RTVSPropertyOp61
 70
     1
102
RTVSPropertyOp62
 70
     1
  0
XRECORD
  5
32FC
102
{ACAD_REACTORS
330
32FB
102
}
330
32FB
100
AcDbXrecord
280
     1
102
RTVSPost2010Prop28
280
     0
102
RTVSPost2010PropOp28
 70
     1
102
RTVSPost2010Prop29
280
     1
102
RTVSPost2010PropOp29
 70
     1
102
RTVSPost2010Prop30
280
     1
102
RTVSPost2010PropOp30
 70
     1
102
RTVSPost2010Prop31
280
     0
102
RTVSPost2010PropOp31
 70
     1
102
RTVSPost2010Prop32
280
     0
102
RTVSPost2010PropOp32
 70
     1
102
RTVSPost2010Prop33
280
     0
102
RTVSPost2010PropOp33
 70
     1
102
RTVSPost2010Prop34
280
     0
102
RTVSPost2010PropOp34
 70
     1
102
RTVSPost2010Prop35
280
     0
102
RTVSPost2010PropOp35
 70
     1
102
RTVSPost2010Prop36
280
     0
102
RTVSPost2010PropOp36
 70
     1
102
RTVSPost2010Prop37
 90
       50
102
RTVSPost2010PropOp37
 70
     1
102
RTVSPost2010Prop38
140
0.0
102
RTVSPost2010PropOp38
 70
     1
102
RTVSPost2010Prop39
140
1.0
102
RTVSPost2010PropOp39
 70
     1
102
RTVSPost2010Prop40
 90
        0
102
RTVSPost2010PropOp40
 70
     1
102
RTVSPost2010Prop41ColorIndex
 90
       18
102
RTVSPost2010Prop41ColorRGB
 90
        0
102
RTVSPost2010PropOp41
 70
     1
102
RTVSPost2010Prop42
 90
       50
102
RTVSPost2010PropOp42
 70
     1
102
RTVSPost2010Prop43
 90
        3
102
RTVSPost2010PropOp43
 70
     1
102
RTVSPost2010Prop44ColorIndex
 90
        5
102
RTVSPost2010Prop44ColorRGB
 90
      255
102
RTVSPost2010PropOp44
 70
     1
102
RTVSPost2010Prop45
280
     0
102
RTVSPost2010PropOp45
 70
     1
102
RTVSPost2010Prop46
 90
       50
102
RTVSPost2010PropOp46
 70
     1
102
RTVSPost2010Prop47
 90
       50
102
RTVSPost2010PropOp47
 70
     1
102
RTVSPost2010Prop48
 90
       50
102
RTVSPost2010PropOp48
 70
     1
102
RTVSPost2010Prop49
280
     0
102
RTVSPost2010PropOp49
 70
     1
102
RTVSPost2010Prop50
 90
       50
102
RTVSPost2010PropOp50
 70
     1
102
RTVSPost2010Prop51ColorIndex
 90
      256
102
RTVSPost2010Prop51ColorRGB
 90
-16777216
102
RTVSPost2010PropOp51
 70
     0
102
RTVSPost2010Prop52
140
1.0
102
RTVSPost2010PropOp52
 70
     0
102
RTVSPost2010Prop53
 90
        2
102
RTVSPost2010PropOp53
 70
     1
102
RTVSPost2010Prop54
  1
strokes_ogs.tif
102
RTVSPost2010PropOp54
 70
     1
102
RTVSPost2010Prop55
280
     0
102
RTVSPost2010PropOp55
 70
     1
102
RTVSPost2010Prop56
140
1.0
102
RTVSPost2010PropOp56
 70
     1
102
RTVSPost2010Prop57
140
1.0
102
RTVSPost2010PropOp57
 70
     1
102
RTVSPropertyOp0
 70
     1
102
RTVSPropertyOp1
 70
     1
102
RTVSPropertyOp2
 70
     1
102
RTVSPropertyOp3
 70
     1
102
RTVSPropertyOp4
 70
     1
102
RTVSPropertyOp5
 70
     1
102
RTVSPropertyOp6
 70
     1
102
RTVSPropertyOp7
 70
     1
102
RTVSPropertyOp8
 70
     1
102
RTVSPropertyOp9
 70
     1
102
RTVSPropertyOp10
 70
     1
102
RTVSPropertyOp11
 70
     1
102
RTVSPropertyOp12
 70
     1
102
RTVSPropertyOp13
 70
     1
102
RTVSPropertyOp14
 70
     1
102
RTVSPropertyOp15
 70
     1
102
RTVSPropertyOp16
 70
     1
102
RTVSPropertyOp17
 70
     1
102
RTVSPropertyOp18
 70
     1
102
RTVSPropertyOp19
 70
     1
102
RTVSPropertyOp20
 70
     1
102
RTVSPropertyOp21
 70
     1
102
RTVSPropertyOp22
 70
     1
102
RTVSPropertyOp23
 70
     1
102
RTVSPropertyOp24
 70
     1
102
RTVSPropertyOp25
 70
     1
102
RTVSPropertyOp26
 70
     1
102
RTVSPropertyOp27
 70
     1
102
RTVSPropertyOp28
 70
     1
102
RTVSPropertyOp29
 70
     1
102
RTVSPropertyOp30
 70
     1
102
RTVSPropertyOp31
 70
     1
102
RTVSPropertyOp32
 70
     1
102
RTVSPropertyOp33
 70
     1
102
RTVSPropertyOp34
 70
     1
102
RTVSPropertyOp35
 70
     1
102
RTVSPropertyOp36
 70
     1
102
RTVSPropertyOp37
 70
     1
102
RTVSPropertyOp38
 70
     1
102
RTVSPropertyOp39
 70
     1
102
RTVSPropertyOp40
 70
     1
102
RTVSPropertyOp41
 70
     1
102
RTVSPropertyOp42
 70
     1
102
RTVSPropertyOp43
 70
     1
102
RTVSPropertyOp44
 70
     1
102
RTVSPropertyOp45
 70
     1
102
RTVSPropertyOp46
 70
     1
102
RTVSPropertyOp47
 70
     1
102
RTVSPropertyOp48
 70
     1
102
RTVSPropertyOp49
 70
     1
102
RTVSPropertyOp50
 70
     1
102
RTVSPropertyOp51
 70
     0
102
RTVSPropertyOp52
 70
     0
102
RTVSPropertyOp53
 70
     1
102
RTVSPropertyOp54
 70
     1
102
RTVSPropertyOp55
 70
     1
102
RTVSPropertyOp56
 70
     1
102
RTVSPropertyOp57
 70
     1
102
RTVSPropertyOp58
 70
     1
102
RTVSPropertyOp59
 70
     1
102
RTVSPropertyOp60
 70
     1
102
RTVSPropertyOp61
 70
     1
102
RTVSPropertyOp62
 70
     1
  0
XRECORD
  5
32FE
102
{ACAD_REACTORS
330
32FD
102
}
330
32FD
100
AcDbXrecord
280
     1
102
RTVSPost2010Prop28
280
     0
102
RTVSPost2010PropOp28
 70
     1
102
RTVSPost2010Prop29
280
     1
102
RTVSPost2010PropOp29
 70
     1
102
RTVSPost2010Prop30
280
     1
102
RTVSPost2010PropOp30
 70
     1
102
RTVSPost2010Prop31
280
     0
102
RTVSPost2010PropOp31
 70
     1
102
RTVSPost2010Prop32
280
     0
102
RTVSPost2010PropOp32
 70
     1
102
RTVSPost2010Prop33
280
     0
102
RTVSPost2010PropOp33
 70
     1
102
RTVSPost2010Prop34
280
     0
102
RTVSPost2010PropOp34
 70
     1
102
RTVSPost2010Prop35
280
     0
102
RTVSPost2010PropOp35
 70
     1
102
RTVSPost2010Prop36
280
     0
102
RTVSPost2010PropOp36
 70
     1
102
RTVSPost2010Prop37
 90
       50
102
RTVSPost2010PropOp37
 70
     1
102
RTVSPost2010Prop38
140
0.0
102
RTVSPost2010PropOp38
 70
     1
102
RTVSPost2010Prop39
140
1.0
102
RTVSPost2010PropOp39
 70
     1
102
RTVSPost2010Prop40
 90
        0
102
RTVSPost2010PropOp40
 70
     1
102
RTVSPost2010Prop41ColorIndex
 90
       18
102
RTVSPost2010Prop41ColorRGB
 90
        0
102
RTVSPost2010PropOp41
 70
     1
102
RTVSPost2010Prop42
 90
       50
102
RTVSPost2010PropOp42
 70
     1
102
RTVSPost2010Prop43
 90
        3
102
RTVSPost2010PropOp43
 70
     1
102
RTVSPost2010Prop44ColorIndex
 90
        5
102
RTVSPost2010Prop44ColorRGB
 90
      255
102
RTVSPost2010PropOp44
 70
     1
102
RTVSPost2010Prop45
280
     0
102
RTVSPost2010PropOp45
 70
     1
102
RTVSPost2010Prop46
 90
       50
102
RTVSPost2010PropOp46
 70
     1
102
RTVSPost2010Prop47
 90
       50
102
RTVSPost2010PropOp47
 70
     1
102
RTVSPost2010Prop48
 90
       50
102
RTVSPost2010PropOp48
 70
     1
102
RTVSPost2010Prop49
280
     0
102
RTVSPost2010PropOp49
 70
     1
102
RTVSPost2010Prop50
 90
       50
102
RTVSPost2010PropOp50
 70
     1
102
RTVSPost2010Prop51ColorIndex
 90
      256
102
RTVSPost2010Prop51ColorRGB
 90
-16777216
102
RTVSPost2010PropOp51
 70
     0
102
RTVSPost2010Prop52
140
1.0
102
RTVSPost2010PropOp52
 70
     0
102
RTVSPost2010Prop53
 90
        2
102
RTVSPost2010PropOp53
 70
     1
102
RTVSPost2010Prop54
  1
strokes_ogs.tif
102
RTVSPost2010PropOp54
 70
     1
102
RTVSPost2010Prop55
280
     0
102
RTVSPost2010PropOp55
 70
     1
102
RTVSPost2010Prop56
140
1.0
102
RTVSPost2010PropOp56
 70
     1
102
RTVSPost2010Prop57
140
1.0
102
RTVSPost2010PropOp57
 70
     1
102
RTVSPropertyOp0
 70
     1
102
RTVSPropertyOp1
 70
     1
102
RTVSPropertyOp2
 70
     1
102
RTVSPropertyOp3
 70
     1
102
RTVSPropertyOp4
 70
     1
102
RTVSPropertyOp5
 70
     1
102
RTVSPropertyOp6
 70
     1
102
RTVSPropertyOp7
 70
     1
102
RTVSPropertyOp8
 70
     1
102
RTVSPropertyOp9
 70
     1
102
RTVSPropertyOp10
 70
     1
102
RTVSPropertyOp11
 70
     1
102
RTVSPropertyOp12
 70
     1
102
RTVSPropertyOp13
 70
     1
102
RTVSPropertyOp14
 70
     1
102
RTVSPropertyOp15
 70
     1
102
RTVSPropertyOp16
 70
     1
102
RTVSPropertyOp17
 70
     1
102
RTVSPropertyOp18
 70
     1
102
RTVSPropertyOp19
 70
     1
102
RTVSPropertyOp20
 70
     1
102
RTVSPropertyOp21
 70
     1
102
RTVSPropertyOp22
 70
     1
102
RTVSPropertyOp23
 70
     1
102
RTVSPropertyOp24
 70
     1
102
RTVSPropertyOp25
 70
     1
102
RTVSPropertyOp26
 70
     1
102
RTVSPropertyOp27
 70
     1
102
RTVSPropertyOp28
 70
     1
102
RTVSPropertyOp29
 70
     1
102
RTVSPropertyOp30
 70
     1
102
RTVSPropertyOp31
 70
     1
102
RTVSPropertyOp32
 70
     1
102
RTVSPropertyOp33
 70
     1
102
RTVSPropertyOp34
 70
     1
102
RTVSPropertyOp35
 70
     1
102
RTVSPropertyOp36
 70
     1
102
RTVSPropertyOp37
 70
     1
102
RTVSPropertyOp38
 70
     1
102
RTVSPropertyOp39
 70
     1
102
RTVSPropertyOp40
 70
     1
102
RTVSPropertyOp41
 70
     1
102
RTVSPropertyOp42
 70
     1
102
RTVSPropertyOp43
 70
     1
102
RTVSPropertyOp44
 70
     1
102
RTVSPropertyOp45
 70
     1
102
RTVSPropertyOp46
 70
     1
102
RTVSPropertyOp47
 70
     1
102
RTVSPropertyOp48
 70
     1
102
RTVSPropertyOp49
 70
     1
102
RTVSPropertyOp50
 70
     1
102
RTVSPropertyOp51
 70
     0
102
RTVSPropertyOp52
 70
     0
102
RTVSPropertyOp53
 70
     1
102
RTVSPropertyOp54
 70
     1
102
RTVSPropertyOp55
 70
     1
102
RTVSPropertyOp56
 70
     1
102
RTVSPropertyOp57
 70
     1
102
RTVSPropertyOp58
 70
     1
102
RTVSPropertyOp59
 70
     1
102
RTVSPropertyOp60
 70
     1
102
RTVSPropertyOp61
 70
     1
102
RTVSPropertyOp62
 70
     1
  0
XRECORD
  5
3300
102
{ACAD_REACTORS
330
32FF
102
}
330
32FF
100
AcDbXrecord
280
     1
102
RTVSPost2010Prop28
280
     0
102
RTVSPost2010PropOp28
 70
     1
102
RTVSPost2010Prop29
280
     1
102
RTVSPost2010PropOp29
 70
     1
102
RTVSPost2010Prop30
280
     1
102
RTVSPost2010PropOp30
 70
     1
102
RTVSPost2010Prop31
280
     0
102
RTVSPost2010PropOp31
 70
     1
102
RTVSPost2010Prop32
280
     0
102
RTVSPost2010PropOp32
 70
     1
102
RTVSPost2010Prop33
280
     0
102
RTVSPost2010PropOp33
 70
     1
102
RTVSPost2010Prop34
280
     0
102
RTVSPost2010PropOp34
 70
     1
102
RTVSPost2010Prop35
280
     0
102
RTVSPost2010PropOp35
 70
     1
102
RTVSPost2010Prop36
280
     0
102
RTVSPost2010PropOp36
 70
     1
102
RTVSPost2010Prop37
 90
       50
102
RTVSPost2010PropOp37
 70
     1
102
RTVSPost2010Prop38
140
0.0
102
RTVSPost2010PropOp38
 70
     1
102
RTVSPost2010Prop39
140
1.0
102
RTVSPost2010PropOp39
 70
     1
102
RTVSPost2010Prop40
 90
        0
102
RTVSPost2010PropOp40
 70
     1
102
RTVSPost2010Prop41ColorIndex
 90
       18
102
RTVSPost2010Prop41ColorRGB
 90
        0
102
RTVSPost2010PropOp41
 70
     1
102
RTVSPost2010Prop42
 90
       50
102
RTVSPost2010PropOp42
 70
     1
102
RTVSPost2010Prop43
 90
        3
102
RTVSPost2010PropOp43
 70
     1
102
RTVSPost2010Prop44ColorIndex
 90
        5
102
RTVSPost2010Prop44ColorRGB
 90
      255
102
RTVSPost2010PropOp44
 70
     1
102
RTVSPost2010Prop45
280
     0
102
RTVSPost2010PropOp45
 70
     1
102
RTVSPost2010Prop46
 90
       50
102
RTVSPost2010PropOp46
 70
     1
102
RTVSPost2010Prop47
 90
       50
102
RTVSPost2010PropOp47
 70
     1
102
RTVSPost2010Prop48
 90
       50
102
RTVSPost2010PropOp48
 70
     1
102
RTVSPost2010Prop49
280
     0
102
RTVSPost2010PropOp49
 70
     1
102
RTVSPost2010Prop50
 90
       50
102
RTVSPost2010PropOp50
 70
     1
102
RTVSPost2010Prop51ColorIndex
 90
      256
102
RTVSPost2010Prop51ColorRGB
 90
-16777216
102
RTVSPost2010PropOp51
 70
     0
102
RTVSPost2010Prop52
140
1.0
102
RTVSPost2010PropOp52
 70
     0
102
RTVSPost2010Prop53
 90
        2
102
RTVSPost2010PropOp53
 70
     1
102
RTVSPost2010Prop54
  1
strokes_ogs.tif
102
RTVSPost2010PropOp54
 70
     1
102
RTVSPost2010Prop55
280
     0
102
RTVSPost2010PropOp55
 70
     1
102
RTVSPost2010Prop56
140
1.0
102
RTVSPost2010PropOp56
 70
     1
102
RTVSPost2010Prop57
140
1.0
102
RTVSPost2010PropOp57
 70
     1
102
RTVSPropertyOp0
 70
     1
102
RTVSPropertyOp1
 70
     1
102
RTVSPropertyOp2
 70
     1
102
RTVSPropertyOp3
 70
     1
102
RTVSPropertyOp4
 70
     1
102
RTVSPropertyOp5
 70
     1
102
RTVSPropertyOp6
 70
     1
102
RTVSPropertyOp7
 70
     1
102
RTVSPropertyOp8
 70
     1
102
RTVSPropertyOp9
 70
     1
102
RTVSPropertyOp10
 70
     1
102
RTVSPropertyOp11
 70
     1
102
RTVSPropertyOp12
 70
     1
102
RTVSPropertyOp13
 70
     1
102
RTVSPropertyOp14
 70
     1
102
RTVSPropertyOp15
 70
     1
102
RTVSPropertyOp16
 70
     1
102
RTVSPropertyOp17
 70
     1
102
RTVSPropertyOp18
 70
     1
102
RTVSPropertyOp19
 70
     1
102
RTVSPropertyOp20
 70
     1
102
RTVSPropertyOp21
 70
     1
102
RTVSPropertyOp22
 70
     1
102
RTVSPropertyOp23
 70
     1
102
RTVSPropertyOp24
 70
     1
102
RTVSPropertyOp25
 70
     1
102
RTVSPropertyOp26
 70
     1
102
RTVSPropertyOp27
 70
     1
102
RTVSPropertyOp28
 70
     1
102
RTVSPropertyOp29
 70
     1
102
RTVSPropertyOp30
 70
     1
102
RTVSPropertyOp31
 70
     1
102
RTVSPropertyOp32
 70
     1
102
RTVSPropertyOp33
 70
     1
102
RTVSPropertyOp34
 70
     1
102
RTVSPropertyOp35
 70
     1
102
RTVSPropertyOp36
 70
     1
102
RTVSPropertyOp37
 70
     1
102
RTVSPropertyOp38
 70
     1
102
RTVSPropertyOp39
 70
     1
102
RTVSPropertyOp40
 70
     1
102
RTVSPropertyOp41
 70
     1
102
RTVSPropertyOp42
 70
     1
102
RTVSPropertyOp43
 70
     1
102
RTVSPropertyOp44
 70
     1
102
RTVSPropertyOp45
 70
     1
102
RTVSPropertyOp46
 70
     1
102
RTVSPropertyOp47
 70
     1
102
RTVSPropertyOp48
 70
     1
102
RTVSPropertyOp49
 70
     1
102
RTVSPropertyOp50
 70
     1
102
RTVSPropertyOp51
 70
     0
102
RTVSPropertyOp52
 70
     0
102
RTVSPropertyOp53
 70
     1
102
RTVSPropertyOp54
 70
     1
102
RTVSPropertyOp55
 70
     1
102
RTVSPropertyOp56
 70
     1
102
RTVSPropertyOp57
 70
     1
102
RTVSPropertyOp58
 70
     1
102
RTVSPropertyOp59
 70
     1
102
RTVSPropertyOp60
 70
     1
102
RTVSPropertyOp61
 70
     1
102
RTVSPropertyOp62
 70
     1
  0
XRECORD
  5
3302
102
{ACAD_REACTORS
330
3301
102
}
330
3301
100
AcDbXrecord
280
     1
102
RTVSPost2010Prop28
280
     0
102
RTVSPost2010PropOp28
 70
     1
102
RTVSPost2010Prop29
280
     1
102
RTVSPost2010PropOp29
 70
     1
102
RTVSPost2010Prop30
280
     1
102
RTVSPost2010PropOp30
 70
     1
102
RTVSPost2010Prop31
280
     0
102
RTVSPost2010PropOp31
 70
     1
102
RTVSPost2010Prop32
280
     0
102
RTVSPost2010PropOp32
 70
     1
102
RTVSPost2010Prop33
280
     0
102
RTVSPost2010PropOp33
 70
     1
102
RTVSPost2010Prop34
280
     0
102
RTVSPost2010PropOp34
 70
     1
102
RTVSPost2010Prop35
280
     0
102
RTVSPost2010PropOp35
 70
     1
102
RTVSPost2010Prop36
280
     0
102
RTVSPost2010PropOp36
 70
     1
102
RTVSPost2010Prop37
 90
       50
102
RTVSPost2010PropOp37
 70
     1
102
RTVSPost2010Prop38
140
0.0
102
RTVSPost2010PropOp38
 70
     1
102
RTVSPost2010Prop39
140
1.0
102
RTVSPost2010PropOp39
 70
     1
102
RTVSPost2010Prop40
 90
        0
102
RTVSPost2010PropOp40
 70
     1
102
RTVSPost2010Prop41ColorIndex
 90
       18
102
RTVSPost2010Prop41ColorRGB
 90
        0
102
RTVSPost2010PropOp41
 70
     1
102
RTVSPost2010Prop42
 90
       50
102
RTVSPost2010PropOp42
 70
     1
102
RTVSPost2010Prop43
 90
        3
102
RTVSPost2010PropOp43
 70
     1
102
RTVSPost2010Prop44ColorIndex
 90
        5
102
RTVSPost2010Prop44ColorRGB
 90
      255
102
RTVSPost2010PropOp44
 70
     1
102
RTVSPost2010Prop45
280
     0
102
RTVSPost2010PropOp45
 70
     1
102
RTVSPost2010Prop46
 90
       50
102
RTVSPost2010PropOp46
 70
     1
102
RTVSPost2010Prop47
 90
       50
102
RTVSPost2010PropOp47
 70
     1
102
RTVSPost2010Prop48
 90
       50
102
RTVSPost2010PropOp48
 70
     1
102
RTVSPost2010Prop49
280
     0
102
RTVSPost2010PropOp49
 70
     1
102
RTVSPost2010Prop50
 90
       50
102
RTVSPost2010PropOp50
 70
     1
102
RTVSPost2010Prop51ColorIndex
 90
      256
102
RTVSPost2010Prop51ColorRGB
 90
-16777216
102
RTVSPost2010PropOp51
 70
     0
102
RTVSPost2010Prop52
140
1.0
102
RTVSPost2010PropOp52
 70
     0
102
RTVSPost2010Prop53
 90
        2
102
RTVSPost2010PropOp53
 70
     1
102
RTVSPost2010Prop54
  1
strokes_ogs.tif
102
RTVSPost2010PropOp54
 70
     1
102
RTVSPost2010Prop55
280
     0
102
RTVSPost2010PropOp55
 70
     1
102
RTVSPost2010Prop56
140
1.0
102
RTVSPost2010PropOp56
 70
     1
102
RTVSPost2010Prop57
140
1.0
102
RTVSPost2010PropOp57
 70
     1
102
RTVSPropertyOp0
 70
     1
102
RTVSPropertyOp1
 70
     1
102
RTVSPropertyOp2
 70
     1
102
RTVSPropertyOp3
 70
     1
102
RTVSPropertyOp4
 70
     1
102
RTVSPropertyOp5
 70
     1
102
RTVSPropertyOp6
 70
     1
102
RTVSPropertyOp7
 70
     1
102
RTVSPropertyOp8
 70
     1
102
RTVSPropertyOp9
 70
     1
102
RTVSPropertyOp10
 70
     1
102
RTVSPropertyOp11
 70
     1
102
RTVSPropertyOp12
 70
     1
102
RTVSPropertyOp13
 70
     1
102
RTVSPropertyOp14
 70
     1
102
RTVSPropertyOp15
 70
     1
102
RTVSPropertyOp16
 70
     1
102
RTVSPropertyOp17
 70
     1
102
RTVSPropertyOp18
 70
     1
102
RTVSPropertyOp19
 70
     1
102
RTVSPropertyOp20
 70
     1
102
RTVSPropertyOp21
 70
     1
102
RTVSPropertyOp22
 70
     1
102
RTVSPropertyOp23
 70
     1
102
RTVSPropertyOp24
 70
     1
102
RTVSPropertyOp25
 70
     1
102
RTVSPropertyOp26
 70
     1
102
RTVSPropertyOp27
 70
     1
102
RTVSPropertyOp28
 70
     1
102
RTVSPropertyOp29
 70
     1
102
RTVSPropertyOp30
 70
     1
102
RTVSPropertyOp31
 70
     1
102
RTVSPropertyOp32
 70
     1
102
RTVSPropertyOp33
 70
     1
102
RTVSPropertyOp34
 70
     1
102
RTVSPropertyOp35
 70
     1
102
RTVSPropertyOp36
 70
     1
102
RTVSPropertyOp37
 70
     1
102
RTVSPropertyOp38
 70
     1
102
RTVSPropertyOp39
 70
     1
102
RTVSPropertyOp40
 70
     1
102
RTVSPropertyOp41
 70
     1
102
RTVSPropertyOp42
 70
     1
102
RTVSPropertyOp43
 70
     1
102
RTVSPropertyOp44
 70
     1
102
RTVSPropertyOp45
 70
     1
102
RTVSPropertyOp46
 70
     1
102
RTVSPropertyOp47
 70
     1
102
RTVSPropertyOp48
 70
     1
102
RTVSPropertyOp49
 70
     1
102
RTVSPropertyOp50
 70
     1
102
RTVSPropertyOp51
 70
     0
102
RTVSPropertyOp52
 70
     0
102
RTVSPropertyOp53
 70
     1
102
RTVSPropertyOp54
 70
     1
102
RTVSPropertyOp55
 70
     1
102
RTVSPropertyOp56
 70
     1
102
RTVSPropertyOp57
 70
     1
102
RTVSPropertyOp58
 70
     1
102
RTVSPropertyOp59
 70
     1
102
RTVSPropertyOp60
 70
     1
102
RTVSPropertyOp61
 70
     1
102
RTVSPropertyOp62
 70
     1
  0
XRECORD
  5
330A
102
{ACAD_REACTORS
330
3309
102
}
330
3309
100
AcDbXrecord
280
     1
102
RTVSPost2010Prop28
280
     0
102
RTVSPost2010PropOp28
 70
     1
102
RTVSPost2010Prop29
280
     1
102
RTVSPost2010PropOp29
 70
     1
102
RTVSPost2010Prop30
280
     1
102
RTVSPost2010PropOp30
 70
     1
102
RTVSPost2010Prop31
280
     0
102
RTVSPost2010PropOp31
 70
     1
102
RTVSPost2010Prop32
280
     0
102
RTVSPost2010PropOp32
 70
     1
102
RTVSPost2010Prop33
280
     0
102
RTVSPost2010PropOp33
 70
     1
102
RTVSPost2010Prop34
280
     0
102
RTVSPost2010PropOp34
 70
     1
102
RTVSPost2010Prop35
280
     0
102
RTVSPost2010PropOp35
 70
     1
102
RTVSPost2010Prop36
280
     0
102
RTVSPost2010PropOp36
 70
     1
102
RTVSPost2010Prop37
 90
       50
102
RTVSPost2010PropOp37
 70
     1
102
RTVSPost2010Prop38
140
0.0
102
RTVSPost2010PropOp38
 70
     1
102
RTVSPost2010Prop39
140
1.0
102
RTVSPost2010PropOp39
 70
     1
102
RTVSPost2010Prop40
 90
        0
102
RTVSPost2010PropOp40
 70
     1
102
RTVSPost2010Prop41ColorIndex
 90
       18
102
RTVSPost2010Prop41ColorRGB
 90
        0
102
RTVSPost2010PropOp41
 70
     1
102
RTVSPost2010Prop42
 90
       50
102
RTVSPost2010PropOp42
 70
     1
102
RTVSPost2010Prop43
 90
        3
102
RTVSPost2010PropOp43
 70
     1
102
RTVSPost2010Prop44ColorIndex
 90
        5
102
RTVSPost2010Prop44ColorRGB
 90
      255
102
RTVSPost2010PropOp44
 70
     1
102
RTVSPost2010Prop45
280
     0
102
RTVSPost2010PropOp45
 70
     1
102
RTVSPost2010Prop46
 90
       50
102
RTVSPost2010PropOp46
 70
     1
102
RTVSPost2010Prop47
 90
       50
102
RTVSPost2010PropOp47
 70
     1
102
RTVSPost2010Prop48
 90
       50
102
RTVSPost2010PropOp48
 70
     1
102
RTVSPost2010Prop49
280
     0
102
RTVSPost2010PropOp49
 70
     1
102
RTVSPost2010Prop50
 90
       50
102
RTVSPost2010PropOp50
 70
     1
102
RTVSPost2010Prop51ColorIndex
 90
      256
102
RTVSPost2010Prop51ColorRGB
 90
-16777216
102
RTVSPost2010PropOp51
 70
     0
102
RTVSPost2010Prop52
140
1.0
102
RTVSPost2010PropOp52
 70
     0
102
RTVSPost2010Prop53
 90
        2
102
RTVSPost2010PropOp53
 70
     1
102
RTVSPost2010Prop54
  1
strokes_ogs.tif
102
RTVSPost2010PropOp54
 70
     1
102
RTVSPost2010Prop55
280
     0
102
RTVSPost2010PropOp55
 70
     1
102
RTVSPost2010Prop56
140
1.0
102
RTVSPost2010PropOp56
 70
     1
102
RTVSPost2010Prop57
140
1.0
102
RTVSPost2010PropOp57
 70
     1
102
RTVSPropertyOp0
 70
     1
102
RTVSPropertyOp1
 70
     1
102
RTVSPropertyOp2
 70
     1
102
RTVSPropertyOp3
 70
     1
102
RTVSPropertyOp4
 70
     1
102
RTVSPropertyOp5
 70
     1
102
RTVSPropertyOp6
 70
     1
102
RTVSPropertyOp7
 70
     1
102
RTVSPropertyOp8
 70
     1
102
RTVSPropertyOp9
 70
     1
102
RTVSPropertyOp10
 70
     1
102
RTVSPropertyOp11
 70
     1
102
RTVSPropertyOp12
 70
     1
102
RTVSPropertyOp13
 70
     1
102
RTVSPropertyOp14
 70
     1
102
RTVSPropertyOp15
 70
     1
102
RTVSPropertyOp16
 70
     1
102
RTVSPropertyOp17
 70
     1
102
RTVSPropertyOp18
 70
     1
102
RTVSPropertyOp19
 70
     1
102
RTVSPropertyOp20
 70
     1
102
RTVSPropertyOp21
 70
     1
102
RTVSPropertyOp22
 70
     1
102
RTVSPropertyOp23
 70
     1
102
RTVSPropertyOp24
 70
     1
102
RTVSPropertyOp25
 70
     1
102
RTVSPropertyOp26
 70
     1
102
RTVSPropertyOp27
 70
     1
102
RTVSPropertyOp28
 70
     1
102
RTVSPropertyOp29
 70
     1
102
RTVSPropertyOp30
 70
     1
102
RTVSPropertyOp31
 70
     1
102
RTVSPropertyOp32
 70
     1
102
RTVSPropertyOp33
 70
     1
102
RTVSPropertyOp34
 70
     1
102
RTVSPropertyOp35
 70
     1
102
RTVSPropertyOp36
 70
     1
102
RTVSPropertyOp37
 70
     1
102
RTVSPropertyOp38
 70
     1
102
RTVSPropertyOp39
 70
     1
102
RTVSPropertyOp40
 70
     1
102
RTVSPropertyOp41
 70
     1
102
RTVSPropertyOp42
 70
     1
102
RTVSPropertyOp43
 70
     1
102
RTVSPropertyOp44
 70
     1
102
RTVSPropertyOp45
 70
     1
102
RTVSPropertyOp46
 70
     1
102
RTVSPropertyOp47
 70
     1
102
RTVSPropertyOp48
 70
     1
102
RTVSPropertyOp49
 70
     1
102
RTVSPropertyOp50
 70
     1
102
RTVSPropertyOp51
 70
     0
102
RTVSPropertyOp52
 70
     0
102
RTVSPropertyOp53
 70
     1
102
RTVSPropertyOp54
 70
     1
102
RTVSPropertyOp55
 70
     1
102
RTVSPropertyOp56
 70
     1
102
RTVSPropertyOp57
 70
     1
102
RTVSPropertyOp58
 70
     1
102
RTVSPropertyOp59
 70
     1
102
RTVSPropertyOp60
 70
     1
102
RTVSPropertyOp61
 70
     1
102
RTVSPropertyOp62
 70
     1
  0
XRECORD
  5
3326
102
{ACAD_REACTORS
330
3325
102
}
330
3325
100
AcDbXrecord
280
     1
102
RTVSPost2010Prop28
280
     0
102
RTVSPost2010PropOp28
 70
     1
102
RTVSPost2010Prop29
280
     1
102
RTVSPost2010PropOp29
 70
     1
102
RTVSPost2010Prop30
280
     1
102
RTVSPost2010PropOp30
 70
     1
102
RTVSPost2010Prop31
280
     0
102
RTVSPost2010PropOp31
 70
     1
102
RTVSPost2010Prop32
280
     0
102
RTVSPost2010PropOp32
 70
     1
102
RTVSPost2010Prop33
280
     0
102
RTVSPost2010PropOp33
 70
     1
102
RTVSPost2010Prop34
280
     0
102
RTVSPost2010PropOp34
 70
     1
102
RTVSPost2010Prop35
280
     0
102
RTVSPost2010PropOp35
 70
     1
102
RTVSPost2010Prop36
280
     0
102
RTVSPost2010PropOp36
 70
     1
102
RTVSPost2010Prop37
 90
       50
102
RTVSPost2010PropOp37
 70
     0
102
RTVSPost2010Prop38
140
0.0
102
RTVSPost2010PropOp38
 70
     0
102
RTVSPost2010Prop39
140
1.0
102
RTVSPost2010PropOp39
 70
     0
102
RTVSPost2010Prop40
 90
        0
102
RTVSPost2010PropOp40
 70
     0
102
RTVSPost2010Prop41ColorIndex
 90
       18
102
RTVSPost2010Prop41ColorRGB
 90
        0
102
RTVSPost2010PropOp41
 70
     0
102
RTVSPost2010Prop42
 90
       50
102
RTVSPost2010PropOp42
 70
     0
102
RTVSPost2010Prop43
 90
        3
102
RTVSPost2010PropOp43
 70
     0
102
RTVSPost2010Prop44ColorIndex
 90
        5
102
RTVSPost2010Prop44ColorRGB
 90
      255
102
RTVSPost2010PropOp44
 70
     0
102
RTVSPost2010Prop45
280
     0
102
RTVSPost2010PropOp45
 70
     1
102
RTVSPost2010Prop46
 90
       50
102
RTVSPost2010PropOp46
 70
     0
102
RTVSPost2010Prop47
 90
       50
102
RTVSPost2010PropOp47
 70
     0
102
RTVSPost2010Prop48
 90
       50
102
RTVSPost2010PropOp48
 70
     0
102
RTVSPost2010Prop49
280
     0
102
RTVSPost2010PropOp49
 70
     1
102
RTVSPost2010Prop50
 90
       50
102
RTVSPost2010PropOp50
 70
     0
102
RTVSPost2010Prop51ColorIndex
 90
      256
102
RTVSPost2010Prop51ColorRGB
 90
-16777216
102
RTVSPost2010PropOp51
 70
     0
102
RTVSPost2010Prop52
140
1.0
102
RTVSPost2010PropOp52
 70
     0
102
RTVSPost2010Prop53
 90
        2
102
RTVSPost2010PropOp53
 70
     0
102
RTVSPost2010Prop54
  1
strokes_ogs.tif
102
RTVSPost2010PropOp54
 70
     0
102
RTVSPost2010Prop55
280
     0
102
RTVSPost2010PropOp55
 70
     1
102
RTVSPost2010Prop56
140
1.0
102
RTVSPost2010PropOp56
 70
     0
102
RTVSPost2010Prop57
140
1.0
102
RTVSPost2010PropOp57
 70
     0
102
RTVSPropertyOp0
 70
     0
102
RTVSPropertyOp1
 70
     0
102
RTVSPropertyOp2
 70
     0
102
RTVSPropertyOp3
 70
     0
102
RTVSPropertyOp4
 70
     0
102
RTVSPropertyOp5
 70
     0
102
RTVSPropertyOp6
 70
     0
102
RTVSPropertyOp7
 70
     0
102
RTVSPropertyOp8
 70
     0
102
RTVSPropertyOp9
 70
     0
102
RTVSPropertyOp10
 70
     0
102
RTVSPropertyOp11
 70
     0
102
RTVSPropertyOp12
 70
     0
102
RTVSPropertyOp13
 70
     0
102
RTVSPropertyOp14
 70
     2
102
RTVSPropertyOp15
 70
     0
102
RTVSPropertyOp16
 70
     0
102
RTVSPropertyOp17
 70
     0
102
RTVSPropertyOp18
 70
     0
102
RTVSPropertyOp19
 70
     0
102
RTVSPropertyOp20
 70
     0
102
RTVSPropertyOp21
 70
     0
102
RTVSPropertyOp22
 70
     0
102
RTVSPropertyOp23
 70
     0
102
RTVSPropertyOp24
 70
     0
102
RTVSPropertyOp25
 70
     0
102
RTVSPropertyOp26
 70
     0
102
RTVSPropertyOp27
 70
     0
102
RTVSPropertyOp28
 70
     1
102
RTVSPropertyOp29
 70
     1
102
RTVSPropertyOp30
 70
     1
102
RTVSPropertyOp31
 70
     1
102
RTVSPropertyOp32
 70
     1
102
RTVSPropertyOp33
 70
     1
102
RTVSPropertyOp34
 70
     1
102
RTVSPropertyOp35
 70
     1
102
RTVSPropertyOp36
 70
     1
102
RTVSPropertyOp37
 70
     0
102
RTVSPropertyOp38
 70
     0
102
RTVSPropertyOp39
 70
     0
102
RTVSPropertyOp40
 70
     0
102
RTVSPropertyOp41
 70
     0
102
RTVSPropertyOp42
 70
     0
102
RTVSPropertyOp43
 70
     0
102
RTVSPropertyOp44
 70
     0
102
RTVSPropertyOp45
 70
     1
102
RTVSPropertyOp46
 70
     0
102
RTVSPropertyOp47
 70
     0
102
RTVSPropertyOp48
 70
     0
102
RTVSPropertyOp49
 70
     1
102
RTVSPropertyOp50
 70
     0
102
RTVSPropertyOp51
 70
     0
102
RTVSPropertyOp52
 70
     0
102
RTVSPropertyOp53
 70
     0
102
RTVSPropertyOp54
 70
     0
102
RTVSPropertyOp55
 70
     1
102
RTVSPropertyOp56
 70
     0
102
RTVSPropertyOp57
 70
     0
102
RTVSPropertyOp58
 70
     0
102
RTVSPropertyOp59
 70
     0
102
RTVSPropertyOp60
 70
     0
102
RTVSPropertyOp61
 70
     0
102
RTVSPropertyOp62
 70
     0
  0
XRECORD
  5
3316
102
{ACAD_REACTORS
330
3315
102
}
330
3315
100
AcDbXrecord
280
     1
102
RTVSPost2010Prop28
280
     0
102
RTVSPost2010PropOp28
 70
     1
102
RTVSPost2010Prop29
280
     1
102
RTVSPost2010PropOp29
 70
     1
102
RTVSPost2010Prop30
280
     1
102
RTVSPost2010PropOp30
 70
     1
102
RTVSPost2010Prop31
280
     0
102
RTVSPost2010PropOp31
 70
     1
102
RTVSPost2010Prop32
280
     0
102
RTVSPost2010PropOp32
 70
     1
102
RTVSPost2010Prop33
280
     0
102
RTVSPost2010PropOp33
 70
     1
102
RTVSPost2010Prop34
280
     0
102
RTVSPost2010PropOp34
 70
     1
102
RTVSPost2010Prop35
280
     0
102
RTVSPost2010PropOp35
 70
     1
102
RTVSPost2010Prop36
280
     0
102
RTVSPost2010PropOp36
 70
     1
102
RTVSPost2010Prop37
 90
       50
102
RTVSPost2010PropOp37
 70
     1
102
RTVSPost2010Prop38
140
0.0
102
RTVSPost2010PropOp38
 70
     1
102
RTVSPost2010Prop39
140
1.0
102
RTVSPost2010PropOp39
 70
     1
102
RTVSPost2010Prop40
 90
        0
102
RTVSPost2010PropOp40
 70
     1
102
RTVSPost2010Prop41ColorIndex
 90
       18
102
RTVSPost2010Prop41ColorRGB
 90
        0
102
RTVSPost2010PropOp41
 70
     1
102
RTVSPost2010Prop42
 90
       50
102
RTVSPost2010PropOp42
 70
     1
102
RTVSPost2010Prop43
 90
        3
102
RTVSPost2010PropOp43
 70
     1
102
RTVSPost2010Prop44ColorIndex
 90
        5
102
RTVSPost2010Prop44ColorRGB
 90
      255
102
RTVSPost2010PropOp44
 70
     1
102
RTVSPost2010Prop45
280
     0
102
RTVSPost2010PropOp45
 70
     1
102
RTVSPost2010Prop46
 90
       50
102
RTVSPost2010PropOp46
 70
     1
102
RTVSPost2010Prop47
 90
       50
102
RTVSPost2010PropOp47
 70
     1
102
RTVSPost2010Prop48
 90
       50
102
RTVSPost2010PropOp48
 70
     1
102
RTVSPost2010Prop49
280
     0
102
RTVSPost2010PropOp49
 70
     1
102
RTVSPost2010Prop50
 90
       50
102
RTVSPost2010PropOp50
 70
     1
102
RTVSPost2010Prop51ColorIndex
 90
      256
102
RTVSPost2010Prop51ColorRGB
 90
-16777216
102
RTVSPost2010PropOp51
 70
     0
102
RTVSPost2010Prop52
140
1.0
102
RTVSPost2010PropOp52
 70
     0
102
RTVSPost2010Prop53
 90
        2
102
RTVSPost2010PropOp53
 70
     1
102
RTVSPost2010Prop54
  1
strokes_ogs.tif
102
RTVSPost2010PropOp54
 70
     1
102
RTVSPost2010Prop55
280
     0
102
RTVSPost2010PropOp55
 70
     1
102
RTVSPost2010Prop56
140
1.0
102
RTVSPost2010PropOp56
 70
     1
102
RTVSPost2010Prop57
140
1.0
102
RTVSPost2010PropOp57
 70
     1
102
RTVSPropertyOp0
 70
     1
102
RTVSPropertyOp1
 70
     1
102
RTVSPropertyOp2
 70
     1
102
RTVSPropertyOp3
 70
     1
102
RTVSPropertyOp4
 70
     1
102
RTVSPropertyOp5
 70
     1
102
RTVSPropertyOp6
 70
     1
102
RTVSPropertyOp7
 70
     1
102
RTVSPropertyOp8
 70
     1
102
RTVSPropertyOp9
 70
     1
102
RTVSPropertyOp10
 70
     1
102
RTVSPropertyOp11
 70
     1
102
RTVSPropertyOp12
 70
     1
102
RTVSPropertyOp13
 70
     1
102
RTVSPropertyOp14
 70
     1
102
RTVSPropertyOp15
 70
     1
102
RTVSPropertyOp16
 70
     1
102
RTVSPropertyOp17
 70
     1
102
RTVSPropertyOp18
 70
     1
102
RTVSPropertyOp19
 70
     1
102
RTVSPropertyOp20
 70
     1
102
RTVSPropertyOp21
 70
     1
102
RTVSPropertyOp22
 70
     1
102
RTVSPropertyOp23
 70
     1
102
RTVSPropertyOp24
 70
     1
102
RTVSPropertyOp25
 70
     1
102
RTVSPropertyOp26
 70
     1
102
RTVSPropertyOp27
 70
     1
102
RTVSPropertyOp28
 70
     1
102
RTVSPropertyOp29
 70
     1
102
RTVSPropertyOp30
 70
     1
102
RTVSPropertyOp31
 70
     1
102
RTVSPropertyOp32
 70
     1
102
RTVSPropertyOp33
 70
     1
102
RTVSPropertyOp34
 70
     1
102
RTVSPropertyOp35
 70
     1
102
RTVSPropertyOp36
 70
     1
102
RTVSPropertyOp37
 70
     1
102
RTVSPropertyOp38
 70
     1
102
RTVSPropertyOp39
 70
     1
102
RTVSPropertyOp40
 70
     1
102
RTVSPropertyOp41
 70
     1
102
RTVSPropertyOp42
 70
     1
102
RTVSPropertyOp43
 70
     1
102
RTVSPropertyOp44
 70
     1
102
RTVSPropertyOp45
 70
     1
102
RTVSPropertyOp46
 70
     1
102
RTVSPropertyOp47
 70
     1
102
RTVSPropertyOp48
 70
     1
102
RTVSPropertyOp49
 70
     1
102
RTVSPropertyOp50
 70
     1
102
RTVSPropertyOp51
 70
     0
102
RTVSPropertyOp52
 70
     0
102
RTVSPropertyOp53
 70
     1
102
RTVSPropertyOp54
 70
     1
102
RTVSPropertyOp55
 70
     1
102
RTVSPropertyOp56
 70
     1
102
RTVSPropertyOp57
 70
     1
102
RTVSPropertyOp58
 70
     1
102
RTVSPropertyOp59
 70
     1
102
RTVSPropertyOp60
 70
     1
102
RTVSPropertyOp61
 70
     1
102
RTVSPropertyOp62
 70
     1
  0
XRECORD
  5
3328
102
{ACAD_REACTORS
330
3327
102
}
330
3327
100
AcDbXrecord
280
     1
102
RTVSPost2010Prop28
280
     0
102
RTVSPost2010PropOp28
 70
     1
102
RTVSPost2010Prop29
280
     1
102
RTVSPost2010PropOp29
 70
     1
102
RTVSPost2010Prop30
280
     1
102
RTVSPost2010PropOp30
 70
     1
102
RTVSPost2010Prop31
280
     0
102
RTVSPost2010PropOp31
 70
     1
102
RTVSPost2010Prop32
280
     0
102
RTVSPost2010PropOp32
 70
     1
102
RTVSPost2010Prop33
280
     0
102
RTVSPost2010PropOp33
 70
     1
102
RTVSPost2010Prop34
280
     0
102
RTVSPost2010PropOp34
 70
     1
102
RTVSPost2010Prop35
280
     0
102
RTVSPost2010PropOp35
 70
     1
102
RTVSPost2010Prop36
280
     0
102
RTVSPost2010PropOp36
 70
     1
102
RTVSPost2010Prop37
 90
       50
102
RTVSPost2010PropOp37
 70
     0
102
RTVSPost2010Prop38
140
0.0
102
RTVSPost2010PropOp38
 70
     0
102
RTVSPost2010Prop39
140
1.0
102
RTVSPost2010PropOp39
 70
     0
102
RTVSPost2010Prop40
 90
        0
102
RTVSPost2010PropOp40
 70
     0
102
RTVSPost2010Prop41ColorIndex
 90
       18
102
RTVSPost2010Prop41ColorRGB
 90
        0
102
RTVSPost2010PropOp41
 70
     0
102
RTVSPost2010Prop42
 90
       50
102
RTVSPost2010PropOp42
 70
     0
102
RTVSPost2010Prop43
 90
        3
102
RTVSPost2010PropOp43
 70
     0
102
RTVSPost2010Prop44ColorIndex
 90
        5
102
RTVSPost2010Prop44ColorRGB
 90
      255
102
RTVSPost2010PropOp44
 70
     0
102
RTVSPost2010Prop45
280
     0
102
RTVSPost2010PropOp45
 70
     1
102
RTVSPost2010Prop46
 90
       50
102
RTVSPost2010PropOp46
 70
     0
102
RTVSPost2010Prop47
 90
       50
102
RTVSPost2010PropOp47
 70
     0
102
RTVSPost2010Prop48
 90
       50
102
RTVSPost2010PropOp48
 70
     0
102
RTVSPost2010Prop49
280
     0
102
RTVSPost2010PropOp49
 70
     1
102
RTVSPost2010Prop50
 90
       50
102
RTVSPost2010PropOp50
 70
     0
102
RTVSPost2010Prop51ColorIndex
 90
      256
102
RTVSPost2010Prop51ColorRGB
 90
-16777216
102
RTVSPost2010PropOp51
 70
     0
102
RTVSPost2010Prop52
140
1.0
102
RTVSPost2010PropOp52
 70
     0
102
RTVSPost2010Prop53
 90
        2
102
RTVSPost2010PropOp53
 70
     0
102
RTVSPost2010Prop54
  1
strokes_ogs.tif
102
RTVSPost2010PropOp54
 70
     0
102
RTVSPost2010Prop55
280
     0
102
RTVSPost2010PropOp55
 70
     1
102
RTVSPost2010Prop56
140
1.0
102
RTVSPost2010PropOp56
 70
     0
102
RTVSPost2010Prop57
140
1.0
102
RTVSPost2010PropOp57
 70
     0
102
RTVSPropertyOp0
 70
     0
102
RTVSPropertyOp1
 70
     0
102
RTVSPropertyOp2
 70
     0
102
RTVSPropertyOp3
 70
     0
102
RTVSPropertyOp4
 70
     0
102
RTVSPropertyOp5
 70
     0
102
RTVSPropertyOp6
 70
     0
102
RTVSPropertyOp7
 70
     0
102
RTVSPropertyOp8
 70
     0
102
RTVSPropertyOp9
 70
     0
102
RTVSPropertyOp10
 70
     0
102
RTVSPropertyOp11
 70
     0
102
RTVSPropertyOp12
 70
     0
102
RTVSPropertyOp13
 70
     0
102
RTVSPropertyOp14
 70
     2
102
RTVSPropertyOp15
 70
     0
102
RTVSPropertyOp16
 70
     0
102
RTVSPropertyOp17
 70
     0
102
RTVSPropertyOp18
 70
     0
102
RTVSPropertyOp19
 70
     0
102
RTVSPropertyOp20
 70
     0
102
RTVSPropertyOp21
 70
     0
102
RTVSPropertyOp22
 70
     0
102
RTVSPropertyOp23
 70
     0
102
RTVSPropertyOp24
 70
     0
102
RTVSPropertyOp25
 70
     0
102
RTVSPropertyOp26
 70
     0
102
RTVSPropertyOp27
 70
     0
102
RTVSPropertyOp28
 70
     1
102
RTVSPropertyOp29
 70
     1
102
RTVSPropertyOp30
 70
     1
102
RTVSPropertyOp31
 70
     1
102
RTVSPropertyOp32
 70
     1
102
RTVSPropertyOp33
 70
     1
102
RTVSPropertyOp34
 70
     1
102
RTVSPropertyOp35
 70
     1
102
RTVSPropertyOp36
 70
     1
102
RTVSPropertyOp37
 70
     0
102
RTVSPropertyOp38
 70
     0
102
RTVSPropertyOp39
 70
     0
102
RTVSPropertyOp40
 70
     0
102
RTVSPropertyOp41
 70
     0
102
RTVSPropertyOp42
 70
     0
102
RTVSPropertyOp43
 70
     0
102
RTVSPropertyOp44
 70
     0
102
RTVSPropertyOp45
 70
     1
102
RTVSPropertyOp46
 70
     0
102
RTVSPropertyOp47
 70
     0
102
RTVSPropertyOp48
 70
     0
102
RTVSPropertyOp49
 70
     1
102
RTVSPropertyOp50
 70
     0
102
RTVSPropertyOp51
 70
     0
102
RTVSPropertyOp52
 70
     0
102
RTVSPropertyOp53
 70
     0
102
RTVSPropertyOp54
 70
     0
102
RTVSPropertyOp55
 70
     1
102
RTVSPropertyOp56
 70
     0
102
RTVSPropertyOp57
 70
     0
102
RTVSPropertyOp58
 70
     0
102
RTVSPropertyOp59
 70
     0
102
RTVSPropertyOp60
 70
     0
102
RTVSPropertyOp61
 70
     0
102
RTVSPropertyOp62
 70
     0
  0
XRECORD
  5
330E
102
{ACAD_REACTORS
330
330D
102
}
330
330D
100
AcDbXrecord
280
     1
102
RTVSPost2010Prop28
280
     0
102
RTVSPost2010PropOp28
 70
     1
102
RTVSPost2010Prop29
280
     1
102
RTVSPost2010PropOp29
 70
     1
102
RTVSPost2010Prop30
280
     1
102
RTVSPost2010PropOp30
 70
     1
102
RTVSPost2010Prop31
280
     0
102
RTVSPost2010PropOp31
 70
     1
102
RTVSPost2010Prop32
280
     0
102
RTVSPost2010PropOp32
 70
     1
102
RTVSPost2010Prop33
280
     0
102
RTVSPost2010PropOp33
 70
     1
102
RTVSPost2010Prop34
280
     0
102
RTVSPost2010PropOp34
 70
     1
102
RTVSPost2010Prop35
280
     0
102
RTVSPost2010PropOp35
 70
     1
102
RTVSPost2010Prop36
280
     0
102
RTVSPost2010PropOp36
 70
     1
102
RTVSPost2010Prop37
 90
       50
102
RTVSPost2010PropOp37
 70
     1
102
RTVSPost2010Prop38
140
0.0
102
RTVSPost2010PropOp38
 70
     1
102
RTVSPost2010Prop39
140
1.0
102
RTVSPost2010PropOp39
 70
     1
102
RTVSPost2010Prop40
 90
        0
102
RTVSPost2010PropOp40
 70
     1
102
RTVSPost2010Prop41ColorIndex
 90
       18
102
RTVSPost2010Prop41ColorRGB
 90
        0
102
RTVSPost2010PropOp41
 70
     1
102
RTVSPost2010Prop42
 90
       50
102
RTVSPost2010PropOp42
 70
     1
102
RTVSPost2010Prop43
 90
        3
102
RTVSPost2010PropOp43
 70
     1
102
RTVSPost2010Prop44ColorIndex
 90
        5
102
RTVSPost2010Prop44ColorRGB
 90
      255
102
RTVSPost2010PropOp44
 70
     1
102
RTVSPost2010Prop45
280
     0
102
RTVSPost2010PropOp45
 70
     1
102
RTVSPost2010Prop46
 90
       50
102
RTVSPost2010PropOp46
 70
     1
102
RTVSPost2010Prop47
 90
       50
102
RTVSPost2010PropOp47
 70
     1
102
RTVSPost2010Prop48
 90
       50
102
RTVSPost2010PropOp48
 70
     1
102
RTVSPost2010Prop49
280
     0
102
RTVSPost2010PropOp49
 70
     1
102
RTVSPost2010Prop50
 90
       50
102
RTVSPost2010PropOp50
 70
     1
102
RTVSPost2010Prop51ColorIndex
 90
      256
102
RTVSPost2010Prop51ColorRGB
 90
-16777216
102
RTVSPost2010PropOp51
 70
     0
102
RTVSPost2010Prop52
140
1.0
102
RTVSPost2010PropOp52
 70
     0
102
RTVSPost2010Prop53
 90
        2
102
RTVSPost2010PropOp53
 70
     1
102
RTVSPost2010Prop54
  1
strokes_ogs.tif
102
RTVSPost2010PropOp54
 70
     1
102
RTVSPost2010Prop55
280
     0
102
RTVSPost2010PropOp55
 70
     1
102
RTVSPost2010Prop56
140
1.0
102
RTVSPost2010PropOp56
 70
     1
102
RTVSPost2010Prop57
140
1.0
102
RTVSPost2010PropOp57
 70
     1
102
RTVSPropertyOp0
 70
     1
102
RTVSPropertyOp1
 70
     1
102
RTVSPropertyOp2
 70
     1
102
RTVSPropertyOp3
 70
     1
102
RTVSPropertyOp4
 70
     1
102
RTVSPropertyOp5
 70
     1
102
RTVSPropertyOp6
 70
     1
102
RTVSPropertyOp7
 70
     1
102
RTVSPropertyOp8
 70
     1
102
RTVSPropertyOp9
 70
     1
102
RTVSPropertyOp10
 70
     1
102
RTVSPropertyOp11
 70
     1
102
RTVSPropertyOp12
 70
     1
102
RTVSPropertyOp13
 70
     1
102
RTVSPropertyOp14
 70
     1
102
RTVSPropertyOp15
 70
     1
102
RTVSPropertyOp16
 70
     1
102
RTVSPropertyOp17
 70
     1
102
RTVSPropertyOp18
 70
     1
102
RTVSPropertyOp19
 70
     1
102
RTVSPropertyOp20
 70
     1
102
RTVSPropertyOp21
 70
     1
102
RTVSPropertyOp22
 70
     1
102
RTVSPropertyOp23
 70
     1
102
RTVSPropertyOp24
 70
     1
102
RTVSPropertyOp25
 70
     1
102
RTVSPropertyOp26
 70
     1
102
RTVSPropertyOp27
 70
     1
102
RTVSPropertyOp28
 70
     1
102
RTVSPropertyOp29
 70
     1
102
RTVSPropertyOp30
 70
     1
102
RTVSPropertyOp31
 70
     1
102
RTVSPropertyOp32
 70
     1
102
RTVSPropertyOp33
 70
     1
102
RTVSPropertyOp34
 70
     1
102
RTVSPropertyOp35
 70
     1
102
RTVSPropertyOp36
 70
     1
102
RTVSPropertyOp37
 70
     1
102
RTVSPropertyOp38
 70
     1
102
RTVSPropertyOp39
 70
     1
102
RTVSPropertyOp40
 70
     1
102
RTVSPropertyOp41
 70
     1
102
RTVSPropertyOp42
 70
     1
102
RTVSPropertyOp43
 70
     1
102
RTVSPropertyOp44
 70
     1
102
RTVSPropertyOp45
 70
     1
102
RTVSPropertyOp46
 70
     1
102
RTVSPropertyOp47
 70
     1
102
RTVSPropertyOp48
 70
     1
102
RTVSPropertyOp49
 70
     1
102
RTVSPropertyOp50
 70
     1
102
RTVSPropertyOp51
 70
     0
102
RTVSPropertyOp52
 70
     0
102
RTVSPropertyOp53
 70
     1
102
RTVSPropertyOp54
 70
     1
102
RTVSPropertyOp55
 70
     1
102
RTVSPropertyOp56
 70
     1
102
RTVSPropertyOp57
 70
     1
102
RTVSPropertyOp58
 70
     1
102
RTVSPropertyOp59
 70
     1
102
RTVSPropertyOp60
 70
     1
102
RTVSPropertyOp61
 70
     1
102
RTVSPropertyOp62
 70
     1
  0
XRECORD
  5
3324
102
{ACAD_REACTORS
330
3323
102
}
330
3323
100
AcDbXrecord
280
     1
102
RTVSPost2010Prop28
280
     0
102
RTVSPost2010PropOp28
 70
     1
102
RTVSPost2010Prop29
280
     1
102
RTVSPost2010PropOp29
 70
     1
102
RTVSPost2010Prop30
280
     1
102
RTVSPost2010PropOp30
 70
     1
102
RTVSPost2010Prop31
280
     0
102
RTVSPost2010PropOp31
 70
     1
102
RTVSPost2010Prop32
280
     0
102
RTVSPost2010PropOp32
 70
     1
102
RTVSPost2010Prop33
280
     0
102
RTVSPost2010PropOp33
 70
     1
102
RTVSPost2010Prop34
280
     0
102
RTVSPost2010PropOp34
 70
     1
102
RTVSPost2010Prop35
280
     0
102
RTVSPost2010PropOp35
 70
     1
102
RTVSPost2010Prop36
280
     0
102
RTVSPost2010PropOp36
 70
     1
102
RTVSPost2010Prop37
 90
       50
102
RTVSPost2010PropOp37
 70
     1
102
RTVSPost2010Prop38
140
0.0
102
RTVSPost2010PropOp38
 70
     1
102
RTVSPost2010Prop39
140
1.0
102
RTVSPost2010PropOp39
 70
     1
102
RTVSPost2010Prop40
 90
        0
102
RTVSPost2010PropOp40
 70
     1
102
RTVSPost2010Prop41ColorIndex
 90
       18
102
RTVSPost2010Prop41ColorRGB
 90
        0
102
RTVSPost2010PropOp41
 70
     1
102
RTVSPost2010Prop42
 90
       50
102
RTVSPost2010PropOp42
 70
     1
102
RTVSPost2010Prop43
 90
        3
102
RTVSPost2010PropOp43
 70
     1
102
RTVSPost2010Prop44ColorIndex
 90
        5
102
RTVSPost2010Prop44ColorRGB
 90
      255
102
RTVSPost2010PropOp44
 70
     1
102
RTVSPost2010Prop45
280
     0
102
RTVSPost2010PropOp45
 70
     1
102
RTVSPost2010Prop46
 90
       50
102
RTVSPost2010PropOp46
 70
     1
102
RTVSPost2010Prop47
 90
       50
102
RTVSPost2010PropOp47
 70
     1
102
RTVSPost2010Prop48
 90
       50
102
RTVSPost2010PropOp48
 70
     1
102
RTVSPost2010Prop49
280
     0
102
RTVSPost2010PropOp49
 70
     1
102
RTVSPost2010Prop50
 90
       50
102
RTVSPost2010PropOp50
 70
     1
102
RTVSPost2010Prop51ColorIndex
 90
      256
102
RTVSPost2010Prop51ColorRGB
 90
-16777216
102
RTVSPost2010PropOp51
 70
     0
102
RTVSPost2010Prop52
140
1.0
102
RTVSPost2010PropOp52
 70
     0
102
RTVSPost2010Prop53
 90
        2
102
RTVSPost2010PropOp53
 70
     1
102
RTVSPost2010Prop54
  1
strokes_ogs.tif
102
RTVSPost2010PropOp54
 70
     1
102
RTVSPost2010Prop55
280
     0
102
RTVSPost2010PropOp55
 70
     1
102
RTVSPost2010Prop56
140
1.0
102
RTVSPost2010PropOp56
 70
     1
102
RTVSPost2010Prop57
140
1.0
102
RTVSPost2010PropOp57
 70
     1
102
RTVSPropertyOp0
 70
     1
102
RTVSPropertyOp1
 70
     1
102
RTVSPropertyOp2
 70
     1
102
RTVSPropertyOp3
 70
     1
102
RTVSPropertyOp4
 70
     1
102
RTVSPropertyOp5
 70
     1
102
RTVSPropertyOp6
 70
     1
102
RTVSPropertyOp7
 70
     1
102
RTVSPropertyOp8
 70
     1
102
RTVSPropertyOp9
 70
     1
102
RTVSPropertyOp10
 70
     1
102
RTVSPropertyOp11
 70
     1
102
RTVSPropertyOp12
 70
     1
102
RTVSPropertyOp13
 70
     1
102
RTVSPropertyOp14
 70
     1
102
RTVSPropertyOp15
 70
     1
102
RTVSPropertyOp16
 70
     1
102
RTVSPropertyOp17
 70
     1
102
RTVSPropertyOp18
 70
     1
102
RTVSPropertyOp19
 70
     1
102
RTVSPropertyOp20
 70
     1
102
RTVSPropertyOp21
 70
     1
102
RTVSPropertyOp22
 70
     1
102
RTVSPropertyOp23
 70
     1
102
RTVSPropertyOp24
 70
     1
102
RTVSPropertyOp25
 70
     1
102
RTVSPropertyOp26
 70
     1
102
RTVSPropertyOp27
 70
     1
102
RTVSPropertyOp28
 70
     1
102
RTVSPropertyOp29
 70
     1
102
RTVSPropertyOp30
 70
     1
102
RTVSPropertyOp31
 70
     1
102
RTVSPropertyOp32
 70
     1
102
RTVSPropertyOp33
 70
     1
102
RTVSPropertyOp34
 70
     1
102
RTVSPropertyOp35
 70
     1
102
RTVSPropertyOp36
 70
     1
102
RTVSPropertyOp37
 70
     1
102
RTVSPropertyOp38
 70
     1
102
RTVSPropertyOp39
 70
     1
102
RTVSPropertyOp40
 70
     1
102
RTVSPropertyOp41
 70
     1
102
RTVSPropertyOp42
 70
     1
102
RTVSPropertyOp43
 70
     1
102
RTVSPropertyOp44
 70
     1
102
RTVSPropertyOp45
 70
     1
102
RTVSPropertyOp46
 70
     1
102
RTVSPropertyOp47
 70
     1
102
RTVSPropertyOp48
 70
     1
102
RTVSPropertyOp49
 70
     1
102
RTVSPropertyOp50
 70
     1
102
RTVSPropertyOp51
 70
     0
102
RTVSPropertyOp52
 70
     0
102
RTVSPropertyOp53
 70
     1
102
RTVSPropertyOp54
 70
     1
102
RTVSPropertyOp55
 70
     1
102
RTVSPropertyOp56
 70
     1
102
RTVSPropertyOp57
 70
     1
102
RTVSPropertyOp58
 70
     1
102
RTVSPropertyOp59
 70
     1
102
RTVSPropertyOp60
 70
     1
102
RTVSPropertyOp61
 70
     1
102
RTVSPropertyOp62
 70
     1
  0
XRECORD
  5
3322
102
{ACAD_REACTORS
330
3321
102
}
330
3321
100
AcDbXrecord
280
     1
102
RTVSPost2010Prop28
280
     0
102
RTVSPost2010PropOp28
 70
     1
102
RTVSPost2010Prop29
280
     1
102
RTVSPost2010PropOp29
 70
     1
102
RTVSPost2010Prop30
280
     1
102
RTVSPost2010PropOp30
 70
     1
102
RTVSPost2010Prop31
280
     0
102
RTVSPost2010PropOp31
 70
     1
102
RTVSPost2010Prop32
280
     0
102
RTVSPost2010PropOp32
 70
     1
102
RTVSPost2010Prop33
280
     0
102
RTVSPost2010PropOp33
 70
     1
102
RTVSPost2010Prop34
280
     0
102
RTVSPost2010PropOp34
 70
     1
102
RTVSPost2010Prop35
280
     0
102
RTVSPost2010PropOp35
 70
     1
102
RTVSPost2010Prop36
280
     0
102
RTVSPost2010PropOp36
 70
     1
102
RTVSPost2010Prop37
 90
       50
102
RTVSPost2010PropOp37
 70
     1
102
RTVSPost2010Prop38
140
0.0
102
RTVSPost2010PropOp38
 70
     1
102
RTVSPost2010Prop39
140
1.0
102
RTVSPost2010PropOp39
 70
     1
102
RTVSPost2010Prop40
 90
        0
102
RTVSPost2010PropOp40
 70
     1
102
RTVSPost2010Prop41ColorIndex
 90
       18
102
RTVSPost2010Prop41ColorRGB
 90
        0
102
RTVSPost2010PropOp41
 70
     1
102
RTVSPost2010Prop42
 90
       50
102
RTVSPost2010PropOp42
 70
     1
102
RTVSPost2010Prop43
 90
        3
102
RTVSPost2010PropOp43
 70
     1
102
RTVSPost2010Prop44ColorIndex
 90
        5
102
RTVSPost2010Prop44ColorRGB
 90
      255
102
RTVSPost2010PropOp44
 70
     1
102
RTVSPost2010Prop45
280
     0
102
RTVSPost2010PropOp45
 70
     1
102
RTVSPost2010Prop46
 90
       50
102
RTVSPost2010PropOp46
 70
     1
102
RTVSPost2010Prop47
 90
       50
102
RTVSPost2010PropOp47
 70
     1
102
RTVSPost2010Prop48
 90
       50
102
RTVSPost2010PropOp48
 70
     1
102
RTVSPost2010Prop49
280
     0
102
RTVSPost2010PropOp49
 70
     1
102
RTVSPost2010Prop50
 90
       50
102
RTVSPost2010PropOp50
 70
     1
102
RTVSPost2010Prop51ColorIndex
 90
      256
102
RTVSPost2010Prop51ColorRGB
 90
-16777216
102
RTVSPost2010PropOp51
 70
     0
102
RTVSPost2010Prop52
140
1.0
102
RTVSPost2010PropOp52
 70
     0
102
RTVSPost2010Prop53
 90
        2
102
RTVSPost2010PropOp53
 70
     1
102
RTVSPost2010Prop54
  1
strokes_ogs.tif
102
RTVSPost2010PropOp54
 70
     1
102
RTVSPost2010Prop55
280
     0
102
RTVSPost2010PropOp55
 70
     1
102
RTVSPost2010Prop56
140
1.0
102
RTVSPost2010PropOp56
 70
     1
102
RTVSPost2010Prop57
140
1.0
102
RTVSPost2010PropOp57
 70
     1
102
RTVSPropertyOp0
 70
     1
102
RTVSPropertyOp1
 70
     1
102
RTVSPropertyOp2
 70
     1
102
RTVSPropertyOp3
 70
     1
102
RTVSPropertyOp4
 70
     1
102
RTVSPropertyOp5
 70
     1
102
RTVSPropertyOp6
 70
     1
102
RTVSPropertyOp7
 70
     1
102
RTVSPropertyOp8
 70
     1
102
RTVSPropertyOp9
 70
     1
102
RTVSPropertyOp10
 70
     1
102
RTVSPropertyOp11
 70
     1
102
RTVSPropertyOp12
 70
     1
102
RTVSPropertyOp13
 70
     1
102
RTVSPropertyOp14
 70
     1
102
RTVSPropertyOp15
 70
     1
102
RTVSPropertyOp16
 70
     1
102
RTVSPropertyOp17
 70
     1
102
RTVSPropertyOp18
 70
     1
102
RTVSPropertyOp19
 70
     1
102
RTVSPropertyOp20
 70
     1
102
RTVSPropertyOp21
 70
     1
102
RTVSPropertyOp22
 70
     1
102
RTVSPropertyOp23
 70
     1
102
RTVSPropertyOp24
 70
     1
102
RTVSPropertyOp25
 70
     1
102
RTVSPropertyOp26
 70
     1
102
RTVSPropertyOp27
 70
     1
102
RTVSPropertyOp28
 70
     1
102
RTVSPropertyOp29
 70
     1
102
RTVSPropertyOp30
 70
     1
102
RTVSPropertyOp31
 70
     1
102
RTVSPropertyOp32
 70
     1
102
RTVSPropertyOp33
 70
     1
102
RTVSPropertyOp34
 70
     1
102
RTVSPropertyOp35
 70
     1
102
RTVSPropertyOp36
 70
     1
102
RTVSPropertyOp37
 70
     1
102
RTVSPropertyOp38
 70
     1
102
RTVSPropertyOp39
 70
     1
102
RTVSPropertyOp40
 70
     1
102
RTVSPropertyOp41
 70
     1
102
RTVSPropertyOp42
 70
     1
102
RTVSPropertyOp43
 70
     1
102
RTVSPropertyOp44
 70
     1
102
RTVSPropertyOp45
 70
     1
102
RTVSPropertyOp46
 70
     1
102
RTVSPropertyOp47
 70
     1
102
RTVSPropertyOp48
 70
     1
102
RTVSPropertyOp49
 70
     1
102
RTVSPropertyOp50
 70
     1
102
RTVSPropertyOp51
 70
     0
102
RTVSPropertyOp52
 70
     0
102
RTVSPropertyOp53
 70
     1
102
RTVSPropertyOp54
 70
     1
102
RTVSPropertyOp55
 70
     1
102
RTVSPropertyOp56
 70
     1
102
RTVSPropertyOp57
 70
     1
102
RTVSPropertyOp58
 70
     1
102
RTVSPropertyOp59
 70
     1
102
RTVSPropertyOp60
 70
     1
102
RTVSPropertyOp61
 70
     1
102
RTVSPropertyOp62
 70
     1
  0
XRECORD
  5
331C
102
{ACAD_REACTORS
330
331B
102
}
330
331B
100
AcDbXrecord
280
     1
102
RTVSPost2010Prop28
280
     0
102
RTVSPost2010PropOp28
 70
     1
102
RTVSPost2010Prop29
280
     1
102
RTVSPost2010PropOp29
 70
     1
102
RTVSPost2010Prop30
280
     1
102
RTVSPost2010PropOp30
 70
     1
102
RTVSPost2010Prop31
280
     0
102
RTVSPost2010PropOp31
 70
     1
102
RTVSPost2010Prop32
280
     0
102
RTVSPost2010PropOp32
 70
     1
102
RTVSPost2010Prop33
280
     0
102
RTVSPost2010PropOp33
 70
     1
102
RTVSPost2010Prop34
280
     0
102
RTVSPost2010PropOp34
 70
     1
102
RTVSPost2010Prop35
280
     0
102
RTVSPost2010PropOp35
 70
     1
102
RTVSPost2010Prop36
280
     0
102
RTVSPost2010PropOp36
 70
     1
102
RTVSPost2010Prop37
 90
       50
102
RTVSPost2010PropOp37
 70
     1
102
RTVSPost2010Prop38
140
0.0
102
RTVSPost2010PropOp38
 70
     1
102
RTVSPost2010Prop39
140
1.0
102
RTVSPost2010PropOp39
 70
     1
102
RTVSPost2010Prop40
 90
        0
102
RTVSPost2010PropOp40
 70
     1
102
RTVSPost2010Prop41ColorIndex
 90
       18
102
RTVSPost2010Prop41ColorRGB
 90
        0
102
RTVSPost2010PropOp41
 70
     1
102
RTVSPost2010Prop42
 90
       50
102
RTVSPost2010PropOp42
 70
     1
102
RTVSPost2010Prop43
 90
        3
102
RTVSPost2010PropOp43
 70
     1
102
RTVSPost2010Prop44ColorIndex
 90
        5
102
RTVSPost2010Prop44ColorRGB
 90
      255
102
RTVSPost2010PropOp44
 70
     1
102
RTVSPost2010Prop45
280
     0
102
RTVSPost2010PropOp45
 70
     1
102
RTVSPost2010Prop46
 90
       50
102
RTVSPost2010PropOp46
 70
     1
102
RTVSPost2010Prop47
 90
       50
102
RTVSPost2010PropOp47
 70
     1
102
RTVSPost2010Prop48
 90
       50
102
RTVSPost2010PropOp48
 70
     1
102
RTVSPost2010Prop49
280
     0
102
RTVSPost2010PropOp49
 70
     1
102
RTVSPost2010Prop50
 90
       50
102
RTVSPost2010PropOp50
 70
     1
102
RTVSPost2010Prop51ColorIndex
 90
      256
102
RTVSPost2010Prop51ColorRGB
 90
-16777216
102
RTVSPost2010PropOp51
 70
     0
102
RTVSPost2010Prop52
140
1.0
102
RTVSPost2010PropOp52
 70
     0
102
RTVSPost2010Prop53
 90
        2
102
RTVSPost2010PropOp53
 70
     1
102
RTVSPost2010Prop54
  1
strokes_ogs.tif
102
RTVSPost2010PropOp54
 70
     1
102
RTVSPost2010Prop55
280
     0
102
RTVSPost2010PropOp55
 70
     1
102
RTVSPost2010Prop56
140
1.0
102
RTVSPost2010PropOp56
 70
     1
102
RTVSPost2010Prop57
140
1.0
102
RTVSPost2010PropOp57
 70
     1
102
RTVSPropertyOp0
 70
     1
102
RTVSPropertyOp1
 70
     1
102
RTVSPropertyOp2
 70
     1
102
RTVSPropertyOp3
 70
     1
102
RTVSPropertyOp4
 70
     1
102
RTVSPropertyOp5
 70
     1
102
RTVSPropertyOp6
 70
     1
102
RTVSPropertyOp7
 70
     1
102
RTVSPropertyOp8
 70
     1
102
RTVSPropertyOp9
 70
     1
102
RTVSPropertyOp10
 70
     1
102
RTVSPropertyOp11
 70
     1
102
RTVSPropertyOp12
 70
     1
102
RTVSPropertyOp13
 70
     1
102
RTVSPropertyOp14
 70
     1
102
RTVSPropertyOp15
 70
     1
102
RTVSPropertyOp16
 70
     1
102
RTVSPropertyOp17
 70
     1
102
RTVSPropertyOp18
 70
     1
102
RTVSPropertyOp19
 70
     1
102
RTVSPropertyOp20
 70
     1
102
RTVSPropertyOp21
 70
     1
102
RTVSPropertyOp22
 70
     1
102
RTVSPropertyOp23
 70
     1
102
RTVSPropertyOp24
 70
     1
102
RTVSPropertyOp25
 70
     1
102
RTVSPropertyOp26
 70
     1
102
RTVSPropertyOp27
 70
     1
102
RTVSPropertyOp28
 70
     1
102
RTVSPropertyOp29
 70
     1
102
RTVSPropertyOp30
 70
     1
102
RTVSPropertyOp31
 70
     1
102
RTVSPropertyOp32
 70
     1
102
RTVSPropertyOp33
 70
     1
102
RTVSPropertyOp34
 70
     1
102
RTVSPropertyOp35
 70
     1
102
RTVSPropertyOp36
 70
     1
102
RTVSPropertyOp37
 70
     1
102
RTVSPropertyOp38
 70
     1
102
RTVSPropertyOp39
 70
     1
102
RTVSPropertyOp40
 70
     1
102
RTVSPropertyOp41
 70
     1
102
RTVSPropertyOp42
 70
     1
102
RTVSPropertyOp43
 70
     1
102
RTVSPropertyOp44
 70
     1
102
RTVSPropertyOp45
 70
     1
102
RTVSPropertyOp46
 70
     1
102
RTVSPropertyOp47
 70
     1
102
RTVSPropertyOp48
 70
     1
102
RTVSPropertyOp49
 70
     1
102
RTVSPropertyOp50
 70
     1
102
RTVSPropertyOp51
 70
     0
102
RTVSPropertyOp52
 70
     0
102
RTVSPropertyOp53
 70
     1
102
RTVSPropertyOp54
 70
     1
102
RTVSPropertyOp55
 70
     1
102
RTVSPropertyOp56
 70
     1
102
RTVSPropertyOp57
 70
     1
102
RTVSPropertyOp58
 70
     1
102
RTVSPropertyOp59
 70
     1
102
RTVSPropertyOp60
 70
     1
102
RTVSPropertyOp61
 70
     1
102
RTVSPropertyOp62
 70
     1
  0
XRECORD
  5
331E
102
{ACAD_REACTORS
330
331D
102
}
330
331D
100
AcDbXrecord
280
     1
102
RTVSPost2010Prop28
280
     0
102
RTVSPost2010PropOp28
 70
     1
102
RTVSPost2010Prop29
280
     1
102
RTVSPost2010PropOp29
 70
     1
102
RTVSPost2010Prop30
280
     1
102
RTVSPost2010PropOp30
 70
     1
102
RTVSPost2010Prop31
280
     0
102
RTVSPost2010PropOp31
 70
     1
102
RTVSPost2010Prop32
280
     0
102
RTVSPost2010PropOp32
 70
     1
102
RTVSPost2010Prop33
280
     0
102
RTVSPost2010PropOp33
 70
     1
102
RTVSPost2010Prop34
280
     0
102
RTVSPost2010PropOp34
 70
     1
102
RTVSPost2010Prop35
280
     0
102
RTVSPost2010PropOp35
 70
     1
102
RTVSPost2010Prop36
280
     0
102
RTVSPost2010PropOp36
 70
     1
102
RTVSPost2010Prop37
 90
       50
102
RTVSPost2010PropOp37
 70
     1
102
RTVSPost2010Prop38
140
0.0
102
RTVSPost2010PropOp38
 70
     1
102
RTVSPost2010Prop39
140
1.0
102
RTVSPost2010PropOp39
 70
     1
102
RTVSPost2010Prop40
 90
        0
102
RTVSPost2010PropOp40
 70
     1
102
RTVSPost2010Prop41ColorIndex
 90
       18
102
RTVSPost2010Prop41ColorRGB
 90
        0
102
RTVSPost2010PropOp41
 70
     1
102
RTVSPost2010Prop42
 90
       50
102
RTVSPost2010PropOp42
 70
     1
102
RTVSPost2010Prop43
 90
        3
102
RTVSPost2010PropOp43
 70
     1
102
RTVSPost2010Prop44ColorIndex
 90
        5
102
RTVSPost2010Prop44ColorRGB
 90
      255
102
RTVSPost2010PropOp44
 70
     1
102
RTVSPost2010Prop45
280
     0
102
RTVSPost2010PropOp45
 70
     1
102
RTVSPost2010Prop46
 90
       50
102
RTVSPost2010PropOp46
 70
     1
102
RTVSPost2010Prop47
 90
       50
102
RTVSPost2010PropOp47
 70
     1
102
RTVSPost2010Prop48
 90
       50
102
RTVSPost2010PropOp48
 70
     1
102
RTVSPost2010Prop49
280
     0
102
RTVSPost2010PropOp49
 70
     1
102
RTVSPost2010Prop50
 90
       50
102
RTVSPost2010PropOp50
 70
     1
102
RTVSPost2010Prop51ColorIndex
 90
      256
102
RTVSPost2010Prop51ColorRGB
 90
-16777216
102
RTVSPost2010PropOp51
 70
     0
102
RTVSPost2010Prop52
140
1.0
102
RTVSPost2010PropOp52
 70
     0
102
RTVSPost2010Prop53
 90
        2
102
RTVSPost2010PropOp53
 70
     1
102
RTVSPost2010Prop54
  1
strokes_ogs.tif
102
RTVSPost2010PropOp54
 70
     1
102
RTVSPost2010Prop55
280
     0
102
RTVSPost2010PropOp55
 70
     1
102
RTVSPost2010Prop56
140
1.0
102
RTVSPost2010PropOp56
 70
     1
102
RTVSPost2010Prop57
140
1.0
102
RTVSPost2010PropOp57
 70
     1
102
RTVSPropertyOp0
 70
     1
102
RTVSPropertyOp1
 70
     1
102
RTVSPropertyOp2
 70
     1
102
RTVSPropertyOp3
 70
     1
102
RTVSPropertyOp4
 70
     1
102
RTVSPropertyOp5
 70
     1
102
RTVSPropertyOp6
 70
     1
102
RTVSPropertyOp7
 70
     1
102
RTVSPropertyOp8
 70
     1
102
RTVSPropertyOp9
 70
     1
102
RTVSPropertyOp10
 70
     1
102
RTVSPropertyOp11
 70
     1
102
RTVSPropertyOp12
 70
     1
102
RTVSPropertyOp13
 70
     1
102
RTVSPropertyOp14
 70
     1
102
RTVSPropertyOp15
 70
     1
102
RTVSPropertyOp16
 70
     1
102
RTVSPropertyOp17
 70
     1
102
RTVSPropertyOp18
 70
     1
102
RTVSPropertyOp19
 70
     1
102
RTVSPropertyOp20
 70
     1
102
RTVSPropertyOp21
 70
     1
102
RTVSPropertyOp22
 70
     1
102
RTVSPropertyOp23
 70
     1
102
RTVSPropertyOp24
 70
     1
102
RTVSPropertyOp25
 70
     1
102
RTVSPropertyOp26
 70
     1
102
RTVSPropertyOp27
 70
     1
102
RTVSPropertyOp28
 70
     1
102
RTVSPropertyOp29
 70
     1
102
RTVSPropertyOp30
 70
     1
102
RTVSPropertyOp31
 70
     1
102
RTVSPropertyOp32
 70
     1
102
RTVSPropertyOp33
 70
     1
102
RTVSPropertyOp34
 70
     1
102
RTVSPropertyOp35
 70
     1
102
RTVSPropertyOp36
 70
     1
102
RTVSPropertyOp37
 70
     1
102
RTVSPropertyOp38
 70
     1
102
RTVSPropertyOp39
 70
     1
102
RTVSPropertyOp40
 70
     1
102
RTVSPropertyOp41
 70
     1
102
RTVSPropertyOp42
 70
     1
102
RTVSPropertyOp43
 70
     1
102
RTVSPropertyOp44
 70
     1
102
RTVSPropertyOp45
 70
     1
102
RTVSPropertyOp46
 70
     1
102
RTVSPropertyOp47
 70
     1
102
RTVSPropertyOp48
 70
     1
102
RTVSPropertyOp49
 70
     1
102
RTVSPropertyOp50
 70
     1
102
RTVSPropertyOp51
 70
     0
102
RTVSPropertyOp52
 70
     0
102
RTVSPropertyOp53
 70
     1
102
RTVSPropertyOp54
 70
     1
102
RTVSPropertyOp55
 70
     1
102
RTVSPropertyOp56
 70
     1
102
RTVSPropertyOp57
 70
     1
102
RTVSPropertyOp58
 70
     1
102
RTVSPropertyOp59
 70
     1
102
RTVSPropertyOp60
 70
     1
102
RTVSPropertyOp61
 70
     1
102
RTVSPropertyOp62
 70
     1
  0
XRECORD
  5
3314
102
{ACAD_REACTORS
330
3313
102
}
330
3313
100
AcDbXrecord
280
     1
102
RTVSPost2010Prop28
280
     0
102
RTVSPost2010PropOp28
 70
     1
102
RTVSPost2010Prop29
280
     1
102
RTVSPost2010PropOp29
 70
     1
102
RTVSPost2010Prop30
280
     1
102
RTVSPost2010PropOp30
 70
     1
102
RTVSPost2010Prop31
280
     0
102
RTVSPost2010PropOp31
 70
     1
102
RTVSPost2010Prop32
280
     0
102
RTVSPost2010PropOp32
 70
     1
102
RTVSPost2010Prop33
280
     0
102
RTVSPost2010PropOp33
 70
     1
102
RTVSPost2010Prop34
280
     0
102
RTVSPost2010PropOp34
 70
     1
102
RTVSPost2010Prop35
280
     0
102
RTVSPost2010PropOp35
 70
     1
102
RTVSPost2010Prop36
280
     0
102
RTVSPost2010PropOp36
 70
     1
102
RTVSPost2010Prop37
 90
       50
102
RTVSPost2010PropOp37
 70
     1
102
RTVSPost2010Prop38
140
0.0
102
RTVSPost2010PropOp38
 70
     1
102
RTVSPost2010Prop39
140
1.0
102
RTVSPost2010PropOp39
 70
     1
102
RTVSPost2010Prop40
 90
        0
102
RTVSPost2010PropOp40
 70
     1
102
RTVSPost2010Prop41ColorIndex
 90
       18
102
RTVSPost2010Prop41ColorRGB
 90
        0
102
RTVSPost2010PropOp41
 70
     1
102
RTVSPost2010Prop42
 90
       50
102
RTVSPost2010PropOp42
 70
     1
102
RTVSPost2010Prop43
 90
        3
102
RTVSPost2010PropOp43
 70
     1
102
RTVSPost2010Prop44ColorIndex
 90
        5
102
RTVSPost2010Prop44ColorRGB
 90
      255
102
RTVSPost2010PropOp44
 70
     1
102
RTVSPost2010Prop45
280
     0
102
RTVSPost2010PropOp45
 70
     1
102
RTVSPost2010Prop46
 90
       50
102
RTVSPost2010PropOp46
 70
     1
102
RTVSPost2010Prop47
 90
       50
102
RTVSPost2010PropOp47
 70
     1
102
RTVSPost2010Prop48
 90
       50
102
RTVSPost2010PropOp48
 70
     1
102
RTVSPost2010Prop49
280
     0
102
RTVSPost2010PropOp49
 70
     1
102
RTVSPost2010Prop50
 90
       50
102
RTVSPost2010PropOp50
 70
     1
102
RTVSPost2010Prop51ColorIndex
 90
      256
102
RTVSPost2010Prop51ColorRGB
 90
-16777216
102
RTVSPost2010PropOp51
 70
     0
102
RTVSPost2010Prop52
140
1.0
102
RTVSPost2010PropOp52
 70
     0
102
RTVSPost2010Prop53
 90
        2
102
RTVSPost2010PropOp53
 70
     1
102
RTVSPost2010Prop54
  1
strokes_ogs.tif
102
RTVSPost2010PropOp54
 70
     1
102
RTVSPost2010Prop55
280
     0
102
RTVSPost2010PropOp55
 70
     1
102
RTVSPost2010Prop56
140
1.0
102
RTVSPost2010PropOp56
 70
     1
102
RTVSPost2010Prop57
140
1.0
102
RTVSPost2010PropOp57
 70
     1
102
RTVSPropertyOp0
 70
     1
102
RTVSPropertyOp1
 70
     1
102
RTVSPropertyOp2
 70
     1
102
RTVSPropertyOp3
 70
     1
102
RTVSPropertyOp4
 70
     1
102
RTVSPropertyOp5
 70
     1
102
RTVSPropertyOp6
 70
     1
102
RTVSPropertyOp7
 70
     1
102
RTVSPropertyOp8
 70
     1
102
RTVSPropertyOp9
 70
     1
102
RTVSPropertyOp10
 70
     1
102
RTVSPropertyOp11
 70
     1
102
RTVSPropertyOp12
 70
     1
102
RTVSPropertyOp13
 70
     1
102
RTVSPropertyOp14
 70
     1
102
RTVSPropertyOp15
 70
     1
102
RTVSPropertyOp16
 70
     1
102
RTVSPropertyOp17
 70
     1
102
RTVSPropertyOp18
 70
     1
102
RTVSPropertyOp19
 70
     1
102
RTVSPropertyOp20
 70
     1
102
RTVSPropertyOp21
 70
     1
102
RTVSPropertyOp22
 70
     1
102
RTVSPropertyOp23
 70
     1
102
RTVSPropertyOp24
 70
     1
102
RTVSPropertyOp25
 70
     1
102
RTVSPropertyOp26
 70
     1
102
RTVSPropertyOp27
 70
     1
102
RTVSPropertyOp28
 70
     1
102
RTVSPropertyOp29
 70
     1
102
RTVSPropertyOp30
 70
     1
102
RTVSPropertyOp31
 70
     1
102
RTVSPropertyOp32
 70
     1
102
RTVSPropertyOp33
 70
     1
102
RTVSPropertyOp34
 70
     1
102
RTVSPropertyOp35
 70
     1
102
RTVSPropertyOp36
 70
     1
102
RTVSPropertyOp37
 70
     1
102
RTVSPropertyOp38
 70
     1
102
RTVSPropertyOp39
 70
     1
102
RTVSPropertyOp40
 70
     1
102
RTVSPropertyOp41
 70
     1
102
RTVSPropertyOp42
 70
     1
102
RTVSPropertyOp43
 70
     1
102
RTVSPropertyOp44
 70
     1
102
RTVSPropertyOp45
 70
     1
102
RTVSPropertyOp46
 70
     1
102
RTVSPropertyOp47
 70
     1
102
RTVSPropertyOp48
 70
     1
102
RTVSPropertyOp49
 70
     1
102
RTVSPropertyOp50
 70
     1
102
RTVSPropertyOp51
 70
     0
102
RTVSPropertyOp52
 70
     0
102
RTVSPropertyOp53
 70
     1
102
RTVSPropertyOp54
 70
     1
102
RTVSPropertyOp55
 70
     1
102
RTVSPropertyOp56
 70
     1
102
RTVSPropertyOp57
 70
     1
102
RTVSPropertyOp58
 70
     1
102
RTVSPropertyOp59
 70
     1
102
RTVSPropertyOp60
 70
     1
102
RTVSPropertyOp61
 70
     1
102
RTVSPropertyOp62
 70
     1
  0
XRECORD
  5
3308
102
{ACAD_REACTORS
330
3307
102
}
330
3307
100
AcDbXrecord
280
     1
102
RTVSPost2010Prop28
280
     0
102
RTVSPost2010PropOp28
 70
     1
102
RTVSPost2010Prop29
280
     1
102
RTVSPost2010PropOp29
 70
     1
102
RTVSPost2010Prop30
280
     1
102
RTVSPost2010PropOp30
 70
     1
102
RTVSPost2010Prop31
280
     0
102
RTVSPost2010PropOp31
 70
     1
102
RTVSPost2010Prop32
280
     0
102
RTVSPost2010PropOp32
 70
     1
102
RTVSPost2010Prop33
280
     0
102
RTVSPost2010PropOp33
 70
     1
102
RTVSPost2010Prop34
280
     0
102
RTVSPost2010PropOp34
 70
     1
102
RTVSPost2010Prop35
280
     0
102
RTVSPost2010PropOp35
 70
     1
102
RTVSPost2010Prop36
280
     0
102
RTVSPost2010PropOp36
 70
     1
102
RTVSPost2010Prop37
 90
       50
102
RTVSPost2010PropOp37
 70
     1
102
RTVSPost2010Prop38
140
0.0
102
RTVSPost2010PropOp38
 70
     1
102
RTVSPost2010Prop39
140
1.0
102
RTVSPost2010PropOp39
 70
     1
102
RTVSPost2010Prop40
 90
        0
102
RTVSPost2010PropOp40
 70
     1
102
RTVSPost2010Prop41ColorIndex
 90
       18
102
RTVSPost2010Prop41ColorRGB
 90
        0
102
RTVSPost2010PropOp41
 70
     1
102
RTVSPost2010Prop42
 90
       50
102
RTVSPost2010PropOp42
 70
     1
102
RTVSPost2010Prop43
 90
        3
102
RTVSPost2010PropOp43
 70
     1
102
RTVSPost2010Prop44ColorIndex
 90
        5
102
RTVSPost2010Prop44ColorRGB
 90
      255
102
RTVSPost2010PropOp44
 70
     1
102
RTVSPost2010Prop45
280
     0
102
RTVSPost2010PropOp45
 70
     1
102
RTVSPost2010Prop46
 90
       50
102
RTVSPost2010PropOp46
 70
     1
102
RTVSPost2010Prop47
 90
       50
102
RTVSPost2010PropOp47
 70
     1
102
RTVSPost2010Prop48
 90
       50
102
RTVSPost2010PropOp48
 70
     1
102
RTVSPost2010Prop49
280
     0
102
RTVSPost2010PropOp49
 70
     1
102
RTVSPost2010Prop50
 90
       50
102
RTVSPost2010PropOp50
 70
     1
102
RTVSPost2010Prop51ColorIndex
 90
      256
102
RTVSPost2010Prop51ColorRGB
 90
-16777216
102
RTVSPost2010PropOp51
 70
     0
102
RTVSPost2010Prop52
140
1.0
102
RTVSPost2010PropOp52
 70
     0
102
RTVSPost2010Prop53
 90
        2
102
RTVSPost2010PropOp53
 70
     1
102
RTVSPost2010Prop54
  1
strokes_ogs.tif
102
RTVSPost2010PropOp54
 70
     1
102
RTVSPost2010Prop55
280
     0
102
RTVSPost2010PropOp55
 70
     1
102
RTVSPost2010Prop56
140
1.0
102
RTVSPost2010PropOp56
 70
     1
102
RTVSPost2010Prop57
140
1.0
102
RTVSPost2010PropOp57
 70
     1
102
RTVSPropertyOp0
 70
     1
102
RTVSPropertyOp1
 70
     1
102
RTVSPropertyOp2
 70
     1
102
RTVSPropertyOp3
 70
     1
102
RTVSPropertyOp4
 70
     1
102
RTVSPropertyOp5
 70
     1
102
RTVSPropertyOp6
 70
     1
102
RTVSPropertyOp7
 70
     1
102
RTVSPropertyOp8
 70
     1
102
RTVSPropertyOp9
 70
     1
102
RTVSPropertyOp10
 70
     1
102
RTVSPropertyOp11
 70
     1
102
RTVSPropertyOp12
 70
     1
102
RTVSPropertyOp13
 70
     1
102
RTVSPropertyOp14
 70
     1
102
RTVSPropertyOp15
 70
     1
102
RTVSPropertyOp16
 70
     1
102
RTVSPropertyOp17
 70
     1
102
RTVSPropertyOp18
 70
     1
102
RTVSPropertyOp19
 70
     1
102
RTVSPropertyOp20
 70
     1
102
RTVSPropertyOp21
 70
     1
102
RTVSPropertyOp22
 70
     1
102
RTVSPropertyOp23
 70
     1
102
RTVSPropertyOp24
 70
     1
102
RTVSPropertyOp25
 70
     1
102
RTVSPropertyOp26
 70
     1
102
RTVSPropertyOp27
 70
     1
102
RTVSPropertyOp28
 70
     1
102
RTVSPropertyOp29
 70
     1
102
RTVSPropertyOp30
 70
     1
102
RTVSPropertyOp31
 70
     1
102
RTVSPropertyOp32
 70
     1
102
RTVSPropertyOp33
 70
     1
102
RTVSPropertyOp34
 70
     1
102
RTVSPropertyOp35
 70
     1
102
RTVSPropertyOp36
 70
     1
102
RTVSPropertyOp37
 70
     1
102
RTVSPropertyOp38
 70
     1
102
RTVSPropertyOp39
 70
     1
102
RTVSPropertyOp40
 70
     1
102
RTVSPropertyOp41
 70
     1
102
RTVSPropertyOp42
 70
     1
102
RTVSPropertyOp43
 70
     1
102
RTVSPropertyOp44
 70
     1
102
RTVSPropertyOp45
 70
     1
102
RTVSPropertyOp46
 70
     1
102
RTVSPropertyOp47
 70
     1
102
RTVSPropertyOp48
 70
     1
102
RTVSPropertyOp49
 70
     1
102
RTVSPropertyOp50
 70
     1
102
RTVSPropertyOp51
 70
     0
102
RTVSPropertyOp52
 70
     0
102
RTVSPropertyOp53
 70
     1
102
RTVSPropertyOp54
 70
     1
102
RTVSPropertyOp55
 70
     1
102
RTVSPropertyOp56
 70
     1
102
RTVSPropertyOp57
 70
     1
102
RTVSPropertyOp58
 70
     1
102
RTVSPropertyOp59
 70
     1
102
RTVSPropertyOp60
 70
     1
102
RTVSPropertyOp61
 70
     1
102
RTVSPropertyOp62
 70
     1
  0
XRECORD
  5
3320
102
{ACAD_REACTORS
330
331F
102
}
330
331F
100
AcDbXrecord
280
     1
102
RTVSPost2010Prop28
280
     0
102
RTVSPost2010PropOp28
 70
     1
102
RTVSPost2010Prop29
280
     1
102
RTVSPost2010PropOp29
 70
     1
102
RTVSPost2010Prop30
280
     1
102
RTVSPost2010PropOp30
 70
     1
102
RTVSPost2010Prop31
280
     0
102
RTVSPost2010PropOp31
 70
     1
102
RTVSPost2010Prop32
280
     0
102
RTVSPost2010PropOp32
 70
     1
102
RTVSPost2010Prop33
280
     0
102
RTVSPost2010PropOp33
 70
     1
102
RTVSPost2010Prop34
280
     0
102
RTVSPost2010PropOp34
 70
     1
102
RTVSPost2010Prop35
280
     0
102
RTVSPost2010PropOp35
 70
     1
102
RTVSPost2010Prop36
280
     0
102
RTVSPost2010PropOp36
 70
     1
102
RTVSPost2010Prop37
 90
       50
102
RTVSPost2010PropOp37
 70
     1
102
RTVSPost2010Prop38
140
0.0
102
RTVSPost2010PropOp38
 70
     1
102
RTVSPost2010Prop39
140
1.0
102
RTVSPost2010PropOp39
 70
     1
102
RTVSPost2010Prop40
 90
        0
102
RTVSPost2010PropOp40
 70
     1
102
RTVSPost2010Prop41ColorIndex
 90
       18
102
RTVSPost2010Prop41ColorRGB
 90
        0
102
RTVSPost2010PropOp41
 70
     1
102
RTVSPost2010Prop42
 90
       50
102
RTVSPost2010PropOp42
 70
     1
102
RTVSPost2010Prop43
 90
        3
102
RTVSPost2010PropOp43
 70
     1
102
RTVSPost2010Prop44ColorIndex
 90
        5
102
RTVSPost2010Prop44ColorRGB
 90
      255
102
RTVSPost2010PropOp44
 70
     1
102
RTVSPost2010Prop45
280
     0
102
RTVSPost2010PropOp45
 70
     1
102
RTVSPost2010Prop46
 90
       50
102
RTVSPost2010PropOp46
 70
     1
102
RTVSPost2010Prop47
 90
       50
102
RTVSPost2010PropOp47
 70
     1
102
RTVSPost2010Prop48
 90
       50
102
RTVSPost2010PropOp48
 70
     1
102
RTVSPost2010Prop49
280
     0
102
RTVSPost2010PropOp49
 70
     1
102
RTVSPost2010Prop50
 90
       50
102
RTVSPost2010PropOp50
 70
     1
102
RTVSPost2010Prop51ColorIndex
 90
      256
102
RTVSPost2010Prop51ColorRGB
 90
-16777216
102
RTVSPost2010PropOp51
 70
     0
102
RTVSPost2010Prop52
140
1.0
102
RTVSPost2010PropOp52
 70
     0
102
RTVSPost2010Prop53
 90
        2
102
RTVSPost2010PropOp53
 70
     1
102
RTVSPost2010Prop54
  1
strokes_ogs.tif
102
RTVSPost2010PropOp54
 70
     1
102
RTVSPost2010Prop55
280
     0
102
RTVSPost2010PropOp55
 70
     1
102
RTVSPost2010Prop56
140
1.0
102
RTVSPost2010PropOp56
 70
     1
102
RTVSPost2010Prop57
140
1.0
102
RTVSPost2010PropOp57
 70
     1
102
RTVSPropertyOp0
 70
     1
102
RTVSPropertyOp1
 70
     1
102
RTVSPropertyOp2
 70
     1
102
RTVSPropertyOp3
 70
     1
102
RTVSPropertyOp4
 70
     1
102
RTVSPropertyOp5
 70
     1
102
RTVSPropertyOp6
 70
     1
102
RTVSPropertyOp7
 70
     1
102
RTVSPropertyOp8
 70
     1
102
RTVSPropertyOp9
 70
     1
102
RTVSPropertyOp10
 70
     1
102
RTVSPropertyOp11
 70
     1
102
RTVSPropertyOp12
 70
     1
102
RTVSPropertyOp13
 70
     1
102
RTVSPropertyOp14
 70
     1
102
RTVSPropertyOp15
 70
     1
102
RTVSPropertyOp16
 70
     1
102
RTVSPropertyOp17
 70
     1
102
RTVSPropertyOp18
 70
     1
102
RTVSPropertyOp19
 70
     1
102
RTVSPropertyOp20
 70
     1
102
RTVSPropertyOp21
 70
     1
102
RTVSPropertyOp22
 70
     1
102
RTVSPropertyOp23
 70
     1
102
RTVSPropertyOp24
 70
     1
102
RTVSPropertyOp25
 70
     1
102
RTVSPropertyOp26
 70
     1
102
RTVSPropertyOp27
 70
     1
102
RTVSPropertyOp28
 70
     1
102
RTVSPropertyOp29
 70
     1
102
RTVSPropertyOp30
 70
     1
102
RTVSPropertyOp31
 70
     1
102
RTVSPropertyOp32
 70
     1
102
RTVSPropertyOp33
 70
     1
102
RTVSPropertyOp34
 70
     1
102
RTVSPropertyOp35
 70
     1
102
RTVSPropertyOp36
 70
     1
102
RTVSPropertyOp37
 70
     1
102
RTVSPropertyOp38
 70
     1
102
RTVSPropertyOp39
 70
     1
102
RTVSPropertyOp40
 70
     1
102
RTVSPropertyOp41
 70
     1
102
RTVSPropertyOp42
 70
     1
102
RTVSPropertyOp43
 70
     1
102
RTVSPropertyOp44
 70
     1
102
RTVSPropertyOp45
 70
     1
102
RTVSPropertyOp46
 70
     1
102
RTVSPropertyOp47
 70
     1
102
RTVSPropertyOp48
 70
     1
102
RTVSPropertyOp49
 70
     1
102
RTVSPropertyOp50
 70
     1
102
RTVSPropertyOp51
 70
     0
102
RTVSPropertyOp52
 70
     0
102
RTVSPropertyOp53
 70
     1
102
RTVSPropertyOp54
 70
     1
102
RTVSPropertyOp55
 70
     1
102
RTVSPropertyOp56
 70
     1
102
RTVSPropertyOp57
 70
     1
102
RTVSPropertyOp58
 70
     1
102
RTVSPropertyOp59
 70
     1
102
RTVSPropertyOp60
 70
     1
102
RTVSPropertyOp61
 70
     1
102
RTVSPropertyOp62
 70
     1
  0
ENDSEC
  0
EOF
