  0
SECTION
  2
HEADER
  9
$ACADVER
  1
AC1015
  9
$ACADMAINTVER
 70
    20
  9
$DWGCODEPAGE
  3
ANSI_932
  9
$INSBASE
 10
0.0
 20
0.0
 30
0.0
  9
$EXTMIN
 10
9.999997526638502
 20
10.0
 30
0.0
  9
$EXTMAX
 10
310.9171107848942
 20
519.1721496468447
 30
0.0
  9
$LIMMIN
 10
0.0000015376081137
 20
-0.0000001931532552
  9
$LIMMAX
 10
792.0000015376082
 20
545.9999998068466
  9
$ORTHOMODE
 70
     1
  9
$REGENMODE
 70
     1
  9
$FILLMODE
 70
     1
  9
$QTEXTMODE
 70
     0
  9
$MIRRTEXT
 70
     1
  9
$LTSCALE
 40
1.0
  9
$ATTMODE
 70
     1
  9
$TEXTSIZE
 40
2.5
  9
$TRACEWID
 40
1.0
  9
$TEXTSTYLE
  7
STANDARD
  9
$CLAYER
  8
0
  9
$CELTYPE
  6
BYLAYER
  9
$CECOLOR
 62
   256
  9
$CELTSCALE
 40
1.0
  9
$DISPSILH
 70
     0
  9
$DIMSCALE
 40
1.0
  9
$DIMASZ
 40
3.0
  9
$DIMEXO
 40
1.0
  9
$DIMDLI
 40
10.0
  9
$DIMRND
 40
0.0
  9
$DIMDLE
 40
0.0
  9
$DIMEXE
 40
1.0
  9
$DIMTP
 40
0.0
  9
$DIMTM
 40
0.0
  9
$DIMTXT
 40
3.2
  9
$DIMCEN
 40
0.0
  9
$DIMTSZ
 40
0.0
  9
$DIMTOL
 70
     0
  9
$DIMLIM
 70
     0
  9
$DIMTIH
 70
     0
  9
$DIMTOH
 70
     0
  9
$DIMSE1
 70
     0
  9
$DIMSE2
 70
     0
  9
$DIMTAD
 70
     3
  9
$DIMZIN
 70
     8
  9
$DIMBLK
  1

  9
$DIMASO
 70
     1
  9
$DIMSHO
 70
     1
  9
$DIMPOST
  1

  9
$DIMAPOST
  1

  9
$DIMALT
 70
     0
  9
$DIMALTD
 70
     2
  9
$DIMALTF
 40
25.4
  9
$DIMLFAC
 40
1.0
  9
$DIMTOFL
 70
     1
  9
$DIMTVP
 40
0.0
  9
$DIMTIX
 70
     0
  9
$DIMSOXD
 70
     0
  9
$DIMSAH
 70
     1
  9
$DIMBLK1
  1
OPEN
  9
$DIMBLK2
  1
OPEN
  9
$DIMSTYLE
  2
STANDARD
  9
$DIMCLRD
 70
     0
  9
$DIMCLRE
 70
     0
  9
$DIMCLRT
 70
     0
  9
$DIMTFAC
 40
1.0
  9
$DIMGAP
 40
1.0
  9
$DIMJUST
 70
     0
  9
$DIMSD1
 70
     0
  9
$DIMSD2
 70
     0
  9
$DIMTOLJ
 70
     1
  9
$DIMTZIN
 70
     0
  9
$DIMALTZ
 70
     0
  9
$DIMALTTZ
 70
     0
  9
$DIMUPT
 70
     0
  9
$DIMDEC
 70
     4
  9
$DIMTDEC
 70
     4
  9
$DIMALTU
 70
     2
  9
$DIMALTTD
 70
     2
  9
$DIMTXSTY
  7
STANDARD
  9
$DIMAUNIT
 70
     0
  9
$DIMADEC
 70
     0
  9
$DIMALTRND
 40
0.0
  9
$DIMAZIN
 70
     0
  9
$DIMDSEP
 70
    46
  9
$DIMATFIT
 70
     3
  9
$DIMFRAC
 70
     0
  9
$DIMLDRBLK
  1
OPEN
  9
$DIMLUNIT
 70
     2
  9
$DIMLWD
 70
    -2
  9
$DIMLWE
 70
    -2
  9
$DIMTMOVE
 70
     0
  9
$LUNITS
 70
     2
  9
$LUPREC
 70
     4
  9
$SKETCHINC
 40
1.0
  9
$FILLETRAD
 40
10.0
  9
$AUNITS
 70
     0
  9
$AUPREC
 70
     0
  9
$MENU
  1
.
  9
$ELEVATION
 40
0.0
  9
$PELEVATION
 40
0.0
  9
$THICKNESS
 40
0.0
  9
$LIMCHECK
 70
     0
  9
$CHAMFERA
 40
10.0
  9
$CHAMFERB
 40
10.0
  9
$CHAMFERC
 40
20.0
  9
$CHAMFERD
 40
0.0
  9
$SKPOLY
 70
     0
  9
$TDCREATE
 40
2454168.695481227
  9
$TDUCREATE
 40
2454168.320481227
  9
$TDUPDATE
 40
2457192.700668473
  9
$TDUUPDATE
 40
2457192.325668472
  9
$TDINDWG
 40
0.0091143171
  9
$TDUSRTIMER
 40
0.0091142940
  9
$USRTIMER
 70
     1
  9
$ANGBASE
 50
0.0
  9
$ANGDIR
 70
     0
  9
$PDMODE
 70
     0
  9
$PDSIZE
 40
0.0
  9
$PLINEWID
 40
0.0
  9
$SPLFRAME
 70
     0
  9
$SPLINETYPE
 70
     6
  9
$SPLINESEGS
 70
     8
  9
$HANDSEED
  5
B44
  9
$SURFTAB1
 70
     6
  9
$SURFTAB2
 70
     6
  9
$SURFTYPE
 70
     6
  9
$SURFU
 70
     6
  9
$SURFV
 70
     6
  9
$UCSBASE
  2

  9
$UCSNAME
  2

  9
$UCSORG
 10
0.0
 20
0.0
 30
0.0
  9
$UCSXDIR
 10
1.0
 20
0.0
 30
0.0
  9
$UCSYDIR
 10
0.0
 20
1.0
 30
0.0
  9
$UCSORTHOREF
  2

  9
$UCSORTHOVIEW
 70
     0
  9
$UCSORGTOP
 10
0.0
 20
0.0
 30
0.0
  9
$UCSORGBOTTOM
 10
0.0
 20
0.0
 30
0.0
  9
$UCSORGLEFT
 10
0.0
 20
0.0
 30
0.0
  9
$UCSORGRIGHT
 10
0.0
 20
0.0
 30
0.0
  9
$UCSORGFRONT
 10
0.0
 20
0.0
 30
0.0
  9
$UCSORGBACK
 10
0.0
 20
0.0
 30
0.0
  9
$PUCSBASE
  2

  9
$PUCSNAME
  2

  9
$PUCSORG
 10
0.0
 20
0.0
 30
0.0
  9
$PUCSXDIR
 10
1.0
 20
0.0
 30
0.0
  9
$PUCSYDIR
 10
0.0
 20
1.0
 30
0.0
  9
$PUCSORTHOREF
  2

  9
$PUCSORTHOVIEW
 70
     0
  9
$PUCSORGTOP
 10
0.0
 20
0.0
 30
0.0
  9
$PUCSORGBOTTOM
 10
0.0
 20
0.0
 30
0.0
  9
$PUCSORGLEFT
 10
0.0
 20
0.0
 30
0.0
  9
$PUCSORGRIGHT
 10
0.0
 20
0.0
 30
0.0
  9
$PUCSORGFRONT
 10
0.0
 20
0.0
 30
0.0
  9
$PUCSORGBACK
 10
0.0
 20
0.0
 30
0.0
  9
$USERI1
 70
     0
  9
$USERI2
 70
     0
  9
$USERI3
 70
     0
  9
$USERI4
 70
     0
  9
$USERI5
 70
     0
  9
$USERR1
 40
0.0
  9
$USERR2
 40
0.0
  9
$USERR3
 40
0.0
  9
$USERR4
 40
0.0
  9
$USERR5
 40
0.0
  9
$WORLDVIEW
 70
     1
  9
$SHADEDGE
 70
     3
  9
$SHADEDIF
 70
    70
  9
$TILEMODE
 70
     1
  9
$MAXACTVP
 70
    48
  9
$PINSBASE
 10
0.0
 20
0.0
 30
0.0
  9
$PLIMCHECK
 70
     0
  9
$PEXTMIN
 10
1.000000000000000E+20
 20
1.000000000000000E+20
 30
1.000000000000000E+20
  9
$PEXTMAX
 10
-1.000000000000000E+20
 20
-1.000000000000000E+20
 30
-1.000000000000000E+20
  9
$PLIMMIN
 10
0.0
 20
0.0
  9
$PLIMMAX
 10
420.0
 20
297.0
  9
$UNITMODE
 70
     0
  9
$VISRETAIN
 70
     1
  9
$PLINEGEN
 70
     0
  9
$PSLTSCALE
 70
     1
  9
$TREEDEPTH
 70
  3020
  9
$CMLSTYLE
  2
STANDARD
  9
$CMLJUST
 70
     0
  9
$CMLSCALE
 40
20.0
  9
$PROXYGRAPHICS
 70
     1
  9
$MEASUREMENT
 70
     0
  9
$CELWEIGHT
370
    -1
  9
$ENDCAPS
280
     0
  9
$JOINSTYLE
280
     0
  9
$LWDISPLAY
290
     0
  9
$INSUNITS
 70
     0
  9
$HYPERLINKBASE
  1

  9
$STYLESHEET
  1

  9
$XEDIT
290
     1
  9
$CEPSNTYPE
380
     0
  9
$PSTYLEMODE
290
     1
  9
$FINGERPRINTGUID
  2
{3BB9EF29-F3BB-4B87-8111-0CE8488CE6D3}
  9
$VERSIONGUID
  2
{E4A015B3-A91D-44DE-B57A-A7AE1C33D082}
  9
$EXTNAMES
290
     1
  9
$PSVPSCALE
 40
0.0
  9
$OLESTARTUP
290
     0
  0
ENDSEC
  0
SECTION
  2
CLASSES
  0
CLASS
  1
ACDBDICTIONARYWDFLT
  2
AcDbDictionaryWithDefault
  3
ObjectDBX Classes
 90
        0
280
     0
281
     0
  0
CLASS
  1
ACDBPLACEHOLDER
  2
AcDbPlaceHolder
  3
ObjectDBX Classes
 90
        0
280
     0
281
     0
  0
CLASS
  1
LAYOUT
  2
AcDbLayout
  3
ObjectDBX Classes
 90
        0
280
     0
281
     0
  0
CLASS
  1
DICTIONARYVAR
  2
AcDbDictionaryVar
  3
ObjectDBX Classes
 90
        0
280
     0
281
     0
  0
CLASS
  1
MATERIAL
  2
AcDbMaterial
  3
ObjectDBX Classes
 90
     1153
280
     0
281
     0
  0
CLASS
  1
VISUALSTYLE
  2
AcDbVisualStyle
  3
ObjectDBX Classes
 90
     4095
280
     0
281
     0
  0
CLASS
  1
TABLESTYLE
  2
AcDbTableStyle
  3
ObjectDBX Classes
 90
     4095
280
     0
281
     0
  0
CLASS
  1
SCALE
  2
AcDbScale
  3
ObjectDBX Classes
 90
     1153
280
     0
281
     0
  0
CLASS
  1
MLEADERSTYLE
  2
AcDbMLeaderStyle
  3
ACDB_MLEADERSTYLE_CLASS
 90
     4095
280
     0
281
     0
  0
CLASS
  1
ACDBSECTIONVIEWSTYLE
  2
AcDbSectionViewStyle
  3
ObjectDBX Classes
 90
     1025
280
     0
281
     0
  0
CLASS
  1
ACDBDETAILVIEWSTYLE
  2
AcDbDetailViewStyle
  3
ObjectDBX Classes
 90
     1025
280
     0
281
     0
  0
CLASS
  1
CELLSTYLEMAP
  2
AcDbCellStyleMap
  3
ObjectDBX Classes
 90
     1152
280
     0
281
     0
  0
ENDSEC
  0
SECTION
  2
TABLES
  0
TABLE
  2
VPORT
  5
8
330
0
100
AcDbSymbolTable
 70
     1
  0
VPORT
  5
A8E
330
8
100
AcDbSymbolTableRecord
100
AcDbViewportTableRecord
  2
*ACTIVE
 70
     0
 10
0.0
 20
0.0
 11
1.0
 21
1.0
 12
371.3480950385163
 22
264.5853892518998
 13
0.0
 23
0.0
 14
10.0
 24
10.0
 15
10.0
 25
10.0
 16
0.0
 26
0.0
 36
1.0
 17
0.0
 27
0.0
 37
0.0
 40
513.0812960000948
 41
2.35006605019815
 42
50.0
 43
0.0
 44
0.0
 50
0.0
 51
0.0
 71
     0
 72
   100
 73
     1
 74
     0
 75
     0
 76
     0
 77
     0
 78
     0
281
     0
 65
     1
110
0.0
120
0.0
130
0.0
111
1.0
121
0.0
131
0.0
112
0.0
122
1.0
132
0.0
 79
     0
146
0.0
1001
ACAD_NAV_VCDISPLAY
1070
     3
  0
ENDTAB
  0
TABLE
  2
LTYPE
  5
5
330
0
100
AcDbSymbolTable
 70
     4
  0
LTYPE
  5
12
330
5
100
AcDbSymbolTableRecord
100
AcDbLinetypeTableRecord
  2
BYBLOCK
 70
     0
  3

 72
    65
 73
     0
 40
0.0
  0
LTYPE
  5
13
330
5
100
AcDbSymbolTableRecord
100
AcDbLinetypeTableRecord
  2
BYLAYER
 70
     0
  3

 72
    65
 73
     0
 40
0.0
  0
LTYPE
  5
14
330
5
100
AcDbSymbolTableRecord
100
AcDbLinetypeTableRecord
  2
CONTINUOUS
 70
     0
  3
Solid line
 72
    65
 73
     0
 40
0.0
  0
LTYPE
  5
4B
330
5
100
AcDbSymbolTableRecord
100
AcDbLinetypeTableRecord
  2
DASHED
 70
     0
  3
Dashed __ __ __ __ __ __ __ __ __ __ __ __ __ _
 72
    65
 73
     2
 40
19.04999999999999
 49
12.7
 74
     0
 49
-6.349999999999998
 74
     0
  0
LTYPE
  5
4C
330
5
100
AcDbSymbolTableRecord
100
AcDbLinetypeTableRecord
  2
CENTER
 70
     0
  3
Center ____ _ ____ _ ____ _ ____ _ ____ _ ____
 72
    65
 73
     4
 40
50.8
 49
31.75
 74
     0
 49
-6.349999999999998
 74
     0
 49
6.349999999999998
 74
     0
 49
-6.349999999999998
 74
     0
  0
LTYPE
  5
4D
330
5
100
AcDbSymbolTableRecord
100
AcDbLinetypeTableRecord
  2
PHANTOM
 70
     0
  3
Phantom ______  __  __  ______  __  __  ______
 72
    65
 73
     6
 40
63.5
 49
31.75
 74
     0
 49
-6.349999999999998
 74
     0
 49
6.349999999999998
 74
     0
 49
-6.349999999999998
 74
     0
 49
6.349999999999998
 74
     0
 49
-6.349999999999998
 74
     0
  0
ENDTAB
  0
TABLE
  2
LAYER
  5
2
330
0
100
AcDbSymbolTable
 70
     8
  0
LAYER
  5
E
102
{ACAD_XDICTIONARY
360
AE8
102
}
330
2
100
AcDbSymbolTableRecord
100
AcDbLayerTableRecord
  2
0
 70
     0
 62
     7
  6
CONTINUOUS
370
    -3
390
A97
  0
LAYER
  5
4E
102
{ACAD_XDICTIONARY
360
AEA
102
}
330
2
100
AcDbSymbolTableRecord
100
AcDbLayerTableRecord
  2
4
 70
     0
 62
     1
  6
CENTER
370
    -3
390
A97
  0
LAYER
  5
4F
102
{ACAD_XDICTIONARY
360
AEC
102
}
330
2
100
AcDbSymbolTableRecord
100
AcDbLayerTableRecord
  2
5
 70
     0
 62
     6
  6
PHANTOM
370
    -3
390
A97
  0
LAYER
  5
50
102
{ACAD_XDICTIONARY
360
AEE
102
}
330
2
100
AcDbSymbolTableRecord
100
AcDbLayerTableRecord
  2
1
 70
     0
 62
     7
  6
CONTINUOUS
370
    -3
390
A97
  0
LAYER
  5
51
102
{ACAD_XDICTIONARY
360
AF0
102
}
330
2
100
AcDbSymbolTableRecord
100
AcDbLayerTableRecord
  2
2
 70
     0
 62
     4
  6
CONTINUOUS
370
    -3
390
A97
  0
LAYER
  5
52
102
{ACAD_XDICTIONARY
360
AF2
102
}
330
2
100
AcDbSymbolTableRecord
100
AcDbLayerTableRecord
  2
3
 70
     0
 62
     2
  6
DASHED
370
    -3
390
A97
  0
LAYER
  5
53
102
{ACAD_XDICTIONARY
360
AF4
102
}
330
2
100
AcDbSymbolTableRecord
100
AcDbLayerTableRecord
  2
6
 70
     0
 62
     5
  6
CONTINUOUS
370
    -3
390
A97
  0
LAYER
  5
54
102
{ACAD_XDICTIONARY
360
AF6
102
}
330
2
100
AcDbSymbolTableRecord
100
AcDbLayerTableRecord
  2
7
 70
     0
 62
     3
  6
CONTINUOUS
370
    -3
390
A97
  0
ENDTAB
  0
TABLE
  2
STYLE
  5
3
330
0
100
AcDbSymbolTable
 70
     1
  0
STYLE
  5
F
330
3
100
AcDbSymbolTableRecord
100
AcDbTextStyleTableRecord
  2
STANDARD
 70
     0
 40
0.0
 41
1.0
 50
0.0
 71
     0
 42
2.5
  3
simplex.shx
  4

  0
ENDTAB
  0
TABLE
  2
VIEW
  5
6
330
0
100
AcDbSymbolTable
 70
     0
  0
ENDTAB
  0
TABLE
  2
UCS
  5
7
330
0
100
AcDbSymbolTable
 70
     0
  0
ENDTAB
  0
TABLE
  2
APPID
  5
9
330
0
100
AcDbSymbolTable
 70
     7
  0
APPID
  5
10
330
9
100
AcDbSymbolTableRecord
100
AcDbRegAppTableRecord
  2
ACAD
 70
     0
  0
APPID
  5
3E
330
9
100
AcDbSymbolTableRecord
100
AcDbRegAppTableRecord
  2
CONTENTTABDATA
 70
     0
  0
APPID
  5
3F
330
9
100
AcDbSymbolTableRecord
100
AcDbRegAppTableRecord
  2
CONTENTCURRENTTAB
 70
     0
  0
APPID
  5
790
330
9
100
AcDbSymbolTableRecord
100
AcDbRegAppTableRecord
  2
CONTENTBLOCKICON
 70
     0
  0
APPID
  5
791
330
9
100
AcDbSymbolTableRecord
100
AcDbRegAppTableRecord
  2
CONTENTBLOCKDESCRIPTION
 70
     0
  0
APPID
  5
B02
330
9
100
AcDbSymbolTableRecord
100
AcDbRegAppTableRecord
  2
ACAD_NAV_VCDISPLAY
 70
     0
  0
APPID
  5
B3B
330
9
100
AcDbSymbolTableRecord
100
AcDbRegAppTableRecord
  2
ACAD_MLEADERVER
 70
     0
  0
ENDTAB
  0
TABLE
  2
DIMSTYLE
  5
A
330
0
100
AcDbSymbolTable
 70
     1
100
AcDbDimStyleTable
 71
     0
  0
DIMSTYLE
105
1D
330
A
100
AcDbSymbolTableRecord
100
AcDbDimStyleTableRecord
  2
STANDARD
 70
     0
 41
3.0
 42
1.0
 43
10.0
 44
1.0
 73
     0
 74
     0
 77
     3
 78
     8
140
3.2
141
0.0
147
1.0
172
     1
173
     1
340
F
341
2E
343
2E
344
2E
  0
ENDTAB
  0
TABLE
  2
BLOCK_RECORD
  5
1
330
0
100
AcDbSymbolTable
 70
     1
  0
BLOCK_RECORD
  5
18
102
{ACAD_XDICTIONARY
360
A91
102
}
330
1
100
AcDbSymbolTableRecord
100
AcDbBlockTableRecord
  2
*MODEL_SPACE
340
AE5
  0
BLOCK_RECORD
  5
15
102
{ACAD_XDICTIONARY
360
A8F
102
}
330
1
100
AcDbSymbolTableRecord
100
AcDbBlockTableRecord
  2
*PAPER_SPACE
340
AE6
  0
BLOCK_RECORD
  5
2E
330
1
100
AcDbSymbolTableRecord
100
AcDbBlockTableRecord
  2
_OPEN
340
0
  0
ENDTAB
  0
ENDSEC
  0
SECTION
  2
BLOCKS
  0
BLOCK
  5
19
330
18
100
AcDbEntity
  8
0
100
AcDbBlockBegin
  2
*MODEL_SPACE
 70
     0
 10
0.0
 20
0.0
 30
0.0
  3
*MODEL_SPACE
  1

  0
ENDBLK
  5
1A
330
18
100
AcDbEntity
  8
0
100
AcDbBlockEnd
  0
BLOCK
  5
16
330
15
100
AcDbEntity
 67
     1
  8
0
100
AcDbBlockBegin
  2
*PAPER_SPACE
 70
     0
 10
0.0
 20
0.0
 30
0.0
  3
*PAPER_SPACE
  1

  0
ENDBLK
  5
17
330
15
100
AcDbEntity
 67
     1
  8
0
100
AcDbBlockEnd
  0
BLOCK
  5
2F
330
2E
100
AcDbEntity
  8
0
100
AcDbBlockBegin
  2
_OPEN
 70
     0
 10
0.0
 20
0.0
 30
0.0
  3
_OPEN
  1

  0
LINE
  5
30
330
2E
100
AcDbEntity
  8
0
  6
ByBlock
 62
     0
100
AcDbLine
 10
-1.0
 20
0.1666666666666666
 30
0.0
 11
0.0
 21
0.0
 31
0.0
  0
LINE
  5
31
330
2E
100
AcDbEntity
  8
0
  6
ByBlock
 62
     0
100
AcDbLine
 10
0.0
 20
0.0
 30
0.0
 11
-1.0
 21
-0.1666666666666666
 31
0.0
  0
LINE
  5
32
330
2E
100
AcDbEntity
  8
0
  6
ByBlock
 62
     0
100
AcDbLine
 10
0.0
 20
0.0
 30
0.0
 11
-1.0
 21
0.0
 31
0.0
  0
ENDBLK
  5
33
330
2E
100
AcDbEntity
  8
0
100
AcDbBlockEnd
  0
ENDSEC
  0
SECTION
  2
ENTITIES
  0
TEXT
  5
63
330
18
100
AcDbEntity
  8
4
  6
CENTER
 48
0.25
100
AcDbText
 10
23.97950852663849
 20
10.0
 30
0.0
 40
1.399999999999999
  1
4
100
AcDbText
  0
TEXT
  5
66
330
18
100
AcDbEntity
  8
1
  6
Continuous
 48
0.25
100
AcDbText
 10
9.999997526638502
 20
10.00000076076889
 30
0.0
 40
1.399999999999999
  1
LAYER
100
AcDbText
  0
TEXT
  5
67
330
18
100
AcDbEntity
  8
2
  6
Continuous
 48
0.25
100
AcDbText
 10
19.9795085266385
 20
10.0
 30
0.0
 40
1.399999999999999
  1
2
100
AcDbText
  0
TEXT
  5
68
330
18
100
AcDbEntity
  8
3
  6
DASHED
 48
0.25
100
AcDbText
 10
21.9795085266385
 20
10.0
 30
0.0
 40
1.399999999999999
  1
3
100
AcDbText
  0
TEXT
  5
69
330
18
100
AcDbEntity
  8
1
  6
Continuous
 48
0.25
100
AcDbText
 10
17.9795085266385
 20
10.0
 30
0.0
 40
1.399999999999999
  1
1
100
AcDbText
  0
TEXT
  5
6A
330
18
100
AcDbEntity
  8
5
  6
PHANTOM
 48
0.25
100
AcDbText
 10
25.9795085266385
 20
10.0
 30
0.0
 40
1.399999999999999
  1
5
100
AcDbText
  0
TEXT
  5
6B
330
18
100
AcDbEntity
  8
6
  6
Continuous
 48
0.25
100
AcDbText
 10
27.9795085266385
 20
10.0
 30
0.0
 40
1.399999999999999
  1
6
100
AcDbText
  0
TEXT
  5
6C
330
18
100
AcDbEntity
  8
7
  6
Continuous
 48
0.25
100
AcDbText
 10
29.9795085266385
 20
10.0
 30
0.0
 40
1.399999999999999
  1
7
100
AcDbText
  0
LINE
  5
3E0
330
18
100
AcDbEntity
  8
4
  6
CENTER
 48
0.2
100
AcDbLine
 10
49.97440854558454
 20
453.1336817795101
 30
0.0
 11
49.97440854558454
 21
97.1336651554019
 31
0.0
  0
ARC
  5
3E1
330
18
100
AcDbEntity
  8
1
  6
Continuous
100
AcDbCircle
 10
304.9171104999063
 20
261.3910321275956
 30
0.0
 40
3.000000142492396
100
AcDbArc
 50
359.9999999999996
 51
44.99999999999947
  0
ARC
  5
3E2
330
18
100
AcDbEntity
  8
1
  6
Continuous
100
AcDbCircle
 10
304.9171104999063
 20
261.3910321275955
 30
0.0
 40
6.000000284984736
100
AcDbArc
 50
0.000000000000007
 51
45.00000000000827
  0
LINE
  5
3E3
330
18
100
AcDbEntity
  8
4
  6
CENTER
 48
0.2
100
AcDbLine
 10
216.4884138302149
 20
453.1336100639479
 30
0.0
 11
216.4884138302149
 21
97.1336651554019
 31
0.0
  0
LINE
  5
3E4
330
18
100
AcDbEntity
  8
1
  6
Continuous
100
AcDbLine
 10
223.488414162697
 20
100.1336651554017
 30
0.0
 11
223.488414162697
 21
298.1336745598973
 31
0.0
  0
LINE
  5
3E5
330
18
100
AcDbEntity
  8
1
  6
Continuous
100
AcDbLine
 10
209.4884134977327
 20
100.1336651554017
 30
0.0
 11
209.4884134977327
 21
298.1336745598973
 31
0.0
  0
ARC
  5
3E6
330
18
100
AcDbEntity
  8
1
  6
Continuous
100
AcDbCircle
 10
128.0597171605235
 20
261.3910321275955
 30
0.0
 40
6.000000284984736
100
AcDbArc
 50
134.9999999999917
 51
180.0
  0
ARC
  5
3E7
330
18
100
AcDbEntity
  8
1
  6
Continuous
100
AcDbCircle
 10
128.0597171605235
 20
261.3910321275956
 30
0.0
 40
3.000000142492396
100
AcDbArc
 50
135.0000000000004
 51
180.0000000000004
  0
LINE
  5
3E8
330
18
100
AcDbEntity
  8
1
  6
Continuous
100
AcDbLine
 10
56.97440887806671
 20
100.1336651554018
 30
0.0
 11
56.97440887806671
 21
298.1136745589473
 31
0.0
  0
LINE
  5
3E9
330
18
100
AcDbEntity
  8
1
  6
Continuous
100
AcDbLine
 10
42.97440821310238
 20
100.1336651554018
 30
0.0
 11
42.97440821310238
 21
298.1336745598973
 31
0.0
  0
LINE
  5
3EA
330
18
100
AcDbEntity
  8
4
  6
CENTER
 48
0.2
100
AcDbLine
 10
119.1597168755387
 20
43.76969292663434
 30
0.0
 11
155.5597179379915
 21
43.76969292663434
 31
0.0
  0
LINE
  5
3EB
330
18
100
AcDbEntity
  8
1
  6
Continuous
100
AcDbLine
 10
147.8597177147536
 20
50.91969326624113
 30
0.0
 11
151.0597178667453
 21
50.91969326624113
 31
0.0
  0
LINE
  5
3EC
330
18
100
AcDbEntity
  8
1
  6
Continuous
100
AcDbLine
 10
147.8597177147536
 20
50.76969325911651
 30
0.0
 11
151.0597174805258
 21
50.76969325911649
 31
0.0
  0
LINE
  5
3ED
330
18
100
AcDbEntity
  8
1
  6
Continuous
100
AcDbLine
 10
145.5597176055094
 20
54.76969344910632
 30
0.0
 11
152.5597179379915
 21
54.76969344910635
 31
0.0
  0
LINE
  5
3EE
330
18
100
AcDbEntity
  8
1
  6
Continuous
100
AcDbLine
 10
151.0597178667453
 20
36.61969258702757
 30
0.0
 11
147.8597177147536
 21
36.61969258702757
 31
0.0
  0
LINE
  5
3EF
330
18
100
AcDbEntity
  8
1
  6
Continuous
100
AcDbLine
 10
147.8597177147536
 20
36.76969259415219
 30
0.0
 11
151.0597174805258
 21
36.76969259415219
 31
0.0
  0
LINE
  5
3F0
330
18
100
AcDbEntity
  8
1
  6
Continuous
100
AcDbLine
 10
145.5597176055094
 20
32.76969240416239
 30
0.0
 11
152.5597179379915
 21
32.76969240416235
 31
0.0
  0
TEXT
  5
3F2
330
18
100
AcDbEntity
  8
7
  6
Continuous
 48
0.25
100
AcDbText
 10
9.999999842292936
 20
18.00000047092839
 30
0.0
 40
3.0
  1
TYPE No.TEA-1121-U85-C
100
AcDbText
  0
TEXT
  5
3F3
330
18
100
AcDbEntity
  8
7
  6
Continuous
 48
0.25
100
AcDbText
 10
9.999999842292936
 20
26.00000047092839
 30
0.0
 40
3.0
  1
CODE No.13400
100
AcDbText
  0
LINE
  5
3FC
330
18
100
AcDbEntity
  8
1
  6
Continuous
100
AcDbLine
 10
140.5597169817928
 20
36.76969216667512
 30
0.0
 11
140.5597169817928
 21
38.76969268914709
 31
0.0
  0
LINE
  5
3FD
330
18
100
AcDbEntity
  8
1
  6
Continuous
100
AcDbLine
 10
137.5597097813036
 20
36.76969302162925
 30
0.0
 11
137.5597097813036
 21
41.26969323536778
 31
0.0
  0
LINE
  5
3FE
330
18
100
AcDbEntity
  8
4
  6
CENTER
 48
0.2
100
AcDbLine
 10
139.0597172967759
 20
29.06969237091417
 30
0.0
 11
139.0597172967759
 21
58.46969348235454
 31
0.0
  0
LINE
  5
3FF
330
18
100
AcDbEntity
  8
1
  6
Continuous
100
AcDbLine
 10
145.5597176055094
 20
32.06969237091416
 30
0.0
 11
145.5597176055094
 21
38.76969268914706
 31
0.0
  0
LINE
  5
400
330
18
100
AcDbEntity
  8
1
  6
Continuous
100
AcDbLine
 10
147.5597177005044
 20
37.76969264164964
 30
0.0
 11
147.5597177005044
 21
49.76969321161906
 31
0.0
  0
LINE
  5
401
330
18
100
AcDbEntity
  8
1
  6
Continuous
100
AcDbLine
 10
122.0597168755387
 20
36.76969259415221
 30
0.0
 11
122.0597168755387
 21
50.76969325911655
 31
0.0
  0
LINE
  5
402
330
18
100
AcDbEntity
  8
1
  6
Continuous
100
AcDbLine
 10
148.0597173380335
 20
36.76969259415219
 30
0.0
 11
148.0597173380335
 21
50.76969325911651
 31
0.0
  0
LINE
  5
403
330
18
100
AcDbEntity
  8
1
  6
Continuous
100
AcDbLine
 10
137.5597097813036
 20
36.76969302162925
 30
0.0
 11
122.0597168755387
 21
36.76969302162925
 31
0.0
  0
LINE
  5
404
330
18
100
AcDbEntity
  8
1
  6
Continuous
100
AcDbLine
 10
128.809716809927
 20
32.76969240416239
 30
0.0
 11
128.809716809927
 21
32.06969237091416
 31
0.0
  0
LINE
  5
405
330
18
100
AcDbEntity
  8
1
  6
Continuous
100
AcDbLine
 10
130.809716904922
 20
32.76969240416238
 30
0.0
 11
130.809716904922
 21
32.06969237091416
 31
0.0
  0
LINE
  5
406
330
18
100
AcDbEntity
  8
1
  6
Continuous
100
AcDbLine
 10
132.5597169880425
 20
32.06969237091416
 30
0.0
 11
130.809716904922
 21
32.06969237091416
 31
0.0
  0
LINE
  5
407
330
18
100
AcDbEntity
  8
1
  6
Continuous
100
AcDbLine
 10
132.5597169880425
 20
32.06969237091416
 30
0.0
 11
132.5597169880425
 21
36.76969259415218
 31
0.0
  0
LINE
  5
408
330
18
100
AcDbEntity
  8
1
  6
Continuous
100
AcDbLine
 10
130.2597168787984
 20
36.76969259415219
 30
0.0
 11
130.2597168787984
 21
36.61969258702757
 31
0.0
  0
LINE
  5
409
330
18
100
AcDbEntity
  8
1
  6
Continuous
100
AcDbLine
 10
130.2597168787984
 20
36.61969258702757
 30
0.0
 11
127.0597167268065
 21
36.61969258702757
 31
0.0
  0
LINE
  5
40A
330
18
100
AcDbEntity
  8
1
  6
Continuous
100
AcDbLine
 10
127.0597167268065
 20
36.61969258702757
 30
0.0
 11
127.0597167268065
 21
36.76969259415219
 31
0.0
  0
LINE
  5
40B
330
18
100
AcDbEntity
  8
1
  6
Continuous
100
AcDbLine
 10
126.8097167149322
 20
32.76969240416238
 30
0.0
 11
126.8097167149322
 21
32.06969237091416
 31
0.0
  0
LINE
  5
40C
330
18
100
AcDbEntity
  8
1
  6
Continuous
100
AcDbLine
 10
125.5597166555604
 20
36.76969259415219
 30
0.0
 11
125.5597166555604
 21
32.76969240416235
 31
0.0
  0
LINE
  5
40D
330
18
100
AcDbEntity
  8
1
  6
Continuous
100
AcDbLine
 10
128.809716809927
 20
32.06969237091416
 30
0.0
 11
126.8097167149322
 21
32.06969237091416
 31
0.0
  0
LINE
  5
40E
330
18
100
AcDbEntity
  8
1
  6
Continuous
100
AcDbLine
 10
125.5597166555604
 20
32.76969240416237
 30
0.0
 11
132.5597169880425
 21
32.76969240416239
 31
0.0
  0
LINE
  5
40F
330
18
100
AcDbEntity
  8
1
  6
Continuous
100
AcDbLine
 10
145.5597176055094
 20
36.76969259415218
 30
0.0
 11
140.559716981793
 21
36.76969259415207
 31
0.0
  0
LINE
  5
410
330
18
100
AcDbEntity
  8
1
  6
Continuous
100
AcDbLine
 10
147.3097176886299
 20
32.76969240416239
 30
0.0
 11
147.3097176886299
 21
32.06969237091416
 31
0.0
  0
LINE
  5
411
330
18
100
AcDbEntity
  8
1
  6
Continuous
100
AcDbLine
 10
147.8597177147536
 20
37.76969264164964
 30
0.0
 11
147.5597177005044
 21
37.76969264164964
 31
0.0
  0
LINE
  5
412
330
18
100
AcDbEntity
  8
1
  6
Continuous
100
AcDbLine
 10
147.8597177147536
 20
36.61969258702757
 30
0.0
 11
147.8597177147536
 21
37.76969264164964
 31
0.0
  0
LINE
  5
413
330
18
100
AcDbEntity
  8
1
  6
Continuous
100
AcDbLine
 10
147.3097176886299
 20
32.06969237091416
 30
0.0
 11
145.5597176055094
 21
32.06969237091416
 31
0.0
  0
LINE
  5
414
330
18
100
AcDbEntity
  8
1
  6
Continuous
100
AcDbLine
 10
122.0597168755029
 20
50.76969368659357
 30
0.0
 11
137.5597097813036
 21
50.76969368659357
 31
0.0
  0
LINE
  5
415
330
18
100
AcDbEntity
  8
1
  6
Continuous
100
AcDbLine
 10
126.3602981047434
 20
44.76969340160898
 30
0.0
 11
122.1088737308815
 21
44.76969340160898
 31
0.0
  0
LINE
  5
416
330
18
100
AcDbEntity
  8
1
  6
Continuous
100
AcDbLine
 10
126.3602981047434
 20
42.76969330661418
 30
0.0
 11
122.1088737308815
 21
42.76969330661418
 31
0.0
  0
ARC
  5
417
330
18
100
AcDbEntity
  8
1
  6
Continuous
100
AcDbCircle
 10
122.2978718507589
 20
42.87224633134147
 30
0.0
 40
0.2394360244559899
100
AcDbArc
 50
185.9295210867033
 51
198.7799166435709
  0
ARC
  5
418
330
18
100
AcDbEntity
  8
1
  6
Continuous
100
AcDbCircle
 10
122.1091792508719
 20
42.81077633384179
 30
0.0
 40
0.0410789021395534
100
AcDbArc
 50
202.3375762753008
 51
269.5738647688436
  0
ARC
  5
419
330
18
100
AcDbEntity
  8
1
  6
Continuous
100
AcDbCircle
 10
122.1091792508719
 20
44.72860950439147
 30
0.0
 40
0.0410789021395534
100
AcDbArc
 50
90.42613523115637
 51
157.6624237246989
  0
ARC
  5
41A
330
18
100
AcDbEntity
  8
1
  6
Continuous
100
AcDbCircle
 10
122.2978718507589
 20
44.66713950689178
 30
0.0
 40
0.2394360244559899
100
AcDbArc
 50
161.220083356429
 51
174.0704789132965
  0
ARC
  5
41B
330
18
100
AcDbEntity
  8
1
  6
Continuous
100
AcDbCircle
 10
126.4096359385831
 20
42.87869066778492
 30
0.0
 40
1.89164625688258
100
AcDbArc
 50
63.09071504385324
 51
91.4945554645619
  0
ARC
  5
41C
330
18
100
AcDbEntity
  8
1
  6
Continuous
100
AcDbCircle
 10
126.9771186655433
 20
43.76969291911658
 30
0.0
 40
0.8465506353250347
100
AcDbArc
 50
289.9351687021178
 51
70.06483129788218
  0
ARC
  5
41D
330
18
100
AcDbEntity
  8
1
  6
Continuous
100
AcDbCircle
 10
126.4096267550263
 20
44.66074395454678
 30
0.0
 40
1.891693915194885
100
AcDbArc
 50
268.5057604439547
 51
296.9088642541123
  0
LINE
  5
41E
330
18
100
AcDbEntity
  8
1
  6
Continuous
100
AcDbLine
 10
128.809716809927
 20
54.76969344910632
 30
0.0
 11
128.809716809927
 21
55.46969348235453
 31
0.0
  0
LINE
  5
41F
330
18
100
AcDbEntity
  8
1
  6
Continuous
100
AcDbLine
 10
130.809716904922
 20
54.76969344910632
 30
0.0
 11
130.809716904922
 21
55.46969348235453
 31
0.0
  0
LINE
  5
420
330
18
100
AcDbEntity
  8
1
  6
Continuous
100
AcDbLine
 10
132.5597169880425
 20
55.46969348235453
 30
0.0
 11
130.809716904922
 21
55.46969348235453
 31
0.0
  0
LINE
  5
421
330
18
100
AcDbEntity
  8
1
  6
Continuous
100
AcDbLine
 10
130.2597168787984
 20
50.91969326624113
 30
0.0
 11
130.2597168787984
 21
50.76969325911652
 31
0.0
  0
LINE
  5
422
330
18
100
AcDbEntity
  8
1
  6
Continuous
100
AcDbLine
 10
132.5597169880425
 20
55.46969348235453
 30
0.0
 11
132.5597169880425
 21
50.76969325911652
 31
0.0
  0
LINE
  5
423
330
18
100
AcDbEntity
  8
1
  6
Continuous
100
AcDbLine
 10
127.0597167268065
 20
50.76969325911651
 30
0.0
 11
127.0597167268065
 21
50.91969326624113
 31
0.0
  0
LINE
  5
424
330
18
100
AcDbEntity
  8
1
  6
Continuous
100
AcDbLine
 10
127.0597167268065
 20
50.91969326624113
 30
0.0
 11
130.2597168787984
 21
50.91969326624113
 31
0.0
  0
LINE
  5
425
330
18
100
AcDbEntity
  8
1
  6
Continuous
100
AcDbLine
 10
126.8097167149322
 20
54.76969344910632
 30
0.0
 11
126.8097167149322
 21
55.46969348235453
 31
0.0
  0
LINE
  5
426
330
18
100
AcDbEntity
  8
1
  6
Continuous
100
AcDbLine
 10
125.5597166555604
 20
54.76969344910632
 30
0.0
 11
125.5597166555604
 21
50.76969325911651
 31
0.0
  0
LINE
  5
427
330
18
100
AcDbEntity
  8
1
  6
Continuous
100
AcDbLine
 10
128.809716809927
 20
55.46969348235453
 30
0.0
 11
126.8097167149322
 21
55.46969348235453
 31
0.0
  0
LINE
  5
428
330
18
100
AcDbEntity
  8
1
  6
Continuous
100
AcDbLine
 10
125.5597166555604
 20
54.76969344910632
 30
0.0
 11
132.5597169880425
 21
54.76969344910632
 31
0.0
  0
LINE
  5
429
330
18
100
AcDbEntity
  8
1
  6
Continuous
100
AcDbLine
 10
140.5597169817928
 20
50.76969283163943
 30
0.0
 11
140.5597169817928
 21
48.76969316412171
 31
0.0
  0
LINE
  5
42A
330
18
100
AcDbEntity
  8
1
  6
Continuous
100
AcDbLine
 10
137.5597097813036
 20
50.76969368659357
 30
0.0
 11
137.5597097813036
 21
46.269693722855
 31
0.0
  0
LINE
  5
42B
330
18
100
AcDbEntity
  8
1
  6
Continuous
100
AcDbLine
 10
145.5597176055093
 20
48.76969316412163
 30
0.0
 11
145.5597176055094
 21
55.46969348235453
 31
0.0
  0
LINE
  5
42C
330
18
100
AcDbEntity
  8
1
  6
Continuous
100
AcDbLine
 10
140.8597099380451
 20
41.26969323536778
 30
0.0
 11
137.5597100313035
 21
41.26969323536778
 31
0.0
  0
LINE
  5
42D
330
18
100
AcDbEntity
  8
1
  6
Continuous
100
AcDbLine
 10
137.5597097813036
 20
46.26969347285505
 30
0.0
 11
140.8597096880451
 21
46.26969347285505
 31
0.0
  0
LINE
  5
42E
330
18
100
AcDbEntity
  8
1
  6
Continuous
100
AcDbLine
 10
137.5597097813036
 20
48.76969316412163
 30
0.0
 11
145.5597176055093
 21
48.76969316412163
 31
0.0
  0
LINE
  5
42F
330
18
100
AcDbEntity
  8
1
  6
Continuous
100
AcDbLine
 10
137.5597097813036
 20
38.76969268914706
 30
0.0
 11
145.5597176055094
 21
38.76969268914706
 31
0.0
  0
LINE
  5
430
330
18
100
AcDbEntity
  8
1
  6
Continuous
100
AcDbLine
 10
140.8597099380451
 20
39.26969314037288
 30
0.0
 11
140.8597099380451
 21
41.2696929853677
 31
0.0
  0
LINE
  5
431
330
18
100
AcDbEntity
  8
1
  6
Continuous
100
AcDbLine
 10
143.3597100567888
 20
39.26969314037288
 30
0.0
 11
140.8597101880451
 21
39.26969314037288
 31
0.0
  0
LINE
  5
432
330
18
100
AcDbEntity
  8
1
  6
Continuous
100
AcDbLine
 10
143.3597100567888
 20
39.26969314037288
 30
0.0
 11
143.3597100567888
 21
48.26969356784994
 31
0.0
  0
LINE
  5
433
330
18
100
AcDbEntity
  8
1
  6
Continuous
100
AcDbLine
 10
143.3597098067887
 20
48.26969356784994
 30
0.0
 11
140.8597099380451
 21
48.26969356784994
 31
0.0
  0
LINE
  5
434
330
18
100
AcDbEntity
  8
1
  6
Continuous
100
AcDbLine
 10
140.8597099380451
 20
46.26969347285505
 30
0.0
 11
140.8597099380451
 21
48.26969331784987
 31
0.0
  0
ARC
  5
435
330
18
100
AcDbEntity
  8
1
  6
Continuous
100
AcDbCircle
 10
147.660230318904
 20
42.45544154066608
 30
0.0
 40
0.1627105214091565
100
AcDbArc
 50
23.25856526596641
 51
58.22532785680152
  0
ARC
  5
436
330
18
100
AcDbEntity
  8
1
  6
Continuous
100
AcDbCircle
 10
147.2404898092114
 20
41.50937104508595
 30
0.0
 40
1.196395517969073
100
AcDbArc
 50
65.01046055446565
 51
74.52459419059495
  0
ARC
  5
437
330
18
100
AcDbEntity
  8
1
  6
Continuous
100
AcDbCircle
 10
147.3644487532286
 20
42.50679117212107
 30
0.0
 40
0.7878971310063832
100
AcDbArc
 50
59.45824752021793
 51
75.65052979516709
  0
ARC
  5
438
330
18
100
AcDbEntity
  8
1
  6
Continuous
100
AcDbCircle
 10
147.7311513978994
 20
43.11342740724227
 30
0.0
 40
0.0794402801994934
100
AcDbArc
 50
8.506744921738579
 51
64.91476785701157
  0
LINE
  5
439
330
18
100
AcDbEntity
  8
1
  6
Continuous
100
AcDbLine
 10
148.0597173380335
 20
45.01969298600609
 30
0.0
 11
147.5597177005044
 21
45.01969298600609
 31
0.0
  0
LINE
  5
43A
330
18
100
AcDbEntity
  8
1
  6
Continuous
100
AcDbLine
 10
147.5597177005044
 20
47.51969310474978
 30
0.0
 11
148.0597173380335
 21
47.51969310474978
 31
0.0
  0
LINE
  5
43B
330
18
100
AcDbEntity
  8
1
  6
Continuous
100
AcDbLine
 10
147.5597177005044
 20
40.0196927485189
 30
0.0
 11
147.8871289567546
 21
40.01969274853385
 31
0.0
  0
LINE
  5
43C
330
18
100
AcDbEntity
  8
1
  6
Continuous
100
AcDbLine
 10
147.5597177005044
 20
42.51969286726253
 30
0.0
 11
148.0597173380335
 21
42.51969286726253
 31
0.0
  0
LINE
  5
43D
330
18
100
AcDbEntity
  8
1
  6
Continuous
100
AcDbLine
 10
147.8871289567547
 20
40.0196927485346
 30
0.0
 11
148.0597173380335
 21
40.0196927485342
 31
0.0
  0
LINE
  5
43E
330
18
100
AcDbEntity
  8
1
  6
Continuous
100
AcDbLine
 10
147.8871289567545
 20
40.01969274853385
 30
0.0
 11
147.8871289567545
 21
42.51969286726253
 31
0.0
  0
LINE
  5
43F
330
18
100
AcDbEntity
  8
1
  6
Continuous
100
AcDbLine
 10
147.8097177123786
 20
43.12517867727229
 30
0.0
 11
147.8097177123786
 21
42.51956300631127
 31
0.0
  0
LINE
  5
440
330
18
100
AcDbEntity
  8
1
  6
Continuous
100
AcDbLine
 10
145.5597176055094
 20
50.76969325911651
 30
0.0
 11
140.559716981793
 21
50.76969325911651
 31
0.0
  0
LINE
  5
441
330
18
100
AcDbEntity
  8
1
  6
Continuous
100
AcDbLine
 10
147.3097176886299
 20
54.76969344910632
 30
0.0
 11
147.3097176886299
 21
55.46969348235453
 31
0.0
  0
LINE
  5
442
330
18
100
AcDbEntity
  8
1
  6
Continuous
100
AcDbLine
 10
147.8597177147536
 20
49.76969321161906
 30
0.0
 11
147.8597177147536
 21
50.91969326624113
 31
0.0
  0
LINE
  5
443
330
18
100
AcDbEntity
  8
1
  6
Continuous
100
AcDbLine
 10
147.5597177005044
 20
49.76969321161906
 30
0.0
 11
147.8597177147536
 21
49.76969321161906
 31
0.0
  0
LINE
  5
444
330
18
100
AcDbEntity
  8
1
  6
Continuous
100
AcDbLine
 10
147.3097176886299
 20
55.46969348235453
 30
0.0
 11
145.5597176055094
 21
55.46969348235453
 31
0.0
  0
LINE
  5
445
330
18
100
AcDbEntity
  8
1
  6
Continuous
100
AcDbLine
 10
122.0597168755387
 20
105.1336653928595
 30
0.0
 11
122.0597168755387
 21
261.3910321275955
 31
0.0
  0
LINE
  5
446
330
18
100
AcDbEntity
  8
1
  6
Continuous
100
AcDbLine
 10
125.0597170180312
 20
105.133665392887
 30
0.0
 11
125.0597170180312
 21
261.3910321275956
 31
0.0
  0
LINE
  5
447
330
18
100
AcDbEntity
  8
1
  6
Continuous
100
AcDbLine
 10
56.97440887806671
 20
100.1336651554018
 30
0.0
 11
42.97440821310238
 21
100.1336651554018
 31
0.0
  0
LINE
  5
448
330
18
100
AcDbEntity
  8
1
  6
Continuous
100
AcDbLine
 10
50.97440859308199
 20
100.1828298411827
 30
0.0
 11
50.97440859308199
 21
104.4342542150533
 31
0.0
  0
LINE
  5
449
330
18
100
AcDbEntity
  8
1
  6
Continuous
100
AcDbLine
 10
48.9744084980871
 20
100.1828298411827
 30
0.0
 11
48.9744084980871
 21
104.4342542150533
 31
0.0
  0
ARC
  5
44A
330
18
100
AcDbEntity
  8
1
  6
Continuous
100
AcDbCircle
 10
50.92590392456395
 20
100.1864753122205
 30
0.0
 40
0.0486353531723548
100
AcDbArc
 50
314.8739335043372
 51
355.7013536647445
  0
ARC
  5
44B
330
18
100
AcDbEntity
  8
1
  6
Continuous
100
AcDbCircle
 10
50.89497585913568
 20
100.2587934515269
 30
0.0
 40
0.1251377513393275
100
AcDbArc
 50
270.7043392340489
 51
301.4239961647603
  0
ARC
  5
44C
330
18
100
AcDbEntity
  8
1
  6
Continuous
100
AcDbCircle
 10
49.02291316660512
 20
100.1864753122205
 30
0.0
 40
0.0486353531723548
100
AcDbArc
 50
184.2986463352554
 51
225.1260664956626
  0
ARC
  5
44D
330
18
100
AcDbEntity
  8
1
  6
Continuous
100
AcDbCircle
 10
49.05384123203361
 20
100.2587934515269
 30
0.0
 40
0.1251377513393275
100
AcDbArc
 50
238.5760038352396
 51
269.295660765951
  0
ARC
  5
44E
330
18
100
AcDbEntity
  8
1
  6
Continuous
100
AcDbCircle
 10
49.97440795514285
 20
105.056028640856
 30
0.0
 40
0.8415967703253778
100
AcDbArc
 50
21.13990636548517
 51
158.8600936345237
  0
ARC
  5
44F
330
18
100
AcDbEntity
  8
1
  6
Continuous
100
AcDbCircle
 10
50.85266178388838
 20
104.485391475142
 30
0.0
 40
1.878943158540162
100
AcDbArc
 50
152.2743616696819
 51
181.559552769059
  0
ARC
  5
450
330
18
100
AcDbEntity
  8
1
  6
Continuous
100
AcDbCircle
 10
49.09604991453897
 20
104.4853524131279
 30
0.0
 40
1.879053578561378
100
AcDbArc
 50
358.4417304115768
 51
27.72521430454651
  0
LINE
  5
451
330
18
100
AcDbEntity
  8
1
  6
Continuous
100
AcDbLine
 10
127.0597171130261
 20
103.1336652978942
 30
0.0
 11
143.3597178872345
 21
103.1336652978942
 31
0.0
  0
LINE
  5
452
330
18
100
AcDbEntity
  8
1
  6
Continuous
100
AcDbLine
 10
127.0597171130261
 20
100.1336651554018
 30
0.0
 11
143.3597178872345
 21
100.1336651554018
 31
0.0
  0
ARC
  5
453
330
18
100
AcDbEntity
  8
1
  6
Continuous
100
AcDbCircle
 10
127.0597171130237
 20
105.133665392887
 30
0.0
 40
2.0000000949925
100
AcDbArc
 50
180.0
 51
270.0000000000651
  0
ARC
  5
454
330
18
100
AcDbEntity
  8
1
  6
Continuous
100
AcDbCircle
 10
127.0597037456605
 20
105.1336598559454
 30
0.0
 40
4.999986870124697
100
AcDbArc
 50
179.9999365514729
 51
270.0001531787898
  0
LINE
  5
455
330
18
100
AcDbEntity
  8
1
  6
Continuous
100
AcDbLine
 10
129.0662971745321
 20
103.1335652978943
 30
0.0
 11
125.0595007269451
 21
107.1403617454814
 31
0.0
  0
LINE
  5
456
330
18
100
AcDbEntity
  8
1
  6
Continuous
100
AcDbLine
 10
143.3597178872345
 20
100.1336651554018
 30
0.0
 11
143.3597178872345
 21
103.1336652978942
 31
0.0
  0
LINE
  5
457
330
18
100
AcDbEntity
  8
1
  6
Continuous
100
AcDbLine
 10
140.8597177684908
 20
100.1336651554018
 30
0.0
 11
140.8597177684908
 21
103.1336652978942
 31
0.0
  0
LINE
  5
458
330
18
100
AcDbEntity
  8
1
  6
Continuous
100
AcDbLine
 10
137.5597176117492
 20
100.1336651554018
 30
0.0
 11
137.5597176117492
 21
103.1336652978942
 31
0.0
  0
LINE
  5
459
330
18
100
AcDbEntity
  8
1
  6
Continuous
100
AcDbLine
 10
152.5597179379915
 20
54.76969344910635
 30
0.0
 11
152.5597179379915
 21
32.76969240416235
 31
0.0
  0
LINE
  5
45A
330
18
100
AcDbEntity
  8
1
  6
Continuous
100
AcDbLine
 10
151.3597178809947
 20
49.76969321161906
 30
0.0
 11
151.3597178809947
 21
37.76969264164964
 31
0.0
  0
LINE
  5
45B
330
18
100
AcDbEntity
  8
1
  6
Continuous
100
AcDbLine
 10
151.0597174805259
 20
36.61969258702757
 30
0.0
 11
151.0597174805259
 21
50.91969326624113
 31
0.0
  0
LINE
  5
45C
330
18
100
AcDbEntity
  8
1
  6
Continuous
100
AcDbLine
 10
149.3097177836249
 20
32.76969240416239
 30
0.0
 11
149.3097177836249
 21
32.06969237091416
 31
0.0
  0
LINE
  5
45D
330
18
100
AcDbEntity
  8
1
  6
Continuous
100
AcDbLine
 10
151.3097178786198
 20
32.06969237091416
 30
0.0
 11
149.3097177836249
 21
32.06969237091416
 31
0.0
  0
LINE
  5
45E
330
18
100
AcDbEntity
  8
1
  6
Continuous
100
AcDbLine
 10
151.3097178786198
 20
32.76969240416238
 30
0.0
 11
151.3097178786198
 21
32.06969237091416
 31
0.0
  0
LINE
  5
45F
330
18
100
AcDbEntity
  8
1
  6
Continuous
100
AcDbLine
 10
151.3597178809947
 20
37.76969264164964
 30
0.0
 11
151.0597178667453
 21
37.76969264164964
 31
0.0
  0
LINE
  5
461
330
18
100
AcDbEntity
  8
1
  6
Continuous
100
AcDbLine
 10
149.3097177836249
 20
54.76969344910632
 30
0.0
 11
149.3097177836249
 21
55.46969348235453
 31
0.0
  0
LINE
  5
462
330
18
100
AcDbEntity
  8
1
  6
Continuous
100
AcDbLine
 10
151.3097178786198
 20
54.76969344910632
 30
0.0
 11
151.3097178786198
 21
55.46969348235453
 31
0.0
  0
LINE
  5
463
330
18
100
AcDbEntity
  8
1
  6
Continuous
100
AcDbLine
 10
151.3097178786198
 20
55.46969348235453
 30
0.0
 11
149.3097177836249
 21
55.46969348235453
 31
0.0
  0
LINE
  5
465
330
18
100
AcDbEntity
  8
1
  6
Continuous
100
AcDbLine
 10
151.0597178667453
 20
49.76969321161906
 30
0.0
 11
151.3597178809947
 21
49.76969321161906
 31
0.0
  0
LINE
  5
466
330
18
100
AcDbEntity
  8
1
  6
Continuous
100
AcDbLine
 10
223.488414162697
 20
100.1336651554017
 30
0.0
 11
209.4884134977327
 21
100.1336651554017
 31
0.0
  0
LINE
  5
467
330
18
100
AcDbEntity
  8
1
  6
Continuous
100
AcDbLine
 10
209.4884134977327
 20
103.1336652978942
 30
0.0
 11
223.4884141626968
 21
103.1336652978942
 31
0.0
  0
ARC
  5
468
330
18
100
AcDbEntity
  8
1
  6
Continuous
100
AcDbCircle
 10
219.4558568368118
 20
103.6336652978941
 30
0.0
 40
0.5
100
AcDbArc
 50
270.0
 51
0.6299944987646736
  0
LINE
  5
469
330
18
100
AcDbEntity
  8
1
  6
Continuous
100
AcDbLine
 10
220.9884140439533
 20
100.1336651554018
 30
0.0
 11
220.9884140439533
 21
103.1336652978942
 31
0.0
  0
ARC
  5
46A
330
18
100
AcDbEntity
  8
1
  6
Continuous
100
AcDbCircle
 10
213.520970823618
 20
103.6336652978941
 30
0.0
 40
0.5
100
AcDbArc
 50
179.3700055012353
 51
270.0
  0
LINE
  5
46B
330
18
100
AcDbEntity
  8
1
  6
Continuous
100
AcDbLine
 10
211.9884136164763
 20
100.1336651554018
 30
0.0
 11
211.9884136164763
 21
103.1336652978942
 31
0.0
  0
ARC
  5
46C
330
18
100
AcDbEntity
  8
1
  6
Continuous
100
AcDbCircle
 10
216.4884141780432
 20
103.9389261714563
 30
0.0
 40
3.201218254532133
100
AcDbArc
 50
32.29758859350222
 51
147.7024114064976
  0
ARC
  5
46D
330
18
100
AcDbEntity
  8
1
  6
Continuous
100
AcDbCircle
 10
216.1458660285179
 20
103.6048021565009
 30
0.0
 40
3.125053888536286
100
AcDbArc
 50
139.1366583189957
 51
179.3700055012353
  0
ARC
  5
46E
330
18
100
AcDbEntity
  8
1
  6
Continuous
100
AcDbCircle
 10
216.8309616319119
 20
103.6048021565009
 30
0.0
 40
3.125053888536286
100
AcDbArc
 50
0.6299944987630454
 51
40.86334168100427
  0
LINE
  5
46F
330
18
100
AcDbEntity
  8
1
  6
Continuous
100
AcDbLine
 10
211.4884134977327
 20
262.5390824792203
 30
0.0
 11
221.488414162697
 21
262.5390824792203
 31
0.0
  0
LINE
  5
470
330
18
100
AcDbEntity
  8
1
  6
Continuous
100
AcDbLine
 10
307.9171106423987
 20
105.133665392887
 30
0.0
 11
307.9171106423987
 21
261.3910321275956
 31
0.0
  0
LINE
  5
471
330
18
100
AcDbEntity
  8
1
  6
Continuous
100
AcDbLine
 10
310.917110784891
 20
105.1336598559454
 30
0.0
 11
310.917110784891
 21
261.3910321275955
 31
0.0
  0
LINE
  5
472
330
18
100
AcDbEntity
  8
1
  6
Continuous
100
AcDbLine
 10
305.9171105474038
 20
103.1336652978942
 30
0.0
 11
289.6171097731953
 21
103.1336652978942
 31
0.0
  0
LINE
  5
473
330
18
100
AcDbEntity
  8
1
  6
Continuous
100
AcDbLine
 10
305.9171105474038
 20
100.1336651554018
 30
0.0
 11
289.6171097731953
 21
100.1336651554018
 31
0.0
  0
LINE
  5
474
330
18
100
AcDbEntity
  8
1
  6
Continuous
100
AcDbLine
 10
289.6171097731953
 20
100.1336651554018
 30
0.0
 11
289.6171097731953
 21
103.1336652978942
 31
0.0
  0
LINE
  5
475
330
18
100
AcDbEntity
  8
1
  6
Continuous
100
AcDbLine
 10
292.1171098919391
 20
100.1336651554018
 30
0.0
 11
292.1171098919391
 21
103.1336652978942
 31
0.0
  0
LINE
  5
476
330
18
100
AcDbEntity
  8
1
  6
Continuous
100
AcDbLine
 10
295.4171100486807
 20
100.1336651554018
 30
0.0
 11
295.4171100486807
 21
103.1336652978942
 31
0.0
  0
ARC
  5
477
330
18
100
AcDbEntity
  8
1
  6
Continuous
100
AcDbCircle
 10
305.9171239147695
 20
105.1336598559454
 30
0.0
 40
4.999986870124697
100
AcDbArc
 50
269.99984682121
 51
0.0
  0
ARC
  5
478
330
18
100
AcDbEntity
  8
1
  6
Continuous
100
AcDbCircle
 10
305.917110547406
 20
105.133665392887
 30
0.0
 40
2.0000000949925
100
AcDbArc
 50
269.9999999999348
 51
0.0
  0
LINE
  5
479
330
18
100
AcDbEntity
  8
1
  6
Continuous
100
AcDbLine
 10
303.9105304858976
 20
103.1335652978942
 30
0.0
 11
307.9173269334849
 21
107.1403617454814
 31
0.0
  0
LINE
  5
47A
330
18
100
AcDbEntity
  8
1
  6
Continuous
100
AcDbLine
 10
150.9456260278748
 20
505.4721487111448
 30
0.0
 11
146.224012572623
 21
505.4721487111448
 31
0.0
  0
LINE
  5
47B
330
18
100
AcDbEntity
  8
1
  6
Continuous
100
AcDbLine
 10
150.9456260278748
 20
503.4721486161504
 30
0.0
 11
146.224012572623
 21
503.4721486161504
 31
0.0
  0
ARC
  5
47C
330
18
100
AcDbEntity
  8
1
  6
Continuous
100
AcDbCircle
 10
145.0596330617466
 20
444.133537513398
 30
0.0
 40
3.000084279741813
100
AcDbArc
 50
0.0027497437922743
 51
89.99839322394844
  0
ARC
  5
47D
330
18
100
AcDbEntity
  8
1
  6
Continuous
100
AcDbCircle
 10
145.0598396198973
 20
444.1337322043541
 30
0.0
 40
5.999877860842735
100
AcDbArc
 50
359.999515766708
 51
90.00116907052383
  0
LINE
  5
47E
330
18
100
AcDbEntity
  8
4
  6
CENTER
 48
0.2
100
AcDbLine
 10
119.1597168755387
 20
504.4721490911247
 30
0.0
 11
155.5597179379914
 21
504.4721490911247
 31
0.0
  0
LINE
  5
47F
330
18
100
AcDbEntity
  8
4
  6
CENTER
 48
0.2
100
AcDbLine
 10
129.5597169880425
 20
306.1336749398768
 30
0.0
 11
148.5597176055093
 21
306.1336749398768
 31
0.0
  0
LINE
  5
480
330
18
100
AcDbEntity
  8
4
  6
CENTER
 48
0.2
100
AcDbLine
 10
129.5597169880425
 20
344.1336767447801
 30
0.0
 11
148.5597176055093
 21
344.1336767447801
 31
0.0
  0
LINE
  5
481
330
18
100
AcDbEntity
  8
4
  6
CENTER
 48
0.2
100
AcDbLine
 10
122.5597166555603
 20
325.1336758423282
 30
0.0
 11
155.5597179379914
 21
325.1336758423282
 31
0.0
  0
CIRCLE
  5
482
330
18
100
AcDbEntity
  8
1
  6
Continuous
100
AcDbCircle
 10
139.0597172967761
 20
325.1336758423282
 30
0.0
 40
11.80000056047026
  0
LINE
  5
483
330
18
100
AcDbEntity
  8
1
  6
Continuous
100
AcDbLine
 10
151.0597178667452
 20
511.6221494307312
 30
0.0
 11
147.8597177147534
 21
511.6221494307312
 31
0.0
  0
LINE
  5
484
330
18
100
AcDbEntity
  8
1
  6
Continuous
100
AcDbLine
 10
151.0597174805259
 20
511.4721494236066
 30
0.0
 11
140.5597169818026
 21
511.4721494236069
 31
0.0
  0
LINE
  5
485
330
18
100
AcDbEntity
  8
1
  6
Continuous
100
AcDbLine
 10
152.5597179379914
 20
515.4721496135968
 30
0.0
 11
145.5597176055093
 21
515.4721496135964
 31
0.0
  0
LINE
  5
486
330
18
100
AcDbEntity
  8
1
  6
Continuous
100
AcDbLine
 10
147.8597177147534
 20
497.3221487515178
 30
0.0
 11
151.0597178667452
 21
497.3221487515178
 31
0.0
  0
LINE
  5
487
330
18
100
AcDbEntity
  8
1
  6
Continuous
100
AcDbLine
 10
151.0597174805259
 20
497.4721487586423
 30
0.0
 11
140.5597169818026
 21
497.4721487586423
 31
0.0
  0
LINE
  5
488
330
18
100
AcDbEntity
  8
1
  6
Continuous
100
AcDbLine
 10
152.5597179379914
 20
493.4721485686526
 30
0.0
 11
145.5597176055093
 21
493.4721485686526
 31
0.0
  0
LINE
  5
489
330
18
100
AcDbEntity
  8
1
  6
Continuous
100
AcDbLine
 10
151.559717890494
 20
352.1336771247597
 30
0.0
 11
145.050543901625
 21
352.1336771247597
 31
0.0
  0
LINE
  5
48A
330
18
100
AcDbEntity
  8
1
  6
Continuous
100
AcDbLine
 10
145.5597176055093
 20
349.8836770178903
 30
0.0
 11
151.3097178786196
 21
349.8836770178905
 31
0.0
  0
LINE
  5
48B
330
18
100
AcDbEntity
  8
1
  6
Continuous
100
AcDbLine
 10
148.650745071852
 20
323.6144549186813
 30
0.0
 11
147.943944658115
 21
323.7264011066321
 31
0.0
  0
LINE
  5
48C
330
18
100
AcDbEntity
  8
1
  6
Continuous
100
AcDbLine
 10
147.9439446581151
 20
326.5409505780247
 30
0.0
 11
148.6507450718519
 21
326.6528967659754
 31
0.0
  0
LINE
  5
48D
330
18
100
AcDbEntity
  8
1
  6
Continuous
100
AcDbLine
 10
147.9597173380334
 20
327.0336759325736
 30
0.0
 11
150.7057472162015
 21
327.0336759325736
 31
0.0
  0
LINE
  5
48E
330
18
100
AcDbEntity
  8
1
  6
Continuous
100
AcDbLine
 10
147.9597173380334
 20
329.5136760503674
 30
0.0
 11
150.0167064545999
 21
329.5136760503674
 31
0.0
  0
LINE
  5
48F
330
18
100
AcDbEntity
  8
1
  6
Continuous
100
AcDbLine
 10
147.9597173380334
 20
323.2336757520834
 30
0.0
 11
150.7057472162015
 21
323.2336757520834
 31
0.0
  0
LINE
  5
490
330
18
100
AcDbEntity
  8
1
  6
Continuous
100
AcDbLine
 10
145.050543901625
 20
298.1336745598973
 30
0.0
 11
151.5597178904942
 21
298.1336745598973
 31
0.0
  0
LINE
  5
491
330
18
100
AcDbEntity
  8
1
  6
Continuous
100
AcDbLine
 10
151.3097178786196
 20
300.3836746667666
 30
0.0
 11
145.5597176055093
 21
300.3836746667666
 31
0.0
  0
LINE
  5
492
330
18
100
AcDbEntity
  8
1
  6
Continuous
100
AcDbLine
 10
148.0597173380334
 20
444.133681493691
 30
0.0
 11
148.0597173380334
 21
352.1336771247597
 31
0.0
  0
LINE
  5
493
330
18
100
AcDbEntity
  8
1
  6
Continuous
100
AcDbLine
 10
56.97440887806671
 20
450.1336817795101
 30
0.0
 11
56.97440887806671
 21
352.1336771247597
 31
0.0
  0
LINE
  5
494
330
18
100
AcDbEntity
  8
1
  6
Continuous
100
AcDbLine
 10
42.97440821310238
 20
450.1336817795101
 30
0.0
 11
42.97440821310238
 21
352.1336771247597
 31
0.0
  0
LINE
  5
495
330
18
100
AcDbEntity
  8
4
  6
CENTER
 48
0.2
100
AcDbLine
 10
139.0597172967856
 20
295.1336745598973
 30
0.0
 11
139.0597172967856
 21
355.1336771247597
 31
0.0
  0
LINE
  5
496
330
18
100
AcDbEntity
  8
1
  6
Continuous
100
AcDbLine
 10
147.3097176886298
 20
349.8836770178903
 30
0.0
 11
147.3097176886298
 21
347.8836769228954
 31
0.0
  0
LINE
  5
497
330
18
100
AcDbEntity
  8
1
  6
Continuous
100
AcDbLine
 10
145.5597176055093
 20
352.1336771247597
 30
0.0
 11
145.5597176055093
 21
334.9820264257288
 31
0.0
  0
LINE
  5
498
330
18
100
AcDbEntity
  8
1
  6
Continuous
100
AcDbLine
 10
132.5597169880425
 20
352.1336771247597
 30
0.0
 11
132.5597169880425
 21
334.9820264257285
 31
0.0
  0
LINE
  5
499
330
18
100
AcDbEntity
  8
1
  6
Continuous
100
AcDbLine
 10
130.8097169049219
 20
347.8836769228954
 30
0.0
 11
130.8097169049219
 21
349.8836770178903
 31
0.0
  0
LINE
  5
49A
330
18
100
AcDbEntity
  8
1
  6
Continuous
100
AcDbLine
 10
126.8097167149321
 20
335.1336763173029
 30
0.0
 11
126.8097167149321
 21
349.8836770178903
 31
0.0
  0
LINE
  5
49B
330
18
100
AcDbEntity
  8
1
  6
Continuous
100
AcDbLine
 10
125.5597166555603
 20
299.1336746073948
 30
0.0
 11
125.5597166555603
 21
351.1336770772621
 31
0.0
  0
LINE
  5
49C
330
18
100
AcDbEntity
  8
1
  6
Continuous
100
AcDbLine
 10
60.97440906805649
 20
352.1336771247597
 30
0.0
 11
60.97440906805537
 21
335.1336763173031
 31
0.0
  0
LINE
  5
49D
330
18
100
AcDbEntity
  8
1
  6
Continuous
100
AcDbLine
 10
61.67440910130473
 20
347.8836769228954
 30
0.0
 11
61.67440910130473
 21
349.8836770178903
 31
0.0
  0
LINE
  5
49E
330
18
100
AcDbEntity
  8
1
  6
Continuous
100
AcDbLine
 10
38.97440802311246
 20
335.1336763173029
 30
0.0
 11
38.97440802311246
 21
352.1336771247597
 31
0.0
  0
LINE
  5
49F
330
18
100
AcDbEntity
  8
1
  6
Continuous
100
AcDbLine
 10
38.27440798986435
 20
347.8836769228954
 30
0.0
 11
38.27440798986435
 21
349.8836770178903
 31
0.0
  0
LINE
  5
4A0
330
18
100
AcDbEntity
  8
1
  6
Continuous
100
AcDbLine
 10
60.97440906805649
 20
315.133675367354
 30
0.0
 11
60.97440906805649
 21
298.1336745598973
 31
0.0
  0
LINE
  5
4A1
330
18
100
AcDbEntity
  8
1
  6
Continuous
100
AcDbLine
 10
38.97440802311257
 20
315.133675367354
 30
0.0
 11
38.97440802311257
 21
298.1336745598973
 31
0.0
  0
LINE
  5
4A2
330
18
100
AcDbEntity
  8
1
  6
Continuous
100
AcDbLine
 10
60.97440906805649
 20
298.1336745598973
 30
0.0
 11
38.97440802311257
 21
298.1336745598973
 31
0.0
  0
LINE
  5
4A3
330
18
100
AcDbEntity
  8
1
  6
Continuous
100
AcDbLine
 10
54.9744088780667
 20
263.6871328308453
 30
0.0
 11
44.97440821310237
 21
263.6871328308453
 31
0.0
  0
LINE
  5
4A4
330
18
100
AcDbEntity
  8
1
  6
Continuous
100
AcDbLine
 10
54.9744088780667
 20
268.9709042518848
 30
0.0
 11
44.97440821310237
 21
268.9709042518848
 31
0.0
  0
LINE
  5
4A5
330
18
100
AcDbEntity
  8
1
  6
Continuous
100
AcDbLine
 10
38.27440798986435
 20
300.3836746667666
 30
0.0
 11
38.27440798986435
 21
302.3836747617616
 31
0.0
  0
LINE
  5
4A6
330
18
100
AcDbEntity
  8
1
  6
Continuous
100
AcDbLine
 10
38.97440802311257
 20
302.3836747617616
 30
0.0
 11
38.27440798986435
 21
302.3836747617616
 31
0.0
  0
LINE
  5
4A7
330
18
100
AcDbEntity
  8
1
  6
Continuous
100
AcDbLine
 10
38.97440802311257
 20
300.3836746667666
 30
0.0
 11
38.27440798986435
 21
300.3836746667666
 31
0.0
  0
LINE
  5
4A8
330
18
100
AcDbEntity
  8
1
  6
Continuous
100
AcDbLine
 10
60.97440906805649
 20
300.3836746667666
 30
0.0
 11
61.67440910130473
 21
300.3836746667666
 31
0.0
  0
LINE
  5
4A9
330
18
100
AcDbEntity
  8
1
  6
Continuous
100
AcDbLine
 10
61.67440910130473
 20
300.3836746667666
 30
0.0
 11
61.67440910130473
 21
302.3836747617616
 31
0.0
  0
LINE
  5
4AA
330
18
100
AcDbEntity
  8
1
  6
Continuous
100
AcDbLine
 10
60.97440906805649
 20
302.3836747617616
 30
0.0
 11
61.67440910130473
 21
302.3836747617616
 31
0.0
  0
LINE
  5
4AB
330
18
100
AcDbEntity
  8
4
  6
CENTER
 48
0.2
100
AcDbLine
 10
35.2744079898548
 20
306.1336749398772
 30
0.0
 11
64.67440910129517
 21
306.1336749398772
 31
0.0
  0
LINE
  5
4AC
330
18
100
AcDbEntity
  8
4
  6
CENTER
 48
0.2
100
AcDbLine
 10
35.27440798985458
 20
325.1336758423287
 30
0.0
 11
64.67440910129494
 21
325.1336758423287
 31
0.0
  0
LINE
  5
4AD
330
18
100
AcDbEntity
  8
4
  6
CENTER
 48
0.2
100
AcDbLine
 10
35.27440798986436
 20
344.1336767447801
 30
0.0
 11
64.67440910130472
 21
344.1336767447801
 31
0.0
  0
LINE
  5
4AE
330
18
100
AcDbEntity
  8
1
  6
Continuous
100
AcDbLine
 10
41.07440812285722
 20
315.133675367354
 30
0.0
 11
41.07440812285722
 21
335.1336763173029
 31
0.0
  0
LINE
  5
4AF
330
18
100
AcDbEntity
  8
1
  6
Continuous
100
AcDbLine
 10
38.27440798986435
 20
315.1336753673541
 30
0.0
 11
41.07440812285722
 21
315.133675367354
 31
0.0
  0
LINE
  5
4B0
330
18
100
AcDbEntity
  8
1
  6
Continuous
100
AcDbLine
 10
38.97440802311257
 20
308.3836750467462
 30
0.0
 11
38.27440798986435
 21
308.3836750467462
 31
0.0
  0
LINE
  5
4B1
330
18
100
AcDbEntity
  8
1
  6
Continuous
100
AcDbLine
 10
38.27440798986435
 20
308.3836750467462
 30
0.0
 11
38.27440798986435
 21
315.1336753673541
 31
0.0
  0
LINE
  5
4B2
330
18
100
AcDbEntity
  8
1
  6
Continuous
100
AcDbLine
 10
38.27440798986435
 20
335.1336763173029
 30
0.0
 11
41.07440812285722
 21
335.1336763173029
 31
0.0
  0
LINE
  5
4B3
330
18
100
AcDbEntity
  8
1
  6
Continuous
100
AcDbLine
 10
38.27440798986435
 20
335.1336763173029
 30
0.0
 11
38.27440798986435
 21
341.8836766379108
 31
0.0
  0
LINE
  5
4B4
330
18
100
AcDbEntity
  8
1
  6
Continuous
100
AcDbLine
 10
38.97440802311257
 20
347.8836769228954
 30
0.0
 11
38.27440798986435
 21
347.8836769228954
 31
0.0
  0
LINE
  5
4B5
330
18
100
AcDbEntity
  8
1
  6
Continuous
100
AcDbLine
 10
38.97440802311246
 20
341.8836766379108
 30
0.0
 11
38.27440798986435
 21
341.8836766379108
 31
0.0
  0
LINE
  5
4B6
330
18
100
AcDbEntity
  8
1
  6
Continuous
100
AcDbLine
 10
58.87440896831185
 20
315.133675367354
 30
0.0
 11
58.87440896831185
 21
335.1336763173029
 31
0.0
  0
LINE
  5
4B7
330
18
100
AcDbEntity
  8
1
  6
Continuous
100
AcDbLine
 10
61.67440910130473
 20
315.1336753673541
 30
0.0
 11
58.87440896831185
 21
315.133675367354
 31
0.0
  0
LINE
  5
4B8
330
18
100
AcDbEntity
  8
1
  6
Continuous
100
AcDbLine
 10
60.97440906805649
 20
308.3836750467462
 30
0.0
 11
61.67440910130473
 21
308.3836750467462
 31
0.0
  0
LINE
  5
4B9
330
18
100
AcDbEntity
  8
1
  6
Continuous
100
AcDbLine
 10
61.67440910130473
 20
308.3836750467462
 30
0.0
 11
61.67440910130473
 21
315.1336753673541
 31
0.0
  0
LINE
  5
4BA
330
18
100
AcDbEntity
  8
1
  6
Continuous
100
AcDbLine
 10
61.67440910130473
 20
335.1336763173029
 30
0.0
 11
61.67440910130473
 21
341.8836766379108
 31
0.0
  0
LINE
  5
4BB
330
18
100
AcDbEntity
  8
1
  6
Continuous
100
AcDbLine
 10
61.67440910130473
 20
335.1336763173029
 30
0.0
 11
58.87440896831185
 21
335.1336763173029
 31
0.0
  0
LINE
  5
4BC
330
18
100
AcDbEntity
  8
1
  6
Continuous
100
AcDbLine
 10
60.97440906805649
 20
347.8836769228954
 30
0.0
 11
61.67440910130473
 21
347.8836769228954
 31
0.0
  0
LINE
  5
4BD
330
18
100
AcDbEntity
  8
1
  6
Continuous
100
AcDbLine
 10
60.97440906805582
 20
341.8836766379108
 30
0.0
 11
61.67440910130473
 21
341.8836766379108
 31
0.0
  0
LINE
  5
4BE
330
18
100
AcDbEntity
  8
1
  6
Continuous
100
AcDbLine
 10
126.8097167149321
 20
300.3836746667666
 30
0.0
 11
126.8097167149321
 21
315.133675367354
 31
0.0
  0
CIRCLE
  5
4BF
330
18
100
AcDbEntity
  8
1
  6
Continuous
100
AcDbCircle
 10
139.0597172967759
 20
306.1336749398768
 30
0.0
 40
2.2000001044944
  0
LINE
  5
4C0
330
18
100
AcDbEntity
  8
1
  6
Continuous
100
AcDbLine
 10
145.5597176055093
 20
298.1336745598973
 30
0.0
 11
145.5597176055093
 21
315.2853252589276
 31
0.0
  0
LINE
  5
4C1
330
18
100
AcDbEntity
  8
1
  6
Continuous
100
AcDbLine
 10
132.5597169880425
 20
298.1336745598973
 30
0.0
 11
132.5597169880425
 21
315.2853252589279
 31
0.0
  0
LINE
  5
4C2
330
18
100
AcDbEntity
  8
1
  6
Continuous
100
AcDbLine
 10
130.0597172555184
 20
270.1189546035096
 30
0.0
 11
130.0597172555184
 21
298.1336745598973
 31
0.0
  0
LINE
  5
4C3
330
18
100
AcDbEntity
  8
1
  6
Continuous
100
AcDbLine
 10
127.0597171130261
 20
270.1189546035096
 30
0.0
 11
127.0597171130261
 21
298.1336745598973
 31
0.0
  0
LINE
  5
4C4
330
18
100
AcDbEntity
  8
1
  6
Continuous
100
AcDbLine
 10
123.8170762718894
 20
265.6336730162306
 30
0.0
 11
126.1810374148506
 21
267.9976341591923
 31
0.0
  0
ARC
  5
4C5
330
18
100
AcDbEntity
  8
1
  6
Continuous
100
AcDbCircle
 10
124.0597169705338
 20
270.1189546035096
 30
0.0
 40
6.000000284984547
100
AcDbArc
 50
314.9999999999982
 51
0.0000000000004071
  0
ARC
  5
4C6
330
18
100
AcDbEntity
  8
1
  6
Continuous
100
AcDbCircle
 10
124.0597169705336
 20
270.1189546035096
 30
0.0
 40
3.000000142492329
100
AcDbArc
 50
314.9999999999983
 51
0.0000000000008142
  0
LINE
  5
4C7
330
18
100
AcDbEntity
  8
1
  6
Continuous
100
AcDbLine
 10
125.9383967162059
 20
263.512352571913
 30
0.0
 11
128.3023578591675
 21
265.8763137148753
 31
0.0
  0
LINE
  5
4C8
330
18
100
AcDbEntity
  8
1
  6
Continuous
100
AcDbLine
 10
126.5597167030579
 20
298.1336745598973
 30
0.0
 11
133.0688906919269
 21
298.1336745598973
 31
0.0
  0
LINE
  5
4C9
330
18
100
AcDbEntity
  8
1
  6
Continuous
100
AcDbLine
 10
130.8097169049219
 20
302.3836747617616
 30
0.0
 11
132.5597169880425
 21
302.3836747617616
 31
0.0
  0
LINE
  5
4CA
330
18
100
AcDbEntity
  8
1
  6
Continuous
100
AcDbLine
 10
130.8097169049219
 20
300.3836746667666
 30
0.0
 11
130.8097169049219
 21
302.3836747617616
 31
0.0
  0
LINE
  5
4CB
330
18
100
AcDbEntity
  8
1
  6
Continuous
100
AcDbLine
 10
132.5597169880425
 20
300.3836746667666
 30
0.0
 11
126.8097167149321
 21
300.3836746667666
 31
0.0
  0
ARC
  5
4CC
330
18
100
AcDbEntity
  8
1
  6
Continuous
100
AcDbCircle
 10
126.5597167030579
 20
299.1336746073948
 30
0.0
 40
1.000000047497451
100
AcDbArc
 50
180.0000000000012
 51
270.0
  0
ARC
  5
4CD
330
18
100
AcDbEntity
  8
1
  6
Continuous
100
AcDbCircle
 10
139.0597172967759
 20
296.6336744886511
 30
0.0
 40
5.200000246986745
100
AcDbArc
 50
26.60013496100229
 51
153.399865038998
  0
ARC
  5
4CE
330
18
100
AcDbEntity
  8
1
  6
Continuous
100
AcDbCircle
 10
133.0688906919269
 20
299.6336746311435
 30
0.0
 40
1.500000071246164
100
AcDbArc
 50
270.0
 51
333.399865039097
  0
LINE
  5
4CF
330
18
100
AcDbEntity
  8
1
  6
Continuous
100
AcDbLine
 10
147.3097176886298
 20
302.3836747617616
 30
0.0
 11
147.3097176886298
 21
300.3836746667666
 31
0.0
  0
ARC
  5
4D0
330
18
100
AcDbEntity
  8
1
  6
Continuous
100
AcDbCircle
 10
145.050543901625
 20
299.6336746311435
 30
0.0
 40
1.500000071246215
100
AcDbArc
 50
206.6001349609029
 51
270.0
  0
LINE
  5
4D1
330
18
100
AcDbEntity
  8
1
  6
Continuous
100
AcDbLine
 10
145.5597176055093
 20
302.3836747617616
 30
0.0
 11
147.3097176886298
 21
302.3836747617616
 31
0.0
  0
ARC
  5
4D2
330
18
100
AcDbEntity
  8
1
  6
Continuous
100
AcDbCircle
 10
139.0597172967755
 20
325.1336758423283
 30
0.0
 40
8.700000413228245
100
AcDbArc
 50
10.91043795676774
 51
25.08956199352029
  0
LINE
  5
4D3
330
18
100
AcDbEntity
  8
1
  6
Continuous
100
AcDbLine
 10
147.8097177123785
 20
329.5946193980102
 30
0.0
 11
147.8097177123785
 21
326.5502391305878
 31
0.0
  0
LINE
  5
4D4
330
18
100
AcDbEntity
  8
1
  6
Continuous
100
AcDbLine
 10
147.9597173380334
 20
326.5434487251058
 30
0.0
 11
147.9597173380334
 21
332.8815795906151
 31
0.0
  0
LINE
  5
4D5
330
18
100
AcDbEntity
  8
1
  6
Continuous
100
AcDbLine
 10
143.1097174891406
 20
322.0340789471408
 30
0.0
 11
143.1097174891406
 21
328.2332727375181
 31
0.0
  0
LINE
  5
4D6
330
18
100
AcDbEntity
  8
1
  6
Continuous
100
AcDbLine
 10
134.1097170616635
 20
329.5836760536922
 30
0.0
 11
134.1097170616635
 21
325.1336758423285
 31
0.0
  0
LINE
  5
4D7
330
18
100
AcDbEntity
  8
1
  6
Continuous
100
AcDbLine
 10
134.1347170628511
 20
325.1086758411411
 30
0.0
 11
134.1347170628511
 21
329.2986340231347
 31
0.0
  0
ARC
  5
4D8
330
18
100
AcDbEntity
  8
1
  6
Continuous
100
AcDbCircle
 10
139.0597172967757
 20
325.1336758423287
 30
0.0
 40
8.700000413227572
100
AcDbArc
 50
154.9104376114692
 51
169.0895625982931
  0
LINE
  5
4D9
330
18
100
AcDbEntity
  8
1
  6
Continuous
100
AcDbLine
 10
130.3097168811732
 20
329.5946193980111
 30
0.0
 11
130.3097168811732
 21
326.5502391305878
 31
0.0
  0
LINE
  5
4DA
330
18
100
AcDbEntity
  8
1
  6
Continuous
100
AcDbLine
 10
130.1597172555184
 20
326.5434487251062
 30
0.0
 11
130.1597172555184
 21
332.8815795906146
 31
0.0
  0
LINE
  5
4DB
330
18
100
AcDbEntity
  8
1
  6
Continuous
100
AcDbLine
 10
135.0097171044112
 20
328.2332727375161
 30
0.0
 11
135.0097171044112
 21
322.0340789471396
 31
0.0
  0
ARC
  5
4DC
330
18
100
AcDbEntity
  8
1
  6
Continuous
100
AcDbCircle
 10
132.9115337593697
 20
318.5610168196453
 30
0.0
 40
0.3
100
AcDbArc
 50
46.91116532227716
 51
134.999999984606
  0
ARC
  5
4DD
330
18
100
AcDbEntity
  8
1
  6
Continuous
100
AcDbCircle
 10
139.0597172967759
 20
325.1336758423285
 30
0.0
 40
11.6000080082267
100
AcDbArc
 50
222.8818397472738
 51
247.3294144731713
  0
LINE
  5
4DE
330
18
100
AcDbEntity
  8
1
  6
Continuous
100
AcDbLine
 10
128.809716809927
 20
308.3836750467462
 30
0.0
 11
126.8097167149321
 21
308.3836750467462
 31
0.0
  0
LINE
  5
4DF
330
18
100
AcDbEntity
  8
1
  6
Continuous
100
AcDbLine
 10
128.809716809927
 20
315.133675367354
 30
0.0
 11
128.809716809927
 21
308.3836750467462
 31
0.0
  0
LINE
  5
4E0
330
18
100
AcDbEntity
  8
1
  6
Continuous
100
AcDbLine
 10
125.5597166555603
 20
315.133675367354
 30
0.0
 11
128.809716809927
 21
315.133675367354
 31
0.0
  0
ARC
  5
4E1
330
18
100
AcDbEntity
  8
1
  6
Continuous
100
AcDbCircle
 10
139.0597172967856
 20
325.1336758423285
 30
0.0
 40
11.75000055810471
100
AcDbArc
 50
178.0324460215733
 51
181.9675539784253
  0
ARC
  5
4E2
330
18
100
AcDbEntity
  8
1
  6
Continuous
100
AcDbCircle
 10
128.3160546639093
 20
325.5027614815068
 30
0.0
 40
1.000000047497437
100
AcDbArc
 50
109.999999999844
 51
178.0324460215672
  0
ARC
  5
4E3
330
18
100
AcDbEntity
  8
1
  6
Continuous
100
AcDbCircle
 10
128.3160546639093
 20
324.7645902031501
 30
0.0
 40
1.000000047497465
100
AcDbArc
 50
181.967553978433
 51
250.0000000001559
  0
ARC
  5
4E4
330
18
100
AcDbEntity
  8
1
  6
Continuous
100
AcDbCircle
 10
130.2224202771778
 20
326.8372570942773
 30
0.0
 40
0.3000000142492311
100
AcDbArc
 50
261.0000000000145
 51
349.067722386108
  0
ARC
  5
4E5
330
18
100
AcDbEntity
  8
1
  6
Continuous
100
AcDbCircle
 10
129.077603340524
 20
324.183675797206
 30
0.0
 40
2.500000118743586
100
AcDbArc
 50
81.00000000000802
 51
109.9999999999892
  0
ARC
  5
4E6
330
18
100
AcDbEntity
  8
1
  6
Continuous
100
AcDbCircle
 10
130.2224202771778
 20
323.4300945903796
 30
0.0
 40
0.3000000142492325
100
AcDbArc
 50
10.93228905586139
 51
98.99999999998538
  0
ARC
  5
4E7
330
18
100
AcDbEntity
  8
1
  6
Continuous
100
AcDbCircle
 10
129.077603340524
 20
326.0836758874508
 30
0.0
 40
2.500000118743558
100
AcDbArc
 50
250.0000000000107
 51
278.999999999992
  0
LINE
  5
4E8
330
18
100
AcDbEntity
  8
1
  6
Continuous
100
AcDbLine
 10
127.9740345043417
 20
326.4424541469251
 30
0.0
 11
128.2225529415979
 21
326.5329074607527
 31
0.0
  0
LINE
  5
4E9
330
18
100
AcDbEntity
  8
1
  6
Continuous
100
AcDbLine
 10
129.4686895216997
 20
326.6528967659756
 30
0.0
 11
130.1754899354368
 21
326.5409505780248
 31
0.0
  0
LINE
  5
4EA
330
18
100
AcDbEntity
  8
1
  6
Continuous
100
AcDbLine
 10
128.2225529415977
 20
323.7344442239037
 30
0.0
 11
127.9740345043416
 21
323.8248975377313
 31
0.0
  0
LINE
  5
4EB
330
18
100
AcDbEntity
  8
1
  6
Continuous
100
AcDbLine
 10
130.1754899354367
 20
323.7264011066323
 30
0.0
 11
129.4686895216998
 21
323.6144549186815
 31
0.0
  0
LINE
  5
4EC
330
18
100
AcDbEntity
  8
1
  6
Continuous
100
AcDbLine
 10
130.1597172555184
 20
323.2336757520834
 30
0.0
 11
127.4136873773502
 21
323.2336757520834
 31
0.0
  0
LINE
  5
4ED
330
18
100
AcDbEntity
  8
1
  6
Continuous
100
AcDbLine
 10
130.5597168930477
 20
316.9489335517178
 30
0.0
 11
130.5597168930475
 21
317.4726051896121
 31
0.0
  0
ARC
  5
4EE
330
18
100
AcDbEntity
  8
1
  6
Continuous
100
AcDbCircle
 10
130.9088538876047
 20
321.3174691682053
 30
0.0
 40
0.300000014249232
100
AcDbArc
 50
296.9999999999873
 51
25.06772835442641
  0
ARC
  5
4EF
330
18
100
AcDbEntity
  8
1
  6
Continuous
100
AcDbCircle
 10
130.4256214501805
 20
320.0349026533018
 30
0.0
 40
2.500000118743655
100
AcDbArc
 50
285.9999999999947
 51
315.0000000000003
  0
ARC
  5
4F0
330
18
100
AcDbEntity
  8
1
  6
Continuous
100
AcDbCircle
 10
131.542413482581
 20
318.4977702909791
 30
0.0
 40
2.500000118743443
100
AcDbArc
 50
117.0000000000011
 51
123.5784764141669
  0
ARC
  5
4F1
330
18
100
AcDbEntity
  8
1
  6
Continuous
100
AcDbCircle
 10
139.0597172967805
 20
325.1336758423336
 30
0.0
 40
11.75000055810184
100
AcDbArc
 50
220.7603717602572
 51
221.2995739046176
  0
LINE
  5
4F2
330
18
100
AcDbEntity
  8
1
  6
Continuous
100
AcDbLine
 10
132.6994017250706
 20
318.7731488540583
 30
0.0
 11
132.1933884871114
 21
318.2671356163708
 31
0.0
  0
LINE
  5
4F3
330
18
100
AcDbEntity
  8
1
  6
Continuous
100
AcDbLine
 10
130.4074371793239
 20
320.7252867072513
 30
0.0
 11
131.0450510439956
 21
321.0501671982525
 31
0.0
  0
LINE
  5
4F4
330
18
100
AcDbEntity
  8
1
  6
Continuous
100
AcDbLine
 10
131.1147148724529
 20
317.6317482993121
 30
0.0
 11
130.2323056367972
 21
317.3787215226369
 31
0.0
  0
LINE
  5
4F5
330
18
100
AcDbEntity
  8
1
  6
Continuous
100
AcDbLine
 10
130.1597168740486
 20
323.7239028991321
 30
0.0
 11
130.1597168740486
 21
317.3857725322351
 31
0.0
  0
LINE
  5
4F6
330
18
100
AcDbEntity
  8
1
  6
Continuous
100
AcDbLine
 10
130.1597172555184
 20
320.7536756342896
 30
0.0
 11
128.1027281389521
 21
320.7536756342896
 31
0.0
  0
LINE
  5
4F7
330
18
100
AcDbEntity
  8
1
  6
Continuous
100
AcDbLine
 10
130.5597168930477
 20
320.8028770968352
 30
0.0
 11
130.5597168930477
 21
323.2789520551348
 31
0.0
  0
ARC
  5
4F8
330
18
100
AcDbEntity
  8
1
  6
Continuous
100
AcDbCircle
 10
139.0597172967759
 20
325.1336758423285
 30
0.0
 40
8.700000413227838
100
AcDbArc
 50
190.910437007129
 51
205.0895623924902
  0
LINE
  5
4F9
330
18
100
AcDbEntity
  8
1
  6
Continuous
100
AcDbLine
 10
130.3097168811732
 20
323.7171125540692
 30
0.0
 11
130.3097168811732
 21
320.6727322866468
 31
0.0
  0
ARC
  5
4FA
330
18
100
AcDbEntity
  8
1
  6
Continuous
100
AcDbCircle
 10
140.170390209467
 20
316.2024713672531
 30
0.0
 40
0.3000000142492376
100
AcDbArc
 50
9.000000000001179
 51
97.06773010680405
  0
ARC
  5
4FB
330
18
100
AcDbEntity
  8
1
  6
Continuous
100
AcDbCircle
 10
141.2408564156504
 20
315.3465551592343
 30
0.0
 40
2.500000118743666
100
AcDbArc
 50
358.0000000000051
 51
26.99999999999997
  0
ARC
  5
4FC
330
18
100
AcDbEntity
  8
1
  6
Continuous
100
AcDbCircle
 10
139.0597172967759
 20
325.1336758423285
 30
0.0
 40
11.6000080082267
100
AcDbArc
 50
292.6705855268286
 51
317.1181602527261
  0
ARC
  5
4FD
330
18
100
AcDbEntity
  8
1
  6
Continuous
100
AcDbCircle
 10
136.8785781779014
 20
315.3465551592343
 30
0.0
 40
2.500000118743645
100
AcDbArc
 50
153.0000000000019
 51
181.9999999999966
  0
ARC
  5
4FE
330
18
100
AcDbEntity
  8
1
  6
Continuous
100
AcDbCircle
 10
137.9490443840846
 20
316.2024713672531
 30
0.0
 40
0.3000000142492339
100
AcDbArc
 50
82.93227194825526
 51
170.9999999999987
  0
ARC
  5
4FF
330
18
100
AcDbEntity
  8
1
  6
Continuous
100
AcDbCircle
 10
143.0478638824397
 20
315.9336874764334
 30
0.0
 40
2.500000118743665
100
AcDbArc
 50
188.9999999999943
 51
217.9999999999706
  0
ARC
  5
500
330
18
100
AcDbEntity
  8
1
  6
Continuous
100
AcDbCircle
 10
139.0597172967759
 20
325.1336758423285
 30
0.0
 40
11.6000080082267
100
AcDbArc
 50
256.6705855268472
 51
283.3294144731528
  0
LINE
  5
501
330
18
100
AcDbEntity
  8
1
  6
Continuous
100
AcDbLine
 10
140.5786429136701
 20
315.5426012952576
 30
0.0
 11
140.4666967257193
 21
316.2494017089942
 31
0.0
  0
ARC
  5
502
330
18
100
AcDbEntity
  8
1
  6
Continuous
100
AcDbCircle
 10
136.0907642636012
 20
314.8017917515803
 30
0.0
 40
1.000000047497464
100
AcDbArc
 50
253.967553978384
 51
321.9999999999054
  0
ARC
  5
503
330
18
100
AcDbEntity
  8
1
  6
Continuous
100
AcDbCircle
 10
135.0715707111121
 20
315.9336874764334
 30
0.0
 40
2.500000118743624
100
AcDbArc
 50
322.0000000000312
 51
351.0000000000075
  0
ARC
  5
504
330
18
100
AcDbEntity
  8
1
  6
Continuous
100
AcDbCircle
 10
135.388721659178
 20
315.0298992213548
 30
0.0
 40
1.000000047497447
100
AcDbArc
 50
182.0000000002151
 51
250.0324460216016
  0
ARC
  5
505
330
18
100
AcDbEntity
  8
1
  6
Continuous
100
AcDbCircle
 10
139.0597172967794
 20
325.1336758423388
 30
0.0
 40
11.75000055810602
100
AcDbArc
 50
250.0324460215678
 51
253.9675539784179
  0
LINE
  5
506
330
18
100
AcDbEntity
  8
1
  6
Continuous
100
AcDbLine
 10
137.0415976887003
 20
314.394533715015
 30
0.0
 11
136.8787750546342
 21
314.186130247012
 31
0.0
  0
LINE
  5
507
330
18
100
AcDbEntity
  8
1
  6
Continuous
100
AcDbLine
 10
137.6527378678325
 20
316.2494017089942
 30
0.0
 11
137.540791679882
 21
315.5426012952576
 31
0.0
  0
LINE
  5
508
330
18
100
AcDbEntity
  8
1
  6
Continuous
100
AcDbLine
 10
134.389330784691
 20
314.994999722991
 30
0.0
 11
134.3801009916825
 21
315.2593064133339
 31
0.0
  0
ARC
  5
509
330
18
100
AcDbEntity
  8
1
  6
Continuous
100
AcDbCircle
 10
142.0286703299506
 20
314.8017917515803
 30
0.0
 40
1.000000047497447
100
AcDbArc
 50
218.0000000000948
 51
286.0324460216093
  0
ARC
  5
50A
330
18
100
AcDbEntity
  8
1
  6
Continuous
100
AcDbCircle
 10
139.0597172967795
 20
325.1336758423175
 30
0.0
 40
11.75000055808343
100
AcDbArc
 50
286.0324460215753
 51
289.9675539784325
  0
ARC
  5
50B
330
18
100
AcDbEntity
  8
1
  6
Continuous
100
AcDbCircle
 10
142.7307129343738
 20
315.0298992213548
 30
0.0
 40
1.000000047497469
100
AcDbArc
 50
289.9675539784044
 51
357.999999999785
  0
LINE
  5
50C
330
18
100
AcDbEntity
  8
1
  6
Continuous
100
AcDbLine
 10
141.2406595389164
 20
314.1861302470112
 30
0.0
 11
141.077836904851
 21
314.3945337150146
 31
0.0
  0
LINE
  5
50D
330
18
100
AcDbEntity
  8
1
  6
Continuous
100
AcDbLine
 10
143.7393336018695
 20
315.2593064133341
 30
0.0
 11
143.7301038088611
 21
314.994999722991
 31
0.0
  0
LINE
  5
50E
330
18
100
AcDbEntity
  8
1
  6
Continuous
100
AcDbLine
 10
139.0597172967759
 20
320.1836756072161
 30
0.0
 11
143.5097175081396
 21
320.1836756072161
 31
0.0
  0
LINE
  5
50F
330
18
100
AcDbEntity
  8
1
  6
Continuous
100
AcDbLine
 10
142.1593141919636
 20
321.0836756499638
 30
0.0
 11
135.9601204015863
 21
321.0836756499638
 31
0.0
  0
LINE
  5
510
330
18
100
AcDbEntity
  8
1
  6
Continuous
100
AcDbLine
 10
143.2246754775819
 20
320.2086756084034
 30
0.0
 11
139.0597172967759
 21
320.2086756084034
 31
0.0
  0
LINE
  5
511
330
18
100
AcDbEntity
  8
1
  6
Continuous
100
AcDbLine
 10
134.1097170616635
 20
325.1336758423285
 30
0.0
 11
134.1347170628511
 21
325.1336758423285
 31
0.0
  0
LINE
  5
512
330
18
100
AcDbEntity
  8
1
  6
Continuous
100
AcDbLine
 10
134.1347170628511
 20
325.1086758411411
 30
0.0
 11
135.0097171044112
 21
325.1086758411411
 31
0.0
  0
ARC
  5
513
330
18
100
AcDbEntity
  8
1
  6
Continuous
100
AcDbCircle
 10
134.7086402826768
 20
317.2553424835547
 30
0.0
 40
0.3000000142492343
100
AcDbArc
 50
333.0000000000115
 51
61.06361230697043
  0
ARC
  5
514
330
18
100
AcDbEntity
  8
1
  6
Continuous
100
AcDbCircle
 10
139.0597172967758
 20
325.1336758423285
 30
0.0
 40
5.100000242236891
100
AcDbArc
 50
217.4280055430437
 51
232.5719944569506
  0
LINE
  5
515
330
18
100
AcDbEntity
  8
1
  6
Continuous
100
AcDbLine
 10
134.651061761629
 20
316.4815314624914
 30
0.0
 11
134.9759422526298
 21
317.1191453271638
 31
0.0
  0
LINE
  5
516
330
18
100
AcDbEntity
  8
1
  6
Continuous
100
AcDbLine
 10
139.0597172967759
 20
320.1836756072161
 30
0.0
 11
139.0597172967759
 21
321.0836756499638
 31
0.0
  0
ARC
  5
517
330
18
100
AcDbEntity
  8
1
  6
Continuous
100
AcDbCircle
 10
139.0597172967759
 20
325.1336758423287
 30
0.0
 40
8.700000413227941
100
AcDbArc
 50
226.9111653222761
 51
241.0897043251646
  0
ARC
  5
518
330
18
100
AcDbEntity
  8
1
  6
Continuous
100
AcDbCircle
 10
139.0597172967759
 20
325.1336758423285
 30
0.0
 40
8.700000413227767
100
AcDbArc
 50
262.9104375970486
 51
277.089562332067
  0
LINE
  5
519
330
18
100
AcDbEntity
  8
1
  6
Continuous
100
AcDbLine
 10
147.5597177005241
 20
316.9489335517169
 30
0.0
 11
147.5597177005242
 21
317.4726051896111
 31
0.0
  0
LINE
  5
51A
330
18
100
AcDbEntity
  8
1
  6
Continuous
100
AcDbLine
 10
147.959717719524
 20
323.7239028991311
 30
0.0
 11
147.9597177195231
 21
317.3857725322341
 31
0.0
  0
ARC
  5
51B
330
18
100
AcDbEntity
  8
1
  6
Continuous
100
AcDbCircle
 10
145.2079008342024
 20
318.5610168196445
 30
0.0
 40
0.3
100
AcDbArc
 50
45.00000001539034
 51
133.0888346777146
  0
LINE
  5
51C
330
18
100
AcDbEntity
  8
1
  6
Continuous
100
AcDbLine
 10
145.4200328685013
 20
318.7731488540575
 30
0.0
 11
145.9260461064606
 21
318.26713561637
 31
0.0
  0
ARC
  5
51D
330
18
100
AcDbEntity
  8
1
  6
Continuous
100
AcDbCircle
 10
147.6938131433918
 20
320.0349026533006
 30
0.0
 40
2.500000118743655
100
AcDbArc
 50
224.9999999999913
 51
253.9999999999984
  0
LINE
  5
51E
330
18
100
AcDbEntity
  8
1
  6
Continuous
100
AcDbLine
 10
147.0047197211189
 20
317.6317482993112
 30
0.0
 11
147.8871289567745
 21
317.3787215226358
 31
0.0
  0
ARC
  5
51F
330
18
100
AcDbEntity
  8
1
  6
Continuous
100
AcDbCircle
 10
139.0597172967922
 20
325.1336758423336
 30
0.0
 40
11.75000055810184
100
AcDbArc
 50
318.7004260953738
 51
319.2396282397343
  0
ARC
  5
520
330
18
100
AcDbEntity
  8
1
  6
Continuous
100
AcDbCircle
 10
147.897014316374
 20
323.4300945903796
 30
0.0
 40
0.3000000142492324
100
AcDbArc
 50
81.00000000001463
 51
169.067731702734
  0
ARC
  5
521
330
18
100
AcDbEntity
  8
1
  6
Continuous
100
AcDbCircle
 10
147.897014316374
 20
326.8372570942773
 30
0.0
 40
0.30000001424924
100
AcDbArc
 50
190.9322615163596
 51
278.9999999999853
  0
LINE
  5
522
330
18
100
AcDbEntity
  8
1
  6
Continuous
100
AcDbLine
 10
144.0097175318883
 20
325.1336758423285
 30
0.0
 11
143.9847175307009
 21
325.1336758423285
 31
0.0
  0
LINE
  5
523
330
18
100
AcDbEntity
  8
1
  6
Continuous
100
AcDbLine
 10
143.9847175307009
 20
325.1586758435158
 30
0.0
 11
143.1097174891406
 21
325.1586758435158
 31
0.0
  0
ARC
  5
524
330
18
100
AcDbEntity
  8
1
  6
Continuous
100
AcDbCircle
 10
147.210580705947
 20
321.3174691682053
 30
0.0
 40
0.3000000142492358
100
AcDbArc
 50
154.9322640890182
 51
243.000000000012
  0
ARC
  5
525
330
18
100
AcDbEntity
  8
1
  6
Continuous
100
AcDbCircle
 10
146.5770211109705
 20
318.4977702909798
 30
0.0
 40
2.500000118743785
100
AcDbArc
 50
56.42152358582528
 51
62.99999999999747
  0
LINE
  5
526
330
18
100
AcDbEntity
  8
1
  6
Continuous
100
AcDbLine
 10
147.0743835495563
 20
321.0501671982527
 30
0.0
 11
147.7119974142281
 21
320.7252867072519
 31
0.0
  0
ARC
  5
527
330
18
100
AcDbEntity
  8
1
  6
Continuous
100
AcDbCircle
 10
143.410794310875
 20
317.2553424835547
 30
0.0
 40
0.3000000142492411
100
AcDbArc
 50
118.9322639478662
 51
206.999999999988
  0
ARC
  5
528
330
18
100
AcDbEntity
  8
1
  6
Continuous
100
AcDbCircle
 10
139.0597172967757
 20
325.1336758423287
 30
0.0
 40
8.700000413228217
100
AcDbArc
 50
298.9104378729215
 51
313.0895633971513
  0
ARC
  5
529
330
18
100
AcDbEntity
  8
1
  6
Continuous
100
AcDbCircle
 10
143.5097175081396
 20
320.6836756309648
 30
0.0
 40
0.5000000237487207
100
AcDbArc
 50
270.0
 51
359.9999999999996
  0
LINE
  5
52A
330
18
100
AcDbEntity
  8
1
  6
Continuous
100
AcDbLine
 10
143.1434923409223
 20
317.1191453271638
 30
0.0
 11
143.468372831923
 21
316.4815314624917
 31
0.0
  0
ARC
  5
52B
330
18
100
AcDbEntity
  8
1
  6
Continuous
100
AcDbCircle
 10
139.0597172967761
 20
325.1336758423283
 30
0.0
 40
5.100000242236736
100
AcDbArc
 50
307.428005543033
 51
322.5719944569663
  0
ARC
  5
52C
330
18
100
AcDbEntity
  8
1
  6
Continuous
100
AcDbCircle
 10
139.0597172967759
 20
325.1336758423285
 30
0.0
 40
6.450000306358552
100
AcDbArc
 50
309.8752773570883
 51
320.1247226429122
  0
LINE
  5
52D
330
18
100
AcDbEntity
  8
1
  6
Continuous
100
AcDbLine
 10
147.5597177005042
 20
320.8028770968359
 30
0.0
 11
147.5597177005042
 21
323.2789520551348
 31
0.0
  0
ARC
  5
52E
330
18
100
AcDbEntity
  8
1
  6
Continuous
100
AcDbCircle
 10
139.0597172967762
 20
325.1336758423283
 30
0.0
 40
8.700000413227476
100
AcDbArc
 50
334.9104378680542
 51
349.0895622770303
  0
LINE
  5
52F
330
18
100
AcDbEntity
  8
1
  6
Continuous
100
AcDbLine
 10
144.0097175318883
 20
320.6836756309648
 30
0.0
 11
144.0097175318883
 21
325.1336758423285
 31
0.0
  0
LINE
  5
530
330
18
100
AcDbEntity
  8
1
  6
Continuous
100
AcDbLine
 10
143.9847175307009
 20
325.1586758435158
 30
0.0
 11
143.984717530701
 21
320.9687176615223
 31
0.0
  0
LINE
  5
531
330
18
100
AcDbEntity
  8
1
  6
Continuous
100
AcDbLine
 10
147.8097177123785
 20
323.7171125540692
 30
0.0
 11
147.8097177123785
 21
320.6727322866458
 31
0.0
  0
ARC
  5
532
330
18
100
AcDbEntity
  8
1
  6
Continuous
100
AcDbCircle
 10
132.9115337595789
 20
331.7063348847003
 30
0.0
 40
0.3000000142492313
100
AcDbArc
 50
225.0000000000078
 51
313.0677543182343
  0
ARC
  5
533
330
18
100
AcDbEntity
  8
1
  6
Continuous
100
AcDbCircle
 10
139.0597172967759
 20
325.1336758423285
 30
0.0
 40
11.6000080082267
100
AcDbArc
 50
112.6705855268285
 51
137.1181602527261
  0
LINE
  5
534
330
18
100
AcDbEntity
  8
1
  6
Continuous
100
AcDbLine
 10
128.809716809927
 20
341.8836766379108
 30
0.0
 11
128.809716809927
 21
335.1336763173029
 31
0.0
  0
ARC
  5
535
330
18
100
AcDbEntity
  8
1
  6
Continuous
100
AcDbCircle
 10
139.0597172968015
 20
325.1336758423235
 30
0.0
 40
11.75000055810184
100
AcDbArc
 50
138.7004260953906
 51
139.2396282397468
  0
LINE
  5
536
330
18
100
AcDbEntity
  8
1
  6
Continuous
100
AcDbLine
 10
131.1147148724728
 20
332.6356033853438
 30
0.0
 11
130.2323056368172
 21
332.8886301620189
 31
0.0
  0
ARC
  5
537
330
18
100
AcDbEntity
  8
1
  6
Continuous
100
AcDbCircle
 10
130.4256214502006
 20
330.2324490313541
 30
0.0
 40
2.500000118743655
100
AcDbArc
 50
45.00000000000786
 51
74.00000000001202
  0
LINE
  5
538
330
18
100
AcDbEntity
  8
1
  6
Continuous
100
AcDbLine
 10
132.6994017151475
 20
331.4942028402688
 30
0.0
 11
132.1933884871313
 21
332.0002160682852
 31
0.0
  0
LINE
  5
539
330
18
100
AcDbEntity
  8
1
  6
Continuous
100
AcDbLine
 10
130.5597168930477
 20
326.9883996295224
 30
0.0
 11
130.5597168930477
 21
329.464474587821
 31
0.0
  0
ARC
  5
53A
330
18
100
AcDbEntity
  8
1
  6
Continuous
100
AcDbCircle
 10
130.9088538876047
 20
328.9498825164516
 30
0.0
 40
0.300000014249232
100
AcDbArc
 50
334.9322715299741
 51
63.00000000001207
  0
ARC
  5
53B
330
18
100
AcDbEntity
  8
1
  6
Continuous
100
AcDbCircle
 10
131.5424134825813
 20
331.7695813936771
 30
0.0
 40
2.500000118743785
100
AcDbArc
 50
236.4215235858253
 51
242.9999999999916
  0
LINE
  5
53C
330
18
100
AcDbEntity
  8
1
  6
Continuous
100
AcDbLine
 10
131.0450510439956
 20
329.2171844864043
 30
0.0
 11
130.4074371793237
 21
329.542064977405
 31
0.0
  0
LINE
  5
53D
330
18
100
AcDbEntity
  8
1
  6
Continuous
100
AcDbLine
 10
130.1597172555184
 20
327.0336759325736
 30
0.0
 11
127.4136873773502
 21
327.0336759325736
 31
0.0
  0
LINE
  5
53E
330
18
100
AcDbEntity
  8
1
  6
Continuous
100
AcDbLine
 10
130.5597168930477
 20
332.7947464950493
 30
0.0
 11
130.5597168930477
 21
333.318418132939
 31
0.0
  0
LINE
  5
53F
330
18
100
AcDbEntity
  8
1
  6
Continuous
100
AcDbLine
 10
125.5597166555603
 20
335.1336763173029
 30
0.0
 11
128.809716809927
 21
335.1336763173029
 31
0.0
  0
LINE
  5
540
330
18
100
AcDbEntity
  8
1
  6
Continuous
100
AcDbLine
 10
132.5597169880425
 20
347.8836769228954
 30
0.0
 11
130.8097169049219
 21
347.8836769228954
 31
0.0
  0
LINE
  5
541
330
18
100
AcDbEntity
  8
1
  6
Continuous
100
AcDbLine
 10
126.8097167149321
 20
341.8836766379108
 30
0.0
 11
128.809716809927
 21
341.8836766379108
 31
0.0
  0
ARC
  5
542
330
18
100
AcDbEntity
  8
1
  6
Continuous
100
AcDbCircle
 10
143.0478638824397
 20
334.3336642082233
 30
0.0
 40
2.500000118743624
100
AcDbArc
 50
142.0000000000312
 51
171.0000000000075
  0
LINE
  5
543
330
18
100
AcDbEntity
  8
1
  6
Continuous
100
AcDbLine
 10
135.9601204015883
 20
329.1836760346931
 30
0.0
 11
142.1593141919655
 21
329.1836760346932
 31
0.0
  0
ARC
  5
544
330
18
100
AcDbEntity
  8
1
  6
Continuous
100
AcDbCircle
 10
139.0597172967759
 20
325.1336758423285
 30
0.0
 40
11.6000080082267
100
AcDbArc
 50
76.67058552684723
 51
103.3294144731527
  0
ARC
  5
545
330
18
100
AcDbEntity
  8
1
  6
Continuous
100
AcDbCircle
 10
140.170390209467
 20
334.064880317404
 30
0.0
 40
0.3000000142492324
100
AcDbArc
 50
262.9322987356281
 51
350.9999999999983
  0
LINE
  5
546
330
18
100
AcDbEntity
  8
1
  6
Continuous
100
AcDbLine
 10
140.4666967257193
 20
334.0179499756628
 30
0.0
 11
140.5786429136697
 21
334.7247503893993
 31
0.0
  0
ARC
  5
547
330
18
100
AcDbEntity
  8
1
  6
Continuous
100
AcDbCircle
 10
137.9490443840846
 20
334.064880317404
 30
0.0
 40
0.3000000142492285
100
AcDbArc
 50
189.0000000000011
 51
277.0677277033986
  0
ARC
  5
548
330
18
100
AcDbEntity
  8
1
  6
Continuous
100
AcDbCircle
 10
135.0715707111121
 20
334.3336642082233
 30
0.0
 40
2.500000118743665
100
AcDbArc
 50
8.999999999994507
 51
37.99999999997071
  0
ARC
  5
549
330
18
100
AcDbEntity
  8
1
  6
Continuous
100
AcDbCircle
 10
136.0907642636012
 20
335.4655599330766
 30
0.0
 40
1.000000047497447
100
AcDbArc
 50
38.00000000009488
 51
106.0324460216094
  0
ARC
  5
54A
330
18
100
AcDbEntity
  8
1
  6
Continuous
100
AcDbCircle
 10
136.8785781779014
 20
334.9207965254228
 30
0.0
 40
2.500000118743666
100
AcDbArc
 50
178.0000000000051
 51
206.9999999999998
  0
ARC
  5
54B
330
18
100
AcDbEntity
  8
1
  6
Continuous
100
AcDbCircle
 10
139.0597172967724
 20
325.1336758423396
 30
0.0
 40
11.75000055808343
100
AcDbArc
 50
106.0324460215753
 51
109.9675539784325
  0
ARC
  5
54C
330
18
100
AcDbEntity
  8
1
  6
Continuous
100
AcDbCircle
 10
135.388721659178
 20
335.2374524633021
 30
0.0
 40
1.000000047497469
100
AcDbArc
 50
109.9675539784044
 51
177.9999999997852
  0
LINE
  5
54D
330
18
100
AcDbEntity
  8
1
  6
Continuous
100
AcDbLine
 10
137.5407916798817
 20
334.7247503893993
 30
0.0
 11
137.6527378678325
 21
334.0179499756628
 31
0.0
  0
LINE
  5
54E
330
18
100
AcDbEntity
  8
1
  6
Continuous
100
AcDbLine
 10
136.8787750546354
 20
336.0812214376458
 30
0.0
 11
137.0415976887007
 21
335.8728179696423
 31
0.0
  0
LINE
  5
54F
330
18
100
AcDbEntity
  8
1
  6
Continuous
100
AcDbLine
 10
134.3801009916822
 20
335.0080452713228
 30
0.0
 11
134.3893307846906
 21
335.272351961666
 31
0.0
  0
ARC
  5
550
330
18
100
AcDbEntity
  8
1
  6
Continuous
100
AcDbCircle
 10
134.7086402826768
 20
333.0120092011022
 30
0.0
 40
0.3000000142492427
100
AcDbArc
 50
298.9211908111088
 51
26.99999999998806
  0
ARC
  5
551
330
18
100
AcDbEntity
  8
1
  6
Continuous
100
AcDbCircle
 10
139.0597172967761
 20
325.1336758423282
 30
0.0
 40
8.700000413228238
100
AcDbArc
 50
118.9108197052575
 51
133.0895625072623
  0
ARC
  5
552
330
18
100
AcDbEntity
  8
1
  6
Continuous
100
AcDbCircle
 10
134.6097170854122
 20
329.5836760536922
 30
0.0
 40
0.5000000237487207
100
AcDbArc
 50
90.0
 51
179.9999999999995
  0
LINE
  5
553
330
18
100
AcDbEntity
  8
1
  6
Continuous
100
AcDbLine
 10
139.0597172967759
 20
330.0836760774409
 30
0.0
 11
134.6097170854122
 21
330.0836760774409
 31
0.0
  0
ARC
  5
554
330
18
100
AcDbEntity
  8
1
  6
Continuous
100
AcDbCircle
 10
139.0597172967757
 20
325.1336758423287
 30
0.0
 40
5.100000242236736
100
AcDbArc
 50
127.4280055430325
 51
142.5719944569663
  0
ARC
  5
555
330
18
100
AcDbEntity
  8
1
  6
Continuous
100
AcDbCircle
 10
139.0597172967759
 20
325.1336758423285
 30
0.0
 40
6.450000306358552
100
AcDbArc
 50
129.8752773570884
 51
140.1247226429122
  0
LINE
  5
556
330
18
100
AcDbEntity
  8
1
  6
Continuous
100
AcDbLine
 10
139.0597172967759
 20
330.0836760774409
 30
0.0
 11
139.0597172967759
 21
329.1836760346932
 31
0.0
  0
LINE
  5
557
330
18
100
AcDbEntity
  8
1
  6
Continuous
100
AcDbLine
 10
134.8947591159699
 20
330.0586760762533
 30
0.0
 11
139.0597172967759
 21
330.0586760762533
 31
0.0
  0
LINE
  5
558
330
18
100
AcDbEntity
  8
1
  6
Continuous
100
AcDbLine
 10
134.9759422526296
 20
333.1482063574931
 30
0.0
 11
134.6510617616287
 21
333.7858202221653
 31
0.0
  0
ARC
  5
559
330
18
100
AcDbEntity
  8
1
  6
Continuous
100
AcDbCircle
 10
139.0597172967759
 20
325.1336758423285
 30
0.0
 40
8.700000413227908
100
AcDbArc
 50
82.91043667334179
 51
97.08956241494364
  0
ARC
  5
55A
330
18
100
AcDbEntity
  8
1
  6
Continuous
100
AcDbCircle
 10
141.2408564156504
 20
334.9207965254228
 30
0.0
 40
2.500000118743645
100
AcDbArc
 50
333.000000000002
 51
1.999999999996778
  0
ARC
  5
55B
330
18
100
AcDbEntity
  8
1
  6
Continuous
100
AcDbCircle
 10
142.0286703299506
 20
335.4655599330766
 30
0.0
 40
1.000000047497464
100
AcDbArc
 50
73.96755397839027
 51
141.9999999999054
  0
ARC
  5
55C
330
18
100
AcDbEntity
  8
1
  6
Continuous
100
AcDbCircle
 10
142.7307129343738
 20
335.2374524633021
 30
0.0
 40
1.000000047497447
100
AcDbArc
 50
2.000000000215159
 51
70.03244602160171
  0
ARC
  5
55D
330
18
100
AcDbEntity
  8
1
  6
Continuous
100
AcDbCircle
 10
139.0597172967724
 20
325.133675842318
 30
0.0
 40
11.75000055810602
100
AcDbArc
 50
70.03244602156783
 51
73.96755397842413
  0
LINE
  5
55E
330
18
100
AcDbEntity
  8
1
  6
Continuous
100
AcDbLine
 10
141.0778369048515
 20
335.8728179696418
 30
0.0
 11
141.2406595389176
 21
336.081221437645
 31
0.0
  0
LINE
  5
55F
330
18
100
AcDbEntity
  8
1
  6
Continuous
100
AcDbLine
 10
143.7301038088609
 20
335.272351961666
 30
0.0
 11
143.7393336018694
 21
335.008045271323
 31
0.0
  0
LINE
  5
560
330
18
100
AcDbEntity
  8
1
  6
Continuous
100
AcDbLine
 10
147.5597177005042
 20
332.7947464950448
 30
0.0
 11
147.5597177005042
 21
333.3184181329394
 31
0.0
  0
LINE
  5
561
330
18
100
AcDbEntity
  8
1
  6
Continuous
100
AcDbLine
 10
147.5597177005042
 20
326.9883996295224
 30
0.0
 11
147.5597177005042
 21
329.4644745878217
 31
0.0
  0
ARC
  5
562
330
18
100
AcDbEntity
  8
1
  6
Continuous
100
AcDbCircle
 10
147.210580705947
 20
328.9498825164516
 30
0.0
 40
0.3000000142492387
100
AcDbArc
 50
116.9999999999872
 51
205.067739924598
  0
ARC
  5
563
330
18
100
AcDbEntity
  8
1
  6
Continuous
100
AcDbCircle
 10
147.6938131433714
 20
330.2324490313552
 30
0.0
 40
2.500000118743655
100
AcDbArc
 50
105.9999999999947
 51
135.0000000000003
  0
ARC
  5
564
330
18
100
AcDbEntity
  8
1
  6
Continuous
100
AcDbCircle
 10
146.5770211109708
 20
331.7695813936778
 30
0.0
 40
2.500000118743443
100
AcDbArc
 50
296.9999999999952
 51
303.5784764141669
  0
ARC
  5
565
330
18
100
AcDbEntity
  8
1
  6
Continuous
100
AcDbCircle
 10
139.0597172967714
 20
325.1336758423235
 30
0.0
 40
11.75000055810184
100
AcDbArc
 50
40.76037176025724
 51
41.29957390461771
  0
LINE
  5
566
330
18
100
AcDbEntity
  8
1
  6
Continuous
100
AcDbLine
 10
147.7119974142279
 20
329.5420649774058
 30
0.0
 11
147.0743835495562
 21
329.2171844864046
 31
0.0
  0
LINE
  5
567
330
18
100
AcDbEntity
  8
1
  6
Continuous
100
AcDbLine
 10
147.0047197210989
 20
332.6356033853449
 30
0.0
 11
147.8871289567545
 21
332.8886301620201
 31
0.0
  0
ARC
  5
568
330
18
100
AcDbEntity
  8
1
  6
Continuous
100
AcDbCircle
 10
143.410794310875
 20
333.0120092011022
 30
0.0
 40
0.3000000142492363
100
AcDbArc
 50
153.0000000000119
 51
241.0677486063498
  0
ARC
  5
569
330
18
100
AcDbEntity
  8
1
  6
Continuous
100
AcDbCircle
 10
145.2079008339929
 20
331.706334884701
 30
0.0
 40
0.3000000142492313
100
AcDbArc
 50
226.9322456817689
 51
315.0000000000003
  0
ARC
  5
56A
330
18
100
AcDbEntity
  8
1
  6
Continuous
100
AcDbCircle
 10
139.0597172967759
 20
325.1336758423287
 30
0.0
 40
8.700000413227664
100
AcDbArc
 50
46.91043850278119
 51
61.08956169414776
  0
ARC
  5
56B
330
18
100
AcDbEntity
  8
1
  6
Continuous
100
AcDbCircle
 10
139.0597172967759
 20
325.1336758423287
 30
0.0
 40
5.100000242236891
100
AcDbArc
 50
37.42800554304908
 51
52.57199445695063
  0
LINE
  5
56C
330
18
100
AcDbEntity
  8
1
  6
Continuous
100
AcDbLine
 10
145.4200328784244
 20
331.4942028402696
 30
0.0
 11
145.9260461064405
 21
332.0002160682861
 31
0.0
  0
ARC
  5
56D
330
18
100
AcDbEntity
  8
1
  6
Continuous
100
AcDbCircle
 10
139.0597172967759
 20
325.1336758423285
 30
0.0
 40
11.6000080082267
100
AcDbArc
 50
42.88183974727387
 51
67.32941447317137
  0
LINE
  5
56E
330
18
100
AcDbEntity
  8
1
  6
Continuous
100
AcDbLine
 10
143.4683728319229
 20
333.7858202221655
 30
0.0
 11
143.1434923409222
 21
333.1482063574931
 31
0.0
  0
CIRCLE
  5
56F
330
18
100
AcDbEntity
  8
1
  6
Continuous
100
AcDbCircle
 10
139.0597172967759
 20
344.1336767447801
 30
0.0
 40
2.200000104494404
  0
LINE
  5
570
330
18
100
AcDbEntity
  8
1
  6
Continuous
100
AcDbLine
 10
147.3097176886298
 20
347.8836769228954
 30
0.0
 11
145.5597176055093
 21
347.8836769228954
 31
0.0
  0
LINE
  5
571
330
18
100
AcDbEntity
  8
1
  6
Continuous
100
AcDbLine
 10
60.97440906805649
 20
352.1336771247597
 30
0.0
 11
38.97440802311257
 21
352.1336771247597
 31
0.0
  0
LINE
  5
572
330
18
100
AcDbEntity
  8
1
  6
Continuous
100
AcDbLine
 10
38.97440802311257
 20
349.8836770178903
 30
0.0
 11
38.27440798986435
 21
349.8836770178903
 31
0.0
  0
LINE
  5
573
330
18
100
AcDbEntity
  8
1
  6
Continuous
100
AcDbLine
 10
60.97440906805649
 20
349.8836770178903
 30
0.0
 11
61.67440910130473
 21
349.8836770178903
 31
0.0
  0
LINE
  5
574
330
18
100
AcDbEntity
  8
1
  6
Continuous
100
AcDbLine
 10
133.0688906919269
 20
352.1336771247597
 30
0.0
 11
126.5597167030578
 21
352.1336771247597
 31
0.0
  0
LINE
  5
575
330
18
100
AcDbEntity
  8
1
  6
Continuous
100
AcDbLine
 10
126.8097167149321
 20
349.8836770178903
 30
0.0
 11
132.5597169880425
 21
349.8836770178903
 31
0.0
  0
ARC
  5
576
330
18
100
AcDbEntity
  8
1
  6
Continuous
100
AcDbCircle
 10
126.5597167030579
 20
351.1336770772621
 30
0.0
 40
1.000000047497444
100
AcDbArc
 50
90.0
 51
180.0
  0
ARC
  5
577
330
18
100
AcDbEntity
  8
1
  6
Continuous
100
AcDbCircle
 10
139.0597172967759
 20
353.6336771960059
 30
0.0
 40
5.200000246986749
100
AcDbArc
 50
206.600134961002
 51
333.3998650389976
  0
ARC
  5
578
330
18
100
AcDbEntity
  8
1
  6
Continuous
100
AcDbCircle
 10
133.0688906919269
 20
350.6336770535135
 30
0.0
 40
1.500000071246176
100
AcDbArc
 50
26.60013496090298
 51
90.0
  0
ARC
  5
579
330
18
100
AcDbEntity
  8
1
  6
Continuous
100
AcDbCircle
 10
145.050543901625
 20
350.6336770535135
 30
0.0
 40
1.500000071246164
100
AcDbArc
 50
90.0
 51
153.3998650390969
  0
LINE
  5
57A
330
18
100
AcDbEntity
  8
1
  6
Continuous
100
AcDbLine
 10
140.5597169818025
 20
511.4721489961295
 30
0.0
 11
140.5597169818025
 21
506.9721487823911
 31
0.0
  0
LINE
  5
57B
330
18
100
AcDbEntity
  8
1
  6
Continuous
100
AcDbLine
 10
137.2597168250609
 20
508.9721488773862
 30
0.0
 11
137.2597168250609
 21
506.9721490323911
 31
0.0
  0
LINE
  5
57C
330
18
100
AcDbEntity
  8
1
  6
Continuous
100
AcDbLine
 10
134.7597167063172
 20
499.9721484499088
 30
0.0
 11
134.7597167063172
 21
508.9721486273861
 31
0.0
  0
LINE
  5
57D
330
18
100
AcDbEntity
  8
4
  6
CENTER
 48
0.2
100
AcDbLine
 10
139.0597172967856
 20
489.7721485354043
 30
0.0
 11
139.0597172967856
 21
519.1721496468447
 31
0.0
  0
LINE
  5
57E
330
18
100
AcDbEntity
  8
1
  6
Continuous
100
AcDbLine
 10
125.5597166555604
 20
493.4721485686526
 30
0.0
 11
125.5597166555604
 21
515.4721496135964
 31
0.0
  0
LINE
  5
57F
330
18
100
AcDbEntity
  8
1
  6
Continuous
100
AcDbLine
 10
130.5597168930477
 20
498.4721488061398
 30
0.0
 11
130.5597168930477
 21
510.4721493761091
 31
0.0
  0
LINE
  5
580
330
18
100
AcDbEntity
  8
1
  6
Continuous
100
AcDbLine
 10
126.7597167125574
 20
510.4721493761091
 30
0.0
 11
126.7597167125574
 21
498.4721488061398
 31
0.0
  0
LINE
  5
581
330
18
100
AcDbEntity
  8
1
  6
Continuous
100
AcDbLine
 10
122.0597168755387
 20
511.4721494236069
 30
0.0
 11
122.0597168755387
 21
497.4721487586423
 31
0.0
  0
LINE
  5
582
330
18
100
AcDbEntity
  8
1
  6
Continuous
100
AcDbLine
 10
130.0597172555184
 20
511.4721494236069
 30
0.0
 11
130.0597172555184
 21
497.4721487586423
 31
0.0
  0
LINE
  5
583
330
18
100
AcDbEntity
  8
1
  6
Continuous
100
AcDbLine
 10
127.0597167268065
 20
511.6221494307312
 30
0.0
 11
127.0597167268065
 21
497.3221487515178
 31
0.0
  0
LINE
  5
584
330
18
100
AcDbEntity
  8
1
  6
Continuous
100
AcDbLine
 10
56.97440887806671
 20
450.1336817795101
 30
0.0
 11
42.97440821310238
 21
450.1336817795101
 31
0.0
  0
LINE
  5
585
330
18
100
AcDbEntity
  8
1
  6
Continuous
100
AcDbLine
 10
42.97440846310246
 20
447.1336816370174
 30
0.0
 11
56.97440887806671
 21
447.1336816370176
 31
0.0
  0
ARC
  5
586
330
18
100
AcDbEntity
  8
1
  6
Continuous
100
AcDbCircle
 10
50.18530895665481
 20
446.2482263944631
 30
0.0
 40
3.673001668329757
100
AcDbArc
 50
174.6450174109441
 51
215.204990577053
  0
ARC
  5
587
330
18
100
AcDbEntity
  8
1
  6
Continuous
100
AcDbCircle
 10
49.76558317714943
 20
446.2480172734363
 30
0.0
 40
3.671184726445438
100
AcDbArc
 50
324.8360379384775
 51
5.375297500111027
  0
ARC
  5
588
330
18
100
AcDbEntity
  8
1
  6
Continuous
100
AcDbCircle
 10
49.97459185198749
 20
445.7569757429488
 30
0.0
 40
3.229771066706293
100
AcDbArc
 50
210.2330182435072
 51
329.8282922503986
  0
ARC
  5
589
330
18
100
AcDbEntity
  8
1
  6
Continuous
100
AcDbCircle
 10
47.10250215951782
 20
446.5643654225841
 30
0.0
 40
0.5747824646957767
100
AcDbArc
 50
97.90815940935214
 51
177.342728938679
  0
LINE
  5
58A
330
18
100
AcDbEntity
  8
1
  6
Continuous
100
AcDbLine
 10
45.47440833184601
 20
450.1336817795099
 30
0.0
 11
45.47440833184601
 21
447.1336816370174
 31
0.0
  0
ARC
  5
58B
330
18
100
AcDbEntity
  8
1
  6
Continuous
100
AcDbCircle
 10
52.84646636669913
 20
446.5651298675871
 30
0.0
 40
0.5747824646957767
100
AcDbArc
 50
2.672521669577995
 51
81.55601936520808
  0
LINE
  5
58C
330
18
100
AcDbEntity
  8
1
  6
Continuous
100
AcDbLine
 10
54.47440875932308
 20
450.1336817795099
 30
0.0
 11
54.47440875932308
 21
447.1336816370174
 31
0.0
  0
LINE
  5
58D
330
18
100
AcDbEntity
  8
1
  6
Continuous
100
AcDbLine
 10
143.4530291995288
 20
447.1338917639573
 30
0.0
 11
148.0594958125566
 21
442.5274251509297
 31
0.0
  0
LINE
  5
58E
330
18
100
AcDbEntity
  8
1
  6
Continuous
100
AcDbLine
 10
134.7597167063175
 20
447.1336816370174
 30
0.0
 11
145.0597171955413
 21
447.1336816370174
 31
0.0
  0
LINE
  5
58F
330
18
100
AcDbEntity
  8
1
  6
Continuous
100
AcDbLine
 10
134.7597167063175
 20
450.1336817795098
 30
0.0
 11
145.0597171955413
 21
450.1336817795099
 31
0.0
  0
LINE
  5
590
330
18
100
AcDbEntity
  8
1
  6
Continuous
100
AcDbLine
 10
140.5597169818027
 20
450.1336817795099
 30
0.0
 11
140.5597169818027
 21
447.1336816370174
 31
0.0
  0
LINE
  5
591
330
18
100
AcDbEntity
  8
1
  6
Continuous
100
AcDbLine
 10
134.7597167063175
 20
450.1336817795098
 30
0.0
 11
134.7597167063175
 21
447.1336816370174
 31
0.0
  0
LINE
  5
592
330
18
100
AcDbEntity
  8
1
  6
Continuous
100
AcDbLine
 10
137.2597168250611
 20
450.1336817795099
 30
0.0
 11
137.2597168250611
 21
447.1336816370174
 31
0.0
  0
LINE
  5
593
330
18
100
AcDbEntity
  8
1
  6
Continuous
100
AcDbLine
 10
137.5597097813132
 20
497.4721491861195
 30
0.0
 11
132.5597169880425
 21
497.4721491861195
 31
0.0
  0
LINE
  5
594
330
18
100
AcDbEntity
  8
1
  6
Continuous
100
AcDbLine
 10
140.5597169818025
 20
499.4721488536373
 30
0.0
 11
132.5597169880425
 21
499.4721488536373
 31
0.0
  0
LINE
  5
595
330
18
100
AcDbEntity
  8
1
  6
Continuous
100
AcDbLine
 10
130.2597168787983
 20
497.3221487515178
 30
0.0
 11
130.2597168787983
 21
498.4721488061398
 31
0.0
  0
LINE
  5
597
330
18
100
AcDbEntity
  8
1
  6
Continuous
100
AcDbLine
 10
132.5597169880425
 20
492.7721485354044
 30
0.0
 11
132.5597169880425
 21
499.4721488536373
 31
0.0
  0
LINE
  5
598
330
18
100
AcDbEntity
  8
1
  6
Continuous
100
AcDbLine
 10
122.0597168755387
 20
497.4721487586423
 30
0.0
 11
125.5597166555604
 21
497.4721487586423
 31
0.0
  0
LINE
  5
599
330
18
100
AcDbEntity
  8
1
  6
Continuous
100
AcDbLine
 10
128.809716809927
 20
493.4721485686526
 30
0.0
 11
128.809716809927
 21
492.7721485354044
 31
0.0
  0
LINE
  5
59A
330
18
100
AcDbEntity
  8
1
  6
Continuous
100
AcDbLine
 10
126.8097167149321
 20
493.4721485686526
 30
0.0
 11
126.8097167149321
 21
492.7721485354044
 31
0.0
  0
LINE
  5
59B
330
18
100
AcDbEntity
  8
1
  6
Continuous
100
AcDbLine
 10
126.8097167149321
 20
492.7721485354044
 30
0.0
 11
128.809716809927
 21
492.7721485354044
 31
0.0
  0
LINE
  5
59C
330
18
100
AcDbEntity
  8
1
  6
Continuous
100
AcDbLine
 10
130.8097169049219
 20
493.4721485686526
 30
0.0
 11
130.8097169049219
 21
492.7721485354044
 31
0.0
  0
LINE
  5
59D
330
18
100
AcDbEntity
  8
1
  6
Continuous
100
AcDbLine
 10
130.8097169049219
 20
492.7721485354044
 30
0.0
 11
132.5597169880425
 21
492.7721485354044
 31
0.0
  0
LINE
  5
59E
330
18
100
AcDbEntity
  8
1
  6
Continuous
100
AcDbLine
 10
127.0597167268065
 20
497.3221487515178
 30
0.0
 11
130.2597168787983
 21
497.3221487515178
 31
0.0
  0
LINE
  5
59F
330
18
100
AcDbEntity
  8
1
  6
Continuous
100
AcDbLine
 10
130.2597168787983
 20
497.4721487586423
 30
0.0
 11
127.0597167268065
 21
497.4721487586423
 31
0.0
  0
LINE
  5
5A0
330
18
100
AcDbEntity
  8
1
  6
Continuous
100
AcDbLine
 10
132.5597169880425
 20
493.4721485686526
 30
0.0
 11
125.5597166555604
 21
493.4721485686526
 31
0.0
  0
ARC
  5
5A1
330
18
100
AcDbEntity
  8
1
  6
Continuous
100
AcDbCircle
 10
130.7894928649812
 20
505.8298892912236
 30
0.0
 40
0.8883808665480318
100
AcDbArc
 50
241.6679594929936
 51
255.0102766593041
  0
ARC
  5
5A2
330
18
100
AcDbEntity
  8
1
  6
Continuous
100
AcDbCircle
 10
130.4028996899431
 20
505.1365368635885
 30
0.0
 40
0.0952785010941197
100
AcDbArc
 50
192.0393545563767
 51
248.4383399386492
  0
ARC
  5
5A3
330
18
100
AcDbEntity
  8
1
  6
Continuous
100
AcDbCircle
 10
131.0197521364502
 20
507.1554001286536
 30
0.0
 40
1.641802938435608
100
AcDbArc
 50
247.3643440693864
 51
253.7277834161496
  0
ARC
  5
5A4
330
18
100
AcDbEntity
  8
1
  6
Continuous
100
AcDbCircle
 10
130.4579848475411
 20
505.7849553452781
 30
0.0
 40
0.1609639506458768
100
AcDbArc
 50
202.9661950335298
 51
244.1776517632546
  0
LINE
  5
5A5
330
18
100
AcDbEntity
  8
1
  6
Continuous
100
AcDbLine
 10
130.0597172555184
 20
503.2221490317526
 30
0.0
 11
130.5597168930477
 21
503.2221490317526
 31
0.0
  0
LINE
  5
5A6
330
18
100
AcDbEntity
  8
1
  6
Continuous
100
AcDbLine
 10
130.5597168930475
 20
500.7221489130091
 30
0.0
 11
130.0597172555184
 21
500.7221489130091
 31
0.0
  0
LINE
  5
5A7
330
18
100
AcDbEntity
  8
1
  6
Continuous
100
AcDbLine
 10
130.5597168930477
 20
505.7221491504965
 30
0.0
 11
130.0597172555184
 21
505.7221491504964
 31
0.0
  0
LINE
  5
5A8
330
18
100
AcDbEntity
  8
1
  6
Continuous
100
AcDbLine
 10
130.5597168930554
 20
508.2221492692233
 30
0.0
 11
130.0597172555184
 21
508.2221492692248
 31
0.0
  0
LINE
  5
5A9
330
18
100
AcDbEntity
  8
1
  6
Continuous
100
AcDbLine
 10
130.2323056367973
 20
508.2221492692251
 30
0.0
 11
130.2323056367973
 21
505.7221491504965
 31
0.0
  0
LINE
  5
5AA
330
18
100
AcDbEntity
  8
1
  6
Continuous
100
AcDbLine
 10
130.3097168811732
 20
505.1166633404867
 30
0.0
 11
130.3097168811732
 21
505.7222790114479
 31
0.0
  0
LINE
  5
5AB
330
18
100
AcDbEntity
  8
1
  6
Continuous
100
AcDbLine
 10
130.2597168787983
 20
498.4721488061398
 30
0.0
 11
130.5597168930477
 21
498.4721488061398
 31
0.0
  0
LINE
  5
5AC
330
18
100
AcDbEntity
  8
1
  6
Continuous
100
AcDbLine
 10
126.7597167125574
 20
498.4721488061398
 30
0.0
 11
127.0597167268065
 21
498.4721488061398
 31
0.0
  0
LINE
  5
5AD
330
18
100
AcDbEntity
  8
1
  6
Continuous
100
AcDbLine
 10
137.5597097813132
 20
497.4721491861195
 30
0.0
 11
137.5597097813132
 21
499.4721488536373
 31
0.0
  0
LINE
  5
5AE
330
18
100
AcDbEntity
  8
1
  6
Continuous
100
AcDbLine
 10
140.5597169818025
 20
497.4721483311653
 30
0.0
 11
140.5597169818025
 21
501.9721482949037
 31
0.0
  0
LINE
  5
5AF
330
18
100
AcDbEntity
  8
1
  6
Continuous
100
AcDbLine
 10
147.3097176886298
 20
493.4721485686526
 30
0.0
 11
147.3097176886298
 21
492.7721485354044
 31
0.0
  0
LINE
  5
5B0
330
18
100
AcDbEntity
  8
1
  6
Continuous
100
AcDbLine
 10
147.8597177147534
 20
497.4721487586423
 30
0.0
 11
147.8597177147534
 21
497.3221487515178
 31
0.0
  0
LINE
  5
5B1
330
18
100
AcDbEntity
  8
1
  6
Continuous
100
AcDbLine
 10
145.5597176055093
 20
492.7721485354044
 30
0.0
 11
145.5597176055093
 21
497.4721487586423
 31
0.0
  0
LINE
  5
5B2
330
18
100
AcDbEntity
  8
1
  6
Continuous
100
AcDbLine
 10
145.5597176055093
 20
492.7721485354044
 30
0.0
 11
147.3097176886298
 21
492.7721485354044
 31
0.0
  0
LINE
  5
5B3
330
18
100
AcDbEntity
  8
1
  6
Continuous
100
AcDbLine
 10
134.7597167063172
 20
499.9721484499088
 30
0.0
 11
137.2597168250609
 21
499.9721484499088
 31
0.0
  0
LINE
  5
5B4
330
18
100
AcDbEntity
  8
1
  6
Continuous
100
AcDbLine
 10
137.2597168250609
 20
501.9721485449037
 30
0.0
 11
137.2597168250609
 21
499.972148699909
 31
0.0
  0
LINE
  5
5B5
330
18
100
AcDbEntity
  8
1
  6
Continuous
100
AcDbLine
 10
140.5597169818025
 20
501.9721485449037
 30
0.0
 11
137.259717075061
 21
501.9721485449037
 31
0.0
  0
LINE
  5
5B6
330
18
100
AcDbEntity
  8
1
  6
Continuous
100
AcDbLine
 10
137.2597168250609
 20
506.9721487823911
 30
0.0
 11
140.5597167318027
 21
506.9721487823911
 31
0.0
  0
ARC
  5
5B7
330
18
100
AcDbEntity
  8
1
  6
Continuous
100
AcDbCircle
 10
146.1349021322824
 20
503.5691077894012
 30
0.0
 40
1.90512608983163
100
AcDbArc
 50
87.31906685620236
 51
124.3581509599541
  0
ARC
  5
5B8
330
18
100
AcDbEntity
  8
1
  6
Continuous
100
AcDbCircle
 10
145.4938056665546
 20
504.4721224021127
 30
0.0
 40
0.7980491711765824
100
AcDbArc
 50
122.9497151952585
 51
237.0479482588744
  0
ARC
  5
5B9
330
18
100
AcDbEntity
  8
1
  6
Continuous
100
AcDbCircle
 10
146.1349104724346
 20
505.3752189357427
 30
0.0
 40
1.905155065426254
100
AcDbArc
 50
235.6421409414631
 51
272.6806412424063
  0
LINE
  5
5BA
330
18
100
AcDbEntity
  8
1
  6
Continuous
100
AcDbLine
 10
132.5597169880425
 20
511.4721498510839
 30
0.0
 11
137.5597097813132
 21
511.4721498510838
 31
0.0
  0
LINE
  5
5BB
330
18
100
AcDbEntity
  8
1
  6
Continuous
100
AcDbLine
 10
140.5597169818025
 20
509.4721493286118
 30
0.0
 11
132.5597169880425
 21
509.4721493286118
 31
0.0
  0
LINE
  5
5BC
330
18
100
AcDbEntity
  8
1
  6
Continuous
100
AcDbLine
 10
122.0597168755387
 20
511.4721494236069
 30
0.0
 11
125.5597166555604
 21
511.4721494236069
 31
0.0
  0
LINE
  5
5BD
330
18
100
AcDbEntity
  8
1
  6
Continuous
100
AcDbLine
 10
126.8097167149321
 20
516.1721496468446
 30
0.0
 11
128.809716809927
 21
516.1721496468446
 31
0.0
  0
LINE
  5
5BE
330
18
100
AcDbEntity
  8
1
  6
Continuous
100
AcDbLine
 10
128.809716809927
 20
515.4721496135964
 30
0.0
 11
128.809716809927
 21
516.1721496468446
 31
0.0
  0
LINE
  5
5BF
330
18
100
AcDbEntity
  8
1
  6
Continuous
100
AcDbLine
 10
126.8097167149321
 20
515.4721496135964
 30
0.0
 11
126.8097167149321
 21
516.1721496468446
 31
0.0
  0
LINE
  5
5C0
330
18
100
AcDbEntity
  8
1
  6
Continuous
100
AcDbLine
 10
130.8097169049219
 20
515.4721496135964
 30
0.0
 11
130.8097169049219
 21
516.1721496468446
 31
0.0
  0
LINE
  5
5C1
330
18
100
AcDbEntity
  8
1
  6
Continuous
100
AcDbLine
 10
130.8097169049219
 20
516.1721496468446
 30
0.0
 11
132.5597169880425
 21
516.1721496468446
 31
0.0
  0
LINE
  5
5C3
330
18
100
AcDbEntity
  8
1
  6
Continuous
100
AcDbLine
 10
130.2597168787983
 20
511.6221494307312
 30
0.0
 11
127.0597167268065
 21
511.6221494307312
 31
0.0
  0
LINE
  5
5C4
330
18
100
AcDbEntity
  8
1
  6
Continuous
100
AcDbLine
 10
132.5597169880425
 20
516.1721496468446
 30
0.0
 11
132.5597169880425
 21
509.4721493286118
 31
0.0
  0
LINE
  5
5C5
330
18
100
AcDbEntity
  8
1
  6
Continuous
100
AcDbLine
 10
127.0597167268065
 20
510.4721493761091
 30
0.0
 11
126.7597167125574
 21
510.4721493761091
 31
0.0
  0
LINE
  5
5C6
330
18
100
AcDbEntity
  8
1
  6
Continuous
100
AcDbLine
 10
130.2597168787983
 20
510.4721493761091
 30
0.0
 11
130.2597168787983
 21
511.6221494307312
 31
0.0
  0
LINE
  5
5C7
330
18
100
AcDbEntity
  8
1
  6
Continuous
100
AcDbLine
 10
130.5597168930477
 20
510.4721493761091
 30
0.0
 11
130.2597168787983
 21
510.4721493761091
 31
0.0
  0
LINE
  5
5C8
330
18
100
AcDbEntity
  8
1
  6
Continuous
100
AcDbLine
 10
130.2597168787983
 20
511.4721494236069
 30
0.0
 11
127.0597167268065
 21
511.4721494236069
 31
0.0
  0
LINE
  5
5C9
330
18
100
AcDbEntity
  8
1
  6
Continuous
100
AcDbLine
 10
132.5597169880425
 20
515.4721496135964
 30
0.0
 11
125.5597166555604
 21
515.4721496135964
 31
0.0
  0
LINE
  5
5CA
330
18
100
AcDbEntity
  8
1
  6
Continuous
100
AcDbLine
 10
137.5597097813132
 20
511.4721498510838
 30
0.0
 11
137.5597097813132
 21
509.4721493286118
 31
0.0
  0
LINE
  5
5CB
330
18
100
AcDbEntity
  8
1
  6
Continuous
100
AcDbLine
 10
134.7597167063172
 20
508.9721488773862
 30
0.0
 11
137.2597165750609
 21
508.9721488773862
 31
0.0
  0
LINE
  5
5CC
330
18
100
AcDbEntity
  8
1
  6
Continuous
100
AcDbLine
 10
147.3097176886298
 20
515.4721496135964
 30
0.0
 11
147.3097176886298
 21
516.1721496468446
 31
0.0
  0
LINE
  5
5CD
330
18
100
AcDbEntity
  8
1
  6
Continuous
100
AcDbLine
 10
147.8597177147534
 20
511.6221494307312
 30
0.0
 11
147.8597177147534
 21
511.4721494236071
 31
0.0
  0
LINE
  5
5CE
330
18
100
AcDbEntity
  8
1
  6
Continuous
100
AcDbLine
 10
145.5597176055093
 20
516.1721496468446
 30
0.0
 11
145.5597176055093
 21
511.4721494236069
 31
0.0
  0
LINE
  5
5CF
330
18
100
AcDbEntity
  8
1
  6
Continuous
100
AcDbLine
 10
145.5597176055093
 20
516.1721496468446
 30
0.0
 11
147.3097176886298
 21
516.1721496468446
 31
0.0
  0
LINE
  5
5D0
330
18
100
AcDbEntity
  8
1
  6
Continuous
100
AcDbLine
 10
281.9171101798943
 20
352.1336771247597
 30
0.0
 11
281.9171101798943
 21
444.1336814965946
 31
0.0
  0
LINE
  5
5D1
330
18
100
AcDbEntity
  8
1
  6
Continuous
100
AcDbLine
 10
284.9171103223866
 20
444.133681493691
 30
0.0
 11
284.9171103223866
 21
352.1336771247597
 31
0.0
  0
LINE
  5
5D2
330
18
100
AcDbEntity
  8
1
  6
Continuous
100
AcDbLine
 10
223.488414162697
 20
352.1336771247597
 30
0.0
 11
223.488414162697
 21
450.133610063948
 31
0.0
  0
LINE
  5
5D3
330
18
100
AcDbEntity
  8
1
  6
Continuous
100
AcDbLine
 10
209.4884134977327
 20
352.1336771247597
 30
0.0
 11
209.4884134977327
 21
450.1336100639478
 31
0.0
  0
LINE
  5
5D4
330
18
100
AcDbEntity
  8
1
  6
Continuous
100
AcDbLine
 10
151.0597174805259
 20
352.1336771247597
 30
0.0
 11
151.0597174805259
 21
444.1336814965946
 31
0.0
  0
LINE
  5
5D5
330
18
100
AcDbEntity
  8
1
  6
Continuous
100
AcDbLine
 10
228.1884143859351
 20
349.8836770178903
 30
0.0
 11
228.1884143859351
 21
347.8836769228954
 31
0.0
  0
LINE
  5
5D6
330
18
100
AcDbEntity
  8
1
  6
Continuous
100
AcDbLine
 10
204.7884132744946
 20
349.8836770178903
 30
0.0
 11
204.7884132744946
 21
347.8836769228954
 31
0.0
  0
LINE
  5
5D7
330
18
100
AcDbEntity
  8
1
  6
Continuous
100
AcDbLine
 10
227.4884143526868
 20
335.1336763173029
 30
0.0
 11
227.4884143526868
 21
352.1336771247597
 31
0.0
  0
LINE
  5
5D8
330
18
100
AcDbEntity
  8
1
  6
Continuous
100
AcDbLine
 10
205.4884133077429
 20
335.1336763173029
 30
0.0
 11
205.4884133077429
 21
352.1336771247597
 31
0.0
  0
LINE
  5
5D9
330
18
100
AcDbEntity
  8
1
  6
Continuous
100
AcDbLine
 10
151.3097178786196
 20
349.8836770178905
 30
0.0
 11
151.3097178786196
 21
335.1336763173029
 31
0.0
  0
LINE
  5
5DA
330
18
100
AcDbEntity
  8
1
  6
Continuous
100
AcDbLine
 10
152.5597179379914
 20
299.1336746073948
 30
0.0
 11
152.5597179379914
 21
351.1336770772621
 31
0.0
  0
LINE
  5
5DB
330
18
100
AcDbEntity
  8
4
  6
CENTER
 48
0.2
100
AcDbLine
 10
201.7884132744851
 20
306.1336749398772
 30
0.0
 11
231.1884143859255
 21
306.1336749398772
 31
0.0
  0
LINE
  5
5DC
330
18
100
AcDbEntity
  8
4
  6
CENTER
 48
0.2
100
AcDbLine
 10
201.7884132744849
 20
325.1336758423287
 30
0.0
 11
231.1884143859253
 21
325.1336758423287
 31
0.0
  0
LINE
  5
5DD
330
18
100
AcDbEntity
  8
4
  6
CENTER
 48
0.2
100
AcDbLine
 10
201.7884132744947
 20
344.1336767447801
 30
0.0
 11
231.1884143859351
 21
344.1336767447801
 31
0.0
  0
LINE
  5
5DE
330
18
100
AcDbEntity
  8
1
  6
Continuous
100
AcDbLine
 10
205.4884133077429
 20
298.1336745598973
 30
0.0
 11
227.4884143526868
 21
298.1336745598973
 31
0.0
  0
LINE
  5
5DF
330
18
100
AcDbEntity
  8
1
  6
Continuous
100
AcDbLine
 10
151.3097178786196
 20
315.133675367354
 30
0.0
 11
151.3097178786196
 21
300.3836746667666
 31
0.0
  0
LINE
  5
5E0
330
18
100
AcDbEntity
  8
1
  6
Continuous
100
AcDbLine
 10
205.4884133077429
 20
298.1336745598973
 30
0.0
 11
205.4884133077429
 21
315.133675367354
 31
0.0
  0
ARC
  5
5E1
330
18
100
AcDbEntity
  8
1
  6
Continuous
100
AcDbCircle
 10
151.559717890494
 20
299.1336746073948
 30
0.0
 40
1.000000047497444
100
AcDbArc
 50
270.0
 51
0.0000000000004071
  0
LINE
  5
5E2
330
18
100
AcDbEntity
  8
1
  6
Continuous
100
AcDbLine
 10
204.7884132744946
 20
302.3836747617616
 30
0.0
 11
204.7884132744946
 21
300.3836746667666
 31
0.0
  0
LINE
  5
5E3
330
18
100
AcDbEntity
  8
1
  6
Continuous
100
AcDbLine
 10
205.4884133077429
 20
300.3836746667666
 30
0.0
 11
204.7884132744946
 21
300.3836746667666
 31
0.0
  0
LINE
  5
5E4
330
18
100
AcDbEntity
  8
1
  6
Continuous
100
AcDbLine
 10
205.4884133077429
 20
302.3836747617616
 30
0.0
 11
204.7884132744946
 21
302.3836747617616
 31
0.0
  0
LINE
  5
5E5
330
18
100
AcDbEntity
  8
1
  6
Continuous
100
AcDbLine
 10
151.3097178786196
 20
308.3836750467462
 30
0.0
 11
149.3097177836246
 21
308.3836750467462
 31
0.0
  0
LINE
  5
5E6
330
18
100
AcDbEntity
  8
1
  6
Continuous
100
AcDbLine
 10
149.3097177836246
 20
308.3836750467462
 30
0.0
 11
149.3097177836246
 21
315.133675367354
 31
0.0
  0
LINE
  5
5E7
330
18
100
AcDbEntity
  8
1
  6
Continuous
100
AcDbLine
 10
152.5597179379914
 20
315.133675367354
 30
0.0
 11
149.3097177836246
 21
315.133675367354
 31
0.0
  0
ARC
  5
5E8
330
18
100
AcDbEntity
  8
1
  6
Continuous
100
AcDbCircle
 10
149.8033799296425
 20
325.5027614815068
 30
0.0
 40
1.000000047497465
100
AcDbArc
 50
1.96755397843304
 51
70.00000000015592
  0
ARC
  5
5E9
330
18
100
AcDbEntity
  8
1
  6
Continuous
100
AcDbCircle
 10
149.8033799296425
 20
324.7645902031501
 30
0.0
 40
1.000000047497437
100
AcDbArc
 50
289.999999999844
 51
358.0324460215667
  0
ARC
  5
5EA
330
18
100
AcDbEntity
  8
1
  6
Continuous
100
AcDbCircle
 10
139.0597172967662
 20
325.1336758423287
 30
0.0
 40
11.75000055810471
100
AcDbArc
 50
358.0324460215734
 51
1.967553978425727
  0
ARC
  5
5EB
330
18
100
AcDbEntity
  8
1
  6
Continuous
100
AcDbCircle
 10
149.0418312530279
 20
326.0836758874508
 30
0.0
 40
2.500000118743598
100
AcDbArc
 50
261.000000000008
 51
289.9999999999892
  0
ARC
  5
5EC
330
18
100
AcDbEntity
  8
1
  6
Continuous
100
AcDbCircle
 10
149.0418312530279
 20
324.183675797206
 30
0.0
 40
2.500000118743558
100
AcDbArc
 50
70.00000000001077
 51
98.99999999999195
  0
LINE
  5
5ED
330
18
100
AcDbEntity
  8
1
  6
Continuous
100
AcDbLine
 10
149.8968816519541
 20
326.5329074607533
 30
0.0
 11
150.1454000892104
 21
326.4424541469256
 31
0.0
  0
LINE
  5
5EE
330
18
100
AcDbEntity
  8
1
  6
Continuous
100
AcDbLine
 10
150.1454000892101
 20
323.8248975377318
 30
0.0
 11
149.896881651954
 21
323.7344442239042
 31
0.0
  0
LINE
  5
5EF
330
18
100
AcDbEntity
  8
1
  6
Continuous
100
AcDbLine
 10
149.3097177836246
 20
335.1336763173029
 30
0.0
 11
149.3097177836246
 21
341.8836766379108
 31
0.0
  0
LINE
  5
5F0
330
18
100
AcDbEntity
  8
1
  6
Continuous
100
AcDbLine
 10
152.5597179379914
 20
335.1336763173029
 30
0.0
 11
149.3097177836246
 21
335.1336763173029
 31
0.0
  0
LINE
  5
5F1
330
18
100
AcDbEntity
  8
1
  6
Continuous
100
AcDbLine
 10
149.3097177836246
 20
341.8836766379108
 30
0.0
 11
151.3097178786196
 21
341.8836766379108
 31
0.0
  0
LINE
  5
5F2
330
18
100
AcDbEntity
  8
1
  6
Continuous
100
AcDbLine
 10
207.5884134074876
 20
315.133675367354
 30
0.0
 11
207.5884134074876
 21
335.1336763173031
 31
0.0
  0
LINE
  5
5F3
330
18
100
AcDbEntity
  8
1
  6
Continuous
100
AcDbLine
 10
204.7884132744946
 20
315.1336753673541
 30
0.0
 11
207.5884134074876
 21
315.133675367354
 31
0.0
  0
LINE
  5
5F4
330
18
100
AcDbEntity
  8
1
  6
Continuous
100
AcDbLine
 10
204.7884132744946
 20
315.1336753673541
 30
0.0
 11
204.7884132744946
 21
308.3836750467462
 31
0.0
  0
LINE
  5
5F5
330
18
100
AcDbEntity
  8
1
  6
Continuous
100
AcDbLine
 10
205.4884133077429
 20
308.3836750467462
 30
0.0
 11
204.7884132744946
 21
308.3836750467462
 31
0.0
  0
LINE
  5
5F6
330
18
100
AcDbEntity
  8
1
  6
Continuous
100
AcDbLine
 10
204.7884132744946
 20
341.8836766379108
 30
0.0
 11
204.7884132744946
 21
335.1336763173029
 31
0.0
  0
LINE
  5
5F7
330
18
100
AcDbEntity
  8
1
  6
Continuous
100
AcDbLine
 10
204.7884132744946
 20
335.1336763173029
 30
0.0
 11
207.5884134074876
 21
335.1336763173031
 31
0.0
  0
LINE
  5
5F8
330
18
100
AcDbEntity
  8
1
  6
Continuous
100
AcDbLine
 10
205.4884133077429
 20
347.8836769228954
 30
0.0
 11
204.7884132744946
 21
347.8836769228954
 31
0.0
  0
LINE
  5
5F9
330
18
100
AcDbEntity
  8
1
  6
Continuous
100
AcDbLine
 10
205.4884133077429
 20
341.8836766379108
 30
0.0
 11
204.7884132744946
 21
341.8836766379108
 31
0.0
  0
LINE
  5
5FA
330
18
100
AcDbEntity
  8
1
  6
Continuous
100
AcDbLine
 10
227.4884143526868
 20
298.1336745598973
 30
0.0
 11
227.4884143526868
 21
315.133675367354
 31
0.0
  0
LINE
  5
5FB
330
18
100
AcDbEntity
  8
1
  6
Continuous
100
AcDbLine
 10
211.4884134977327
 20
267.82285390026
 30
0.0
 11
221.488414162697
 21
267.82285390026
 31
0.0
  0
LINE
  5
5FC
330
18
100
AcDbEntity
  8
1
  6
Continuous
100
AcDbLine
 10
227.4884143526868
 20
300.3836746667666
 30
0.0
 11
228.1884143859351
 21
300.3836746667666
 31
0.0
  0
LINE
  5
5FD
330
18
100
AcDbEntity
  8
1
  6
Continuous
100
AcDbLine
 10
228.1884143859351
 20
302.3836747617616
 30
0.0
 11
228.1884143859351
 21
300.3836746667666
 31
0.0
  0
LINE
  5
5FE
330
18
100
AcDbEntity
  8
1
  6
Continuous
100
AcDbLine
 10
227.4884143526868
 20
302.3836747617616
 30
0.0
 11
228.1884143859351
 21
302.3836747617616
 31
0.0
  0
LINE
  5
5FF
330
18
100
AcDbEntity
  8
1
  6
Continuous
100
AcDbLine
 10
225.3884142529423
 20
315.133675367354
 30
0.0
 11
225.3884142529423
 21
335.1336763173029
 31
0.0
  0
LINE
  5
600
330
18
100
AcDbEntity
  8
1
  6
Continuous
100
AcDbLine
 10
228.1884143859351
 20
315.1336753673541
 30
0.0
 11
225.3884142529423
 21
315.133675367354
 31
0.0
  0
LINE
  5
601
330
18
100
AcDbEntity
  8
1
  6
Continuous
100
AcDbLine
 10
227.4884143526868
 20
308.3836750467462
 30
0.0
 11
228.1884143859351
 21
308.3836750467462
 31
0.0
  0
LINE
  5
602
330
18
100
AcDbEntity
  8
1
  6
Continuous
100
AcDbLine
 10
228.1884143859351
 20
315.1336753673541
 30
0.0
 11
228.1884143859351
 21
308.3836750467462
 31
0.0
  0
LINE
  5
603
330
18
100
AcDbEntity
  8
1
  6
Continuous
100
AcDbLine
 10
228.1884143859351
 20
335.1336763173029
 30
0.0
 11
225.3884142529423
 21
335.1336763173029
 31
0.0
  0
LINE
  5
604
330
18
100
AcDbEntity
  8
1
  6
Continuous
100
AcDbLine
 10
228.1884143859351
 20
341.8836766379108
 30
0.0
 11
228.1884143859351
 21
335.1336763173029
 31
0.0
  0
LINE
  5
605
330
18
100
AcDbEntity
  8
1
  6
Continuous
100
AcDbLine
 10
227.4884143526868
 20
347.8836769228954
 30
0.0
 11
228.1884143859351
 21
347.8836769228954
 31
0.0
  0
LINE
  5
606
330
18
100
AcDbEntity
  8
1
  6
Continuous
100
AcDbLine
 10
227.4884143526868
 20
341.8836766379108
 30
0.0
 11
228.1884143859351
 21
341.8836766379108
 31
0.0
  0
LINE
  5
607
330
18
100
AcDbEntity
  8
1
  6
Continuous
100
AcDbLine
 10
205.4884133077429
 20
352.1336771247597
 30
0.0
 11
227.4884143526868
 21
352.1336771247597
 31
0.0
  0
ARC
  5
608
330
18
100
AcDbEntity
  8
1
  6
Continuous
100
AcDbCircle
 10
151.559717890494
 20
351.1336770772621
 30
0.0
 40
1.000000047497451
100
AcDbArc
 50
0.0
 51
90.0
  0
LINE
  5
609
330
18
100
AcDbEntity
  8
1
  6
Continuous
100
AcDbLine
 10
205.4884133077429
 20
349.8836770178903
 30
0.0
 11
204.7884132744946
 21
349.8836770178903
 31
0.0
  0
LINE
  5
60A
330
18
100
AcDbEntity
  8
1
  6
Continuous
100
AcDbLine
 10
227.4884143526868
 20
349.8836770178903
 30
0.0
 11
228.1884143859351
 21
349.8836770178903
 31
0.0
  0
LINE
  5
60B
330
18
100
AcDbEntity
  8
1
  6
Continuous
100
AcDbLine
 10
285.6671099718001
 20
349.8836770178903
 30
0.0
 11
285.6671099718001
 21
347.8836769228954
 31
0.0
  0
LINE
  5
60C
330
18
100
AcDbEntity
  8
1
  6
Continuous
100
AcDbLine
 10
287.4171100549204
 20
352.1336771247597
 30
0.0
 11
287.4171100549204
 21
334.9820264257346
 31
0.0
  0
LINE
  5
60D
330
18
100
AcDbEntity
  8
1
  6
Continuous
100
AcDbLine
 10
302.1671107555079
 20
347.8836769228954
 30
0.0
 11
302.1671107555079
 21
349.8836770178903
 31
0.0
  0
LINE
  5
60E
330
18
100
AcDbEntity
  8
1
  6
Continuous
100
AcDbLine
 10
300.4171106723873
 20
352.1336771247597
 30
0.0
 11
300.4171106723873
 21
334.9820264257218
 31
0.0
  0
LINE
  5
60F
330
18
100
AcDbEntity
  8
1
  6
Continuous
100
AcDbLine
 10
306.1671109454977
 20
335.1336763173029
 30
0.0
 11
306.1671109454977
 21
349.8836770178903
 31
0.0
  0
LINE
  5
610
330
18
100
AcDbEntity
  8
1
  6
Continuous
100
AcDbLine
 10
281.6671097818103
 20
349.8836770178905
 30
0.0
 11
281.6671097818103
 21
335.1336763173029
 31
0.0
  0
LINE
  5
611
330
18
100
AcDbEntity
  8
1
  6
Continuous
100
AcDbLine
 10
307.4171110048695
 20
299.1336746073948
 30
0.0
 11
307.4171110048695
 21
351.1336770772621
 31
0.0
  0
LINE
  5
612
330
18
100
AcDbEntity
  8
1
  6
Continuous
100
AcDbLine
 10
280.4171097224385
 20
299.1336746073948
 30
0.0
 11
280.4171097224385
 21
351.1336770772621
 31
0.0
  0
LINE
  5
613
330
18
100
AcDbEntity
  8
4
  6
CENTER
 48
0.2
100
AcDbLine
 10
293.9171103636441
 20
295.1336745598973
 30
0.0
 11
293.9171103636441
 21
355.1336771247597
 31
0.0
  0
LINE
  5
614
330
18
100
AcDbEntity
  8
1
  6
Continuous
100
AcDbLine
 10
281.6671097818103
 20
315.133675367354
 30
0.0
 11
281.6671097818103
 21
300.3836746667666
 31
0.0
  0
CIRCLE
  5
615
330
18
100
AcDbEntity
  8
1
  6
Continuous
100
AcDbCircle
 10
293.9171103636539
 20
306.1336749398768
 30
0.0
 40
2.2000001044944
  0
LINE
  5
616
330
18
100
AcDbEntity
  8
1
  6
Continuous
100
AcDbLine
 10
306.1671109454977
 20
300.3836746667666
 30
0.0
 11
306.1671109454977
 21
315.133675367354
 31
0.0
  0
LINE
  5
617
330
18
100
AcDbEntity
  8
1
  6
Continuous
100
AcDbLine
 10
300.4171106723873
 20
298.1336745598973
 30
0.0
 11
300.4171106723873
 21
315.2853252589345
 31
0.0
  0
LINE
  5
618
330
18
100
AcDbEntity
  8
1
  6
Continuous
100
AcDbLine
 10
287.4171100549204
 20
298.1336745598973
 30
0.0
 11
287.4171100549204
 21
315.2853252589216
 31
0.0
  0
LINE
  5
619
330
18
100
AcDbEntity
  8
1
  6
Continuous
100
AcDbLine
 10
300.4171106723873
 20
300.3836746667666
 30
0.0
 11
306.1671109454977
 21
300.3836746667666
 31
0.0
  0
LINE
  5
61A
330
18
100
AcDbEntity
  8
1
  6
Continuous
100
AcDbLine
 10
306.417110957372
 20
298.1336745598973
 30
0.0
 11
299.9079369685028
 21
298.1336745598973
 31
0.0
  0
ARC
  5
61B
330
18
100
AcDbEntity
  8
1
  6
Continuous
100
AcDbCircle
 10
308.9171106898961
 20
270.1189546035096
 30
0.0
 40
6.000000284984547
100
AcDbArc
 50
179.9999999999995
 51
225.0000000000018
  0
LINE
  5
61C
330
18
100
AcDbEntity
  8
1
  6
Continuous
100
AcDbLine
 10
302.9171104049114
 20
270.1189546035096
 30
0.0
 11
302.9171104049114
 21
298.1336745598973
 31
0.0
  0
LINE
  5
61D
330
18
100
AcDbEntity
  8
1
  6
Continuous
100
AcDbLine
 10
287.9262837588049
 20
298.1336745598973
 30
0.0
 11
281.4171097699357
 21
298.1336745598973
 31
0.0
  0
LINE
  5
61E
330
18
100
AcDbEntity
  8
1
  6
Continuous
100
AcDbLine
 10
287.4171100549204
 20
302.3836747617616
 30
0.0
 11
285.6671099718001
 21
302.3836747617616
 31
0.0
  0
LINE
  5
61F
330
18
100
AcDbEntity
  8
1
  6
Continuous
100
AcDbLine
 10
285.6671099718001
 20
302.3836747617616
 30
0.0
 11
285.6671099718001
 21
300.3836746667666
 31
0.0
  0
LINE
  5
620
330
18
100
AcDbEntity
  8
1
  6
Continuous
100
AcDbLine
 10
281.6671097818103
 20
300.3836746667666
 30
0.0
 11
287.4171100549204
 21
300.3836746667666
 31
0.0
  0
ARC
  5
621
330
18
100
AcDbEntity
  8
1
  6
Continuous
100
AcDbCircle
 10
281.4171097699357
 20
299.1336746073948
 30
0.0
 40
1.000000047497444
100
AcDbArc
 50
179.9999999999995
 51
269.9999999999934
  0
ARC
  5
622
330
18
100
AcDbEntity
  8
1
  6
Continuous
100
AcDbCircle
 10
293.9171103636539
 20
296.6336744886511
 30
0.0
 40
5.200000246986745
100
AcDbArc
 50
26.60013496100201
 51
153.3998650389976
  0
ARC
  5
623
330
18
100
AcDbEntity
  8
1
  6
Continuous
100
AcDbCircle
 10
287.9262837588049
 20
299.6336746311435
 30
0.0
 40
1.500000071246215
100
AcDbArc
 50
270.0
 51
333.399865039097
  0
LINE
  5
624
330
18
100
AcDbEntity
  8
1
  6
Continuous
100
AcDbLine
 10
302.1671107555079
 20
300.3836746667666
 30
0.0
 11
302.1671107555079
 21
302.3836747617616
 31
0.0
  0
LINE
  5
625
330
18
100
AcDbEntity
  8
1
  6
Continuous
100
AcDbLine
 10
302.1671107555079
 20
302.3836747617616
 30
0.0
 11
300.4171106723873
 21
302.3836747617616
 31
0.0
  0
ARC
  5
626
330
18
100
AcDbEntity
  8
1
  6
Continuous
100
AcDbCircle
 10
299.9079369685028
 20
299.6336746311435
 30
0.0
 40
1.500000071246164
100
AcDbArc
 50
206.6001349609029
 51
270.0
  0
LINE
  5
627
330
18
100
AcDbEntity
  8
1
  6
Continuous
100
AcDbLine
 10
305.9171105474038
 20
270.1189546035096
 30
0.0
 11
305.9171105474038
 21
298.1336745598973
 31
0.0
  0
ARC
  5
628
330
18
100
AcDbEntity
  8
1
  6
Continuous
100
AcDbCircle
 10
308.9171106898961
 20
270.1189546035096
 30
0.0
 40
3.000000142492329
100
AcDbArc
 50
179.999999999999
 51
225.0000000000015
  0
LINE
  5
629
330
18
100
AcDbEntity
  8
1
  6
Continuous
100
AcDbLine
 10
307.038430944224
 20
263.512352571913
 30
0.0
 11
304.6744698012624
 21
265.8763137148753
 31
0.0
  0
LINE
  5
62A
330
18
100
AcDbEntity
  8
1
  6
Continuous
100
AcDbLine
 10
309.1597513885405
 20
265.6336730162306
 30
0.0
 11
306.7957902455793
 21
267.9976341591923
 31
0.0
  0
ARC
  5
62B
330
18
100
AcDbEntity
  8
1
  6
Continuous
100
AcDbCircle
 10
306.417110957372
 20
299.1336746073948
 30
0.0
 40
1.000000047497451
100
AcDbArc
 50
270.0
 51
359.9999999999987
  0
LINE
  5
62C
330
18
100
AcDbEntity
  8
1
  6
Continuous
100
AcDbLine
 10
302.8171104049018
 20
323.233675752083
 30
0.0
 11
305.56314028307
 21
323.233675752083
 31
0.0
  0
LINE
  5
62D
330
18
100
AcDbEntity
  8
1
  6
Continuous
100
AcDbLine
 10
302.8171104049018
 20
327.0336759325733
 30
0.0
 11
305.56314028307
 21
327.0336759325733
 31
0.0
  0
LINE
  5
62E
330
18
100
AcDbEntity
  8
1
  6
Continuous
100
AcDbLine
 10
302.8171104049018
 20
320.7536756342893
 30
0.0
 11
304.8740995214681
 21
320.7536756342893
 31
0.0
  0
ARC
  5
62F
330
18
100
AcDbEntity
  8
1
  6
Continuous
100
AcDbCircle
 10
293.9171103636441
 20
325.1336758423282
 30
0.0
 40
11.80000056046991
100
AcDbArc
 50
282.7289438731229
 51
77.2710561268771
  0
LINE
  5
630
330
18
100
AcDbEntity
  8
1
  6
Continuous
100
AcDbLine
 10
303.5081381387204
 20
323.6144549186811
 30
0.0
 11
302.8013377249834
 21
323.7264011066319
 31
0.0
  0
LINE
  5
631
330
18
100
AcDbEntity
  8
1
  6
Continuous
100
AcDbLine
 10
302.8013377249834
 20
326.5409505780243
 30
0.0
 11
303.5081381387201
 21
326.652896765975
 31
0.0
  0
LINE
  5
632
330
18
100
AcDbEntity
  8
4
  6
CENTER
 48
0.2
100
AcDbLine
 10
303.4171106723873
 20
344.1336767447801
 30
0.0
 11
284.4171100549205
 21
344.1336767447801
 31
0.0
  0
LINE
  5
633
330
18
100
AcDbEntity
  8
4
  6
CENTER
 48
0.2
100
AcDbLine
 10
310.4171110048695
 20
325.1336758423282
 30
0.0
 11
277.4171097224385
 21
325.1336758423282
 31
0.0
  0
LINE
  5
634
330
18
100
AcDbEntity
  8
4
  6
CENTER
 48
0.2
100
AcDbLine
 10
303.4171106723873
 20
306.1336749398768
 30
0.0
 11
284.4171100549205
 21
306.1336749398768
 31
0.0
  0
LINE
  5
635
330
18
100
AcDbEntity
  8
1
  6
Continuous
100
AcDbLine
 10
285.0171103223866
 20
332.8815795906141
 30
0.0
 11
285.0171103223866
 21
326.5434487251056
 31
0.0
  0
LINE
  5
636
330
18
100
AcDbEntity
  8
1
  6
Continuous
100
AcDbLine
 10
285.1671099480414
 20
329.5946193980098
 30
0.0
 11
285.1671099480414
 21
326.5502391305874
 31
0.0
  0
ARC
  5
637
330
18
100
AcDbEntity
  8
1
  6
Continuous
100
AcDbCircle
 10
293.9171103636439
 20
325.1336758423283
 30
0.0
 40
8.700000413227476
100
AcDbArc
 50
154.9104378680541
 51
169.0895622770303
  0
ARC
  5
638
330
18
100
AcDbEntity
  8
1
  6
Continuous
100
AcDbCircle
 10
293.9171103636441
 20
325.1336758423282
 30
0.0
 40
11.80000056046992
100
AcDbArc
 50
102.7289438731228
 51
257.2710561268771
  0
ARC
  5
639
330
18
100
AcDbEntity
  8
1
  6
Continuous
100
AcDbCircle
 10
293.9171103636441
 20
325.1336758423282
 30
0.0
 40
8.700000413227838
100
AcDbArc
 50
10.91043700712903
 51
25.08956239249028
  0
LINE
  5
63A
330
18
100
AcDbEntity
  8
1
  6
Continuous
100
AcDbLine
 10
302.6671107792468
 20
329.5946193980108
 30
0.0
 11
302.6671107792468
 21
326.5502391305874
 31
0.0
  0
LINE
  5
63B
330
18
100
AcDbEntity
  8
1
  6
Continuous
100
AcDbLine
 10
302.8171104049018
 20
326.5434487251054
 30
0.0
 11
302.8171104049021
 21
332.8815795906141
 31
0.0
  0
LINE
  5
63C
330
18
100
AcDbEntity
  8
1
  6
Continuous
100
AcDbLine
 10
297.9671105560088
 20
322.0340789471393
 30
0.0
 11
297.9671105560088
 21
328.2332727375156
 31
0.0
  0
LINE
  5
63D
330
18
100
AcDbEntity
  8
1
  6
Continuous
100
AcDbLine
 10
288.9671101285316
 20
329.5836760536918
 30
0.0
 11
288.9671101285316
 21
325.1336758423282
 31
0.0
  0
LINE
  5
63E
330
18
100
AcDbEntity
  8
1
  6
Continuous
100
AcDbLine
 10
289.8671101712793
 20
328.2332727375168
 30
0.0
 11
289.8671101712793
 21
322.0340789471407
 31
0.0
  0
LINE
  5
63F
330
18
100
AcDbEntity
  8
1
  6
Continuous
100
AcDbLine
 10
288.9921101297192
 20
329.2986340231343
 30
0.0
 11
288.9921101297192
 21
325.1086758411406
 31
0.0
  0
LINE
  5
640
330
18
100
AcDbEntity
  8
1
  6
Continuous
100
AcDbLine
 10
285.4171099599158
 20
317.0336754575988
 30
0.0
 11
289.7897862457899
 21
317.0336754575988
 31
0.0
  0
ARC
  5
641
330
18
100
AcDbEntity
  8
1
  6
Continuous
100
AcDbCircle
 10
293.9171103636441
 20
325.1336758423282
 30
0.0
 40
11.60042598450269
100
AcDbArc
 50
224.288839329069
 51
247.3329276748975
  0
ARC
  5
642
330
18
100
AcDbEntity
  8
1
  6
Continuous
100
AcDbCircle
 10
287.7689268264272
 20
318.5610167999556
 30
0.0
 40
0.3000000142492313
100
AcDbArc
 50
46.932245681769
 51
135.0000000000003
  0
LINE
  5
643
330
18
100
AcDbEntity
  8
1
  6
Continuous
100
AcDbLine
 10
287.1671100430363
 20
317.2336754670983
 30
0.0
 11
289.8652499081569
 21
317.2336754670983
 31
0.0
  0
LINE
  5
644
330
18
100
AcDbEntity
  8
1
  6
Continuous
100
AcDbLine
 10
280.4171097224385
 20
315.133675367354
 30
0.0
 11
283.6671098768052
 21
315.133675367354
 31
0.0
  0
LINE
  5
645
330
18
100
AcDbEntity
  8
1
  6
Continuous
100
AcDbLine
 10
281.6671097818103
 20
308.3836750467462
 30
0.0
 11
283.6671098768052
 21
308.3836750467462
 31
0.0
  0
LINE
  5
646
330
18
100
AcDbEntity
  8
1
  6
Continuous
100
AcDbLine
 10
283.6671098768052
 20
308.3836750467462
 30
0.0
 11
283.6671098768052
 21
315.133675367354
 31
0.0
  0
LINE
  5
647
330
18
100
AcDbEntity
  8
1
  6
Continuous
100
AcDbLine
 10
284.326082588568
 20
326.6528967659752
 30
0.0
 11
285.032883002305
 21
326.5409505780244
 31
0.0
  0
LINE
  5
648
330
18
100
AcDbEntity
  8
1
  6
Continuous
100
AcDbLine
 10
285.032883002305
 20
323.726401106632
 30
0.0
 11
284.3260825885682
 21
323.6144549186813
 31
0.0
  0
LINE
  5
649
330
18
100
AcDbEntity
  8
1
  6
Continuous
100
AcDbLine
 10
285.0171103223866
 20
323.7239029595508
 30
0.0
 11
285.0171103223866
 21
317.3857720940421
 31
0.0
  0
ARC
  5
64A
330
18
100
AcDbEntity
  8
1
  6
Continuous
100
AcDbCircle
 10
293.9171103636539
 20
325.1336758423281
 30
0.0
 40
11.75000055810471
100
AcDbArc
 50
178.0324460215733
 51
181.9675539784253
  0
ARC
  5
64B
330
18
100
AcDbEntity
  8
1
  6
Continuous
100
AcDbCircle
 10
283.1734477307778
 20
325.5027614815065
 30
0.0
 40
1.000000047497437
100
AcDbArc
 50
109.999999999844
 51
178.0324460215672
  0
ARC
  5
64C
330
18
100
AcDbEntity
  8
1
  6
Continuous
100
AcDbCircle
 10
283.1734477307778
 20
324.7645902031499
 30
0.0
 40
1.000000047497465
100
AcDbArc
 50
181.967553978433
 51
250.0000000001559
  0
LINE
  5
64D
330
18
100
AcDbEntity
  8
1
  6
Continuous
100
AcDbLine
 10
283.0799460084662
 20
323.7344442239033
 30
0.0
 11
282.8314275712099
 21
323.8248975377311
 31
0.0
  0
LINE
  5
64E
330
18
100
AcDbEntity
  8
1
  6
Continuous
100
AcDbLine
 10
282.8314275712102
 20
326.4424541469248
 30
0.0
 11
283.0799460084662
 21
326.5329074607523
 31
0.0
  0
ARC
  5
64F
330
18
100
AcDbEntity
  8
1
  6
Continuous
100
AcDbCircle
 10
283.9349964073923
 20
324.1836757972056
 30
0.0
 40
2.500000118743598
100
AcDbArc
 50
81.00000000000802
 51
109.9999999999892
  0
ARC
  5
650
330
18
100
AcDbEntity
  8
1
  6
Continuous
100
AcDbCircle
 10
283.9349964073923
 20
326.0836758874507
 30
0.0
 40
2.500000118743558
100
AcDbArc
 50
250.0000000000107
 51
278.999999999992
  0
LINE
  5
651
330
18
100
AcDbEntity
  8
1
  6
Continuous
100
AcDbLine
 10
285.0171103223866
 20
323.233675752083
 30
0.0
 11
282.2710804442186
 21
323.233675752083
 31
0.0
  0
ARC
  5
652
330
18
100
AcDbEntity
  8
1
  6
Continuous
100
AcDbCircle
 10
293.9171103636489
 20
325.1336758423331
 30
0.0
 40
11.75000055810184
100
AcDbArc
 50
220.7603717602572
 51
221.2995739046176
  0
LINE
  5
653
330
18
100
AcDbEntity
  8
1
  6
Continuous
100
AcDbLine
 10
285.1671099480414
 20
323.7171125540688
 30
0.0
 11
285.1671099480414
 21
320.6727322866455
 31
0.0
  0
ARC
  5
654
330
18
100
AcDbEntity
  8
1
  6
Continuous
100
AcDbCircle
 10
285.0798133440463
 20
326.8372570942768
 30
0.0
 40
0.3000000142492324
100
AcDbArc
 50
261.0000000000145
 51
349.0677317027341
  0
ARC
  5
655
330
18
100
AcDbEntity
  8
1
  6
Continuous
100
AcDbCircle
 10
285.0798133440463
 20
323.4300945903793
 30
0.0
 40
0.30000001424924
100
AcDbArc
 50
10.93226151635989
 51
98.99999999998538
  0
ARC
  5
656
330
18
100
AcDbEntity
  8
1
  6
Continuous
100
AcDbCircle
 10
293.9171103636448
 20
325.1336758423283
 30
0.0
 40
8.700000413228245
100
AcDbArc
 50
190.9104379567676
 51
205.0895619935202
  0
ARC
  5
657
330
18
100
AcDbEntity
  8
1
  6
Continuous
100
AcDbCircle
 10
286.3998065494494
 20
318.4977702909786
 30
0.0
 40
2.500000118743443
100
AcDbArc
 50
117.0000000000011
 51
123.5784764141669
  0
LINE
  5
658
330
18
100
AcDbEntity
  8
1
  6
Continuous
100
AcDbLine
 10
285.417109959916
 20
316.9489335517176
 30
0.0
 11
285.417109959916
 21
317.4726051896119
 31
0.0
  0
LINE
  5
659
330
18
100
AcDbEntity
  8
1
  6
Continuous
100
AcDbLine
 10
285.2648302461922
 20
320.7252867072508
 30
0.0
 11
285.9024441108642
 21
321.0501671982521
 31
0.0
  0
LINE
  5
65A
330
18
100
AcDbEntity
  8
1
  6
Continuous
100
AcDbLine
 10
285.972107939321
 20
317.6317482993118
 30
0.0
 11
285.0896987036654
 21
317.3787215226366
 31
0.0
  0
ARC
  5
65B
330
18
100
AcDbEntity
  8
1
  6
Continuous
100
AcDbCircle
 10
285.2830145170488
 20
320.0349026533015
 30
0.0
 40
2.500000118743655
100
AcDbArc
 50
285.9999999999947
 51
315.0000000000003
  0
LINE
  5
65C
330
18
100
AcDbEntity
  8
1
  6
Continuous
100
AcDbLine
 10
287.5567947819957
 20
318.7731488443871
 30
0.0
 11
287.0507815539795
 21
318.2671356163705
 31
0.0
  0
ARC
  5
65D
330
18
100
AcDbEntity
  8
1
  6
Continuous
100
AcDbCircle
 10
287.1671150015582
 20
319.2336975273773
 30
0.0
 40
2.000022060285107
100
AcDbArc
 50
233.2464916954409
 51
269.9998579503807
  0
ARC
  5
65E
330
18
100
AcDbEntity
  8
1
  6
Continuous
100
AcDbCircle
 10
285.7662469544731
 20
321.3174691682051
 30
0.0
 40
0.3000000142492387
100
AcDbArc
 50
296.9999999999873
 51
25.06773992459841
  0
ARC
  5
65F
330
18
100
AcDbEntity
  8
1
  6
Continuous
100
AcDbCircle
 10
296.0982494825188
 20
315.3465551592339
 30
0.0
 40
2.500000118743666
100
AcDbArc
 50
358.0000000000051
 51
26.99999999999997
  0
ARC
  5
660
330
18
100
AcDbEntity
  8
1
  6
Continuous
100
AcDbCircle
 10
293.9171103636441
 20
325.1336758423282
 30
0.0
 40
11.60010719608049
100
AcDbArc
 50
292.66975237077
 51
315.7111606709309
  0
ARC
  5
661
330
18
100
AcDbEntity
  8
1
  6
Continuous
100
AcDbCircle
 10
291.7359712447697
 20
315.3465551592339
 30
0.0
 40
2.500000118743645
100
AcDbArc
 50
153.0000000000019
 51
181.9999999999966
  0
ARC
  5
662
330
18
100
AcDbEntity
  8
1
  6
Continuous
100
AcDbCircle
 10
295.0277832763354
 20
316.2024713672527
 30
0.0
 40
0.3000000142492285
100
AcDbArc
 50
9.000000000001179
 51
97.06772770339874
  0
ARC
  5
663
330
18
100
AcDbEntity
  8
1
  6
Continuous
100
AcDbCircle
 10
292.8064374509532
 20
316.2024713672527
 30
0.0
 40
0.3000000142492324
100
AcDbArc
 50
82.93229873562818
 51
170.9999999999983
  0
ARC
  5
664
330
18
100
AcDbEntity
  8
1
  6
Continuous
100
AcDbCircle
 10
293.9171103636441
 20
325.1336758423282
 30
0.0
 40
12.00000056996938
100
AcDbArc
 50
257.4866746371166
 51
282.5133253628834
  0
ARC
  5
665
330
18
100
AcDbEntity
  8
1
  6
Continuous
100
AcDbCircle
 10
297.9052569493078
 20
315.9336874764331
 30
0.0
 40
2.500000118743665
100
AcDbArc
 50
188.9999999999943
 51
217.9999999999706
  0
ARC
  5
666
330
18
100
AcDbEntity
  8
1
  6
Continuous
100
AcDbCircle
 10
289.9289637779803
 20
315.9336874764331
 30
0.0
 40
2.500000118743624
100
AcDbArc
 50
322.0000000000312
 51
351.0000000000075
  0
ARC
  5
667
330
18
100
AcDbEntity
  8
1
  6
Continuous
100
AcDbCircle
 10
293.9171103636441
 20
325.1336758423282
 30
0.0
 40
11.60042598450269
100
AcDbArc
 50
256.6670723251124
 51
257.047809404123
  0
LINE
  5
668
330
18
100
AcDbEntity
  8
1
  6
Continuous
100
AcDbLine
 10
291.3171102401507
 20
313.418727569412
 30
0.0
 11
291.3171102401507
 21
313.8723436113201
 31
0.0
  0
ARC
  5
669
330
18
100
AcDbEntity
  8
1
  6
Continuous
100
AcDbCircle
 10
290.9481573304697
 20
314.8017917515801
 30
0.0
 40
1.000000047497464
100
AcDbArc
 50
253.967553978384
 51
321.9999999999054
  0
LINE
  5
66A
330
18
100
AcDbEntity
  8
1
  6
Continuous
100
AcDbLine
 10
291.8989907555686
 20
314.3945337150146
 30
0.0
 11
291.7361681215026
 21
314.1861302470116
 31
0.0
  0
ARC
  5
66B
330
18
100
AcDbEntity
  8
1
  6
Continuous
100
AcDbCircle
 10
290.2461147260463
 20
315.0298992213544
 30
0.0
 40
1.000000047497447
100
AcDbArc
 50
182.0000000002151
 51
250.0324460216016
  0
LINE
  5
66C
330
18
100
AcDbEntity
  8
1
  6
Continuous
100
AcDbLine
 10
289.2467238515592
 20
314.9949997229906
 30
0.0
 11
289.2374940585506
 21
315.2593064133336
 31
0.0
  0
ARC
  5
66D
330
18
100
AcDbEntity
  8
1
  6
Continuous
100
AcDbCircle
 10
293.9171103636478
 20
325.1336758423386
 30
0.0
 40
11.75000055810602
100
AcDbArc
 50
250.0324460215678
 51
253.9675539784179
  0
LINE
  5
66E
330
18
100
AcDbEntity
  8
1
  6
Continuous
100
AcDbLine
 10
295.4360359805384
 20
315.5426012952573
 30
0.0
 11
295.3240897925876
 21
316.2494017089938
 31
0.0
  0
LINE
  5
66F
330
18
100
AcDbEntity
  8
1
  6
Continuous
100
AcDbLine
 10
292.5101309347011
 20
316.2494017089938
 30
0.0
 11
292.3981847467504
 21
315.5426012952573
 31
0.0
  0
ARC
  5
670
330
18
100
AcDbEntity
  8
1
  6
Continuous
100
AcDbCircle
 10
293.917110363648
 20
325.1336758423172
 30
0.0
 40
11.75000055808343
100
AcDbArc
 50
286.0324460215753
 51
289.9675539784325
  0
ARC
  5
671
330
18
100
AcDbEntity
  8
1
  6
Continuous
100
AcDbCircle
 10
297.5881060012421
 20
315.0298992213545
 30
0.0
 40
1.000000047497469
100
AcDbArc
 50
289.9675539784044
 51
357.999999999785
  0
LINE
  5
672
330
18
100
AcDbEntity
  8
1
  6
Continuous
100
AcDbLine
 10
298.5967266687381
 20
315.2593064133338
 30
0.0
 11
298.5874968757293
 21
314.9949997229906
 31
0.0
  0
LINE
  5
673
330
18
100
AcDbEntity
  8
1
  6
Continuous
100
AcDbLine
 10
296.0980526057848
 20
314.1861302470106
 30
0.0
 11
295.9352299717194
 21
314.3945337150142
 31
0.0
  0
ARC
  5
674
330
18
100
AcDbEntity
  8
1
  6
Continuous
100
AcDbCircle
 10
293.9171103636441
 20
325.1336758423282
 30
0.0
 40
11.60010719608049
100
AcDbArc
 50
282.9521905958705
 51
283.3302476292178
  0
LINE
  5
675
330
18
100
AcDbEntity
  8
1
  6
Continuous
100
AcDbLine
 10
296.5171104871375
 20
313.8723436113201
 30
0.0
 11
296.5171104871375
 21
313.4187275694121
 31
0.0
  0
ARC
  5
676
330
18
100
AcDbEntity
  8
1
  6
Continuous
100
AcDbCircle
 10
296.8860633968189
 20
314.8017917515801
 30
0.0
 40
1.000000047497447
100
AcDbArc
 50
218.0000000000948
 51
286.0324460216093
  0
LINE
  5
677
330
18
100
AcDbEntity
  8
1
  6
Continuous
100
AcDbLine
 10
290.8175134684555
 20
321.0836756499635
 30
0.0
 11
297.0167072588316
 21
321.0836756499634
 31
0.0
  0
LINE
  5
678
330
18
100
AcDbEntity
  8
1
  6
Continuous
100
AcDbLine
 10
293.9171103636441
 20
320.1836756072158
 30
0.0
 11
298.3671105750078
 21
320.1836756072158
 31
0.0
  0
LINE
  5
679
330
18
100
AcDbEntity
  8
1
  6
Continuous
100
AcDbLine
 10
293.8421103600818
 20
320.2086756084032
 30
0.0
 11
298.0820685444503
 21
320.2086756084032
 31
0.0
  0
LINE
  5
67A
330
18
100
AcDbEntity
  8
1
  6
Continuous
100
AcDbLine
 10
288.9671101285316
 20
325.1336758423282
 30
0.0
 11
288.9921101297192
 21
325.1336758423282
 31
0.0
  0
LINE
  5
67B
330
18
100
AcDbEntity
  8
1
  6
Continuous
100
AcDbLine
 10
289.8671101712793
 20
325.1086758411406
 30
0.0
 11
288.9921101297192
 21
325.1086758411406
 31
0.0
  0
ARC
  5
67C
330
18
100
AcDbEntity
  8
1
  6
Continuous
100
AcDbCircle
 10
289.5660333495453
 20
317.2553424835543
 30
0.0
 40
0.3000000142492363
100
AcDbArc
 50
333.0000000000119
 51
61.06774860634993
  0
ARC
  5
67D
330
18
100
AcDbEntity
  8
1
  6
Continuous
100
AcDbCircle
 10
293.9171103636441
 20
325.1336758423281
 30
0.0
 40
8.700000413227664
100
AcDbArc
 50
226.9104385027811
 51
241.0895616941477
  0
LINE
  5
67E
330
18
100
AcDbEntity
  8
1
  6
Continuous
100
AcDbLine
 10
289.5084548284975
 20
316.4815314624912
 30
0.0
 11
289.8333353194981
 21
317.1191453271635
 31
0.0
  0
ARC
  5
67F
330
18
100
AcDbEntity
  8
1
  6
Continuous
100
AcDbCircle
 10
293.9171103636441
 20
325.1336758423282
 30
0.0
 40
8.700000413227908
100
AcDbArc
 50
262.9104366733419
 51
277.0895624149436
  0
LINE
  5
680
330
18
100
AcDbEntity
  8
1
  6
Continuous
100
AcDbLine
 10
293.9171103636441
 20
320.2086756084032
 30
0.0
 11
293.9171103636441
 21
320.1836756072158
 31
0.0
  0
LINE
  5
681
330
18
100
AcDbEntity
  8
1
  6
Continuous
100
AcDbLine
 10
293.8421103600818
 20
320.2086756084032
 30
0.0
 11
293.8421103600818
 21
321.0836756499634
 31
0.0
  0
ARC
  5
682
330
18
100
AcDbEntity
  8
1
  6
Continuous
100
AcDbCircle
 10
293.9171103636441
 20
325.1336758423281
 30
0.0
 40
5.100000242236891
100
AcDbArc
 50
217.4280055430332
 51
232.5719944569576
  0
ARC
  5
683
330
18
100
AcDbEntity
  8
1
  6
Continuous
100
AcDbCircle
 10
302.7544073832424
 20
323.4300945903793
 30
0.0
 40
0.3000000142492311
100
AcDbArc
 50
81.00000000001463
 51
169.067722386108
  0
ARC
  5
684
330
18
100
AcDbEntity
  8
1
  6
Continuous
100
AcDbCircle
 10
302.7544073832424
 20
326.8372570942768
 30
0.0
 40
0.3000000142492325
100
AcDbArc
 50
190.9322890558613
 51
278.9999999999853
  0
LINE
  5
685
330
18
100
AcDbEntity
  8
1
  6
Continuous
100
AcDbLine
 10
302.8171104049018
 20
317.3857720940421
 30
0.0
 11
302.8171104049018
 21
323.7239029595506
 31
0.0
  0
ARC
  5
686
330
18
100
AcDbEntity
  8
1
  6
Continuous
100
AcDbCircle
 10
293.9171103636443
 20
325.1336758423281
 30
0.0
 40
8.700000413227572
100
AcDbArc
 50
334.9104376114692
 51
349.0895625982927
  0
LINE
  5
687
330
18
100
AcDbEntity
  8
1
  6
Continuous
100
AcDbLine
 10
298.8671105987565
 20
325.1336758423282
 30
0.0
 11
298.8421105975693
 21
325.1336758423282
 31
0.0
  0
LINE
  5
688
330
18
100
AcDbEntity
  8
1
  6
Continuous
100
AcDbLine
 10
298.8421105975693
 20
325.2086758458905
 30
0.0
 11
297.9671105560088
 21
325.2086758458905
 31
0.0
  0
LINE
  5
689
330
18
100
AcDbEntity
  8
1
  6
Continuous
100
AcDbLine
 10
302.4171107673724
 20
316.9489335517176
 30
0.0
 11
302.4171107673724
 21
317.5204287947543
 31
0.0
  0
LINE
  5
68A
330
18
100
AcDbEntity
  8
1
  6
Continuous
100
AcDbLine
 10
302.4171107673724
 20
317.4726051896119
 30
0.0
 11
302.7445220236228
 21
317.3787215226366
 31
0.0
  0
LINE
  5
68B
330
18
100
AcDbEntity
  8
1
  6
Continuous
100
AcDbLine
 10
302.7445220236296
 20
317.3787215226306
 30
0.0
 11
302.8171107863784
 21
317.4621371706678
 31
0.0
  0
ARC
  5
68C
330
18
100
AcDbEntity
  8
1
  6
Continuous
100
AcDbCircle
 10
300.0652939008613
 20
318.5610167999556
 30
0.0
 40
0.3000000142492376
100
AcDbArc
 50
44.99999999999976
 51
133.0677250261323
  0
ARC
  5
68D
330
18
100
AcDbEntity
  8
1
  6
Continuous
100
AcDbCircle
 10
301.4344141778388
 20
318.4977702909794
 30
0.0
 40
2.500000118743785
100
AcDbArc
 50
56.42152358582528
 51
62.99999999999747
  0
ARC
  5
68E
330
18
100
AcDbEntity
  8
1
  6
Continuous
100
AcDbCircle
 10
302.3919729199207
 20
318.5201128366498
 30
0.0
 40
1.000000047497485
100
AcDbArc
 50
248.1219144203052
 51
271.4404442293079
  0
ARC
  5
68F
330
18
100
AcDbEntity
  8
1
  6
Continuous
100
AcDbCircle
 10
302.5512062102399
 20
320.0349026533015
 30
0.0
 40
2.500000118743713
100
AcDbArc
 50
225.0
 51
257.7166491972
  0
LINE
  5
690
330
18
100
AcDbEntity
  8
1
  6
Continuous
100
AcDbLine
 10
300.7834391733092
 20
318.2671356163708
 30
0.0
 11
300.2774259452929
 21
318.7731488443873
 31
0.0
  0
LINE
  5
691
330
18
100
AcDbEntity
  8
1
  6
Continuous
100
AcDbLine
 10
301.9317766164248
 20
321.0501671982523
 30
0.0
 11
302.5693904810965
 21
320.7252867072516
 31
0.0
  0
ARC
  5
692
330
18
100
AcDbEntity
  8
1
  6
Continuous
100
AcDbCircle
 10
300.6671106842521
 20
319.2336755620932
 30
0.0
 40
2.000000094994915
100
AcDbArc
 50
270.0
 51
306.7304351116872
  0
LINE
  5
693
330
18
100
AcDbEntity
  8
1
  6
Continuous
100
AcDbLine
 10
302.8171105956368
 20
320.5805930588766
 30
0.0
 11
302.8171104049018
 21
320.7536756342893
 31
0.0
  0
ARC
  5
694
330
18
100
AcDbEntity
  8
1
  6
Continuous
100
AcDbCircle
 10
298.2681873777433
 20
317.2553424835543
 30
0.0
 40
0.3000000142492427
100
AcDbArc
 50
118.9211908111089
 51
206.999999999988
  0
ARC
  5
695
330
18
100
AcDbEntity
  8
1
  6
Continuous
100
AcDbCircle
 10
298.3671105750078
 20
320.6836756309645
 30
0.0
 40
0.5000000237487207
100
AcDbArc
 50
270.0
 51
359.9999999999996
  0
LINE
  5
696
330
18
100
AcDbEntity
  8
1
  6
Continuous
100
AcDbLine
 10
298.0008854077906
 20
317.1191453271636
 30
0.0
 11
298.3257658987914
 21
316.4815314624913
 31
0.0
  0
ARC
  5
697
330
18
100
AcDbEntity
  8
1
  6
Continuous
100
AcDbCircle
 10
293.9171103636441
 20
325.1336758423282
 30
0.0
 40
6.450000306358552
100
AcDbArc
 50
309.8752773570735
 51
320.1247226429234
  0
LINE
  5
698
330
18
100
AcDbEntity
  8
1
  6
Continuous
100
AcDbLine
 10
302.4171107673724
 20
317.0336754575988
 30
0.0
 11
298.0444344814987
 21
317.0336754575988
 31
0.0
  0
ARC
  5
699
330
18
100
AcDbEntity
  8
1
  6
Continuous
100
AcDbCircle
 10
293.9171103636441
 20
325.1336758423285
 30
0.0
 40
8.700000413228238
100
AcDbArc
 50
298.9108197052575
 51
313.0895625072623
  0
LINE
  5
69A
330
18
100
AcDbEntity
  8
1
  6
Continuous
100
AcDbLine
 10
297.9689708191316
 20
317.2336754670983
 30
0.0
 11
300.6671106842521
 21
317.2336754670983
 31
0.0
  0
ARC
  5
69B
330
18
100
AcDbEntity
  8
1
  6
Continuous
100
AcDbCircle
 10
302.0679737728154
 20
321.3174691682051
 30
0.0
 40
0.300000014249232
100
AcDbArc
 50
154.9322715299743
 51
243.000000000012
  0
LINE
  5
69C
330
18
100
AcDbEntity
  8
1
  6
Continuous
100
AcDbLine
 10
302.6671107792468
 20
323.7171125540688
 30
0.0
 11
302.6671107792468
 21
320.6727322866465
 31
0.0
  0
ARC
  5
69D
330
18
100
AcDbEntity
  8
1
  6
Continuous
100
AcDbCircle
 10
293.9171103636443
 20
325.1336758423281
 30
0.0
 40
5.100000242236909
100
AcDbArc
 50
307.4280055430319
 51
322.5719944569558
  0
LINE
  5
69E
330
18
100
AcDbEntity
  8
1
  6
Continuous
100
AcDbLine
 10
298.8671105987565
 20
320.6836756309645
 30
0.0
 11
298.8671105987565
 21
325.1336758423282
 31
0.0
  0
LINE
  5
69F
330
18
100
AcDbEntity
  8
1
  6
Continuous
100
AcDbLine
 10
298.8421105975693
 20
320.9687176615221
 30
0.0
 11
298.8421105975693
 21
325.2086758458905
 31
0.0
  0
ARC
  5
6A0
330
18
100
AcDbEntity
  8
1
  6
Continuous
100
AcDbCircle
 10
293.9171103636441
 20
325.1336758423281
 30
0.0
 40
11.60010719608058
100
AcDbArc
 50
112.66975237077
 51
135.7111606709308
  0
LINE
  5
6A1
330
18
100
AcDbEntity
  8
1
  6
Continuous
100
AcDbLine
 10
285.417109959916
 20
333.2336762270575
 30
0.0
 11
289.7897862457897
 21
333.2336762270575
 31
0.0
  0
LINE
  5
6A2
330
18
100
AcDbEntity
  8
1
  6
Continuous
100
AcDbLine
 10
287.1671100430363
 20
333.0336762175579
 30
0.0
 11
289.8652499081569
 21
333.0336762175579
 31
0.0
  0
ARC
  5
6A3
330
18
100
AcDbEntity
  8
1
  6
Continuous
100
AcDbCircle
 10
287.7689268264272
 20
331.7063348847007
 30
0.0
 40
0.300000014249235
100
AcDbArc
 50
224.9999999999997
 51
313.0676992193105
  0
LINE
  5
6A4
330
18
100
AcDbEntity
  8
1
  6
Continuous
100
AcDbLine
 10
283.6671098768052
 20
335.1336763173029
 30
0.0
 11
283.6671098768052
 21
341.8836766379108
 31
0.0
  0
LINE
  5
6A5
330
18
100
AcDbEntity
  8
1
  6
Continuous
100
AcDbLine
 10
285.0896987036589
 20
332.8886301620257
 30
0.0
 11
285.0171099409104
 21
332.8052145139884
 31
0.0
  0
LINE
  5
6A6
330
18
100
AcDbEntity
  8
1
  6
Continuous
100
AcDbLine
 10
285.0171103223866
 20
329.513676050367
 30
0.0
 11
282.9601212058204
 21
329.513676050367
 31
0.0
  0
LINE
  5
6A7
330
18
100
AcDbEntity
  8
1
  6
Continuous
100
AcDbLine
 10
285.0171103223866
 20
327.0336759325733
 30
0.0
 11
282.2710804442186
 21
327.0336759325733
 31
0.0
  0
ARC
  5
6A8
330
18
100
AcDbEntity
  8
1
  6
Continuous
100
AcDbCircle
 10
285.442247807368
 20
331.7472388480064
 30
0.0
 40
1.000000047497485
100
AcDbArc
 50
68.12191442030533
 51
115.1593889419649
  0
LINE
  5
6A9
330
18
100
AcDbEntity
  8
1
  6
Continuous
100
AcDbLine
 10
285.417109959916
 20
332.7947464950444
 30
0.0
 11
285.0896987036657
 21
332.8886301620197
 31
0.0
  0
LINE
  5
6AA
330
18
100
AcDbEntity
  8
1
  6
Continuous
100
AcDbLine
 10
285.417109959916
 20
333.3184181329386
 30
0.0
 11
285.417109959916
 21
332.7469228899019
 31
0.0
  0
ARC
  5
6AB
330
18
100
AcDbEntity
  8
1
  6
Continuous
100
AcDbCircle
 10
286.3998065494497
 20
331.7695813936769
 30
0.0
 40
2.500000118743785
100
AcDbArc
 50
236.4215235858253
 51
242.9999999999916
  0
LINE
  5
6AC
330
18
100
AcDbEntity
  8
1
  6
Continuous
100
AcDbLine
 10
285.9024441108637
 20
329.2171844864038
 30
0.0
 11
285.2648302461919
 21
329.5420649774046
 31
0.0
  0
ARC
  5
6AD
330
18
100
AcDbEntity
  8
1
  6
Continuous
100
AcDbCircle
 10
287.1671100430363
 20
331.0336761225631
 30
0.0
 40
2.000000094994907
100
AcDbArc
 50
90.0
 51
126.7304351122465
  0
ARC
  5
6AE
330
18
100
AcDbEntity
  8
1
  6
Continuous
100
AcDbCircle
 10
285.7662469544731
 20
328.9498825164511
 30
0.0
 40
0.3000000142492358
100
AcDbArc
 50
334.9322640890183
 51
63.00000000001212
  0
LINE
  5
6AF
330
18
100
AcDbEntity
  8
1
  6
Continuous
100
AcDbLine
 10
287.0507815539791
 20
332.0002160682855
 30
0.0
 11
287.5567947819955
 21
331.494202840269
 31
0.0
  0
ARC
  5
6B0
330
18
100
AcDbEntity
  8
1
  6
Continuous
100
AcDbCircle
 10
285.2830145170488
 20
330.2324490313548
 30
0.0
 40
2.500000118743713
100
AcDbArc
 50
45.00000000000006
 51
77.71664919720014
  0
LINE
  5
6B1
330
18
100
AcDbEntity
  8
1
  6
Continuous
100
AcDbLine
 10
280.4171097224385
 20
335.1336763173029
 30
0.0
 11
283.6671098768052
 21
335.1336763173029
 31
0.0
  0
LINE
  5
6B2
330
18
100
AcDbEntity
  8
1
  6
Continuous
100
AcDbLine
 10
285.6671099718001
 20
347.8836769228954
 30
0.0
 11
287.4171100549204
 21
347.8836769228954
 31
0.0
  0
LINE
  5
6B3
330
18
100
AcDbEntity
  8
1
  6
Continuous
100
AcDbLine
 10
283.6671098768052
 20
341.8836766379108
 30
0.0
 11
281.6671097818103
 21
341.8836766379108
 31
0.0
  0
ARC
  5
6B4
330
18
100
AcDbEntity
  8
1
  6
Continuous
100
AcDbCircle
 10
293.9171103636441
 20
325.1336758423282
 30
0.0
 40
12.00000056996942
100
AcDbArc
 50
77.48667463711662
 51
102.5133253628833
  0
ARC
  5
6B5
330
18
100
AcDbEntity
  8
1
  6
Continuous
100
AcDbCircle
 10
297.9052569493078
 20
334.3336642082231
 30
0.0
 40
2.500000118743624
100
AcDbArc
 50
142.0000000000312
 51
171.0000000000075
  0
LINE
  5
6B6
330
18
100
AcDbEntity
  8
1
  6
Continuous
100
AcDbLine
 10
297.0167072588316
 20
329.1836760346928
 30
0.0
 11
290.8175134684555
 21
329.1836760346928
 31
0.0
  0
ARC
  5
6B7
330
18
100
AcDbEntity
  8
1
  6
Continuous
100
AcDbCircle
 10
289.9289637779803
 20
334.3336642082231
 30
0.0
 40
2.500000118743665
100
AcDbArc
 50
8.999999999994507
 51
37.99999999997071
  0
ARC
  5
6B8
330
18
100
AcDbEntity
  8
1
  6
Continuous
100
AcDbCircle
 10
293.9171103636441
 20
325.1336758423281
 30
0.0
 40
11.60010719608058
100
AcDbArc
 50
102.9521905958705
 51
103.3302476292178
  0
LINE
  5
6B9
330
18
100
AcDbEntity
  8
1
  6
Continuous
100
AcDbLine
 10
291.3171102401507
 20
336.3950080733362
 30
0.0
 11
291.3171102401507
 21
336.8486241152443
 31
0.0
  0
ARC
  5
6BA
330
18
100
AcDbEntity
  8
1
  6
Continuous
100
AcDbCircle
 10
290.9481573304697
 20
335.4655599330762
 30
0.0
 40
1.000000047497447
100
AcDbArc
 50
38.00000000009488
 51
106.0324460216094
  0
LINE
  5
6BB
330
18
100
AcDbEntity
  8
1
  6
Continuous
100
AcDbLine
 10
291.7361681215037
 20
336.0812214376456
 30
0.0
 11
291.8989907555691
 21
335.8728179696421
 31
0.0
  0
ARC
  5
6BC
330
18
100
AcDbEntity
  8
1
  6
Continuous
100
AcDbCircle
 10
291.7359712447697
 20
334.9207965254223
 30
0.0
 40
2.500000118743666
100
AcDbArc
 50
178.0000000000051
 51
206.9999999999998
  0
ARC
  5
6BD
330
18
100
AcDbEntity
  8
1
  6
Continuous
100
AcDbCircle
 10
290.2461147260463
 20
335.2374524633016
 30
0.0
 40
1.000000047497469
100
AcDbArc
 50
109.9675539784044
 51
177.9999999997852
  0
LINE
  5
6BE
330
18
100
AcDbEntity
  8
1
  6
Continuous
100
AcDbLine
 10
289.2374940585506
 20
335.0080452713225
 30
0.0
 11
289.246723851559
 21
335.2723519616656
 31
0.0
  0
ARC
  5
6BF
330
18
100
AcDbEntity
  8
1
  6
Continuous
100
AcDbCircle
 10
289.5660333495453
 20
333.0120092011018
 30
0.0
 40
0.3000000142492411
100
AcDbArc
 50
298.9322639478661
 51
26.99999999998806
  0
LINE
  5
6C0
330
18
100
AcDbEntity
  8
1
  6
Continuous
100
AcDbLine
 10
289.8333353194979
 20
333.1482063574928
 30
0.0
 11
289.508454828497
 21
333.7858202221649
 31
0.0
  0
ARC
  5
6C1
330
18
100
AcDbEntity
  8
1
  6
Continuous
100
AcDbCircle
 10
293.9171103636405
 20
325.1336758423391
 30
0.0
 40
11.75000055808343
100
AcDbArc
 50
106.0324460215753
 51
109.9675539784325
  0
ARC
  5
6C2
330
18
100
AcDbEntity
  8
1
  6
Continuous
100
AcDbCircle
 10
292.8064374509532
 20
334.0648803174037
 30
0.0
 40
0.3000000142492376
100
AcDbArc
 50
189.0000000000011
 51
277.067730106804
  0
ARC
  5
6C3
330
18
100
AcDbEntity
  8
1
  6
Continuous
100
AcDbCircle
 10
295.0277832763354
 20
334.0648803174037
 30
0.0
 40
0.3000000142492339
100
AcDbArc
 50
262.9322719482552
 51
350.9999999999987
  0
ARC
  5
6C4
330
18
100
AcDbEntity
  8
1
  6
Continuous
100
AcDbCircle
 10
293.9171103636441
 20
325.1336758423282
 30
0.0
 40
8.700000413227767
100
AcDbArc
 50
82.91043759704216
 51
97.08956233206707
  0
LINE
  5
6C5
330
18
100
AcDbEntity
  8
1
  6
Continuous
100
AcDbLine
 10
292.3981847467499
 20
334.7247503893989
 30
0.0
 11
292.5101309347009
 21
334.0179499756625
 31
0.0
  0
LINE
  5
6C6
330
18
100
AcDbEntity
  8
1
  6
Continuous
100
AcDbLine
 10
295.3240897925876
 20
334.0179499756625
 30
0.0
 11
295.4360359805381
 21
334.7247503893989
 31
0.0
  0
LINE
  5
6C7
330
18
100
AcDbEntity
  8
1
  6
Continuous
100
AcDbLine
 10
293.9171103636441
 20
330.0836760774406
 30
0.0
 11
289.4671101522807
 21
330.0836760774406
 31
0.0
  0
LINE
  5
6C8
330
18
100
AcDbEntity
  8
1
  6
Continuous
100
AcDbLine
 10
293.9921103672064
 20
330.0586760762531
 30
0.0
 11
289.7521521828381
 21
330.0586760762531
 31
0.0
  0
ARC
  5
6C9
330
18
100
AcDbEntity
  8
1
  6
Continuous
100
AcDbCircle
 10
289.4671101522807
 20
329.5836760536918
 30
0.0
 40
0.5000000237487207
100
AcDbArc
 50
90.0
 51
179.9999999999995
  0
ARC
  5
6CA
330
18
100
AcDbEntity
  8
1
  6
Continuous
100
AcDbCircle
 10
293.9171103636441
 20
325.1336758423282
 30
0.0
 40
6.450000306358552
100
AcDbArc
 50
129.8752773570738
 51
140.1247226429235
  0
ARC
  5
6CB
330
18
100
AcDbEntity
  8
1
  6
Continuous
100
AcDbCircle
 10
293.9171103636441
 20
325.1336758423282
 30
0.0
 40
5.100000242236909
100
AcDbArc
 50
127.4280055430422
 51
142.5719944569559
  0
LINE
  5
6CC
330
18
100
AcDbEntity
  8
1
  6
Continuous
100
AcDbLine
 10
293.9171103636441
 20
330.0586760762531
 30
0.0
 11
293.9171103636441
 21
330.0836760774406
 31
0.0
  0
LINE
  5
6CD
330
18
100
AcDbEntity
  8
1
  6
Continuous
100
AcDbLine
 10
293.9921103672064
 20
330.0586760762531
 30
0.0
 11
293.9921103672064
 21
329.1836760346928
 31
0.0
  0
ARC
  5
6CE
330
18
100
AcDbEntity
  8
1
  6
Continuous
100
AcDbCircle
 10
293.9171103636443
 20
325.1336758423278
 30
0.0
 40
8.700000413228217
100
AcDbArc
 50
118.9104378729215
 51
133.0895633971514
  0
ARC
  5
6CF
330
18
100
AcDbEntity
  8
1
  6
Continuous
100
AcDbCircle
 10
293.9171103636407
 20
325.1336758423178
 30
0.0
 40
11.75000055810602
100
AcDbArc
 50
70.03244602156783
 51
73.96755397842413
  0
LINE
  5
6D0
330
18
100
AcDbEntity
  8
1
  6
Continuous
100
AcDbLine
 10
302.4171107673724
 20
332.7947464950443
 30
0.0
 11
302.4171107673724
 21
333.3184181329386
 31
0.0
  0
LINE
  5
6D1
330
18
100
AcDbEntity
  8
1
  6
Continuous
100
AcDbLine
 10
298.0444344814985
 20
333.2336762270575
 30
0.0
 11
302.4171107673727
 21
333.2336762270575
 31
0.0
  0
ARC
  5
6D2
330
18
100
AcDbEntity
  8
1
  6
Continuous
100
AcDbCircle
 10
293.9171103636397
 20
325.1336758423231
 30
0.0
 40
11.75000055810184
100
AcDbArc
 50
40.76037176025724
 51
41.29957390461771
  0
LINE
  5
6D3
330
18
100
AcDbEntity
  8
1
  6
Continuous
100
AcDbLine
 10
301.8621127879673
 20
332.6356033853445
 30
0.0
 11
302.7445220236228
 21
332.8886301620197
 31
0.0
  0
ARC
  5
6D4
330
18
100
AcDbEntity
  8
1
  6
Continuous
100
AcDbCircle
 10
300.6671071632009
 20
331.033660251479
 30
0.0
 40
2.000015966082119
100
AcDbArc
 50
53.26349952835832
 51
89.99989913012075
  0
ARC
  5
6D5
330
18
100
AcDbEntity
  8
1
  6
Continuous
100
AcDbCircle
 10
296.0982494825188
 20
334.9207965254223
 30
0.0
 40
2.500000118743645
100
AcDbArc
 50
333.000000000002
 51
1.999999999996778
  0
ARC
  5
6D6
330
18
100
AcDbEntity
  8
1
  6
Continuous
100
AcDbCircle
 10
297.5881060012421
 20
335.2374524633018
 30
0.0
 40
1.000000047497447
100
AcDbArc
 50
2.000000000215159
 51
70.03244602160171
  0
LINE
  5
6D7
330
18
100
AcDbEntity
  8
1
  6
Continuous
100
AcDbLine
 10
298.5874968757292
 20
335.2723519616656
 30
0.0
 11
298.5967266687378
 21
335.0080452713227
 31
0.0
  0
ARC
  5
6D8
330
18
100
AcDbEntity
  8
1
  6
Continuous
100
AcDbCircle
 10
298.2681873777433
 20
333.0120092011018
 30
0.0
 40
0.3000000142492343
100
AcDbArc
 50
153.0000000000116
 51
241.0636123069704
  0
LINE
  5
6D9
330
18
100
AcDbEntity
  8
1
  6
Continuous
100
AcDbLine
 10
298.3257658987909
 20
333.7858202221651
 30
0.0
 11
298.0008854077906
 21
333.1482063574928
 31
0.0
  0
ARC
  5
6DA
330
18
100
AcDbEntity
  8
1
  6
Continuous
100
AcDbCircle
 10
293.9171103636441
 20
325.1336758423281
 30
0.0
 40
11.60042598450272
100
AcDbArc
 50
44.28883932906912
 51
67.33292767489763
  0
LINE
  5
6DB
330
18
100
AcDbEntity
  8
1
  6
Continuous
100
AcDbLine
 10
297.9689708191316
 20
333.0336762175579
 30
0.0
 11
300.6671106842521
 21
333.0336762175579
 31
0.0
  0
LINE
  5
6DC
330
18
100
AcDbEntity
  8
1
  6
Continuous
100
AcDbLine
 10
295.9352299717199
 20
335.8728179696417
 30
0.0
 11
296.0980526057859
 21
336.0812214376446
 31
0.0
  0
ARC
  5
6DD
330
18
100
AcDbEntity
  8
1
  6
Continuous
100
AcDbCircle
 10
293.9171103636441
 20
325.1336758423281
 30
0.0
 40
11.60042598450272
100
AcDbArc
 50
76.66707232511879
 51
77.04780940412942
  0
LINE
  5
6DE
330
18
100
AcDbEntity
  8
1
  6
Continuous
100
AcDbLine
 10
296.5171104871375
 20
336.8486241152443
 30
0.0
 11
296.5171104871375
 21
336.3950080733362
 31
0.0
  0
ARC
  5
6DF
330
18
100
AcDbEntity
  8
1
  6
Continuous
100
AcDbCircle
 10
296.8860633968189
 20
335.4655599330762
 30
0.0
 40
1.000000047497464
100
AcDbArc
 50
73.96755397839027
 51
141.9999999999054
  0
ARC
  5
6E0
330
18
100
AcDbEntity
  8
1
  6
Continuous
100
AcDbCircle
 10
302.0679737728154
 20
328.9498825164511
 30
0.0
 40
0.300000014249232
100
AcDbArc
 50
116.9999999999872
 51
205.067728354426
  0
ARC
  5
6E1
330
18
100
AcDbEntity
  8
1
  6
Continuous
100
AcDbCircle
 10
301.4344141778391
 20
331.7695813936776
 30
0.0
 40
2.500000118743443
100
AcDbArc
 50
296.9999999999952
 51
303.5784764141669
  0
LINE
  5
6E2
330
18
100
AcDbEntity
  8
1
  6
Continuous
100
AcDbLine
 10
300.0688339429167
 20
331.2856108382776
 30
0.0
 11
300.7834391733088
 21
332.0002160682857
 31
0.0
  0
LINE
  5
6E3
330
18
100
AcDbEntity
  8
1
  6
Continuous
100
AcDbLine
 10
302.5693904810965
 20
329.5420649774054
 30
0.0
 11
301.9317766164245
 21
329.2171844864043
 31
0.0
  0
ARC
  5
6E4
330
18
100
AcDbEntity
  8
1
  6
Continuous
100
AcDbCircle
 10
293.9171103636443
 20
325.1336758423282
 30
0.0
 40
5.100000242236891
100
AcDbArc
 50
37.42800554303292
 51
52.57199445696805
  0
ARC
  5
6E5
330
18
100
AcDbEntity
  8
1
  6
Continuous
100
AcDbCircle
 10
302.5512062102399
 20
330.2324490313548
 30
0.0
 40
2.500000118743655
100
AcDbArc
 50
105.9999999999947
 51
135.0000000000003
  0
ARC
  5
6E6
330
18
100
AcDbEntity
  8
1
  6
Continuous
100
AcDbCircle
 10
293.9171103636441
 20
325.1336758423281
 30
0.0
 40
8.700000413227941
100
AcDbArc
 50
45.00098452694005
 51
61.08970432516469
  0
CIRCLE
  5
6E7
330
18
100
AcDbEntity
  8
1
  6
Continuous
100
AcDbCircle
 10
293.9171103636539
 20
344.1336767447801
 30
0.0
 40
2.200000104494404
  0
LINE
  5
6E8
330
18
100
AcDbEntity
  8
1
  6
Continuous
100
AcDbLine
 10
300.4171106723873
 20
347.8836769228954
 30
0.0
 11
302.1671107555079
 21
347.8836769228954
 31
0.0
  0
LINE
  5
6E9
330
18
100
AcDbEntity
  8
1
  6
Continuous
100
AcDbLine
 10
307.4171110048695
 20
315.133675367354
 30
0.0
 11
304.1671108505028
 21
315.133675367354
 31
0.0
  0
LINE
  5
6EA
330
18
100
AcDbEntity
  8
1
  6
Continuous
100
AcDbLine
 10
304.1671108505028
 20
308.3836750467462
 30
0.0
 11
306.1671109454977
 21
308.3836750467462
 31
0.0
  0
LINE
  5
6EB
330
18
100
AcDbEntity
  8
1
  6
Continuous
100
AcDbLine
 10
304.1671108505028
 20
315.133675367354
 30
0.0
 11
304.1671108505028
 21
308.3836750467462
 31
0.0
  0
ARC
  5
6EC
330
18
100
AcDbEntity
  8
1
  6
Continuous
100
AcDbCircle
 10
304.6607729965109
 20
324.7645902031497
 30
0.0
 40
1.000000047497437
100
AcDbArc
 50
289.999999999844
 51
358.0324460215667
  0
ARC
  5
6ED
330
18
100
AcDbEntity
  8
1
  6
Continuous
100
AcDbCircle
 10
304.6607729965109
 20
325.5027614815065
 30
0.0
 40
1.000000047497465
100
AcDbArc
 50
1.96755397843304
 51
70.00000000015592
  0
ARC
  5
6EE
330
18
100
AcDbEntity
  8
1
  6
Continuous
100
AcDbCircle
 10
293.9171103636347
 20
325.1336758423282
 30
0.0
 40
11.75000055810471
100
AcDbArc
 50
358.0324460215734
 51
1.967553978425727
  0
ARC
  5
6EF
330
18
100
AcDbEntity
  8
1
  6
Continuous
100
AcDbCircle
 10
303.8992243198962
 20
326.0836758874506
 30
0.0
 40
2.500000118743586
100
AcDbArc
 50
261.000000000008
 51
289.9999999999892
  0
ARC
  5
6F0
330
18
100
AcDbEntity
  8
1
  6
Continuous
100
AcDbCircle
 10
303.8992243198962
 20
324.1836757972056
 30
0.0
 40
2.500000118743558
100
AcDbArc
 50
70.00000000001077
 51
98.99999999999195
  0
LINE
  5
6F1
330
18
100
AcDbEntity
  8
1
  6
Continuous
100
AcDbLine
 10
305.0027931560787
 20
323.8248975377314
 30
0.0
 11
304.7542747188223
 21
323.7344442239038
 31
0.0
  0
LINE
  5
6F2
330
18
100
AcDbEntity
  8
1
  6
Continuous
100
AcDbLine
 10
304.7542747188223
 20
326.5329074607529
 30
0.0
 11
305.0027931560787
 21
326.4424541469253
 31
0.0
  0
LINE
  5
6F3
330
18
100
AcDbEntity
  8
1
  6
Continuous
100
AcDbLine
 10
304.1671108505028
 20
341.8836766379108
 30
0.0
 11
304.1671108505028
 21
335.1336763173029
 31
0.0
  0
LINE
  5
6F4
330
18
100
AcDbEntity
  8
1
  6
Continuous
100
AcDbLine
 10
307.4171110048695
 20
335.1336763173029
 30
0.0
 11
304.1671108505028
 21
335.1336763173029
 31
0.0
  0
LINE
  5
6F5
330
18
100
AcDbEntity
  8
1
  6
Continuous
100
AcDbLine
 10
306.1671109454977
 20
341.8836766379108
 30
0.0
 11
304.1671108505028
 21
341.8836766379108
 31
0.0
  0
LINE
  5
6F6
330
18
100
AcDbEntity
  8
1
  6
Continuous
100
AcDbLine
 10
306.1671109454977
 20
349.8836770178903
 30
0.0
 11
300.4171106723873
 21
349.8836770178903
 31
0.0
  0
LINE
  5
6F7
330
18
100
AcDbEntity
  8
1
  6
Continuous
100
AcDbLine
 10
299.9079369685028
 20
352.1336771247597
 30
0.0
 11
306.417110957372
 21
352.1336771247597
 31
0.0
  0
LINE
  5
6F8
330
18
100
AcDbEntity
  8
1
  6
Continuous
100
AcDbLine
 10
281.4171097699357
 20
352.1336771247597
 30
0.0
 11
287.9262837588049
 21
352.1336771247597
 31
0.0
  0
LINE
  5
6F9
330
18
100
AcDbEntity
  8
1
  6
Continuous
100
AcDbLine
 10
287.4171100549204
 20
349.8836770178903
 30
0.0
 11
281.6671097818103
 21
349.8836770178905
 31
0.0
  0
ARC
  5
6FA
330
18
100
AcDbEntity
  8
1
  6
Continuous
100
AcDbCircle
 10
281.4171097699357
 20
351.1336770772621
 30
0.0
 40
1.000000047497451
100
AcDbArc
 50
90.0
 51
180.0
  0
ARC
  5
6FB
330
18
100
AcDbEntity
  8
1
  6
Continuous
100
AcDbCircle
 10
293.9171103636537
 20
353.6336771960059
 30
0.0
 40
5.200000246986749
100
AcDbArc
 50
206.6001349610023
 51
333.3998650389979
  0
ARC
  5
6FC
330
18
100
AcDbEntity
  8
1
  6
Continuous
100
AcDbCircle
 10
287.9262837588049
 20
350.6336770535135
 30
0.0
 40
1.500000071246164
100
AcDbArc
 50
26.60013496090298
 51
90.0
  0
ARC
  5
6FD
330
18
100
AcDbEntity
  8
1
  6
Continuous
100
AcDbCircle
 10
299.9079369685028
 20
350.6336770535135
 30
0.0
 40
1.500000071246176
100
AcDbArc
 50
90.0
 51
153.3998650390969
  0
ARC
  5
6FE
330
18
100
AcDbEntity
  8
1
  6
Continuous
100
AcDbCircle
 10
306.417110957372
 20
351.1336770772621
 30
0.0
 40
1.000000047497444
100
AcDbArc
 50
0.000000000000007
 51
90.0
  0
LINE
  5
6FF
330
18
100
AcDbEntity
  8
1
  6
Continuous
100
AcDbLine
 10
151.3597178809946
 20
498.4721488061398
 30
0.0
 11
151.3597178809946
 21
510.4721493761091
 31
0.0
  0
LINE
  5
700
330
18
100
AcDbEntity
  8
1
  6
Continuous
100
AcDbLine
 10
152.5597179379914
 20
493.4721485686526
 30
0.0
 11
152.5597179379914
 21
515.4721496135968
 31
0.0
  0
LINE
  5
701
330
18
100
AcDbEntity
  8
1
  6
Continuous
100
AcDbLine
 10
151.0597178667452
 20
497.3221487515178
 30
0.0
 11
151.0597178667452
 21
511.6221494307312
 31
0.0
  0
LINE
  5
702
330
18
100
AcDbEntity
  8
1
  6
Continuous
100
AcDbLine
 10
223.488414162697
 20
450.133610063948
 30
0.0
 11
209.4884134977327
 21
450.1336100639478
 31
0.0
  0
LINE
  5
704
330
18
100
AcDbEntity
  8
1
  6
Continuous
100
AcDbLine
 10
149.3097177836246
 20
493.4721485686526
 30
0.0
 11
149.3097177836246
 21
492.7721485354044
 31
0.0
  0
LINE
  5
705
330
18
100
AcDbEntity
  8
1
  6
Continuous
100
AcDbLine
 10
149.3097177836246
 20
492.7721485354044
 30
0.0
 11
151.3097178786196
 21
492.7721485354044
 31
0.0
  0
LINE
  5
706
330
18
100
AcDbEntity
  8
1
  6
Continuous
100
AcDbLine
 10
151.3097178786196
 20
493.4721485686526
 30
0.0
 11
151.3097178786196
 21
492.7721485354044
 31
0.0
  0
ARC
  5
707
330
18
100
AcDbEntity
  8
1
  6
Continuous
100
AcDbCircle
 10
150.3306198543094
 20
503.7391034061799
 30
0.0
 40
0.7303907812238731
100
AcDbArc
 50
344.5003399218562
 51
3.409960739995956
  0
ARC
  5
708
330
18
100
AcDbEntity
  8
1
  6
Continuous
100
AcDbCircle
 10
150.9422116389158
 20
503.567221503402
 30
0.0
 40
0.0951341786233777
100
AcDbArc
 50
272.056801278194
 51
345.8215864825266
  0
ARC
  5
709
330
18
100
AcDbEntity
  8
1
  6
Continuous
100
AcDbCircle
 10
150.3306198543088
 20
505.2051939211152
 30
0.0
 40
0.7303907812238731
100
AcDbArc
 50
356.5900392600039
 51
15.49966007814379
  0
ARC
  5
70A
330
18
100
AcDbEntity
  8
1
  6
Continuous
100
AcDbCircle
 10
150.9422116389153
 20
505.3770758238933
 30
0.0
 40
0.0951341786233777
100
AcDbArc
 50
14.17841351747324
 51
87.9431987218059
  0
LINE
  5
70B
330
18
100
AcDbEntity
  8
1
  6
Continuous
100
AcDbLine
 10
151.0597178667452
 20
498.4721488061398
 30
0.0
 11
151.3597178809946
 21
498.4721488061398
 31
0.0
  0
ARC
  5
70C
330
18
100
AcDbEntity
  8
1
  6
Continuous
100
AcDbCircle
 10
215.585773587976
 20
445.2088250154438
 30
0.0
 40
1.904727835042145
100
AcDbArc
 50
325.6361631721517
 51
2.682741291062268
  0
ARC
  5
70D
330
18
100
AcDbEntity
  8
1
  6
Continuous
100
AcDbCircle
 10
217.3914545599306
 20
445.2088663902626
 30
0.0
 40
1.905125947376624
100
AcDbArc
 50
177.3190654212685
 51
214.3581523950646
  0
ARC
  5
70E
330
18
100
AcDbEntity
  8
1
  6
Continuous
100
AcDbCircle
 10
216.4883875686677
 20
444.5677697832724
 30
0.0
 40
0.7980490720243393
100
AcDbArc
 50
212.9520407610037
 51
327.0502957863162
  0
ARC
  5
70F
330
18
100
AcDbEntity
  8
1
  6
Continuous
100
AcDbCircle
 10
217.4063359153437
 20
450.0228831288636
 30
0.0
 40
0.0821439855025948
100
AcDbArc
 50
357.7026410723261
 51
60.16109023577529
  0
ARC
  5
710
330
18
100
AcDbEntity
  8
1
  6
Continuous
100
AcDbCircle
 10
217.2337306595938
 20
449.5612286696057
 30
0.0
 40
0.57407652692591
100
AcDbArc
 50
68.16952050854403
 51
94.40414384018479
  0
ARC
  5
711
330
18
100
AcDbEntity
  8
1
  6
Continuous
100
AcDbCircle
 10
215.5704917450861
 20
450.0228831288636
 30
0.0
 40
0.0821439855025948
100
AcDbArc
 50
119.8389097642247
 51
182.2973589276737
  0
ARC
  5
712
330
18
100
AcDbEntity
  8
1
  6
Continuous
100
AcDbCircle
 10
215.7430970008359
 20
449.5612286696057
 30
0.0
 40
0.57407652692591
100
AcDbArc
 50
85.59585615981522
 51
111.8304794914559
  0
LINE
  5
713
330
18
100
AcDbEntity
  8
1
  6
Continuous
100
AcDbLine
 10
217.4884138777123
 20
445.2979768716006
 30
0.0
 11
217.4884138777123
 21
450.0195903268931
 31
0.0
  0
LINE
  5
714
330
18
100
AcDbEntity
  8
1
  6
Continuous
100
AcDbLine
 10
215.4884137827174
 20
445.2979768716006
 30
0.0
 11
215.4884137827174
 21
450.0195903268931
 31
0.0
  0
LINE
  5
715
330
18
100
AcDbEntity
  8
1
  6
Continuous
100
AcDbLine
 10
149.3097177836246
 20
516.1721496468446
 30
0.0
 11
151.3097178786196
 21
516.1721496468446
 31
0.0
  0
LINE
  5
716
330
18
100
AcDbEntity
  8
1
  6
Continuous
100
AcDbLine
 10
149.3097177836246
 20
515.4721496135964
 30
0.0
 11
149.3097177836246
 21
516.1721496468446
 31
0.0
  0
LINE
  5
717
330
18
100
AcDbEntity
  8
1
  6
Continuous
100
AcDbLine
 10
151.3097178786196
 20
515.4721496135964
 30
0.0
 11
151.3097178786196
 21
516.1721496468446
 31
0.0
  0
LINE
  5
718
330
18
100
AcDbEntity
  8
1
  6
Continuous
100
AcDbLine
 10
151.3597178809946
 20
510.4721493761091
 30
0.0
 11
151.0597178667452
 21
510.4721493761091
 31
0.0
  0
ARC
  5
71A
330
18
100
AcDbEntity
  8
1
  6
Continuous
100
AcDbCircle
 10
287.9169880405229
 20
444.1337322043541
 30
0.0
 40
5.999877860842735
100
AcDbArc
 50
89.99883092947618
 51
180.0004842332919
  0
ARC
  5
71B
330
18
100
AcDbEntity
  8
1
  6
Continuous
100
AcDbCircle
 10
287.9171945986736
 20
444.133537513398
 30
0.0
 40
3.000084279741813
100
AcDbArc
 50
90.00160677605157
 51
179.9972502562077
  0
LINE
  5
71C
330
18
100
AcDbEntity
  8
1
  6
Continuous
100
AcDbLine
 10
289.5237984608913
 20
447.1338917639573
 30
0.0
 11
284.9173318478635
 21
442.5274251509297
 31
0.0
  0
LINE
  5
71D
330
18
100
AcDbEntity
  8
1
  6
Continuous
100
AcDbLine
 10
298.2171109541027
 20
450.1336817795098
 30
0.0
 11
287.917110464879
 21
450.1336817795099
 31
0.0
  0
LINE
  5
71E
330
18
100
AcDbEntity
  8
1
  6
Continuous
100
AcDbLine
 10
298.2171109541027
 20
447.1336816370174
 30
0.0
 11
287.917110464879
 21
447.1336816370174
 31
0.0
  0
LINE
  5
71F
330
18
100
AcDbEntity
  8
1
  6
Continuous
100
AcDbLine
 10
292.4171106786175
 20
450.1336817795099
 30
0.0
 11
292.4171106786175
 21
447.1336816370174
 31
0.0
  0
LINE
  5
720
330
18
100
AcDbEntity
  8
1
  6
Continuous
100
AcDbLine
 10
295.7171108353591
 20
450.1336817795099
 30
0.0
 11
295.7171108353591
 21
447.1336816370174
 31
0.0
  0
LINE
  5
721
330
18
100
AcDbEntity
  8
1
  6
Continuous
100
AcDbLine
 10
298.2171109541027
 20
450.1336817795098
 30
0.0
 11
298.2171109541027
 21
447.1336816370174
 31
0.0
  0
ENDSEC
  0
SECTION
  2
OBJECTS
  0
DICTIONARY
  5
C
330
0
100
AcDbDictionary
281
     1
  3
ACAD_CIP_PREVIOUS_PRODUCT_INFO
350
AE7
  3
ACAD_COLOR
350
ACA
  3
ACAD_DETAILVIEWSTYLE
350
AE3
  3
ACAD_GROUP
350
D
  3
ACAD_LAYOUT
350
94
  3
ACAD_MATERIAL
350
A98
  3
ACAD_MLEADERSTYLE
350
ADF
  3
ACAD_MLINESTYLE
350
1B
  3
ACAD_PLOTSETTINGS
350
95
  3
ACAD_PLOTSTYLENAME
350
A96
  3
ACAD_SCALELIST
350
ACD
  3
ACAD_SECTIONVIEWSTYLE
350
AE1
  3
ACAD_TABLESTYLE
350
ACB
  3
ACAD_VISUALSTYLE
350
AB1
  3
ACDB_RECOMPOSE_DATA
350
B05
  3
AcDbVariableDictionary
350
AF8
  3
CONTENTDICTIONARY
350
3D
  3
DWGPROPS
350
B06
  0
DICTIONARY
  5
AE8
330
E
100
AcDbDictionary
280
     1
281
     1
  3
ADSK_XREC_LAYER_RECONCILED
360
AE9
  0
DICTIONARY
  5
AEA
330
4E
100
AcDbDictionary
280
     1
281
     1
  3
ADSK_XREC_LAYER_RECONCILED
360
AEB
  0
DICTIONARY
  5
AEC
330
4F
100
AcDbDictionary
280
     1
281
     1
  3
ADSK_XREC_LAYER_RECONCILED
360
AED
  0
DICTIONARY
  5
AEE
330
50
100
AcDbDictionary
280
     1
281
     1
  3
ADSK_XREC_LAYER_RECONCILED
360
AEF
  0
DICTIONARY
  5
AF0
330
51
100
AcDbDictionary
280
     1
281
     1
  3
ADSK_XREC_LAYER_RECONCILED
360
AF1
  0
DICTIONARY
  5
AF2
330
52
100
AcDbDictionary
280
     1
281
     1
  3
ADSK_XREC_LAYER_RECONCILED
360
AF3
  0
DICTIONARY
  5
AF4
330
53
100
AcDbDictionary
280
     1
281
     1
  3
ADSK_XREC_LAYER_RECONCILED
360
AF5
  0
DICTIONARY
  5
AF6
330
54
100
AcDbDictionary
280
     1
281
     1
  3
ADSK_XREC_LAYER_RECONCILED
360
AF7
  0
DICTIONARY
  5
A91
330
18
100
AcDbDictionary
281
     1
  3
ACAD_LAYOUTSELFREF
350
A92
  0
DICTIONARY
  5
A8F
330
15
100
AcDbDictionary
281
     1
  3
ACAD_LAYOUTSELFREF
350
A90
  0
XRECORD
  5
AE7
102
{ACAD_REACTORS
330
C
102
}
330
C
100
AcDbXrecord
280
     1
300
ACDLT
300
2014
300
ACDLT_F_S
  0
DICTIONARY
  5
ACA
102
{ACAD_REACTORS
330
C
102
}
330
C
100
AcDbDictionary
281
     1
  0
DICTIONARY
  5
AE3
102
{ACAD_REACTORS
330
C
102
}
330
C
100
AcDbDictionary
281
     1
  3
Imperial24
350
AE4
  0
DICTIONARY
  5
D
102
{ACAD_REACTORS
330
C
102
}
330
C
100
AcDbDictionary
281
     1
  0
DICTIONARY
  5
94
102
{ACAD_REACTORS
330
C
102
}
330
C
100
AcDbDictionary
281
     1
  3
Model
350
AE5
  3
レイアウト1
350
AE6
  0
DICTIONARY
  5
A98
102
{ACAD_REACTORS
330
C
102
}
330
C
100
AcDbDictionary
281
     1
  3
ByBlock
350
AA1
  3
ByLayer
350
A99
  3
Global
350
AA9
  0
DICTIONARY
  5
ADF
102
{ACAD_REACTORS
330
C
102
}
330
C
100
AcDbDictionary
281
     1
  3
Standard
350
AE0
  0
DICTIONARY
  5
1B
102
{ACAD_REACTORS
330
C
102
}
330
C
100
AcDbDictionary
281
     1
  3
STANDARD
350
1C
  0
DICTIONARY
  5
95
102
{ACAD_REACTORS
330
C
102
}
330
C
100
AcDbDictionary
281
     1
  0
ACDBDICTIONARYWDFLT
  5
A96
102
{ACAD_REACTORS
330
C
102
}
330
C
100
AcDbDictionary
281
     1
  3
Normal
350
A97
100
AcDbDictionaryWithDefault
340
A97
  0
DICTIONARY
  5
ACD
102
{ACAD_REACTORS
330
C
102
}
330
C
100
AcDbDictionary
281
     1
  3
A0
350
ACE
  3
A1
350
ACF
  3
A2
350
AD0
  3
A3
350
AD1
  3
A4
350
AD2
  3
A5
350
AD3
  3
A6
350
AD4
  3
A7
350
AD5
  3
A8
350
AD6
  3
A9
350
AD7
  3
B0
350
AD8
  3
B1
350
AD9
  3
B2
350
ADA
  3
B3
350
ADB
  3
B4
350
ADC
  3
B5
350
ADD
  3
B6
350
ADE
  0
DICTIONARY
  5
AE1
102
{ACAD_REACTORS
330
C
102
}
330
C
100
AcDbDictionary
281
     1
  3
Imperial24
350
AE2
  0
DICTIONARY
  5
ACB
102
{ACAD_REACTORS
330
C
102
}
330
C
100
AcDbDictionary
281
     1
  3
Standard
350
ACC
  0
DICTIONARY
  5
AB1
102
{ACAD_REACTORS
330
C
102
}
330
C
100
AcDbDictionary
281
     1
  3
2dWireframe
350
AB7
  3
Basic
350
AB6
  3
Brighten
350
ABD
  3
ColorChange
350
AC1
  3
Conceptual
350
ABA
  3
Dim
350
ABC
  3
EdgeColorOff
350
AC9
  3
Facepattern
350
AC0
  3
Flat
350
AB2
  3
FlatWithEdges
350
AB3
  3
Gouraud
350
AB4
  3
GouraudWithEdges
350
AB5
  3
Hidden
350
AB9
  3
JitterOff
350
AC7
  3
Linepattern
350
ABF
  3
OverhangOff
350
AC8
  3
Realistic
350
ABB
  3
Shaded
350
AC6
  3
Shaded with edges
350
AC5
  3
Shades of Gray
350
AC2
  3
Sketchy
350
AC3
  3
Thicken
350
ABE
  3
Wireframe
350
AB8
  3
X-Ray
350
AC4
  0
XRECORD
  5
B05
102
{ACAD_REACTORS
330
C
102
}
330
C
100
AcDbXrecord
280
     1
 90
        1
330
ACC
  0
DICTIONARY
  5
AF8
102
{ACAD_REACTORS
330
C
102
}
330
C
100
AcDbDictionary
281
     1
  3
CANNOSCALE
350
AFD
  3
CMLEADERSTYLE
350
AFA
  3
CTABLESTYLE
350
AF9
  3
CVIEWDETAILSTYLE
350
AFB
  3
CVIEWSECTIONSTYLE
350
AFC
  3
DIMASSOC
350
B00
  3
INDEXCTL
350
AFF
  3
SORTENTS
350
AFE
  3
XCLIPFRAME
350
B01
  0
DICTIONARY
  5
3D
102
{ACAD_REACTORS
330
C
102
}
330
C
100
AcDbDictionary
281
     1
  0
XRECORD
  5
B06
102
{ACAD_REACTORS
330
C
102
}
330
C
100
AcDbXrecord
280
     1
  1
DWGPROPS COOKIE
  2

  3

  4

  6

  7

  8
Yoshitsune
  9

300
=
301
=
302
=
303
=
304
=
305
=
306
=
307
=
308
=
309
=
 40
0.0091136226851852
 41
2454168.695481227
 42
2457192.700668473
  1

 90
        0
  0
XRECORD
  5
AE9
102
{ACAD_REACTORS
330
AE8
102
}
330
AE8
100
AcDbXrecord
280
     1
290
     1
  0
XRECORD
  5
AEB
102
{ACAD_REACTORS
330
AEA
102
}
330
AEA
100
AcDbXrecord
280
     1
290
     1
  0
XRECORD
  5
AED
102
{ACAD_REACTORS
330
AEC
102
}
330
AEC
100
AcDbXrecord
280
     1
290
     1
  0
XRECORD
  5
AEF
102
{ACAD_REACTORS
330
AEE
102
}
330
AEE
100
AcDbXrecord
280
     1
290
     1
  0
XRECORD
  5
AF1
102
{ACAD_REACTORS
330
AF0
102
}
330
AF0
100
AcDbXrecord
280
     1
290
     1
  0
XRECORD
  5
AF3
102
{ACAD_REACTORS
330
AF2
102
}
330
AF2
100
AcDbXrecord
280
     1
290
     1
  0
XRECORD
  5
AF5
102
{ACAD_REACTORS
330
AF4
102
}
330
AF4
100
AcDbXrecord
280
     1
290
     1
  0
XRECORD
  5
AF7
102
{ACAD_REACTORS
330
AF6
102
}
330
AF6
100
AcDbXrecord
280
     1
290
     1
  0
XRECORD
  5
A92
102
{ACAD_REACTORS
330
A91
102
}
330
A91
100
AcDbXrecord
280
     1
340
18
  0
XRECORD
  5
A90
102
{ACAD_REACTORS
330
A8F
102
}
330
A8F
100
AcDbXrecord
280
     1
340
15
  0
ACDBDETAILVIEWSTYLE
  5
AE4
102
{ACAD_XDICTIONARY
360
B3E
102
}
102
{ACAD_REACTORS
330
AE3
102
}
330
AE3
100
AcDbModelDocViewStyle
 70
     0
  3
Imperial24
290
     0
100
AcDbDetailViewStyle
 70
     0
 71
     0
 90
        3
 71
     1
340
F
 40
0.24
340
0
 40
0.24
300

 40
0.36
280
     3
 71
     2
340
14
 90
       25
 71
     3
340
F
 40
0.24
 90
        1
 40
0.75
 90
        1
300
%<\AcVar ViewType \f "%tc1">% %<\AcVar ViewDetailId>%\PSCALE %<\AcVar ViewScale \f "%sn">%
 71
     4
340
14
 90
       25
340
14
 90
       25
280
     0
  0
LAYOUT
  5
AE5
102
{ACAD_XDICTIONARY
360
B40
102
}
102
{ACAD_REACTORS
330
94
102
}
330
94
100
AcDbPlotSettings
  1

  2
Canon LBP9100C
  4

  6

 40
0.0
 41
0.0
 42
0.0
 43
0.0
 44
0.0
 45
0.0
 46
0.0
 47
0.0
 48
0.0
 49
0.0
140
0.0
141
0.0
142
1.0
143
1.0
 70
  1712
 72
     0
 73
     0
 74
     0
  7

 75
     0
147
1.0
148
0.0
149
0.0
100
AcDbLayout
  1
Model
 70
     1
 71
     0
 10
0.0
 20
0.0
 11
12.0
 21
9.0
 12
0.0
 22
0.0
 32
0.0
 14
0.0
 24
0.0
 34
0.0
 15
0.0
 25
0.0
 35
0.0
146
0.0
 13
0.0
 23
0.0
 33
0.0
 16
1.0
 26
0.0
 36
0.0
 17
0.0
 27
1.0
 37
0.0
 76
     0
330
18
331
A8E
  0
LAYOUT
  5
AE6
102
{ACAD_XDICTIONARY
360
B42
102
}
102
{ACAD_REACTORS
330
94
102
}
330
94
100
AcDbPlotSettings
  1

  2
Canon LBP9100C
  4

  6

 40
0.0
 41
0.0
 42
0.0
 43
0.0
 44
0.0
 45
0.0
 46
0.0
 47
0.0
 48
0.0
 49
0.0
140
0.0
141
0.0
142
1.0
143
1.0
 70
   688
 72
     0
 73
     0
 74
     5
  7

 75
    16
147
1.0
148
0.0
149
0.0
100
AcDbLayout
  1
レイアウト1
 70
     1
 71
     1
 10
0.0
 20
0.0
 11
420.0
 21
297.0
 12
0.0
 22
0.0
 32
0.0
 14
1.000000000000000E+20
 24
1.000000000000000E+20
 34
1.000000000000000E+20
 15
-1.000000000000000E+20
 25
-1.000000000000000E+20
 35
-1.000000000000000E+20
146
0.0
 13
0.0
 23
0.0
 33
0.0
 16
1.0
 26
0.0
 36
0.0
 17
0.0
 27
1.0
 37
0.0
 76
     0
330
15
  0
MATERIAL
  5
AA1
102
{ACAD_XDICTIONARY
360
AA2
102
}
102
{ACAD_REACTORS
330
A98
102
}
330
A98
100
AcDbMaterial
  1
ByBlock
 72
     0
 43
0.0208333333333333
 43
0.0
 43
0.0
 43
0.0
 43
0.0
 43
0.0208333333333333
 43
0.0
 43
0.0
 43
0.0
 43
0.0
 43
1.0
 43
0.0
 43
0.0
 43
0.0
 43
0.0
 43
1.0
 77
     0
 47
0.0208333333333333
 47
0.0
 47
0.0
 47
0.0
 47
0.0
 47
0.0208333333333333
 47
0.0
 47
0.0
 47
0.0
 47
0.0
 47
1.0
 47
0.0
 47
0.0
 47
0.0
 47
0.0
 47
1.0
171
     0
 49
0.0208333333333333
 49
0.0
 49
0.0
 49
0.0
 49
0.0
 49
0.0208333333333333
 49
0.0
 49
0.0
 49
0.0
 49
0.0
 49
1.0
 49
0.0
 49
0.0
 49
0.0
 49
0.0
 49
1.0
175
     0
142
0.0208333333333333
142
0.0
142
0.0
142
0.0
142
0.0
142
0.0208333333333333
142
0.0
142
0.0
142
0.0
142
0.0
142
1.0
142
0.0
142
0.0
142
0.0
142
0.0
142
1.0
179
     0
144
0.0208333333333333
144
0.0
144
0.0
144
0.0
144
0.0
144
0.0208333333333333
144
0.0
144
0.0
144
0.0
144
0.0
144
1.0
144
0.0
144
0.0
144
0.0
144
0.0
144
1.0
147
0.0208333333333333
147
0.0
147
0.0
147
0.0
147
0.0
147
0.0208333333333333
147
0.0
147
0.0
147
0.0
147
0.0
147
1.0
147
0.0
147
0.0
147
0.0
147
0.0
147
1.0
  0
MATERIAL
  5
A99
102
{ACAD_XDICTIONARY
360
A9A
102
}
102
{ACAD_REACTORS
330
A98
102
}
330
A98
100
AcDbMaterial
  1
ByLayer
 72
     0
 43
0.0208333333333333
 43
0.0
 43
0.0
 43
0.0
 43
0.0
 43
0.0208333333333333
 43
0.0
 43
0.0
 43
0.0
 43
0.0
 43
1.0
 43
0.0
 43
0.0
 43
0.0
 43
0.0
 43
1.0
 77
     0
 47
0.0208333333333333
 47
0.0
 47
0.0
 47
0.0
 47
0.0
 47
0.0208333333333333
 47
0.0
 47
0.0
 47
0.0
 47
0.0
 47
1.0
 47
0.0
 47
0.0
 47
0.0
 47
0.0
 47
1.0
171
     0
 49
0.0208333333333333
 49
0.0
 49
0.0
 49
0.0
 49
0.0
 49
0.0208333333333333
 49
0.0
 49
0.0
 49
0.0
 49
0.0
 49
1.0
 49
0.0
 49
0.0
 49
0.0
 49
0.0
 49
1.0
175
     0
142
0.0208333333333333
142
0.0
142
0.0
142
0.0
142
0.0
142
0.0208333333333333
142
0.0
142
0.0
142
0.0
142
0.0
142
1.0
142
0.0
142
0.0
142
0.0
142
0.0
142
1.0
179
     0
144
0.0208333333333333
144
0.0
144
0.0
144
0.0
144
0.0
144
0.0208333333333333
144
0.0
144
0.0
144
0.0
144
0.0
144
1.0
144
0.0
144
0.0
144
0.0
144
0.0
144
1.0
147
0.0208333333333333
147
0.0
147
0.0
147
0.0
147
0.0
147
0.0208333333333333
147
0.0
147
0.0
147
0.0
147
0.0
147
1.0
147
0.0
147
0.0
147
0.0
147
0.0
147
1.0
  0
MATERIAL
  5
AA9
102
{ACAD_XDICTIONARY
360
AAA
102
}
102
{ACAD_REACTORS
330
A98
102
}
330
A98
100
AcDbMaterial
  1
Global
 72
     0
 43
0.0208333333333333
 43
0.0
 43
0.0
 43
0.0
 43
0.0
 43
0.0208333333333333
 43
0.0
 43
0.0
 43
0.0
 43
0.0
 43
1.0
 43
0.0
 43
0.0
 43
0.0
 43
0.0
 43
1.0
 77
     0
 47
0.0208333333333333
 47
0.0
 47
0.0
 47
0.0
 47
0.0
 47
0.0208333333333333
 47
0.0
 47
0.0
 47
0.0
 47
0.0
 47
1.0
 47
0.0
 47
0.0
 47
0.0
 47
0.0
 47
1.0
171
     0
 49
0.0208333333333333
 49
0.0
 49
0.0
 49
0.0
 49
0.0
 49
0.0208333333333333
 49
0.0
 49
0.0
 49
0.0
 49
0.0
 49
1.0
 49
0.0
 49
0.0
 49
0.0
 49
0.0
 49
1.0
175
     0
142
0.0208333333333333
142
0.0
142
0.0
142
0.0
142
0.0
142
0.0208333333333333
142
0.0
142
0.0
142
0.0
142
0.0
142
1.0
142
0.0
142
0.0
142
0.0
142
0.0
142
1.0
179
     0
144
0.0208333333333333
144
0.0
144
0.0
144
0.0
144
0.0
144
0.0208333333333333
144
0.0
144
0.0
144
0.0
144
0.0
144
1.0
144
0.0
144
0.0
144
0.0
144
0.0
144
1.0
147
0.0208333333333333
147
0.0
147
0.0
147
0.0
147
0.0
147
0.0208333333333333
147
0.0
147
0.0
147
0.0
147
0.0
147
1.0
147
0.0
147
0.0
147
0.0
147
0.0
147
1.0
  0
MLEADERSTYLE
  5
AE0
102
{ACAD_REACTORS
330
ADF
102
}
330
ADF
100
AcDbMLeaderStyle
170
     2
171
     1
172
     0
 90
        2
 40
0.0
 41
0.0
173
     1
 91
-1056964608
340
12
 92
       -2
290
     1
 42
0.09
291
     1
 43
0.36
  3
Standard
 44
0.18
300

342
F
174
     1
178
     6
175
     1
176
     0
 93
-1056964608
 45
0.18
292
     0
297
     0
 46
0.18
 94
-1056964608
 47
1.0
 49
1.0
140
1.0
293
     1
141
0.0
294
     1
177
     0
142
1.0
295
     0
296
     0
143
0.125
1001
ACAD_MLEADERVER
1070
     2
  0
MLINESTYLE
  5
1C
102
{ACAD_REACTORS
330
1B
102
}
330
1B
100
AcDbMlineStyle
  2
STANDARD
 70
     0
  3

 62
   256
 51
90.0
 52
90.0
 71
     2
 49
0.5
 62
   256
  6
BYLAYER
 49
-0.5
 62
   256
  6
BYLAYER
  0
ACDBPLACEHOLDER
  5
A97
102
{ACAD_REACTORS
330
A96
102
}
330
A96
  0
SCALE
  5
ACE
102
{ACAD_REACTORS
330
ACD
102
}
330
ACD
100
AcDbScale
 70
     0
300
1:1
140
1.0
141
1.0
290
     1
  0
SCALE
  5
ACF
102
{ACAD_REACTORS
330
ACD
102
}
330
ACD
100
AcDbScale
 70
     0
300
1/128" = 1'-0"
140
0.0078125
141
12.0
290
     0
  0
SCALE
  5
AD0
102
{ACAD_REACTORS
330
ACD
102
}
330
ACD
100
AcDbScale
 70
     0
300
1/64" = 1'-0"
140
0.015625
141
12.0
290
     0
  0
SCALE
  5
AD1
102
{ACAD_REACTORS
330
ACD
102
}
330
ACD
100
AcDbScale
 70
     0
300
1/32" = 1'-0"
140
0.03125
141
12.0
290
     0
  0
SCALE
  5
AD2
102
{ACAD_REACTORS
330
ACD
102
}
330
ACD
100
AcDbScale
 70
     0
300
1/16" = 1'-0"
140
0.0625
141
12.0
290
     0
  0
SCALE
  5
AD3
102
{ACAD_REACTORS
330
ACD
102
}
330
ACD
100
AcDbScale
 70
     0
300
3/32" = 1'-0"
140
0.09375
141
12.0
290
     0
  0
SCALE
  5
AD4
102
{ACAD_REACTORS
330
ACD
102
}
330
ACD
100
AcDbScale
 70
     0
300
1/8" = 1'-0"
140
0.125
141
12.0
290
     0
  0
SCALE
  5
AD5
102
{ACAD_REACTORS
330
ACD
102
}
330
ACD
100
AcDbScale
 70
     0
300
3/16" = 1'-0"
140
0.1875
141
12.0
290
     0
  0
SCALE
  5
AD6
102
{ACAD_REACTORS
330
ACD
102
}
330
ACD
100
AcDbScale
 70
     0
300
1/4" = 1'-0"
140
0.25
141
12.0
290
     0
  0
SCALE
  5
AD7
102
{ACAD_REACTORS
330
ACD
102
}
330
ACD
100
AcDbScale
 70
     0
300
3/8" = 1'-0"
140
0.375
141
12.0
290
     0
  0
SCALE
  5
AD8
102
{ACAD_REACTORS
330
ACD
102
}
330
ACD
100
AcDbScale
 70
     0
300
1/2" = 1'-0"
140
0.5
141
12.0
290
     0
  0
SCALE
  5
AD9
102
{ACAD_REACTORS
330
ACD
102
}
330
ACD
100
AcDbScale
 70
     0
300
3/4" = 1'-0"
140
0.75
141
12.0
290
     0
  0
SCALE
  5
ADA
102
{ACAD_REACTORS
330
ACD
102
}
330
ACD
100
AcDbScale
 70
     0
300
1" = 1'-0"
140
1.0
141
12.0
290
     0
  0
SCALE
  5
ADB
102
{ACAD_REACTORS
330
ACD
102
}
330
ACD
100
AcDbScale
 70
     0
300
1-1/2" = 1'-0"
140
1.5
141
12.0
290
     0
  0
SCALE
  5
ADC
102
{ACAD_REACTORS
330
ACD
102
}
330
ACD
100
AcDbScale
 70
     0
300
3" = 1'-0"
140
3.0
141
12.0
290
     0
  0
SCALE
  5
ADD
102
{ACAD_REACTORS
330
ACD
102
}
330
ACD
100
AcDbScale
 70
     0
300
6" = 1'-0"
140
6.0
141
12.0
290
     0
  0
SCALE
  5
ADE
102
{ACAD_REACTORS
330
ACD
102
}
330
ACD
100
AcDbScale
 70
     0
300
1'-0" = 1'-0"
140
12.0
141
12.0
290
     0
  0
ACDBSECTIONVIEWSTYLE
  5
AE2
102
{ACAD_XDICTIONARY
360
B3C
102
}
102
{ACAD_REACTORS
330
AE1
102
}
330
AE1
100
AcDbModelDocViewStyle
 70
     0
  3
Imperial24
290
     0
100
AcDbSectionViewStyle
 70
     0
 71
     0
 90
       78
 71
     1
340
F
 40
0.24
340
0
340
0
 40
0.24
300
I, O, Q, S, X, Z
 40
0.48
 90
        3
 40
0.18
 90
        1
 71
     2
340
14
 90
       25
340
14
 90
       50
 40
0.24
 40
0.0
 40
0.24
 71
     3
340
F
 40
0.24
 90
        1
 40
0.75
 90
        1
300
%<\AcVar ViewType \f "%tc1">% %<\AcVar ViewSectionStartId>%-%<\AcVar ViewSectionEndId>%\PSCALE %<\AcVar ViewScale \f "%sn">%
 71
     4
300
ANSI31
 40
1.0
 90
        0
290
     0
290
     0
 90
        6
 40
0.0
 40
1.570796326794896
 40
0.2617993877991494
 40
1.308996938995747
 40
-0.2617993877991494
 40
1.832595714594046
  0
TABLESTYLE
  5
ACC
102
{ACAD_XDICTIONARY
360
B03
102
}
102
{ACAD_REACTORS
330
ACB
102
}
330
ACB
100
AcDbTableStyle
  3
Standard
 70
     0
 71
     0
 40
0.06
 41
0.06
280
     0
281
     0
  7
STANDARD
140
0.18
170
     2
 62
     0
 63
     7
283
     0
274
    -2
284
     1
 64
     0
275
    -2
285
     1
 65
     0
276
    -2
286
     1
 66
     0
277
    -2
287
     1
 67
     0
278
    -2
288
     1
 68
     0
279
    -2
289
     1
 69
     0
  7
STANDARD
140
0.25
170
     5
 62
     0
 63
     7
283
     0
274
    -2
284
     1
 64
     0
275
    -2
285
     1
 65
     0
276
    -2
286
     1
 66
     0
277
    -2
287
     1
 67
     0
278
    -2
288
     1
 68
     0
279
    -2
289
     1
 69
     0
  7
STANDARD
140
0.18
170
     5
 62
     0
 63
     7
283
     0
274
    -2
284
     1
 64
     0
275
    -2
285
     1
 65
     0
276
    -2
286
     1
 66
     0
277
    -2
287
     1
 67
     0
278
    -2
288
     1
 68
     0
279
    -2
289
     1
 69
     0
  0
VISUALSTYLE
  5
AB7
102
{ACAD_XDICTIONARY
360
B14
102
}
102
{ACAD_REACTORS
330
AB1
102
}
330
AB1
100
AcDbVisualStyle
  2
2dWireframe
 70
     4
 71
     0
 72
     2
 73
     0
 90
        0
 40
-0.6
 41
-30.0
 62
     5
 63
     7
 74
     1
 91
        4
 64
     7
 65
   257
 75
     1
175
     1
 42
1.0
 92
        0
 66
   257
 43
1.0
 76
     1
 77
     6
 78
     2
 67
     7
 79
     5
170
     0
171
     0
290
     0
174
     0
 93
        1
 44
0.0
173
     0
291
     0
 45
0.0
1001
ACAD
1000
AcDbSavedByObjectVersion
1070
     0
  0
VISUALSTYLE
  5
AB6
102
{ACAD_XDICTIONARY
360
B12
102
}
102
{ACAD_REACTORS
330
AB1
102
}
330
AB1
100
AcDbVisualStyle
  2
Basic
 70
     7
 71
     1
 72
     0
 73
     1
 90
        0
 40
-0.6
 41
-30.0
 62
     5
 63
     7
 74
     0
 91
        4
 64
     7
 65
   257
 75
     1
175
     1
 42
1.0
 92
        8
 66
     7
 43
1.0
 76
     1
 77
     6
 78
     2
 67
     7
 79
     5
170
     0
171
     0
290
     0
174
     0
 93
        1
 44
0.0
173
     0
291
     1
 45
0.0
1001
ACAD
1000
AcDbSavedByObjectVersion
1070
     0
  0
VISUALSTYLE
  5
ABD
102
{ACAD_XDICTIONARY
360
B20
102
}
102
{ACAD_REACTORS
330
AB1
102
}
330
AB1
100
AcDbVisualStyle
  2
Brighten
 70
    12
 71
     2
 72
     2
 73
     0
 90
        0
 40
-0.6
 41
-30.0
 62
     5
 63
     7
 74
     1
 91
        4
 64
     7
 65
   257
 75
     1
175
     1
 42
1.0
 92
        8
 66
     7
 43
1.0
 76
     1
 77
     6
 78
     2
 67
     7
 79
     5
170
     0
171
     0
290
     0
174
     0
 93
        1
 44
50.0
173
     0
291
     1
 45
0.0
1001
ACAD
1000
AcDbSavedByObjectVersion
1070
     0
  0
VISUALSTYLE
  5
AC1
102
{ACAD_XDICTIONARY
360
B28
102
}
102
{ACAD_REACTORS
330
AB1
102
}
330
AB1
100
AcDbVisualStyle
  2
ColorChange
 70
    16
 71
     2
 72
     2
 73
     3
 90
        0
 40
-0.6
 41
-30.0
 62
     5
 63
     8
 74
     1
 91
        4
 64
     7
 65
   257
 75
     1
175
     1
 42
1.0
 92
        8
 66
     8
 43
1.0
 76
     1
 77
     6
 78
     2
 67
     7
 79
     5
170
     0
171
     0
290
     0
174
     0
 93
        1
 44
0.0
173
     0
291
     1
 45
0.0
1001
ACAD
1000
AcDbSavedByObjectVersion
1070
     0
  0
VISUALSTYLE
  5
ABA
102
{ACAD_XDICTIONARY
360
B1A
102
}
102
{ACAD_REACTORS
330
AB1
102
}
330
AB1
100
AcDbVisualStyle
  2
Conceptual
 70
     9
 71
     3
 72
     2
 73
     0
 90
        0
 40
-0.6
 41
-30.0
 62
     5
 63
     7
 74
     2
 91
        2
 64
     7
 65
   257
 75
     1
175
     1
 42
179.0
 92
        8
 66
     7
 43
1.0
 76
     1
 77
     6
 78
     2
 67
     7
 79
     3
170
     0
171
     0
290
     0
174
     0
 93
        1
 44
0.0
173
     0
291
     0
 45
0.0
1001
ACAD
1000
AcDbSavedByObjectVersion
1070
     0
  0
VISUALSTYLE
  5
ABC
102
{ACAD_XDICTIONARY
360
B1E
102
}
102
{ACAD_REACTORS
330
AB1
102
}
330
AB1
100
AcDbVisualStyle
  2
Dim
 70
    11
 71
     2
 72
     2
 73
     0
 90
        0
 40
-0.6
 41
-30.0
 62
     5
 63
     7
 74
     1
 91
        4
 64
     7
 65
   257
 75
     1
175
     1
 42
1.0
 92
        8
 66
     7
 43
1.0
 76
     1
 77
     6
 78
     2
 67
     7
 79
     5
170
     0
171
     0
290
     0
174
     0
 93
        1
 44
-50.0
173
     0
291
     1
 45
0.0
1001
ACAD
1000
AcDbSavedByObjectVersion
1070
     0
  0
VISUALSTYLE
  5
AC9
102
{ACAD_XDICTIONARY
360
B38
102
}
102
{ACAD_REACTORS
330
AB1
102
}
330
AB1
100
AcDbVisualStyle
  2
EdgeColorOff
 70
    22
 71
     2
 72
     2
 73
     0
 90
        0
 40
-0.6
 41
-30.0
 62
     5
 63
     7
 74
     1
 91
        4
 64
     7
 65
   257
 75
     1
175
     1
 42
1.0
 92
        8
 66
     7
 43
1.0
 76
     1
 77
     6
 78
     2
 67
     7
 79
     5
170
     0
171
     0
290
     0
174
     0
 93
        1
 44
0.0
173
     0
291
     1
 45
0.0
1001
ACAD
1000
AcDbSavedByObjectVersion
1070
     0
  0
VISUALSTYLE
  5
AC0
102
{ACAD_XDICTIONARY
360
B26
102
}
102
{ACAD_REACTORS
330
AB1
102
}
330
AB1
100
AcDbVisualStyle
  2
Facepattern
 70
    15
 71
     2
 72
     2
 73
     0
 90
        0
 40
-0.6
 41
-30.0
 62
     5
 63
     7
 74
     1
 91
        4
 64
     7
 65
   257
 75
     1
175
     1
 42
1.0
 92
        8
 66
     7
 43
1.0
 76
     1
 77
     6
 78
     2
 67
     7
 79
     5
170
     0
171
     0
290
     0
174
     0
 93
        1
 44
0.0
173
     0
291
     1
 45
0.0
1001
ACAD
1000
AcDbSavedByObjectVersion
1070
     0
  0
VISUALSTYLE
  5
AB2
102
{ACAD_XDICTIONARY
360
B0A
102
}
102
{ACAD_REACTORS
330
AB1
102
}
330
AB1
100
AcDbVisualStyle
  2
Flat
 70
     0
 71
     2
 72
     1
 73
     1
 90
        2
 40
-0.6
 41
30.0
 62
     5
 63
     7
 74
     0
 91
        0
 64
     7
 65
   257
 75
     1
175
     1
 42
1.0
 92
        8
 66
     7
 43
1.0
 76
     1
 77
     6
 78
     2
 67
     7
 79
     5
170
     0
171
     0
290
     0
174
     0
 93
       13
 44
0.0
173
     0
291
     1
 45
0.0
1001
ACAD
1000
AcDbSavedByObjectVersion
1070
     0
  0
VISUALSTYLE
  5
AB3
102
{ACAD_XDICTIONARY
360
B0C
102
}
102
{ACAD_REACTORS
330
AB1
102
}
330
AB1
100
AcDbVisualStyle
  2
FlatWithEdges
 70
     1
 71
     2
 72
     1
 73
     1
 90
        2
 40
-0.6
 41
30.0
 62
     5
 63
     7
 74
     1
 91
        0
 64
     7
 65
   257
 75
     1
175
     1
 42
1.0
 92
        0
 66
   257
 43
1.0
 76
     1
 77
     6
 78
     2
 67
     7
 79
     5
170
     0
171
     0
290
     0
174
     0
 93
       13
 44
0.0
173
     0
291
     1
 45
0.0
1001
ACAD
1000
AcDbSavedByObjectVersion
1070
     0
  0
VISUALSTYLE
  5
AB4
102
{ACAD_XDICTIONARY
360
B0E
102
}
102
{ACAD_REACTORS
330
AB1
102
}
330
AB1
100
AcDbVisualStyle
  2
Gouraud
 70
     2
 71
     2
 72
     2
 73
     1
 90
        2
 40
-0.6
 41
30.0
 62
     5
 63
     7
 74
     0
 91
        0
 64
     7
 65
   257
 75
     1
175
     1
 42
1.0
 92
        0
 66
     7
 43
1.0
 76
     1
 77
     6
 78
     2
 67
     7
 79
     5
170
     0
171
     0
290
     0
174
     0
 93
       13
 44
0.0
173
     0
291
     1
 45
0.0
1001
ACAD
1000
AcDbSavedByObjectVersion
1070
     0
  0
VISUALSTYLE
  5
AB5
102
{ACAD_XDICTIONARY
360
B10
102
}
102
{ACAD_REACTORS
330
AB1
102
}
330
AB1
100
AcDbVisualStyle
  2
GouraudWithEdges
 70
     3
 71
     2
 72
     2
 73
     1
 90
        2
 40
-0.6
 41
30.0
 62
     5
 63
     7
 74
     1
 91
        0
 64
     7
 65
   257
 75
     1
175
     1
 42
1.0
 92
        0
 66
   257
 43
1.0
 76
     1
 77
     6
 78
     2
 67
     7
 79
     5
170
     0
171
     0
290
     0
174
     0
 93
       13
 44
0.0
173
     0
291
     1
 45
0.0
1001
ACAD
1000
AcDbSavedByObjectVersion
1070
     0
  0
VISUALSTYLE
  5
AB9
102
{ACAD_XDICTIONARY
360
B18
102
}
102
{ACAD_REACTORS
330
AB1
102
}
330
AB1
100
AcDbVisualStyle
  2
Hidden
 70
     6
 71
     1
 72
     2
 73
     2
 90
        0
 40
-0.6
 41
-30.0
 62
     5
 63
     7
 74
     2
 91
        2
 64
     7
 65
   257
 75
     2
175
     1
 42
40.0
 92
        0
 66
   257
 43
1.0
 76
     1
 77
     6
 78
     2
 67
     7
 79
     3
170
     0
171
     0
290
     0
174
     0
 93
        1
 44
0.0
173
     0
291
     0
 45
0.0
1001
ACAD
1000
AcDbSavedByObjectVersion
1070
     0
  0
VISUALSTYLE
  5
AC7
102
{ACAD_XDICTIONARY
360
B34
102
}
102
{ACAD_REACTORS
330
AB1
102
}
330
AB1
100
AcDbVisualStyle
  2
JitterOff
 70
    20
 71
     2
 72
     2
 73
     0
 90
        0
 40
-0.6
 41
-30.0
 62
     5
 63
     7
 74
     1
 91
        4
 64
     7
 65
   257
 75
     1
175
     1
 42
1.0
 92
       10
 66
     7
 43
1.0
 76
     1
 77
     6
 78
     2
 67
     7
 79
     5
170
     0
171
     0
290
     0
174
     0
 93
        1
 44
0.0
173
     0
291
     1
 45
0.0
1001
ACAD
1000
AcDbSavedByObjectVersion
1070
     0
  0
VISUALSTYLE
  5
ABF
102
{ACAD_XDICTIONARY
360
B24
102
}
102
{ACAD_REACTORS
330
AB1
102
}
330
AB1
100
AcDbVisualStyle
  2
Linepattern
 70
    14
 71
     2
 72
     2
 73
     0
 90
        0
 40
-0.6
 41
-30.0
 62
     5
 63
     7
 74
     1
 91
        4
 64
     7
 65
   257
 75
     7
175
     7
 42
1.0
 92
        8
 66
     7
 43
1.0
 76
     1
 77
     6
 78
     2
 67
     7
 79
     5
170
     0
171
     0
290
     0
174
     0
 93
        1
 44
0.0
173
     0
291
     1
 45
0.0
1001
ACAD
1000
AcDbSavedByObjectVersion
1070
     0
  0
VISUALSTYLE
  5
AC8
102
{ACAD_XDICTIONARY
360
B36
102
}
102
{ACAD_REACTORS
330
AB1
102
}
330
AB1
100
AcDbVisualStyle
  2
OverhangOff
 70
    21
 71
     2
 72
     2
 73
     0
 90
        0
 40
-0.6
 41
-30.0
 62
     5
 63
     7
 74
     1
 91
        4
 64
     7
 65
   257
 75
     1
175
     1
 42
1.0
 92
        9
 66
     7
 43
1.0
 76
     1
 77
     6
 78
     2
 67
     7
 79
     5
170
     0
171
     0
290
     0
174
     0
 93
        1
 44
0.0
173
     0
291
     1
 45
0.0
1001
ACAD
1000
AcDbSavedByObjectVersion
1070
     0
  0
VISUALSTYLE
  5
ABB
102
{ACAD_XDICTIONARY
360
B1C
102
}
102
{ACAD_REACTORS
330
AB1
102
}
330
AB1
100
AcDbVisualStyle
  2
Realistic
 70
     8
 71
     2
 72
     3
 73
     0
 90
        2
 40
-0.6
 41
30.0
 62
     5
 63
     7
 74
     0
 91
        0
 64
     7
 65
   257
 75
     1
175
     1
 42
1.0
 92
        8
 66
   257
 43
1.0
 76
     1
 77
     6
 78
     2
 67
     7
 79
     3
170
     0
171
     0
290
     0
174
     0
 93
       13
 44
0.0
173
     0
291
     0
 45
0.0
1001
ACAD
1000
AcDbSavedByObjectVersion
1070
     0
  0
VISUALSTYLE
  5
AC6
102
{ACAD_XDICTIONARY
360
B32
102
}
102
{ACAD_REACTORS
330
AB1
102
}
330
AB1
100
AcDbVisualStyle
  2
Shaded
 70
    27
 71
     2
 72
     2
 73
     1
 90
        2
 40
-0.6
 41
30.0
 62
     5
 63
     7
 74
     0
 91
        4
 64
     7
 65
   257
 75
     1
175
     1
 42
1.0
 92
        8
 66
   257
 43
1.0
 76
     1
 77
     6
 78
     2
 67
     8
 79
     3
170
     0
171
     0
290
     0
174
     0
 93
        5
 44
0.0
173
     0
291
     0
 45
0.0
1001
ACAD
1000
AcDbSavedByObjectVersion
1070
     0
  0
VISUALSTYLE
  5
AC5
102
{ACAD_XDICTIONARY
360
B30
102
}
102
{ACAD_REACTORS
330
AB1
102
}
330
AB1
100
AcDbVisualStyle
  2
Shaded with edges
 70
    26
 71
     2
 72
     2
 73
     1
 90
        2
 40
-0.6
 41
30.0
 62
     5
 63
     7
 74
     1
 91
       10
 64
     7
 65
   257
 75
     2
175
     1
 42
1.0
 92
        8
 66
   257
 43
1.0
 76
     1
 77
     6
 78
     2
 67
     7
 79
     3
170
     0
171
     0
290
     0
174
     0
 93
        5
 44
0.0
173
     0
291
     0
 45
0.0
1001
ACAD
1000
AcDbSavedByObjectVersion
1070
     0
  0
VISUALSTYLE
  5
AC2
102
{ACAD_XDICTIONARY
360
B2A
102
}
102
{ACAD_REACTORS
330
AB1
102
}
330
AB1
100
AcDbVisualStyle
  2
Shades of Gray
 70
    23
 71
     2
 72
     2
 73
     3
 90
        0
 40
-0.6
 41
-30.0
 62
     5
 63
     7
 74
     2
 91
        2
 64
     7
 65
     7
 75
     1
175
     1
 42
40.0
 92
        8
 66
     7
 43
1.0
 76
     1
 77
     6
 78
     2
 67
     7
 79
     3
170
     0
171
     0
290
     0
174
     0
 93
        1
 44
0.0
173
     0
291
     0
 45
0.0
1001
ACAD
1000
AcDbSavedByObjectVersion
1070
     0
  0
VISUALSTYLE
  5
AC3
102
{ACAD_XDICTIONARY
360
B2C
102
}
102
{ACAD_REACTORS
330
AB1
102
}
330
AB1
100
AcDbVisualStyle
  2
Sketchy
 70
    24
 71
     1
 72
     2
 73
     2
 90
        0
 40
-0.6
 41
-30.0
 62
     5
 63
     7
 74
     2
 91
        2
 64
     7
 65
     7
 75
     1
175
     1
 42
40.0
 92
       11
 66
     7
 43
1.0
 76
     1
 77
     6
 78
     2
 67
     7
 79
     6
170
     0
171
     0
290
     0
174
     0
 93
        1
 44
0.0
173
     0
291
     0
 45
0.0
1001
ACAD
1000
AcDbSavedByObjectVersion
1070
     0
  0
VISUALSTYLE
  5
ABE
102
{ACAD_XDICTIONARY
360
B22
102
}
102
{ACAD_REACTORS
330
AB1
102
}
330
AB1
100
AcDbVisualStyle
  2
Thicken
 70
    13
 71
     2
 72
     2
 73
     0
 90
        0
 40
-0.6
 41
-30.0
 62
     5
 63
     7
 74
     1
 91
        4
 64
     7
 65
   257
 75
     1
175
     1
 42
1.0
 92
       12
 66
     7
 43
1.0
 76
     1
 77
     6
 78
     2
 67
     7
 79
     5
170
     0
171
     0
290
     0
174
     0
 93
        1
 44
0.0
173
     0
291
     1
 45
0.0
1001
ACAD
1000
AcDbSavedByObjectVersion
1070
     0
  0
VISUALSTYLE
  5
AB8
102
{ACAD_XDICTIONARY
360
B16
102
}
102
{ACAD_REACTORS
330
AB1
102
}
330
AB1
100
AcDbVisualStyle
  2
Wireframe
 70
     5
 71
     0
 72
     2
 73
     0
 90
        0
 40
-0.6
 41
-30.0
 62
     5
 63
     7
 74
     1
 91
        4
 64
     7
 65
   257
 75
     1
175
     1
 42
1.0
 92
        0
 66
   257
 43
1.0
 76
     1
 77
     6
 78
     2
 67
     7
 79
     3
170
     0
171
     0
290
     0
174
     0
 93
        1
 44
0.0
173
     0
291
     0
 45
0.0
1001
ACAD
1000
AcDbSavedByObjectVersion
1070
     0
  0
VISUALSTYLE
  5
AC4
102
{ACAD_XDICTIONARY
360
B2E
102
}
102
{ACAD_REACTORS
330
AB1
102
}
330
AB1
100
AcDbVisualStyle
  2
X-Ray
 70
    25
 71
     2
 72
     2
 73
     1
 90
        1
 40
0.5
 41
-30.0
 62
     5
 63
     7
 74
     1
 91
        0
 64
     7
 65
   257
 75
     1
175
     1
 42
1.0
 92
        8
 66
     7
 43
1.0
 76
     1
 77
     6
 78
     2
 67
     7
 79
     3
170
     0
171
     0
290
     0
174
     0
 93
       13
 44
0.0
173
     0
291
     0
 45
0.0
1001
ACAD
1000
AcDbSavedByObjectVersion
1070
     0
  0
DICTIONARYVAR
  5
AFD
102
{ACAD_REACTORS
330
AF8
102
}
330
AF8
100
DictionaryVariables
280
     0
  1
1:1
  0
DICTIONARYVAR
  5
AFA
102
{ACAD_REACTORS
330
AF8
102
}
330
AF8
100
DictionaryVariables
280
     0
  1
STANDARD
  0
DICTIONARYVAR
  5
AF9
102
{ACAD_REACTORS
330
AF8
102
}
330
AF8
100
DictionaryVariables
280
     0
  1
STANDARD
  0
DICTIONARYVAR
  5
AFB
102
{ACAD_REACTORS
330
AF8
102
}
330
AF8
100
DictionaryVariables
280
     0
  1
Imperial24
  0
DICTIONARYVAR
  5
AFC
102
{ACAD_REACTORS
330
AF8
102
}
330
AF8
100
DictionaryVariables
280
     0
  1
Imperial24
  0
DICTIONARYVAR
  5
B00
102
{ACAD_REACTORS
330
AF8
102
}
330
AF8
100
DictionaryVariables
280
     0
  1
1
  0
DICTIONARYVAR
  5
AFF
102
{ACAD_REACTORS
330
AF8
102
}
330
AF8
100
DictionaryVariables
280
     0
  1
0
  0
DICTIONARYVAR
  5
AFE
102
{ACAD_REACTORS
330
AF8
102
}
330
AF8
100
DictionaryVariables
280
     0
  1
127
  0
DICTIONARYVAR
  5
B01
102
{ACAD_REACTORS
330
AF8
102
}
330
AF8
100
DictionaryVariables
280
     0
  1
2
  0
DICTIONARY
  5
B3E
330
AE4
100
AcDbDictionary
280
     1
281
     1
  3
ACAD_XREC_ROUNDTRIP
360
B3F
  0
DICTIONARY
  5
B40
330
AE5
100
AcDbDictionary
280
     1
281
     1
  3
ACAD_XREC_ROUNDTRIP
360
B41
  0
DICTIONARY
  5
B42
330
AE6
100
AcDbDictionary
280
     1
281
     1
  3
ACAD_XREC_ROUNDTRIP
360
B43
  0
DICTIONARY
  5
AA2
330
AA1
100
AcDbDictionary
280
     1
281
     1
  3
ACAD_XREC_ROUNDTRIP
360
B08
  3
BUMPTILE
360
AA4
  3
DIFFUSETILE
360
AA3
  3
OPACITYTILE
360
AA7
  3
REFLECTIONTILE
360
AA6
  3
REFRACTIONTILE
360
AA8
  3
SPECULARTILE
360
AA5
  0
DICTIONARY
  5
A9A
330
A99
100
AcDbDictionary
280
     1
281
     1
  3
ACAD_XREC_ROUNDTRIP
360
B07
  3
BUMPTILE
360
A9C
  3
DIFFUSETILE
360
A9B
  3
OPACITYTILE
360
A9F
  3
REFLECTIONTILE
360
A9E
  3
REFRACTIONTILE
360
AA0
  3
SPECULARTILE
360
A9D
  0
DICTIONARY
  5
AAA
330
AA9
100
AcDbDictionary
280
     1
281
     1
  3
ACAD_XREC_ROUNDTRIP
360
B09
  3
BUMPTILE
360
AAC
  3
DIFFUSETILE
360
AAB
  3
OPACITYTILE
360
AAF
  3
REFLECTIONTILE
360
AAE
  3
REFRACTIONTILE
360
AB0
  3
SPECULARTILE
360
AAD
  0
DICTIONARY
  5
B3C
330
AE2
100
AcDbDictionary
280
     1
281
     1
  3
ACAD_XREC_ROUNDTRIP
360
B3D
  0
DICTIONARY
  5
B03
330
ACC
100
AcDbDictionary
280
     1
281
     1
  3
ACAD_ROUNDTRIP_2008_TABLESTYLE_CELLSTYLEMAP
360
B04
  3
ACAD_XREC_ROUNDTRIP
360
B3A
  0
DICTIONARY
  5
B14
330
AB7
100
AcDbDictionary
280
     1
281
     1
  3
ACAD_XREC_ROUNDTRIP
360
B15
  0
DICTIONARY
  5
B12
330
AB6
100
AcDbDictionary
280
     1
281
     1
  3
ACAD_XREC_ROUNDTRIP
360
B13
  0
DICTIONARY
  5
B20
330
ABD
100
AcDbDictionary
280
     1
281
     1
  3
ACAD_XREC_ROUNDTRIP
360
B21
  0
DICTIONARY
  5
B28
330
AC1
100
AcDbDictionary
280
     1
281
     1
  3
ACAD_XREC_ROUNDTRIP
360
B29
  0
DICTIONARY
  5
B1A
330
ABA
100
AcDbDictionary
280
     1
281
     1
  3
ACAD_XREC_ROUNDTRIP
360
B1B
  0
DICTIONARY
  5
B1E
330
ABC
100
AcDbDictionary
280
     1
281
     1
  3
ACAD_XREC_ROUNDTRIP
360
B1F
  0
DICTIONARY
  5
B38
330
AC9
100
AcDbDictionary
280
     1
281
     1
  3
ACAD_XREC_ROUNDTRIP
360
B39
  0
DICTIONARY
  5
B26
330
AC0
100
AcDbDictionary
280
     1
281
     1
  3
ACAD_XREC_ROUNDTRIP
360
B27
  0
DICTIONARY
  5
B0A
330
AB2
100
AcDbDictionary
280
     1
281
     1
  3
ACAD_XREC_ROUNDTRIP
360
B0B
  0
DICTIONARY
  5
B0C
330
AB3
100
AcDbDictionary
280
     1
281
     1
  3
ACAD_XREC_ROUNDTRIP
360
B0D
  0
DICTIONARY
  5
B0E
330
AB4
100
AcDbDictionary
280
     1
281
     1
  3
ACAD_XREC_ROUNDTRIP
360
B0F
  0
DICTIONARY
  5
B10
330
AB5
100
AcDbDictionary
280
     1
281
     1
  3
ACAD_XREC_ROUNDTRIP
360
B11
  0
DICTIONARY
  5
B18
330
AB9
100
AcDbDictionary
280
     1
281
     1
  3
ACAD_XREC_ROUNDTRIP
360
B19
  0
DICTIONARY
  5
B34
330
AC7
100
AcDbDictionary
280
     1
281
     1
  3
ACAD_XREC_ROUNDTRIP
360
B35
  0
DICTIONARY
  5
B24
330
ABF
100
AcDbDictionary
280
     1
281
     1
  3
ACAD_XREC_ROUNDTRIP
360
B25
  0
DICTIONARY
  5
B36
330
AC8
100
AcDbDictionary
280
     1
281
     1
  3
ACAD_XREC_ROUNDTRIP
360
B37
  0
DICTIONARY
  5
B1C
330
ABB
100
AcDbDictionary
280
     1
281
     1
  3
ACAD_XREC_ROUNDTRIP
360
B1D
  0
DICTIONARY
  5
B32
330
AC6
100
AcDbDictionary
280
     1
281
     1
  3
ACAD_XREC_ROUNDTRIP
360
B33
  0
DICTIONARY
  5
B30
330
AC5
100
AcDbDictionary
280
     1
281
     1
  3
ACAD_XREC_ROUNDTRIP
360
B31
  0
DICTIONARY
  5
B2A
330
AC2
100
AcDbDictionary
280
     1
281
     1
  3
ACAD_XREC_ROUNDTRIP
360
B2B
  0
DICTIONARY
  5
B2C
330
AC3
100
AcDbDictionary
280
     1
281
     1
  3
ACAD_XREC_ROUNDTRIP
360
B2D
  0
DICTIONARY
  5
B22
330
ABE
100
AcDbDictionary
280
     1
281
     1
  3
ACAD_XREC_ROUNDTRIP
360
B23
  0
DICTIONARY
  5
B16
330
AB8
100
AcDbDictionary
280
     1
281
     1
  3
ACAD_XREC_ROUNDTRIP
360
B17
  0
DICTIONARY
  5
B2E
330
AC4
100
AcDbDictionary
280
     1
281
     1
  3
ACAD_XREC_ROUNDTRIP
360
B2F
  0
XRECORD
  5
B3F
102
{ACAD_REACTORS
330
B3E
102
}
330
B3E
100
AcDbXrecord
280
     1
102
DISPLAYNAME
  1
Imperial24
102
FLAGS
 90
        0
  0
XRECORD
  5
B41
102
{ACAD_REACTORS
330
B40
102
}
330
B40
100
AcDbXrecord
280
     1
102
SHADEPLOT
 70
     0
102
SHADEPLOTRESLEVEL
 70
     2
102
SHADEPLOTCUSTOMDPI
 70
   300
  0
XRECORD
  5
B43
102
{ACAD_REACTORS
330
B42
102
}
330
B42
100
AcDbXrecord
280
     1
102
SHADEPLOT
 70
     0
102
SHADEPLOTRESLEVEL
 70
     2
102
SHADEPLOTCUSTOMDPI
 70
   300
  0
XRECORD
  5
B08
102
{ACAD_REACTORS
330
AA2
102
}
330
AA2
100
AcDbXrecord
280
     1
102
MATERIAL
148
0.0
149
0.0
149
0.0
 93
        0
 94
      127
282
     0
 72
     0
 77
     0
171
     0
175
     0
179
     0
273
     0
  0
XRECORD
  5
AA4
102
{ACAD_REACTORS
330
AA2
102
}
330
AA2
100
AcDbXrecord
280
     1
270
     1
271
     1
  0
XRECORD
  5
AA3
102
{ACAD_REACTORS
330
AA2
102
}
330
AA2
100
AcDbXrecord
280
     1
270
     1
271
     1
  0
XRECORD
  5
AA7
102
{ACAD_REACTORS
330
AA2
102
}
330
AA2
100
AcDbXrecord
280
     1
270
     1
271
     1
  0
XRECORD
  5
AA6
102
{ACAD_REACTORS
330
AA2
102
}
330
AA2
100
AcDbXrecord
280
     1
270
     1
271
     1
  0
XRECORD
  5
AA8
102
{ACAD_REACTORS
330
AA2
102
}
330
AA2
100
AcDbXrecord
280
     1
270
     1
271
     1
  0
XRECORD
  5
AA5
102
{ACAD_REACTORS
330
AA2
102
}
330
AA2
100
AcDbXrecord
280
     1
270
     1
271
     1
  0
XRECORD
  5
B07
102
{ACAD_REACTORS
330
A9A
102
}
330
A9A
100
AcDbXrecord
280
     1
102
MATERIAL
148
0.0
149
0.0
149
0.0
 93
        0
 94
      127
282
     0
 72
     0
 77
     0
171
     0
175
     0
179
     0
273
     0
  0
XRECORD
  5
A9C
102
{ACAD_REACTORS
330
A9A
102
}
330
A9A
100
AcDbXrecord
280
     1
270
     1
271
     1
  0
XRECORD
  5
A9B
102
{ACAD_REACTORS
330
A9A
102
}
330
A9A
100
AcDbXrecord
280
     1
270
     1
271
     1
  0
XRECORD
  5
A9F
102
{ACAD_REACTORS
330
A9A
102
}
330
A9A
100
AcDbXrecord
280
     1
270
     1
271
     1
  0
XRECORD
  5
A9E
102
{ACAD_REACTORS
330
A9A
102
}
330
A9A
100
AcDbXrecord
280
     1
270
     1
271
     1
  0
XRECORD
  5
AA0
102
{ACAD_REACTORS
330
A9A
102
}
330
A9A
100
AcDbXrecord
280
     1
270
     1
271
     1
  0
XRECORD
  5
A9D
102
{ACAD_REACTORS
330
A9A
102
}
330
A9A
100
AcDbXrecord
280
     1
270
     1
271
     1
  0
XRECORD
  5
B09
102
{ACAD_REACTORS
330
AAA
102
}
330
AAA
100
AcDbXrecord
280
     1
102
MATERIAL
148
0.0
149
0.0
149
0.0
 93
        0
 94
      127
282
     0
 72
     0
 77
     0
171
     0
175
     0
179
     0
273
     0
  0
XRECORD
  5
AAC
102
{ACAD_REACTORS
330
AAA
102
}
330
AAA
100
AcDbXrecord
280
     1
270
     1
271
     1
  0
XRECORD
  5
AAB
102
{ACAD_REACTORS
330
AAA
102
}
330
AAA
100
AcDbXrecord
280
     1
270
     1
271
     1
  0
XRECORD
  5
AAF
102
{ACAD_REACTORS
330
AAA
102
}
330
AAA
100
AcDbXrecord
280
     1
270
     1
271
     1
  0
XRECORD
  5
AAE
102
{ACAD_REACTORS
330
AAA
102
}
330
AAA
100
AcDbXrecord
280
     1
270
     1
271
     1
  0
XRECORD
  5
AB0
102
{ACAD_REACTORS
330
AAA
102
}
330
AAA
100
AcDbXrecord
280
     1
270
     1
271
     1
  0
XRECORD
  5
AAD
102
{ACAD_REACTORS
330
AAA
102
}
330
AAA
100
AcDbXrecord
280
     1
270
     1
271
     1
  0
XRECORD
  5
B3D
102
{ACAD_REACTORS
330
B3C
102
}
330
B3C
100
AcDbXrecord
280
     1
102
DISPLAYNAME
  1
Imperial24
102
FLAGS
 90
        0
  0
CELLSTYLEMAP
  5
B04
102
{ACAD_REACTORS
330
B03
102
}
330
B03
100
AcDbCellStyleMap
 90
        3
300
CELLSTYLE
  1
TABLEFORMAT_BEGIN
 90
        5
170
     1
 91
        0
 92
    32768
 62
   257
 93
        1
300
CONTENTFORMAT
  1
CONTENTFORMAT_BEGIN
 90
        0
 91
        0
 92
      512
 93
        0
300

 40
0.0
140
1.0
 94
        5
 62
     0
340
F
144
0.25
309
CONTENTFORMAT_END
171
     0
 94
        0
309
TABLEFORMAT_END
  1
CELLSTYLE_BEGIN
 90
        1
 91
        1
300
_TITLE
309
CELLSTYLE_END
300
CELLSTYLE
  1
TABLEFORMAT_BEGIN
 90
        5
170
     1
 91
        0
 92
        0
 62
   257
 93
        1
300
CONTENTFORMAT
  1
CONTENTFORMAT_BEGIN
 90
        0
 91
        0
 92
      512
 93
        0
300

 40
0.0
140
1.0
 94
        5
 62
     0
340
F
144
0.18
309
CONTENTFORMAT_END
171
     0
 94
        0
309
TABLEFORMAT_END
  1
CELLSTYLE_BEGIN
 90
        2
 91
        1
300
_HEADER
309
CELLSTYLE_END
300
CELLSTYLE
  1
TABLEFORMAT_BEGIN
 90
        5
170
     1
 91
        0
 92
        0
 62
   257
 93
        1
300
CONTENTFORMAT
  1
CONTENTFORMAT_BEGIN
 90
        0
 91
        0
 92
      512
 93
        0
300

 40
0.0
140
1.0
 94
        2
 62
     0
340
F
144
0.18
309
CONTENTFORMAT_END
171
     0
 94
        0
309
TABLEFORMAT_END
  1
CELLSTYLE_BEGIN
 90
        3
 91
        2
300
_DATA
309
CELLSTYLE_END
  0
XRECORD
  5
B3A
102
{ACAD_REACTORS
330
B03
102
}
330
B03
100
AcDbXrecord
280
     1
102
ACAD_ROUNDTRIP_PRE2007_TABLESTYLE
 90
      512
 91
        0
  1

 92
      512
 93
        0
  2

 94
      512
 95
        0
  3

  0
XRECORD
  5
B15
102
{ACAD_REACTORS
330
B14
102
}
330
B14
100
AcDbXrecord
280
     1
102
RTVSPost2010Prop28
280
     1
102
RTVSPost2010PropOp28
 70
     1
102
RTVSPost2010Prop29
280
     1
102
RTVSPost2010PropOp29
 70
     1
102
RTVSPost2010Prop30
280
     0
102
RTVSPost2010PropOp30
 70
     1
102
RTVSPost2010Prop31
280
     0
102
RTVSPost2010PropOp31
 70
     1
102
RTVSPost2010Prop32
280
     0
102
RTVSPost2010PropOp32
 70
     1
102
RTVSPost2010Prop33
280
     0
102
RTVSPost2010PropOp33
 70
     1
102
RTVSPost2010Prop34
280
     0
102
RTVSPost2010PropOp34
 70
     1
102
RTVSPost2010Prop35
280
     0
102
RTVSPost2010PropOp35
 70
     1
102
RTVSPost2010Prop36
280
     0
102
RTVSPost2010PropOp36
 70
     1
102
RTVSPost2010Prop37
 90
       50
102
RTVSPost2010PropOp37
 70
     1
102
RTVSPost2010Prop38
140
0.0
102
RTVSPost2010PropOp38
 70
     1
102
RTVSPost2010Prop39
140
1.0
102
RTVSPost2010PropOp39
 70
     1
102
RTVSPost2010Prop40
 90
        0
102
RTVSPost2010PropOp40
 70
     1
102
RTVSPost2010Prop41ColorIndex
 90
       18
102
RTVSPost2010Prop41ColorRGB
 90
        0
102
RTVSPost2010PropOp41
 70
     1
102
RTVSPost2010Prop42
 90
       50
102
RTVSPost2010PropOp42
 70
     1
102
RTVSPost2010Prop43
 90
        3
102
RTVSPost2010PropOp43
 70
     1
102
RTVSPost2010Prop44ColorIndex
 90
        5
102
RTVSPost2010Prop44ColorRGB
 90
      255
102
RTVSPost2010PropOp44
 70
     1
102
RTVSPost2010Prop45
280
     0
102
RTVSPost2010PropOp45
 70
     1
102
RTVSPost2010Prop46
 90
       50
102
RTVSPost2010PropOp46
 70
     1
102
RTVSPost2010Prop47
 90
       50
102
RTVSPost2010PropOp47
 70
     1
102
RTVSPost2010Prop48
 90
       50
102
RTVSPost2010PropOp48
 70
     1
102
RTVSPost2010Prop49
280
     0
102
RTVSPost2010PropOp49
 70
     1
102
RTVSPost2010Prop50
 90
       50
102
RTVSPost2010PropOp50
 70
     1
102
RTVSPost2010Prop51ColorIndex
 90
      256
102
RTVSPost2010Prop51ColorRGB
 90
-16777216
102
RTVSPost2010PropOp51
 70
     0
102
RTVSPost2010Prop52
140
1.0
102
RTVSPost2010PropOp52
 70
     0
102
RTVSPost2010Prop53
 90
        2
102
RTVSPost2010PropOp53
 70
     1
102
RTVSPost2010Prop54
  1
strokes_ogs.tif
102
RTVSPost2010PropOp54
 70
     1
102
RTVSPost2010Prop55
280
     0
102
RTVSPost2010PropOp55
 70
     1
102
RTVSPost2010Prop56
140
1.0
102
RTVSPost2010PropOp56
 70
     1
102
RTVSPost2010Prop57
140
1.0
102
RTVSPost2010PropOp57
 70
     1
102
RTVSPropertyOp0
 70
     1
102
RTVSPropertyOp1
 70
     1
102
RTVSPropertyOp2
 70
     1
102
RTVSPropertyOp3
 70
     1
102
RTVSPropertyOp4
 70
     1
102
RTVSPropertyOp5
 70
     1
102
RTVSPropertyOp6
 70
     1
102
RTVSPropertyOp7
 70
     1
102
RTVSPropertyOp8
 70
     1
102
RTVSPropertyOp9
 70
     1
102
RTVSPropertyOp10
 70
     1
102
RTVSPropertyOp11
 70
     1
102
RTVSPropertyOp12
 70
     1
102
RTVSPropertyOp13
 70
     1
102
RTVSPropertyOp14
 70
     1
102
RTVSPropertyOp15
 70
     1
102
RTVSPropertyOp16
 70
     1
102
RTVSPropertyOp17
 70
     1
102
RTVSPropertyOp18
 70
     1
102
RTVSPropertyOp19
 70
     1
102
RTVSPropertyOp20
 70
     1
102
RTVSPropertyOp21
 70
     1
102
RTVSPropertyOp22
 70
     1
102
RTVSPropertyOp23
 70
     1
102
RTVSPropertyOp24
 70
     1
102
RTVSPropertyOp25
 70
     1
102
RTVSPropertyOp26
 70
     1
102
RTVSPropertyOp27
 70
     1
102
RTVSPropertyOp28
 70
     1
102
RTVSPropertyOp29
 70
     1
102
RTVSPropertyOp30
 70
     1
102
RTVSPropertyOp31
 70
     1
102
RTVSPropertyOp32
 70
     1
102
RTVSPropertyOp33
 70
     1
102
RTVSPropertyOp34
 70
     1
102
RTVSPropertyOp35
 70
     1
102
RTVSPropertyOp36
 70
     1
102
RTVSPropertyOp37
 70
     1
102
RTVSPropertyOp38
 70
     1
102
RTVSPropertyOp39
 70
     1
102
RTVSPropertyOp40
 70
     1
102
RTVSPropertyOp41
 70
     1
102
RTVSPropertyOp42
 70
     1
102
RTVSPropertyOp43
 70
     1
102
RTVSPropertyOp44
 70
     1
102
RTVSPropertyOp45
 70
     1
102
RTVSPropertyOp46
 70
     1
102
RTVSPropertyOp47
 70
     1
102
RTVSPropertyOp48
 70
     1
102
RTVSPropertyOp49
 70
     1
102
RTVSPropertyOp50
 70
     1
102
RTVSPropertyOp51
 70
     0
102
RTVSPropertyOp52
 70
     0
102
RTVSPropertyOp53
 70
     1
102
RTVSPropertyOp54
 70
     1
102
RTVSPropertyOp55
 70
     1
102
RTVSPropertyOp56
 70
     1
102
RTVSPropertyOp57
 70
     1
102
RTVSPropertyOp58
 70
     1
102
RTVSPropertyOp59
 70
     1
102
RTVSPropertyOp60
 70
     1
102
RTVSPropertyOp61
 70
     1
102
RTVSPropertyOp62
 70
     1
  0
XRECORD
  5
B13
102
{ACAD_REACTORS
330
B12
102
}
330
B12
100
AcDbXrecord
280
     1
102
RTVSPost2010Prop28
280
     0
102
RTVSPost2010PropOp28
 70
     1
102
RTVSPost2010Prop29
280
     1
102
RTVSPost2010PropOp29
 70
     1
102
RTVSPost2010Prop30
280
     1
102
RTVSPost2010PropOp30
 70
     1
102
RTVSPost2010Prop31
280
     0
102
RTVSPost2010PropOp31
 70
     1
102
RTVSPost2010Prop32
280
     0
102
RTVSPost2010PropOp32
 70
     1
102
RTVSPost2010Prop33
280
     0
102
RTVSPost2010PropOp33
 70
     1
102
RTVSPost2010Prop34
280
     0
102
RTVSPost2010PropOp34
 70
     1
102
RTVSPost2010Prop35
280
     0
102
RTVSPost2010PropOp35
 70
     1
102
RTVSPost2010Prop36
280
     0
102
RTVSPost2010PropOp36
 70
     1
102
RTVSPost2010Prop37
 90
       50
102
RTVSPost2010PropOp37
 70
     1
102
RTVSPost2010Prop38
140
0.0
102
RTVSPost2010PropOp38
 70
     1
102
RTVSPost2010Prop39
140
1.0
102
RTVSPost2010PropOp39
 70
     1
102
RTVSPost2010Prop40
 90
        0
102
RTVSPost2010PropOp40
 70
     1
102
RTVSPost2010Prop41ColorIndex
 90
       18
102
RTVSPost2010Prop41ColorRGB
 90
        0
102
RTVSPost2010PropOp41
 70
     1
102
RTVSPost2010Prop42
 90
       50
102
RTVSPost2010PropOp42
 70
     1
102
RTVSPost2010Prop43
 90
        3
102
RTVSPost2010PropOp43
 70
     1
102
RTVSPost2010Prop44ColorIndex
 90
        5
102
RTVSPost2010Prop44ColorRGB
 90
      255
102
RTVSPost2010PropOp44
 70
     1
102
RTVSPost2010Prop45
280
     0
102
RTVSPost2010PropOp45
 70
     1
102
RTVSPost2010Prop46
 90
       50
102
RTVSPost2010PropOp46
 70
     1
102
RTVSPost2010Prop47
 90
       50
102
RTVSPost2010PropOp47
 70
     1
102
RTVSPost2010Prop48
 90
       50
102
RTVSPost2010PropOp48
 70
     1
102
RTVSPost2010Prop49
280
     0
102
RTVSPost2010PropOp49
 70
     1
102
RTVSPost2010Prop50
 90
       50
102
RTVSPost2010PropOp50
 70
     1
102
RTVSPost2010Prop51ColorIndex
 90
      256
102
RTVSPost2010Prop51ColorRGB
 90
-16777216
102
RTVSPost2010PropOp51
 70
     0
102
RTVSPost2010Prop52
140
1.0
102
RTVSPost2010PropOp52
 70
     0
102
RTVSPost2010Prop53
 90
        2
102
RTVSPost2010PropOp53
 70
     1
102
RTVSPost2010Prop54
  1
strokes_ogs.tif
102
RTVSPost2010PropOp54
 70
     1
102
RTVSPost2010Prop55
280
     0
102
RTVSPost2010PropOp55
 70
     1
102
RTVSPost2010Prop56
140
1.0
102
RTVSPost2010PropOp56
 70
     1
102
RTVSPost2010Prop57
140
1.0
102
RTVSPost2010PropOp57
 70
     1
102
RTVSPropertyOp0
 70
     1
102
RTVSPropertyOp1
 70
     1
102
RTVSPropertyOp2
 70
     1
102
RTVSPropertyOp3
 70
     1
102
RTVSPropertyOp4
 70
     1
102
RTVSPropertyOp5
 70
     1
102
RTVSPropertyOp6
 70
     1
102
RTVSPropertyOp7
 70
     1
102
RTVSPropertyOp8
 70
     1
102
RTVSPropertyOp9
 70
     1
102
RTVSPropertyOp10
 70
     1
102
RTVSPropertyOp11
 70
     1
102
RTVSPropertyOp12
 70
     1
102
RTVSPropertyOp13
 70
     1
102
RTVSPropertyOp14
 70
     1
102
RTVSPropertyOp15
 70
     1
102
RTVSPropertyOp16
 70
     1
102
RTVSPropertyOp17
 70
     1
102
RTVSPropertyOp18
 70
     1
102
RTVSPropertyOp19
 70
     1
102
RTVSPropertyOp20
 70
     1
102
RTVSPropertyOp21
 70
     1
102
RTVSPropertyOp22
 70
     1
102
RTVSPropertyOp23
 70
     1
102
RTVSPropertyOp24
 70
     1
102
RTVSPropertyOp25
 70
     1
102
RTVSPropertyOp26
 70
     1
102
RTVSPropertyOp27
 70
     1
102
RTVSPropertyOp28
 70
     1
102
RTVSPropertyOp29
 70
     1
102
RTVSPropertyOp30
 70
     1
102
RTVSPropertyOp31
 70
     1
102
RTVSPropertyOp32
 70
     1
102
RTVSPropertyOp33
 70
     1
102
RTVSPropertyOp34
 70
     1
102
RTVSPropertyOp35
 70
     1
102
RTVSPropertyOp36
 70
     1
102
RTVSPropertyOp37
 70
     1
102
RTVSPropertyOp38
 70
     1
102
RTVSPropertyOp39
 70
     1
102
RTVSPropertyOp40
 70
     1
102
RTVSPropertyOp41
 70
     1
102
RTVSPropertyOp42
 70
     1
102
RTVSPropertyOp43
 70
     1
102
RTVSPropertyOp44
 70
     1
102
RTVSPropertyOp45
 70
     1
102
RTVSPropertyOp46
 70
     1
102
RTVSPropertyOp47
 70
     1
102
RTVSPropertyOp48
 70
     1
102
RTVSPropertyOp49
 70
     1
102
RTVSPropertyOp50
 70
     1
102
RTVSPropertyOp51
 70
     0
102
RTVSPropertyOp52
 70
     0
102
RTVSPropertyOp53
 70
     1
102
RTVSPropertyOp54
 70
     1
102
RTVSPropertyOp55
 70
     1
102
RTVSPropertyOp56
 70
     1
102
RTVSPropertyOp57
 70
     1
102
RTVSPropertyOp58
 70
     1
102
RTVSPropertyOp59
 70
     1
102
RTVSPropertyOp60
 70
     1
102
RTVSPropertyOp61
 70
     1
102
RTVSPropertyOp62
 70
     1
  0
XRECORD
  5
B21
102
{ACAD_REACTORS
330
B20
102
}
330
B20
100
AcDbXrecord
280
     1
102
RTVSPost2010Prop28
280
     0
102
RTVSPost2010PropOp28
 70
     1
102
RTVSPost2010Prop29
280
     1
102
RTVSPost2010PropOp29
 70
     1
102
RTVSPost2010Prop30
280
     1
102
RTVSPost2010PropOp30
 70
     1
102
RTVSPost2010Prop31
280
     0
102
RTVSPost2010PropOp31
 70
     1
102
RTVSPost2010Prop32
280
     0
102
RTVSPost2010PropOp32
 70
     1
102
RTVSPost2010Prop33
280
     0
102
RTVSPost2010PropOp33
 70
     1
102
RTVSPost2010Prop34
280
     0
102
RTVSPost2010PropOp34
 70
     1
102
RTVSPost2010Prop35
280
     0
102
RTVSPost2010PropOp35
 70
     1
102
RTVSPost2010Prop36
280
     0
102
RTVSPost2010PropOp36
 70
     1
102
RTVSPost2010Prop37
 90
       50
102
RTVSPost2010PropOp37
 70
     1
102
RTVSPost2010Prop38
140
0.0
102
RTVSPost2010PropOp38
 70
     1
102
RTVSPost2010Prop39
140
1.0
102
RTVSPost2010PropOp39
 70
     1
102
RTVSPost2010Prop40
 90
        0
102
RTVSPost2010PropOp40
 70
     1
102
RTVSPost2010Prop41ColorIndex
 90
       18
102
RTVSPost2010Prop41ColorRGB
 90
        0
102
RTVSPost2010PropOp41
 70
     1
102
RTVSPost2010Prop42
 90
       50
102
RTVSPost2010PropOp42
 70
     1
102
RTVSPost2010Prop43
 90
        3
102
RTVSPost2010PropOp43
 70
     1
102
RTVSPost2010Prop44ColorIndex
 90
        5
102
RTVSPost2010Prop44ColorRGB
 90
      255
102
RTVSPost2010PropOp44
 70
     1
102
RTVSPost2010Prop45
280
     0
102
RTVSPost2010PropOp45
 70
     1
102
RTVSPost2010Prop46
 90
       50
102
RTVSPost2010PropOp46
 70
     1
102
RTVSPost2010Prop47
 90
       50
102
RTVSPost2010PropOp47
 70
     1
102
RTVSPost2010Prop48
 90
       50
102
RTVSPost2010PropOp48
 70
     1
102
RTVSPost2010Prop49
280
     0
102
RTVSPost2010PropOp49
 70
     1
102
RTVSPost2010Prop50
 90
       50
102
RTVSPost2010PropOp50
 70
     1
102
RTVSPost2010Prop51ColorIndex
 90
      256
102
RTVSPost2010Prop51ColorRGB
 90
-16777216
102
RTVSPost2010PropOp51
 70
     0
102
RTVSPost2010Prop52
140
1.0
102
RTVSPost2010PropOp52
 70
     0
102
RTVSPost2010Prop53
 90
        2
102
RTVSPost2010PropOp53
 70
     1
102
RTVSPost2010Prop54
  1
strokes_ogs.tif
102
RTVSPost2010PropOp54
 70
     1
102
RTVSPost2010Prop55
280
     0
102
RTVSPost2010PropOp55
 70
     1
102
RTVSPost2010Prop56
140
1.0
102
RTVSPost2010PropOp56
 70
     1
102
RTVSPost2010Prop57
140
1.0
102
RTVSPost2010PropOp57
 70
     1
102
RTVSPropertyOp0
 70
     1
102
RTVSPropertyOp1
 70
     1
102
RTVSPropertyOp2
 70
     1
102
RTVSPropertyOp3
 70
     1
102
RTVSPropertyOp4
 70
     1
102
RTVSPropertyOp5
 70
     1
102
RTVSPropertyOp6
 70
     1
102
RTVSPropertyOp7
 70
     1
102
RTVSPropertyOp8
 70
     1
102
RTVSPropertyOp9
 70
     1
102
RTVSPropertyOp10
 70
     1
102
RTVSPropertyOp11
 70
     1
102
RTVSPropertyOp12
 70
     1
102
RTVSPropertyOp13
 70
     1
102
RTVSPropertyOp14
 70
     1
102
RTVSPropertyOp15
 70
     1
102
RTVSPropertyOp16
 70
     1
102
RTVSPropertyOp17
 70
     1
102
RTVSPropertyOp18
 70
     1
102
RTVSPropertyOp19
 70
     1
102
RTVSPropertyOp20
 70
     1
102
RTVSPropertyOp21
 70
     1
102
RTVSPropertyOp22
 70
     1
102
RTVSPropertyOp23
 70
     1
102
RTVSPropertyOp24
 70
     1
102
RTVSPropertyOp25
 70
     1
102
RTVSPropertyOp26
 70
     1
102
RTVSPropertyOp27
 70
     1
102
RTVSPropertyOp28
 70
     1
102
RTVSPropertyOp29
 70
     1
102
RTVSPropertyOp30
 70
     1
102
RTVSPropertyOp31
 70
     1
102
RTVSPropertyOp32
 70
     1
102
RTVSPropertyOp33
 70
     1
102
RTVSPropertyOp34
 70
     1
102
RTVSPropertyOp35
 70
     1
102
RTVSPropertyOp36
 70
     1
102
RTVSPropertyOp37
 70
     1
102
RTVSPropertyOp38
 70
     1
102
RTVSPropertyOp39
 70
     1
102
RTVSPropertyOp40
 70
     1
102
RTVSPropertyOp41
 70
     1
102
RTVSPropertyOp42
 70
     1
102
RTVSPropertyOp43
 70
     1
102
RTVSPropertyOp44
 70
     1
102
RTVSPropertyOp45
 70
     1
102
RTVSPropertyOp46
 70
     1
102
RTVSPropertyOp47
 70
     1
102
RTVSPropertyOp48
 70
     1
102
RTVSPropertyOp49
 70
     1
102
RTVSPropertyOp50
 70
     1
102
RTVSPropertyOp51
 70
     0
102
RTVSPropertyOp52
 70
     0
102
RTVSPropertyOp53
 70
     1
102
RTVSPropertyOp54
 70
     1
102
RTVSPropertyOp55
 70
     1
102
RTVSPropertyOp56
 70
     1
102
RTVSPropertyOp57
 70
     1
102
RTVSPropertyOp58
 70
     1
102
RTVSPropertyOp59
 70
     1
102
RTVSPropertyOp60
 70
     1
102
RTVSPropertyOp61
 70
     1
102
RTVSPropertyOp62
 70
     1
  0
XRECORD
  5
B29
102
{ACAD_REACTORS
330
B28
102
}
330
B28
100
AcDbXrecord
280
     1
102
RTVSPost2010Prop28
280
     0
102
RTVSPost2010PropOp28
 70
     1
102
RTVSPost2010Prop29
280
     1
102
RTVSPost2010PropOp29
 70
     1
102
RTVSPost2010Prop30
280
     1
102
RTVSPost2010PropOp30
 70
     1
102
RTVSPost2010Prop31
280
     0
102
RTVSPost2010PropOp31
 70
     1
102
RTVSPost2010Prop32
280
     0
102
RTVSPost2010PropOp32
 70
     1
102
RTVSPost2010Prop33
280
     0
102
RTVSPost2010PropOp33
 70
     1
102
RTVSPost2010Prop34
280
     0
102
RTVSPost2010PropOp34
 70
     1
102
RTVSPost2010Prop35
280
     0
102
RTVSPost2010PropOp35
 70
     1
102
RTVSPost2010Prop36
280
     0
102
RTVSPost2010PropOp36
 70
     1
102
RTVSPost2010Prop37
 90
       50
102
RTVSPost2010PropOp37
 70
     1
102
RTVSPost2010Prop38
140
0.0
102
RTVSPost2010PropOp38
 70
     1
102
RTVSPost2010Prop39
140
1.0
102
RTVSPost2010PropOp39
 70
     1
102
RTVSPost2010Prop40
 90
        0
102
RTVSPost2010PropOp40
 70
     1
102
RTVSPost2010Prop41ColorIndex
 90
       18
102
RTVSPost2010Prop41ColorRGB
 90
        0
102
RTVSPost2010PropOp41
 70
     1
102
RTVSPost2010Prop42
 90
       50
102
RTVSPost2010PropOp42
 70
     1
102
RTVSPost2010Prop43
 90
        3
102
RTVSPost2010PropOp43
 70
     1
102
RTVSPost2010Prop44ColorIndex
 90
        5
102
RTVSPost2010Prop44ColorRGB
 90
      255
102
RTVSPost2010PropOp44
 70
     1
102
RTVSPost2010Prop45
280
     0
102
RTVSPost2010PropOp45
 70
     1
102
RTVSPost2010Prop46
 90
       50
102
RTVSPost2010PropOp46
 70
     1
102
RTVSPost2010Prop47
 90
       50
102
RTVSPost2010PropOp47
 70
     1
102
RTVSPost2010Prop48
 90
       50
102
RTVSPost2010PropOp48
 70
     1
102
RTVSPost2010Prop49
280
     0
102
RTVSPost2010PropOp49
 70
     1
102
RTVSPost2010Prop50
 90
       50
102
RTVSPost2010PropOp50
 70
     1
102
RTVSPost2010Prop51ColorIndex
 90
      256
102
RTVSPost2010Prop51ColorRGB
 90
-16777216
102
RTVSPost2010PropOp51
 70
     0
102
RTVSPost2010Prop52
140
1.0
102
RTVSPost2010PropOp52
 70
     0
102
RTVSPost2010Prop53
 90
        2
102
RTVSPost2010PropOp53
 70
     1
102
RTVSPost2010Prop54
  1
strokes_ogs.tif
102
RTVSPost2010PropOp54
 70
     1
102
RTVSPost2010Prop55
280
     0
102
RTVSPost2010PropOp55
 70
     1
102
RTVSPost2010Prop56
140
1.0
102
RTVSPost2010PropOp56
 70
     1
102
RTVSPost2010Prop57
140
1.0
102
RTVSPost2010PropOp57
 70
     1
102
RTVSPropertyOp0
 70
     1
102
RTVSPropertyOp1
 70
     1
102
RTVSPropertyOp2
 70
     1
102
RTVSPropertyOp3
 70
     1
102
RTVSPropertyOp4
 70
     1
102
RTVSPropertyOp5
 70
     1
102
RTVSPropertyOp6
 70
     1
102
RTVSPropertyOp7
 70
     1
102
RTVSPropertyOp8
 70
     1
102
RTVSPropertyOp9
 70
     1
102
RTVSPropertyOp10
 70
     1
102
RTVSPropertyOp11
 70
     1
102
RTVSPropertyOp12
 70
     1
102
RTVSPropertyOp13
 70
     1
102
RTVSPropertyOp14
 70
     1
102
RTVSPropertyOp15
 70
     1
102
RTVSPropertyOp16
 70
     1
102
RTVSPropertyOp17
 70
     1
102
RTVSPropertyOp18
 70
     1
102
RTVSPropertyOp19
 70
     1
102
RTVSPropertyOp20
 70
     1
102
RTVSPropertyOp21
 70
     1
102
RTVSPropertyOp22
 70
     1
102
RTVSPropertyOp23
 70
     1
102
RTVSPropertyOp24
 70
     1
102
RTVSPropertyOp25
 70
     1
102
RTVSPropertyOp26
 70
     1
102
RTVSPropertyOp27
 70
     1
102
RTVSPropertyOp28
 70
     1
102
RTVSPropertyOp29
 70
     1
102
RTVSPropertyOp30
 70
     1
102
RTVSPropertyOp31
 70
     1
102
RTVSPropertyOp32
 70
     1
102
RTVSPropertyOp33
 70
     1
102
RTVSPropertyOp34
 70
     1
102
RTVSPropertyOp35
 70
     1
102
RTVSPropertyOp36
 70
     1
102
RTVSPropertyOp37
 70
     1
102
RTVSPropertyOp38
 70
     1
102
RTVSPropertyOp39
 70
     1
102
RTVSPropertyOp40
 70
     1
102
RTVSPropertyOp41
 70
     1
102
RTVSPropertyOp42
 70
     1
102
RTVSPropertyOp43
 70
     1
102
RTVSPropertyOp44
 70
     1
102
RTVSPropertyOp45
 70
     1
102
RTVSPropertyOp46
 70
     1
102
RTVSPropertyOp47
 70
     1
102
RTVSPropertyOp48
 70
     1
102
RTVSPropertyOp49
 70
     1
102
RTVSPropertyOp50
 70
     1
102
RTVSPropertyOp51
 70
     0
102
RTVSPropertyOp52
 70
     0
102
RTVSPropertyOp53
 70
     1
102
RTVSPropertyOp54
 70
     1
102
RTVSPropertyOp55
 70
     1
102
RTVSPropertyOp56
 70
     1
102
RTVSPropertyOp57
 70
     1
102
RTVSPropertyOp58
 70
     1
102
RTVSPropertyOp59
 70
     1
102
RTVSPropertyOp60
 70
     1
102
RTVSPropertyOp61
 70
     1
102
RTVSPropertyOp62
 70
     1
  0
XRECORD
  5
B1B
102
{ACAD_REACTORS
330
B1A
102
}
330
B1A
100
AcDbXrecord
280
     1
102
RTVSPost2010Prop28
280
     0
102
RTVSPost2010PropOp28
 70
     1
102
RTVSPost2010Prop29
280
     1
102
RTVSPost2010PropOp29
 70
     1
102
RTVSPost2010Prop30
280
     1
102
RTVSPost2010PropOp30
 70
     1
102
RTVSPost2010Prop31
280
     0
102
RTVSPost2010PropOp31
 70
     1
102
RTVSPost2010Prop32
280
     0
102
RTVSPost2010PropOp32
 70
     1
102
RTVSPost2010Prop33
280
     0
102
RTVSPost2010PropOp33
 70
     1
102
RTVSPost2010Prop34
280
     0
102
RTVSPost2010PropOp34
 70
     1
102
RTVSPost2010Prop35
280
     0
102
RTVSPost2010PropOp35
 70
     1
102
RTVSPost2010Prop36
280
     0
102
RTVSPost2010PropOp36
 70
     1
102
RTVSPost2010Prop37
 90
       50
102
RTVSPost2010PropOp37
 70
     1
102
RTVSPost2010Prop38
140
0.0
102
RTVSPost2010PropOp38
 70
     1
102
RTVSPost2010Prop39
140
1.0
102
RTVSPost2010PropOp39
 70
     1
102
RTVSPost2010Prop40
 90
        0
102
RTVSPost2010PropOp40
 70
     1
102
RTVSPost2010Prop41ColorIndex
 90
       18
102
RTVSPost2010Prop41ColorRGB
 90
        0
102
RTVSPost2010PropOp41
 70
     1
102
RTVSPost2010Prop42
 90
       50
102
RTVSPost2010PropOp42
 70
     1
102
RTVSPost2010Prop43
 90
        3
102
RTVSPost2010PropOp43
 70
     1
102
RTVSPost2010Prop44ColorIndex
 90
        5
102
RTVSPost2010Prop44ColorRGB
 90
      255
102
RTVSPost2010PropOp44
 70
     1
102
RTVSPost2010Prop45
280
     0
102
RTVSPost2010PropOp45
 70
     1
102
RTVSPost2010Prop46
 90
       50
102
RTVSPost2010PropOp46
 70
     1
102
RTVSPost2010Prop47
 90
       50
102
RTVSPost2010PropOp47
 70
     1
102
RTVSPost2010Prop48
 90
       50
102
RTVSPost2010PropOp48
 70
     1
102
RTVSPost2010Prop49
280
     0
102
RTVSPost2010PropOp49
 70
     1
102
RTVSPost2010Prop50
 90
       50
102
RTVSPost2010PropOp50
 70
     1
102
RTVSPost2010Prop51ColorIndex
 90
      256
102
RTVSPost2010Prop51ColorRGB
 90
-16777216
102
RTVSPost2010PropOp51
 70
     0
102
RTVSPost2010Prop52
140
1.0
102
RTVSPost2010PropOp52
 70
     0
102
RTVSPost2010Prop53
 90
        2
102
RTVSPost2010PropOp53
 70
     1
102
RTVSPost2010Prop54
  1
strokes_ogs.tif
102
RTVSPost2010PropOp54
 70
     1
102
RTVSPost2010Prop55
280
     0
102
RTVSPost2010PropOp55
 70
     1
102
RTVSPost2010Prop56
140
1.0
102
RTVSPost2010PropOp56
 70
     1
102
RTVSPost2010Prop57
140
1.0
102
RTVSPost2010PropOp57
 70
     1
102
RTVSPropertyOp0
 70
     1
102
RTVSPropertyOp1
 70
     1
102
RTVSPropertyOp2
 70
     1
102
RTVSPropertyOp3
 70
     1
102
RTVSPropertyOp4
 70
     1
102
RTVSPropertyOp5
 70
     1
102
RTVSPropertyOp6
 70
     1
102
RTVSPropertyOp7
 70
     1
102
RTVSPropertyOp8
 70
     1
102
RTVSPropertyOp9
 70
     1
102
RTVSPropertyOp10
 70
     1
102
RTVSPropertyOp11
 70
     1
102
RTVSPropertyOp12
 70
     1
102
RTVSPropertyOp13
 70
     1
102
RTVSPropertyOp14
 70
     1
102
RTVSPropertyOp15
 70
     1
102
RTVSPropertyOp16
 70
     1
102
RTVSPropertyOp17
 70
     1
102
RTVSPropertyOp18
 70
     1
102
RTVSPropertyOp19
 70
     1
102
RTVSPropertyOp20
 70
     1
102
RTVSPropertyOp21
 70
     1
102
RTVSPropertyOp22
 70
     1
102
RTVSPropertyOp23
 70
     1
102
RTVSPropertyOp24
 70
     1
102
RTVSPropertyOp25
 70
     1
102
RTVSPropertyOp26
 70
     1
102
RTVSPropertyOp27
 70
     1
102
RTVSPropertyOp28
 70
     1
102
RTVSPropertyOp29
 70
     1
102
RTVSPropertyOp30
 70
     1
102
RTVSPropertyOp31
 70
     1
102
RTVSPropertyOp32
 70
     1
102
RTVSPropertyOp33
 70
     1
102
RTVSPropertyOp34
 70
     1
102
RTVSPropertyOp35
 70
     1
102
RTVSPropertyOp36
 70
     1
102
RTVSPropertyOp37
 70
     1
102
RTVSPropertyOp38
 70
     1
102
RTVSPropertyOp39
 70
     1
102
RTVSPropertyOp40
 70
     1
102
RTVSPropertyOp41
 70
     1
102
RTVSPropertyOp42
 70
     1
102
RTVSPropertyOp43
 70
     1
102
RTVSPropertyOp44
 70
     1
102
RTVSPropertyOp45
 70
     1
102
RTVSPropertyOp46
 70
     1
102
RTVSPropertyOp47
 70
     1
102
RTVSPropertyOp48
 70
     1
102
RTVSPropertyOp49
 70
     1
102
RTVSPropertyOp50
 70
     1
102
RTVSPropertyOp51
 70
     0
102
RTVSPropertyOp52
 70
     0
102
RTVSPropertyOp53
 70
     1
102
RTVSPropertyOp54
 70
     1
102
RTVSPropertyOp55
 70
     1
102
RTVSPropertyOp56
 70
     1
102
RTVSPropertyOp57
 70
     1
102
RTVSPropertyOp58
 70
     1
102
RTVSPropertyOp59
 70
     1
102
RTVSPropertyOp60
 70
     1
102
RTVSPropertyOp61
 70
     1
102
RTVSPropertyOp62
 70
     1
  0
XRECORD
  5
B1F
102
{ACAD_REACTORS
330
B1E
102
}
330
B1E
100
AcDbXrecord
280
     1
102
RTVSPost2010Prop28
280
     0
102
RTVSPost2010PropOp28
 70
     1
102
RTVSPost2010Prop29
280
     1
102
RTVSPost2010PropOp29
 70
     1
102
RTVSPost2010Prop30
280
     1
102
RTVSPost2010PropOp30
 70
     1
102
RTVSPost2010Prop31
280
     0
102
RTVSPost2010PropOp31
 70
     1
102
RTVSPost2010Prop32
280
     0
102
RTVSPost2010PropOp32
 70
     1
102
RTVSPost2010Prop33
280
     0
102
RTVSPost2010PropOp33
 70
     1
102
RTVSPost2010Prop34
280
     0
102
RTVSPost2010PropOp34
 70
     1
102
RTVSPost2010Prop35
280
     0
102
RTVSPost2010PropOp35
 70
     1
102
RTVSPost2010Prop36
280
     0
102
RTVSPost2010PropOp36
 70
     1
102
RTVSPost2010Prop37
 90
       50
102
RTVSPost2010PropOp37
 70
     1
102
RTVSPost2010Prop38
140
0.0
102
RTVSPost2010PropOp38
 70
     1
102
RTVSPost2010Prop39
140
1.0
102
RTVSPost2010PropOp39
 70
     1
102
RTVSPost2010Prop40
 90
        0
102
RTVSPost2010PropOp40
 70
     1
102
RTVSPost2010Prop41ColorIndex
 90
       18
102
RTVSPost2010Prop41ColorRGB
 90
        0
102
RTVSPost2010PropOp41
 70
     1
102
RTVSPost2010Prop42
 90
       50
102
RTVSPost2010PropOp42
 70
     1
102
RTVSPost2010Prop43
 90
        3
102
RTVSPost2010PropOp43
 70
     1
102
RTVSPost2010Prop44ColorIndex
 90
        5
102
RTVSPost2010Prop44ColorRGB
 90
      255
102
RTVSPost2010PropOp44
 70
     1
102
RTVSPost2010Prop45
280
     0
102
RTVSPost2010PropOp45
 70
     1
102
RTVSPost2010Prop46
 90
       50
102
RTVSPost2010PropOp46
 70
     1
102
RTVSPost2010Prop47
 90
       50
102
RTVSPost2010PropOp47
 70
     1
102
RTVSPost2010Prop48
 90
       50
102
RTVSPost2010PropOp48
 70
     1
102
RTVSPost2010Prop49
280
     0
102
RTVSPost2010PropOp49
 70
     1
102
RTVSPost2010Prop50
 90
       50
102
RTVSPost2010PropOp50
 70
     1
102
RTVSPost2010Prop51ColorIndex
 90
      256
102
RTVSPost2010Prop51ColorRGB
 90
-16777216
102
RTVSPost2010PropOp51
 70
     0
102
RTVSPost2010Prop52
140
1.0
102
RTVSPost2010PropOp52
 70
     0
102
RTVSPost2010Prop53
 90
        2
102
RTVSPost2010PropOp53
 70
     1
102
RTVSPost2010Prop54
  1
strokes_ogs.tif
102
RTVSPost2010PropOp54
 70
     1
102
RTVSPost2010Prop55
280
     0
102
RTVSPost2010PropOp55
 70
     1
102
RTVSPost2010Prop56
140
1.0
102
RTVSPost2010PropOp56
 70
     1
102
RTVSPost2010Prop57
140
1.0
102
RTVSPost2010PropOp57
 70
     1
102
RTVSPropertyOp0
 70
     1
102
RTVSPropertyOp1
 70
     1
102
RTVSPropertyOp2
 70
     1
102
RTVSPropertyOp3
 70
     1
102
RTVSPropertyOp4
 70
     1
102
RTVSPropertyOp5
 70
     1
102
RTVSPropertyOp6
 70
     1
102
RTVSPropertyOp7
 70
     1
102
RTVSPropertyOp8
 70
     1
102
RTVSPropertyOp9
 70
     1
102
RTVSPropertyOp10
 70
     1
102
RTVSPropertyOp11
 70
     1
102
RTVSPropertyOp12
 70
     1
102
RTVSPropertyOp13
 70
     1
102
RTVSPropertyOp14
 70
     1
102
RTVSPropertyOp15
 70
     1
102
RTVSPropertyOp16
 70
     1
102
RTVSPropertyOp17
 70
     1
102
RTVSPropertyOp18
 70
     1
102
RTVSPropertyOp19
 70
     1
102
RTVSPropertyOp20
 70
     1
102
RTVSPropertyOp21
 70
     1
102
RTVSPropertyOp22
 70
     1
102
RTVSPropertyOp23
 70
     1
102
RTVSPropertyOp24
 70
     1
102
RTVSPropertyOp25
 70
     1
102
RTVSPropertyOp26
 70
     1
102
RTVSPropertyOp27
 70
     1
102
RTVSPropertyOp28
 70
     1
102
RTVSPropertyOp29
 70
     1
102
RTVSPropertyOp30
 70
     1
102
RTVSPropertyOp31
 70
     1
102
RTVSPropertyOp32
 70
     1
102
RTVSPropertyOp33
 70
     1
102
RTVSPropertyOp34
 70
     1
102
RTVSPropertyOp35
 70
     1
102
RTVSPropertyOp36
 70
     1
102
RTVSPropertyOp37
 70
     1
102
RTVSPropertyOp38
 70
     1
102
RTVSPropertyOp39
 70
     1
102
RTVSPropertyOp40
 70
     1
102
RTVSPropertyOp41
 70
     1
102
RTVSPropertyOp42
 70
     1
102
RTVSPropertyOp43
 70
     1
102
RTVSPropertyOp44
 70
     1
102
RTVSPropertyOp45
 70
     1
102
RTVSPropertyOp46
 70
     1
102
RTVSPropertyOp47
 70
     1
102
RTVSPropertyOp48
 70
     1
102
RTVSPropertyOp49
 70
     1
102
RTVSPropertyOp50
 70
     1
102
RTVSPropertyOp51
 70
     0
102
RTVSPropertyOp52
 70
     0
102
RTVSPropertyOp53
 70
     1
102
RTVSPropertyOp54
 70
     1
102
RTVSPropertyOp55
 70
     1
102
RTVSPropertyOp56
 70
     1
102
RTVSPropertyOp57
 70
     1
102
RTVSPropertyOp58
 70
     1
102
RTVSPropertyOp59
 70
     1
102
RTVSPropertyOp60
 70
     1
102
RTVSPropertyOp61
 70
     1
102
RTVSPropertyOp62
 70
     1
  0
XRECORD
  5
B39
102
{ACAD_REACTORS
330
B38
102
}
330
B38
100
AcDbXrecord
280
     1
102
RTVSPost2010Prop28
280
     0
102
RTVSPost2010PropOp28
 70
     1
102
RTVSPost2010Prop29
280
     1
102
RTVSPost2010PropOp29
 70
     1
102
RTVSPost2010Prop30
280
     1
102
RTVSPost2010PropOp30
 70
     1
102
RTVSPost2010Prop31
280
     0
102
RTVSPost2010PropOp31
 70
     1
102
RTVSPost2010Prop32
280
     0
102
RTVSPost2010PropOp32
 70
     1
102
RTVSPost2010Prop33
280
     0
102
RTVSPost2010PropOp33
 70
     1
102
RTVSPost2010Prop34
280
     0
102
RTVSPost2010PropOp34
 70
     1
102
RTVSPost2010Prop35
280
     0
102
RTVSPost2010PropOp35
 70
     1
102
RTVSPost2010Prop36
280
     0
102
RTVSPost2010PropOp36
 70
     1
102
RTVSPost2010Prop37
 90
       50
102
RTVSPost2010PropOp37
 70
     0
102
RTVSPost2010Prop38
140
0.0
102
RTVSPost2010PropOp38
 70
     0
102
RTVSPost2010Prop39
140
1.0
102
RTVSPost2010PropOp39
 70
     0
102
RTVSPost2010Prop40
 90
        0
102
RTVSPost2010PropOp40
 70
     0
102
RTVSPost2010Prop41ColorIndex
 90
       18
102
RTVSPost2010Prop41ColorRGB
 90
        0
102
RTVSPost2010PropOp41
 70
     0
102
RTVSPost2010Prop42
 90
       50
102
RTVSPost2010PropOp42
 70
     0
102
RTVSPost2010Prop43
 90
        3
102
RTVSPost2010PropOp43
 70
     0
102
RTVSPost2010Prop44ColorIndex
 90
        5
102
RTVSPost2010Prop44ColorRGB
 90
      255
102
RTVSPost2010PropOp44
 70
     0
102
RTVSPost2010Prop45
280
     0
102
RTVSPost2010PropOp45
 70
     1
102
RTVSPost2010Prop46
 90
       50
102
RTVSPost2010PropOp46
 70
     0
102
RTVSPost2010Prop47
 90
       50
102
RTVSPost2010PropOp47
 70
     0
102
RTVSPost2010Prop48
 90
       50
102
RTVSPost2010PropOp48
 70
     0
102
RTVSPost2010Prop49
280
     0
102
RTVSPost2010PropOp49
 70
     1
102
RTVSPost2010Prop50
 90
       50
102
RTVSPost2010PropOp50
 70
     0
102
RTVSPost2010Prop51ColorIndex
 90
      256
102
RTVSPost2010Prop51ColorRGB
 90
-16777216
102
RTVSPost2010PropOp51
 70
     0
102
RTVSPost2010Prop52
140
1.0
102
RTVSPost2010PropOp52
 70
     0
102
RTVSPost2010Prop53
 90
        2
102
RTVSPost2010PropOp53
 70
     0
102
RTVSPost2010Prop54
  1
strokes_ogs.tif
102
RTVSPost2010PropOp54
 70
     0
102
RTVSPost2010Prop55
280
     0
102
RTVSPost2010PropOp55
 70
     1
102
RTVSPost2010Prop56
140
1.0
102
RTVSPost2010PropOp56
 70
     0
102
RTVSPost2010Prop57
140
1.0
102
RTVSPost2010PropOp57
 70
     0
102
RTVSPropertyOp0
 70
     0
102
RTVSPropertyOp1
 70
     0
102
RTVSPropertyOp2
 70
     0
102
RTVSPropertyOp3
 70
     0
102
RTVSPropertyOp4
 70
     0
102
RTVSPropertyOp5
 70
     0
102
RTVSPropertyOp6
 70
     0
102
RTVSPropertyOp7
 70
     0
102
RTVSPropertyOp8
 70
     0
102
RTVSPropertyOp9
 70
     0
102
RTVSPropertyOp10
 70
     0
102
RTVSPropertyOp11
 70
     0
102
RTVSPropertyOp12
 70
     0
102
RTVSPropertyOp13
 70
     0
102
RTVSPropertyOp14
 70
     2
102
RTVSPropertyOp15
 70
     0
102
RTVSPropertyOp16
 70
     0
102
RTVSPropertyOp17
 70
     0
102
RTVSPropertyOp18
 70
     0
102
RTVSPropertyOp19
 70
     0
102
RTVSPropertyOp20
 70
     0
102
RTVSPropertyOp21
 70
     0
102
RTVSPropertyOp22
 70
     0
102
RTVSPropertyOp23
 70
     0
102
RTVSPropertyOp24
 70
     0
102
RTVSPropertyOp25
 70
     0
102
RTVSPropertyOp26
 70
     0
102
RTVSPropertyOp27
 70
     0
102
RTVSPropertyOp28
 70
     1
102
RTVSPropertyOp29
 70
     1
102
RTVSPropertyOp30
 70
     1
102
RTVSPropertyOp31
 70
     1
102
RTVSPropertyOp32
 70
     1
102
RTVSPropertyOp33
 70
     1
102
RTVSPropertyOp34
 70
     1
102
RTVSPropertyOp35
 70
     1
102
RTVSPropertyOp36
 70
     1
102
RTVSPropertyOp37
 70
     0
102
RTVSPropertyOp38
 70
     0
102
RTVSPropertyOp39
 70
     0
102
RTVSPropertyOp40
 70
     0
102
RTVSPropertyOp41
 70
     0
102
RTVSPropertyOp42
 70
     0
102
RTVSPropertyOp43
 70
     0
102
RTVSPropertyOp44
 70
     0
102
RTVSPropertyOp45
 70
     1
102
RTVSPropertyOp46
 70
     0
102
RTVSPropertyOp47
 70
     0
102
RTVSPropertyOp48
 70
     0
102
RTVSPropertyOp49
 70
     1
102
RTVSPropertyOp50
 70
     0
102
RTVSPropertyOp51
 70
     0
102
RTVSPropertyOp52
 70
     0
102
RTVSPropertyOp53
 70
     0
102
RTVSPropertyOp54
 70
     0
102
RTVSPropertyOp55
 70
     1
102
RTVSPropertyOp56
 70
     0
102
RTVSPropertyOp57
 70
     0
102
RTVSPropertyOp58
 70
     0
102
RTVSPropertyOp59
 70
     0
102
RTVSPropertyOp60
 70
     0
102
RTVSPropertyOp61
 70
     0
102
RTVSPropertyOp62
 70
     0
  0
XRECORD
  5
B27
102
{ACAD_REACTORS
330
B26
102
}
330
B26
100
AcDbXrecord
280
     1
102
RTVSPost2010Prop28
280
     0
102
RTVSPost2010PropOp28
 70
     1
102
RTVSPost2010Prop29
280
     1
102
RTVSPost2010PropOp29
 70
     1
102
RTVSPost2010Prop30
280
     1
102
RTVSPost2010PropOp30
 70
     1
102
RTVSPost2010Prop31
280
     0
102
RTVSPost2010PropOp31
 70
     1
102
RTVSPost2010Prop32
280
     0
102
RTVSPost2010PropOp32
 70
     1
102
RTVSPost2010Prop33
280
     0
102
RTVSPost2010PropOp33
 70
     1
102
RTVSPost2010Prop34
280
     0
102
RTVSPost2010PropOp34
 70
     1
102
RTVSPost2010Prop35
280
     0
102
RTVSPost2010PropOp35
 70
     1
102
RTVSPost2010Prop36
280
     0
102
RTVSPost2010PropOp36
 70
     1
102
RTVSPost2010Prop37
 90
       50
102
RTVSPost2010PropOp37
 70
     1
102
RTVSPost2010Prop38
140
0.0
102
RTVSPost2010PropOp38
 70
     1
102
RTVSPost2010Prop39
140
1.0
102
RTVSPost2010PropOp39
 70
     1
102
RTVSPost2010Prop40
 90
        0
102
RTVSPost2010PropOp40
 70
     1
102
RTVSPost2010Prop41ColorIndex
 90
       18
102
RTVSPost2010Prop41ColorRGB
 90
        0
102
RTVSPost2010PropOp41
 70
     1
102
RTVSPost2010Prop42
 90
       50
102
RTVSPost2010PropOp42
 70
     1
102
RTVSPost2010Prop43
 90
        3
102
RTVSPost2010PropOp43
 70
     1
102
RTVSPost2010Prop44ColorIndex
 90
        5
102
RTVSPost2010Prop44ColorRGB
 90
      255
102
RTVSPost2010PropOp44
 70
     1
102
RTVSPost2010Prop45
280
     0
102
RTVSPost2010PropOp45
 70
     1
102
RTVSPost2010Prop46
 90
       50
102
RTVSPost2010PropOp46
 70
     1
102
RTVSPost2010Prop47
 90
       50
102
RTVSPost2010PropOp47
 70
     1
102
RTVSPost2010Prop48
 90
       50
102
RTVSPost2010PropOp48
 70
     1
102
RTVSPost2010Prop49
280
     0
102
RTVSPost2010PropOp49
 70
     1
102
RTVSPost2010Prop50
 90
       50
102
RTVSPost2010PropOp50
 70
     1
102
RTVSPost2010Prop51ColorIndex
 90
      256
102
RTVSPost2010Prop51ColorRGB
 90
-16777216
102
RTVSPost2010PropOp51
 70
     0
102
RTVSPost2010Prop52
140
1.0
102
RTVSPost2010PropOp52
 70
     0
102
RTVSPost2010Prop53
 90
        2
102
RTVSPost2010PropOp53
 70
     1
102
RTVSPost2010Prop54
  1
strokes_ogs.tif
102
RTVSPost2010PropOp54
 70
     1
102
RTVSPost2010Prop55
280
     0
102
RTVSPost2010PropOp55
 70
     1
102
RTVSPost2010Prop56
140
1.0
102
RTVSPost2010PropOp56
 70
     1
102
RTVSPost2010Prop57
140
1.0
102
RTVSPost2010PropOp57
 70
     1
102
RTVSPropertyOp0
 70
     1
102
RTVSPropertyOp1
 70
     1
102
RTVSPropertyOp2
 70
     1
102
RTVSPropertyOp3
 70
     1
102
RTVSPropertyOp4
 70
     1
102
RTVSPropertyOp5
 70
     1
102
RTVSPropertyOp6
 70
     1
102
RTVSPropertyOp7
 70
     1
102
RTVSPropertyOp8
 70
     1
102
RTVSPropertyOp9
 70
     1
102
RTVSPropertyOp10
 70
     1
102
RTVSPropertyOp11
 70
     1
102
RTVSPropertyOp12
 70
     1
102
RTVSPropertyOp13
 70
     1
102
RTVSPropertyOp14
 70
     1
102
RTVSPropertyOp15
 70
     1
102
RTVSPropertyOp16
 70
     1
102
RTVSPropertyOp17
 70
     1
102
RTVSPropertyOp18
 70
     1
102
RTVSPropertyOp19
 70
     1
102
RTVSPropertyOp20
 70
     1
102
RTVSPropertyOp21
 70
     1
102
RTVSPropertyOp22
 70
     1
102
RTVSPropertyOp23
 70
     1
102
RTVSPropertyOp24
 70
     1
102
RTVSPropertyOp25
 70
     1
102
RTVSPropertyOp26
 70
     1
102
RTVSPropertyOp27
 70
     1
102
RTVSPropertyOp28
 70
     1
102
RTVSPropertyOp29
 70
     1
102
RTVSPropertyOp30
 70
     1
102
RTVSPropertyOp31
 70
     1
102
RTVSPropertyOp32
 70
     1
102
RTVSPropertyOp33
 70
     1
102
RTVSPropertyOp34
 70
     1
102
RTVSPropertyOp35
 70
     1
102
RTVSPropertyOp36
 70
     1
102
RTVSPropertyOp37
 70
     1
102
RTVSPropertyOp38
 70
     1
102
RTVSPropertyOp39
 70
     1
102
RTVSPropertyOp40
 70
     1
102
RTVSPropertyOp41
 70
     1
102
RTVSPropertyOp42
 70
     1
102
RTVSPropertyOp43
 70
     1
102
RTVSPropertyOp44
 70
     1
102
RTVSPropertyOp45
 70
     1
102
RTVSPropertyOp46
 70
     1
102
RTVSPropertyOp47
 70
     1
102
RTVSPropertyOp48
 70
     1
102
RTVSPropertyOp49
 70
     1
102
RTVSPropertyOp50
 70
     1
102
RTVSPropertyOp51
 70
     0
102
RTVSPropertyOp52
 70
     0
102
RTVSPropertyOp53
 70
     1
102
RTVSPropertyOp54
 70
     1
102
RTVSPropertyOp55
 70
     1
102
RTVSPropertyOp56
 70
     1
102
RTVSPropertyOp57
 70
     1
102
RTVSPropertyOp58
 70
     1
102
RTVSPropertyOp59
 70
     1
102
RTVSPropertyOp60
 70
     1
102
RTVSPropertyOp61
 70
     1
102
RTVSPropertyOp62
 70
     1
  0
XRECORD
  5
B0B
102
{ACAD_REACTORS
330
B0A
102
}
330
B0A
100
AcDbXrecord
280
     1
102
RTVSPost2010Prop28
280
     0
102
RTVSPost2010PropOp28
 70
     1
102
RTVSPost2010Prop29
280
     1
102
RTVSPost2010PropOp29
 70
     1
102
RTVSPost2010Prop30
280
     1
102
RTVSPost2010PropOp30
 70
     1
102
RTVSPost2010Prop31
280
     0
102
RTVSPost2010PropOp31
 70
     1
102
RTVSPost2010Prop32
280
     0
102
RTVSPost2010PropOp32
 70
     1
102
RTVSPost2010Prop33
280
     0
102
RTVSPost2010PropOp33
 70
     1
102
RTVSPost2010Prop34
280
     0
102
RTVSPost2010PropOp34
 70
     1
102
RTVSPost2010Prop35
280
     0
102
RTVSPost2010PropOp35
 70
     1
102
RTVSPost2010Prop36
280
     0
102
RTVSPost2010PropOp36
 70
     1
102
RTVSPost2010Prop37
 90
       50
102
RTVSPost2010PropOp37
 70
     1
102
RTVSPost2010Prop38
140
0.0
102
RTVSPost2010PropOp38
 70
     1
102
RTVSPost2010Prop39
140
1.0
102
RTVSPost2010PropOp39
 70
     1
102
RTVSPost2010Prop40
 90
        0
102
RTVSPost2010PropOp40
 70
     1
102
RTVSPost2010Prop41ColorIndex
 90
       18
102
RTVSPost2010Prop41ColorRGB
 90
        0
102
RTVSPost2010PropOp41
 70
     1
102
RTVSPost2010Prop42
 90
       50
102
RTVSPost2010PropOp42
 70
     1
102
RTVSPost2010Prop43
 90
        3
102
RTVSPost2010PropOp43
 70
     1
102
RTVSPost2010Prop44ColorIndex
 90
        5
102
RTVSPost2010Prop44ColorRGB
 90
      255
102
RTVSPost2010PropOp44
 70
     1
102
RTVSPost2010Prop45
280
     0
102
RTVSPost2010PropOp45
 70
     1
102
RTVSPost2010Prop46
 90
       50
102
RTVSPost2010PropOp46
 70
     1
102
RTVSPost2010Prop47
 90
       50
102
RTVSPost2010PropOp47
 70
     1
102
RTVSPost2010Prop48
 90
       50
102
RTVSPost2010PropOp48
 70
     1
102
RTVSPost2010Prop49
280
     0
102
RTVSPost2010PropOp49
 70
     1
102
RTVSPost2010Prop50
 90
       50
102
RTVSPost2010PropOp50
 70
     1
102
RTVSPost2010Prop51ColorIndex
 90
      256
102
RTVSPost2010Prop51ColorRGB
 90
-16777216
102
RTVSPost2010PropOp51
 70
     0
102
RTVSPost2010Prop52
140
1.0
102
RTVSPost2010PropOp52
 70
     0
102
RTVSPost2010Prop53
 90
        2
102
RTVSPost2010PropOp53
 70
     1
102
RTVSPost2010Prop54
  1
strokes_ogs.tif
102
RTVSPost2010PropOp54
 70
     1
102
RTVSPost2010Prop55
280
     0
102
RTVSPost2010PropOp55
 70
     1
102
RTVSPost2010Prop56
140
1.0
102
RTVSPost2010PropOp56
 70
     1
102
RTVSPost2010Prop57
140
1.0
102
RTVSPost2010PropOp57
 70
     1
102
RTVSPropertyOp0
 70
     1
102
RTVSPropertyOp1
 70
     1
102
RTVSPropertyOp2
 70
     1
102
RTVSPropertyOp3
 70
     1
102
RTVSPropertyOp4
 70
     1
102
RTVSPropertyOp5
 70
     1
102
RTVSPropertyOp6
 70
     1
102
RTVSPropertyOp7
 70
     1
102
RTVSPropertyOp8
 70
     1
102
RTVSPropertyOp9
 70
     1
102
RTVSPropertyOp10
 70
     1
102
RTVSPropertyOp11
 70
     1
102
RTVSPropertyOp12
 70
     1
102
RTVSPropertyOp13
 70
     1
102
RTVSPropertyOp14
 70
     1
102
RTVSPropertyOp15
 70
     1
102
RTVSPropertyOp16
 70
     1
102
RTVSPropertyOp17
 70
     1
102
RTVSPropertyOp18
 70
     1
102
RTVSPropertyOp19
 70
     1
102
RTVSPropertyOp20
 70
     1
102
RTVSPropertyOp21
 70
     1
102
RTVSPropertyOp22
 70
     1
102
RTVSPropertyOp23
 70
     1
102
RTVSPropertyOp24
 70
     1
102
RTVSPropertyOp25
 70
     1
102
RTVSPropertyOp26
 70
     1
102
RTVSPropertyOp27
 70
     1
102
RTVSPropertyOp28
 70
     1
102
RTVSPropertyOp29
 70
     1
102
RTVSPropertyOp30
 70
     1
102
RTVSPropertyOp31
 70
     1
102
RTVSPropertyOp32
 70
     1
102
RTVSPropertyOp33
 70
     1
102
RTVSPropertyOp34
 70
     1
102
RTVSPropertyOp35
 70
     1
102
RTVSPropertyOp36
 70
     1
102
RTVSPropertyOp37
 70
     1
102
RTVSPropertyOp38
 70
     1
102
RTVSPropertyOp39
 70
     1
102
RTVSPropertyOp40
 70
     1
102
RTVSPropertyOp41
 70
     1
102
RTVSPropertyOp42
 70
     1
102
RTVSPropertyOp43
 70
     1
102
RTVSPropertyOp44
 70
     1
102
RTVSPropertyOp45
 70
     1
102
RTVSPropertyOp46
 70
     1
102
RTVSPropertyOp47
 70
     1
102
RTVSPropertyOp48
 70
     1
102
RTVSPropertyOp49
 70
     1
102
RTVSPropertyOp50
 70
     1
102
RTVSPropertyOp51
 70
     0
102
RTVSPropertyOp52
 70
     0
102
RTVSPropertyOp53
 70
     1
102
RTVSPropertyOp54
 70
     1
102
RTVSPropertyOp55
 70
     1
102
RTVSPropertyOp56
 70
     1
102
RTVSPropertyOp57
 70
     1
102
RTVSPropertyOp58
 70
     1
102
RTVSPropertyOp59
 70
     1
102
RTVSPropertyOp60
 70
     1
102
RTVSPropertyOp61
 70
     1
102
RTVSPropertyOp62
 70
     1
  0
XRECORD
  5
B0D
102
{ACAD_REACTORS
330
B0C
102
}
330
B0C
100
AcDbXrecord
280
     1
102
RTVSPost2010Prop28
280
     0
102
RTVSPost2010PropOp28
 70
     1
102
RTVSPost2010Prop29
280
     1
102
RTVSPost2010PropOp29
 70
     1
102
RTVSPost2010Prop30
280
     1
102
RTVSPost2010PropOp30
 70
     1
102
RTVSPost2010Prop31
280
     0
102
RTVSPost2010PropOp31
 70
     1
102
RTVSPost2010Prop32
280
     0
102
RTVSPost2010PropOp32
 70
     1
102
RTVSPost2010Prop33
280
     0
102
RTVSPost2010PropOp33
 70
     1
102
RTVSPost2010Prop34
280
     0
102
RTVSPost2010PropOp34
 70
     1
102
RTVSPost2010Prop35
280
     0
102
RTVSPost2010PropOp35
 70
     1
102
RTVSPost2010Prop36
280
     0
102
RTVSPost2010PropOp36
 70
     1
102
RTVSPost2010Prop37
 90
       50
102
RTVSPost2010PropOp37
 70
     1
102
RTVSPost2010Prop38
140
0.0
102
RTVSPost2010PropOp38
 70
     1
102
RTVSPost2010Prop39
140
1.0
102
RTVSPost2010PropOp39
 70
     1
102
RTVSPost2010Prop40
 90
        0
102
RTVSPost2010PropOp40
 70
     1
102
RTVSPost2010Prop41ColorIndex
 90
       18
102
RTVSPost2010Prop41ColorRGB
 90
        0
102
RTVSPost2010PropOp41
 70
     1
102
RTVSPost2010Prop42
 90
       50
102
RTVSPost2010PropOp42
 70
     1
102
RTVSPost2010Prop43
 90
        3
102
RTVSPost2010PropOp43
 70
     1
102
RTVSPost2010Prop44ColorIndex
 90
        5
102
RTVSPost2010Prop44ColorRGB
 90
      255
102
RTVSPost2010PropOp44
 70
     1
102
RTVSPost2010Prop45
280
     0
102
RTVSPost2010PropOp45
 70
     1
102
RTVSPost2010Prop46
 90
       50
102
RTVSPost2010PropOp46
 70
     1
102
RTVSPost2010Prop47
 90
       50
102
RTVSPost2010PropOp47
 70
     1
102
RTVSPost2010Prop48
 90
       50
102
RTVSPost2010PropOp48
 70
     1
102
RTVSPost2010Prop49
280
     0
102
RTVSPost2010PropOp49
 70
     1
102
RTVSPost2010Prop50
 90
       50
102
RTVSPost2010PropOp50
 70
     1
102
RTVSPost2010Prop51ColorIndex
 90
      256
102
RTVSPost2010Prop51ColorRGB
 90
-16777216
102
RTVSPost2010PropOp51
 70
     0
102
RTVSPost2010Prop52
140
1.0
102
RTVSPost2010PropOp52
 70
     0
102
RTVSPost2010Prop53
 90
        2
102
RTVSPost2010PropOp53
 70
     1
102
RTVSPost2010Prop54
  1
strokes_ogs.tif
102
RTVSPost2010PropOp54
 70
     1
102
RTVSPost2010Prop55
280
     0
102
RTVSPost2010PropOp55
 70
     1
102
RTVSPost2010Prop56
140
1.0
102
RTVSPost2010PropOp56
 70
     1
102
RTVSPost2010Prop57
140
1.0
102
RTVSPost2010PropOp57
 70
     1
102
RTVSPropertyOp0
 70
     1
102
RTVSPropertyOp1
 70
     1
102
RTVSPropertyOp2
 70
     1
102
RTVSPropertyOp3
 70
     1
102
RTVSPropertyOp4
 70
     1
102
RTVSPropertyOp5
 70
     1
102
RTVSPropertyOp6
 70
     1
102
RTVSPropertyOp7
 70
     1
102
RTVSPropertyOp8
 70
     1
102
RTVSPropertyOp9
 70
     1
102
RTVSPropertyOp10
 70
     1
102
RTVSPropertyOp11
 70
     1
102
RTVSPropertyOp12
 70
     1
102
RTVSPropertyOp13
 70
     1
102
RTVSPropertyOp14
 70
     1
102
RTVSPropertyOp15
 70
     1
102
RTVSPropertyOp16
 70
     1
102
RTVSPropertyOp17
 70
     1
102
RTVSPropertyOp18
 70
     1
102
RTVSPropertyOp19
 70
     1
102
RTVSPropertyOp20
 70
     1
102
RTVSPropertyOp21
 70
     1
102
RTVSPropertyOp22
 70
     1
102
RTVSPropertyOp23
 70
     1
102
RTVSPropertyOp24
 70
     1
102
RTVSPropertyOp25
 70
     1
102
RTVSPropertyOp26
 70
     1
102
RTVSPropertyOp27
 70
     1
102
RTVSPropertyOp28
 70
     1
102
RTVSPropertyOp29
 70
     1
102
RTVSPropertyOp30
 70
     1
102
RTVSPropertyOp31
 70
     1
102
RTVSPropertyOp32
 70
     1
102
RTVSPropertyOp33
 70
     1
102
RTVSPropertyOp34
 70
     1
102
RTVSPropertyOp35
 70
     1
102
RTVSPropertyOp36
 70
     1
102
RTVSPropertyOp37
 70
     1
102
RTVSPropertyOp38
 70
     1
102
RTVSPropertyOp39
 70
     1
102
RTVSPropertyOp40
 70
     1
102
RTVSPropertyOp41
 70
     1
102
RTVSPropertyOp42
 70
     1
102
RTVSPropertyOp43
 70
     1
102
RTVSPropertyOp44
 70
     1
102
RTVSPropertyOp45
 70
     1
102
RTVSPropertyOp46
 70
     1
102
RTVSPropertyOp47
 70
     1
102
RTVSPropertyOp48
 70
     1
102
RTVSPropertyOp49
 70
     1
102
RTVSPropertyOp50
 70
     1
102
RTVSPropertyOp51
 70
     0
102
RTVSPropertyOp52
 70
     0
102
RTVSPropertyOp53
 70
     1
102
RTVSPropertyOp54
 70
     1
102
RTVSPropertyOp55
 70
     1
102
RTVSPropertyOp56
 70
     1
102
RTVSPropertyOp57
 70
     1
102
RTVSPropertyOp58
 70
     1
102
RTVSPropertyOp59
 70
     1
102
RTVSPropertyOp60
 70
     1
102
RTVSPropertyOp61
 70
     1
102
RTVSPropertyOp62
 70
     1
  0
XRECORD
  5
B0F
102
{ACAD_REACTORS
330
B0E
102
}
330
B0E
100
AcDbXrecord
280
     1
102
RTVSPost2010Prop28
280
     0
102
RTVSPost2010PropOp28
 70
     1
102
RTVSPost2010Prop29
280
     1
102
RTVSPost2010PropOp29
 70
     1
102
RTVSPost2010Prop30
280
     1
102
RTVSPost2010PropOp30
 70
     1
102
RTVSPost2010Prop31
280
     0
102
RTVSPost2010PropOp31
 70
     1
102
RTVSPost2010Prop32
280
     0
102
RTVSPost2010PropOp32
 70
     1
102
RTVSPost2010Prop33
280
     0
102
RTVSPost2010PropOp33
 70
     1
102
RTVSPost2010Prop34
280
     0
102
RTVSPost2010PropOp34
 70
     1
102
RTVSPost2010Prop35
280
     0
102
RTVSPost2010PropOp35
 70
     1
102
RTVSPost2010Prop36
280
     0
102
RTVSPost2010PropOp36
 70
     1
102
RTVSPost2010Prop37
 90
       50
102
RTVSPost2010PropOp37
 70
     1
102
RTVSPost2010Prop38
140
0.0
102
RTVSPost2010PropOp38
 70
     1
102
RTVSPost2010Prop39
140
1.0
102
RTVSPost2010PropOp39
 70
     1
102
RTVSPost2010Prop40
 90
        0
102
RTVSPost2010PropOp40
 70
     1
102
RTVSPost2010Prop41ColorIndex
 90
       18
102
RTVSPost2010Prop41ColorRGB
 90
        0
102
RTVSPost2010PropOp41
 70
     1
102
RTVSPost2010Prop42
 90
       50
102
RTVSPost2010PropOp42
 70
     1
102
RTVSPost2010Prop43
 90
        3
102
RTVSPost2010PropOp43
 70
     1
102
RTVSPost2010Prop44ColorIndex
 90
        5
102
RTVSPost2010Prop44ColorRGB
 90
      255
102
RTVSPost2010PropOp44
 70
     1
102
RTVSPost2010Prop45
280
     0
102
RTVSPost2010PropOp45
 70
     1
102
RTVSPost2010Prop46
 90
       50
102
RTVSPost2010PropOp46
 70
     1
102
RTVSPost2010Prop47
 90
       50
102
RTVSPost2010PropOp47
 70
     1
102
RTVSPost2010Prop48
 90
       50
102
RTVSPost2010PropOp48
 70
     1
102
RTVSPost2010Prop49
280
     0
102
RTVSPost2010PropOp49
 70
     1
102
RTVSPost2010Prop50
 90
       50
102
RTVSPost2010PropOp50
 70
     1
102
RTVSPost2010Prop51ColorIndex
 90
      256
102
RTVSPost2010Prop51ColorRGB
 90
-16777216
102
RTVSPost2010PropOp51
 70
     0
102
RTVSPost2010Prop52
140
1.0
102
RTVSPost2010PropOp52
 70
     0
102
RTVSPost2010Prop53
 90
        2
102
RTVSPost2010PropOp53
 70
     1
102
RTVSPost2010Prop54
  1
strokes_ogs.tif
102
RTVSPost2010PropOp54
 70
     1
102
RTVSPost2010Prop55
280
     0
102
RTVSPost2010PropOp55
 70
     1
102
RTVSPost2010Prop56
140
1.0
102
RTVSPost2010PropOp56
 70
     1
102
RTVSPost2010Prop57
140
1.0
102
RTVSPost2010PropOp57
 70
     1
102
RTVSPropertyOp0
 70
     1
102
RTVSPropertyOp1
 70
     1
102
RTVSPropertyOp2
 70
     1
102
RTVSPropertyOp3
 70
     1
102
RTVSPropertyOp4
 70
     1
102
RTVSPropertyOp5
 70
     1
102
RTVSPropertyOp6
 70
     1
102
RTVSPropertyOp7
 70
     1
102
RTVSPropertyOp8
 70
     1
102
RTVSPropertyOp9
 70
     1
102
RTVSPropertyOp10
 70
     1
102
RTVSPropertyOp11
 70
     1
102
RTVSPropertyOp12
 70
     1
102
RTVSPropertyOp13
 70
     1
102
RTVSPropertyOp14
 70
     1
102
RTVSPropertyOp15
 70
     1
102
RTVSPropertyOp16
 70
     1
102
RTVSPropertyOp17
 70
     1
102
RTVSPropertyOp18
 70
     1
102
RTVSPropertyOp19
 70
     1
102
RTVSPropertyOp20
 70
     1
102
RTVSPropertyOp21
 70
     1
102
RTVSPropertyOp22
 70
     1
102
RTVSPropertyOp23
 70
     1
102
RTVSPropertyOp24
 70
     1
102
RTVSPropertyOp25
 70
     1
102
RTVSPropertyOp26
 70
     1
102
RTVSPropertyOp27
 70
     1
102
RTVSPropertyOp28
 70
     1
102
RTVSPropertyOp29
 70
     1
102
RTVSPropertyOp30
 70
     1
102
RTVSPropertyOp31
 70
     1
102
RTVSPropertyOp32
 70
     1
102
RTVSPropertyOp33
 70
     1
102
RTVSPropertyOp34
 70
     1
102
RTVSPropertyOp35
 70
     1
102
RTVSPropertyOp36
 70
     1
102
RTVSPropertyOp37
 70
     1
102
RTVSPropertyOp38
 70
     1
102
RTVSPropertyOp39
 70
     1
102
RTVSPropertyOp40
 70
     1
102
RTVSPropertyOp41
 70
     1
102
RTVSPropertyOp42
 70
     1
102
RTVSPropertyOp43
 70
     1
102
RTVSPropertyOp44
 70
     1
102
RTVSPropertyOp45
 70
     1
102
RTVSPropertyOp46
 70
     1
102
RTVSPropertyOp47
 70
     1
102
RTVSPropertyOp48
 70
     1
102
RTVSPropertyOp49
 70
     1
102
RTVSPropertyOp50
 70
     1
102
RTVSPropertyOp51
 70
     0
102
RTVSPropertyOp52
 70
     0
102
RTVSPropertyOp53
 70
     1
102
RTVSPropertyOp54
 70
     1
102
RTVSPropertyOp55
 70
     1
102
RTVSPropertyOp56
 70
     1
102
RTVSPropertyOp57
 70
     1
102
RTVSPropertyOp58
 70
     1
102
RTVSPropertyOp59
 70
     1
102
RTVSPropertyOp60
 70
     1
102
RTVSPropertyOp61
 70
     1
102
RTVSPropertyOp62
 70
     1
  0
XRECORD
  5
B11
102
{ACAD_REACTORS
330
B10
102
}
330
B10
100
AcDbXrecord
280
     1
102
RTVSPost2010Prop28
280
     0
102
RTVSPost2010PropOp28
 70
     1
102
RTVSPost2010Prop29
280
     1
102
RTVSPost2010PropOp29
 70
     1
102
RTVSPost2010Prop30
280
     1
102
RTVSPost2010PropOp30
 70
     1
102
RTVSPost2010Prop31
280
     0
102
RTVSPost2010PropOp31
 70
     1
102
RTVSPost2010Prop32
280
     0
102
RTVSPost2010PropOp32
 70
     1
102
RTVSPost2010Prop33
280
     0
102
RTVSPost2010PropOp33
 70
     1
102
RTVSPost2010Prop34
280
     0
102
RTVSPost2010PropOp34
 70
     1
102
RTVSPost2010Prop35
280
     0
102
RTVSPost2010PropOp35
 70
     1
102
RTVSPost2010Prop36
280
     0
102
RTVSPost2010PropOp36
 70
     1
102
RTVSPost2010Prop37
 90
       50
102
RTVSPost2010PropOp37
 70
     1
102
RTVSPost2010Prop38
140
0.0
102
RTVSPost2010PropOp38
 70
     1
102
RTVSPost2010Prop39
140
1.0
102
RTVSPost2010PropOp39
 70
     1
102
RTVSPost2010Prop40
 90
        0
102
RTVSPost2010PropOp40
 70
     1
102
RTVSPost2010Prop41ColorIndex
 90
       18
102
RTVSPost2010Prop41ColorRGB
 90
        0
102
RTVSPost2010PropOp41
 70
     1
102
RTVSPost2010Prop42
 90
       50
102
RTVSPost2010PropOp42
 70
     1
102
RTVSPost2010Prop43
 90
        3
102
RTVSPost2010PropOp43
 70
     1
102
RTVSPost2010Prop44ColorIndex
 90
        5
102
RTVSPost2010Prop44ColorRGB
 90
      255
102
RTVSPost2010PropOp44
 70
     1
102
RTVSPost2010Prop45
280
     0
102
RTVSPost2010PropOp45
 70
     1
102
RTVSPost2010Prop46
 90
       50
102
RTVSPost2010PropOp46
 70
     1
102
RTVSPost2010Prop47
 90
       50
102
RTVSPost2010PropOp47
 70
     1
102
RTVSPost2010Prop48
 90
       50
102
RTVSPost2010PropOp48
 70
     1
102
RTVSPost2010Prop49
280
     0
102
RTVSPost2010PropOp49
 70
     1
102
RTVSPost2010Prop50
 90
       50
102
RTVSPost2010PropOp50
 70
     1
102
RTVSPost2010Prop51ColorIndex
 90
      256
102
RTVSPost2010Prop51ColorRGB
 90
-16777216
102
RTVSPost2010PropOp51
 70
     0
102
RTVSPost2010Prop52
140
1.0
102
RTVSPost2010PropOp52
 70
     0
102
RTVSPost2010Prop53
 90
        2
102
RTVSPost2010PropOp53
 70
     1
102
RTVSPost2010Prop54
  1
strokes_ogs.tif
102
RTVSPost2010PropOp54
 70
     1
102
RTVSPost2010Prop55
280
     0
102
RTVSPost2010PropOp55
 70
     1
102
RTVSPost2010Prop56
140
1.0
102
RTVSPost2010PropOp56
 70
     1
102
RTVSPost2010Prop57
140
1.0
102
RTVSPost2010PropOp57
 70
     1
102
RTVSPropertyOp0
 70
     1
102
RTVSPropertyOp1
 70
     1
102
RTVSPropertyOp2
 70
     1
102
RTVSPropertyOp3
 70
     1
102
RTVSPropertyOp4
 70
     1
102
RTVSPropertyOp5
 70
     1
102
RTVSPropertyOp6
 70
     1
102
RTVSPropertyOp7
 70
     1
102
RTVSPropertyOp8
 70
     1
102
RTVSPropertyOp9
 70
     1
102
RTVSPropertyOp10
 70
     1
102
RTVSPropertyOp11
 70
     1
102
RTVSPropertyOp12
 70
     1
102
RTVSPropertyOp13
 70
     1
102
RTVSPropertyOp14
 70
     1
102
RTVSPropertyOp15
 70
     1
102
RTVSPropertyOp16
 70
     1
102
RTVSPropertyOp17
 70
     1
102
RTVSPropertyOp18
 70
     1
102
RTVSPropertyOp19
 70
     1
102
RTVSPropertyOp20
 70
     1
102
RTVSPropertyOp21
 70
     1
102
RTVSPropertyOp22
 70
     1
102
RTVSPropertyOp23
 70
     1
102
RTVSPropertyOp24
 70
     1
102
RTVSPropertyOp25
 70
     1
102
RTVSPropertyOp26
 70
     1
102
RTVSPropertyOp27
 70
     1
102
RTVSPropertyOp28
 70
     1
102
RTVSPropertyOp29
 70
     1
102
RTVSPropertyOp30
 70
     1
102
RTVSPropertyOp31
 70
     1
102
RTVSPropertyOp32
 70
     1
102
RTVSPropertyOp33
 70
     1
102
RTVSPropertyOp34
 70
     1
102
RTVSPropertyOp35
 70
     1
102
RTVSPropertyOp36
 70
     1
102
RTVSPropertyOp37
 70
     1
102
RTVSPropertyOp38
 70
     1
102
RTVSPropertyOp39
 70
     1
102
RTVSPropertyOp40
 70
     1
102
RTVSPropertyOp41
 70
     1
102
RTVSPropertyOp42
 70
     1
102
RTVSPropertyOp43
 70
     1
102
RTVSPropertyOp44
 70
     1
102
RTVSPropertyOp45
 70
     1
102
RTVSPropertyOp46
 70
     1
102
RTVSPropertyOp47
 70
     1
102
RTVSPropertyOp48
 70
     1
102
RTVSPropertyOp49
 70
     1
102
RTVSPropertyOp50
 70
     1
102
RTVSPropertyOp51
 70
     0
102
RTVSPropertyOp52
 70
     0
102
RTVSPropertyOp53
 70
     1
102
RTVSPropertyOp54
 70
     1
102
RTVSPropertyOp55
 70
     1
102
RTVSPropertyOp56
 70
     1
102
RTVSPropertyOp57
 70
     1
102
RTVSPropertyOp58
 70
     1
102
RTVSPropertyOp59
 70
     1
102
RTVSPropertyOp60
 70
     1
102
RTVSPropertyOp61
 70
     1
102
RTVSPropertyOp62
 70
     1
  0
XRECORD
  5
B19
102
{ACAD_REACTORS
330
B18
102
}
330
B18
100
AcDbXrecord
280
     1
102
RTVSPost2010Prop28
280
     0
102
RTVSPost2010PropOp28
 70
     1
102
RTVSPost2010Prop29
280
     1
102
RTVSPost2010PropOp29
 70
     1
102
RTVSPost2010Prop30
280
     1
102
RTVSPost2010PropOp30
 70
     1
102
RTVSPost2010Prop31
280
     0
102
RTVSPost2010PropOp31
 70
     1
102
RTVSPost2010Prop32
280
     0
102
RTVSPost2010PropOp32
 70
     1
102
RTVSPost2010Prop33
280
     0
102
RTVSPost2010PropOp33
 70
     1
102
RTVSPost2010Prop34
280
     0
102
RTVSPost2010PropOp34
 70
     1
102
RTVSPost2010Prop35
280
     0
102
RTVSPost2010PropOp35
 70
     1
102
RTVSPost2010Prop36
280
     0
102
RTVSPost2010PropOp36
 70
     1
102
RTVSPost2010Prop37
 90
       50
102
RTVSPost2010PropOp37
 70
     1
102
RTVSPost2010Prop38
140
0.0
102
RTVSPost2010PropOp38
 70
     1
102
RTVSPost2010Prop39
140
1.0
102
RTVSPost2010PropOp39
 70
     1
102
RTVSPost2010Prop40
 90
        0
102
RTVSPost2010PropOp40
 70
     1
102
RTVSPost2010Prop41ColorIndex
 90
       18
102
RTVSPost2010Prop41ColorRGB
 90
        0
102
RTVSPost2010PropOp41
 70
     1
102
RTVSPost2010Prop42
 90
       50
102
RTVSPost2010PropOp42
 70
     1
102
RTVSPost2010Prop43
 90
        3
102
RTVSPost2010PropOp43
 70
     1
102
RTVSPost2010Prop44ColorIndex
 90
        5
102
RTVSPost2010Prop44ColorRGB
 90
      255
102
RTVSPost2010PropOp44
 70
     1
102
RTVSPost2010Prop45
280
     0
102
RTVSPost2010PropOp45
 70
     1
102
RTVSPost2010Prop46
 90
       50
102
RTVSPost2010PropOp46
 70
     1
102
RTVSPost2010Prop47
 90
       50
102
RTVSPost2010PropOp47
 70
     1
102
RTVSPost2010Prop48
 90
       50
102
RTVSPost2010PropOp48
 70
     1
102
RTVSPost2010Prop49
280
     0
102
RTVSPost2010PropOp49
 70
     1
102
RTVSPost2010Prop50
 90
       50
102
RTVSPost2010PropOp50
 70
     1
102
RTVSPost2010Prop51ColorIndex
 90
      256
102
RTVSPost2010Prop51ColorRGB
 90
-16777216
102
RTVSPost2010PropOp51
 70
     0
102
RTVSPost2010Prop52
140
1.0
102
RTVSPost2010PropOp52
 70
     0
102
RTVSPost2010Prop53
 90
        2
102
RTVSPost2010PropOp53
 70
     1
102
RTVSPost2010Prop54
  1
strokes_ogs.tif
102
RTVSPost2010PropOp54
 70
     1
102
RTVSPost2010Prop55
280
     0
102
RTVSPost2010PropOp55
 70
     1
102
RTVSPost2010Prop56
140
1.0
102
RTVSPost2010PropOp56
 70
     1
102
RTVSPost2010Prop57
140
1.0
102
RTVSPost2010PropOp57
 70
     1
102
RTVSPropertyOp0
 70
     1
102
RTVSPropertyOp1
 70
     1
102
RTVSPropertyOp2
 70
     1
102
RTVSPropertyOp3
 70
     1
102
RTVSPropertyOp4
 70
     1
102
RTVSPropertyOp5
 70
     1
102
RTVSPropertyOp6
 70
     1
102
RTVSPropertyOp7
 70
     1
102
RTVSPropertyOp8
 70
     1
102
RTVSPropertyOp9
 70
     1
102
RTVSPropertyOp10
 70
     1
102
RTVSPropertyOp11
 70
     1
102
RTVSPropertyOp12
 70
     1
102
RTVSPropertyOp13
 70
     1
102
RTVSPropertyOp14
 70
     1
102
RTVSPropertyOp15
 70
     1
102
RTVSPropertyOp16
 70
     1
102
RTVSPropertyOp17
 70
     1
102
RTVSPropertyOp18
 70
     1
102
RTVSPropertyOp19
 70
     1
102
RTVSPropertyOp20
 70
     1
102
RTVSPropertyOp21
 70
     1
102
RTVSPropertyOp22
 70
     1
102
RTVSPropertyOp23
 70
     1
102
RTVSPropertyOp24
 70
     1
102
RTVSPropertyOp25
 70
     1
102
RTVSPropertyOp26
 70
     1
102
RTVSPropertyOp27
 70
     1
102
RTVSPropertyOp28
 70
     1
102
RTVSPropertyOp29
 70
     1
102
RTVSPropertyOp30
 70
     1
102
RTVSPropertyOp31
 70
     1
102
RTVSPropertyOp32
 70
     1
102
RTVSPropertyOp33
 70
     1
102
RTVSPropertyOp34
 70
     1
102
RTVSPropertyOp35
 70
     1
102
RTVSPropertyOp36
 70
     1
102
RTVSPropertyOp37
 70
     1
102
RTVSPropertyOp38
 70
     1
102
RTVSPropertyOp39
 70
     1
102
RTVSPropertyOp40
 70
     1
102
RTVSPropertyOp41
 70
     1
102
RTVSPropertyOp42
 70
     1
102
RTVSPropertyOp43
 70
     1
102
RTVSPropertyOp44
 70
     1
102
RTVSPropertyOp45
 70
     1
102
RTVSPropertyOp46
 70
     1
102
RTVSPropertyOp47
 70
     1
102
RTVSPropertyOp48
 70
     1
102
RTVSPropertyOp49
 70
     1
102
RTVSPropertyOp50
 70
     1
102
RTVSPropertyOp51
 70
     0
102
RTVSPropertyOp52
 70
     0
102
RTVSPropertyOp53
 70
     1
102
RTVSPropertyOp54
 70
     1
102
RTVSPropertyOp55
 70
     1
102
RTVSPropertyOp56
 70
     1
102
RTVSPropertyOp57
 70
     1
102
RTVSPropertyOp58
 70
     1
102
RTVSPropertyOp59
 70
     1
102
RTVSPropertyOp60
 70
     1
102
RTVSPropertyOp61
 70
     1
102
RTVSPropertyOp62
 70
     1
  0
XRECORD
  5
B35
102
{ACAD_REACTORS
330
B34
102
}
330
B34
100
AcDbXrecord
280
     1
102
RTVSPost2010Prop28
280
     0
102
RTVSPost2010PropOp28
 70
     1
102
RTVSPost2010Prop29
280
     1
102
RTVSPost2010PropOp29
 70
     1
102
RTVSPost2010Prop30
280
     1
102
RTVSPost2010PropOp30
 70
     1
102
RTVSPost2010Prop31
280
     0
102
RTVSPost2010PropOp31
 70
     1
102
RTVSPost2010Prop32
280
     0
102
RTVSPost2010PropOp32
 70
     1
102
RTVSPost2010Prop33
280
     0
102
RTVSPost2010PropOp33
 70
     1
102
RTVSPost2010Prop34
280
     0
102
RTVSPost2010PropOp34
 70
     1
102
RTVSPost2010Prop35
280
     0
102
RTVSPost2010PropOp35
 70
     1
102
RTVSPost2010Prop36
280
     0
102
RTVSPost2010PropOp36
 70
     1
102
RTVSPost2010Prop37
 90
       50
102
RTVSPost2010PropOp37
 70
     0
102
RTVSPost2010Prop38
140
0.0
102
RTVSPost2010PropOp38
 70
     0
102
RTVSPost2010Prop39
140
1.0
102
RTVSPost2010PropOp39
 70
     0
102
RTVSPost2010Prop40
 90
        0
102
RTVSPost2010PropOp40
 70
     0
102
RTVSPost2010Prop41ColorIndex
 90
       18
102
RTVSPost2010Prop41ColorRGB
 90
        0
102
RTVSPost2010PropOp41
 70
     0
102
RTVSPost2010Prop42
 90
       50
102
RTVSPost2010PropOp42
 70
     0
102
RTVSPost2010Prop43
 90
        3
102
RTVSPost2010PropOp43
 70
     0
102
RTVSPost2010Prop44ColorIndex
 90
        5
102
RTVSPost2010Prop44ColorRGB
 90
      255
102
RTVSPost2010PropOp44
 70
     0
102
RTVSPost2010Prop45
280
     0
102
RTVSPost2010PropOp45
 70
     1
102
RTVSPost2010Prop46
 90
       50
102
RTVSPost2010PropOp46
 70
     0
102
RTVSPost2010Prop47
 90
       50
102
RTVSPost2010PropOp47
 70
     0
102
RTVSPost2010Prop48
 90
       50
102
RTVSPost2010PropOp48
 70
     0
102
RTVSPost2010Prop49
280
     0
102
RTVSPost2010PropOp49
 70
     1
102
RTVSPost2010Prop50
 90
       50
102
RTVSPost2010PropOp50
 70
     0
102
RTVSPost2010Prop51ColorIndex
 90
      256
102
RTVSPost2010Prop51ColorRGB
 90
-16777216
102
RTVSPost2010PropOp51
 70
     0
102
RTVSPost2010Prop52
140
1.0
102
RTVSPost2010PropOp52
 70
     0
102
RTVSPost2010Prop53
 90
        2
102
RTVSPost2010PropOp53
 70
     0
102
RTVSPost2010Prop54
  1
strokes_ogs.tif
102
RTVSPost2010PropOp54
 70
     0
102
RTVSPost2010Prop55
280
     0
102
RTVSPost2010PropOp55
 70
     1
102
RTVSPost2010Prop56
140
1.0
102
RTVSPost2010PropOp56
 70
     0
102
RTVSPost2010Prop57
140
1.0
102
RTVSPost2010PropOp57
 70
     0
102
RTVSPropertyOp0
 70
     0
102
RTVSPropertyOp1
 70
     0
102
RTVSPropertyOp2
 70
     0
102
RTVSPropertyOp3
 70
     0
102
RTVSPropertyOp4
 70
     0
102
RTVSPropertyOp5
 70
     0
102
RTVSPropertyOp6
 70
     0
102
RTVSPropertyOp7
 70
     0
102
RTVSPropertyOp8
 70
     0
102
RTVSPropertyOp9
 70
     0
102
RTVSPropertyOp10
 70
     0
102
RTVSPropertyOp11
 70
     0
102
RTVSPropertyOp12
 70
     0
102
RTVSPropertyOp13
 70
     0
102
RTVSPropertyOp14
 70
     2
102
RTVSPropertyOp15
 70
     0
102
RTVSPropertyOp16
 70
     0
102
RTVSPropertyOp17
 70
     0
102
RTVSPropertyOp18
 70
     0
102
RTVSPropertyOp19
 70
     0
102
RTVSPropertyOp20
 70
     0
102
RTVSPropertyOp21
 70
     0
102
RTVSPropertyOp22
 70
     0
102
RTVSPropertyOp23
 70
     0
102
RTVSPropertyOp24
 70
     0
102
RTVSPropertyOp25
 70
     0
102
RTVSPropertyOp26
 70
     0
102
RTVSPropertyOp27
 70
     0
102
RTVSPropertyOp28
 70
     1
102
RTVSPropertyOp29
 70
     1
102
RTVSPropertyOp30
 70
     1
102
RTVSPropertyOp31
 70
     1
102
RTVSPropertyOp32
 70
     1
102
RTVSPropertyOp33
 70
     1
102
RTVSPropertyOp34
 70
     1
102
RTVSPropertyOp35
 70
     1
102
RTVSPropertyOp36
 70
     1
102
RTVSPropertyOp37
 70
     0
102
RTVSPropertyOp38
 70
     0
102
RTVSPropertyOp39
 70
     0
102
RTVSPropertyOp40
 70
     0
102
RTVSPropertyOp41
 70
     0
102
RTVSPropertyOp42
 70
     0
102
RTVSPropertyOp43
 70
     0
102
RTVSPropertyOp44
 70
     0
102
RTVSPropertyOp45
 70
     1
102
RTVSPropertyOp46
 70
     0
102
RTVSPropertyOp47
 70
     0
102
RTVSPropertyOp48
 70
     0
102
RTVSPropertyOp49
 70
     1
102
RTVSPropertyOp50
 70
     0
102
RTVSPropertyOp51
 70
     0
102
RTVSPropertyOp52
 70
     0
102
RTVSPropertyOp53
 70
     0
102
RTVSPropertyOp54
 70
     0
102
RTVSPropertyOp55
 70
     1
102
RTVSPropertyOp56
 70
     0
102
RTVSPropertyOp57
 70
     0
102
RTVSPropertyOp58
 70
     0
102
RTVSPropertyOp59
 70
     0
102
RTVSPropertyOp60
 70
     0
102
RTVSPropertyOp61
 70
     0
102
RTVSPropertyOp62
 70
     0
  0
XRECORD
  5
B25
102
{ACAD_REACTORS
330
B24
102
}
330
B24
100
AcDbXrecord
280
     1
102
RTVSPost2010Prop28
280
     0
102
RTVSPost2010PropOp28
 70
     1
102
RTVSPost2010Prop29
280
     1
102
RTVSPost2010PropOp29
 70
     1
102
RTVSPost2010Prop30
280
     1
102
RTVSPost2010PropOp30
 70
     1
102
RTVSPost2010Prop31
280
     0
102
RTVSPost2010PropOp31
 70
     1
102
RTVSPost2010Prop32
280
     0
102
RTVSPost2010PropOp32
 70
     1
102
RTVSPost2010Prop33
280
     0
102
RTVSPost2010PropOp33
 70
     1
102
RTVSPost2010Prop34
280
     0
102
RTVSPost2010PropOp34
 70
     1
102
RTVSPost2010Prop35
280
     0
102
RTVSPost2010PropOp35
 70
     1
102
RTVSPost2010Prop36
280
     0
102
RTVSPost2010PropOp36
 70
     1
102
RTVSPost2010Prop37
 90
       50
102
RTVSPost2010PropOp37
 70
     1
102
RTVSPost2010Prop38
140
0.0
102
RTVSPost2010PropOp38
 70
     1
102
RTVSPost2010Prop39
140
1.0
102
RTVSPost2010PropOp39
 70
     1
102
RTVSPost2010Prop40
 90
        0
102
RTVSPost2010PropOp40
 70
     1
102
RTVSPost2010Prop41ColorIndex
 90
       18
102
RTVSPost2010Prop41ColorRGB
 90
        0
102
RTVSPost2010PropOp41
 70
     1
102
RTVSPost2010Prop42
 90
       50
102
RTVSPost2010PropOp42
 70
     1
102
RTVSPost2010Prop43
 90
        3
102
RTVSPost2010PropOp43
 70
     1
102
RTVSPost2010Prop44ColorIndex
 90
        5
102
RTVSPost2010Prop44ColorRGB
 90
      255
102
RTVSPost2010PropOp44
 70
     1
102
RTVSPost2010Prop45
280
     0
102
RTVSPost2010PropOp45
 70
     1
102
RTVSPost2010Prop46
 90
       50
102
RTVSPost2010PropOp46
 70
     1
102
RTVSPost2010Prop47
 90
       50
102
RTVSPost2010PropOp47
 70
     1
102
RTVSPost2010Prop48
 90
       50
102
RTVSPost2010PropOp48
 70
     1
102
RTVSPost2010Prop49
280
     0
102
RTVSPost2010PropOp49
 70
     1
102
RTVSPost2010Prop50
 90
       50
102
RTVSPost2010PropOp50
 70
     1
102
RTVSPost2010Prop51ColorIndex
 90
      256
102
RTVSPost2010Prop51ColorRGB
 90
-16777216
102
RTVSPost2010PropOp51
 70
     0
102
RTVSPost2010Prop52
140
1.0
102
RTVSPost2010PropOp52
 70
     0
102
RTVSPost2010Prop53
 90
        2
102
RTVSPost2010PropOp53
 70
     1
102
RTVSPost2010Prop54
  1
strokes_ogs.tif
102
RTVSPost2010PropOp54
 70
     1
102
RTVSPost2010Prop55
280
     0
102
RTVSPost2010PropOp55
 70
     1
102
RTVSPost2010Prop56
140
1.0
102
RTVSPost2010PropOp56
 70
     1
102
RTVSPost2010Prop57
140
1.0
102
RTVSPost2010PropOp57
 70
     1
102
RTVSPropertyOp0
 70
     1
102
RTVSPropertyOp1
 70
     1
102
RTVSPropertyOp2
 70
     1
102
RTVSPropertyOp3
 70
     1
102
RTVSPropertyOp4
 70
     1
102
RTVSPropertyOp5
 70
     1
102
RTVSPropertyOp6
 70
     1
102
RTVSPropertyOp7
 70
     1
102
RTVSPropertyOp8
 70
     1
102
RTVSPropertyOp9
 70
     1
102
RTVSPropertyOp10
 70
     1
102
RTVSPropertyOp11
 70
     1
102
RTVSPropertyOp12
 70
     1
102
RTVSPropertyOp13
 70
     1
102
RTVSPropertyOp14
 70
     1
102
RTVSPropertyOp15
 70
     1
102
RTVSPropertyOp16
 70
     1
102
RTVSPropertyOp17
 70
     1
102
RTVSPropertyOp18
 70
     1
102
RTVSPropertyOp19
 70
     1
102
RTVSPropertyOp20
 70
     1
102
RTVSPropertyOp21
 70
     1
102
RTVSPropertyOp22
 70
     1
102
RTVSPropertyOp23
 70
     1
102
RTVSPropertyOp24
 70
     1
102
RTVSPropertyOp25
 70
     1
102
RTVSPropertyOp26
 70
     1
102
RTVSPropertyOp27
 70
     1
102
RTVSPropertyOp28
 70
     1
102
RTVSPropertyOp29
 70
     1
102
RTVSPropertyOp30
 70
     1
102
RTVSPropertyOp31
 70
     1
102
RTVSPropertyOp32
 70
     1
102
RTVSPropertyOp33
 70
     1
102
RTVSPropertyOp34
 70
     1
102
RTVSPropertyOp35
 70
     1
102
RTVSPropertyOp36
 70
     1
102
RTVSPropertyOp37
 70
     1
102
RTVSPropertyOp38
 70
     1
102
RTVSPropertyOp39
 70
     1
102
RTVSPropertyOp40
 70
     1
102
RTVSPropertyOp41
 70
     1
102
RTVSPropertyOp42
 70
     1
102
RTVSPropertyOp43
 70
     1
102
RTVSPropertyOp44
 70
     1
102
RTVSPropertyOp45
 70
     1
102
RTVSPropertyOp46
 70
     1
102
RTVSPropertyOp47
 70
     1
102
RTVSPropertyOp48
 70
     1
102
RTVSPropertyOp49
 70
     1
102
RTVSPropertyOp50
 70
     1
102
RTVSPropertyOp51
 70
     0
102
RTVSPropertyOp52
 70
     0
102
RTVSPropertyOp53
 70
     1
102
RTVSPropertyOp54
 70
     1
102
RTVSPropertyOp55
 70
     1
102
RTVSPropertyOp56
 70
     1
102
RTVSPropertyOp57
 70
     1
102
RTVSPropertyOp58
 70
     1
102
RTVSPropertyOp59
 70
     1
102
RTVSPropertyOp60
 70
     1
102
RTVSPropertyOp61
 70
     1
102
RTVSPropertyOp62
 70
     1
  0
XRECORD
  5
B37
102
{ACAD_REACTORS
330
B36
102
}
330
B36
100
AcDbXrecord
280
     1
102
RTVSPost2010Prop28
280
     0
102
RTVSPost2010PropOp28
 70
     1
102
RTVSPost2010Prop29
280
     1
102
RTVSPost2010PropOp29
 70
     1
102
RTVSPost2010Prop30
280
     1
102
RTVSPost2010PropOp30
 70
     1
102
RTVSPost2010Prop31
280
     0
102
RTVSPost2010PropOp31
 70
     1
102
RTVSPost2010Prop32
280
     0
102
RTVSPost2010PropOp32
 70
     1
102
RTVSPost2010Prop33
280
     0
102
RTVSPost2010PropOp33
 70
     1
102
RTVSPost2010Prop34
280
     0
102
RTVSPost2010PropOp34
 70
     1
102
RTVSPost2010Prop35
280
     0
102
RTVSPost2010PropOp35
 70
     1
102
RTVSPost2010Prop36
280
     0
102
RTVSPost2010PropOp36
 70
     1
102
RTVSPost2010Prop37
 90
       50
102
RTVSPost2010PropOp37
 70
     0
102
RTVSPost2010Prop38
140
0.0
102
RTVSPost2010PropOp38
 70
     0
102
RTVSPost2010Prop39
140
1.0
102
RTVSPost2010PropOp39
 70
     0
102
RTVSPost2010Prop40
 90
        0
102
RTVSPost2010PropOp40
 70
     0
102
RTVSPost2010Prop41ColorIndex
 90
       18
102
RTVSPost2010Prop41ColorRGB
 90
        0
102
RTVSPost2010PropOp41
 70
     0
102
RTVSPost2010Prop42
 90
       50
102
RTVSPost2010PropOp42
 70
     0
102
RTVSPost2010Prop43
 90
        3
102
RTVSPost2010PropOp43
 70
     0
102
RTVSPost2010Prop44ColorIndex
 90
        5
102
RTVSPost2010Prop44ColorRGB
 90
      255
102
RTVSPost2010PropOp44
 70
     0
102
RTVSPost2010Prop45
280
     0
102
RTVSPost2010PropOp45
 70
     1
102
RTVSPost2010Prop46
 90
       50
102
RTVSPost2010PropOp46
 70
     0
102
RTVSPost2010Prop47
 90
       50
102
RTVSPost2010PropOp47
 70
     0
102
RTVSPost2010Prop48
 90
       50
102
RTVSPost2010PropOp48
 70
     0
102
RTVSPost2010Prop49
280
     0
102
RTVSPost2010PropOp49
 70
     1
102
RTVSPost2010Prop50
 90
       50
102
RTVSPost2010PropOp50
 70
     0
102
RTVSPost2010Prop51ColorIndex
 90
      256
102
RTVSPost2010Prop51ColorRGB
 90
-16777216
102
RTVSPost2010PropOp51
 70
     0
102
RTVSPost2010Prop52
140
1.0
102
RTVSPost2010PropOp52
 70
     0
102
RTVSPost2010Prop53
 90
        2
102
RTVSPost2010PropOp53
 70
     0
102
RTVSPost2010Prop54
  1
strokes_ogs.tif
102
RTVSPost2010PropOp54
 70
     0
102
RTVSPost2010Prop55
280
     0
102
RTVSPost2010PropOp55
 70
     1
102
RTVSPost2010Prop56
140
1.0
102
RTVSPost2010PropOp56
 70
     0
102
RTVSPost2010Prop57
140
1.0
102
RTVSPost2010PropOp57
 70
     0
102
RTVSPropertyOp0
 70
     0
102
RTVSPropertyOp1
 70
     0
102
RTVSPropertyOp2
 70
     0
102
RTVSPropertyOp3
 70
     0
102
RTVSPropertyOp4
 70
     0
102
RTVSPropertyOp5
 70
     0
102
RTVSPropertyOp6
 70
     0
102
RTVSPropertyOp7
 70
     0
102
RTVSPropertyOp8
 70
     0
102
RTVSPropertyOp9
 70
     0
102
RTVSPropertyOp10
 70
     0
102
RTVSPropertyOp11
 70
     0
102
RTVSPropertyOp12
 70
     0
102
RTVSPropertyOp13
 70
     0
102
RTVSPropertyOp14
 70
     2
102
RTVSPropertyOp15
 70
     0
102
RTVSPropertyOp16
 70
     0
102
RTVSPropertyOp17
 70
     0
102
RTVSPropertyOp18
 70
     0
102
RTVSPropertyOp19
 70
     0
102
RTVSPropertyOp20
 70
     0
102
RTVSPropertyOp21
 70
     0
102
RTVSPropertyOp22
 70
     0
102
RTVSPropertyOp23
 70
     0
102
RTVSPropertyOp24
 70
     0
102
RTVSPropertyOp25
 70
     0
102
RTVSPropertyOp26
 70
     0
102
RTVSPropertyOp27
 70
     0
102
RTVSPropertyOp28
 70
     1
102
RTVSPropertyOp29
 70
     1
102
RTVSPropertyOp30
 70
     1
102
RTVSPropertyOp31
 70
     1
102
RTVSPropertyOp32
 70
     1
102
RTVSPropertyOp33
 70
     1
102
RTVSPropertyOp34
 70
     1
102
RTVSPropertyOp35
 70
     1
102
RTVSPropertyOp36
 70
     1
102
RTVSPropertyOp37
 70
     0
102
RTVSPropertyOp38
 70
     0
102
RTVSPropertyOp39
 70
     0
102
RTVSPropertyOp40
 70
     0
102
RTVSPropertyOp41
 70
     0
102
RTVSPropertyOp42
 70
     0
102
RTVSPropertyOp43
 70
     0
102
RTVSPropertyOp44
 70
     0
102
RTVSPropertyOp45
 70
     1
102
RTVSPropertyOp46
 70
     0
102
RTVSPropertyOp47
 70
     0
102
RTVSPropertyOp48
 70
     0
102
RTVSPropertyOp49
 70
     1
102
RTVSPropertyOp50
 70
     0
102
RTVSPropertyOp51
 70
     0
102
RTVSPropertyOp52
 70
     0
102
RTVSPropertyOp53
 70
     0
102
RTVSPropertyOp54
 70
     0
102
RTVSPropertyOp55
 70
     1
102
RTVSPropertyOp56
 70
     0
102
RTVSPropertyOp57
 70
     0
102
RTVSPropertyOp58
 70
     0
102
RTVSPropertyOp59
 70
     0
102
RTVSPropertyOp60
 70
     0
102
RTVSPropertyOp61
 70
     0
102
RTVSPropertyOp62
 70
     0
  0
XRECORD
  5
B1D
102
{ACAD_REACTORS
330
B1C
102
}
330
B1C
100
AcDbXrecord
280
     1
102
RTVSPost2010Prop28
280
     0
102
RTVSPost2010PropOp28
 70
     1
102
RTVSPost2010Prop29
280
     1
102
RTVSPost2010PropOp29
 70
     1
102
RTVSPost2010Prop30
280
     1
102
RTVSPost2010PropOp30
 70
     1
102
RTVSPost2010Prop31
280
     0
102
RTVSPost2010PropOp31
 70
     1
102
RTVSPost2010Prop32
280
     0
102
RTVSPost2010PropOp32
 70
     1
102
RTVSPost2010Prop33
280
     0
102
RTVSPost2010PropOp33
 70
     1
102
RTVSPost2010Prop34
280
     0
102
RTVSPost2010PropOp34
 70
     1
102
RTVSPost2010Prop35
280
     0
102
RTVSPost2010PropOp35
 70
     1
102
RTVSPost2010Prop36
280
     0
102
RTVSPost2010PropOp36
 70
     1
102
RTVSPost2010Prop37
 90
       50
102
RTVSPost2010PropOp37
 70
     1
102
RTVSPost2010Prop38
140
0.0
102
RTVSPost2010PropOp38
 70
     1
102
RTVSPost2010Prop39
140
1.0
102
RTVSPost2010PropOp39
 70
     1
102
RTVSPost2010Prop40
 90
        0
102
RTVSPost2010PropOp40
 70
     1
102
RTVSPost2010Prop41ColorIndex
 90
       18
102
RTVSPost2010Prop41ColorRGB
 90
        0
102
RTVSPost2010PropOp41
 70
     1
102
RTVSPost2010Prop42
 90
       50
102
RTVSPost2010PropOp42
 70
     1
102
RTVSPost2010Prop43
 90
        3
102
RTVSPost2010PropOp43
 70
     1
102
RTVSPost2010Prop44ColorIndex
 90
        5
102
RTVSPost2010Prop44ColorRGB
 90
      255
102
RTVSPost2010PropOp44
 70
     1
102
RTVSPost2010Prop45
280
     0
102
RTVSPost2010PropOp45
 70
     1
102
RTVSPost2010Prop46
 90
       50
102
RTVSPost2010PropOp46
 70
     1
102
RTVSPost2010Prop47
 90
       50
102
RTVSPost2010PropOp47
 70
     1
102
RTVSPost2010Prop48
 90
       50
102
RTVSPost2010PropOp48
 70
     1
102
RTVSPost2010Prop49
280
     0
102
RTVSPost2010PropOp49
 70
     1
102
RTVSPost2010Prop50
 90
       50
102
RTVSPost2010PropOp50
 70
     1
102
RTVSPost2010Prop51ColorIndex
 90
      256
102
RTVSPost2010Prop51ColorRGB
 90
-16777216
102
RTVSPost2010PropOp51
 70
     0
102
RTVSPost2010Prop52
140
1.0
102
RTVSPost2010PropOp52
 70
     0
102
RTVSPost2010Prop53
 90
        2
102
RTVSPost2010PropOp53
 70
     1
102
RTVSPost2010Prop54
  1
strokes_ogs.tif
102
RTVSPost2010PropOp54
 70
     1
102
RTVSPost2010Prop55
280
     0
102
RTVSPost2010PropOp55
 70
     1
102
RTVSPost2010Prop56
140
1.0
102
RTVSPost2010PropOp56
 70
     1
102
RTVSPost2010Prop57
140
1.0
102
RTVSPost2010PropOp57
 70
     1
102
RTVSPropertyOp0
 70
     1
102
RTVSPropertyOp1
 70
     1
102
RTVSPropertyOp2
 70
     1
102
RTVSPropertyOp3
 70
     1
102
RTVSPropertyOp4
 70
     1
102
RTVSPropertyOp5
 70
     1
102
RTVSPropertyOp6
 70
     1
102
RTVSPropertyOp7
 70
     1
102
RTVSPropertyOp8
 70
     1
102
RTVSPropertyOp9
 70
     1
102
RTVSPropertyOp10
 70
     1
102
RTVSPropertyOp11
 70
     1
102
RTVSPropertyOp12
 70
     1
102
RTVSPropertyOp13
 70
     1
102
RTVSPropertyOp14
 70
     1
102
RTVSPropertyOp15
 70
     1
102
RTVSPropertyOp16
 70
     1
102
RTVSPropertyOp17
 70
     1
102
RTVSPropertyOp18
 70
     1
102
RTVSPropertyOp19
 70
     1
102
RTVSPropertyOp20
 70
     1
102
RTVSPropertyOp21
 70
     1
102
RTVSPropertyOp22
 70
     1
102
RTVSPropertyOp23
 70
     1
102
RTVSPropertyOp24
 70
     1
102
RTVSPropertyOp25
 70
     1
102
RTVSPropertyOp26
 70
     1
102
RTVSPropertyOp27
 70
     1
102
RTVSPropertyOp28
 70
     1
102
RTVSPropertyOp29
 70
     1
102
RTVSPropertyOp30
 70
     1
102
RTVSPropertyOp31
 70
     1
102
RTVSPropertyOp32
 70
     1
102
RTVSPropertyOp33
 70
     1
102
RTVSPropertyOp34
 70
     1
102
RTVSPropertyOp35
 70
     1
102
RTVSPropertyOp36
 70
     1
102
RTVSPropertyOp37
 70
     1
102
RTVSPropertyOp38
 70
     1
102
RTVSPropertyOp39
 70
     1
102
RTVSPropertyOp40
 70
     1
102
RTVSPropertyOp41
 70
     1
102
RTVSPropertyOp42
 70
     1
102
RTVSPropertyOp43
 70
     1
102
RTVSPropertyOp44
 70
     1
102
RTVSPropertyOp45
 70
     1
102
RTVSPropertyOp46
 70
     1
102
RTVSPropertyOp47
 70
     1
102
RTVSPropertyOp48
 70
     1
102
RTVSPropertyOp49
 70
     1
102
RTVSPropertyOp50
 70
     1
102
RTVSPropertyOp51
 70
     0
102
RTVSPropertyOp52
 70
     0
102
RTVSPropertyOp53
 70
     1
102
RTVSPropertyOp54
 70
     1
102
RTVSPropertyOp55
 70
     1
102
RTVSPropertyOp56
 70
     1
102
RTVSPropertyOp57
 70
     1
102
RTVSPropertyOp58
 70
     1
102
RTVSPropertyOp59
 70
     1
102
RTVSPropertyOp60
 70
     1
102
RTVSPropertyOp61
 70
     1
102
RTVSPropertyOp62
 70
     1
  0
XRECORD
  5
B33
102
{ACAD_REACTORS
330
B32
102
}
330
B32
100
AcDbXrecord
280
     1
102
RTVSPost2010Prop28
280
     0
102
RTVSPost2010PropOp28
 70
     1
102
RTVSPost2010Prop29
280
     1
102
RTVSPost2010PropOp29
 70
     1
102
RTVSPost2010Prop30
280
     1
102
RTVSPost2010PropOp30
 70
     1
102
RTVSPost2010Prop31
280
     0
102
RTVSPost2010PropOp31
 70
     1
102
RTVSPost2010Prop32
280
     0
102
RTVSPost2010PropOp32
 70
     1
102
RTVSPost2010Prop33
280
     0
102
RTVSPost2010PropOp33
 70
     1
102
RTVSPost2010Prop34
280
     0
102
RTVSPost2010PropOp34
 70
     1
102
RTVSPost2010Prop35
280
     0
102
RTVSPost2010PropOp35
 70
     1
102
RTVSPost2010Prop36
280
     0
102
RTVSPost2010PropOp36
 70
     1
102
RTVSPost2010Prop37
 90
       50
102
RTVSPost2010PropOp37
 70
     1
102
RTVSPost2010Prop38
140
0.0
102
RTVSPost2010PropOp38
 70
     1
102
RTVSPost2010Prop39
140
1.0
102
RTVSPost2010PropOp39
 70
     1
102
RTVSPost2010Prop40
 90
        0
102
RTVSPost2010PropOp40
 70
     1
102
RTVSPost2010Prop41ColorIndex
 90
       18
102
RTVSPost2010Prop41ColorRGB
 90
        0
102
RTVSPost2010PropOp41
 70
     1
102
RTVSPost2010Prop42
 90
       50
102
RTVSPost2010PropOp42
 70
     1
102
RTVSPost2010Prop43
 90
        3
102
RTVSPost2010PropOp43
 70
     1
102
RTVSPost2010Prop44ColorIndex
 90
        5
102
RTVSPost2010Prop44ColorRGB
 90
      255
102
RTVSPost2010PropOp44
 70
     1
102
RTVSPost2010Prop45
280
     0
102
RTVSPost2010PropOp45
 70
     1
102
RTVSPost2010Prop46
 90
       50
102
RTVSPost2010PropOp46
 70
     1
102
RTVSPost2010Prop47
 90
       50
102
RTVSPost2010PropOp47
 70
     1
102
RTVSPost2010Prop48
 90
       50
102
RTVSPost2010PropOp48
 70
     1
102
RTVSPost2010Prop49
280
     0
102
RTVSPost2010PropOp49
 70
     1
102
RTVSPost2010Prop50
 90
       50
102
RTVSPost2010PropOp50
 70
     1
102
RTVSPost2010Prop51ColorIndex
 90
      256
102
RTVSPost2010Prop51ColorRGB
 90
-16777216
102
RTVSPost2010PropOp51
 70
     0
102
RTVSPost2010Prop52
140
1.0
102
RTVSPost2010PropOp52
 70
     0
102
RTVSPost2010Prop53
 90
        2
102
RTVSPost2010PropOp53
 70
     1
102
RTVSPost2010Prop54
  1
strokes_ogs.tif
102
RTVSPost2010PropOp54
 70
     1
102
RTVSPost2010Prop55
280
     0
102
RTVSPost2010PropOp55
 70
     1
102
RTVSPost2010Prop56
140
1.0
102
RTVSPost2010PropOp56
 70
     1
102
RTVSPost2010Prop57
140
1.0
102
RTVSPost2010PropOp57
 70
     1
102
RTVSPropertyOp0
 70
     1
102
RTVSPropertyOp1
 70
     1
102
RTVSPropertyOp2
 70
     1
102
RTVSPropertyOp3
 70
     1
102
RTVSPropertyOp4
 70
     1
102
RTVSPropertyOp5
 70
     1
102
RTVSPropertyOp6
 70
     1
102
RTVSPropertyOp7
 70
     1
102
RTVSPropertyOp8
 70
     1
102
RTVSPropertyOp9
 70
     1
102
RTVSPropertyOp10
 70
     1
102
RTVSPropertyOp11
 70
     1
102
RTVSPropertyOp12
 70
     1
102
RTVSPropertyOp13
 70
     1
102
RTVSPropertyOp14
 70
     1
102
RTVSPropertyOp15
 70
     1
102
RTVSPropertyOp16
 70
     1
102
RTVSPropertyOp17
 70
     1
102
RTVSPropertyOp18
 70
     1
102
RTVSPropertyOp19
 70
     1
102
RTVSPropertyOp20
 70
     1
102
RTVSPropertyOp21
 70
     1
102
RTVSPropertyOp22
 70
     1
102
RTVSPropertyOp23
 70
     1
102
RTVSPropertyOp24
 70
     1
102
RTVSPropertyOp25
 70
     1
102
RTVSPropertyOp26
 70
     1
102
RTVSPropertyOp27
 70
     1
102
RTVSPropertyOp28
 70
     1
102
RTVSPropertyOp29
 70
     1
102
RTVSPropertyOp30
 70
     1
102
RTVSPropertyOp31
 70
     1
102
RTVSPropertyOp32
 70
     1
102
RTVSPropertyOp33
 70
     1
102
RTVSPropertyOp34
 70
     1
102
RTVSPropertyOp35
 70
     1
102
RTVSPropertyOp36
 70
     1
102
RTVSPropertyOp37
 70
     1
102
RTVSPropertyOp38
 70
     1
102
RTVSPropertyOp39
 70
     1
102
RTVSPropertyOp40
 70
     1
102
RTVSPropertyOp41
 70
     1
102
RTVSPropertyOp42
 70
     1
102
RTVSPropertyOp43
 70
     1
102
RTVSPropertyOp44
 70
     1
102
RTVSPropertyOp45
 70
     1
102
RTVSPropertyOp46
 70
     1
102
RTVSPropertyOp47
 70
     1
102
RTVSPropertyOp48
 70
     1
102
RTVSPropertyOp49
 70
     1
102
RTVSPropertyOp50
 70
     1
102
RTVSPropertyOp51
 70
     0
102
RTVSPropertyOp52
 70
     0
102
RTVSPropertyOp53
 70
     1
102
RTVSPropertyOp54
 70
     1
102
RTVSPropertyOp55
 70
     1
102
RTVSPropertyOp56
 70
     1
102
RTVSPropertyOp57
 70
     1
102
RTVSPropertyOp58
 70
     1
102
RTVSPropertyOp59
 70
     1
102
RTVSPropertyOp60
 70
     1
102
RTVSPropertyOp61
 70
     1
102
RTVSPropertyOp62
 70
     1
  0
XRECORD
  5
B31
102
{ACAD_REACTORS
330
B30
102
}
330
B30
100
AcDbXrecord
280
     1
102
RTVSPost2010Prop28
280
     0
102
RTVSPost2010PropOp28
 70
     1
102
RTVSPost2010Prop29
280
     1
102
RTVSPost2010PropOp29
 70
     1
102
RTVSPost2010Prop30
280
     1
102
RTVSPost2010PropOp30
 70
     1
102
RTVSPost2010Prop31
280
     0
102
RTVSPost2010PropOp31
 70
     1
102
RTVSPost2010Prop32
280
     0
102
RTVSPost2010PropOp32
 70
     1
102
RTVSPost2010Prop33
280
     0
102
RTVSPost2010PropOp33
 70
     1
102
RTVSPost2010Prop34
280
     0
102
RTVSPost2010PropOp34
 70
     1
102
RTVSPost2010Prop35
280
     0
102
RTVSPost2010PropOp35
 70
     1
102
RTVSPost2010Prop36
280
     0
102
RTVSPost2010PropOp36
 70
     1
102
RTVSPost2010Prop37
 90
       50
102
RTVSPost2010PropOp37
 70
     1
102
RTVSPost2010Prop38
140
0.0
102
RTVSPost2010PropOp38
 70
     1
102
RTVSPost2010Prop39
140
1.0
102
RTVSPost2010PropOp39
 70
     1
102
RTVSPost2010Prop40
 90
        0
102
RTVSPost2010PropOp40
 70
     1
102
RTVSPost2010Prop41ColorIndex
 90
       18
102
RTVSPost2010Prop41ColorRGB
 90
        0
102
RTVSPost2010PropOp41
 70
     1
102
RTVSPost2010Prop42
 90
       50
102
RTVSPost2010PropOp42
 70
     1
102
RTVSPost2010Prop43
 90
        3
102
RTVSPost2010PropOp43
 70
     1
102
RTVSPost2010Prop44ColorIndex
 90
        5
102
RTVSPost2010Prop44ColorRGB
 90
      255
102
RTVSPost2010PropOp44
 70
     1
102
RTVSPost2010Prop45
280
     0
102
RTVSPost2010PropOp45
 70
     1
102
RTVSPost2010Prop46
 90
       50
102
RTVSPost2010PropOp46
 70
     1
102
RTVSPost2010Prop47
 90
       50
102
RTVSPost2010PropOp47
 70
     1
102
RTVSPost2010Prop48
 90
       50
102
RTVSPost2010PropOp48
 70
     1
102
RTVSPost2010Prop49
280
     0
102
RTVSPost2010PropOp49
 70
     1
102
RTVSPost2010Prop50
 90
       50
102
RTVSPost2010PropOp50
 70
     1
102
RTVSPost2010Prop51ColorIndex
 90
      256
102
RTVSPost2010Prop51ColorRGB
 90
-16777216
102
RTVSPost2010PropOp51
 70
     0
102
RTVSPost2010Prop52
140
1.0
102
RTVSPost2010PropOp52
 70
     0
102
RTVSPost2010Prop53
 90
        2
102
RTVSPost2010PropOp53
 70
     1
102
RTVSPost2010Prop54
  1
strokes_ogs.tif
102
RTVSPost2010PropOp54
 70
     1
102
RTVSPost2010Prop55
280
     0
102
RTVSPost2010PropOp55
 70
     1
102
RTVSPost2010Prop56
140
1.0
102
RTVSPost2010PropOp56
 70
     1
102
RTVSPost2010Prop57
140
1.0
102
RTVSPost2010PropOp57
 70
     1
102
RTVSPropertyOp0
 70
     1
102
RTVSPropertyOp1
 70
     1
102
RTVSPropertyOp2
 70
     1
102
RTVSPropertyOp3
 70
     1
102
RTVSPropertyOp4
 70
     1
102
RTVSPropertyOp5
 70
     1
102
RTVSPropertyOp6
 70
     1
102
RTVSPropertyOp7
 70
     1
102
RTVSPropertyOp8
 70
     1
102
RTVSPropertyOp9
 70
     1
102
RTVSPropertyOp10
 70
     1
102
RTVSPropertyOp11
 70
     1
102
RTVSPropertyOp12
 70
     1
102
RTVSPropertyOp13
 70
     1
102
RTVSPropertyOp14
 70
     1
102
RTVSPropertyOp15
 70
     1
102
RTVSPropertyOp16
 70
     1
102
RTVSPropertyOp17
 70
     1
102
RTVSPropertyOp18
 70
     1
102
RTVSPropertyOp19
 70
     1
102
RTVSPropertyOp20
 70
     1
102
RTVSPropertyOp21
 70
     1
102
RTVSPropertyOp22
 70
     1
102
RTVSPropertyOp23
 70
     1
102
RTVSPropertyOp24
 70
     1
102
RTVSPropertyOp25
 70
     1
102
RTVSPropertyOp26
 70
     1
102
RTVSPropertyOp27
 70
     1
102
RTVSPropertyOp28
 70
     1
102
RTVSPropertyOp29
 70
     1
102
RTVSPropertyOp30
 70
     1
102
RTVSPropertyOp31
 70
     1
102
RTVSPropertyOp32
 70
     1
102
RTVSPropertyOp33
 70
     1
102
RTVSPropertyOp34
 70
     1
102
RTVSPropertyOp35
 70
     1
102
RTVSPropertyOp36
 70
     1
102
RTVSPropertyOp37
 70
     1
102
RTVSPropertyOp38
 70
     1
102
RTVSPropertyOp39
 70
     1
102
RTVSPropertyOp40
 70
     1
102
RTVSPropertyOp41
 70
     1
102
RTVSPropertyOp42
 70
     1
102
RTVSPropertyOp43
 70
     1
102
RTVSPropertyOp44
 70
     1
102
RTVSPropertyOp45
 70
     1
102
RTVSPropertyOp46
 70
     1
102
RTVSPropertyOp47
 70
     1
102
RTVSPropertyOp48
 70
     1
102
RTVSPropertyOp49
 70
     1
102
RTVSPropertyOp50
 70
     1
102
RTVSPropertyOp51
 70
     0
102
RTVSPropertyOp52
 70
     0
102
RTVSPropertyOp53
 70
     1
102
RTVSPropertyOp54
 70
     1
102
RTVSPropertyOp55
 70
     1
102
RTVSPropertyOp56
 70
     1
102
RTVSPropertyOp57
 70
     1
102
RTVSPropertyOp58
 70
     1
102
RTVSPropertyOp59
 70
     1
102
RTVSPropertyOp60
 70
     1
102
RTVSPropertyOp61
 70
     1
102
RTVSPropertyOp62
 70
     1
  0
XRECORD
  5
B2B
102
{ACAD_REACTORS
330
B2A
102
}
330
B2A
100
AcDbXrecord
280
     1
102
RTVSPost2010Prop28
280
     0
102
RTVSPost2010PropOp28
 70
     1
102
RTVSPost2010Prop29
280
     1
102
RTVSPost2010PropOp29
 70
     1
102
RTVSPost2010Prop30
280
     1
102
RTVSPost2010PropOp30
 70
     1
102
RTVSPost2010Prop31
280
     0
102
RTVSPost2010PropOp31
 70
     1
102
RTVSPost2010Prop32
280
     0
102
RTVSPost2010PropOp32
 70
     1
102
RTVSPost2010Prop33
280
     0
102
RTVSPost2010PropOp33
 70
     1
102
RTVSPost2010Prop34
280
     0
102
RTVSPost2010PropOp34
 70
     1
102
RTVSPost2010Prop35
280
     0
102
RTVSPost2010PropOp35
 70
     1
102
RTVSPost2010Prop36
280
     0
102
RTVSPost2010PropOp36
 70
     1
102
RTVSPost2010Prop37
 90
       50
102
RTVSPost2010PropOp37
 70
     1
102
RTVSPost2010Prop38
140
0.0
102
RTVSPost2010PropOp38
 70
     1
102
RTVSPost2010Prop39
140
1.0
102
RTVSPost2010PropOp39
 70
     1
102
RTVSPost2010Prop40
 90
        0
102
RTVSPost2010PropOp40
 70
     1
102
RTVSPost2010Prop41ColorIndex
 90
       18
102
RTVSPost2010Prop41ColorRGB
 90
        0
102
RTVSPost2010PropOp41
 70
     1
102
RTVSPost2010Prop42
 90
       50
102
RTVSPost2010PropOp42
 70
     1
102
RTVSPost2010Prop43
 90
        3
102
RTVSPost2010PropOp43
 70
     1
102
RTVSPost2010Prop44ColorIndex
 90
        5
102
RTVSPost2010Prop44ColorRGB
 90
      255
102
RTVSPost2010PropOp44
 70
     1
102
RTVSPost2010Prop45
280
     0
102
RTVSPost2010PropOp45
 70
     1
102
RTVSPost2010Prop46
 90
       50
102
RTVSPost2010PropOp46
 70
     1
102
RTVSPost2010Prop47
 90
       50
102
RTVSPost2010PropOp47
 70
     1
102
RTVSPost2010Prop48
 90
       50
102
RTVSPost2010PropOp48
 70
     1
102
RTVSPost2010Prop49
280
     0
102
RTVSPost2010PropOp49
 70
     1
102
RTVSPost2010Prop50
 90
       50
102
RTVSPost2010PropOp50
 70
     1
102
RTVSPost2010Prop51ColorIndex
 90
      256
102
RTVSPost2010Prop51ColorRGB
 90
-16777216
102
RTVSPost2010PropOp51
 70
     0
102
RTVSPost2010Prop52
140
1.0
102
RTVSPost2010PropOp52
 70
     0
102
RTVSPost2010Prop53
 90
        2
102
RTVSPost2010PropOp53
 70
     1
102
RTVSPost2010Prop54
  1
strokes_ogs.tif
102
RTVSPost2010PropOp54
 70
     1
102
RTVSPost2010Prop55
280
     0
102
RTVSPost2010PropOp55
 70
     1
102
RTVSPost2010Prop56
140
1.0
102
RTVSPost2010PropOp56
 70
     1
102
RTVSPost2010Prop57
140
1.0
102
RTVSPost2010PropOp57
 70
     1
102
RTVSPropertyOp0
 70
     1
102
RTVSPropertyOp1
 70
     1
102
RTVSPropertyOp2
 70
     1
102
RTVSPropertyOp3
 70
     1
102
RTVSPropertyOp4
 70
     1
102
RTVSPropertyOp5
 70
     1
102
RTVSPropertyOp6
 70
     1
102
RTVSPropertyOp7
 70
     1
102
RTVSPropertyOp8
 70
     1
102
RTVSPropertyOp9
 70
     1
102
RTVSPropertyOp10
 70
     1
102
RTVSPropertyOp11
 70
     1
102
RTVSPropertyOp12
 70
     1
102
RTVSPropertyOp13
 70
     1
102
RTVSPropertyOp14
 70
     1
102
RTVSPropertyOp15
 70
     1
102
RTVSPropertyOp16
 70
     1
102
RTVSPropertyOp17
 70
     1
102
RTVSPropertyOp18
 70
     1
102
RTVSPropertyOp19
 70
     1
102
RTVSPropertyOp20
 70
     1
102
RTVSPropertyOp21
 70
     1
102
RTVSPropertyOp22
 70
     1
102
RTVSPropertyOp23
 70
     1
102
RTVSPropertyOp24
 70
     1
102
RTVSPropertyOp25
 70
     1
102
RTVSPropertyOp26
 70
     1
102
RTVSPropertyOp27
 70
     1
102
RTVSPropertyOp28
 70
     1
102
RTVSPropertyOp29
 70
     1
102
RTVSPropertyOp30
 70
     1
102
RTVSPropertyOp31
 70
     1
102
RTVSPropertyOp32
 70
     1
102
RTVSPropertyOp33
 70
     1
102
RTVSPropertyOp34
 70
     1
102
RTVSPropertyOp35
 70
     1
102
RTVSPropertyOp36
 70
     1
102
RTVSPropertyOp37
 70
     1
102
RTVSPropertyOp38
 70
     1
102
RTVSPropertyOp39
 70
     1
102
RTVSPropertyOp40
 70
     1
102
RTVSPropertyOp41
 70
     1
102
RTVSPropertyOp42
 70
     1
102
RTVSPropertyOp43
 70
     1
102
RTVSPropertyOp44
 70
     1
102
RTVSPropertyOp45
 70
     1
102
RTVSPropertyOp46
 70
     1
102
RTVSPropertyOp47
 70
     1
102
RTVSPropertyOp48
 70
     1
102
RTVSPropertyOp49
 70
     1
102
RTVSPropertyOp50
 70
     1
102
RTVSPropertyOp51
 70
     0
102
RTVSPropertyOp52
 70
     0
102
RTVSPropertyOp53
 70
     1
102
RTVSPropertyOp54
 70
     1
102
RTVSPropertyOp55
 70
     1
102
RTVSPropertyOp56
 70
     1
102
RTVSPropertyOp57
 70
     1
102
RTVSPropertyOp58
 70
     1
102
RTVSPropertyOp59
 70
     1
102
RTVSPropertyOp60
 70
     1
102
RTVSPropertyOp61
 70
     1
102
RTVSPropertyOp62
 70
     1
  0
XRECORD
  5
B2D
102
{ACAD_REACTORS
330
B2C
102
}
330
B2C
100
AcDbXrecord
280
     1
102
RTVSPost2010Prop28
280
     0
102
RTVSPost2010PropOp28
 70
     1
102
RTVSPost2010Prop29
280
     1
102
RTVSPost2010PropOp29
 70
     1
102
RTVSPost2010Prop30
280
     1
102
RTVSPost2010PropOp30
 70
     1
102
RTVSPost2010Prop31
280
     0
102
RTVSPost2010PropOp31
 70
     1
102
RTVSPost2010Prop32
280
     0
102
RTVSPost2010PropOp32
 70
     1
102
RTVSPost2010Prop33
280
     0
102
RTVSPost2010PropOp33
 70
     1
102
RTVSPost2010Prop34
280
     0
102
RTVSPost2010PropOp34
 70
     1
102
RTVSPost2010Prop35
280
     0
102
RTVSPost2010PropOp35
 70
     1
102
RTVSPost2010Prop36
280
     0
102
RTVSPost2010PropOp36
 70
     1
102
RTVSPost2010Prop37
 90
       50
102
RTVSPost2010PropOp37
 70
     1
102
RTVSPost2010Prop38
140
0.0
102
RTVSPost2010PropOp38
 70
     1
102
RTVSPost2010Prop39
140
1.0
102
RTVSPost2010PropOp39
 70
     1
102
RTVSPost2010Prop40
 90
        0
102
RTVSPost2010PropOp40
 70
     1
102
RTVSPost2010Prop41ColorIndex
 90
       18
102
RTVSPost2010Prop41ColorRGB
 90
        0
102
RTVSPost2010PropOp41
 70
     1
102
RTVSPost2010Prop42
 90
       50
102
RTVSPost2010PropOp42
 70
     1
102
RTVSPost2010Prop43
 90
        3
102
RTVSPost2010PropOp43
 70
     1
102
RTVSPost2010Prop44ColorIndex
 90
        5
102
RTVSPost2010Prop44ColorRGB
 90
      255
102
RTVSPost2010PropOp44
 70
     1
102
RTVSPost2010Prop45
280
     0
102
RTVSPost2010PropOp45
 70
     1
102
RTVSPost2010Prop46
 90
       50
102
RTVSPost2010PropOp46
 70
     1
102
RTVSPost2010Prop47
 90
       50
102
RTVSPost2010PropOp47
 70
     1
102
RTVSPost2010Prop48
 90
       50
102
RTVSPost2010PropOp48
 70
     1
102
RTVSPost2010Prop49
280
     0
102
RTVSPost2010PropOp49
 70
     1
102
RTVSPost2010Prop50
 90
       50
102
RTVSPost2010PropOp50
 70
     1
102
RTVSPost2010Prop51ColorIndex
 90
      256
102
RTVSPost2010Prop51ColorRGB
 90
-16777216
102
RTVSPost2010PropOp51
 70
     0
102
RTVSPost2010Prop52
140
1.0
102
RTVSPost2010PropOp52
 70
     0
102
RTVSPost2010Prop53
 90
        2
102
RTVSPost2010PropOp53
 70
     1
102
RTVSPost2010Prop54
  1
strokes_ogs.tif
102
RTVSPost2010PropOp54
 70
     1
102
RTVSPost2010Prop55
280
     0
102
RTVSPost2010PropOp55
 70
     1
102
RTVSPost2010Prop56
140
1.0
102
RTVSPost2010PropOp56
 70
     1
102
RTVSPost2010Prop57
140
1.0
102
RTVSPost2010PropOp57
 70
     1
102
RTVSPropertyOp0
 70
     1
102
RTVSPropertyOp1
 70
     1
102
RTVSPropertyOp2
 70
     1
102
RTVSPropertyOp3
 70
     1
102
RTVSPropertyOp4
 70
     1
102
RTVSPropertyOp5
 70
     1
102
RTVSPropertyOp6
 70
     1
102
RTVSPropertyOp7
 70
     1
102
RTVSPropertyOp8
 70
     1
102
RTVSPropertyOp9
 70
     1
102
RTVSPropertyOp10
 70
     1
102
RTVSPropertyOp11
 70
     1
102
RTVSPropertyOp12
 70
     1
102
RTVSPropertyOp13
 70
     1
102
RTVSPropertyOp14
 70
     1
102
RTVSPropertyOp15
 70
     1
102
RTVSPropertyOp16
 70
     1
102
RTVSPropertyOp17
 70
     1
102
RTVSPropertyOp18
 70
     1
102
RTVSPropertyOp19
 70
     1
102
RTVSPropertyOp20
 70
     1
102
RTVSPropertyOp21
 70
     1
102
RTVSPropertyOp22
 70
     1
102
RTVSPropertyOp23
 70
     1
102
RTVSPropertyOp24
 70
     1
102
RTVSPropertyOp25
 70
     1
102
RTVSPropertyOp26
 70
     1
102
RTVSPropertyOp27
 70
     1
102
RTVSPropertyOp28
 70
     1
102
RTVSPropertyOp29
 70
     1
102
RTVSPropertyOp30
 70
     1
102
RTVSPropertyOp31
 70
     1
102
RTVSPropertyOp32
 70
     1
102
RTVSPropertyOp33
 70
     1
102
RTVSPropertyOp34
 70
     1
102
RTVSPropertyOp35
 70
     1
102
RTVSPropertyOp36
 70
     1
102
RTVSPropertyOp37
 70
     1
102
RTVSPropertyOp38
 70
     1
102
RTVSPropertyOp39
 70
     1
102
RTVSPropertyOp40
 70
     1
102
RTVSPropertyOp41
 70
     1
102
RTVSPropertyOp42
 70
     1
102
RTVSPropertyOp43
 70
     1
102
RTVSPropertyOp44
 70
     1
102
RTVSPropertyOp45
 70
     1
102
RTVSPropertyOp46
 70
     1
102
RTVSPropertyOp47
 70
     1
102
RTVSPropertyOp48
 70
     1
102
RTVSPropertyOp49
 70
     1
102
RTVSPropertyOp50
 70
     1
102
RTVSPropertyOp51
 70
     0
102
RTVSPropertyOp52
 70
     0
102
RTVSPropertyOp53
 70
     1
102
RTVSPropertyOp54
 70
     1
102
RTVSPropertyOp55
 70
     1
102
RTVSPropertyOp56
 70
     1
102
RTVSPropertyOp57
 70
     1
102
RTVSPropertyOp58
 70
     1
102
RTVSPropertyOp59
 70
     1
102
RTVSPropertyOp60
 70
     1
102
RTVSPropertyOp61
 70
     1
102
RTVSPropertyOp62
 70
     1
  0
XRECORD
  5
B23
102
{ACAD_REACTORS
330
B22
102
}
330
B22
100
AcDbXrecord
280
     1
102
RTVSPost2010Prop28
280
     0
102
RTVSPost2010PropOp28
 70
     1
102
RTVSPost2010Prop29
280
     1
102
RTVSPost2010PropOp29
 70
     1
102
RTVSPost2010Prop30
280
     1
102
RTVSPost2010PropOp30
 70
     1
102
RTVSPost2010Prop31
280
     0
102
RTVSPost2010PropOp31
 70
     1
102
RTVSPost2010Prop32
280
     0
102
RTVSPost2010PropOp32
 70
     1
102
RTVSPost2010Prop33
280
     0
102
RTVSPost2010PropOp33
 70
     1
102
RTVSPost2010Prop34
280
     0
102
RTVSPost2010PropOp34
 70
     1
102
RTVSPost2010Prop35
280
     0
102
RTVSPost2010PropOp35
 70
     1
102
RTVSPost2010Prop36
280
     0
102
RTVSPost2010PropOp36
 70
     1
102
RTVSPost2010Prop37
 90
       50
102
RTVSPost2010PropOp37
 70
     1
102
RTVSPost2010Prop38
140
0.0
102
RTVSPost2010PropOp38
 70
     1
102
RTVSPost2010Prop39
140
1.0
102
RTVSPost2010PropOp39
 70
     1
102
RTVSPost2010Prop40
 90
        0
102
RTVSPost2010PropOp40
 70
     1
102
RTVSPost2010Prop41ColorIndex
 90
       18
102
RTVSPost2010Prop41ColorRGB
 90
        0
102
RTVSPost2010PropOp41
 70
     1
102
RTVSPost2010Prop42
 90
       50
102
RTVSPost2010PropOp42
 70
     1
102
RTVSPost2010Prop43
 90
        3
102
RTVSPost2010PropOp43
 70
     1
102
RTVSPost2010Prop44ColorIndex
 90
        5
102
RTVSPost2010Prop44ColorRGB
 90
      255
102
RTVSPost2010PropOp44
 70
     1
102
RTVSPost2010Prop45
280
     0
102
RTVSPost2010PropOp45
 70
     1
102
RTVSPost2010Prop46
 90
       50
102
RTVSPost2010PropOp46
 70
     1
102
RTVSPost2010Prop47
 90
       50
102
RTVSPost2010PropOp47
 70
     1
102
RTVSPost2010Prop48
 90
       50
102
RTVSPost2010PropOp48
 70
     1
102
RTVSPost2010Prop49
280
     0
102
RTVSPost2010PropOp49
 70
     1
102
RTVSPost2010Prop50
 90
       50
102
RTVSPost2010PropOp50
 70
     1
102
RTVSPost2010Prop51ColorIndex
 90
      256
102
RTVSPost2010Prop51ColorRGB
 90
-16777216
102
RTVSPost2010PropOp51
 70
     0
102
RTVSPost2010Prop52
140
1.0
102
RTVSPost2010PropOp52
 70
     0
102
RTVSPost2010Prop53
 90
        2
102
RTVSPost2010PropOp53
 70
     1
102
RTVSPost2010Prop54
  1
strokes_ogs.tif
102
RTVSPost2010PropOp54
 70
     1
102
RTVSPost2010Prop55
280
     0
102
RTVSPost2010PropOp55
 70
     1
102
RTVSPost2010Prop56
140
1.0
102
RTVSPost2010PropOp56
 70
     1
102
RTVSPost2010Prop57
140
1.0
102
RTVSPost2010PropOp57
 70
     1
102
RTVSPropertyOp0
 70
     1
102
RTVSPropertyOp1
 70
     1
102
RTVSPropertyOp2
 70
     1
102
RTVSPropertyOp3
 70
     1
102
RTVSPropertyOp4
 70
     1
102
RTVSPropertyOp5
 70
     1
102
RTVSPropertyOp6
 70
     1
102
RTVSPropertyOp7
 70
     1
102
RTVSPropertyOp8
 70
     1
102
RTVSPropertyOp9
 70
     1
102
RTVSPropertyOp10
 70
     1
102
RTVSPropertyOp11
 70
     1
102
RTVSPropertyOp12
 70
     1
102
RTVSPropertyOp13
 70
     1
102
RTVSPropertyOp14
 70
     1
102
RTVSPropertyOp15
 70
     1
102
RTVSPropertyOp16
 70
     1
102
RTVSPropertyOp17
 70
     1
102
RTVSPropertyOp18
 70
     1
102
RTVSPropertyOp19
 70
     1
102
RTVSPropertyOp20
 70
     1
102
RTVSPropertyOp21
 70
     1
102
RTVSPropertyOp22
 70
     1
102
RTVSPropertyOp23
 70
     1
102
RTVSPropertyOp24
 70
     1
102
RTVSPropertyOp25
 70
     1
102
RTVSPropertyOp26
 70
     1
102
RTVSPropertyOp27
 70
     1
102
RTVSPropertyOp28
 70
     1
102
RTVSPropertyOp29
 70
     1
102
RTVSPropertyOp30
 70
     1
102
RTVSPropertyOp31
 70
     1
102
RTVSPropertyOp32
 70
     1
102
RTVSPropertyOp33
 70
     1
102
RTVSPropertyOp34
 70
     1
102
RTVSPropertyOp35
 70
     1
102
RTVSPropertyOp36
 70
     1
102
RTVSPropertyOp37
 70
     1
102
RTVSPropertyOp38
 70
     1
102
RTVSPropertyOp39
 70
     1
102
RTVSPropertyOp40
 70
     1
102
RTVSPropertyOp41
 70
     1
102
RTVSPropertyOp42
 70
     1
102
RTVSPropertyOp43
 70
     1
102
RTVSPropertyOp44
 70
     1
102
RTVSPropertyOp45
 70
     1
102
RTVSPropertyOp46
 70
     1
102
RTVSPropertyOp47
 70
     1
102
RTVSPropertyOp48
 70
     1
102
RTVSPropertyOp49
 70
     1
102
RTVSPropertyOp50
 70
     1
102
RTVSPropertyOp51
 70
     0
102
RTVSPropertyOp52
 70
     0
102
RTVSPropertyOp53
 70
     1
102
RTVSPropertyOp54
 70
     1
102
RTVSPropertyOp55
 70
     1
102
RTVSPropertyOp56
 70
     1
102
RTVSPropertyOp57
 70
     1
102
RTVSPropertyOp58
 70
     1
102
RTVSPropertyOp59
 70
     1
102
RTVSPropertyOp60
 70
     1
102
RTVSPropertyOp61
 70
     1
102
RTVSPropertyOp62
 70
     1
  0
XRECORD
  5
B17
102
{ACAD_REACTORS
330
B16
102
}
330
B16
100
AcDbXrecord
280
     1
102
RTVSPost2010Prop28
280
     0
102
RTVSPost2010PropOp28
 70
     1
102
RTVSPost2010Prop29
280
     1
102
RTVSPost2010PropOp29
 70
     1
102
RTVSPost2010Prop30
280
     1
102
RTVSPost2010PropOp30
 70
     1
102
RTVSPost2010Prop31
280
     0
102
RTVSPost2010PropOp31
 70
     1
102
RTVSPost2010Prop32
280
     0
102
RTVSPost2010PropOp32
 70
     1
102
RTVSPost2010Prop33
280
     0
102
RTVSPost2010PropOp33
 70
     1
102
RTVSPost2010Prop34
280
     0
102
RTVSPost2010PropOp34
 70
     1
102
RTVSPost2010Prop35
280
     0
102
RTVSPost2010PropOp35
 70
     1
102
RTVSPost2010Prop36
280
     0
102
RTVSPost2010PropOp36
 70
     1
102
RTVSPost2010Prop37
 90
       50
102
RTVSPost2010PropOp37
 70
     1
102
RTVSPost2010Prop38
140
0.0
102
RTVSPost2010PropOp38
 70
     1
102
RTVSPost2010Prop39
140
1.0
102
RTVSPost2010PropOp39
 70
     1
102
RTVSPost2010Prop40
 90
        0
102
RTVSPost2010PropOp40
 70
     1
102
RTVSPost2010Prop41ColorIndex
 90
       18
102
RTVSPost2010Prop41ColorRGB
 90
        0
102
RTVSPost2010PropOp41
 70
     1
102
RTVSPost2010Prop42
 90
       50
102
RTVSPost2010PropOp42
 70
     1
102
RTVSPost2010Prop43
 90
        3
102
RTVSPost2010PropOp43
 70
     1
102
RTVSPost2010Prop44ColorIndex
 90
        5
102
RTVSPost2010Prop44ColorRGB
 90
      255
102
RTVSPost2010PropOp44
 70
     1
102
RTVSPost2010Prop45
280
     0
102
RTVSPost2010PropOp45
 70
     1
102
RTVSPost2010Prop46
 90
       50
102
RTVSPost2010PropOp46
 70
     1
102
RTVSPost2010Prop47
 90
       50
102
RTVSPost2010PropOp47
 70
     1
102
RTVSPost2010Prop48
 90
       50
102
RTVSPost2010PropOp48
 70
     1
102
RTVSPost2010Prop49
280
     0
102
RTVSPost2010PropOp49
 70
     1
102
RTVSPost2010Prop50
 90
       50
102
RTVSPost2010PropOp50
 70
     1
102
RTVSPost2010Prop51ColorIndex
 90
      256
102
RTVSPost2010Prop51ColorRGB
 90
-16777216
102
RTVSPost2010PropOp51
 70
     0
102
RTVSPost2010Prop52
140
1.0
102
RTVSPost2010PropOp52
 70
     0
102
RTVSPost2010Prop53
 90
        2
102
RTVSPost2010PropOp53
 70
     1
102
RTVSPost2010Prop54
  1
strokes_ogs.tif
102
RTVSPost2010PropOp54
 70
     1
102
RTVSPost2010Prop55
280
     0
102
RTVSPost2010PropOp55
 70
     1
102
RTVSPost2010Prop56
140
1.0
102
RTVSPost2010PropOp56
 70
     1
102
RTVSPost2010Prop57
140
1.0
102
RTVSPost2010PropOp57
 70
     1
102
RTVSPropertyOp0
 70
     1
102
RTVSPropertyOp1
 70
     1
102
RTVSPropertyOp2
 70
     1
102
RTVSPropertyOp3
 70
     1
102
RTVSPropertyOp4
 70
     1
102
RTVSPropertyOp5
 70
     1
102
RTVSPropertyOp6
 70
     1
102
RTVSPropertyOp7
 70
     1
102
RTVSPropertyOp8
 70
     1
102
RTVSPropertyOp9
 70
     1
102
RTVSPropertyOp10
 70
     1
102
RTVSPropertyOp11
 70
     1
102
RTVSPropertyOp12
 70
     1
102
RTVSPropertyOp13
 70
     1
102
RTVSPropertyOp14
 70
     1
102
RTVSPropertyOp15
 70
     1
102
RTVSPropertyOp16
 70
     1
102
RTVSPropertyOp17
 70
     1
102
RTVSPropertyOp18
 70
     1
102
RTVSPropertyOp19
 70
     1
102
RTVSPropertyOp20
 70
     1
102
RTVSPropertyOp21
 70
     1
102
RTVSPropertyOp22
 70
     1
102
RTVSPropertyOp23
 70
     1
102
RTVSPropertyOp24
 70
     1
102
RTVSPropertyOp25
 70
     1
102
RTVSPropertyOp26
 70
     1
102
RTVSPropertyOp27
 70
     1
102
RTVSPropertyOp28
 70
     1
102
RTVSPropertyOp29
 70
     1
102
RTVSPropertyOp30
 70
     1
102
RTVSPropertyOp31
 70
     1
102
RTVSPropertyOp32
 70
     1
102
RTVSPropertyOp33
 70
     1
102
RTVSPropertyOp34
 70
     1
102
RTVSPropertyOp35
 70
     1
102
RTVSPropertyOp36
 70
     1
102
RTVSPropertyOp37
 70
     1
102
RTVSPropertyOp38
 70
     1
102
RTVSPropertyOp39
 70
     1
102
RTVSPropertyOp40
 70
     1
102
RTVSPropertyOp41
 70
     1
102
RTVSPropertyOp42
 70
     1
102
RTVSPropertyOp43
 70
     1
102
RTVSPropertyOp44
 70
     1
102
RTVSPropertyOp45
 70
     1
102
RTVSPropertyOp46
 70
     1
102
RTVSPropertyOp47
 70
     1
102
RTVSPropertyOp48
 70
     1
102
RTVSPropertyOp49
 70
     1
102
RTVSPropertyOp50
 70
     1
102
RTVSPropertyOp51
 70
     0
102
RTVSPropertyOp52
 70
     0
102
RTVSPropertyOp53
 70
     1
102
RTVSPropertyOp54
 70
     1
102
RTVSPropertyOp55
 70
     1
102
RTVSPropertyOp56
 70
     1
102
RTVSPropertyOp57
 70
     1
102
RTVSPropertyOp58
 70
     1
102
RTVSPropertyOp59
 70
     1
102
RTVSPropertyOp60
 70
     1
102
RTVSPropertyOp61
 70
     1
102
RTVSPropertyOp62
 70
     1
  0
XRECORD
  5
B2F
102
{ACAD_REACTORS
330
B2E
102
}
330
B2E
100
AcDbXrecord
280
     1
102
RTVSPost2010Prop28
280
     0
102
RTVSPost2010PropOp28
 70
     1
102
RTVSPost2010Prop29
280
     1
102
RTVSPost2010PropOp29
 70
     1
102
RTVSPost2010Prop30
280
     1
102
RTVSPost2010PropOp30
 70
     1
102
RTVSPost2010Prop31
280
     0
102
RTVSPost2010PropOp31
 70
     1
102
RTVSPost2010Prop32
280
     0
102
RTVSPost2010PropOp32
 70
     1
102
RTVSPost2010Prop33
280
     0
102
RTVSPost2010PropOp33
 70
     1
102
RTVSPost2010Prop34
280
     0
102
RTVSPost2010PropOp34
 70
     1
102
RTVSPost2010Prop35
280
     0
102
RTVSPost2010PropOp35
 70
     1
102
RTVSPost2010Prop36
280
     0
102
RTVSPost2010PropOp36
 70
     1
102
RTVSPost2010Prop37
 90
       50
102
RTVSPost2010PropOp37
 70
     1
102
RTVSPost2010Prop38
140
0.0
102
RTVSPost2010PropOp38
 70
     1
102
RTVSPost2010Prop39
140
1.0
102
RTVSPost2010PropOp39
 70
     1
102
RTVSPost2010Prop40
 90
        0
102
RTVSPost2010PropOp40
 70
     1
102
RTVSPost2010Prop41ColorIndex
 90
       18
102
RTVSPost2010Prop41ColorRGB
 90
        0
102
RTVSPost2010PropOp41
 70
     1
102
RTVSPost2010Prop42
 90
       50
102
RTVSPost2010PropOp42
 70
     1
102
RTVSPost2010Prop43
 90
        3
102
RTVSPost2010PropOp43
 70
     1
102
RTVSPost2010Prop44ColorIndex
 90
        5
102
RTVSPost2010Prop44ColorRGB
 90
      255
102
RTVSPost2010PropOp44
 70
     1
102
RTVSPost2010Prop45
280
     0
102
RTVSPost2010PropOp45
 70
     1
102
RTVSPost2010Prop46
 90
       50
102
RTVSPost2010PropOp46
 70
     1
102
RTVSPost2010Prop47
 90
       50
102
RTVSPost2010PropOp47
 70
     1
102
RTVSPost2010Prop48
 90
       50
102
RTVSPost2010PropOp48
 70
     1
102
RTVSPost2010Prop49
280
     0
102
RTVSPost2010PropOp49
 70
     1
102
RTVSPost2010Prop50
 90
       50
102
RTVSPost2010PropOp50
 70
     1
102
RTVSPost2010Prop51ColorIndex
 90
      256
102
RTVSPost2010Prop51ColorRGB
 90
-16777216
102
RTVSPost2010PropOp51
 70
     0
102
RTVSPost2010Prop52
140
1.0
102
RTVSPost2010PropOp52
 70
     0
102
RTVSPost2010Prop53
 90
        2
102
RTVSPost2010PropOp53
 70
     1
102
RTVSPost2010Prop54
  1
strokes_ogs.tif
102
RTVSPost2010PropOp54
 70
     1
102
RTVSPost2010Prop55
280
     0
102
RTVSPost2010PropOp55
 70
     1
102
RTVSPost2010Prop56
140
1.0
102
RTVSPost2010PropOp56
 70
     1
102
RTVSPost2010Prop57
140
1.0
102
RTVSPost2010PropOp57
 70
     1
102
RTVSPropertyOp0
 70
     1
102
RTVSPropertyOp1
 70
     1
102
RTVSPropertyOp2
 70
     1
102
RTVSPropertyOp3
 70
     1
102
RTVSPropertyOp4
 70
     1
102
RTVSPropertyOp5
 70
     1
102
RTVSPropertyOp6
 70
     1
102
RTVSPropertyOp7
 70
     1
102
RTVSPropertyOp8
 70
     1
102
RTVSPropertyOp9
 70
     1
102
RTVSPropertyOp10
 70
     1
102
RTVSPropertyOp11
 70
     1
102
RTVSPropertyOp12
 70
     1
102
RTVSPropertyOp13
 70
     1
102
RTVSPropertyOp14
 70
     1
102
RTVSPropertyOp15
 70
     1
102
RTVSPropertyOp16
 70
     1
102
RTVSPropertyOp17
 70
     1
102
RTVSPropertyOp18
 70
     1
102
RTVSPropertyOp19
 70
     1
102
RTVSPropertyOp20
 70
     1
102
RTVSPropertyOp21
 70
     1
102
RTVSPropertyOp22
 70
     1
102
RTVSPropertyOp23
 70
     1
102
RTVSPropertyOp24
 70
     1
102
RTVSPropertyOp25
 70
     1
102
RTVSPropertyOp26
 70
     1
102
RTVSPropertyOp27
 70
     1
102
RTVSPropertyOp28
 70
     1
102
RTVSPropertyOp29
 70
     1
102
RTVSPropertyOp30
 70
     1
102
RTVSPropertyOp31
 70
     1
102
RTVSPropertyOp32
 70
     1
102
RTVSPropertyOp33
 70
     1
102
RTVSPropertyOp34
 70
     1
102
RTVSPropertyOp35
 70
     1
102
RTVSPropertyOp36
 70
     1
102
RTVSPropertyOp37
 70
     1
102
RTVSPropertyOp38
 70
     1
102
RTVSPropertyOp39
 70
     1
102
RTVSPropertyOp40
 70
     1
102
RTVSPropertyOp41
 70
     1
102
RTVSPropertyOp42
 70
     1
102
RTVSPropertyOp43
 70
     1
102
RTVSPropertyOp44
 70
     1
102
RTVSPropertyOp45
 70
     1
102
RTVSPropertyOp46
 70
     1
102
RTVSPropertyOp47
 70
     1
102
RTVSPropertyOp48
 70
     1
102
RTVSPropertyOp49
 70
     1
102
RTVSPropertyOp50
 70
     1
102
RTVSPropertyOp51
 70
     0
102
RTVSPropertyOp52
 70
     0
102
RTVSPropertyOp53
 70
     1
102
RTVSPropertyOp54
 70
     1
102
RTVSPropertyOp55
 70
     1
102
RTVSPropertyOp56
 70
     1
102
RTVSPropertyOp57
 70
     1
102
RTVSPropertyOp58
 70
     1
102
RTVSPropertyOp59
 70
     1
102
RTVSPropertyOp60
 70
     1
102
RTVSPropertyOp61
 70
     1
102
RTVSPropertyOp62
 70
     1
  0
ENDSEC
  0
EOF
