  0
SECTION
  2
HEADER
  9
$ACADVER
  1
AC1015
  9
$ACADMAINTVER
 70
    20
  9
$DWGCODEPAGE
  3
ANSI_932
  9
$INSBASE
 10
0.0
 20
0.0
 30
0.0
  9
$EXTMIN
 10
9.9999975266385
 20
10.0
 30
0.0
  9
$EXTMAX
 10
296.7854515736535
 20
266.8548746993103
 30
0.0
  9
$LIMMIN
 10
0.0000015376081137
 20
-0.0000001931532552
  9
$LIMMAX
 10
396.0000015376081
 20
272.9999998068465
  9
$ORTHOMODE
 70
     1
  9
$REGENMODE
 70
     1
  9
$FILLMODE
 70
     1
  9
$QTEXTMODE
 70
     0
  9
$MIRRTEXT
 70
     1
  9
$LTSCALE
 40
1.0
  9
$ATTMODE
 70
     1
  9
$TEXTSIZE
 40
2.5
  9
$TRACEWID
 40
1.0
  9
$TEXTSTYLE
  7
STANDARD
  9
$CLAYER
  8
0
  9
$CELTYPE
  6
BYLAYER
  9
$CECOLOR
 62
   256
  9
$CELTSCALE
 40
1.0
  9
$DISPSILH
 70
     0
  9
$DIMSCALE
 40
1.0
  9
$DIMASZ
 40
3.0
  9
$DIMEXO
 40
1.0
  9
$DIMDLI
 40
10.0
  9
$DIMRND
 40
0.0
  9
$DIMDLE
 40
0.0
  9
$DIMEXE
 40
1.0
  9
$DIMTP
 40
0.0
  9
$DIMTM
 40
0.0
  9
$DIMTXT
 40
3.2
  9
$DIMCEN
 40
0.0
  9
$DIMTSZ
 40
0.0
  9
$DIMTOL
 70
     0
  9
$DIMLIM
 70
     0
  9
$DIMTIH
 70
     0
  9
$DIMTOH
 70
     0
  9
$DIMSE1
 70
     0
  9
$DIMSE2
 70
     0
  9
$DIMTAD
 70
     3
  9
$DIMZIN
 70
     8
  9
$DIMBLK
  1

  9
$DIMASO
 70
     1
  9
$DIMSHO
 70
     1
  9
$DIMPOST
  1

  9
$DIMAPOST
  1

  9
$DIMALT
 70
     0
  9
$DIMALTD
 70
     2
  9
$DIMALTF
 40
25.4
  9
$DIMLFAC
 40
1.0
  9
$DIMTOFL
 70
     1
  9
$DIMTVP
 40
0.0
  9
$DIMTIX
 70
     0
  9
$DIMSOXD
 70
     0
  9
$DIMSAH
 70
     1
  9
$DIMBLK1
  1
OPEN
  9
$DIMBLK2
  1
OPEN
  9
$DIMSTYLE
  2
STANDARD
  9
$DIMCLRD
 70
     0
  9
$DIMCLRE
 70
     0
  9
$DIMCLRT
 70
     0
  9
$DIMTFAC
 40
1.0
  9
$DIMGAP
 40
1.0
  9
$DIMJUST
 70
     0
  9
$DIMSD1
 70
     0
  9
$DIMSD2
 70
     0
  9
$DIMTOLJ
 70
     1
  9
$DIMTZIN
 70
     0
  9
$DIMALTZ
 70
     0
  9
$DIMALTTZ
 70
     0
  9
$DIMUPT
 70
     0
  9
$DIMDEC
 70
     4
  9
$DIMTDEC
 70
     4
  9
$DIMALTU
 70
     2
  9
$DIMALTTD
 70
     2
  9
$DIMTXSTY
  7
STANDARD
  9
$DIMAUNIT
 70
     0
  9
$DIMADEC
 70
     0
  9
$DIMALTRND
 40
0.0
  9
$DIMAZIN
 70
     0
  9
$DIMDSEP
 70
    46
  9
$DIMATFIT
 70
     3
  9
$DIMFRAC
 70
     0
  9
$DIMLDRBLK
  1
OPEN
  9
$DIMLUNIT
 70
     2
  9
$DIMLWD
 70
    -2
  9
$DIMLWE
 70
    -2
  9
$DIMTMOVE
 70
     0
  9
$LUNITS
 70
     2
  9
$LUPREC
 70
     4
  9
$SKETCHINC
 40
1.0
  9
$FILLETRAD
 40
0.0
  9
$AUNITS
 70
     0
  9
$AUPREC
 70
     0
  9
$MENU
  1
.
  9
$ELEVATION
 40
0.0
  9
$PELEVATION
 40
0.0
  9
$THICKNESS
 40
0.0
  9
$LIMCHECK
 70
     0
  9
$CHAMFERA
 40
10.0
  9
$CHAMFERB
 40
10.0
  9
$CHAMFERC
 40
20.0
  9
$CHAMFERD
 40
0.0
  9
$SKPOLY
 70
     0
  9
$TDCREATE
 40
2453781.599615880
  9
$TDUCREATE
 40
2453781.224615880
  9
$TDUPDATE
 40
2457192.700696760
  9
$TDUUPDATE
 40
2457192.325696759
  9
$TDINDWG
 40
0.1426713194
  9
$TDUSRTIMER
 40
0.1426713079
  9
$USRTIMER
 70
     1
  9
$ANGBASE
 50
0.0
  9
$ANGDIR
 70
     0
  9
$PDMODE
 70
     0
  9
$PDSIZE
 40
0.0
  9
$PLINEWID
 40
0.0
  9
$SPLFRAME
 70
     0
  9
$SPLINETYPE
 70
     6
  9
$SPLINESEGS
 70
     8
  9
$HANDSEED
  5
254F
  9
$SURFTAB1
 70
     6
  9
$SURFTAB2
 70
     6
  9
$SURFTYPE
 70
     6
  9
$SURFU
 70
     6
  9
$SURFV
 70
     6
  9
$UCSBASE
  2

  9
$UCSNAME
  2

  9
$UCSORG
 10
0.0
 20
0.0
 30
0.0
  9
$UCSXDIR
 10
1.0
 20
0.0
 30
0.0
  9
$UCSYDIR
 10
0.0
 20
1.0
 30
0.0
  9
$UCSORTHOREF
  2

  9
$UCSORTHOVIEW
 70
     0
  9
$UCSORGTOP
 10
0.0
 20
0.0
 30
0.0
  9
$UCSORGBOTTOM
 10
0.0
 20
0.0
 30
0.0
  9
$UCSORGLEFT
 10
0.0
 20
0.0
 30
0.0
  9
$UCSORGRIGHT
 10
0.0
 20
0.0
 30
0.0
  9
$UCSORGFRONT
 10
0.0
 20
0.0
 30
0.0
  9
$UCSORGBACK
 10
0.0
 20
0.0
 30
0.0
  9
$PUCSBASE
  2

  9
$PUCSNAME
  2

  9
$PUCSORG
 10
0.0
 20
0.0
 30
0.0
  9
$PUCSXDIR
 10
1.0
 20
0.0
 30
0.0
  9
$PUCSYDIR
 10
0.0
 20
1.0
 30
0.0
  9
$PUCSORTHOREF
  2

  9
$PUCSORTHOVIEW
 70
     0
  9
$PUCSORGTOP
 10
0.0
 20
0.0
 30
0.0
  9
$PUCSORGBOTTOM
 10
0.0
 20
0.0
 30
0.0
  9
$PUCSORGLEFT
 10
0.0
 20
0.0
 30
0.0
  9
$PUCSORGRIGHT
 10
0.0
 20
0.0
 30
0.0
  9
$PUCSORGFRONT
 10
0.0
 20
0.0
 30
0.0
  9
$PUCSORGBACK
 10
0.0
 20
0.0
 30
0.0
  9
$USERI1
 70
     0
  9
$USERI2
 70
     0
  9
$USERI3
 70
     0
  9
$USERI4
 70
     0
  9
$USERI5
 70
     0
  9
$USERR1
 40
0.0
  9
$USERR2
 40
0.0
  9
$USERR3
 40
0.0
  9
$USERR4
 40
0.0
  9
$USERR5
 40
0.0
  9
$WORLDVIEW
 70
     1
  9
$SHADEDGE
 70
     3
  9
$SHADEDIF
 70
    70
  9
$TILEMODE
 70
     1
  9
$MAXACTVP
 70
    48
  9
$PINSBASE
 10
0.0
 20
0.0
 30
0.0
  9
$PLIMCHECK
 70
     0
  9
$PEXTMIN
 10
27.8447512626648
 20
20.24591643810271
 30
0.0
  9
$PEXTMAX
 10
250.6027613639831
 20
182.2132479429244
 30
0.0
  9
$PLIMMIN
 10
-3.757080078125
 20
-3.757083177566528
  9
$PLIMMAX
 10
293.2112426757812
 20
206.2162444591522
  9
$UNITMODE
 70
     0
  9
$VISRETAIN
 70
     1
  9
$PLINEGEN
 70
     0
  9
$PSLTSCALE
 70
     1
  9
$TREEDEPTH
 70
  3020
  9
$CMLSTYLE
  2
STANDARD
  9
$CMLJUST
 70
     0
  9
$CMLSCALE
 40
20.0
  9
$PROXYGRAPHICS
 70
     1
  9
$MEASUREMENT
 70
     0
  9
$CELWEIGHT
370
    -1
  9
$ENDCAPS
280
     0
  9
$JOINSTYLE
280
     0
  9
$LWDISPLAY
290
     0
  9
$INSUNITS
 70
     0
  9
$HYPERLINKBASE
  1

  9
$STYLESHEET
  1

  9
$XEDIT
290
     1
  9
$CEPSNTYPE
380
     0
  9
$PSTYLEMODE
290
     1
  9
$FINGERPRINTGUID
  2
{7ECC57D8-670E-4602-A082-BEB02E8DC853}
  9
$VERSIONGUID
  2
{4C0B58FC-5AF3-4460-8E17-99E96309C539}
  9
$EXTNAMES
290
     1
  9
$PSVPSCALE
 40
0.0
  9
$OLESTARTUP
290
     0
  0
ENDSEC
  0
SECTION
  2
CLASSES
  0
CLASS
  1
ACDBDICTIONARYWDFLT
  2
AcDbDictionaryWithDefault
  3
ObjectDBX Classes
 90
        0
280
     0
281
     0
  0
CLASS
  1
ACDBPLACEHOLDER
  2
AcDbPlaceHolder
  3
ObjectDBX Classes
 90
        0
280
     0
281
     0
  0
CLASS
  1
LAYOUT
  2
AcDbLayout
  3
ObjectDBX Classes
 90
        0
280
     0
281
     0
  0
CLASS
  1
DICTIONARYVAR
  2
AcDbDictionaryVar
  3
ObjectDBX Classes
 90
        0
280
     0
281
     0
  0
CLASS
  1
MATERIAL
  2
AcDbMaterial
  3
ObjectDBX Classes
 90
     1153
280
     0
281
     0
  0
CLASS
  1
VISUALSTYLE
  2
AcDbVisualStyle
  3
ObjectDBX Classes
 90
     4095
280
     0
281
     0
  0
CLASS
  1
TABLESTYLE
  2
AcDbTableStyle
  3
ObjectDBX Classes
 90
     4095
280
     0
281
     0
  0
CLASS
  1
SCALE
  2
AcDbScale
  3
ObjectDBX Classes
 90
     1153
280
     0
281
     0
  0
CLASS
  1
MLEADERSTYLE
  2
AcDbMLeaderStyle
  3
ACDB_MLEADERSTYLE_CLASS
 90
     4095
280
     0
281
     0
  0
CLASS
  1
ACDBSECTIONVIEWSTYLE
  2
AcDbSectionViewStyle
  3
ObjectDBX Classes
 90
     1025
280
     0
281
     0
  0
CLASS
  1
ACDBDETAILVIEWSTYLE
  2
AcDbDetailViewStyle
  3
ObjectDBX Classes
 90
     1025
280
     0
281
     0
  0
CLASS
  1
CELLSTYLEMAP
  2
AcDbCellStyleMap
  3
ObjectDBX Classes
 90
     1152
280
     0
281
     0
  0
ENDSEC
  0
SECTION
  2
TABLES
  0
TABLE
  2
VPORT
  5
8
330
0
100
AcDbSymbolTable
 70
     1
  0
VPORT
  5
2499
330
8
100
AcDbSymbolTableRecord
100
AcDbViewportTableRecord
  2
*ACTIVE
 70
     0
 10
0.0
 20
0.0
 11
1.0
 21
1.0
 12
235.9462680671077
 22
138.4266132987211
 13
0.0
 23
0.0
 14
10.0
 24
10.0
 15
10.0
 25
10.0
 16
0.0
 26
0.0
 36
1.0
 17
0.0
 27
0.0
 37
0.0
 40
259.325086880944
 41
2.35006605019815
 42
50.0
 43
0.0
 44
0.0
 50
0.0
 51
0.0
 71
     0
 72
   100
 73
     1
 74
     0
 75
     0
 76
     0
 77
     0
 78
     0
281
     0
 65
     1
110
0.0
120
0.0
130
0.0
111
1.0
121
0.0
131
0.0
112
0.0
122
1.0
132
0.0
 79
     0
146
0.0
1001
ACAD_NAV_VCDISPLAY
1070
     3
  0
ENDTAB
  0
TABLE
  2
LTYPE
  5
5
330
0
100
AcDbSymbolTable
 70
     4
  0
LTYPE
  5
12
330
5
100
AcDbSymbolTableRecord
100
AcDbLinetypeTableRecord
  2
BYBLOCK
 70
     0
  3

 72
    65
 73
     0
 40
0.0
  0
LTYPE
  5
13
330
5
100
AcDbSymbolTableRecord
100
AcDbLinetypeTableRecord
  2
BYLAYER
 70
     0
  3

 72
    65
 73
     0
 40
0.0
  0
LTYPE
  5
14
330
5
100
AcDbSymbolTableRecord
100
AcDbLinetypeTableRecord
  2
CONTINUOUS
 70
     0
  3
Solid line
 72
    65
 73
     0
 40
0.0
  0
LTYPE
  5
4B
330
5
100
AcDbSymbolTableRecord
100
AcDbLinetypeTableRecord
  2
DASHED
 70
     0
  3
Dashed __ __ __ __ __ __ __ __ __ __ __ __ __ _
 72
    65
 73
     2
 40
19.04999999999999
 49
12.7
 74
     0
 49
-6.349999999999998
 74
     0
  0
LTYPE
  5
4C
330
5
100
AcDbSymbolTableRecord
100
AcDbLinetypeTableRecord
  2
CENTER
 70
     0
  3
Center ____ _ ____ _ ____ _ ____ _ ____ _ ____
 72
    65
 73
     4
 40
50.8
 49
31.75
 74
     0
 49
-6.349999999999998
 74
     0
 49
6.349999999999998
 74
     0
 49
-6.349999999999998
 74
     0
  0
LTYPE
  5
4D
330
5
100
AcDbSymbolTableRecord
100
AcDbLinetypeTableRecord
  2
PHANTOM
 70
     0
  3
Phantom ______  __  __  ______  __  __  ______
 72
    65
 73
     6
 40
63.5
 49
31.75
 74
     0
 49
-6.349999999999998
 74
     0
 49
6.349999999999998
 74
     0
 49
-6.349999999999998
 74
     0
 49
6.349999999999998
 74
     0
 49
-6.349999999999998
 74
     0
  0
ENDTAB
  0
TABLE
  2
LAYER
  5
2
330
0
100
AcDbSymbolTable
 70
     8
  0
LAYER
  5
E
102
{ACAD_XDICTIONARY
360
24F3
102
}
330
2
100
AcDbSymbolTableRecord
100
AcDbLayerTableRecord
  2
0
 70
     0
 62
     7
  6
CONTINUOUS
370
    -3
390
24A2
  0
LAYER
  5
4E
102
{ACAD_XDICTIONARY
360
24F5
102
}
330
2
100
AcDbSymbolTableRecord
100
AcDbLayerTableRecord
  2
4
 70
     0
 62
     1
  6
CENTER
370
    -3
390
24A2
  0
LAYER
  5
4F
102
{ACAD_XDICTIONARY
360
24F7
102
}
330
2
100
AcDbSymbolTableRecord
100
AcDbLayerTableRecord
  2
5
 70
     0
 62
     6
  6
PHANTOM
370
    -3
390
24A2
  0
LAYER
  5
50
102
{ACAD_XDICTIONARY
360
24F9
102
}
330
2
100
AcDbSymbolTableRecord
100
AcDbLayerTableRecord
  2
1
 70
     0
 62
     7
  6
CONTINUOUS
370
    -3
390
24A2
  0
LAYER
  5
51
102
{ACAD_XDICTIONARY
360
24FB
102
}
330
2
100
AcDbSymbolTableRecord
100
AcDbLayerTableRecord
  2
2
 70
     0
 62
     4
  6
CONTINUOUS
370
    -3
390
24A2
  0
LAYER
  5
52
102
{ACAD_XDICTIONARY
360
24FD
102
}
330
2
100
AcDbSymbolTableRecord
100
AcDbLayerTableRecord
  2
3
 70
     0
 62
     2
  6
DASHED
370
    -3
390
24A2
  0
LAYER
  5
53
102
{ACAD_XDICTIONARY
360
24FF
102
}
330
2
100
AcDbSymbolTableRecord
100
AcDbLayerTableRecord
  2
6
 70
     0
 62
     5
  6
CONTINUOUS
370
    -3
390
24A2
  0
LAYER
  5
54
102
{ACAD_XDICTIONARY
360
2501
102
}
330
2
100
AcDbSymbolTableRecord
100
AcDbLayerTableRecord
  2
7
 70
     0
 62
     3
  6
CONTINUOUS
370
    -3
390
24A2
  0
ENDTAB
  0
TABLE
  2
STYLE
  5
3
330
0
100
AcDbSymbolTable
 70
     1
  0
STYLE
  5
F
330
3
100
AcDbSymbolTableRecord
100
AcDbTextStyleTableRecord
  2
STANDARD
 70
     0
 40
0.0
 41
1.0
 50
0.0
 71
     0
 42
2.5
  3
simplex.shx
  4

  0
ENDTAB
  0
TABLE
  2
VIEW
  5
6
330
0
100
AcDbSymbolTable
 70
     0
  0
ENDTAB
  0
TABLE
  2
UCS
  5
7
330
0
100
AcDbSymbolTable
 70
     0
  0
ENDTAB
  0
TABLE
  2
APPID
  5
9
330
0
100
AcDbSymbolTable
 70
     5
  0
APPID
  5
10
330
9
100
AcDbSymbolTableRecord
100
AcDbRegAppTableRecord
  2
ACAD
 70
     0
  0
APPID
  5
3E
330
9
100
AcDbSymbolTableRecord
100
AcDbRegAppTableRecord
  2
CONTENTTABDATA
 70
     0
  0
APPID
  5
3F
330
9
100
AcDbSymbolTableRecord
100
AcDbRegAppTableRecord
  2
CONTENTCURRENTTAB
 70
     0
  0
APPID
  5
250D
330
9
100
AcDbSymbolTableRecord
100
AcDbRegAppTableRecord
  2
ACAD_NAV_VCDISPLAY
 70
     0
  0
APPID
  5
2546
330
9
100
AcDbSymbolTableRecord
100
AcDbRegAppTableRecord
  2
ACAD_MLEADERVER
 70
     0
  0
ENDTAB
  0
TABLE
  2
DIMSTYLE
  5
A
330
0
100
AcDbSymbolTable
 70
     1
100
AcDbDimStyleTable
 71
     0
  0
DIMSTYLE
105
1D
330
A
100
AcDbSymbolTableRecord
100
AcDbDimStyleTableRecord
  2
STANDARD
 70
     0
 41
3.0
 42
1.0
 43
10.0
 44
1.0
 73
     0
 74
     0
 77
     3
 78
     8
140
3.2
141
0.0
147
1.0
172
     1
173
     1
340
F
341
2E
343
2E
344
2E
  0
ENDTAB
  0
TABLE
  2
BLOCK_RECORD
  5
1
330
0
100
AcDbSymbolTable
 70
     1
  0
BLOCK_RECORD
  5
18
102
{ACAD_XDICTIONARY
360
249C
102
}
330
1
100
AcDbSymbolTableRecord
100
AcDbBlockTableRecord
  2
*MODEL_SPACE
340
24F0
  0
BLOCK_RECORD
  5
15
102
{ACAD_XDICTIONARY
360
249A
102
}
330
1
100
AcDbSymbolTableRecord
100
AcDbBlockTableRecord
  2
*PAPER_SPACE
340
24F1
  0
BLOCK_RECORD
  5
2E
330
1
100
AcDbSymbolTableRecord
100
AcDbBlockTableRecord
  2
_OPEN
340
0
  0
ENDTAB
  0
ENDSEC
  0
SECTION
  2
BLOCKS
  0
BLOCK
  5
19
330
18
100
AcDbEntity
  8
0
100
AcDbBlockBegin
  2
*MODEL_SPACE
 70
     0
 10
0.0
 20
0.0
 30
0.0
  3
*MODEL_SPACE
  1

  0
ENDBLK
  5
1A
330
18
100
AcDbEntity
  8
0
100
AcDbBlockEnd
  0
BLOCK
  5
16
330
15
100
AcDbEntity
 67
     1
  8
0
100
AcDbBlockBegin
  2
*PAPER_SPACE
 70
     0
 10
0.0
 20
0.0
 30
0.0
  3
*PAPER_SPACE
  1

  0
ENDBLK
  5
17
330
15
100
AcDbEntity
 67
     1
  8
0
100
AcDbBlockEnd
  0
BLOCK
  5
2F
330
2E
100
AcDbEntity
  8
0
100
AcDbBlockBegin
  2
_OPEN
 70
     0
 10
0.0
 20
0.0
 30
0.0
  3
_OPEN
  1

  0
LINE
  5
30
330
2E
100
AcDbEntity
  8
0
  6
ByBlock
 62
     0
100
AcDbLine
 10
-1.0
 20
0.1666666666666666
 30
0.0
 11
0.0
 21
0.0
 31
0.0
  0
LINE
  5
31
330
2E
100
AcDbEntity
  8
0
  6
ByBlock
 62
     0
100
AcDbLine
 10
0.0
 20
0.0
 30
0.0
 11
-1.0
 21
-0.1666666666666666
 31
0.0
  0
LINE
  5
32
330
2E
100
AcDbEntity
  8
0
  6
ByBlock
 62
     0
100
AcDbLine
 10
0.0
 20
0.0
 30
0.0
 11
-1.0
 21
0.0
 31
0.0
  0
ENDBLK
  5
33
330
2E
100
AcDbEntity
  8
0
100
AcDbBlockEnd
  0
ENDSEC
  0
SECTION
  2
ENTITIES
  0
TEXT
  5
63
330
18
100
AcDbEntity
  8
4
  6
CENTER
 48
0.25
100
AcDbText
 10
23.97950852663849
 20
10.0
 30
0.0
 40
1.399999999999999
  1
4
100
AcDbText
  0
TEXT
  5
64
330
18
100
AcDbEntity
  8
7
  6
Continuous
 48
0.25
100
AcDbText
 10
9.999997526638502
 20
26.0000007607689
 30
0.0
 40
3.0
  1
CODE No.13417
100
AcDbText
  0
TEXT
  5
65
330
18
100
AcDbEntity
  8
7
  6
Continuous
 48
0.25
100
AcDbText
 10
9.999997526638502
 20
18.00000076076889
 30
0.0
 40
3.0
  1
TYPE No.TEA-1152-U1
100
AcDbText
  0
TEXT
  5
66
330
18
100
AcDbEntity
  8
1
  6
Continuous
 48
0.25
100
AcDbText
 10
9.999997526638502
 20
10.00000076076889
 30
0.0
 40
1.399999999999999
  1
LAYER
100
AcDbText
  0
TEXT
  5
67
330
18
100
AcDbEntity
  8
2
  6
Continuous
 48
0.25
100
AcDbText
 10
19.9795085266385
 20
10.0
 30
0.0
 40
1.399999999999999
  1
2
100
AcDbText
  0
TEXT
  5
68
330
18
100
AcDbEntity
  8
3
  6
DASHED
 48
0.25
100
AcDbText
 10
21.9795085266385
 20
10.0
 30
0.0
 40
1.399999999999999
  1
3
100
AcDbText
  0
TEXT
  5
69
330
18
100
AcDbEntity
  8
1
  6
Continuous
 48
0.25
100
AcDbText
 10
17.9795085266385
 20
10.0
 30
0.0
 40
1.399999999999999
  1
1
100
AcDbText
  0
TEXT
  5
6A
330
18
100
AcDbEntity
  8
5
  6
PHANTOM
 48
0.25
100
AcDbText
 10
25.9795085266385
 20
10.0
 30
0.0
 40
1.399999999999999
  1
5
100
AcDbText
  0
TEXT
  5
6B
330
18
100
AcDbEntity
  8
6
  6
Continuous
 48
0.25
100
AcDbText
 10
27.9795085266385
 20
10.0
 30
0.0
 40
1.399999999999999
  1
6
100
AcDbText
  0
TEXT
  5
6C
330
18
100
AcDbEntity
  8
7
  6
Continuous
 48
0.25
100
AcDbText
 10
29.9795085266385
 20
10.0
 30
0.0
 40
1.399999999999999
  1
7
100
AcDbText
  0
LINE
  5
16B8
330
18
100
AcDbEntity
  8
1
  6
Continuous
100
AcDbLine
 10
259.2854499349914
 20
187.0795189997414
 30
0.0
 11
259.2854499349913
 21
107.0795151999464
 31
0.0
  0
LINE
  5
16B9
330
18
100
AcDbEntity
  8
1
  6
Continuous
100
AcDbLine
 10
292.2854515024073
 20
187.0795189997418
 30
0.0
 11
292.2854515024073
 21
107.0795151999457
 31
0.0
  0
CIRCLE
  5
16C0
330
18
100
AcDbEntity
  8
1
  6
Continuous
100
AcDbCircle
 10
275.7854507186994
 20
167.0795180497928
 30
0.0
 40
12.40000058896842
  0
LINE
  5
16C1
330
18
100
AcDbEntity
  8
1
  6
Continuous
100
AcDbLine
 10
293.7854515736534
 20
109.0795152949406
 30
0.0
 11
293.7854515736534
 21
185.0795189047469
 31
0.0
  0
LINE
  5
16C2
330
18
100
AcDbEntity
  8
1
  6
Continuous
100
AcDbLine
 10
257.7854498637452
 20
185.0795189047469
 30
0.0
 11
257.7854498637452
 21
109.0795152949406
 31
0.0
  0
LINE
  5
16CC
330
18
100
AcDbEntity
  8
1
  6
Continuous
100
AcDbLine
 10
187.534077762672
 20
185.0795189047478
 30
0.0
 11
187.534077762672
 21
176.6795185057692
 31
0.0
  0
LINE
  5
16CF
330
18
100
AcDbEntity
  8
1
  6
Continuous
100
AcDbLine
 10
203.9340781601605
 20
179.4795186387621
 30
0.0
 11
203.9340781601605
 21
162.3342432630782
 31
0.0
  0
LINE
  5
16D0
330
18
100
AcDbEntity
  8
1
  6
Continuous
100
AcDbLine
 10
185.5340776676771
 20
187.0795189997427
 30
0.0
 11
185.5340776676771
 21
107.0795151999466
 31
0.0
  0
LINE
  5
16D2
330
18
100
AcDbEntity
  8
1
  6
Continuous
100
AcDbLine
 10
202.2340784608877
 20
178.5356247970695
 30
0.0
 11
202.2340784608876
 21
155.6234113025178
 31
0.0
  0
ARC
  5
16D4
330
18
100
AcDbEntity
  8
1
  6
Continuous
100
AcDbCircle
 10
122.3786896859566
 20
167.0794584359607
 30
0.0
 40
11.25005962397112
100
AcDbArc
 50
7.907845177077397
 51
172.0766002778927
  0
ARC
  5
16D5
330
18
100
AcDbEntity
  8
1
  6
Continuous
100
AcDbCircle
 10
122.3786628180255
 20
167.0794381254038
 30
0.0
 40
8.294807559597327
100
AcDbArc
 50
0.0005520719059323
 51
89.9994479280949
  0
ARC
  5
16D7
330
18
100
AcDbEntity
  8
1
  6
Continuous
100
AcDbCircle
 10
122.3788059634503
 20
167.0794548287588
 30
0.0
 40
8.294790856098316
100
AcDbArc
 50
90.00043669557642
 51
179.999563304423
  0
LINE
  5
16D8
330
18
100
AcDbEntity
  8
1
  6
Continuous
100
AcDbLine
 10
140.3787435973695
 20
185.0795189047478
 30
0.0
 11
140.3787435973695
 21
109.0795152949429
 31
0.0
  0
LINE
  5
16D9
330
18
100
AcDbEntity
  8
1
  6
Continuous
100
AcDbLine
 10
104.3787418874612
 20
109.0795152949415
 30
0.0
 11
104.3787418874612
 21
185.0795189047478
 31
0.0
  0
ARC
  5
16DC
330
18
100
AcDbEntity
  8
1
  6
Continuous
100
AcDbCircle
 10
122.3787427424153
 20
167.0795180497937
 30
0.0
 40
11.50000054622066
100
AcDbArc
 50
359.9999999998672
 51
180.0
  0
CIRCLE
  5
18EC
330
18
100
AcDbEntity
  8
1
  6
Continuous
100
AcDbCircle
 10
122.3787427424154
 20
130.079516292388
 30
0.0
 40
6.900000327732411
  0
LINE
  5
18ED
330
18
100
AcDbEntity
  8
1
  6
Continuous
100
AcDbLine
 10
112.8287422888147
 20
113.615706010639
 30
0.0
 11
112.8287422888146
 21
165.7789397612746
 31
0.0
  0
LINE
  5
18F0
330
18
100
AcDbEntity
  8
1
  6
Continuous
100
AcDbLine
 10
111.1287479272091
 20
165.1788163888651
 30
0.0
 11
111.128747927209
 21
118.3295157343529
 31
0.0
  0
LINE
  5
18F5
330
18
100
AcDbEntity
  8
1
  6
Continuous
100
AcDbLine
 10
109.3787421249485
 20
129.5795162673392
 30
0.0
 11
109.3787421249517
 21
167.0795514276619
 31
0.0
  0
LINE
  5
18F7
330
18
100
AcDbEntity
  8
1
  6
Continuous
100
AcDbLine
 10
110.8787421961947
 20
167.0795180497937
 30
0.0
 11
110.8787421961947
 21
129.5795162686658
 31
0.0
  0
ARC
  5
18F9
330
18
100
AcDbEntity
  8
1
  6
Continuous
100
AcDbCircle
 10
122.3787427424155
 20
118.329515734293
 30
0.0
 40
10.65011151102152
100
AcDbArc
 50
206.2706063469613
 51
333.7293936530382
  0
ARC
  5
18FA
330
18
100
AcDbEntity
  8
1
  6
Continuous
100
AcDbCircle
 10
122.3787427424154
 20
118.3184990775477
 30
0.0
 40
11.23898329381496
100
AcDbArc
 50
207.755725511236
 51
332.244274488764
  0
LINE
  5
1902
330
18
100
AcDbEntity
  8
1
  6
Continuous
100
AcDbLine
 10
105.8787419587073
 20
107.1430235298584
 30
0.0
 11
105.8787419587073
 21
107.0795151999466
 31
0.0
  0
ARC
  5
1905
330
18
100
AcDbEntity
  8
1
  6
Continuous
100
AcDbCircle
 10
106.3787419824589
 20
109.0795152949443
 30
0.0
 40
2.000000094999298
100
AcDbArc
 50
180.0000000000814
 51
269.9999999999608
  0
ARC
  5
1911
330
18
100
AcDbEntity
  8
1
  6
Continuous
100
AcDbCircle
 10
122.3444879950746
 20
118.3259463934022
 30
0.0
 40
11.21216075913155
100
AcDbArc
 50
179.9817599827133
 51
207.8709234739867
  0
LINE
  5
1914
330
18
100
AcDbEntity
  8
1
  6
Continuous
100
AcDbLine
 10
111.1323168849834
 20
118.329515748233
 30
0.0
 11
111.1292820929452
 21
118.3295157501782
 31
0.0
  0
LINE
  5
1915
330
18
100
AcDbEntity
  8
1
  6
Continuous
100
AcDbLine
 10
111.1292820929452
 20
118.3295157501782
 30
0.0
 11
111.1287422080689
 21
118.3295157514138
 31
0.0
  0
ARC
  5
1917
330
18
100
AcDbEntity
  8
1
  6
Continuous
100
AcDbCircle
 10
122.3787427424154
 20
129.5795162686392
 30
0.0
 40
11.50000054622067
100
AcDbArc
 50
179.9999999998677
 51
191.7333896438745
  0
ARC
  5
191C
330
18
100
AcDbEntity
  8
1
  6
Continuous
100
AcDbCircle
 10
138.3787435023718
 20
109.0795152949443
 30
0.0
 40
2.000000094999314
100
AcDbArc
 50
270.0000000000814
 51
359.9999999999583
  0
LINE
  5
191E
330
18
100
AcDbEntity
  8
1
  6
Continuous
100
AcDbLine
 10
138.8787435261233
 20
107.0795151999466
 30
0.0
 11
105.8787419587073
 21
107.0795151999466
 31
0.0
  0
LINE
  5
1921
330
18
100
AcDbEntity
  8
1
  6
Continuous
100
AcDbLine
 10
138.8787435261233
 20
107.1430235298584
 30
0.0
 11
138.8787435261233
 21
107.0795151999466
 31
0.0
  0
LINE
  5
193B
330
18
100
AcDbEntity
  8
1
  6
Continuous
100
AcDbLine
 10
111.6149689372217
 20
167.0795180497937
 30
0.0
 11
114.0840151075928
 21
167.0795180497937
 31
0.0
  0
LINE
  5
195E
330
18
100
AcDbEntity
  8
1
  6
Continuous
100
AcDbLine
 10
268.0354503505943
 20
113.5795155086791
 30
0.0
 11
283.5354510868043
 21
113.5795155086791
 31
0.0
  0
LINE
  5
195F
330
18
100
AcDbEntity
  8
1
  6
Continuous
100
AcDbLine
 10
268.0354503505943
 20
154.3295174442003
 30
0.0
 11
283.5354510868043
 21
154.3295174442001
 31
0.0
  0
LINE
  5
1963
330
18
100
AcDbEntity
  8
1
  6
Continuous
100
AcDbLine
 10
273.8354506260793
 20
167.5795180735415
 30
0.0
 11
274.9854506807015
 21
167.5795180735415
 31
0.0
  0
LINE
  5
1964
330
18
100
AcDbEntity
  8
1
  6
Continuous
100
AcDbLine
 10
274.9854506807015
 20
166.5795180260441
 30
0.0
 11
273.8354506260648
 21
166.5795180260441
 31
0.0
  0
ARC
  5
1968
330
18
100
AcDbEntity
  8
1
  6
Continuous
100
AcDbCircle
 10
275.7854507186994
 20
167.0795180497928
 30
0.0
 40
4.000000189989809
100
AcDbArc
 50
104.1337367207031
 51
255.8662632792952
  0
ARC
  5
1973
330
18
100
AcDbEntity
  8
1
  6
Continuous
100
AcDbCircle
 10
275.7854507186994
 20
147.0795170998437
 30
0.0
 40
4.000000189989809
100
AcDbArc
 50
104.1337367207031
 51
255.8662632792952
  0
LINE
  5
1978
330
18
100
AcDbEntity
  8
1
  6
Continuous
100
AcDbLine
 10
283.1854510701806
 20
139.5795167436129
 30
0.0
 11
268.3854503639307
 21
139.5795167436129
 31
0.0
  0
LINE
  5
1979
330
18
100
AcDbEntity
  8
1
  6
Continuous
100
AcDbLine
 10
265.4033107144333
 20
114.474699992632
 30
0.0
 11
286.1680116744812
 21
114.474699992632
 31
0.0
  0
ARC
  5
197B
330
18
100
AcDbEntity
  8
1
  6
Continuous
100
AcDbCircle
 10
275.7854507186994
 20
127.5795161736434
 30
0.0
 40
12.40000058896836
100
AcDbArc
 50
180.000000003482
 51
0.0000000000002627
  0
LINE
  5
197C
330
18
100
AcDbEntity
  8
1
  6
Continuous
100
AcDbLine
 10
263.0354501131071
 20
118.5795157461664
 30
0.0
 11
263.0354501131071
 21
138.0795166723667
 31
0.0
  0
LINE
  5
197D
330
18
100
AcDbEntity
  8
1
  6
Continuous
100
AcDbLine
 10
263.2969821508132
 20
118.5795157461664
 30
0.0
 11
263.2969821508132
 21
138.0795166723667
 31
0.0
  0
LINE
  5
197F
330
18
100
AcDbEntity
  8
1
  6
Continuous
100
AcDbLine
 10
188.5340778101694
 20
173.0795183347784
 30
0.0
 11
188.5340778101694
 21
121.0795158649109
 31
0.0
  0
LINE
  5
1980
330
18
100
AcDbEntity
  8
1
  6
Continuous
100
AcDbLine
 10
196.1968503140901
 20
118.5795157461673
 30
0.0
 11
196.19685031409
 21
138.0795166723676
 31
0.0
  0
LINE
  5
1983
330
18
100
AcDbEntity
  8
1
  6
Continuous
100
AcDbLine
 10
177.5203439322473
 20
165.1787992528537
 30
0.0
 11
177.5203439322473
 21
118.3295157342929
 31
0.0
  0
LINE
  5
1984
330
18
100
AcDbEntity
  8
1
  6
Continuous
100
AcDbLine
 10
178.3340773137734
 20
107.0795151999467
 30
0.0
 11
178.3340773137734
 21
133.449842140474
 31
0.0
  0
LINE
  5
1986
330
18
100
AcDbEntity
  8
1
  6
Continuous
100
AcDbLine
 10
178.5340773351947
 20
180.0795186672601
 30
0.0
 11
178.5340773351961
 21
116.5795156511686
 31
0.0
  0
LINE
  5
1988
330
18
100
AcDbEntity
  8
1
  6
Continuous
100
AcDbLine
 10
187.534077762672
 20
109.0795152949415
 30
0.0
 11
187.534077762672
 21
117.4795156939201
 31
0.0
  0
LINE
  5
1989
330
18
100
AcDbEntity
  8
1
  6
Continuous
100
AcDbLine
 10
197.0340782138976
 20
107.0795151999465
 30
0.0
 11
197.0340782138976
 21
113.57951550868
 31
0.0
  0
LINE
  5
198C
330
18
100
AcDbEntity
  8
1
  6
Continuous
100
AcDbLine
 10
178.5340773351961
 20
116.5795156511686
 30
0.0
 11
183.4699624383212
 21
107.2013339552302
 31
0.0
  0
ARC
  5
198D
330
18
100
AcDbEntity
  8
1
  6
Continuous
100
AcDbCircle
 10
189.5340778576669
 20
109.0795152949415
 30
0.0
 40
2.000000094994864
100
AcDbArc
 50
180.0
 51
270.0
  0
LINE
  5
198E
330
18
100
AcDbEntity
  8
1
  6
Continuous
100
AcDbLine
 10
176.7340772377776
 20
107.0795151999466
 30
0.0
 11
178.3340773137734
 21
107.0795151999467
 31
0.0
  0
ARC
  5
198F
330
18
100
AcDbEntity
  8
1
  6
Continuous
100
AcDbCircle
 10
176.7340772377785
 20
107.6795152284451
 30
0.0
 40
0.6000000284984701
100
AcDbArc
 50
180.0
 51
269.9999999999088
  0
LINE
  5
1992
330
18
100
AcDbEntity
  8
1
  6
Continuous
100
AcDbLine
 10
185.5340776676771
 20
107.0795151999466
 30
0.0
 11
183.9482911547294
 21
107.0795151999466
 31
0.0
  0
LINE
  5
1998
330
18
100
AcDbEntity
  8
1
  6
Continuous
100
AcDbLine
 10
189.5340778576669
 20
107.0795151999466
 30
0.0
 11
197.0340782138976
 21
107.0795151999465
 31
0.0
  0
LINE
  5
199A
330
18
100
AcDbEntity
  8
1
  6
Continuous
100
AcDbLine
 10
188.5340778101694
 20
121.0795158649109
 30
0.0
 11
186.2340777009253
 21
118.7795157556668
 31
0.0
  0
LINE
  5
199C
330
18
100
AcDbEntity
  8
1
  6
Continuous
100
AcDbLine
 10
187.534077762672
 20
120.0795158174134
 30
0.0
 11
187.534077762672
 21
127.5795161736643
 31
0.0
  0
LINE
  5
199F
330
18
100
AcDbEntity
  8
1
  6
Continuous
100
AcDbLine
 10
185.534077667677
 20
112.5795154611851
 30
0.0
 11
187.534077762672
 21
112.6843310247297
 31
0.0
  0
LINE
  5
19A0
330
18
100
AcDbEntity
  8
1
  6
Continuous
100
AcDbLine
 10
178.3340773137734
 20
120.5795158411621
 30
0.0
 11
178.5340773351949
 21
120.5895158422332
 31
0.0
  0
LINE
  5
19A3
330
18
100
AcDbEntity
  8
1
  6
Continuous
100
AcDbLine
 10
186.234077877702
 20
118.7795155788901
 30
0.0
 11
187.534077762672
 21
117.4795156939201
 31
0.0
  0
ARC
  5
19A4
330
18
100
AcDbEntity
  8
1
  6
Continuous
100
AcDbCircle
 10
176.0829422503548
 20
124.1795160121531
 30
0.0
 40
1.000000047497474
100
AcDbArc
 50
188.7128448431583
 51
269.9999995175669
  0
ARC
  5
19A6
330
18
100
AcDbEntity
  8
1
  6
Continuous
100
AcDbCircle
 10
214.6339799343559
 20
130.0795091221598
 30
0.0
 40
39.99990264886323
100
AcDbArc
 50
171.3019515791665
 51
188.70196920723
  0
LINE
  5
19A7
330
18
100
AcDbEntity
  8
1
  6
Continuous
100
AcDbLine
 10
176.0829422419349
 20
123.1795159646556
 30
0.0
 11
176.1340772092801
 21
123.1795159646556
 31
0.0
  0
LINE
  5
19A8
330
18
100
AcDbEntity
  8
1
  6
Continuous
100
AcDbLine
 10
201.5340784148018
 20
137.5792900694622
 30
0.0
 11
201.5340784148018
 21
117.1792890997075
 31
0.0
  0
ARC
  5
19A9
330
18
100
AcDbEntity
  8
1
  6
Continuous
100
AcDbCircle
 10
199.5340783326414
 20
117.1795156796708
 30
0.0
 40
2.000000094994888
100
AcDbArc
 50
270.0
 51
359.9966803010299
  0
LINE
  5
19AB
330
18
100
AcDbEntity
  8
1
  6
Continuous
100
AcDbLine
 10
196.7255849291625
 20
113.57951550868
 30
0.0
 11
197.0340782138978
 21
113.57951550868
 31
0.0
  0
LINE
  5
19AC
330
18
100
AcDbEntity
  8
1
  6
Continuous
100
AcDbLine
 10
196.3642327399934
 20
115.1795155846759
 30
0.0
 11
199.5340783326414
 21
115.1795155846759
 31
0.0
  0
ARC
  5
19AE
330
18
100
AcDbEntity
  8
1
  6
Continuous
100
AcDbCircle
 10
259.7854499587401
 20
109.0795152949406
 30
0.0
 40
2.000000094994893
100
AcDbArc
 50
180.0000000000004
 51
255.52248781407
  0
LINE
  5
19B2
330
18
100
AcDbEntity
  8
1
  6
Continuous
100
AcDbLine
 10
214.6840786707581
 20
162.2947274666193
 30
0.0
 11
211.184078504517
 21
162.2947274666193
 31
0.0
  0
LINE
  5
19B3
330
18
100
AcDbEntity
  8
1
  6
Continuous
100
AcDbLine
 10
215.1840786945068
 20
167.0795180140793
 30
0.0
 11
211.184078504517
 21
167.0795182997937
 31
0.0
  0
LINE
  5
19B6
330
18
100
AcDbEntity
  8
1
  6
Continuous
100
AcDbLine
 10
203.9340781601605
 20
155.6234113025178
 30
0.0
 11
203.9340781601605
 21
154.6795174608253
 31
0.0
  0
ARC
  5
19B7
330
18
100
AcDbEntity
  8
1
  6
Continuous
100
AcDbCircle
 10
205.4340782314067
 20
155.179517484574
 30
0.0
 40
0.5000000237487347
100
AcDbArc
 50
270.0
 51
359.9833661577759
  0
LINE
  5
19B8
330
18
100
AcDbEntity
  8
1
  6
Continuous
100
AcDbLine
 10
187.534077762672
 20
134.5795165061265
 30
0.0
 11
187.534077762672
 21
174.0795183822758
 31
0.0
  0
LINE
  5
19B9
330
18
100
AcDbEntity
  8
1
  6
Continuous
100
AcDbLine
 10
203.7340785321308
 20
155.6234113025178
 30
0.0
 11
203.7340785321308
 21
154.6795174608253
 31
0.0
  0
LINE
  5
19BA
330
18
100
AcDbEntity
  8
1
  6
Continuous
100
AcDbLine
 10
187.534077762672
 20
154.6795174608253
 30
0.0
 11
188.5340778101694
 21
154.6795174608253
 31
0.0
  0
LINE
  5
19BB
330
18
100
AcDbEntity
  8
1
  6
Continuous
100
AcDbLine
 10
188.5340778101694
 20
139.5795167436137
 30
0.0
 11
187.534077762672
 21
139.5795167436137
 31
0.0
  0
LINE
  5
19BC
330
18
100
AcDbEntity
  8
1
  6
Continuous
100
AcDbLine
 10
188.5340778101694
 20
151.5795173135832
 30
0.0
 11
187.534077762672
 21
151.5795173135832
 31
0.0
  0
LINE
  5
19BD
330
18
100
AcDbEntity
  8
1
  6
Continuous
100
AcDbLine
 10
187.534077762672
 20
142.5795168861061
 30
0.0
 11
188.5340778101694
 21
142.5795168861061
 31
0.0
  0
ARC
  5
19BE
330
18
100
AcDbEntity
  8
1
  6
Continuous
100
AcDbCircle
 10
176.0829422503548
 20
135.9795165726229
 30
0.0
 40
1.000000047497474
100
AcDbArc
 50
90.00000048243306
 51
171.4273211419766
  0
LINE
  5
19BF
330
18
100
AcDbEntity
  8
1
  6
Continuous
100
AcDbLine
 10
176.1340772092801
 20
136.9795166201204
 30
0.0
 11
176.0829422419349
 21
136.9795166201204
 31
0.0
  0
LINE
  5
19C0
330
18
100
AcDbEntity
  8
1
  6
Continuous
100
AcDbLine
 10
178.5309626872689
 20
133.4797191541267
 30
0.0
 11
178.3340773137729
 21
133.449842140474
 31
0.0
  0
LINE
  5
19C4
330
18
100
AcDbEntity
  8
1
  6
Continuous
100
AcDbLine
 10
198.6840779107989
 20
140.942016808329
 30
0.0
 11
198.6840779107988
 21
153.2170173913602
 31
0.0
  0
LINE
  5
19C5
330
18
100
AcDbEntity
  8
1
  6
Continuous
100
AcDbLine
 10
198.1840778870502
 20
140.3295167792368
 30
0.0
 11
198.1840778870502
 21
153.8295174204524
 31
0.0
  0
LINE
  5
19C7
330
18
100
AcDbEntity
  8
1
  6
Continuous
100
AcDbLine
 10
202.6840781007887
 20
151.3643075878405
 30
0.0
 11
202.6840781007887
 21
142.794726540419
 31
0.0
  0
LINE
  5
19C9
330
18
100
AcDbEntity
  8
1
  6
Continuous
100
AcDbLine
 10
202.1840780770399
 20
142.2947265166703
 30
0.0
 11
198.6840779107989
 21
142.2947265166703
 31
0.0
  0
ARC
  5
19CA
330
18
100
AcDbEntity
  8
1
  6
Continuous
100
AcDbCircle
 10
199.5340783326414
 20
137.5795166486188
 30
0.0
 40
2.000000094994949
100
AcDbArc
 50
359.9935089855953
 51
90.00000000000978
  0
LINE
  5
19CD
330
18
100
AcDbEntity
  8
1
  6
Continuous
100
AcDbLine
 10
196.4938125767254
 20
140.5795167911112
 30
0.0
 11
196.7825277428381
 21
140.5795167911112
 31
0.0
  0
ARC
  5
19CE
330
18
100
AcDbEntity
  8
1
  6
Continuous
100
AcDbCircle
 10
296.7407264116659
 20
130.8113827553877
 30
0.0
 40
100.4343463345916
100
AcDbArc
 50
173.0986414381108
 51
174.4186525502494
  0
LINE
  5
19D1
330
18
100
AcDbEntity
  8
1
  6
Continuous
100
AcDbLine
 10
198.1840778870502
 20
140.3295167792369
 30
0.0
 11
198.6841779107989
 21
140.942139308329
 31
0.0
  0
LINE
  5
19D2
330
18
100
AcDbEntity
  8
1
  6
Continuous
100
AcDbLine
 10
197.4840778538019
 20
140.3295167792368
 30
0.0
 11
198.18407788705
 21
140.3295167792368
 31
0.0
  0
LINE
  5
19D9
330
18
100
AcDbEntity
  8
1
  6
Continuous
100
AcDbLine
 10
197.1840778395782
 20
142.5186782121054
 30
0.0
 11
197.0340778324281
 21
142.5186782121054
 31
0.0
  0
LINE
  5
19DB
330
18
100
AcDbEntity
  8
1
  6
Continuous
100
AcDbLine
 10
197.184077839578
 20
143.3799489644478
 30
0.0
 11
197.0340778324281
 21
143.3799489644478
 31
0.0
  0
LINE
  5
19DC
330
18
100
AcDbEntity
  8
1
  6
Continuous
100
AcDbLine
 10
197.1840778395782
 20
141.795986241471
 30
0.0
 11
197.0340778324281
 21
141.795986241471
 31
0.0
  0
LINE
  5
19DD
330
18
100
AcDbEntity
  8
1
  6
Continuous
100
AcDbLine
 10
197.184077839578
 20
141.23383166073
 30
0.0
 11
197.0340778324281
 21
141.23383166073
 31
0.0
  0
LINE
  5
19E0
330
18
100
AcDbEntity
  8
1
  6
Continuous
100
AcDbLine
 10
197.184077839578
 20
140.8492953166248
 30
0.0
 11
197.0340778324281
 21
140.8492953166248
 31
0.0
  0
LINE
  5
19E1
330
18
100
AcDbEntity
  8
1
  6
Continuous
100
AcDbLine
 10
197.1840778395528
 20
140.6540610633269
 30
0.0
 11
197.0340782138976
 21
140.6540610633269
 31
0.0
  0
ARC
  5
19E4
330
18
100
AcDbEntity
  8
1
  6
Continuous
100
AcDbCircle
 10
197.4840778538019
 20
140.6295167934861
 30
0.0
 40
0.3000000142492368
100
AcDbArc
 50
180.0
 51
269.9999999999967
  0
LINE
  5
19E5
330
18
100
AcDbEntity
  8
1
  6
Continuous
100
AcDbLine
 10
199.5340783326411
 20
139.5795167436137
 30
0.0
 11
196.2617580098072
 21
139.5795167436137
 31
0.0
  0
ARC
  5
19E7
330
18
100
AcDbEntity
  8
1
  6
Continuous
100
AcDbCircle
 10
202.1840780770399
 20
142.794726540419
 30
0.0
 40
0.5000000237487221
100
AcDbArc
 50
270.0
 51
0.0000000000004071
  0
LINE
  5
19E8
330
18
100
AcDbEntity
  8
1
  6
Continuous
100
AcDbLine
 10
202.6840781007887
 20
147.0795170641303
 30
0.0
 11
198.6840779107989
 21
147.0795173498447
 31
0.0
  0
LINE
  5
19EA
330
18
100
AcDbEntity
  8
1
  6
Continuous
100
AcDbLine
 10
196.591073162894
 20
154.6795174608253
 30
0.0
 11
203.7340785321308
 21
154.6795174608253
 31
0.0
  0
LINE
  5
19FD
330
18
100
AcDbEntity
  8
1
  6
Continuous
100
AcDbLine
 10
197.184077839603
 20
140.6295167934861
 30
0.0
 11
197.184077839603
 21
153.5277263998522
 31
0.0
  0
LINE
  5
19FE
330
18
100
AcDbEntity
  8
1
  6
Continuous
100
AcDbLine
 10
197.1840778395774
 20
146.5173625407463
 30
0.0
 11
197.0340778324281
 21
146.5173625407463
 31
0.0
  0
LINE
  5
1A00
330
18
100
AcDbEntity
  8
1
  6
Continuous
100
AcDbLine
 10
197.1840778395779
 20
147.6416716589429
 30
0.0
 11
197.0340778324281
 21
147.6416716589429
 31
0.0
  0
LINE
  5
1A01
330
18
100
AcDbEntity
  8
1
  6
Continuous
100
AcDbLine
 10
197.1840778395527
 20
148.1147933294276
 30
0.0
 11
197.0340782138976
 21
148.1147933294276
 31
0.0
  0
LINE
  5
1A03
330
18
100
AcDbEntity
  8
1
  6
Continuous
100
AcDbLine
 10
197.1840778395778
 20
148.748899995325
 30
0.0
 11
197.0340778324281
 21
148.748899995325
 31
0.0
  0
LINE
  5
1A04
330
18
100
AcDbEntity
  8
1
  6
Continuous
100
AcDbLine
 10
197.184077839578
 20
144.3536292225129
 30
0.0
 11
197.0340778324281
 21
144.3536292225129
 31
0.0
  0
LINE
  5
1A06
330
18
100
AcDbEntity
  8
1
  6
Continuous
100
AcDbLine
 10
197.1840778395774
 20
145.4101342043642
 30
0.0
 11
197.0340778324281
 21
145.4101342043642
 31
0.0
  0
LINE
  5
1A08
330
18
100
AcDbEntity
  8
1
  6
Continuous
100
AcDbLine
 10
197.1840778395527
 20
146.0442408702617
 30
0.0
 11
197.034077832428
 21
146.0442408702616
 31
0.0
  0
LINE
  5
1A0A
330
18
100
AcDbEntity
  8
1
  6
Continuous
100
AcDbLine
 10
197.0340782138976
 20
140.6540610633269
 30
0.0
 11
197.0340782138976
 21
154.3295174442012
 31
0.0
  0
LINE
  5
1A0D
330
18
100
AcDbEntity
  8
1
  6
Continuous
100
AcDbLine
 10
196.662569255702
 20
154.3295174442011
 30
0.0
 11
197.0340782138976
 21
154.3295174442012
 31
0.0
  0
LINE
  5
1A0F
330
18
100
AcDbEntity
  8
1
  6
Continuous
100
AcDbLine
 10
198.6840779107988
 20
153.2170173913602
 30
0.0
 11
198.18407788705
 21
153.8295174204524
 31
0.0
  0
LINE
  5
1A11
330
18
100
AcDbEntity
  8
1
  6
Continuous
100
AcDbLine
 10
198.1840778870502
 20
153.8295174204524
 30
0.0
 11
197.4840778538019
 21
153.8295174204524
 31
0.0
  0
LINE
  5
1A18
330
18
100
AcDbEntity
  8
1
  6
Continuous
100
AcDbLine
 10
197.1840778395782
 20
149.8054049771767
 30
0.0
 11
197.0340778324281
 21
149.8054049771767
 31
0.0
  0
LINE
  5
1A19
330
18
100
AcDbEntity
  8
1
  6
Continuous
100
AcDbLine
 10
197.1840778395782
 20
150.7790852352416
 30
0.0
 11
197.0340778324281
 21
150.7790852352416
 31
0.0
  0
LINE
  5
1A1B
330
18
100
AcDbEntity
  8
1
  6
Continuous
100
AcDbLine
 10
197.1840778395776
 20
151.640355987584
 30
0.0
 11
197.0340778324281
 21
151.640355987584
 31
0.0
  0
LINE
  5
1A1D
330
18
100
AcDbEntity
  8
1
  6
Continuous
100
AcDbLine
 10
197.1840778395776
 20
152.3630479582189
 30
0.0
 11
197.0340778324281
 21
152.3630479582189
 31
0.0
  0
LINE
  5
1A1F
330
18
100
AcDbEntity
  8
1
  6
Continuous
100
AcDbLine
 10
197.1840778395775
 20
152.9252025173166
 30
0.0
 11
197.0340778324281
 21
152.9252025173166
 31
0.0
  0
LINE
  5
1A23
330
18
100
AcDbEntity
  8
1
  6
Continuous
100
AcDbLine
 10
197.1840778395775
 20
153.3097388830643
 30
0.0
 11
197.0340778324281
 21
153.3097388830643
 31
0.0
  0
LINE
  5
1A25
330
18
100
AcDbEntity
  8
1
  6
Continuous
100
AcDbLine
 10
197.1840778395529
 20
153.5049731125736
 30
0.0
 11
197.0340778324281
 21
153.5049731125736
 31
0.0
  0
LINE
  5
1A33
330
18
100
AcDbEntity
  8
1
  6
Continuous
100
AcDbLine
 10
203.9340781601605
 20
154.6795174608253
 30
0.0
 11
205.4340782314067
 21
154.6795174608253
 31
0.0
  0
LINE
  5
1A34
330
18
100
AcDbEntity
  8
1
  6
Continuous
100
AcDbLine
 10
186.234077877702
 20
175.3795182672458
 30
0.0
 11
188.5340778101694
 21
173.0795183347784
 31
0.0
  0
LINE
  5
1A36
330
18
100
AcDbEntity
  8
1
  6
Continuous
100
AcDbLine
 10
177.5203439322481
 20
165.1787992528527
 30
0.0
 11
177.3090424404359
 21
165.0987276134532
 31
0.0
  0
LINE
  5
1A3A
330
18
100
AcDbEntity
  8
1
  6
Continuous
100
AcDbLine
 10
176.1340772092801
 20
107.6795152284451
 30
0.0
 11
176.1340772092801
 21
175.374245661072
 31
0.0
  0
LINE
  5
1A3C
330
18
100
AcDbEntity
  8
1
  6
Continuous
100
AcDbLine
 10
178.5310198080651
 20
167.0795180497937
 30
0.0
 11
176.13407720928
 21
167.0795180497937
 31
0.0
  0
ARC
  5
1A3E
330
18
100
AcDbEntity
  8
1
  6
Continuous
100
AcDbCircle
 10
183.5409093990717
 20
167.3781766775166
 30
0.0
 40
10.89434265913788
100
AcDbArc
 50
117.3843024068139
 51
122.0239701369853
  0
ARC
  5
1A3F
330
18
100
AcDbEntity
  8
1
  6
Continuous
100
AcDbCircle
 10
183.7330034410978
 20
167.0808037280055
 30
0.0
 40
11.24832694109443
100
AcDbArc
 50
122.0503211561941
 51
132.4976973216493
  0
LINE
  5
1A40
330
18
100
AcDbEntity
  8
1
  6
Continuous
100
AcDbLine
 10
187.534077762672
 20
176.6795185057692
 30
0.0
 11
186.2340777009253
 21
175.3795184440225
 31
0.0
  0
LINE
  5
1A41
330
18
100
AcDbEntity
  8
1
  6
Continuous
100
AcDbLine
 10
196.1968503140899
 20
159.3295176816884
 30
0.0
 11
196.1968503140899
 21
174.8295184178989
 31
0.0
  0
LINE
  5
1A43
330
18
100
AcDbEntity
  8
1
  6
Continuous
100
AcDbLine
 10
211.184078504517
 20
160.942017758278
 30
0.0
 11
211.184078504517
 21
173.2170183413093
 31
0.0
  0
LINE
  5
1A44
330
18
100
AcDbEntity
  8
1
  6
Continuous
100
AcDbLine
 10
210.6840784807683
 20
160.3295177291859
 30
0.0
 11
210.6840784807683
 21
173.8295183704015
 31
0.0
  0
LINE
  5
1A47
330
18
100
AcDbEntity
  8
1
  6
Continuous
100
AcDbLine
 10
205.9340782240322
 20
178.979342197194
 30
0.0
 11
205.9340782240322
 21
155.1793410667143
 31
0.0
  0
LINE
  5
1A48
330
18
100
AcDbEntity
  8
1
  6
Continuous
100
AcDbLine
 10
203.7340785321286
 20
179.4795186387621
 30
0.0
 11
203.7340785321286
 21
163.2144151993239
 31
0.0
  0
LINE
  5
1A49
330
18
100
AcDbEntity
  8
1
  6
Continuous
100
AcDbLine
 10
210.6840784807683
 20
160.3295177291859
 30
0.0
 11
211.184178504517
 21
160.9421402582781
 31
0.0
  0
ARC
  5
1A4A
330
18
100
AcDbEntity
  8
1
  6
Continuous
100
AcDbCircle
 10
209.9840784475201
 20
160.6295177434351
 30
0.0
 40
0.3000000142492368
100
AcDbArc
 50
180.0
 51
269.9999999999967
  0
LINE
  5
1A4B
330
18
100
AcDbEntity
  8
1
  6
Continuous
100
AcDbLine
 10
202.3340780841646
 20
155.6234113025178
 30
0.0
 11
202.3340780841646
 21
163.2144151993239
 31
0.0
  0
LINE
  5
1A4D
330
18
100
AcDbEntity
  8
1
  6
Continuous
100
AcDbLine
 10
203.9340781601605
 20
155.6234113025178
 30
0.0
 11
202.2340784608876
 21
155.6234113025178
 31
0.0
  0
LINE
  5
1A50
330
18
100
AcDbEntity
  8
1
  6
Continuous
100
AcDbLine
 10
202.3340780841646
 20
157.8407222858639
 30
0.0
 11
202.2340784608843
 21
157.8407222858639
 31
0.0
  0
LINE
  5
1A51
330
18
100
AcDbEntity
  8
1
  6
Continuous
100
AcDbLine
 10
209.9840784475201
 20
160.3295177291859
 30
0.0
 11
210.6840784807682
 21
160.3295177291859
 31
0.0
  0
LINE
  5
1A53
330
18
100
AcDbEntity
  8
1
  6
Continuous
100
AcDbLine
 10
209.0340795468067
 20
164.163613248931
 30
0.0
 11
205.9340782240322
 21
164.163613248931
 31
0.0
  0
LINE
  5
1A54
330
18
100
AcDbEntity
  8
1
  6
Continuous
100
AcDbLine
 10
209.0340795468067
 20
163.0795178598039
 30
0.0
 11
205.9340782240322
 21
163.0795178598039
 31
0.0
  0
LINE
  5
1A55
330
18
100
AcDbEntity
  8
1
  6
Continuous
100
AcDbLine
 10
203.9340781601605
 20
164.163613248931
 30
0.0
 11
203.7340792950702
 21
164.163613248931
 31
0.0
  0
LINE
  5
1A56
330
18
100
AcDbEntity
  8
1
  6
Continuous
100
AcDbLine
 10
203.9340781601605
 20
162.3342432630782
 30
0.0
 11
202.3340780841646
 21
162.3342432630782
 31
0.0
  0
LINE
  5
1A58
330
18
100
AcDbEntity
  8
1
  6
Continuous
100
AcDbLine
 10
203.9340781601605
 20
163.2144151993239
 30
0.0
 11
202.3340780841646
 21
163.2144151993239
 31
0.0
  0
LINE
  5
1A59
330
18
100
AcDbEntity
  8
1
  6
Continuous
100
AcDbLine
 10
209.3340795601484
 20
170.7789553920871
 30
0.0
 11
209.3340795601484
 21
163.3794993062717
 31
0.0
  0
ARC
  5
1A5A
330
18
100
AcDbEntity
  8
1
  6
Continuous
100
AcDbCircle
 10
209.0340795468067
 20
163.3795178740531
 30
0.0
 40
0.3000000142492287
100
AcDbArc
 50
270.0
 51
0.0000000000004071
  0
LINE
  5
1A62
330
18
100
AcDbEntity
  8
1
  6
Continuous
100
AcDbLine
 10
209.6840784332708
 20
160.6295177434351
 30
0.0
 11
209.6840784332708
 21
173.5295183561523
 31
0.0
  0
LINE
  5
1A63
330
18
100
AcDbEntity
  8
1
  6
Continuous
100
AcDbLine
 10
209.6840784332962
 20
164.353630172462
 30
0.0
 11
209.5340784261462
 21
164.353630172462
 31
0.0
  0
LINE
  5
1A65
330
18
100
AcDbEntity
  8
1
  6
Continuous
100
AcDbLine
 10
209.6840784332955
 20
165.4101351543132
 30
0.0
 11
209.5340784261462
 21
165.4101351543132
 31
0.0
  0
LINE
  5
1A67
330
18
100
AcDbEntity
  8
1
  6
Continuous
100
AcDbLine
 10
209.6840784332963
 20
162.5186791620545
 30
0.0
 11
209.5340784261462
 21
162.5186791620545
 31
0.0
  0
LINE
  5
1A69
330
18
100
AcDbEntity
  8
1
  6
Continuous
100
AcDbLine
 10
209.6840784332962
 20
163.3799499143968
 30
0.0
 11
209.5340784261462
 21
163.3799499143968
 31
0.0
  0
LINE
  5
1A6A
330
18
100
AcDbEntity
  8
1
  6
Continuous
100
AcDbLine
 10
209.6840784332963
 20
161.7959871914201
 30
0.0
 11
209.5340784261462
 21
161.7959871914201
 31
0.0
  0
LINE
  5
1A6B
330
18
100
AcDbEntity
  8
1
  6
Continuous
100
AcDbLine
 10
209.6840784332963
 20
161.2338326106791
 30
0.0
 11
209.5340784261462
 21
161.2338326106791
 31
0.0
  0
LINE
  5
1A6E
330
18
100
AcDbEntity
  8
1
  6
Continuous
100
AcDbLine
 10
209.334079561056
 20
164.3295179191757
 30
0.0
 11
209.5340784261462
 21
164.3295179191757
 31
0.0
  0
LINE
  5
1A70
330
18
100
AcDbEntity
  8
1
  6
Continuous
100
AcDbLine
 10
209.6840784332963
 20
160.8492962665738
 30
0.0
 11
209.5340784261462
 21
160.8492962665738
 31
0.0
  0
LINE
  5
1A71
330
18
100
AcDbEntity
  8
1
  6
Continuous
100
AcDbLine
 10
209.684078433271
 20
160.6540620132759
 30
0.0
 11
209.5340784261464
 21
160.6540620132759
 31
0.0
  0
LINE
  5
1A78
330
18
100
AcDbEntity
  8
1
  6
Continuous
100
AcDbLine
 10
203.9340781601605
 20
169.9954228506564
 30
0.0
 11
203.7340792950702
 21
169.9954228506564
 31
0.0
  0
LINE
  5
1A79
330
18
100
AcDbEntity
  8
1
  6
Continuous
100
AcDbLine
 10
203.9340781601605
 20
171.0795182397835
 30
0.0
 11
203.7340792950702
 21
171.0795182397835
 31
0.0
  0
LINE
  5
1A81
330
18
100
AcDbEntity
  8
1
  6
Continuous
100
AcDbLine
 10
209.6840784332955
 20
166.5173634906954
 30
0.0
 11
209.5340784261463
 21
166.5173634906954
 31
0.0
  0
LINE
  5
1A83
330
18
100
AcDbEntity
  8
1
  6
Continuous
100
AcDbLine
 10
209.6840784332961
 20
167.641672608892
 30
0.0
 11
209.5340784261463
 21
167.641672608892
 31
0.0
  0
LINE
  5
1A84
330
18
100
AcDbEntity
  8
1
  6
Continuous
100
AcDbLine
 10
209.5340784261464
 20
160.6540620132759
 30
0.0
 11
209.5340784261463
 21
166.0442418202107
 31
0.0
  0
LINE
  5
1A85
330
18
100
AcDbEntity
  8
1
  6
Continuous
100
AcDbLine
 10
209.6840784332963
 20
169.8054059271258
 30
0.0
 11
209.5340784261462
 21
169.8054059271258
 31
0.0
  0
LINE
  5
1A86
330
18
100
AcDbEntity
  8
1
  6
Continuous
100
AcDbLine
 10
209.6840784332708
 20
168.1147942793766
 30
0.0
 11
209.5340784261463
 21
168.1147942793766
 31
0.0
  0
LINE
  5
1A88
330
18
100
AcDbEntity
  8
1
  6
Continuous
100
AcDbLine
 10
209.6840784332961
 20
168.7489009452741
 30
0.0
 11
209.5340784261462
 21
168.7489009452741
 31
0.0
  0
LINE
  5
1A89
330
18
100
AcDbEntity
  8
1
  6
Continuous
100
AcDbLine
 10
209.6840784332708
 20
166.0442418202107
 30
0.0
 11
209.5340784261461
 21
166.0442418202107
 31
0.0
  0
LINE
  5
1A8A
330
18
100
AcDbEntity
  8
1
  6
Continuous
100
AcDbLine
 10
209.6840784332963
 20
170.7790861851907
 30
0.0
 11
209.5340784261462
 21
170.7790861851907
 31
0.0
  0
LINE
  5
1A8C
330
18
100
AcDbEntity
  8
1
  6
Continuous
100
AcDbLine
 10
209.5340784261462
 20
169.8295181804116
 30
0.0
 11
209.334079561056
 21
169.8295181804116
 31
0.0
  0
LINE
  5
1A8D
330
18
100
AcDbEntity
  8
1
  6
Continuous
100
AcDbLine
 10
203.9340781601605
 20
176.4107017713653
 30
0.0
 11
203.7340785321307
 21
176.4107017713653
 31
0.0
  0
LINE
  5
1A8E
330
18
100
AcDbEntity
  8
1
  6
Continuous
100
AcDbLine
 10
203.7340785321297
 20
176.3183138137253
 30
0.0
 11
202.2340784608843
 21
176.3183138137253
 31
0.0
  0
LINE
  5
1A8F
330
18
100
AcDbEntity
  8
1
  6
Continuous
100
AcDbLine
 10
211.184078504517
 20
173.2170183413093
 30
0.0
 11
210.6840784807683
 21
173.8295183704015
 31
0.0
  0
LINE
  5
1A90
330
18
100
AcDbEntity
  8
1
  6
Continuous
100
AcDbLine
 10
210.6840784807683
 20
173.8295183704015
 30
0.0
 11
210.6839968481151
 21
173.8296183704015
 31
0.0
  0
LINE
  5
1A91
330
18
100
AcDbEntity
  8
1
  6
Continuous
100
AcDbLine
 10
210.6840784807683
 20
173.8295183704015
 30
0.0
 11
209.9840784475201
 21
173.8295183704015
 31
0.0
  0
LINE
  5
1A96
330
18
100
AcDbEntity
  8
1
  6
Continuous
100
AcDbLine
 10
209.6840784332957
 20
171.640356937533
 30
0.0
 11
209.5340784261462
 21
171.640356937533
 31
0.0
  0
LINE
  5
1A97
330
18
100
AcDbEntity
  8
1
  6
Continuous
100
AcDbLine
 10
209.6840784332957
 20
172.3630489081679
 30
0.0
 11
209.5340784261462
 21
172.3630489081679
 31
0.0
  0
LINE
  5
1A99
330
18
100
AcDbEntity
  8
1
  6
Continuous
100
AcDbLine
 10
209.6840784332956
 20
172.9252034672656
 30
0.0
 11
209.5340784261462
 21
172.9252034672656
 31
0.0
  0
LINE
  5
1A9C
330
18
100
AcDbEntity
  8
1
  6
Continuous
100
AcDbLine
 10
209.6840784332711
 20
173.5049740625227
 30
0.0
 11
209.5340784261461
 21
173.5049740625227
 31
0.0
  0
LINE
  5
1A9E
330
18
100
AcDbEntity
  8
1
  6
Continuous
100
AcDbLine
 10
209.6840784332956
 20
173.3097398330133
 30
0.0
 11
209.5340784261462
 21
173.3097398330133
 31
0.0
  0
ARC
  5
1A9F
330
18
100
AcDbEntity
  8
1
  6
Continuous
100
AcDbCircle
 10
209.9840784475201
 20
173.5295183561523
 30
0.0
 40
0.3000000142492368
100
AcDbArc
 50
90.00000000000325
 51
180.0
  0
LINE
  5
1AA6
330
18
100
AcDbEntity
  8
1
  6
Continuous
100
AcDbLine
 10
270.260450456276
 20
147.0795170998438
 30
0.0
 11
273.0229505874878
 21
142.2947265166694
 31
0.0
  0
ARC
  5
1AAA
330
18
100
AcDbEntity
  8
1
  6
Continuous
100
AcDbCircle
 10
268.3854503672182
 20
134.5795165061256
 30
0.0
 40
5.000000237487244
100
AcDbArc
 50
90.00000003767242
 51
180.0
  0
LINE
  5
1AAC
330
18
100
AcDbEntity
  8
1
  6
Continuous
100
AcDbLine
 10
263.0354501131006
 20
138.0795166723667
 30
0.0
 11
263.2969821508231
 21
138.0795166723667
 31
0.0
  0
LINE
  5
1AAD
330
18
100
AcDbEntity
  8
1
  6
Continuous
100
AcDbLine
 10
263.385450129731
 20
117.5986680385477
 30
0.0
 11
263.385450129731
 21
138.7401502782551
 31
0.0
  0
LINE
  5
1AAF
330
18
100
AcDbEntity
  8
1
  6
Continuous
100
AcDbLine
 10
265.5354502318515
 20
140.5795167911103
 30
0.0
 11
268.6048456301
 21
140.5795167911103
 31
0.0
  0
LINE
  5
1AB1
330
18
100
AcDbEntity
  8
1
  6
Continuous
100
AcDbLine
 10
269.1781631315574
 20
140.7612280125746
 30
0.0
 11
269.0397939918749
 21
140.7612282602438
 31
0.0
  0
ARC
  5
1AB3
330
18
100
AcDbEntity
  8
1
  6
Continuous
100
AcDbCircle
 10
275.7892978885706
 20
131.0729653927263
 30
0.0
 40
11.80754261102097
100
AcDbArc
 50
112.1120206989517
 51
124.8856236513645
  0
ARC
  5
1AB4
330
18
100
AcDbEntity
  8
1
  6
Continuous
100
AcDbCircle
 10
268.4663170481325
 20
141.575307036085
 30
0.0
 40
0.995790257298654
100
AcDbArc
 50
270.0090220647926
 51
304.9027454746514
  0
ARC
  5
1AB5
330
18
100
AcDbEntity
  8
1
  6
Continuous
100
AcDbCircle
 10
275.8415463012775
 20
131.3973089853966
 30
0.0
 40
11.49275807632671
100
AcDbArc
 50
112.8751580072922
 51
125.4135132761897
  0
ARC
  5
1AB6
330
18
100
AcDbEntity
  8
1
  6
Continuous
100
AcDbCircle
 10
268.6046819190545
 20
141.5753315417461
 30
0.0
 40
0.9958147640664892
100
AcDbArc
 50
270.0094193743131
 51
305.4185201169622
  0
LINE
  5
1ABB
330
18
100
AcDbEntity
  8
1
  6
Continuous
100
AcDbLine
 10
273.022950587487
 20
151.8643076830181
 30
0.0
 11
270.2604504562754
 21
147.0795170998441
 31
0.0
  0
LINE
  5
1AC9
330
18
100
AcDbEntity
  8
1
  6
Continuous
100
AcDbLine
 10
273.5354506118301
 20
146.8795170903443
 30
0.0
 11
273.5354506118301
 21
147.2795171093679
 31
0.0
  0
ARC
  5
1ACE
330
18
100
AcDbEntity
  8
1
  6
Continuous
100
AcDbCircle
 10
273.8354506260793
 20
146.8795170903443
 30
0.0
 40
0.3000000142492404
100
AcDbArc
 50
180.0000000000007
 51
270.0
  0
ARC
  5
1ACF
330
18
100
AcDbEntity
  8
1
  6
Continuous
100
AcDbCircle
 10
273.8354506260793
 20
147.2795171093431
 30
0.0
 40
0.3000000142492358
100
AcDbArc
 50
90.0
 51
179.9999999952897
  0
LINE
  5
1AD5
330
18
100
AcDbEntity
  8
1
  6
Continuous
100
AcDbLine
 10
215.1840786945068
 20
171.3643085377895
 30
0.0
 11
215.1840786945068
 21
162.794727490368
 31
0.0
  0
ARC
  5
1AD7
330
18
100
AcDbEntity
  8
1
  6
Continuous
100
AcDbCircle
 10
214.6840786707581
 20
162.794727490368
 30
0.0
 40
0.5000000237487267
100
AcDbArc
 50
270.0
 51
359.9999999999996
  0
LINE
  5
1AE2
330
18
100
AcDbEntity
  8
1
  6
Continuous
100
AcDbLine
 10
263.0354501131071
 20
159.3295176816875
 30
0.0
 11
263.0354501131071
 21
174.829518417898
 31
0.0
  0
LINE
  5
1AE4
330
18
100
AcDbEntity
  8
1
  6
Continuous
100
AcDbLine
 10
273.0229505874871
 20
171.8643086329671
 30
0.0
 11
270.2604504562754
 21
167.0795180497931
 31
0.0
  0
LINE
  5
1AE5
330
18
100
AcDbEntity
  8
1
  6
Continuous
100
AcDbLine
 10
273.5354506118301
 20
166.8795180402933
 30
0.0
 11
273.5354506118301
 21
167.2795180593169
 31
0.0
  0
LINE
  5
1AEE
330
18
100
AcDbEntity
  8
1
  6
Continuous
100
AcDbLine
 10
270.260450456276
 20
167.0795180497928
 30
0.0
 11
273.0229505874878
 21
162.2947274666185
 31
0.0
  0
ARC
  5
1AF0
330
18
100
AcDbEntity
  8
1
  6
Continuous
100
AcDbCircle
 10
273.8354506260793
 20
166.8795180402933
 30
0.0
 40
0.3000000142492404
100
AcDbArc
 50
180.0000000000004
 51
269.9999999972088
  0
ARC
  5
1AF9
330
18
100
AcDbEntity
  8
1
  6
Continuous
100
AcDbCircle
 10
273.8354506260793
 20
167.2795180592923
 30
0.0
 40
0.3000000142492358
100
AcDbArc
 50
90.0
 51
179.9999999952897
  0
LINE
  5
1AFE
330
18
100
AcDbEntity
  8
1
  6
Continuous
100
AcDbLine
 10
288.1854513076678
 20
127.5795161736435
 30
0.0
 11
288.1854513076678
 21
134.5795165094109
 31
0.0
  0
ARC
  5
1AFF
330
18
100
AcDbEntity
  8
1
  6
Continuous
100
AcDbCircle
 10
291.7854514786586
 20
109.0795152949406
 30
0.0
 40
2.000000094994858
100
AcDbArc
 50
284.4775121859298
 51
0.0000000000008142
  0
LINE
  5
1B00
330
18
100
AcDbEntity
  8
1
  6
Continuous
100
AcDbLine
 10
259.2854499349913
 20
107.0795151999464
 30
0.0
 11
292.2854515024073
 21
107.0795151999459
 31
0.0
  0
LINE
  5
1B09
330
18
100
AcDbEntity
  8
1
  6
Continuous
100
AcDbLine
 10
278.5479508499115
 20
142.2947265166692
 30
0.0
 11
281.3104509811233
 21
147.0795170998434
 31
0.0
  0
LINE
  5
1B0A
330
18
100
AcDbEntity
  8
1
  6
Continuous
100
AcDbLine
 10
275.0354506830763
 20
146.0795170523463
 30
0.0
 11
275.0354506830763
 21
142.5947265309186
 31
0.0
  0
LINE
  5
1B0B
330
18
100
AcDbEntity
  8
1
  6
Continuous
100
AcDbLine
 10
276.5354507543225
 20
142.5947265309186
 30
0.0
 11
276.5354507543225
 21
146.0795170520311
 31
0.0
  0
ARC
  5
1B0C
330
18
100
AcDbEntity
  8
1
  6
Continuous
100
AcDbCircle
 10
275.5854507091999
 20
145.1295170072237
 30
0.0
 40
0.3000000142492396
100
AcDbArc
 50
180.0
 51
270.0
  0
ARC
  5
1B0D
330
18
100
AcDbEntity
  8
1
  6
Continuous
100
AcDbCircle
 10
275.9854507281989
 20
145.1295170072237
 30
0.0
 40
0.3000000142492363
100
AcDbArc
 50
270.0
 51
0.0
  0
ARC
  5
1B14
330
18
100
AcDbEntity
  8
1
  6
Continuous
100
AcDbCircle
 10
283.1854510701806
 20
134.5795165061256
 30
0.0
 40
5.000000237487243
100
AcDbArc
 50
0.0000000376467754
 51
90.0
  0
LINE
  5
1B17
330
18
100
AcDbEntity
  8
1
  6
Continuous
100
AcDbLine
 10
273.0229505874878
 20
142.2947265166694
 30
0.0
 11
278.5479508499111
 21
142.2947265166694
 31
0.0
  0
LINE
  5
1B18
330
18
100
AcDbEntity
  8
1
  6
Continuous
100
AcDbLine
 10
279.0692316659794
 20
144.795488444107
 30
0.0
 11
279.0695439942725
 21
144.7952711776098
 31
0.0
  0
LINE
  5
1B19
330
18
100
AcDbEntity
  8
1
  6
Continuous
100
AcDbLine
 10
279.0695439942725
 20
144.7952711776098
 30
0.0
 11
279.0717840439485
 21
144.7937130656945
 31
0.0
  0
LINE
  5
1B21
330
18
100
AcDbEntity
  8
1
  6
Continuous
100
AcDbLine
 10
275.5854507091999
 20
144.8295169929745
 30
0.0
 11
275.9854507281989
 21
144.8295169929745
 31
0.0
  0
ARC
  5
1B22
330
18
100
AcDbEntity
  8
1
  6
Continuous
100
AcDbCircle
 10
275.7854507186994
 20
147.0795170998437
 30
0.0
 40
4.000000189989809
100
AcDbArc
 50
284.1337367207047
 51
75.86626327929689
  0
ARC
  5
1B25
330
18
100
AcDbEntity
  8
1
  6
Continuous
100
AcDbCircle
 10
274.735450668827
 20
142.9096847708734
 30
0.0
 40
0.3000000142492345
100
AcDbArc
 50
0.0
 51
75.86626327932204
  0
ARC
  5
1B27
330
18
100
AcDbEntity
  8
1
  6
Continuous
100
AcDbCircle
 10
276.8354507685717
 20
142.9096847708734
 30
0.0
 40
0.3000000142492326
100
AcDbArc
 50
104.1337367206779
 51
180.0
  0
ARC
  5
1B28
330
18
100
AcDbEntity
  8
1
  6
Continuous
100
AcDbCircle
 10
276.8354507685717
 20
142.5947265309186
 30
0.0
 40
0.3000000142492331
100
AcDbArc
 50
180.0
 51
270.0
  0
ARC
  5
1B29
330
18
100
AcDbEntity
  8
1
  6
Continuous
100
AcDbCircle
 10
274.735450668827
 20
142.5947265309186
 30
0.0
 40
0.3000000142492247
100
AcDbArc
 50
269.9999999999902
 51
0.0
  0
LINE
  5
1B32
330
18
100
AcDbEntity
  8
1
  6
Continuous
100
AcDbLine
 10
276.5354507543225
 20
148.0795171473412
 30
0.0
 11
276.5354507543225
 21
151.5643076687689
 31
0.0
  0
LINE
  5
1B33
330
18
100
AcDbEntity
  8
1
  6
Continuous
100
AcDbLine
 10
275.0354506830763
 20
151.5643076687689
 30
0.0
 11
275.0354506830763
 21
148.0795171481075
 31
0.0
  0
LINE
  5
1B3E
330
18
100
AcDbEntity
  8
1
  6
Continuous
100
AcDbLine
 10
278.0354508255686
 20
147.2795171093431
 30
0.0
 11
278.0354508255686
 21
146.8795170903337
 31
0.0
  0
LINE
  5
1B41
330
18
100
AcDbEntity
  8
1
  6
Continuous
100
AcDbLine
 10
275.2854506949506
 20
146.2795170618458
 30
0.0
 11
275.2854506949506
 21
145.1295170072237
 31
0.0
  0
LINE
  5
1B42
330
18
100
AcDbEntity
  8
1
  6
Continuous
100
AcDbLine
 10
276.2854507424481
 20
145.1295170072237
 30
0.0
 11
276.2854507424481
 21
146.2795170618458
 31
0.0
  0
LINE
  5
1B43
330
18
100
AcDbEntity
  8
1
  6
Continuous
100
AcDbLine
 10
273.8354506260793
 20
146.579517076095
 30
0.0
 11
274.9854506807015
 21
146.579517076095
 31
0.0
  0
LINE
  5
1B44
330
18
100
AcDbEntity
  8
1
  6
Continuous
100
AcDbLine
 10
276.5854507566973
 20
146.579517076095
 30
0.0
 11
277.7354508113194
 21
146.579517076095
 31
0.0
  0
LINE
  5
1B45
330
18
100
AcDbEntity
  8
1
  6
Continuous
100
AcDbLine
 10
276.2854507424481
 20
147.8795171378417
 30
0.0
 11
276.2854507424481
 21
149.0295171924638
 31
0.0
  0
LINE
  5
1B46
330
18
100
AcDbEntity
  8
1
  6
Continuous
100
AcDbLine
 10
275.9854507281989
 20
149.329517206713
 30
0.0
 11
275.5854507091999
 21
149.329517206713
 31
0.0
  0
LINE
  5
1B47
330
18
100
AcDbEntity
  8
1
  6
Continuous
100
AcDbLine
 10
275.2854506949506
 20
149.0295171924638
 30
0.0
 11
275.2854506949506
 21
147.8795171378417
 31
0.0
  0
LINE
  5
1B48
330
18
100
AcDbEntity
  8
1
  6
Continuous
100
AcDbLine
 10
277.7354508113194
 20
147.5795171235925
 30
0.0
 11
276.5854507566973
 21
147.5795171235925
 31
0.0
  0
LINE
  5
1B49
330
18
100
AcDbEntity
  8
1
  6
Continuous
100
AcDbLine
 10
274.9854506807015
 20
147.5795171235925
 30
0.0
 11
273.8354506260793
 21
147.5795171235925
 31
0.0
  0
ARC
  5
1B52
330
18
100
AcDbEntity
  8
1
  6
Continuous
100
AcDbCircle
 10
277.7354508113194
 20
147.2795171093431
 30
0.0
 40
0.3000000142492342
100
AcDbArc
 50
0.0
 51
90.0
  0
ARC
  5
1B53
330
18
100
AcDbEntity
  8
1
  6
Continuous
100
AcDbCircle
 10
277.7354508113194
 20
146.8795170903443
 30
0.0
 40
0.3000000142492357
100
AcDbArc
 50
270.0
 51
359.9999999979766
  0
ARC
  5
1B54
330
18
100
AcDbEntity
  8
1
  6
Continuous
100
AcDbCircle
 10
274.5354506593276
 20
148.0795171473413
 30
0.0
 40
0.5000000237487306
100
AcDbArc
 50
269.9999999620636
 51
0.0000000878077359
  0
ARC
  5
1B55
330
18
100
AcDbEntity
  8
1
  6
Continuous
100
AcDbCircle
 10
277.0354507780711
 20
146.0795170523462
 30
0.0
 40
0.5000000237487303
100
AcDbArc
 50
89.99999999999348
 51
180.0000000361208
  0
ARC
  5
1B56
330
18
100
AcDbEntity
  8
1
  6
Continuous
100
AcDbCircle
 10
274.5354506593276
 20
146.0795170523467
 30
0.0
 40
0.5000000237485136
100
AcDbArc
 50
359.9999999999548
 51
90.0
  0
ARC
  5
1B57
330
18
100
AcDbEntity
  8
1
  6
Continuous
100
AcDbCircle
 10
277.0354507780711
 20
148.0795171473408
 30
0.0
 40
0.5000000237485136
100
AcDbArc
 50
179.9999999999548
 51
270.0
  0
ARC
  5
1B58
330
18
100
AcDbEntity
  8
1
  6
Continuous
100
AcDbCircle
 10
274.9854506807015
 20
146.2795170618458
 30
0.0
 40
0.3000000142492361
100
AcDbArc
 50
0.0
 51
90.0
  0
ARC
  5
1B59
330
18
100
AcDbEntity
  8
1
  6
Continuous
100
AcDbCircle
 10
276.5854507566973
 20
146.2795170618458
 30
0.0
 40
0.3000000142492361
100
AcDbArc
 50
90.0
 51
180.0
  0
ARC
  5
1B5A
330
18
100
AcDbEntity
  8
1
  6
Continuous
100
AcDbCircle
 10
276.5854507566973
 20
147.8795171378417
 30
0.0
 40
0.3000000142492361
100
AcDbArc
 50
180.0
 51
270.0
  0
ARC
  5
1B5B
330
18
100
AcDbEntity
  8
1
  6
Continuous
100
AcDbCircle
 10
275.9854507281989
 20
149.0295171924638
 30
0.0
 40
0.3000000142492396
100
AcDbArc
 50
0.0
 51
90.0
  0
ARC
  5
1B5C
330
18
100
AcDbEntity
  8
1
  6
Continuous
100
AcDbCircle
 10
275.5854507091999
 20
149.0295171924638
 30
0.0
 40
0.3000000142492363
100
AcDbArc
 50
90.0
 51
179.9999999999991
  0
ARC
  5
1B5D
330
18
100
AcDbEntity
  8
1
  6
Continuous
100
AcDbCircle
 10
274.9854506807015
 20
147.8795171378417
 30
0.0
 40
0.3000000142492361
100
AcDbArc
 50
270.0
 51
0.0
  0
LINE
  5
1B61
330
18
100
AcDbEntity
  8
1
  6
Continuous
100
AcDbLine
 10
278.5479508499111
 20
151.8643076830181
 30
0.0
 11
273.022950587487
 21
151.8643076830181
 31
0.0
  0
ARC
  5
1B6B
330
18
100
AcDbEntity
  8
1
  6
Continuous
100
AcDbCircle
 10
276.8354507685717
 20
151.2493494288142
 30
0.0
 40
0.3000000142492345
100
AcDbArc
 50
180.0
 51
255.8662632792877
  0
ARC
  5
1B6D
330
18
100
AcDbEntity
  8
1
  6
Continuous
100
AcDbCircle
 10
274.735450668827
 20
151.2493494288142
 30
0.0
 40
0.3000000142492326
100
AcDbArc
 50
284.1337367207122
 51
0.0
  0
ARC
  5
1B6F
330
18
100
AcDbEntity
  8
1
  6
Continuous
100
AcDbCircle
 10
274.735450668827
 20
151.5643076687689
 30
0.0
 40
0.3000000142492338
100
AcDbArc
 50
0.0
 51
90.0
  0
ARC
  5
1B70
330
18
100
AcDbEntity
  8
1
  6
Continuous
100
AcDbCircle
 10
276.8354507685717
 20
151.5643076687689
 30
0.0
 40
0.3000000142492354
100
AcDbArc
 50
90.00000000000325
 51
180.0
  0
LINE
  5
1B72
330
18
100
AcDbEntity
  8
1
  6
Continuous
100
AcDbLine
 10
288.5354513242962
 20
159.3295176816875
 30
0.0
 11
288.5354513242962
 21
174.829518417898
 31
0.0
  0
LINE
  5
1B74
330
18
100
AcDbEntity
  8
1
  6
Continuous
100
AcDbLine
 10
281.3104509811228
 20
167.0795180497928
 30
0.0
 11
278.5479508499109
 21
171.8643086329671
 31
0.0
  0
LINE
  5
1B75
330
18
100
AcDbEntity
  8
1
  6
Continuous
100
AcDbLine
 10
278.0354508255686
 20
167.2795180592923
 30
0.0
 11
278.0354508255686
 21
166.8795180402826
 31
0.0
  0
LINE
  5
1B7D
330
18
100
AcDbEntity
  8
1
  6
Continuous
100
AcDbLine
 10
278.5479508499115
 20
162.2947274666182
 30
0.0
 11
281.3104509811233
 21
167.0795180497925
 31
0.0
  0
LINE
  5
1B7E
330
18
100
AcDbEntity
  8
1
  6
Continuous
100
AcDbLine
 10
273.0229505874878
 20
162.2947274666185
 30
0.0
 11
278.5479508499111
 21
162.2947274666185
 31
0.0
  0
LINE
  5
1B87
330
18
100
AcDbEntity
  8
1
  6
Continuous
100
AcDbLine
 10
275.0354506830763
 20
166.0795180022954
 30
0.0
 11
275.0354506830763
 21
162.5947274808677
 31
0.0
  0
LINE
  5
1B8A
330
18
100
AcDbEntity
  8
1
  6
Continuous
100
AcDbLine
 10
276.5354507543225
 20
162.5947274808677
 30
0.0
 11
276.5354507543225
 21
166.0795180019801
 31
0.0
  0
LINE
  5
1B8B
330
18
100
AcDbEntity
  8
1
  6
Continuous
100
AcDbLine
 10
277.7354508113194
 20
166.5795180260441
 30
0.0
 11
276.5854507566973
 21
166.5795180260441
 31
0.0
  0
LINE
  5
1B8D
330
18
100
AcDbEntity
  8
1
  6
Continuous
100
AcDbLine
 10
275.2854506949506
 20
166.2795180117949
 30
0.0
 11
275.2854506949506
 21
165.1295179571728
 31
0.0
  0
LINE
  5
1B8E
330
18
100
AcDbEntity
  8
1
  6
Continuous
100
AcDbLine
 10
275.5854507091999
 20
164.8295179429235
 30
0.0
 11
275.9854507281989
 21
164.8295179429235
 31
0.0
  0
LINE
  5
1B8F
330
18
100
AcDbEntity
  8
1
  6
Continuous
100
AcDbLine
 10
276.2854507424481
 20
165.1295179571728
 30
0.0
 11
276.2854507424481
 21
166.2795180117949
 31
0.0
  0
ARC
  5
1B92
330
18
100
AcDbEntity
  8
1
  6
Continuous
100
AcDbCircle
 10
275.7854507186994
 20
167.0795180497928
 30
0.0
 40
4.000000189989809
100
AcDbArc
 50
284.1337367207047
 51
75.86626327929689
  0
ARC
  5
1B95
330
18
100
AcDbEntity
  8
1
  6
Continuous
100
AcDbCircle
 10
274.735450668827
 20
162.9096857208224
 30
0.0
 40
0.3000000142492345
100
AcDbArc
 50
0.0
 51
75.86626327931887
  0
ARC
  5
1B97
330
18
100
AcDbEntity
  8
1
  6
Continuous
100
AcDbCircle
 10
276.8354507685717
 20
162.9096857208224
 30
0.0
 40
0.3000000142492326
100
AcDbArc
 50
104.1337367206779
 51
180.0
  0
ARC
  5
1B98
330
18
100
AcDbEntity
  8
1
  6
Continuous
100
AcDbCircle
 10
276.8354507685717
 20
162.5947274808677
 30
0.0
 40
0.3000000142492331
100
AcDbArc
 50
180.0
 51
270.0
  0
ARC
  5
1B99
330
18
100
AcDbEntity
  8
1
  6
Continuous
100
AcDbCircle
 10
274.735450668827
 20
162.5947274808677
 30
0.0
 40
0.3000000142492345
100
AcDbArc
 50
269.9999999999934
 51
0.0
  0
ARC
  5
1B9D
330
18
100
AcDbEntity
  8
1
  6
Continuous
100
AcDbCircle
 10
277.7354508113194
 20
166.8795180402933
 30
0.0
 40
0.3000000142492357
100
AcDbArc
 50
270.0
 51
359.9999999979762
  0
ARC
  5
1B9E
330
18
100
AcDbEntity
  8
1
  6
Continuous
100
AcDbCircle
 10
277.0354507780711
 20
166.0795180022953
 30
0.0
 40
0.5000000237487303
100
AcDbArc
 50
89.99999999999348
 51
180.0000000361213
  0
ARC
  5
1B9F
330
18
100
AcDbEntity
  8
1
  6
Continuous
100
AcDbCircle
 10
274.5354506593276
 20
166.0795180022958
 30
0.0
 40
0.5000000237485136
100
AcDbArc
 50
359.9999999999548
 51
90.0
  0
ARC
  5
1BA0
330
18
100
AcDbEntity
  8
1
  6
Continuous
100
AcDbCircle
 10
274.9854506807015
 20
166.2795180117949
 30
0.0
 40
0.3000000142492361
100
AcDbArc
 50
0.0
 51
90.0
  0
ARC
  5
1BA1
330
18
100
AcDbEntity
  8
1
  6
Continuous
100
AcDbCircle
 10
275.5854507091999
 20
165.1295179571728
 30
0.0
 40
0.3000000142492396
100
AcDbArc
 50
180.0000000000004
 51
270.0
  0
ARC
  5
1BA2
330
18
100
AcDbEntity
  8
1
  6
Continuous
100
AcDbCircle
 10
275.9854507281989
 20
165.1295179571728
 30
0.0
 40
0.3000000142492363
100
AcDbArc
 50
270.0
 51
359.9999999999996
  0
ARC
  5
1BA3
330
18
100
AcDbEntity
  8
1
  6
Continuous
100
AcDbCircle
 10
276.5854507566973
 20
166.2795180117949
 30
0.0
 40
0.3000000142492361
100
AcDbArc
 50
90.0
 51
180.0
  0
LINE
  5
1BAC
330
18
100
AcDbEntity
  8
1
  6
Continuous
100
AcDbLine
 10
278.5479508499111
 20
171.8643086329671
 30
0.0
 11
273.0229505874871
 21
171.8643086329671
 31
0.0
  0
LINE
  5
1BB3
330
18
100
AcDbEntity
  8
1
  6
Continuous
100
AcDbLine
 10
276.5354507543225
 20
168.0795180972903
 30
0.0
 11
276.5354507543225
 21
171.5643086187179
 31
0.0
  0
LINE
  5
1BB6
330
18
100
AcDbEntity
  8
1
  6
Continuous
100
AcDbLine
 10
275.0354506830763
 20
171.5643086187179
 30
0.0
 11
275.0354506830763
 21
168.0795180980566
 31
0.0
  0
LINE
  5
1BB7
330
18
100
AcDbEntity
  8
1
  6
Continuous
100
AcDbLine
 10
276.5854507566973
 20
167.5795180735415
 30
0.0
 11
277.73545081133
 21
167.5795180735415
 31
0.0
  0
LINE
  5
1BB9
330
18
100
AcDbEntity
  8
1
  6
Continuous
100
AcDbLine
 10
276.2854507424481
 20
167.8795180877908
 30
0.0
 11
276.2854507424481
 21
169.0295181424128
 31
0.0
  0
LINE
  5
1BBA
330
18
100
AcDbEntity
  8
1
  6
Continuous
100
AcDbLine
 10
275.9854507281989
 20
169.3295181566621
 30
0.0
 11
275.5854507091999
 21
169.3295181566621
 31
0.0
  0
LINE
  5
1BBB
330
18
100
AcDbEntity
  8
1
  6
Continuous
100
AcDbLine
 10
275.2854506949506
 20
169.0295181424128
 30
0.0
 11
275.2854506949506
 21
167.8795180877908
 31
0.0
  0
ARC
  5
1BC1
330
18
100
AcDbEntity
  8
1
  6
Continuous
100
AcDbCircle
 10
276.8354507685717
 20
171.2493503787632
 30
0.0
 40
0.3000000142492345
100
AcDbArc
 50
180.0
 51
255.8662632792877
  0
ARC
  5
1BC3
330
18
100
AcDbEntity
  8
1
  6
Continuous
100
AcDbCircle
 10
274.735450668827
 20
171.2493503787632
 30
0.0
 40
0.3000000142492326
100
AcDbArc
 50
284.1337367207122
 51
0.0
  0
ARC
  5
1BC5
330
18
100
AcDbEntity
  8
1
  6
Continuous
100
AcDbCircle
 10
274.735450668827
 20
171.5643086187179
 30
0.0
 40
0.3000000142492338
100
AcDbArc
 50
0.0
 51
90.0
  0
ARC
  5
1BC6
330
18
100
AcDbEntity
  8
1
  6
Continuous
100
AcDbCircle
 10
276.8354507685717
 20
171.5643086187179
 30
0.0
 40
0.3000000142492336
100
AcDbArc
 50
90.00000000000325
 51
180.0
  0
ARC
  5
1BCA
330
18
100
AcDbEntity
  8
1
  6
Continuous
100
AcDbCircle
 10
277.7354508113194
 20
167.2795180592923
 30
0.0
 40
0.3000000142492342
100
AcDbArc
 50
359.9999999999996
 51
89.99999999797422
  0
ARC
  5
1BCB
330
18
100
AcDbEntity
  8
1
  6
Continuous
100
AcDbCircle
 10
274.5354506593276
 20
168.0795180972903
 30
0.0
 40
0.5000000237487306
100
AcDbArc
 50
269.9999999620636
 51
0.0000000878077359
  0
ARC
  5
1BCC
330
18
100
AcDbEntity
  8
1
  6
Continuous
100
AcDbCircle
 10
277.0354507780711
 20
168.0795180972899
 30
0.0
 40
0.5000000237485136
100
AcDbArc
 50
179.9999999999548
 51
270.0
  0
ARC
  5
1BCD
330
18
100
AcDbEntity
  8
1
  6
Continuous
100
AcDbCircle
 10
276.5854507566973
 20
167.8795180877908
 30
0.0
 40
0.3000000142492361
100
AcDbArc
 50
180.0
 51
270.0
  0
ARC
  5
1BCE
330
18
100
AcDbEntity
  8
1
  6
Continuous
100
AcDbCircle
 10
275.9854507281989
 20
169.0295181424128
 30
0.0
 40
0.3000000142492396
100
AcDbArc
 50
0.0000000000004071
 51
90.0
  0
ARC
  5
1BCF
330
18
100
AcDbEntity
  8
1
  6
Continuous
100
AcDbCircle
 10
275.5854507091999
 20
169.0295181424128
 30
0.0
 40
0.3000000142492363
100
AcDbArc
 50
90.0
 51
179.9999999999996
  0
ARC
  5
1BD0
330
18
100
AcDbEntity
  8
1
  6
Continuous
100
AcDbCircle
 10
274.9854506807015
 20
167.8795180877908
 30
0.0
 40
0.3000000142492361
100
AcDbArc
 50
270.0
 51
0.0
  0
LINE
  5
1BED
330
18
100
AcDbEntity
  8
1
  6
Continuous
100
AcDbLine
 10
104.6716351201864
 20
231.9119803447635
 30
0.0
 11
109.3787421249516
 21
227.2048733399985
 31
0.0
  0
LINE
  5
1BEE
330
18
100
AcDbEntity
  8
1
  6
Continuous
100
AcDbLine
 10
140.085850364646
 20
231.9119803447623
 30
0.0
 11
135.3787433598822
 21
227.2048733399985
 31
0.0
  0
ARC
  5
1BF0
330
18
100
AcDbEntity
  8
1
  6
Continuous
100
AcDbCircle
 10
122.3787427424157
 20
232.4048735750638
 30
0.0
 40
11.25000053434688
100
AcDbArc
 50
207.5428483775025
 51
222.4973071543802
  0
ARC
  5
1BF1
330
18
100
AcDbEntity
  8
1
  6
Continuous
100
AcDbCircle
 10
122.3787427424154
 20
232.4048735750642
 30
0.0
 40
11.30505101039828
100
AcDbArc
 50
207.4027157163296
 51
222.2421903250935
  0
LINE
  5
1BF3
330
18
100
AcDbEntity
  8
1
  6
Continuous
100
AcDbLine
 10
105.8787419587073
 20
187.0795189997427
 30
0.0
 11
138.8787435261233
 21
187.0795189997427
 31
0.0
  0
LINE
  5
1BFE
330
18
100
AcDbEntity
  8
1
  6
Continuous
100
AcDbLine
 10
105.8787419587073
 20
187.0795189997427
 30
0.0
 11
105.8787419587073
 21
187.0153353526728
 31
0.0
  0
ARC
  5
1C01
330
18
100
AcDbEntity
  8
1
  6
Continuous
100
AcDbCircle
 10
106.3787419824561
 20
185.0795189047478
 30
0.0
 40
2.000000094994905
100
AcDbArc
 50
90.0
 51
180.0
  0
LINE
  5
1C03
330
18
100
AcDbEntity
  8
1
  6
Continuous
100
AcDbLine
 10
111.128742208069
 20
225.9798384452395
 30
0.0
 11
111.128742208069
 21
226.1911399370517
 31
0.0
  0
LINE
  5
1C04
330
18
100
AcDbEntity
  8
1
  6
Continuous
100
AcDbLine
 10
112.8287422888146
 20
224.8048732140837
 30
0.0
 11
111.4751712674824
 21
225.4360537471877
 31
0.0
  0
LINE
  5
1C05
330
18
100
AcDbEntity
  8
1
  6
Continuous
100
AcDbLine
 10
111.3082767344236
 20
227.2093308323604
 30
0.0
 11
111.128742208069
 21
226.1911399370517
 31
0.0
  0
ARC
  5
1C07
330
18
100
AcDbEntity
  8
1
  6
Continuous
100
AcDbCircle
 10
111.7287422365675
 20
225.9798384452395
 30
0.0
 40
0.6000000284985063
100
AcDbArc
 50
180.0000000000004
 51
245.0000000003417
  0
ARC
  5
1C09
330
18
100
AcDbEntity
  8
1
  6
Continuous
100
AcDbCircle
 10
138.3787435023746
 20
185.0795189047478
 30
0.0
 40
2.000000094994855
100
AcDbArc
 50
0.0
 51
90.0
  0
LINE
  5
1C0E
330
18
100
AcDbEntity
  8
1
  6
Continuous
100
AcDbLine
 10
138.8787435261233
 20
187.0795189997427
 30
0.0
 11
138.8787435261233
 21
187.0153353526727
 31
0.0
  0
ARC
  5
1C14
330
18
100
AcDbEntity
  8
1
  6
Continuous
100
AcDbCircle
 10
116.4787424621804
 20
224.7537382551584
 30
0.0
 40
1.000000047497474
100
AcDbArc
 50
180.000000482433
 51
261.2968343523939
  0
ARC
  5
1C16
330
18
100
AcDbEntity
  8
1
  6
Continuous
100
AcDbCircle
 10
122.3787494840507
 20
263.3049636719501
 30
0.0
 40
40.00009069498132
100
AcDbArc
 50
262.5743392992944
 51
277.4254173732631
  0
LINE
  5
1C17
330
18
100
AcDbEntity
  8
1
  6
Continuous
100
AcDbLine
 10
116.3274605665034
 20
223.7652475455243
 30
0.0
 11
117.2091490755684
 21
223.6403385353961
 31
0.0
  0
LINE
  5
1C1B
330
18
100
AcDbEntity
  8
1
  6
Continuous
100
AcDbLine
 10
115.4787424146829
 20
224.8048732140837
 30
0.0
 11
115.4787424146829
 21
224.7537382467384
 31
0.0
  0
ARC
  5
1C1D
330
18
100
AcDbEntity
  8
1
  6
Continuous
100
AcDbCircle
 10
128.2787430226503
 20
224.7537382551584
 30
0.0
 40
1.000000047497474
100
AcDbArc
 50
278.7128448431585
 51
359.9999995175682
  0
LINE
  5
1C1E
330
18
100
AcDbEntity
  8
1
  6
Continuous
100
AcDbLine
 10
128.4302254515989
 20
223.7652782566178
 30
0.0
 11
128.4301894538574
 21
223.7652782566178
 31
0.0
  0
LINE
  5
1C1F
330
18
100
AcDbEntity
  8
1
  6
Continuous
100
AcDbLine
 10
128.4300249183273
 20
223.7652475455243
 30
0.0
 11
127.5481814421765
 21
223.6403165811585
 31
0.0
  0
LINE
  5
1C20
330
18
100
AcDbEntity
  8
1
  6
Continuous
100
AcDbLine
 10
133.2823142173483
 20
225.4360537471876
 30
0.0
 11
131.9287431960161
 21
224.8048732140837
 31
0.0
  0
ARC
  5
1C21
330
18
100
AcDbEntity
  8
1
  6
Continuous
100
AcDbCircle
 10
122.3787427424156
 20
232.4048735750642
 30
0.0
 40
11.25000053434605
100
AcDbArc
 50
317.5026928456148
 51
332.4607918755145
  0
ARC
  5
1C22
330
18
100
AcDbEntity
  8
1
  6
Continuous
100
AcDbCircle
 10
122.378742742415
 20
232.4048735750646
 30
0.0
 40
11.30505101039873
100
AcDbArc
 50
317.7578096749064
 51
332.59728428367
  0
LINE
  5
1C23
330
18
100
AcDbEntity
  8
1
  6
Continuous
100
AcDbLine
 10
135.3787433598847
 20
227.2048733399985
 30
0.0
 11
109.3787421249516
 21
227.2048733399985
 31
0.0
  0
LINE
  5
1C24
330
18
100
AcDbEntity
  8
1
  6
Continuous
100
AcDbLine
 10
129.2787430701478
 20
224.7537382467384
 30
0.0
 11
129.2787430701478
 21
224.8048732140837
 31
0.0
  0
LINE
  5
1C25
330
18
100
AcDbEntity
  8
1
  6
Continuous
100
AcDbLine
 10
131.9287431960161
 20
224.8048732140837
 30
0.0
 11
112.8287422888146
 21
224.8048732140837
 31
0.0
  0
LINE
  5
1C27
330
18
100
AcDbEntity
  8
1
  6
Continuous
100
AcDbLine
 10
133.6287432767571
 20
226.1911399370496
 30
0.0
 11
133.44961620436
 21
227.2070200461371
 31
0.0
  0
LINE
  5
1C28
330
18
100
AcDbEntity
  8
1
  6
Continuous
100
AcDbLine
 10
133.6287432767617
 20
226.1911399370517
 30
0.0
 11
133.6287432767617
 21
225.9798384452395
 31
0.0
  0
ARC
  5
1C2A
330
18
100
AcDbEntity
  8
1
  6
Continuous
100
AcDbCircle
 10
133.0287432482629
 20
225.979838445238
 30
0.0
 40
0.6000000284996462
100
AcDbArc
 50
294.9999999996904
 51
0.0000000001681368
  0
ARC
  5
1C2B
330
18
100
AcDbEntity
  8
1
  6
Continuous
100
AcDbCircle
 10
122.3787427424154
 20
148.2024701323551
 30
0.0
 40
95.50240399135134
100
AcDbArc
 50
81.78699927526016
 51
98.21300072473986
  0
ARC
  5
1C2C
330
18
100
AcDbEntity
  8
1
  6
Continuous
100
AcDbCircle
 10
122.3787427424154
 20
148.2024701323559
 30
0.0
 40
97.50240408634514
100
AcDbArc
 50
81.78699927526016
 51
98.21300072473986
  0
LINE
  5
1C2D
330
18
100
AcDbEntity
  8
1
  6
Continuous
100
AcDbLine
 10
117.6334679557
 20
251.004874088968
 30
0.0
 11
110.9226359951395
 21
251.004874088968
 31
0.0
  0
LINE
  5
1C2F
330
18
100
AcDbEntity
  8
1
  6
Continuous
100
AcDbLine
 10
104.3787418874612
 20
234.2048736724807
 30
0.0
 11
140.3787435973695
 21
234.2048736724807
 31
0.0
  0
LINE
  5
1C30
330
18
100
AcDbEntity
  8
1
  6
Continuous
100
AcDbLine
 10
110.0039848381431
 20
238.2048738624705
 30
0.0
 11
134.7535006466838
 21
238.2048738624705
 31
0.0
  0
LINE
  5
1C31
330
18
100
AcDbEntity
  8
1
  6
Continuous
100
AcDbLine
 10
109.978742153447
 20
250.9048744656879
 30
0.0
 11
117.6334679557001
 21
250.9048744656879
 31
0.0
  0
LINE
  5
1C33
330
18
100
AcDbEntity
  8
1
  6
Continuous
100
AcDbLine
 10
110.9226359951395
 20
252.604874164964
 30
0.0
 11
110.9226359951395
 21
251.004874088968
 31
0.0
  0
LINE
  5
1C34
330
18
100
AcDbEntity
  8
1
  6
Continuous
100
AcDbLine
 10
107.8787420537023
 20
241.735642503736
 30
0.0
 11
107.8787420537023
 21
234.9048737057289
 31
0.0
  0
LINE
  5
1C35
330
18
100
AcDbEntity
  8
1
  6
Continuous
100
AcDbLine
 10
105.8787419587074
 20
241.735642503736
 30
0.0
 11
105.8787419587074
 21
234.9048737057289
 31
0.0
  0
LINE
  5
1C39
330
18
100
AcDbEntity
  8
1
  6
Continuous
100
AcDbLine
 10
109.978742153447
 20
242.8964464641201
 30
0.0
 11
109.978742153447
 21
234.2048736724807
 31
0.0
  0
LINE
  5
1C3A
330
18
100
AcDbEntity
  8
1
  6
Continuous
100
AcDbLine
 10
105.8787419587074
 20
234.9048737057289
 30
0.0
 11
107.8787420537023
 21
234.9048737057289
 31
0.0
  0
LINE
  5
1C3B
330
18
100
AcDbEntity
  8
1
  6
Continuous
100
AcDbLine
 10
106.5724285152558
 20
232.1197765771329
 30
0.0
 11
106.3787419824564
 21
232.1283761372908
 31
0.0
  0
LINE
  5
1C3C
330
18
100
AcDbEntity
  8
1
  6
Continuous
100
AcDbLine
 10
104.3787418874612
 20
234.2048736724807
 30
0.0
 11
104.3787418874612
 21
232.6190871595329
 31
0.0
  0
LINE
  5
1C3E
330
18
100
AcDbEntity
  8
1
  6
Continuous
100
AcDbLine
 10
104.5290931668682
 20
232.0917380665739
 30
0.0
 11
104.6716351201949
 21
231.9119803447725
 31
0.0
  0
ARC
  5
1C3F
330
18
100
AcDbEntity
  8
1
  6
Continuous
100
AcDbCircle
 10
105.3787419349588
 20
232.619087159533
 30
0.0
 40
1.000000047497572
100
AcDbArc
 50
180.0000000000077
 51
211.8265163878115
  0
LINE
  5
1C41
330
18
100
AcDbEntity
  8
1
  6
Continuous
100
AcDbLine
 10
105.8787419587074
 20
236.2048737674756
 30
0.0
 11
107.8787420537023
 21
236.2048737674756
 31
0.0
  0
LINE
  5
1C47
330
18
100
AcDbEntity
  8
1
  6
Continuous
100
AcDbLine
 10
109.978742153447
 20
250.9048744656879
 30
0.0
 11
109.978742153447
 21
244.9131664798154
 31
0.0
  0
ARC
  5
1C48
330
18
100
AcDbEntity
  8
1
  6
Continuous
100
AcDbCircle
 10
108.8787421011998
 20
241.735642503736
 30
0.0
 40
1.000000047497457
100
AcDbArc
 50
98.21300072446344
 51
179.9999999999987
  0
ARC
  5
1C49
330
18
100
AcDbEntity
  8
1
  6
Continuous
100
AcDbCircle
 10
108.8787421011998
 20
241.735642503736
 30
0.0
 40
3.000000142492353
100
AcDbArc
 50
98.21300072465758
 51
179.9999999999996
  0
LINE
  5
1C4A
330
18
100
AcDbEntity
  8
1
  6
Continuous
100
AcDbLine
 10
112.3787422674408
 20
251.004874088968
 30
0.0
 11
112.3787422674408
 21
250.9048744656879
 31
0.0
  0
LINE
  5
1C4B
330
18
100
AcDbEntity
  8
1
  6
Continuous
100
AcDbLine
 10
109.978742153447
 20
252.604874164964
 30
0.0
 11
110.9226359951395
 21
252.604874164964
 31
0.0
  0
LINE
  5
1C4C
330
18
100
AcDbEntity
  8
1
  6
Continuous
100
AcDbLine
 10
109.978742153447
 20
254.1048742362101
 30
0.0
 11
109.978742153447
 21
252.604874164964
 31
0.0
  0
ARC
  5
1C4D
330
18
100
AcDbEntity
  8
1
  6
Continuous
100
AcDbCircle
 10
110.4787421771957
 20
254.1048742362101
 30
0.0
 40
0.5000000237487347
100
AcDbArc
 50
89.98336617922403
 51
179.9999999999991
  0
LINE
  5
1C4E
330
18
100
AcDbEntity
  8
1
  6
Continuous
100
AcDbLine
 10
133.8348494896912
 20
252.604874164964
 30
0.0
 11
133.8348494896912
 21
251.004874088968
 31
0.0
  0
LINE
  5
1C51
330
18
100
AcDbEntity
  8
1
  6
Continuous
100
AcDbLine
 10
127.1240175291308
 20
250.9048744656896
 30
0.0
 11
127.1240175291308
 21
252.4048745369343
 31
0.0
  0
LINE
  5
1C52
330
18
100
AcDbEntity
  8
1
  6
Continuous
100
AcDbLine
 10
132.3787432173899
 20
250.9048744656876
 30
0.0
 11
132.3787432173899
 21
252.4048745369343
 31
0.0
  0
LINE
  5
1C53
330
18
100
AcDbEntity
  8
1
  6
Continuous
100
AcDbLine
 10
138.8787435261233
 20
236.2048737674756
 30
0.0
 11
136.8787434311283
 21
236.2048737674756
 31
0.0
  0
LINE
  5
1C54
330
18
100
AcDbEntity
  8
1
  6
Continuous
100
AcDbLine
 10
138.8787435261233
 20
234.9048737057289
 30
0.0
 11
136.8787434311283
 21
234.9048737057288
 31
0.0
  0
ARC
  5
1C55
330
18
100
AcDbEntity
  8
1
  6
Continuous
100
AcDbCircle
 10
135.8787433836309
 20
241.735642503736
 30
0.0
 40
3.000000142492365
100
AcDbArc
 50
0.0
 51
81.78699927534244
  0
LINE
  5
1C58
330
18
100
AcDbEntity
  8
1
  6
Continuous
100
AcDbLine
 10
136.8787434311283
 20
234.9048737057288
 30
0.0
 11
136.8787434311284
 21
241.735642503736
 31
0.0
  0
LINE
  5
1C5B
330
18
100
AcDbEntity
  8
1
  6
Continuous
100
AcDbLine
 10
134.7787433313837
 20
234.2048736724807
 30
0.0
 11
134.7787433313837
 21
242.8964464641201
 31
0.0
  0
LINE
  5
1C5C
330
18
100
AcDbEntity
  8
1
  6
Continuous
100
AcDbLine
 10
138.3787435023745
 20
232.1283761372831
 30
0.0
 11
138.1850569695749
 21
232.1197765771261
 31
0.0
  0
LINE
  5
1C62
330
18
100
AcDbEntity
  8
1
  6
Continuous
100
AcDbLine
 10
134.7787433313837
 20
244.9131664798154
 30
0.0
 11
134.7787433313837
 21
250.9048744656912
 31
0.0
  0
ARC
  5
1C63
330
18
100
AcDbEntity
  8
1
  6
Continuous
100
AcDbCircle
 10
135.8787433836309
 20
241.735642503736
 30
0.0
 40
1.000000047497442
100
AcDbArc
 50
0.0
 51
81.78699927553655
  0
LINE
  5
1C64
330
18
100
AcDbEntity
  8
1
  6
Continuous
100
AcDbLine
 10
133.8348494896912
 20
251.004874088968
 30
0.0
 11
132.3787432173899
 21
251.004874088968
 31
0.0
  0
LINE
  5
1C65
330
18
100
AcDbEntity
  8
1
  6
Continuous
100
AcDbLine
 10
127.1240175291308
 20
250.9048744656912
 30
0.0
 11
134.7787433313837
 21
250.9048744656912
 31
0.0
  0
LINE
  5
1C66
330
18
100
AcDbEntity
  8
1
  6
Continuous
100
AcDbLine
 10
138.8787435261233
 20
234.9048737057289
 30
0.0
 11
138.8787435261233
 21
241.735642503736
 31
0.0
  0
LINE
  5
1C68
330
18
100
AcDbEntity
  8
1
  6
Continuous
100
AcDbLine
 10
140.3787435973695
 20
234.2048736724807
 30
0.0
 11
140.3787435973695
 21
232.6190871595329
 31
0.0
  0
LINE
  5
1C69
330
18
100
AcDbEntity
  8
1
  6
Continuous
100
AcDbLine
 10
140.085850364646
 20
231.9119803447624
 30
0.0
 11
140.2283923179759
 21
232.0917380665647
 31
0.0
  0
LINE
  5
1C6F
330
18
100
AcDbEntity
  8
1
  6
Continuous
100
AcDbLine
 10
125.141242873627
 20
263.3548746755616
 30
0.0
 11
125.141242873627
 21
259.8548745093205
 31
0.0
  0
LINE
  5
1C70
330
18
100
AcDbEntity
  8
1
  6
Continuous
100
AcDbLine
 10
127.9037430048388
 20
263.3548746755616
 30
0.0
 11
127.9037428605012
 21
259.8548745093205
 31
0.0
  0
LINE
  5
1C71
330
18
100
AcDbEntity
  8
1
  6
Continuous
100
AcDbLine
 10
123.1287427780384
 20
263.5548746850611
 30
0.0
 11
123.1287427780384
 21
261.3548745805667
 31
0.0
  0
ARC
  5
1C72
330
18
100
AcDbEntity
  8
1
  6
Continuous
100
AcDbCircle
 10
126.0787429181559
 20
257.7048755516103
 30
0.0
 40
0.3000000142492318
100
AcDbArc
 50
359.9999999999992
 51
90.0
  0
LINE
  5
1C73
330
18
100
AcDbEntity
  8
1
  6
Continuous
100
AcDbLine
 10
129.1287430630231
 20
259.3548744855718
 30
0.0
 11
115.6287424218076
 21
259.3548744855718
 31
0.0
  0
LINE
  5
1C74
330
18
100
AcDbEntity
  8
1
  6
Continuous
100
AcDbLine
 10
128.5162430339308
 20
259.8548745093205
 30
0.0
 11
116.2412424508997
 21
259.8548745093205
 31
0.0
  0
LINE
  5
1C77
330
18
100
AcDbEntity
  8
1
  6
Continuous
100
AcDbLine
 10
117.6334679557001
 20
252.604874164964
 30
0.0
 11
134.7787433313837
 21
252.604874164964
 31
0.0
  0
LINE
  5
1C78
330
18
100
AcDbEntity
  8
1
  6
Continuous
100
AcDbLine
 10
110.4788873346704
 20
254.6048742388882
 30
0.0
 11
134.2788884652968
 21
254.6048742388882
 31
0.0
  0
LINE
  5
1C79
330
18
100
AcDbEntity
  8
1
  6
Continuous
100
AcDbLine
 10
117.6334679556999
 20
252.4048745369343
 30
0.0
 11
132.3787432173899
 21
252.4048745369343
 31
0.0
  0
LINE
  5
1C7E
330
18
100
AcDbEntity
  8
1
  6
Continuous
100
AcDbLine
 10
119.4628379415526
 20
252.604874164964
 30
0.0
 11
119.4628379415526
 21
252.4048752998737
 31
0.0
  0
LINE
  5
1C80
330
18
100
AcDbEntity
  8
1
  6
Continuous
100
AcDbLine
 10
117.6334679557001
 20
252.604874164964
 30
0.0
 11
117.6334679557001
 21
250.9048744656879
 31
0.0
  0
LINE
  5
1C81
330
18
100
AcDbEntity
  8
1
  6
Continuous
100
AcDbLine
 10
118.5136398919457
 20
252.604874164964
 30
0.0
 11
118.5136398919457
 21
252.4048745369343
 31
0.0
  0
LINE
  5
1C82
330
18
100
AcDbEntity
  8
1
  6
Continuous
100
AcDbLine
 10
125.294647543278
 20
257.7048755516103
 30
0.0
 11
125.294647543278
 21
254.6048742388882
 31
0.0
  0
LINE
  5
1C83
330
18
100
AcDbEntity
  8
1
  6
Continuous
100
AcDbLine
 10
125.294647543278
 20
252.604874164964
 30
0.0
 11
125.294647543278
 21
252.4048752998738
 31
0.0
  0
LINE
  5
1C8B
330
18
100
AcDbEntity
  8
1
  6
Continuous
100
AcDbLine
 10
115.6287424218076
 20
259.3548744855718
 30
0.0
 11
115.6287424218076
 21
258.6548744523236
 31
0.0
  0
LINE
  5
1C8C
330
18
100
AcDbEntity
  8
1
  6
Continuous
100
AcDbLine
 10
116.2412424508997
 20
259.8548745093205
 30
0.0
 11
115.6287424218076
 21
259.3548744855718
 31
0.0
  0
LINE
  5
1C95
330
18
100
AcDbEntity
  8
1
  6
Continuous
100
AcDbLine
 10
119.6528548650836
 20
258.3548744380995
 30
0.0
 11
119.6528548650836
 21
258.2048744309497
 31
0.0
  0
LINE
  5
1C97
330
18
100
AcDbEntity
  8
1
  6
Continuous
100
AcDbLine
 10
118.6791746070185
 20
258.3548744380999
 30
0.0
 11
118.6791746070185
 21
258.2048744309497
 31
0.0
  0
LINE
  5
1C99
330
18
100
AcDbEntity
  8
1
  6
Continuous
100
AcDbLine
 10
117.0952118840416
 20
258.354874438099
 30
0.0
 11
117.0952118840416
 21
258.2048744309497
 31
0.0
  0
LINE
  5
1C9B
330
18
100
AcDbEntity
  8
1
  6
Continuous
100
AcDbLine
 10
117.8179038546761
 20
258.3548744380999
 30
0.0
 11
117.8179038546761
 21
258.2048744309497
 31
0.0
  0
LINE
  5
1C9C
330
18
100
AcDbEntity
  8
1
  6
Continuous
100
AcDbLine
 10
119.6287426117974
 20
258.2048744309497
 30
0.0
 11
119.6287426117974
 21
258.0048755658596
 31
0.0
  0
LINE
  5
1C9D
330
18
100
AcDbEntity
  8
1
  6
Continuous
100
AcDbLine
 10
116.1485209591954
 20
258.3548744380991
 30
0.0
 11
116.1485209591954
 21
258.2048744309497
 31
0.0
  0
LINE
  5
1C9E
330
18
100
AcDbEntity
  8
1
  6
Continuous
100
AcDbLine
 10
116.5330573249434
 20
258.354874438099
 30
0.0
 11
116.5330573249434
 21
258.2048744309497
 31
0.0
  0
LINE
  5
1CA2
330
18
100
AcDbEntity
  8
1
  6
Continuous
100
AcDbLine
 10
115.9287425315758
 20
258.3548744380744
 30
0.0
 11
115.9287425315758
 21
258.2048744309497
 31
0.0
  0
ARC
  5
1CA6
330
18
100
AcDbEntity
  8
1
  6
Continuous
100
AcDbCircle
 10
115.9287424360568
 20
258.6548744523236
 30
0.0
 40
0.3000000142492368
100
AcDbArc
 50
180.0000000000028
 51
270.0
  0
LINE
  5
1CA7
330
18
100
AcDbEntity
  8
1
  6
Continuous
100
AcDbLine
 10
118.6787659774296
 20
258.0048755649519
 30
0.0
 11
126.0787614859373
 21
258.0048755649519
 31
0.0
  0
LINE
  5
1CAB
330
18
100
AcDbEntity
  8
1
  6
Continuous
100
AcDbLine
 10
128.8287430487739
 20
258.3548744380745
 30
0.0
 11
115.9287424360568
 21
258.3548744380745
 31
0.0
  0
LINE
  5
1CAF
330
18
100
AcDbEntity
  8
1
  6
Continuous
100
AcDbLine
 10
122.9408973015136
 20
258.3548744380745
 30
0.0
 11
122.9408973015136
 21
258.2048744309497
 31
0.0
  0
LINE
  5
1CB1
330
18
100
AcDbEntity
  8
1
  6
Continuous
100
AcDbLine
 10
122.7273657299646
 20
258.3548744380743
 30
0.0
 11
122.7273657299646
 21
258.2048744309497
 31
0.0
  0
LINE
  5
1CB2
330
18
100
AcDbEntity
  8
1
  6
Continuous
100
AcDbLine
 10
122.0301197548661
 20
258.3548744380743
 30
0.0
 11
122.0301197548661
 21
258.2048744309497
 31
0.0
  0
LINE
  5
1CB4
330
18
100
AcDbEntity
  8
1
  6
Continuous
100
AcDbLine
 10
121.816588183317
 20
258.3548744380744
 30
0.0
 11
121.816588183317
 21
258.2048744309497
 31
0.0
  0
LINE
  5
1CB7
330
18
100
AcDbEntity
  8
1
  6
Continuous
100
AcDbLine
 10
120.6882696151594
 20
258.3548744380743
 30
0.0
 11
120.6882696151594
 21
258.2048744309497
 31
0.0
  0
LINE
  5
1CB8
330
18
100
AcDbEntity
  8
1
  6
Continuous
100
AcDbLine
 10
125.1046306197474
 20
258.3548744380991
 30
0.0
 11
125.1046306197474
 21
258.2048744309497
 31
0.0
  0
LINE
  5
1CBA
330
18
100
AcDbEntity
  8
1
  6
Continuous
100
AcDbLine
 10
124.0692158696715
 20
258.3548744380743
 30
0.0
 11
124.0692158696715
 21
258.2048744309497
 31
0.0
  0
LINE
  5
1CBB
330
18
100
AcDbEntity
  8
1
  6
Continuous
100
AcDbLine
 10
126.0783108778124
 20
258.3548744380991
 30
0.0
 11
126.0783108778124
 21
258.2048744309497
 31
0.0
  0
LINE
  5
1CBD
330
18
100
AcDbEntity
  8
1
  6
Continuous
100
AcDbLine
 10
123.1287427780384
 20
261.3548745805667
 30
0.0
 11
121.6287427067923
 21
261.3548745805667
 31
0.0
  0
LINE
  5
1CBE
330
18
100
AcDbEntity
  8
1
  6
Continuous
100
AcDbLine
 10
125.1287428730333
 20
258.0048755658595
 30
0.0
 11
125.1287428730333
 21
258.2048744309497
 31
0.0
  0
LINE
  5
1CC1
330
18
100
AcDbEntity
  8
1
  6
Continuous
100
AcDbLine
 10
126.3787429324052
 20
257.7048755516103
 30
0.0
 11
126.3787429324052
 21
254.6048742388882
 31
0.0
  0
LINE
  5
1CC2
330
18
100
AcDbEntity
  8
1
  6
Continuous
100
AcDbLine
 10
126.3787429324052
 20
252.604874164964
 30
0.0
 11
126.3787429324052
 21
252.4048752998737
 31
0.0
  0
LINE
  5
1CC3
330
18
100
AcDbEntity
  8
1
  6
Continuous
100
AcDbLine
 10
131.7099264639867
 20
252.604874164964
 30
0.0
 11
131.7099264639867
 21
252.4048745369321
 31
0.0
  0
LINE
  5
1CC5
330
18
100
AcDbEntity
  8
1
  6
Continuous
100
AcDbLine
 10
134.7787433313837
 20
252.604874164964
 30
0.0
 11
134.7787433313837
 21
254.1048742362101
 31
0.0
  0
ARC
  5
1CC6
330
18
100
AcDbEntity
  8
1
  6
Continuous
100
AcDbCircle
 10
134.2787433076351
 20
254.1048742362101
 30
0.0
 40
0.5000000237487347
100
AcDbArc
 50
0.0000000000012213
 51
89.98336615795464
  0
LINE
  5
1CC7
330
18
100
AcDbEntity
  8
1
  6
Continuous
100
AcDbLine
 10
129.1287430630231
 20
258.6548744523236
 30
0.0
 11
129.1287430630231
 21
259.3548744855718
 31
0.0
  0
LINE
  5
1CC8
330
18
100
AcDbEntity
  8
1
  6
Continuous
100
AcDbLine
 10
129.1287430630231
 20
259.3548744855718
 30
0.0
 11
128.516120533931
 21
259.8549745093206
 31
0.0
  0
LINE
  5
1CCE
330
18
100
AcDbEntity
  8
1
  6
Continuous
100
AcDbLine
 10
127.6622736007896
 20
258.3548744380999
 30
0.0
 11
127.6622736007896
 21
258.2048744309497
 31
0.0
  0
LINE
  5
1CD0
330
18
100
AcDbEntity
  8
1
  6
Continuous
100
AcDbLine
 10
126.9395816301546
 20
258.3548744380991
 30
0.0
 11
126.9395816301546
 21
258.2048744309497
 31
0.0
  0
LINE
  5
1CD1
330
18
100
AcDbEntity
  8
1
  6
Continuous
100
AcDbLine
 10
128.2244281598873
 20
258.3548744380999
 30
0.0
 11
128.2244281598873
 21
258.2048744309497
 31
0.0
  0
LINE
  5
1CD3
330
18
100
AcDbEntity
  8
1
  6
Continuous
100
AcDbLine
 10
128.608964525635
 20
258.3548744380996
 30
0.0
 11
128.608964525635
 21
258.2048744309497
 31
0.0
  0
LINE
  5
1CD6
330
18
100
AcDbEntity
  8
1
  6
Continuous
100
AcDbLine
 10
115.9287425315758
 20
258.2048744309497
 30
0.0
 11
122.0301197548661
 21
258.2048744309497
 31
0.0
  0
LINE
  5
1CD7
330
18
100
AcDbEntity
  8
1
  6
Continuous
100
AcDbLine
 10
128.8287429532549
 20
258.2048744309497
 30
0.0
 11
128.8287429532549
 21
258.3548744380744
 31
0.0
  0
ARC
  5
1CDA
330
18
100
AcDbEntity
  8
1
  6
Continuous
100
AcDbCircle
 10
128.8287430487739
 20
258.6548744523236
 30
0.0
 40
0.3000000142492368
100
AcDbArc
 50
270.0
 51
359.9999999999971
  0
LINE
  5
1CE3
330
18
100
AcDbEntity
  8
1
  6
Continuous
100
AcDbLine
 10
123.4287427922877
 20
263.8548746993103
 30
0.0
 11
127.3263927082945
 21
263.8548746993103
 31
0.0
  0
ARC
  5
1CEB
330
18
100
AcDbEntity
  8
1
  6
Continuous
100
AcDbCircle
 10
123.4287427922877
 20
263.5548746850611
 30
0.0
 40
0.3000000142492212
100
AcDbArc
 50
89.99999999999673
 51
180.0
  0
LINE
  5
1CF0
330
18
100
AcDbEntity
  8
1
  6
Continuous
100
AcDbLine
 10
268.0354503505943
 20
179.8295186553851
 30
0.0
 11
283.5354510868043
 21
179.8295186553851
 31
0.0
  0
ARC
  5
1CF3
330
18
100
AcDbEntity
  8
1
  6
Continuous
100
AcDbCircle
 10
189.5340778576669
 20
185.0795189047478
 30
0.0
 40
2.000000094994899
100
AcDbArc
 50
89.99999831743956
 51
180.0
  0
LINE
  5
1CF4
330
18
100
AcDbEntity
  8
1
  6
Continuous
100
AcDbLine
 10
183.431148411628
 20
186.9354181742641
 30
0.0
 11
178.5340773351947
 21
180.0795186672601
 31
0.0
  0
LINE
  5
1CF6
330
18
100
AcDbEntity
  8
1
  6
Continuous
100
AcDbLine
 10
185.534077667677
 20
181.5795187385067
 30
0.0
 11
187.534077762672
 21
181.4747031749622
 31
0.0
  0
LINE
  5
1CF7
330
18
100
AcDbEntity
  8
1
  6
Continuous
100
AcDbLine
 10
185.5340776676771
 20
187.0795189997427
 30
0.0
 11
183.9482911547294
 21
187.0795189997427
 31
0.0
  0
ARC
  5
1CFB
330
18
100
AcDbEntity
  8
1
  6
Continuous
100
AcDbCircle
 10
183.9482911547295
 20
186.0795189522452
 30
0.0
 40
1.000000047497497
100
AcDbArc
 50
90.00000000000325
 51
121.1407851217422
  0
LINE
  5
1CFE
330
18
100
AcDbEntity
  8
1
  6
Continuous
100
AcDbLine
 10
203.7340785321286
 20
179.4795186387621
 30
0.0
 11
196.5910744286395
 21
179.4795186387621
 31
0.0
  0
LINE
  5
1CFF
330
18
100
AcDbEntity
  8
1
  6
Continuous
100
AcDbLine
 10
197.0340782138974
 20
179.8295186553861
 30
0.0
 11
197.0340782138974
 21
187.0795189997427
 31
0.0
  0
LINE
  5
1D00
330
18
100
AcDbEntity
  8
1
  6
Continuous
100
AcDbLine
 10
196.7255849291623
 20
179.8295186553861
 30
0.0
 11
197.0340782138974
 21
179.8295186553861
 31
0.0
  0
LINE
  5
1D02
330
18
100
AcDbEntity
  8
1
  6
Continuous
100
AcDbLine
 10
189.5340779163994
 20
187.0795189997427
 30
0.0
 11
197.0340782138974
 21
187.0795189997427
 31
0.0
  0
LINE
  5
1D04
330
18
100
AcDbEntity
  8
1
  6
Continuous
100
AcDbLine
 10
205.4340782314067
 20
179.4795186387621
 30
0.0
 11
203.9340781601605
 21
179.4795186387621
 31
0.0
  0
ARC
  5
1D06
330
18
100
AcDbEntity
  8
1
  6
Continuous
100
AcDbCircle
 10
205.4340782314067
 20
178.9795186150134
 30
0.0
 40
0.5000000237487347
100
AcDbArc
 50
359.9797840075753
 51
90.0
  0
LINE
  5
1D08
330
18
100
AcDbEntity
  8
1
  6
Continuous
100
AcDbLine
 10
202.2340784608861
 20
178.5356247970696
 30
0.0
 11
203.9340781601605
 21
178.5356247970696
 31
0.0
  0
ARC
  5
1D0A
330
18
100
AcDbEntity
  8
1
  6
Continuous
100
AcDbCircle
 10
259.7854499587401
 20
185.0795189047469
 30
0.0
 40
2.000000094994858
100
AcDbArc
 50
104.4775121859298
 51
180.0000000000004
  0
ARC
  5
1D0B
330
18
100
AcDbEntity
  8
1
  6
Continuous
100
AcDbCircle
 10
291.7854514786586
 20
185.0795189047469
 30
0.0
 40
2.000000094994899
100
AcDbArc
 50
0.0
 51
75.52248781407016
  0
LINE
  5
1D0C
330
18
100
AcDbEntity
  8
1
  6
Continuous
100
AcDbLine
 10
259.2854499349914
 20
187.0795189997414
 30
0.0
 11
292.2854515024073
 21
187.0795189997417
 31
0.0
  0
LINE
  5
1D19
330
18
100
AcDbEntity
  8
4
  6
CENTER
 48
0.2
100
AcDbLine
 10
122.3787427424154
 20
104.0795151999466
 30
0.0
 11
122.3787427424154
 21
190.0795189997427
 31
0.0
  0
ARC
  5
1D1B
330
18
100
AcDbEntity
  8
1
  6
Continuous
100
AcDbCircle
 10
122.3834409742891
 20
129.5808289748809
 30
0.0
 40
13.00469891559367
100
AcDbArc
 50
180.0057834942961
 51
210.0483181238835
  0
ARC
  5
1D1C
330
18
100
AcDbEntity
  8
1
  6
Continuous
100
AcDbCircle
 10
122.3787427423974
 20
167.0795514276608
 30
0.0
 40
13.00000061753016
100
AcDbArc
 50
359.9999999999916
 51
179.999999999995
  0
ARC
  5
1D22
330
18
100
AcDbEntity
  8
1
  6
Continuous
100
AcDbCircle
 10
111.2010871386927
 20
165.1063733456084
 30
0.0
 40
0.0727453539352217
100
AcDbArc
 50
186.0572633792605
 51
290.217534367157
  0
ARC
  5
1D24
330
18
100
AcDbEntity
  8
1
  6
Continuous
100
AcDbCircle
 10
107.4001843330496
 20
175.418004356556
 30
0.0
 40
11.06258594321626
100
AcDbArc
 50
290.2339520331913
 51
299.3874749128944
  0
ARC
  5
1D25
330
18
100
AcDbEntity
  8
1
  6
Continuous
100
AcDbCircle
 10
108.6336370611864
 20
170.7738452453094
 30
0.0
 40
6.52288192943224
100
AcDbArc
 50
310.0261203506145
 51
325.5029183295857
  0
ARC
  5
1D26
330
18
100
AcDbEntity
  8
1
  6
Continuous
100
AcDbCircle
 10
98.1370729489517
 20
169.5147752278105
 30
0.0
 40
13.69613660101661
100
AcDbArc
 50
341.5436182827408
 51
349.7580003507948
  0
LINE
  5
1D27
330
18
100
AcDbEntity
  8
1
  6
Continuous
100
AcDbLine
 10
111.2360315914159
 20
165.5145951972719
 30
0.0
 11
111.2360315914156
 21
168.6302685890953
 31
0.0
  0
ARC
  5
1D28
330
18
100
AcDbEntity
  8
1
  6
Continuous
100
AcDbCircle
 10
112.4023790515567
 20
138.9834151990394
 30
0.0
 40
1.526083014648673
100
AcDbArc
 50
176.755491280399
 51
213.4207756909195
  0
ARC
  5
1D29
330
18
100
AcDbEntity
  8
1
  6
Continuous
100
AcDbCircle
 10
113.8396995522463
 20
111.4626359730717
 30
0.0
 40
2.146956560447804
100
AcDbArc
 50
120.950164484654
 51
130.9386731049415
  0
ARC
  5
1D2A
330
18
100
AcDbEntity
  8
1
  6
Continuous
100
AcDbCircle
 10
112.435873907146
 20
113.563174395469
 30
0.0
 40
0.3962597306435394
100
AcDbArc
 50
319.1327123640232
 51
7.610882468031048
  0
LINE
  5
1D2B
330
18
100
AcDbEntity
  8
1
  6
Continuous
100
AcDbLine
 10
133.142516547609
 20
167.0795180497937
 30
0.0
 11
130.6734703772379
 21
167.0795180497937
 31
0.0
  0
LINE
  5
1D2C
330
18
100
AcDbEntity
  8
1
  6
Continuous
100
AcDbLine
 10
133.5214538934148
 20
165.5145951972719
 30
0.0
 11
133.5214538934151
 21
168.6302685890953
 31
0.0
  0
ARC
  5
1D2D
330
18
100
AcDbEntity
  8
1
  6
Continuous
100
AcDbCircle
 10
146.6204125358791
 20
169.5147752278105
 30
0.0
 40
13.69613660101661
100
AcDbArc
 50
190.2419996492051
 51
198.456381717259
  0
ARC
  5
1D2E
330
18
100
AcDbEntity
  8
1
  6
Continuous
100
AcDbCircle
 10
136.1238484236443
 20
170.7738452453094
 30
0.0
 40
6.52288192943224
100
AcDbArc
 50
214.4970816704143
 51
229.9738796493854
  0
ARC
  5
1D2F
330
18
100
AcDbEntity
  8
1
  6
Continuous
100
AcDbCircle
 10
137.3573011517811
 20
175.418004356556
 30
0.0
 40
11.06258594321626
100
AcDbArc
 50
240.6125250871056
 51
249.7660479668086
  0
ARC
  5
1D30
330
18
100
AcDbEntity
  8
1
  6
Continuous
100
AcDbCircle
 10
133.556398346138
 20
165.1063733456084
 30
0.0
 40
0.0727453539352217
100
AcDbArc
 50
249.7824656328429
 51
353.9427366207394
  0
LINE
  5
1D32
330
18
100
AcDbEntity
  8
1
  6
Continuous
100
AcDbLine
 10
135.3787433598822
 20
129.5795162673392
 30
0.0
 11
135.378743359879
 21
167.0795514276619
 31
0.0
  0
LINE
  5
1D33
330
18
100
AcDbEntity
  8
1
  6
Continuous
100
AcDbLine
 10
133.878743288636
 20
167.0795180497937
 30
0.0
 11
133.878743288636
 21
129.5795162686658
 31
0.0
  0
LINE
  5
1D34
330
18
100
AcDbEntity
  8
1
  6
Continuous
100
AcDbLine
 10
133.6287375576216
 20
165.1788163888651
 30
0.0
 11
133.6287375576217
 21
118.3295157343529
 31
0.0
  0
LINE
  5
1D35
330
18
100
AcDbEntity
  8
1
  6
Continuous
100
AcDbLine
 10
131.928743196016
 20
113.615706010639
 30
0.0
 11
131.9287431960161
 21
165.7789397612746
 31
0.0
  0
ARC
  5
1D36
330
18
100
AcDbEntity
  8
1
  6
Continuous
100
AcDbCircle
 10
132.355106433274
 20
138.9834151990394
 30
0.0
 40
1.526083014648673
100
AcDbArc
 50
326.5792243090804
 51
3.244508719600926
  0
ARC
  5
1D38
330
18
100
AcDbEntity
  8
1
  6
Continuous
100
AcDbCircle
 10
122.3740445105416
 20
129.5808289748809
 30
0.0
 40
13.00469891559367
100
AcDbArc
 50
329.9516818761164
 51
359.9942165057037
  0
ARC
  5
1D3A
330
18
100
AcDbEntity
  8
1
  6
Continuous
100
AcDbCircle
 10
122.3787427424154
 20
129.5795162686392
 30
0.0
 40
11.50000054622067
100
AcDbArc
 50
348.2666103561254
 51
0.0000000001323181
  0
ARC
  5
1D3B
330
18
100
AcDbEntity
  8
1
  6
Continuous
100
AcDbCircle
 10
122.4129974897561
 20
118.3259463934022
 30
0.0
 40
11.21216075913155
100
AcDbArc
 50
332.1290765260132
 51
0.0182400172867149
  0
ARC
  5
1D3C
330
18
100
AcDbEntity
  8
1
  6
Continuous
100
AcDbCircle
 10
132.3216115776847
 20
113.563174395469
 30
0.0
 40
0.3962597306435394
100
AcDbArc
 50
172.3891175319689
 51
220.8672876359767
  0
ARC
  5
1D3D
330
18
100
AcDbEntity
  8
1
  6
Continuous
100
AcDbCircle
 10
130.9177859325844
 20
111.4626359730717
 30
0.0
 40
2.146956560447804
100
AcDbArc
 50
49.06132689505844
 51
59.04983551534583
  0
LINE
  5
1D4C
330
18
100
AcDbEntity
  8
1
  6
Continuous
100
AcDbLine
 10
107.3956412710562
 20
186.3782090930266
 30
0.0
 11
116.9358680592127
 21
179.7987423111806
 31
0.0
  0
LINE
  5
1D4D
330
18
100
AcDbEntity
  8
1
  6
Continuous
100
AcDbLine
 10
105.2069225820782
 20
182.0980655880893
 30
0.0
 11
108.8434546630599
 21
169.006543097446
 31
0.0
  0
LINE
  5
1D4E
330
18
100
AcDbEntity
  8
1
  6
Continuous
100
AcDbLine
 10
105.1455474805772
 20
112.2234182265131
 30
0.0
 11
108.904829764556
 21
127.6364755904639
 31
0.0
  0
LINE
  5
1D4F
330
18
100
AcDbEntity
  8
1
  6
Continuous
100
AcDbLine
 10
107.2483406056
 20
107.8702693699015
 30
0.0
 11
111.8716210707652
 21
112.0743676187871
 31
0.0
  0
LINE
  5
1D51
330
18
100
AcDbEntity
  8
1
  6
Continuous
100
AcDbLine
 10
137.3618442137745
 20
186.3782090930266
 30
0.0
 11
127.8216174256179
 21
179.7987423111806
 31
0.0
  0
LINE
  5
1D52
330
18
100
AcDbEntity
  8
1
  6
Continuous
100
AcDbLine
 10
139.5505629027525
 20
182.0980655880893
 30
0.0
 11
135.9140308217708
 21
169.006543097446
 31
0.0
  0
LINE
  5
1D53
330
18
100
AcDbEntity
  8
1
  6
Continuous
100
AcDbLine
 10
139.6119380042535
 20
112.2234182265131
 30
0.0
 11
135.8526557202747
 21
127.6364755904639
 31
0.0
  0
LINE
  5
1D54
330
18
100
AcDbEntity
  8
1
  6
Continuous
100
AcDbLine
 10
137.5091448792308
 20
107.8702693699015
 30
0.0
 11
132.8858644140655
 21
112.0743676187871
 31
0.0
  0
LINE
  5
1D55
330
18
100
AcDbEntity
  8
4
  6
CENTER
 48
0.2
100
AcDbLine
 10
101.3787418874612
 20
167.0794548287588
 30
0.0
 11
143.3787435973695
 21
167.0794548287588
 31
0.0
  0
CIRCLE
  5
1D56
330
18
100
AcDbEntity
  8
1
  6
Continuous
100
AcDbCircle
 10
122.3787427424154
 20
130.079516292388
 30
0.0
 40
9.000000427476997
  0
ARC
  5
1D84
330
18
100
AcDbEntity
  8
1
  6
Continuous
100
AcDbCircle
 10
183.9482991375059
 20
108.0795465922105
 30
0.0
 40
1.000031392295892
100
AcDbArc
 50
241.4241364612967
 51
269.9995426349549
  0
ARC
  5
1D85
330
18
100
AcDbEntity
  8
1
  6
Continuous
100
AcDbCircle
 10
180.2245231443377
 20
118.4777590785152
 30
0.0
 40
2.70823952049185
100
AcDbArc
 50
183.1378189272611
 51
225.7304406213537
  0
ARC
  5
1D86
330
18
100
AcDbEntity
  8
1
  6
Continuous
100
AcDbCircle
 10
171.7250076656609
 20
176.6436403827949
 30
0.0
 40
12.84634206992654
100
AcDbArc
 50
296.8160366450381
 51
302.0081286766936
  0
ARC
  5
1D89
330
18
100
AcDbEntity
  8
1
  6
Continuous
100
AcDbCircle
 10
177.0476592231791
 20
165.6097514439589
 30
0.0
 40
0.573991760924312
100
AcDbArc
 50
240.5990149259131
 51
297.0892577306122
  0
ARC
  5
1D8B
330
18
100
AcDbEntity
  8
1
  6
Continuous
100
AcDbCircle
 10
184.2261108822555
 20
172.7852612023054
 30
0.0
 40
10.70371660217193
100
AcDbArc
 50
220.8869799367046
 51
225.8151009055614
  0
ARC
  5
1D8F
330
18
100
AcDbEntity
  8
1
  6
Continuous
100
AcDbCircle
 10
196.7746042547716
 20
179.7029890538884
 30
0.0
 40
0.1356931624570248
100
AcDbArc
 50
111.1770599448474
 51
168.1823472659826
  0
ARC
  5
1D90
330
18
100
AcDbEntity
  8
1
  6
Continuous
100
AcDbCircle
 10
217.7133776291258
 20
175.3470718178985
 30
0.0
 40
21.52275096776752
100
AcDbArc
 50
168.247889502978
 51
181.3779132669132
  0
ARC
  5
1D91
330
18
100
AcDbEntity
  8
1
  6
Continuous
100
AcDbCircle
 10
214.6840735193711
 20
171.3643030342454
 30
0.0
 40
0.500005175165958
100
AcDbArc
 50
0.0006306531730148
 51
89.99979583989434
  0
LINE
  5
1D92
330
18
100
AcDbEntity
  8
1
  6
Continuous
100
AcDbLine
 10
214.6840753010225
 20
171.8643082094082
 30
0.0
 11
211.1840751347823
 21
171.8643057444988
 31
0.0
  0
ARC
  5
1D96
330
18
100
AcDbEntity
  8
1
  6
Continuous
100
AcDbCircle
 10
209.0688422366682
 20
164.7065638484051
 30
0.0
 40
0.5440623108393645
100
AcDbArc
 50
266.3366086871302
 51
294.0498635602647
  0
ARC
  5
1D97
330
18
100
AcDbEntity
  8
1
  6
Continuous
100
AcDbCircle
 10
209.2622441331175
 20
164.2772643907588
 30
0.0
 40
0.0732312933409497
100
AcDbArc
 50
292.7511087660992
 51
348.7952168183988
  0
ARC
  5
1D98
330
18
100
AcDbEntity
  8
1
  6
Continuous
100
AcDbCircle
 10
209.0688425756618
 20
169.4524730533589
 30
0.0
 40
0.5440623108393645
100
AcDbArc
 50
65.9501282546225
 51
93.66338312775695
  0
ARC
  5
1D9A
330
18
100
AcDbEntity
  8
1
  6
Continuous
100
AcDbCircle
 10
209.0340800753783
 20
170.779519032677
 30
0.0
 40
0.3000000142492287
100
AcDbArc
 50
359.8923525185564
 51
89.99999181488719
  0
LINE
  5
1D9B
330
18
100
AcDbEntity
  8
1
  6
Continuous
100
AcDbLine
 10
209.0340801182355
 20
171.0795190469261
 30
0.0
 11
205.9340787954609
 21
171.0795194897836
 31
0.0
  0
LINE
  5
1D9C
330
18
100
AcDbEntity
  8
1
  6
Continuous
100
AcDbLine
 10
209.0340799633647
 20
169.9954236577992
 30
0.0
 11
205.9340786405901
 21
169.9954241006565
 31
0.0
  0
ARC
  5
1D9D
330
18
100
AcDbEntity
  8
1
  6
Continuous
100
AcDbCircle
 10
209.2622445334396
 20
169.8817724833764
 30
0.0
 40
0.0732312933409497
100
AcDbArc
 50
11.20477499648829
 51
67.248883048788
  0
LINE
  5
1D9F
330
18
100
AcDbEntity
  8
2
  6
Continuous
100
AcDbLine
 10
209.5340784261462
 20
169.5590181804116
 30
0.0
 11
209.334079561056
 21
169.5590181804116
 31
0.0
  0
LINE
  5
1DA0
330
18
100
AcDbEntity
  8
2
  6
Continuous
100
AcDbLine
 10
209.5340780719319
 20
164.6000186548901
 30
0.0
 11
209.3340792068417
 21
164.6000186834614
 31
0.0
  0
ARC
  5
1DA1
330
18
100
AcDbEntity
  8
1
  6
Continuous
100
AcDbCircle
 10
217.7133764480465
 20
158.8119638489317
 30
0.0
 40
21.52275096776752
100
AcDbArc
 50
178.6220785479739
 51
192.0207252169261
  0
LINE
  5
1DA2
330
18
100
AcDbEntity
  8
4
  6
CENTER
 48
0.2
100
AcDbLine
 10
218.1840786945068
 20
167.0795182997937
 30
0.0
 11
193.1598365814179
 21
167.0795182997937
 31
0.0
  0
ARC
  5
1DA4
330
18
100
AcDbEntity
  8
1
  6
Continuous
100
AcDbCircle
 10
197.4840725307697
 20
153.529513527401
 30
0.0
 40
0.3000000142492368
100
AcDbArc
 50
90.00004728486507
 51
180.341318222518
  0
LINE
  5
1DA5
330
18
100
AcDbEntity
  8
1
  6
Continuous
100
AcDbLine
 10
202.1840747073044
 20
151.8643072594592
 30
0.0
 11
198.6840745410642
 21
151.8643047945497
 31
0.0
  0
ARC
  5
1DA7
330
18
100
AcDbEntity
  8
1
  6
Continuous
100
AcDbCircle
 10
202.1840729256529
 20
151.3643020842962
 30
0.0
 40
0.5000051751661001
100
AcDbArc
 50
0.000630653186042
 51
89.99979583988459
  0
ARC
  5
1DAA
330
18
100
AcDbEntity
  8
1
  6
Continuous
100
AcDbCircle
 10
196.5457630123943
 20
140.4566117556742
 30
0.0
 40
0.133433487183598
100
AcDbArc
 50
112.9131782731341
 51
176.5343568271383
  0
ARC
  5
1DAB
330
18
100
AcDbEntity
  8
1
  6
Continuous
100
AcDbCircle
 10
205.756139656016
 20
138.4172734346398
 30
0.0
 40
9.565254432220783
100
AcDbArc
 50
167.6404362037516
 51
182.023580334198
  0
LINE
  5
1DAC
330
18
100
AcDbEntity
  8
4
  6
CENTER
 48
0.2
100
AcDbLine
 10
205.6840781007887
 20
147.0795170641297
 30
0.0
 11
193.6611564916368
 21
147.0795170641297
 31
0.0
  0
ARC
  5
1DAE
330
18
100
AcDbEntity
  8
1
  6
Continuous
100
AcDbCircle
 10
196.7775353648313
 20
113.7024205441194
 30
0.0
 40
0.133433487183598
100
AcDbArc
 50
183.4656431728616
 51
247.0868217268658
  0
ARC
  5
1DB0
330
18
100
AcDbEntity
  8
1
  6
Continuous
100
AcDbCircle
 10
214.1082095058515
 20
117.7571739515266
 30
0.0
 40
17.93022682855705
100
AcDbArc
 50
177.3712966247229
 51
193.096424239834
  0
ARC
  5
1DB1
330
18
100
AcDbEntity
  8
1
  6
Continuous
100
AcDbCircle
 10
127.3594089871211
 20
263.3096652532851
 30
0.0
 40
0.5462082155252018
100
AcDbArc
 50
4.747778939070368
 51
93.46543175554881
  0
ARC
  5
1DB5
330
18
100
AcDbEntity
  8
1
  6
Continuous
100
AcDbCircle
 10
124.8282266588853
 20
263.6093615308452
 30
0.0
 40
0.2467168486443193
100
AcDbArc
 50
27.19814977931359
 51
84.33799162030178
  0
ARC
  5
1DB6
330
18
100
AcDbEntity
  8
1
  6
Continuous
100
AcDbCircle
 10
124.435706827539
 20
263.3706485157499
 30
0.0
 40
0.7057123538415682
100
AcDbArc
 50
358.7192377527801
 51
29.87104002388061
  0
LINE
  5
1DB7
330
18
100
AcDbEntity
  8
4
  6
CENTER
 48
0.2
100
AcDbLine
 10
122.3787427424154
 20
220.3143032892675
 30
0.0
 11
122.3787427424154
 21
266.8548746993103
 31
0.0
  0
ARC
  5
1DB8
330
18
100
AcDbEntity
  8
1
  6
Continuous
100
AcDbCircle
 10
121.328742692543
 20
263.5548746850611
 30
0.0
 40
0.3000000142492212
100
AcDbArc
 50
0.000000000000007
 51
90.00000000000325
  0
ARC
  5
1DB9
330
18
100
AcDbEntity
  8
1
  6
Continuous
100
AcDbCircle
 10
117.3980764977095
 20
263.3096652532851
 30
0.0
 40
0.5462082155252018
100
AcDbArc
 50
86.53456824445122
 51
175.2522210609296
  0
LINE
  5
1DBA
330
18
100
AcDbEntity
  8
1
  6
Continuous
100
AcDbLine
 10
121.328742692543
 20
263.8548746993103
 30
0.0
 11
117.4310927765362
 21
263.8548746993103
 31
0.0
  0
ARC
  5
1DBB
330
18
100
AcDbEntity
  8
1
  6
Continuous
100
AcDbCircle
 10
120.3217786572917
 20
263.3706485157499
 30
0.0
 40
0.7057123538415682
100
AcDbArc
 50
150.1289599761193
 51
181.2807622472197
  0
ARC
  5
1DBC
330
18
100
AcDbEntity
  8
1
  6
Continuous
100
AcDbCircle
 10
119.9292588259454
 20
263.6093615308452
 30
0.0
 40
0.2467168486443193
100
AcDbArc
 50
95.66200837969821
 51
152.8018502206863
  0
LINE
  5
1DBF
330
18
100
AcDbEntity
  8
1
  6
Continuous
100
AcDbLine
 10
121.6287427067923
 20
263.5548746850611
 30
0.0
 11
121.6287427067923
 21
261.3548745805667
 31
0.0
  0
LINE
  5
1DC0
330
18
100
AcDbEntity
  8
1
  6
Continuous
100
AcDbLine
 10
119.6162426112037
 20
263.3548746755616
 30
0.0
 11
119.6162426112037
 21
259.8548745093205
 31
0.0
  0
LINE
  5
1DC1
330
18
100
AcDbEntity
  8
1
  6
Continuous
100
AcDbLine
 10
116.8537424799919
 20
263.3548746755616
 30
0.0
 11
116.8537426243295
 21
259.8548745093205
 31
0.0
  0
LINE
  5
1DC2
330
18
100
AcDbEntity
  8
2
  6
Continuous
100
AcDbLine
 10
124.8582428730333
 20
258.0048755658595
 30
0.0
 11
124.8582428730333
 21
258.2048744309497
 31
0.0
  0
ARC
  5
1DC6
330
18
100
AcDbEntity
  8
1
  6
Continuous
100
AcDbCircle
 10
124.5424048160853
 20
257.7185670124435
 30
0.0
 40
0.7523673150226637
100
AcDbArc
 50
358.957282953143
 51
14.57971253756715
  0
ARC
  5
1DC7
330
18
100
AcDbEntity
  8
1
  6
Continuous
100
AcDbCircle
 10
125.1512151114041
 20
257.8929412422381
 30
0.0
 40
0.120270717721409
100
AcDbArc
 50
7.172529184605638
 51
68.54206802643812
  0
LINE
  5
1DC8
330
18
100
AcDbEntity
  8
2
  6
Continuous
100
AcDbLine
 10
119.8992426117974
 20
258.0048755658595
 30
0.0
 11
119.8992426117974
 21
258.2048744309497
 31
0.0
  0
ARC
  5
1DCA
330
18
100
AcDbEntity
  8
1
  6
Continuous
100
AcDbCircle
 10
120.2150806687454
 20
257.7185670124435
 30
0.0
 40
0.7523673150226637
100
AcDbArc
 50
165.4202874624328
 51
181.0427170468569
  0
ARC
  5
1DCB
330
18
100
AcDbEntity
  8
1
  6
Continuous
100
AcDbCircle
 10
118.6787425666748
 20
257.7048755516103
 30
0.0
 40
0.3000000142492318
100
AcDbArc
 50
89.99552887538362
 51
180.0000000000008
  0
LINE
  5
1DCD
330
18
100
AcDbEntity
  8
1
  6
Continuous
100
AcDbLine
 10
119.4628379415527
 20
257.7048755516103
 30
0.0
 11
119.4628379415527
 21
254.6048742388882
 31
0.0
  0
LINE
  5
1DCE
330
18
100
AcDbEntity
  8
1
  6
Continuous
100
AcDbLine
 10
118.3787425524255
 20
257.7048755516103
 30
0.0
 11
118.3787425524255
 21
254.6048742388882
 31
0.0
  0
ARC
  5
1DCF
330
18
100
AcDbEntity
  8
1
  6
Continuous
100
AcDbCircle
 10
119.6062703734267
 20
257.8929412422381
 30
0.0
 40
0.120270717721409
100
AcDbArc
 50
111.4579319735618
 51
172.8274708153943
  0
ARC
  5
1DD0
330
18
100
AcDbEntity
  8
1
  6
Continuous
100
AcDbCircle
 10
122.3787427420023
 20
7237.017441803502
 30
0.0
 40
7004.915498409913
100
AcDbArc
 50
269.8707142343713
 51
270.1292857656355
  0
ARC
  5
1DD3
330
18
100
AcDbEntity
  8
1
  6
Continuous
100
AcDbCircle
 10
140.2105429052947
 20
232.1100887214779
 30
0.0
 40
0.0255997669687548
100
AcDbArc
 50
342.8671407302002
 51
78.45818292369739
  0
ARC
  5
1DD6
330
18
100
AcDbEntity
  8
1
  6
Continuous
100
AcDbCircle
 10
139.9661935470319
 20
230.9027534989118
 30
0.0
 40
1.257413411004982
100
AcDbArc
 50
78.55656032286581
 51
90.68756589341585
  0
ARC
  5
1DD8
330
18
100
AcDbEntity
  8
1
  6
Continuous
100
AcDbCircle
 10
139.6036742465819
 20
210.3818093237119
 30
0.0
 40
21.78103816408254
100
AcDbArc
 50
89.08603363278112
 51
93.22392392672586
  0
ARC
  5
1DD9
330
18
100
AcDbEntity
  8
1
  6
Continuous
100
AcDbCircle
 10
139.3787184546323
 20
232.6190943143787
 30
0.0
 40
1.000025142762739
100
AcDbArc
 50
328.1738935443681
 51
359.9995900678392
  0
ARC
  5
1DDA
330
18
100
AcDbEntity
  8
1
  6
Continuous
100
AcDbCircle
 10
105.1538519226258
 20
210.3817676675718
 30
0.0
 40
21.78103816408254
100
AcDbArc
 50
86.77621463544133
 51
90.91410492938608
  0
ARC
  5
1DDB
330
18
100
AcDbEntity
  8
1
  6
Continuous
100
AcDbCircle
 10
104.7912829950225
 20
230.9027109660073
 30
0.0
 40
1.257413411004982
100
AcDbArc
 50
89.31257266875137
 51
101.4435782393014
  0
ARC
  5
1DDC
330
18
100
AcDbEntity
  8
1
  6
Continuous
100
AcDbCircle
 10
104.5469307169818
 20
232.1100455976437
 30
0.0
 40
0.0255997669687548
100
AcDbArc
 50
101.5419556384697
 51
197.1329978319669
  0
LINE
  5
1DDF
330
18
100
AcDbEntity
  8
4
  6
CENTER
 48
0.2
100
AcDbLine
 10
122.3787427424154
 20
77.55390162695372
 30
0.0
 11
122.3787427424154
 21
31.01333021691084
 31
0.0
  0
ARC
  5
1DE0
330
18
100
AcDbEntity
  8
1
  6
Continuous
100
AcDbCircle
 10
128.8287430487739
 20
39.2133304638976
 30
0.0
 40
0.3000000142492368
100
AcDbArc
 50
0.0000000000028638
 51
90.00000000000005
  0
ARC
  5
1DE1
330
18
100
AcDbEntity
  8
1
  6
Continuous
100
AcDbCircle
 10
115.9287424360568
 20
39.2133304638976
 30
0.0
 40
0.3000000142492368
100
AcDbArc
 50
90.00000000000005
 51
179.9999999999971
  0
LINE
  5
1DE2
330
18
100
AcDbEntity
  8
1
  6
Continuous
100
AcDbLine
 10
135.3787433598847
 20
70.66333157622267
 30
0.0
 11
109.3787421249516
 21
70.66333157622267
 31
0.0
  0
ARC
  5
1DE3
330
18
100
AcDbEntity
  8
1
  6
Continuous
100
AcDbCircle
 10
122.3787427420023
 20
-6939.149236887281
 30
0.0
 40
7004.915498409913
100
AcDbArc
 50
89.87071423436448
 51
90.12928576562869
  0
LINE
  5
1DE4
330
18
100
AcDbEntity
  8
1
  6
Continuous
100
AcDbLine
 10
104.3787418874612
 20
63.66333124374051
 30
0.0
 11
140.3787435973695
 21
63.66333124374047
 31
0.0
  0
LINE
  5
1DE6
330
18
100
AcDbEntity
  8
1
  6
Continuous
100
AcDbLine
 10
133.2823142173483
 20
72.43215116903352
 30
0.0
 11
131.9287431960161
 21
73.06333170213744
 31
0.0
  0
ARC
  5
1DE7
330
18
100
AcDbEntity
  8
1
  6
Continuous
100
AcDbCircle
 10
122.3787427424154
 20
149.665734783866
 30
0.0
 40
95.50240399135134
100
AcDbArc
 50
261.7869992752602
 51
278.2130007247398
  0
ARC
  5
1DE8
330
18
100
AcDbEntity
  8
1
  6
Continuous
100
AcDbCircle
 10
122.3787427424154
 20
149.6657347838652
 30
0.0
 40
97.50240408634514
100
AcDbArc
 50
261.7869992752602
 51
278.2130007247398
  0
LINE
  5
1DE9
330
18
100
AcDbEntity
  8
1
  6
Continuous
100
AcDbLine
 10
134.7535003312638
 20
59.6633310537507
 30
0.0
 11
110.0039848381431
 21
59.6633310537507
 31
0.0
  0
LINE
  5
1DED
330
18
100
AcDbEntity
  8
1
  6
Continuous
100
AcDbLine
 10
109.978742153447
 20
54.97175845210108
 30
0.0
 11
109.978742153447
 21
63.66333124374042
 31
0.0
  0
LINE
  5
1DEE
330
18
100
AcDbEntity
  8
1
  6
Continuous
100
AcDbLine
 10
107.8787420537023
 20
56.13256241248517
 30
0.0
 11
107.8787420537023
 21
62.96333121049224
 31
0.0
  0
LINE
  5
1DEF
330
18
100
AcDbEntity
  8
1
  6
Continuous
100
AcDbLine
 10
105.8787419587074
 20
56.13256241248517
 30
0.0
 11
105.8787419587074
 21
62.96333121049224
 31
0.0
  0
LINE
  5
1DF0
330
18
100
AcDbEntity
  8
1
  6
Continuous
100
AcDbLine
 10
104.6716351201864
 20
65.95622457145768
 30
0.0
 11
109.3787421249516
 21
70.66333157622267
 31
0.0
  0
ARC
  5
1DF1
330
18
100
AcDbEntity
  8
1
  6
Continuous
100
AcDbCircle
 10
104.5469307169818
 20
65.75815931857746
 30
0.0
 40
0.0255997669687548
100
AcDbArc
 50
162.867002168033
 51
258.4580443615302
  0
ARC
  5
1DF2
330
18
100
AcDbEntity
  8
1
  6
Continuous
100
AcDbCircle
 10
104.7912829950225
 20
66.96549395021387
 30
0.0
 40
1.257413411004982
100
AcDbArc
 50
258.5564217606985
 51
270.6874273312486
  0
ARC
  5
1DF3
330
18
100
AcDbEntity
  8
1
  6
Continuous
100
AcDbCircle
 10
105.1538519226258
 20
87.48643724864937
 30
0.0
 40
21.78103816408254
100
AcDbArc
 50
269.0858950706139
 51
273.2237853645586
  0
LINE
  5
1DF4
330
18
100
AcDbEntity
  8
1
  6
Continuous
100
AcDbLine
 10
104.3787418874612
 20
63.66333124374051
 30
0.0
 11
104.3787418874612
 21
65.24911775668822
 31
0.0
  0
LINE
  5
1DF5
330
18
100
AcDbEntity
  8
1
  6
Continuous
100
AcDbLine
 10
105.8787419587074
 20
62.96333121049224
 30
0.0
 11
107.8787420537023
 21
62.96333121049224
 31
0.0
  0
LINE
  5
1DF6
330
18
100
AcDbEntity
  8
1
  6
Continuous
100
AcDbLine
 10
105.8787419587074
 20
61.66333114874561
 30
0.0
 11
107.8787420537023
 21
61.66333114874561
 31
0.0
  0
LINE
  5
1DF7
330
18
100
AcDbEntity
  8
1
  6
Continuous
100
AcDbLine
 10
106.5724285152558
 20
65.74842833908829
 30
0.0
 11
106.3787419824564
 21
65.7398287789304
 31
0.0
  0
LINE
  5
1DF8
330
18
100
AcDbEntity
  8
1
  6
Continuous
100
AcDbLine
 10
104.5290931668682
 20
65.77646684964733
 30
0.0
 11
104.6716351201949
 21
65.95622457144864
 31
0.0
  0
ARC
  5
1DF9
330
18
100
AcDbEntity
  8
1
  6
Continuous
100
AcDbCircle
 10
105.3787419349588
 20
65.24911775668818
 30
0.0
 40
1.000000047497572
100
AcDbArc
 50
148.1734836121885
 51
179.9999999999922
  0
LINE
  5
1DFE
330
18
100
AcDbEntity
  8
1
  6
Continuous
100
AcDbLine
 10
111.3082767344236
 20
70.65887408386072
 30
0.0
 11
111.128742208069
 21
71.67706497916945
 31
0.0
  0
LINE
  5
1E01
330
18
100
AcDbEntity
  8
1
  6
Continuous
100
AcDbLine
 10
131.9287431960161
 20
73.06333170213747
 30
0.0
 11
112.8287422888146
 21
73.06333170213747
 31
0.0
  0
LINE
  5
1E02
330
18
100
AcDbEntity
  8
1
  6
Continuous
100
AcDbLine
 10
112.8287422888146
 20
73.06333170213747
 30
0.0
 11
111.4751712674824
 21
72.43215116903347
 31
0.0
  0
LINE
  5
1E03
330
18
100
AcDbEntity
  8
1
  6
Continuous
100
AcDbLine
 10
111.128742208069
 20
71.88836647098162
 30
0.0
 11
111.128742208069
 21
71.67706497916945
 31
0.0
  0
ARC
  5
1E04
330
18
100
AcDbEntity
  8
1
  6
Continuous
100
AcDbCircle
 10
111.7287422365675
 20
71.88836647098162
 30
0.0
 40
0.6000000284985063
100
AcDbArc
 50
114.999999999658
 51
179.9999999999996
  0
LINE
  5
1E05
330
18
100
AcDbEntity
  8
1
  6
Continuous
100
AcDbLine
 10
115.4787424146829
 20
73.06333170213747
 30
0.0
 11
115.4787424146829
 21
73.11446666948277
 31
0.0
  0
ARC
  5
1E07
330
18
100
AcDbEntity
  8
1
  6
Continuous
100
AcDbCircle
 10
122.3787494840507
 20
34.56324124427107
 30
0.0
 40
40.00009069498132
100
AcDbArc
 50
82.57458262673472
 51
97.42566070070552
  0
LINE
  5
1E08
330
18
100
AcDbEntity
  8
1
  6
Continuous
100
AcDbLine
 10
116.3274605665034
 20
74.10295737069688
 30
0.0
 11
117.2091490755684
 21
74.22786638082505
 31
0.0
  0
ARC
  5
1E09
330
18
100
AcDbEntity
  8
1
  6
Continuous
100
AcDbCircle
 10
116.4787424621804
 20
73.11446666106272
 30
0.0
 40
1.000000047497474
100
AcDbArc
 50
98.70316564760599
 51
179.9999995175669
  0
LINE
  5
1E0B
330
18
100
AcDbEntity
  8
1
  6
Continuous
100
AcDbLine
 10
129.2787430701478
 20
73.11446666948277
 30
0.0
 11
129.2787430701478
 21
73.06333170213747
 31
0.0
  0
LINE
  5
1E0E
330
18
100
AcDbEntity
  8
1
  6
Continuous
100
AcDbLine
 10
128.4302254515989
 20
74.10292665960333
 30
0.0
 11
128.4301894538574
 21
74.10292665960333
 31
0.0
  0
LINE
  5
1E0F
330
18
100
AcDbEntity
  8
1
  6
Continuous
100
AcDbLine
 10
128.4300249183273
 20
74.10295737069688
 30
0.0
 11
127.5481814421779
 21
74.22788833506245
 31
0.0
  0
ARC
  5
1E10
330
18
100
AcDbEntity
  8
1
  6
Continuous
100
AcDbCircle
 10
128.2787430226503
 20
73.11446666106275
 30
0.0
 40
1.000000047497474
100
AcDbArc
 50
0.0000004824318406
 51
81.28715515684152
  0
ARC
  5
1E15
330
18
100
AcDbEntity
  8
1
  6
Continuous
100
AcDbCircle
 10
108.8787421011998
 20
56.13256241248517
 30
0.0
 40
1.000000047497457
100
AcDbArc
 50
180.0000000000012
 51
261.7869992755365
  0
ARC
  5
1E16
330
18
100
AcDbEntity
  8
1
  6
Continuous
100
AcDbCircle
 10
108.8787421011998
 20
56.13256241248517
 30
0.0
 40
3.000000142492353
100
AcDbArc
 50
180.0000000000004
 51
261.7869992753424
  0
LINE
  5
1E1B
330
18
100
AcDbEntity
  8
1
  6
Continuous
100
AcDbLine
 10
118.6787659774296
 20
39.86332935126927
 30
0.0
 11
126.0787614859373
 21
39.86332935126927
 31
0.0
  0
LINE
  5
1E1C
330
18
100
AcDbEntity
  8
1
  6
Continuous
100
AcDbLine
 10
128.8287430487739
 20
39.5133304781466
 30
0.0
 11
115.9287424360568
 21
39.5133304781466
 31
0.0
  0
ARC
  5
1E1F
330
18
100
AcDbEntity
  8
1
  6
Continuous
100
AcDbCircle
 10
118.6787425666748
 20
40.16332936461089
 30
0.0
 40
0.3000000142492318
100
AcDbArc
 50
179.9999999999991
 51
270.0044711246163
  0
ARC
  5
1E20
330
18
100
AcDbEntity
  8
1
  6
Continuous
100
AcDbCircle
 10
119.6062703734267
 20
39.97526367398307
 30
0.0
 40
0.120270717721409
100
AcDbArc
 50
187.1725291846056
 51
248.5420680264381
  0
LINE
  5
1E21
330
18
100
AcDbEntity
  8
1
  6
Continuous
100
AcDbLine
 10
118.3787425524255
 20
40.16332936461089
 30
0.0
 11
118.3787425524255
 21
43.26333067733297
 31
0.0
  0
LINE
  5
1E22
330
18
100
AcDbEntity
  8
1
  6
Continuous
100
AcDbLine
 10
119.4628379415527
 20
40.16332936461089
 30
0.0
 11
119.4628379415527
 21
43.26333067733297
 31
0.0
  0
ARC
  5
1E23
330
18
100
AcDbEntity
  8
1
  6
Continuous
100
AcDbCircle
 10
120.2150806687454
 20
40.14963790377771
 30
0.0
 40
0.7523673150226637
100
AcDbArc
 50
178.9572829531429
 51
194.5797125375671
  0
LINE
  5
1E24
330
18
100
AcDbEntity
  8
1
  6
Continuous
100
AcDbLine
 10
119.6287426117974
 20
39.86332935036165
 30
0.0
 11
119.6287426117974
 21
39.66333048527144
 31
0.0
  0
LINE
  5
1E25
330
18
100
AcDbEntity
  8
2
  6
Continuous
100
AcDbLine
 10
119.8992426117974
 20
39.86332935036165
 30
0.0
 11
119.8992426117974
 21
39.66333048527144
 31
0.0
  0
LINE
  5
1E26
330
18
100
AcDbEntity
  8
1
  6
Continuous
100
AcDbLine
 10
115.9287425315758
 20
39.51333047814677
 30
0.0
 11
115.9287425315758
 21
39.66333048527143
 31
0.0
  0
LINE
  5
1E27
330
18
100
AcDbEntity
  8
1
  6
Continuous
100
AcDbLine
 10
119.6528548650836
 20
39.51333047812164
 30
0.0
 11
119.6528548650836
 21
39.66333048527144
 31
0.0
  0
LINE
  5
1E28
330
18
100
AcDbEntity
  8
1
  6
Continuous
100
AcDbLine
 10
118.6791746070185
 20
39.5133304781213
 30
0.0
 11
118.6791746070185
 21
39.66333048527144
 31
0.0
  0
LINE
  5
1E29
330
18
100
AcDbEntity
  8
1
  6
Continuous
100
AcDbLine
 10
117.0952118840416
 20
39.51333047812216
 30
0.0
 11
117.0952118840416
 21
39.66333048527144
 31
0.0
  0
LINE
  5
1E2A
330
18
100
AcDbEntity
  8
1
  6
Continuous
100
AcDbLine
 10
117.8179038546761
 20
39.51333047812136
 30
0.0
 11
117.8179038546761
 21
39.66333048527144
 31
0.0
  0
LINE
  5
1E2C
330
18
100
AcDbEntity
  8
1
  6
Continuous
100
AcDbLine
 10
116.1485209591954
 20
39.51333047812204
 30
0.0
 11
116.1485209591954
 21
39.66333048527144
 31
0.0
  0
LINE
  5
1E2D
330
18
100
AcDbEntity
  8
1
  6
Continuous
100
AcDbLine
 10
116.5330573249434
 20
39.51333047812216
 30
0.0
 11
116.5330573249434
 21
39.66333048527144
 31
0.0
  0
LINE
  5
1E2E
330
18
100
AcDbEntity
  8
1
  6
Continuous
100
AcDbLine
 10
120.6882696151594
 20
39.51333047814682
 30
0.0
 11
120.6882696151594
 21
39.66333048527144
 31
0.0
  0
ARC
  5
1E35
330
18
100
AcDbEntity
  8
1
  6
Continuous
100
AcDbCircle
 10
125.1512151114041
 20
39.97526367398307
 30
0.0
 40
0.120270717721409
100
AcDbArc
 50
291.4579319735618
 51
352.8274708153944
  0
ARC
  5
1E36
330
18
100
AcDbEntity
  8
1
  6
Continuous
100
AcDbCircle
 10
124.5424048160853
 20
40.14963790377771
 30
0.0
 40
0.7523673150226637
100
AcDbArc
 50
345.4202874624328
 51
1.042717046856979
  0
LINE
  5
1E37
330
18
100
AcDbEntity
  8
2
  6
Continuous
100
AcDbLine
 10
124.8582428730333
 20
39.86332935036165
 30
0.0
 11
124.8582428730333
 21
39.66333048527144
 31
0.0
  0
LINE
  5
1E38
330
18
100
AcDbEntity
  8
1
  6
Continuous
100
AcDbLine
 10
115.9287425315758
 20
39.66333048527143
 30
0.0
 11
122.0301197548661
 21
39.66333048527143
 31
0.0
  0
LINE
  5
1E39
330
18
100
AcDbEntity
  8
1
  6
Continuous
100
AcDbLine
 10
122.7273657299646
 20
39.51333047814682
 30
0.0
 11
122.7273657299646
 21
39.66333048527144
 31
0.0
  0
ARC
  5
1E3A
330
18
100
AcDbEntity
  8
1
  6
Continuous
100
AcDbCircle
 10
126.0787429181559
 20
40.16332936461089
 30
0.0
 40
0.3000000142492318
100
AcDbArc
 50
270.0
 51
0.0000000000008283
  0
LINE
  5
1E3B
330
18
100
AcDbEntity
  8
1
  6
Continuous
100
AcDbLine
 10
122.9408973015136
 20
39.5133304781466
 30
0.0
 11
122.9408973015136
 21
39.66333048527144
 31
0.0
  0
LINE
  5
1E3C
330
18
100
AcDbEntity
  8
1
  6
Continuous
100
AcDbLine
 10
122.0301197548661
 20
39.51333047814682
 30
0.0
 11
122.0301197548661
 21
39.66333048527143
 31
0.0
  0
LINE
  5
1E3D
330
18
100
AcDbEntity
  8
1
  6
Continuous
100
AcDbLine
 10
121.816588183317
 20
39.51333047814671
 30
0.0
 11
121.816588183317
 21
39.66333048527144
 31
0.0
  0
LINE
  5
1E3E
330
18
100
AcDbEntity
  8
1
  6
Continuous
100
AcDbLine
 10
125.1046306197474
 20
39.51333047812204
 30
0.0
 11
125.1046306197474
 21
39.66333048527144
 31
0.0
  0
LINE
  5
1E3F
330
18
100
AcDbEntity
  8
1
  6
Continuous
100
AcDbLine
 10
124.0692158696715
 20
39.51333047814682
 30
0.0
 11
124.0692158696715
 21
39.66333048527144
 31
0.0
  0
LINE
  5
1E40
330
18
100
AcDbEntity
  8
1
  6
Continuous
100
AcDbLine
 10
126.0783108778124
 20
39.51333047812193
 30
0.0
 11
126.0783108778124
 21
39.66333048527144
 31
0.0
  0
LINE
  5
1E41
330
18
100
AcDbEntity
  8
1
  6
Continuous
100
AcDbLine
 10
125.1287428730333
 20
39.86332935036165
 30
0.0
 11
125.1287428730333
 21
39.66333048527144
 31
0.0
  0
LINE
  5
1E42
330
18
100
AcDbEntity
  8
1
  6
Continuous
100
AcDbLine
 10
127.6622736007896
 20
39.51333047812136
 30
0.0
 11
127.6622736007896
 21
39.66333048527144
 31
0.0
  0
LINE
  5
1E43
330
18
100
AcDbEntity
  8
1
  6
Continuous
100
AcDbLine
 10
126.9395816301546
 20
39.51333047812193
 30
0.0
 11
126.9395816301546
 21
39.66333048527144
 31
0.0
  0
LINE
  5
1E44
330
18
100
AcDbEntity
  8
1
  6
Continuous
100
AcDbLine
 10
128.2244281598873
 20
39.51333047812136
 30
0.0
 11
128.2244281598873
 21
39.66333048527144
 31
0.0
  0
LINE
  5
1E45
330
18
100
AcDbEntity
  8
1
  6
Continuous
100
AcDbLine
 10
128.608964525635
 20
39.51333047812159
 30
0.0
 11
128.608964525635
 21
39.66333048527144
 31
0.0
  0
LINE
  5
1E46
330
18
100
AcDbEntity
  8
1
  6
Continuous
100
AcDbLine
 10
128.8287429532549
 20
39.66333048527144
 30
0.0
 11
128.8287429532549
 21
39.51333047814677
 31
0.0
  0
LINE
  5
1E4C
330
18
100
AcDbEntity
  8
1
  6
Continuous
100
AcDbLine
 10
125.294647543278
 20
40.16332936461089
 30
0.0
 11
125.294647543278
 21
43.26333067733297
 31
0.0
  0
LINE
  5
1E4D
330
18
100
AcDbEntity
  8
1
  6
Continuous
100
AcDbLine
 10
126.3787429324052
 20
40.16332936461089
 30
0.0
 11
126.3787429324052
 21
43.26333067733297
 31
0.0
  0
LINE
  5
1E4E
330
18
100
AcDbEntity
  8
1
  6
Continuous
100
AcDbLine
 10
134.7787433313837
 20
63.66333124374039
 30
0.0
 11
134.7787433313837
 21
54.97175845210108
 31
0.0
  0
LINE
  5
1E4F
330
18
100
AcDbEntity
  8
1
  6
Continuous
100
AcDbLine
 10
138.8787435261233
 20
62.96333121049228
 30
0.0
 11
138.8787435261233
 21
56.13256241248517
 31
0.0
  0
LINE
  5
1E50
330
18
100
AcDbEntity
  8
1
  6
Continuous
100
AcDbLine
 10
136.8787434311283
 20
62.96333121049233
 30
0.0
 11
136.8787434311284
 21
56.13256241248517
 31
0.0
  0
LINE
  5
1E51
330
18
100
AcDbEntity
  8
1
  6
Continuous
100
AcDbLine
 10
133.6287432767571
 20
71.67706497917151
 30
0.0
 11
133.44961620436
 21
70.66118487008407
 31
0.0
  0
LINE
  5
1E52
330
18
100
AcDbEntity
  8
1
  6
Continuous
100
AcDbLine
 10
133.6287432767617
 20
71.67706497916945
 30
0.0
 11
133.6287432767617
 21
71.88836647098162
 31
0.0
  0
ARC
  5
1E53
330
18
100
AcDbEntity
  8
1
  6
Continuous
100
AcDbCircle
 10
133.0287432482629
 20
71.88836647098319
 30
0.0
 40
0.6000000284996462
100
AcDbArc
 50
359.9999999998319
 51
65.00000000030954
  0
ARC
  5
1E54
330
18
100
AcDbEntity
  8
1
  6
Continuous
100
AcDbCircle
 10
140.2105429052947
 20
65.75811619474322
 30
0.0
 40
0.0255997669687548
100
AcDbArc
 50
281.5418170763027
 51
17.13285926979973
  0
ARC
  5
1E55
330
18
100
AcDbEntity
  8
1
  6
Continuous
100
AcDbCircle
 10
139.3787184546323
 20
65.24911060184243
 30
0.0
 40
1.000025142762739
100
AcDbArc
 50
0.0004099321608109
 51
31.8261064556318
  0
ARC
  5
1E56
330
18
100
AcDbEntity
  8
1
  6
Continuous
100
AcDbCircle
 10
139.6036742465819
 20
87.48639559250923
 30
0.0
 40
21.78103816408254
100
AcDbArc
 50
266.7760760732741
 51
270.9139663672188
  0
ARC
  5
1E57
330
18
100
AcDbEntity
  8
1
  6
Continuous
100
AcDbCircle
 10
139.9661935470319
 20
66.96545141730936
 30
0.0
 40
1.257413411004982
100
AcDbArc
 50
269.3124341065841
 51
281.4434396771341
  0
LINE
  5
1E58
330
18
100
AcDbEntity
  8
1
  6
Continuous
100
AcDbLine
 10
140.3787435973695
 20
63.66333124374047
 30
0.0
 11
140.3787435973695
 21
65.24911775668822
 31
0.0
  0
LINE
  5
1E59
330
18
100
AcDbEntity
  8
1
  6
Continuous
100
AcDbLine
 10
138.8787435261233
 20
62.96333121049228
 30
0.0
 11
136.8787434311283
 21
62.96333121049233
 31
0.0
  0
LINE
  5
1E5A
330
18
100
AcDbEntity
  8
1
  6
Continuous
100
AcDbLine
 10
138.8787435261233
 20
61.66333114874561
 30
0.0
 11
136.8787434311283
 21
61.66333114874561
 31
0.0
  0
LINE
  5
1E5B
330
18
100
AcDbEntity
  8
1
  6
Continuous
100
AcDbLine
 10
140.085850364646
 20
65.95622457145886
 30
0.0
 11
135.3787433598822
 21
70.66333157622267
 31
0.0
  0
LINE
  5
1E5C
330
18
100
AcDbEntity
  8
1
  6
Continuous
100
AcDbLine
 10
138.3787435023745
 20
65.73982877893806
 30
0.0
 11
138.1850569695749
 21
65.74842833909503
 31
0.0
  0
LINE
  5
1E5D
330
18
100
AcDbEntity
  8
1
  6
Continuous
100
AcDbLine
 10
140.085850364646
 20
65.95622457145879
 30
0.0
 11
140.2283923179759
 21
65.77646684965646
 31
0.0
  0
ARC
  5
1E5F
330
18
100
AcDbEntity
  8
1
  6
Continuous
100
AcDbCircle
 10
135.8787433836309
 20
56.13256241248517
 30
0.0
 40
3.000000142492365
100
AcDbArc
 50
278.2130007246576
 51
0.0
  0
ARC
  5
1E60
330
18
100
AcDbEntity
  8
1
  6
Continuous
100
AcDbCircle
 10
135.8787433836309
 20
56.13256241248517
 30
0.0
 40
1.000000047497442
100
AcDbArc
 50
278.2130007244634
 51
0.0
  0
LINE
  5
1E64
330
18
100
AcDbEntity
  8
1
  6
Continuous
100
AcDbLine
 10
129.1287430630231
 20
38.51333043064937
 30
0.0
 11
115.6287424218076
 21
38.51333043064937
 31
0.0
  0
LINE
  5
1E65
330
18
100
AcDbEntity
  8
1
  6
Continuous
100
AcDbLine
 10
128.5162430339308
 20
38.01333040690065
 30
0.0
 11
116.2412424508997
 21
38.01333040690065
 31
0.0
  0
LINE
  5
1E66
330
18
100
AcDbEntity
  8
1
  6
Continuous
100
AcDbLine
 10
123.1287427780384
 20
36.51333033565447
 30
0.0
 11
121.6287427067923
 21
36.51333033565447
 31
0.0
  0
LINE
  5
1E67
330
18
100
AcDbEntity
  8
1
  6
Continuous
100
AcDbLine
 10
116.2412424508997
 20
38.01333040690065
 30
0.0
 11
115.6287424218076
 21
38.51333043064937
 31
0.0
  0
LINE
  5
1E68
330
18
100
AcDbEntity
  8
1
  6
Continuous
100
AcDbLine
 10
116.8537424799919
 20
34.51333024065957
 30
0.0
 11
116.8537426243295
 21
38.01333040690065
 31
0.0
  0
LINE
  5
1E69
330
18
100
AcDbEntity
  8
1
  6
Continuous
100
AcDbLine
 10
119.6162426112037
 20
34.51333024065957
 30
0.0
 11
119.6162426112037
 21
38.01333040690065
 31
0.0
  0
LINE
  5
1E6A
330
18
100
AcDbEntity
  8
1
  6
Continuous
100
AcDbLine
 10
121.6287427067923
 20
34.31333023116008
 30
0.0
 11
121.6287427067923
 21
36.51333033565447
 31
0.0
  0
ARC
  5
1E6B
330
18
100
AcDbEntity
  8
1
  6
Continuous
100
AcDbCircle
 10
119.9292588259454
 20
34.25884338537594
 30
0.0
 40
0.2467168486443193
100
AcDbArc
 50
207.1981497793136
 51
264.3379916203017
  0
ARC
  5
1E6C
330
18
100
AcDbEntity
  8
1
  6
Continuous
100
AcDbCircle
 10
120.3217786572917
 20
34.49755640047124
 30
0.0
 40
0.7057123538415682
100
AcDbArc
 50
178.7192377527802
 51
209.8710400238806
  0
LINE
  5
1E6D
330
18
100
AcDbEntity
  8
1
  6
Continuous
100
AcDbLine
 10
121.328742692543
 20
34.01333021691084
 30
0.0
 11
117.4310927765362
 21
34.01333021691084
 31
0.0
  0
ARC
  5
1E6E
330
18
100
AcDbEntity
  8
1
  6
Continuous
100
AcDbCircle
 10
117.3980764977095
 20
34.55853966293608
 30
0.0
 40
0.5462082155252018
100
AcDbArc
 50
184.7477789390703
 51
273.4654317555487
  0
ARC
  5
1E6F
330
18
100
AcDbEntity
  8
1
  6
Continuous
100
AcDbCircle
 10
121.328742692543
 20
34.31333023116008
 30
0.0
 40
0.3000000142492212
100
AcDbArc
 50
269.9999999999967
 51
0.0
  0
LINE
  5
1E71
330
18
100
AcDbEntity
  8
1
  6
Continuous
100
AcDbLine
 10
115.6287424218076
 20
38.51333043064937
 30
0.0
 11
115.6287424218076
 21
39.2133304638976
 31
0.0
  0
ARC
  5
1E73
330
18
100
AcDbEntity
  8
1
  6
Continuous
100
AcDbCircle
 10
123.4287427922877
 20
34.31333023116008
 30
0.0
 40
0.3000000142492212
100
AcDbArc
 50
180.0
 51
270.0000000000032
  0
LINE
  5
1E74
330
18
100
AcDbEntity
  8
1
  6
Continuous
100
AcDbLine
 10
123.1287427780384
 20
34.31333023116008
 30
0.0
 11
123.1287427780384
 21
36.51333033565447
 31
0.0
  0
ARC
  5
1E75
330
18
100
AcDbEntity
  8
1
  6
Continuous
100
AcDbCircle
 10
127.3594089871211
 20
34.55853966293608
 30
0.0
 40
0.5462082155252018
100
AcDbArc
 50
266.5345682444512
 51
355.2522210609296
  0
LINE
  5
1E76
330
18
100
AcDbEntity
  8
1
  6
Continuous
100
AcDbLine
 10
123.4287427922877
 20
34.01333021691084
 30
0.0
 11
127.3263927082945
 21
34.01333021691084
 31
0.0
  0
ARC
  5
1E77
330
18
100
AcDbEntity
  8
1
  6
Continuous
100
AcDbCircle
 10
124.435706827539
 20
34.49755640047124
 30
0.0
 40
0.7057123538415682
100
AcDbArc
 50
330.1289599761193
 51
1.280762247219727
  0
ARC
  5
1E78
330
18
100
AcDbEntity
  8
1
  6
Continuous
100
AcDbCircle
 10
124.8282266588853
 20
34.25884338537594
 30
0.0
 40
0.2467168486443193
100
AcDbArc
 50
275.6620083796982
 51
332.8018502206864
  0
LINE
  5
1E79
330
18
100
AcDbEntity
  8
1
  6
Continuous
100
AcDbLine
 10
125.141242873627
 20
34.51333024065957
 30
0.0
 11
125.141242873627
 21
38.01333040690065
 31
0.0
  0
LINE
  5
1E7A
330
18
100
AcDbEntity
  8
1
  6
Continuous
100
AcDbLine
 10
127.9037430048388
 20
34.51333024065957
 30
0.0
 11
127.9037428605012
 21
38.01333040690065
 31
0.0
  0
LINE
  5
1E7B
330
18
100
AcDbEntity
  8
1
  6
Continuous
100
AcDbLine
 10
129.1287430630231
 20
39.2133304638976
 30
0.0
 11
129.1287430630231
 21
38.51333043064937
 31
0.0
  0
LINE
  5
1E7C
330
18
100
AcDbEntity
  8
1
  6
Continuous
100
AcDbLine
 10
129.1287430630231
 20
38.51333043064937
 30
0.0
 11
128.516120533931
 21
38.01323040690061
 31
0.0
  0
LINE
  5
1E7D
330
18
100
AcDbEntity
  8
1
  6
Continuous
100
AcDbLine
 10
111.2722253583348
 20
70.86333159764286
 30
0.0
 11
133.485260126493
 21
70.86333159764286
 31
0.0
  0
LINE
  5
1E7E
330
18
100
AcDbEntity
  8
1
  6
Continuous
100
AcDbLine
 10
112.8787422911896
 20
70.86333159764308
 30
0.0
 11
112.8887422922607
 21
70.66333157622264
 31
0.0
  0
LINE
  5
1E7F
330
18
100
AcDbEntity
  8
1
  6
Continuous
100
AcDbLine
 10
131.8787431936411
 20
70.86333159764308
 30
0.0
 11
131.8687431933614
 21
70.66333157622264
 31
0.0
  0
LINE
  5
1E80
330
18
100
AcDbEntity
  8
1
  6
Continuous
100
AcDbLine
 10
109.978742153447
 20
52.95503843640577
 30
0.0
 11
109.978742153447
 21
46.96333045053322
 31
0.0
  0
ARC
  5
1E81
330
18
100
AcDbEntity
  8
1
  6
Continuous
100
AcDbCircle
 10
111.9787422484419
 20
49.66333057877619
 30
0.0
 40
2.000000094994919
100
AcDbArc
 50
180.000000000002
 51
270.0
  0
LINE
  5
1E82
330
18
100
AcDbEntity
  8
1
  6
Continuous
100
AcDbLine
 10
132.7786273550487
 20
47.6633304871384
 30
0.0
 11
111.9786263685301
 21
47.66333048713835
 31
0.0
  0
LINE
  5
1E83
330
18
100
AcDbEntity
  8
1
  6
Continuous
100
AcDbLine
 10
116.8602303231152
 20
46.96333045053322
 30
0.0
 11
109.978742153447
 21
46.96333045053322
 31
0.0
  0
LINE
  5
1E85
330
18
100
AcDbEntity
  8
1
  6
Continuous
100
AcDbLine
 10
117.6334679556999
 20
46.51333081062893
 30
0.0
 11
117.6334679556999
 21
45.46333037928678
 31
0.0
  0
LINE
  5
1E92
330
18
100
AcDbEntity
  8
1
  6
Continuous
100
AcDbLine
 10
127.3263927082452
 20
46.51333081062893
 30
0.0
 11
123.4287427922877
 21
46.51333081062893
 31
0.0
  0
LINE
  5
1E93
330
18
100
AcDbEntity
  8
1
  6
Continuous
100
AcDbLine
 10
127.1240175291308
 20
45.46333037928675
 30
0.0
 11
112.3787422674408
 21
45.46333037928671
 31
0.0
  0
LINE
  5
1E94
330
18
100
AcDbEntity
  8
1
  6
Continuous
100
AcDbLine
 10
110.9226359951395
 20
45.26333075125712
 30
0.0
 11
110.9226359951395
 21
46.86333082725304
 31
0.0
  0
LINE
  5
1E95
330
18
100
AcDbEntity
  8
1
  6
Continuous
100
AcDbLine
 10
112.3787422674408
 20
46.96333045053323
 30
0.0
 11
112.3787422674408
 21
45.46333037928571
 31
0.0
  0
LINE
  5
1E97
330
18
100
AcDbEntity
  8
1
  6
Continuous
100
AcDbLine
 10
118.3787425524255
 20
45.26333075125712
 30
0.0
 11
118.3787425524255
 21
45.46332961634738
 31
0.0
  0
LINE
  5
1E98
330
18
100
AcDbEntity
  8
1
  6
Continuous
100
AcDbLine
 10
113.047559020844
 20
45.26333075125712
 30
0.0
 11
113.047559020844
 21
45.46333037928571
 31
0.0
  0
LINE
  5
1E99
330
18
100
AcDbEntity
  8
1
  6
Continuous
100
AcDbLine
 10
119.4628379415526
 20
45.26333075125712
 30
0.0
 11
119.4628379415526
 21
45.46332961634738
 31
0.0
  0
LINE
  5
1E9A
330
18
100
AcDbEntity
  8
1
  6
Continuous
100
AcDbLine
 10
110.9226359951395
 20
46.86333082725304
 30
0.0
 11
112.3787422674408
 21
46.86333082725304
 31
0.0
  0
ARC
  5
1E9C
330
18
100
AcDbEntity
  8
1
  6
Continuous
100
AcDbCircle
 10
123.4287427922877
 20
46.81333082487818
 30
0.0
 40
0.3000000142492354
100
AcDbArc
 50
180.0
 51
270.0
  0
LINE
  5
1E9E
330
18
100
AcDbEntity
  8
1
  6
Continuous
100
AcDbLine
 10
127.1240175291308
 20
46.51333081062893
 30
0.0
 11
127.1240175291308
 21
45.26333075125712
 31
0.0
  0
LINE
  5
1E9F
330
18
100
AcDbEntity
  8
1
  6
Continuous
100
AcDbLine
 10
125.294647543278
 20
45.26333075125712
 30
0.0
 11
125.294647543278
 21
45.46332961634738
 31
0.0
  0
LINE
  5
1EA1
330
18
100
AcDbEntity
  8
1
  6
Continuous
100
AcDbLine
 10
126.2438455928849
 20
45.26333075125712
 30
0.0
 11
126.2438455928849
 21
45.46333037928678
 31
0.0
  0
LINE
  5
1EA6
330
18
100
AcDbEntity
  8
1
  6
Continuous
100
AcDbLine
 10
127.1240175291308
 20
45.26333075125712
 30
0.0
 11
109.978742153447
 21
45.26333075125712
 31
0.0
  0
LINE
  5
1EA7
330
18
100
AcDbEntity
  8
1
  6
Continuous
100
AcDbLine
 10
109.978742153447
 20
45.26333075125712
 30
0.0
 11
109.978742153447
 21
43.76333068001094
 31
0.0
  0
ARC
  5
1EA9
330
18
100
AcDbEntity
  8
1
  6
Continuous
100
AcDbCircle
 10
110.4787421771957
 20
43.76333068001094
 30
0.0
 40
0.5000000237487347
100
AcDbArc
 50
180.0000000000007
 51
270.0202159881354
  0
LINE
  5
1EAA
330
18
100
AcDbEntity
  8
1
  6
Continuous
100
AcDbLine
 10
134.2789197254947
 20
43.26333068738549
 30
0.0
 11
110.4789185949776
 21
43.26333068738546
 31
0.0
  0
LINE
  5
1EAB
330
18
100
AcDbEntity
  8
1
  6
Continuous
100
AcDbLine
 10
133.8348494896912
 20
45.26333075125712
 30
0.0
 11
133.8348494896912
 21
46.86333082725304
 31
0.0
  0
LINE
  5
1EAC
330
18
100
AcDbEntity
  8
1
  6
Continuous
100
AcDbLine
 10
134.7787433313837
 20
45.26333075125712
 30
0.0
 11
133.8348494896912
 21
45.26333075125712
 31
0.0
  0
ARC
  5
1EAD
330
18
100
AcDbEntity
  8
1
  6
Continuous
100
AcDbCircle
 10
134.2787433076351
 20
43.76333068001094
 30
0.0
 40
0.5000000237487347
100
AcDbArc
 50
270.0202159972442
 51
359.9999999999987
  0
LINE
  5
1EAE
330
18
100
AcDbEntity
  8
1
  6
Continuous
100
AcDbLine
 10
134.7787433313837
 20
43.76333068001094
 30
0.0
 11
134.7787433313837
 21
45.26333075125712
 31
0.0
  0
ARC
  5
1EAF
330
18
100
AcDbEntity
  8
1
  6
Continuous
100
AcDbCircle
 10
132.7787432363888
 20
49.66333057877619
 30
0.0
 40
2.000000094994886
100
AcDbArc
 50
269.9966802442991
 51
359.9999999999978
  0
LINE
  5
1EB0
330
18
100
AcDbEntity
  8
1
  6
Continuous
100
AcDbLine
 10
134.7787433313837
 20
46.96333045052996
 30
0.0
 11
127.8972551617149
 21
46.96333045052996
 31
0.0
  0
LINE
  5
1EB1
330
18
100
AcDbEntity
  8
1
  6
Continuous
100
AcDbLine
 10
127.8695429826363
 20
46.86333082725304
 30
0.0
 11
133.8348494896912
 21
46.86333082725304
 31
0.0
  0
LINE
  5
1EB3
330
18
100
AcDbEntity
  8
1
  6
Continuous
100
AcDbLine
 10
134.7787433313837
 20
46.96333045052996
 30
0.0
 11
134.7787433313837
 21
52.95503843640574
 31
0.0
  0
LINE
  5
1EB4
330
18
100
AcDbEntity
  8
1
  6
Continuous
100
AcDbLine
 10
123.1287427780384
 20
47.66333048378125
 30
0.0
 11
123.1287427780384
 21
46.81333082487818
 31
0.0
  0
LINE
  5
1EB5
330
18
100
AcDbEntity
  8
1
  6
Continuous
100
AcDbLine
 10
125.1412428736271
 20
47.01333083437766
 30
0.0
 11
125.1412428736271
 21
47.66333049661585
 31
0.0
  0
LINE
  5
1EB6
330
18
100
AcDbEntity
  8
1
  6
Continuous
100
AcDbLine
 10
127.9037430048388
 20
47.01333083437766
 30
0.0
 11
127.9037430048388
 21
47.66333048378125
 31
0.0
  0
ARC
  5
1EB9
330
18
100
AcDbEntity
  8
1
  6
Continuous
100
AcDbCircle
 10
127.359408987121
 20
47.05854025665451
 30
0.0
 40
0.5462082155255558
100
AcDbArc
 50
266.5345682393069
 51
355.2522210608966
  0
ARC
  5
1EBA
330
18
100
AcDbEntity
  8
1
  6
Continuous
100
AcDbCircle
 10
124.6878483259908
 20
46.94176494933734
 30
0.0
 40
0.459007942989964
100
AcDbArc
 50
291.0301756656996
 51
8.96982433503298
  0
LINE
  5
1EBB
330
18
100
AcDbEntity
  8
1
  6
Continuous
100
AcDbLine
 10
121.6287427067923
 20
47.66333048378125
 30
0.0
 11
121.6287427067923
 21
46.81333082487818
 31
0.0
  0
ARC
  5
1EBC
330
18
100
AcDbEntity
  8
1
  6
Continuous
100
AcDbCircle
 10
121.328742692543
 20
46.81333082487818
 30
0.0
 40
0.3000000142492354
100
AcDbArc
 50
270.0
 51
0.000000000000007
  0
ARC
  5
1EBD
330
18
100
AcDbEntity
  8
1
  6
Continuous
100
AcDbCircle
 10
117.3980764977097
 20
47.05854025665451
 30
0.0
 40
0.5462082155255558
100
AcDbArc
 50
184.7477789391033
 51
273.465431760693
  0
LINE
  5
1EBE
330
18
100
AcDbEntity
  8
1
  6
Continuous
100
AcDbLine
 10
117.4310927765855
 20
46.51333081062893
 30
0.0
 11
121.328742692543
 21
46.51333081062893
 31
0.0
  0
ARC
  5
1EBF
330
18
100
AcDbEntity
  8
1
  6
Continuous
100
AcDbCircle
 10
120.0696371588399
 20
46.94176494933734
 30
0.0
 40
0.459007942989964
100
AcDbArc
 50
171.030175664967
 51
248.9698243343003
  0
LINE
  5
1EC0
330
18
100
AcDbEntity
  8
1
  6
Continuous
100
AcDbLine
 10
116.8537424799919
 20
47.01333083437766
 30
0.0
 11
116.8537424799919
 21
47.66333048378125
 31
0.0
  0
LINE
  5
1EC1
330
18
100
AcDbEntity
  8
1
  6
Continuous
100
AcDbLine
 10
119.6162426112036
 20
47.01333083437766
 30
0.0
 11
119.6162426112036
 21
47.66333049661585
 31
0.0
  0
LINE
  5
1EC5
330
18
100
AcDbEntity
  8
1
  6
Continuous
100
AcDbLine
 10
35.22340705868433
 20
160.6540620132759
 30
0.0
 11
35.22340705868446
 21
166.0442418202107
 31
0.0
  0
LINE
  5
1EC6
330
18
100
AcDbEntity
  8
1
  6
Continuous
100
AcDbLine
 10
35.07340705155991
 20
160.6295177434351
 30
0.0
 11
35.07340705155991
 21
173.5295183561523
 31
0.0
  0
LINE
  5
1EC7
330
18
100
AcDbEntity
  8
1
  6
Continuous
100
AcDbLine
 10
33.57340698031373
 20
173.2170183413093
 30
0.0
 11
34.07340700406246
 21
173.8295183704015
 31
0.0
  0
LINE
  5
1EC8
330
18
100
AcDbEntity
  8
1
  6
Continuous
100
AcDbLine
 10
57.22340772215876
 20
134.5795165061265
 30
0.0
 11
57.22340772215876
 21
174.0795183822758
 31
0.0
  0
LINE
  5
1EC9
330
18
100
AcDbEntity
  8
1
  6
Continuous
100
AcDbLine
 10
66.2234081496361
 20
180.0795186672601
 30
0.0
 11
66.22340814963459
 21
116.5795156511686
 31
0.0
  0
LINE
  5
1ECA
330
18
100
AcDbEntity
  8
1
  6
Continuous
100
AcDbLine
 10
68.62340827555067
 20
107.6795152284451
 30
0.0
 11
68.62340827555067
 21
175.374245661072
 31
0.0
  0
LINE
  5
1ECB
330
18
100
AcDbEntity
  8
1
  6
Continuous
100
AcDbLine
 10
59.22340781715369
 20
187.0795189997427
 30
0.0
 11
59.22340781715369
 21
107.0795151999466
 31
0.0
  0
LINE
  5
1ECC
330
18
100
AcDbEntity
  8
1
  6
Continuous
100
AcDbLine
 10
34.07340700406246
 20
160.3295177291859
 30
0.0
 11
34.07340700406246
 21
173.8295183704015
 31
0.0
  0
LINE
  5
1ECD
330
18
100
AcDbEntity
  8
1
  6
Continuous
100
AcDbLine
 10
48.56063517074085
 20
159.3295176816884
 30
0.0
 11
48.56063517074085
 21
174.8295184178989
 31
0.0
  0
LINE
  5
1ECE
330
18
100
AcDbEntity
  8
1
  6
Continuous
100
AcDbLine
 10
58.52340760712877
 20
175.3795182672458
 30
0.0
 11
56.2234076746613
 21
173.0795183347784
 31
0.0
  0
ARC
  5
1ED0
330
18
100
AcDbEntity
  8
1
  6
Continuous
100
AcDbCircle
 10
30.12350689690709
 20
130.0795235629423
 30
0.0
 40
39.99990129851075
100
AcDbArc
 50
351.3019737016275
 51
8.701263913426506
  0
LINE
  5
1ED2
330
18
100
AcDbEntity
  8
1
  6
Continuous
100
AcDbLine
 10
66.4234081710573
 20
107.0795151999467
 30
0.0
 11
66.4234081710573
 21
133.449842140474
 31
0.0
  0
LINE
  5
1ED4
330
18
100
AcDbEntity
  8
1
  6
Continuous
100
AcDbLine
 10
67.23714155258335
 20
165.1787992528537
 30
0.0
 11
67.23714155258335
 21
118.3295157342929
 31
0.0
  0
LINE
  5
1ED5
330
18
100
AcDbEntity
  8
1
  6
Continuous
100
AcDbLine
 10
48.56063517074061
 20
118.5795157461673
 30
0.0
 11
48.56063517074074
 21
138.0795166723676
 31
0.0
  0
LINE
  5
1ED6
330
18
100
AcDbEntity
  8
1
  6
Continuous
100
AcDbLine
 10
56.2234076746613
 20
173.0795183347784
 30
0.0
 11
56.2234076746613
 21
121.0795158649109
 31
0.0
  0
LINE
  5
1ED7
330
18
100
AcDbEntity
  8
1
  6
Continuous
100
AcDbLine
 10
68.02340824705311
 20
107.0795151999466
 30
0.0
 11
66.4234081710573
 21
107.0795151999467
 31
0.0
  0
ARC
  5
1ED8
330
18
100
AcDbEntity
  8
1
  6
Continuous
100
AcDbCircle
 10
64.53296234049304
 20
118.4777590785152
 30
0.0
 40
2.70823952049185
100
AcDbArc
 50
314.2695593786462
 51
356.8621810727388
  0
ARC
  5
1ED9
330
18
100
AcDbEntity
  8
1
  6
Continuous
100
AcDbCircle
 10
68.0234082470522
 20
107.6795152284451
 30
0.0
 40
0.6000000284984701
100
AcDbArc
 50
270.0000000000911
 51
0.000000000000007
  0
LINE
  5
1EDA
330
18
100
AcDbEntity
  8
1
  6
Continuous
100
AcDbLine
 10
68.67454324289588
 20
123.1795159646556
 30
0.0
 11
68.62340827555067
 21
123.1795159646556
 31
0.0
  0
ARC
  5
1EDC
330
18
100
AcDbEntity
  8
1
  6
Continuous
100
AcDbCircle
 10
68.67454323447589
 20
124.1795160121531
 30
0.0
 40
1.000000047497474
100
AcDbArc
 50
270.000000482433
 51
351.4282233889231
  0
LINE
  5
1EDD
330
18
100
AcDbEntity
  8
1
  6
Continuous
100
AcDbLine
 10
47.72340727093318
 20
107.0795151999465
 30
0.0
 11
47.72340727093318
 21
113.57951550868
 31
0.0
  0
LINE
  5
1EDE
330
18
100
AcDbEntity
  8
1
  6
Continuous
100
AcDbLine
 10
66.22340814963459
 20
116.5795156511686
 30
0.0
 11
61.28752304650959
 21
107.2013339552302
 31
0.0
  0
LINE
  5
1EDF
330
18
100
AcDbEntity
  8
1
  6
Continuous
100
AcDbLine
 10
57.22340772215876
 20
109.0795152949415
 30
0.0
 11
57.22340772215876
 21
117.4795156939201
 31
0.0
  0
ARC
  5
1EE0
330
18
100
AcDbEntity
  8
1
  6
Continuous
100
AcDbCircle
 10
55.22340762716385
 20
109.0795152949415
 30
0.0
 40
2.000000094994864
100
AcDbArc
 50
270.0
 51
0.000000000000007
  0
ARC
  5
1EE1
330
18
100
AcDbEntity
  8
1
  6
Continuous
100
AcDbCircle
 10
60.80918634732487
 20
108.0795465922105
 30
0.0
 40
1.000031392295892
100
AcDbArc
 50
270.000457365045
 51
298.5758635387032
  0
LINE
  5
1EE2
330
18
100
AcDbEntity
  8
1
  6
Continuous
100
AcDbLine
 10
59.22340781715369
 20
107.0795151999466
 30
0.0
 11
60.80919433010136
 21
107.0795151999466
 31
0.0
  0
LINE
  5
1EE6
330
18
100
AcDbEntity
  8
1
  6
Continuous
100
AcDbLine
 10
55.22340762716385
 20
107.0795151999466
 30
0.0
 11
47.72340727093318
 21
107.0795151999465
 31
0.0
  0
ARC
  5
1EE7
330
18
100
AcDbEntity
  8
1
  6
Continuous
100
AcDbCircle
 10
45.22340715218933
 20
117.1795156796708
 30
0.0
 40
2.000000094994888
100
AcDbArc
 50
180.00331969897
 51
270.0
  0
LINE
  5
1EE8
330
18
100
AcDbEntity
  8
1
  6
Continuous
100
AcDbLine
 10
56.2234076746613
 20
121.0795158649109
 30
0.0
 11
58.52340778390544
 21
118.7795157556668
 31
0.0
  0
LINE
  5
1EE9
330
18
100
AcDbEntity
  8
1
  6
Continuous
100
AcDbLine
 10
58.52340760712877
 20
118.7795155788901
 30
0.0
 11
57.22340772215876
 21
117.4795156939201
 31
0.0
  0
LINE
  5
1EEB
330
18
100
AcDbEntity
  8
1
  6
Continuous
100
AcDbLine
 10
59.22340781715377
 20
112.5795154611851
 30
0.0
 11
57.22340772215876
 21
112.6843310247297
 31
0.0
  0
ARC
  5
1EEC
330
18
100
AcDbEntity
  8
1
  6
Continuous
100
AcDbCircle
 10
30.64927597897927
 20
117.7571739515266
 30
0.0
 40
17.93022682855705
100
AcDbArc
 50
346.9035757601659
 51
2.628703375277038
  0
ARC
  5
1EED
330
18
100
AcDbEntity
  8
1
  6
Continuous
100
AcDbCircle
 10
47.97995011999939
 20
113.7024205441194
 30
0.0
 40
0.133433487183598
100
AcDbArc
 50
292.9131782731341
 51
356.5343568271383
  0
LINE
  5
1EEE
330
18
100
AcDbEntity
  8
1
  6
Continuous
100
AcDbLine
 10
48.39325274483734
 20
115.1795155846759
 30
0.0
 11
45.22340715218933
 21
115.1795155846759
 31
0.0
  0
LINE
  5
1EEF
330
18
100
AcDbEntity
  8
1
  6
Continuous
100
AcDbLine
 10
48.03190055566823
 20
113.57951550868
 30
0.0
 11
47.72340727093296
 21
113.57951550868
 31
0.0
  0
LINE
  5
1EF0
330
18
100
AcDbEntity
  8
1
  6
Continuous
100
AcDbLine
 10
66.4234081710573
 20
120.5795158411621
 30
0.0
 11
66.22340814963582
 21
120.5895158422332
 31
0.0
  0
LINE
  5
1EF1
330
18
100
AcDbEntity
  8
1
  6
Continuous
100
AcDbLine
 10
57.22340772215876
 20
120.0795158174134
 30
0.0
 11
57.22340772215876
 21
127.5795161736643
 31
0.0
  0
LINE
  5
1EF2
330
18
100
AcDbEntity
  8
1
  6
Continuous
100
AcDbLine
 10
43.223407070029
 20
137.5792900691741
 30
0.0
 11
43.223407070029
 21
117.1792890997075
 31
0.0
  0
LINE
  5
1EF3
330
18
100
AcDbEntity
  8
1
  6
Continuous
100
AcDbLine
 10
67.23714155258256
 20
165.1787992528527
 30
0.0
 11
67.44844304439471
 21
165.0987276134532
 31
0.0
  0
LINE
  5
1EF4
330
18
100
AcDbEntity
  8
1
  6
Continuous
100
AcDbLine
 10
66.22646567676565
 20
167.0795180497937
 30
0.0
 11
68.62340827555079
 21
167.0795180497937
 31
0.0
  0
ARC
  5
1EF5
330
18
100
AcDbEntity
  8
1
  6
Continuous
100
AcDbCircle
 10
68.67454323447589
 20
135.9795165726229
 30
0.0
 40
1.000000047497474
100
AcDbArc
 50
8.703165647608715
 51
89.99999951756697
  0
LINE
  5
1EF6
330
18
100
AcDbEntity
  8
1
  6
Continuous
100
AcDbLine
 10
68.62340827555067
 20
136.9795166201204
 30
0.0
 11
68.67454324289588
 21
136.9795166201204
 31
0.0
  0
ARC
  5
1EF7
330
18
100
AcDbEntity
  8
1
  6
Continuous
100
AcDbCircle
 10
60.53137460257528
 20
172.7852612023054
 30
0.0
 40
10.70371660217193
100
AcDbArc
 50
314.1848990944385
 51
319.1130200632953
  0
ARC
  5
1EF8
330
18
100
AcDbEntity
  8
1
  6
Continuous
100
AcDbCircle
 10
67.70982626165167
 20
165.6097514439589
 30
0.0
 40
0.573991760924312
100
AcDbArc
 50
242.9107422693878
 51
299.4009850740868
  0
LINE
  5
1EFB
330
18
100
AcDbEntity
  8
1
  6
Continuous
100
AcDbLine
 10
46.07340757403187
 20
140.942016808329
 30
0.0
 11
46.07340757403189
 21
153.2170173913602
 31
0.0
  0
ARC
  5
1EFC
330
18
100
AcDbEntity
  8
1
  6
Continuous
100
AcDbCircle
 10
42.57341255917788
 20
151.3643020842962
 30
0.0
 40
0.5000051751661001
100
AcDbArc
 50
90.00020416011542
 51
179.9993693468139
  0
LINE
  5
1EFD
330
18
100
AcDbEntity
  8
1
  6
Continuous
100
AcDbLine
 10
47.57340764522768
 20
140.6295167934861
 30
0.0
 11
47.57340764522768
 21
153.5277263998522
 31
0.0
  0
LINE
  5
1EFE
330
18
100
AcDbEntity
  8
1
  6
Continuous
100
AcDbLine
 10
47.72340727093317
 20
140.6540610633269
 30
0.0
 11
47.72340727093318
 21
154.3295174442012
 31
0.0
  0
LINE
  5
1EFF
330
18
100
AcDbEntity
  8
1
  6
Continuous
100
AcDbLine
 10
46.5734075977806
 20
140.3295167792368
 30
0.0
 11
46.5734075977806
 21
153.8295174204524
 31
0.0
  0
LINE
  5
1F00
330
18
100
AcDbEntity
  8
4
  6
CENTER
 48
0.2
100
AcDbLine
 10
39.07340738404207
 20
147.0795170641297
 30
0.0
 11
51.09632899319393
 21
147.0795170641297
 31
0.0
  0
LINE
  5
1F01
330
18
100
AcDbEntity
  8
1
  6
Continuous
100
AcDbLine
 10
42.57341077752636
 20
151.8643072594592
 30
0.0
 11
46.0734109437666
 21
151.8643047945497
 31
0.0
  0
LINE
  5
1F02
330
18
100
AcDbEntity
  8
1
  6
Continuous
100
AcDbLine
 10
42.07340738404207
 20
147.0795170641303
 30
0.0
 11
46.07340757403187
 21
147.0795173498447
 31
0.0
  0
ARC
  5
1F03
330
18
100
AcDbEntity
  8
1
  6
Continuous
100
AcDbCircle
 10
45.22340715218933
 20
137.5795166486188
 30
0.0
 40
2.000000094994949
100
AcDbArc
 50
89.99999999999024
 51
180.0064910226584
  0
LINE
  5
1F04
330
18
100
AcDbEntity
  8
1
  6
Continuous
100
AcDbLine
 10
42.57340740779079
 20
142.2947265166703
 30
0.0
 11
46.07340757403187
 21
142.2947265166703
 31
0.0
  0
ARC
  5
1F06
330
18
100
AcDbEntity
  8
1
  6
Continuous
100
AcDbCircle
 10
-51.98324092683514
 20
130.8113827553877
 30
0.0
 40
100.4343463345916
100
AcDbArc
 50
5.581347449750556
 51
6.901358561889141
  0
LINE
  5
1F07
330
18
100
AcDbEntity
  8
1
  6
Continuous
100
AcDbLine
 10
66.22652279756187
 20
133.4797191541267
 30
0.0
 11
66.42340817105786
 21
133.449842140474
 31
0.0
  0
LINE
  5
1F08
330
18
100
AcDbEntity
  8
1
  6
Continuous
100
AcDbLine
 10
56.2234076746613
 20
139.5795167436137
 30
0.0
 11
57.22340772215876
 21
139.5795167436137
 31
0.0
  0
ARC
  5
1F09
330
18
100
AcDbEntity
  8
1
  6
Continuous
100
AcDbCircle
 10
39.0013458288148
 20
138.4172734346398
 30
0.0
 40
9.565254432220783
100
AcDbArc
 50
357.9764196658019
 51
12.3595637962484
  0
ARC
  5
1F0A
330
18
100
AcDbEntity
  8
1
  6
Continuous
100
AcDbCircle
 10
48.21172247243641
 20
140.4566117556742
 30
0.0
 40
0.133433487183598
100
AcDbArc
 50
3.465643172861663
 51
67.08682172686582
  0
ARC
  5
1F0B
330
18
100
AcDbEntity
  8
1
  6
Continuous
100
AcDbCircle
 10
47.27340763102882
 20
140.6295167934861
 30
0.0
 40
0.3000000142492368
100
AcDbArc
 50
270.0000000000032
 51
0.000000000000007
  0
LINE
  5
1F0C
330
18
100
AcDbEntity
  8
1
  6
Continuous
100
AcDbLine
 10
47.57340764527794
 20
140.6540610633269
 30
0.0
 11
47.72340727093317
 21
140.6540610633269
 31
0.0
  0
LINE
  5
1F0D
330
18
100
AcDbEntity
  8
1
  6
Continuous
100
AcDbLine
 10
48.26367290810536
 20
140.5795167911112
 30
0.0
 11
47.97495774199268
 21
140.5795167911112
 31
0.0
  0
LINE
  5
1F0E
330
18
100
AcDbEntity
  8
1
  6
Continuous
100
AcDbLine
 10
45.22340715218969
 20
139.5795167436137
 30
0.0
 11
48.4957274750235
 21
139.5795167436137
 31
0.0
  0
LINE
  5
1F0F
330
18
100
AcDbEntity
  8
1
  6
Continuous
100
AcDbLine
 10
47.57340764525268
 20
140.8492953166248
 30
0.0
 11
47.72340765240267
 21
140.8492953166248
 31
0.0
  0
LINE
  5
1F10
330
18
100
AcDbEntity
  8
1
  6
Continuous
100
AcDbLine
 10
47.57340764525268
 20
141.23383166073
 30
0.0
 11
47.72340765240267
 21
141.23383166073
 31
0.0
  0
LINE
  5
1F12
330
18
100
AcDbEntity
  8
1
  6
Continuous
100
AcDbLine
 10
47.27340763102882
 20
140.3295167792368
 30
0.0
 11
46.57340759778072
 21
140.3295167792368
 31
0.0
  0
LINE
  5
1F13
330
18
100
AcDbEntity
  8
1
  6
Continuous
100
AcDbLine
 10
46.5734075977806
 20
140.3295167792369
 30
0.0
 11
46.07330757403189
 21
140.942139308329
 31
0.0
  0
LINE
  5
1F14
330
18
100
AcDbEntity
  8
1
  6
Continuous
100
AcDbLine
 10
57.22340772215876
 20
142.5795168861061
 30
0.0
 11
56.2234076746613
 21
142.5795168861061
 31
0.0
  0
LINE
  5
1F15
330
18
100
AcDbEntity
  8
1
  6
Continuous
100
AcDbLine
 10
56.2234076746613
 20
151.5795173135832
 30
0.0
 11
57.22340772215876
 21
151.5795173135832
 31
0.0
  0
LINE
  5
1F16
330
18
100
AcDbEntity
  8
1
  6
Continuous
100
AcDbLine
 10
47.57340764527804
 20
146.0442408702617
 30
0.0
 11
47.7234076524027
 21
146.0442408702616
 31
0.0
  0
LINE
  5
1F17
330
18
100
AcDbEntity
  8
1
  6
Continuous
100
AcDbLine
 10
47.57340764527804
 20
148.1147933294276
 30
0.0
 11
47.72340727093318
 21
148.1147933294276
 31
0.0
  0
LINE
  5
1F18
330
18
100
AcDbEntity
  8
1
  6
Continuous
100
AcDbLine
 10
47.57340764525316
 20
151.640355987584
 30
0.0
 11
47.72340765240267
 21
151.640355987584
 31
0.0
  0
LINE
  5
1F19
330
18
100
AcDbEntity
  8
1
  6
Continuous
100
AcDbLine
 10
47.57340764525259
 20
150.7790852352416
 30
0.0
 11
47.72340765240267
 21
150.7790852352416
 31
0.0
  0
LINE
  5
1F1A
330
18
100
AcDbEntity
  8
1
  6
Continuous
100
AcDbLine
 10
47.57340764525259
 20
149.8054049771767
 30
0.0
 11
47.72340765240267
 21
149.8054049771767
 31
0.0
  0
LINE
  5
1F1B
330
18
100
AcDbEntity
  8
1
  6
Continuous
100
AcDbLine
 10
47.57340764525338
 20
145.4101342043642
 30
0.0
 11
47.72340765240267
 21
145.4101342043642
 31
0.0
  0
LINE
  5
1F1C
330
18
100
AcDbEntity
  8
1
  6
Continuous
100
AcDbLine
 10
47.57340764525268
 20
144.3536292225129
 30
0.0
 11
47.72340765240267
 21
144.3536292225129
 31
0.0
  0
LINE
  5
1F1D
330
18
100
AcDbEntity
  8
1
  6
Continuous
100
AcDbLine
 10
47.57340764525292
 20
148.748899995325
 30
0.0
 11
47.72340765240267
 21
148.748899995325
 31
0.0
  0
LINE
  5
1F1E
330
18
100
AcDbEntity
  8
1
  6
Continuous
100
AcDbLine
 10
47.5734076452528
 20
147.6416716589429
 30
0.0
 11
47.72340765240267
 21
147.6416716589429
 31
0.0
  0
LINE
  5
1F20
330
18
100
AcDbEntity
  8
1
  6
Continuous
100
AcDbLine
 10
47.57340764525338
 20
146.5173625407463
 30
0.0
 11
47.72340765240267
 21
146.5173625407463
 31
0.0
  0
LINE
  5
1F21
330
18
100
AcDbEntity
  8
1
  6
Continuous
100
AcDbLine
 10
47.57340764525259
 20
141.795986241471
 30
0.0
 11
47.72340765240267
 21
141.795986241471
 31
0.0
  0
LINE
  5
1F22
330
18
100
AcDbEntity
  8
1
  6
Continuous
100
AcDbLine
 10
47.57340764525268
 20
143.3799489644478
 30
0.0
 11
47.72340765240267
 21
143.3799489644478
 31
0.0
  0
LINE
  5
1F23
330
18
100
AcDbEntity
  8
1
  6
Continuous
100
AcDbLine
 10
47.57340764525259
 20
142.5186782121054
 30
0.0
 11
47.72340765240267
 21
142.5186782121054
 31
0.0
  0
LINE
  5
1F25
330
18
100
AcDbEntity
  8
1
  6
Continuous
100
AcDbLine
 10
42.07340738404207
 20
151.3643075878405
 30
0.0
 11
42.07340738404207
 21
142.794726540419
 31
0.0
  0
ARC
  5
1F26
330
18
100
AcDbEntity
  8
1
  6
Continuous
100
AcDbCircle
 10
42.57340740779079
 20
142.794726540419
 30
0.0
 40
0.5000000237487221
100
AcDbArc
 50
179.9999999999996
 51
270.0
  0
LINE
  5
1F27
330
18
100
AcDbEntity
  8
4
  6
CENTER
 48
0.2
100
AcDbLine
 10
26.57340679032398
 20
167.0795182997937
 30
0.0
 11
51.59764890341285
 21
167.0795182997937
 31
0.0
  0
LINE
  5
1F29
330
18
100
AcDbEntity
  8
1
  6
Continuous
100
AcDbLine
 10
57.22340772215876
 20
154.6795174608253
 30
0.0
 11
56.2234076746613
 21
154.6795174608253
 31
0.0
  0
LINE
  5
1F2A
330
18
100
AcDbEntity
  8
1
  6
Continuous
100
AcDbLine
 10
46.07340757403189
 20
153.2170173913602
 30
0.0
 11
46.57340759778072
 21
153.8295174204524
 31
0.0
  0
ARC
  5
1F2B
330
18
100
AcDbEntity
  8
1
  6
Continuous
100
AcDbCircle
 10
47.27341295406104
 20
153.529513527401
 30
0.0
 40
0.3000000142492368
100
AcDbArc
 50
359.6586817774818
 51
89.99995271513494
  0
ARC
  5
1F2C
330
18
100
AcDbEntity
  8
1
  6
Continuous
100
AcDbCircle
 10
27.04410903678427
 20
158.8119638489317
 30
0.0
 40
21.52275096776752
100
AcDbArc
 50
347.9792747830738
 51
1.37792145202605
  0
LINE
  5
1F2D
330
18
100
AcDbEntity
  8
1
  6
Continuous
100
AcDbLine
 10
48.09491622912871
 20
154.3295174442011
 30
0.0
 11
47.72340727093318
 21
154.3295174442012
 31
0.0
  0
LINE
  5
1F2E
330
18
100
AcDbEntity
  8
1
  6
Continuous
100
AcDbLine
 10
47.57340764527782
 20
153.5049731125736
 30
0.0
 11
47.72340765240267
 21
153.5049731125736
 31
0.0
  0
LINE
  5
1F2F
330
18
100
AcDbEntity
  8
1
  6
Continuous
100
AcDbLine
 10
47.57340764525325
 20
153.3097388830643
 30
0.0
 11
47.72340765240267
 21
153.3097388830643
 31
0.0
  0
LINE
  5
1F30
330
18
100
AcDbEntity
  8
1
  6
Continuous
100
AcDbLine
 10
47.57340764525325
 20
152.9252025173166
 30
0.0
 11
47.72340765240267
 21
152.9252025173166
 31
0.0
  0
LINE
  5
1F31
330
18
100
AcDbEntity
  8
1
  6
Continuous
100
AcDbLine
 10
47.57340764525316
 20
152.3630479582189
 30
0.0
 11
47.72340765240267
 21
152.3630479582189
 31
0.0
  0
LINE
  5
1F32
330
18
100
AcDbEntity
  8
1
  6
Continuous
100
AcDbLine
 10
46.5734075977806
 20
153.8295174204524
 30
0.0
 11
47.27340763102882
 21
153.8295174204524
 31
0.0
  0
LINE
  5
1F33
330
18
100
AcDbEntity
  8
1
  6
Continuous
100
AcDbLine
 10
46.57340759778072
 20
153.8295174204524
 30
0.0
 11
46.57348923043378
 21
153.8296174204525
 31
0.0
  0
ARC
  5
1F34
330
18
100
AcDbEntity
  8
1
  6
Continuous
100
AcDbCircle
 10
73.03247781916979
 20
176.6436403827949
 30
0.0
 40
12.84634206992654
100
AcDbArc
 50
237.9918713233063
 51
243.1839633549618
  0
LINE
  5
1F38
330
18
100
AcDbEntity
  8
1
  6
Continuous
100
AcDbLine
 10
33.57340698031373
 20
160.942017758278
 30
0.0
 11
33.57340698031373
 21
173.2170183413093
 31
0.0
  0
ARC
  5
1F39
330
18
100
AcDbEntity
  8
1
  6
Continuous
100
AcDbCircle
 10
30.07340681407265
 20
162.794727490368
 30
0.0
 40
0.5000000237487267
100
AcDbArc
 50
180.0000000000004
 51
270.0
  0
LINE
  5
1F3A
330
18
100
AcDbEntity
  8
1
  6
Continuous
100
AcDbLine
 10
34.07340700406246
 20
160.3295177291859
 30
0.0
 11
33.57330698031375
 21
160.9421402582781
 31
0.0
  0
LINE
  5
1F3D
330
18
100
AcDbEntity
  8
1
  6
Continuous
100
AcDbLine
 10
35.07340705155979
 20
160.6540620132759
 30
0.0
 11
35.22340705868433
 21
160.6540620132759
 31
0.0
  0
ARC
  5
1F3E
330
18
100
AcDbEntity
  8
1
  6
Continuous
100
AcDbCircle
 10
34.77340703731067
 20
160.6295177434351
 30
0.0
 40
0.3000000142492368
100
AcDbArc
 50
270.0000000000032
 51
0.000000000000007
  0
LINE
  5
1F3F
330
18
100
AcDbEntity
  8
1
  6
Continuous
100
AcDbLine
 10
35.07340705153445
 20
160.8492962665738
 30
0.0
 11
35.22340705868453
 21
160.8492962665738
 31
0.0
  0
LINE
  5
1F40
330
18
100
AcDbEntity
  8
1
  6
Continuous
100
AcDbLine
 10
35.07340705153445
 20
161.2338326106791
 30
0.0
 11
35.22340705868453
 21
161.2338326106791
 31
0.0
  0
LINE
  5
1F41
330
18
100
AcDbEntity
  8
1
  6
Continuous
100
AcDbLine
 10
35.07340705153445
 20
161.7959871914201
 30
0.0
 11
35.22340705868453
 21
161.7959871914201
 31
0.0
  0
LINE
  5
1F42
330
18
100
AcDbEntity
  8
1
  6
Continuous
100
AcDbLine
 10
35.07340705153445
 20
162.5186791620545
 30
0.0
 11
35.22340705868453
 21
162.5186791620545
 31
0.0
  0
LINE
  5
1F45
330
18
100
AcDbEntity
  8
1
  6
Continuous
100
AcDbLine
 10
34.77340703731067
 20
160.3295177291859
 30
0.0
 11
34.07340700406257
 21
160.3295177291859
 31
0.0
  0
LINE
  5
1F4A
330
18
100
AcDbEntity
  8
1
  6
Continuous
100
AcDbLine
 10
30.07340681407265
 20
162.2947274666193
 30
0.0
 11
33.57340698031373
 21
162.2947274666193
 31
0.0
  0
LINE
  5
1F4C
330
18
100
AcDbEntity
  8
2
  6
Continuous
100
AcDbLine
 10
35.22340741289883
 20
164.6000186548901
 30
0.0
 11
35.4234062779891
 21
164.6000186834614
 31
0.0
  0
LINE
  5
1F4D
330
18
100
AcDbEntity
  8
2
  6
Continuous
100
AcDbLine
 10
35.22340705868453
 20
169.5590181804116
 30
0.0
 11
35.4234059237748
 21
169.5590181804116
 31
0.0
  0
ARC
  5
1F4E
330
18
100
AcDbEntity
  8
1
  6
Continuous
100
AcDbCircle
 10
35.72340540945243
 20
170.779519032677
 30
0.0
 40
0.3000000142492287
100
AcDbArc
 50
90.0000081851128
 51
180.1076474814436
  0
LINE
  5
1F4F
330
18
100
AcDbEntity
  8
1
  6
Continuous
100
AcDbLine
 10
35.42340592468235
 20
170.7789553920871
 30
0.0
 11
35.42340592468235
 21
163.3794993062717
 31
0.0
  0
ARC
  5
1F50
330
18
100
AcDbEntity
  8
1
  6
Continuous
100
AcDbCircle
 10
35.49524095139116
 20
169.8817724833764
 30
0.0
 40
0.0732312933409497
100
AcDbArc
 50
112.751116951212
 51
168.7952250035116
  0
LINE
  5
1F51
330
18
100
AcDbEntity
  8
1
  6
Continuous
100
AcDbLine
 10
35.72340552146608
 20
169.9954236577992
 30
0.0
 11
38.82340684424061
 21
169.9954241006565
 31
0.0
  0
LINE
  5
1F52
330
18
100
AcDbEntity
  8
1
  6
Continuous
100
AcDbLine
 10
35.72340536659527
 20
171.0795190469261
 30
0.0
 11
38.82340668936981
 21
171.0795194897836
 31
0.0
  0
ARC
  5
1F54
330
18
100
AcDbEntity
  8
1
  6
Continuous
100
AcDbCircle
 10
35.68864290916901
 20
169.4524730533589
 30
0.0
 40
0.5440623108393645
100
AcDbArc
 50
86.33661687224304
 51
114.0498717453775
  0
ARC
  5
1F55
330
18
100
AcDbEntity
  8
1
  6
Continuous
100
AcDbCircle
 10
35.49524135171324
 20
164.2772643907588
 30
0.0
 40
0.0732312933409497
100
AcDbArc
 50
191.2047831816011
 51
247.2488912339008
  0
ARC
  5
1F56
330
18
100
AcDbEntity
  8
1
  6
Continuous
100
AcDbCircle
 10
35.68864324816257
 20
164.7065638484051
 30
0.0
 40
0.5440623108393645
100
AcDbArc
 50
245.9501364397353
 51
273.6633913128697
  0
LINE
  5
1F57
330
18
100
AcDbEntity
  8
1
  6
Continuous
100
AcDbLine
 10
35.07340705155991
 20
166.0442418202107
 30
0.0
 11
35.22340705868446
 21
166.0442418202107
 31
0.0
  0
LINE
  5
1F58
330
18
100
AcDbEntity
  8
1
  6
Continuous
100
AcDbLine
 10
35.07340705155991
 20
168.1147942793766
 30
0.0
 11
35.2234070586845
 21
168.1147942793766
 31
0.0
  0
LINE
  5
1F59
330
18
100
AcDbEntity
  8
1
  6
Continuous
100
AcDbLine
 10
35.07340705153513
 20
172.9252034672656
 30
0.0
 11
35.22340705868453
 21
172.9252034672656
 31
0.0
  0
LINE
  5
1F5A
330
18
100
AcDbEntity
  8
1
  6
Continuous
100
AcDbLine
 10
35.07340705153501
 20
172.3630489081679
 30
0.0
 11
35.22340705868453
 21
172.3630489081679
 31
0.0
  0
LINE
  5
1F5B
330
18
100
AcDbEntity
  8
1
  6
Continuous
100
AcDbLine
 10
35.07340705153501
 20
171.640356937533
 30
0.0
 11
35.22340705868453
 21
171.640356937533
 31
0.0
  0
LINE
  5
1F5C
330
18
100
AcDbEntity
  8
1
  6
Continuous
100
AcDbLine
 10
35.22340705868453
 20
169.8295181804116
 30
0.0
 11
35.4234059237748
 21
169.8295181804116
 31
0.0
  0
LINE
  5
1F5D
330
18
100
AcDbEntity
  8
1
  6
Continuous
100
AcDbLine
 10
35.07340705153445
 20
170.7790861851907
 30
0.0
 11
35.22340705868453
 21
170.7790861851907
 31
0.0
  0
LINE
  5
1F5E
330
18
100
AcDbEntity
  8
1
  6
Continuous
100
AcDbLine
 10
35.07340705153467
 20
168.7489009452741
 30
0.0
 11
35.22340705868453
 21
168.7489009452741
 31
0.0
  0
LINE
  5
1F5F
330
18
100
AcDbEntity
  8
1
  6
Continuous
100
AcDbLine
 10
35.07340705153445
 20
169.8054059271258
 30
0.0
 11
35.22340705868453
 21
169.8054059271258
 31
0.0
  0
LINE
  5
1F60
330
18
100
AcDbEntity
  8
1
  6
Continuous
100
AcDbLine
 10
35.07340705153467
 20
167.641672608892
 30
0.0
 11
35.22340705868453
 21
167.641672608892
 31
0.0
  0
LINE
  5
1F62
330
18
100
AcDbEntity
  8
1
  6
Continuous
100
AcDbLine
 10
35.07340705153524
 20
166.5173634906954
 30
0.0
 11
35.22340705868453
 21
166.5173634906954
 31
0.0
  0
LINE
  5
1F65
330
18
100
AcDbEntity
  8
1
  6
Continuous
100
AcDbLine
 10
35.4234059237748
 20
164.3295179191757
 30
0.0
 11
35.22340705868453
 21
164.3295179191757
 31
0.0
  0
LINE
  5
1F66
330
18
100
AcDbEntity
  8
1
  6
Continuous
100
AcDbLine
 10
35.07340705153456
 20
163.3799499143968
 30
0.0
 11
35.22340705868453
 21
163.3799499143968
 31
0.0
  0
LINE
  5
1F67
330
18
100
AcDbEntity
  8
1
  6
Continuous
100
AcDbLine
 10
35.07340705153524
 20
165.4101351543132
 30
0.0
 11
35.22340705868453
 21
165.4101351543132
 31
0.0
  0
LINE
  5
1F68
330
18
100
AcDbEntity
  8
1
  6
Continuous
100
AcDbLine
 10
35.07340705153456
 20
164.353630172462
 30
0.0
 11
35.22340705868453
 21
164.353630172462
 31
0.0
  0
ARC
  5
1F6A
330
18
100
AcDbEntity
  8
1
  6
Continuous
100
AcDbCircle
 10
35.72340593802403
 20
163.3795178740531
 30
0.0
 40
0.3000000142492287
100
AcDbArc
 50
179.9999999999996
 51
270.0
  0
LINE
  5
1F6C
330
18
100
AcDbEntity
  8
1
  6
Continuous
100
AcDbLine
 10
35.72340593802403
 20
163.0795178598039
 30
0.0
 11
38.8234072607986
 21
163.0795178598039
 31
0.0
  0
LINE
  5
1F6D
330
18
100
AcDbEntity
  8
1
  6
Continuous
100
AcDbLine
 10
35.72340593802403
 20
164.163613248931
 30
0.0
 11
38.8234072607986
 21
164.163613248931
 31
0.0
  0
LINE
  5
1F6E
330
18
100
AcDbEntity
  8
1
  6
Continuous
100
AcDbLine
 10
29.57340679032398
 20
171.3643085377895
 30
0.0
 11
29.57340679032393
 21
162.794727490368
 31
0.0
  0
ARC
  5
1F6F
330
18
100
AcDbEntity
  8
1
  6
Continuous
100
AcDbCircle
 10
30.07341196545965
 20
171.3643030342454
 30
0.0
 40
0.500005175165958
100
AcDbArc
 50
90.00020416010562
 51
179.999369346827
  0
LINE
  5
1F70
330
18
100
AcDbEntity
  8
1
  6
Continuous
100
AcDbLine
 10
30.07341018380822
 20
171.8643082094082
 30
0.0
 11
33.57341035004845
 21
171.8643057444988
 31
0.0
  0
LINE
  5
1F71
330
18
100
AcDbEntity
  8
1
  6
Continuous
100
AcDbLine
 10
29.57340679032395
 20
167.0795180140793
 30
0.0
 11
33.57340698031373
 21
167.0795182997937
 31
0.0
  0
ARC
  5
1F72
330
18
100
AcDbEntity
  8
1
  6
Continuous
100
AcDbCircle
 10
61.02448204373296
 20
167.0808037280055
 30
0.0
 40
11.24832694109443
100
AcDbArc
 50
47.50230267835068
 51
57.94967884380582
  0
LINE
  5
1F74
330
18
100
AcDbEntity
  8
1
  6
Continuous
100
AcDbLine
 10
47.72340727093332
 20
179.8295186553861
 30
0.0
 11
47.72340727093332
 21
187.0795189997427
 31
0.0
  0
LINE
  5
1F75
330
18
100
AcDbEntity
  8
1
  6
Continuous
100
AcDbLine
 10
61.32633707320272
 20
186.935418174264
 30
0.0
 11
66.2234081496361
 21
180.0795186672601
 31
0.0
  0
LINE
  5
1F76
330
18
100
AcDbEntity
  8
1
  6
Continuous
100
AcDbLine
 10
57.22340772215876
 20
185.0795189047478
 30
0.0
 11
57.22340772215876
 21
176.6795185057692
 31
0.0
  0
ARC
  5
1F77
330
18
100
AcDbEntity
  8
1
  6
Continuous
100
AcDbCircle
 10
61.21657608575901
 20
167.3781766775166
 30
0.0
 40
10.89434265913788
100
AcDbArc
 50
57.97602986301466
 51
62.61569759318608
  0
LINE
  5
1F78
330
18
100
AcDbEntity
  8
1
  6
Continuous
100
AcDbLine
 10
59.22340781715377
 20
181.5795187385067
 30
0.0
 11
57.22340772215876
 21
181.4747031749622
 31
0.0
  0
LINE
  5
1F79
330
18
100
AcDbEntity
  8
1
  6
Continuous
100
AcDbLine
 10
57.22340772215876
 20
176.6795185057692
 30
0.0
 11
58.52340778390544
 21
175.3795184440225
 31
0.0
  0
ARC
  5
1F7A
330
18
100
AcDbEntity
  8
1
  6
Continuous
100
AcDbCircle
 10
27.04410785570493
 20
175.3470718178985
 30
0.0
 40
21.52275096776752
100
AcDbArc
 50
358.6220867330867
 51
11.75211049702195
  0
ARC
  5
1F7B
330
18
100
AcDbEntity
  8
1
  6
Continuous
100
AcDbCircle
 10
47.9828812300592
 20
179.7029890538884
 30
0.0
 40
0.1356931624570248
100
AcDbArc
 50
11.81765273401732
 51
68.82294005515261
  0
LINE
  5
1F7C
330
18
100
AcDbEntity
  8
1
  6
Continuous
100
AcDbLine
 10
48.03190055566847
 20
179.8295186553861
 30
0.0
 11
47.72340727093332
 21
179.8295186553861
 31
0.0
  0
ARC
  5
1F7D
330
18
100
AcDbEntity
  8
1
  6
Continuous
100
AcDbCircle
 10
55.22340762716385
 20
185.0795189047478
 30
0.0
 40
2.000000094994899
100
AcDbArc
 50
0.000000000000007
 51
90.00000168256043
  0
LINE
  5
1F7E
330
18
100
AcDbEntity
  8
1
  6
Continuous
100
AcDbLine
 10
59.22340781715369
 20
187.0795189997427
 30
0.0
 11
60.80919433010136
 21
187.0795189997427
 31
0.0
  0
ARC
  5
1F82
330
18
100
AcDbEntity
  8
1
  6
Continuous
100
AcDbCircle
 10
60.80919433010127
 20
186.0795189522452
 30
0.0
 40
1.000000047497497
100
AcDbArc
 50
58.85921487825484
 51
89.99999999999676
  0
LINE
  5
1F83
330
18
100
AcDbEntity
  8
1
  6
Continuous
100
AcDbLine
 10
55.2234075684313
 20
187.0795189997427
 30
0.0
 11
47.72340727093332
 21
187.0795189997427
 31
0.0
  0
LINE
  5
1F86
330
18
100
AcDbEntity
  8
1
  6
Continuous
100
AcDbLine
 10
35.07340705155968
 20
173.5049740625227
 30
0.0
 11
35.22340705868462
 21
173.5049740625227
 31
0.0
  0
ARC
  5
1F87
330
18
100
AcDbEntity
  8
1
  6
Continuous
100
AcDbCircle
 10
34.77340703731067
 20
173.5295183561523
 30
0.0
 40
0.3000000142492368
100
AcDbArc
 50
0.000000000000007
 51
89.99999999999676
  0
LINE
  5
1F89
330
18
100
AcDbEntity
  8
1
  6
Continuous
100
AcDbLine
 10
35.07340705153513
 20
173.3097398330133
 30
0.0
 11
35.22340705868453
 21
173.3097398330133
 31
0.0
  0
LINE
  5
1F8A
330
18
100
AcDbEntity
  8
1
  6
Continuous
100
AcDbLine
 10
34.07340700406246
 20
173.8295183704015
 30
0.0
 11
34.77340703731067
 21
173.8295183704015
 31
0.0
  0
LINE
  5
1F8B
330
18
100
AcDbEntity
  8
1
  6
Continuous
100
AcDbLine
 10
34.07340700406246
 20
173.8295183704015
 30
0.0
 11
34.07348863671562
 21
173.8296183704015
 31
0.0
  0
CIRCLE
  5
1F8E
330
18
100
AcDbEntity
  8
1
  6
Continuous
100
AcDbCircle
 10
275.7854507186994
 20
167.0795180497928
 30
0.0
 40
6.137500291515662
  0
CIRCLE
  5
1F8F
330
18
100
AcDbEntity
  8
1
  6
Continuous
100
AcDbCircle
 10
275.7854507186994
 20
167.0795180497928
 30
0.0
 40
6.750000320607822
  0
ARC
  5
1F93
330
18
100
AcDbEntity
  8
1
  6
Continuous
100
AcDbCircle
 10
268.0354536049047
 20
174.8295151635844
 30
0.0
 40
5.000003491798827
100
AcDbArc
 50
90.00003729162285
 51
179.9999627083383
  0
ARC
  5
1F94
330
18
100
AcDbEntity
  8
1
  6
Continuous
100
AcDbCircle
 10
283.5354478008071
 20
174.8295151318989
 30
0.0
 40
5.000003523485217
100
AcDbArc
 50
0.000037654750038
 51
89.99996234527172
  0
ARC
  5
1F95
330
18
100
AcDbEntity
  8
1
  6
Continuous
100
AcDbCircle
 10
283.5354478324807
 20
159.3295209360156
 30
0.0
 40
5.000003491816507
100
AcDbArc
 50
270.0000372917759
 51
359.9999627081732
  0
ARC
  5
1F96
330
18
100
AcDbEntity
  8
1
  6
Continuous
100
AcDbCircle
 10
268.0354536366002
 20
159.3295209676927
 30
0.0
 40
5.00000352349366
100
AcDbArc
 50
180.0000376548191
 51
269.9999623451734
  0
LINE
  5
1F97
330
18
100
AcDbEntity
  8
4
  6
CENTER
 48
0.2
100
AcDbLine
 10
254.7854498637452
 20
167.0795180497928
 30
0.0
 11
296.7854515736535
 21
167.0795180497928
 31
0.0
  0
LINE
  5
1F98
330
18
100
AcDbEntity
  8
4
  6
CENTER
 48
0.2
100
AcDbLine
 10
275.7854507186994
 20
190.0795189997415
 30
0.0
 11
275.7854507186994
 21
104.0795151999459
 31
0.0
  0
LINE
  5
1F99
330
18
100
AcDbEntity
  8
1
  6
Continuous
100
AcDbLine
 10
278.5479508499115
 20
151.8643076830184
 30
0.0
 11
281.3104509811233
 21
147.0795170998441
 31
0.0
  0
CIRCLE
  5
1F9A
330
18
100
AcDbEntity
  8
1
  6
Continuous
100
AcDbCircle
 10
275.7854507186994
 20
147.0795170998437
 30
0.0
 40
6.137500291515662
  0
CIRCLE
  5
1F9B
330
18
100
AcDbEntity
  8
1
  6
Continuous
100
AcDbCircle
 10
275.7854507186994
 20
147.0795170998437
 30
0.0
 40
6.750000320607822
  0
LINE
  5
1F9D
330
18
100
AcDbEntity
  8
1
  6
Continuous
100
AcDbLine
 10
263.2969821508132
 20
159.3295176816876
 30
0.0
 11
263.2969821508132
 21
174.8295184178981
 31
0.0
  0
LINE
  5
1F9E
330
18
100
AcDbEntity
  8
1
  6
Continuous
100
AcDbLine
 10
263.0354501131029
 20
174.8295184178981
 30
0.0
 11
263.2969821508226
 21
174.8295184178981
 31
0.0
  0
LINE
  5
1F9F
330
18
100
AcDbEntity
  8
1
  6
Continuous
100
AcDbLine
 10
263.385450129731
 20
158.3461418948771
 30
0.0
 11
263.385450129731
 21
175.8128942047082
 31
0.0
  0
LINE
  5
1FA0
330
18
100
AcDbEntity
  8
1
  6
Continuous
100
AcDbLine
 10
263.0354501131027
 20
159.3295176816876
 30
0.0
 11
263.2969821508132
 21
159.3295176816876
 31
0.0
  0
ARC
  5
1FA3
330
18
100
AcDbEntity
  8
1
  6
Continuous
100
AcDbCircle
 10
268.2466210001007
 20
174.8798986651898
 30
0.0
 40
4.949895242092841
100
AcDbArc
 50
90.60423628549463
 51
180.5831689843405
  0
ARC
  5
1FA4
330
18
100
AcDbEntity
  8
1
  6
Continuous
100
AcDbCircle
 10
268.2466210001007
 20
159.2791374343959
 30
0.0
 40
4.949895242092841
100
AcDbArc
 50
179.4168310156593
 51
269.3957637145052
  0
LINE
  5
1FA5
330
18
100
AcDbEntity
  8
1
  6
Continuous
100
AcDbLine
 10
288.1854513076678
 20
158.3461418948771
 30
0.0
 11
288.1854513076678
 21
175.8128942047082
 31
0.0
  0
LINE
  5
1FA6
330
18
100
AcDbEntity
  8
1
  6
Continuous
100
AcDbLine
 10
288.2739192865855
 20
159.3295176816876
 30
0.0
 11
288.2739192865855
 21
174.8295184178981
 31
0.0
  0
ARC
  5
1FA7
330
18
100
AcDbEntity
  8
1
  6
Continuous
100
AcDbCircle
 10
283.324280437298
 20
174.8798986651898
 30
0.0
 40
4.949895242092841
100
AcDbArc
 50
359.4168310156594
 51
89.39576371450536
  0
LINE
  5
1FA8
330
18
100
AcDbEntity
  8
1
  6
Continuous
100
AcDbLine
 10
288.5354513242958
 20
174.8295184178981
 30
0.0
 11
288.2739192865761
 21
174.8295184178981
 31
0.0
  0
ARC
  5
1FA9
330
18
100
AcDbEntity
  8
1
  6
Continuous
100
AcDbCircle
 10
283.324280437298
 20
159.2791374343959
 30
0.0
 40
4.949895242092841
100
AcDbArc
 50
270.6042362854947
 51
0.5831689843406363
  0
LINE
  5
1FAA
330
18
100
AcDbEntity
  8
1
  6
Continuous
100
AcDbLine
 10
288.535451324296
 20
159.3295176816876
 30
0.0
 11
288.2739192865855
 21
159.3295176816876
 31
0.0
  0
ARC
  5
1FAB
330
18
100
AcDbEntity
  8
1
  6
Continuous
100
AcDbCircle
 10
265.5480759332395
 20
138.0746702601185
 30
0.0
 40
2.512630494065498
100
AcDbArc
 50
85.48886439365153
 51
179.8894866792253
  0
ARC
  5
1FAC
330
18
100
AcDbEntity
  8
1
  6
Continuous
100
AcDbCircle
 10
265.7934333872805
 20
138.0963740968051
 30
0.0
 40
2.496508151151901
100
AcDbArc
 50
95.93139690118936
 51
180.3868870258633
  0
ARC
  5
1FAD
330
18
100
AcDbEntity
  8
1
  6
Continuous
100
AcDbCircle
 10
268.0354536365958
 20
118.5795190321678
 30
0.0
 40
5.000003523489795
100
AcDbArc
 50
180.000037654776
 51
269.9999623452235
  0
ARC
  5
1FAE
330
18
100
AcDbEntity
  8
1
  6
Continuous
100
AcDbCircle
 10
268.2543041687643
 20
118.5322299705209
 30
0.0
 40
4.957547532222061
100
AcDbArc
 50
179.4534966252074
 51
267.4698222315238
  0
ARC
  5
1FAF
330
18
100
AcDbEntity
  8
1
  6
Continuous
100
AcDbCircle
 10
275.7816035488281
 20
131.0729653927263
 30
0.0
 40
11.80754261102097
100
AcDbArc
 50
55.11437634863534
 51
67.88797930104824
  0
ARC
  5
1FB0
330
18
100
AcDbEntity
  8
1
  6
Continuous
100
AcDbCircle
 10
275.7293551361211
 20
131.3973089853966
 30
0.0
 40
11.49275807632671
100
AcDbArc
 50
54.58648672381028
 51
67.12484199270777
  0
LINE
  5
1FB1
330
18
100
AcDbEntity
  8
1
  6
Continuous
100
AcDbLine
 10
282.3927383058413
 20
140.7612280125746
 30
0.0
 11
282.5311074455238
 21
140.7612282602438
 31
0.0
  0
ARC
  5
1FB2
330
18
100
AcDbEntity
  8
1
  6
Continuous
100
AcDbCircle
 10
283.1045843892661
 20
141.575307036085
 30
0.0
 40
0.995790257298654
100
AcDbArc
 50
235.0972545253485
 51
269.9909779352073
  0
ARC
  5
1FB3
330
18
100
AcDbEntity
  8
1
  6
Continuous
100
AcDbCircle
 10
282.9662195183442
 20
141.5753315417461
 30
0.0
 40
0.9958147640664892
100
AcDbArc
 50
234.5814798830378
 51
269.9905806256868
  0
LINE
  5
1FB4
330
18
100
AcDbEntity
  8
1
  6
Continuous
100
AcDbLine
 10
286.0354512055472
 20
140.5795167911103
 30
0.0
 11
283.104427587417
 21
140.5795167911103
 31
0.0
  0
ARC
  5
1FB5
330
18
100
AcDbEntity
  8
1
  6
Continuous
100
AcDbCircle
 10
285.7774680501183
 20
138.0963740968051
 30
0.0
 40
2.496508151151901
100
AcDbArc
 50
359.6131129741366
 51
84.06860309881063
  0
ARC
  5
1FB6
330
18
100
AcDbEntity
  8
1
  6
Continuous
100
AcDbCircle
 10
286.0228255041592
 20
138.0746702601185
 30
0.0
 40
2.512630494065498
100
AcDbArc
 50
0.1105133207746828
 51
94.51113560634842
  0
LINE
  5
1FB7
330
18
100
AcDbEntity
  8
1
  6
Continuous
100
AcDbLine
 10
288.1854513076678
 20
117.5986680385477
 30
0.0
 11
288.1854513076678
 21
138.7401502782551
 31
0.0
  0
LINE
  5
1FB8
330
18
100
AcDbEntity
  8
1
  6
Continuous
100
AcDbLine
 10
288.5354513242916
 20
118.5795157461664
 30
0.0
 11
288.5354513242916
 21
138.0795166723667
 31
0.0
  0
LINE
  5
1FB9
330
18
100
AcDbEntity
  8
1
  6
Continuous
100
AcDbLine
 10
288.2739192865855
 20
118.5795157461664
 30
0.0
 11
288.2739192865855
 21
138.0795166723667
 31
0.0
  0
LINE
  5
1FBA
330
18
100
AcDbEntity
  8
1
  6
Continuous
100
AcDbLine
 10
288.5354513242981
 20
138.0795166723667
 30
0.0
 11
288.2739192865756
 21
138.0795166723667
 31
0.0
  0
ARC
  5
1FBB
330
18
100
AcDbEntity
  8
1
  6
Continuous
100
AcDbCircle
 10
283.3165972686344
 20
118.5322299705209
 30
0.0
 40
4.957547532222061
100
AcDbArc
 50
272.5301777684761
 51
0.5465033747925309
  0
ARC
  5
1FBC
330
18
100
AcDbEntity
  8
1
  6
Continuous
100
AcDbCircle
 10
283.5354478008029
 20
118.5795190321678
 30
0.0
 40
5.000003523489795
100
AcDbArc
 50
270.0000376547764
 51
359.9999623452238
  0
LINE
  5
1FBD
330
18
100
AcDbEntity
  8
4
  6
CENTER
 48
0.2
100
AcDbLine
 10
266.0354503980915
 20
147.0795170998437
 30
0.0
 11
285.5354510393071
 21
147.0795170998437
 31
0.0
  0
LINE
  5
200C
330
18
100
AcDbEntity
  8
1
  6
Continuous
100
AcDbLine
 10
61.06284528861884
 20
185.0795189997427
 30
0.0
 11
61.06284528861884
 21
109.0795151999466
 31
0.0
  0
LINE
  5
200D
330
18
100
AcDbEntity
  8
1
  6
Continuous
100
AcDbLine
 10
183.6946401962119
 20
185.0795189997427
 30
0.0
 11
183.6946401962119
 21
109.0795151999466
 31
0.0
  0
LINE
  5
215C
330
18
100
AcDbEntity
  8
1
  6
Continuous
100
AcDbLine
 10
109.978742153447
 20
61.48991813779815
 30
0.0
 11
110.0039848381431
 21
59.6633310537507
 31
0.0
  0
LINE
  5
215D
330
18
100
AcDbEntity
  8
1
  6
Continuous
100
AcDbLine
 10
134.7535006466838
 20
59.6633310537507
 30
0.0
 11
134.7787433313837
 21
61.489918137936
 31
0.0
  0
LINE
  5
2161
330
18
100
AcDbEntity
  8
1
  6
Continuous
100
AcDbLine
 10
109.978742153447
 20
236.378286778423
 30
0.0
 11
110.0039848381431
 21
238.2048738624705
 31
0.0
  0
LINE
  5
2162
330
18
100
AcDbEntity
  8
1
  6
Continuous
100
AcDbLine
 10
134.7535006466838
 20
238.2048738624705
 30
0.0
 11
134.7787433313837
 21
236.3782867782851
 31
0.0
  0
LINE
  5
2402
330
18
100
AcDbEntity
  8
1
  6
Continuous
100
AcDbLine
 10
40.82340732467032
 20
154.6795179608253
 30
0.0
 11
40.82340732467044
 21
171.8247933365091
 31
0.0
  0
LINE
  5
2403
330
18
100
AcDbEntity
  8
1
  6
Continuous
100
AcDbLine
 10
38.82340726079867
 20
155.1796944023934
 30
0.0
 11
38.82340726079885
 21
178.979695532873
 31
0.0
  0
LINE
  5
2404
330
18
100
AcDbEntity
  8
1
  6
Continuous
100
AcDbLine
 10
41.02340695270227
 20
154.6795179608253
 30
0.0
 11
41.02340695270238
 21
170.9446214002634
 31
0.0
  0
LINE
  5
2405
330
18
100
AcDbEntity
  8
1
  6
Continuous
100
AcDbLine
 10
42.5234070239431
 20
155.6234118025178
 30
0.0
 11
42.52340702394339
 21
178.5356252970696
 31
0.0
  0
LINE
  5
2406
330
18
100
AcDbEntity
  8
1
  6
Continuous
100
AcDbLine
 10
40.82340732467049
 20
179.4795191387621
 30
0.0
 11
39.32340725342433
 21
179.4795191387621
 31
0.0
  0
ARC
  5
2407
330
18
100
AcDbEntity
  8
1
  6
Continuous
100
AcDbCircle
 10
39.32340725342432
 20
178.9795191150134
 30
0.0
 40
0.5000000237487347
100
AcDbArc
 50
89.99999999999955
 51
179.9833661577754
  0
LINE
  5
2408
330
18
100
AcDbEntity
  8
1
  6
Continuous
100
AcDbLine
 10
42.42340740066642
 20
178.5356252970695
 30
0.0
 11
42.42340740066636
 21
170.9446214002634
 31
0.0
  0
LINE
  5
2409
330
18
100
AcDbEntity
  8
1
  6
Continuous
100
AcDbLine
 10
41.02340695270017
 20
178.5356252970695
 30
0.0
 11
41.02340695270018
 21
179.4795191387621
 31
0.0
  0
LINE
  5
240A
330
18
100
AcDbEntity
  8
1
  6
Continuous
100
AcDbLine
 10
40.82340732467047
 20
178.5356252970696
 30
0.0
 11
42.52340702394339
 21
178.5356252970696
 31
0.0
  0
LINE
  5
240B
330
18
100
AcDbEntity
  8
1
  6
Continuous
100
AcDbLine
 10
40.82340732467047
 20
178.5356252970696
 30
0.0
 11
40.82340732467049
 21
179.4795191387621
 31
0.0
  0
LINE
  5
240C
330
18
100
AcDbEntity
  8
1
  6
Continuous
100
AcDbLine
 10
40.82340732467042
 20
169.9954233506564
 30
0.0
 11
41.02340618976071
 21
169.9954233506564
 31
0.0
  0
LINE
  5
240D
330
18
100
AcDbEntity
  8
1
  6
Continuous
100
AcDbLine
 10
40.82340732467044
 20
170.9446214002634
 30
0.0
 11
42.42340740066636
 21
170.9446214002634
 31
0.0
  0
LINE
  5
240E
330
18
100
AcDbEntity
  8
1
  6
Continuous
100
AcDbLine
 10
42.4234074006664
 20
176.3183143137234
 30
0.0
 11
42.52340702394667
 21
176.3183143137234
 31
0.0
  0
LINE
  5
240F
330
18
100
AcDbEntity
  8
1
  6
Continuous
100
AcDbLine
 10
40.82340732467044
 20
171.8247933365091
 30
0.0
 11
42.42340740066636
 21
171.8247933365091
 31
0.0
  0
LINE
  5
2410
330
18
100
AcDbEntity
  8
1
  6
Continuous
100
AcDbLine
 10
39.32340725342413
 20
154.6795179608253
 30
0.0
 11
40.82340732467032
 21
154.6795179608253
 31
0.0
  0
ARC
  5
2411
330
18
100
AcDbEntity
  8
1
  6
Continuous
100
AcDbCircle
 10
39.32340725342413
 20
155.179517984574
 30
0.0
 40
0.5000000237487347
100
AcDbArc
 50
179.9797840075748
 51
269.9999999999995
  0
LINE
  5
2412
330
18
100
AcDbEntity
  8
1
  6
Continuous
100
AcDbLine
 10
40.82340732467033
 20
157.7483348282221
 30
0.0
 11
41.02340695270012
 21
157.7483348282221
 31
0.0
  0
LINE
  5
2413
330
18
100
AcDbEntity
  8
1
  6
Continuous
100
AcDbLine
 10
41.02340695270115
 20
157.8407227858621
 30
0.0
 11
42.52340702394653
 21
157.8407227858621
 31
0.0
  0
LINE
  5
2414
330
18
100
AcDbEntity
  8
1
  6
Continuous
100
AcDbLine
 10
40.82340732467039
 20
164.1636137489309
 30
0.0
 11
41.02340618976064
 21
164.1636137489309
 31
0.0
  0
LINE
  5
2415
330
18
100
AcDbEntity
  8
1
  6
Continuous
100
AcDbLine
 10
40.82340732467038
 20
163.0795183598038
 30
0.0
 11
41.02340618976064
 21
163.0795183598038
 31
0.0
  0
LINE
  5
2416
330
18
100
AcDbEntity
  8
1
  6
Continuous
100
AcDbLine
 10
42.52340702394469
 20
155.6234118025178
 30
0.0
 11
40.82340732467033
 21
155.6234118025178
 31
0.0
  0
LINE
  5
2417
330
18
100
AcDbEntity
  8
1
  6
Continuous
100
AcDbLine
 10
48.16641232193703
 20
179.4795191387619
 30
0.0
 11
41.02340695270018
 21
179.479519138762
 31
0.0
  0
LINE
  5
2418
330
18
100
AcDbEntity
  8
1
  6
Continuous
100
AcDbLine
 10
41.02340695270227
 20
154.6795179608253
 30
0.0
 11
48.16641105619127
 21
154.6795179608252
 31
0.0
  0
LINE
  5
2420
330
18
100
AcDbEntity
  8
1
  6
Continuous
100
AcDbLine
 10
122.7273657299646
 20
258.2048744309497
 30
0.0
 11
128.8287429532549
 21
258.2048744309497
 31
0.0
  0
LINE
  5
2421
330
18
100
AcDbEntity
  8
1
  6
Continuous
100
AcDbLine
 10
35.2234070586845
 20
168.1147942793766
 30
0.0
 11
35.22340705868462
 21
173.5049740625227
 31
0.0
  0
LINE
  5
2422
330
18
100
AcDbEntity
  8
1
  6
Continuous
100
AcDbLine
 10
35.22340705868446
 20
166.5173634906954
 30
0.0
 11
35.22340705868448
 21
167.641672608892
 31
0.0
  0
LINE
  5
2423
330
18
100
AcDbEntity
  8
1
  6
Continuous
100
AcDbLine
 10
209.5340784261463
 20
168.1147942793766
 30
0.0
 11
209.5340784261461
 21
173.5049740625227
 31
0.0
  0
LINE
  5
2424
330
18
100
AcDbEntity
  8
1
  6
Continuous
100
AcDbLine
 10
209.5340784261463
 20
166.5173634906954
 30
0.0
 11
209.5340784261463
 21
167.641672608892
 31
0.0
  0
LINE
  5
2425
330
18
100
AcDbEntity
  8
1
  6
Continuous
100
AcDbLine
 10
122.7273657299646
 20
39.66333048527144
 30
0.0
 11
128.8287429532549
 21
39.66333048527144
 31
0.0
  0
ENDSEC
  0
SECTION
  2
OBJECTS
  0
DICTIONARY
  5
C
330
0
100
AcDbDictionary
281
     1
  3
ACAD_CIP_PREVIOUS_PRODUCT_INFO
350
24F2
  3
ACAD_COLOR
350
24D5
  3
ACAD_DETAILVIEWSTYLE
350
24EE
  3
ACAD_GROUP
350
D
  3
ACAD_LAYOUT
350
94
  3
ACAD_MATERIAL
350
24A3
  3
ACAD_MLEADERSTYLE
350
24EA
  3
ACAD_MLINESTYLE
350
1B
  3
ACAD_PLOTSETTINGS
350
95
  3
ACAD_PLOTSTYLENAME
350
24A1
  3
ACAD_SCALELIST
350
24D8
  3
ACAD_SECTIONVIEWSTYLE
350
24EC
  3
ACAD_TABLESTYLE
350
24D6
  3
ACAD_VISUALSTYLE
350
24BC
  3
ACDB_RECOMPOSE_DATA
350
2510
  3
AcDbVariableDictionary
350
2503
  3
CONTENTDICTIONARY
350
3D
  3
DWGPROPS
350
2511
  0
DICTIONARY
  5
24F3
330
E
100
AcDbDictionary
280
     1
281
     1
  3
ADSK_XREC_LAYER_RECONCILED
360
24F4
  0
DICTIONARY
  5
24F5
330
4E
100
AcDbDictionary
280
     1
281
     1
  3
ADSK_XREC_LAYER_RECONCILED
360
24F6
  0
DICTIONARY
  5
24F7
330
4F
100
AcDbDictionary
280
     1
281
     1
  3
ADSK_XREC_LAYER_RECONCILED
360
24F8
  0
DICTIONARY
  5
24F9
330
50
100
AcDbDictionary
280
     1
281
     1
  3
ADSK_XREC_LAYER_RECONCILED
360
24FA
  0
DICTIONARY
  5
24FB
330
51
100
AcDbDictionary
280
     1
281
     1
  3
ADSK_XREC_LAYER_RECONCILED
360
24FC
  0
DICTIONARY
  5
24FD
330
52
100
AcDbDictionary
280
     1
281
     1
  3
ADSK_XREC_LAYER_RECONCILED
360
24FE
  0
DICTIONARY
  5
24FF
330
53
100
AcDbDictionary
280
     1
281
     1
  3
ADSK_XREC_LAYER_RECONCILED
360
2500
  0
DICTIONARY
  5
2501
330
54
100
AcDbDictionary
280
     1
281
     1
  3
ADSK_XREC_LAYER_RECONCILED
360
2502
  0
DICTIONARY
  5
249C
330
18
100
AcDbDictionary
281
     1
  3
ACAD_LAYOUTSELFREF
350
249D
  0
DICTIONARY
  5
249A
330
15
100
AcDbDictionary
281
     1
  3
ACAD_LAYOUTSELFREF
350
249B
  0
XRECORD
  5
24F2
102
{ACAD_REACTORS
330
C
102
}
330
C
100
AcDbXrecord
280
     1
300
ACDLT
300
2014
300
ACDLT_F_S
  0
DICTIONARY
  5
24D5
102
{ACAD_REACTORS
330
C
102
}
330
C
100
AcDbDictionary
281
     1
  0
DICTIONARY
  5
24EE
102
{ACAD_REACTORS
330
C
102
}
330
C
100
AcDbDictionary
281
     1
  3
Imperial24
350
24EF
  0
DICTIONARY
  5
D
102
{ACAD_REACTORS
330
C
102
}
330
C
100
AcDbDictionary
281
     1
  0
DICTIONARY
  5
94
102
{ACAD_REACTORS
330
C
102
}
330
C
100
AcDbDictionary
281
     1
  3
Model
350
24F0
  3
レイアウト1
350
24F1
  0
DICTIONARY
  5
24A3
102
{ACAD_REACTORS
330
C
102
}
330
C
100
AcDbDictionary
281
     1
  3
ByBlock
350
24AC
  3
ByLayer
350
24A4
  3
Global
350
24B4
  0
DICTIONARY
  5
24EA
102
{ACAD_REACTORS
330
C
102
}
330
C
100
AcDbDictionary
281
     1
  3
Standard
350
24EB
  0
DICTIONARY
  5
1B
102
{ACAD_REACTORS
330
C
102
}
330
C
100
AcDbDictionary
281
     1
  3
STANDARD
350
1C
  0
DICTIONARY
  5
95
102
{ACAD_REACTORS
330
C
102
}
330
C
100
AcDbDictionary
281
     1
  0
ACDBDICTIONARYWDFLT
  5
24A1
102
{ACAD_REACTORS
330
C
102
}
330
C
100
AcDbDictionary
281
     1
  3
Normal
350
24A2
100
AcDbDictionaryWithDefault
340
24A2
  0
DICTIONARY
  5
24D8
102
{ACAD_REACTORS
330
C
102
}
330
C
100
AcDbDictionary
281
     1
  3
A0
350
24D9
  3
A1
350
24DA
  3
A2
350
24DB
  3
A3
350
24DC
  3
A4
350
24DD
  3
A5
350
24DE
  3
A6
350
24DF
  3
A7
350
24E0
  3
A8
350
24E1
  3
A9
350
24E2
  3
B0
350
24E3
  3
B1
350
24E4
  3
B2
350
24E5
  3
B3
350
24E6
  3
B4
350
24E7
  3
B5
350
24E8
  3
B6
350
24E9
  0
DICTIONARY
  5
24EC
102
{ACAD_REACTORS
330
C
102
}
330
C
100
AcDbDictionary
281
     1
  3
Imperial24
350
24ED
  0
DICTIONARY
  5
24D6
102
{ACAD_REACTORS
330
C
102
}
330
C
100
AcDbDictionary
281
     1
  3
Standard
350
24D7
  0
DICTIONARY
  5
24BC
102
{ACAD_REACTORS
330
C
102
}
330
C
100
AcDbDictionary
281
     1
  3
2dWireframe
350
24C2
  3
Basic
350
24C1
  3
Brighten
350
24C8
  3
ColorChange
350
24CC
  3
Conceptual
350
24C5
  3
Dim
350
24C7
  3
EdgeColorOff
350
24D4
  3
Facepattern
350
24CB
  3
Flat
350
24BD
  3
FlatWithEdges
350
24BE
  3
Gouraud
350
24BF
  3
GouraudWithEdges
350
24C0
  3
Hidden
350
24C4
  3
JitterOff
350
24D2
  3
Linepattern
350
24CA
  3
OverhangOff
350
24D3
  3
Realistic
350
24C6
  3
Shaded
350
24D1
  3
Shaded with edges
350
24D0
  3
Shades of Gray
350
24CD
  3
Sketchy
350
24CE
  3
Thicken
350
24C9
  3
Wireframe
350
24C3
  3
X-Ray
350
24CF
  0
XRECORD
  5
2510
102
{ACAD_REACTORS
330
C
102
}
330
C
100
AcDbXrecord
280
     1
 90
        1
330
24D7
  0
DICTIONARY
  5
2503
102
{ACAD_REACTORS
330
C
102
}
330
C
100
AcDbDictionary
281
     1
  3
CANNOSCALE
350
2508
  3
CMLEADERSTYLE
350
2505
  3
CTABLESTYLE
350
2504
  3
CVIEWDETAILSTYLE
350
2506
  3
CVIEWSECTIONSTYLE
350
2507
  3
DIMASSOC
350
250B
  3
INDEXCTL
350
250A
  3
SORTENTS
350
2509
  3
XCLIPFRAME
350
250C
  0
DICTIONARY
  5
3D
102
{ACAD_REACTORS
330
C
102
}
330
C
100
AcDbDictionary
281
     1
  0
XRECORD
  5
2511
102
{ACAD_REACTORS
330
C
102
}
330
C
100
AcDbXrecord
280
     1
  1
DWGPROPS COOKIE
  2

  3

  4

  6

  7

  8
Yoshitsune
  9

300
=
301
=
302
=
303
=
304
=
305
=
306
=
307
=
308
=
309
=
 40
0.1426706481481481
 41
2453781.59961588
 42
2457192.70069676
  1

 90
        0
  0
XRECORD
  5
24F4
102
{ACAD_REACTORS
330
24F3
102
}
330
24F3
100
AcDbXrecord
280
     1
290
     1
  0
XRECORD
  5
24F6
102
{ACAD_REACTORS
330
24F5
102
}
330
24F5
100
AcDbXrecord
280
     1
290
     1
  0
XRECORD
  5
24F8
102
{ACAD_REACTORS
330
24F7
102
}
330
24F7
100
AcDbXrecord
280
     1
290
     1
  0
XRECORD
  5
24FA
102
{ACAD_REACTORS
330
24F9
102
}
330
24F9
100
AcDbXrecord
280
     1
290
     1
  0
XRECORD
  5
24FC
102
{ACAD_REACTORS
330
24FB
102
}
330
24FB
100
AcDbXrecord
280
     1
290
     1
  0
XRECORD
  5
24FE
102
{ACAD_REACTORS
330
24FD
102
}
330
24FD
100
AcDbXrecord
280
     1
290
     1
  0
XRECORD
  5
2500
102
{ACAD_REACTORS
330
24FF
102
}
330
24FF
100
AcDbXrecord
280
     1
290
     1
  0
XRECORD
  5
2502
102
{ACAD_REACTORS
330
2501
102
}
330
2501
100
AcDbXrecord
280
     1
290
     1
  0
XRECORD
  5
249D
102
{ACAD_REACTORS
330
249C
102
}
330
249C
100
AcDbXrecord
280
     1
340
18
  0
XRECORD
  5
249B
102
{ACAD_REACTORS
330
249A
102
}
330
249A
100
AcDbXrecord
280
     1
340
15
  0
ACDBDETAILVIEWSTYLE
  5
24EF
102
{ACAD_XDICTIONARY
360
2549
102
}
102
{ACAD_REACTORS
330
24EE
102
}
330
24EE
100
AcDbModelDocViewStyle
 70
     0
  3
Imperial24
290
     0
100
AcDbDetailViewStyle
 70
     0
 71
     0
 90
        3
 71
     1
340
F
 40
0.24
340
0
 40
0.24
300

 40
0.36
280
     3
 71
     2
340
14
 90
       25
 71
     3
340
F
 40
0.24
 90
        1
 40
0.75
 90
        1
300
%<\AcVar ViewType \f "%tc1">% %<\AcVar ViewDetailId>%\PSCALE %<\AcVar ViewScale \f "%sn">%
 71
     4
340
14
 90
       25
340
14
 90
       25
280
     0
  0
LAYOUT
  5
24F0
102
{ACAD_XDICTIONARY
360
254B
102
}
102
{ACAD_REACTORS
330
94
102
}
330
94
100
AcDbPlotSettings
  1

  2
Canon LBP9100C
  4

  6

 40
0.0
 41
0.0
 42
0.0
 43
0.0
 44
0.0
 45
0.0
 46
0.0
 47
0.0
 48
0.0
 49
0.0
140
0.0
141
0.0
142
1.0
143
1.0
 70
  1712
 72
     0
 73
     0
 74
     0
  7

 75
     0
147
1.0
148
0.0
149
0.0
100
AcDbLayout
  1
Model
 70
     1
 71
     0
 10
0.0
 20
0.0
 11
12.0
 21
9.0
 12
0.0
 22
0.0
 32
0.0
 14
0.0
 24
0.0
 34
0.0
 15
0.0
 25
0.0
 35
0.0
146
0.0
 13
0.0
 23
0.0
 33
0.0
 16
1.0
 26
0.0
 36
0.0
 17
0.0
 27
1.0
 37
0.0
 76
     0
330
18
331
2499
  0
LAYOUT
  5
24F1
102
{ACAD_XDICTIONARY
360
254D
102
}
102
{ACAD_REACTORS
330
94
102
}
330
94
100
AcDbPlotSettings
  1

  2
Canon LBP9100C
  4

  6

 40
0.0
 41
0.0
 42
0.0
 43
0.0
 44
0.0
 45
0.0
 46
0.0
 47
0.0
 48
0.0
 49
0.0
140
0.0
141
0.0
142
1.0
143
1.0
 70
   688
 72
     0
 73
     0
 74
     5
  7

 75
    16
147
1.0
148
0.0
149
0.0
100
AcDbLayout
  1
レイアウト1
 70
     1
 71
     1
 10
-3.757080078125
 20
-3.757083177566528
 11
293.2112426757812
 21
206.2162444591522
 12
0.0
 22
0.0
 32
0.0
 14
27.8447512626648
 24
20.24591643810271
 34
0.0
 15
250.6027613639831
 25
182.2132479429244
 35
0.0
146
0.0
 13
0.0
 23
0.0
 33
0.0
 16
1.0
 26
0.0
 36
0.0
 17
0.0
 27
1.0
 37
0.0
 76
     0
330
15
  0
MATERIAL
  5
24AC
102
{ACAD_XDICTIONARY
360
24AD
102
}
102
{ACAD_REACTORS
330
24A3
102
}
330
24A3
100
AcDbMaterial
  1
ByBlock
 72
     0
 43
0.0208333333333333
 43
0.0
 43
0.0
 43
0.0
 43
0.0
 43
0.0208333333333333
 43
0.0
 43
0.0
 43
0.0
 43
0.0
 43
1.0
 43
0.0
 43
0.0
 43
0.0
 43
0.0
 43
1.0
 77
     0
 47
0.0208333333333333
 47
0.0
 47
0.0
 47
0.0
 47
0.0
 47
0.0208333333333333
 47
0.0
 47
0.0
 47
0.0
 47
0.0
 47
1.0
 47
0.0
 47
0.0
 47
0.0
 47
0.0
 47
1.0
171
     0
 49
0.0208333333333333
 49
0.0
 49
0.0
 49
0.0
 49
0.0
 49
0.0208333333333333
 49
0.0
 49
0.0
 49
0.0
 49
0.0
 49
1.0
 49
0.0
 49
0.0
 49
0.0
 49
0.0
 49
1.0
175
     0
142
0.0208333333333333
142
0.0
142
0.0
142
0.0
142
0.0
142
0.0208333333333333
142
0.0
142
0.0
142
0.0
142
0.0
142
1.0
142
0.0
142
0.0
142
0.0
142
0.0
142
1.0
179
     0
144
0.0208333333333333
144
0.0
144
0.0
144
0.0
144
0.0
144
0.0208333333333333
144
0.0
144
0.0
144
0.0
144
0.0
144
1.0
144
0.0
144
0.0
144
0.0
144
0.0
144
1.0
147
0.0208333333333333
147
0.0
147
0.0
147
0.0
147
0.0
147
0.0208333333333333
147
0.0
147
0.0
147
0.0
147
0.0
147
1.0
147
0.0
147
0.0
147
0.0
147
0.0
147
1.0
  0
MATERIAL
  5
24A4
102
{ACAD_XDICTIONARY
360
24A5
102
}
102
{ACAD_REACTORS
330
24A3
102
}
330
24A3
100
AcDbMaterial
  1
ByLayer
 72
     0
 43
0.0208333333333333
 43
0.0
 43
0.0
 43
0.0
 43
0.0
 43
0.0208333333333333
 43
0.0
 43
0.0
 43
0.0
 43
0.0
 43
1.0
 43
0.0
 43
0.0
 43
0.0
 43
0.0
 43
1.0
 77
     0
 47
0.0208333333333333
 47
0.0
 47
0.0
 47
0.0
 47
0.0
 47
0.0208333333333333
 47
0.0
 47
0.0
 47
0.0
 47
0.0
 47
1.0
 47
0.0
 47
0.0
 47
0.0
 47
0.0
 47
1.0
171
     0
 49
0.0208333333333333
 49
0.0
 49
0.0
 49
0.0
 49
0.0
 49
0.0208333333333333
 49
0.0
 49
0.0
 49
0.0
 49
0.0
 49
1.0
 49
0.0
 49
0.0
 49
0.0
 49
0.0
 49
1.0
175
     0
142
0.0208333333333333
142
0.0
142
0.0
142
0.0
142
0.0
142
0.0208333333333333
142
0.0
142
0.0
142
0.0
142
0.0
142
1.0
142
0.0
142
0.0
142
0.0
142
0.0
142
1.0
179
     0
144
0.0208333333333333
144
0.0
144
0.0
144
0.0
144
0.0
144
0.0208333333333333
144
0.0
144
0.0
144
0.0
144
0.0
144
1.0
144
0.0
144
0.0
144
0.0
144
0.0
144
1.0
147
0.0208333333333333
147
0.0
147
0.0
147
0.0
147
0.0
147
0.0208333333333333
147
0.0
147
0.0
147
0.0
147
0.0
147
1.0
147
0.0
147
0.0
147
0.0
147
0.0
147
1.0
  0
MATERIAL
  5
24B4
102
{ACAD_XDICTIONARY
360
24B5
102
}
102
{ACAD_REACTORS
330
24A3
102
}
330
24A3
100
AcDbMaterial
  1
Global
 72
     0
 43
0.0208333333333333
 43
0.0
 43
0.0
 43
0.0
 43
0.0
 43
0.0208333333333333
 43
0.0
 43
0.0
 43
0.0
 43
0.0
 43
1.0
 43
0.0
 43
0.0
 43
0.0
 43
0.0
 43
1.0
 77
     0
 47
0.0208333333333333
 47
0.0
 47
0.0
 47
0.0
 47
0.0
 47
0.0208333333333333
 47
0.0
 47
0.0
 47
0.0
 47
0.0
 47
1.0
 47
0.0
 47
0.0
 47
0.0
 47
0.0
 47
1.0
171
     0
 49
0.0208333333333333
 49
0.0
 49
0.0
 49
0.0
 49
0.0
 49
0.0208333333333333
 49
0.0
 49
0.0
 49
0.0
 49
0.0
 49
1.0
 49
0.0
 49
0.0
 49
0.0
 49
0.0
 49
1.0
175
     0
142
0.0208333333333333
142
0.0
142
0.0
142
0.0
142
0.0
142
0.0208333333333333
142
0.0
142
0.0
142
0.0
142
0.0
142
1.0
142
0.0
142
0.0
142
0.0
142
0.0
142
1.0
179
     0
144
0.0208333333333333
144
0.0
144
0.0
144
0.0
144
0.0
144
0.0208333333333333
144
0.0
144
0.0
144
0.0
144
0.0
144
1.0
144
0.0
144
0.0
144
0.0
144
0.0
144
1.0
147
0.0208333333333333
147
0.0
147
0.0
147
0.0
147
0.0
147
0.0208333333333333
147
0.0
147
0.0
147
0.0
147
0.0
147
1.0
147
0.0
147
0.0
147
0.0
147
0.0
147
1.0
  0
MLEADERSTYLE
  5
24EB
102
{ACAD_REACTORS
330
24EA
102
}
330
24EA
100
AcDbMLeaderStyle
170
     2
171
     1
172
     0
 90
        2
 40
0.0
 41
0.0
173
     1
 91
-1056964608
340
12
 92
       -2
290
     1
 42
0.09
291
     1
 43
0.36
  3
Standard
 44
0.18
300

342
F
174
     1
178
     6
175
     1
176
     0
 93
-1056964608
 45
0.18
292
     0
297
     0
 46
0.18
 94
-1056964608
 47
1.0
 49
1.0
140
1.0
293
     1
141
0.0
294
     1
177
     0
142
1.0
295
     0
296
     0
143
0.125
1001
ACAD_MLEADERVER
1070
     2
  0
MLINESTYLE
  5
1C
102
{ACAD_REACTORS
330
1B
102
}
330
1B
100
AcDbMlineStyle
  2
STANDARD
 70
     0
  3

 62
   256
 51
90.0
 52
90.0
 71
     2
 49
0.5
 62
   256
  6
BYLAYER
 49
-0.5
 62
   256
  6
BYLAYER
  0
ACDBPLACEHOLDER
  5
24A2
102
{ACAD_REACTORS
330
24A1
102
}
330
24A1
  0
SCALE
  5
24D9
102
{ACAD_REACTORS
330
24D8
102
}
330
24D8
100
AcDbScale
 70
     0
300
1:1
140
1.0
141
1.0
290
     1
  0
SCALE
  5
24DA
102
{ACAD_REACTORS
330
24D8
102
}
330
24D8
100
AcDbScale
 70
     0
300
1/128" = 1'-0"
140
0.0078125
141
12.0
290
     0
  0
SCALE
  5
24DB
102
{ACAD_REACTORS
330
24D8
102
}
330
24D8
100
AcDbScale
 70
     0
300
1/64" = 1'-0"
140
0.015625
141
12.0
290
     0
  0
SCALE
  5
24DC
102
{ACAD_REACTORS
330
24D8
102
}
330
24D8
100
AcDbScale
 70
     0
300
1/32" = 1'-0"
140
0.03125
141
12.0
290
     0
  0
SCALE
  5
24DD
102
{ACAD_REACTORS
330
24D8
102
}
330
24D8
100
AcDbScale
 70
     0
300
1/16" = 1'-0"
140
0.0625
141
12.0
290
     0
  0
SCALE
  5
24DE
102
{ACAD_REACTORS
330
24D8
102
}
330
24D8
100
AcDbScale
 70
     0
300
3/32" = 1'-0"
140
0.09375
141
12.0
290
     0
  0
SCALE
  5
24DF
102
{ACAD_REACTORS
330
24D8
102
}
330
24D8
100
AcDbScale
 70
     0
300
1/8" = 1'-0"
140
0.125
141
12.0
290
     0
  0
SCALE
  5
24E0
102
{ACAD_REACTORS
330
24D8
102
}
330
24D8
100
AcDbScale
 70
     0
300
3/16" = 1'-0"
140
0.1875
141
12.0
290
     0
  0
SCALE
  5
24E1
102
{ACAD_REACTORS
330
24D8
102
}
330
24D8
100
AcDbScale
 70
     0
300
1/4" = 1'-0"
140
0.25
141
12.0
290
     0
  0
SCALE
  5
24E2
102
{ACAD_REACTORS
330
24D8
102
}
330
24D8
100
AcDbScale
 70
     0
300
3/8" = 1'-0"
140
0.375
141
12.0
290
     0
  0
SCALE
  5
24E3
102
{ACAD_REACTORS
330
24D8
102
}
330
24D8
100
AcDbScale
 70
     0
300
1/2" = 1'-0"
140
0.5
141
12.0
290
     0
  0
SCALE
  5
24E4
102
{ACAD_REACTORS
330
24D8
102
}
330
24D8
100
AcDbScale
 70
     0
300
3/4" = 1'-0"
140
0.75
141
12.0
290
     0
  0
SCALE
  5
24E5
102
{ACAD_REACTORS
330
24D8
102
}
330
24D8
100
AcDbScale
 70
     0
300
1" = 1'-0"
140
1.0
141
12.0
290
     0
  0
SCALE
  5
24E6
102
{ACAD_REACTORS
330
24D8
102
}
330
24D8
100
AcDbScale
 70
     0
300
1-1/2" = 1'-0"
140
1.5
141
12.0
290
     0
  0
SCALE
  5
24E7
102
{ACAD_REACTORS
330
24D8
102
}
330
24D8
100
AcDbScale
 70
     0
300
3" = 1'-0"
140
3.0
141
12.0
290
     0
  0
SCALE
  5
24E8
102
{ACAD_REACTORS
330
24D8
102
}
330
24D8
100
AcDbScale
 70
     0
300
6" = 1'-0"
140
6.0
141
12.0
290
     0
  0
SCALE
  5
24E9
102
{ACAD_REACTORS
330
24D8
102
}
330
24D8
100
AcDbScale
 70
     0
300
1'-0" = 1'-0"
140
12.0
141
12.0
290
     0
  0
ACDBSECTIONVIEWSTYLE
  5
24ED
102
{ACAD_XDICTIONARY
360
2547
102
}
102
{ACAD_REACTORS
330
24EC
102
}
330
24EC
100
AcDbModelDocViewStyle
 70
     0
  3
Imperial24
290
     0
100
AcDbSectionViewStyle
 70
     0
 71
     0
 90
       78
 71
     1
340
F
 40
0.24
340
0
340
0
 40
0.24
300
I, O, Q, S, X, Z
 40
0.48
 90
        3
 40
0.18
 90
        1
 71
     2
340
14
 90
       25
340
14
 90
       50
 40
0.24
 40
0.0
 40
0.24
 71
     3
340
F
 40
0.24
 90
        1
 40
0.75
 90
        1
300
%<\AcVar ViewType \f "%tc1">% %<\AcVar ViewSectionStartId>%-%<\AcVar ViewSectionEndId>%\PSCALE %<\AcVar ViewScale \f "%sn">%
 71
     4
300
ANSI31
 40
1.0
 90
        0
290
     0
290
     0
 90
        6
 40
0.0
 40
1.570796326794896
 40
0.2617993877991494
 40
1.308996938995747
 40
-0.2617993877991494
 40
1.832595714594046
  0
TABLESTYLE
  5
24D7
102
{ACAD_XDICTIONARY
360
250E
102
}
102
{ACAD_REACTORS
330
24D6
102
}
330
24D6
100
AcDbTableStyle
  3
Standard
 70
     0
 71
     0
 40
0.06
 41
0.06
280
     0
281
     0
  7
STANDARD
140
0.18
170
     2
 62
     0
 63
     7
283
     0
274
    -2
284
     1
 64
     0
275
    -2
285
     1
 65
     0
276
    -2
286
     1
 66
     0
277
    -2
287
     1
 67
     0
278
    -2
288
     1
 68
     0
279
    -2
289
     1
 69
     0
  7
STANDARD
140
0.25
170
     5
 62
     0
 63
     7
283
     0
274
    -2
284
     1
 64
     0
275
    -2
285
     1
 65
     0
276
    -2
286
     1
 66
     0
277
    -2
287
     1
 67
     0
278
    -2
288
     1
 68
     0
279
    -2
289
     1
 69
     0
  7
STANDARD
140
0.18
170
     5
 62
     0
 63
     7
283
     0
274
    -2
284
     1
 64
     0
275
    -2
285
     1
 65
     0
276
    -2
286
     1
 66
     0
277
    -2
287
     1
 67
     0
278
    -2
288
     1
 68
     0
279
    -2
289
     1
 69
     0
  0
VISUALSTYLE
  5
24C2
102
{ACAD_XDICTIONARY
360
251F
102
}
102
{ACAD_REACTORS
330
24BC
102
}
330
24BC
100
AcDbVisualStyle
  2
2dWireframe
 70
     4
 71
     0
 72
     2
 73
     0
 90
        0
 40
-0.6
 41
-30.0
 62
     5
 63
     7
 74
     1
 91
        4
 64
     7
 65
   257
 75
     1
175
     1
 42
1.0
 92
        0
 66
   257
 43
1.0
 76
     1
 77
     6
 78
     2
 67
     7
 79
     5
170
     0
171
     0
290
     0
174
     0
 93
        1
 44
0.0
173
     0
291
     0
 45
0.0
1001
ACAD
1000
AcDbSavedByObjectVersion
1070
     0
  0
VISUALSTYLE
  5
24C1
102
{ACAD_XDICTIONARY
360
251D
102
}
102
{ACAD_REACTORS
330
24BC
102
}
330
24BC
100
AcDbVisualStyle
  2
Basic
 70
     7
 71
     1
 72
     0
 73
     1
 90
        0
 40
-0.6
 41
-30.0
 62
     5
 63
     7
 74
     0
 91
        4
 64
     7
 65
   257
 75
     1
175
     1
 42
1.0
 92
        8
 66
     7
 43
1.0
 76
     1
 77
     6
 78
     2
 67
     7
 79
     5
170
     0
171
     0
290
     0
174
     0
 93
        1
 44
0.0
173
     0
291
     1
 45
0.0
1001
ACAD
1000
AcDbSavedByObjectVersion
1070
     0
  0
VISUALSTYLE
  5
24C8
102
{ACAD_XDICTIONARY
360
252B
102
}
102
{ACAD_REACTORS
330
24BC
102
}
330
24BC
100
AcDbVisualStyle
  2
Brighten
 70
    12
 71
     2
 72
     2
 73
     0
 90
        0
 40
-0.6
 41
-30.0
 62
     5
 63
     7
 74
     1
 91
        4
 64
     7
 65
   257
 75
     1
175
     1
 42
1.0
 92
        8
 66
     7
 43
1.0
 76
     1
 77
     6
 78
     2
 67
     7
 79
     5
170
     0
171
     0
290
     0
174
     0
 93
        1
 44
50.0
173
     0
291
     1
 45
0.0
1001
ACAD
1000
AcDbSavedByObjectVersion
1070
     0
  0
VISUALSTYLE
  5
24CC
102
{ACAD_XDICTIONARY
360
2533
102
}
102
{ACAD_REACTORS
330
24BC
102
}
330
24BC
100
AcDbVisualStyle
  2
ColorChange
 70
    16
 71
     2
 72
     2
 73
     3
 90
        0
 40
-0.6
 41
-30.0
 62
     5
 63
     8
 74
     1
 91
        4
 64
     7
 65
   257
 75
     1
175
     1
 42
1.0
 92
        8
 66
     8
 43
1.0
 76
     1
 77
     6
 78
     2
 67
     7
 79
     5
170
     0
171
     0
290
     0
174
     0
 93
        1
 44
0.0
173
     0
291
     1
 45
0.0
1001
ACAD
1000
AcDbSavedByObjectVersion
1070
     0
  0
VISUALSTYLE
  5
24C5
102
{ACAD_XDICTIONARY
360
2525
102
}
102
{ACAD_REACTORS
330
24BC
102
}
330
24BC
100
AcDbVisualStyle
  2
Conceptual
 70
     9
 71
     3
 72
     2
 73
     0
 90
        0
 40
-0.6
 41
-30.0
 62
     5
 63
     7
 74
     2
 91
        2
 64
     7
 65
   257
 75
     1
175
     1
 42
179.0
 92
        8
 66
     7
 43
1.0
 76
     1
 77
     6
 78
     2
 67
     7
 79
     3
170
     0
171
     0
290
     0
174
     0
 93
        1
 44
0.0
173
     0
291
     0
 45
0.0
1001
ACAD
1000
AcDbSavedByObjectVersion
1070
     0
  0
VISUALSTYLE
  5
24C7
102
{ACAD_XDICTIONARY
360
2529
102
}
102
{ACAD_REACTORS
330
24BC
102
}
330
24BC
100
AcDbVisualStyle
  2
Dim
 70
    11
 71
     2
 72
     2
 73
     0
 90
        0
 40
-0.6
 41
-30.0
 62
     5
 63
     7
 74
     1
 91
        4
 64
     7
 65
   257
 75
     1
175
     1
 42
1.0
 92
        8
 66
     7
 43
1.0
 76
     1
 77
     6
 78
     2
 67
     7
 79
     5
170
     0
171
     0
290
     0
174
     0
 93
        1
 44
-50.0
173
     0
291
     1
 45
0.0
1001
ACAD
1000
AcDbSavedByObjectVersion
1070
     0
  0
VISUALSTYLE
  5
24D4
102
{ACAD_XDICTIONARY
360
2543
102
}
102
{ACAD_REACTORS
330
24BC
102
}
330
24BC
100
AcDbVisualStyle
  2
EdgeColorOff
 70
    22
 71
     2
 72
     2
 73
     0
 90
        0
 40
-0.6
 41
-30.0
 62
     5
 63
     7
 74
     1
 91
        4
 64
     7
 65
   257
 75
     1
175
     1
 42
1.0
 92
        8
 66
     7
 43
1.0
 76
     1
 77
     6
 78
     2
 67
     7
 79
     5
170
     0
171
     0
290
     0
174
     0
 93
        1
 44
0.0
173
     0
291
     1
 45
0.0
1001
ACAD
1000
AcDbSavedByObjectVersion
1070
     0
  0
VISUALSTYLE
  5
24CB
102
{ACAD_XDICTIONARY
360
2531
102
}
102
{ACAD_REACTORS
330
24BC
102
}
330
24BC
100
AcDbVisualStyle
  2
Facepattern
 70
    15
 71
     2
 72
     2
 73
     0
 90
        0
 40
-0.6
 41
-30.0
 62
     5
 63
     7
 74
     1
 91
        4
 64
     7
 65
   257
 75
     1
175
     1
 42
1.0
 92
        8
 66
     7
 43
1.0
 76
     1
 77
     6
 78
     2
 67
     7
 79
     5
170
     0
171
     0
290
     0
174
     0
 93
        1
 44
0.0
173
     0
291
     1
 45
0.0
1001
ACAD
1000
AcDbSavedByObjectVersion
1070
     0
  0
VISUALSTYLE
  5
24BD
102
{ACAD_XDICTIONARY
360
2515
102
}
102
{ACAD_REACTORS
330
24BC
102
}
330
24BC
100
AcDbVisualStyle
  2
Flat
 70
     0
 71
     2
 72
     1
 73
     1
 90
        2
 40
-0.6
 41
30.0
 62
     5
 63
     7
 74
     0
 91
        0
 64
     7
 65
   257
 75
     1
175
     1
 42
1.0
 92
        8
 66
     7
 43
1.0
 76
     1
 77
     6
 78
     2
 67
     7
 79
     5
170
     0
171
     0
290
     0
174
     0
 93
       13
 44
0.0
173
     0
291
     1
 45
0.0
1001
ACAD
1000
AcDbSavedByObjectVersion
1070
     0
  0
VISUALSTYLE
  5
24BE
102
{ACAD_XDICTIONARY
360
2517
102
}
102
{ACAD_REACTORS
330
24BC
102
}
330
24BC
100
AcDbVisualStyle
  2
FlatWithEdges
 70
     1
 71
     2
 72
     1
 73
     1
 90
        2
 40
-0.6
 41
30.0
 62
     5
 63
     7
 74
     1
 91
        0
 64
     7
 65
   257
 75
     1
175
     1
 42
1.0
 92
        0
 66
   257
 43
1.0
 76
     1
 77
     6
 78
     2
 67
     7
 79
     5
170
     0
171
     0
290
     0
174
     0
 93
       13
 44
0.0
173
     0
291
     1
 45
0.0
1001
ACAD
1000
AcDbSavedByObjectVersion
1070
     0
  0
VISUALSTYLE
  5
24BF
102
{ACAD_XDICTIONARY
360
2519
102
}
102
{ACAD_REACTORS
330
24BC
102
}
330
24BC
100
AcDbVisualStyle
  2
Gouraud
 70
     2
 71
     2
 72
     2
 73
     1
 90
        2
 40
-0.6
 41
30.0
 62
     5
 63
     7
 74
     0
 91
        0
 64
     7
 65
   257
 75
     1
175
     1
 42
1.0
 92
        0
 66
     7
 43
1.0
 76
     1
 77
     6
 78
     2
 67
     7
 79
     5
170
     0
171
     0
290
     0
174
     0
 93
       13
 44
0.0
173
     0
291
     1
 45
0.0
1001
ACAD
1000
AcDbSavedByObjectVersion
1070
     0
  0
VISUALSTYLE
  5
24C0
102
{ACAD_XDICTIONARY
360
251B
102
}
102
{ACAD_REACTORS
330
24BC
102
}
330
24BC
100
AcDbVisualStyle
  2
GouraudWithEdges
 70
     3
 71
     2
 72
     2
 73
     1
 90
        2
 40
-0.6
 41
30.0
 62
     5
 63
     7
 74
     1
 91
        0
 64
     7
 65
   257
 75
     1
175
     1
 42
1.0
 92
        0
 66
   257
 43
1.0
 76
     1
 77
     6
 78
     2
 67
     7
 79
     5
170
     0
171
     0
290
     0
174
     0
 93
       13
 44
0.0
173
     0
291
     1
 45
0.0
1001
ACAD
1000
AcDbSavedByObjectVersion
1070
     0
  0
VISUALSTYLE
  5
24C4
102
{ACAD_XDICTIONARY
360
2523
102
}
102
{ACAD_REACTORS
330
24BC
102
}
330
24BC
100
AcDbVisualStyle
  2
Hidden
 70
     6
 71
     1
 72
     2
 73
     2
 90
        0
 40
-0.6
 41
-30.0
 62
     5
 63
     7
 74
     2
 91
        2
 64
     7
 65
   257
 75
     2
175
     1
 42
40.0
 92
        0
 66
   257
 43
1.0
 76
     1
 77
     6
 78
     2
 67
     7
 79
     3
170
     0
171
     0
290
     0
174
     0
 93
        1
 44
0.0
173
     0
291
     0
 45
0.0
1001
ACAD
1000
AcDbSavedByObjectVersion
1070
     0
  0
VISUALSTYLE
  5
24D2
102
{ACAD_XDICTIONARY
360
253F
102
}
102
{ACAD_REACTORS
330
24BC
102
}
330
24BC
100
AcDbVisualStyle
  2
JitterOff
 70
    20
 71
     2
 72
     2
 73
     0
 90
        0
 40
-0.6
 41
-30.0
 62
     5
 63
     7
 74
     1
 91
        4
 64
     7
 65
   257
 75
     1
175
     1
 42
1.0
 92
       10
 66
     7
 43
1.0
 76
     1
 77
     6
 78
     2
 67
     7
 79
     5
170
     0
171
     0
290
     0
174
     0
 93
        1
 44
0.0
173
     0
291
     1
 45
0.0
1001
ACAD
1000
AcDbSavedByObjectVersion
1070
     0
  0
VISUALSTYLE
  5
24CA
102
{ACAD_XDICTIONARY
360
252F
102
}
102
{ACAD_REACTORS
330
24BC
102
}
330
24BC
100
AcDbVisualStyle
  2
Linepattern
 70
    14
 71
     2
 72
     2
 73
     0
 90
        0
 40
-0.6
 41
-30.0
 62
     5
 63
     7
 74
     1
 91
        4
 64
     7
 65
   257
 75
     7
175
     7
 42
1.0
 92
        8
 66
     7
 43
1.0
 76
     1
 77
     6
 78
     2
 67
     7
 79
     5
170
     0
171
     0
290
     0
174
     0
 93
        1
 44
0.0
173
     0
291
     1
 45
0.0
1001
ACAD
1000
AcDbSavedByObjectVersion
1070
     0
  0
VISUALSTYLE
  5
24D3
102
{ACAD_XDICTIONARY
360
2541
102
}
102
{ACAD_REACTORS
330
24BC
102
}
330
24BC
100
AcDbVisualStyle
  2
OverhangOff
 70
    21
 71
     2
 72
     2
 73
     0
 90
        0
 40
-0.6
 41
-30.0
 62
     5
 63
     7
 74
     1
 91
        4
 64
     7
 65
   257
 75
     1
175
     1
 42
1.0
 92
        9
 66
     7
 43
1.0
 76
     1
 77
     6
 78
     2
 67
     7
 79
     5
170
     0
171
     0
290
     0
174
     0
 93
        1
 44
0.0
173
     0
291
     1
 45
0.0
1001
ACAD
1000
AcDbSavedByObjectVersion
1070
     0
  0
VISUALSTYLE
  5
24C6
102
{ACAD_XDICTIONARY
360
2527
102
}
102
{ACAD_REACTORS
330
24BC
102
}
330
24BC
100
AcDbVisualStyle
  2
Realistic
 70
     8
 71
     2
 72
     3
 73
     0
 90
        2
 40
-0.6
 41
30.0
 62
     5
 63
     7
 74
     0
 91
        0
 64
     7
 65
   257
 75
     1
175
     1
 42
1.0
 92
        8
 66
   257
 43
1.0
 76
     1
 77
     6
 78
     2
 67
     7
 79
     3
170
     0
171
     0
290
     0
174
     0
 93
       13
 44
0.0
173
     0
291
     0
 45
0.0
1001
ACAD
1000
AcDbSavedByObjectVersion
1070
     0
  0
VISUALSTYLE
  5
24D1
102
{ACAD_XDICTIONARY
360
253D
102
}
102
{ACAD_REACTORS
330
24BC
102
}
330
24BC
100
AcDbVisualStyle
  2
Shaded
 70
    27
 71
     2
 72
     2
 73
     1
 90
        2
 40
-0.6
 41
30.0
 62
     5
 63
     7
 74
     0
 91
        4
 64
     7
 65
   257
 75
     1
175
     1
 42
1.0
 92
        8
 66
   257
 43
1.0
 76
     1
 77
     6
 78
     2
 67
     8
 79
     3
170
     0
171
     0
290
     0
174
     0
 93
        5
 44
0.0
173
     0
291
     0
 45
0.0
1001
ACAD
1000
AcDbSavedByObjectVersion
1070
     0
  0
VISUALSTYLE
  5
24D0
102
{ACAD_XDICTIONARY
360
253B
102
}
102
{ACAD_REACTORS
330
24BC
102
}
330
24BC
100
AcDbVisualStyle
  2
Shaded with edges
 70
    26
 71
     2
 72
     2
 73
     1
 90
        2
 40
-0.6
 41
30.0
 62
     5
 63
     7
 74
     1
 91
       10
 64
     7
 65
   257
 75
     2
175
     1
 42
1.0
 92
        8
 66
   257
 43
1.0
 76
     1
 77
     6
 78
     2
 67
     7
 79
     3
170
     0
171
     0
290
     0
174
     0
 93
        5
 44
0.0
173
     0
291
     0
 45
0.0
1001
ACAD
1000
AcDbSavedByObjectVersion
1070
     0
  0
VISUALSTYLE
  5
24CD
102
{ACAD_XDICTIONARY
360
2535
102
}
102
{ACAD_REACTORS
330
24BC
102
}
330
24BC
100
AcDbVisualStyle
  2
Shades of Gray
 70
    23
 71
     2
 72
     2
 73
     3
 90
        0
 40
-0.6
 41
-30.0
 62
     5
 63
     7
 74
     2
 91
        2
 64
     7
 65
     7
 75
     1
175
     1
 42
40.0
 92
        8
 66
     7
 43
1.0
 76
     1
 77
     6
 78
     2
 67
     7
 79
     3
170
     0
171
     0
290
     0
174
     0
 93
        1
 44
0.0
173
     0
291
     0
 45
0.0
1001
ACAD
1000
AcDbSavedByObjectVersion
1070
     0
  0
VISUALSTYLE
  5
24CE
102
{ACAD_XDICTIONARY
360
2537
102
}
102
{ACAD_REACTORS
330
24BC
102
}
330
24BC
100
AcDbVisualStyle
  2
Sketchy
 70
    24
 71
     1
 72
     2
 73
     2
 90
        0
 40
-0.6
 41
-30.0
 62
     5
 63
     7
 74
     2
 91
        2
 64
     7
 65
     7
 75
     1
175
     1
 42
40.0
 92
       11
 66
     7
 43
1.0
 76
     1
 77
     6
 78
     2
 67
     7
 79
     6
170
     0
171
     0
290
     0
174
     0
 93
        1
 44
0.0
173
     0
291
     0
 45
0.0
1001
ACAD
1000
AcDbSavedByObjectVersion
1070
     0
  0
VISUALSTYLE
  5
24C9
102
{ACAD_XDICTIONARY
360
252D
102
}
102
{ACAD_REACTORS
330
24BC
102
}
330
24BC
100
AcDbVisualStyle
  2
Thicken
 70
    13
 71
     2
 72
     2
 73
     0
 90
        0
 40
-0.6
 41
-30.0
 62
     5
 63
     7
 74
     1
 91
        4
 64
     7
 65
   257
 75
     1
175
     1
 42
1.0
 92
       12
 66
     7
 43
1.0
 76
     1
 77
     6
 78
     2
 67
     7
 79
     5
170
     0
171
     0
290
     0
174
     0
 93
        1
 44
0.0
173
     0
291
     1
 45
0.0
1001
ACAD
1000
AcDbSavedByObjectVersion
1070
     0
  0
VISUALSTYLE
  5
24C3
102
{ACAD_XDICTIONARY
360
2521
102
}
102
{ACAD_REACTORS
330
24BC
102
}
330
24BC
100
AcDbVisualStyle
  2
Wireframe
 70
     5
 71
     0
 72
     2
 73
     0
 90
        0
 40
-0.6
 41
-30.0
 62
     5
 63
     7
 74
     1
 91
        4
 64
     7
 65
   257
 75
     1
175
     1
 42
1.0
 92
        0
 66
   257
 43
1.0
 76
     1
 77
     6
 78
     2
 67
     7
 79
     3
170
     0
171
     0
290
     0
174
     0
 93
        1
 44
0.0
173
     0
291
     0
 45
0.0
1001
ACAD
1000
AcDbSavedByObjectVersion
1070
     0
  0
VISUALSTYLE
  5
24CF
102
{ACAD_XDICTIONARY
360
2539
102
}
102
{ACAD_REACTORS
330
24BC
102
}
330
24BC
100
AcDbVisualStyle
  2
X-Ray
 70
    25
 71
     2
 72
     2
 73
     1
 90
        1
 40
0.5
 41
-30.0
 62
     5
 63
     7
 74
     1
 91
        0
 64
     7
 65
   257
 75
     1
175
     1
 42
1.0
 92
        8
 66
     7
 43
1.0
 76
     1
 77
     6
 78
     2
 67
     7
 79
     3
170
     0
171
     0
290
     0
174
     0
 93
       13
 44
0.0
173
     0
291
     0
 45
0.0
1001
ACAD
1000
AcDbSavedByObjectVersion
1070
     0
  0
DICTIONARYVAR
  5
2508
102
{ACAD_REACTORS
330
2503
102
}
330
2503
100
DictionaryVariables
280
     0
  1
1:1
  0
DICTIONARYVAR
  5
2505
102
{ACAD_REACTORS
330
2503
102
}
330
2503
100
DictionaryVariables
280
     0
  1
STANDARD
  0
DICTIONARYVAR
  5
2504
102
{ACAD_REACTORS
330
2503
102
}
330
2503
100
DictionaryVariables
280
     0
  1
STANDARD
  0
DICTIONARYVAR
  5
2506
102
{ACAD_REACTORS
330
2503
102
}
330
2503
100
DictionaryVariables
280
     0
  1
Imperial24
  0
DICTIONARYVAR
  5
2507
102
{ACAD_REACTORS
330
2503
102
}
330
2503
100
DictionaryVariables
280
     0
  1
Imperial24
  0
DICTIONARYVAR
  5
250B
102
{ACAD_REACTORS
330
2503
102
}
330
2503
100
DictionaryVariables
280
     0
  1
1
  0
DICTIONARYVAR
  5
250A
102
{ACAD_REACTORS
330
2503
102
}
330
2503
100
DictionaryVariables
280
     0
  1
0
  0
DICTIONARYVAR
  5
2509
102
{ACAD_REACTORS
330
2503
102
}
330
2503
100
DictionaryVariables
280
     0
  1
127
  0
DICTIONARYVAR
  5
250C
102
{ACAD_REACTORS
330
2503
102
}
330
2503
100
DictionaryVariables
280
     0
  1
2
  0
DICTIONARY
  5
2549
330
24EF
100
AcDbDictionary
280
     1
281
     1
  3
ACAD_XREC_ROUNDTRIP
360
254A
  0
DICTIONARY
  5
254B
330
24F0
100
AcDbDictionary
280
     1
281
     1
  3
ACAD_XREC_ROUNDTRIP
360
254C
  0
DICTIONARY
  5
254D
330
24F1
100
AcDbDictionary
280
     1
281
     1
  3
ACAD_XREC_ROUNDTRIP
360
254E
  0
DICTIONARY
  5
24AD
330
24AC
100
AcDbDictionary
280
     1
281
     1
  3
ACAD_XREC_ROUNDTRIP
360
2513
  3
BUMPTILE
360
24AF
  3
DIFFUSETILE
360
24AE
  3
OPACITYTILE
360
24B2
  3
REFLECTIONTILE
360
24B1
  3
REFRACTIONTILE
360
24B3
  3
SPECULARTILE
360
24B0
  0
DICTIONARY
  5
24A5
330
24A4
100
AcDbDictionary
280
     1
281
     1
  3
ACAD_XREC_ROUNDTRIP
360
2512
  3
BUMPTILE
360
24A7
  3
DIFFUSETILE
360
24A6
  3
OPACITYTILE
360
24AA
  3
REFLECTIONTILE
360
24A9
  3
REFRACTIONTILE
360
24AB
  3
SPECULARTILE
360
24A8
  0
DICTIONARY
  5
24B5
330
24B4
100
AcDbDictionary
280
     1
281
     1
  3
ACAD_XREC_ROUNDTRIP
360
2514
  3
BUMPTILE
360
24B7
  3
DIFFUSETILE
360
24B6
  3
OPACITYTILE
360
24BA
  3
REFLECTIONTILE
360
24B9
  3
REFRACTIONTILE
360
24BB
  3
SPECULARTILE
360
24B8
  0
DICTIONARY
  5
2547
330
24ED
100
AcDbDictionary
280
     1
281
     1
  3
ACAD_XREC_ROUNDTRIP
360
2548
  0
DICTIONARY
  5
250E
330
24D7
100
AcDbDictionary
280
     1
281
     1
  3
ACAD_ROUNDTRIP_2008_TABLESTYLE_CELLSTYLEMAP
360
250F
  3
ACAD_XREC_ROUNDTRIP
360
2545
  0
DICTIONARY
  5
251F
330
24C2
100
AcDbDictionary
280
     1
281
     1
  3
ACAD_XREC_ROUNDTRIP
360
2520
  0
DICTIONARY
  5
251D
330
24C1
100
AcDbDictionary
280
     1
281
     1
  3
ACAD_XREC_ROUNDTRIP
360
251E
  0
DICTIONARY
  5
252B
330
24C8
100
AcDbDictionary
280
     1
281
     1
  3
ACAD_XREC_ROUNDTRIP
360
252C
  0
DICTIONARY
  5
2533
330
24CC
100
AcDbDictionary
280
     1
281
     1
  3
ACAD_XREC_ROUNDTRIP
360
2534
  0
DICTIONARY
  5
2525
330
24C5
100
AcDbDictionary
280
     1
281
     1
  3
ACAD_XREC_ROUNDTRIP
360
2526
  0
DICTIONARY
  5
2529
330
24C7
100
AcDbDictionary
280
     1
281
     1
  3
ACAD_XREC_ROUNDTRIP
360
252A
  0
DICTIONARY
  5
2543
330
24D4
100
AcDbDictionary
280
     1
281
     1
  3
ACAD_XREC_ROUNDTRIP
360
2544
  0
DICTIONARY
  5
2531
330
24CB
100
AcDbDictionary
280
     1
281
     1
  3
ACAD_XREC_ROUNDTRIP
360
2532
  0
DICTIONARY
  5
2515
330
24BD
100
AcDbDictionary
280
     1
281
     1
  3
ACAD_XREC_ROUNDTRIP
360
2516
  0
DICTIONARY
  5
2517
330
24BE
100
AcDbDictionary
280
     1
281
     1
  3
ACAD_XREC_ROUNDTRIP
360
2518
  0
DICTIONARY
  5
2519
330
24BF
100
AcDbDictionary
280
     1
281
     1
  3
ACAD_XREC_ROUNDTRIP
360
251A
  0
DICTIONARY
  5
251B
330
24C0
100
AcDbDictionary
280
     1
281
     1
  3
ACAD_XREC_ROUNDTRIP
360
251C
  0
DICTIONARY
  5
2523
330
24C4
100
AcDbDictionary
280
     1
281
     1
  3
ACAD_XREC_ROUNDTRIP
360
2524
  0
DICTIONARY
  5
253F
330
24D2
100
AcDbDictionary
280
     1
281
     1
  3
ACAD_XREC_ROUNDTRIP
360
2540
  0
DICTIONARY
  5
252F
330
24CA
100
AcDbDictionary
280
     1
281
     1
  3
ACAD_XREC_ROUNDTRIP
360
2530
  0
DICTIONARY
  5
2541
330
24D3
100
AcDbDictionary
280
     1
281
     1
  3
ACAD_XREC_ROUNDTRIP
360
2542
  0
DICTIONARY
  5
2527
330
24C6
100
AcDbDictionary
280
     1
281
     1
  3
ACAD_XREC_ROUNDTRIP
360
2528
  0
DICTIONARY
  5
253D
330
24D1
100
AcDbDictionary
280
     1
281
     1
  3
ACAD_XREC_ROUNDTRIP
360
253E
  0
DICTIONARY
  5
253B
330
24D0
100
AcDbDictionary
280
     1
281
     1
  3
ACAD_XREC_ROUNDTRIP
360
253C
  0
DICTIONARY
  5
2535
330
24CD
100
AcDbDictionary
280
     1
281
     1
  3
ACAD_XREC_ROUNDTRIP
360
2536
  0
DICTIONARY
  5
2537
330
24CE
100
AcDbDictionary
280
     1
281
     1
  3
ACAD_XREC_ROUNDTRIP
360
2538
  0
DICTIONARY
  5
252D
330
24C9
100
AcDbDictionary
280
     1
281
     1
  3
ACAD_XREC_ROUNDTRIP
360
252E
  0
DICTIONARY
  5
2521
330
24C3
100
AcDbDictionary
280
     1
281
     1
  3
ACAD_XREC_ROUNDTRIP
360
2522
  0
DICTIONARY
  5
2539
330
24CF
100
AcDbDictionary
280
     1
281
     1
  3
ACAD_XREC_ROUNDTRIP
360
253A
  0
XRECORD
  5
254A
102
{ACAD_REACTORS
330
2549
102
}
330
2549
100
AcDbXrecord
280
     1
102
DISPLAYNAME
  1
Imperial24
102
FLAGS
 90
        0
  0
XRECORD
  5
254C
102
{ACAD_REACTORS
330
254B
102
}
330
254B
100
AcDbXrecord
280
     1
102
SHADEPLOT
 70
     0
102
SHADEPLOTRESLEVEL
 70
     2
102
SHADEPLOTCUSTOMDPI
 70
   300
  0
XRECORD
  5
254E
102
{ACAD_REACTORS
330
254D
102
}
330
254D
100
AcDbXrecord
280
     1
102
SHADEPLOT
 70
     0
102
SHADEPLOTRESLEVEL
 70
     2
102
SHADEPLOTCUSTOMDPI
 70
   300
  0
XRECORD
  5
2513
102
{ACAD_REACTORS
330
24AD
102
}
330
24AD
100
AcDbXrecord
280
     1
102
MATERIAL
148
0.0
149
0.0
149
0.0
 93
        0
 94
      127
282
     0
 72
     0
 77
     0
171
     0
175
     0
179
     0
273
     0
  0
XRECORD
  5
24AF
102
{ACAD_REACTORS
330
24AD
102
}
330
24AD
100
AcDbXrecord
280
     1
270
     1
271
     1
  0
XRECORD
  5
24AE
102
{ACAD_REACTORS
330
24AD
102
}
330
24AD
100
AcDbXrecord
280
     1
270
     1
271
     1
  0
XRECORD
  5
24B2
102
{ACAD_REACTORS
330
24AD
102
}
330
24AD
100
AcDbXrecord
280
     1
270
     1
271
     1
  0
XRECORD
  5
24B1
102
{ACAD_REACTORS
330
24AD
102
}
330
24AD
100
AcDbXrecord
280
     1
270
     1
271
     1
  0
XRECORD
  5
24B3
102
{ACAD_REACTORS
330
24AD
102
}
330
24AD
100
AcDbXrecord
280
     1
270
     1
271
     1
  0
XRECORD
  5
24B0
102
{ACAD_REACTORS
330
24AD
102
}
330
24AD
100
AcDbXrecord
280
     1
270
     1
271
     1
  0
XRECORD
  5
2512
102
{ACAD_REACTORS
330
24A5
102
}
330
24A5
100
AcDbXrecord
280
     1
102
MATERIAL
148
0.0
149
0.0
149
0.0
 93
        0
 94
      127
282
     0
 72
     0
 77
     0
171
     0
175
     0
179
     0
273
     0
  0
XRECORD
  5
24A7
102
{ACAD_REACTORS
330
24A5
102
}
330
24A5
100
AcDbXrecord
280
     1
270
     1
271
     1
  0
XRECORD
  5
24A6
102
{ACAD_REACTORS
330
24A5
102
}
330
24A5
100
AcDbXrecord
280
     1
270
     1
271
     1
  0
XRECORD
  5
24AA
102
{ACAD_REACTORS
330
24A5
102
}
330
24A5
100
AcDbXrecord
280
     1
270
     1
271
     1
  0
XRECORD
  5
24A9
102
{ACAD_REACTORS
330
24A5
102
}
330
24A5
100
AcDbXrecord
280
     1
270
     1
271
     1
  0
XRECORD
  5
24AB
102
{ACAD_REACTORS
330
24A5
102
}
330
24A5
100
AcDbXrecord
280
     1
270
     1
271
     1
  0
XRECORD
  5
24A8
102
{ACAD_REACTORS
330
24A5
102
}
330
24A5
100
AcDbXrecord
280
     1
270
     1
271
     1
  0
XRECORD
  5
2514
102
{ACAD_REACTORS
330
24B5
102
}
330
24B5
100
AcDbXrecord
280
     1
102
MATERIAL
148
0.0
149
0.0
149
0.0
 93
        0
 94
      127
282
     0
 72
     0
 77
     0
171
     0
175
     0
179
     0
273
     0
  0
XRECORD
  5
24B7
102
{ACAD_REACTORS
330
24B5
102
}
330
24B5
100
AcDbXrecord
280
     1
270
     1
271
     1
  0
XRECORD
  5
24B6
102
{ACAD_REACTORS
330
24B5
102
}
330
24B5
100
AcDbXrecord
280
     1
270
     1
271
     1
  0
XRECORD
  5
24BA
102
{ACAD_REACTORS
330
24B5
102
}
330
24B5
100
AcDbXrecord
280
     1
270
     1
271
     1
  0
XRECORD
  5
24B9
102
{ACAD_REACTORS
330
24B5
102
}
330
24B5
100
AcDbXrecord
280
     1
270
     1
271
     1
  0
XRECORD
  5
24BB
102
{ACAD_REACTORS
330
24B5
102
}
330
24B5
100
AcDbXrecord
280
     1
270
     1
271
     1
  0
XRECORD
  5
24B8
102
{ACAD_REACTORS
330
24B5
102
}
330
24B5
100
AcDbXrecord
280
     1
270
     1
271
     1
  0
XRECORD
  5
2548
102
{ACAD_REACTORS
330
2547
102
}
330
2547
100
AcDbXrecord
280
     1
102
DISPLAYNAME
  1
Imperial24
102
FLAGS
 90
        0
  0
CELLSTYLEMAP
  5
250F
102
{ACAD_REACTORS
330
250E
102
}
330
250E
100
AcDbCellStyleMap
 90
        3
300
CELLSTYLE
  1
TABLEFORMAT_BEGIN
 90
        5
170
     1
 91
        0
 92
    32768
 62
   257
 93
        1
300
CONTENTFORMAT
  1
CONTENTFORMAT_BEGIN
 90
        0
 91
        0
 92
      512
 93
        0
300

 40
0.0
140
1.0
 94
        5
 62
     0
340
F
144
0.25
309
CONTENTFORMAT_END
171
     0
 94
        0
309
TABLEFORMAT_END
  1
CELLSTYLE_BEGIN
 90
        1
 91
        1
300
_TITLE
309
CELLSTYLE_END
300
CELLSTYLE
  1
TABLEFORMAT_BEGIN
 90
        5
170
     1
 91
        0
 92
        0
 62
   257
 93
        1
300
CONTENTFORMAT
  1
CONTENTFORMAT_BEGIN
 90
        0
 91
        0
 92
      512
 93
        0
300

 40
0.0
140
1.0
 94
        5
 62
     0
340
F
144
0.18
309
CONTENTFORMAT_END
171
     0
 94
        0
309
TABLEFORMAT_END
  1
CELLSTYLE_BEGIN
 90
        2
 91
        1
300
_HEADER
309
CELLSTYLE_END
300
CELLSTYLE
  1
TABLEFORMAT_BEGIN
 90
        5
170
     1
 91
        0
 92
        0
 62
   257
 93
        1
300
CONTENTFORMAT
  1
CONTENTFORMAT_BEGIN
 90
        0
 91
        0
 92
      512
 93
        0
300

 40
0.0
140
1.0
 94
        2
 62
     0
340
F
144
0.18
309
CONTENTFORMAT_END
171
     0
 94
        0
309
TABLEFORMAT_END
  1
CELLSTYLE_BEGIN
 90
        3
 91
        2
300
_DATA
309
CELLSTYLE_END
  0
XRECORD
  5
2545
102
{ACAD_REACTORS
330
250E
102
}
330
250E
100
AcDbXrecord
280
     1
102
ACAD_ROUNDTRIP_PRE2007_TABLESTYLE
 90
      512
 91
        0
  1

 92
      512
 93
        0
  2

 94
      512
 95
        0
  3

  0
XRECORD
  5
2520
102
{ACAD_REACTORS
330
251F
102
}
330
251F
100
AcDbXrecord
280
     1
102
RTVSPost2010Prop28
280
     1
102
RTVSPost2010PropOp28
 70
     1
102
RTVSPost2010Prop29
280
     1
102
RTVSPost2010PropOp29
 70
     1
102
RTVSPost2010Prop30
280
     0
102
RTVSPost2010PropOp30
 70
     1
102
RTVSPost2010Prop31
280
     0
102
RTVSPost2010PropOp31
 70
     1
102
RTVSPost2010Prop32
280
     0
102
RTVSPost2010PropOp32
 70
     1
102
RTVSPost2010Prop33
280
     0
102
RTVSPost2010PropOp33
 70
     1
102
RTVSPost2010Prop34
280
     0
102
RTVSPost2010PropOp34
 70
     1
102
RTVSPost2010Prop35
280
     0
102
RTVSPost2010PropOp35
 70
     1
102
RTVSPost2010Prop36
280
     0
102
RTVSPost2010PropOp36
 70
     1
102
RTVSPost2010Prop37
 90
       50
102
RTVSPost2010PropOp37
 70
     1
102
RTVSPost2010Prop38
140
0.0
102
RTVSPost2010PropOp38
 70
     1
102
RTVSPost2010Prop39
140
1.0
102
RTVSPost2010PropOp39
 70
     1
102
RTVSPost2010Prop40
 90
        0
102
RTVSPost2010PropOp40
 70
     1
102
RTVSPost2010Prop41ColorIndex
 90
       18
102
RTVSPost2010Prop41ColorRGB
 90
        0
102
RTVSPost2010PropOp41
 70
     1
102
RTVSPost2010Prop42
 90
       50
102
RTVSPost2010PropOp42
 70
     1
102
RTVSPost2010Prop43
 90
        3
102
RTVSPost2010PropOp43
 70
     1
102
RTVSPost2010Prop44ColorIndex
 90
        5
102
RTVSPost2010Prop44ColorRGB
 90
      255
102
RTVSPost2010PropOp44
 70
     1
102
RTVSPost2010Prop45
280
     0
102
RTVSPost2010PropOp45
 70
     1
102
RTVSPost2010Prop46
 90
       50
102
RTVSPost2010PropOp46
 70
     1
102
RTVSPost2010Prop47
 90
       50
102
RTVSPost2010PropOp47
 70
     1
102
RTVSPost2010Prop48
 90
       50
102
RTVSPost2010PropOp48
 70
     1
102
RTVSPost2010Prop49
280
     0
102
RTVSPost2010PropOp49
 70
     1
102
RTVSPost2010Prop50
 90
       50
102
RTVSPost2010PropOp50
 70
     1
102
RTVSPost2010Prop51ColorIndex
 90
      256
102
RTVSPost2010Prop51ColorRGB
 90
-16777216
102
RTVSPost2010PropOp51
 70
     0
102
RTVSPost2010Prop52
140
1.0
102
RTVSPost2010PropOp52
 70
     0
102
RTVSPost2010Prop53
 90
        2
102
RTVSPost2010PropOp53
 70
     1
102
RTVSPost2010Prop54
  1
strokes_ogs.tif
102
RTVSPost2010PropOp54
 70
     1
102
RTVSPost2010Prop55
280
     0
102
RTVSPost2010PropOp55
 70
     1
102
RTVSPost2010Prop56
140
1.0
102
RTVSPost2010PropOp56
 70
     1
102
RTVSPost2010Prop57
140
1.0
102
RTVSPost2010PropOp57
 70
     1
102
RTVSPropertyOp0
 70
     1
102
RTVSPropertyOp1
 70
     1
102
RTVSPropertyOp2
 70
     1
102
RTVSPropertyOp3
 70
     1
102
RTVSPropertyOp4
 70
     1
102
RTVSPropertyOp5
 70
     1
102
RTVSPropertyOp6
 70
     1
102
RTVSPropertyOp7
 70
     1
102
RTVSPropertyOp8
 70
     1
102
RTVSPropertyOp9
 70
     1
102
RTVSPropertyOp10
 70
     1
102
RTVSPropertyOp11
 70
     1
102
RTVSPropertyOp12
 70
     1
102
RTVSPropertyOp13
 70
     1
102
RTVSPropertyOp14
 70
     1
102
RTVSPropertyOp15
 70
     1
102
RTVSPropertyOp16
 70
     1
102
RTVSPropertyOp17
 70
     1
102
RTVSPropertyOp18
 70
     1
102
RTVSPropertyOp19
 70
     1
102
RTVSPropertyOp20
 70
     1
102
RTVSPropertyOp21
 70
     1
102
RTVSPropertyOp22
 70
     1
102
RTVSPropertyOp23
 70
     1
102
RTVSPropertyOp24
 70
     1
102
RTVSPropertyOp25
 70
     1
102
RTVSPropertyOp26
 70
     1
102
RTVSPropertyOp27
 70
     1
102
RTVSPropertyOp28
 70
     1
102
RTVSPropertyOp29
 70
     1
102
RTVSPropertyOp30
 70
     1
102
RTVSPropertyOp31
 70
     1
102
RTVSPropertyOp32
 70
     1
102
RTVSPropertyOp33
 70
     1
102
RTVSPropertyOp34
 70
     1
102
RTVSPropertyOp35
 70
     1
102
RTVSPropertyOp36
 70
     1
102
RTVSPropertyOp37
 70
     1
102
RTVSPropertyOp38
 70
     1
102
RTVSPropertyOp39
 70
     1
102
RTVSPropertyOp40
 70
     1
102
RTVSPropertyOp41
 70
     1
102
RTVSPropertyOp42
 70
     1
102
RTVSPropertyOp43
 70
     1
102
RTVSPropertyOp44
 70
     1
102
RTVSPropertyOp45
 70
     1
102
RTVSPropertyOp46
 70
     1
102
RTVSPropertyOp47
 70
     1
102
RTVSPropertyOp48
 70
     1
102
RTVSPropertyOp49
 70
     1
102
RTVSPropertyOp50
 70
     1
102
RTVSPropertyOp51
 70
     0
102
RTVSPropertyOp52
 70
     0
102
RTVSPropertyOp53
 70
     1
102
RTVSPropertyOp54
 70
     1
102
RTVSPropertyOp55
 70
     1
102
RTVSPropertyOp56
 70
     1
102
RTVSPropertyOp57
 70
     1
102
RTVSPropertyOp58
 70
     1
102
RTVSPropertyOp59
 70
     1
102
RTVSPropertyOp60
 70
     1
102
RTVSPropertyOp61
 70
     1
102
RTVSPropertyOp62
 70
     1
  0
XRECORD
  5
251E
102
{ACAD_REACTORS
330
251D
102
}
330
251D
100
AcDbXrecord
280
     1
102
RTVSPost2010Prop28
280
     0
102
RTVSPost2010PropOp28
 70
     1
102
RTVSPost2010Prop29
280
     1
102
RTVSPost2010PropOp29
 70
     1
102
RTVSPost2010Prop30
280
     1
102
RTVSPost2010PropOp30
 70
     1
102
RTVSPost2010Prop31
280
     0
102
RTVSPost2010PropOp31
 70
     1
102
RTVSPost2010Prop32
280
     0
102
RTVSPost2010PropOp32
 70
     1
102
RTVSPost2010Prop33
280
     0
102
RTVSPost2010PropOp33
 70
     1
102
RTVSPost2010Prop34
280
     0
102
RTVSPost2010PropOp34
 70
     1
102
RTVSPost2010Prop35
280
     0
102
RTVSPost2010PropOp35
 70
     1
102
RTVSPost2010Prop36
280
     0
102
RTVSPost2010PropOp36
 70
     1
102
RTVSPost2010Prop37
 90
       50
102
RTVSPost2010PropOp37
 70
     1
102
RTVSPost2010Prop38
140
0.0
102
RTVSPost2010PropOp38
 70
     1
102
RTVSPost2010Prop39
140
1.0
102
RTVSPost2010PropOp39
 70
     1
102
RTVSPost2010Prop40
 90
        0
102
RTVSPost2010PropOp40
 70
     1
102
RTVSPost2010Prop41ColorIndex
 90
       18
102
RTVSPost2010Prop41ColorRGB
 90
        0
102
RTVSPost2010PropOp41
 70
     1
102
RTVSPost2010Prop42
 90
       50
102
RTVSPost2010PropOp42
 70
     1
102
RTVSPost2010Prop43
 90
        3
102
RTVSPost2010PropOp43
 70
     1
102
RTVSPost2010Prop44ColorIndex
 90
        5
102
RTVSPost2010Prop44ColorRGB
 90
      255
102
RTVSPost2010PropOp44
 70
     1
102
RTVSPost2010Prop45
280
     0
102
RTVSPost2010PropOp45
 70
     1
102
RTVSPost2010Prop46
 90
       50
102
RTVSPost2010PropOp46
 70
     1
102
RTVSPost2010Prop47
 90
       50
102
RTVSPost2010PropOp47
 70
     1
102
RTVSPost2010Prop48
 90
       50
102
RTVSPost2010PropOp48
 70
     1
102
RTVSPost2010Prop49
280
     0
102
RTVSPost2010PropOp49
 70
     1
102
RTVSPost2010Prop50
 90
       50
102
RTVSPost2010PropOp50
 70
     1
102
RTVSPost2010Prop51ColorIndex
 90
      256
102
RTVSPost2010Prop51ColorRGB
 90
-16777216
102
RTVSPost2010PropOp51
 70
     0
102
RTVSPost2010Prop52
140
1.0
102
RTVSPost2010PropOp52
 70
     0
102
RTVSPost2010Prop53
 90
        2
102
RTVSPost2010PropOp53
 70
     1
102
RTVSPost2010Prop54
  1
strokes_ogs.tif
102
RTVSPost2010PropOp54
 70
     1
102
RTVSPost2010Prop55
280
     0
102
RTVSPost2010PropOp55
 70
     1
102
RTVSPost2010Prop56
140
1.0
102
RTVSPost2010PropOp56
 70
     1
102
RTVSPost2010Prop57
140
1.0
102
RTVSPost2010PropOp57
 70
     1
102
RTVSPropertyOp0
 70
     1
102
RTVSPropertyOp1
 70
     1
102
RTVSPropertyOp2
 70
     1
102
RTVSPropertyOp3
 70
     1
102
RTVSPropertyOp4
 70
     1
102
RTVSPropertyOp5
 70
     1
102
RTVSPropertyOp6
 70
     1
102
RTVSPropertyOp7
 70
     1
102
RTVSPropertyOp8
 70
     1
102
RTVSPropertyOp9
 70
     1
102
RTVSPropertyOp10
 70
     1
102
RTVSPropertyOp11
 70
     1
102
RTVSPropertyOp12
 70
     1
102
RTVSPropertyOp13
 70
     1
102
RTVSPropertyOp14
 70
     1
102
RTVSPropertyOp15
 70
     1
102
RTVSPropertyOp16
 70
     1
102
RTVSPropertyOp17
 70
     1
102
RTVSPropertyOp18
 70
     1
102
RTVSPropertyOp19
 70
     1
102
RTVSPropertyOp20
 70
     1
102
RTVSPropertyOp21
 70
     1
102
RTVSPropertyOp22
 70
     1
102
RTVSPropertyOp23
 70
     1
102
RTVSPropertyOp24
 70
     1
102
RTVSPropertyOp25
 70
     1
102
RTVSPropertyOp26
 70
     1
102
RTVSPropertyOp27
 70
     1
102
RTVSPropertyOp28
 70
     1
102
RTVSPropertyOp29
 70
     1
102
RTVSPropertyOp30
 70
     1
102
RTVSPropertyOp31
 70
     1
102
RTVSPropertyOp32
 70
     1
102
RTVSPropertyOp33
 70
     1
102
RTVSPropertyOp34
 70
     1
102
RTVSPropertyOp35
 70
     1
102
RTVSPropertyOp36
 70
     1
102
RTVSPropertyOp37
 70
     1
102
RTVSPropertyOp38
 70
     1
102
RTVSPropertyOp39
 70
     1
102
RTVSPropertyOp40
 70
     1
102
RTVSPropertyOp41
 70
     1
102
RTVSPropertyOp42
 70
     1
102
RTVSPropertyOp43
 70
     1
102
RTVSPropertyOp44
 70
     1
102
RTVSPropertyOp45
 70
     1
102
RTVSPropertyOp46
 70
     1
102
RTVSPropertyOp47
 70
     1
102
RTVSPropertyOp48
 70
     1
102
RTVSPropertyOp49
 70
     1
102
RTVSPropertyOp50
 70
     1
102
RTVSPropertyOp51
 70
     0
102
RTVSPropertyOp52
 70
     0
102
RTVSPropertyOp53
 70
     1
102
RTVSPropertyOp54
 70
     1
102
RTVSPropertyOp55
 70
     1
102
RTVSPropertyOp56
 70
     1
102
RTVSPropertyOp57
 70
     1
102
RTVSPropertyOp58
 70
     1
102
RTVSPropertyOp59
 70
     1
102
RTVSPropertyOp60
 70
     1
102
RTVSPropertyOp61
 70
     1
102
RTVSPropertyOp62
 70
     1
  0
XRECORD
  5
252C
102
{ACAD_REACTORS
330
252B
102
}
330
252B
100
AcDbXrecord
280
     1
102
RTVSPost2010Prop28
280
     0
102
RTVSPost2010PropOp28
 70
     1
102
RTVSPost2010Prop29
280
     1
102
RTVSPost2010PropOp29
 70
     1
102
RTVSPost2010Prop30
280
     1
102
RTVSPost2010PropOp30
 70
     1
102
RTVSPost2010Prop31
280
     0
102
RTVSPost2010PropOp31
 70
     1
102
RTVSPost2010Prop32
280
     0
102
RTVSPost2010PropOp32
 70
     1
102
RTVSPost2010Prop33
280
     0
102
RTVSPost2010PropOp33
 70
     1
102
RTVSPost2010Prop34
280
     0
102
RTVSPost2010PropOp34
 70
     1
102
RTVSPost2010Prop35
280
     0
102
RTVSPost2010PropOp35
 70
     1
102
RTVSPost2010Prop36
280
     0
102
RTVSPost2010PropOp36
 70
     1
102
RTVSPost2010Prop37
 90
       50
102
RTVSPost2010PropOp37
 70
     1
102
RTVSPost2010Prop38
140
0.0
102
RTVSPost2010PropOp38
 70
     1
102
RTVSPost2010Prop39
140
1.0
102
RTVSPost2010PropOp39
 70
     1
102
RTVSPost2010Prop40
 90
        0
102
RTVSPost2010PropOp40
 70
     1
102
RTVSPost2010Prop41ColorIndex
 90
       18
102
RTVSPost2010Prop41ColorRGB
 90
        0
102
RTVSPost2010PropOp41
 70
     1
102
RTVSPost2010Prop42
 90
       50
102
RTVSPost2010PropOp42
 70
     1
102
RTVSPost2010Prop43
 90
        3
102
RTVSPost2010PropOp43
 70
     1
102
RTVSPost2010Prop44ColorIndex
 90
        5
102
RTVSPost2010Prop44ColorRGB
 90
      255
102
RTVSPost2010PropOp44
 70
     1
102
RTVSPost2010Prop45
280
     0
102
RTVSPost2010PropOp45
 70
     1
102
RTVSPost2010Prop46
 90
       50
102
RTVSPost2010PropOp46
 70
     1
102
RTVSPost2010Prop47
 90
       50
102
RTVSPost2010PropOp47
 70
     1
102
RTVSPost2010Prop48
 90
       50
102
RTVSPost2010PropOp48
 70
     1
102
RTVSPost2010Prop49
280
     0
102
RTVSPost2010PropOp49
 70
     1
102
RTVSPost2010Prop50
 90
       50
102
RTVSPost2010PropOp50
 70
     1
102
RTVSPost2010Prop51ColorIndex
 90
      256
102
RTVSPost2010Prop51ColorRGB
 90
-16777216
102
RTVSPost2010PropOp51
 70
     0
102
RTVSPost2010Prop52
140
1.0
102
RTVSPost2010PropOp52
 70
     0
102
RTVSPost2010Prop53
 90
        2
102
RTVSPost2010PropOp53
 70
     1
102
RTVSPost2010Prop54
  1
strokes_ogs.tif
102
RTVSPost2010PropOp54
 70
     1
102
RTVSPost2010Prop55
280
     0
102
RTVSPost2010PropOp55
 70
     1
102
RTVSPost2010Prop56
140
1.0
102
RTVSPost2010PropOp56
 70
     1
102
RTVSPost2010Prop57
140
1.0
102
RTVSPost2010PropOp57
 70
     1
102
RTVSPropertyOp0
 70
     1
102
RTVSPropertyOp1
 70
     1
102
RTVSPropertyOp2
 70
     1
102
RTVSPropertyOp3
 70
     1
102
RTVSPropertyOp4
 70
     1
102
RTVSPropertyOp5
 70
     1
102
RTVSPropertyOp6
 70
     1
102
RTVSPropertyOp7
 70
     1
102
RTVSPropertyOp8
 70
     1
102
RTVSPropertyOp9
 70
     1
102
RTVSPropertyOp10
 70
     1
102
RTVSPropertyOp11
 70
     1
102
RTVSPropertyOp12
 70
     1
102
RTVSPropertyOp13
 70
     1
102
RTVSPropertyOp14
 70
     1
102
RTVSPropertyOp15
 70
     1
102
RTVSPropertyOp16
 70
     1
102
RTVSPropertyOp17
 70
     1
102
RTVSPropertyOp18
 70
     1
102
RTVSPropertyOp19
 70
     1
102
RTVSPropertyOp20
 70
     1
102
RTVSPropertyOp21
 70
     1
102
RTVSPropertyOp22
 70
     1
102
RTVSPropertyOp23
 70
     1
102
RTVSPropertyOp24
 70
     1
102
RTVSPropertyOp25
 70
     1
102
RTVSPropertyOp26
 70
     1
102
RTVSPropertyOp27
 70
     1
102
RTVSPropertyOp28
 70
     1
102
RTVSPropertyOp29
 70
     1
102
RTVSPropertyOp30
 70
     1
102
RTVSPropertyOp31
 70
     1
102
RTVSPropertyOp32
 70
     1
102
RTVSPropertyOp33
 70
     1
102
RTVSPropertyOp34
 70
     1
102
RTVSPropertyOp35
 70
     1
102
RTVSPropertyOp36
 70
     1
102
RTVSPropertyOp37
 70
     1
102
RTVSPropertyOp38
 70
     1
102
RTVSPropertyOp39
 70
     1
102
RTVSPropertyOp40
 70
     1
102
RTVSPropertyOp41
 70
     1
102
RTVSPropertyOp42
 70
     1
102
RTVSPropertyOp43
 70
     1
102
RTVSPropertyOp44
 70
     1
102
RTVSPropertyOp45
 70
     1
102
RTVSPropertyOp46
 70
     1
102
RTVSPropertyOp47
 70
     1
102
RTVSPropertyOp48
 70
     1
102
RTVSPropertyOp49
 70
     1
102
RTVSPropertyOp50
 70
     1
102
RTVSPropertyOp51
 70
     0
102
RTVSPropertyOp52
 70
     0
102
RTVSPropertyOp53
 70
     1
102
RTVSPropertyOp54
 70
     1
102
RTVSPropertyOp55
 70
     1
102
RTVSPropertyOp56
 70
     1
102
RTVSPropertyOp57
 70
     1
102
RTVSPropertyOp58
 70
     1
102
RTVSPropertyOp59
 70
     1
102
RTVSPropertyOp60
 70
     1
102
RTVSPropertyOp61
 70
     1
102
RTVSPropertyOp62
 70
     1
  0
XRECORD
  5
2534
102
{ACAD_REACTORS
330
2533
102
}
330
2533
100
AcDbXrecord
280
     1
102
RTVSPost2010Prop28
280
     0
102
RTVSPost2010PropOp28
 70
     1
102
RTVSPost2010Prop29
280
     1
102
RTVSPost2010PropOp29
 70
     1
102
RTVSPost2010Prop30
280
     1
102
RTVSPost2010PropOp30
 70
     1
102
RTVSPost2010Prop31
280
     0
102
RTVSPost2010PropOp31
 70
     1
102
RTVSPost2010Prop32
280
     0
102
RTVSPost2010PropOp32
 70
     1
102
RTVSPost2010Prop33
280
     0
102
RTVSPost2010PropOp33
 70
     1
102
RTVSPost2010Prop34
280
     0
102
RTVSPost2010PropOp34
 70
     1
102
RTVSPost2010Prop35
280
     0
102
RTVSPost2010PropOp35
 70
     1
102
RTVSPost2010Prop36
280
     0
102
RTVSPost2010PropOp36
 70
     1
102
RTVSPost2010Prop37
 90
       50
102
RTVSPost2010PropOp37
 70
     1
102
RTVSPost2010Prop38
140
0.0
102
RTVSPost2010PropOp38
 70
     1
102
RTVSPost2010Prop39
140
1.0
102
RTVSPost2010PropOp39
 70
     1
102
RTVSPost2010Prop40
 90
        0
102
RTVSPost2010PropOp40
 70
     1
102
RTVSPost2010Prop41ColorIndex
 90
       18
102
RTVSPost2010Prop41ColorRGB
 90
        0
102
RTVSPost2010PropOp41
 70
     1
102
RTVSPost2010Prop42
 90
       50
102
RTVSPost2010PropOp42
 70
     1
102
RTVSPost2010Prop43
 90
        3
102
RTVSPost2010PropOp43
 70
     1
102
RTVSPost2010Prop44ColorIndex
 90
        5
102
RTVSPost2010Prop44ColorRGB
 90
      255
102
RTVSPost2010PropOp44
 70
     1
102
RTVSPost2010Prop45
280
     0
102
RTVSPost2010PropOp45
 70
     1
102
RTVSPost2010Prop46
 90
       50
102
RTVSPost2010PropOp46
 70
     1
102
RTVSPost2010Prop47
 90
       50
102
RTVSPost2010PropOp47
 70
     1
102
RTVSPost2010Prop48
 90
       50
102
RTVSPost2010PropOp48
 70
     1
102
RTVSPost2010Prop49
280
     0
102
RTVSPost2010PropOp49
 70
     1
102
RTVSPost2010Prop50
 90
       50
102
RTVSPost2010PropOp50
 70
     1
102
RTVSPost2010Prop51ColorIndex
 90
      256
102
RTVSPost2010Prop51ColorRGB
 90
-16777216
102
RTVSPost2010PropOp51
 70
     0
102
RTVSPost2010Prop52
140
1.0
102
RTVSPost2010PropOp52
 70
     0
102
RTVSPost2010Prop53
 90
        2
102
RTVSPost2010PropOp53
 70
     1
102
RTVSPost2010Prop54
  1
strokes_ogs.tif
102
RTVSPost2010PropOp54
 70
     1
102
RTVSPost2010Prop55
280
     0
102
RTVSPost2010PropOp55
 70
     1
102
RTVSPost2010Prop56
140
1.0
102
RTVSPost2010PropOp56
 70
     1
102
RTVSPost2010Prop57
140
1.0
102
RTVSPost2010PropOp57
 70
     1
102
RTVSPropertyOp0
 70
     1
102
RTVSPropertyOp1
 70
     1
102
RTVSPropertyOp2
 70
     1
102
RTVSPropertyOp3
 70
     1
102
RTVSPropertyOp4
 70
     1
102
RTVSPropertyOp5
 70
     1
102
RTVSPropertyOp6
 70
     1
102
RTVSPropertyOp7
 70
     1
102
RTVSPropertyOp8
 70
     1
102
RTVSPropertyOp9
 70
     1
102
RTVSPropertyOp10
 70
     1
102
RTVSPropertyOp11
 70
     1
102
RTVSPropertyOp12
 70
     1
102
RTVSPropertyOp13
 70
     1
102
RTVSPropertyOp14
 70
     1
102
RTVSPropertyOp15
 70
     1
102
RTVSPropertyOp16
 70
     1
102
RTVSPropertyOp17
 70
     1
102
RTVSPropertyOp18
 70
     1
102
RTVSPropertyOp19
 70
     1
102
RTVSPropertyOp20
 70
     1
102
RTVSPropertyOp21
 70
     1
102
RTVSPropertyOp22
 70
     1
102
RTVSPropertyOp23
 70
     1
102
RTVSPropertyOp24
 70
     1
102
RTVSPropertyOp25
 70
     1
102
RTVSPropertyOp26
 70
     1
102
RTVSPropertyOp27
 70
     1
102
RTVSPropertyOp28
 70
     1
102
RTVSPropertyOp29
 70
     1
102
RTVSPropertyOp30
 70
     1
102
RTVSPropertyOp31
 70
     1
102
RTVSPropertyOp32
 70
     1
102
RTVSPropertyOp33
 70
     1
102
RTVSPropertyOp34
 70
     1
102
RTVSPropertyOp35
 70
     1
102
RTVSPropertyOp36
 70
     1
102
RTVSPropertyOp37
 70
     1
102
RTVSPropertyOp38
 70
     1
102
RTVSPropertyOp39
 70
     1
102
RTVSPropertyOp40
 70
     1
102
RTVSPropertyOp41
 70
     1
102
RTVSPropertyOp42
 70
     1
102
RTVSPropertyOp43
 70
     1
102
RTVSPropertyOp44
 70
     1
102
RTVSPropertyOp45
 70
     1
102
RTVSPropertyOp46
 70
     1
102
RTVSPropertyOp47
 70
     1
102
RTVSPropertyOp48
 70
     1
102
RTVSPropertyOp49
 70
     1
102
RTVSPropertyOp50
 70
     1
102
RTVSPropertyOp51
 70
     0
102
RTVSPropertyOp52
 70
     0
102
RTVSPropertyOp53
 70
     1
102
RTVSPropertyOp54
 70
     1
102
RTVSPropertyOp55
 70
     1
102
RTVSPropertyOp56
 70
     1
102
RTVSPropertyOp57
 70
     1
102
RTVSPropertyOp58
 70
     1
102
RTVSPropertyOp59
 70
     1
102
RTVSPropertyOp60
 70
     1
102
RTVSPropertyOp61
 70
     1
102
RTVSPropertyOp62
 70
     1
  0
XRECORD
  5
2526
102
{ACAD_REACTORS
330
2525
102
}
330
2525
100
AcDbXrecord
280
     1
102
RTVSPost2010Prop28
280
     0
102
RTVSPost2010PropOp28
 70
     1
102
RTVSPost2010Prop29
280
     1
102
RTVSPost2010PropOp29
 70
     1
102
RTVSPost2010Prop30
280
     1
102
RTVSPost2010PropOp30
 70
     1
102
RTVSPost2010Prop31
280
     0
102
RTVSPost2010PropOp31
 70
     1
102
RTVSPost2010Prop32
280
     0
102
RTVSPost2010PropOp32
 70
     1
102
RTVSPost2010Prop33
280
     0
102
RTVSPost2010PropOp33
 70
     1
102
RTVSPost2010Prop34
280
     0
102
RTVSPost2010PropOp34
 70
     1
102
RTVSPost2010Prop35
280
     0
102
RTVSPost2010PropOp35
 70
     1
102
RTVSPost2010Prop36
280
     0
102
RTVSPost2010PropOp36
 70
     1
102
RTVSPost2010Prop37
 90
       50
102
RTVSPost2010PropOp37
 70
     1
102
RTVSPost2010Prop38
140
0.0
102
RTVSPost2010PropOp38
 70
     1
102
RTVSPost2010Prop39
140
1.0
102
RTVSPost2010PropOp39
 70
     1
102
RTVSPost2010Prop40
 90
        0
102
RTVSPost2010PropOp40
 70
     1
102
RTVSPost2010Prop41ColorIndex
 90
       18
102
RTVSPost2010Prop41ColorRGB
 90
        0
102
RTVSPost2010PropOp41
 70
     1
102
RTVSPost2010Prop42
 90
       50
102
RTVSPost2010PropOp42
 70
     1
102
RTVSPost2010Prop43
 90
        3
102
RTVSPost2010PropOp43
 70
     1
102
RTVSPost2010Prop44ColorIndex
 90
        5
102
RTVSPost2010Prop44ColorRGB
 90
      255
102
RTVSPost2010PropOp44
 70
     1
102
RTVSPost2010Prop45
280
     0
102
RTVSPost2010PropOp45
 70
     1
102
RTVSPost2010Prop46
 90
       50
102
RTVSPost2010PropOp46
 70
     1
102
RTVSPost2010Prop47
 90
       50
102
RTVSPost2010PropOp47
 70
     1
102
RTVSPost2010Prop48
 90
       50
102
RTVSPost2010PropOp48
 70
     1
102
RTVSPost2010Prop49
280
     0
102
RTVSPost2010PropOp49
 70
     1
102
RTVSPost2010Prop50
 90
       50
102
RTVSPost2010PropOp50
 70
     1
102
RTVSPost2010Prop51ColorIndex
 90
      256
102
RTVSPost2010Prop51ColorRGB
 90
-16777216
102
RTVSPost2010PropOp51
 70
     0
102
RTVSPost2010Prop52
140
1.0
102
RTVSPost2010PropOp52
 70
     0
102
RTVSPost2010Prop53
 90
        2
102
RTVSPost2010PropOp53
 70
     1
102
RTVSPost2010Prop54
  1
strokes_ogs.tif
102
RTVSPost2010PropOp54
 70
     1
102
RTVSPost2010Prop55
280
     0
102
RTVSPost2010PropOp55
 70
     1
102
RTVSPost2010Prop56
140
1.0
102
RTVSPost2010PropOp56
 70
     1
102
RTVSPost2010Prop57
140
1.0
102
RTVSPost2010PropOp57
 70
     1
102
RTVSPropertyOp0
 70
     1
102
RTVSPropertyOp1
 70
     1
102
RTVSPropertyOp2
 70
     1
102
RTVSPropertyOp3
 70
     1
102
RTVSPropertyOp4
 70
     1
102
RTVSPropertyOp5
 70
     1
102
RTVSPropertyOp6
 70
     1
102
RTVSPropertyOp7
 70
     1
102
RTVSPropertyOp8
 70
     1
102
RTVSPropertyOp9
 70
     1
102
RTVSPropertyOp10
 70
     1
102
RTVSPropertyOp11
 70
     1
102
RTVSPropertyOp12
 70
     1
102
RTVSPropertyOp13
 70
     1
102
RTVSPropertyOp14
 70
     1
102
RTVSPropertyOp15
 70
     1
102
RTVSPropertyOp16
 70
     1
102
RTVSPropertyOp17
 70
     1
102
RTVSPropertyOp18
 70
     1
102
RTVSPropertyOp19
 70
     1
102
RTVSPropertyOp20
 70
     1
102
RTVSPropertyOp21
 70
     1
102
RTVSPropertyOp22
 70
     1
102
RTVSPropertyOp23
 70
     1
102
RTVSPropertyOp24
 70
     1
102
RTVSPropertyOp25
 70
     1
102
RTVSPropertyOp26
 70
     1
102
RTVSPropertyOp27
 70
     1
102
RTVSPropertyOp28
 70
     1
102
RTVSPropertyOp29
 70
     1
102
RTVSPropertyOp30
 70
     1
102
RTVSPropertyOp31
 70
     1
102
RTVSPropertyOp32
 70
     1
102
RTVSPropertyOp33
 70
     1
102
RTVSPropertyOp34
 70
     1
102
RTVSPropertyOp35
 70
     1
102
RTVSPropertyOp36
 70
     1
102
RTVSPropertyOp37
 70
     1
102
RTVSPropertyOp38
 70
     1
102
RTVSPropertyOp39
 70
     1
102
RTVSPropertyOp40
 70
     1
102
RTVSPropertyOp41
 70
     1
102
RTVSPropertyOp42
 70
     1
102
RTVSPropertyOp43
 70
     1
102
RTVSPropertyOp44
 70
     1
102
RTVSPropertyOp45
 70
     1
102
RTVSPropertyOp46
 70
     1
102
RTVSPropertyOp47
 70
     1
102
RTVSPropertyOp48
 70
     1
102
RTVSPropertyOp49
 70
     1
102
RTVSPropertyOp50
 70
     1
102
RTVSPropertyOp51
 70
     0
102
RTVSPropertyOp52
 70
     0
102
RTVSPropertyOp53
 70
     1
102
RTVSPropertyOp54
 70
     1
102
RTVSPropertyOp55
 70
     1
102
RTVSPropertyOp56
 70
     1
102
RTVSPropertyOp57
 70
     1
102
RTVSPropertyOp58
 70
     1
102
RTVSPropertyOp59
 70
     1
102
RTVSPropertyOp60
 70
     1
102
RTVSPropertyOp61
 70
     1
102
RTVSPropertyOp62
 70
     1
  0
XRECORD
  5
252A
102
{ACAD_REACTORS
330
2529
102
}
330
2529
100
AcDbXrecord
280
     1
102
RTVSPost2010Prop28
280
     0
102
RTVSPost2010PropOp28
 70
     1
102
RTVSPost2010Prop29
280
     1
102
RTVSPost2010PropOp29
 70
     1
102
RTVSPost2010Prop30
280
     1
102
RTVSPost2010PropOp30
 70
     1
102
RTVSPost2010Prop31
280
     0
102
RTVSPost2010PropOp31
 70
     1
102
RTVSPost2010Prop32
280
     0
102
RTVSPost2010PropOp32
 70
     1
102
RTVSPost2010Prop33
280
     0
102
RTVSPost2010PropOp33
 70
     1
102
RTVSPost2010Prop34
280
     0
102
RTVSPost2010PropOp34
 70
     1
102
RTVSPost2010Prop35
280
     0
102
RTVSPost2010PropOp35
 70
     1
102
RTVSPost2010Prop36
280
     0
102
RTVSPost2010PropOp36
 70
     1
102
RTVSPost2010Prop37
 90
       50
102
RTVSPost2010PropOp37
 70
     1
102
RTVSPost2010Prop38
140
0.0
102
RTVSPost2010PropOp38
 70
     1
102
RTVSPost2010Prop39
140
1.0
102
RTVSPost2010PropOp39
 70
     1
102
RTVSPost2010Prop40
 90
        0
102
RTVSPost2010PropOp40
 70
     1
102
RTVSPost2010Prop41ColorIndex
 90
       18
102
RTVSPost2010Prop41ColorRGB
 90
        0
102
RTVSPost2010PropOp41
 70
     1
102
RTVSPost2010Prop42
 90
       50
102
RTVSPost2010PropOp42
 70
     1
102
RTVSPost2010Prop43
 90
        3
102
RTVSPost2010PropOp43
 70
     1
102
RTVSPost2010Prop44ColorIndex
 90
        5
102
RTVSPost2010Prop44ColorRGB
 90
      255
102
RTVSPost2010PropOp44
 70
     1
102
RTVSPost2010Prop45
280
     0
102
RTVSPost2010PropOp45
 70
     1
102
RTVSPost2010Prop46
 90
       50
102
RTVSPost2010PropOp46
 70
     1
102
RTVSPost2010Prop47
 90
       50
102
RTVSPost2010PropOp47
 70
     1
102
RTVSPost2010Prop48
 90
       50
102
RTVSPost2010PropOp48
 70
     1
102
RTVSPost2010Prop49
280
     0
102
RTVSPost2010PropOp49
 70
     1
102
RTVSPost2010Prop50
 90
       50
102
RTVSPost2010PropOp50
 70
     1
102
RTVSPost2010Prop51ColorIndex
 90
      256
102
RTVSPost2010Prop51ColorRGB
 90
-16777216
102
RTVSPost2010PropOp51
 70
     0
102
RTVSPost2010Prop52
140
1.0
102
RTVSPost2010PropOp52
 70
     0
102
RTVSPost2010Prop53
 90
        2
102
RTVSPost2010PropOp53
 70
     1
102
RTVSPost2010Prop54
  1
strokes_ogs.tif
102
RTVSPost2010PropOp54
 70
     1
102
RTVSPost2010Prop55
280
     0
102
RTVSPost2010PropOp55
 70
     1
102
RTVSPost2010Prop56
140
1.0
102
RTVSPost2010PropOp56
 70
     1
102
RTVSPost2010Prop57
140
1.0
102
RTVSPost2010PropOp57
 70
     1
102
RTVSPropertyOp0
 70
     1
102
RTVSPropertyOp1
 70
     1
102
RTVSPropertyOp2
 70
     1
102
RTVSPropertyOp3
 70
     1
102
RTVSPropertyOp4
 70
     1
102
RTVSPropertyOp5
 70
     1
102
RTVSPropertyOp6
 70
     1
102
RTVSPropertyOp7
 70
     1
102
RTVSPropertyOp8
 70
     1
102
RTVSPropertyOp9
 70
     1
102
RTVSPropertyOp10
 70
     1
102
RTVSPropertyOp11
 70
     1
102
RTVSPropertyOp12
 70
     1
102
RTVSPropertyOp13
 70
     1
102
RTVSPropertyOp14
 70
     1
102
RTVSPropertyOp15
 70
     1
102
RTVSPropertyOp16
 70
     1
102
RTVSPropertyOp17
 70
     1
102
RTVSPropertyOp18
 70
     1
102
RTVSPropertyOp19
 70
     1
102
RTVSPropertyOp20
 70
     1
102
RTVSPropertyOp21
 70
     1
102
RTVSPropertyOp22
 70
     1
102
RTVSPropertyOp23
 70
     1
102
RTVSPropertyOp24
 70
     1
102
RTVSPropertyOp25
 70
     1
102
RTVSPropertyOp26
 70
     1
102
RTVSPropertyOp27
 70
     1
102
RTVSPropertyOp28
 70
     1
102
RTVSPropertyOp29
 70
     1
102
RTVSPropertyOp30
 70
     1
102
RTVSPropertyOp31
 70
     1
102
RTVSPropertyOp32
 70
     1
102
RTVSPropertyOp33
 70
     1
102
RTVSPropertyOp34
 70
     1
102
RTVSPropertyOp35
 70
     1
102
RTVSPropertyOp36
 70
     1
102
RTVSPropertyOp37
 70
     1
102
RTVSPropertyOp38
 70
     1
102
RTVSPropertyOp39
 70
     1
102
RTVSPropertyOp40
 70
     1
102
RTVSPropertyOp41
 70
     1
102
RTVSPropertyOp42
 70
     1
102
RTVSPropertyOp43
 70
     1
102
RTVSPropertyOp44
 70
     1
102
RTVSPropertyOp45
 70
     1
102
RTVSPropertyOp46
 70
     1
102
RTVSPropertyOp47
 70
     1
102
RTVSPropertyOp48
 70
     1
102
RTVSPropertyOp49
 70
     1
102
RTVSPropertyOp50
 70
     1
102
RTVSPropertyOp51
 70
     0
102
RTVSPropertyOp52
 70
     0
102
RTVSPropertyOp53
 70
     1
102
RTVSPropertyOp54
 70
     1
102
RTVSPropertyOp55
 70
     1
102
RTVSPropertyOp56
 70
     1
102
RTVSPropertyOp57
 70
     1
102
RTVSPropertyOp58
 70
     1
102
RTVSPropertyOp59
 70
     1
102
RTVSPropertyOp60
 70
     1
102
RTVSPropertyOp61
 70
     1
102
RTVSPropertyOp62
 70
     1
  0
XRECORD
  5
2544
102
{ACAD_REACTORS
330
2543
102
}
330
2543
100
AcDbXrecord
280
     1
102
RTVSPost2010Prop28
280
     0
102
RTVSPost2010PropOp28
 70
     1
102
RTVSPost2010Prop29
280
     1
102
RTVSPost2010PropOp29
 70
     1
102
RTVSPost2010Prop30
280
     1
102
RTVSPost2010PropOp30
 70
     1
102
RTVSPost2010Prop31
280
     0
102
RTVSPost2010PropOp31
 70
     1
102
RTVSPost2010Prop32
280
     0
102
RTVSPost2010PropOp32
 70
     1
102
RTVSPost2010Prop33
280
     0
102
RTVSPost2010PropOp33
 70
     1
102
RTVSPost2010Prop34
280
     0
102
RTVSPost2010PropOp34
 70
     1
102
RTVSPost2010Prop35
280
     0
102
RTVSPost2010PropOp35
 70
     1
102
RTVSPost2010Prop36
280
     0
102
RTVSPost2010PropOp36
 70
     1
102
RTVSPost2010Prop37
 90
       50
102
RTVSPost2010PropOp37
 70
     0
102
RTVSPost2010Prop38
140
0.0
102
RTVSPost2010PropOp38
 70
     0
102
RTVSPost2010Prop39
140
1.0
102
RTVSPost2010PropOp39
 70
     0
102
RTVSPost2010Prop40
 90
        0
102
RTVSPost2010PropOp40
 70
     0
102
RTVSPost2010Prop41ColorIndex
 90
       18
102
RTVSPost2010Prop41ColorRGB
 90
        0
102
RTVSPost2010PropOp41
 70
     0
102
RTVSPost2010Prop42
 90
       50
102
RTVSPost2010PropOp42
 70
     0
102
RTVSPost2010Prop43
 90
        3
102
RTVSPost2010PropOp43
 70
     0
102
RTVSPost2010Prop44ColorIndex
 90
        5
102
RTVSPost2010Prop44ColorRGB
 90
      255
102
RTVSPost2010PropOp44
 70
     0
102
RTVSPost2010Prop45
280
     0
102
RTVSPost2010PropOp45
 70
     1
102
RTVSPost2010Prop46
 90
       50
102
RTVSPost2010PropOp46
 70
     0
102
RTVSPost2010Prop47
 90
       50
102
RTVSPost2010PropOp47
 70
     0
102
RTVSPost2010Prop48
 90
       50
102
RTVSPost2010PropOp48
 70
     0
102
RTVSPost2010Prop49
280
     0
102
RTVSPost2010PropOp49
 70
     1
102
RTVSPost2010Prop50
 90
       50
102
RTVSPost2010PropOp50
 70
     0
102
RTVSPost2010Prop51ColorIndex
 90
      256
102
RTVSPost2010Prop51ColorRGB
 90
-16777216
102
RTVSPost2010PropOp51
 70
     0
102
RTVSPost2010Prop52
140
1.0
102
RTVSPost2010PropOp52
 70
     0
102
RTVSPost2010Prop53
 90
        2
102
RTVSPost2010PropOp53
 70
     0
102
RTVSPost2010Prop54
  1
strokes_ogs.tif
102
RTVSPost2010PropOp54
 70
     0
102
RTVSPost2010Prop55
280
     0
102
RTVSPost2010PropOp55
 70
     1
102
RTVSPost2010Prop56
140
1.0
102
RTVSPost2010PropOp56
 70
     0
102
RTVSPost2010Prop57
140
1.0
102
RTVSPost2010PropOp57
 70
     0
102
RTVSPropertyOp0
 70
     0
102
RTVSPropertyOp1
 70
     0
102
RTVSPropertyOp2
 70
     0
102
RTVSPropertyOp3
 70
     0
102
RTVSPropertyOp4
 70
     0
102
RTVSPropertyOp5
 70
     0
102
RTVSPropertyOp6
 70
     0
102
RTVSPropertyOp7
 70
     0
102
RTVSPropertyOp8
 70
     0
102
RTVSPropertyOp9
 70
     0
102
RTVSPropertyOp10
 70
     0
102
RTVSPropertyOp11
 70
     0
102
RTVSPropertyOp12
 70
     0
102
RTVSPropertyOp13
 70
     0
102
RTVSPropertyOp14
 70
     2
102
RTVSPropertyOp15
 70
     0
102
RTVSPropertyOp16
 70
     0
102
RTVSPropertyOp17
 70
     0
102
RTVSPropertyOp18
 70
     0
102
RTVSPropertyOp19
 70
     0
102
RTVSPropertyOp20
 70
     0
102
RTVSPropertyOp21
 70
     0
102
RTVSPropertyOp22
 70
     0
102
RTVSPropertyOp23
 70
     0
102
RTVSPropertyOp24
 70
     0
102
RTVSPropertyOp25
 70
     0
102
RTVSPropertyOp26
 70
     0
102
RTVSPropertyOp27
 70
     0
102
RTVSPropertyOp28
 70
     1
102
RTVSPropertyOp29
 70
     1
102
RTVSPropertyOp30
 70
     1
102
RTVSPropertyOp31
 70
     1
102
RTVSPropertyOp32
 70
     1
102
RTVSPropertyOp33
 70
     1
102
RTVSPropertyOp34
 70
     1
102
RTVSPropertyOp35
 70
     1
102
RTVSPropertyOp36
 70
     1
102
RTVSPropertyOp37
 70
     0
102
RTVSPropertyOp38
 70
     0
102
RTVSPropertyOp39
 70
     0
102
RTVSPropertyOp40
 70
     0
102
RTVSPropertyOp41
 70
     0
102
RTVSPropertyOp42
 70
     0
102
RTVSPropertyOp43
 70
     0
102
RTVSPropertyOp44
 70
     0
102
RTVSPropertyOp45
 70
     1
102
RTVSPropertyOp46
 70
     0
102
RTVSPropertyOp47
 70
     0
102
RTVSPropertyOp48
 70
     0
102
RTVSPropertyOp49
 70
     1
102
RTVSPropertyOp50
 70
     0
102
RTVSPropertyOp51
 70
     0
102
RTVSPropertyOp52
 70
     0
102
RTVSPropertyOp53
 70
     0
102
RTVSPropertyOp54
 70
     0
102
RTVSPropertyOp55
 70
     1
102
RTVSPropertyOp56
 70
     0
102
RTVSPropertyOp57
 70
     0
102
RTVSPropertyOp58
 70
     0
102
RTVSPropertyOp59
 70
     0
102
RTVSPropertyOp60
 70
     0
102
RTVSPropertyOp61
 70
     0
102
RTVSPropertyOp62
 70
     0
  0
XRECORD
  5
2532
102
{ACAD_REACTORS
330
2531
102
}
330
2531
100
AcDbXrecord
280
     1
102
RTVSPost2010Prop28
280
     0
102
RTVSPost2010PropOp28
 70
     1
102
RTVSPost2010Prop29
280
     1
102
RTVSPost2010PropOp29
 70
     1
102
RTVSPost2010Prop30
280
     1
102
RTVSPost2010PropOp30
 70
     1
102
RTVSPost2010Prop31
280
     0
102
RTVSPost2010PropOp31
 70
     1
102
RTVSPost2010Prop32
280
     0
102
RTVSPost2010PropOp32
 70
     1
102
RTVSPost2010Prop33
280
     0
102
RTVSPost2010PropOp33
 70
     1
102
RTVSPost2010Prop34
280
     0
102
RTVSPost2010PropOp34
 70
     1
102
RTVSPost2010Prop35
280
     0
102
RTVSPost2010PropOp35
 70
     1
102
RTVSPost2010Prop36
280
     0
102
RTVSPost2010PropOp36
 70
     1
102
RTVSPost2010Prop37
 90
       50
102
RTVSPost2010PropOp37
 70
     1
102
RTVSPost2010Prop38
140
0.0
102
RTVSPost2010PropOp38
 70
     1
102
RTVSPost2010Prop39
140
1.0
102
RTVSPost2010PropOp39
 70
     1
102
RTVSPost2010Prop40
 90
        0
102
RTVSPost2010PropOp40
 70
     1
102
RTVSPost2010Prop41ColorIndex
 90
       18
102
RTVSPost2010Prop41ColorRGB
 90
        0
102
RTVSPost2010PropOp41
 70
     1
102
RTVSPost2010Prop42
 90
       50
102
RTVSPost2010PropOp42
 70
     1
102
RTVSPost2010Prop43
 90
        3
102
RTVSPost2010PropOp43
 70
     1
102
RTVSPost2010Prop44ColorIndex
 90
        5
102
RTVSPost2010Prop44ColorRGB
 90
      255
102
RTVSPost2010PropOp44
 70
     1
102
RTVSPost2010Prop45
280
     0
102
RTVSPost2010PropOp45
 70
     1
102
RTVSPost2010Prop46
 90
       50
102
RTVSPost2010PropOp46
 70
     1
102
RTVSPost2010Prop47
 90
       50
102
RTVSPost2010PropOp47
 70
     1
102
RTVSPost2010Prop48
 90
       50
102
RTVSPost2010PropOp48
 70
     1
102
RTVSPost2010Prop49
280
     0
102
RTVSPost2010PropOp49
 70
     1
102
RTVSPost2010Prop50
 90
       50
102
RTVSPost2010PropOp50
 70
     1
102
RTVSPost2010Prop51ColorIndex
 90
      256
102
RTVSPost2010Prop51ColorRGB
 90
-16777216
102
RTVSPost2010PropOp51
 70
     0
102
RTVSPost2010Prop52
140
1.0
102
RTVSPost2010PropOp52
 70
     0
102
RTVSPost2010Prop53
 90
        2
102
RTVSPost2010PropOp53
 70
     1
102
RTVSPost2010Prop54
  1
strokes_ogs.tif
102
RTVSPost2010PropOp54
 70
     1
102
RTVSPost2010Prop55
280
     0
102
RTVSPost2010PropOp55
 70
     1
102
RTVSPost2010Prop56
140
1.0
102
RTVSPost2010PropOp56
 70
     1
102
RTVSPost2010Prop57
140
1.0
102
RTVSPost2010PropOp57
 70
     1
102
RTVSPropertyOp0
 70
     1
102
RTVSPropertyOp1
 70
     1
102
RTVSPropertyOp2
 70
     1
102
RTVSPropertyOp3
 70
     1
102
RTVSPropertyOp4
 70
     1
102
RTVSPropertyOp5
 70
     1
102
RTVSPropertyOp6
 70
     1
102
RTVSPropertyOp7
 70
     1
102
RTVSPropertyOp8
 70
     1
102
RTVSPropertyOp9
 70
     1
102
RTVSPropertyOp10
 70
     1
102
RTVSPropertyOp11
 70
     1
102
RTVSPropertyOp12
 70
     1
102
RTVSPropertyOp13
 70
     1
102
RTVSPropertyOp14
 70
     1
102
RTVSPropertyOp15
 70
     1
102
RTVSPropertyOp16
 70
     1
102
RTVSPropertyOp17
 70
     1
102
RTVSPropertyOp18
 70
     1
102
RTVSPropertyOp19
 70
     1
102
RTVSPropertyOp20
 70
     1
102
RTVSPropertyOp21
 70
     1
102
RTVSPropertyOp22
 70
     1
102
RTVSPropertyOp23
 70
     1
102
RTVSPropertyOp24
 70
     1
102
RTVSPropertyOp25
 70
     1
102
RTVSPropertyOp26
 70
     1
102
RTVSPropertyOp27
 70
     1
102
RTVSPropertyOp28
 70
     1
102
RTVSPropertyOp29
 70
     1
102
RTVSPropertyOp30
 70
     1
102
RTVSPropertyOp31
 70
     1
102
RTVSPropertyOp32
 70
     1
102
RTVSPropertyOp33
 70
     1
102
RTVSPropertyOp34
 70
     1
102
RTVSPropertyOp35
 70
     1
102
RTVSPropertyOp36
 70
     1
102
RTVSPropertyOp37
 70
     1
102
RTVSPropertyOp38
 70
     1
102
RTVSPropertyOp39
 70
     1
102
RTVSPropertyOp40
 70
     1
102
RTVSPropertyOp41
 70
     1
102
RTVSPropertyOp42
 70
     1
102
RTVSPropertyOp43
 70
     1
102
RTVSPropertyOp44
 70
     1
102
RTVSPropertyOp45
 70
     1
102
RTVSPropertyOp46
 70
     1
102
RTVSPropertyOp47
 70
     1
102
RTVSPropertyOp48
 70
     1
102
RTVSPropertyOp49
 70
     1
102
RTVSPropertyOp50
 70
     1
102
RTVSPropertyOp51
 70
     0
102
RTVSPropertyOp52
 70
     0
102
RTVSPropertyOp53
 70
     1
102
RTVSPropertyOp54
 70
     1
102
RTVSPropertyOp55
 70
     1
102
RTVSPropertyOp56
 70
     1
102
RTVSPropertyOp57
 70
     1
102
RTVSPropertyOp58
 70
     1
102
RTVSPropertyOp59
 70
     1
102
RTVSPropertyOp60
 70
     1
102
RTVSPropertyOp61
 70
     1
102
RTVSPropertyOp62
 70
     1
  0
XRECORD
  5
2516
102
{ACAD_REACTORS
330
2515
102
}
330
2515
100
AcDbXrecord
280
     1
102
RTVSPost2010Prop28
280
     0
102
RTVSPost2010PropOp28
 70
     1
102
RTVSPost2010Prop29
280
     1
102
RTVSPost2010PropOp29
 70
     1
102
RTVSPost2010Prop30
280
     1
102
RTVSPost2010PropOp30
 70
     1
102
RTVSPost2010Prop31
280
     0
102
RTVSPost2010PropOp31
 70
     1
102
RTVSPost2010Prop32
280
     0
102
RTVSPost2010PropOp32
 70
     1
102
RTVSPost2010Prop33
280
     0
102
RTVSPost2010PropOp33
 70
     1
102
RTVSPost2010Prop34
280
     0
102
RTVSPost2010PropOp34
 70
     1
102
RTVSPost2010Prop35
280
     0
102
RTVSPost2010PropOp35
 70
     1
102
RTVSPost2010Prop36
280
     0
102
RTVSPost2010PropOp36
 70
     1
102
RTVSPost2010Prop37
 90
       50
102
RTVSPost2010PropOp37
 70
     1
102
RTVSPost2010Prop38
140
0.0
102
RTVSPost2010PropOp38
 70
     1
102
RTVSPost2010Prop39
140
1.0
102
RTVSPost2010PropOp39
 70
     1
102
RTVSPost2010Prop40
 90
        0
102
RTVSPost2010PropOp40
 70
     1
102
RTVSPost2010Prop41ColorIndex
 90
       18
102
RTVSPost2010Prop41ColorRGB
 90
        0
102
RTVSPost2010PropOp41
 70
     1
102
RTVSPost2010Prop42
 90
       50
102
RTVSPost2010PropOp42
 70
     1
102
RTVSPost2010Prop43
 90
        3
102
RTVSPost2010PropOp43
 70
     1
102
RTVSPost2010Prop44ColorIndex
 90
        5
102
RTVSPost2010Prop44ColorRGB
 90
      255
102
RTVSPost2010PropOp44
 70
     1
102
RTVSPost2010Prop45
280
     0
102
RTVSPost2010PropOp45
 70
     1
102
RTVSPost2010Prop46
 90
       50
102
RTVSPost2010PropOp46
 70
     1
102
RTVSPost2010Prop47
 90
       50
102
RTVSPost2010PropOp47
 70
     1
102
RTVSPost2010Prop48
 90
       50
102
RTVSPost2010PropOp48
 70
     1
102
RTVSPost2010Prop49
280
     0
102
RTVSPost2010PropOp49
 70
     1
102
RTVSPost2010Prop50
 90
       50
102
RTVSPost2010PropOp50
 70
     1
102
RTVSPost2010Prop51ColorIndex
 90
      256
102
RTVSPost2010Prop51ColorRGB
 90
-16777216
102
RTVSPost2010PropOp51
 70
     0
102
RTVSPost2010Prop52
140
1.0
102
RTVSPost2010PropOp52
 70
     0
102
RTVSPost2010Prop53
 90
        2
102
RTVSPost2010PropOp53
 70
     1
102
RTVSPost2010Prop54
  1
strokes_ogs.tif
102
RTVSPost2010PropOp54
 70
     1
102
RTVSPost2010Prop55
280
     0
102
RTVSPost2010PropOp55
 70
     1
102
RTVSPost2010Prop56
140
1.0
102
RTVSPost2010PropOp56
 70
     1
102
RTVSPost2010Prop57
140
1.0
102
RTVSPost2010PropOp57
 70
     1
102
RTVSPropertyOp0
 70
     1
102
RTVSPropertyOp1
 70
     1
102
RTVSPropertyOp2
 70
     1
102
RTVSPropertyOp3
 70
     1
102
RTVSPropertyOp4
 70
     1
102
RTVSPropertyOp5
 70
     1
102
RTVSPropertyOp6
 70
     1
102
RTVSPropertyOp7
 70
     1
102
RTVSPropertyOp8
 70
     1
102
RTVSPropertyOp9
 70
     1
102
RTVSPropertyOp10
 70
     1
102
RTVSPropertyOp11
 70
     1
102
RTVSPropertyOp12
 70
     1
102
RTVSPropertyOp13
 70
     1
102
RTVSPropertyOp14
 70
     1
102
RTVSPropertyOp15
 70
     1
102
RTVSPropertyOp16
 70
     1
102
RTVSPropertyOp17
 70
     1
102
RTVSPropertyOp18
 70
     1
102
RTVSPropertyOp19
 70
     1
102
RTVSPropertyOp20
 70
     1
102
RTVSPropertyOp21
 70
     1
102
RTVSPropertyOp22
 70
     1
102
RTVSPropertyOp23
 70
     1
102
RTVSPropertyOp24
 70
     1
102
RTVSPropertyOp25
 70
     1
102
RTVSPropertyOp26
 70
     1
102
RTVSPropertyOp27
 70
     1
102
RTVSPropertyOp28
 70
     1
102
RTVSPropertyOp29
 70
     1
102
RTVSPropertyOp30
 70
     1
102
RTVSPropertyOp31
 70
     1
102
RTVSPropertyOp32
 70
     1
102
RTVSPropertyOp33
 70
     1
102
RTVSPropertyOp34
 70
     1
102
RTVSPropertyOp35
 70
     1
102
RTVSPropertyOp36
 70
     1
102
RTVSPropertyOp37
 70
     1
102
RTVSPropertyOp38
 70
     1
102
RTVSPropertyOp39
 70
     1
102
RTVSPropertyOp40
 70
     1
102
RTVSPropertyOp41
 70
     1
102
RTVSPropertyOp42
 70
     1
102
RTVSPropertyOp43
 70
     1
102
RTVSPropertyOp44
 70
     1
102
RTVSPropertyOp45
 70
     1
102
RTVSPropertyOp46
 70
     1
102
RTVSPropertyOp47
 70
     1
102
RTVSPropertyOp48
 70
     1
102
RTVSPropertyOp49
 70
     1
102
RTVSPropertyOp50
 70
     1
102
RTVSPropertyOp51
 70
     0
102
RTVSPropertyOp52
 70
     0
102
RTVSPropertyOp53
 70
     1
102
RTVSPropertyOp54
 70
     1
102
RTVSPropertyOp55
 70
     1
102
RTVSPropertyOp56
 70
     1
102
RTVSPropertyOp57
 70
     1
102
RTVSPropertyOp58
 70
     1
102
RTVSPropertyOp59
 70
     1
102
RTVSPropertyOp60
 70
     1
102
RTVSPropertyOp61
 70
     1
102
RTVSPropertyOp62
 70
     1
  0
XRECORD
  5
2518
102
{ACAD_REACTORS
330
2517
102
}
330
2517
100
AcDbXrecord
280
     1
102
RTVSPost2010Prop28
280
     0
102
RTVSPost2010PropOp28
 70
     1
102
RTVSPost2010Prop29
280
     1
102
RTVSPost2010PropOp29
 70
     1
102
RTVSPost2010Prop30
280
     1
102
RTVSPost2010PropOp30
 70
     1
102
RTVSPost2010Prop31
280
     0
102
RTVSPost2010PropOp31
 70
     1
102
RTVSPost2010Prop32
280
     0
102
RTVSPost2010PropOp32
 70
     1
102
RTVSPost2010Prop33
280
     0
102
RTVSPost2010PropOp33
 70
     1
102
RTVSPost2010Prop34
280
     0
102
RTVSPost2010PropOp34
 70
     1
102
RTVSPost2010Prop35
280
     0
102
RTVSPost2010PropOp35
 70
     1
102
RTVSPost2010Prop36
280
     0
102
RTVSPost2010PropOp36
 70
     1
102
RTVSPost2010Prop37
 90
       50
102
RTVSPost2010PropOp37
 70
     1
102
RTVSPost2010Prop38
140
0.0
102
RTVSPost2010PropOp38
 70
     1
102
RTVSPost2010Prop39
140
1.0
102
RTVSPost2010PropOp39
 70
     1
102
RTVSPost2010Prop40
 90
        0
102
RTVSPost2010PropOp40
 70
     1
102
RTVSPost2010Prop41ColorIndex
 90
       18
102
RTVSPost2010Prop41ColorRGB
 90
        0
102
RTVSPost2010PropOp41
 70
     1
102
RTVSPost2010Prop42
 90
       50
102
RTVSPost2010PropOp42
 70
     1
102
RTVSPost2010Prop43
 90
        3
102
RTVSPost2010PropOp43
 70
     1
102
RTVSPost2010Prop44ColorIndex
 90
        5
102
RTVSPost2010Prop44ColorRGB
 90
      255
102
RTVSPost2010PropOp44
 70
     1
102
RTVSPost2010Prop45
280
     0
102
RTVSPost2010PropOp45
 70
     1
102
RTVSPost2010Prop46
 90
       50
102
RTVSPost2010PropOp46
 70
     1
102
RTVSPost2010Prop47
 90
       50
102
RTVSPost2010PropOp47
 70
     1
102
RTVSPost2010Prop48
 90
       50
102
RTVSPost2010PropOp48
 70
     1
102
RTVSPost2010Prop49
280
     0
102
RTVSPost2010PropOp49
 70
     1
102
RTVSPost2010Prop50
 90
       50
102
RTVSPost2010PropOp50
 70
     1
102
RTVSPost2010Prop51ColorIndex
 90
      256
102
RTVSPost2010Prop51ColorRGB
 90
-16777216
102
RTVSPost2010PropOp51
 70
     0
102
RTVSPost2010Prop52
140
1.0
102
RTVSPost2010PropOp52
 70
     0
102
RTVSPost2010Prop53
 90
        2
102
RTVSPost2010PropOp53
 70
     1
102
RTVSPost2010Prop54
  1
strokes_ogs.tif
102
RTVSPost2010PropOp54
 70
     1
102
RTVSPost2010Prop55
280
     0
102
RTVSPost2010PropOp55
 70
     1
102
RTVSPost2010Prop56
140
1.0
102
RTVSPost2010PropOp56
 70
     1
102
RTVSPost2010Prop57
140
1.0
102
RTVSPost2010PropOp57
 70
     1
102
RTVSPropertyOp0
 70
     1
102
RTVSPropertyOp1
 70
     1
102
RTVSPropertyOp2
 70
     1
102
RTVSPropertyOp3
 70
     1
102
RTVSPropertyOp4
 70
     1
102
RTVSPropertyOp5
 70
     1
102
RTVSPropertyOp6
 70
     1
102
RTVSPropertyOp7
 70
     1
102
RTVSPropertyOp8
 70
     1
102
RTVSPropertyOp9
 70
     1
102
RTVSPropertyOp10
 70
     1
102
RTVSPropertyOp11
 70
     1
102
RTVSPropertyOp12
 70
     1
102
RTVSPropertyOp13
 70
     1
102
RTVSPropertyOp14
 70
     1
102
RTVSPropertyOp15
 70
     1
102
RTVSPropertyOp16
 70
     1
102
RTVSPropertyOp17
 70
     1
102
RTVSPropertyOp18
 70
     1
102
RTVSPropertyOp19
 70
     1
102
RTVSPropertyOp20
 70
     1
102
RTVSPropertyOp21
 70
     1
102
RTVSPropertyOp22
 70
     1
102
RTVSPropertyOp23
 70
     1
102
RTVSPropertyOp24
 70
     1
102
RTVSPropertyOp25
 70
     1
102
RTVSPropertyOp26
 70
     1
102
RTVSPropertyOp27
 70
     1
102
RTVSPropertyOp28
 70
     1
102
RTVSPropertyOp29
 70
     1
102
RTVSPropertyOp30
 70
     1
102
RTVSPropertyOp31
 70
     1
102
RTVSPropertyOp32
 70
     1
102
RTVSPropertyOp33
 70
     1
102
RTVSPropertyOp34
 70
     1
102
RTVSPropertyOp35
 70
     1
102
RTVSPropertyOp36
 70
     1
102
RTVSPropertyOp37
 70
     1
102
RTVSPropertyOp38
 70
     1
102
RTVSPropertyOp39
 70
     1
102
RTVSPropertyOp40
 70
     1
102
RTVSPropertyOp41
 70
     1
102
RTVSPropertyOp42
 70
     1
102
RTVSPropertyOp43
 70
     1
102
RTVSPropertyOp44
 70
     1
102
RTVSPropertyOp45
 70
     1
102
RTVSPropertyOp46
 70
     1
102
RTVSPropertyOp47
 70
     1
102
RTVSPropertyOp48
 70
     1
102
RTVSPropertyOp49
 70
     1
102
RTVSPropertyOp50
 70
     1
102
RTVSPropertyOp51
 70
     0
102
RTVSPropertyOp52
 70
     0
102
RTVSPropertyOp53
 70
     1
102
RTVSPropertyOp54
 70
     1
102
RTVSPropertyOp55
 70
     1
102
RTVSPropertyOp56
 70
     1
102
RTVSPropertyOp57
 70
     1
102
RTVSPropertyOp58
 70
     1
102
RTVSPropertyOp59
 70
     1
102
RTVSPropertyOp60
 70
     1
102
RTVSPropertyOp61
 70
     1
102
RTVSPropertyOp62
 70
     1
  0
XRECORD
  5
251A
102
{ACAD_REACTORS
330
2519
102
}
330
2519
100
AcDbXrecord
280
     1
102
RTVSPost2010Prop28
280
     0
102
RTVSPost2010PropOp28
 70
     1
102
RTVSPost2010Prop29
280
     1
102
RTVSPost2010PropOp29
 70
     1
102
RTVSPost2010Prop30
280
     1
102
RTVSPost2010PropOp30
 70
     1
102
RTVSPost2010Prop31
280
     0
102
RTVSPost2010PropOp31
 70
     1
102
RTVSPost2010Prop32
280
     0
102
RTVSPost2010PropOp32
 70
     1
102
RTVSPost2010Prop33
280
     0
102
RTVSPost2010PropOp33
 70
     1
102
RTVSPost2010Prop34
280
     0
102
RTVSPost2010PropOp34
 70
     1
102
RTVSPost2010Prop35
280
     0
102
RTVSPost2010PropOp35
 70
     1
102
RTVSPost2010Prop36
280
     0
102
RTVSPost2010PropOp36
 70
     1
102
RTVSPost2010Prop37
 90
       50
102
RTVSPost2010PropOp37
 70
     1
102
RTVSPost2010Prop38
140
0.0
102
RTVSPost2010PropOp38
 70
     1
102
RTVSPost2010Prop39
140
1.0
102
RTVSPost2010PropOp39
 70
     1
102
RTVSPost2010Prop40
 90
        0
102
RTVSPost2010PropOp40
 70
     1
102
RTVSPost2010Prop41ColorIndex
 90
       18
102
RTVSPost2010Prop41ColorRGB
 90
        0
102
RTVSPost2010PropOp41
 70
     1
102
RTVSPost2010Prop42
 90
       50
102
RTVSPost2010PropOp42
 70
     1
102
RTVSPost2010Prop43
 90
        3
102
RTVSPost2010PropOp43
 70
     1
102
RTVSPost2010Prop44ColorIndex
 90
        5
102
RTVSPost2010Prop44ColorRGB
 90
      255
102
RTVSPost2010PropOp44
 70
     1
102
RTVSPost2010Prop45
280
     0
102
RTVSPost2010PropOp45
 70
     1
102
RTVSPost2010Prop46
 90
       50
102
RTVSPost2010PropOp46
 70
     1
102
RTVSPost2010Prop47
 90
       50
102
RTVSPost2010PropOp47
 70
     1
102
RTVSPost2010Prop48
 90
       50
102
RTVSPost2010PropOp48
 70
     1
102
RTVSPost2010Prop49
280
     0
102
RTVSPost2010PropOp49
 70
     1
102
RTVSPost2010Prop50
 90
       50
102
RTVSPost2010PropOp50
 70
     1
102
RTVSPost2010Prop51ColorIndex
 90
      256
102
RTVSPost2010Prop51ColorRGB
 90
-16777216
102
RTVSPost2010PropOp51
 70
     0
102
RTVSPost2010Prop52
140
1.0
102
RTVSPost2010PropOp52
 70
     0
102
RTVSPost2010Prop53
 90
        2
102
RTVSPost2010PropOp53
 70
     1
102
RTVSPost2010Prop54
  1
strokes_ogs.tif
102
RTVSPost2010PropOp54
 70
     1
102
RTVSPost2010Prop55
280
     0
102
RTVSPost2010PropOp55
 70
     1
102
RTVSPost2010Prop56
140
1.0
102
RTVSPost2010PropOp56
 70
     1
102
RTVSPost2010Prop57
140
1.0
102
RTVSPost2010PropOp57
 70
     1
102
RTVSPropertyOp0
 70
     1
102
RTVSPropertyOp1
 70
     1
102
RTVSPropertyOp2
 70
     1
102
RTVSPropertyOp3
 70
     1
102
RTVSPropertyOp4
 70
     1
102
RTVSPropertyOp5
 70
     1
102
RTVSPropertyOp6
 70
     1
102
RTVSPropertyOp7
 70
     1
102
RTVSPropertyOp8
 70
     1
102
RTVSPropertyOp9
 70
     1
102
RTVSPropertyOp10
 70
     1
102
RTVSPropertyOp11
 70
     1
102
RTVSPropertyOp12
 70
     1
102
RTVSPropertyOp13
 70
     1
102
RTVSPropertyOp14
 70
     1
102
RTVSPropertyOp15
 70
     1
102
RTVSPropertyOp16
 70
     1
102
RTVSPropertyOp17
 70
     1
102
RTVSPropertyOp18
 70
     1
102
RTVSPropertyOp19
 70
     1
102
RTVSPropertyOp20
 70
     1
102
RTVSPropertyOp21
 70
     1
102
RTVSPropertyOp22
 70
     1
102
RTVSPropertyOp23
 70
     1
102
RTVSPropertyOp24
 70
     1
102
RTVSPropertyOp25
 70
     1
102
RTVSPropertyOp26
 70
     1
102
RTVSPropertyOp27
 70
     1
102
RTVSPropertyOp28
 70
     1
102
RTVSPropertyOp29
 70
     1
102
RTVSPropertyOp30
 70
     1
102
RTVSPropertyOp31
 70
     1
102
RTVSPropertyOp32
 70
     1
102
RTVSPropertyOp33
 70
     1
102
RTVSPropertyOp34
 70
     1
102
RTVSPropertyOp35
 70
     1
102
RTVSPropertyOp36
 70
     1
102
RTVSPropertyOp37
 70
     1
102
RTVSPropertyOp38
 70
     1
102
RTVSPropertyOp39
 70
     1
102
RTVSPropertyOp40
 70
     1
102
RTVSPropertyOp41
 70
     1
102
RTVSPropertyOp42
 70
     1
102
RTVSPropertyOp43
 70
     1
102
RTVSPropertyOp44
 70
     1
102
RTVSPropertyOp45
 70
     1
102
RTVSPropertyOp46
 70
     1
102
RTVSPropertyOp47
 70
     1
102
RTVSPropertyOp48
 70
     1
102
RTVSPropertyOp49
 70
     1
102
RTVSPropertyOp50
 70
     1
102
RTVSPropertyOp51
 70
     0
102
RTVSPropertyOp52
 70
     0
102
RTVSPropertyOp53
 70
     1
102
RTVSPropertyOp54
 70
     1
102
RTVSPropertyOp55
 70
     1
102
RTVSPropertyOp56
 70
     1
102
RTVSPropertyOp57
 70
     1
102
RTVSPropertyOp58
 70
     1
102
RTVSPropertyOp59
 70
     1
102
RTVSPropertyOp60
 70
     1
102
RTVSPropertyOp61
 70
     1
102
RTVSPropertyOp62
 70
     1
  0
XRECORD
  5
251C
102
{ACAD_REACTORS
330
251B
102
}
330
251B
100
AcDbXrecord
280
     1
102
RTVSPost2010Prop28
280
     0
102
RTVSPost2010PropOp28
 70
     1
102
RTVSPost2010Prop29
280
     1
102
RTVSPost2010PropOp29
 70
     1
102
RTVSPost2010Prop30
280
     1
102
RTVSPost2010PropOp30
 70
     1
102
RTVSPost2010Prop31
280
     0
102
RTVSPost2010PropOp31
 70
     1
102
RTVSPost2010Prop32
280
     0
102
RTVSPost2010PropOp32
 70
     1
102
RTVSPost2010Prop33
280
     0
102
RTVSPost2010PropOp33
 70
     1
102
RTVSPost2010Prop34
280
     0
102
RTVSPost2010PropOp34
 70
     1
102
RTVSPost2010Prop35
280
     0
102
RTVSPost2010PropOp35
 70
     1
102
RTVSPost2010Prop36
280
     0
102
RTVSPost2010PropOp36
 70
     1
102
RTVSPost2010Prop37
 90
       50
102
RTVSPost2010PropOp37
 70
     1
102
RTVSPost2010Prop38
140
0.0
102
RTVSPost2010PropOp38
 70
     1
102
RTVSPost2010Prop39
140
1.0
102
RTVSPost2010PropOp39
 70
     1
102
RTVSPost2010Prop40
 90
        0
102
RTVSPost2010PropOp40
 70
     1
102
RTVSPost2010Prop41ColorIndex
 90
       18
102
RTVSPost2010Prop41ColorRGB
 90
        0
102
RTVSPost2010PropOp41
 70
     1
102
RTVSPost2010Prop42
 90
       50
102
RTVSPost2010PropOp42
 70
     1
102
RTVSPost2010Prop43
 90
        3
102
RTVSPost2010PropOp43
 70
     1
102
RTVSPost2010Prop44ColorIndex
 90
        5
102
RTVSPost2010Prop44ColorRGB
 90
      255
102
RTVSPost2010PropOp44
 70
     1
102
RTVSPost2010Prop45
280
     0
102
RTVSPost2010PropOp45
 70
     1
102
RTVSPost2010Prop46
 90
       50
102
RTVSPost2010PropOp46
 70
     1
102
RTVSPost2010Prop47
 90
       50
102
RTVSPost2010PropOp47
 70
     1
102
RTVSPost2010Prop48
 90
       50
102
RTVSPost2010PropOp48
 70
     1
102
RTVSPost2010Prop49
280
     0
102
RTVSPost2010PropOp49
 70
     1
102
RTVSPost2010Prop50
 90
       50
102
RTVSPost2010PropOp50
 70
     1
102
RTVSPost2010Prop51ColorIndex
 90
      256
102
RTVSPost2010Prop51ColorRGB
 90
-16777216
102
RTVSPost2010PropOp51
 70
     0
102
RTVSPost2010Prop52
140
1.0
102
RTVSPost2010PropOp52
 70
     0
102
RTVSPost2010Prop53
 90
        2
102
RTVSPost2010PropOp53
 70
     1
102
RTVSPost2010Prop54
  1
strokes_ogs.tif
102
RTVSPost2010PropOp54
 70
     1
102
RTVSPost2010Prop55
280
     0
102
RTVSPost2010PropOp55
 70
     1
102
RTVSPost2010Prop56
140
1.0
102
RTVSPost2010PropOp56
 70
     1
102
RTVSPost2010Prop57
140
1.0
102
RTVSPost2010PropOp57
 70
     1
102
RTVSPropertyOp0
 70
     1
102
RTVSPropertyOp1
 70
     1
102
RTVSPropertyOp2
 70
     1
102
RTVSPropertyOp3
 70
     1
102
RTVSPropertyOp4
 70
     1
102
RTVSPropertyOp5
 70
     1
102
RTVSPropertyOp6
 70
     1
102
RTVSPropertyOp7
 70
     1
102
RTVSPropertyOp8
 70
     1
102
RTVSPropertyOp9
 70
     1
102
RTVSPropertyOp10
 70
     1
102
RTVSPropertyOp11
 70
     1
102
RTVSPropertyOp12
 70
     1
102
RTVSPropertyOp13
 70
     1
102
RTVSPropertyOp14
 70
     1
102
RTVSPropertyOp15
 70
     1
102
RTVSPropertyOp16
 70
     1
102
RTVSPropertyOp17
 70
     1
102
RTVSPropertyOp18
 70
     1
102
RTVSPropertyOp19
 70
     1
102
RTVSPropertyOp20
 70
     1
102
RTVSPropertyOp21
 70
     1
102
RTVSPropertyOp22
 70
     1
102
RTVSPropertyOp23
 70
     1
102
RTVSPropertyOp24
 70
     1
102
RTVSPropertyOp25
 70
     1
102
RTVSPropertyOp26
 70
     1
102
RTVSPropertyOp27
 70
     1
102
RTVSPropertyOp28
 70
     1
102
RTVSPropertyOp29
 70
     1
102
RTVSPropertyOp30
 70
     1
102
RTVSPropertyOp31
 70
     1
102
RTVSPropertyOp32
 70
     1
102
RTVSPropertyOp33
 70
     1
102
RTVSPropertyOp34
 70
     1
102
RTVSPropertyOp35
 70
     1
102
RTVSPropertyOp36
 70
     1
102
RTVSPropertyOp37
 70
     1
102
RTVSPropertyOp38
 70
     1
102
RTVSPropertyOp39
 70
     1
102
RTVSPropertyOp40
 70
     1
102
RTVSPropertyOp41
 70
     1
102
RTVSPropertyOp42
 70
     1
102
RTVSPropertyOp43
 70
     1
102
RTVSPropertyOp44
 70
     1
102
RTVSPropertyOp45
 70
     1
102
RTVSPropertyOp46
 70
     1
102
RTVSPropertyOp47
 70
     1
102
RTVSPropertyOp48
 70
     1
102
RTVSPropertyOp49
 70
     1
102
RTVSPropertyOp50
 70
     1
102
RTVSPropertyOp51
 70
     0
102
RTVSPropertyOp52
 70
     0
102
RTVSPropertyOp53
 70
     1
102
RTVSPropertyOp54
 70
     1
102
RTVSPropertyOp55
 70
     1
102
RTVSPropertyOp56
 70
     1
102
RTVSPropertyOp57
 70
     1
102
RTVSPropertyOp58
 70
     1
102
RTVSPropertyOp59
 70
     1
102
RTVSPropertyOp60
 70
     1
102
RTVSPropertyOp61
 70
     1
102
RTVSPropertyOp62
 70
     1
  0
XRECORD
  5
2524
102
{ACAD_REACTORS
330
2523
102
}
330
2523
100
AcDbXrecord
280
     1
102
RTVSPost2010Prop28
280
     0
102
RTVSPost2010PropOp28
 70
     1
102
RTVSPost2010Prop29
280
     1
102
RTVSPost2010PropOp29
 70
     1
102
RTVSPost2010Prop30
280
     1
102
RTVSPost2010PropOp30
 70
     1
102
RTVSPost2010Prop31
280
     0
102
RTVSPost2010PropOp31
 70
     1
102
RTVSPost2010Prop32
280
     0
102
RTVSPost2010PropOp32
 70
     1
102
RTVSPost2010Prop33
280
     0
102
RTVSPost2010PropOp33
 70
     1
102
RTVSPost2010Prop34
280
     0
102
RTVSPost2010PropOp34
 70
     1
102
RTVSPost2010Prop35
280
     0
102
RTVSPost2010PropOp35
 70
     1
102
RTVSPost2010Prop36
280
     0
102
RTVSPost2010PropOp36
 70
     1
102
RTVSPost2010Prop37
 90
       50
102
RTVSPost2010PropOp37
 70
     1
102
RTVSPost2010Prop38
140
0.0
102
RTVSPost2010PropOp38
 70
     1
102
RTVSPost2010Prop39
140
1.0
102
RTVSPost2010PropOp39
 70
     1
102
RTVSPost2010Prop40
 90
        0
102
RTVSPost2010PropOp40
 70
     1
102
RTVSPost2010Prop41ColorIndex
 90
       18
102
RTVSPost2010Prop41ColorRGB
 90
        0
102
RTVSPost2010PropOp41
 70
     1
102
RTVSPost2010Prop42
 90
       50
102
RTVSPost2010PropOp42
 70
     1
102
RTVSPost2010Prop43
 90
        3
102
RTVSPost2010PropOp43
 70
     1
102
RTVSPost2010Prop44ColorIndex
 90
        5
102
RTVSPost2010Prop44ColorRGB
 90
      255
102
RTVSPost2010PropOp44
 70
     1
102
RTVSPost2010Prop45
280
     0
102
RTVSPost2010PropOp45
 70
     1
102
RTVSPost2010Prop46
 90
       50
102
RTVSPost2010PropOp46
 70
     1
102
RTVSPost2010Prop47
 90
       50
102
RTVSPost2010PropOp47
 70
     1
102
RTVSPost2010Prop48
 90
       50
102
RTVSPost2010PropOp48
 70
     1
102
RTVSPost2010Prop49
280
     0
102
RTVSPost2010PropOp49
 70
     1
102
RTVSPost2010Prop50
 90
       50
102
RTVSPost2010PropOp50
 70
     1
102
RTVSPost2010Prop51ColorIndex
 90
      256
102
RTVSPost2010Prop51ColorRGB
 90
-16777216
102
RTVSPost2010PropOp51
 70
     0
102
RTVSPost2010Prop52
140
1.0
102
RTVSPost2010PropOp52
 70
     0
102
RTVSPost2010Prop53
 90
        2
102
RTVSPost2010PropOp53
 70
     1
102
RTVSPost2010Prop54
  1
strokes_ogs.tif
102
RTVSPost2010PropOp54
 70
     1
102
RTVSPost2010Prop55
280
     0
102
RTVSPost2010PropOp55
 70
     1
102
RTVSPost2010Prop56
140
1.0
102
RTVSPost2010PropOp56
 70
     1
102
RTVSPost2010Prop57
140
1.0
102
RTVSPost2010PropOp57
 70
     1
102
RTVSPropertyOp0
 70
     1
102
RTVSPropertyOp1
 70
     1
102
RTVSPropertyOp2
 70
     1
102
RTVSPropertyOp3
 70
     1
102
RTVSPropertyOp4
 70
     1
102
RTVSPropertyOp5
 70
     1
102
RTVSPropertyOp6
 70
     1
102
RTVSPropertyOp7
 70
     1
102
RTVSPropertyOp8
 70
     1
102
RTVSPropertyOp9
 70
     1
102
RTVSPropertyOp10
 70
     1
102
RTVSPropertyOp11
 70
     1
102
RTVSPropertyOp12
 70
     1
102
RTVSPropertyOp13
 70
     1
102
RTVSPropertyOp14
 70
     1
102
RTVSPropertyOp15
 70
     1
102
RTVSPropertyOp16
 70
     1
102
RTVSPropertyOp17
 70
     1
102
RTVSPropertyOp18
 70
     1
102
RTVSPropertyOp19
 70
     1
102
RTVSPropertyOp20
 70
     1
102
RTVSPropertyOp21
 70
     1
102
RTVSPropertyOp22
 70
     1
102
RTVSPropertyOp23
 70
     1
102
RTVSPropertyOp24
 70
     1
102
RTVSPropertyOp25
 70
     1
102
RTVSPropertyOp26
 70
     1
102
RTVSPropertyOp27
 70
     1
102
RTVSPropertyOp28
 70
     1
102
RTVSPropertyOp29
 70
     1
102
RTVSPropertyOp30
 70
     1
102
RTVSPropertyOp31
 70
     1
102
RTVSPropertyOp32
 70
     1
102
RTVSPropertyOp33
 70
     1
102
RTVSPropertyOp34
 70
     1
102
RTVSPropertyOp35
 70
     1
102
RTVSPropertyOp36
 70
     1
102
RTVSPropertyOp37
 70
     1
102
RTVSPropertyOp38
 70
     1
102
RTVSPropertyOp39
 70
     1
102
RTVSPropertyOp40
 70
     1
102
RTVSPropertyOp41
 70
     1
102
RTVSPropertyOp42
 70
     1
102
RTVSPropertyOp43
 70
     1
102
RTVSPropertyOp44
 70
     1
102
RTVSPropertyOp45
 70
     1
102
RTVSPropertyOp46
 70
     1
102
RTVSPropertyOp47
 70
     1
102
RTVSPropertyOp48
 70
     1
102
RTVSPropertyOp49
 70
     1
102
RTVSPropertyOp50
 70
     1
102
RTVSPropertyOp51
 70
     0
102
RTVSPropertyOp52
 70
     0
102
RTVSPropertyOp53
 70
     1
102
RTVSPropertyOp54
 70
     1
102
RTVSPropertyOp55
 70
     1
102
RTVSPropertyOp56
 70
     1
102
RTVSPropertyOp57
 70
     1
102
RTVSPropertyOp58
 70
     1
102
RTVSPropertyOp59
 70
     1
102
RTVSPropertyOp60
 70
     1
102
RTVSPropertyOp61
 70
     1
102
RTVSPropertyOp62
 70
     1
  0
XRECORD
  5
2540
102
{ACAD_REACTORS
330
253F
102
}
330
253F
100
AcDbXrecord
280
     1
102
RTVSPost2010Prop28
280
     0
102
RTVSPost2010PropOp28
 70
     1
102
RTVSPost2010Prop29
280
     1
102
RTVSPost2010PropOp29
 70
     1
102
RTVSPost2010Prop30
280
     1
102
RTVSPost2010PropOp30
 70
     1
102
RTVSPost2010Prop31
280
     0
102
RTVSPost2010PropOp31
 70
     1
102
RTVSPost2010Prop32
280
     0
102
RTVSPost2010PropOp32
 70
     1
102
RTVSPost2010Prop33
280
     0
102
RTVSPost2010PropOp33
 70
     1
102
RTVSPost2010Prop34
280
     0
102
RTVSPost2010PropOp34
 70
     1
102
RTVSPost2010Prop35
280
     0
102
RTVSPost2010PropOp35
 70
     1
102
RTVSPost2010Prop36
280
     0
102
RTVSPost2010PropOp36
 70
     1
102
RTVSPost2010Prop37
 90
       50
102
RTVSPost2010PropOp37
 70
     0
102
RTVSPost2010Prop38
140
0.0
102
RTVSPost2010PropOp38
 70
     0
102
RTVSPost2010Prop39
140
1.0
102
RTVSPost2010PropOp39
 70
     0
102
RTVSPost2010Prop40
 90
        0
102
RTVSPost2010PropOp40
 70
     0
102
RTVSPost2010Prop41ColorIndex
 90
       18
102
RTVSPost2010Prop41ColorRGB
 90
        0
102
RTVSPost2010PropOp41
 70
     0
102
RTVSPost2010Prop42
 90
       50
102
RTVSPost2010PropOp42
 70
     0
102
RTVSPost2010Prop43
 90
        3
102
RTVSPost2010PropOp43
 70
     0
102
RTVSPost2010Prop44ColorIndex
 90
        5
102
RTVSPost2010Prop44ColorRGB
 90
      255
102
RTVSPost2010PropOp44
 70
     0
102
RTVSPost2010Prop45
280
     0
102
RTVSPost2010PropOp45
 70
     1
102
RTVSPost2010Prop46
 90
       50
102
RTVSPost2010PropOp46
 70
     0
102
RTVSPost2010Prop47
 90
       50
102
RTVSPost2010PropOp47
 70
     0
102
RTVSPost2010Prop48
 90
       50
102
RTVSPost2010PropOp48
 70
     0
102
RTVSPost2010Prop49
280
     0
102
RTVSPost2010PropOp49
 70
     1
102
RTVSPost2010Prop50
 90
       50
102
RTVSPost2010PropOp50
 70
     0
102
RTVSPost2010Prop51ColorIndex
 90
      256
102
RTVSPost2010Prop51ColorRGB
 90
-16777216
102
RTVSPost2010PropOp51
 70
     0
102
RTVSPost2010Prop52
140
1.0
102
RTVSPost2010PropOp52
 70
     0
102
RTVSPost2010Prop53
 90
        2
102
RTVSPost2010PropOp53
 70
     0
102
RTVSPost2010Prop54
  1
strokes_ogs.tif
102
RTVSPost2010PropOp54
 70
     0
102
RTVSPost2010Prop55
280
     0
102
RTVSPost2010PropOp55
 70
     1
102
RTVSPost2010Prop56
140
1.0
102
RTVSPost2010PropOp56
 70
     0
102
RTVSPost2010Prop57
140
1.0
102
RTVSPost2010PropOp57
 70
     0
102
RTVSPropertyOp0
 70
     0
102
RTVSPropertyOp1
 70
     0
102
RTVSPropertyOp2
 70
     0
102
RTVSPropertyOp3
 70
     0
102
RTVSPropertyOp4
 70
     0
102
RTVSPropertyOp5
 70
     0
102
RTVSPropertyOp6
 70
     0
102
RTVSPropertyOp7
 70
     0
102
RTVSPropertyOp8
 70
     0
102
RTVSPropertyOp9
 70
     0
102
RTVSPropertyOp10
 70
     0
102
RTVSPropertyOp11
 70
     0
102
RTVSPropertyOp12
 70
     0
102
RTVSPropertyOp13
 70
     0
102
RTVSPropertyOp14
 70
     2
102
RTVSPropertyOp15
 70
     0
102
RTVSPropertyOp16
 70
     0
102
RTVSPropertyOp17
 70
     0
102
RTVSPropertyOp18
 70
     0
102
RTVSPropertyOp19
 70
     0
102
RTVSPropertyOp20
 70
     0
102
RTVSPropertyOp21
 70
     0
102
RTVSPropertyOp22
 70
     0
102
RTVSPropertyOp23
 70
     0
102
RTVSPropertyOp24
 70
     0
102
RTVSPropertyOp25
 70
     0
102
RTVSPropertyOp26
 70
     0
102
RTVSPropertyOp27
 70
     0
102
RTVSPropertyOp28
 70
     1
102
RTVSPropertyOp29
 70
     1
102
RTVSPropertyOp30
 70
     1
102
RTVSPropertyOp31
 70
     1
102
RTVSPropertyOp32
 70
     1
102
RTVSPropertyOp33
 70
     1
102
RTVSPropertyOp34
 70
     1
102
RTVSPropertyOp35
 70
     1
102
RTVSPropertyOp36
 70
     1
102
RTVSPropertyOp37
 70
     0
102
RTVSPropertyOp38
 70
     0
102
RTVSPropertyOp39
 70
     0
102
RTVSPropertyOp40
 70
     0
102
RTVSPropertyOp41
 70
     0
102
RTVSPropertyOp42
 70
     0
102
RTVSPropertyOp43
 70
     0
102
RTVSPropertyOp44
 70
     0
102
RTVSPropertyOp45
 70
     1
102
RTVSPropertyOp46
 70
     0
102
RTVSPropertyOp47
 70
     0
102
RTVSPropertyOp48
 70
     0
102
RTVSPropertyOp49
 70
     1
102
RTVSPropertyOp50
 70
     0
102
RTVSPropertyOp51
 70
     0
102
RTVSPropertyOp52
 70
     0
102
RTVSPropertyOp53
 70
     0
102
RTVSPropertyOp54
 70
     0
102
RTVSPropertyOp55
 70
     1
102
RTVSPropertyOp56
 70
     0
102
RTVSPropertyOp57
 70
     0
102
RTVSPropertyOp58
 70
     0
102
RTVSPropertyOp59
 70
     0
102
RTVSPropertyOp60
 70
     0
102
RTVSPropertyOp61
 70
     0
102
RTVSPropertyOp62
 70
     0
  0
XRECORD
  5
2530
102
{ACAD_REACTORS
330
252F
102
}
330
252F
100
AcDbXrecord
280
     1
102
RTVSPost2010Prop28
280
     0
102
RTVSPost2010PropOp28
 70
     1
102
RTVSPost2010Prop29
280
     1
102
RTVSPost2010PropOp29
 70
     1
102
RTVSPost2010Prop30
280
     1
102
RTVSPost2010PropOp30
 70
     1
102
RTVSPost2010Prop31
280
     0
102
RTVSPost2010PropOp31
 70
     1
102
RTVSPost2010Prop32
280
     0
102
RTVSPost2010PropOp32
 70
     1
102
RTVSPost2010Prop33
280
     0
102
RTVSPost2010PropOp33
 70
     1
102
RTVSPost2010Prop34
280
     0
102
RTVSPost2010PropOp34
 70
     1
102
RTVSPost2010Prop35
280
     0
102
RTVSPost2010PropOp35
 70
     1
102
RTVSPost2010Prop36
280
     0
102
RTVSPost2010PropOp36
 70
     1
102
RTVSPost2010Prop37
 90
       50
102
RTVSPost2010PropOp37
 70
     1
102
RTVSPost2010Prop38
140
0.0
102
RTVSPost2010PropOp38
 70
     1
102
RTVSPost2010Prop39
140
1.0
102
RTVSPost2010PropOp39
 70
     1
102
RTVSPost2010Prop40
 90
        0
102
RTVSPost2010PropOp40
 70
     1
102
RTVSPost2010Prop41ColorIndex
 90
       18
102
RTVSPost2010Prop41ColorRGB
 90
        0
102
RTVSPost2010PropOp41
 70
     1
102
RTVSPost2010Prop42
 90
       50
102
RTVSPost2010PropOp42
 70
     1
102
RTVSPost2010Prop43
 90
        3
102
RTVSPost2010PropOp43
 70
     1
102
RTVSPost2010Prop44ColorIndex
 90
        5
102
RTVSPost2010Prop44ColorRGB
 90
      255
102
RTVSPost2010PropOp44
 70
     1
102
RTVSPost2010Prop45
280
     0
102
RTVSPost2010PropOp45
 70
     1
102
RTVSPost2010Prop46
 90
       50
102
RTVSPost2010PropOp46
 70
     1
102
RTVSPost2010Prop47
 90
       50
102
RTVSPost2010PropOp47
 70
     1
102
RTVSPost2010Prop48
 90
       50
102
RTVSPost2010PropOp48
 70
     1
102
RTVSPost2010Prop49
280
     0
102
RTVSPost2010PropOp49
 70
     1
102
RTVSPost2010Prop50
 90
       50
102
RTVSPost2010PropOp50
 70
     1
102
RTVSPost2010Prop51ColorIndex
 90
      256
102
RTVSPost2010Prop51ColorRGB
 90
-16777216
102
RTVSPost2010PropOp51
 70
     0
102
RTVSPost2010Prop52
140
1.0
102
RTVSPost2010PropOp52
 70
     0
102
RTVSPost2010Prop53
 90
        2
102
RTVSPost2010PropOp53
 70
     1
102
RTVSPost2010Prop54
  1
strokes_ogs.tif
102
RTVSPost2010PropOp54
 70
     1
102
RTVSPost2010Prop55
280
     0
102
RTVSPost2010PropOp55
 70
     1
102
RTVSPost2010Prop56
140
1.0
102
RTVSPost2010PropOp56
 70
     1
102
RTVSPost2010Prop57
140
1.0
102
RTVSPost2010PropOp57
 70
     1
102
RTVSPropertyOp0
 70
     1
102
RTVSPropertyOp1
 70
     1
102
RTVSPropertyOp2
 70
     1
102
RTVSPropertyOp3
 70
     1
102
RTVSPropertyOp4
 70
     1
102
RTVSPropertyOp5
 70
     1
102
RTVSPropertyOp6
 70
     1
102
RTVSPropertyOp7
 70
     1
102
RTVSPropertyOp8
 70
     1
102
RTVSPropertyOp9
 70
     1
102
RTVSPropertyOp10
 70
     1
102
RTVSPropertyOp11
 70
     1
102
RTVSPropertyOp12
 70
     1
102
RTVSPropertyOp13
 70
     1
102
RTVSPropertyOp14
 70
     1
102
RTVSPropertyOp15
 70
     1
102
RTVSPropertyOp16
 70
     1
102
RTVSPropertyOp17
 70
     1
102
RTVSPropertyOp18
 70
     1
102
RTVSPropertyOp19
 70
     1
102
RTVSPropertyOp20
 70
     1
102
RTVSPropertyOp21
 70
     1
102
RTVSPropertyOp22
 70
     1
102
RTVSPropertyOp23
 70
     1
102
RTVSPropertyOp24
 70
     1
102
RTVSPropertyOp25
 70
     1
102
RTVSPropertyOp26
 70
     1
102
RTVSPropertyOp27
 70
     1
102
RTVSPropertyOp28
 70
     1
102
RTVSPropertyOp29
 70
     1
102
RTVSPropertyOp30
 70
     1
102
RTVSPropertyOp31
 70
     1
102
RTVSPropertyOp32
 70
     1
102
RTVSPropertyOp33
 70
     1
102
RTVSPropertyOp34
 70
     1
102
RTVSPropertyOp35
 70
     1
102
RTVSPropertyOp36
 70
     1
102
RTVSPropertyOp37
 70
     1
102
RTVSPropertyOp38
 70
     1
102
RTVSPropertyOp39
 70
     1
102
RTVSPropertyOp40
 70
     1
102
RTVSPropertyOp41
 70
     1
102
RTVSPropertyOp42
 70
     1
102
RTVSPropertyOp43
 70
     1
102
RTVSPropertyOp44
 70
     1
102
RTVSPropertyOp45
 70
     1
102
RTVSPropertyOp46
 70
     1
102
RTVSPropertyOp47
 70
     1
102
RTVSPropertyOp48
 70
     1
102
RTVSPropertyOp49
 70
     1
102
RTVSPropertyOp50
 70
     1
102
RTVSPropertyOp51
 70
     0
102
RTVSPropertyOp52
 70
     0
102
RTVSPropertyOp53
 70
     1
102
RTVSPropertyOp54
 70
     1
102
RTVSPropertyOp55
 70
     1
102
RTVSPropertyOp56
 70
     1
102
RTVSPropertyOp57
 70
     1
102
RTVSPropertyOp58
 70
     1
102
RTVSPropertyOp59
 70
     1
102
RTVSPropertyOp60
 70
     1
102
RTVSPropertyOp61
 70
     1
102
RTVSPropertyOp62
 70
     1
  0
XRECORD
  5
2542
102
{ACAD_REACTORS
330
2541
102
}
330
2541
100
AcDbXrecord
280
     1
102
RTVSPost2010Prop28
280
     0
102
RTVSPost2010PropOp28
 70
     1
102
RTVSPost2010Prop29
280
     1
102
RTVSPost2010PropOp29
 70
     1
102
RTVSPost2010Prop30
280
     1
102
RTVSPost2010PropOp30
 70
     1
102
RTVSPost2010Prop31
280
     0
102
RTVSPost2010PropOp31
 70
     1
102
RTVSPost2010Prop32
280
     0
102
RTVSPost2010PropOp32
 70
     1
102
RTVSPost2010Prop33
280
     0
102
RTVSPost2010PropOp33
 70
     1
102
RTVSPost2010Prop34
280
     0
102
RTVSPost2010PropOp34
 70
     1
102
RTVSPost2010Prop35
280
     0
102
RTVSPost2010PropOp35
 70
     1
102
RTVSPost2010Prop36
280
     0
102
RTVSPost2010PropOp36
 70
     1
102
RTVSPost2010Prop37
 90
       50
102
RTVSPost2010PropOp37
 70
     0
102
RTVSPost2010Prop38
140
0.0
102
RTVSPost2010PropOp38
 70
     0
102
RTVSPost2010Prop39
140
1.0
102
RTVSPost2010PropOp39
 70
     0
102
RTVSPost2010Prop40
 90
        0
102
RTVSPost2010PropOp40
 70
     0
102
RTVSPost2010Prop41ColorIndex
 90
       18
102
RTVSPost2010Prop41ColorRGB
 90
        0
102
RTVSPost2010PropOp41
 70
     0
102
RTVSPost2010Prop42
 90
       50
102
RTVSPost2010PropOp42
 70
     0
102
RTVSPost2010Prop43
 90
        3
102
RTVSPost2010PropOp43
 70
     0
102
RTVSPost2010Prop44ColorIndex
 90
        5
102
RTVSPost2010Prop44ColorRGB
 90
      255
102
RTVSPost2010PropOp44
 70
     0
102
RTVSPost2010Prop45
280
     0
102
RTVSPost2010PropOp45
 70
     1
102
RTVSPost2010Prop46
 90
       50
102
RTVSPost2010PropOp46
 70
     0
102
RTVSPost2010Prop47
 90
       50
102
RTVSPost2010PropOp47
 70
     0
102
RTVSPost2010Prop48
 90
       50
102
RTVSPost2010PropOp48
 70
     0
102
RTVSPost2010Prop49
280
     0
102
RTVSPost2010PropOp49
 70
     1
102
RTVSPost2010Prop50
 90
       50
102
RTVSPost2010PropOp50
 70
     0
102
RTVSPost2010Prop51ColorIndex
 90
      256
102
RTVSPost2010Prop51ColorRGB
 90
-16777216
102
RTVSPost2010PropOp51
 70
     0
102
RTVSPost2010Prop52
140
1.0
102
RTVSPost2010PropOp52
 70
     0
102
RTVSPost2010Prop53
 90
        2
102
RTVSPost2010PropOp53
 70
     0
102
RTVSPost2010Prop54
  1
strokes_ogs.tif
102
RTVSPost2010PropOp54
 70
     0
102
RTVSPost2010Prop55
280
     0
102
RTVSPost2010PropOp55
 70
     1
102
RTVSPost2010Prop56
140
1.0
102
RTVSPost2010PropOp56
 70
     0
102
RTVSPost2010Prop57
140
1.0
102
RTVSPost2010PropOp57
 70
     0
102
RTVSPropertyOp0
 70
     0
102
RTVSPropertyOp1
 70
     0
102
RTVSPropertyOp2
 70
     0
102
RTVSPropertyOp3
 70
     0
102
RTVSPropertyOp4
 70
     0
102
RTVSPropertyOp5
 70
     0
102
RTVSPropertyOp6
 70
     0
102
RTVSPropertyOp7
 70
     0
102
RTVSPropertyOp8
 70
     0
102
RTVSPropertyOp9
 70
     0
102
RTVSPropertyOp10
 70
     0
102
RTVSPropertyOp11
 70
     0
102
RTVSPropertyOp12
 70
     0
102
RTVSPropertyOp13
 70
     0
102
RTVSPropertyOp14
 70
     2
102
RTVSPropertyOp15
 70
     0
102
RTVSPropertyOp16
 70
     0
102
RTVSPropertyOp17
 70
     0
102
RTVSPropertyOp18
 70
     0
102
RTVSPropertyOp19
 70
     0
102
RTVSPropertyOp20
 70
     0
102
RTVSPropertyOp21
 70
     0
102
RTVSPropertyOp22
 70
     0
102
RTVSPropertyOp23
 70
     0
102
RTVSPropertyOp24
 70
     0
102
RTVSPropertyOp25
 70
     0
102
RTVSPropertyOp26
 70
     0
102
RTVSPropertyOp27
 70
     0
102
RTVSPropertyOp28
 70
     1
102
RTVSPropertyOp29
 70
     1
102
RTVSPropertyOp30
 70
     1
102
RTVSPropertyOp31
 70
     1
102
RTVSPropertyOp32
 70
     1
102
RTVSPropertyOp33
 70
     1
102
RTVSPropertyOp34
 70
     1
102
RTVSPropertyOp35
 70
     1
102
RTVSPropertyOp36
 70
     1
102
RTVSPropertyOp37
 70
     0
102
RTVSPropertyOp38
 70
     0
102
RTVSPropertyOp39
 70
     0
102
RTVSPropertyOp40
 70
     0
102
RTVSPropertyOp41
 70
     0
102
RTVSPropertyOp42
 70
     0
102
RTVSPropertyOp43
 70
     0
102
RTVSPropertyOp44
 70
     0
102
RTVSPropertyOp45
 70
     1
102
RTVSPropertyOp46
 70
     0
102
RTVSPropertyOp47
 70
     0
102
RTVSPropertyOp48
 70
     0
102
RTVSPropertyOp49
 70
     1
102
RTVSPropertyOp50
 70
     0
102
RTVSPropertyOp51
 70
     0
102
RTVSPropertyOp52
 70
     0
102
RTVSPropertyOp53
 70
     0
102
RTVSPropertyOp54
 70
     0
102
RTVSPropertyOp55
 70
     1
102
RTVSPropertyOp56
 70
     0
102
RTVSPropertyOp57
 70
     0
102
RTVSPropertyOp58
 70
     0
102
RTVSPropertyOp59
 70
     0
102
RTVSPropertyOp60
 70
     0
102
RTVSPropertyOp61
 70
     0
102
RTVSPropertyOp62
 70
     0
  0
XRECORD
  5
2528
102
{ACAD_REACTORS
330
2527
102
}
330
2527
100
AcDbXrecord
280
     1
102
RTVSPost2010Prop28
280
     0
102
RTVSPost2010PropOp28
 70
     1
102
RTVSPost2010Prop29
280
     1
102
RTVSPost2010PropOp29
 70
     1
102
RTVSPost2010Prop30
280
     1
102
RTVSPost2010PropOp30
 70
     1
102
RTVSPost2010Prop31
280
     0
102
RTVSPost2010PropOp31
 70
     1
102
RTVSPost2010Prop32
280
     0
102
RTVSPost2010PropOp32
 70
     1
102
RTVSPost2010Prop33
280
     0
102
RTVSPost2010PropOp33
 70
     1
102
RTVSPost2010Prop34
280
     0
102
RTVSPost2010PropOp34
 70
     1
102
RTVSPost2010Prop35
280
     0
102
RTVSPost2010PropOp35
 70
     1
102
RTVSPost2010Prop36
280
     0
102
RTVSPost2010PropOp36
 70
     1
102
RTVSPost2010Prop37
 90
       50
102
RTVSPost2010PropOp37
 70
     1
102
RTVSPost2010Prop38
140
0.0
102
RTVSPost2010PropOp38
 70
     1
102
RTVSPost2010Prop39
140
1.0
102
RTVSPost2010PropOp39
 70
     1
102
RTVSPost2010Prop40
 90
        0
102
RTVSPost2010PropOp40
 70
     1
102
RTVSPost2010Prop41ColorIndex
 90
       18
102
RTVSPost2010Prop41ColorRGB
 90
        0
102
RTVSPost2010PropOp41
 70
     1
102
RTVSPost2010Prop42
 90
       50
102
RTVSPost2010PropOp42
 70
     1
102
RTVSPost2010Prop43
 90
        3
102
RTVSPost2010PropOp43
 70
     1
102
RTVSPost2010Prop44ColorIndex
 90
        5
102
RTVSPost2010Prop44ColorRGB
 90
      255
102
RTVSPost2010PropOp44
 70
     1
102
RTVSPost2010Prop45
280
     0
102
RTVSPost2010PropOp45
 70
     1
102
RTVSPost2010Prop46
 90
       50
102
RTVSPost2010PropOp46
 70
     1
102
RTVSPost2010Prop47
 90
       50
102
RTVSPost2010PropOp47
 70
     1
102
RTVSPost2010Prop48
 90
       50
102
RTVSPost2010PropOp48
 70
     1
102
RTVSPost2010Prop49
280
     0
102
RTVSPost2010PropOp49
 70
     1
102
RTVSPost2010Prop50
 90
       50
102
RTVSPost2010PropOp50
 70
     1
102
RTVSPost2010Prop51ColorIndex
 90
      256
102
RTVSPost2010Prop51ColorRGB
 90
-16777216
102
RTVSPost2010PropOp51
 70
     0
102
RTVSPost2010Prop52
140
1.0
102
RTVSPost2010PropOp52
 70
     0
102
RTVSPost2010Prop53
 90
        2
102
RTVSPost2010PropOp53
 70
     1
102
RTVSPost2010Prop54
  1
strokes_ogs.tif
102
RTVSPost2010PropOp54
 70
     1
102
RTVSPost2010Prop55
280
     0
102
RTVSPost2010PropOp55
 70
     1
102
RTVSPost2010Prop56
140
1.0
102
RTVSPost2010PropOp56
 70
     1
102
RTVSPost2010Prop57
140
1.0
102
RTVSPost2010PropOp57
 70
     1
102
RTVSPropertyOp0
 70
     1
102
RTVSPropertyOp1
 70
     1
102
RTVSPropertyOp2
 70
     1
102
RTVSPropertyOp3
 70
     1
102
RTVSPropertyOp4
 70
     1
102
RTVSPropertyOp5
 70
     1
102
RTVSPropertyOp6
 70
     1
102
RTVSPropertyOp7
 70
     1
102
RTVSPropertyOp8
 70
     1
102
RTVSPropertyOp9
 70
     1
102
RTVSPropertyOp10
 70
     1
102
RTVSPropertyOp11
 70
     1
102
RTVSPropertyOp12
 70
     1
102
RTVSPropertyOp13
 70
     1
102
RTVSPropertyOp14
 70
     1
102
RTVSPropertyOp15
 70
     1
102
RTVSPropertyOp16
 70
     1
102
RTVSPropertyOp17
 70
     1
102
RTVSPropertyOp18
 70
     1
102
RTVSPropertyOp19
 70
     1
102
RTVSPropertyOp20
 70
     1
102
RTVSPropertyOp21
 70
     1
102
RTVSPropertyOp22
 70
     1
102
RTVSPropertyOp23
 70
     1
102
RTVSPropertyOp24
 70
     1
102
RTVSPropertyOp25
 70
     1
102
RTVSPropertyOp26
 70
     1
102
RTVSPropertyOp27
 70
     1
102
RTVSPropertyOp28
 70
     1
102
RTVSPropertyOp29
 70
     1
102
RTVSPropertyOp30
 70
     1
102
RTVSPropertyOp31
 70
     1
102
RTVSPropertyOp32
 70
     1
102
RTVSPropertyOp33
 70
     1
102
RTVSPropertyOp34
 70
     1
102
RTVSPropertyOp35
 70
     1
102
RTVSPropertyOp36
 70
     1
102
RTVSPropertyOp37
 70
     1
102
RTVSPropertyOp38
 70
     1
102
RTVSPropertyOp39
 70
     1
102
RTVSPropertyOp40
 70
     1
102
RTVSPropertyOp41
 70
     1
102
RTVSPropertyOp42
 70
     1
102
RTVSPropertyOp43
 70
     1
102
RTVSPropertyOp44
 70
     1
102
RTVSPropertyOp45
 70
     1
102
RTVSPropertyOp46
 70
     1
102
RTVSPropertyOp47
 70
     1
102
RTVSPropertyOp48
 70
     1
102
RTVSPropertyOp49
 70
     1
102
RTVSPropertyOp50
 70
     1
102
RTVSPropertyOp51
 70
     0
102
RTVSPropertyOp52
 70
     0
102
RTVSPropertyOp53
 70
     1
102
RTVSPropertyOp54
 70
     1
102
RTVSPropertyOp55
 70
     1
102
RTVSPropertyOp56
 70
     1
102
RTVSPropertyOp57
 70
     1
102
RTVSPropertyOp58
 70
     1
102
RTVSPropertyOp59
 70
     1
102
RTVSPropertyOp60
 70
     1
102
RTVSPropertyOp61
 70
     1
102
RTVSPropertyOp62
 70
     1
  0
XRECORD
  5
253E
102
{ACAD_REACTORS
330
253D
102
}
330
253D
100
AcDbXrecord
280
     1
102
RTVSPost2010Prop28
280
     0
102
RTVSPost2010PropOp28
 70
     1
102
RTVSPost2010Prop29
280
     1
102
RTVSPost2010PropOp29
 70
     1
102
RTVSPost2010Prop30
280
     1
102
RTVSPost2010PropOp30
 70
     1
102
RTVSPost2010Prop31
280
     0
102
RTVSPost2010PropOp31
 70
     1
102
RTVSPost2010Prop32
280
     0
102
RTVSPost2010PropOp32
 70
     1
102
RTVSPost2010Prop33
280
     0
102
RTVSPost2010PropOp33
 70
     1
102
RTVSPost2010Prop34
280
     0
102
RTVSPost2010PropOp34
 70
     1
102
RTVSPost2010Prop35
280
     0
102
RTVSPost2010PropOp35
 70
     1
102
RTVSPost2010Prop36
280
     0
102
RTVSPost2010PropOp36
 70
     1
102
RTVSPost2010Prop37
 90
       50
102
RTVSPost2010PropOp37
 70
     1
102
RTVSPost2010Prop38
140
0.0
102
RTVSPost2010PropOp38
 70
     1
102
RTVSPost2010Prop39
140
1.0
102
RTVSPost2010PropOp39
 70
     1
102
RTVSPost2010Prop40
 90
        0
102
RTVSPost2010PropOp40
 70
     1
102
RTVSPost2010Prop41ColorIndex
 90
       18
102
RTVSPost2010Prop41ColorRGB
 90
        0
102
RTVSPost2010PropOp41
 70
     1
102
RTVSPost2010Prop42
 90
       50
102
RTVSPost2010PropOp42
 70
     1
102
RTVSPost2010Prop43
 90
        3
102
RTVSPost2010PropOp43
 70
     1
102
RTVSPost2010Prop44ColorIndex
 90
        5
102
RTVSPost2010Prop44ColorRGB
 90
      255
102
RTVSPost2010PropOp44
 70
     1
102
RTVSPost2010Prop45
280
     0
102
RTVSPost2010PropOp45
 70
     1
102
RTVSPost2010Prop46
 90
       50
102
RTVSPost2010PropOp46
 70
     1
102
RTVSPost2010Prop47
 90
       50
102
RTVSPost2010PropOp47
 70
     1
102
RTVSPost2010Prop48
 90
       50
102
RTVSPost2010PropOp48
 70
     1
102
RTVSPost2010Prop49
280
     0
102
RTVSPost2010PropOp49
 70
     1
102
RTVSPost2010Prop50
 90
       50
102
RTVSPost2010PropOp50
 70
     1
102
RTVSPost2010Prop51ColorIndex
 90
      256
102
RTVSPost2010Prop51ColorRGB
 90
-16777216
102
RTVSPost2010PropOp51
 70
     0
102
RTVSPost2010Prop52
140
1.0
102
RTVSPost2010PropOp52
 70
     0
102
RTVSPost2010Prop53
 90
        2
102
RTVSPost2010PropOp53
 70
     1
102
RTVSPost2010Prop54
  1
strokes_ogs.tif
102
RTVSPost2010PropOp54
 70
     1
102
RTVSPost2010Prop55
280
     0
102
RTVSPost2010PropOp55
 70
     1
102
RTVSPost2010Prop56
140
1.0
102
RTVSPost2010PropOp56
 70
     1
102
RTVSPost2010Prop57
140
1.0
102
RTVSPost2010PropOp57
 70
     1
102
RTVSPropertyOp0
 70
     1
102
RTVSPropertyOp1
 70
     1
102
RTVSPropertyOp2
 70
     1
102
RTVSPropertyOp3
 70
     1
102
RTVSPropertyOp4
 70
     1
102
RTVSPropertyOp5
 70
     1
102
RTVSPropertyOp6
 70
     1
102
RTVSPropertyOp7
 70
     1
102
RTVSPropertyOp8
 70
     1
102
RTVSPropertyOp9
 70
     1
102
RTVSPropertyOp10
 70
     1
102
RTVSPropertyOp11
 70
     1
102
RTVSPropertyOp12
 70
     1
102
RTVSPropertyOp13
 70
     1
102
RTVSPropertyOp14
 70
     1
102
RTVSPropertyOp15
 70
     1
102
RTVSPropertyOp16
 70
     1
102
RTVSPropertyOp17
 70
     1
102
RTVSPropertyOp18
 70
     1
102
RTVSPropertyOp19
 70
     1
102
RTVSPropertyOp20
 70
     1
102
RTVSPropertyOp21
 70
     1
102
RTVSPropertyOp22
 70
     1
102
RTVSPropertyOp23
 70
     1
102
RTVSPropertyOp24
 70
     1
102
RTVSPropertyOp25
 70
     1
102
RTVSPropertyOp26
 70
     1
102
RTVSPropertyOp27
 70
     1
102
RTVSPropertyOp28
 70
     1
102
RTVSPropertyOp29
 70
     1
102
RTVSPropertyOp30
 70
     1
102
RTVSPropertyOp31
 70
     1
102
RTVSPropertyOp32
 70
     1
102
RTVSPropertyOp33
 70
     1
102
RTVSPropertyOp34
 70
     1
102
RTVSPropertyOp35
 70
     1
102
RTVSPropertyOp36
 70
     1
102
RTVSPropertyOp37
 70
     1
102
RTVSPropertyOp38
 70
     1
102
RTVSPropertyOp39
 70
     1
102
RTVSPropertyOp40
 70
     1
102
RTVSPropertyOp41
 70
     1
102
RTVSPropertyOp42
 70
     1
102
RTVSPropertyOp43
 70
     1
102
RTVSPropertyOp44
 70
     1
102
RTVSPropertyOp45
 70
     1
102
RTVSPropertyOp46
 70
     1
102
RTVSPropertyOp47
 70
     1
102
RTVSPropertyOp48
 70
     1
102
RTVSPropertyOp49
 70
     1
102
RTVSPropertyOp50
 70
     1
102
RTVSPropertyOp51
 70
     0
102
RTVSPropertyOp52
 70
     0
102
RTVSPropertyOp53
 70
     1
102
RTVSPropertyOp54
 70
     1
102
RTVSPropertyOp55
 70
     1
102
RTVSPropertyOp56
 70
     1
102
RTVSPropertyOp57
 70
     1
102
RTVSPropertyOp58
 70
     1
102
RTVSPropertyOp59
 70
     1
102
RTVSPropertyOp60
 70
     1
102
RTVSPropertyOp61
 70
     1
102
RTVSPropertyOp62
 70
     1
  0
XRECORD
  5
253C
102
{ACAD_REACTORS
330
253B
102
}
330
253B
100
AcDbXrecord
280
     1
102
RTVSPost2010Prop28
280
     0
102
RTVSPost2010PropOp28
 70
     1
102
RTVSPost2010Prop29
280
     1
102
RTVSPost2010PropOp29
 70
     1
102
RTVSPost2010Prop30
280
     1
102
RTVSPost2010PropOp30
 70
     1
102
RTVSPost2010Prop31
280
     0
102
RTVSPost2010PropOp31
 70
     1
102
RTVSPost2010Prop32
280
     0
102
RTVSPost2010PropOp32
 70
     1
102
RTVSPost2010Prop33
280
     0
102
RTVSPost2010PropOp33
 70
     1
102
RTVSPost2010Prop34
280
     0
102
RTVSPost2010PropOp34
 70
     1
102
RTVSPost2010Prop35
280
     0
102
RTVSPost2010PropOp35
 70
     1
102
RTVSPost2010Prop36
280
     0
102
RTVSPost2010PropOp36
 70
     1
102
RTVSPost2010Prop37
 90
       50
102
RTVSPost2010PropOp37
 70
     1
102
RTVSPost2010Prop38
140
0.0
102
RTVSPost2010PropOp38
 70
     1
102
RTVSPost2010Prop39
140
1.0
102
RTVSPost2010PropOp39
 70
     1
102
RTVSPost2010Prop40
 90
        0
102
RTVSPost2010PropOp40
 70
     1
102
RTVSPost2010Prop41ColorIndex
 90
       18
102
RTVSPost2010Prop41ColorRGB
 90
        0
102
RTVSPost2010PropOp41
 70
     1
102
RTVSPost2010Prop42
 90
       50
102
RTVSPost2010PropOp42
 70
     1
102
RTVSPost2010Prop43
 90
        3
102
RTVSPost2010PropOp43
 70
     1
102
RTVSPost2010Prop44ColorIndex
 90
        5
102
RTVSPost2010Prop44ColorRGB
 90
      255
102
RTVSPost2010PropOp44
 70
     1
102
RTVSPost2010Prop45
280
     0
102
RTVSPost2010PropOp45
 70
     1
102
RTVSPost2010Prop46
 90
       50
102
RTVSPost2010PropOp46
 70
     1
102
RTVSPost2010Prop47
 90
       50
102
RTVSPost2010PropOp47
 70
     1
102
RTVSPost2010Prop48
 90
       50
102
RTVSPost2010PropOp48
 70
     1
102
RTVSPost2010Prop49
280
     0
102
RTVSPost2010PropOp49
 70
     1
102
RTVSPost2010Prop50
 90
       50
102
RTVSPost2010PropOp50
 70
     1
102
RTVSPost2010Prop51ColorIndex
 90
      256
102
RTVSPost2010Prop51ColorRGB
 90
-16777216
102
RTVSPost2010PropOp51
 70
     0
102
RTVSPost2010Prop52
140
1.0
102
RTVSPost2010PropOp52
 70
     0
102
RTVSPost2010Prop53
 90
        2
102
RTVSPost2010PropOp53
 70
     1
102
RTVSPost2010Prop54
  1
strokes_ogs.tif
102
RTVSPost2010PropOp54
 70
     1
102
RTVSPost2010Prop55
280
     0
102
RTVSPost2010PropOp55
 70
     1
102
RTVSPost2010Prop56
140
1.0
102
RTVSPost2010PropOp56
 70
     1
102
RTVSPost2010Prop57
140
1.0
102
RTVSPost2010PropOp57
 70
     1
102
RTVSPropertyOp0
 70
     1
102
RTVSPropertyOp1
 70
     1
102
RTVSPropertyOp2
 70
     1
102
RTVSPropertyOp3
 70
     1
102
RTVSPropertyOp4
 70
     1
102
RTVSPropertyOp5
 70
     1
102
RTVSPropertyOp6
 70
     1
102
RTVSPropertyOp7
 70
     1
102
RTVSPropertyOp8
 70
     1
102
RTVSPropertyOp9
 70
     1
102
RTVSPropertyOp10
 70
     1
102
RTVSPropertyOp11
 70
     1
102
RTVSPropertyOp12
 70
     1
102
RTVSPropertyOp13
 70
     1
102
RTVSPropertyOp14
 70
     1
102
RTVSPropertyOp15
 70
     1
102
RTVSPropertyOp16
 70
     1
102
RTVSPropertyOp17
 70
     1
102
RTVSPropertyOp18
 70
     1
102
RTVSPropertyOp19
 70
     1
102
RTVSPropertyOp20
 70
     1
102
RTVSPropertyOp21
 70
     1
102
RTVSPropertyOp22
 70
     1
102
RTVSPropertyOp23
 70
     1
102
RTVSPropertyOp24
 70
     1
102
RTVSPropertyOp25
 70
     1
102
RTVSPropertyOp26
 70
     1
102
RTVSPropertyOp27
 70
     1
102
RTVSPropertyOp28
 70
     1
102
RTVSPropertyOp29
 70
     1
102
RTVSPropertyOp30
 70
     1
102
RTVSPropertyOp31
 70
     1
102
RTVSPropertyOp32
 70
     1
102
RTVSPropertyOp33
 70
     1
102
RTVSPropertyOp34
 70
     1
102
RTVSPropertyOp35
 70
     1
102
RTVSPropertyOp36
 70
     1
102
RTVSPropertyOp37
 70
     1
102
RTVSPropertyOp38
 70
     1
102
RTVSPropertyOp39
 70
     1
102
RTVSPropertyOp40
 70
     1
102
RTVSPropertyOp41
 70
     1
102
RTVSPropertyOp42
 70
     1
102
RTVSPropertyOp43
 70
     1
102
RTVSPropertyOp44
 70
     1
102
RTVSPropertyOp45
 70
     1
102
RTVSPropertyOp46
 70
     1
102
RTVSPropertyOp47
 70
     1
102
RTVSPropertyOp48
 70
     1
102
RTVSPropertyOp49
 70
     1
102
RTVSPropertyOp50
 70
     1
102
RTVSPropertyOp51
 70
     0
102
RTVSPropertyOp52
 70
     0
102
RTVSPropertyOp53
 70
     1
102
RTVSPropertyOp54
 70
     1
102
RTVSPropertyOp55
 70
     1
102
RTVSPropertyOp56
 70
     1
102
RTVSPropertyOp57
 70
     1
102
RTVSPropertyOp58
 70
     1
102
RTVSPropertyOp59
 70
     1
102
RTVSPropertyOp60
 70
     1
102
RTVSPropertyOp61
 70
     1
102
RTVSPropertyOp62
 70
     1
  0
XRECORD
  5
2536
102
{ACAD_REACTORS
330
2535
102
}
330
2535
100
AcDbXrecord
280
     1
102
RTVSPost2010Prop28
280
     0
102
RTVSPost2010PropOp28
 70
     1
102
RTVSPost2010Prop29
280
     1
102
RTVSPost2010PropOp29
 70
     1
102
RTVSPost2010Prop30
280
     1
102
RTVSPost2010PropOp30
 70
     1
102
RTVSPost2010Prop31
280
     0
102
RTVSPost2010PropOp31
 70
     1
102
RTVSPost2010Prop32
280
     0
102
RTVSPost2010PropOp32
 70
     1
102
RTVSPost2010Prop33
280
     0
102
RTVSPost2010PropOp33
 70
     1
102
RTVSPost2010Prop34
280
     0
102
RTVSPost2010PropOp34
 70
     1
102
RTVSPost2010Prop35
280
     0
102
RTVSPost2010PropOp35
 70
     1
102
RTVSPost2010Prop36
280
     0
102
RTVSPost2010PropOp36
 70
     1
102
RTVSPost2010Prop37
 90
       50
102
RTVSPost2010PropOp37
 70
     1
102
RTVSPost2010Prop38
140
0.0
102
RTVSPost2010PropOp38
 70
     1
102
RTVSPost2010Prop39
140
1.0
102
RTVSPost2010PropOp39
 70
     1
102
RTVSPost2010Prop40
 90
        0
102
RTVSPost2010PropOp40
 70
     1
102
RTVSPost2010Prop41ColorIndex
 90
       18
102
RTVSPost2010Prop41ColorRGB
 90
        0
102
RTVSPost2010PropOp41
 70
     1
102
RTVSPost2010Prop42
 90
       50
102
RTVSPost2010PropOp42
 70
     1
102
RTVSPost2010Prop43
 90
        3
102
RTVSPost2010PropOp43
 70
     1
102
RTVSPost2010Prop44ColorIndex
 90
        5
102
RTVSPost2010Prop44ColorRGB
 90
      255
102
RTVSPost2010PropOp44
 70
     1
102
RTVSPost2010Prop45
280
     0
102
RTVSPost2010PropOp45
 70
     1
102
RTVSPost2010Prop46
 90
       50
102
RTVSPost2010PropOp46
 70
     1
102
RTVSPost2010Prop47
 90
       50
102
RTVSPost2010PropOp47
 70
     1
102
RTVSPost2010Prop48
 90
       50
102
RTVSPost2010PropOp48
 70
     1
102
RTVSPost2010Prop49
280
     0
102
RTVSPost2010PropOp49
 70
     1
102
RTVSPost2010Prop50
 90
       50
102
RTVSPost2010PropOp50
 70
     1
102
RTVSPost2010Prop51ColorIndex
 90
      256
102
RTVSPost2010Prop51ColorRGB
 90
-16777216
102
RTVSPost2010PropOp51
 70
     0
102
RTVSPost2010Prop52
140
1.0
102
RTVSPost2010PropOp52
 70
     0
102
RTVSPost2010Prop53
 90
        2
102
RTVSPost2010PropOp53
 70
     1
102
RTVSPost2010Prop54
  1
strokes_ogs.tif
102
RTVSPost2010PropOp54
 70
     1
102
RTVSPost2010Prop55
280
     0
102
RTVSPost2010PropOp55
 70
     1
102
RTVSPost2010Prop56
140
1.0
102
RTVSPost2010PropOp56
 70
     1
102
RTVSPost2010Prop57
140
1.0
102
RTVSPost2010PropOp57
 70
     1
102
RTVSPropertyOp0
 70
     1
102
RTVSPropertyOp1
 70
     1
102
RTVSPropertyOp2
 70
     1
102
RTVSPropertyOp3
 70
     1
102
RTVSPropertyOp4
 70
     1
102
RTVSPropertyOp5
 70
     1
102
RTVSPropertyOp6
 70
     1
102
RTVSPropertyOp7
 70
     1
102
RTVSPropertyOp8
 70
     1
102
RTVSPropertyOp9
 70
     1
102
RTVSPropertyOp10
 70
     1
102
RTVSPropertyOp11
 70
     1
102
RTVSPropertyOp12
 70
     1
102
RTVSPropertyOp13
 70
     1
102
RTVSPropertyOp14
 70
     1
102
RTVSPropertyOp15
 70
     1
102
RTVSPropertyOp16
 70
     1
102
RTVSPropertyOp17
 70
     1
102
RTVSPropertyOp18
 70
     1
102
RTVSPropertyOp19
 70
     1
102
RTVSPropertyOp20
 70
     1
102
RTVSPropertyOp21
 70
     1
102
RTVSPropertyOp22
 70
     1
102
RTVSPropertyOp23
 70
     1
102
RTVSPropertyOp24
 70
     1
102
RTVSPropertyOp25
 70
     1
102
RTVSPropertyOp26
 70
     1
102
RTVSPropertyOp27
 70
     1
102
RTVSPropertyOp28
 70
     1
102
RTVSPropertyOp29
 70
     1
102
RTVSPropertyOp30
 70
     1
102
RTVSPropertyOp31
 70
     1
102
RTVSPropertyOp32
 70
     1
102
RTVSPropertyOp33
 70
     1
102
RTVSPropertyOp34
 70
     1
102
RTVSPropertyOp35
 70
     1
102
RTVSPropertyOp36
 70
     1
102
RTVSPropertyOp37
 70
     1
102
RTVSPropertyOp38
 70
     1
102
RTVSPropertyOp39
 70
     1
102
RTVSPropertyOp40
 70
     1
102
RTVSPropertyOp41
 70
     1
102
RTVSPropertyOp42
 70
     1
102
RTVSPropertyOp43
 70
     1
102
RTVSPropertyOp44
 70
     1
102
RTVSPropertyOp45
 70
     1
102
RTVSPropertyOp46
 70
     1
102
RTVSPropertyOp47
 70
     1
102
RTVSPropertyOp48
 70
     1
102
RTVSPropertyOp49
 70
     1
102
RTVSPropertyOp50
 70
     1
102
RTVSPropertyOp51
 70
     0
102
RTVSPropertyOp52
 70
     0
102
RTVSPropertyOp53
 70
     1
102
RTVSPropertyOp54
 70
     1
102
RTVSPropertyOp55
 70
     1
102
RTVSPropertyOp56
 70
     1
102
RTVSPropertyOp57
 70
     1
102
RTVSPropertyOp58
 70
     1
102
RTVSPropertyOp59
 70
     1
102
RTVSPropertyOp60
 70
     1
102
RTVSPropertyOp61
 70
     1
102
RTVSPropertyOp62
 70
     1
  0
XRECORD
  5
2538
102
{ACAD_REACTORS
330
2537
102
}
330
2537
100
AcDbXrecord
280
     1
102
RTVSPost2010Prop28
280
     0
102
RTVSPost2010PropOp28
 70
     1
102
RTVSPost2010Prop29
280
     1
102
RTVSPost2010PropOp29
 70
     1
102
RTVSPost2010Prop30
280
     1
102
RTVSPost2010PropOp30
 70
     1
102
RTVSPost2010Prop31
280
     0
102
RTVSPost2010PropOp31
 70
     1
102
RTVSPost2010Prop32
280
     0
102
RTVSPost2010PropOp32
 70
     1
102
RTVSPost2010Prop33
280
     0
102
RTVSPost2010PropOp33
 70
     1
102
RTVSPost2010Prop34
280
     0
102
RTVSPost2010PropOp34
 70
     1
102
RTVSPost2010Prop35
280
     0
102
RTVSPost2010PropOp35
 70
     1
102
RTVSPost2010Prop36
280
     0
102
RTVSPost2010PropOp36
 70
     1
102
RTVSPost2010Prop37
 90
       50
102
RTVSPost2010PropOp37
 70
     1
102
RTVSPost2010Prop38
140
0.0
102
RTVSPost2010PropOp38
 70
     1
102
RTVSPost2010Prop39
140
1.0
102
RTVSPost2010PropOp39
 70
     1
102
RTVSPost2010Prop40
 90
        0
102
RTVSPost2010PropOp40
 70
     1
102
RTVSPost2010Prop41ColorIndex
 90
       18
102
RTVSPost2010Prop41ColorRGB
 90
        0
102
RTVSPost2010PropOp41
 70
     1
102
RTVSPost2010Prop42
 90
       50
102
RTVSPost2010PropOp42
 70
     1
102
RTVSPost2010Prop43
 90
        3
102
RTVSPost2010PropOp43
 70
     1
102
RTVSPost2010Prop44ColorIndex
 90
        5
102
RTVSPost2010Prop44ColorRGB
 90
      255
102
RTVSPost2010PropOp44
 70
     1
102
RTVSPost2010Prop45
280
     0
102
RTVSPost2010PropOp45
 70
     1
102
RTVSPost2010Prop46
 90
       50
102
RTVSPost2010PropOp46
 70
     1
102
RTVSPost2010Prop47
 90
       50
102
RTVSPost2010PropOp47
 70
     1
102
RTVSPost2010Prop48
 90
       50
102
RTVSPost2010PropOp48
 70
     1
102
RTVSPost2010Prop49
280
     0
102
RTVSPost2010PropOp49
 70
     1
102
RTVSPost2010Prop50
 90
       50
102
RTVSPost2010PropOp50
 70
     1
102
RTVSPost2010Prop51ColorIndex
 90
      256
102
RTVSPost2010Prop51ColorRGB
 90
-16777216
102
RTVSPost2010PropOp51
 70
     0
102
RTVSPost2010Prop52
140
1.0
102
RTVSPost2010PropOp52
 70
     0
102
RTVSPost2010Prop53
 90
        2
102
RTVSPost2010PropOp53
 70
     1
102
RTVSPost2010Prop54
  1
strokes_ogs.tif
102
RTVSPost2010PropOp54
 70
     1
102
RTVSPost2010Prop55
280
     0
102
RTVSPost2010PropOp55
 70
     1
102
RTVSPost2010Prop56
140
1.0
102
RTVSPost2010PropOp56
 70
     1
102
RTVSPost2010Prop57
140
1.0
102
RTVSPost2010PropOp57
 70
     1
102
RTVSPropertyOp0
 70
     1
102
RTVSPropertyOp1
 70
     1
102
RTVSPropertyOp2
 70
     1
102
RTVSPropertyOp3
 70
     1
102
RTVSPropertyOp4
 70
     1
102
RTVSPropertyOp5
 70
     1
102
RTVSPropertyOp6
 70
     1
102
RTVSPropertyOp7
 70
     1
102
RTVSPropertyOp8
 70
     1
102
RTVSPropertyOp9
 70
     1
102
RTVSPropertyOp10
 70
     1
102
RTVSPropertyOp11
 70
     1
102
RTVSPropertyOp12
 70
     1
102
RTVSPropertyOp13
 70
     1
102
RTVSPropertyOp14
 70
     1
102
RTVSPropertyOp15
 70
     1
102
RTVSPropertyOp16
 70
     1
102
RTVSPropertyOp17
 70
     1
102
RTVSPropertyOp18
 70
     1
102
RTVSPropertyOp19
 70
     1
102
RTVSPropertyOp20
 70
     1
102
RTVSPropertyOp21
 70
     1
102
RTVSPropertyOp22
 70
     1
102
RTVSPropertyOp23
 70
     1
102
RTVSPropertyOp24
 70
     1
102
RTVSPropertyOp25
 70
     1
102
RTVSPropertyOp26
 70
     1
102
RTVSPropertyOp27
 70
     1
102
RTVSPropertyOp28
 70
     1
102
RTVSPropertyOp29
 70
     1
102
RTVSPropertyOp30
 70
     1
102
RTVSPropertyOp31
 70
     1
102
RTVSPropertyOp32
 70
     1
102
RTVSPropertyOp33
 70
     1
102
RTVSPropertyOp34
 70
     1
102
RTVSPropertyOp35
 70
     1
102
RTVSPropertyOp36
 70
     1
102
RTVSPropertyOp37
 70
     1
102
RTVSPropertyOp38
 70
     1
102
RTVSPropertyOp39
 70
     1
102
RTVSPropertyOp40
 70
     1
102
RTVSPropertyOp41
 70
     1
102
RTVSPropertyOp42
 70
     1
102
RTVSPropertyOp43
 70
     1
102
RTVSPropertyOp44
 70
     1
102
RTVSPropertyOp45
 70
     1
102
RTVSPropertyOp46
 70
     1
102
RTVSPropertyOp47
 70
     1
102
RTVSPropertyOp48
 70
     1
102
RTVSPropertyOp49
 70
     1
102
RTVSPropertyOp50
 70
     1
102
RTVSPropertyOp51
 70
     0
102
RTVSPropertyOp52
 70
     0
102
RTVSPropertyOp53
 70
     1
102
RTVSPropertyOp54
 70
     1
102
RTVSPropertyOp55
 70
     1
102
RTVSPropertyOp56
 70
     1
102
RTVSPropertyOp57
 70
     1
102
RTVSPropertyOp58
 70
     1
102
RTVSPropertyOp59
 70
     1
102
RTVSPropertyOp60
 70
     1
102
RTVSPropertyOp61
 70
     1
102
RTVSPropertyOp62
 70
     1
  0
XRECORD
  5
252E
102
{ACAD_REACTORS
330
252D
102
}
330
252D
100
AcDbXrecord
280
     1
102
RTVSPost2010Prop28
280
     0
102
RTVSPost2010PropOp28
 70
     1
102
RTVSPost2010Prop29
280
     1
102
RTVSPost2010PropOp29
 70
     1
102
RTVSPost2010Prop30
280
     1
102
RTVSPost2010PropOp30
 70
     1
102
RTVSPost2010Prop31
280
     0
102
RTVSPost2010PropOp31
 70
     1
102
RTVSPost2010Prop32
280
     0
102
RTVSPost2010PropOp32
 70
     1
102
RTVSPost2010Prop33
280
     0
102
RTVSPost2010PropOp33
 70
     1
102
RTVSPost2010Prop34
280
     0
102
RTVSPost2010PropOp34
 70
     1
102
RTVSPost2010Prop35
280
     0
102
RTVSPost2010PropOp35
 70
     1
102
RTVSPost2010Prop36
280
     0
102
RTVSPost2010PropOp36
 70
     1
102
RTVSPost2010Prop37
 90
       50
102
RTVSPost2010PropOp37
 70
     1
102
RTVSPost2010Prop38
140
0.0
102
RTVSPost2010PropOp38
 70
     1
102
RTVSPost2010Prop39
140
1.0
102
RTVSPost2010PropOp39
 70
     1
102
RTVSPost2010Prop40
 90
        0
102
RTVSPost2010PropOp40
 70
     1
102
RTVSPost2010Prop41ColorIndex
 90
       18
102
RTVSPost2010Prop41ColorRGB
 90
        0
102
RTVSPost2010PropOp41
 70
     1
102
RTVSPost2010Prop42
 90
       50
102
RTVSPost2010PropOp42
 70
     1
102
RTVSPost2010Prop43
 90
        3
102
RTVSPost2010PropOp43
 70
     1
102
RTVSPost2010Prop44ColorIndex
 90
        5
102
RTVSPost2010Prop44ColorRGB
 90
      255
102
RTVSPost2010PropOp44
 70
     1
102
RTVSPost2010Prop45
280
     0
102
RTVSPost2010PropOp45
 70
     1
102
RTVSPost2010Prop46
 90
       50
102
RTVSPost2010PropOp46
 70
     1
102
RTVSPost2010Prop47
 90
       50
102
RTVSPost2010PropOp47
 70
     1
102
RTVSPost2010Prop48
 90
       50
102
RTVSPost2010PropOp48
 70
     1
102
RTVSPost2010Prop49
280
     0
102
RTVSPost2010PropOp49
 70
     1
102
RTVSPost2010Prop50
 90
       50
102
RTVSPost2010PropOp50
 70
     1
102
RTVSPost2010Prop51ColorIndex
 90
      256
102
RTVSPost2010Prop51ColorRGB
 90
-16777216
102
RTVSPost2010PropOp51
 70
     0
102
RTVSPost2010Prop52
140
1.0
102
RTVSPost2010PropOp52
 70
     0
102
RTVSPost2010Prop53
 90
        2
102
RTVSPost2010PropOp53
 70
     1
102
RTVSPost2010Prop54
  1
strokes_ogs.tif
102
RTVSPost2010PropOp54
 70
     1
102
RTVSPost2010Prop55
280
     0
102
RTVSPost2010PropOp55
 70
     1
102
RTVSPost2010Prop56
140
1.0
102
RTVSPost2010PropOp56
 70
     1
102
RTVSPost2010Prop57
140
1.0
102
RTVSPost2010PropOp57
 70
     1
102
RTVSPropertyOp0
 70
     1
102
RTVSPropertyOp1
 70
     1
102
RTVSPropertyOp2
 70
     1
102
RTVSPropertyOp3
 70
     1
102
RTVSPropertyOp4
 70
     1
102
RTVSPropertyOp5
 70
     1
102
RTVSPropertyOp6
 70
     1
102
RTVSPropertyOp7
 70
     1
102
RTVSPropertyOp8
 70
     1
102
RTVSPropertyOp9
 70
     1
102
RTVSPropertyOp10
 70
     1
102
RTVSPropertyOp11
 70
     1
102
RTVSPropertyOp12
 70
     1
102
RTVSPropertyOp13
 70
     1
102
RTVSPropertyOp14
 70
     1
102
RTVSPropertyOp15
 70
     1
102
RTVSPropertyOp16
 70
     1
102
RTVSPropertyOp17
 70
     1
102
RTVSPropertyOp18
 70
     1
102
RTVSPropertyOp19
 70
     1
102
RTVSPropertyOp20
 70
     1
102
RTVSPropertyOp21
 70
     1
102
RTVSPropertyOp22
 70
     1
102
RTVSPropertyOp23
 70
     1
102
RTVSPropertyOp24
 70
     1
102
RTVSPropertyOp25
 70
     1
102
RTVSPropertyOp26
 70
     1
102
RTVSPropertyOp27
 70
     1
102
RTVSPropertyOp28
 70
     1
102
RTVSPropertyOp29
 70
     1
102
RTVSPropertyOp30
 70
     1
102
RTVSPropertyOp31
 70
     1
102
RTVSPropertyOp32
 70
     1
102
RTVSPropertyOp33
 70
     1
102
RTVSPropertyOp34
 70
     1
102
RTVSPropertyOp35
 70
     1
102
RTVSPropertyOp36
 70
     1
102
RTVSPropertyOp37
 70
     1
102
RTVSPropertyOp38
 70
     1
102
RTVSPropertyOp39
 70
     1
102
RTVSPropertyOp40
 70
     1
102
RTVSPropertyOp41
 70
     1
102
RTVSPropertyOp42
 70
     1
102
RTVSPropertyOp43
 70
     1
102
RTVSPropertyOp44
 70
     1
102
RTVSPropertyOp45
 70
     1
102
RTVSPropertyOp46
 70
     1
102
RTVSPropertyOp47
 70
     1
102
RTVSPropertyOp48
 70
     1
102
RTVSPropertyOp49
 70
     1
102
RTVSPropertyOp50
 70
     1
102
RTVSPropertyOp51
 70
     0
102
RTVSPropertyOp52
 70
     0
102
RTVSPropertyOp53
 70
     1
102
RTVSPropertyOp54
 70
     1
102
RTVSPropertyOp55
 70
     1
102
RTVSPropertyOp56
 70
     1
102
RTVSPropertyOp57
 70
     1
102
RTVSPropertyOp58
 70
     1
102
RTVSPropertyOp59
 70
     1
102
RTVSPropertyOp60
 70
     1
102
RTVSPropertyOp61
 70
     1
102
RTVSPropertyOp62
 70
     1
  0
XRECORD
  5
2522
102
{ACAD_REACTORS
330
2521
102
}
330
2521
100
AcDbXrecord
280
     1
102
RTVSPost2010Prop28
280
     0
102
RTVSPost2010PropOp28
 70
     1
102
RTVSPost2010Prop29
280
     1
102
RTVSPost2010PropOp29
 70
     1
102
RTVSPost2010Prop30
280
     1
102
RTVSPost2010PropOp30
 70
     1
102
RTVSPost2010Prop31
280
     0
102
RTVSPost2010PropOp31
 70
     1
102
RTVSPost2010Prop32
280
     0
102
RTVSPost2010PropOp32
 70
     1
102
RTVSPost2010Prop33
280
     0
102
RTVSPost2010PropOp33
 70
     1
102
RTVSPost2010Prop34
280
     0
102
RTVSPost2010PropOp34
 70
     1
102
RTVSPost2010Prop35
280
     0
102
RTVSPost2010PropOp35
 70
     1
102
RTVSPost2010Prop36
280
     0
102
RTVSPost2010PropOp36
 70
     1
102
RTVSPost2010Prop37
 90
       50
102
RTVSPost2010PropOp37
 70
     1
102
RTVSPost2010Prop38
140
0.0
102
RTVSPost2010PropOp38
 70
     1
102
RTVSPost2010Prop39
140
1.0
102
RTVSPost2010PropOp39
 70
     1
102
RTVSPost2010Prop40
 90
        0
102
RTVSPost2010PropOp40
 70
     1
102
RTVSPost2010Prop41ColorIndex
 90
       18
102
RTVSPost2010Prop41ColorRGB
 90
        0
102
RTVSPost2010PropOp41
 70
     1
102
RTVSPost2010Prop42
 90
       50
102
RTVSPost2010PropOp42
 70
     1
102
RTVSPost2010Prop43
 90
        3
102
RTVSPost2010PropOp43
 70
     1
102
RTVSPost2010Prop44ColorIndex
 90
        5
102
RTVSPost2010Prop44ColorRGB
 90
      255
102
RTVSPost2010PropOp44
 70
     1
102
RTVSPost2010Prop45
280
     0
102
RTVSPost2010PropOp45
 70
     1
102
RTVSPost2010Prop46
 90
       50
102
RTVSPost2010PropOp46
 70
     1
102
RTVSPost2010Prop47
 90
       50
102
RTVSPost2010PropOp47
 70
     1
102
RTVSPost2010Prop48
 90
       50
102
RTVSPost2010PropOp48
 70
     1
102
RTVSPost2010Prop49
280
     0
102
RTVSPost2010PropOp49
 70
     1
102
RTVSPost2010Prop50
 90
       50
102
RTVSPost2010PropOp50
 70
     1
102
RTVSPost2010Prop51ColorIndex
 90
      256
102
RTVSPost2010Prop51ColorRGB
 90
-16777216
102
RTVSPost2010PropOp51
 70
     0
102
RTVSPost2010Prop52
140
1.0
102
RTVSPost2010PropOp52
 70
     0
102
RTVSPost2010Prop53
 90
        2
102
RTVSPost2010PropOp53
 70
     1
102
RTVSPost2010Prop54
  1
strokes_ogs.tif
102
RTVSPost2010PropOp54
 70
     1
102
RTVSPost2010Prop55
280
     0
102
RTVSPost2010PropOp55
 70
     1
102
RTVSPost2010Prop56
140
1.0
102
RTVSPost2010PropOp56
 70
     1
102
RTVSPost2010Prop57
140
1.0
102
RTVSPost2010PropOp57
 70
     1
102
RTVSPropertyOp0
 70
     1
102
RTVSPropertyOp1
 70
     1
102
RTVSPropertyOp2
 70
     1
102
RTVSPropertyOp3
 70
     1
102
RTVSPropertyOp4
 70
     1
102
RTVSPropertyOp5
 70
     1
102
RTVSPropertyOp6
 70
     1
102
RTVSPropertyOp7
 70
     1
102
RTVSPropertyOp8
 70
     1
102
RTVSPropertyOp9
 70
     1
102
RTVSPropertyOp10
 70
     1
102
RTVSPropertyOp11
 70
     1
102
RTVSPropertyOp12
 70
     1
102
RTVSPropertyOp13
 70
     1
102
RTVSPropertyOp14
 70
     1
102
RTVSPropertyOp15
 70
     1
102
RTVSPropertyOp16
 70
     1
102
RTVSPropertyOp17
 70
     1
102
RTVSPropertyOp18
 70
     1
102
RTVSPropertyOp19
 70
     1
102
RTVSPropertyOp20
 70
     1
102
RTVSPropertyOp21
 70
     1
102
RTVSPropertyOp22
 70
     1
102
RTVSPropertyOp23
 70
     1
102
RTVSPropertyOp24
 70
     1
102
RTVSPropertyOp25
 70
     1
102
RTVSPropertyOp26
 70
     1
102
RTVSPropertyOp27
 70
     1
102
RTVSPropertyOp28
 70
     1
102
RTVSPropertyOp29
 70
     1
102
RTVSPropertyOp30
 70
     1
102
RTVSPropertyOp31
 70
     1
102
RTVSPropertyOp32
 70
     1
102
RTVSPropertyOp33
 70
     1
102
RTVSPropertyOp34
 70
     1
102
RTVSPropertyOp35
 70
     1
102
RTVSPropertyOp36
 70
     1
102
RTVSPropertyOp37
 70
     1
102
RTVSPropertyOp38
 70
     1
102
RTVSPropertyOp39
 70
     1
102
RTVSPropertyOp40
 70
     1
102
RTVSPropertyOp41
 70
     1
102
RTVSPropertyOp42
 70
     1
102
RTVSPropertyOp43
 70
     1
102
RTVSPropertyOp44
 70
     1
102
RTVSPropertyOp45
 70
     1
102
RTVSPropertyOp46
 70
     1
102
RTVSPropertyOp47
 70
     1
102
RTVSPropertyOp48
 70
     1
102
RTVSPropertyOp49
 70
     1
102
RTVSPropertyOp50
 70
     1
102
RTVSPropertyOp51
 70
     0
102
RTVSPropertyOp52
 70
     0
102
RTVSPropertyOp53
 70
     1
102
RTVSPropertyOp54
 70
     1
102
RTVSPropertyOp55
 70
     1
102
RTVSPropertyOp56
 70
     1
102
RTVSPropertyOp57
 70
     1
102
RTVSPropertyOp58
 70
     1
102
RTVSPropertyOp59
 70
     1
102
RTVSPropertyOp60
 70
     1
102
RTVSPropertyOp61
 70
     1
102
RTVSPropertyOp62
 70
     1
  0
XRECORD
  5
253A
102
{ACAD_REACTORS
330
2539
102
}
330
2539
100
AcDbXrecord
280
     1
102
RTVSPost2010Prop28
280
     0
102
RTVSPost2010PropOp28
 70
     1
102
RTVSPost2010Prop29
280
     1
102
RTVSPost2010PropOp29
 70
     1
102
RTVSPost2010Prop30
280
     1
102
RTVSPost2010PropOp30
 70
     1
102
RTVSPost2010Prop31
280
     0
102
RTVSPost2010PropOp31
 70
     1
102
RTVSPost2010Prop32
280
     0
102
RTVSPost2010PropOp32
 70
     1
102
RTVSPost2010Prop33
280
     0
102
RTVSPost2010PropOp33
 70
     1
102
RTVSPost2010Prop34
280
     0
102
RTVSPost2010PropOp34
 70
     1
102
RTVSPost2010Prop35
280
     0
102
RTVSPost2010PropOp35
 70
     1
102
RTVSPost2010Prop36
280
     0
102
RTVSPost2010PropOp36
 70
     1
102
RTVSPost2010Prop37
 90
       50
102
RTVSPost2010PropOp37
 70
     1
102
RTVSPost2010Prop38
140
0.0
102
RTVSPost2010PropOp38
 70
     1
102
RTVSPost2010Prop39
140
1.0
102
RTVSPost2010PropOp39
 70
     1
102
RTVSPost2010Prop40
 90
        0
102
RTVSPost2010PropOp40
 70
     1
102
RTVSPost2010Prop41ColorIndex
 90
       18
102
RTVSPost2010Prop41ColorRGB
 90
        0
102
RTVSPost2010PropOp41
 70
     1
102
RTVSPost2010Prop42
 90
       50
102
RTVSPost2010PropOp42
 70
     1
102
RTVSPost2010Prop43
 90
        3
102
RTVSPost2010PropOp43
 70
     1
102
RTVSPost2010Prop44ColorIndex
 90
        5
102
RTVSPost2010Prop44ColorRGB
 90
      255
102
RTVSPost2010PropOp44
 70
     1
102
RTVSPost2010Prop45
280
     0
102
RTVSPost2010PropOp45
 70
     1
102
RTVSPost2010Prop46
 90
       50
102
RTVSPost2010PropOp46
 70
     1
102
RTVSPost2010Prop47
 90
       50
102
RTVSPost2010PropOp47
 70
     1
102
RTVSPost2010Prop48
 90
       50
102
RTVSPost2010PropOp48
 70
     1
102
RTVSPost2010Prop49
280
     0
102
RTVSPost2010PropOp49
 70
     1
102
RTVSPost2010Prop50
 90
       50
102
RTVSPost2010PropOp50
 70
     1
102
RTVSPost2010Prop51ColorIndex
 90
      256
102
RTVSPost2010Prop51ColorRGB
 90
-16777216
102
RTVSPost2010PropOp51
 70
     0
102
RTVSPost2010Prop52
140
1.0
102
RTVSPost2010PropOp52
 70
     0
102
RTVSPost2010Prop53
 90
        2
102
RTVSPost2010PropOp53
 70
     1
102
RTVSPost2010Prop54
  1
strokes_ogs.tif
102
RTVSPost2010PropOp54
 70
     1
102
RTVSPost2010Prop55
280
     0
102
RTVSPost2010PropOp55
 70
     1
102
RTVSPost2010Prop56
140
1.0
102
RTVSPost2010PropOp56
 70
     1
102
RTVSPost2010Prop57
140
1.0
102
RTVSPost2010PropOp57
 70
     1
102
RTVSPropertyOp0
 70
     1
102
RTVSPropertyOp1
 70
     1
102
RTVSPropertyOp2
 70
     1
102
RTVSPropertyOp3
 70
     1
102
RTVSPropertyOp4
 70
     1
102
RTVSPropertyOp5
 70
     1
102
RTVSPropertyOp6
 70
     1
102
RTVSPropertyOp7
 70
     1
102
RTVSPropertyOp8
 70
     1
102
RTVSPropertyOp9
 70
     1
102
RTVSPropertyOp10
 70
     1
102
RTVSPropertyOp11
 70
     1
102
RTVSPropertyOp12
 70
     1
102
RTVSPropertyOp13
 70
     1
102
RTVSPropertyOp14
 70
     1
102
RTVSPropertyOp15
 70
     1
102
RTVSPropertyOp16
 70
     1
102
RTVSPropertyOp17
 70
     1
102
RTVSPropertyOp18
 70
     1
102
RTVSPropertyOp19
 70
     1
102
RTVSPropertyOp20
 70
     1
102
RTVSPropertyOp21
 70
     1
102
RTVSPropertyOp22
 70
     1
102
RTVSPropertyOp23
 70
     1
102
RTVSPropertyOp24
 70
     1
102
RTVSPropertyOp25
 70
     1
102
RTVSPropertyOp26
 70
     1
102
RTVSPropertyOp27
 70
     1
102
RTVSPropertyOp28
 70
     1
102
RTVSPropertyOp29
 70
     1
102
RTVSPropertyOp30
 70
     1
102
RTVSPropertyOp31
 70
     1
102
RTVSPropertyOp32
 70
     1
102
RTVSPropertyOp33
 70
     1
102
RTVSPropertyOp34
 70
     1
102
RTVSPropertyOp35
 70
     1
102
RTVSPropertyOp36
 70
     1
102
RTVSPropertyOp37
 70
     1
102
RTVSPropertyOp38
 70
     1
102
RTVSPropertyOp39
 70
     1
102
RTVSPropertyOp40
 70
     1
102
RTVSPropertyOp41
 70
     1
102
RTVSPropertyOp42
 70
     1
102
RTVSPropertyOp43
 70
     1
102
RTVSPropertyOp44
 70
     1
102
RTVSPropertyOp45
 70
     1
102
RTVSPropertyOp46
 70
     1
102
RTVSPropertyOp47
 70
     1
102
RTVSPropertyOp48
 70
     1
102
RTVSPropertyOp49
 70
     1
102
RTVSPropertyOp50
 70
     1
102
RTVSPropertyOp51
 70
     0
102
RTVSPropertyOp52
 70
     0
102
RTVSPropertyOp53
 70
     1
102
RTVSPropertyOp54
 70
     1
102
RTVSPropertyOp55
 70
     1
102
RTVSPropertyOp56
 70
     1
102
RTVSPropertyOp57
 70
     1
102
RTVSPropertyOp58
 70
     1
102
RTVSPropertyOp59
 70
     1
102
RTVSPropertyOp60
 70
     1
102
RTVSPropertyOp61
 70
     1
102
RTVSPropertyOp62
 70
     1
  0
ENDSEC
  0
EOF
