  0
SECTION
  2
HEADER
  9
$ACADVER
  1
AC1015
  9
$ACADMAINTVER
 70
    20
  9
$DWGCODEPAGE
  3
ANSI_932
  9
$INSBASE
 10
0.0
 20
0.0
 30
0.0
  9
$EXTMIN
 10
9.9999975266385
 20
10.0
 30
0.0
  9
$EXTMAX
 10
385.5115472574614
 20
525.1501076198804
 30
0.0
  9
$LIMMIN
 10
0.0000015376081137
 20
-0.0000001931533977
  9
$LIMMAX
 10
792.0000015376079
 20
545.9999998068465
  9
$ORTHOMODE
 70
     1
  9
$REGENMODE
 70
     1
  9
$FILLMODE
 70
     1
  9
$QTEXTMODE
 70
     0
  9
$MIRRTEXT
 70
     1
  9
$LTSCALE
 40
1.0
  9
$ATTMODE
 70
     1
  9
$TEXTSIZE
 40
2.5
  9
$TRACEWID
 40
1.0
  9
$TEXTSTYLE
  7
STANDARD
  9
$CLAYER
  8
0
  9
$CELTYPE
  6
BYLAYER
  9
$CECOLOR
 62
   256
  9
$CELTSCALE
 40
1.0
  9
$DISPSILH
 70
     0
  9
$DIMSCALE
 40
1.0
  9
$DIMASZ
 40
3.0
  9
$DIMEXO
 40
1.0
  9
$DIMDLI
 40
10.0
  9
$DIMRND
 40
0.0
  9
$DIMDLE
 40
0.0
  9
$DIMEXE
 40
1.0
  9
$DIMTP
 40
0.0
  9
$DIMTM
 40
0.0
  9
$DIMTXT
 40
3.2
  9
$DIMCEN
 40
0.0
  9
$DIMTSZ
 40
0.0
  9
$DIMTOL
 70
     0
  9
$DIMLIM
 70
     0
  9
$DIMTIH
 70
     0
  9
$DIMTOH
 70
     0
  9
$DIMSE1
 70
     0
  9
$DIMSE2
 70
     0
  9
$DIMTAD
 70
     3
  9
$DIMZIN
 70
     8
  9
$DIMBLK
  1

  9
$DIMASO
 70
     1
  9
$DIMSHO
 70
     1
  9
$DIMPOST
  1

  9
$DIMAPOST
  1

  9
$DIMALT
 70
     0
  9
$DIMALTD
 70
     2
  9
$DIMALTF
 40
25.4
  9
$DIMLFAC
 40
1.0
  9
$DIMTOFL
 70
     1
  9
$DIMTVP
 40
0.0
  9
$DIMTIX
 70
     0
  9
$DIMSOXD
 70
     0
  9
$DIMSAH
 70
     1
  9
$DIMBLK1
  1
OPEN
  9
$DIMBLK2
  1
OPEN
  9
$DIMSTYLE
  2
STANDARD
  9
$DIMCLRD
 70
     0
  9
$DIMCLRE
 70
     0
  9
$DIMCLRT
 70
     0
  9
$DIMTFAC
 40
1.0
  9
$DIMGAP
 40
1.0
  9
$DIMJUST
 70
     0
  9
$DIMSD1
 70
     0
  9
$DIMSD2
 70
     0
  9
$DIMTOLJ
 70
     1
  9
$DIMTZIN
 70
     0
  9
$DIMALTZ
 70
     0
  9
$DIMALTTZ
 70
     0
  9
$DIMUPT
 70
     0
  9
$DIMDEC
 70
     4
  9
$DIMTDEC
 70
     4
  9
$DIMALTU
 70
     2
  9
$DIMALTTD
 70
     2
  9
$DIMTXSTY
  7
STANDARD
  9
$DIMAUNIT
 70
     0
  9
$DIMADEC
 70
     0
  9
$DIMALTRND
 40
0.0
  9
$DIMAZIN
 70
     0
  9
$DIMDSEP
 70
    46
  9
$DIMATFIT
 70
     3
  9
$DIMFRAC
 70
     0
  9
$DIMLDRBLK
  1
OPEN
  9
$DIMLUNIT
 70
     2
  9
$DIMLWD
 70
    -2
  9
$DIMLWE
 70
    -2
  9
$DIMTMOVE
 70
     0
  9
$LUNITS
 70
     2
  9
$LUPREC
 70
     4
  9
$SKETCHINC
 40
1.0
  9
$FILLETRAD
 40
0.0
  9
$AUNITS
 70
     0
  9
$AUPREC
 70
     0
  9
$MENU
  1
.
  9
$ELEVATION
 40
0.0
  9
$PELEVATION
 40
0.0
  9
$THICKNESS
 40
0.0
  9
$LIMCHECK
 70
     0
  9
$CHAMFERA
 40
10.0
  9
$CHAMFERB
 40
10.0
  9
$CHAMFERC
 40
20.0
  9
$CHAMFERD
 40
0.0
  9
$SKPOLY
 70
     0
  9
$TDCREATE
 40
2453721.992601273
  9
$TDUCREATE
 40
2453721.617601273
  9
$TDUPDATE
 40
2457192.700780289
  9
$TDUUPDATE
 40
2457192.325780289
  9
$TDINDWG
 40
0.1459523958
  9
$TDUSRTIMER
 40
0.1459523843
  9
$USRTIMER
 70
     1
  9
$ANGBASE
 50
0.0
  9
$ANGDIR
 70
     0
  9
$PDMODE
 70
     0
  9
$PDSIZE
 40
0.0
  9
$PLINEWID
 40
0.0
  9
$SPLFRAME
 70
     0
  9
$SPLINETYPE
 70
     6
  9
$SPLINESEGS
 70
     8
  9
$HANDSEED
  5
1A50
  9
$SURFTAB1
 70
     6
  9
$SURFTAB2
 70
     6
  9
$SURFTYPE
 70
     6
  9
$SURFU
 70
     6
  9
$SURFV
 70
     6
  9
$UCSBASE
  2

  9
$UCSNAME
  2

  9
$UCSORG
 10
0.0
 20
0.0
 30
0.0
  9
$UCSXDIR
 10
1.0
 20
0.0
 30
0.0
  9
$UCSYDIR
 10
0.0
 20
1.0
 30
0.0
  9
$UCSORTHOREF
  2

  9
$UCSORTHOVIEW
 70
     0
  9
$UCSORGTOP
 10
0.0
 20
0.0
 30
0.0
  9
$UCSORGBOTTOM
 10
0.0
 20
0.0
 30
0.0
  9
$UCSORGLEFT
 10
0.0
 20
0.0
 30
0.0
  9
$UCSORGRIGHT
 10
0.0
 20
0.0
 30
0.0
  9
$UCSORGFRONT
 10
0.0
 20
0.0
 30
0.0
  9
$UCSORGBACK
 10
0.0
 20
0.0
 30
0.0
  9
$PUCSBASE
  2

  9
$PUCSNAME
  2

  9
$PUCSORG
 10
0.0
 20
0.0
 30
0.0
  9
$PUCSXDIR
 10
1.0
 20
0.0
 30
0.0
  9
$PUCSYDIR
 10
0.0
 20
1.0
 30
0.0
  9
$PUCSORTHOREF
  2

  9
$PUCSORTHOVIEW
 70
     0
  9
$PUCSORGTOP
 10
0.0
 20
0.0
 30
0.0
  9
$PUCSORGBOTTOM
 10
0.0
 20
0.0
 30
0.0
  9
$PUCSORGLEFT
 10
0.0
 20
0.0
 30
0.0
  9
$PUCSORGRIGHT
 10
0.0
 20
0.0
 30
0.0
  9
$PUCSORGFRONT
 10
0.0
 20
0.0
 30
0.0
  9
$PUCSORGBACK
 10
0.0
 20
0.0
 30
0.0
  9
$USERI1
 70
     0
  9
$USERI2
 70
     0
  9
$USERI3
 70
     0
  9
$USERI4
 70
     0
  9
$USERI5
 70
     0
  9
$USERR1
 40
0.0
  9
$USERR2
 40
0.0
  9
$USERR3
 40
0.0
  9
$USERR4
 40
0.0
  9
$USERR5
 40
0.0
  9
$WORLDVIEW
 70
     1
  9
$SHADEDGE
 70
     3
  9
$SHADEDIF
 70
    70
  9
$TILEMODE
 70
     1
  9
$MAXACTVP
 70
    48
  9
$PINSBASE
 10
0.0
 20
0.0
 30
0.0
  9
$PLIMCHECK
 70
     0
  9
$PEXTMIN
 10
27.8447512626648
 20
20.24591643810271
 30
0.0
  9
$PEXTMAX
 10
250.6027613639831
 20
182.2132479429244
 30
0.0
  9
$PLIMMIN
 10
-3.757080078125
 20
-3.757083177566528
  9
$PLIMMAX
 10
293.2112426757812
 20
206.2162444591522
  9
$UNITMODE
 70
     0
  9
$VISRETAIN
 70
     1
  9
$PLINEGEN
 70
     0
  9
$PSLTSCALE
 70
     1
  9
$TREEDEPTH
 70
  3020
  9
$CMLSTYLE
  2
STANDARD
  9
$CMLJUST
 70
     0
  9
$CMLSCALE
 40
20.0
  9
$PROXYGRAPHICS
 70
     1
  9
$MEASUREMENT
 70
     0
  9
$CELWEIGHT
370
    -1
  9
$ENDCAPS
280
     0
  9
$JOINSTYLE
280
     0
  9
$LWDISPLAY
290
     0
  9
$INSUNITS
 70
     0
  9
$HYPERLINKBASE
  1

  9
$STYLESHEET
  1

  9
$XEDIT
290
     1
  9
$CEPSNTYPE
380
     0
  9
$PSTYLEMODE
290
     1
  9
$FINGERPRINTGUID
  2
{A030C499-0E9B-4B2C-8DAD-865EC9A4FE93}
  9
$VERSIONGUID
  2
{2B6E0B8D-2E73-45F1-A25E-992681B209B4}
  9
$EXTNAMES
290
     1
  9
$PSVPSCALE
 40
0.0
  9
$OLESTARTUP
290
     0
  0
ENDSEC
  0
SECTION
  2
CLASSES
  0
CLASS
  1
ACDBDICTIONARYWDFLT
  2
AcDbDictionaryWithDefault
  3
ObjectDBX Classes
 90
        0
280
     0
281
     0
  0
CLASS
  1
ACDBPLACEHOLDER
  2
AcDbPlaceHolder
  3
ObjectDBX Classes
 90
        0
280
     0
281
     0
  0
CLASS
  1
LAYOUT
  2
AcDbLayout
  3
ObjectDBX Classes
 90
        0
280
     0
281
     0
  0
CLASS
  1
DICTIONARYVAR
  2
AcDbDictionaryVar
  3
ObjectDBX Classes
 90
        0
280
     0
281
     0
  0
CLASS
  1
MATERIAL
  2
AcDbMaterial
  3
ObjectDBX Classes
 90
     1153
280
     0
281
     0
  0
CLASS
  1
VISUALSTYLE
  2
AcDbVisualStyle
  3
ObjectDBX Classes
 90
     4095
280
     0
281
     0
  0
CLASS
  1
TABLESTYLE
  2
AcDbTableStyle
  3
ObjectDBX Classes
 90
     4095
280
     0
281
     0
  0
CLASS
  1
SCALE
  2
AcDbScale
  3
ObjectDBX Classes
 90
     1153
280
     0
281
     0
  0
CLASS
  1
MLEADERSTYLE
  2
AcDbMLeaderStyle
  3
ACDB_MLEADERSTYLE_CLASS
 90
     4095
280
     0
281
     0
  0
CLASS
  1
ACDBSECTIONVIEWSTYLE
  2
AcDbSectionViewStyle
  3
ObjectDBX Classes
 90
     1025
280
     0
281
     0
  0
CLASS
  1
ACDBDETAILVIEWSTYLE
  2
AcDbDetailViewStyle
  3
ObjectDBX Classes
 90
     1025
280
     0
281
     0
  0
CLASS
  1
CELLSTYLEMAP
  2
AcDbCellStyleMap
  3
ObjectDBX Classes
 90
     1152
280
     0
281
     0
  0
ENDSEC
  0
SECTION
  2
TABLES
  0
TABLE
  2
VPORT
  5
8
330
0
100
AcDbSymbolTable
 70
     1
  0
VPORT
  5
199A
330
8
100
AcDbSymbolTableRecord
100
AcDbViewportTableRecord
  2
*ACTIVE
 70
     0
 10
0.0
 20
0.0
 11
1.0
 21
1.0
 12
363.3245417870248
 22
267.5846568335161
 13
0.0
 23
0.0
 14
10.0
 24
10.0
 15
10.0
 25
10.0
 16
0.0
 26
0.0
 36
1.0
 17
0.0
 27
0.0
 37
0.0
 40
520.1220586320836
 41
2.35006605019815
 42
50.0
 43
0.0
 44
0.0
 50
0.0
 51
0.0
 71
     0
 72
   100
 73
     1
 74
     0
 75
     0
 76
     0
 77
     0
 78
     0
281
     0
 65
     1
110
0.0
120
0.0
130
0.0
111
1.0
121
0.0
131
0.0
112
0.0
122
1.0
132
0.0
 79
     0
146
0.0
1001
ACAD_NAV_VCDISPLAY
1070
     3
  0
ENDTAB
  0
TABLE
  2
LTYPE
  5
5
330
0
100
AcDbSymbolTable
 70
     4
  0
LTYPE
  5
12
330
5
100
AcDbSymbolTableRecord
100
AcDbLinetypeTableRecord
  2
BYBLOCK
 70
     0
  3

 72
    65
 73
     0
 40
0.0
  0
LTYPE
  5
13
330
5
100
AcDbSymbolTableRecord
100
AcDbLinetypeTableRecord
  2
BYLAYER
 70
     0
  3

 72
    65
 73
     0
 40
0.0
  0
LTYPE
  5
14
330
5
100
AcDbSymbolTableRecord
100
AcDbLinetypeTableRecord
  2
CONTINUOUS
 70
     0
  3
Solid line
 72
    65
 73
     0
 40
0.0
  0
LTYPE
  5
4B
330
5
100
AcDbSymbolTableRecord
100
AcDbLinetypeTableRecord
  2
DASHED
 70
     0
  3
Dashed __ __ __ __ __ __ __ __ __ __ __ __ __ _
 72
    65
 73
     2
 40
19.04999999999999
 49
12.7
 74
     0
 49
-6.349999999999998
 74
     0
  0
LTYPE
  5
4C
330
5
100
AcDbSymbolTableRecord
100
AcDbLinetypeTableRecord
  2
CENTER
 70
     0
  3
Center ____ _ ____ _ ____ _ ____ _ ____ _ ____
 72
    65
 73
     4
 40
50.8
 49
31.75
 74
     0
 49
-6.349999999999998
 74
     0
 49
6.349999999999998
 74
     0
 49
-6.349999999999998
 74
     0
  0
LTYPE
  5
4D
330
5
100
AcDbSymbolTableRecord
100
AcDbLinetypeTableRecord
  2
PHANTOM
 70
     0
  3
Phantom ______  __  __  ______  __  __  ______
 72
    65
 73
     6
 40
63.5
 49
31.75
 74
     0
 49
-6.349999999999998
 74
     0
 49
6.349999999999998
 74
     0
 49
-6.349999999999998
 74
     0
 49
6.349999999999998
 74
     0
 49
-6.349999999999998
 74
     0
  0
ENDTAB
  0
TABLE
  2
LAYER
  5
2
330
0
100
AcDbSymbolTable
 70
     8
  0
LAYER
  5
E
102
{ACAD_XDICTIONARY
360
19F4
102
}
330
2
100
AcDbSymbolTableRecord
100
AcDbLayerTableRecord
  2
0
 70
     0
 62
     7
  6
CONTINUOUS
370
    -3
390
19A3
  0
LAYER
  5
4E
102
{ACAD_XDICTIONARY
360
19F6
102
}
330
2
100
AcDbSymbolTableRecord
100
AcDbLayerTableRecord
  2
4
 70
     0
 62
     1
  6
CENTER
370
    -3
390
19A3
  0
LAYER
  5
4F
102
{ACAD_XDICTIONARY
360
19F8
102
}
330
2
100
AcDbSymbolTableRecord
100
AcDbLayerTableRecord
  2
5
 70
     0
 62
     6
  6
PHANTOM
370
    -3
390
19A3
  0
LAYER
  5
50
102
{ACAD_XDICTIONARY
360
19FA
102
}
330
2
100
AcDbSymbolTableRecord
100
AcDbLayerTableRecord
  2
1
 70
     0
 62
     7
  6
CONTINUOUS
370
    -3
390
19A3
  0
LAYER
  5
51
102
{ACAD_XDICTIONARY
360
19FC
102
}
330
2
100
AcDbSymbolTableRecord
100
AcDbLayerTableRecord
  2
2
 70
     0
 62
     4
  6
CONTINUOUS
370
    -3
390
19A3
  0
LAYER
  5
52
102
{ACAD_XDICTIONARY
360
19FE
102
}
330
2
100
AcDbSymbolTableRecord
100
AcDbLayerTableRecord
  2
3
 70
     0
 62
     2
  6
DASHED
370
    -3
390
19A3
  0
LAYER
  5
53
102
{ACAD_XDICTIONARY
360
1A00
102
}
330
2
100
AcDbSymbolTableRecord
100
AcDbLayerTableRecord
  2
6
 70
     0
 62
     5
  6
CONTINUOUS
370
    -3
390
19A3
  0
LAYER
  5
54
102
{ACAD_XDICTIONARY
360
1A02
102
}
330
2
100
AcDbSymbolTableRecord
100
AcDbLayerTableRecord
  2
7
 70
     0
 62
     3
  6
CONTINUOUS
370
    -3
390
19A3
  0
ENDTAB
  0
TABLE
  2
STYLE
  5
3
330
0
100
AcDbSymbolTable
 70
     1
  0
STYLE
  5
F
330
3
100
AcDbSymbolTableRecord
100
AcDbTextStyleTableRecord
  2
STANDARD
 70
     0
 40
0.0
 41
1.0
 50
0.0
 71
     0
 42
2.5
  3
simplex.shx
  4

  0
ENDTAB
  0
TABLE
  2
VIEW
  5
6
330
0
100
AcDbSymbolTable
 70
     0
  0
ENDTAB
  0
TABLE
  2
UCS
  5
7
330
0
100
AcDbSymbolTable
 70
     0
  0
ENDTAB
  0
TABLE
  2
APPID
  5
9
330
0
100
AcDbSymbolTable
 70
     5
  0
APPID
  5
10
330
9
100
AcDbSymbolTableRecord
100
AcDbRegAppTableRecord
  2
ACAD
 70
     0
  0
APPID
  5
3E
330
9
100
AcDbSymbolTableRecord
100
AcDbRegAppTableRecord
  2
CONTENTTABDATA
 70
     0
  0
APPID
  5
3F
330
9
100
AcDbSymbolTableRecord
100
AcDbRegAppTableRecord
  2
CONTENTCURRENTTAB
 70
     0
  0
APPID
  5
1A0E
330
9
100
AcDbSymbolTableRecord
100
AcDbRegAppTableRecord
  2
ACAD_NAV_VCDISPLAY
 70
     0
  0
APPID
  5
1A47
330
9
100
AcDbSymbolTableRecord
100
AcDbRegAppTableRecord
  2
ACAD_MLEADERVER
 70
     0
  0
ENDTAB
  0
TABLE
  2
DIMSTYLE
  5
A
330
0
100
AcDbSymbolTable
 70
     1
100
AcDbDimStyleTable
 71
     0
  0
DIMSTYLE
105
1D
330
A
100
AcDbSymbolTableRecord
100
AcDbDimStyleTableRecord
  2
STANDARD
 70
     0
 41
3.0
 42
1.0
 43
10.0
 44
1.0
 73
     0
 74
     0
 77
     3
 78
     8
140
3.2
141
0.0
147
1.0
172
     1
173
     1
340
F
341
2E
343
2E
344
2E
  0
ENDTAB
  0
TABLE
  2
BLOCK_RECORD
  5
1
330
0
100
AcDbSymbolTable
 70
     1
  0
BLOCK_RECORD
  5
18
102
{ACAD_XDICTIONARY
360
199D
102
}
330
1
100
AcDbSymbolTableRecord
100
AcDbBlockTableRecord
  2
*MODEL_SPACE
340
19F1
  0
BLOCK_RECORD
  5
15
102
{ACAD_XDICTIONARY
360
199B
102
}
330
1
100
AcDbSymbolTableRecord
100
AcDbBlockTableRecord
  2
*PAPER_SPACE
340
19F2
  0
BLOCK_RECORD
  5
2E
330
1
100
AcDbSymbolTableRecord
100
AcDbBlockTableRecord
  2
_OPEN
340
0
  0
ENDTAB
  0
ENDSEC
  0
SECTION
  2
BLOCKS
  0
BLOCK
  5
19
330
18
100
AcDbEntity
  8
0
100
AcDbBlockBegin
  2
*MODEL_SPACE
 70
     0
 10
0.0
 20
0.0
 30
0.0
  3
*MODEL_SPACE
  1

  0
ENDBLK
  5
1A
330
18
100
AcDbEntity
  8
0
100
AcDbBlockEnd
  0
BLOCK
  5
16
330
15
100
AcDbEntity
 67
     1
  8
0
100
AcDbBlockBegin
  2
*PAPER_SPACE
 70
     0
 10
0.0
 20
0.0
 30
0.0
  3
*PAPER_SPACE
  1

  0
ENDBLK
  5
17
330
15
100
AcDbEntity
 67
     1
  8
0
100
AcDbBlockEnd
  0
BLOCK
  5
2F
330
2E
100
AcDbEntity
  8
0
100
AcDbBlockBegin
  2
_OPEN
 70
     0
 10
0.0
 20
0.0
 30
0.0
  3
_OPEN
  1

  0
LINE
  5
30
330
2E
100
AcDbEntity
  8
0
  6
ByBlock
 62
     0
100
AcDbLine
 10
-1.0
 20
0.1666666666666666
 30
0.0
 11
0.0
 21
0.0
 31
0.0
  0
LINE
  5
31
330
2E
100
AcDbEntity
  8
0
  6
ByBlock
 62
     0
100
AcDbLine
 10
0.0
 20
0.0
 30
0.0
 11
-1.0
 21
-0.1666666666666666
 31
0.0
  0
LINE
  5
32
330
2E
100
AcDbEntity
  8
0
  6
ByBlock
 62
     0
100
AcDbLine
 10
0.0
 20
0.0
 30
0.0
 11
-1.0
 21
0.0
 31
0.0
  0
ENDBLK
  5
33
330
2E
100
AcDbEntity
  8
0
100
AcDbBlockEnd
  0
ENDSEC
  0
SECTION
  2
ENTITIES
  0
TEXT
  5
63
330
18
100
AcDbEntity
  8
4
  6
CENTER
 48
0.25
100
AcDbText
 10
23.97950852663849
 20
10.0
 30
0.0
 40
1.399999999999999
  1
4
100
AcDbText
  0
TEXT
  5
64
330
18
100
AcDbEntity
  8
7
  6
Continuous
 48
0.25
100
AcDbText
 10
9.999997526638502
 20
26.0000007607689
 30
0.0
 40
3.0
  1
CODE No.13450
100
AcDbText
  0
TEXT
  5
65
330
18
100
AcDbEntity
  8
7
  6
Continuous
 48
0.25
100
AcDbText
 10
9.999997526638502
 20
18.00000076076889
 30
0.0
 40
3.0
  1
TYPE No.TEA-1160-U200-LI
100
AcDbText
  0
TEXT
  5
66
330
18
100
AcDbEntity
  8
1
  6
Continuous
 48
0.25
100
AcDbText
 10
9.999997526638502
 20
10.00000076076889
 30
0.0
 40
1.399999999999999
  1
LAYER
100
AcDbText
  0
TEXT
  5
67
330
18
100
AcDbEntity
  8
2
  6
Continuous
 48
0.25
100
AcDbText
 10
19.9795085266385
 20
10.0
 30
0.0
 40
1.399999999999999
  1
2
100
AcDbText
  0
TEXT
  5
68
330
18
100
AcDbEntity
  8
3
  6
DASHED
 48
0.25
100
AcDbText
 10
21.9795085266385
 20
10.0
 30
0.0
 40
1.399999999999999
  1
3
100
AcDbText
  0
TEXT
  5
69
330
18
100
AcDbEntity
  8
1
  6
Continuous
 48
0.25
100
AcDbText
 10
17.9795085266385
 20
10.0
 30
0.0
 40
1.399999999999999
  1
1
100
AcDbText
  0
TEXT
  5
6A
330
18
100
AcDbEntity
  8
5
  6
PHANTOM
 48
0.25
100
AcDbText
 10
25.9795085266385
 20
10.0
 30
0.0
 40
1.399999999999999
  1
5
100
AcDbText
  0
TEXT
  5
6B
330
18
100
AcDbEntity
  8
6
  6
Continuous
 48
0.25
100
AcDbText
 10
27.9795085266385
 20
10.0
 30
0.0
 40
1.399999999999999
  1
6
100
AcDbText
  0
TEXT
  5
6C
330
18
100
AcDbEntity
  8
7
  6
Continuous
 48
0.25
100
AcDbText
 10
29.9795085266385
 20
10.0
 30
0.0
 40
1.399999999999999
  1
7
100
AcDbText
  0
LINE
  5
11C3
330
18
100
AcDbEntity
  8
1
  6
Continuous
100
AcDbLine
 10
380.21148716639
 20
302.9843575895831
 30
0.0
 11
380.21148716639
 21
293.5843571431071
 31
0.0
  0
LINE
  5
11C4
330
18
100
AcDbEntity
  8
1
  6
Continuous
100
AcDbLine
 10
352.2115950327683
 20
302.9843575895831
 30
0.0
 11
352.2115950327681
 21
293.5843571431071
 31
0.0
  0
CIRCLE
  5
11C7
330
18
100
AcDbEntity
  8
1
  6
Continuous
100
AcDbCircle
 10
366.2114865014257
 20
298.2843573663451
 30
0.0
 40
8.100000384729366
  0
CIRCLE
  5
11CA
330
18
100
AcDbEntity
  8
1
  6
Continuous
100
AcDbCircle
 10
366.211486501432
 20
298.2843600479678
 30
0.0
 40
6.874989534311634
  0
LINE
  5
11CB
330
18
100
AcDbEntity
  8
1
  6
Continuous
100
AcDbLine
 10
24.38087419722524
 20
259.2843554851563
 30
0.0
 11
24.38087419722524
 21
336.2843591712483
 31
0.0
  0
LINE
  5
11CC
330
18
100
AcDbEntity
  8
1
  6
Continuous
100
AcDbLine
 10
41.88087502843155
 20
336.2843591712481
 30
0.0
 11
41.88087502843155
 21
286.2843567963757
 31
0.0
  0
LINE
  5
11CD
330
18
100
AcDbEntity
  8
1
  6
Continuous
100
AcDbLine
 10
43.68087511392764
 20
290.2843573206447
 30
0.0
 11
43.68087511392604
 21
306.2843577463247
 31
0.0
  0
LINE
  5
11CF
330
18
100
AcDbEntity
  8
1
  6
Continuous
100
AcDbLine
 10
228.2072283287643
 20
290.2843572363652
 30
0.0
 11
228.2072283287643
 21
306.2843577463247
 31
0.0
  0
LINE
  5
11D0
330
18
100
AcDbEntity
  8
1
  6
Continuous
100
AcDbLine
 10
230.0073376105678
 20
336.2843591712483
 30
0.0
 11
230.0073376105683
 21
286.2843567963757
 31
0.0
  0
LINE
  5
11D1
330
18
100
AcDbEntity
  8
1
  6
Continuous
100
AcDbLine
 10
128.8053630086753
 20
286.2843567963756
 30
0.0
 11
128.8053630086751
 21
336.2843591712483
 31
0.0
  0
LINE
  5
11D2
330
18
100
AcDbEntity
  8
1
  6
Continuous
100
AcDbLine
 10
128.5428970056316
 20
290.2843572363654
 30
0.0
 11
128.5428970056309
 21
306.2843577463247
 31
0.0
  0
LINE
  5
11D3
330
18
100
AcDbEntity
  8
1
  6
Continuous
100
AcDbLine
 10
152.4053641296152
 20
302.9843575895831
 30
0.0
 11
152.4053641296152
 21
293.5843571431071
 31
0.0
  0
LINE
  5
11D4
330
18
100
AcDbEntity
  8
1
  6
Continuous
100
AcDbLine
 10
148.2678299236724
 20
290.284357320085
 30
0.0
 11
148.2678299236722
 21
306.2843574126056
 31
0.0
  0
LINE
  5
11D5
330
18
100
AcDbEntity
  8
1
  6
Continuous
100
AcDbLine
 10
148.0053639206264
 20
286.2843567963757
 30
0.0
 11
148.0053639206264
 21
336.2843591712484
 31
0.0
  0
LINE
  5
11D8
330
18
100
AcDbEntity
  8
1
  6
Continuous
100
AcDbLine
 10
124.405471995994
 20
302.9843575895831
 30
0.0
 11
124.4054719959942
 21
293.5843571431071
 31
0.0
  0
LINE
  5
11D9
330
18
100
AcDbEntity
  8
1
  6
Continuous
100
AcDbLine
 10
129.5053634233934
 20
308.2843578413201
 30
0.0
 11
129.5053634233934
 21
258.5625300727472
 31
0.0
  0
LINE
  5
11DA
330
18
100
AcDbEntity
  8
1
  6
Continuous
100
AcDbLine
 10
147.3053635059084
 20
441.2843641584806
 30
0.0
 11
147.3053635059084
 21
288.2843568913705
 31
0.0
  0
LINE
  5
11DB
330
18
100
AcDbEntity
  8
1
  6
Continuous
100
AcDbLine
 10
142.4553636570155
 20
294.7343571977291
 30
0.0
 11
142.4553636570155
 21
301.8343575349611
 31
0.0
  0
LINE
  5
11DC
330
18
100
AcDbEntity
  8
1
  6
Continuous
100
AcDbLine
 10
134.3553632722862
 20
301.8343575349611
 30
0.0
 11
134.3553632722862
 21
294.7343571977291
 31
0.0
  0
CIRCLE
  5
11DF
330
18
100
AcDbEntity
  8
1
  6
Continuous
100
AcDbCircle
 10
138.4053634646443
 20
298.2843600479678
 30
0.0
 40
6.874989534311633
  0
LINE
  5
11E2
330
18
100
AcDbEntity
  8
1
  6
Continuous
100
AcDbLine
 10
121.5053630434135
 20
250.2488211788799
 30
0.0
 11
121.5053630434135
 21
102.2843480568448
 31
0.0
  0
LINE
  5
11E3
330
18
100
AcDbEntity
  8
1
  6
Continuous
100
AcDbLine
 10
124.5053631859061
 20
250.2488211788797
 30
0.0
 11
124.5053631859061
 21
102.2843480568449
 31
0.0
  0
LINE
  5
11E5
330
18
100
AcDbEntity
  8
1
  6
Continuous
100
AcDbLine
 10
34.38087467219975
 20
97.33351250513862
 30
0.0
 11
34.38087467219975
 21
101.584936879009
 31
0.0
  0
LINE
  5
11E6
330
18
100
AcDbEntity
  8
1
  6
Continuous
100
AcDbLine
 10
32.38087457720485
 20
97.33351250513862
 30
0.0
 11
32.38087457720485
 21
101.584936879009
 31
0.0
  0
LINE
  5
11E9
330
18
100
AcDbEntity
  8
1
  6
Continuous
100
AcDbLine
 10
40.38087495718468
 20
97.28434781935767
 30
0.0
 11
26.38087429222014
 21
97.28434781935767
 31
0.0
  0
LINE
  5
11EF
330
18
100
AcDbEntity
  8
1
  6
Continuous
100
AcDbLine
 10
148.4428072590337
 20
58.35181778042987
 30
0.0
 11
148.0053639225254
 21
53.35181756464862
 31
0.0
  0
LINE
  5
11F0
330
18
100
AcDbEntity
  8
1
  6
Continuous
100
AcDbLine
 10
149.5053639918726
 20
58.35181778042987
 30
0.0
 11
149.5053639918726
 21
54.85181761418879
 31
0.0
  0
LINE
  5
11F1
330
18
100
AcDbEntity
  8
1
  6
Continuous
100
AcDbLine
 10
127.3053629374292
 20
54.85181761418879
 30
0.0
 11
127.3053629374294
 21
58.35181778042987
 31
0.0
  0
LINE
  5
11F2
330
18
100
AcDbEntity
  8
1
  6
Continuous
100
AcDbLine
 10
128.8053630086753
 20
53.35181754294263
 30
0.0
 11
128.367919670268
 21
58.35181778042987
 31
0.0
  0
LINE
  5
11F6
330
18
100
AcDbEntity
  8
1
  6
Continuous
100
AcDbLine
 10
121.5053708738594
 20
45.16379360563234
 30
0.0
 11
121.5053708738594
 21
39.05181686372907
 31
0.0
  0
LINE
  5
11F7
330
18
100
AcDbEntity
  8
1
  6
Continuous
100
AcDbLine
 10
124.4053627996865
 20
38.05181681623162
 30
0.0
 11
152.4052549333009
 21
38.05181681623162
 31
0.0
  0
LINE
  5
11FB
330
18
100
AcDbEntity
  8
1
  6
Continuous
100
AcDbLine
 10
126.305365199378
 20
38.55181683998035
 30
0.0
 11
124.4054106084245
 21
38.55181683998035
 31
0.0
  0
LINE
  5
11FC
330
18
100
AcDbEntity
  8
1
  6
Continuous
100
AcDbLine
 10
126.3053652003498
 20
38.55186525853127
 30
0.0
 11
126.4720213445416
 21
38.58045407591885
 31
0.0
  0
LINE
  5
11FD
330
18
100
AcDbEntity
  8
1
  6
Continuous
100
AcDbLine
 10
126.4720323871924
 20
38.58041331851371
 30
0.0
 11
127.8053672114883
 21
39.05181836644067
 31
0.0
  0
LINE
  5
11FE
330
18
100
AcDbEntity
  8
1
  6
Continuous
100
AcDbLine
 10
124.4053627996865
 20
39.05181686372907
 30
0.0
 11
124.4053627996865
 21
38.05181681623162
 31
0.0
  0
LINE
  5
11FF
330
18
100
AcDbEntity
  8
1
  6
Continuous
100
AcDbLine
 10
124.8838542494816
 20
37.19820935227562
 30
0.0
 11
124.9053588700162
 21
37.18579365382107
 31
0.0
  0
LINE
  5
1200
330
18
100
AcDbEntity
  8
1
  6
Continuous
100
AcDbLine
 10
124.0504403746635
 20
37.67938107724785
 30
0.0
 11
124.8838542494816
 21
37.19820935227562
 31
0.0
  0
LINE
  5
1201
330
18
100
AcDbEntity
  8
1
  6
Continuous
100
AcDbLine
 10
124.0179507696605
 20
37.6981389594423
 30
0.0
 11
124.0504403746635
 21
37.67938107724785
 31
0.0
  0
LINE
  5
1203
330
18
100
AcDbEntity
  8
1
  6
Continuous
100
AcDbLine
 10
123.4053907196766
 20
39.05181686372907
 30
0.0
 11
123.4053907196766
 21
38.16728687555451
 31
0.0
  0
LINE
  5
1205
330
18
100
AcDbEntity
  8
1
  6
Continuous
100
AcDbLine
 10
123.5053767406818
 20
37.99410600712372
 30
0.0
 11
124.0179647688
 21
37.69816317110462
 31
0.0
  0
ARC
  5
1206
330
18
100
AcDbEntity
  8
1
  6
Continuous
100
AcDbCircle
 10
125.4050993078092
 20
38.05155327685611
 30
0.0
 40
0.9996273465402662
100
AcDbArc
 50
179.9848963255106
 51
270.0151163895207
  0
ARC
  5
1207
330
18
100
AcDbEntity
  8
1
  6
Continuous
100
AcDbCircle
 10
126.3053790508613
 20
39.05183302465797
 30
0.0
 40
0.4999677663181175
100
AcDbArc
 50
179.9858209975758
 51
269.9981481853639
  0
ARC
  5
1208
330
18
100
AcDbEntity
  8
1
  6
Continuous
100
AcDbCircle
 10
123.6051019674714
 20
38.16713630594426
 30
0.0
 40
0.199698870275886
100
AcDbArc
 50
179.9568086740353
 51
240.043191326563
  0
LINE
  5
1209
330
18
100
AcDbEntity
  8
1
  6
Continuous
100
AcDbLine
 10
150.3053636484007
 20
39.05181686372907
 30
0.0
 11
121.5053708738234
 21
39.05181686372907
 31
0.0
  0
LINE
  5
120A
330
18
100
AcDbEntity
  8
1
  6
Continuous
100
AcDbLine
 10
127.0053629231799
 20
54.55181759993957
 30
0.0
 11
125.405362847184
 21
54.55181759993957
 31
0.0
  0
LINE
  5
120B
330
18
100
AcDbEntity
  8
1
  6
Continuous
100
AcDbLine
 10
128.8053630086753
 20
53.35181754294332
 30
0.0
 11
126.3053631399318
 21
53.35181754294332
 31
0.0
  0
LINE
  5
120C
330
18
100
AcDbEntity
  8
1
  6
Continuous
100
AcDbLine
 10
126.3053628899317
 20
53.35181754294263
 30
0.0
 11
126.3053628899317
 21
53.05181752869339
 31
0.0
  0
LINE
  5
120D
330
18
100
AcDbEntity
  8
1
  6
Continuous
100
AcDbLine
 10
124.4053627996865
 20
53.05181752869327
 30
0.0
 11
124.4053627996865
 21
53.55181755244235
 31
0.0
  0
LINE
  5
120E
330
18
100
AcDbEntity
  8
1
  6
Continuous
100
AcDbLine
 10
124.0504910414006
 20
53.92428254387903
 30
0.0
 11
124.0179507836098
 21
53.9054954172841
 31
0.0
  0
LINE
  5
120F
330
18
100
AcDbEntity
  8
1
  6
Continuous
100
AcDbLine
 10
124.0504910414006
 20
53.92428254387903
 30
0.0
 11
124.8818149959872
 21
54.40424765284024
 31
0.0
  0
LINE
  5
1211
330
18
100
AcDbEntity
  8
1
  6
Continuous
100
AcDbLine
 10
124.9053588205056
 20
54.41784068626351
 30
0.0
 11
124.8818149959872
 21
54.40424765284024
 31
0.0
  0
LINE
  5
1212
330
18
100
AcDbEntity
  8
1
  6
Continuous
100
AcDbLine
 10
123.4053907196769
 20
53.43634749311752
 30
0.0
 11
123.4053907196769
 21
53.05181752869327
 31
0.0
  0
LINE
  5
1215
330
18
100
AcDbEntity
  8
1
  6
Continuous
100
AcDbLine
 10
124.0179647975608
 20
53.90547121417251
 30
0.0
 11
123.5053767406827
 21
53.60952836154684
 31
0.0
  0
LINE
  5
1216
330
18
100
AcDbEntity
  8
1
  6
Continuous
100
AcDbLine
 10
123.4778496110523
 20
53.59040217760389
 30
0.0
 11
123.5053829314358
 21
53.60951757793554
 31
0.0
  0
ARC
  5
1217
330
18
100
AcDbEntity
  8
1
  6
Continuous
100
AcDbCircle
 10
125.4050993078021
 20
53.55208109182388
 30
0.0
 40
0.9996273465320244
100
AcDbArc
 50
89.98489632634329
 51
180.0151036736428
  0
ARC
  5
1218
330
18
100
AcDbEntity
  8
1
  6
Continuous
100
AcDbCircle
 10
127.0053028463646
 20
54.851877691004
 30
0.0
 40
0.3000181458453656
100
AcDbArc
 50
270.0114715290029
 51
359.9885284709437
  0
LINE
  5
121A
330
18
100
AcDbEntity
  8
1
  6
Continuous
100
AcDbLine
 10
121.5053630434138
 20
45.16379689453095
 30
0.0
 11
121.5053630434138
 21
46.93983749789139
 31
0.0
  0
LINE
  5
121B
330
18
100
AcDbEntity
  8
1
  6
Continuous
100
AcDbLine
 10
125.8059521030641
 20
45.051817148714
 30
0.0
 11
121.5545277292021
 21
45.051817148714
 31
0.0
  0
LINE
  5
121C
330
18
100
AcDbEntity
  8
1
  6
Continuous
100
AcDbLine
 10
121.5053708738594
 20
53.05181752869327
 30
0.0
 11
121.5053708738594
 21
46.93984078679
 31
0.0
  0
LINE
  5
121D
330
18
100
AcDbEntity
  8
1
  6
Continuous
100
AcDbLine
 10
125.8059521030641
 20
47.0518172437088
 30
0.0
 11
121.5545277292021
 21
47.0518172437088
 31
0.0
  0
LINE
  5
121E
330
18
100
AcDbEntity
  8
1
  6
Continuous
100
AcDbLine
 10
121.5053708738234
 20
53.05181752869339
 30
0.0
 11
137.0053637796243
 21
53.05181752869339
 31
0.0
  0
LINE
  5
1224
330
18
100
AcDbEntity
  8
1
  6
Continuous
100
AcDbLine
 10
142.9053636783894
 20
41.5263425155889
 30
0.0
 11
142.9053636783894
 21
45.31907661462843
 31
0.0
  0
LINE
  5
1225
330
18
100
AcDbEntity
  8
1
  6
Continuous
100
AcDbLine
 10
150.8053640536193
 20
50.3518171504502
 30
0.0
 11
150.8053640536193
 21
42.35181702047065
 31
0.0
  0
LINE
  5
1226
330
18
100
AcDbEntity
  8
1
  6
Continuous
100
AcDbLine
 10
152.4053641296152
 20
53.5518175524428
 30
0.0
 11
152.4052549333009
 21
38.05181681623162
 31
0.0
  0
LINE
  5
1228
330
18
100
AcDbEntity
  8
1
  6
Continuous
100
AcDbLine
 10
153.4053362096246
 20
38.16728687555405
 30
0.0
 11
153.4053362096251
 21
53.43634749311696
 31
0.0
  0
LINE
  5
1229
330
18
100
AcDbEntity
  8
1
  6
Continuous
100
AcDbLine
 10
146.7280989908525
 20
41.07796368530148
 30
0.0
 11
146.4854182635088
 21
43.85181709171685
 31
0.0
  0
LINE
  5
122A
330
18
100
AcDbEntity
  8
1
  6
Continuous
100
AcDbLine
 10
142.8053640551095
 20
41.5518169824727
 30
0.0
 11
142.8053640551095
 21
50.55181740994976
 31
0.0
  0
LINE
  5
122B
330
18
100
AcDbEntity
  8
1
  6
Continuous
100
AcDbLine
 10
147.3053635059084
 20
53.05181727869332
 30
0.0
 11
147.3053635059084
 21
39.05181686372907
 31
0.0
  0
LINE
  5
122C
330
18
100
AcDbEntity
  8
1
  6
Continuous
100
AcDbLine
 10
150.3053636484007
 20
53.05181727869332
 30
0.0
 11
150.3053636484007
 21
39.05181686372907
 31
0.0
  0
ARC
  5
122D
330
18
100
AcDbEntity
  8
1
  6
Continuous
100
AcDbCircle
 10
145.6803638101948
 20
43.45181707271786
 30
0.0
 40
0.4000000189989894
100
AcDbArc
 50
90.0
 51
179.97940586114
  0
LINE
  5
122F
330
18
100
AcDbEntity
  8
1
  6
Continuous
100
AcDbLine
 10
142.9053636783894
 20
41.05181695872397
 30
0.0
 11
147.3119340455305
 21
41.05181695872397
 31
0.0
  0
LINE
  5
1230
330
18
100
AcDbEntity
  8
1
  6
Continuous
100
AcDbLine
 10
142.911443510595
 20
42.25181701572092
 30
0.0
 11
145.2803529989539
 21
42.25181701572092
 31
0.0
  0
LINE
  5
1231
330
18
100
AcDbEntity
  8
1
  6
Continuous
100
AcDbLine
 10
141.4053636071432
 20
39.05181686372907
 30
0.0
 11
141.4053636071432
 21
39.62427428778369
 31
0.0
  0
LINE
  5
1232
330
18
100
AcDbEntity
  8
1
  6
Continuous
100
AcDbLine
 10
142.9053636783894
 20
39.05181686372907
 30
0.0
 11
142.9053636783894
 21
39.62427428778358
 31
0.0
  0
LINE
  5
1233
330
18
100
AcDbEntity
  8
1
  6
Continuous
100
AcDbLine
 10
141.4053636071432
 20
39.62427430016987
 30
0.0
 11
141.4053636071432
 21
41.52625719033254
 31
0.0
  0
LINE
  5
1234
330
18
100
AcDbEntity
  8
1
  6
Continuous
100
AcDbLine
 10
142.9053636783896
 20
41.52625719033176
 30
0.0
 11
142.9053636783896
 21
39.62427430016976
 31
0.0
  0
LINE
  5
1235
330
18
100
AcDbEntity
  8
1
  6
Continuous
100
AcDbLine
 10
141.4053636071432
 20
41.5518169824727
 30
0.0
 11
141.4053636071432
 21
41.5263425155897
 31
0.0
  0
LINE
  5
1236
330
18
100
AcDbEntity
  8
1
  6
Continuous
100
AcDbLine
 10
142.8053640551095
 20
41.5518169824727
 30
0.0
 11
140.3053641863657
 21
41.5518169824727
 31
0.0
  0
LINE
  5
1237
330
18
100
AcDbEntity
  8
1
  6
Continuous
100
AcDbLine
 10
140.3053639363658
 20
41.5518169824727
 30
0.0
 11
140.3053639363658
 21
43.55181682746752
 31
0.0
  0
LINE
  5
1238
330
18
100
AcDbEntity
  8
1
  6
Continuous
100
AcDbLine
 10
140.3053639363658
 20
43.5518170774676
 30
0.0
 11
137.0053640296241
 21
43.5518170774676
 31
0.0
  0
LINE
  5
1239
330
18
100
AcDbEntity
  8
1
  6
Continuous
100
AcDbLine
 10
137.0053637796243
 20
39.05181711372904
 30
0.0
 11
137.0053637796243
 21
43.5518170774676
 31
0.0
  0
LINE
  5
123A
330
18
100
AcDbEntity
  8
1
  6
Continuous
100
AcDbLine
 10
151.4055384418363
 20
37.05181678393478
 30
0.0
 11
125.4053630402568
 21
37.05181678393478
 31
0.0
  0
LINE
  5
123C
330
18
100
AcDbEntity
  8
1
  6
Continuous
100
AcDbLine
 10
149.0053618366753
 20
39.05181761730989
 30
0.0
 11
150.3386945421093
 21
38.58041331851371
 31
0.0
  0
LINE
  5
123D
330
18
100
AcDbEntity
  8
1
  6
Continuous
100
AcDbLine
 10
150.3387055847601
 20
38.58045407591907
 30
0.0
 11
150.505361728952
 21
38.55186525853151
 31
0.0
  0
LINE
  5
123E
330
18
100
AcDbEntity
  8
1
  6
Continuous
100
AcDbLine
 10
152.4053163208774
 20
38.55181683998035
 30
0.0
 11
150.5053617299238
 21
38.55181683998035
 31
0.0
  0
LINE
  5
1240
330
18
100
AcDbEntity
  8
1
  6
Continuous
100
AcDbLine
 10
150.50536403937
 20
40.55181693497513
 30
0.0
 11
150.50536403937
 21
42.35181677047058
 31
0.0
  0
LINE
  5
1241
330
18
100
AcDbEntity
  8
1
  6
Continuous
100
AcDbLine
 10
150.8053638036192
 20
42.35181702047065
 30
0.0
 11
150.50536403937
 21
42.35181702047065
 31
0.0
  0
LINE
  5
1242
330
18
100
AcDbEntity
  8
1
  6
Continuous
100
AcDbLine
 10
150.5053640391956
 20
40.55181693546956
 30
0.0
 11
150.9767572580738
 21
39.21851556877027
 31
0.0
  0
LINE
  5
1244
330
18
100
AcDbEntity
  8
1
  6
Continuous
100
AcDbLine
 10
152.7602400415116
 20
37.67935422288167
 30
0.0
 11
152.7927761456933
 21
37.69813895138941
 31
0.0
  0
LINE
  5
1245
330
18
100
AcDbEntity
  8
1
  6
Continuous
100
AcDbLine
 10
151.9288682827389
 20
37.19936151415777
 30
0.0
 11
152.7602400415116
 21
37.67935422288167
 31
0.0
  0
LINE
  5
1249
330
18
100
AcDbEntity
  8
1
  6
Continuous
100
AcDbLine
 10
152.7927621317408
 20
37.69816315450282
 30
0.0
 11
153.3053501886199
 21
37.99410600712462
 31
0.0
  0
LINE
  5
124B
330
18
100
AcDbEntity
  8
1
  6
Continuous
100
AcDbLine
 10
146.7304113853511
 20
41.05153289523946
 30
0.0
 11
146.728098990904
 21
41.07796368471507
 31
0.0
  0
ARC
  5
124C
330
18
100
AcDbEntity
  8
1
  6
Continuous
100
AcDbCircle
 10
151.4056276214923
 20
38.05155327685611
 30
0.0
 40
0.999627346540482
100
AcDbArc
 50
269.9848937300451
 51
0.0151036735463891
  0
ARC
  5
124D
330
18
100
AcDbEntity
  8
1
  6
Continuous
100
AcDbCircle
 10
150.5053478784407
 20
39.05183302465776
 30
0.0
 40
0.4999677663181063
100
AcDbArc
 50
270.001851993912
 51
19.4725580928541
  0
ARC
  5
124E
330
18
100
AcDbEntity
  8
1
  6
Continuous
100
AcDbCircle
 10
153.2056249618301
 20
38.16713630594426
 30
0.0
 40
0.1996988702758681
100
AcDbArc
 50
299.9568086736085
 51
0.043191325822968
  0
LINE
  5
1253
330
18
100
AcDbEntity
  8
1
  6
Continuous
100
AcDbLine
 10
145.2803529989689
 20
42.25181701572092
 30
0.0
 11
145.2803529989689
 21
43.45181707271786
 31
0.0
  0
LINE
  5
1257
330
18
100
AcDbEntity
  8
1
  6
Continuous
100
AcDbLine
 10
142.8116170201733
 20
49.85181737670155
 30
0.0
 11
145.2803529989539
 21
49.85181737670155
 31
0.0
  0
LINE
  5
1259
330
18
100
AcDbEntity
  8
1
  6
Continuous
100
AcDbLine
 10
137.0053637796243
 20
53.05181752869339
 30
0.0
 11
137.0053637796243
 21
48.55181756495483
 31
0.0
  0
LINE
  5
125A
330
18
100
AcDbEntity
  8
1
  6
Continuous
100
AcDbLine
 10
137.0053637796243
 20
48.55181731495486
 30
0.0
 11
140.3053636863658
 21
48.55181731495486
 31
0.0
  0
LINE
  5
125B
330
18
100
AcDbEntity
  8
1
  6
Continuous
100
AcDbLine
 10
140.3053639363658
 20
48.55181731495486
 30
0.0
 11
140.3053639363658
 21
50.55181715994969
 31
0.0
  0
LINE
  5
125C
330
18
100
AcDbEntity
  8
1
  6
Continuous
100
AcDbLine
 10
142.8053638051094
 20
50.55181740994976
 30
0.0
 11
140.3053639363658
 21
50.55181740994976
 31
0.0
  0
LINE
  5
125D
330
18
100
AcDbEntity
  8
1
  6
Continuous
100
AcDbLine
 10
139.8053631496775
 20
53.05181752869339
 30
0.0
 11
139.8053631496775
 21
49.85181737670155
 31
0.0
  0
LINE
  5
125F
330
18
100
AcDbEntity
  8
1
  6
Continuous
100
AcDbLine
 10
142.8056224782808
 20
48.25181730070561
 30
0.0
 11
147.3053635059084
 21
48.25181730070561
 31
0.0
  0
LINE
  5
1261
330
18
100
AcDbEntity
  8
1
  6
Continuous
100
AcDbLine
 10
143.0189842951015
 20
43.85181709171685
 30
0.0
 11
143.0189842951015
 21
48.25181730070561
 31
0.0
  0
LINE
  5
1264
330
18
100
AcDbEntity
  8
1
  6
Continuous
100
AcDbLine
 10
137.0041131553809
 20
49.85181737670155
 30
0.0
 11
140.3074813849416
 21
49.85181737670155
 31
0.0
  0
LINE
  5
1267
330
18
100
AcDbEntity
  8
1
  6
Continuous
100
AcDbLine
 10
150.50536403937
 20
50.35181740045028
 30
0.0
 11
150.50536403937
 21
53.35181729294254
 31
0.0
  0
LINE
  5
1268
330
18
100
AcDbEntity
  8
1
  6
Continuous
100
AcDbLine
 10
150.50536403937
 20
53.35181754294263
 30
0.0
 11
148.0053641706265
 21
53.35181754294263
 31
0.0
  0
LINE
  5
1269
330
18
100
AcDbEntity
  8
1
  6
Continuous
100
AcDbLine
 10
151.4053640821177
 20
54.55181759993957
 30
0.0
 11
149.8053640061218
 21
54.55181759993957
 31
0.0
  0
LINE
  5
126A
330
18
100
AcDbEntity
  8
1
  6
Continuous
100
AcDbLine
 10
150.50536403937
 20
50.35181740045028
 30
0.0
 11
150.8053640536193
 21
50.35181740045028
 31
0.0
  0
LINE
  5
1270
330
18
100
AcDbEntity
  8
1
  6
Continuous
100
AcDbLine
 10
153.3053501886199
 20
53.60952836154933
 30
0.0
 11
151.9102183492631
 21
54.41500810460642
 31
0.0
  0
ARC
  5
1271
330
18
100
AcDbEntity
  8
1
  6
Continuous
100
AcDbCircle
 10
149.8054240829371
 20
54.851877691004
 30
0.0
 40
0.3000181458453779
100
AcDbArc
 50
180.0114715290457
 51
269.988528470966
  0
ARC
  5
1272
330
18
100
AcDbEntity
  8
1
  6
Continuous
100
AcDbCircle
 10
151.4056276214996
 20
53.55208109182388
 30
0.0
 40
0.9996273465320328
100
AcDbArc
 50
359.9848963263843
 51
90.01510367365751
  0
ARC
  5
1273
330
18
100
AcDbEntity
  8
1
  6
Continuous
100
AcDbCircle
 10
153.2056249618165
 20
53.43649806272264
 30
0.0
 40
0.1996988702900241
100
AcDbArc
 50
359.9568086753639
 51
60.04319132404138
  0
LINE
  5
1275
330
18
100
AcDbEntity
  8
1
  6
Continuous
100
AcDbLine
 10
150.3053636484007
 20
53.05181752869339
 30
0.0
 11
139.8053631496775
 21
53.05181752869339
 31
0.0
  0
LINE
  5
127A
330
18
100
AcDbEntity
  8
1
  6
Continuous
100
AcDbLine
 10
147.3053391053269
 20
43.85181709171671
 30
0.0
 11
142.9053636783894
 21
43.85181709171671
 31
0.0
  0
LINE
  5
127B
330
18
100
AcDbEntity
  8
1
  6
Continuous
100
AcDbLine
 10
145.2803529989689
 20
48.65181731970459
 30
0.0
 11
145.2803529989689
 21
49.85181737670155
 31
0.0
  0
LINE
  5
127C
330
18
100
AcDbEntity
  8
1
  6
Continuous
100
AcDbLine
 10
150.4053565167418
 20
48.25181730070561
 30
0.0
 11
150.3061254175868
 21
48.25181730070561
 31
0.0
  0
LINE
  5
127D
330
18
100
AcDbEntity
  8
1
  6
Continuous
100
AcDbLine
 10
150.4053565167402
 20
43.85181709171685
 30
0.0
 11
150.3059842611487
 21
43.85181709171685
 31
0.0
  0
LINE
  5
1281
330
18
100
AcDbEntity
  8
1
  6
Continuous
100
AcDbLine
 10
150.4053565167403
 20
43.85181709171685
 30
0.0
 11
150.4053565167419
 21
48.25181730070561
 31
0.0
  0
LINE
  5
1284
330
18
100
AcDbEntity
  8
1
  6
Continuous
100
AcDbLine
 10
127.3053629374292
 20
56.35181768543485
 30
0.0
 11
128.5428967550963
 21
56.35181768543485
 31
0.0
  0
LINE
  5
1285
330
18
100
AcDbEntity
  8
1
  6
Continuous
100
AcDbLine
 10
127.3053629374292
 20
58.18205177808625
 30
0.0
 11
128.382624909115
 21
58.18205177808636
 31
0.0
  0
LINE
  5
1288
330
18
100
AcDbEntity
  8
1
  6
Continuous
100
AcDbLine
 10
128.367919670268
 20
58.35181778042987
 30
0.0
 11
127.3053629374294
 21
58.35181778042987
 31
0.0
  0
LINE
  5
128C
330
18
100
AcDbEntity
  8
1
  6
Continuous
100
AcDbLine
 10
149.5053639918726
 20
56.35181768543498
 30
0.0
 11
148.2678299236708
 21
56.35181768543498
 31
0.0
  0
LINE
  5
128D
330
18
100
AcDbEntity
  8
1
  6
Continuous
100
AcDbLine
 10
149.5053639918726
 20
58.18210359837189
 30
0.0
 11
148.4281020201867
 21
58.18210359837189
 31
0.0
  0
LINE
  5
1290
330
18
100
AcDbEntity
  8
1
  6
Continuous
100
AcDbLine
 10
149.5053639918726
 20
58.35181778042987
 30
0.0
 11
148.4428072590337
 21
58.35181778042987
 31
0.0
  0
LINE
  5
1294
330
18
100
AcDbEntity
  8
1
  6
Continuous
100
AcDbLine
 10
126.505363280901
 20
100.28434796185
 30
0.0
 11
142.8053640551095
 21
100.28434796185
 31
0.0
  0
LINE
  5
1295
330
18
100
AcDbEntity
  8
1
  6
Continuous
100
AcDbLine
 10
126.505363280901
 20
97.28434781935767
 30
0.0
 11
142.8053640551095
 21
97.28434781935767
 31
0.0
  0
LINE
  5
1296
330
18
100
AcDbEntity
  8
1
  6
Continuous
100
AcDbLine
 10
128.5119433424072
 20
100.28424796185
 30
0.0
 11
124.5051468948201
 21
104.2910444094371
 31
0.0
  0
ARC
  5
1297
330
18
100
AcDbEntity
  8
1
  6
Continuous
100
AcDbCircle
 10
126.5053443766353
 20
102.2843291525704
 30
0.0
 40
4.999973502811699
100
AcDbArc
 50
179.9997833721633
 51
270.0002166277365
  0
ARC
  5
1298
330
18
100
AcDbEntity
  8
1
  6
Continuous
100
AcDbCircle
 10
126.5053632808987
 20
102.2843480568428
 30
0.0
 40
2.0000000949925
100
AcDbArc
 50
179.9999999999405
 51
270.0000000000596
  0
LINE
  5
1299
330
18
100
AcDbEntity
  8
1
  6
Continuous
100
AcDbLine
 10
137.0053637796243
 20
97.28434781935767
 30
0.0
 11
137.0053637796243
 21
100.28434796185
 31
0.0
  0
LINE
  5
129A
330
18
100
AcDbEntity
  8
1
  6
Continuous
100
AcDbLine
 10
140.3053639363658
 20
97.28434781935767
 30
0.0
 11
140.3053639363658
 21
100.28434796185
 31
0.0
  0
LINE
  5
129B
330
18
100
AcDbEntity
  8
1
  6
Continuous
100
AcDbLine
 10
142.8053640551095
 20
97.28434781935767
 30
0.0
 11
142.8053640551095
 21
100.28434796185
 31
0.0
  0
LINE
  5
12A1
330
18
100
AcDbEntity
  8
1
  6
Continuous
100
AcDbLine
 10
40.72675644827632
 20
303.2843576038323
 30
0.0
 11
25.53499278378831
 21
303.2843576038323
 31
0.0
  0
LINE
  5
12A3
330
18
100
AcDbEntity
  8
1
  6
Continuous
100
AcDbLine
 10
27.88087436346632
 20
286.2843567963757
 30
0.0
 11
43.68087511392608
 21
286.2843567963757
 31
0.0
  0
ARC
  5
12A4
330
18
100
AcDbEntity
  8
1
  6
Continuous
100
AcDbCircle
 10
25.38087424472269
 20
259.2843555139445
 30
0.0
 40
1.000000047497459
100
AcDbArc
 50
180.0000016494444
 51
269.9999983505519
  0
LINE
  5
12A6
330
18
100
AcDbEntity
  8
1
  6
Continuous
100
AcDbLine
 10
26.38087429222014
 20
258.284355466447
 30
0.0
 11
25.38087424472269
 21
258.284355466447
 31
0.0
  0
LINE
  5
12A9
330
18
100
AcDbEntity
  8
1
  6
Continuous
100
AcDbLine
 10
25.88087426847141
 20
258.8799503320578
 30
0.0
 11
25.88087426847141
 21
284.2843567013808
 31
0.0
  0
LINE
  5
12AB
330
18
100
AcDbEntity
  8
1
  6
Continuous
100
AcDbLine
 10
36.08087475294543
 20
281.352828518441
 30
0.0
 11
36.08087475294543
 21
277.5528288379506
 31
0.0
  0
LINE
  5
12AC
330
18
100
AcDbEntity
  8
1
  6
Continuous
100
AcDbLine
 10
30.68087449645918
 20
277.5528288379506
 30
0.0
 11
30.68087449645918
 21
281.3528287684409
 31
0.0
  0
LINE
  5
12AD
330
18
100
AcDbEntity
  8
1
  6
Continuous
100
AcDbLine
 10
26.38087429222014
 20
285.6071547608903
 30
0.0
 11
26.38087429222014
 21
97.28434781935767
 31
0.0
  0
LINE
  5
12AF
330
18
100
AcDbEntity
  8
1
  6
Continuous
100
AcDbLine
 10
25.88092268702235
 20
258.8799503320578
 30
0.0
 11
25.90951150441015
 21
258.782621742019
 31
0.0
  0
LINE
  5
12B2
330
18
100
AcDbEntity
  8
1
  6
Continuous
100
AcDbLine
 10
36.08087475294543
 20
275.0643560134546
 30
0.0
 11
36.08087475294543
 21
271.2643563329641
 31
0.0
  0
LINE
  5
12B3
330
18
100
AcDbEntity
  8
1
  6
Continuous
100
AcDbLine
 10
30.68087474645926
 20
275.0643562634545
 30
0.0
 11
36.08087475294543
 21
275.0643562634544
 31
0.0
  0
LINE
  5
12B4
330
18
100
AcDbEntity
  8
1
  6
Continuous
100
AcDbLine
 10
30.68087449645918
 20
271.2643563329641
 30
0.0
 11
30.68087449645918
 21
275.0643562634544
 31
0.0
  0
LINE
  5
12B5
330
18
100
AcDbEntity
  8
1
  6
Continuous
100
AcDbLine
 10
36.08087475294543
 20
271.2643560829642
 30
0.0
 11
30.68087449645918
 21
271.2643560829641
 31
0.0
  0
LINE
  5
12B6
330
18
100
AcDbEntity
  8
1
  6
Continuous
100
AcDbLine
 10
36.08087475294543
 20
277.5528285879505
 30
0.0
 11
30.68087449645918
 21
277.5528285879506
 31
0.0
  0
ARC
  5
12BB
330
18
100
AcDbEntity
  8
1
  6
Continuous
100
AcDbCircle
 10
27.88090223940048
 20
284.2843288254449
 30
0.0
 40
1.999988074416586
100
AcDbArc
 50
90.00079857551977
 51
179.9992014244366
  0
LINE
  5
12BD
330
18
100
AcDbEntity
  8
1
  6
Continuous
100
AcDbLine
 10
30.68087474645926
 20
281.3528287684409
 30
0.0
 11
36.08087475294543
 21
281.3528287684409
 31
0.0
  0
LINE
  5
12BE
330
18
100
AcDbEntity
  8
1
  6
Continuous
100
AcDbLine
 10
36.08087475294543
 20
286.2843567963757
 30
0.0
 11
36.08087475294543
 21
283.841301342937
 31
0.0
  0
LINE
  5
12BF
330
18
100
AcDbEntity
  8
1
  6
Continuous
100
AcDbLine
 10
30.68087449645918
 20
283.8413013429372
 30
0.0
 11
30.68087449645918
 21
286.2843567963757
 31
0.0
  0
LINE
  5
12C0
330
18
100
AcDbEntity
  8
1
  6
Continuous
100
AcDbLine
 10
36.08087475294543
 20
283.8413010929371
 30
0.0
 11
30.68087449645918
 21
283.8413010929371
 31
0.0
  0
LINE
  5
12CE
330
18
100
AcDbEntity
  8
1
  6
Continuous
100
AcDbLine
 10
40.38087495718445
 20
286.2843567963757
 30
0.0
 11
40.38087495718468
 21
97.28434781935767
 31
0.0
  0
LINE
  5
12D4
330
18
100
AcDbEntity
  8
1
  6
Continuous
100
AcDbLine
 10
45.51279355978589
 20
288.6582956782657
 30
0.0
 11
43.6808749479685
 21
290.2843571336753
 31
0.0
  0
LINE
  5
12D5
330
18
100
AcDbEntity
  8
1
  6
Continuous
100
AcDbLine
 10
43.68087490328662
 20
286.2843566094063
 30
0.0
 11
45.51279355978432
 21
287.9104181044768
 31
0.0
  0
ARC
  5
12D8
330
18
100
AcDbEntity
  8
1
  6
Continuous
100
AcDbCircle
 10
45.18109226944988
 20
288.2843568913701
 30
0.0
 40
0.4997829394710437
100
AcDbArc
 50
311.5745337385908
 51
48.42546626144017
  0
ARC
  5
12E8
330
18
100
AcDbEntity
  8
1
  6
Continuous
100
AcDbCircle
 10
127.0049048736095
 20
250.2490110672153
 30
0.0
 40
5.49950405903875
100
AcDbArc
 50
134.998021689506
 51
180.00197831029
  0
ARC
  5
12E9
330
18
100
AcDbEntity
  8
1
  6
Continuous
100
AcDbCircle
 10
127.0051549265417
 20
250.2489074918585
 30
0.0
 40
2.499774571916815
100
AcDbArc
 50
134.9980216857124
 51
180.0019783125605
  0
LINE
  5
12EA
330
18
100
AcDbEntity
  8
1
  6
Continuous
100
AcDbLine
 10
144.4053637496356
 20
264.7843557751805
 30
0.0
 11
144.4053637496356
 21
287.8172655826849
 31
0.0
  0
LINE
  5
12EB
330
18
100
AcDbEntity
  8
1
  6
Continuous
100
AcDbLine
 10
132.4053631796662
 20
287.8172655826848
 30
0.0
 11
132.4053631796662
 21
264.7843557751805
 31
0.0
  0
LINE
  5
12EC
330
18
100
AcDbEntity
  8
1
  6
Continuous
100
AcDbLine
 10
149.0053639681238
 20
258.3296432867022
 30
0.0
 11
149.0053639681234
 21
286.2843567963757
 31
0.0
  0
LINE
  5
12ED
330
18
100
AcDbEntity
  8
1
  6
Continuous
100
AcDbLine
 10
142.9053636783894
 20
263.5343556942198
 30
0.0
 11
142.9053636783894
 21
286.3361351738344
 31
0.0
  0
LINE
  5
12EE
330
18
100
AcDbEntity
  8
1
  6
Continuous
100
AcDbLine
 10
141.4053636071432
 20
285.0193652172615
 30
0.0
 11
141.4053636071432
 21
273.284445893282
 31
0.0
  0
LINE
  5
12EF
330
18
100
AcDbEntity
  8
1
  6
Continuous
100
AcDbLine
 10
135.4053633221585
 20
285.0193652172618
 30
0.0
 11
135.4053633221585
 21
273.28444589328
 31
0.0
  0
LINE
  5
12F0
330
18
100
AcDbEntity
  8
1
  6
Continuous
100
AcDbLine
 10
133.9053632509123
 20
263.5343556942199
 30
0.0
 11
133.9053632509123
 21
286.336135173834
 31
0.0
  0
LINE
  5
12F3
330
18
100
AcDbEntity
  8
1
  6
Continuous
100
AcDbLine
 10
126.505363280901
 20
286.2843567963757
 30
0.0
 11
126.505363280901
 21
258.5625300727475
 31
0.0
  0
LINE
  5
12F4
330
18
100
AcDbEntity
  8
1
  6
Continuous
100
AcDbLine
 10
148.4053639396254
 20
258.284355466447
 30
0.0
 11
129.4982954795216
 21
258.284355466447
 31
0.0
  0
LINE
  5
12F5
330
18
100
AcDbEntity
  8
1
  6
Continuous
100
AcDbLine
 10
133.9053632509123
 20
273.28444589328
 30
0.0
 11
135.4053633221585
 21
273.28444589328
 31
0.0
  0
ARC
  5
12F6
330
18
100
AcDbEntity
  8
1
  6
Continuous
100
AcDbCircle
 10
130.6554018811918
 20
263.5343557158086
 30
0.0
 40
0.7500089663596187
100
AcDbArc
 50
90.00296292856864
 51
269.9970370714305
  0
ARC
  5
12F7
330
18
100
AcDbEntity
  8
1
  6
Continuous
100
AcDbCircle
 10
133.1555608698133
 20
263.5341580612849
 30
0.0
 40
0.7497205099137432
100
AcDbArc
 50
269.9848963272819
 51
0.0151036726995982
  0
LINE
  5
12F8
330
18
100
AcDbEntity
  8
1
  6
Continuous
100
AcDbLine
 10
126.3053652003498
 20
258.8799503320579
 30
0.0
 11
126.4720213445416
 21
258.782621742019
 31
0.0
  0
LINE
  5
12F9
330
18
100
AcDbEntity
  8
1
  6
Continuous
100
AcDbLine
 10
130.6553630965456
 20
262.7843556801856
 30
0.0
 11
133.1553632152892
 21
262.7843556801856
 31
0.0
  0
LINE
  5
12FA
330
18
100
AcDbEntity
  8
1
  6
Continuous
100
AcDbLine
 10
126.505363280901
 20
258.7644103538528
 30
0.0
 11
126.4720323871924
 21
258.7826156454489
 31
0.0
  0
ARC
  5
12FB
330
18
100
AcDbEntity
  8
1
  6
Continuous
100
AcDbCircle
 10
128.4052475691887
 20
262.284240235949
 30
0.0
 40
3.999836960764231
100
AcDbArc
 50
179.6825631836112
 51
238.3322959050541
  0
LINE
  5
12FC
330
18
100
AcDbEntity
  8
1
  6
Continuous
100
AcDbLine
 10
125.7731301990879
 20
256.794763035804
 30
0.0
 11
123.1162758234017
 21
254.1379086601101
 31
0.0
  0
LINE
  5
12FD
330
18
100
AcDbEntity
  8
1
  6
Continuous
100
AcDbLine
 10
127.8944506434193
 20
254.6734425914525
 30
0.0
 11
125.2375962677332
 21
252.0165882157584
 31
0.0
  0
ARC
  5
12FE
330
18
100
AcDbEntity
  8
1
  6
Continuous
100
AcDbCircle
 10
124.0055715401661
 20
258.5624437597158
 30
0.0
 40
2.499774572015069
100
AcDbArc
 50
314.9980216873597
 51
0.001978313772885
  0
ARC
  5
12FF
330
18
100
AcDbEntity
  8
1
  6
Continuous
100
AcDbCircle
 10
124.0058215936305
 20
258.5623401842133
 30
0.0
 40
5.499504058595416
100
AcDbArc
 50
314.9980216874074
 51
0.0019783123606169
  0
LINE
  5
1300
330
18
100
AcDbEntity
  8
1
  6
Continuous
100
AcDbLine
 10
131.9053631559174
 20
264.2843557514317
 30
0.0
 11
130.6553630965456
 21
264.2843557514317
 31
0.0
  0
ARC
  5
1303
330
18
100
AcDbEntity
  8
1
  6
Continuous
100
AcDbCircle
 10
131.9054949256071
 20
264.7842240054916
 30
0.0
 40
0.4998136732682931
100
AcDbArc
 50
269.9848963264782
 51
0.0151036734226274
  0
ARC
  5
1304
330
18
100
AcDbEntity
  8
1
  6
Continuous
100
AcDbCircle
 10
143.6551660594884
 20
263.5341580612848
 30
0.0
 40
0.7497205099136323
100
AcDbArc
 50
179.984896327293
 51
270.0151036727268
  0
ARC
  5
1305
330
18
100
AcDbEntity
  8
1
  6
Continuous
100
AcDbCircle
 10
146.1553250481099
 20
263.5343557158086
 30
0.0
 40
0.7500089663596418
100
AcDbArc
 50
270.0029629285733
 51
89.99703707142565
  0
LINE
  5
1307
330
18
100
AcDbEntity
  8
1
  6
Continuous
100
AcDbLine
 10
143.6553637140125
 20
262.7843556801856
 30
0.0
 11
146.1553638327561
 21
262.7843556801856
 31
0.0
  0
ARC
  5
1308
330
18
100
AcDbEntity
  8
1
  6
Continuous
100
AcDbCircle
 10
148.4054793601132
 20
262.284240235949
 30
0.0
 40
3.999836960764215
100
AcDbArc
 50
269.9983466756671
 51
301.6677040949441
  0
LINE
  5
130C
330
18
100
AcDbEntity
  8
1
  6
Continuous
100
AcDbLine
 10
146.1553638327561
 20
264.2843557514317
 30
0.0
 11
144.9053637733843
 21
264.2843557514317
 31
0.0
  0
LINE
  5
130E
330
18
100
AcDbEntity
  8
1
  6
Continuous
100
AcDbLine
 10
141.4053636071432
 20
273.284445893282
 30
0.0
 11
142.9053636783894
 21
273.284445893282
 31
0.0
  0
ARC
  5
1311
330
18
100
AcDbEntity
  8
1
  6
Continuous
100
AcDbCircle
 10
144.9052320036946
 20
264.7842240054916
 30
0.0
 40
0.4998136732682504
100
AcDbArc
 50
179.9848963265733
 51
270.0151036735237
  0
ARC
  5
1312
330
18
100
AcDbEntity
  8
1
  6
Continuous
100
AcDbCircle
 10
138.4053634646509
 20
298.4239954140947
 30
0.0
 40
12.52339657601586
100
AcDbArc
 50
249.6290752822463
 51
290.3709247177537
  0
ARC
  5
1313
330
18
100
AcDbEntity
  8
1
  6
Continuous
100
AcDbCircle
 10
138.4053634646509
 20
298.2834442942673
 30
0.0
 40
12.09908855836189
100
AcDbArc
 50
251.4892223376242
 51
288.5107776624014
  0
LINE
  5
1314
330
18
100
AcDbEntity
  8
1
  6
Continuous
100
AcDbLine
 10
134.8553632960349
 20
294.2343571739804
 30
0.0
 11
141.9553636332668
 21
294.2343571739804
 31
0.0
  0
ARC
  5
1315
330
18
100
AcDbEntity
  8
1
  6
Continuous
100
AcDbCircle
 10
138.4068402631905
 20
298.2883163799281
 30
0.0
 40
12.00421398015077
100
AcDbArc
 50
249.6884016077303
 51
254.3098708717726
  0
LINE
  5
1316
330
18
100
AcDbEntity
  8
1
  6
Continuous
100
AcDbLine
 10
128.5428970045629
 20
286.2843568072114
 30
0.0
 11
128.382624909115
 21
287.9104181044782
 31
0.0
  0
LINE
  5
1317
330
18
100
AcDbEntity
  8
1
  6
Continuous
100
AcDbLine
 10
127.3053629374292
 20
286.2843566094062
 30
0.0
 11
127.3053629374292
 21
310.2843579363147
 31
0.0
  0
LINE
  5
1318
330
18
100
AcDbEntity
  8
1
  6
Continuous
100
AcDbLine
 10
124.4054719959944
 20
290.9843570196137
 30
0.0
 11
124.4054719959944
 21
262.3064004897431
 31
0.0
  0
LINE
  5
1319
330
18
100
AcDbEntity
  8
1
  6
Continuous
100
AcDbLine
 10
128.8053630086753
 20
286.2843567963757
 30
0.0
 11
124.4054719959944
 21
286.2843567963757
 31
0.0
  0
LINE
  5
1322
330
18
100
AcDbEntity
  8
1
  6
Continuous
100
AcDbLine
 10
128.3826249091157
 20
288.6582956782662
 30
0.0
 11
128.5428970164441
 21
290.2843570960655
 31
0.0
  0
LINE
  5
1323
330
18
100
AcDbEntity
  8
1
  6
Continuous
100
AcDbLine
 10
127.3053629374292
 20
290.2843569863654
 30
0.0
 11
128.5428970056316
 21
290.2843569863657
 31
0.0
  0
LINE
  5
1324
330
18
100
AcDbEntity
  8
1
  6
Continuous
100
AcDbLine
 10
127.3053629374292
 20
287.9090279585721
 30
0.0
 11
128.382624909115
 21
287.9090279585721
 31
0.0
  0
LINE
  5
1327
330
18
100
AcDbEntity
  8
1
  6
Continuous
100
AcDbLine
 10
124.1053627770411
 20
291.2843570338629
 30
0.0
 11
124.1289410446318
 21
291.2834290414462
 31
0.0
  0
LINE
  5
1328
330
18
100
AcDbEntity
  8
1
  6
Continuous
100
AcDbLine
 10
124.1180080323911
 20
293.2843571371196
 30
0.0
 11
124.1400355059886
 21
293.28493732704
 31
0.0
  0
LINE
  5
1329
330
18
100
AcDbEntity
  8
1
  6
Continuous
100
AcDbLine
 10
124.13790804995
 20
291.2838845819358
 30
0.0
 11
124.1179553838549
 21
291.2843570338102
 31
0.0
  0
LINE
  5
132C
330
18
100
AcDbEntity
  8
1
  6
Continuous
100
AcDbLine
 10
123.4053627521891
 20
291.4843570433624
 30
0.0
 11
123.4053627521891
 21
293.0843571193583
 31
0.0
  0
LINE
  5
132D
330
18
100
AcDbEntity
  8
1
  6
Continuous
100
AcDbLine
 10
124.1179508207133
 20
291.2843570338629
 30
0.0
 11
123.6053627644883
 21
291.2843570338629
 31
0.0
  0
LINE
  5
132E
330
18
100
AcDbEntity
  8
1
  6
Continuous
100
AcDbLine
 10
123.6053627644885
 20
293.2843571288578
 30
0.0
 11
124.1179508318791
 21
293.2843571288578
 31
0.0
  0
LINE
  5
132F
330
18
100
AcDbEntity
  8
1
  6
Continuous
100
AcDbLine
 10
123.6053627672881
 20
291.2843850013508
 30
0.0
 11
123.5695266359546
 21
291.2876288578927
 31
0.0
  0
ARC
  5
1330
330
18
100
AcDbEntity
  8
1
  6
Continuous
100
AcDbCircle
 10
124.1053627854373
 20
290.9843570196137
 30
0.0
 40
0.3000000142492247
100
AcDbArc
 50
0.0000000000008142
 51
85.49223548644174
  0
ARC
  5
1331
330
18
100
AcDbEntity
  8
1
  6
Continuous
100
AcDbCircle
 10
124.1053027086152
 20
293.5844172199297
 30
0.0
 40
0.3000181458533754
100
AcDbArc
 50
270.0114715306751
 51
359.9885284699955
  0
ARC
  5
1332
330
18
100
AcDbEntity
  8
1
  6
Continuous
100
AcDbCircle
 10
123.6054028129033
 20
293.0843170681433
 30
0.0
 40
0.2000120972355975
100
AcDbArc
 50
90.01147152978772
 51
179.9885284699922
  0
ARC
  5
1333
330
18
100
AcDbEntity
  8
1
  6
Continuous
100
AcDbCircle
 10
123.6054028129035
 20
291.4843970945776
 30
0.0
 40
0.2000120972355772
100
AcDbArc
 50
180.011471530028
 51
259.6669316952875
  0
ARC
  5
1334
330
18
100
AcDbEntity
  8
1
  6
Continuous
100
AcDbCircle
 10
133.4053266899948
 20
287.817323527814
 30
0.0
 40
0.9999315449200508
100
AcDbArc
 50
64.46345092321674
 51
180.0033201324952
  0
ARC
  5
1335
330
18
100
AcDbEntity
  8
1
  6
Continuous
100
AcDbCircle
 10
134.4052019476391
 20
286.336359310003
 30
0.0
 40
0.4997238654090557
100
AcDbArc
 50
71.46490537905724
 51
135.9562592486668
  0
ARC
  5
1336
330
18
100
AcDbEntity
  8
1
  6
Continuous
100
AcDbCircle
 10
138.4053634646509
 20
298.2843573663452
 30
0.0
 40
9.000000427477074
100
AcDbArc
 50
191.6669338298131
 51
204.324477486174
  0
ARC
  5
1337
330
18
100
AcDbEntity
  8
1
  6
Continuous
100
AcDbCircle
 10
138.4053634646509
 20
298.2843573663452
 30
0.0
 40
9.000000427477074
100
AcDbArc
 50
227.667255860163
 51
240.3326694632767
  0
LINE
  5
1340
330
18
100
AcDbEntity
  8
1
  6
Continuous
100
AcDbLine
 10
133.9558526859393
 20
290.8222346581692
 30
0.0
 11
132.6834374849231
 21
291.7466984149887
 31
0.0
  0
LINE
  5
1341
330
18
100
AcDbEntity
  8
1
  6
Continuous
100
AcDbLine
 10
130.4195079493561
 20
294.8627300969625
 30
0.0
 11
129.9334885903706
 21
296.3585438768635
 31
0.0
  0
LINE
  5
1342
330
18
100
AcDbEntity
  8
1
  6
Continuous
100
AcDbLine
 10
129.7822795606123
 20
296.4619474282473
 30
0.0
 11
129.5051702291423
 21
296.4608587732701
 31
0.0
  0
ARC
  5
1343
330
18
100
AcDbEntity
  8
1
  6
Continuous
100
AcDbCircle
 10
134.8553702650222
 20
294.7343641667164
 30
0.0
 40
0.4999970186085692
100
AcDbArc
 50
180.0007985759512
 51
269.9992014240477
  0
ARC
  5
1344
330
18
100
AcDbEntity
  8
1
  6
Continuous
100
AcDbCircle
 10
134.2918166665012
 20
287.171087159146
 30
0.0
 40
0.1498345747311519
100
AcDbArc
 50
197.9715716247348
 51
249.716026845218
  0
ARC
  5
1345
330
18
100
AcDbEntity
  8
1
  6
Continuous
100
AcDbCircle
 10
133.8676607633124
 20
290.7008750167495
 30
0.0
 40
0.1500093965487873
100
AcDbArc
 50
338.738026006801
 51
53.99413494345147
  0
ARC
  5
1346
330
18
100
AcDbEntity
  8
1
  6
Continuous
100
AcDbCircle
 10
132.5952704099934
 20
291.6253207206586
 30
0.0
 40
0.1500093965494623
100
AcDbArc
 50
54.00586505667138
 51
129.2619739931477
  0
ARC
  5
1347
330
18
100
AcDbEntity
  8
1
  6
Continuous
100
AcDbCircle
 10
130.2768257777368
 20
294.8163859961127
 30
0.0
 40
0.1500093965459348
100
AcDbArc
 50
302.7380260061919
 51
17.99413494425053
  0
ARC
  5
1348
330
18
100
AcDbEntity
  8
1
  6
Continuous
100
AcDbCircle
 10
129.7908159097239
 20
296.3121705657945
 30
0.0
 40
0.1500093965487738
100
AcDbArc
 50
18.00586505648341
 51
93.26197399326305
  0
LINE
  5
134D
330
18
100
AcDbEntity
  8
1
  6
Continuous
100
AcDbLine
 10
148.2678299113977
 20
286.2843566718416
 30
0.0
 11
148.4281020201899
 21
287.9104181044782
 31
0.0
  0
LINE
  5
134E
330
18
100
AcDbEntity
  8
1
  6
Continuous
100
AcDbLine
 10
149.5053639918726
 20
286.2843567963757
 30
0.0
 11
149.5053639918726
 21
310.284357936314
 31
0.0
  0
LINE
  5
1350
330
18
100
AcDbEntity
  8
1
  6
Continuous
100
AcDbLine
 10
152.4052549333073
 20
286.2843567963757
 30
0.0
 11
148.0053639225254
 21
286.2843567963757
 31
0.0
  0
ARC
  5
1351
330
18
100
AcDbEntity
  8
1
  6
Continuous
100
AcDbCircle
 10
138.4053634646509
 20
298.2808027632462
 30
0.0
 40
13.59644641966492
100
AcDbArc
 50
257.2531188764612
 51
282.7468811235389
  0
LINE
  5
1359
330
18
100
AcDbEntity
  8
1
  6
Continuous
100
AcDbLine
 10
148.2678299236702
 20
290.2843569863657
 30
0.0
 11
149.5053639918726
 21
290.2843569863654
 31
0.0
  0
LINE
  5
135A
330
18
100
AcDbEntity
  8
1
  6
Continuous
100
AcDbLine
 10
149.5053639918726
 20
287.9089690232561
 30
0.0
 11
148.4281020201867
 21
287.908969023256
 31
0.0
  0
LINE
  5
135B
330
18
100
AcDbEntity
  8
1
  6
Continuous
100
AcDbLine
 10
148.4281020201901
 20
288.6582956782658
 30
0.0
 11
148.267829909239
 21
290.284357132802
 31
0.0
  0
ARC
  5
135C
330
18
100
AcDbEntity
  8
1
  6
Continuous
100
AcDbCircle
 10
143.405400239307
 20
287.8173235278142
 30
0.0
 40
0.9999315449199864
100
AcDbArc
 50
359.9966798675084
 51
114.1219054910556
  0
ARC
  5
135D
330
18
100
AcDbEntity
  8
1
  6
Continuous
100
AcDbCircle
 10
138.4053634646509
 20
298.2831219829888
 30
0.0
 40
10.59876512011322
100
AcDbArc
 50
259.6737080335241
 51
280.3564538360655
  0
ARC
  5
135E
330
18
100
AcDbEntity
  8
1
  6
Continuous
100
AcDbCircle
 10
138.4053634646509
 20
298.2843573663452
 30
0.0
 40
9.000000427477074
100
AcDbArc
 50
263.6729445503604
 51
276.3311419164677
  0
ARC
  5
135F
330
18
100
AcDbEntity
  8
1
  6
Continuous
100
AcDbCircle
 10
138.4053634646509
 20
298.2843573663452
 30
0.0
 40
9.000000427477074
100
AcDbArc
 50
299.6665618598104
 51
312.312270443201
  0
ARC
  5
1360
330
18
100
AcDbEntity
  8
1
  6
Continuous
100
AcDbCircle
 10
138.4053634646509
 20
298.2843573663452
 30
0.0
 40
9.000000427477074
100
AcDbArc
 50
335.6855505235541
 51
348.3329978329187
  0
LINE
  5
1364
330
18
100
AcDbEntity
  8
1
  6
Continuous
100
AcDbLine
 10
148.0053639206264
 20
288.2843568913703
 30
0.0
 11
147.3053635059084
 21
288.2843568913703
 31
0.0
  0
LINE
  5
1365
330
18
100
AcDbEntity
  8
1
  6
Continuous
100
AcDbLine
 10
147.3055407030128
 20
296.4608579677845
 30
0.0
 11
147.0284473686895
 21
296.4619474282473
 31
0.0
  0
LINE
  5
1366
330
18
100
AcDbEntity
  8
1
  6
Continuous
100
AcDbLine
 10
146.8772383389311
 20
296.3585438768637
 30
0.0
 11
146.3912189799455
 21
294.8627300969628
 31
0.0
  0
LINE
  5
1367
330
18
100
AcDbEntity
  8
1
  6
Continuous
100
AcDbLine
 10
144.1272894443786
 20
291.7466984149889
 30
0.0
 11
142.8548742433624
 21
290.8222346581693
 31
0.0
  0
LINE
  5
1368
330
18
100
AcDbEntity
  8
1
  6
Continuous
100
AcDbLine
 10
139.1917593066812
 20
289.632016465677
 30
0.0
 11
137.6189676226206
 21
289.632016465677
 31
0.0
  0
ARC
  5
1369
330
18
100
AcDbEntity
  8
1
  6
Continuous
100
AcDbCircle
 10
141.9553566642796
 20
294.7343641667164
 30
0.0
 40
0.4999970186085692
100
AcDbArc
 50
270.0007985759514
 51
359.9992014240474
  0
ARC
  5
136A
330
18
100
AcDbEntity
  8
1
  6
Continuous
100
AcDbCircle
 10
147.0199110195778
 20
296.3121705657945
 30
0.0
 40
0.1500093965487705
100
AcDbArc
 50
86.73802600673633
 51
161.9941349434617
  0
ARC
  5
136B
330
18
100
AcDbEntity
  8
1
  6
Continuous
100
AcDbCircle
 10
146.533901151565
 20
294.8163859961127
 30
0.0
 40
0.1500093965459428
100
AcDbArc
 50
162.0058650556873
 51
237.2619739938004
  0
ARC
  5
136C
330
18
100
AcDbEntity
  8
1
  6
Continuous
100
AcDbCircle
 10
147.1533655381374
 20
293.82922462965
 30
0.0
 40
0.1520366584122798
100
AcDbArc
 50
0.2670416105866132
 51
38.77280895324508
  0
ARC
  5
136D
330
18
100
AcDbEntity
  8
1
  6
Continuous
100
AcDbCircle
 10
147.1553308165596
 20
290.9570483606229
 30
0.0
 40
0.1500082929568982
100
AcDbArc
 50
266.0097667226973
 51
359.9864587172527
  0
ARC
  5
136E
330
18
100
AcDbEntity
  8
1
  6
Continuous
100
AcDbCircle
 10
144.2154565193084
 20
291.6253207206587
 30
0.0
 40
0.1500093965494488
100
AcDbArc
 50
50.73802600684948
 51
125.9941349433022
  0
ARC
  5
136F
330
18
100
AcDbEntity
  8
1
  6
Continuous
100
AcDbCircle
 10
142.9430661659894
 20
290.7008750167495
 30
0.0
 40
0.150009396548802
100
AcDbArc
 50
126.0058650565173
 51
201.2619739931919
  0
ARC
  5
1370
330
18
100
AcDbEntity
  8
1
  6
Continuous
100
AcDbCircle
 10
142.5189102628005
 20
287.171087159146
 30
0.0
 40
0.1498345747311227
100
AcDbArc
 50
290.283973154718
 51
342.0284283752745
  0
ARC
  5
1371
330
18
100
AcDbEntity
  8
1
  6
Continuous
100
AcDbCircle
 10
138.4038866744733
 20
298.2883163538653
 30
0.0
 40
12.00421395279558
100
AcDbArc
 50
285.6901291234426
 51
290.3115983980196
  0
ARC
  5
1372
330
18
100
AcDbEntity
  8
1
  6
Continuous
100
AcDbCircle
 10
141.6096505303084
 20
286.8756507630123
 30
0.0
 40
0.1498345746707366
100
AcDbArc
 50
233.9715716152866
 51
285.716026856962
  0
ARC
  5
1373
330
18
100
AcDbEntity
  8
1
  6
Continuous
100
AcDbCircle
 10
139.1917439499593
 20
289.4819965418447
 30
0.0
 40
0.15000939654912
100
AcDbArc
 50
14.73802600705237
 51
89.99413494339442
  0
ARC
  5
1374
330
18
100
AcDbEntity
  8
1
  6
Continuous
100
AcDbCircle
 10
137.6189829793424
 20
289.4819965418447
 30
0.0
 40
0.1500093965491177
100
AcDbArc
 50
90.00586505663038
 51
165.2619739929484
  0
ARC
  5
1375
330
18
100
AcDbEntity
  8
1
  6
Continuous
100
AcDbCircle
 10
135.2010763989933
 20
286.8756507630123
 30
0.0
 40
0.149834574670742
100
AcDbArc
 50
254.2839731429775
 51
306.0284283847133
  0
LINE
  5
137D
330
18
100
AcDbEntity
  8
1
  6
Continuous
100
AcDbLine
 10
152.7053641522609
 20
293.2843571288578
 30
0.0
 11
152.6815784273758
 21
293.2853015492108
 31
0.0
  0
LINE
  5
137E
330
18
100
AcDbEntity
  8
1
  6
Continuous
100
AcDbLine
 10
152.6927169444511
 20
291.2843570250286
 30
0.0
 11
152.6707202276748
 21
291.2837782794177
 31
0.0
  0
LINE
  5
137F
330
18
100
AcDbEntity
  8
1
  6
Continuous
100
AcDbLine
 10
152.6717440786924
 20
293.2848831336483
 30
0.0
 11
152.6927685720966
 21
293.2843571290014
 31
0.0
  0
LINE
  5
1382
330
18
100
AcDbEntity
  8
1
  6
Continuous
100
AcDbLine
 10
153.4053641771127
 20
293.0843571193583
 30
0.0
 11
153.4053641771127
 21
291.4843570433624
 31
0.0
  0
LINE
  5
1383
330
18
100
AcDbEntity
  8
1
  6
Continuous
100
AcDbLine
 10
153.2053641648133
 20
291.2843570338629
 30
0.0
 11
152.6927760858482
 21
291.2843570338629
 31
0.0
  0
LINE
  5
1384
330
18
100
AcDbEntity
  8
1
  6
Continuous
100
AcDbLine
 10
152.6914634092609
 20
293.2843571288578
 30
0.0
 11
153.2040514655464
 21
293.2843571288578
 31
0.0
  0
LINE
  5
1385
330
18
100
AcDbEntity
  8
1
  6
Continuous
100
AcDbLine
 10
153.2053641620132
 20
293.2843291613698
 30
0.0
 11
153.24120473176
 21
293.2810844955337
 31
0.0
  0
ARC
  5
1386
330
18
100
AcDbEntity
  8
1
  6
Continuous
100
AcDbCircle
 10
152.7053641438644
 20
293.5843571431071
 30
0.0
 40
0.3000000142492407
100
AcDbArc
 50
180.0000000000004
 51
265.4524900321312
  0
ARC
  5
1387
330
18
100
AcDbEntity
  8
1
  6
Continuous
100
AcDbCircle
 10
152.7054242206865
 20
290.9842969427911
 30
0.0
 40
0.3000181458533965
100
AcDbArc
 50
90.01146992585068
 51
179.9885284699987
  0
ARC
  5
1388
330
18
100
AcDbEntity
  8
1
  6
Continuous
100
AcDbCircle
 10
153.2053241163985
 20
293.0843170681432
 30
0.0
 40
0.2000120972355985
100
AcDbArc
 50
0.0114715300166828
 51
79.6656392975537
  0
ARC
  5
1389
330
18
100
AcDbEntity
  8
1
  6
Continuous
100
AcDbCircle
 10
153.2053241163985
 20
291.4843970945775
 30
0.0
 40
0.2000120972355966
100
AcDbArc
 50
270.0114715299077
 51
359.9885284699983
  0
LINE
  5
138E
330
18
100
AcDbEntity
  8
1
  6
Continuous
100
AcDbLine
 10
380.1114867801704
 20
250.2488211788798
 30
0.0
 11
380.1114867801704
 21
102.2843480568449
 31
0.0
  0
LINE
  5
138F
330
18
100
AcDbEntity
  8
1
  6
Continuous
100
AcDbLine
 10
383.1114869226628
 20
250.2488211788799
 30
0.0
 11
383.1114869226628
 21
102.2843480568449
 31
0.0
  0
LINE
  5
1397
330
18
100
AcDbEntity
  8
1
  6
Continuous
100
AcDbLine
 10
234.0072286042502
 20
97.28434781935767
 30
0.0
 11
234.0072286042502
 21
100.28434796185
 31
0.0
  0
LINE
  5
1399
330
18
100
AcDbEntity
  8
1
  6
Continuous
100
AcDbLine
 10
243.0072290317273
 20
97.28434781935767
 30
0.0
 11
243.0072290317273
 21
100.28434796185
 31
0.0
  0
LINE
  5
139A
330
18
100
AcDbEntity
  8
1
  6
Continuous
100
AcDbLine
 10
245.5072291504707
 20
97.28434781935767
 30
0.0
 11
231.5072284855066
 21
97.28434781935767
 31
0.0
  0
LINE
  5
139B
330
18
100
AcDbEntity
  8
1
  6
Continuous
100
AcDbLine
 10
231.5072284855066
 20
100.28434796185
 30
0.0
 11
245.5072291504707
 21
100.28434796185
 31
0.0
  0
LINE
  5
13A9
330
18
100
AcDbEntity
  8
1
  6
Continuous
100
AcDbLine
 10
361.8114859109669
 20
97.28434781935767
 30
0.0
 11
361.8114859109669
 21
100.28434796185
 31
0.0
  0
LINE
  5
13AA
330
18
100
AcDbEntity
  8
1
  6
Continuous
100
AcDbLine
 10
364.3114860297107
 20
97.28434781935767
 30
0.0
 11
364.3114860297107
 21
100.28434796185
 31
0.0
  0
LINE
  5
13AD
330
18
100
AcDbEntity
  8
1
  6
Continuous
100
AcDbLine
 10
380.1117030712564
 20
104.2910444094371
 30
0.0
 11
376.1049066236694
 21
100.28424796185
 31
0.0
  0
ARC
  5
13AE
330
18
100
AcDbEntity
  8
1
  6
Continuous
100
AcDbCircle
 10
378.1115055894413
 20
102.2843291525704
 30
0.0
 40
4.999973502811696
100
AcDbArc
 50
269.9997833722633
 51
0.0002166278366491
  0
LINE
  5
13AF
330
18
100
AcDbEntity
  8
1
  6
Continuous
100
AcDbLine
 10
378.1114866851755
 20
97.28434781935767
 30
0.0
 11
361.8114859109669
 21
97.28434781935767
 31
0.0
  0
LINE
  5
13B0
330
18
100
AcDbEntity
  8
1
  6
Continuous
100
AcDbLine
 10
367.6114861864523
 20
97.28434781935767
 30
0.0
 11
367.6114861864523
 21
100.28434796185
 31
0.0
  0
LINE
  5
13B1
330
18
100
AcDbEntity
  8
1
  6
Continuous
100
AcDbLine
 10
378.1114866851755
 20
100.28434796185
 30
0.0
 11
361.8114859109669
 21
100.28434796185
 31
0.0
  0
ARC
  5
13B2
330
18
100
AcDbEntity
  8
1
  6
Continuous
100
AcDbCircle
 10
378.1114866851778
 20
102.2843480568428
 30
0.0
 40
2.0000000949925
100
AcDbArc
 50
269.9999999999403
 51
0.0000000000602524
  0
LINE
  5
13B6
330
18
100
AcDbEntity
  8
1
  6
Continuous
100
AcDbLine
 10
246.0072291742196
 20
262.2843556564368
 30
0.0
 11
246.0072291742196
 21
284.2843567013807
 31
0.0
  0
LINE
  5
13B7
330
18
100
AcDbEntity
  8
1
  6
Continuous
100
AcDbLine
 10
243.032703498611
 20
274.6661840998636
 30
0.0
 11
239.2567973722456
 21
286.2843567963757
 31
0.0
  0
LINE
  5
13B8
330
18
100
AcDbEntity
  8
1
  6
Continuous
100
AcDbLine
 10
241.2072289462319
 20
271.2643560829643
 30
0.0
 11
241.2072289462319
 21
275.0643562634546
 31
0.0
  0
LINE
  5
13B9
330
18
100
AcDbEntity
  8
1
  6
Continuous
100
AcDbLine
 10
235.8072286897456
 20
275.0643560134546
 30
0.0
 11
235.8072286897456
 21
271.2643560829643
 31
0.0
  0
LINE
  5
13BA
330
18
100
AcDbEntity
  8
1
  6
Continuous
100
AcDbLine
 10
231.5072284855066
 20
286.2843567963757
 30
0.0
 11
231.5072284855066
 21
97.28434781935767
 31
0.0
  0
LINE
  5
13BD
330
18
100
AcDbEntity
  8
1
  6
Continuous
100
AcDbLine
 10
245.9785919382809
 20
258.782621742019
 30
0.0
 11
246.0071807556682
 21
258.8799503320578
 31
0.0
  0
LINE
  5
13BF
330
18
100
AcDbEntity
  8
1
  6
Continuous
100
AcDbLine
 10
246.5072291979684
 20
258.2843903485667
 30
0.0
 11
246.5072291979684
 21
258.284355466447
 31
0.0
  0
LINE
  5
13C0
330
18
100
AcDbEntity
  8
1
  6
Continuous
100
AcDbLine
 10
247.5072292302652
 20
336.2843591712486
 30
0.0
 11
247.5072292302652
 21
259.284181154226
 31
0.0
  0
LINE
  5
13C1
330
18
100
AcDbEntity
  8
1
  6
Continuous
100
AcDbLine
 10
245.5072291504709
 20
258.2844032768501
 30
0.0
 11
246.5072291979684
 21
258.2844032768501
 31
0.0
  0
LINE
  5
13C2
330
18
100
AcDbEntity
  8
1
  6
Continuous
100
AcDbLine
 10
246.0072291742196
 20
262.2843556550573
 30
0.0
 11
246.0072291742196
 21
258.8799503326573
 31
0.0
  0
ARC
  5
13C4
330
18
100
AcDbEntity
  8
1
  6
Continuous
100
AcDbCircle
 10
246.5074927373441
 20
259.2840919745698
 30
0.0
 40
0.9996273465403408
100
AcDbArc
 50
269.9848963266922
 51
0.0151036732471626
  0
LINE
  5
13C6
330
18
100
AcDbEntity
  8
1
  6
Continuous
100
AcDbLine
 10
245.5072291504707
 20
97.28434781935767
 30
0.0
 11
245.5072291504707
 21
285.6071547608907
 31
0.0
  0
ARC
  5
13C8
330
18
100
AcDbEntity
  8
1
  6
Continuous
100
AcDbCircle
 10
244.9344956555467
 20
275.2839762659277
 30
0.0
 40
1.999530391700537
100
AcDbArc
 50
197.9962512555605
 51
270.0079103504115
  0
LINE
  5
13C9
330
18
100
AcDbEntity
  8
1
  6
Continuous
100
AcDbLine
 10
235.8072289397457
 20
271.2643560829641
 30
0.0
 11
241.2072289462319
 21
271.2643560829641
 31
0.0
  0
LINE
  5
13CA
330
18
100
AcDbEntity
  8
1
  6
Continuous
100
AcDbLine
 10
245.5072291504709
 20
273.2843561789088
 30
0.0
 11
244.9347717264164
 21
273.2843561789088
 31
0.0
  0
LINE
  5
13CC
330
18
100
AcDbEntity
  8
1
  6
Continuous
100
AcDbLine
 10
228.207228328765
 20
286.2843567963757
 30
0.0
 11
226.3753098829067
 21
287.9104181044766
 31
0.0
  0
LINE
  5
13CD
330
18
100
AcDbEntity
  8
1
  6
Continuous
100
AcDbLine
 10
228.207228328765
 20
286.2843567963757
 30
0.0
 11
244.0072290786686
 21
286.2843567963757
 31
0.0
  0
LINE
  5
13CE
330
18
100
AcDbEntity
  8
1
  6
Continuous
100
AcDbLine
 10
226.375309882904
 20
288.6582956782669
 30
0.0
 11
228.207228452881
 21
290.2843570965351
 31
0.0
  0
ARC
  5
13CF
330
18
100
AcDbEntity
  8
1
  6
Continuous
100
AcDbCircle
 10
226.7070111732412
 20
288.2843568913701
 30
0.0
 40
0.4997829394711216
100
AcDbArc
 50
131.5745337385634
 51
228.4254662614005
  0
ARC
  5
13D0
330
18
100
AcDbEntity
  8
1
  6
Continuous
100
AcDbCircle
 10
244.0072012032906
 20
284.2843288254452
 30
0.0
 40
1.999988074416601
100
AcDbArc
 50
0.0007985755633281
 51
89.99920142447962
  0
LINE
  5
13D3
330
18
100
AcDbEntity
  8
1
  6
Continuous
100
AcDbLine
 10
241.2072286962318
 20
275.0643562634546
 30
0.0
 11
235.8072286897456
 21
275.0643562634546
 31
0.0
  0
LINE
  5
13D4
330
18
100
AcDbEntity
  8
1
  6
Continuous
100
AcDbLine
 10
241.2072289462319
 20
277.5528285879508
 30
0.0
 11
241.2072289462319
 21
280.2830288764198
 31
0.0
  0
LINE
  5
13D5
330
18
100
AcDbEntity
  8
1
  6
Continuous
100
AcDbLine
 10
240.859543981325
 20
281.3528287684411
 30
0.0
 11
235.8072286897456
 21
281.3528287684411
 31
0.0
  0
LINE
  5
13D6
330
18
100
AcDbEntity
  8
1
  6
Continuous
100
AcDbLine
 10
235.8072286897456
 20
281.352828518441
 30
0.0
 11
235.8072286897456
 21
277.5528285879508
 31
0.0
  0
LINE
  5
13D7
330
18
100
AcDbEntity
  8
1
  6
Continuous
100
AcDbLine
 10
235.8072289397457
 20
277.5528285879506
 30
0.0
 11
241.2072289462319
 21
277.5528285879506
 31
0.0
  0
LINE
  5
13D8
330
18
100
AcDbEntity
  8
1
  6
Continuous
100
AcDbLine
 10
235.8072286897456
 20
286.2843567963757
 30
0.0
 11
235.8072286897456
 21
283.841301092937
 31
0.0
  0
LINE
  5
13D9
330
18
100
AcDbEntity
  8
1
  6
Continuous
100
AcDbLine
 10
235.8072289397457
 20
283.8413010929371
 30
0.0
 11
240.050790475864
 21
283.8413010929371
 31
0.0
  0
ARC
  5
13F2
330
18
100
AcDbEntity
  8
1
  6
Continuous
100
AcDbCircle
 10
377.6116950395338
 20
250.2489074918585
 30
0.0
 40
2.499774571917233
100
AcDbArc
 50
359.9980216874389
 51
45.00197831426971
  0
ARC
  5
13F3
330
18
100
AcDbEntity
  8
1
  6
Continuous
100
AcDbCircle
 10
377.6119450924668
 20
250.2490110672153
 30
0.0
 40
5.49950405903879
100
AcDbArc
 50
359.998021689709
 51
45.00197831049285
  0
LINE
  5
13F4
330
18
100
AcDbEntity
  8
1
  6
Continuous
100
AcDbLine
 10
380.2113779700834
 20
262.2843556564368
 30
0.0
 11
380.2113779700834
 21
290.9843570196137
 31
0.0
  0
LINE
  5
13F5
330
18
100
AcDbEntity
  8
1
  6
Continuous
100
AcDbLine
 10
352.2114858364614
 20
262.2843556496472
 30
0.0
 11
352.2114858364614
 21
290.9843570196137
 31
0.0
  0
LINE
  5
13F6
330
18
100
AcDbEntity
  8
1
  6
Continuous
100
AcDbLine
 10
370.7114867151642
 20
263.5343557158086
 30
0.0
 11
370.7114867151642
 21
286.3361351738351
 31
0.0
  0
LINE
  5
13F7
330
18
100
AcDbEntity
  8
1
  6
Continuous
100
AcDbLine
 10
361.7114862876873
 20
286.3361351738348
 30
0.0
 11
361.7114862876873
 21
263.5343557158086
 31
0.0
  0
LINE
  5
13F8
330
18
100
AcDbEntity
  8
1
  6
Continuous
100
AcDbLine
 10
372.2114867864104
 20
287.8172655826848
 30
0.0
 11
372.2114867864104
 21
264.7843557751805
 31
0.0
  0
LINE
  5
13F9
330
18
100
AcDbEntity
  8
1
  6
Continuous
100
AcDbLine
 10
360.2114862164409
 20
264.7843557751805
 30
0.0
 11
360.2114862164409
 21
287.8172655826849
 31
0.0
  0
LINE
  5
13FA
330
18
100
AcDbEntity
  8
1
  6
Continuous
100
AcDbLine
 10
356.2114860268247
 20
258.2844646627538
 30
0.0
 11
376.211486979814
 21
258.2844646627536
 31
0.0
  0
ARC
  5
13FB
330
18
100
AcDbEntity
  8
1
  6
Continuous
100
AcDbCircle
 10
358.4615249179667
 20
263.5343557158086
 30
0.0
 40
0.7500089663596464
100
AcDbArc
 50
90.00296292857417
 51
269.9970370714264
  0
ARC
  5
13FC
330
18
100
AcDbEntity
  8
1
  6
Continuous
100
AcDbCircle
 10
360.9616839065882
 20
263.5341580612848
 30
0.0
 40
0.7497205099136323
100
AcDbArc
 50
269.9848963272731
 51
0.0151036727069262
  0
ARC
  5
13FD
330
18
100
AcDbEntity
  8
1
  6
Continuous
100
AcDbCircle
 10
356.2114860264512
 20
262.2843556564368
 30
0.0
 40
4.000000189989773
100
AcDbArc
 50
180.0000001170166
 51
269.999999985588
  0
LINE
  5
13FE
330
18
100
AcDbEntity
  8
1
  6
Continuous
100
AcDbLine
 10
360.9614862520641
 20
262.7843556801856
 30
0.0
 11
358.4614861333204
 21
262.7843556801856
 31
0.0
  0
LINE
  5
1400
330
18
100
AcDbEntity
  8
1
  6
Continuous
100
AcDbLine
 10
358.4614861333204
 20
264.2843557514317
 30
0.0
 11
359.7114861926923
 21
264.2843557514317
 31
0.0
  0
ARC
  5
1401
330
18
100
AcDbEntity
  8
1
  6
Continuous
100
AcDbCircle
 10
359.711617962382
 20
264.7842240054916
 30
0.0
 40
0.4998136732682533
100
AcDbArc
 50
269.9848963264762
 51
0.0151036734258843
  0
ARC
  5
1402
330
18
100
AcDbEntity
  8
1
  6
Continuous
100
AcDbCircle
 10
371.4612890962632
 20
263.5341580612849
 30
0.0
 40
0.7497205099137396
100
AcDbArc
 50
179.9848963273003
 51
270.0151036727185
  0
ARC
  5
1403
330
18
100
AcDbEntity
  8
1
  6
Continuous
100
AcDbCircle
 10
373.9614480848847
 20
263.5343557158086
 30
0.0
 40
0.7500089663596209
100
AcDbArc
 50
270.0029629285698
 51
89.99703707143074
  0
LINE
  5
1404
330
18
100
AcDbEntity
  8
1
  6
Continuous
100
AcDbLine
 10
378.8437197669844
 20
256.7947630357998
 30
0.0
 11
381.5005741426706
 21
254.1379086601059
 31
0.0
  0
LINE
  5
1405
330
18
100
AcDbEntity
  8
1
  6
Continuous
100
AcDbLine
 10
373.9614868695309
 20
262.7843556801856
 30
0.0
 11
371.4614867507873
 21
262.7843556801856
 31
0.0
  0
ARC
  5
1407
330
18
100
AcDbEntity
  8
1
  6
Continuous
100
AcDbCircle
 10
376.2114869764003
 20
262.2843556564369
 30
0.0
 40
4.000000189989862
100
AcDbArc
 50
270.0000000686621
 51
0.0
  0
LINE
  5
1408
330
18
100
AcDbEntity
  8
1
  6
Continuous
100
AcDbLine
 10
376.7223993226714
 20
254.6734425914667
 30
0.0
 11
379.3792536983576
 21
252.0165882157728
 31
0.0
  0
LINE
  5
1409
330
18
100
AcDbEntity
  8
1
  6
Continuous
100
AcDbLine
 10
378.1114866851756
 20
258.7644121019786
 30
0.0
 11
378.1114866851755
 21
258.5625300727473
 31
0.0
  0
ARC
  5
140A
330
18
100
AcDbEntity
  8
1
  6
Continuous
100
AcDbCircle
 10
380.6110283724456
 20
258.5623401842132
 30
0.0
 40
5.499504058595361
100
AcDbArc
 50
182.8962387703943
 51
225.0019783125966
  0
ARC
  5
140B
330
18
100
AcDbEntity
  8
1
  6
Continuous
100
AcDbCircle
 10
380.6112784259105
 20
258.5624437597158
 30
0.0
 40
2.499774572015138
100
AcDbArc
 50
179.9980216862275
 51
225.0019783126384
  0
LINE
  5
140C
330
18
100
AcDbEntity
  8
1
  6
Continuous
100
AcDbLine
 10
372.7114868101592
 20
264.2843557514317
 30
0.0
 11
373.9614868695309
 21
264.2843557514317
 31
0.0
  0
ARC
  5
140D
330
18
100
AcDbEntity
  8
1
  6
Continuous
100
AcDbCircle
 10
372.7113550404693
 20
264.7842240054916
 30
0.0
 40
0.499813673268302
100
AcDbArc
 50
179.9848963265715
 51
270.015103673519
  0
ARC
  5
140E
330
18
100
AcDbEntity
  8
1
  6
Continuous
100
AcDbCircle
 10
366.2114865014257
 20
298.2831219829888
 30
0.0
 40
10.59876512011322
100
AcDbArc
 50
244.4638924899849
 51
295.5361075100147
  0
ARC
  5
140F
330
18
100
AcDbEntity
  8
1
  6
Continuous
100
AcDbCircle
 10
366.2114865014257
 20
298.2834442942673
 30
0.0
 40
12.09908855836189
100
AcDbArc
 50
251.4892223375985
 51
288.5107776623756
  0
LINE
  5
1413
330
18
100
AcDbEntity
  8
1
  6
Continuous
100
AcDbLine
 10
351.9114858138158
 20
291.2843570338629
 30
0.0
 11
351.935151786527
 21
291.2834221140038
 31
0.0
  0
LINE
  5
1414
330
18
100
AcDbEntity
  8
1
  6
Continuous
100
AcDbLine
 10
351.9241301735614
 20
293.2843571368628
 30
0.0
 11
351.9461566840393
 21
293.284937206873
 31
0.0
  0
LINE
  5
1415
330
18
100
AcDbEntity
  8
1
  6
Continuous
100
AcDbLine
 10
351.9441539423023
 20
291.2838777799521
 30
0.0
 11
351.9241220388023
 21
291.2843570280023
 31
0.0
  0
LINE
  5
1418
330
18
100
AcDbEntity
  8
1
  6
Continuous
100
AcDbLine
 10
351.2115261907108
 20
293.0843571193583
 30
0.0
 11
351.211526190711
 21
291.4843570433624
 31
0.0
  0
LINE
  5
1419
330
18
100
AcDbEntity
  8
1
  6
Continuous
100
AcDbLine
 10
351.9240738574881
 20
291.2843570338629
 30
0.0
 11
351.411485801263
 21
291.2843570338629
 31
0.0
  0
LINE
  5
141A
330
18
100
AcDbEntity
  8
1
  6
Continuous
100
AcDbLine
 10
351.4128187247495
 20
293.2843571288578
 30
0.0
 11
351.9254067919778
 21
293.2843571288578
 31
0.0
  0
ARC
  5
141B
330
18
100
AcDbEntity
  8
1
  6
Continuous
100
AcDbCircle
 10
351.9114858222122
 20
290.9843570196137
 30
0.0
 40
0.3000000142492247
100
AcDbArc
 50
359.9999999999983
 51
85.47543287357536
  0
ARC
  5
141C
330
18
100
AcDbEntity
  8
1
  6
Continuous
100
AcDbCircle
 10
351.91142574539
 20
293.5844172199297
 30
0.0
 40
0.3000181458533832
100
AcDbArc
 50
270.0114699258496
 51
359.9885284700008
  0
ARC
  5
141D
330
18
100
AcDbEntity
  8
1
  6
Continuous
100
AcDbCircle
 10
351.4115258496781
 20
293.0843170681433
 30
0.0
 40
0.2000120972355958
100
AcDbArc
 50
90.01147152991086
 51
179.9885284699934
  0
ARC
  5
141E
330
18
100
AcDbEntity
  8
1
  6
Continuous
100
AcDbCircle
 10
351.4115258496786
 20
291.4843970945772
 30
0.0
 40
0.2000120972355967
100
AcDbArc
 50
180.0114715299246
 51
269.988528469966
  0
ARC
  5
1422
330
18
100
AcDbEntity
  8
1
  6
Continuous
100
AcDbCircle
 10
361.2114497267696
 20
287.8173235278142
 30
0.0
 40
0.9999315449199871
100
AcDbArc
 50
64.46345092322603
 51
180.0033201324911
  0
ARC
  5
1423
330
18
100
AcDbEntity
  8
1
  6
Continuous
100
AcDbCircle
 10
362.2113249844144
 20
286.336359310004
 30
0.0
 40
0.4997238654091129
100
AcDbArc
 50
71.46490313595574
 51
180.0256923998663
  0
LINE
  5
142A
330
18
100
AcDbEntity
  8
1
  6
Continuous
100
AcDbLine
 10
380.5114871890357
 20
293.2843571288578
 30
0.0
 11
380.4876706629061
 21
293.285304000618
 31
0.0
  0
LINE
  5
142B
330
18
100
AcDbEntity
  8
1
  6
Continuous
100
AcDbLine
 10
380.4988443699285
 20
291.2843570262907
 30
0.0
 11
380.476852674197
 21
291.2837788829987
 31
0.0
  0
LINE
  5
142C
330
18
100
AcDbEntity
  8
1
  6
Continuous
100
AcDbLine
 10
380.4778178740148
 20
293.2848858233191
 30
0.0
 11
380.4988815364248
 21
293.284357129641
 31
0.0
  0
LINE
  5
142D
330
18
100
AcDbEntity
  8
1
  6
Continuous
100
AcDbLine
 10
381.0114872015881
 20
291.2843570338629
 30
0.0
 11
380.498899122623
 21
291.2843570338629
 31
0.0
  0
LINE
  5
142E
330
18
100
AcDbEntity
  8
1
  6
Continuous
100
AcDbLine
 10
380.4988991451121
 20
293.2843571288578
 30
0.0
 11
381.0114872015876
 21
293.2843571288578
 31
0.0
  0
LINE
  5
1431
330
18
100
AcDbEntity
  8
1
  6
Continuous
100
AcDbLine
 10
381.2114468121404
 20
291.4843570433624
 30
0.0
 11
381.2114468121404
 21
293.0843571193583
 31
0.0
  0
ARC
  5
1432
330
18
100
AcDbEntity
  8
1
  6
Continuous
100
AcDbCircle
 10
371.2115232760818
 20
287.817323527814
 30
0.0
 40
0.99993154492005
100
AcDbArc
 50
359.9966798675043
 51
115.5365490767832
  0
ARC
  5
1433
330
18
100
AcDbEntity
  8
1
  6
Continuous
100
AcDbCircle
 10
370.2116480184374
 20
286.3363593100031
 30
0.0
 40
0.4997238654090224
100
AcDbArc
 50
359.9743076002528
 51
108.535096864672
  0
ARC
  5
1434
330
18
100
AcDbEntity
  8
1
  6
Continuous
100
AcDbCircle
 10
380.5114871806392
 20
293.5843571431071
 30
0.0
 40
0.3000000142492389
100
AcDbArc
 50
180.0000000000012
 51
265.4465888265166
  0
ARC
  5
1435
330
18
100
AcDbEntity
  8
1
  6
Continuous
100
AcDbCircle
 10
380.5115472574614
 20
290.9842969427911
 30
0.0
 40
0.3000181458533708
100
AcDbArc
 50
90.01146992584907
 51
179.9885284700024
  0
ARC
  5
1436
330
18
100
AcDbEntity
  8
1
  6
Continuous
100
AcDbCircle
 10
381.0114471531728
 20
293.0843170681435
 30
0.0
 40
0.2000120972355949
100
AcDbArc
 50
0.0114715299299681
 51
89.98852847012724
  0
ARC
  5
1437
330
18
100
AcDbEntity
  8
1
  6
Continuous
100
AcDbCircle
 10
381.0114471531733
 20
291.4843970945775
 30
0.0
 40
0.2000120972355754
100
AcDbArc
 50
270.0114715299026
 51
359.988528470004
  0
LINE
  5
1442
330
18
100
AcDbEntity
  8
1
  6
Continuous
100
AcDbLine
 10
25.53499278378831
 20
305.2843576988273
 30
0.0
 11
40.72675089928907
 21
305.2843576988273
 31
0.0
  0
LINE
  5
1443
330
18
100
AcDbEntity
  8
1
  6
Continuous
100
AcDbLine
 10
25.38087424472269
 20
336.2843591712487
 30
0.0
 11
40.88087498093318
 21
336.2843591712487
 31
0.0
  0
LINE
  5
1444
330
18
100
AcDbEntity
  8
1
  6
Continuous
100
AcDbLine
 10
40.38087495718445
 20
447.2843644434653
 30
0.0
 11
26.38087429222014
 21
447.2843644434653
 31
0.0
  0
LINE
  5
1446
330
18
100
AcDbEntity
  8
1
  6
Continuous
100
AcDbLine
 10
26.38087429222014
 20
447.2843644434653
 30
0.0
 11
26.38087429222014
 21
336.3043591712482
 31
0.0
  0
LINE
  5
144E
330
18
100
AcDbEntity
  8
1
  6
Continuous
100
AcDbLine
 10
24.38098335880704
 20
336.2843591712481
 30
0.0
 11
25.38087421593763
 21
336.2843591712481
 31
0.0
  0
LINE
  5
1455
330
18
100
AcDbEntity
  8
1
  6
Continuous
100
AcDbLine
 10
37.88087483844083
 20
447.2843644434653
 30
0.0
 11
37.88087483844083
 21
444.2843643009729
 31
0.0
  0
LINE
  5
1457
330
18
100
AcDbEntity
  8
1
  6
Continuous
100
AcDbLine
 10
28.88087441096377
 20
447.2843644434653
 30
0.0
 11
28.88087441096377
 21
444.2843643009729
 31
0.0
  0
LINE
  5
145A
330
18
100
AcDbEntity
  8
1
  6
Continuous
100
AcDbLine
 10
26.38087454222022
 20
444.2843643009729
 30
0.0
 11
40.38087495718445
 21
444.2843643009729
 31
0.0
  0
LINE
  5
1462
330
18
100
AcDbEntity
  8
1
  6
Continuous
100
AcDbLine
 10
40.38087495718445
 20
447.2843644434653
 30
0.0
 11
40.38087495718445
 21
336.2843591712487
 31
0.0
  0
LINE
  5
1463
330
18
100
AcDbEntity
  8
1
  6
Continuous
100
AcDbLine
 10
150.3053636484007
 20
441.2843641584802
 30
0.0
 11
150.3053636484007
 21
336.2843591712483
 31
0.0
  0
LINE
  5
1467
330
18
100
AcDbEntity
  8
1
  6
Continuous
100
AcDbLine
 10
45.51279355978589
 20
308.658296628212
 30
0.0
 11
43.68087511392764
 21
310.2843579363132
 31
0.0
  0
LINE
  5
1468
330
18
100
AcDbEntity
  8
1
  6
Continuous
100
AcDbLine
 10
43.68087536392613
 20
306.2843579682315
 30
0.0
 11
45.51279355978432
 21
307.9104190544244
 31
0.0
  0
LINE
  5
1469
330
18
100
AcDbEntity
  8
1
  6
Continuous
100
AcDbLine
 10
41.88087502843155
 20
310.2843579363138
 30
0.0
 11
43.68087511392764
 21
310.2843579363138
 31
0.0
  0
ARC
  5
146B
330
18
100
AcDbEntity
  8
1
  6
Continuous
100
AcDbCircle
 10
45.18109226944988
 20
308.2843578413201
 30
0.0
 40
0.4997829394710491
100
AcDbArc
 50
311.5745337384216
 51
48.42546626116551
  0
LINE
  5
146D
330
18
100
AcDbEntity
  8
1
  6
Continuous
100
AcDbLine
 10
40.88087500971822
 20
336.2843591712478
 30
0.0
 11
41.880765866847
 21
336.2843591712478
 31
0.0
  0
LINE
  5
146E
330
18
100
AcDbEntity
  8
1
  6
Continuous
100
AcDbLine
 10
128.7847402020495
 20
310.2843579363145
 30
0.0
 11
128.7847402020488
 21
336.2843591712483
 31
0.0
  0
LINE
  5
146F
330
18
100
AcDbEntity
  8
1
  6
Continuous
100
AcDbLine
 10
152.4053641296152
 20
336.2843591712482
 30
0.0
 11
152.4053641296152
 21
305.5843577130766
 31
0.0
  0
LINE
  5
1470
330
18
100
AcDbEntity
  8
1
  6
Continuous
100
AcDbLine
 10
148.0259867272534
 20
310.2843579363145
 30
0.0
 11
148.0259867272532
 21
336.2843591712484
 31
0.0
  0
LINE
  5
1471
330
18
100
AcDbEntity
  8
1
  6
Continuous
100
AcDbLine
 10
148.5827142172397
 20
310.2843579363145
 30
0.0
 11
148.5827142172397
 21
336.2843591712483
 31
0.0
  0
LINE
  5
1472
330
18
100
AcDbEntity
  8
1
  6
Continuous
100
AcDbLine
 10
128.2280127120629
 20
310.2843579363145
 30
0.0
 11
128.2280127120629
 21
336.2843591712483
 31
0.0
  0
LINE
  5
1473
330
18
100
AcDbEntity
  8
1
  6
Continuous
100
AcDbLine
 10
124.4054719959935
 20
336.2843591712488
 30
0.0
 11
124.405471995994
 21
305.5843577130766
 31
0.0
  0
ARC
  5
1474
330
18
100
AcDbEntity
  8
1
  6
Continuous
100
AcDbCircle
 10
138.4053818396169
 20
317.2843869916939
 30
0.0
 40
7.999982240635616
100
AcDbArc
 50
119.2375631496364
 51
180.0002057121233
  0
ARC
  5
1475
330
18
100
AcDbEntity
  8
1
  6
Continuous
100
AcDbCircle
 10
138.4053450896751
 20
317.2843869916464
 30
0.0
 40
7.999982240642457
100
AcDbArc
 50
359.9997942882174
 51
60.76243685046849
  0
ARC
  5
1476
330
18
100
AcDbEntity
  8
1
  6
Continuous
100
AcDbCircle
 10
138.4053780157801
 20
317.2843806876492
 30
0.0
 40
6.267935432542372
100
AcDbArc
 50
116.2113897876279
 51
180.0002049318775
  0
ARC
  5
1477
330
18
100
AcDbEntity
  8
1
  6
Continuous
100
AcDbCircle
 10
138.4053489135139
 20
317.2843806876122
 30
0.0
 40
6.267935432547621
100
AcDbArc
 50
359.9997950684584
 51
63.78861021246015
  0
ARC
  5
1478
330
18
100
AcDbEntity
  8
1
  6
Continuous
100
AcDbCircle
 10
138.4053634646509
 20
298.2840570141249
 30
0.0
 40
12.40025334667348
100
AcDbArc
 50
53.31999406818585
 51
126.6800063472982
  0
ARC
  5
1479
330
18
100
AcDbEntity
  8
1
  6
Continuous
100
AcDbCircle
 10
138.4055165399099
 20
298.2841726704914
 30
0.0
 40
13.20020897161506
100
AcDbArc
 50
97.28485373185645
 51
126.6943476621569
  0
LINE
  5
147A
330
18
100
AcDbEntity
  8
1
  6
Continuous
100
AcDbLine
 10
141.9553636332668
 20
302.3343575587098
 30
0.0
 11
134.8553632960349
 21
302.3343575587098
 31
0.0
  0
ARC
  5
147C
330
18
100
AcDbEntity
  8
1
  6
Continuous
100
AcDbCircle
 10
138.4056837880409
 20
298.2827893339465
 30
0.0
 40
12.00158392844099
100
AcDbArc
 50
105.6879007193803
 51
110.3103829582958
  0
LINE
  5
147D
330
18
100
AcDbEntity
  8
1
  6
Continuous
100
AcDbLine
 10
128.3826249091157
 20
308.6582966282108
 30
0.0
 11
128.5428970179061
 21
310.2843580608475
 31
0.0
  0
LINE
  5
1481
330
18
100
AcDbEntity
  8
1
  6
Continuous
100
AcDbLine
 10
128.5428969892732
 20
306.2843579122845
 30
0.0
 11
128.382624909115
 21
307.9104190544242
 31
0.0
  0
LINE
  5
1482
330
18
100
AcDbEntity
  8
1
  6
Continuous
100
AcDbLine
 10
127.3053629374292
 20
306.2843577463251
 30
0.0
 11
128.5428969892732
 21
306.2843577463251
 31
0.0
  0
LINE
  5
1485
330
18
100
AcDbEntity
  8
1
  6
Continuous
100
AcDbLine
 10
124.1053627770368
 20
303.2843576038323
 30
0.0
 11
124.1291460486934
 21
303.2834133785899
 31
0.0
  0
LINE
  5
1486
330
18
100
AcDbEntity
  8
1
  6
Continuous
100
AcDbLine
 10
124.1180026844931
 20
305.2843577056167
 30
0.0
 11
124.140024100159
 21
305.2849371637601
 31
0.0
  0
LINE
  5
1487
330
18
100
AcDbEntity
  8
1
  6
Continuous
100
AcDbLine
 10
124.1389781021744
 20
303.2838317949804
 30
0.0
 11
124.1179600726552
 21
303.2843576036161
 31
0.0
  0
LINE
  5
148A
330
18
100
AcDbEntity
  8
1
  6
Continuous
100
AcDbLine
 10
123.4053627521891
 20
303.4843576133319
 30
0.0
 11
123.4053627521891
 21
305.0843576893278
 31
0.0
  0
LINE
  5
148B
330
18
100
AcDbEntity
  8
1
  6
Continuous
100
AcDbLine
 10
124.1179508207133
 20
303.2843576038323
 30
0.0
 11
123.6053627644883
 21
303.2843576038323
 31
0.0
  0
LINE
  5
148C
330
18
100
AcDbEntity
  8
1
  6
Continuous
100
AcDbLine
 10
123.6053627644883
 20
305.2843576988273
 30
0.0
 11
124.1179508318791
 21
305.2843576988273
 31
0.0
  0
LINE
  5
148D
330
18
100
AcDbEntity
  8
1
  6
Continuous
100
AcDbLine
 10
123.6053627672881
 20
303.2843855713203
 30
0.0
 11
123.5695507834543
 21
303.2876250266498
 31
0.0
  0
LINE
  5
148E
330
18
100
AcDbEntity
  8
1
  6
Continuous
100
AcDbLine
 10
130.4961335907387
 20
308.8524316210129
 30
0.0
 11
130.5977998931634
 21
308.9323658532738
 31
0.0
  0
LINE
  5
148F
330
18
100
AcDbEntity
  8
1
  6
Continuous
100
AcDbLine
 10
129.9053630609225
 20
306.3296169357404
 30
0.0
 11
129.9053630609225
 21
308.3833264829633
 31
0.0
  0
LINE
  5
1490
330
18
100
AcDbEntity
  8
1
  6
Continuous
100
AcDbLine
 10
130.5177838444339
 20
308.8685569142264
 30
0.0
 11
129.9053633230205
 21
308.3833267035633
 31
0.0
  0
LINE
  5
1491
330
18
100
AcDbEntity
  8
1
  6
Continuous
100
AcDbLine
 10
130.5177837347284
 20
308.46774296847
 30
0.0
 11
130.517783734692
 21
308.8685569142264
 31
0.0
  0
LINE
  5
1492
330
18
100
AcDbEntity
  8
1
  6
Continuous
100
AcDbLine
 10
130.6491914933403
 20
307.9591838563497
 30
0.0
 11
130.8168877188297
 21
308.0912645125299
 31
0.0
  0
LINE
  5
1493
330
18
100
AcDbEntity
  8
1
  6
Continuous
100
AcDbLine
 10
130.9199365430001
 20
308.1701415202532
 30
0.0
 11
130.9981303318149
 21
308.2288637180032
 31
0.0
  0
LINE
  5
1494
330
18
100
AcDbEntity
  8
1
  6
Continuous
100
AcDbLine
 10
130.8168877188297
 20
308.0912645125299
 30
0.0
 11
130.9199365430001
 21
308.1701415202532
 31
0.0
  0
LINE
  5
1495
330
18
100
AcDbEntity
  8
1
  6
Continuous
100
AcDbLine
 10
130.5710147900836
 20
307.8959904256187
 30
0.0
 11
130.6491914933403
 21
307.9591838563497
 31
0.0
  0
LINE
  5
1496
330
18
100
AcDbEntity
  8
1
  6
Continuous
100
AcDbLine
 10
130.5324107111769
 20
307.869295925923
 30
0.0
 11
130.5710265981767
 21
307.8959746638034
 31
0.0
  0
LINE
  5
1497
330
18
100
AcDbEntity
  8
1
  6
Continuous
100
AcDbLine
 10
130.5599382200139
 20
307.8826273785503
 30
0.0
 11
130.5711183464616
 21
307.8960491026387
 31
0.0
  0
ARC
  5
1498
330
18
100
AcDbEntity
  8
1
  6
Continuous
100
AcDbCircle
 10
124.1053627854373
 20
302.9843575895831
 30
0.0
 40
0.3000000142492247
100
AcDbArc
 50
359.9999999999983
 51
85.45296004451722
  0
ARC
  5
1499
330
18
100
AcDbEntity
  8
1
  6
Continuous
100
AcDbCircle
 10
124.1053027086152
 20
305.5844177898991
 30
0.0
 40
0.300018145853385
100
AcDbArc
 50
270.0114699258472
 51
359.9885284700008
  0
ARC
  5
149A
330
18
100
AcDbEntity
  8
1
  6
Continuous
100
AcDbCircle
 10
123.6054028129033
 20
305.0843176381127
 30
0.0
 40
0.2000120972355896
100
AcDbArc
 50
90.01147152991697
 51
179.9885284699804
  0
ARC
  5
149B
330
18
100
AcDbEntity
  8
1
  6
Continuous
100
AcDbCircle
 10
123.6054028129033
 20
303.484397664547
 30
0.0
 40
0.2000120972355914
100
AcDbArc
 50
180.0114715300219
 51
259.6739629844437
  0
ARC
  5
149C
330
18
100
AcDbEntity
  8
1
  6
Continuous
100
AcDbCircle
 10
138.4053634646509
 20
298.2843573663451
 30
0.0
 40
10.40035043951771
100
AcDbArc
 50
116.3112899242065
 51
135.701313589789
  0
ARC
  5
149D
330
18
100
AcDbEntity
  8
1
  6
Continuous
100
AcDbCircle
 10
138.4053634646509
 20
298.2843573663452
 30
0.0
 40
9.000000427477074
100
AcDbArc
 50
119.6729726020275
 51
132.3167360625006
  0
ARC
  5
149E
330
18
100
AcDbEntity
  8
1
  6
Continuous
100
AcDbCircle
 10
138.4053634646509
 20
298.2843573663452
 30
0.0
 40
9.000000427477074
100
AcDbArc
 50
155.6853215326035
 51
168.3257072124036
  0
LINE
  5
14A8
330
18
100
AcDbEntity
  8
1
  6
Continuous
100
AcDbLine
 10
128.8053630086753
 20
308.2843578413196
 30
0.0
 11
129.5053634233934
 21
308.2843578413196
 31
0.0
  0
LINE
  5
14A9
330
18
100
AcDbEntity
  8
1
  6
Continuous
100
AcDbLine
 10
132.6834374849231
 20
304.8220163177013
 30
0.0
 11
133.9558526859393
 21
305.7464800745208
 31
0.0
  0
LINE
  5
14AA
330
18
100
AcDbEntity
  8
1
  6
Continuous
100
AcDbLine
 10
129.5051862262889
 20
300.1078567649058
 30
0.0
 11
129.7822795606123
 21
300.1067673044429
 31
0.0
  0
LINE
  5
14AB
330
18
100
AcDbEntity
  8
1
  6
Continuous
100
AcDbLine
 10
129.9334885903706
 20
300.2101708558265
 30
0.0
 11
130.4195079493563
 21
301.7059846357274
 31
0.0
  0
ARC
  5
14AC
330
18
100
AcDbEntity
  8
1
  6
Continuous
100
AcDbCircle
 10
134.8553702650222
 20
301.8343505659738
 30
0.0
 40
0.4999970186085692
100
AcDbArc
 50
90.00079857595151
 51
179.9992014240474
  0
ARC
  5
14AD
330
18
100
AcDbEntity
  8
1
  6
Continuous
100
AcDbCircle
 10
129.6553961127422
 20
305.6116663720673
 30
0.0
 40
0.1500082929568982
100
AcDbArc
 50
86.00976672269737
 51
179.9864587172531
  0
ARC
  5
14AE
330
18
100
AcDbEntity
  8
1
  6
Continuous
100
AcDbCircle
 10
132.5952704099934
 20
304.9433940120315
 30
0.0
 40
0.1500093965494488
100
AcDbArc
 50
230.7380260068494
 51
305.9941349433021
  0
ARC
  5
14AF
330
18
100
AcDbEntity
  8
1
  6
Continuous
100
AcDbCircle
 10
133.8676607633124
 20
305.8678397159407
 30
0.0
 40
0.1500093965487981
100
AcDbArc
 50
306.0058650565123
 51
21.2619739931915
  0
ARC
  5
14B0
330
18
100
AcDbEntity
  8
1
  6
Continuous
100
AcDbCircle
 10
129.7908159097239
 20
300.2565441668957
 30
0.0
 40
0.1500093965487705
100
AcDbArc
 50
266.7380260067361
 51
341.9941349434618
  0
ARC
  5
14B1
330
18
100
AcDbEntity
  8
1
  6
Continuous
100
AcDbCircle
 10
130.2768257777368
 20
301.7523287365775
 30
0.0
 40
0.1500093965459428
100
AcDbArc
 50
342.0058650556874
 51
57.26197399380041
  0
ARC
  5
14B2
330
18
100
AcDbEntity
  8
1
  6
Continuous
100
AcDbCircle
 10
129.6573613911643
 20
302.7394901030402
 30
0.0
 40
0.1520366584122798
100
AcDbArc
 50
180.2670416105842
 51
218.7728089532436
  0
LINE
  5
14B6
330
18
100
AcDbEntity
  8
1
  6
Continuous
100
AcDbLine
 10
128.8053630086753
 20
310.2843579363147
 30
0.0
 11
127.0053629147828
 21
310.2843579363147
 31
0.0
  0
LINE
  5
14B8
330
18
100
AcDbEntity
  8
1
  6
Continuous
100
AcDbLine
 10
130.4053630846712
 20
317.2843582687967
 30
0.0
 11
130.4053630846712
 21
315.2843581738018
 31
0.0
  0
LINE
  5
14B9
330
18
100
AcDbEntity
  8
1
  6
Continuous
100
AcDbLine
 10
132.1374139745082
 20
317.2843582687969
 30
0.0
 11
132.1374139745082
 21
315.2843581738018
 31
0.0
  0
ARC
  5
14BA
330
18
100
AcDbEntity
  8
1
  6
Continuous
100
AcDbCircle
 10
138.4022277200995
 20
315.2835915070486
 30
0.0
 40
7.997579805181228
100
AcDbArc
 50
179.9945070005267
 51
207.4830844985025
  0
ARC
  5
14BB
330
18
100
AcDbEntity
  8
1
  6
Continuous
100
AcDbCircle
 10
138.4028173292927
 20
315.2837363332905
 30
0.0
 40
6.265963687808508
100
AcDbArc
 50
179.9943134177568
 51
206.6453016373054
  0
ARC
  5
14BD
330
18
100
AcDbEntity
  8
1
  6
Continuous
100
AcDbCircle
 10
134.2918166665012
 20
309.3976275735442
 30
0.0
 40
0.1498345747311227
100
AcDbArc
 50
110.283973154718
 51
162.0284283752746
  0
LINE
  5
14BE
330
18
100
AcDbEntity
  8
1
  6
Continuous
100
AcDbLine
 10
148.4281020201901
 20
308.6582966282108
 30
0.0
 11
148.2678299236724
 21
310.2843579363133
 31
0.0
  0
ARC
  5
14C0
330
18
100
AcDbEntity
  8
1
  6
Continuous
100
AcDbCircle
 10
138.4052103895007
 20
298.2841726707355
 30
0.0
 40
13.20020897135273
100
AcDbArc
 50
53.30565174352527
 51
82.71514626852448
  0
LINE
  5
14C5
330
18
100
AcDbEntity
  8
1
  6
Continuous
100
AcDbLine
 10
148.2678299236708
 20
306.2843577463251
 30
0.0
 11
149.5053639918726
 21
306.2843577463251
 31
0.0
  0
LINE
  5
14C6
330
18
100
AcDbEntity
  8
1
  6
Continuous
100
AcDbLine
 10
149.5053639918726
 20
307.9089699732024
 30
0.0
 11
148.4281020201867
 21
307.9089699732024
 31
0.0
  0
LINE
  5
14C7
330
18
100
AcDbEntity
  8
1
  6
Continuous
100
AcDbLine
 10
148.2678299092387
 20
306.2843575998885
 30
0.0
 11
148.4281020201899
 21
307.9104190544246
 31
0.0
  0
LINE
  5
14C8
330
18
100
AcDbEntity
  8
1
  6
Continuous
100
AcDbLine
 10
146.9053638683792
 20
306.3298710031705
 30
0.0
 11
146.9053638683792
 21
308.3833264829562
 31
0.0
  0
LINE
  5
14C9
330
18
100
AcDbEntity
  8
1
  6
Continuous
100
AcDbLine
 10
146.2340113409738
 20
308.9151374860449
 30
0.0
 11
146.314616799704
 21
308.8524142190584
 31
0.0
  0
LINE
  5
14CA
330
18
100
AcDbEntity
  8
1
  6
Continuous
100
AcDbLine
 10
146.2929431945847
 20
308.4677431037899
 30
0.0
 11
146.2929431946092
 21
308.8685568324424
 31
0.0
  0
LINE
  5
14CB
330
18
100
AcDbEntity
  8
1
  6
Continuous
100
AcDbLine
 10
146.2397003307246
 20
307.8959746645281
 30
0.0
 11
146.2635718372459
 21
307.8784284779859
 31
0.0
  0
LINE
  5
14CC
330
18
100
AcDbEntity
  8
1
  6
Continuous
100
AcDbLine
 10
146.2386719742003
 20
307.8968381338587
 30
0.0
 11
145.8115199686453
 21
308.2296655374899
 31
0.0
  0
LINE
  5
14CD
330
18
100
AcDbEntity
  8
1
  6
Continuous
100
AcDbLine
 10
146.905363606281
 20
308.3833267035562
 30
0.0
 11
146.2929431946097
 21
308.8685568324422
 31
0.0
  0
ARC
  5
14CE
330
18
100
AcDbEntity
  8
1
  6
Continuous
100
AcDbCircle
 10
138.4053634646509
 20
298.2843573663451
 30
0.0
 40
10.40035043951771
100
AcDbArc
 50
80.32193494298693
 51
99.69325603239923
  0
ARC
  5
14CF
330
18
100
AcDbEntity
  8
1
  6
Continuous
100
AcDbCircle
 10
138.4053634646509
 20
298.2843573663451
 30
0.0
 40
10.40035043951771
100
AcDbArc
 50
44.32625005545711
 51
63.69606465401883
  0
ARC
  5
14D0
330
18
100
AcDbEntity
  8
1
  6
Continuous
100
AcDbCircle
 10
138.4053634646509
 20
298.2843573663452
 30
0.0
 40
9.000000427477074
100
AcDbArc
 50
11.67296321293146
 51
24.33079608677756
  0
ARC
  5
14D1
330
18
100
AcDbEntity
  8
1
  6
Continuous
100
AcDbCircle
 10
138.4053634646509
 20
298.2843573663452
 30
0.0
 40
9.000000427477074
100
AcDbArc
 50
47.6661778863154
 51
60.32565201319078
  0
ARC
  5
14D2
330
18
100
AcDbEntity
  8
1
  6
Continuous
100
AcDbCircle
 10
138.4053634646509
 20
298.2843573663452
 30
0.0
 40
9.000000427477074
100
AcDbArc
 50
83.66673967051704
 51
96.33333251552985
  0
LINE
  5
14D8
330
18
100
AcDbEntity
  8
1
  6
Continuous
100
AcDbLine
 10
137.6189676226206
 20
306.9366982670132
 30
0.0
 11
139.1917593066812
 21
306.9366982670132
 31
0.0
  0
LINE
  5
14D9
330
18
100
AcDbEntity
  8
1
  6
Continuous
100
AcDbLine
 10
142.8548742433624
 20
305.746480074521
 30
0.0
 11
144.1272894443786
 21
304.8220163177015
 31
0.0
  0
LINE
  5
14DA
330
18
100
AcDbEntity
  8
1
  6
Continuous
100
AcDbLine
 10
146.3912189799456
 20
301.7059846357277
 30
0.0
 11
146.8772383389311
 21
300.2101708558267
 31
0.0
  0
LINE
  5
14DB
330
18
100
AcDbEntity
  8
1
  6
Continuous
100
AcDbLine
 10
147.0284473686895
 20
300.1067673044429
 30
0.0
 11
147.3055567001592
 21
300.1078559594201
 31
0.0
  0
ARC
  5
14DC
330
18
100
AcDbEntity
  8
1
  6
Continuous
100
AcDbCircle
 10
141.9553566642796
 20
301.8343505659738
 30
0.0
 40
0.4999970186085692
100
AcDbArc
 50
0.000798575951712
 51
89.99920142404768
  0
ARC
  5
14DE
330
18
100
AcDbEntity
  8
1
  6
Continuous
100
AcDbCircle
 10
137.6189829793424
 20
307.0867181908455
 30
0.0
 40
0.15000939654912
100
AcDbArc
 50
194.7380260070523
 51
269.9941349433944
  0
ARC
  5
14DF
330
18
100
AcDbEntity
  8
1
  6
Continuous
100
AcDbCircle
 10
139.1917439499593
 20
307.0867181908455
 30
0.0
 40
0.1500093965491154
100
AcDbArc
 50
270.0058650566294
 51
345.2619739929497
  0
ARC
  5
14E0
330
18
100
AcDbEntity
  8
1
  6
Continuous
100
AcDbCircle
 10
142.9430661659894
 20
305.8678397159407
 30
0.0
 40
0.1500093965487873
100
AcDbArc
 50
158.738026006801
 51
233.9941349434515
  0
ARC
  5
14E1
330
18
100
AcDbEntity
  8
1
  6
Continuous
100
AcDbCircle
 10
144.2154565193084
 20
304.9433940120316
 30
0.0
 40
0.1500093965494623
100
AcDbArc
 50
234.0058650566713
 51
309.2619739931476
  0
ARC
  5
14E2
330
18
100
AcDbEntity
  8
1
  6
Continuous
100
AcDbCircle
 10
146.533901151565
 20
301.7523287365775
 30
0.0
 40
0.1500093965459348
100
AcDbArc
 50
122.7380260061918
 51
197.9941349442505
  0
ARC
  5
14E3
330
18
100
AcDbEntity
  8
1
  6
Continuous
100
AcDbCircle
 10
147.0199110195778
 20
300.2565441668957
 30
0.0
 40
0.1500093965487758
100
AcDbArc
 50
198.0058650564854
 51
273.2619739932642
  0
LINE
  5
14E8
330
18
100
AcDbEntity
  8
1
  6
Continuous
100
AcDbLine
 10
152.705364152265
 20
305.2843576988273
 30
0.0
 11
152.6815735580112
 21
305.2853025065104
 31
0.0
  0
LINE
  5
14E9
330
18
100
AcDbEntity
  8
1
  6
Continuous
100
AcDbLine
 10
152.6927213183767
 20
303.284357596256
 30
0.0
 11
152.6707296057356
 21
303.2837794509362
 31
0.0
  0
LINE
  5
14EA
330
18
100
AcDbEntity
  8
1
  6
Continuous
100
AcDbLine
 10
152.6717358762359
 20
305.2848841363757
 30
0.0
 11
152.6927674798928
 21
305.2843576990154
 31
0.0
  0
LINE
  5
14ED
330
18
100
AcDbEntity
  8
1
  6
Continuous
100
AcDbLine
 10
153.4053641771127
 20
305.0843576893278
 30
0.0
 11
153.4053641771127
 21
303.4843576133319
 31
0.0
  0
LINE
  5
14EE
330
18
100
AcDbEntity
  8
1
  6
Continuous
100
AcDbLine
 10
153.2040312413171
 20
303.2843576038323
 30
0.0
 11
152.6914431626769
 21
303.2843576038323
 31
0.0
  0
LINE
  5
14EF
330
18
100
AcDbEntity
  8
1
  6
Continuous
100
AcDbLine
 10
152.6927761083372
 20
305.2843576988273
 30
0.0
 11
153.2053641648128
 21
305.2843576988273
 31
0.0
  0
LINE
  5
14F0
330
18
100
AcDbEntity
  8
1
  6
Continuous
100
AcDbLine
 10
153.2053641620132
 20
305.2843297313394
 30
0.0
 11
153.2411926030367
 21
305.2810872767942
 31
0.0
  0
ARC
  5
14F1
330
18
100
AcDbEntity
  8
1
  6
Continuous
100
AcDbCircle
 10
152.7053641438644
 20
305.5843577130766
 30
0.0
 40
0.3000000142492372
100
AcDbArc
 50
180.0000000000007
 51
265.4515571145462
  0
ARC
  5
14F2
330
18
100
AcDbEntity
  8
1
  6
Continuous
100
AcDbCircle
 10
152.7054242206865
 20
302.9842975127605
 30
0.0
 40
0.3000181458533798
100
AcDbArc
 50
90.01147153068943
 51
179.9885284699971
  0
ARC
  5
14F3
330
18
100
AcDbEntity
  8
1
  6
Continuous
100
AcDbCircle
 10
153.2053241163982
 20
305.0843176381127
 30
0.0
 40
0.2000120972355861
100
AcDbArc
 50
0.011471529988185
 51
79.66917098338601
  0
ARC
  5
14F4
330
18
100
AcDbEntity
  8
1
  6
Continuous
100
AcDbCircle
 10
153.2053241163985
 20
303.484397664547
 30
0.0
 40
0.2000120972355966
100
AcDbArc
 50
270.0114715298029
 51
359.9885284699777
  0
LINE
  5
14FC
330
18
100
AcDbEntity
  8
1
  6
Continuous
100
AcDbLine
 10
146.4053638446305
 20
315.2843581738019
 30
0.0
 11
146.4053638446305
 21
317.2843582687967
 31
0.0
  0
LINE
  5
14FD
330
18
100
AcDbEntity
  8
1
  6
Continuous
100
AcDbLine
 10
140.6553635715201
 20
315.2843581738018
 30
0.0
 11
140.6553635715201
 21
317.2843582687967
 31
0.0
  0
LINE
  5
14FE
330
18
100
AcDbEntity
  8
1
  6
Continuous
100
AcDbLine
 10
136.1553633577816
 20
317.2843582687967
 30
0.0
 11
136.1553633577816
 21
315.2843581738018
 31
0.0
  0
LINE
  5
14FF
330
18
100
AcDbEntity
  8
1
  6
Continuous
100
AcDbLine
 10
144.6733129547935
 20
315.2843581738016
 30
0.0
 11
144.6733129547935
 21
317.2843582687967
 31
0.0
  0
ARC
  5
1501
330
18
100
AcDbEntity
  8
1
  6
Continuous
100
AcDbCircle
 10
138.4053634646509
 20
315.2843653412597
 30
0.0
 40
2.249967480061122
100
AcDbArc
 50
180.0001825178086
 51
359.9998174821909
  0
ARC
  5
1502
330
18
100
AcDbEntity
  8
1
  6
Continuous
100
AcDbCircle
 10
138.4053634646509
 20
317.2843511013388
 30
0.0
 40
2.249967480061118
100
AcDbArc
 50
0.0001825178070827
 51
179.9998174821917
  0
ARC
  5
1503
330
18
100
AcDbEntity
  8
1
  6
Continuous
100
AcDbCircle
 10
138.4079009305228
 20
315.2837389303308
 30
0.0
 40
6.265971543269097
100
AcDbArc
 50
333.3547536070463
 51
0.0056628259580976
  0
ARC
  5
1504
330
18
100
AcDbEntity
  8
1
  6
Continuous
100
AcDbCircle
 10
138.4053634646509
 20
315.2845569789261
 30
0.0
 40
4.250138119470656
100
AcDbArc
 50
246.8094231129354
 51
293.1905768868942
  0
ARC
  5
1506
330
18
100
AcDbEntity
  8
1
  6
Continuous
100
AcDbCircle
 10
135.2010763989933
 20
309.6930639696779
 30
0.0
 40
0.1498345746707366
100
AcDbArc
 50
53.97157161528667
 51
105.716026856962
  0
LINE
  5
150A
330
18
100
AcDbEntity
  8
1
  6
Continuous
100
AcDbLine
 10
149.805364014519
 20
310.284357936314
 30
0.0
 11
148.0053639206264
 21
310.284357936314
 31
0.0
  0
LINE
  5
150B
330
18
100
AcDbEntity
  8
1
  6
Continuous
100
AcDbLine
 10
135.6369297456481
 20
322.9077883212157
 30
0.0
 11
130.167829226144
 21
329.425608513595
 31
0.0
  0
LINE
  5
150C
330
18
100
AcDbEntity
  8
1
  6
Continuous
100
AcDbLine
 10
137.1592160811781
 20
323.4271839630244
 30
0.0
 11
131.4053629406578
 21
330.2843591144985
 31
0.0
  0
LINE
  5
150E
330
18
100
AcDbEntity
  8
1
  6
Continuous
100
AcDbLine
 10
129.9053630609225
 20
329.7384035089337
 30
0.0
 11
129.9053630609225
 21
336.2843591712478
 31
0.0
  0
LINE
  5
1510
330
18
100
AcDbEntity
  8
1
  6
Continuous
100
AcDbLine
 10
131.4053631321687
 20
330.2843592751954
 30
0.0
 11
131.4053631321687
 21
336.2843591712483
 31
0.0
  0
LINE
  5
1511
330
18
100
AcDbEntity
  8
1
  6
Continuous
100
AcDbLine
 10
130.1678290639654
 20
329.4256087068718
 30
0.0
 11
129.9053630638716
 21
329.7384035054176
 31
0.0
  0
LINE
  5
1519
330
18
100
AcDbEntity
  8
1
  6
Continuous
100
AcDbLine
 10
146.905363868379
 20
329.7384037602786
 30
0.0
 11
146.905363868379
 21
336.2843591712478
 31
0.0
  0
LINE
  5
151A
330
18
100
AcDbEntity
  8
1
  6
Continuous
100
AcDbLine
 10
145.405363797133
 20
330.2843588862644
 30
0.0
 11
145.405363797133
 21
336.2843591712483
 31
0.0
  0
LINE
  5
151C
330
18
100
AcDbEntity
  8
1
  6
Continuous
100
AcDbLine
 10
139.6515108481232
 20
323.4271839630249
 30
0.0
 11
145.4053636364364
 21
330.2843586947529
 31
0.0
  0
LINE
  5
151D
330
18
100
AcDbEntity
  8
1
  6
Continuous
100
AcDbLine
 10
141.1737971836532
 20
322.9077883212161
 30
0.0
 11
146.6428978653348
 21
329.4256087068731
 31
0.0
  0
LINE
  5
151E
330
18
100
AcDbEntity
  8
1
  6
Continuous
100
AcDbLine
 10
146.6428978688184
 20
329.4256087110243
 30
0.0
 11
146.905363868379
 21
329.7384035089337
 31
0.0
  0
ARC
  5
151F
330
18
100
AcDbEntity
  8
1
  6
Continuous
100
AcDbCircle
 10
138.4053634645938
 20
317.2839739933122
 30
0.0
 40
6.26817646915871
100
AcDbArc
 50
78.53316616166278
 51
101.466833837313
  0
ARC
  5
1520
330
18
100
AcDbEntity
  8
1
  6
Continuous
100
AcDbCircle
 10
138.4053634645779
 20
317.2837043570717
 30
0.0
 40
8.000450267779505
100
AcDbArc
 50
71.97885727780962
 51
108.0211427211984
  0
LINE
  5
1524
330
18
100
AcDbEntity
  8
1
  6
Continuous
100
AcDbLine
 10
124.4054719959935
 20
336.2843591712488
 30
0.0
 11
147.3053635059084
 21
336.2843591712488
 31
0.0
  0
LINE
  5
1527
330
18
100
AcDbEntity
  8
1
  6
Continuous
100
AcDbLine
 10
148.0053639206264
 20
336.2843591712484
 30
0.0
 11
152.4052549680316
 21
336.2843591712485
 31
0.0
  0
LINE
  5
152C
330
18
100
AcDbEntity
  8
1
  6
Continuous
100
AcDbLine
 10
134.0053628741923
 20
447.2843644434653
 30
0.0
 11
134.0053628741923
 21
444.2843643009729
 31
0.0
  0
LINE
  5
152D
330
18
100
AcDbEntity
  8
1
  6
Continuous
100
AcDbLine
 10
139.8053631496775
 20
447.2843644434653
 30
0.0
 11
139.8053631496775
 21
444.2843643009729
 31
0.0
  0
LINE
  5
152E
330
18
100
AcDbEntity
  8
1
  6
Continuous
100
AcDbLine
 10
136.5053629929359
 20
447.2843644434653
 30
0.0
 11
136.5053629929359
 21
444.2843643009729
 31
0.0
  0
ARC
  5
152F
330
18
100
AcDbEntity
  8
1
  6
Continuous
100
AcDbCircle
 10
144.3055364940994
 20
441.2845372892081
 30
0.0
 40
5.999755441193014
100
AcDbArc
 50
359.9983466757068
 51
90.00165332387076
  0
LINE
  5
1530
330
18
100
AcDbEntity
  8
1
  6
Continuous
100
AcDbLine
 10
134.0053628741923
 20
444.2843643009729
 30
0.0
 11
144.305363363416
 21
444.2843643009729
 31
0.0
  0
LINE
  5
1532
330
18
100
AcDbEntity
  8
1
  6
Continuous
100
AcDbLine
 10
142.6986753674036
 20
444.2845744279126
 30
0.0
 11
147.3051419804314
 21
439.678107814885
 31
0.0
  0
ARC
  5
1533
330
18
100
AcDbEntity
  8
1
  6
Continuous
100
AcDbCircle
 10
144.3053215495001
 20
441.2843223445646
 30
0.0
 40
2.999982111642276
100
AcDbArc
 50
0.0007985758006738
 51
89.99920142419892
  0
LINE
  5
1534
330
18
100
AcDbEntity
  8
1
  6
Continuous
100
AcDbLine
 10
134.0053628741923
 20
447.2843644434653
 30
0.0
 11
144.305363363416
 21
447.2843644434653
 31
0.0
  0
LINE
  5
1536
330
18
100
AcDbEntity
  8
1
  6
Continuous
100
AcDbLine
 10
124.4053250285292
 20
519.1501075723831
 30
0.0
 11
124.4053250285292
 21
503.6501068361726
 31
0.0
  0
LINE
  5
1537
330
18
100
AcDbEntity
  8
1
  6
Continuous
100
AcDbLine
 10
152.4053263584578
 20
503.6501068361726
 30
0.0
 11
152.4053263584578
 21
519.1501075723831
 31
0.0
  0
LINE
  5
1538
330
18
100
AcDbEntity
  8
1
  6
Continuous
100
AcDbLine
 10
150.5053262682126
 20
516.6501074536395
 30
0.0
 11
150.5053262682126
 21
514.850107368144
 31
0.0
  0
LINE
  5
1539
330
18
100
AcDbEntity
  8
1
  6
Continuous
100
AcDbLine
 10
131.4053253610113
 20
515.150107632393
 30
0.0
 11
131.4053253610113
 21
518.1501075248855
 31
0.0
  0
LINE
  5
153B
330
18
100
AcDbEntity
  8
1
  6
Continuous
100
AcDbLine
 10
126.3053251187743
 20
514.850107368144
 30
0.0
 11
126.3053251187743
 21
516.6501074536395
 31
0.0
  0
LINE
  5
153C
330
18
100
AcDbEntity
  8
1
  6
Continuous
100
AcDbLine
 10
153.4052984384688
 20
503.7655768954971
 30
0.0
 11
153.4052984384688
 21
519.03463751306
 31
0.0
  0
LINE
  5
153D
330
18
100
AcDbEntity
  8
1
  6
Continuous
100
AcDbLine
 10
123.4053529485213
 20
519.0346375130607
 30
0.0
 11
123.4053529485192
 21
503.7655768954976
 31
0.0
  0
LINE
  5
153F
330
18
100
AcDbEntity
  8
1
  6
Continuous
100
AcDbLine
 10
129.505325652236
 20
518.1501075248855
 30
0.0
 11
129.505325652236
 21
504.1501071099212
 31
0.0
  0
LINE
  5
1540
330
18
100
AcDbEntity
  8
1
  6
Continuous
100
AcDbLine
 10
126.5053255097436
 20
518.1501075248855
 30
0.0
 11
126.5053255097436
 21
504.1501071099212
 31
0.0
  0
LINE
  5
1541
330
18
100
AcDbEntity
  8
1
  6
Continuous
100
AcDbLine
 10
121.5053252722564
 20
504.1501068599213
 30
0.0
 11
121.5053252722564
 21
518.1501075248855
 31
0.0
  0
LINE
  5
1542
330
18
100
AcDbEntity
  8
1
  6
Continuous
100
AcDbLine
 10
139.8053253785201
 20
518.1501075248855
 30
0.0
 11
139.8053253785201
 21
513.6501073111471
 31
0.0
  0
LINE
  5
1543
330
18
100
AcDbEntity
  8
1
  6
Continuous
100
AcDbLine
 10
150.3053258772433
 20
518.1501075248855
 30
0.0
 11
150.3053258772433
 21
504.1501068599213
 31
0.0
  0
LINE
  5
1544
330
18
100
AcDbEntity
  8
1
  6
Continuous
100
AcDbLine
 10
126.3053251187743
 20
504.1501068599213
 30
0.0
 11
137.0053257584668
 21
504.1501068599213
 31
0.0
  0
LINE
  5
1545
330
18
100
AcDbEntity
  8
1
  6
Continuous
100
AcDbLine
 10
134.0053251030349
 20
506.6501069786648
 30
0.0
 11
136.5053252217785
 21
506.6501069786648
 31
0.0
  0
LINE
  5
1546
330
18
100
AcDbEntity
  8
1
  6
Continuous
100
AcDbLine
 10
134.0053251030349
 20
515.6501074061419
 30
0.0
 11
136.5053249717786
 21
515.6501074061419
 31
0.0
  0
LINE
  5
1547
330
18
100
AcDbEntity
  8
1
  6
Continuous
100
AcDbLine
 10
126.3053251187743
 20
503.8501070956718
 30
0.0
 11
126.3053251187743
 21
506.8501069881643
 31
0.0
  0
LINE
  5
1548
330
18
100
AcDbEntity
  8
1
  6
Continuous
100
AcDbLine
 10
128.8053249865629
 20
503.8501068456705
 30
0.0
 11
126.3053251187743
 21
503.8501068456721
 31
0.0
  0
LINE
  5
1549
330
18
100
AcDbEntity
  8
1
  6
Continuous
100
AcDbLine
 10
128.7847024308914
 20
503.6143870872961
 30
0.0
 11
128.8053252356117
 21
503.8501068238814
 31
0.0
  0
LINE
  5
154A
330
18
100
AcDbEntity
  8
1
  6
Continuous
100
AcDbLine
 10
128.7847023058914
 20
503.6143868707896
 30
0.0
 11
128.2279749409046
 21
502.650106788674
 31
0.0
  0
LINE
  5
154B
330
18
100
AcDbEntity
  8
1
  6
Continuous
100
AcDbLine
 10
125.4053250760266
 20
502.6501067886751
 30
0.0
 11
128.2279749409056
 21
502.6501067886735
 31
0.0
  0
LINE
  5
154C
330
18
100
AcDbEntity
  8
1
  6
Continuous
100
AcDbLine
 10
127.3053254162719
 20
500.850106703178
 30
0.0
 11
128.5428592344742
 21
500.850106703178
 31
0.0
  0
LINE
  5
154D
330
18
100
AcDbEntity
  8
1
  6
Continuous
100
AcDbLine
 10
127.3053251662718
 20
502.3501067744259
 30
0.0
 11
127.3053251662718
 21
498.8501066081846
 31
0.0
  0
LINE
  5
154E
330
18
100
AcDbEntity
  8
1
  6
Continuous
100
AcDbLine
 10
128.3678818991118
 20
498.8501066081846
 30
0.0
 11
128.7847023841647
 21
503.614386553211
 31
0.0
  0
LINE
  5
1552
330
18
100
AcDbEntity
  8
1
  6
Continuous
100
AcDbLine
 10
127.3053251662718
 20
498.8501066081846
 30
0.0
 11
128.3678818991118
 21
498.8501066081846
 31
0.0
  0
LINE
  5
1553
330
18
100
AcDbEntity
  8
1
  6
Continuous
100
AcDbLine
 10
124.8838107016595
 20
502.7965027073793
 30
0.0
 11
124.9053212507178
 21
502.7840835860901
 31
0.0
  0
LINE
  5
1554
330
18
100
AcDbEntity
  8
1
  6
Continuous
100
AcDbLine
 10
124.8838107016595
 20
502.7965027073793
 30
0.0
 11
123.505345160279
 21
503.5924068106789
 31
0.0
  0
ARC
  5
1559
330
18
100
AcDbEntity
  8
1
  6
Continuous
100
AcDbCircle
 10
125.4050615366447
 20
503.6498432967907
 30
0.0
 40
0.9996273465320324
100
AcDbArc
 50
179.984896326342
 51
270.0151036736581
  0
ARC
  5
155A
330
18
100
AcDbEntity
  8
1
  6
Continuous
100
AcDbCircle
 10
127.0052650752072
 20
502.3500466976106
 30
0.0
 40
0.3000181458453679
100
AcDbArc
 50
0.011471529056715
 51
89.98852847099703
  0
ARC
  5
155B
330
18
100
AcDbEntity
  8
1
  6
Continuous
100
AcDbCircle
 10
123.6050641963279
 20
503.7654263258921
 30
0.0
 40
0.1996988702900419
100
AcDbArc
 50
179.956808675356
 51
240.0431913240286
  0
LINE
  5
155F
330
18
100
AcDbEntity
  8
1
  6
Continuous
100
AcDbLine
 10
123.4053529485192
 20
504.1501068599213
 30
0.0
 11
121.5053252722564
 21
504.1501068599213
 31
0.0
  0
LINE
  5
1561
330
18
100
AcDbEntity
  8
1
  6
Continuous
100
AcDbLine
 10
126.0053251045251
 20
514.850107368144
 30
0.0
 11
126.0053251045251
 21
506.8501072381643
 31
0.0
  0
LINE
  5
1562
330
18
100
AcDbEntity
  8
1
  6
Continuous
100
AcDbLine
 10
126.0053251045251
 20
506.8501069881643
 30
0.0
 11
126.3053251187743
 21
506.8501069881643
 31
0.0
  0
LINE
  5
1563
330
18
100
AcDbEntity
  8
1
  6
Continuous
100
AcDbLine
 10
130.1677912928096
 20
515.1501073823933
 30
0.0
 11
134.0053251030349
 21
515.1501073823933
 31
0.0
  0
LINE
  5
1564
330
18
100
AcDbEntity
  8
1
  6
Continuous
100
AcDbLine
 10
126.3053248687742
 20
514.850107368144
 30
0.0
 11
126.0053253545252
 21
514.850107368144
 31
0.0
  0
LINE
  5
1566
330
18
100
AcDbEntity
  8
1
  6
Continuous
100
AcDbLine
 10
134.0028138542984
 20
511.1501071924035
 30
0.0
 11
130.5177460732766
 21
511.1501071924035
 31
0.0
  0
LINE
  5
1567
330
18
100
AcDbEntity
  8
1
  6
Continuous
100
AcDbLine
 10
130.5177460732766
 20
511.1501059380456
 30
0.0
 11
129.9053252897656
 21
518.1501075248858
 31
0.0
  0
LINE
  5
1568
330
18
100
AcDbEntity
  8
1
  6
Continuous
100
AcDbLine
 10
130.0710882964783
 20
516.1501074298906
 30
0.0
 11
129.5024970662097
 21
516.1501074298906
 31
0.0
  0
LINE
  5
1569
330
18
100
AcDbEntity
  8
1
  6
Continuous
100
AcDbLine
 10
134.0053251030349
 20
506.6501069786648
 30
0.0
 11
134.0053251030349
 21
515.650107156142
 31
0.0
  0
LINE
  5
156B
330
18
100
AcDbEntity
  8
1
  6
Continuous
100
AcDbLine
 10
133.7917048630429
 20
511.1501071924035
 30
0.0
 11
133.7917048630429
 21
508.9501070879091
 31
0.0
  0
LINE
  5
156C
330
18
100
AcDbEntity
  8
1
  6
Continuous
100
AcDbLine
 10
132.6849780767213
 20
508.9501070879091
 30
0.0
 11
132.6849780767213
 21
511.1501071924035
 31
0.0
  0
LINE
  5
156E
330
18
100
AcDbEntity
  8
1
  6
Continuous
100
AcDbLine
 10
134.0053251030349
 20
508.9501070879091
 30
0.0
 11
129.6657986071313
 21
508.9501070879091
 31
0.0
  0
LINE
  5
156F
330
18
100
AcDbEntity
  8
1
  6
Continuous
100
AcDbLine
 10
130.3258983628748
 20
513.3501072968979
 30
0.0
 11
129.6657986071313
 21
513.3501072968979
 31
0.0
  0
LINE
  5
1570
330
18
100
AcDbEntity
  8
1
  6
Continuous
100
AcDbLine
 10
129.5053500528174
 20
508.9501070879088
 30
0.0
 11
129.6657968826368
 21
508.9501070879088
 31
0.0
  0
LINE
  5
1571
330
18
100
AcDbEntity
  8
1
  6
Continuous
100
AcDbLine
 10
129.5053500528174
 20
513.3501072968979
 30
0.0
 11
129.6657968826368
 21
513.3501072968979
 31
0.0
  0
LINE
  5
1572
330
18
100
AcDbEntity
  8
1
  6
Continuous
100
AcDbLine
 10
131.5303361591884
 20
508.5501070689101
 30
0.0
 11
131.5303361591884
 21
507.3501070119132
 31
0.0
  0
LINE
  5
1573
330
18
100
AcDbEntity
  8
1
  6
Continuous
100
AcDbLine
 10
133.9989555736083
 20
507.3501070119132
 30
0.0
 11
131.5303361591754
 21
507.3501070119132
 31
0.0
  0
LINE
  5
1575
330
18
100
AcDbEntity
  8
1
  6
Continuous
100
AcDbLine
 10
126.4053326414
 20
508.9501070879091
 30
0.0
 11
126.5045637405576
 21
508.9501070879091
 31
0.0
  0
LINE
  5
1576
330
18
100
AcDbEntity
  8
1
  6
Continuous
100
AcDbLine
 10
126.4053326414016
 20
513.3501072968979
 30
0.0
 11
126.5047048969954
 21
513.3501072968979
 31
0.0
  0
LINE
  5
157A
330
18
100
AcDbEntity
  8
1
  6
Continuous
100
AcDbLine
 10
126.4053326414016
 20
513.3501072968979
 30
0.0
 11
126.4053326414
 21
508.9501070879091
 31
0.0
  0
LINE
  5
157C
330
18
100
AcDbEntity
  8
1
  6
Continuous
100
AcDbLine
 10
150.5053262682126
 20
506.8501069881643
 30
0.0
 11
150.5053262682126
 21
503.8501068456721
 31
0.0
  0
LINE
  5
157D
330
18
100
AcDbEntity
  8
1
  6
Continuous
100
AcDbLine
 10
137.0053260084669
 20
504.1501068599213
 30
0.0
 11
137.0053260084669
 21
507.3501070119132
 31
0.0
  0
LINE
  5
157E
330
18
100
AcDbEntity
  8
1
  6
Continuous
100
AcDbLine
 10
139.8053253785201
 20
504.1501068599213
 30
0.0
 11
139.8053253785201
 21
508.6501068236598
 31
0.0
  0
LINE
  5
1580
330
18
100
AcDbEntity
  8
1
  6
Continuous
100
AcDbLine
 10
148.582676321082
 20
502.6501067886751
 30
0.0
 11
151.4053263109603
 21
502.6501067886751
 31
0.0
  0
LINE
  5
1581
330
18
100
AcDbEntity
  8
1
  6
Continuous
100
AcDbLine
 10
150.5053260182125
 20
503.8501068456721
 30
0.0
 11
148.0053261713412
 21
503.8501068456721
 31
0.0
  0
LINE
  5
1582
330
18
100
AcDbEntity
  8
1
  6
Continuous
100
AcDbLine
 10
149.5053262207151
 20
500.850106703178
 30
0.0
 11
148.2677921525128
 21
500.8501067031772
 31
0.0
  0
LINE
  5
1583
330
18
100
AcDbEntity
  8
1
  6
Continuous
100
AcDbLine
 10
148.442769487875
 20
498.8501066081848
 30
0.0
 11
149.5053262207151
 21
498.8501066081846
 31
0.0
  0
LINE
  5
1584
330
18
100
AcDbEntity
  8
1
  6
Continuous
100
AcDbLine
 10
150.3053258772433
 20
504.1501068599213
 30
0.0
 11
139.8053253785201
 21
504.1501068599213
 31
0.0
  0
LINE
  5
1585
330
18
100
AcDbEntity
  8
1
  6
Continuous
100
AcDbLine
 10
148.5826763210825
 20
502.650107005182
 30
0.0
 11
148.0259489560949
 21
503.6143870872987
 31
0.0
  0
LINE
  5
1586
330
18
100
AcDbEntity
  8
1
  6
Continuous
100
AcDbLine
 10
148.0053261713412
 20
503.8501065956721
 30
0.0
 11
148.0259489560958
 21
503.6143870872989
 31
0.0
  0
LINE
  5
1587
330
18
100
AcDbEntity
  8
1
  6
Continuous
100
AcDbLine
 10
148.0259490076528
 20
503.6143864979981
 30
0.0
 11
148.442769487875
 21
498.8501066081848
 31
0.0
  0
LINE
  5
158B
330
18
100
AcDbEntity
  8
1
  6
Continuous
100
AcDbLine
 10
149.5053262207151
 20
498.8501066081846
 30
0.0
 11
149.5053262207151
 21
502.3501067744259
 31
0.0
  0
LINE
  5
158F
330
18
100
AcDbEntity
  8
1
  6
Continuous
100
AcDbLine
 10
153.3053062267068
 20
503.5924068106815
 30
0.0
 11
151.9288708877315
 21
502.7976748452838
 31
0.0
  0
LINE
  5
1591
330
18
100
AcDbEntity
  8
1
  6
Continuous
100
AcDbLine
 10
151.9053303449525
 20
502.7840837065737
 30
0.0
 11
151.9288708877315
 21
502.7976748452838
 31
0.0
  0
ARC
  5
1597
330
18
100
AcDbEntity
  8
1
  6
Continuous
100
AcDbCircle
 10
151.4055898503421
 20
503.6498432967907
 30
0.0
 40
0.9996273465320308
100
AcDbArc
 50
269.9848963263435
 51
0.0151036736579376
  0
ARC
  5
1598
330
18
100
AcDbEntity
  8
1
  6
Continuous
100
AcDbCircle
 10
149.8053863117798
 20
502.3500466976106
 30
0.0
 40
0.3000181458453389
100
AcDbArc
 50
90.01147152901658
 51
179.9885284709599
  0
LINE
  5
1599
330
18
100
AcDbEntity
  8
1
  6
Continuous
100
AcDbLine
 10
150.1912344245925
 20
512.1501072399008
 30
0.0
 11
145.4696209693405
 21
512.1501072399008
 31
0.0
  0
LINE
  5
159A
330
18
100
AcDbEntity
  8
1
  6
Continuous
100
AcDbLine
 10
150.1912344245925
 20
510.1501071449063
 30
0.0
 11
145.4696209693405
 21
510.1501071449063
 31
0.0
  0
LINE
  5
159B
330
18
100
AcDbEntity
  8
1
  6
Continuous
100
AcDbLine
 10
139.8053253785201
 20
515.1501073823933
 30
0.0
 11
136.5053252217785
 21
515.1501073823933
 31
0.0
  0
LINE
  5
159C
330
18
100
AcDbEntity
  8
1
  6
Continuous
100
AcDbLine
 10
139.8045645942163
 20
515.5145258454393
 30
0.0
 11
139.6513966203956
 21
515.1501855483245
 31
0.0
  0
LINE
  5
159F
330
18
100
AcDbEntity
  8
1
  6
Continuous
100
AcDbLine
 10
136.7316606614238
 20
515.1501073823933
 30
0.0
 11
136.7316606614238
 21
513.6501073111471
 31
0.0
  0
LINE
  5
15A0
330
18
100
AcDbEntity
  8
1
  6
Continuous
100
AcDbLine
 10
139.8053253785201
 20
508.6501070736598
 30
0.0
 11
136.5053254717786
 21
508.6501070736598
 31
0.0
  0
LINE
  5
15A1
330
18
100
AcDbEntity
  8
1
  6
Continuous
100
AcDbLine
 10
136.5053252217785
 20
508.6501070736598
 30
0.0
 11
136.5053252217785
 21
506.6501072286647
 31
0.0
  0
LINE
  5
15A2
330
18
100
AcDbEntity
  8
1
  6
Continuous
100
AcDbLine
 10
136.5053252217785
 20
515.6501074061419
 30
0.0
 11
136.5053252217785
 21
513.6501075611468
 31
0.0
  0
LINE
  5
15A3
330
18
100
AcDbEntity
  8
1
  6
Continuous
100
AcDbLine
 10
136.5053252217785
 20
513.6501073111471
 30
0.0
 11
139.8053251285202
 21
513.6501073111471
 31
0.0
  0
LINE
  5
15A7
330
18
100
AcDbEntity
  8
1
  6
Continuous
100
AcDbLine
 10
139.8070429311517
 20
507.3501070119132
 30
0.0
 11
136.5053252217785
 21
507.3501070119132
 31
0.0
  0
LINE
  5
15A9
330
18
100
AcDbEntity
  8
1
  6
Continuous
100
AcDbLine
 10
150.5053265182127
 20
506.8501069881643
 30
0.0
 11
150.8053260324618
 21
506.8501069881643
 31
0.0
  0
LINE
  5
15AA
330
18
100
AcDbEntity
  8
1
  6
Continuous
100
AcDbLine
 10
150.8053262824619
 20
506.8501069881643
 30
0.0
 11
150.8053262824619
 21
514.850107118144
 31
0.0
  0
LINE
  5
15AB
330
18
100
AcDbEntity
  8
1
  6
Continuous
100
AcDbLine
 10
150.8053262824619
 20
514.850107368144
 30
0.0
 11
150.5053262682126
 21
514.850107368144
 31
0.0
  0
LINE
  5
15AF
330
18
100
AcDbEntity
  8
1
  6
Continuous
100
AcDbLine
 10
150.3059202794302
 20
508.9501070879091
 30
0.0
 11
150.4053187455845
 21
508.9501070879091
 31
0.0
  0
LINE
  5
15B0
330
18
100
AcDbEntity
  8
1
  6
Continuous
100
AcDbLine
 10
150.3057647824643
 20
513.3501072968979
 30
0.0
 11
150.4053187455829
 21
513.3501072968979
 31
0.0
  0
LINE
  5
15B4
330
18
100
AcDbEntity
  8
1
  6
Continuous
100
AcDbLine
 10
150.4053187455845
 20
508.9501070879091
 30
0.0
 11
150.4053187455829
 21
513.3501072968979
 31
0.0
  0
LINE
  5
15B6
330
18
100
AcDbEntity
  8
1
  6
Continuous
100
AcDbLine
 10
151.4053263109603
 20
520.1501076198804
 30
0.0
 11
125.4053250760266
 21
520.1501076198804
 31
0.0
  0
LINE
  5
15B9
330
18
100
AcDbEntity
  8
1
  6
Continuous
100
AcDbLine
 10
126.4719917933595
 20
518.6215120680672
 30
0.0
 11
127.8053258566883
 21
518.1501072891832
 31
0.0
  0
LINE
  5
15BA
330
18
100
AcDbEntity
  8
1
  6
Continuous
100
AcDbLine
 10
126.3053248687742
 20
516.6501081607462
 30
0.0
 11
125.833920575593
 21
517.9834408503027
 31
0.0
  0
LINE
  5
15BC
330
18
100
AcDbEntity
  8
1
  6
Continuous
100
AcDbLine
 10
124.8817688266822
 20
520.0025328241124
 30
0.0
 11
123.5053451602809
 21
519.2078075978761
 31
0.0
  0
LINE
  5
15BE
330
18
100
AcDbEntity
  8
1
  6
Continuous
100
AcDbLine
 10
124.9053210420327
 20
520.0161307019848
 30
0.0
 11
124.8817688266822
 21
520.0025328241124
 31
0.0
  0
ARC
  5
15C2
330
18
100
AcDbEntity
  8
1
  6
Continuous
100
AcDbCircle
 10
125.4050615366518
 20
519.1503711117587
 30
0.0
 40
0.9996273465402667
100
AcDbArc
 50
89.9848963267439
 51
180.0151036732956
  0
ARC
  5
15C3
330
18
100
AcDbEntity
  8
1
  6
Continuous
100
AcDbCircle
 10
126.3053412797034
 20
518.1500913639572
 30
0.0
 40
0.4999677663181103
100
AcDbArc
 50
70.53114261436279
 51
199.4688573854485
  0
ARC
  5
15C4
330
18
100
AcDbEntity
  8
1
  6
Continuous
100
AcDbCircle
 10
123.6050641963142
 20
519.0347880826703
 30
0.0
 40
0.1996988702759055
100
AcDbArc
 50
119.9568086731655
 51
180.0431913258152
  0
LINE
  5
15C7
330
18
100
AcDbEntity
  8
1
  6
Continuous
100
AcDbLine
 10
129.9053252897656
 20
518.1501075248858
 30
0.0
 11
125.8053735136466
 21
518.1501075248855
 31
0.0
  0
LINE
  5
15C8
330
18
100
AcDbEntity
  8
1
  6
Continuous
100
AcDbLine
 10
123.4053529485195
 20
518.1501075248855
 30
0.0
 11
121.5053252722564
 21
518.1501075248855
 31
0.0
  0
LINE
  5
15CA
330
18
100
AcDbEntity
  8
1
  6
Continuous
100
AcDbLine
 10
150.3386595936274
 20
518.6215120680674
 30
0.0
 11
149.0053261969656
 21
518.1501075248851
 31
0.0
  0
LINE
  5
15CB
330
18
100
AcDbEntity
  8
1
  6
Continuous
100
AcDbLine
 10
131.4053253610113
 20
518.1501075248855
 30
0.0
 11
150.305254164135
 21
518.1501075248855
 31
0.0
  0
LINE
  5
15CD
330
18
100
AcDbEntity
  8
1
  6
Continuous
100
AcDbLine
 10
150.5053263515462
 20
516.6501076893417
 30
0.0
 11
150.9767308113935
 21
517.9834408503027
 31
0.0
  0
LINE
  5
15CE
330
18
100
AcDbEntity
  8
1
  6
Continuous
100
AcDbLine
 10
151.928058358135
 20
520.0030086774567
 30
0.0
 11
151.9053301362703
 21
520.0161308224688
 31
0.0
  0
LINE
  5
15CF
330
18
100
AcDbEntity
  8
1
  6
Continuous
100
AcDbLine
 10
153.3053062267068
 20
519.2078075978757
 30
0.0
 11
151.928058358135
 21
520.0030086774567
 31
0.0
  0
LINE
  5
15D0
330
18
100
AcDbEntity
  8
1
  6
Continuous
100
AcDbLine
 10
152.7927383814092
 20
519.503785433257
 30
0.0
 11
152.760144933434
 21
519.5226032692191
 31
0.0
  0
ARC
  5
15D4
330
18
100
AcDbEntity
  8
1
  6
Continuous
100
AcDbCircle
 10
151.4055898503349
 20
519.1503711117587
 30
0.0
 40
0.9996273465404822
100
AcDbArc
 50
359.9848963266991
 51
90.01510367324289
  0
ARC
  5
15D5
330
18
100
AcDbEntity
  8
1
  6
Continuous
100
AcDbCircle
 10
150.5053101072835
 20
518.1500913639572
 30
0.0
 40
0.4999677663181086
100
AcDbArc
 50
340.5311426145514
 51
109.4688573856375
  0
ARC
  5
15D6
330
18
100
AcDbEntity
  8
1
  6
Continuous
100
AcDbCircle
 10
153.2055871906726
 20
519.0347880826703
 30
0.0
 40
0.199698870275902
100
AcDbArc
 50
359.9568086740447
 51
60.04319132656579
  0
LINE
  5
15D7
330
18
100
AcDbEntity
  8
1
  6
Continuous
100
AcDbLine
 10
245.5072291504709
 20
441.2843641584806
 30
0.0
 11
245.5072291504709
 21
336.2843591712488
 31
0.0
  0
LINE
  5
15D8
330
18
100
AcDbEntity
  8
1
  6
Continuous
100
AcDbLine
 10
231.5072284855068
 20
441.2843641584802
 30
0.0
 11
231.5072284855066
 21
336.2843591712487
 31
0.0
  0
LINE
  5
15D9
330
18
100
AcDbEntity
  8
1
  6
Continuous
100
AcDbLine
 10
230.0071864630278
 20
310.2843579363137
 30
0.0
 11
228.2072283287645
 21
310.2843579363141
 31
0.0
  0
LINE
  5
15DA
330
18
100
AcDbEntity
  8
1
  6
Continuous
100
AcDbLine
 10
226.3753098829051
 20
308.6582966282122
 30
0.0
 11
228.2072283287645
 21
310.2843579363141
 31
0.0
  0
LINE
  5
15DB
330
18
100
AcDbEntity
  8
1
  6
Continuous
100
AcDbLine
 10
228.2072281417956
 20
306.2843579122845
 30
0.0
 11
226.3753098829056
 21
307.9104190544233
 31
0.0
  0
ARC
  5
15DC
330
18
100
AcDbEntity
  8
1
  6
Continuous
100
AcDbCircle
 10
226.7070111732412
 20
308.2843578413201
 30
0.0
 40
0.4997829394711287
100
AcDbArc
 50
131.5745337388418
 51
228.4254662615745
  0
LINE
  5
15F7
330
18
100
AcDbEntity
  8
1
  6
Continuous
100
AcDbLine
 10
231.0072284617579
 20
336.2843591712488
 30
0.0
 11
246.5072291979684
 21
336.2843591712488
 31
0.0
  0
LINE
  5
15F8
330
18
100
AcDbEntity
  8
1
  6
Continuous
100
AcDbLine
 10
230.007337575844
 20
336.2843591712485
 30
0.0
 11
231.0072284329728
 21
336.2843591712486
 31
0.0
  0
LINE
  5
15F9
330
18
100
AcDbEntity
  8
1
  6
Continuous
100
AcDbLine
 10
246.5072292267534
 20
336.2843591712487
 30
0.0
 11
247.5071200838844
 21
336.2843591712486
 31
0.0
  0
LINE
  5
15FA
330
18
100
AcDbEntity
  8
1
  6
Continuous
100
AcDbLine
 10
231.5072284855066
 20
441.2843641605499
 30
0.0
 11
231.5072284855066
 21
447.2842927304011
 31
0.0
  0
LINE
  5
15FB
330
18
100
AcDbEntity
  8
1
  6
Continuous
100
AcDbLine
 10
245.5072291504709
 20
447.2842927279033
 30
0.0
 11
245.5072291504709
 21
441.2843641605499
 31
0.0
  0
LINE
  5
15FE
330
18
100
AcDbEntity
  8
1
  6
Continuous
100
AcDbLine
 10
237.5072287704913
 20
442.4486595355558
 30
0.0
 11
237.5072287704913
 21
447.1702729908486
 31
0.0
  0
LINE
  5
15FF
330
18
100
AcDbEntity
  8
1
  6
Continuous
100
AcDbLine
 10
239.5072288654862
 20
442.4486595355558
 30
0.0
 11
239.5072288654862
 21
447.1702729908486
 31
0.0
  0
LINE
  5
1605
330
18
100
AcDbEntity
  8
1
  6
Continuous
100
AcDbLine
 10
245.5072291504709
 20
447.2842927279033
 30
0.0
 11
231.5072284855066
 21
447.2842927279033
 31
0.0
  0
LINE
  5
1608
330
18
100
AcDbEntity
  8
1
  6
Continuous
100
AcDbLine
 10
357.3114864601682
 20
441.2843641584807
 30
0.0
 11
357.3114864601682
 21
336.2843591712488
 31
0.0
  0
LINE
  5
1609
330
18
100
AcDbEntity
  8
1
  6
Continuous
100
AcDbLine
 10
354.3114863176758
 20
441.2843641584806
 30
0.0
 11
354.3114863176758
 21
336.2843591712488
 31
0.0
  0
LINE
  5
160A
330
18
100
AcDbEntity
  8
1
  6
Continuous
100
AcDbLine
 10
380.21148716639
 20
336.2843591712483
 30
0.0
 11
380.21148716639
 21
305.5843577130766
 31
0.0
  0
LINE
  5
160B
330
18
100
AcDbEntity
  8
1
  6
Continuous
100
AcDbLine
 10
352.2115950327686
 20
336.2843591712483
 30
0.0
 11
352.2115950327683
 21
305.5843577130766
 31
0.0
  0
ARC
  5
160C
330
18
100
AcDbEntity
  8
1
  6
Continuous
100
AcDbCircle
 10
366.2114865014257
 20
317.2843582687967
 30
0.0
 40
5.289537784000278
100
AcDbArc
 50
0.0
 51
89.99992220877674
  0
ARC
  5
160D
330
18
100
AcDbEntity
  8
1
  6
Continuous
100
AcDbCircle
 10
366.2114865014257
 20
317.2843582687967
 30
0.0
 40
5.289192280887235
100
AcDbArc
 50
89.99992220877674
 51
180.0000000000398
  0
ARC
  5
160E
330
18
100
AcDbEntity
  8
1
  6
Continuous
100
AcDbCircle
 10
366.2114865014257
 20
317.2843582687967
 30
0.0
 40
3.517162649840723
100
AcDbArc
 50
359.9999999999996
 51
89.99985488947878
  0
ARC
  5
160F
330
18
100
AcDbEntity
  8
1
  6
Continuous
100
AcDbCircle
 10
366.2114865014257
 20
317.2843582687967
 30
0.0
 40
3.516959660553009
100
AcDbArc
 50
89.99985488947878
 51
179.9999999994023
  0
ARC
  5
1611
330
18
100
AcDbEntity
  8
1
  6
Continuous
100
AcDbCircle
 10
366.2114865014257
 20
315.2843581738018
 30
0.0
 40
5.289613136627711
100
AcDbArc
 50
269.9999222087771
 51
0.0000000000398969
  0
ARC
  5
1612
330
18
100
AcDbEntity
  8
1
  6
Continuous
100
AcDbCircle
 10
366.2114865014257
 20
315.2843581738018
 30
0.0
 40
3.517220284660236
100
AcDbArc
 50
269.9998548894792
 51
359.9999999994027
  0
ARC
  5
1613
330
18
100
AcDbEntity
  8
1
  6
Continuous
100
AcDbCircle
 10
366.2114865014257
 20
315.2843653412597
 30
0.0
 40
2.24996748006112
100
AcDbArc
 50
180.0001825178086
 51
359.9998174821909
  0
ARC
  5
1614
330
18
100
AcDbEntity
  8
1
  6
Continuous
100
AcDbCircle
 10
366.2114865014257
 20
317.2843511013388
 30
0.0
 40
2.249967480061115
100
AcDbArc
 50
0.0001825178083041
 51
179.9998174821929
  0
ARC
  5
1617
330
18
100
AcDbEntity
  8
1
  6
Continuous
100
AcDbCircle
 10
366.2114865014257
 20
315.2843581738018
 30
0.0
 40
5.289436341300326
100
AcDbArc
 50
180.0
 51
269.9999222087769
  0
LINE
  5
161C
330
18
100
AcDbEntity
  8
1
  6
Continuous
100
AcDbLine
 10
351.92412541126
 20
305.2843577055357
 30
0.0
 11
351.9461464110566
 21
305.2849371179203
 31
0.0
  0
LINE
  5
1620
330
18
100
AcDbEntity
  8
1
  6
Continuous
100
AcDbLine
 10
351.211526190711
 20
305.0843576893278
 30
0.0
 11
351.211526190711
 21
303.4843576133319
 31
0.0
  0
LINE
  5
1621
330
18
100
AcDbEntity
  8
1
  6
Continuous
100
AcDbLine
 10
351.9240738574881
 20
303.2843576038323
 30
0.0
 11
351.411485801263
 21
303.2843576038323
 31
0.0
  0
LINE
  5
1622
330
18
100
AcDbEntity
  8
1
  6
Continuous
100
AcDbLine
 10
351.411485801263
 20
305.2843576988273
 30
0.0
 11
351.9240738686538
 21
305.2843576988273
 31
0.0
  0
ARC
  5
1623
330
18
100
AcDbEntity
  8
1
  6
Continuous
100
AcDbCircle
 10
351.9114858222122
 20
302.9843575895831
 30
0.0
 40
0.3000000142492372
100
AcDbArc
 50
0.0000000000008142
 51
85.47659319633169
  0
ARC
  5
1624
330
18
100
AcDbEntity
  8
1
  6
Continuous
100
AcDbCircle
 10
351.91142574539
 20
305.5844177898991
 30
0.0
 40
0.3000181458533868
100
AcDbArc
 50
270.0114699258496
 51
359.9885284699975
  0
ARC
  5
1625
330
18
100
AcDbEntity
  8
1
  6
Continuous
100
AcDbCircle
 10
351.4115258496781
 20
305.0843176381127
 30
0.0
 40
0.2000120972355869
100
AcDbArc
 50
90.01147152989453
 51
179.9885284699987
  0
ARC
  5
1626
330
18
100
AcDbEntity
  8
1
  6
Continuous
100
AcDbCircle
 10
351.4115258496801
 20
303.4843976645488
 30
0.0
 40
0.2000120972356007
100
AcDbArc
 50
180.0114715305642
 51
269.9885284695035
  0
LINE
  5
162D
330
18
100
AcDbEntity
  8
1
  6
Continuous
100
AcDbLine
 10
363.9614863945563
 20
315.2843581738018
 30
0.0
 11
363.9614863945563
 21
317.2843582687967
 31
0.0
  0
ARC
  5
162E
330
18
100
AcDbEntity
  8
1
  6
Continuous
100
AcDbCircle
 10
366.2114865014257
 20
315.2843581738018
 30
0.0
 40
3.516845740623605
100
AcDbArc
 50
180.0
 51
269.9998548894792
  0
LINE
  5
162F
330
18
100
AcDbEntity
  8
1
  6
Continuous
100
AcDbLine
 10
380.5114871890355
 20
305.2843576988273
 30
0.0
 11
380.4879084632258
 21
305.2852857273696
 31
0.0
  0
LINE
  5
1630
330
18
100
AcDbEntity
  8
1
  6
Continuous
100
AcDbLine
 10
380.4988390125665
 20
303.2843575947063
 30
0.0
 11
380.4768411876959
 21
303.2837787161313
 31
0.0
  0
LINE
  5
1631
330
18
100
AcDbEntity
  8
1
  6
Continuous
100
AcDbLine
 10
380.4789413693831
 20
305.2848301271552
 30
0.0
 11
380.4988966387572
 21
305.2843576988432
 31
0.0
  0
LINE
  5
1632
330
18
100
AcDbEntity
  8
1
  6
Continuous
100
AcDbLine
 10
381.0114872015881
 20
303.2843576038323
 30
0.0
 11
380.498899122623
 21
303.2843576038323
 31
0.0
  0
LINE
  5
1633
330
18
100
AcDbEntity
  8
1
  6
Continuous
100
AcDbLine
 10
380.4988991451121
 20
305.2843576988273
 30
0.0
 11
381.0114872015876
 21
305.2843576988273
 31
0.0
  0
LINE
  5
1636
330
18
100
AcDbEntity
  8
1
  6
Continuous
100
AcDbLine
 10
381.2114468121404
 20
303.4843576133319
 30
0.0
 11
381.2114468121404
 21
305.0843576893278
 31
0.0
  0
ARC
  5
1637
330
18
100
AcDbEntity
  8
1
  6
Continuous
100
AcDbCircle
 10
380.5114871806392
 20
305.5843577130766
 30
0.0
 40
0.3000000142492407
100
AcDbArc
 50
179.9999999999996
 51
265.4921477015153
  0
ARC
  5
1638
330
18
100
AcDbEntity
  8
1
  6
Continuous
100
AcDbCircle
 10
380.5115472574614
 20
302.9842975127605
 30
0.0
 40
0.3000181458533921
100
AcDbArc
 50
90.01146992585033
 51
179.9885284699967
  0
ARC
  5
1639
330
18
100
AcDbEntity
  8
1
  6
Continuous
100
AcDbCircle
 10
381.0114471531712
 20
305.0843176381107
 30
0.0
 40
0.2000120972355847
100
AcDbArc
 50
0.011471530560176
 51
89.98852846966984
  0
ARC
  5
163A
330
18
100
AcDbEntity
  8
1
  6
Continuous
100
AcDbCircle
 10
381.0114471531733
 20
303.4843976645469
 30
0.0
 40
0.2000120972355877
100
AcDbArc
 50
270.0114715299067
 51
359.988528469993
  0
LINE
  5
1641
330
18
100
AcDbEntity
  8
1
  6
Continuous
100
AcDbLine
 10
368.461486608295
 20
317.2843582687967
 30
0.0
 11
368.461486608295
 21
315.2843581738018
 31
0.0
  0
LINE
  5
1644
330
18
100
AcDbEntity
  8
1
  6
Continuous
100
AcDbLine
 10
353.2114858839588
 20
336.2843591712488
 30
0.0
 11
379.2114871188926
 21
336.2843591712488
 31
0.0
  0
LINE
  5
165E
330
18
100
AcDbEntity
  8
1
  6
Continuous
100
AcDbLine
 10
352.2115949980439
 20
336.2843591712484
 30
0.0
 11
353.2114858551738
 21
336.2843591712484
 31
0.0
  0
LINE
  5
1673
330
18
100
AcDbEntity
  8
1
  6
Continuous
100
AcDbLine
 10
379.2114871476776
 20
336.2843591712483
 30
0.0
 11
380.2113780048075
 21
336.2843591712483
 31
0.0
  0
LINE
  5
1676
330
18
100
AcDbEntity
  8
1
  6
Continuous
100
AcDbLine
 10
364.811486816399
 20
447.2843644434653
 30
0.0
 11
364.811486816399
 21
444.2843643009729
 31
0.0
  0
ARC
  5
1677
330
18
100
AcDbEntity
  8
1
  6
Continuous
100
AcDbCircle
 10
360.3113134719771
 20
441.2845372892081
 30
0.0
 40
5.999755441193014
100
AcDbArc
 50
89.99834667612923
 51
180.0016533242931
  0
LINE
  5
1678
330
18
100
AcDbEntity
  8
1
  6
Continuous
100
AcDbLine
 10
370.6114870918843
 20
444.2843643009729
 30
0.0
 11
360.3114866026605
 21
444.2843643009729
 31
0.0
  0
LINE
  5
1679
330
18
100
AcDbEntity
  8
1
  6
Continuous
100
AcDbLine
 10
357.3117079856451
 20
439.678107814885
 30
0.0
 11
361.9181745986729
 21
444.2845744279126
 31
0.0
  0
ARC
  5
167A
330
18
100
AcDbEntity
  8
1
  6
Continuous
100
AcDbCircle
 10
360.3115284165764
 20
441.2843223445646
 30
0.0
 40
2.999982111642278
100
AcDbArc
 50
90.00079857580169
 51
179.9992014241993
  0
LINE
  5
167B
330
18
100
AcDbEntity
  8
1
  6
Continuous
100
AcDbLine
 10
370.6114870918843
 20
447.2843644434653
 30
0.0
 11
360.3114866026605
 21
447.2843644434653
 31
0.0
  0
LINE
  5
167C
330
18
100
AcDbEntity
  8
1
  6
Continuous
100
AcDbLine
 10
370.6114870918843
 20
447.2843644434653
 30
0.0
 11
370.6114870918843
 21
444.2843643009729
 31
0.0
  0
LINE
  5
167D
330
18
100
AcDbEntity
  8
1
  6
Continuous
100
AcDbLine
 10
368.1114869731406
 20
447.2843644434653
 30
0.0
 11
368.1114869731406
 21
444.2843643009729
 31
0.0
  0
ARC
  5
168C
330
18
100
AcDbEntity
  8
1
  6
Continuous
100
AcDbCircle
 10
129.2651206699488
 20
310.7075676811806
 30
0.0
 40
2.226414744131635
100
AcDbArc
 50
303.5670646886277
 51
23.4381861332512
  0
ARC
  5
168D
330
18
100
AcDbEntity
  8
1
  6
Continuous
100
AcDbCircle
 10
130.7722542246713
 20
311.6463655660755
 30
0.0
 40
2.192146912551228
100
AcDbArc
 50
296.7006768746766
 51
22.17225512165668
  0
LINE
  5
168E
330
18
100
AcDbEntity
  8
4
  6
CENTER
 48
0.4
100
AcDbLine
 10
138.4053634646509
 20
253.284355466447
 30
0.0
 11
138.4053634646509
 21
341.2843591712487
 31
0.0
  0
ARC
  5
168F
330
18
100
AcDbEntity
  8
1
  6
Continuous
100
AcDbCircle
 10
146.0384727046305
 20
311.6463655660755
 30
0.0
 40
2.192146912551228
100
AcDbArc
 50
157.8277448783433
 51
243.2993231253233
  0
ARC
  5
1691
330
18
100
AcDbEntity
  8
1
  6
Continuous
100
AcDbCircle
 10
147.5456062593529
 20
310.7075676811806
 30
0.0
 40
2.226414744131635
100
AcDbArc
 50
156.5618138667488
 51
236.4329353113721
  0
ARC
  5
1693
330
18
100
AcDbEntity
  8
1
  6
Continuous
100
AcDbCircle
 10
138.4084992092023
 20
315.2835915070486
 30
0.0
 40
7.997579805181228
100
AcDbArc
 50
332.5169155014974
 51
0.005492999473297
  0
ARC
  5
1694
330
18
100
AcDbEntity
  8
1
  6
Continuous
100
AcDbCircle
 10
133.1293838985384
 20
308.2843578413132
 30
0.0
 40
4.761465228268666
100
AcDbArc
 50
175.4956723655775
 51
184.5043276343168
  0
ARC
  5
1696
330
18
100
AcDbEntity
  8
1
  6
Continuous
100
AcDbCircle
 10
139.5895415455211
 20
307.4432867482823
 30
0.0
 40
5.796429548290852
100
AcDbArc
 50
159.8097437092279
 51
193.3576555709351
  0
LINE
  5
1697
330
18
100
AcDbEntity
  8
1
  6
Continuous
100
AcDbLine
 10
133.9499234680329
 20
306.1041439447068
 30
0.0
 11
134.007469147393
 21
305.9222418622502
 31
0.0
  0
ARC
  5
1698
330
18
100
AcDbEntity
  8
1
  6
Continuous
100
AcDbCircle
 10
132.0590948009692
 20
304.996261677527
 30
0.0
 40
5.800562956048652
100
AcDbArc
 50
22.64322554827011
 51
56.16094883537265
  0
LINE
  5
1699
330
18
100
AcDbEntity
  8
1
  6
Continuous
100
AcDbLine
 10
137.4125505453876
 20
307.2294303231149
 30
0.0
 11
137.473898841371
 21
307.0485531454301
 31
0.0
  0
ARC
  5
169A
330
18
100
AcDbEntity
  8
1
  6
Continuous
100
AcDbCircle
 10
132.4072589399213
 20
304.8914024126304
 30
0.0
 40
3.643787648515759
100
AcDbArc
 50
218.0750703890673
 51
235.7772625729102
  0
ARC
  5
169B
330
18
100
AcDbEntity
  8
1
  6
Continuous
100
AcDbCircle
 10
129.1940778293005
 20
298.8545516412938
 30
0.0
 40
6.922876781663242
100
AcDbArc
 50
75.20646840073119
 51
86.09255829685089
  0
ARC
  5
169C
330
18
100
AcDbEntity
  8
1
  6
Continuous
100
AcDbCircle
 10
130.0649731850337
 20
301.640905454291
 30
0.0
 40
4.010445930138959
100
AcDbArc
 50
52.60887310170392
 51
77.0572963388087
  0
ARC
  5
169D
330
18
100
AcDbEntity
  8
1
  6
Continuous
100
AcDbCircle
 10
136.0965064097065
 20
306.6277191099566
 30
0.0
 40
6.198315768825416
100
AcDbArc
 50
165.9877467059156
 51
188.2845453158719
  0
ARC
  5
169E
330
18
100
AcDbEntity
  8
1
  6
Continuous
100
AcDbCircle
 10
130.3863926822455
 20
308.1319601861815
 30
0.0
 40
0.303784302821224
100
AcDbArc
 50
180.6500682634164
 51
304.839449922257
  0
ARC
  5
169F
330
18
100
AcDbEntity
  8
1
  6
Continuous
100
AcDbCircle
 10
130.8176672490587
 20
308.468369458157
 30
0.0
 40
0.299884175727019
100
AcDbArc
 50
180.1196970163599
 51
306.7324910949783
  0
ARC
  5
16A0
330
18
100
AcDbEntity
  8
1
  6
Continuous
100
AcDbCircle
 10
137.2211853837807
 20
307.4432867482823
 30
0.0
 40
5.796429548290852
100
AcDbArc
 50
346.6423444290648
 51
20.19025629077202
  0
ARC
  5
16A2
330
18
100
AcDbEntity
  8
1
  6
Continuous
100
AcDbCircle
 10
142.5189102628005
 20
309.3976275735442
 30
0.0
 40
0.1498345747311227
100
AcDbArc
 50
17.9715716247254
 51
69.71602684528196
  0
ARC
  5
16A3
330
18
100
AcDbEntity
  8
1
  6
Continuous
100
AcDbCircle
 10
138.4050431412608
 20
298.2827893339465
 30
0.0
 40
12.00158392844099
100
AcDbArc
 50
69.68961704170417
 51
74.31209928061966
  0
ARC
  5
16A4
330
18
100
AcDbEntity
  8
1
  6
Continuous
100
AcDbCircle
 10
144.7516321283326
 20
304.996261677527
 30
0.0
 40
5.800562956048652
100
AcDbArc
 50
123.8390511646273
 51
157.3567744517298
  0
ARC
  5
16A6
330
18
100
AcDbEntity
  8
1
  6
Continuous
100
AcDbCircle
 10
141.6096505303084
 20
309.6930639696779
 30
0.0
 40
0.1498345746707366
100
AcDbArc
 50
74.28397314303797
 51
126.0284283847133
  0
ARC
  5
16A7
330
18
100
AcDbEntity
  8
1
  6
Continuous
100
AcDbCircle
 10
147.6166491000012
 20
298.8545516412938
 30
0.0
 40
6.922876781663242
100
AcDbArc
 50
93.90744170314908
 51
104.7935315992687
  0
ARC
  5
16A9
330
18
100
AcDbEntity
  8
1
  6
Continuous
100
AcDbCircle
 10
147.1553308165596
 20
305.6116663720673
 30
0.0
 40
0.1500082929568982
100
AcDbArc
 50
0.0135412827468715
 51
93.99023327730265
  0
ARC
  5
16AA
330
18
100
AcDbEntity
  8
1
  6
Continuous
100
AcDbCircle
 10
144.4034679893804
 20
304.8914024126304
 30
0.0
 40
3.643787648515759
100
AcDbArc
 50
304.2227374270897
 51
321.9249296109326
  0
ARC
  5
16AC
330
18
100
AcDbEntity
  8
1
  6
Continuous
100
AcDbCircle
 10
146.4243342470563
 20
308.1319601861815
 30
0.0
 40
0.303784302821224
100
AcDbArc
 50
235.1605500777429
 51
359.3499317365835
  0
ARC
  5
16AD
330
18
100
AcDbEntity
  8
1
  6
Continuous
100
AcDbCircle
 10
140.7142205195953
 20
306.6277191099566
 30
0.0
 40
6.198315768825416
100
AcDbArc
 50
351.715454684128
 51
14.01225329408432
  0
ARC
  5
16B0
330
18
100
AcDbEntity
  8
1
  6
Continuous
100
AcDbCircle
 10
145.993059680243
 20
308.468369458157
 30
0.0
 40
0.299884175727019
100
AcDbArc
 50
233.2675089050216
 51
359.88030298364
  0
LINE
  5
16B2
330
18
100
AcDbEntity
  8
4
  6
CENTER
 48
0.4
100
AcDbLine
 10
119.405471995994
 20
298.2843600479678
 30
0.0
 11
157.4053641296152
 21
298.2843600479678
 31
0.0
  0
ARC
  5
16B5
330
18
100
AcDbEntity
  8
1
  6
Continuous
100
AcDbCircle
 10
143.6813430307634
 20
308.2843578413132
 30
0.0
 40
4.761465228268666
100
AcDbArc
 50
355.4956723656832
 51
4.504327634422511
  0
ARC
  5
16B6
330
18
100
AcDbEntity
  8
1
  6
Continuous
100
AcDbCircle
 10
146.745753744268
 20
301.640905454291
 30
0.0
 40
4.010445930138959
100
AcDbArc
 50
102.9427036611912
 51
127.391126898296
  0
LINE
  5
16B7
330
18
100
AcDbEntity
  8
1
  6
Continuous
100
AcDbLine
 10
139.3981763839142
 20
307.2294303231149
 30
0.0
 11
139.3368280879308
 21
307.0485531454301
 31
0.0
  0
LINE
  5
16B8
330
18
100
AcDbEntity
  8
1
  6
Continuous
100
AcDbLine
 10
142.8608034612689
 20
306.1041439447068
 30
0.0
 11
142.8032577819086
 21
305.9222418622502
 31
0.0
  0
ARC
  5
16B9
330
18
100
AcDbEntity
  8
1
  6
Continuous
100
AcDbCircle
 10
130.0649731850337
 20
294.9278146416445
 30
0.0
 40
4.010445930138959
100
AcDbArc
 50
282.9427036611912
 51
307.3911268982961
  0
ARC
  5
16BA
330
18
100
AcDbEntity
  8
1
  6
Continuous
100
AcDbCircle
 10
129.1940778293005
 20
297.7141684546418
 30
0.0
 40
6.922876781663242
100
AcDbArc
 50
273.9074417031491
 51
284.7935315992688
  0
ARC
  5
16BB
330
18
100
AcDbEntity
  8
1
  6
Continuous
100
AcDbCircle
 10
132.4072589399213
 20
291.6773176833051
 30
0.0
 40
3.643787648515759
100
AcDbArc
 50
124.2227374270897
 51
141.9249296109326
  0
ARC
  5
16BD
330
18
100
AcDbEntity
  8
1
  6
Continuous
100
AcDbCircle
 10
139.5895415455211
 20
289.1254333476532
 30
0.0
 40
5.796429548290852
100
AcDbArc
 50
166.6423444290648
 51
200.190256290772
  0
LINE
  5
16BE
330
18
100
AcDbEntity
  8
1
  6
Continuous
100
AcDbLine
 10
133.9499234680329
 20
290.4645761512287
 30
0.0
 11
134.007469147393
 21
290.6464782336854
 31
0.0
  0
LINE
  5
16BF
330
18
100
AcDbEntity
  8
1
  6
Continuous
100
AcDbLine
 10
137.4125505453876
 20
289.3392897728207
 30
0.0
 11
137.473898841371
 21
289.5201669505055
 31
0.0
  0
ARC
  5
16C0
330
18
100
AcDbEntity
  8
1
  6
Continuous
100
AcDbCircle
 10
132.0590948009692
 20
291.5724584184086
 30
0.0
 40
5.800562956048652
100
AcDbArc
 50
303.8390511646273
 51
337.3567744517298
  0
LINE
  5
16C1
330
18
100
AcDbEntity
  8
1
  6
Continuous
100
AcDbLine
 10
139.3981763839142
 20
289.3392897728207
 30
0.0
 11
139.3368280879308
 21
289.5201669505055
 31
0.0
  0
ARC
  5
16C2
330
18
100
AcDbEntity
  8
1
  6
Continuous
100
AcDbCircle
 10
144.7516321283326
 20
291.5724584184086
 30
0.0
 40
5.800562956048652
100
AcDbArc
 50
202.6432255482701
 51
236.1609488353726
  0
ARC
  5
16C3
330
18
100
AcDbEntity
  8
1
  6
Continuous
100
AcDbCircle
 10
137.2211853837807
 20
289.1254333476532
 30
0.0
 40
5.796429548290852
100
AcDbArc
 50
339.8097437092279
 51
13.35765557093512
  0
LINE
  5
16C4
330
18
100
AcDbEntity
  8
1
  6
Continuous
100
AcDbLine
 10
142.8608034612689
 20
290.4645761512287
 30
0.0
 11
142.8032577819086
 21
290.6464782336854
 31
0.0
  0
ARC
  5
16C5
330
18
100
AcDbEntity
  8
1
  6
Continuous
100
AcDbCircle
 10
146.745753744268
 20
294.9278146416445
 30
0.0
 40
4.010445930138959
100
AcDbArc
 50
232.608873101704
 51
257.0572963388087
  0
ARC
  5
16C6
330
18
100
AcDbEntity
  8
1
  6
Continuous
100
AcDbCircle
 10
147.6166491000012
 20
297.7141684546418
 30
0.0
 40
6.922876781663242
100
AcDbArc
 50
255.2064684007311
 51
266.0925582968509
  0
ARC
  5
16C7
330
18
100
AcDbEntity
  8
1
  6
Continuous
100
AcDbCircle
 10
144.4034679893804
 20
291.6773176833051
 30
0.0
 40
3.643787648515759
100
AcDbArc
 50
38.07507038906736
 51
55.77726257291022
  0
ARC
  5
16C8
330
18
100
AcDbEntity
  8
1
  6
Continuous
100
AcDbCircle
 10
133.1293838985384
 20
288.2843622546224
 30
0.0
 40
4.761465228268666
100
AcDbArc
 50
175.4956723656831
 51
184.5043276344225
  0
ARC
  5
16C9
330
18
100
AcDbEntity
  8
1
  6
Continuous
100
AcDbCircle
 10
143.6813430307634
 20
288.2843622546224
 30
0.0
 40
4.761465228268666
100
AcDbArc
 50
355.4956723655775
 51
4.504327634316872
  0
ARC
  5
16CC
330
18
100
AcDbEntity
  8
1
  6
Continuous
100
AcDbCircle
 10
134.4052169287488
 20
286.3363532533617
 30
0.0
 40
0.4997388438377726
100
AcDbArc
 50
135.9494874707622
 51
180.024997791138
  0
ARC
  5
16D0
330
18
100
AcDbEntity
  8
1
  6
Continuous
100
AcDbCircle
 10
142.405510000553
 20
286.3363532533617
 30
0.0
 40
0.4997388438377726
100
AcDbArc
 50
359.9750022088618
 51
44.05051252923764
  0
ARC
  5
16D2
330
18
100
AcDbEntity
  8
1
  6
Continuous
100
AcDbCircle
 10
142.4055249816626
 20
286.336359310003
 30
0.0
 40
0.4997238654090557
100
AcDbArc
 50
44.04374075133318
 51
108.5350946209427
  0
LINE
  5
16D9
330
18
100
AcDbEntity
  8
1
  6
Continuous
100
AcDbLine
 10
127.3053629374292
 20
307.9089699732024
 30
0.0
 11
128.382624909115
 21
307.9089699732024
 31
0.0
  0
LINE
  5
16E0
330
18
100
AcDbEntity
  8
1
  6
Continuous
100
AcDbLine
 10
152.4052549333073
 20
290.9843570196137
 30
0.0
 11
152.4052549333073
 21
262.3064004897431
 31
0.0
  0
ARC
  5
16E1
330
18
100
AcDbEntity
  8
1
  6
Continuous
100
AcDbCircle
 10
148.405479360113
 20
262.284240235949
 30
0.0
 40
3.999836960764231
100
AcDbArc
 50
301.6677040949458
 51
0.3174368163887972
  0
LINE
  5
16EF
330
18
100
AcDbEntity
  8
1
  6
Continuous
100
AcDbLine
 10
360.9222942205385
 20
317.284358268793
 30
0.0
 11
360.9220501601253
 21
315.2843581738018
 31
0.0
  0
LINE
  5
16F0
330
18
100
AcDbEntity
  8
1
  6
Continuous
100
AcDbLine
 10
362.6945268408726
 20
317.2843582688333
 30
0.0
 11
362.694640760802
 21
315.2843581738018
 31
0.0
  0
LINE
  5
16F1
330
18
100
AcDbEntity
  8
1
  6
Continuous
100
AcDbLine
 10
369.7286491512663
 20
317.2843582687967
 30
0.0
 11
369.7287067860859
 21
315.2843581737651
 31
0.0
  0
LINE
  5
16F2
330
18
100
AcDbEntity
  8
1
  6
Continuous
100
AcDbLine
 10
371.5010242854259
 20
317.2843582687967
 30
0.0
 11
371.5010996380533
 21
315.2843581738055
 31
0.0
  0
LINE
  5
16F3
330
18
100
AcDbEntity
  8
4
  6
CENTER
 48
0.4
100
AcDbLine
 10
366.211486501432
 20
253.284355466447
 30
0.0
 11
366.211486501432
 21
341.2843591712487
 31
0.0
  0
LINE
  5
16F4
330
18
100
AcDbEntity
  8
1
  6
Continuous
100
AcDbLine
 10
362.1614863090674
 20
301.8343575349611
 30
0.0
 11
362.1614863090674
 21
294.7343571977291
 31
0.0
  0
LINE
  5
16F5
330
18
100
AcDbEntity
  8
4
  6
CENTER
 48
0.4
100
AcDbLine
 10
347.2115950327681
 20
298.2843600479678
 30
0.0
 11
385.5115472574614
 21
298.2843600479678
 31
0.0
  0
ARC
  5
16F6
330
18
100
AcDbEntity
  8
1
  6
Continuous
100
AcDbCircle
 10
362.6614933018033
 20
301.8343505659738
 30
0.0
 40
0.4999970186085692
100
AcDbArc
 50
90.00079857595151
 51
179.9992014240474
  0
LINE
  5
16F7
330
18
100
AcDbEntity
  8
1
  6
Continuous
100
AcDbLine
 10
369.761486670048
 20
302.3343575587098
 30
0.0
 11
362.6614863328161
 21
302.3343575587098
 31
0.0
  0
LINE
  5
16F8
330
18
100
AcDbEntity
  8
1
  6
Continuous
100
AcDbLine
 10
370.2614866937967
 20
294.7343571977291
 30
0.0
 11
370.2614866937967
 21
301.8343575349611
 31
0.0
  0
ARC
  5
16F9
330
18
100
AcDbEntity
  8
1
  6
Continuous
100
AcDbCircle
 10
369.7614797010608
 20
294.7343641667164
 30
0.0
 40
0.4999970186085692
100
AcDbArc
 50
270.0007985759514
 51
359.9992014240474
  0
LINE
  5
16FA
330
18
100
AcDbEntity
  8
1
  6
Continuous
100
AcDbLine
 10
362.6614863328161
 20
294.2343571739804
 30
0.0
 11
369.761486670048
 21
294.2343571739804
 31
0.0
  0
ARC
  5
16FB
330
18
100
AcDbEntity
  8
1
  6
Continuous
100
AcDbCircle
 10
362.6614933018033
 20
294.7343641667164
 30
0.0
 40
0.4999970186085692
100
AcDbArc
 50
180.0007985759512
 51
269.9992014240477
  0
ARC
  5
16FC
330
18
100
AcDbEntity
  8
1
  6
Continuous
100
AcDbCircle
 10
369.7614797010608
 20
301.8343505659738
 30
0.0
 40
0.4999970186085692
100
AcDbArc
 50
0.000798575951712
 51
89.99920142404768
  0
ARC
  5
1702
330
18
100
AcDbEntity
  8
1
  6
Continuous
100
AcDbCircle
 10
30.50896823863558
 20
443.7150480865392
 30
0.0
 40
0.5747824646957766
100
AcDbArc
 50
82.04859906422045
 51
82.09184059065082
  0
ARC
  5
1705
330
18
100
AcDbEntity
  8
1
  6
Continuous
100
AcDbCircle
 10
33.59177503577257
 20
443.3989090584184
 30
0.0
 40
3.673001668329757
100
AcDbArc
 50
174.6450174109441
 51
215.204990577054
  0
ARC
  5
1706
330
18
100
AcDbEntity
  8
1
  6
Continuous
100
AcDbCircle
 10
33.38105793110526
 20
442.9076584069039
 30
0.0
 40
3.229771066706293
100
AcDbArc
 50
210.2330182435097
 51
329.8282922503967
  0
LINE
  5
1707
330
18
100
AcDbEntity
  8
4
  6
CENTER
 48
0.4
100
AcDbLine
 10
33.3808746247023
 20
452.2843644434653
 30
0.0
 11
33.3808746247023
 21
92.28434781935773
 31
0.0
  0
ARC
  5
1708
330
18
100
AcDbEntity
  8
1
  6
Continuous
100
AcDbCircle
 10
33.1720492562672
 20
443.3986999373916
 30
0.0
 40
3.671184726445438
100
AcDbArc
 50
324.8360379384827
 51
5.37529750010979
  0
ARC
  5
1709
330
18
100
AcDbEntity
  8
1
  6
Continuous
100
AcDbCircle
 10
36.25293244581689
 20
443.7158125315423
 30
0.0
 40
0.5747824646957766
100
AcDbArc
 50
2.672521669578316
 51
81.55601936520758
  0
ARC
  5
170D
330
18
100
AcDbEntity
  8
1
  6
Continuous
100
AcDbCircle
 10
30.50896823863558
 20
443.7150480865392
 30
0.0
 40
0.5747824646957766
100
AcDbArc
 50
97.90815940934921
 51
177.342728938678
  0
ARC
  5
1713
330
18
100
AcDbEntity
  8
1
  6
Continuous
100
AcDbCircle
 10
34.25912786300614
 20
101.6360741390978
 30
0.0
 40
1.878943158540163
100
AcDbArc
 50
152.2743616696853
 51
181.5595527690586
  0
ARC
  5
1714
330
18
100
AcDbEntity
  8
1
  6
Continuous
100
AcDbCircle
 10
33.38087403426062
 20
102.2067113048118
 30
0.0
 40
0.8415967703253778
100
AcDbArc
 50
21.13990636548622
 51
158.8600936345222
  0
ARC
  5
1715
330
18
100
AcDbEntity
  8
1
  6
Continuous
100
AcDbCircle
 10
32.50251599365674
 20
101.6360350770837
 30
0.0
 40
1.879053578561378
100
AcDbArc
 50
358.4417304115758
 51
27.72521430454548
  0
ARC
  5
171A
330
18
100
AcDbEntity
  8
1
  6
Continuous
100
AcDbCircle
 10
32.42937924572288
 20
97.33715797617634
 30
0.0
 40
0.0486353531723548
100
AcDbArc
 50
184.2986463352549
 51
225.1260664956556
  0
ARC
  5
1720
330
18
100
AcDbEntity
  8
1
  6
Continuous
100
AcDbCircle
 10
32.46030731115138
 20
97.4094761154827
 30
0.0
 40
0.1251377513393275
100
AcDbArc
 50
238.5760038352394
 51
269.2956607659498
  0
ARC
  5
1721
330
18
100
AcDbEntity
  8
1
  6
Continuous
100
AcDbCircle
 10
34.33237000368171
 20
97.33715797617634
 30
0.0
 40
0.0486353531723548
100
AcDbArc
 50
314.8739335043444
 51
355.701353664745
  0
ARC
  5
1722
330
18
100
AcDbEntity
  8
1
  6
Continuous
100
AcDbCircle
 10
34.30144193825344
 20
97.4094761154827
 30
0.0
 40
0.1251377513393275
100
AcDbArc
 50
270.7043392340501
 51
301.4239961647606
  0
ARC
  5
1723
330
18
100
AcDbEntity
  8
1
  6
Continuous
100
AcDbCircle
 10
26.91704594607267
 20
259.3594108834274
 30
0.0
 40
1.160991183571904
100
AcDbArc
 50
209.7893571896575
 51
242.4952382002591
  0
ARC
  5
1724
330
18
100
AcDbEntity
  8
1
  6
Continuous
100
AcDbCircle
 10
25.36769712049499
 20
306.5999496620209
 30
0.0
 40
1.326186281283027
100
AcDbArc
 50
229.9781150260942
 51
277.2470525111454
  0
ARC
  5
172A
330
18
100
AcDbEntity
  8
1
  6
Continuous
100
AcDbCircle
 10
25.36769712049499
 20
301.9687656406387
 30
0.0
 40
1.326186281283027
100
AcDbArc
 50
82.7529474888594
 51
130.0218849739056
  0
ARC
  5
172D
330
18
100
AcDbEntity
  8
1
  6
Continuous
100
AcDbCircle
 10
40.89404933705235
 20
301.9687652878237
 30
0.0
 40
1.326186281283027
100
AcDbArc
 50
49.97811502609422
 51
97.24693167725495
  0
ARC
  5
172E
330
18
100
AcDbEntity
  8
1
  6
Continuous
100
AcDbCircle
 10
40.89404933705235
 20
306.5999493092058
 30
0.0
 40
1.326186281283027
100
AcDbArc
 50
262.7528266569763
 51
310.0218849739057
  0
LINE
  5
1731
330
18
100
AcDbEntity
  8
1
  6
Continuous
100
AcDbLine
 10
41.06134777507532
 20
291.2843570338629
 30
0.0
 11
25.53499278378876
 21
291.2843570338629
 31
0.0
  0
LINE
  5
1732
330
18
100
AcDbEntity
  8
1
  6
Continuous
100
AcDbLine
 10
25.53499278378831
 20
293.2843571288578
 30
0.0
 11
40.72675089928907
 21
293.2843571288578
 31
0.0
  0
ARC
  5
1733
330
18
100
AcDbEntity
  8
1
  6
Continuous
100
AcDbCircle
 10
25.36769712049499
 20
289.9687650706693
 30
0.0
 40
1.326186281283027
100
AcDbArc
 50
82.75294748883961
 51
130.0218849739056
  0
ARC
  5
1734
330
18
100
AcDbEntity
  8
1
  6
Continuous
100
AcDbCircle
 10
25.36769712049499
 20
294.5999490920515
 30
0.0
 40
1.326186281283027
100
AcDbArc
 50
229.9781150260942
 51
277.2470525111502
  0
ARC
  5
1737
330
18
100
AcDbEntity
  8
1
  6
Continuous
100
AcDbCircle
 10
40.89404933705235
 20
289.9687647178542
 30
0.0
 40
1.326186281283027
100
AcDbArc
 50
49.97811502609422
 51
82.75294747772411
  0
ARC
  5
1738
330
18
100
AcDbEntity
  8
1
  6
Continuous
100
AcDbCircle
 10
40.89404933705235
 20
294.5999487392364
 30
0.0
 40
1.326186281283027
100
AcDbArc
 50
262.7528266569711
 51
310.0218849739057
  0
LINE
  5
1790
330
18
100
AcDbEntity
  8
4
  6
CENTER
 48
0.4
100
AcDbLine
 10
238.5072288179888
 20
452.2842927279032
 30
0.0
 11
238.5072288179888
 21
92.28434781935765
 31
0.0
  0
ARC
  5
1791
330
18
100
AcDbEntity
  8
1
  6
Continuous
100
AcDbCircle
 10
238.5072025564415
 20
441.7184524472277
 30
0.0
 40
0.7980490720243393
100
AcDbArc
 50
212.9520407610061
 51
327.0502957863123
  0
ARC
  5
1792
330
18
100
AcDbEntity
  8
1
  6
Continuous
100
AcDbCircle
 10
237.6045885757498
 20
442.3595076793992
 30
0.0
 40
1.904727835042145
100
AcDbArc
 50
325.6361631721493
 51
2.682741291062123
  0
ARC
  5
1793
330
18
100
AcDbEntity
  8
1
  6
Continuous
100
AcDbCircle
 10
239.4102695477045
 20
442.3595490542182
 30
0.0
 40
1.905125947376624
100
AcDbArc
 50
177.3190654212682
 51
214.3581523950684
  0
ARC
  5
179A
330
18
100
AcDbEntity
  8
1
  6
Continuous
100
AcDbCircle
 10
237.58930673286
 20
447.1735657928189
 30
0.0
 40
0.0821439855025948
100
AcDbArc
 50
119.8389097642188
 51
182.2973589276729
  0
ARC
  5
179B
330
18
100
AcDbEntity
  8
1
  6
Continuous
100
AcDbCircle
 10
237.7619119886098
 20
446.7119113335611
 30
0.0
 40
0.57407652692591
100
AcDbArc
 50
85.59585615981056
 51
111.8304794914515
  0
ARC
  5
179C
330
18
100
AcDbEntity
  8
1
  6
Continuous
100
AcDbCircle
 10
239.4251509031176
 20
447.1735657928189
 30
0.0
 40
0.0821439855025948
100
AcDbArc
 50
357.702641072327
 51
60.16109023578114
  0
ARC
  5
179D
330
18
100
AcDbEntity
  8
1
  6
Continuous
100
AcDbCircle
 10
239.2525456473677
 20
446.7119113335611
 30
0.0
 40
0.57407652692591
100
AcDbArc
 50
68.1695205085484
 51
94.40414384018943
  0
LINE
  5
179E
330
18
100
AcDbEntity
  8
1
  6
Continuous
100
AcDbLine
 10
231.161352543402
 20
293.2843571288578
 30
0.0
 11
246.3531106589034
 21
293.2843571288578
 31
0.0
  0
LINE
  5
179F
330
18
100
AcDbEntity
  8
1
  6
Continuous
100
AcDbLine
 10
246.3531106589027
 20
291.284357033863
 30
0.0
 11
230.8267584420857
 21
291.2843570338629
 31
0.0
  0
ARC
  5
17B0
330
18
100
AcDbEntity
  8
1
  6
Continuous
100
AcDbCircle
 10
230.9940541056387
 20
289.9687647178542
 30
0.0
 40
1.326186281283027
100
AcDbArc
 50
97.24705252227586
 51
130.0218849739056
  0
ARC
  5
17B1
330
18
100
AcDbEntity
  8
1
  6
Continuous
100
AcDbCircle
 10
230.9940541056387
 20
294.5999487392364
 30
0.0
 40
1.326186281283027
100
AcDbArc
 50
229.9781150260942
 51
277.2471733430236
  0
ARC
  5
17B6
330
18
100
AcDbEntity
  8
1
  6
Continuous
100
AcDbCircle
 10
246.520406322196
 20
294.5999490920515
 30
0.0
 40
1.326186281283027
100
AcDbArc
 50
262.7529474888694
 51
310.0218849739057
  0
ARC
  5
17B7
330
18
100
AcDbEntity
  8
1
  6
Continuous
100
AcDbCircle
 10
246.520406322196
 20
289.9687650706693
 30
0.0
 40
1.326186281283027
100
AcDbArc
 50
49.97811502609422
 51
97.24705251115032
  0
LINE
  5
17BA
330
18
100
AcDbEntity
  8
1
  6
Continuous
100
AcDbLine
 10
246.3531106589027
 20
303.2843576038323
 30
0.0
 11
230.8267584420857
 21
303.2843576038323
 31
0.0
  0
LINE
  5
17BB
330
18
100
AcDbEntity
  8
1
  6
Continuous
100
AcDbLine
 10
231.161352543402
 20
305.2843576988273
 30
0.0
 11
246.3531106589034
 21
305.2843576988273
 31
0.0
  0
ARC
  5
17BC
330
18
100
AcDbEntity
  8
1
  6
Continuous
100
AcDbCircle
 10
230.9940541056387
 20
301.9687652878237
 30
0.0
 40
1.326186281283027
100
AcDbArc
 50
97.24705252227586
 51
130.0218849739056
  0
ARC
  5
17BD
330
18
100
AcDbEntity
  8
1
  6
Continuous
100
AcDbCircle
 10
230.9940541056387
 20
306.5999493092058
 30
0.0
 40
1.326186281283027
100
AcDbArc
 50
229.9781150260942
 51
277.2471733430236
  0
ARC
  5
17BE
330
18
100
AcDbEntity
  8
1
  6
Continuous
100
AcDbCircle
 10
246.520406322196
 20
301.9687656406387
 30
0.0
 40
1.326186281283027
100
AcDbArc
 50
49.97811502609422
 51
97.24705251115032
  0
ARC
  5
17BF
330
18
100
AcDbEntity
  8
1
  6
Continuous
100
AcDbCircle
 10
246.520406322196
 20
306.5999496620209
 30
0.0
 40
1.326186281283027
100
AcDbArc
 50
262.7529474888694
 51
310.0218849739057
  0
ARC
  5
17C1
330
18
100
AcDbEntity
  8
1
  6
Continuous
100
AcDbCircle
 10
244.9713359949937
 20
259.3590226227849
 30
0.0
 40
1.160518207800047
100
AcDbArc
 50
297.5014183543082
 51
330.2197090583575
  0
ARC
  5
17C7
330
18
100
AcDbEntity
  8
1
  6
Continuous
100
AcDbCircle
 10
238.5072291658171
 20
101.0896088354121
 30
0.0
 40
3.201218254532133
100
AcDbArc
 50
32.29758859350145
 51
147.7024114064984
  0
ARC
  5
17C8
330
18
100
AcDbEntity
  8
1
  6
Continuous
100
AcDbCircle
 10
238.1646810162917
 20
100.7554848204567
 30
0.0
 40
3.125053888536286
100
AcDbArc
 50
139.1366583189956
 51
179.3700055012354
  0
ARC
  5
17CA
330
18
100
AcDbEntity
  8
1
  6
Continuous
100
AcDbCircle
 10
238.8497766196858
 20
100.7554848204567
 30
0.0
 40
3.125053888536286
100
AcDbArc
 50
0.6299944987639986
 51
40.86334168100433
  0
ARC
  5
17CF
330
18
100
AcDbEntity
  8
1
  6
Continuous
100
AcDbCircle
 10
241.4746718245855
 20
100.78434796185
 30
0.0
 40
0.5
100
AcDbArc
 50
270.0
 51
0.6299944987644262
  0
ARC
  5
17D0
330
18
100
AcDbEntity
  8
1
  6
Continuous
100
AcDbCircle
 10
235.5397858113919
 20
100.78434796185
 30
0.0
 40
0.5
100
AcDbArc
 50
179.3700055012355
 51
270.0
  0
ARC
  5
17D1
330
18
100
AcDbEntity
  8
1
  6
Continuous
100
AcDbCircle
 10
144.7394140632723
 20
511.1500809308688
 30
0.0
 40
0.7980491711765824
100
AcDbArc
 50
122.9497151952638
 51
237.0479482588692
  0
ARC
  5
17D2
330
18
100
AcDbEntity
  8
1
  6
Continuous
100
AcDbCircle
 10
145.380510529
 20
510.2470663181569
 30
0.0
 40
1.90512608983163
100
AcDbArc
 50
87.31906685620058
 51
124.3581509599563
  0
ARC
  5
17D3
330
18
100
AcDbEntity
  8
1
  6
Continuous
100
AcDbCircle
 10
145.3805188691524
 20
512.0531774644986
 30
0.0
 40
1.905155065426255
100
AcDbArc
 50
235.6421409414604
 51
272.6806412424015
  0
LINE
  5
17D4
330
18
100
AcDbEntity
  8
1
  6
Continuous
100
AcDbLine
 10
135.9302757109451
 20
518.1501907172703
 30
0.0
 11
137.1592080551399
 21
515.1501073823933
 31
0.0
  0
ARC
  5
17D6
330
18
100
AcDbEntity
  8
1
  6
Continuous
100
AcDbCircle
 10
153.2055871906726
 20
503.7654263258868
 30
0.0
 40
0.199698870275902
100
AcDbArc
 50
299.9568086734342
 51
0.0431913259552873
  0
ARC
  5
17DB
330
18
100
AcDbEntity
  8
1
  6
Continuous
100
AcDbCircle
 10
150.1878200356329
 20
512.0550343526493
 30
0.0
 40
0.0951341786233777
100
AcDbArc
 50
14.17841351747234
 51
87.94319872180469
  0
ARC
  5
17DC
330
18
100
AcDbEntity
  8
1
  6
Continuous
100
AcDbCircle
 10
149.5762282510265
 20
511.8831524498713
 30
0.0
 40
0.7303907812238731
100
AcDbArc
 50
356.5900392600038
 51
15.49966007814472
  0
ARC
  5
17E1
330
18
100
AcDbEntity
  8
1
  6
Continuous
100
AcDbCircle
 10
150.1878200356334
 20
510.2451800321579
 30
0.0
 40
0.0951341786233777
100
AcDbArc
 50
272.0568012781952
 51
345.8215864825276
  0
ARC
  5
17E2
330
18
100
AcDbEntity
  8
1
  6
Continuous
100
AcDbCircle
 10
149.576228251027
 20
510.4170619349359
 30
0.0
 40
0.7303907812238731
100
AcDbArc
 50
344.5003399218552
 51
3.409960739996146
  0
LINE
  5
17E3
330
18
100
AcDbEntity
  8
1
  6
Continuous
100
AcDbLine
 10
131.5303361591884
 20
508.5501070689101
 30
0.0
 11
134.0053251030349
 21
508.5501070689101
 31
0.0
  0
LINE
  5
17E4
330
18
100
AcDbEntity
  8
1
  6
Continuous
100
AcDbLine
 10
123.4053907196769
 20
53.43634749311752
 30
0.0
 11
123.4778496110523
 21
53.59040217760389
 31
0.0
  0
ARC
  5
17EA
330
18
100
AcDbEntity
  8
1
  6
Continuous
100
AcDbCircle
 10
126.4227726638639
 20
46.0518167612164
 30
0.0
 40
0.8465506353250347
100
AcDbArc
 50
289.9351687021203
 51
70.06483129788143
  0
ARC
  5
17EB
330
18
100
AcDbEntity
  8
1
  6
Continuous
100
AcDbCircle
 10
125.8552899369037
 20
45.16081450988473
 30
0.0
 40
1.89164625688258
100
AcDbArc
 50
63.09071504384998
 51
91.49455546455923
  0
ARC
  5
17EC
330
18
100
AcDbEntity
  8
1
  6
Continuous
100
AcDbCircle
 10
125.8552807533469
 20
46.94286779664661
 30
0.0
 40
1.891693915194886
100
AcDbArc
 50
268.5057604439563
 51
296.9088642541141
  0
ARC
  5
17F0
330
18
100
AcDbEntity
  8
1
  6
Continuous
100
AcDbCircle
 10
121.5548332491926
 20
47.01073334649129
 30
0.0
 40
0.0410789021395534
100
AcDbArc
 50
90.42613523115843
 51
157.6624237247004
  0
ARC
  5
17F3
330
18
100
AcDbEntity
  8
1
  6
Continuous
100
AcDbCircle
 10
121.7435258490795
 20
46.94926334899161
 30
0.0
 40
0.2394360244559899
100
AcDbArc
 50
161.2200833564279
 51
174.0704789132967
  0
ARC
  5
17F5
330
18
100
AcDbEntity
  8
1
  6
Continuous
100
AcDbCircle
 10
121.7435258490795
 20
45.15437017344129
 30
0.0
 40
0.2394360244559899
100
AcDbArc
 50
185.9295210867031
 51
198.7799166435721
  0
ARC
  5
17F6
330
18
100
AcDbEntity
  8
1
  6
Continuous
100
AcDbCircle
 10
121.5548332491926
 20
45.09290017594162
 30
0.0
 40
0.0410789021395534
100
AcDbArc
 50
202.3375762752995
 51
269.5738647688415
  0
ARC
  5
17F7
330
18
100
AcDbEntity
  8
1
  6
Continuous
100
AcDbCircle
 10
142.7725836237903
 20
45.28125137980362
 30
0.0
 40
0.1379521571852995
100
AcDbArc
 50
15.91381319029263
 51
76.2537842358669
  0
ARC
  5
17FC
330
18
100
AcDbEntity
  8
1
  6
Continuous
100
AcDbCircle
 10
146.3406332602935
 20
46.53052807913796
 30
0.0
 40
2.995077106130893
100
AcDbArc
 50
80.99264261862899
 51
110.7398446080688
  0
ARC
  5
17FD
330
18
100
AcDbEntity
  8
1
  6
Continuous
100
AcDbCircle
 10
146.7475275456458
 20
48.93260363315937
 30
0.0
 40
0.5595148261600192
100
AcDbArc
 50
355.560352506766
 51
83.63602939656386
  0
ARC
  5
1801
330
18
100
AcDbEntity
  8
1
  6
Continuous
100
AcDbCircle
 10
146.5787564144984
 20
43.55683342770158
 30
0.0
 40
0.9716168614625326
100
AcDbArc
 50
271.1434050775611
 51
302.7044302291922
  0
ARC
  5
1802
330
18
100
AcDbEntity
  8
1
  6
Continuous
100
AcDbCircle
 10
146.7253226622215
 20
43.18018241928245
 30
0.0
 40
0.5810442930774091
100
AcDbArc
 50
310.6357154352067
 51
3.367776546466968
  0
LINE
  5
18D6
330
18
100
AcDbEntity
  8
4
  6
CENTER
 48
0.4
100
AcDbLine
 10
158.4052984384688
 20
511.1501076198806
 30
0.0
 11
116.5053252722564
 21
511.1501076198806
 31
0.0
  0
LINE
  5
18D7
330
18
100
AcDbEntity
  8
4
  6
CENTER
 48
0.4
100
AcDbLine
 10
138.4053634646509
 20
499.1501068599212
 30
0.0
 11
138.4053634646509
 21
525.1501076198804
 31
0.0
  0
LINE
  5
18D8
330
18
100
AcDbEntity
  8
4
  6
CENTER
 48
0.4
100
AcDbLine
 10
158.4053362096246
 20
46.05181676873415
 30
0.0
 11
116.5053630434138
 21
46.05181676873415
 31
0.0
  0
LINE
  5
18DA
330
18
100
AcDbEntity
  8
4
  6
CENTER
 48
0.4
100
AcDbLine
 10
138.4053634646509
 20
58.05181752869339
 30
0.0
 11
138.4053634646509
 21
32.05181678393478
 31
0.0
  0
LINE
  5
1955
330
18
100
AcDbEntity
  8
1
  6
Continuous
100
AcDbLine
 10
38.8808749571845
 20
252.5269958801171
 30
0.0
 11
27.88087429222015
 21
252.5269958801171
 31
0.0
  0
LINE
  5
1956
330
18
100
AcDbEntity
  8
1
  6
Continuous
100
AcDbLine
 10
38.88087495718449
 20
257.5269961176193
 30
0.0
 11
27.88087429222014
 21
257.5269961176193
 31
0.0
  0
LINE
  5
1957
330
18
100
AcDbEntity
  8
1
  6
Continuous
100
AcDbLine
 10
233.0072284855066
 20
251.284355133929
 30
0.0
 11
244.0072291504706
 21
251.284355133929
 31
0.0
  0
LINE
  5
1958
330
18
100
AcDbEntity
  8
1
  6
Continuous
100
AcDbLine
 10
233.0072284855066
 20
256.2843553714315
 30
0.0
 11
244.0072291504707
 21
256.2843553714315
 31
0.0
  0
LINE
  5
198D
330
18
100
AcDbEntity
  8
4
  6
CENTER
 48
0.2
100
AcDbLine
 10
358.9221721903319
 20
316.2843582213011
 30
0.0
 11
373.5010619617396
 21
316.284358221301
 31
0.0
  0
LINE
  5
198E
330
18
100
AcDbEntity
  8
4
  6
CENTER
 48
0.2
100
AcDbLine
 10
131.1160491535571
 20
316.2843609029238
 30
0.0
 11
145.6949389249648
 21
316.2843609029237
 31
0.0
  0
LINE
  5
198F
330
18
100
AcDbEntity
  8
4
  6
CENTER
 48
0.2
100
AcDbLine
 10
241.4619258999131
 20
316.2843609029238
 30
0.0
 11
252.4279030112295
 21
316.2843609029237
 31
0.0
  0
LINE
  5
1990
330
18
100
AcDbEntity
  8
4
  6
CENTER
 48
0.2
100
AcDbLine
 10
30.42617752757735
 20
316.2843609029234
 30
0.0
 11
19.46020041626093
 21
316.2843609029233
 31
0.0
  0
LINE
  5
1991
330
18
100
AcDbEntity
  8
4
  6
CENTER
 48
0.4
100
AcDbLine
 10
18.14579328404805
 20
298.2843600479678
 30
0.0
 11
48.61595596535654
 21
298.2843600479678
 31
0.0
  0
LINE
  5
1992
330
18
100
AcDbEntity
  8
4
  6
CENTER
 48
0.4
100
AcDbLine
 10
253.7423101434423
 20
298.2843600479682
 30
0.0
 11
223.2721474621339
 21
298.2843600479682
 31
0.0
  0
ENDSEC
  0
SECTION
  2
OBJECTS
  0
DICTIONARY
  5
C
330
0
100
AcDbDictionary
281
     1
  3
ACAD_CIP_PREVIOUS_PRODUCT_INFO
350
19F3
  3
ACAD_COLOR
350
19D6
  3
ACAD_DETAILVIEWSTYLE
350
19EF
  3
ACAD_GROUP
350
D
  3
ACAD_LAYOUT
350
94
  3
ACAD_MATERIAL
350
19A4
  3
ACAD_MLEADERSTYLE
350
19EB
  3
ACAD_MLINESTYLE
350
1B
  3
ACAD_PLOTSETTINGS
350
95
  3
ACAD_PLOTSTYLENAME
350
19A2
  3
ACAD_SCALELIST
350
19D9
  3
ACAD_SECTIONVIEWSTYLE
350
19ED
  3
ACAD_TABLESTYLE
350
19D7
  3
ACAD_VISUALSTYLE
350
19BD
  3
ACDB_RECOMPOSE_DATA
350
1A11
  3
AcDbVariableDictionary
350
1A04
  3
CONTENTDICTIONARY
350
3D
  3
DWGPROPS
350
1A12
  0
DICTIONARY
  5
19F4
330
E
100
AcDbDictionary
280
     1
281
     1
  3
ADSK_XREC_LAYER_RECONCILED
360
19F5
  0
DICTIONARY
  5
19F6
330
4E
100
AcDbDictionary
280
     1
281
     1
  3
ADSK_XREC_LAYER_RECONCILED
360
19F7
  0
DICTIONARY
  5
19F8
330
4F
100
AcDbDictionary
280
     1
281
     1
  3
ADSK_XREC_LAYER_RECONCILED
360
19F9
  0
DICTIONARY
  5
19FA
330
50
100
AcDbDictionary
280
     1
281
     1
  3
ADSK_XREC_LAYER_RECONCILED
360
19FB
  0
DICTIONARY
  5
19FC
330
51
100
AcDbDictionary
280
     1
281
     1
  3
ADSK_XREC_LAYER_RECONCILED
360
19FD
  0
DICTIONARY
  5
19FE
330
52
100
AcDbDictionary
280
     1
281
     1
  3
ADSK_XREC_LAYER_RECONCILED
360
19FF
  0
DICTIONARY
  5
1A00
330
53
100
AcDbDictionary
280
     1
281
     1
  3
ADSK_XREC_LAYER_RECONCILED
360
1A01
  0
DICTIONARY
  5
1A02
330
54
100
AcDbDictionary
280
     1
281
     1
  3
ADSK_XREC_LAYER_RECONCILED
360
1A03
  0
DICTIONARY
  5
199D
330
18
100
AcDbDictionary
281
     1
  3
ACAD_LAYOUTSELFREF
350
199E
  0
DICTIONARY
  5
199B
330
15
100
AcDbDictionary
281
     1
  3
ACAD_LAYOUTSELFREF
350
199C
  0
XRECORD
  5
19F3
102
{ACAD_REACTORS
330
C
102
}
330
C
100
AcDbXrecord
280
     1
300
ACDLT
300
2014
300
ACDLT_F_S
  0
DICTIONARY
  5
19D6
102
{ACAD_REACTORS
330
C
102
}
330
C
100
AcDbDictionary
281
     1
  0
DICTIONARY
  5
19EF
102
{ACAD_REACTORS
330
C
102
}
330
C
100
AcDbDictionary
281
     1
  3
Imperial24
350
19F0
  0
DICTIONARY
  5
D
102
{ACAD_REACTORS
330
C
102
}
330
C
100
AcDbDictionary
281
     1
  0
DICTIONARY
  5
94
102
{ACAD_REACTORS
330
C
102
}
330
C
100
AcDbDictionary
281
     1
  3
Model
350
19F1
  3
レイアウト1
350
19F2
  0
DICTIONARY
  5
19A4
102
{ACAD_REACTORS
330
C
102
}
330
C
100
AcDbDictionary
281
     1
  3
ByBlock
350
19AD
  3
ByLayer
350
19A5
  3
Global
350
19B5
  0
DICTIONARY
  5
19EB
102
{ACAD_REACTORS
330
C
102
}
330
C
100
AcDbDictionary
281
     1
  3
Standard
350
19EC
  0
DICTIONARY
  5
1B
102
{ACAD_REACTORS
330
C
102
}
330
C
100
AcDbDictionary
281
     1
  3
STANDARD
350
1C
  0
DICTIONARY
  5
95
102
{ACAD_REACTORS
330
C
102
}
330
C
100
AcDbDictionary
281
     1
  0
ACDBDICTIONARYWDFLT
  5
19A2
102
{ACAD_REACTORS
330
C
102
}
330
C
100
AcDbDictionary
281
     1
  3
Normal
350
19A3
100
AcDbDictionaryWithDefault
340
19A3
  0
DICTIONARY
  5
19D9
102
{ACAD_REACTORS
330
C
102
}
330
C
100
AcDbDictionary
281
     1
  3
A0
350
19DA
  3
A1
350
19DB
  3
A2
350
19DC
  3
A3
350
19DD
  3
A4
350
19DE
  3
A5
350
19DF
  3
A6
350
19E0
  3
A7
350
19E1
  3
A8
350
19E2
  3
A9
350
19E3
  3
B0
350
19E4
  3
B1
350
19E5
  3
B2
350
19E6
  3
B3
350
19E7
  3
B4
350
19E8
  3
B5
350
19E9
  3
B6
350
19EA
  0
DICTIONARY
  5
19ED
102
{ACAD_REACTORS
330
C
102
}
330
C
100
AcDbDictionary
281
     1
  3
Imperial24
350
19EE
  0
DICTIONARY
  5
19D7
102
{ACAD_REACTORS
330
C
102
}
330
C
100
AcDbDictionary
281
     1
  3
Standard
350
19D8
  0
DICTIONARY
  5
19BD
102
{ACAD_REACTORS
330
C
102
}
330
C
100
AcDbDictionary
281
     1
  3
2dWireframe
350
19C3
  3
Basic
350
19C2
  3
Brighten
350
19C9
  3
ColorChange
350
19CD
  3
Conceptual
350
19C6
  3
Dim
350
19C8
  3
EdgeColorOff
350
19D5
  3
Facepattern
350
19CC
  3
Flat
350
19BE
  3
FlatWithEdges
350
19BF
  3
Gouraud
350
19C0
  3
GouraudWithEdges
350
19C1
  3
Hidden
350
19C5
  3
JitterOff
350
19D3
  3
Linepattern
350
19CB
  3
OverhangOff
350
19D4
  3
Realistic
350
19C7
  3
Shaded
350
19D2
  3
Shaded with edges
350
19D1
  3
Shades of Gray
350
19CE
  3
Sketchy
350
19CF
  3
Thicken
350
19CA
  3
Wireframe
350
19C4
  3
X-Ray
350
19D0
  0
XRECORD
  5
1A11
102
{ACAD_REACTORS
330
C
102
}
330
C
100
AcDbXrecord
280
     1
 90
        1
330
19D8
  0
DICTIONARY
  5
1A04
102
{ACAD_REACTORS
330
C
102
}
330
C
100
AcDbDictionary
281
     1
  3
CANNOSCALE
350
1A09
  3
CMLEADERSTYLE
350
1A06
  3
CTABLESTYLE
350
1A05
  3
CVIEWDETAILSTYLE
350
1A07
  3
CVIEWSECTIONSTYLE
350
1A08
  3
DIMASSOC
350
1A0C
  3
INDEXCTL
350
1A0B
  3
SORTENTS
350
1A0A
  3
XCLIPFRAME
350
1A0D
  0
DICTIONARY
  5
3D
102
{ACAD_REACTORS
330
C
102
}
330
C
100
AcDbDictionary
281
     1
  0
XRECORD
  5
1A12
102
{ACAD_REACTORS
330
C
102
}
330
C
100
AcDbXrecord
280
     1
  1
DWGPROPS COOKIE
  2

  3

  4

  6

  7

  8
Yoshitsune
  9

300
=
301
=
302
=
303
=
304
=
305
=
306
=
307
=
308
=
309
=
 40
0.145951712962963
 41
2453721.992601273
 42
2457192.700780289
  1

 90
        0
  0
XRECORD
  5
19F5
102
{ACAD_REACTORS
330
19F4
102
}
330
19F4
100
AcDbXrecord
280
     1
290
     1
  0
XRECORD
  5
19F7
102
{ACAD_REACTORS
330
19F6
102
}
330
19F6
100
AcDbXrecord
280
     1
290
     1
  0
XRECORD
  5
19F9
102
{ACAD_REACTORS
330
19F8
102
}
330
19F8
100
AcDbXrecord
280
     1
290
     1
  0
XRECORD
  5
19FB
102
{ACAD_REACTORS
330
19FA
102
}
330
19FA
100
AcDbXrecord
280
     1
290
     1
  0
XRECORD
  5
19FD
102
{ACAD_REACTORS
330
19FC
102
}
330
19FC
100
AcDbXrecord
280
     1
290
     1
  0
XRECORD
  5
19FF
102
{ACAD_REACTORS
330
19FE
102
}
330
19FE
100
AcDbXrecord
280
     1
290
     1
  0
XRECORD
  5
1A01
102
{ACAD_REACTORS
330
1A00
102
}
330
1A00
100
AcDbXrecord
280
     1
290
     1
  0
XRECORD
  5
1A03
102
{ACAD_REACTORS
330
1A02
102
}
330
1A02
100
AcDbXrecord
280
     1
290
     1
  0
XRECORD
  5
199E
102
{ACAD_REACTORS
330
199D
102
}
330
199D
100
AcDbXrecord
280
     1
340
18
  0
XRECORD
  5
199C
102
{ACAD_REACTORS
330
199B
102
}
330
199B
100
AcDbXrecord
280
     1
340
15
  0
ACDBDETAILVIEWSTYLE
  5
19F0
102
{ACAD_XDICTIONARY
360
1A4A
102
}
102
{ACAD_REACTORS
330
19EF
102
}
330
19EF
100
AcDbModelDocViewStyle
 70
     0
  3
Imperial24
290
     0
100
AcDbDetailViewStyle
 70
     0
 71
     0
 90
        3
 71
     1
340
F
 40
0.24
340
0
 40
0.24
300

 40
0.36
280
     3
 71
     2
340
14
 90
       25
 71
     3
340
F
 40
0.24
 90
        1
 40
0.75
 90
        1
300
%<\AcVar ViewType \f "%tc1">% %<\AcVar ViewDetailId>%\PSCALE %<\AcVar ViewScale \f "%sn">%
 71
     4
340
14
 90
       25
340
14
 90
       25
280
     0
  0
LAYOUT
  5
19F1
102
{ACAD_XDICTIONARY
360
1A4C
102
}
102
{ACAD_REACTORS
330
94
102
}
330
94
100
AcDbPlotSettings
  1

  2
Canon LBP9100C
  4

  6

 40
0.0
 41
0.0
 42
0.0
 43
0.0
 44
0.0
 45
0.0
 46
0.0
 47
0.0
 48
0.0
 49
0.0
140
0.0
141
0.0
142
1.0
143
1.0
 70
  1712
 72
     0
 73
     0
 74
     0
  7

 75
     0
147
1.0
148
0.0
149
0.0
100
AcDbLayout
  1
Model
 70
     1
 71
     0
 10
0.0
 20
0.0
 11
12.0
 21
9.0
 12
0.0
 22
0.0
 32
0.0
 14
0.0
 24
0.0
 34
0.0
 15
0.0
 25
0.0
 35
0.0
146
0.0
 13
0.0
 23
0.0
 33
0.0
 16
1.0
 26
0.0
 36
0.0
 17
0.0
 27
1.0
 37
0.0
 76
     0
330
18
331
199A
  0
LAYOUT
  5
19F2
102
{ACAD_XDICTIONARY
360
1A4E
102
}
102
{ACAD_REACTORS
330
94
102
}
330
94
100
AcDbPlotSettings
  1

  2
Canon LBP9100C
  4

  6

 40
0.0
 41
0.0
 42
0.0
 43
0.0
 44
0.0
 45
0.0
 46
0.0
 47
0.0
 48
0.0
 49
0.0
140
0.0
141
0.0
142
1.0
143
1.0
 70
   688
 72
     0
 73
     0
 74
     5
  7

 75
    16
147
1.0
148
0.0
149
0.0
100
AcDbLayout
  1
レイアウト1
 70
     1
 71
     1
 10
-3.757080078125
 20
-3.757083177566528
 11
293.2112426757812
 21
206.2162444591522
 12
0.0
 22
0.0
 32
0.0
 14
27.8447512626648
 24
20.24591643810271
 34
0.0
 15
250.6027613639831
 25
182.2132479429244
 35
0.0
146
0.0
 13
0.0
 23
0.0
 33
0.0
 16
1.0
 26
0.0
 36
0.0
 17
0.0
 27
1.0
 37
0.0
 76
     0
330
15
  0
MATERIAL
  5
19AD
102
{ACAD_XDICTIONARY
360
19AE
102
}
102
{ACAD_REACTORS
330
19A4
102
}
330
19A4
100
AcDbMaterial
  1
ByBlock
 72
     0
 43
0.0208333333333333
 43
0.0
 43
0.0
 43
0.0
 43
0.0
 43
0.0208333333333333
 43
0.0
 43
0.0
 43
0.0
 43
0.0
 43
1.0
 43
0.0
 43
0.0
 43
0.0
 43
0.0
 43
1.0
 77
     0
 47
0.0208333333333333
 47
0.0
 47
0.0
 47
0.0
 47
0.0
 47
0.0208333333333333
 47
0.0
 47
0.0
 47
0.0
 47
0.0
 47
1.0
 47
0.0
 47
0.0
 47
0.0
 47
0.0
 47
1.0
171
     0
 49
0.0208333333333333
 49
0.0
 49
0.0
 49
0.0
 49
0.0
 49
0.0208333333333333
 49
0.0
 49
0.0
 49
0.0
 49
0.0
 49
1.0
 49
0.0
 49
0.0
 49
0.0
 49
0.0
 49
1.0
175
     0
142
0.0208333333333333
142
0.0
142
0.0
142
0.0
142
0.0
142
0.0208333333333333
142
0.0
142
0.0
142
0.0
142
0.0
142
1.0
142
0.0
142
0.0
142
0.0
142
0.0
142
1.0
179
     0
144
0.0208333333333333
144
0.0
144
0.0
144
0.0
144
0.0
144
0.0208333333333333
144
0.0
144
0.0
144
0.0
144
0.0
144
1.0
144
0.0
144
0.0
144
0.0
144
0.0
144
1.0
147
0.0208333333333333
147
0.0
147
0.0
147
0.0
147
0.0
147
0.0208333333333333
147
0.0
147
0.0
147
0.0
147
0.0
147
1.0
147
0.0
147
0.0
147
0.0
147
0.0
147
1.0
  0
MATERIAL
  5
19A5
102
{ACAD_XDICTIONARY
360
19A6
102
}
102
{ACAD_REACTORS
330
19A4
102
}
330
19A4
100
AcDbMaterial
  1
ByLayer
 72
     0
 43
0.0208333333333333
 43
0.0
 43
0.0
 43
0.0
 43
0.0
 43
0.0208333333333333
 43
0.0
 43
0.0
 43
0.0
 43
0.0
 43
1.0
 43
0.0
 43
0.0
 43
0.0
 43
0.0
 43
1.0
 77
     0
 47
0.0208333333333333
 47
0.0
 47
0.0
 47
0.0
 47
0.0
 47
0.0208333333333333
 47
0.0
 47
0.0
 47
0.0
 47
0.0
 47
1.0
 47
0.0
 47
0.0
 47
0.0
 47
0.0
 47
1.0
171
     0
 49
0.0208333333333333
 49
0.0
 49
0.0
 49
0.0
 49
0.0
 49
0.0208333333333333
 49
0.0
 49
0.0
 49
0.0
 49
0.0
 49
1.0
 49
0.0
 49
0.0
 49
0.0
 49
0.0
 49
1.0
175
     0
142
0.0208333333333333
142
0.0
142
0.0
142
0.0
142
0.0
142
0.0208333333333333
142
0.0
142
0.0
142
0.0
142
0.0
142
1.0
142
0.0
142
0.0
142
0.0
142
0.0
142
1.0
179
     0
144
0.0208333333333333
144
0.0
144
0.0
144
0.0
144
0.0
144
0.0208333333333333
144
0.0
144
0.0
144
0.0
144
0.0
144
1.0
144
0.0
144
0.0
144
0.0
144
0.0
144
1.0
147
0.0208333333333333
147
0.0
147
0.0
147
0.0
147
0.0
147
0.0208333333333333
147
0.0
147
0.0
147
0.0
147
0.0
147
1.0
147
0.0
147
0.0
147
0.0
147
0.0
147
1.0
  0
MATERIAL
  5
19B5
102
{ACAD_XDICTIONARY
360
19B6
102
}
102
{ACAD_REACTORS
330
19A4
102
}
330
19A4
100
AcDbMaterial
  1
Global
 72
     0
 43
0.0208333333333333
 43
0.0
 43
0.0
 43
0.0
 43
0.0
 43
0.0208333333333333
 43
0.0
 43
0.0
 43
0.0
 43
0.0
 43
1.0
 43
0.0
 43
0.0
 43
0.0
 43
0.0
 43
1.0
 77
     0
 47
0.0208333333333333
 47
0.0
 47
0.0
 47
0.0
 47
0.0
 47
0.0208333333333333
 47
0.0
 47
0.0
 47
0.0
 47
0.0
 47
1.0
 47
0.0
 47
0.0
 47
0.0
 47
0.0
 47
1.0
171
     0
 49
0.0208333333333333
 49
0.0
 49
0.0
 49
0.0
 49
0.0
 49
0.0208333333333333
 49
0.0
 49
0.0
 49
0.0
 49
0.0
 49
1.0
 49
0.0
 49
0.0
 49
0.0
 49
0.0
 49
1.0
175
     0
142
0.0208333333333333
142
0.0
142
0.0
142
0.0
142
0.0
142
0.0208333333333333
142
0.0
142
0.0
142
0.0
142
0.0
142
1.0
142
0.0
142
0.0
142
0.0
142
0.0
142
1.0
179
     0
144
0.0208333333333333
144
0.0
144
0.0
144
0.0
144
0.0
144
0.0208333333333333
144
0.0
144
0.0
144
0.0
144
0.0
144
1.0
144
0.0
144
0.0
144
0.0
144
0.0
144
1.0
147
0.0208333333333333
147
0.0
147
0.0
147
0.0
147
0.0
147
0.0208333333333333
147
0.0
147
0.0
147
0.0
147
0.0
147
1.0
147
0.0
147
0.0
147
0.0
147
0.0
147
1.0
  0
MLEADERSTYLE
  5
19EC
102
{ACAD_REACTORS
330
19EB
102
}
330
19EB
100
AcDbMLeaderStyle
170
     2
171
     1
172
     0
 90
        2
 40
0.0
 41
0.0
173
     1
 91
-1056964608
340
12
 92
       -2
290
     1
 42
0.09
291
     1
 43
0.36
  3
Standard
 44
0.18
300

342
F
174
     1
178
     6
175
     1
176
     0
 93
-1056964608
 45
0.18
292
     0
297
     0
 46
0.18
 94
-1056964608
 47
1.0
 49
1.0
140
1.0
293
     1
141
0.0
294
     1
177
     0
142
1.0
295
     0
296
     0
143
0.125
1001
ACAD_MLEADERVER
1070
     2
  0
MLINESTYLE
  5
1C
102
{ACAD_REACTORS
330
1B
102
}
330
1B
100
AcDbMlineStyle
  2
STANDARD
 70
     0
  3

 62
   256
 51
90.0
 52
90.0
 71
     2
 49
0.5
 62
   256
  6
BYLAYER
 49
-0.5
 62
   256
  6
BYLAYER
  0
ACDBPLACEHOLDER
  5
19A3
102
{ACAD_REACTORS
330
19A2
102
}
330
19A2
  0
SCALE
  5
19DA
102
{ACAD_REACTORS
330
19D9
102
}
330
19D9
100
AcDbScale
 70
     0
300
1:1
140
1.0
141
1.0
290
     1
  0
SCALE
  5
19DB
102
{ACAD_REACTORS
330
19D9
102
}
330
19D9
100
AcDbScale
 70
     0
300
1/128" = 1'-0"
140
0.0078125
141
12.0
290
     0
  0
SCALE
  5
19DC
102
{ACAD_REACTORS
330
19D9
102
}
330
19D9
100
AcDbScale
 70
     0
300
1/64" = 1'-0"
140
0.015625
141
12.0
290
     0
  0
SCALE
  5
19DD
102
{ACAD_REACTORS
330
19D9
102
}
330
19D9
100
AcDbScale
 70
     0
300
1/32" = 1'-0"
140
0.03125
141
12.0
290
     0
  0
SCALE
  5
19DE
102
{ACAD_REACTORS
330
19D9
102
}
330
19D9
100
AcDbScale
 70
     0
300
1/16" = 1'-0"
140
0.0625
141
12.0
290
     0
  0
SCALE
  5
19DF
102
{ACAD_REACTORS
330
19D9
102
}
330
19D9
100
AcDbScale
 70
     0
300
3/32" = 1'-0"
140
0.09375
141
12.0
290
     0
  0
SCALE
  5
19E0
102
{ACAD_REACTORS
330
19D9
102
}
330
19D9
100
AcDbScale
 70
     0
300
1/8" = 1'-0"
140
0.125
141
12.0
290
     0
  0
SCALE
  5
19E1
102
{ACAD_REACTORS
330
19D9
102
}
330
19D9
100
AcDbScale
 70
     0
300
3/16" = 1'-0"
140
0.1875
141
12.0
290
     0
  0
SCALE
  5
19E2
102
{ACAD_REACTORS
330
19D9
102
}
330
19D9
100
AcDbScale
 70
     0
300
1/4" = 1'-0"
140
0.25
141
12.0
290
     0
  0
SCALE
  5
19E3
102
{ACAD_REACTORS
330
19D9
102
}
330
19D9
100
AcDbScale
 70
     0
300
3/8" = 1'-0"
140
0.375
141
12.0
290
     0
  0
SCALE
  5
19E4
102
{ACAD_REACTORS
330
19D9
102
}
330
19D9
100
AcDbScale
 70
     0
300
1/2" = 1'-0"
140
0.5
141
12.0
290
     0
  0
SCALE
  5
19E5
102
{ACAD_REACTORS
330
19D9
102
}
330
19D9
100
AcDbScale
 70
     0
300
3/4" = 1'-0"
140
0.75
141
12.0
290
     0
  0
SCALE
  5
19E6
102
{ACAD_REACTORS
330
19D9
102
}
330
19D9
100
AcDbScale
 70
     0
300
1" = 1'-0"
140
1.0
141
12.0
290
     0
  0
SCALE
  5
19E7
102
{ACAD_REACTORS
330
19D9
102
}
330
19D9
100
AcDbScale
 70
     0
300
1-1/2" = 1'-0"
140
1.5
141
12.0
290
     0
  0
SCALE
  5
19E8
102
{ACAD_REACTORS
330
19D9
102
}
330
19D9
100
AcDbScale
 70
     0
300
3" = 1'-0"
140
3.0
141
12.0
290
     0
  0
SCALE
  5
19E9
102
{ACAD_REACTORS
330
19D9
102
}
330
19D9
100
AcDbScale
 70
     0
300
6" = 1'-0"
140
6.0
141
12.0
290
     0
  0
SCALE
  5
19EA
102
{ACAD_REACTORS
330
19D9
102
}
330
19D9
100
AcDbScale
 70
     0
300
1'-0" = 1'-0"
140
12.0
141
12.0
290
     0
  0
ACDBSECTIONVIEWSTYLE
  5
19EE
102
{ACAD_XDICTIONARY
360
1A48
102
}
102
{ACAD_REACTORS
330
19ED
102
}
330
19ED
100
AcDbModelDocViewStyle
 70
     0
  3
Imperial24
290
     0
100
AcDbSectionViewStyle
 70
     0
 71
     0
 90
       78
 71
     1
340
F
 40
0.24
340
0
340
0
 40
0.24
300
I, O, Q, S, X, Z
 40
0.48
 90
        3
 40
0.18
 90
        1
 71
     2
340
14
 90
       25
340
14
 90
       50
 40
0.24
 40
0.0
 40
0.24
 71
     3
340
F
 40
0.24
 90
        1
 40
0.75
 90
        1
300
%<\AcVar ViewType \f "%tc1">% %<\AcVar ViewSectionStartId>%-%<\AcVar ViewSectionEndId>%\PSCALE %<\AcVar ViewScale \f "%sn">%
 71
     4
300
ANSI31
 40
1.0
 90
        0
290
     0
290
     0
 90
        6
 40
0.0
 40
1.570796326794896
 40
0.2617993877991494
 40
1.308996938995747
 40
-0.2617993877991494
 40
1.832595714594046
  0
TABLESTYLE
  5
19D8
102
{ACAD_XDICTIONARY
360
1A0F
102
}
102
{ACAD_REACTORS
330
19D7
102
}
330
19D7
100
AcDbTableStyle
  3
Standard
 70
     0
 71
     0
 40
0.06
 41
0.06
280
     0
281
     0
  7
STANDARD
140
0.18
170
     2
 62
     0
 63
     7
283
     0
274
    -2
284
     1
 64
     0
275
    -2
285
     1
 65
     0
276
    -2
286
     1
 66
     0
277
    -2
287
     1
 67
     0
278
    -2
288
     1
 68
     0
279
    -2
289
     1
 69
     0
  7
STANDARD
140
0.25
170
     5
 62
     0
 63
     7
283
     0
274
    -2
284
     1
 64
     0
275
    -2
285
     1
 65
     0
276
    -2
286
     1
 66
     0
277
    -2
287
     1
 67
     0
278
    -2
288
     1
 68
     0
279
    -2
289
     1
 69
     0
  7
STANDARD
140
0.18
170
     5
 62
     0
 63
     7
283
     0
274
    -2
284
     1
 64
     0
275
    -2
285
     1
 65
     0
276
    -2
286
     1
 66
     0
277
    -2
287
     1
 67
     0
278
    -2
288
     1
 68
     0
279
    -2
289
     1
 69
     0
  0
VISUALSTYLE
  5
19C3
102
{ACAD_XDICTIONARY
360
1A20
102
}
102
{ACAD_REACTORS
330
19BD
102
}
330
19BD
100
AcDbVisualStyle
  2
2dWireframe
 70
     4
 71
     0
 72
     2
 73
     0
 90
        0
 40
-0.6
 41
-30.0
 62
     5
 63
     7
 74
     1
 91
        4
 64
     7
 65
   257
 75
     1
175
     1
 42
1.0
 92
        0
 66
   257
 43
1.0
 76
     1
 77
     6
 78
     2
 67
     7
 79
     5
170
     0
171
     0
290
     0
174
     0
 93
        1
 44
0.0
173
     0
291
     0
 45
0.0
1001
ACAD
1000
AcDbSavedByObjectVersion
1070
     0
  0
VISUALSTYLE
  5
19C2
102
{ACAD_XDICTIONARY
360
1A1E
102
}
102
{ACAD_REACTORS
330
19BD
102
}
330
19BD
100
AcDbVisualStyle
  2
Basic
 70
     7
 71
     1
 72
     0
 73
     1
 90
        0
 40
-0.6
 41
-30.0
 62
     5
 63
     7
 74
     0
 91
        4
 64
     7
 65
   257
 75
     1
175
     1
 42
1.0
 92
        8
 66
     7
 43
1.0
 76
     1
 77
     6
 78
     2
 67
     7
 79
     5
170
     0
171
     0
290
     0
174
     0
 93
        1
 44
0.0
173
     0
291
     1
 45
0.0
1001
ACAD
1000
AcDbSavedByObjectVersion
1070
     0
  0
VISUALSTYLE
  5
19C9
102
{ACAD_XDICTIONARY
360
1A2C
102
}
102
{ACAD_REACTORS
330
19BD
102
}
330
19BD
100
AcDbVisualStyle
  2
Brighten
 70
    12
 71
     2
 72
     2
 73
     0
 90
        0
 40
-0.6
 41
-30.0
 62
     5
 63
     7
 74
     1
 91
        4
 64
     7
 65
   257
 75
     1
175
     1
 42
1.0
 92
        8
 66
     7
 43
1.0
 76
     1
 77
     6
 78
     2
 67
     7
 79
     5
170
     0
171
     0
290
     0
174
     0
 93
        1
 44
50.0
173
     0
291
     1
 45
0.0
1001
ACAD
1000
AcDbSavedByObjectVersion
1070
     0
  0
VISUALSTYLE
  5
19CD
102
{ACAD_XDICTIONARY
360
1A34
102
}
102
{ACAD_REACTORS
330
19BD
102
}
330
19BD
100
AcDbVisualStyle
  2
ColorChange
 70
    16
 71
     2
 72
     2
 73
     3
 90
        0
 40
-0.6
 41
-30.0
 62
     5
 63
     8
 74
     1
 91
        4
 64
     7
 65
   257
 75
     1
175
     1
 42
1.0
 92
        8
 66
     8
 43
1.0
 76
     1
 77
     6
 78
     2
 67
     7
 79
     5
170
     0
171
     0
290
     0
174
     0
 93
        1
 44
0.0
173
     0
291
     1
 45
0.0
1001
ACAD
1000
AcDbSavedByObjectVersion
1070
     0
  0
VISUALSTYLE
  5
19C6
102
{ACAD_XDICTIONARY
360
1A26
102
}
102
{ACAD_REACTORS
330
19BD
102
}
330
19BD
100
AcDbVisualStyle
  2
Conceptual
 70
     9
 71
     3
 72
     2
 73
     0
 90
        0
 40
-0.6
 41
-30.0
 62
     5
 63
     7
 74
     2
 91
        2
 64
     7
 65
   257
 75
     1
175
     1
 42
179.0
 92
        8
 66
     7
 43
1.0
 76
     1
 77
     6
 78
     2
 67
     7
 79
     3
170
     0
171
     0
290
     0
174
     0
 93
        1
 44
0.0
173
     0
291
     0
 45
0.0
1001
ACAD
1000
AcDbSavedByObjectVersion
1070
     0
  0
VISUALSTYLE
  5
19C8
102
{ACAD_XDICTIONARY
360
1A2A
102
}
102
{ACAD_REACTORS
330
19BD
102
}
330
19BD
100
AcDbVisualStyle
  2
Dim
 70
    11
 71
     2
 72
     2
 73
     0
 90
        0
 40
-0.6
 41
-30.0
 62
     5
 63
     7
 74
     1
 91
        4
 64
     7
 65
   257
 75
     1
175
     1
 42
1.0
 92
        8
 66
     7
 43
1.0
 76
     1
 77
     6
 78
     2
 67
     7
 79
     5
170
     0
171
     0
290
     0
174
     0
 93
        1
 44
-50.0
173
     0
291
     1
 45
0.0
1001
ACAD
1000
AcDbSavedByObjectVersion
1070
     0
  0
VISUALSTYLE
  5
19D5
102
{ACAD_XDICTIONARY
360
1A44
102
}
102
{ACAD_REACTORS
330
19BD
102
}
330
19BD
100
AcDbVisualStyle
  2
EdgeColorOff
 70
    22
 71
     2
 72
     2
 73
     0
 90
        0
 40
-0.6
 41
-30.0
 62
     5
 63
     7
 74
     1
 91
        4
 64
     7
 65
   257
 75
     1
175
     1
 42
1.0
 92
        8
 66
     7
 43
1.0
 76
     1
 77
     6
 78
     2
 67
     7
 79
     5
170
     0
171
     0
290
     0
174
     0
 93
        1
 44
0.0
173
     0
291
     1
 45
0.0
1001
ACAD
1000
AcDbSavedByObjectVersion
1070
     0
  0
VISUALSTYLE
  5
19CC
102
{ACAD_XDICTIONARY
360
1A32
102
}
102
{ACAD_REACTORS
330
19BD
102
}
330
19BD
100
AcDbVisualStyle
  2
Facepattern
 70
    15
 71
     2
 72
     2
 73
     0
 90
        0
 40
-0.6
 41
-30.0
 62
     5
 63
     7
 74
     1
 91
        4
 64
     7
 65
   257
 75
     1
175
     1
 42
1.0
 92
        8
 66
     7
 43
1.0
 76
     1
 77
     6
 78
     2
 67
     7
 79
     5
170
     0
171
     0
290
     0
174
     0
 93
        1
 44
0.0
173
     0
291
     1
 45
0.0
1001
ACAD
1000
AcDbSavedByObjectVersion
1070
     0
  0
VISUALSTYLE
  5
19BE
102
{ACAD_XDICTIONARY
360
1A16
102
}
102
{ACAD_REACTORS
330
19BD
102
}
330
19BD
100
AcDbVisualStyle
  2
Flat
 70
     0
 71
     2
 72
     1
 73
     1
 90
        2
 40
-0.6
 41
30.0
 62
     5
 63
     7
 74
     0
 91
        0
 64
     7
 65
   257
 75
     1
175
     1
 42
1.0
 92
        8
 66
     7
 43
1.0
 76
     1
 77
     6
 78
     2
 67
     7
 79
     5
170
     0
171
     0
290
     0
174
     0
 93
       13
 44
0.0
173
     0
291
     1
 45
0.0
1001
ACAD
1000
AcDbSavedByObjectVersion
1070
     0
  0
VISUALSTYLE
  5
19BF
102
{ACAD_XDICTIONARY
360
1A18
102
}
102
{ACAD_REACTORS
330
19BD
102
}
330
19BD
100
AcDbVisualStyle
  2
FlatWithEdges
 70
     1
 71
     2
 72
     1
 73
     1
 90
        2
 40
-0.6
 41
30.0
 62
     5
 63
     7
 74
     1
 91
        0
 64
     7
 65
   257
 75
     1
175
     1
 42
1.0
 92
        0
 66
   257
 43
1.0
 76
     1
 77
     6
 78
     2
 67
     7
 79
     5
170
     0
171
     0
290
     0
174
     0
 93
       13
 44
0.0
173
     0
291
     1
 45
0.0
1001
ACAD
1000
AcDbSavedByObjectVersion
1070
     0
  0
VISUALSTYLE
  5
19C0
102
{ACAD_XDICTIONARY
360
1A1A
102
}
102
{ACAD_REACTORS
330
19BD
102
}
330
19BD
100
AcDbVisualStyle
  2
Gouraud
 70
     2
 71
     2
 72
     2
 73
     1
 90
        2
 40
-0.6
 41
30.0
 62
     5
 63
     7
 74
     0
 91
        0
 64
     7
 65
   257
 75
     1
175
     1
 42
1.0
 92
        0
 66
     7
 43
1.0
 76
     1
 77
     6
 78
     2
 67
     7
 79
     5
170
     0
171
     0
290
     0
174
     0
 93
       13
 44
0.0
173
     0
291
     1
 45
0.0
1001
ACAD
1000
AcDbSavedByObjectVersion
1070
     0
  0
VISUALSTYLE
  5
19C1
102
{ACAD_XDICTIONARY
360
1A1C
102
}
102
{ACAD_REACTORS
330
19BD
102
}
330
19BD
100
AcDbVisualStyle
  2
GouraudWithEdges
 70
     3
 71
     2
 72
     2
 73
     1
 90
        2
 40
-0.6
 41
30.0
 62
     5
 63
     7
 74
     1
 91
        0
 64
     7
 65
   257
 75
     1
175
     1
 42
1.0
 92
        0
 66
   257
 43
1.0
 76
     1
 77
     6
 78
     2
 67
     7
 79
     5
170
     0
171
     0
290
     0
174
     0
 93
       13
 44
0.0
173
     0
291
     1
 45
0.0
1001
ACAD
1000
AcDbSavedByObjectVersion
1070
     0
  0
VISUALSTYLE
  5
19C5
102
{ACAD_XDICTIONARY
360
1A24
102
}
102
{ACAD_REACTORS
330
19BD
102
}
330
19BD
100
AcDbVisualStyle
  2
Hidden
 70
     6
 71
     1
 72
     2
 73
     2
 90
        0
 40
-0.6
 41
-30.0
 62
     5
 63
     7
 74
     2
 91
        2
 64
     7
 65
   257
 75
     2
175
     1
 42
40.0
 92
        0
 66
   257
 43
1.0
 76
     1
 77
     6
 78
     2
 67
     7
 79
     3
170
     0
171
     0
290
     0
174
     0
 93
        1
 44
0.0
173
     0
291
     0
 45
0.0
1001
ACAD
1000
AcDbSavedByObjectVersion
1070
     0
  0
VISUALSTYLE
  5
19D3
102
{ACAD_XDICTIONARY
360
1A40
102
}
102
{ACAD_REACTORS
330
19BD
102
}
330
19BD
100
AcDbVisualStyle
  2
JitterOff
 70
    20
 71
     2
 72
     2
 73
     0
 90
        0
 40
-0.6
 41
-30.0
 62
     5
 63
     7
 74
     1
 91
        4
 64
     7
 65
   257
 75
     1
175
     1
 42
1.0
 92
       10
 66
     7
 43
1.0
 76
     1
 77
     6
 78
     2
 67
     7
 79
     5
170
     0
171
     0
290
     0
174
     0
 93
        1
 44
0.0
173
     0
291
     1
 45
0.0
1001
ACAD
1000
AcDbSavedByObjectVersion
1070
     0
  0
VISUALSTYLE
  5
19CB
102
{ACAD_XDICTIONARY
360
1A30
102
}
102
{ACAD_REACTORS
330
19BD
102
}
330
19BD
100
AcDbVisualStyle
  2
Linepattern
 70
    14
 71
     2
 72
     2
 73
     0
 90
        0
 40
-0.6
 41
-30.0
 62
     5
 63
     7
 74
     1
 91
        4
 64
     7
 65
   257
 75
     7
175
     7
 42
1.0
 92
        8
 66
     7
 43
1.0
 76
     1
 77
     6
 78
     2
 67
     7
 79
     5
170
     0
171
     0
290
     0
174
     0
 93
        1
 44
0.0
173
     0
291
     1
 45
0.0
1001
ACAD
1000
AcDbSavedByObjectVersion
1070
     0
  0
VISUALSTYLE
  5
19D4
102
{ACAD_XDICTIONARY
360
1A42
102
}
102
{ACAD_REACTORS
330
19BD
102
}
330
19BD
100
AcDbVisualStyle
  2
OverhangOff
 70
    21
 71
     2
 72
     2
 73
     0
 90
        0
 40
-0.6
 41
-30.0
 62
     5
 63
     7
 74
     1
 91
        4
 64
     7
 65
   257
 75
     1
175
     1
 42
1.0
 92
        9
 66
     7
 43
1.0
 76
     1
 77
     6
 78
     2
 67
     7
 79
     5
170
     0
171
     0
290
     0
174
     0
 93
        1
 44
0.0
173
     0
291
     1
 45
0.0
1001
ACAD
1000
AcDbSavedByObjectVersion
1070
     0
  0
VISUALSTYLE
  5
19C7
102
{ACAD_XDICTIONARY
360
1A28
102
}
102
{ACAD_REACTORS
330
19BD
102
}
330
19BD
100
AcDbVisualStyle
  2
Realistic
 70
     8
 71
     2
 72
     3
 73
     0
 90
        2
 40
-0.6
 41
30.0
 62
     5
 63
     7
 74
     0
 91
        0
 64
     7
 65
   257
 75
     1
175
     1
 42
1.0
 92
        8
 66
   257
 43
1.0
 76
     1
 77
     6
 78
     2
 67
     7
 79
     3
170
     0
171
     0
290
     0
174
     0
 93
       13
 44
0.0
173
     0
291
     0
 45
0.0
1001
ACAD
1000
AcDbSavedByObjectVersion
1070
     0
  0
VISUALSTYLE
  5
19D2
102
{ACAD_XDICTIONARY
360
1A3E
102
}
102
{ACAD_REACTORS
330
19BD
102
}
330
19BD
100
AcDbVisualStyle
  2
Shaded
 70
    27
 71
     2
 72
     2
 73
     1
 90
        2
 40
-0.6
 41
30.0
 62
     5
 63
     7
 74
     0
 91
        4
 64
     7
 65
   257
 75
     1
175
     1
 42
1.0
 92
        8
 66
   257
 43
1.0
 76
     1
 77
     6
 78
     2
 67
     8
 79
     3
170
     0
171
     0
290
     0
174
     0
 93
        5
 44
0.0
173
     0
291
     0
 45
0.0
1001
ACAD
1000
AcDbSavedByObjectVersion
1070
     0
  0
VISUALSTYLE
  5
19D1
102
{ACAD_XDICTIONARY
360
1A3C
102
}
102
{ACAD_REACTORS
330
19BD
102
}
330
19BD
100
AcDbVisualStyle
  2
Shaded with edges
 70
    26
 71
     2
 72
     2
 73
     1
 90
        2
 40
-0.6
 41
30.0
 62
     5
 63
     7
 74
     1
 91
       10
 64
     7
 65
   257
 75
     2
175
     1
 42
1.0
 92
        8
 66
   257
 43
1.0
 76
     1
 77
     6
 78
     2
 67
     7
 79
     3
170
     0
171
     0
290
     0
174
     0
 93
        5
 44
0.0
173
     0
291
     0
 45
0.0
1001
ACAD
1000
AcDbSavedByObjectVersion
1070
     0
  0
VISUALSTYLE
  5
19CE
102
{ACAD_XDICTIONARY
360
1A36
102
}
102
{ACAD_REACTORS
330
19BD
102
}
330
19BD
100
AcDbVisualStyle
  2
Shades of Gray
 70
    23
 71
     2
 72
     2
 73
     3
 90
        0
 40
-0.6
 41
-30.0
 62
     5
 63
     7
 74
     2
 91
        2
 64
     7
 65
     7
 75
     1
175
     1
 42
40.0
 92
        8
 66
     7
 43
1.0
 76
     1
 77
     6
 78
     2
 67
     7
 79
     3
170
     0
171
     0
290
     0
174
     0
 93
        1
 44
0.0
173
     0
291
     0
 45
0.0
1001
ACAD
1000
AcDbSavedByObjectVersion
1070
     0
  0
VISUALSTYLE
  5
19CF
102
{ACAD_XDICTIONARY
360
1A38
102
}
102
{ACAD_REACTORS
330
19BD
102
}
330
19BD
100
AcDbVisualStyle
  2
Sketchy
 70
    24
 71
     1
 72
     2
 73
     2
 90
        0
 40
-0.6
 41
-30.0
 62
     5
 63
     7
 74
     2
 91
        2
 64
     7
 65
     7
 75
     1
175
     1
 42
40.0
 92
       11
 66
     7
 43
1.0
 76
     1
 77
     6
 78
     2
 67
     7
 79
     6
170
     0
171
     0
290
     0
174
     0
 93
        1
 44
0.0
173
     0
291
     0
 45
0.0
1001
ACAD
1000
AcDbSavedByObjectVersion
1070
     0
  0
VISUALSTYLE
  5
19CA
102
{ACAD_XDICTIONARY
360
1A2E
102
}
102
{ACAD_REACTORS
330
19BD
102
}
330
19BD
100
AcDbVisualStyle
  2
Thicken
 70
    13
 71
     2
 72
     2
 73
     0
 90
        0
 40
-0.6
 41
-30.0
 62
     5
 63
     7
 74
     1
 91
        4
 64
     7
 65
   257
 75
     1
175
     1
 42
1.0
 92
       12
 66
     7
 43
1.0
 76
     1
 77
     6
 78
     2
 67
     7
 79
     5
170
     0
171
     0
290
     0
174
     0
 93
        1
 44
0.0
173
     0
291
     1
 45
0.0
1001
ACAD
1000
AcDbSavedByObjectVersion
1070
     0
  0
VISUALSTYLE
  5
19C4
102
{ACAD_XDICTIONARY
360
1A22
102
}
102
{ACAD_REACTORS
330
19BD
102
}
330
19BD
100
AcDbVisualStyle
  2
Wireframe
 70
     5
 71
     0
 72
     2
 73
     0
 90
        0
 40
-0.6
 41
-30.0
 62
     5
 63
     7
 74
     1
 91
        4
 64
     7
 65
   257
 75
     1
175
     1
 42
1.0
 92
        0
 66
   257
 43
1.0
 76
     1
 77
     6
 78
     2
 67
     7
 79
     3
170
     0
171
     0
290
     0
174
     0
 93
        1
 44
0.0
173
     0
291
     0
 45
0.0
1001
ACAD
1000
AcDbSavedByObjectVersion
1070
     0
  0
VISUALSTYLE
  5
19D0
102
{ACAD_XDICTIONARY
360
1A3A
102
}
102
{ACAD_REACTORS
330
19BD
102
}
330
19BD
100
AcDbVisualStyle
  2
X-Ray
 70
    25
 71
     2
 72
     2
 73
     1
 90
        1
 40
0.5
 41
-30.0
 62
     5
 63
     7
 74
     1
 91
        0
 64
     7
 65
   257
 75
     1
175
     1
 42
1.0
 92
        8
 66
     7
 43
1.0
 76
     1
 77
     6
 78
     2
 67
     7
 79
     3
170
     0
171
     0
290
     0
174
     0
 93
       13
 44
0.0
173
     0
291
     0
 45
0.0
1001
ACAD
1000
AcDbSavedByObjectVersion
1070
     0
  0
DICTIONARYVAR
  5
1A09
102
{ACAD_REACTORS
330
1A04
102
}
330
1A04
100
DictionaryVariables
280
     0
  1
1:1
  0
DICTIONARYVAR
  5
1A06
102
{ACAD_REACTORS
330
1A04
102
}
330
1A04
100
DictionaryVariables
280
     0
  1
STANDARD
  0
DICTIONARYVAR
  5
1A05
102
{ACAD_REACTORS
330
1A04
102
}
330
1A04
100
DictionaryVariables
280
     0
  1
STANDARD
  0
DICTIONARYVAR
  5
1A07
102
{ACAD_REACTORS
330
1A04
102
}
330
1A04
100
DictionaryVariables
280
     0
  1
Imperial24
  0
DICTIONARYVAR
  5
1A08
102
{ACAD_REACTORS
330
1A04
102
}
330
1A04
100
DictionaryVariables
280
     0
  1
Imperial24
  0
DICTIONARYVAR
  5
1A0C
102
{ACAD_REACTORS
330
1A04
102
}
330
1A04
100
DictionaryVariables
280
     0
  1
1
  0
DICTIONARYVAR
  5
1A0B
102
{ACAD_REACTORS
330
1A04
102
}
330
1A04
100
DictionaryVariables
280
     0
  1
0
  0
DICTIONARYVAR
  5
1A0A
102
{ACAD_REACTORS
330
1A04
102
}
330
1A04
100
DictionaryVariables
280
     0
  1
127
  0
DICTIONARYVAR
  5
1A0D
102
{ACAD_REACTORS
330
1A04
102
}
330
1A04
100
DictionaryVariables
280
     0
  1
2
  0
DICTIONARY
  5
1A4A
330
19F0
100
AcDbDictionary
280
     1
281
     1
  3
ACAD_XREC_ROUNDTRIP
360
1A4B
  0
DICTIONARY
  5
1A4C
330
19F1
100
AcDbDictionary
280
     1
281
     1
  3
ACAD_XREC_ROUNDTRIP
360
1A4D
  0
DICTIONARY
  5
1A4E
330
19F2
100
AcDbDictionary
280
     1
281
     1
  3
ACAD_XREC_ROUNDTRIP
360
1A4F
  0
DICTIONARY
  5
19AE
330
19AD
100
AcDbDictionary
280
     1
281
     1
  3
ACAD_XREC_ROUNDTRIP
360
1A14
  3
BUMPTILE
360
19B0
  3
DIFFUSETILE
360
19AF
  3
OPACITYTILE
360
19B3
  3
REFLECTIONTILE
360
19B2
  3
REFRACTIONTILE
360
19B4
  3
SPECULARTILE
360
19B1
  0
DICTIONARY
  5
19A6
330
19A5
100
AcDbDictionary
280
     1
281
     1
  3
ACAD_XREC_ROUNDTRIP
360
1A13
  3
BUMPTILE
360
19A8
  3
DIFFUSETILE
360
19A7
  3
OPACITYTILE
360
19AB
  3
REFLECTIONTILE
360
19AA
  3
REFRACTIONTILE
360
19AC
  3
SPECULARTILE
360
19A9
  0
DICTIONARY
  5
19B6
330
19B5
100
AcDbDictionary
280
     1
281
     1
  3
ACAD_XREC_ROUNDTRIP
360
1A15
  3
BUMPTILE
360
19B8
  3
DIFFUSETILE
360
19B7
  3
OPACITYTILE
360
19BB
  3
REFLECTIONTILE
360
19BA
  3
REFRACTIONTILE
360
19BC
  3
SPECULARTILE
360
19B9
  0
DICTIONARY
  5
1A48
330
19EE
100
AcDbDictionary
280
     1
281
     1
  3
ACAD_XREC_ROUNDTRIP
360
1A49
  0
DICTIONARY
  5
1A0F
330
19D8
100
AcDbDictionary
280
     1
281
     1
  3
ACAD_ROUNDTRIP_2008_TABLESTYLE_CELLSTYLEMAP
360
1A10
  3
ACAD_XREC_ROUNDTRIP
360
1A46
  0
DICTIONARY
  5
1A20
330
19C3
100
AcDbDictionary
280
     1
281
     1
  3
ACAD_XREC_ROUNDTRIP
360
1A21
  0
DICTIONARY
  5
1A1E
330
19C2
100
AcDbDictionary
280
     1
281
     1
  3
ACAD_XREC_ROUNDTRIP
360
1A1F
  0
DICTIONARY
  5
1A2C
330
19C9
100
AcDbDictionary
280
     1
281
     1
  3
ACAD_XREC_ROUNDTRIP
360
1A2D
  0
DICTIONARY
  5
1A34
330
19CD
100
AcDbDictionary
280
     1
281
     1
  3
ACAD_XREC_ROUNDTRIP
360
1A35
  0
DICTIONARY
  5
1A26
330
19C6
100
AcDbDictionary
280
     1
281
     1
  3
ACAD_XREC_ROUNDTRIP
360
1A27
  0
DICTIONARY
  5
1A2A
330
19C8
100
AcDbDictionary
280
     1
281
     1
  3
ACAD_XREC_ROUNDTRIP
360
1A2B
  0
DICTIONARY
  5
1A44
330
19D5
100
AcDbDictionary
280
     1
281
     1
  3
ACAD_XREC_ROUNDTRIP
360
1A45
  0
DICTIONARY
  5
1A32
330
19CC
100
AcDbDictionary
280
     1
281
     1
  3
ACAD_XREC_ROUNDTRIP
360
1A33
  0
DICTIONARY
  5
1A16
330
19BE
100
AcDbDictionary
280
     1
281
     1
  3
ACAD_XREC_ROUNDTRIP
360
1A17
  0
DICTIONARY
  5
1A18
330
19BF
100
AcDbDictionary
280
     1
281
     1
  3
ACAD_XREC_ROUNDTRIP
360
1A19
  0
DICTIONARY
  5
1A1A
330
19C0
100
AcDbDictionary
280
     1
281
     1
  3
ACAD_XREC_ROUNDTRIP
360
1A1B
  0
DICTIONARY
  5
1A1C
330
19C1
100
AcDbDictionary
280
     1
281
     1
  3
ACAD_XREC_ROUNDTRIP
360
1A1D
  0
DICTIONARY
  5
1A24
330
19C5
100
AcDbDictionary
280
     1
281
     1
  3
ACAD_XREC_ROUNDTRIP
360
1A25
  0
DICTIONARY
  5
1A40
330
19D3
100
AcDbDictionary
280
     1
281
     1
  3
ACAD_XREC_ROUNDTRIP
360
1A41
  0
DICTIONARY
  5
1A30
330
19CB
100
AcDbDictionary
280
     1
281
     1
  3
ACAD_XREC_ROUNDTRIP
360
1A31
  0
DICTIONARY
  5
1A42
330
19D4
100
AcDbDictionary
280
     1
281
     1
  3
ACAD_XREC_ROUNDTRIP
360
1A43
  0
DICTIONARY
  5
1A28
330
19C7
100
AcDbDictionary
280
     1
281
     1
  3
ACAD_XREC_ROUNDTRIP
360
1A29
  0
DICTIONARY
  5
1A3E
330
19D2
100
AcDbDictionary
280
     1
281
     1
  3
ACAD_XREC_ROUNDTRIP
360
1A3F
  0
DICTIONARY
  5
1A3C
330
19D1
100
AcDbDictionary
280
     1
281
     1
  3
ACAD_XREC_ROUNDTRIP
360
1A3D
  0
DICTIONARY
  5
1A36
330
19CE
100
AcDbDictionary
280
     1
281
     1
  3
ACAD_XREC_ROUNDTRIP
360
1A37
  0
DICTIONARY
  5
1A38
330
19CF
100
AcDbDictionary
280
     1
281
     1
  3
ACAD_XREC_ROUNDTRIP
360
1A39
  0
DICTIONARY
  5
1A2E
330
19CA
100
AcDbDictionary
280
     1
281
     1
  3
ACAD_XREC_ROUNDTRIP
360
1A2F
  0
DICTIONARY
  5
1A22
330
19C4
100
AcDbDictionary
280
     1
281
     1
  3
ACAD_XREC_ROUNDTRIP
360
1A23
  0
DICTIONARY
  5
1A3A
330
19D0
100
AcDbDictionary
280
     1
281
     1
  3
ACAD_XREC_ROUNDTRIP
360
1A3B
  0
XRECORD
  5
1A4B
102
{ACAD_REACTORS
330
1A4A
102
}
330
1A4A
100
AcDbXrecord
280
     1
102
DISPLAYNAME
  1
Imperial24
102
FLAGS
 90
        0
  0
XRECORD
  5
1A4D
102
{ACAD_REACTORS
330
1A4C
102
}
330
1A4C
100
AcDbXrecord
280
     1
102
SHADEPLOT
 70
     0
102
SHADEPLOTRESLEVEL
 70
     2
102
SHADEPLOTCUSTOMDPI
 70
   300
  0
XRECORD
  5
1A4F
102
{ACAD_REACTORS
330
1A4E
102
}
330
1A4E
100
AcDbXrecord
280
     1
102
SHADEPLOT
 70
     0
102
SHADEPLOTRESLEVEL
 70
     2
102
SHADEPLOTCUSTOMDPI
 70
   300
  0
XRECORD
  5
1A14
102
{ACAD_REACTORS
330
19AE
102
}
330
19AE
100
AcDbXrecord
280
     1
102
MATERIAL
148
0.0
149
0.0
149
0.0
 93
        0
 94
      127
282
     0
 72
     0
 77
     0
171
     0
175
     0
179
     0
273
     0
  0
XRECORD
  5
19B0
102
{ACAD_REACTORS
330
19AE
102
}
330
19AE
100
AcDbXrecord
280
     1
270
     1
271
     1
  0
XRECORD
  5
19AF
102
{ACAD_REACTORS
330
19AE
102
}
330
19AE
100
AcDbXrecord
280
     1
270
     1
271
     1
  0
XRECORD
  5
19B3
102
{ACAD_REACTORS
330
19AE
102
}
330
19AE
100
AcDbXrecord
280
     1
270
     1
271
     1
  0
XRECORD
  5
19B2
102
{ACAD_REACTORS
330
19AE
102
}
330
19AE
100
AcDbXrecord
280
     1
270
     1
271
     1
  0
XRECORD
  5
19B4
102
{ACAD_REACTORS
330
19AE
102
}
330
19AE
100
AcDbXrecord
280
     1
270
     1
271
     1
  0
XRECORD
  5
19B1
102
{ACAD_REACTORS
330
19AE
102
}
330
19AE
100
AcDbXrecord
280
     1
270
     1
271
     1
  0
XRECORD
  5
1A13
102
{ACAD_REACTORS
330
19A6
102
}
330
19A6
100
AcDbXrecord
280
     1
102
MATERIAL
148
0.0
149
0.0
149
0.0
 93
        0
 94
      127
282
     0
 72
     0
 77
     0
171
     0
175
     0
179
     0
273
     0
  0
XRECORD
  5
19A8
102
{ACAD_REACTORS
330
19A6
102
}
330
19A6
100
AcDbXrecord
280
     1
270
     1
271
     1
  0
XRECORD
  5
19A7
102
{ACAD_REACTORS
330
19A6
102
}
330
19A6
100
AcDbXrecord
280
     1
270
     1
271
     1
  0
XRECORD
  5
19AB
102
{ACAD_REACTORS
330
19A6
102
}
330
19A6
100
AcDbXrecord
280
     1
270
     1
271
     1
  0
XRECORD
  5
19AA
102
{ACAD_REACTORS
330
19A6
102
}
330
19A6
100
AcDbXrecord
280
     1
270
     1
271
     1
  0
XRECORD
  5
19AC
102
{ACAD_REACTORS
330
19A6
102
}
330
19A6
100
AcDbXrecord
280
     1
270
     1
271
     1
  0
XRECORD
  5
19A9
102
{ACAD_REACTORS
330
19A6
102
}
330
19A6
100
AcDbXrecord
280
     1
270
     1
271
     1
  0
XRECORD
  5
1A15
102
{ACAD_REACTORS
330
19B6
102
}
330
19B6
100
AcDbXrecord
280
     1
102
MATERIAL
148
0.0
149
0.0
149
0.0
 93
        0
 94
      127
282
     0
 72
     0
 77
     0
171
     0
175
     0
179
     0
273
     0
  0
XRECORD
  5
19B8
102
{ACAD_REACTORS
330
19B6
102
}
330
19B6
100
AcDbXrecord
280
     1
270
     1
271
     1
  0
XRECORD
  5
19B7
102
{ACAD_REACTORS
330
19B6
102
}
330
19B6
100
AcDbXrecord
280
     1
270
     1
271
     1
  0
XRECORD
  5
19BB
102
{ACAD_REACTORS
330
19B6
102
}
330
19B6
100
AcDbXrecord
280
     1
270
     1
271
     1
  0
XRECORD
  5
19BA
102
{ACAD_REACTORS
330
19B6
102
}
330
19B6
100
AcDbXrecord
280
     1
270
     1
271
     1
  0
XRECORD
  5
19BC
102
{ACAD_REACTORS
330
19B6
102
}
330
19B6
100
AcDbXrecord
280
     1
270
     1
271
     1
  0
XRECORD
  5
19B9
102
{ACAD_REACTORS
330
19B6
102
}
330
19B6
100
AcDbXrecord
280
     1
270
     1
271
     1
  0
XRECORD
  5
1A49
102
{ACAD_REACTORS
330
1A48
102
}
330
1A48
100
AcDbXrecord
280
     1
102
DISPLAYNAME
  1
Imperial24
102
FLAGS
 90
        0
  0
CELLSTYLEMAP
  5
1A10
102
{ACAD_REACTORS
330
1A0F
102
}
330
1A0F
100
AcDbCellStyleMap
 90
        3
300
CELLSTYLE
  1
TABLEFORMAT_BEGIN
 90
        5
170
     1
 91
        0
 92
    32768
 62
   257
 93
        1
300
CONTENTFORMAT
  1
CONTENTFORMAT_BEGIN
 90
        0
 91
        0
 92
      512
 93
        0
300

 40
0.0
140
1.0
 94
        5
 62
     0
340
F
144
0.25
309
CONTENTFORMAT_END
171
     0
 94
        0
309
TABLEFORMAT_END
  1
CELLSTYLE_BEGIN
 90
        1
 91
        1
300
_TITLE
309
CELLSTYLE_END
300
CELLSTYLE
  1
TABLEFORMAT_BEGIN
 90
        5
170
     1
 91
        0
 92
        0
 62
   257
 93
        1
300
CONTENTFORMAT
  1
CONTENTFORMAT_BEGIN
 90
        0
 91
        0
 92
      512
 93
        0
300

 40
0.0
140
1.0
 94
        5
 62
     0
340
F
144
0.18
309
CONTENTFORMAT_END
171
     0
 94
        0
309
TABLEFORMAT_END
  1
CELLSTYLE_BEGIN
 90
        2
 91
        1
300
_HEADER
309
CELLSTYLE_END
300
CELLSTYLE
  1
TABLEFORMAT_BEGIN
 90
        5
170
     1
 91
        0
 92
        0
 62
   257
 93
        1
300
CONTENTFORMAT
  1
CONTENTFORMAT_BEGIN
 90
        0
 91
        0
 92
      512
 93
        0
300

 40
0.0
140
1.0
 94
        2
 62
     0
340
F
144
0.18
309
CONTENTFORMAT_END
171
     0
 94
        0
309
TABLEFORMAT_END
  1
CELLSTYLE_BEGIN
 90
        3
 91
        2
300
_DATA
309
CELLSTYLE_END
  0
XRECORD
  5
1A46
102
{ACAD_REACTORS
330
1A0F
102
}
330
1A0F
100
AcDbXrecord
280
     1
102
ACAD_ROUNDTRIP_PRE2007_TABLESTYLE
 90
      512
 91
        0
  1

 92
      512
 93
        0
  2

 94
      512
 95
        0
  3

  0
XRECORD
  5
1A21
102
{ACAD_REACTORS
330
1A20
102
}
330
1A20
100
AcDbXrecord
280
     1
102
RTVSPost2010Prop28
280
     1
102
RTVSPost2010PropOp28
 70
     1
102
RTVSPost2010Prop29
280
     1
102
RTVSPost2010PropOp29
 70
     1
102
RTVSPost2010Prop30
280
     0
102
RTVSPost2010PropOp30
 70
     1
102
RTVSPost2010Prop31
280
     0
102
RTVSPost2010PropOp31
 70
     1
102
RTVSPost2010Prop32
280
     0
102
RTVSPost2010PropOp32
 70
     1
102
RTVSPost2010Prop33
280
     0
102
RTVSPost2010PropOp33
 70
     1
102
RTVSPost2010Prop34
280
     0
102
RTVSPost2010PropOp34
 70
     1
102
RTVSPost2010Prop35
280
     0
102
RTVSPost2010PropOp35
 70
     1
102
RTVSPost2010Prop36
280
     0
102
RTVSPost2010PropOp36
 70
     1
102
RTVSPost2010Prop37
 90
       50
102
RTVSPost2010PropOp37
 70
     1
102
RTVSPost2010Prop38
140
0.0
102
RTVSPost2010PropOp38
 70
     1
102
RTVSPost2010Prop39
140
1.0
102
RTVSPost2010PropOp39
 70
     1
102
RTVSPost2010Prop40
 90
        0
102
RTVSPost2010PropOp40
 70
     1
102
RTVSPost2010Prop41ColorIndex
 90
       18
102
RTVSPost2010Prop41ColorRGB
 90
        0
102
RTVSPost2010PropOp41
 70
     1
102
RTVSPost2010Prop42
 90
       50
102
RTVSPost2010PropOp42
 70
     1
102
RTVSPost2010Prop43
 90
        3
102
RTVSPost2010PropOp43
 70
     1
102
RTVSPost2010Prop44ColorIndex
 90
        5
102
RTVSPost2010Prop44ColorRGB
 90
      255
102
RTVSPost2010PropOp44
 70
     1
102
RTVSPost2010Prop45
280
     0
102
RTVSPost2010PropOp45
 70
     1
102
RTVSPost2010Prop46
 90
       50
102
RTVSPost2010PropOp46
 70
     1
102
RTVSPost2010Prop47
 90
       50
102
RTVSPost2010PropOp47
 70
     1
102
RTVSPost2010Prop48
 90
       50
102
RTVSPost2010PropOp48
 70
     1
102
RTVSPost2010Prop49
280
     0
102
RTVSPost2010PropOp49
 70
     1
102
RTVSPost2010Prop50
 90
       50
102
RTVSPost2010PropOp50
 70
     1
102
RTVSPost2010Prop51ColorIndex
 90
      256
102
RTVSPost2010Prop51ColorRGB
 90
-16777216
102
RTVSPost2010PropOp51
 70
     0
102
RTVSPost2010Prop52
140
1.0
102
RTVSPost2010PropOp52
 70
     0
102
RTVSPost2010Prop53
 90
        2
102
RTVSPost2010PropOp53
 70
     1
102
RTVSPost2010Prop54
  1
strokes_ogs.tif
102
RTVSPost2010PropOp54
 70
     1
102
RTVSPost2010Prop55
280
     0
102
RTVSPost2010PropOp55
 70
     1
102
RTVSPost2010Prop56
140
1.0
102
RTVSPost2010PropOp56
 70
     1
102
RTVSPost2010Prop57
140
1.0
102
RTVSPost2010PropOp57
 70
     1
102
RTVSPropertyOp0
 70
     1
102
RTVSPropertyOp1
 70
     1
102
RTVSPropertyOp2
 70
     1
102
RTVSPropertyOp3
 70
     1
102
RTVSPropertyOp4
 70
     1
102
RTVSPropertyOp5
 70
     1
102
RTVSPropertyOp6
 70
     1
102
RTVSPropertyOp7
 70
     1
102
RTVSPropertyOp8
 70
     1
102
RTVSPropertyOp9
 70
     1
102
RTVSPropertyOp10
 70
     1
102
RTVSPropertyOp11
 70
     1
102
RTVSPropertyOp12
 70
     1
102
RTVSPropertyOp13
 70
     1
102
RTVSPropertyOp14
 70
     1
102
RTVSPropertyOp15
 70
     1
102
RTVSPropertyOp16
 70
     1
102
RTVSPropertyOp17
 70
     1
102
RTVSPropertyOp18
 70
     1
102
RTVSPropertyOp19
 70
     1
102
RTVSPropertyOp20
 70
     1
102
RTVSPropertyOp21
 70
     1
102
RTVSPropertyOp22
 70
     1
102
RTVSPropertyOp23
 70
     1
102
RTVSPropertyOp24
 70
     1
102
RTVSPropertyOp25
 70
     1
102
RTVSPropertyOp26
 70
     1
102
RTVSPropertyOp27
 70
     1
102
RTVSPropertyOp28
 70
     1
102
RTVSPropertyOp29
 70
     1
102
RTVSPropertyOp30
 70
     1
102
RTVSPropertyOp31
 70
     1
102
RTVSPropertyOp32
 70
     1
102
RTVSPropertyOp33
 70
     1
102
RTVSPropertyOp34
 70
     1
102
RTVSPropertyOp35
 70
     1
102
RTVSPropertyOp36
 70
     1
102
RTVSPropertyOp37
 70
     1
102
RTVSPropertyOp38
 70
     1
102
RTVSPropertyOp39
 70
     1
102
RTVSPropertyOp40
 70
     1
102
RTVSPropertyOp41
 70
     1
102
RTVSPropertyOp42
 70
     1
102
RTVSPropertyOp43
 70
     1
102
RTVSPropertyOp44
 70
     1
102
RTVSPropertyOp45
 70
     1
102
RTVSPropertyOp46
 70
     1
102
RTVSPropertyOp47
 70
     1
102
RTVSPropertyOp48
 70
     1
102
RTVSPropertyOp49
 70
     1
102
RTVSPropertyOp50
 70
     1
102
RTVSPropertyOp51
 70
     0
102
RTVSPropertyOp52
 70
     0
102
RTVSPropertyOp53
 70
     1
102
RTVSPropertyOp54
 70
     1
102
RTVSPropertyOp55
 70
     1
102
RTVSPropertyOp56
 70
     1
102
RTVSPropertyOp57
 70
     1
102
RTVSPropertyOp58
 70
     1
102
RTVSPropertyOp59
 70
     1
102
RTVSPropertyOp60
 70
     1
102
RTVSPropertyOp61
 70
     1
102
RTVSPropertyOp62
 70
     1
  0
XRECORD
  5
1A1F
102
{ACAD_REACTORS
330
1A1E
102
}
330
1A1E
100
AcDbXrecord
280
     1
102
RTVSPost2010Prop28
280
     0
102
RTVSPost2010PropOp28
 70
     1
102
RTVSPost2010Prop29
280
     1
102
RTVSPost2010PropOp29
 70
     1
102
RTVSPost2010Prop30
280
     1
102
RTVSPost2010PropOp30
 70
     1
102
RTVSPost2010Prop31
280
     0
102
RTVSPost2010PropOp31
 70
     1
102
RTVSPost2010Prop32
280
     0
102
RTVSPost2010PropOp32
 70
     1
102
RTVSPost2010Prop33
280
     0
102
RTVSPost2010PropOp33
 70
     1
102
RTVSPost2010Prop34
280
     0
102
RTVSPost2010PropOp34
 70
     1
102
RTVSPost2010Prop35
280
     0
102
RTVSPost2010PropOp35
 70
     1
102
RTVSPost2010Prop36
280
     0
102
RTVSPost2010PropOp36
 70
     1
102
RTVSPost2010Prop37
 90
       50
102
RTVSPost2010PropOp37
 70
     1
102
RTVSPost2010Prop38
140
0.0
102
RTVSPost2010PropOp38
 70
     1
102
RTVSPost2010Prop39
140
1.0
102
RTVSPost2010PropOp39
 70
     1
102
RTVSPost2010Prop40
 90
        0
102
RTVSPost2010PropOp40
 70
     1
102
RTVSPost2010Prop41ColorIndex
 90
       18
102
RTVSPost2010Prop41ColorRGB
 90
        0
102
RTVSPost2010PropOp41
 70
     1
102
RTVSPost2010Prop42
 90
       50
102
RTVSPost2010PropOp42
 70
     1
102
RTVSPost2010Prop43
 90
        3
102
RTVSPost2010PropOp43
 70
     1
102
RTVSPost2010Prop44ColorIndex
 90
        5
102
RTVSPost2010Prop44ColorRGB
 90
      255
102
RTVSPost2010PropOp44
 70
     1
102
RTVSPost2010Prop45
280
     0
102
RTVSPost2010PropOp45
 70
     1
102
RTVSPost2010Prop46
 90
       50
102
RTVSPost2010PropOp46
 70
     1
102
RTVSPost2010Prop47
 90
       50
102
RTVSPost2010PropOp47
 70
     1
102
RTVSPost2010Prop48
 90
       50
102
RTVSPost2010PropOp48
 70
     1
102
RTVSPost2010Prop49
280
     0
102
RTVSPost2010PropOp49
 70
     1
102
RTVSPost2010Prop50
 90
       50
102
RTVSPost2010PropOp50
 70
     1
102
RTVSPost2010Prop51ColorIndex
 90
      256
102
RTVSPost2010Prop51ColorRGB
 90
-16777216
102
RTVSPost2010PropOp51
 70
     0
102
RTVSPost2010Prop52
140
1.0
102
RTVSPost2010PropOp52
 70
     0
102
RTVSPost2010Prop53
 90
        2
102
RTVSPost2010PropOp53
 70
     1
102
RTVSPost2010Prop54
  1
strokes_ogs.tif
102
RTVSPost2010PropOp54
 70
     1
102
RTVSPost2010Prop55
280
     0
102
RTVSPost2010PropOp55
 70
     1
102
RTVSPost2010Prop56
140
1.0
102
RTVSPost2010PropOp56
 70
     1
102
RTVSPost2010Prop57
140
1.0
102
RTVSPost2010PropOp57
 70
     1
102
RTVSPropertyOp0
 70
     1
102
RTVSPropertyOp1
 70
     1
102
RTVSPropertyOp2
 70
     1
102
RTVSPropertyOp3
 70
     1
102
RTVSPropertyOp4
 70
     1
102
RTVSPropertyOp5
 70
     1
102
RTVSPropertyOp6
 70
     1
102
RTVSPropertyOp7
 70
     1
102
RTVSPropertyOp8
 70
     1
102
RTVSPropertyOp9
 70
     1
102
RTVSPropertyOp10
 70
     1
102
RTVSPropertyOp11
 70
     1
102
RTVSPropertyOp12
 70
     1
102
RTVSPropertyOp13
 70
     1
102
RTVSPropertyOp14
 70
     1
102
RTVSPropertyOp15
 70
     1
102
RTVSPropertyOp16
 70
     1
102
RTVSPropertyOp17
 70
     1
102
RTVSPropertyOp18
 70
     1
102
RTVSPropertyOp19
 70
     1
102
RTVSPropertyOp20
 70
     1
102
RTVSPropertyOp21
 70
     1
102
RTVSPropertyOp22
 70
     1
102
RTVSPropertyOp23
 70
     1
102
RTVSPropertyOp24
 70
     1
102
RTVSPropertyOp25
 70
     1
102
RTVSPropertyOp26
 70
     1
102
RTVSPropertyOp27
 70
     1
102
RTVSPropertyOp28
 70
     1
102
RTVSPropertyOp29
 70
     1
102
RTVSPropertyOp30
 70
     1
102
RTVSPropertyOp31
 70
     1
102
RTVSPropertyOp32
 70
     1
102
RTVSPropertyOp33
 70
     1
102
RTVSPropertyOp34
 70
     1
102
RTVSPropertyOp35
 70
     1
102
RTVSPropertyOp36
 70
     1
102
RTVSPropertyOp37
 70
     1
102
RTVSPropertyOp38
 70
     1
102
RTVSPropertyOp39
 70
     1
102
RTVSPropertyOp40
 70
     1
102
RTVSPropertyOp41
 70
     1
102
RTVSPropertyOp42
 70
     1
102
RTVSPropertyOp43
 70
     1
102
RTVSPropertyOp44
 70
     1
102
RTVSPropertyOp45
 70
     1
102
RTVSPropertyOp46
 70
     1
102
RTVSPropertyOp47
 70
     1
102
RTVSPropertyOp48
 70
     1
102
RTVSPropertyOp49
 70
     1
102
RTVSPropertyOp50
 70
     1
102
RTVSPropertyOp51
 70
     0
102
RTVSPropertyOp52
 70
     0
102
RTVSPropertyOp53
 70
     1
102
RTVSPropertyOp54
 70
     1
102
RTVSPropertyOp55
 70
     1
102
RTVSPropertyOp56
 70
     1
102
RTVSPropertyOp57
 70
     1
102
RTVSPropertyOp58
 70
     1
102
RTVSPropertyOp59
 70
     1
102
RTVSPropertyOp60
 70
     1
102
RTVSPropertyOp61
 70
     1
102
RTVSPropertyOp62
 70
     1
  0
XRECORD
  5
1A2D
102
{ACAD_REACTORS
330
1A2C
102
}
330
1A2C
100
AcDbXrecord
280
     1
102
RTVSPost2010Prop28
280
     0
102
RTVSPost2010PropOp28
 70
     1
102
RTVSPost2010Prop29
280
     1
102
RTVSPost2010PropOp29
 70
     1
102
RTVSPost2010Prop30
280
     1
102
RTVSPost2010PropOp30
 70
     1
102
RTVSPost2010Prop31
280
     0
102
RTVSPost2010PropOp31
 70
     1
102
RTVSPost2010Prop32
280
     0
102
RTVSPost2010PropOp32
 70
     1
102
RTVSPost2010Prop33
280
     0
102
RTVSPost2010PropOp33
 70
     1
102
RTVSPost2010Prop34
280
     0
102
RTVSPost2010PropOp34
 70
     1
102
RTVSPost2010Prop35
280
     0
102
RTVSPost2010PropOp35
 70
     1
102
RTVSPost2010Prop36
280
     0
102
RTVSPost2010PropOp36
 70
     1
102
RTVSPost2010Prop37
 90
       50
102
RTVSPost2010PropOp37
 70
     1
102
RTVSPost2010Prop38
140
0.0
102
RTVSPost2010PropOp38
 70
     1
102
RTVSPost2010Prop39
140
1.0
102
RTVSPost2010PropOp39
 70
     1
102
RTVSPost2010Prop40
 90
        0
102
RTVSPost2010PropOp40
 70
     1
102
RTVSPost2010Prop41ColorIndex
 90
       18
102
RTVSPost2010Prop41ColorRGB
 90
        0
102
RTVSPost2010PropOp41
 70
     1
102
RTVSPost2010Prop42
 90
       50
102
RTVSPost2010PropOp42
 70
     1
102
RTVSPost2010Prop43
 90
        3
102
RTVSPost2010PropOp43
 70
     1
102
RTVSPost2010Prop44ColorIndex
 90
        5
102
RTVSPost2010Prop44ColorRGB
 90
      255
102
RTVSPost2010PropOp44
 70
     1
102
RTVSPost2010Prop45
280
     0
102
RTVSPost2010PropOp45
 70
     1
102
RTVSPost2010Prop46
 90
       50
102
RTVSPost2010PropOp46
 70
     1
102
RTVSPost2010Prop47
 90
       50
102
RTVSPost2010PropOp47
 70
     1
102
RTVSPost2010Prop48
 90
       50
102
RTVSPost2010PropOp48
 70
     1
102
RTVSPost2010Prop49
280
     0
102
RTVSPost2010PropOp49
 70
     1
102
RTVSPost2010Prop50
 90
       50
102
RTVSPost2010PropOp50
 70
     1
102
RTVSPost2010Prop51ColorIndex
 90
      256
102
RTVSPost2010Prop51ColorRGB
 90
-16777216
102
RTVSPost2010PropOp51
 70
     0
102
RTVSPost2010Prop52
140
1.0
102
RTVSPost2010PropOp52
 70
     0
102
RTVSPost2010Prop53
 90
        2
102
RTVSPost2010PropOp53
 70
     1
102
RTVSPost2010Prop54
  1
strokes_ogs.tif
102
RTVSPost2010PropOp54
 70
     1
102
RTVSPost2010Prop55
280
     0
102
RTVSPost2010PropOp55
 70
     1
102
RTVSPost2010Prop56
140
1.0
102
RTVSPost2010PropOp56
 70
     1
102
RTVSPost2010Prop57
140
1.0
102
RTVSPost2010PropOp57
 70
     1
102
RTVSPropertyOp0
 70
     1
102
RTVSPropertyOp1
 70
     1
102
RTVSPropertyOp2
 70
     1
102
RTVSPropertyOp3
 70
     1
102
RTVSPropertyOp4
 70
     1
102
RTVSPropertyOp5
 70
     1
102
RTVSPropertyOp6
 70
     1
102
RTVSPropertyOp7
 70
     1
102
RTVSPropertyOp8
 70
     1
102
RTVSPropertyOp9
 70
     1
102
RTVSPropertyOp10
 70
     1
102
RTVSPropertyOp11
 70
     1
102
RTVSPropertyOp12
 70
     1
102
RTVSPropertyOp13
 70
     1
102
RTVSPropertyOp14
 70
     1
102
RTVSPropertyOp15
 70
     1
102
RTVSPropertyOp16
 70
     1
102
RTVSPropertyOp17
 70
     1
102
RTVSPropertyOp18
 70
     1
102
RTVSPropertyOp19
 70
     1
102
RTVSPropertyOp20
 70
     1
102
RTVSPropertyOp21
 70
     1
102
RTVSPropertyOp22
 70
     1
102
RTVSPropertyOp23
 70
     1
102
RTVSPropertyOp24
 70
     1
102
RTVSPropertyOp25
 70
     1
102
RTVSPropertyOp26
 70
     1
102
RTVSPropertyOp27
 70
     1
102
RTVSPropertyOp28
 70
     1
102
RTVSPropertyOp29
 70
     1
102
RTVSPropertyOp30
 70
     1
102
RTVSPropertyOp31
 70
     1
102
RTVSPropertyOp32
 70
     1
102
RTVSPropertyOp33
 70
     1
102
RTVSPropertyOp34
 70
     1
102
RTVSPropertyOp35
 70
     1
102
RTVSPropertyOp36
 70
     1
102
RTVSPropertyOp37
 70
     1
102
RTVSPropertyOp38
 70
     1
102
RTVSPropertyOp39
 70
     1
102
RTVSPropertyOp40
 70
     1
102
RTVSPropertyOp41
 70
     1
102
RTVSPropertyOp42
 70
     1
102
RTVSPropertyOp43
 70
     1
102
RTVSPropertyOp44
 70
     1
102
RTVSPropertyOp45
 70
     1
102
RTVSPropertyOp46
 70
     1
102
RTVSPropertyOp47
 70
     1
102
RTVSPropertyOp48
 70
     1
102
RTVSPropertyOp49
 70
     1
102
RTVSPropertyOp50
 70
     1
102
RTVSPropertyOp51
 70
     0
102
RTVSPropertyOp52
 70
     0
102
RTVSPropertyOp53
 70
     1
102
RTVSPropertyOp54
 70
     1
102
RTVSPropertyOp55
 70
     1
102
RTVSPropertyOp56
 70
     1
102
RTVSPropertyOp57
 70
     1
102
RTVSPropertyOp58
 70
     1
102
RTVSPropertyOp59
 70
     1
102
RTVSPropertyOp60
 70
     1
102
RTVSPropertyOp61
 70
     1
102
RTVSPropertyOp62
 70
     1
  0
XRECORD
  5
1A35
102
{ACAD_REACTORS
330
1A34
102
}
330
1A34
100
AcDbXrecord
280
     1
102
RTVSPost2010Prop28
280
     0
102
RTVSPost2010PropOp28
 70
     1
102
RTVSPost2010Prop29
280
     1
102
RTVSPost2010PropOp29
 70
     1
102
RTVSPost2010Prop30
280
     1
102
RTVSPost2010PropOp30
 70
     1
102
RTVSPost2010Prop31
280
     0
102
RTVSPost2010PropOp31
 70
     1
102
RTVSPost2010Prop32
280
     0
102
RTVSPost2010PropOp32
 70
     1
102
RTVSPost2010Prop33
280
     0
102
RTVSPost2010PropOp33
 70
     1
102
RTVSPost2010Prop34
280
     0
102
RTVSPost2010PropOp34
 70
     1
102
RTVSPost2010Prop35
280
     0
102
RTVSPost2010PropOp35
 70
     1
102
RTVSPost2010Prop36
280
     0
102
RTVSPost2010PropOp36
 70
     1
102
RTVSPost2010Prop37
 90
       50
102
RTVSPost2010PropOp37
 70
     1
102
RTVSPost2010Prop38
140
0.0
102
RTVSPost2010PropOp38
 70
     1
102
RTVSPost2010Prop39
140
1.0
102
RTVSPost2010PropOp39
 70
     1
102
RTVSPost2010Prop40
 90
        0
102
RTVSPost2010PropOp40
 70
     1
102
RTVSPost2010Prop41ColorIndex
 90
       18
102
RTVSPost2010Prop41ColorRGB
 90
        0
102
RTVSPost2010PropOp41
 70
     1
102
RTVSPost2010Prop42
 90
       50
102
RTVSPost2010PropOp42
 70
     1
102
RTVSPost2010Prop43
 90
        3
102
RTVSPost2010PropOp43
 70
     1
102
RTVSPost2010Prop44ColorIndex
 90
        5
102
RTVSPost2010Prop44ColorRGB
 90
      255
102
RTVSPost2010PropOp44
 70
     1
102
RTVSPost2010Prop45
280
     0
102
RTVSPost2010PropOp45
 70
     1
102
RTVSPost2010Prop46
 90
       50
102
RTVSPost2010PropOp46
 70
     1
102
RTVSPost2010Prop47
 90
       50
102
RTVSPost2010PropOp47
 70
     1
102
RTVSPost2010Prop48
 90
       50
102
RTVSPost2010PropOp48
 70
     1
102
RTVSPost2010Prop49
280
     0
102
RTVSPost2010PropOp49
 70
     1
102
RTVSPost2010Prop50
 90
       50
102
RTVSPost2010PropOp50
 70
     1
102
RTVSPost2010Prop51ColorIndex
 90
      256
102
RTVSPost2010Prop51ColorRGB
 90
-16777216
102
RTVSPost2010PropOp51
 70
     0
102
RTVSPost2010Prop52
140
1.0
102
RTVSPost2010PropOp52
 70
     0
102
RTVSPost2010Prop53
 90
        2
102
RTVSPost2010PropOp53
 70
     1
102
RTVSPost2010Prop54
  1
strokes_ogs.tif
102
RTVSPost2010PropOp54
 70
     1
102
RTVSPost2010Prop55
280
     0
102
RTVSPost2010PropOp55
 70
     1
102
RTVSPost2010Prop56
140
1.0
102
RTVSPost2010PropOp56
 70
     1
102
RTVSPost2010Prop57
140
1.0
102
RTVSPost2010PropOp57
 70
     1
102
RTVSPropertyOp0
 70
     1
102
RTVSPropertyOp1
 70
     1
102
RTVSPropertyOp2
 70
     1
102
RTVSPropertyOp3
 70
     1
102
RTVSPropertyOp4
 70
     1
102
RTVSPropertyOp5
 70
     1
102
RTVSPropertyOp6
 70
     1
102
RTVSPropertyOp7
 70
     1
102
RTVSPropertyOp8
 70
     1
102
RTVSPropertyOp9
 70
     1
102
RTVSPropertyOp10
 70
     1
102
RTVSPropertyOp11
 70
     1
102
RTVSPropertyOp12
 70
     1
102
RTVSPropertyOp13
 70
     1
102
RTVSPropertyOp14
 70
     1
102
RTVSPropertyOp15
 70
     1
102
RTVSPropertyOp16
 70
     1
102
RTVSPropertyOp17
 70
     1
102
RTVSPropertyOp18
 70
     1
102
RTVSPropertyOp19
 70
     1
102
RTVSPropertyOp20
 70
     1
102
RTVSPropertyOp21
 70
     1
102
RTVSPropertyOp22
 70
     1
102
RTVSPropertyOp23
 70
     1
102
RTVSPropertyOp24
 70
     1
102
RTVSPropertyOp25
 70
     1
102
RTVSPropertyOp26
 70
     1
102
RTVSPropertyOp27
 70
     1
102
RTVSPropertyOp28
 70
     1
102
RTVSPropertyOp29
 70
     1
102
RTVSPropertyOp30
 70
     1
102
RTVSPropertyOp31
 70
     1
102
RTVSPropertyOp32
 70
     1
102
RTVSPropertyOp33
 70
     1
102
RTVSPropertyOp34
 70
     1
102
RTVSPropertyOp35
 70
     1
102
RTVSPropertyOp36
 70
     1
102
RTVSPropertyOp37
 70
     1
102
RTVSPropertyOp38
 70
     1
102
RTVSPropertyOp39
 70
     1
102
RTVSPropertyOp40
 70
     1
102
RTVSPropertyOp41
 70
     1
102
RTVSPropertyOp42
 70
     1
102
RTVSPropertyOp43
 70
     1
102
RTVSPropertyOp44
 70
     1
102
RTVSPropertyOp45
 70
     1
102
RTVSPropertyOp46
 70
     1
102
RTVSPropertyOp47
 70
     1
102
RTVSPropertyOp48
 70
     1
102
RTVSPropertyOp49
 70
     1
102
RTVSPropertyOp50
 70
     1
102
RTVSPropertyOp51
 70
     0
102
RTVSPropertyOp52
 70
     0
102
RTVSPropertyOp53
 70
     1
102
RTVSPropertyOp54
 70
     1
102
RTVSPropertyOp55
 70
     1
102
RTVSPropertyOp56
 70
     1
102
RTVSPropertyOp57
 70
     1
102
RTVSPropertyOp58
 70
     1
102
RTVSPropertyOp59
 70
     1
102
RTVSPropertyOp60
 70
     1
102
RTVSPropertyOp61
 70
     1
102
RTVSPropertyOp62
 70
     1
  0
XRECORD
  5
1A27
102
{ACAD_REACTORS
330
1A26
102
}
330
1A26
100
AcDbXrecord
280
     1
102
RTVSPost2010Prop28
280
     0
102
RTVSPost2010PropOp28
 70
     1
102
RTVSPost2010Prop29
280
     1
102
RTVSPost2010PropOp29
 70
     1
102
RTVSPost2010Prop30
280
     1
102
RTVSPost2010PropOp30
 70
     1
102
RTVSPost2010Prop31
280
     0
102
RTVSPost2010PropOp31
 70
     1
102
RTVSPost2010Prop32
280
     0
102
RTVSPost2010PropOp32
 70
     1
102
RTVSPost2010Prop33
280
     0
102
RTVSPost2010PropOp33
 70
     1
102
RTVSPost2010Prop34
280
     0
102
RTVSPost2010PropOp34
 70
     1
102
RTVSPost2010Prop35
280
     0
102
RTVSPost2010PropOp35
 70
     1
102
RTVSPost2010Prop36
280
     0
102
RTVSPost2010PropOp36
 70
     1
102
RTVSPost2010Prop37
 90
       50
102
RTVSPost2010PropOp37
 70
     1
102
RTVSPost2010Prop38
140
0.0
102
RTVSPost2010PropOp38
 70
     1
102
RTVSPost2010Prop39
140
1.0
102
RTVSPost2010PropOp39
 70
     1
102
RTVSPost2010Prop40
 90
        0
102
RTVSPost2010PropOp40
 70
     1
102
RTVSPost2010Prop41ColorIndex
 90
       18
102
RTVSPost2010Prop41ColorRGB
 90
        0
102
RTVSPost2010PropOp41
 70
     1
102
RTVSPost2010Prop42
 90
       50
102
RTVSPost2010PropOp42
 70
     1
102
RTVSPost2010Prop43
 90
        3
102
RTVSPost2010PropOp43
 70
     1
102
RTVSPost2010Prop44ColorIndex
 90
        5
102
RTVSPost2010Prop44ColorRGB
 90
      255
102
RTVSPost2010PropOp44
 70
     1
102
RTVSPost2010Prop45
280
     0
102
RTVSPost2010PropOp45
 70
     1
102
RTVSPost2010Prop46
 90
       50
102
RTVSPost2010PropOp46
 70
     1
102
RTVSPost2010Prop47
 90
       50
102
RTVSPost2010PropOp47
 70
     1
102
RTVSPost2010Prop48
 90
       50
102
RTVSPost2010PropOp48
 70
     1
102
RTVSPost2010Prop49
280
     0
102
RTVSPost2010PropOp49
 70
     1
102
RTVSPost2010Prop50
 90
       50
102
RTVSPost2010PropOp50
 70
     1
102
RTVSPost2010Prop51ColorIndex
 90
      256
102
RTVSPost2010Prop51ColorRGB
 90
-16777216
102
RTVSPost2010PropOp51
 70
     0
102
RTVSPost2010Prop52
140
1.0
102
RTVSPost2010PropOp52
 70
     0
102
RTVSPost2010Prop53
 90
        2
102
RTVSPost2010PropOp53
 70
     1
102
RTVSPost2010Prop54
  1
strokes_ogs.tif
102
RTVSPost2010PropOp54
 70
     1
102
RTVSPost2010Prop55
280
     0
102
RTVSPost2010PropOp55
 70
     1
102
RTVSPost2010Prop56
140
1.0
102
RTVSPost2010PropOp56
 70
     1
102
RTVSPost2010Prop57
140
1.0
102
RTVSPost2010PropOp57
 70
     1
102
RTVSPropertyOp0
 70
     1
102
RTVSPropertyOp1
 70
     1
102
RTVSPropertyOp2
 70
     1
102
RTVSPropertyOp3
 70
     1
102
RTVSPropertyOp4
 70
     1
102
RTVSPropertyOp5
 70
     1
102
RTVSPropertyOp6
 70
     1
102
RTVSPropertyOp7
 70
     1
102
RTVSPropertyOp8
 70
     1
102
RTVSPropertyOp9
 70
     1
102
RTVSPropertyOp10
 70
     1
102
RTVSPropertyOp11
 70
     1
102
RTVSPropertyOp12
 70
     1
102
RTVSPropertyOp13
 70
     1
102
RTVSPropertyOp14
 70
     1
102
RTVSPropertyOp15
 70
     1
102
RTVSPropertyOp16
 70
     1
102
RTVSPropertyOp17
 70
     1
102
RTVSPropertyOp18
 70
     1
102
RTVSPropertyOp19
 70
     1
102
RTVSPropertyOp20
 70
     1
102
RTVSPropertyOp21
 70
     1
102
RTVSPropertyOp22
 70
     1
102
RTVSPropertyOp23
 70
     1
102
RTVSPropertyOp24
 70
     1
102
RTVSPropertyOp25
 70
     1
102
RTVSPropertyOp26
 70
     1
102
RTVSPropertyOp27
 70
     1
102
RTVSPropertyOp28
 70
     1
102
RTVSPropertyOp29
 70
     1
102
RTVSPropertyOp30
 70
     1
102
RTVSPropertyOp31
 70
     1
102
RTVSPropertyOp32
 70
     1
102
RTVSPropertyOp33
 70
     1
102
RTVSPropertyOp34
 70
     1
102
RTVSPropertyOp35
 70
     1
102
RTVSPropertyOp36
 70
     1
102
RTVSPropertyOp37
 70
     1
102
RTVSPropertyOp38
 70
     1
102
RTVSPropertyOp39
 70
     1
102
RTVSPropertyOp40
 70
     1
102
RTVSPropertyOp41
 70
     1
102
RTVSPropertyOp42
 70
     1
102
RTVSPropertyOp43
 70
     1
102
RTVSPropertyOp44
 70
     1
102
RTVSPropertyOp45
 70
     1
102
RTVSPropertyOp46
 70
     1
102
RTVSPropertyOp47
 70
     1
102
RTVSPropertyOp48
 70
     1
102
RTVSPropertyOp49
 70
     1
102
RTVSPropertyOp50
 70
     1
102
RTVSPropertyOp51
 70
     0
102
RTVSPropertyOp52
 70
     0
102
RTVSPropertyOp53
 70
     1
102
RTVSPropertyOp54
 70
     1
102
RTVSPropertyOp55
 70
     1
102
RTVSPropertyOp56
 70
     1
102
RTVSPropertyOp57
 70
     1
102
RTVSPropertyOp58
 70
     1
102
RTVSPropertyOp59
 70
     1
102
RTVSPropertyOp60
 70
     1
102
RTVSPropertyOp61
 70
     1
102
RTVSPropertyOp62
 70
     1
  0
XRECORD
  5
1A2B
102
{ACAD_REACTORS
330
1A2A
102
}
330
1A2A
100
AcDbXrecord
280
     1
102
RTVSPost2010Prop28
280
     0
102
RTVSPost2010PropOp28
 70
     1
102
RTVSPost2010Prop29
280
     1
102
RTVSPost2010PropOp29
 70
     1
102
RTVSPost2010Prop30
280
     1
102
RTVSPost2010PropOp30
 70
     1
102
RTVSPost2010Prop31
280
     0
102
RTVSPost2010PropOp31
 70
     1
102
RTVSPost2010Prop32
280
     0
102
RTVSPost2010PropOp32
 70
     1
102
RTVSPost2010Prop33
280
     0
102
RTVSPost2010PropOp33
 70
     1
102
RTVSPost2010Prop34
280
     0
102
RTVSPost2010PropOp34
 70
     1
102
RTVSPost2010Prop35
280
     0
102
RTVSPost2010PropOp35
 70
     1
102
RTVSPost2010Prop36
280
     0
102
RTVSPost2010PropOp36
 70
     1
102
RTVSPost2010Prop37
 90
       50
102
RTVSPost2010PropOp37
 70
     1
102
RTVSPost2010Prop38
140
0.0
102
RTVSPost2010PropOp38
 70
     1
102
RTVSPost2010Prop39
140
1.0
102
RTVSPost2010PropOp39
 70
     1
102
RTVSPost2010Prop40
 90
        0
102
RTVSPost2010PropOp40
 70
     1
102
RTVSPost2010Prop41ColorIndex
 90
       18
102
RTVSPost2010Prop41ColorRGB
 90
        0
102
RTVSPost2010PropOp41
 70
     1
102
RTVSPost2010Prop42
 90
       50
102
RTVSPost2010PropOp42
 70
     1
102
RTVSPost2010Prop43
 90
        3
102
RTVSPost2010PropOp43
 70
     1
102
RTVSPost2010Prop44ColorIndex
 90
        5
102
RTVSPost2010Prop44ColorRGB
 90
      255
102
RTVSPost2010PropOp44
 70
     1
102
RTVSPost2010Prop45
280
     0
102
RTVSPost2010PropOp45
 70
     1
102
RTVSPost2010Prop46
 90
       50
102
RTVSPost2010PropOp46
 70
     1
102
RTVSPost2010Prop47
 90
       50
102
RTVSPost2010PropOp47
 70
     1
102
RTVSPost2010Prop48
 90
       50
102
RTVSPost2010PropOp48
 70
     1
102
RTVSPost2010Prop49
280
     0
102
RTVSPost2010PropOp49
 70
     1
102
RTVSPost2010Prop50
 90
       50
102
RTVSPost2010PropOp50
 70
     1
102
RTVSPost2010Prop51ColorIndex
 90
      256
102
RTVSPost2010Prop51ColorRGB
 90
-16777216
102
RTVSPost2010PropOp51
 70
     0
102
RTVSPost2010Prop52
140
1.0
102
RTVSPost2010PropOp52
 70
     0
102
RTVSPost2010Prop53
 90
        2
102
RTVSPost2010PropOp53
 70
     1
102
RTVSPost2010Prop54
  1
strokes_ogs.tif
102
RTVSPost2010PropOp54
 70
     1
102
RTVSPost2010Prop55
280
     0
102
RTVSPost2010PropOp55
 70
     1
102
RTVSPost2010Prop56
140
1.0
102
RTVSPost2010PropOp56
 70
     1
102
RTVSPost2010Prop57
140
1.0
102
RTVSPost2010PropOp57
 70
     1
102
RTVSPropertyOp0
 70
     1
102
RTVSPropertyOp1
 70
     1
102
RTVSPropertyOp2
 70
     1
102
RTVSPropertyOp3
 70
     1
102
RTVSPropertyOp4
 70
     1
102
RTVSPropertyOp5
 70
     1
102
RTVSPropertyOp6
 70
     1
102
RTVSPropertyOp7
 70
     1
102
RTVSPropertyOp8
 70
     1
102
RTVSPropertyOp9
 70
     1
102
RTVSPropertyOp10
 70
     1
102
RTVSPropertyOp11
 70
     1
102
RTVSPropertyOp12
 70
     1
102
RTVSPropertyOp13
 70
     1
102
RTVSPropertyOp14
 70
     1
102
RTVSPropertyOp15
 70
     1
102
RTVSPropertyOp16
 70
     1
102
RTVSPropertyOp17
 70
     1
102
RTVSPropertyOp18
 70
     1
102
RTVSPropertyOp19
 70
     1
102
RTVSPropertyOp20
 70
     1
102
RTVSPropertyOp21
 70
     1
102
RTVSPropertyOp22
 70
     1
102
RTVSPropertyOp23
 70
     1
102
RTVSPropertyOp24
 70
     1
102
RTVSPropertyOp25
 70
     1
102
RTVSPropertyOp26
 70
     1
102
RTVSPropertyOp27
 70
     1
102
RTVSPropertyOp28
 70
     1
102
RTVSPropertyOp29
 70
     1
102
RTVSPropertyOp30
 70
     1
102
RTVSPropertyOp31
 70
     1
102
RTVSPropertyOp32
 70
     1
102
RTVSPropertyOp33
 70
     1
102
RTVSPropertyOp34
 70
     1
102
RTVSPropertyOp35
 70
     1
102
RTVSPropertyOp36
 70
     1
102
RTVSPropertyOp37
 70
     1
102
RTVSPropertyOp38
 70
     1
102
RTVSPropertyOp39
 70
     1
102
RTVSPropertyOp40
 70
     1
102
RTVSPropertyOp41
 70
     1
102
RTVSPropertyOp42
 70
     1
102
RTVSPropertyOp43
 70
     1
102
RTVSPropertyOp44
 70
     1
102
RTVSPropertyOp45
 70
     1
102
RTVSPropertyOp46
 70
     1
102
RTVSPropertyOp47
 70
     1
102
RTVSPropertyOp48
 70
     1
102
RTVSPropertyOp49
 70
     1
102
RTVSPropertyOp50
 70
     1
102
RTVSPropertyOp51
 70
     0
102
RTVSPropertyOp52
 70
     0
102
RTVSPropertyOp53
 70
     1
102
RTVSPropertyOp54
 70
     1
102
RTVSPropertyOp55
 70
     1
102
RTVSPropertyOp56
 70
     1
102
RTVSPropertyOp57
 70
     1
102
RTVSPropertyOp58
 70
     1
102
RTVSPropertyOp59
 70
     1
102
RTVSPropertyOp60
 70
     1
102
RTVSPropertyOp61
 70
     1
102
RTVSPropertyOp62
 70
     1
  0
XRECORD
  5
1A45
102
{ACAD_REACTORS
330
1A44
102
}
330
1A44
100
AcDbXrecord
280
     1
102
RTVSPost2010Prop28
280
     0
102
RTVSPost2010PropOp28
 70
     1
102
RTVSPost2010Prop29
280
     1
102
RTVSPost2010PropOp29
 70
     1
102
RTVSPost2010Prop30
280
     1
102
RTVSPost2010PropOp30
 70
     1
102
RTVSPost2010Prop31
280
     0
102
RTVSPost2010PropOp31
 70
     1
102
RTVSPost2010Prop32
280
     0
102
RTVSPost2010PropOp32
 70
     1
102
RTVSPost2010Prop33
280
     0
102
RTVSPost2010PropOp33
 70
     1
102
RTVSPost2010Prop34
280
     0
102
RTVSPost2010PropOp34
 70
     1
102
RTVSPost2010Prop35
280
     0
102
RTVSPost2010PropOp35
 70
     1
102
RTVSPost2010Prop36
280
     0
102
RTVSPost2010PropOp36
 70
     1
102
RTVSPost2010Prop37
 90
       50
102
RTVSPost2010PropOp37
 70
     0
102
RTVSPost2010Prop38
140
0.0
102
RTVSPost2010PropOp38
 70
     0
102
RTVSPost2010Prop39
140
1.0
102
RTVSPost2010PropOp39
 70
     0
102
RTVSPost2010Prop40
 90
        0
102
RTVSPost2010PropOp40
 70
     0
102
RTVSPost2010Prop41ColorIndex
 90
       18
102
RTVSPost2010Prop41ColorRGB
 90
        0
102
RTVSPost2010PropOp41
 70
     0
102
RTVSPost2010Prop42
 90
       50
102
RTVSPost2010PropOp42
 70
     0
102
RTVSPost2010Prop43
 90
        3
102
RTVSPost2010PropOp43
 70
     0
102
RTVSPost2010Prop44ColorIndex
 90
        5
102
RTVSPost2010Prop44ColorRGB
 90
      255
102
RTVSPost2010PropOp44
 70
     0
102
RTVSPost2010Prop45
280
     0
102
RTVSPost2010PropOp45
 70
     1
102
RTVSPost2010Prop46
 90
       50
102
RTVSPost2010PropOp46
 70
     0
102
RTVSPost2010Prop47
 90
       50
102
RTVSPost2010PropOp47
 70
     0
102
RTVSPost2010Prop48
 90
       50
102
RTVSPost2010PropOp48
 70
     0
102
RTVSPost2010Prop49
280
     0
102
RTVSPost2010PropOp49
 70
     1
102
RTVSPost2010Prop50
 90
       50
102
RTVSPost2010PropOp50
 70
     0
102
RTVSPost2010Prop51ColorIndex
 90
      256
102
RTVSPost2010Prop51ColorRGB
 90
-16777216
102
RTVSPost2010PropOp51
 70
     0
102
RTVSPost2010Prop52
140
1.0
102
RTVSPost2010PropOp52
 70
     0
102
RTVSPost2010Prop53
 90
        2
102
RTVSPost2010PropOp53
 70
     0
102
RTVSPost2010Prop54
  1
strokes_ogs.tif
102
RTVSPost2010PropOp54
 70
     0
102
RTVSPost2010Prop55
280
     0
102
RTVSPost2010PropOp55
 70
     1
102
RTVSPost2010Prop56
140
1.0
102
RTVSPost2010PropOp56
 70
     0
102
RTVSPost2010Prop57
140
1.0
102
RTVSPost2010PropOp57
 70
     0
102
RTVSPropertyOp0
 70
     0
102
RTVSPropertyOp1
 70
     0
102
RTVSPropertyOp2
 70
     0
102
RTVSPropertyOp3
 70
     0
102
RTVSPropertyOp4
 70
     0
102
RTVSPropertyOp5
 70
     0
102
RTVSPropertyOp6
 70
     0
102
RTVSPropertyOp7
 70
     0
102
RTVSPropertyOp8
 70
     0
102
RTVSPropertyOp9
 70
     0
102
RTVSPropertyOp10
 70
     0
102
RTVSPropertyOp11
 70
     0
102
RTVSPropertyOp12
 70
     0
102
RTVSPropertyOp13
 70
     0
102
RTVSPropertyOp14
 70
     2
102
RTVSPropertyOp15
 70
     0
102
RTVSPropertyOp16
 70
     0
102
RTVSPropertyOp17
 70
     0
102
RTVSPropertyOp18
 70
     0
102
RTVSPropertyOp19
 70
     0
102
RTVSPropertyOp20
 70
     0
102
RTVSPropertyOp21
 70
     0
102
RTVSPropertyOp22
 70
     0
102
RTVSPropertyOp23
 70
     0
102
RTVSPropertyOp24
 70
     0
102
RTVSPropertyOp25
 70
     0
102
RTVSPropertyOp26
 70
     0
102
RTVSPropertyOp27
 70
     0
102
RTVSPropertyOp28
 70
     1
102
RTVSPropertyOp29
 70
     1
102
RTVSPropertyOp30
 70
     1
102
RTVSPropertyOp31
 70
     1
102
RTVSPropertyOp32
 70
     1
102
RTVSPropertyOp33
 70
     1
102
RTVSPropertyOp34
 70
     1
102
RTVSPropertyOp35
 70
     1
102
RTVSPropertyOp36
 70
     1
102
RTVSPropertyOp37
 70
     0
102
RTVSPropertyOp38
 70
     0
102
RTVSPropertyOp39
 70
     0
102
RTVSPropertyOp40
 70
     0
102
RTVSPropertyOp41
 70
     0
102
RTVSPropertyOp42
 70
     0
102
RTVSPropertyOp43
 70
     0
102
RTVSPropertyOp44
 70
     0
102
RTVSPropertyOp45
 70
     1
102
RTVSPropertyOp46
 70
     0
102
RTVSPropertyOp47
 70
     0
102
RTVSPropertyOp48
 70
     0
102
RTVSPropertyOp49
 70
     1
102
RTVSPropertyOp50
 70
     0
102
RTVSPropertyOp51
 70
     0
102
RTVSPropertyOp52
 70
     0
102
RTVSPropertyOp53
 70
     0
102
RTVSPropertyOp54
 70
     0
102
RTVSPropertyOp55
 70
     1
102
RTVSPropertyOp56
 70
     0
102
RTVSPropertyOp57
 70
     0
102
RTVSPropertyOp58
 70
     0
102
RTVSPropertyOp59
 70
     0
102
RTVSPropertyOp60
 70
     0
102
RTVSPropertyOp61
 70
     0
102
RTVSPropertyOp62
 70
     0
  0
XRECORD
  5
1A33
102
{ACAD_REACTORS
330
1A32
102
}
330
1A32
100
AcDbXrecord
280
     1
102
RTVSPost2010Prop28
280
     0
102
RTVSPost2010PropOp28
 70
     1
102
RTVSPost2010Prop29
280
     1
102
RTVSPost2010PropOp29
 70
     1
102
RTVSPost2010Prop30
280
     1
102
RTVSPost2010PropOp30
 70
     1
102
RTVSPost2010Prop31
280
     0
102
RTVSPost2010PropOp31
 70
     1
102
RTVSPost2010Prop32
280
     0
102
RTVSPost2010PropOp32
 70
     1
102
RTVSPost2010Prop33
280
     0
102
RTVSPost2010PropOp33
 70
     1
102
RTVSPost2010Prop34
280
     0
102
RTVSPost2010PropOp34
 70
     1
102
RTVSPost2010Prop35
280
     0
102
RTVSPost2010PropOp35
 70
     1
102
RTVSPost2010Prop36
280
     0
102
RTVSPost2010PropOp36
 70
     1
102
RTVSPost2010Prop37
 90
       50
102
RTVSPost2010PropOp37
 70
     1
102
RTVSPost2010Prop38
140
0.0
102
RTVSPost2010PropOp38
 70
     1
102
RTVSPost2010Prop39
140
1.0
102
RTVSPost2010PropOp39
 70
     1
102
RTVSPost2010Prop40
 90
        0
102
RTVSPost2010PropOp40
 70
     1
102
RTVSPost2010Prop41ColorIndex
 90
       18
102
RTVSPost2010Prop41ColorRGB
 90
        0
102
RTVSPost2010PropOp41
 70
     1
102
RTVSPost2010Prop42
 90
       50
102
RTVSPost2010PropOp42
 70
     1
102
RTVSPost2010Prop43
 90
        3
102
RTVSPost2010PropOp43
 70
     1
102
RTVSPost2010Prop44ColorIndex
 90
        5
102
RTVSPost2010Prop44ColorRGB
 90
      255
102
RTVSPost2010PropOp44
 70
     1
102
RTVSPost2010Prop45
280
     0
102
RTVSPost2010PropOp45
 70
     1
102
RTVSPost2010Prop46
 90
       50
102
RTVSPost2010PropOp46
 70
     1
102
RTVSPost2010Prop47
 90
       50
102
RTVSPost2010PropOp47
 70
     1
102
RTVSPost2010Prop48
 90
       50
102
RTVSPost2010PropOp48
 70
     1
102
RTVSPost2010Prop49
280
     0
102
RTVSPost2010PropOp49
 70
     1
102
RTVSPost2010Prop50
 90
       50
102
RTVSPost2010PropOp50
 70
     1
102
RTVSPost2010Prop51ColorIndex
 90
      256
102
RTVSPost2010Prop51ColorRGB
 90
-16777216
102
RTVSPost2010PropOp51
 70
     0
102
RTVSPost2010Prop52
140
1.0
102
RTVSPost2010PropOp52
 70
     0
102
RTVSPost2010Prop53
 90
        2
102
RTVSPost2010PropOp53
 70
     1
102
RTVSPost2010Prop54
  1
strokes_ogs.tif
102
RTVSPost2010PropOp54
 70
     1
102
RTVSPost2010Prop55
280
     0
102
RTVSPost2010PropOp55
 70
     1
102
RTVSPost2010Prop56
140
1.0
102
RTVSPost2010PropOp56
 70
     1
102
RTVSPost2010Prop57
140
1.0
102
RTVSPost2010PropOp57
 70
     1
102
RTVSPropertyOp0
 70
     1
102
RTVSPropertyOp1
 70
     1
102
RTVSPropertyOp2
 70
     1
102
RTVSPropertyOp3
 70
     1
102
RTVSPropertyOp4
 70
     1
102
RTVSPropertyOp5
 70
     1
102
RTVSPropertyOp6
 70
     1
102
RTVSPropertyOp7
 70
     1
102
RTVSPropertyOp8
 70
     1
102
RTVSPropertyOp9
 70
     1
102
RTVSPropertyOp10
 70
     1
102
RTVSPropertyOp11
 70
     1
102
RTVSPropertyOp12
 70
     1
102
RTVSPropertyOp13
 70
     1
102
RTVSPropertyOp14
 70
     1
102
RTVSPropertyOp15
 70
     1
102
RTVSPropertyOp16
 70
     1
102
RTVSPropertyOp17
 70
     1
102
RTVSPropertyOp18
 70
     1
102
RTVSPropertyOp19
 70
     1
102
RTVSPropertyOp20
 70
     1
102
RTVSPropertyOp21
 70
     1
102
RTVSPropertyOp22
 70
     1
102
RTVSPropertyOp23
 70
     1
102
RTVSPropertyOp24
 70
     1
102
RTVSPropertyOp25
 70
     1
102
RTVSPropertyOp26
 70
     1
102
RTVSPropertyOp27
 70
     1
102
RTVSPropertyOp28
 70
     1
102
RTVSPropertyOp29
 70
     1
102
RTVSPropertyOp30
 70
     1
102
RTVSPropertyOp31
 70
     1
102
RTVSPropertyOp32
 70
     1
102
RTVSPropertyOp33
 70
     1
102
RTVSPropertyOp34
 70
     1
102
RTVSPropertyOp35
 70
     1
102
RTVSPropertyOp36
 70
     1
102
RTVSPropertyOp37
 70
     1
102
RTVSPropertyOp38
 70
     1
102
RTVSPropertyOp39
 70
     1
102
RTVSPropertyOp40
 70
     1
102
RTVSPropertyOp41
 70
     1
102
RTVSPropertyOp42
 70
     1
102
RTVSPropertyOp43
 70
     1
102
RTVSPropertyOp44
 70
     1
102
RTVSPropertyOp45
 70
     1
102
RTVSPropertyOp46
 70
     1
102
RTVSPropertyOp47
 70
     1
102
RTVSPropertyOp48
 70
     1
102
RTVSPropertyOp49
 70
     1
102
RTVSPropertyOp50
 70
     1
102
RTVSPropertyOp51
 70
     0
102
RTVSPropertyOp52
 70
     0
102
RTVSPropertyOp53
 70
     1
102
RTVSPropertyOp54
 70
     1
102
RTVSPropertyOp55
 70
     1
102
RTVSPropertyOp56
 70
     1
102
RTVSPropertyOp57
 70
     1
102
RTVSPropertyOp58
 70
     1
102
RTVSPropertyOp59
 70
     1
102
RTVSPropertyOp60
 70
     1
102
RTVSPropertyOp61
 70
     1
102
RTVSPropertyOp62
 70
     1
  0
XRECORD
  5
1A17
102
{ACAD_REACTORS
330
1A16
102
}
330
1A16
100
AcDbXrecord
280
     1
102
RTVSPost2010Prop28
280
     0
102
RTVSPost2010PropOp28
 70
     1
102
RTVSPost2010Prop29
280
     1
102
RTVSPost2010PropOp29
 70
     1
102
RTVSPost2010Prop30
280
     1
102
RTVSPost2010PropOp30
 70
     1
102
RTVSPost2010Prop31
280
     0
102
RTVSPost2010PropOp31
 70
     1
102
RTVSPost2010Prop32
280
     0
102
RTVSPost2010PropOp32
 70
     1
102
RTVSPost2010Prop33
280
     0
102
RTVSPost2010PropOp33
 70
     1
102
RTVSPost2010Prop34
280
     0
102
RTVSPost2010PropOp34
 70
     1
102
RTVSPost2010Prop35
280
     0
102
RTVSPost2010PropOp35
 70
     1
102
RTVSPost2010Prop36
280
     0
102
RTVSPost2010PropOp36
 70
     1
102
RTVSPost2010Prop37
 90
       50
102
RTVSPost2010PropOp37
 70
     1
102
RTVSPost2010Prop38
140
0.0
102
RTVSPost2010PropOp38
 70
     1
102
RTVSPost2010Prop39
140
1.0
102
RTVSPost2010PropOp39
 70
     1
102
RTVSPost2010Prop40
 90
        0
102
RTVSPost2010PropOp40
 70
     1
102
RTVSPost2010Prop41ColorIndex
 90
       18
102
RTVSPost2010Prop41ColorRGB
 90
        0
102
RTVSPost2010PropOp41
 70
     1
102
RTVSPost2010Prop42
 90
       50
102
RTVSPost2010PropOp42
 70
     1
102
RTVSPost2010Prop43
 90
        3
102
RTVSPost2010PropOp43
 70
     1
102
RTVSPost2010Prop44ColorIndex
 90
        5
102
RTVSPost2010Prop44ColorRGB
 90
      255
102
RTVSPost2010PropOp44
 70
     1
102
RTVSPost2010Prop45
280
     0
102
RTVSPost2010PropOp45
 70
     1
102
RTVSPost2010Prop46
 90
       50
102
RTVSPost2010PropOp46
 70
     1
102
RTVSPost2010Prop47
 90
       50
102
RTVSPost2010PropOp47
 70
     1
102
RTVSPost2010Prop48
 90
       50
102
RTVSPost2010PropOp48
 70
     1
102
RTVSPost2010Prop49
280
     0
102
RTVSPost2010PropOp49
 70
     1
102
RTVSPost2010Prop50
 90
       50
102
RTVSPost2010PropOp50
 70
     1
102
RTVSPost2010Prop51ColorIndex
 90
      256
102
RTVSPost2010Prop51ColorRGB
 90
-16777216
102
RTVSPost2010PropOp51
 70
     0
102
RTVSPost2010Prop52
140
1.0
102
RTVSPost2010PropOp52
 70
     0
102
RTVSPost2010Prop53
 90
        2
102
RTVSPost2010PropOp53
 70
     1
102
RTVSPost2010Prop54
  1
strokes_ogs.tif
102
RTVSPost2010PropOp54
 70
     1
102
RTVSPost2010Prop55
280
     0
102
RTVSPost2010PropOp55
 70
     1
102
RTVSPost2010Prop56
140
1.0
102
RTVSPost2010PropOp56
 70
     1
102
RTVSPost2010Prop57
140
1.0
102
RTVSPost2010PropOp57
 70
     1
102
RTVSPropertyOp0
 70
     1
102
RTVSPropertyOp1
 70
     1
102
RTVSPropertyOp2
 70
     1
102
RTVSPropertyOp3
 70
     1
102
RTVSPropertyOp4
 70
     1
102
RTVSPropertyOp5
 70
     1
102
RTVSPropertyOp6
 70
     1
102
RTVSPropertyOp7
 70
     1
102
RTVSPropertyOp8
 70
     1
102
RTVSPropertyOp9
 70
     1
102
RTVSPropertyOp10
 70
     1
102
RTVSPropertyOp11
 70
     1
102
RTVSPropertyOp12
 70
     1
102
RTVSPropertyOp13
 70
     1
102
RTVSPropertyOp14
 70
     1
102
RTVSPropertyOp15
 70
     1
102
RTVSPropertyOp16
 70
     1
102
RTVSPropertyOp17
 70
     1
102
RTVSPropertyOp18
 70
     1
102
RTVSPropertyOp19
 70
     1
102
RTVSPropertyOp20
 70
     1
102
RTVSPropertyOp21
 70
     1
102
RTVSPropertyOp22
 70
     1
102
RTVSPropertyOp23
 70
     1
102
RTVSPropertyOp24
 70
     1
102
RTVSPropertyOp25
 70
     1
102
RTVSPropertyOp26
 70
     1
102
RTVSPropertyOp27
 70
     1
102
RTVSPropertyOp28
 70
     1
102
RTVSPropertyOp29
 70
     1
102
RTVSPropertyOp30
 70
     1
102
RTVSPropertyOp31
 70
     1
102
RTVSPropertyOp32
 70
     1
102
RTVSPropertyOp33
 70
     1
102
RTVSPropertyOp34
 70
     1
102
RTVSPropertyOp35
 70
     1
102
RTVSPropertyOp36
 70
     1
102
RTVSPropertyOp37
 70
     1
102
RTVSPropertyOp38
 70
     1
102
RTVSPropertyOp39
 70
     1
102
RTVSPropertyOp40
 70
     1
102
RTVSPropertyOp41
 70
     1
102
RTVSPropertyOp42
 70
     1
102
RTVSPropertyOp43
 70
     1
102
RTVSPropertyOp44
 70
     1
102
RTVSPropertyOp45
 70
     1
102
RTVSPropertyOp46
 70
     1
102
RTVSPropertyOp47
 70
     1
102
RTVSPropertyOp48
 70
     1
102
RTVSPropertyOp49
 70
     1
102
RTVSPropertyOp50
 70
     1
102
RTVSPropertyOp51
 70
     0
102
RTVSPropertyOp52
 70
     0
102
RTVSPropertyOp53
 70
     1
102
RTVSPropertyOp54
 70
     1
102
RTVSPropertyOp55
 70
     1
102
RTVSPropertyOp56
 70
     1
102
RTVSPropertyOp57
 70
     1
102
RTVSPropertyOp58
 70
     1
102
RTVSPropertyOp59
 70
     1
102
RTVSPropertyOp60
 70
     1
102
RTVSPropertyOp61
 70
     1
102
RTVSPropertyOp62
 70
     1
  0
XRECORD
  5
1A19
102
{ACAD_REACTORS
330
1A18
102
}
330
1A18
100
AcDbXrecord
280
     1
102
RTVSPost2010Prop28
280
     0
102
RTVSPost2010PropOp28
 70
     1
102
RTVSPost2010Prop29
280
     1
102
RTVSPost2010PropOp29
 70
     1
102
RTVSPost2010Prop30
280
     1
102
RTVSPost2010PropOp30
 70
     1
102
RTVSPost2010Prop31
280
     0
102
RTVSPost2010PropOp31
 70
     1
102
RTVSPost2010Prop32
280
     0
102
RTVSPost2010PropOp32
 70
     1
102
RTVSPost2010Prop33
280
     0
102
RTVSPost2010PropOp33
 70
     1
102
RTVSPost2010Prop34
280
     0
102
RTVSPost2010PropOp34
 70
     1
102
RTVSPost2010Prop35
280
     0
102
RTVSPost2010PropOp35
 70
     1
102
RTVSPost2010Prop36
280
     0
102
RTVSPost2010PropOp36
 70
     1
102
RTVSPost2010Prop37
 90
       50
102
RTVSPost2010PropOp37
 70
     1
102
RTVSPost2010Prop38
140
0.0
102
RTVSPost2010PropOp38
 70
     1
102
RTVSPost2010Prop39
140
1.0
102
RTVSPost2010PropOp39
 70
     1
102
RTVSPost2010Prop40
 90
        0
102
RTVSPost2010PropOp40
 70
     1
102
RTVSPost2010Prop41ColorIndex
 90
       18
102
RTVSPost2010Prop41ColorRGB
 90
        0
102
RTVSPost2010PropOp41
 70
     1
102
RTVSPost2010Prop42
 90
       50
102
RTVSPost2010PropOp42
 70
     1
102
RTVSPost2010Prop43
 90
        3
102
RTVSPost2010PropOp43
 70
     1
102
RTVSPost2010Prop44ColorIndex
 90
        5
102
RTVSPost2010Prop44ColorRGB
 90
      255
102
RTVSPost2010PropOp44
 70
     1
102
RTVSPost2010Prop45
280
     0
102
RTVSPost2010PropOp45
 70
     1
102
RTVSPost2010Prop46
 90
       50
102
RTVSPost2010PropOp46
 70
     1
102
RTVSPost2010Prop47
 90
       50
102
RTVSPost2010PropOp47
 70
     1
102
RTVSPost2010Prop48
 90
       50
102
RTVSPost2010PropOp48
 70
     1
102
RTVSPost2010Prop49
280
     0
102
RTVSPost2010PropOp49
 70
     1
102
RTVSPost2010Prop50
 90
       50
102
RTVSPost2010PropOp50
 70
     1
102
RTVSPost2010Prop51ColorIndex
 90
      256
102
RTVSPost2010Prop51ColorRGB
 90
-16777216
102
RTVSPost2010PropOp51
 70
     0
102
RTVSPost2010Prop52
140
1.0
102
RTVSPost2010PropOp52
 70
     0
102
RTVSPost2010Prop53
 90
        2
102
RTVSPost2010PropOp53
 70
     1
102
RTVSPost2010Prop54
  1
strokes_ogs.tif
102
RTVSPost2010PropOp54
 70
     1
102
RTVSPost2010Prop55
280
     0
102
RTVSPost2010PropOp55
 70
     1
102
RTVSPost2010Prop56
140
1.0
102
RTVSPost2010PropOp56
 70
     1
102
RTVSPost2010Prop57
140
1.0
102
RTVSPost2010PropOp57
 70
     1
102
RTVSPropertyOp0
 70
     1
102
RTVSPropertyOp1
 70
     1
102
RTVSPropertyOp2
 70
     1
102
RTVSPropertyOp3
 70
     1
102
RTVSPropertyOp4
 70
     1
102
RTVSPropertyOp5
 70
     1
102
RTVSPropertyOp6
 70
     1
102
RTVSPropertyOp7
 70
     1
102
RTVSPropertyOp8
 70
     1
102
RTVSPropertyOp9
 70
     1
102
RTVSPropertyOp10
 70
     1
102
RTVSPropertyOp11
 70
     1
102
RTVSPropertyOp12
 70
     1
102
RTVSPropertyOp13
 70
     1
102
RTVSPropertyOp14
 70
     1
102
RTVSPropertyOp15
 70
     1
102
RTVSPropertyOp16
 70
     1
102
RTVSPropertyOp17
 70
     1
102
RTVSPropertyOp18
 70
     1
102
RTVSPropertyOp19
 70
     1
102
RTVSPropertyOp20
 70
     1
102
RTVSPropertyOp21
 70
     1
102
RTVSPropertyOp22
 70
     1
102
RTVSPropertyOp23
 70
     1
102
RTVSPropertyOp24
 70
     1
102
RTVSPropertyOp25
 70
     1
102
RTVSPropertyOp26
 70
     1
102
RTVSPropertyOp27
 70
     1
102
RTVSPropertyOp28
 70
     1
102
RTVSPropertyOp29
 70
     1
102
RTVSPropertyOp30
 70
     1
102
RTVSPropertyOp31
 70
     1
102
RTVSPropertyOp32
 70
     1
102
RTVSPropertyOp33
 70
     1
102
RTVSPropertyOp34
 70
     1
102
RTVSPropertyOp35
 70
     1
102
RTVSPropertyOp36
 70
     1
102
RTVSPropertyOp37
 70
     1
102
RTVSPropertyOp38
 70
     1
102
RTVSPropertyOp39
 70
     1
102
RTVSPropertyOp40
 70
     1
102
RTVSPropertyOp41
 70
     1
102
RTVSPropertyOp42
 70
     1
102
RTVSPropertyOp43
 70
     1
102
RTVSPropertyOp44
 70
     1
102
RTVSPropertyOp45
 70
     1
102
RTVSPropertyOp46
 70
     1
102
RTVSPropertyOp47
 70
     1
102
RTVSPropertyOp48
 70
     1
102
RTVSPropertyOp49
 70
     1
102
RTVSPropertyOp50
 70
     1
102
RTVSPropertyOp51
 70
     0
102
RTVSPropertyOp52
 70
     0
102
RTVSPropertyOp53
 70
     1
102
RTVSPropertyOp54
 70
     1
102
RTVSPropertyOp55
 70
     1
102
RTVSPropertyOp56
 70
     1
102
RTVSPropertyOp57
 70
     1
102
RTVSPropertyOp58
 70
     1
102
RTVSPropertyOp59
 70
     1
102
RTVSPropertyOp60
 70
     1
102
RTVSPropertyOp61
 70
     1
102
RTVSPropertyOp62
 70
     1
  0
XRECORD
  5
1A1B
102
{ACAD_REACTORS
330
1A1A
102
}
330
1A1A
100
AcDbXrecord
280
     1
102
RTVSPost2010Prop28
280
     0
102
RTVSPost2010PropOp28
 70
     1
102
RTVSPost2010Prop29
280
     1
102
RTVSPost2010PropOp29
 70
     1
102
RTVSPost2010Prop30
280
     1
102
RTVSPost2010PropOp30
 70
     1
102
RTVSPost2010Prop31
280
     0
102
RTVSPost2010PropOp31
 70
     1
102
RTVSPost2010Prop32
280
     0
102
RTVSPost2010PropOp32
 70
     1
102
RTVSPost2010Prop33
280
     0
102
RTVSPost2010PropOp33
 70
     1
102
RTVSPost2010Prop34
280
     0
102
RTVSPost2010PropOp34
 70
     1
102
RTVSPost2010Prop35
280
     0
102
RTVSPost2010PropOp35
 70
     1
102
RTVSPost2010Prop36
280
     0
102
RTVSPost2010PropOp36
 70
     1
102
RTVSPost2010Prop37
 90
       50
102
RTVSPost2010PropOp37
 70
     1
102
RTVSPost2010Prop38
140
0.0
102
RTVSPost2010PropOp38
 70
     1
102
RTVSPost2010Prop39
140
1.0
102
RTVSPost2010PropOp39
 70
     1
102
RTVSPost2010Prop40
 90
        0
102
RTVSPost2010PropOp40
 70
     1
102
RTVSPost2010Prop41ColorIndex
 90
       18
102
RTVSPost2010Prop41ColorRGB
 90
        0
102
RTVSPost2010PropOp41
 70
     1
102
RTVSPost2010Prop42
 90
       50
102
RTVSPost2010PropOp42
 70
     1
102
RTVSPost2010Prop43
 90
        3
102
RTVSPost2010PropOp43
 70
     1
102
RTVSPost2010Prop44ColorIndex
 90
        5
102
RTVSPost2010Prop44ColorRGB
 90
      255
102
RTVSPost2010PropOp44
 70
     1
102
RTVSPost2010Prop45
280
     0
102
RTVSPost2010PropOp45
 70
     1
102
RTVSPost2010Prop46
 90
       50
102
RTVSPost2010PropOp46
 70
     1
102
RTVSPost2010Prop47
 90
       50
102
RTVSPost2010PropOp47
 70
     1
102
RTVSPost2010Prop48
 90
       50
102
RTVSPost2010PropOp48
 70
     1
102
RTVSPost2010Prop49
280
     0
102
RTVSPost2010PropOp49
 70
     1
102
RTVSPost2010Prop50
 90
       50
102
RTVSPost2010PropOp50
 70
     1
102
RTVSPost2010Prop51ColorIndex
 90
      256
102
RTVSPost2010Prop51ColorRGB
 90
-16777216
102
RTVSPost2010PropOp51
 70
     0
102
RTVSPost2010Prop52
140
1.0
102
RTVSPost2010PropOp52
 70
     0
102
RTVSPost2010Prop53
 90
        2
102
RTVSPost2010PropOp53
 70
     1
102
RTVSPost2010Prop54
  1
strokes_ogs.tif
102
RTVSPost2010PropOp54
 70
     1
102
RTVSPost2010Prop55
280
     0
102
RTVSPost2010PropOp55
 70
     1
102
RTVSPost2010Prop56
140
1.0
102
RTVSPost2010PropOp56
 70
     1
102
RTVSPost2010Prop57
140
1.0
102
RTVSPost2010PropOp57
 70
     1
102
RTVSPropertyOp0
 70
     1
102
RTVSPropertyOp1
 70
     1
102
RTVSPropertyOp2
 70
     1
102
RTVSPropertyOp3
 70
     1
102
RTVSPropertyOp4
 70
     1
102
RTVSPropertyOp5
 70
     1
102
RTVSPropertyOp6
 70
     1
102
RTVSPropertyOp7
 70
     1
102
RTVSPropertyOp8
 70
     1
102
RTVSPropertyOp9
 70
     1
102
RTVSPropertyOp10
 70
     1
102
RTVSPropertyOp11
 70
     1
102
RTVSPropertyOp12
 70
     1
102
RTVSPropertyOp13
 70
     1
102
RTVSPropertyOp14
 70
     1
102
RTVSPropertyOp15
 70
     1
102
RTVSPropertyOp16
 70
     1
102
RTVSPropertyOp17
 70
     1
102
RTVSPropertyOp18
 70
     1
102
RTVSPropertyOp19
 70
     1
102
RTVSPropertyOp20
 70
     1
102
RTVSPropertyOp21
 70
     1
102
RTVSPropertyOp22
 70
     1
102
RTVSPropertyOp23
 70
     1
102
RTVSPropertyOp24
 70
     1
102
RTVSPropertyOp25
 70
     1
102
RTVSPropertyOp26
 70
     1
102
RTVSPropertyOp27
 70
     1
102
RTVSPropertyOp28
 70
     1
102
RTVSPropertyOp29
 70
     1
102
RTVSPropertyOp30
 70
     1
102
RTVSPropertyOp31
 70
     1
102
RTVSPropertyOp32
 70
     1
102
RTVSPropertyOp33
 70
     1
102
RTVSPropertyOp34
 70
     1
102
RTVSPropertyOp35
 70
     1
102
RTVSPropertyOp36
 70
     1
102
RTVSPropertyOp37
 70
     1
102
RTVSPropertyOp38
 70
     1
102
RTVSPropertyOp39
 70
     1
102
RTVSPropertyOp40
 70
     1
102
RTVSPropertyOp41
 70
     1
102
RTVSPropertyOp42
 70
     1
102
RTVSPropertyOp43
 70
     1
102
RTVSPropertyOp44
 70
     1
102
RTVSPropertyOp45
 70
     1
102
RTVSPropertyOp46
 70
     1
102
RTVSPropertyOp47
 70
     1
102
RTVSPropertyOp48
 70
     1
102
RTVSPropertyOp49
 70
     1
102
RTVSPropertyOp50
 70
     1
102
RTVSPropertyOp51
 70
     0
102
RTVSPropertyOp52
 70
     0
102
RTVSPropertyOp53
 70
     1
102
RTVSPropertyOp54
 70
     1
102
RTVSPropertyOp55
 70
     1
102
RTVSPropertyOp56
 70
     1
102
RTVSPropertyOp57
 70
     1
102
RTVSPropertyOp58
 70
     1
102
RTVSPropertyOp59
 70
     1
102
RTVSPropertyOp60
 70
     1
102
RTVSPropertyOp61
 70
     1
102
RTVSPropertyOp62
 70
     1
  0
XRECORD
  5
1A1D
102
{ACAD_REACTORS
330
1A1C
102
}
330
1A1C
100
AcDbXrecord
280
     1
102
RTVSPost2010Prop28
280
     0
102
RTVSPost2010PropOp28
 70
     1
102
RTVSPost2010Prop29
280
     1
102
RTVSPost2010PropOp29
 70
     1
102
RTVSPost2010Prop30
280
     1
102
RTVSPost2010PropOp30
 70
     1
102
RTVSPost2010Prop31
280
     0
102
RTVSPost2010PropOp31
 70
     1
102
RTVSPost2010Prop32
280
     0
102
RTVSPost2010PropOp32
 70
     1
102
RTVSPost2010Prop33
280
     0
102
RTVSPost2010PropOp33
 70
     1
102
RTVSPost2010Prop34
280
     0
102
RTVSPost2010PropOp34
 70
     1
102
RTVSPost2010Prop35
280
     0
102
RTVSPost2010PropOp35
 70
     1
102
RTVSPost2010Prop36
280
     0
102
RTVSPost2010PropOp36
 70
     1
102
RTVSPost2010Prop37
 90
       50
102
RTVSPost2010PropOp37
 70
     1
102
RTVSPost2010Prop38
140
0.0
102
RTVSPost2010PropOp38
 70
     1
102
RTVSPost2010Prop39
140
1.0
102
RTVSPost2010PropOp39
 70
     1
102
RTVSPost2010Prop40
 90
        0
102
RTVSPost2010PropOp40
 70
     1
102
RTVSPost2010Prop41ColorIndex
 90
       18
102
RTVSPost2010Prop41ColorRGB
 90
        0
102
RTVSPost2010PropOp41
 70
     1
102
RTVSPost2010Prop42
 90
       50
102
RTVSPost2010PropOp42
 70
     1
102
RTVSPost2010Prop43
 90
        3
102
RTVSPost2010PropOp43
 70
     1
102
RTVSPost2010Prop44ColorIndex
 90
        5
102
RTVSPost2010Prop44ColorRGB
 90
      255
102
RTVSPost2010PropOp44
 70
     1
102
RTVSPost2010Prop45
280
     0
102
RTVSPost2010PropOp45
 70
     1
102
RTVSPost2010Prop46
 90
       50
102
RTVSPost2010PropOp46
 70
     1
102
RTVSPost2010Prop47
 90
       50
102
RTVSPost2010PropOp47
 70
     1
102
RTVSPost2010Prop48
 90
       50
102
RTVSPost2010PropOp48
 70
     1
102
RTVSPost2010Prop49
280
     0
102
RTVSPost2010PropOp49
 70
     1
102
RTVSPost2010Prop50
 90
       50
102
RTVSPost2010PropOp50
 70
     1
102
RTVSPost2010Prop51ColorIndex
 90
      256
102
RTVSPost2010Prop51ColorRGB
 90
-16777216
102
RTVSPost2010PropOp51
 70
     0
102
RTVSPost2010Prop52
140
1.0
102
RTVSPost2010PropOp52
 70
     0
102
RTVSPost2010Prop53
 90
        2
102
RTVSPost2010PropOp53
 70
     1
102
RTVSPost2010Prop54
  1
strokes_ogs.tif
102
RTVSPost2010PropOp54
 70
     1
102
RTVSPost2010Prop55
280
     0
102
RTVSPost2010PropOp55
 70
     1
102
RTVSPost2010Prop56
140
1.0
102
RTVSPost2010PropOp56
 70
     1
102
RTVSPost2010Prop57
140
1.0
102
RTVSPost2010PropOp57
 70
     1
102
RTVSPropertyOp0
 70
     1
102
RTVSPropertyOp1
 70
     1
102
RTVSPropertyOp2
 70
     1
102
RTVSPropertyOp3
 70
     1
102
RTVSPropertyOp4
 70
     1
102
RTVSPropertyOp5
 70
     1
102
RTVSPropertyOp6
 70
     1
102
RTVSPropertyOp7
 70
     1
102
RTVSPropertyOp8
 70
     1
102
RTVSPropertyOp9
 70
     1
102
RTVSPropertyOp10
 70
     1
102
RTVSPropertyOp11
 70
     1
102
RTVSPropertyOp12
 70
     1
102
RTVSPropertyOp13
 70
     1
102
RTVSPropertyOp14
 70
     1
102
RTVSPropertyOp15
 70
     1
102
RTVSPropertyOp16
 70
     1
102
RTVSPropertyOp17
 70
     1
102
RTVSPropertyOp18
 70
     1
102
RTVSPropertyOp19
 70
     1
102
RTVSPropertyOp20
 70
     1
102
RTVSPropertyOp21
 70
     1
102
RTVSPropertyOp22
 70
     1
102
RTVSPropertyOp23
 70
     1
102
RTVSPropertyOp24
 70
     1
102
RTVSPropertyOp25
 70
     1
102
RTVSPropertyOp26
 70
     1
102
RTVSPropertyOp27
 70
     1
102
RTVSPropertyOp28
 70
     1
102
RTVSPropertyOp29
 70
     1
102
RTVSPropertyOp30
 70
     1
102
RTVSPropertyOp31
 70
     1
102
RTVSPropertyOp32
 70
     1
102
RTVSPropertyOp33
 70
     1
102
RTVSPropertyOp34
 70
     1
102
RTVSPropertyOp35
 70
     1
102
RTVSPropertyOp36
 70
     1
102
RTVSPropertyOp37
 70
     1
102
RTVSPropertyOp38
 70
     1
102
RTVSPropertyOp39
 70
     1
102
RTVSPropertyOp40
 70
     1
102
RTVSPropertyOp41
 70
     1
102
RTVSPropertyOp42
 70
     1
102
RTVSPropertyOp43
 70
     1
102
RTVSPropertyOp44
 70
     1
102
RTVSPropertyOp45
 70
     1
102
RTVSPropertyOp46
 70
     1
102
RTVSPropertyOp47
 70
     1
102
RTVSPropertyOp48
 70
     1
102
RTVSPropertyOp49
 70
     1
102
RTVSPropertyOp50
 70
     1
102
RTVSPropertyOp51
 70
     0
102
RTVSPropertyOp52
 70
     0
102
RTVSPropertyOp53
 70
     1
102
RTVSPropertyOp54
 70
     1
102
RTVSPropertyOp55
 70
     1
102
RTVSPropertyOp56
 70
     1
102
RTVSPropertyOp57
 70
     1
102
RTVSPropertyOp58
 70
     1
102
RTVSPropertyOp59
 70
     1
102
RTVSPropertyOp60
 70
     1
102
RTVSPropertyOp61
 70
     1
102
RTVSPropertyOp62
 70
     1
  0
XRECORD
  5
1A25
102
{ACAD_REACTORS
330
1A24
102
}
330
1A24
100
AcDbXrecord
280
     1
102
RTVSPost2010Prop28
280
     0
102
RTVSPost2010PropOp28
 70
     1
102
RTVSPost2010Prop29
280
     1
102
RTVSPost2010PropOp29
 70
     1
102
RTVSPost2010Prop30
280
     1
102
RTVSPost2010PropOp30
 70
     1
102
RTVSPost2010Prop31
280
     0
102
RTVSPost2010PropOp31
 70
     1
102
RTVSPost2010Prop32
280
     0
102
RTVSPost2010PropOp32
 70
     1
102
RTVSPost2010Prop33
280
     0
102
RTVSPost2010PropOp33
 70
     1
102
RTVSPost2010Prop34
280
     0
102
RTVSPost2010PropOp34
 70
     1
102
RTVSPost2010Prop35
280
     0
102
RTVSPost2010PropOp35
 70
     1
102
RTVSPost2010Prop36
280
     0
102
RTVSPost2010PropOp36
 70
     1
102
RTVSPost2010Prop37
 90
       50
102
RTVSPost2010PropOp37
 70
     1
102
RTVSPost2010Prop38
140
0.0
102
RTVSPost2010PropOp38
 70
     1
102
RTVSPost2010Prop39
140
1.0
102
RTVSPost2010PropOp39
 70
     1
102
RTVSPost2010Prop40
 90
        0
102
RTVSPost2010PropOp40
 70
     1
102
RTVSPost2010Prop41ColorIndex
 90
       18
102
RTVSPost2010Prop41ColorRGB
 90
        0
102
RTVSPost2010PropOp41
 70
     1
102
RTVSPost2010Prop42
 90
       50
102
RTVSPost2010PropOp42
 70
     1
102
RTVSPost2010Prop43
 90
        3
102
RTVSPost2010PropOp43
 70
     1
102
RTVSPost2010Prop44ColorIndex
 90
        5
102
RTVSPost2010Prop44ColorRGB
 90
      255
102
RTVSPost2010PropOp44
 70
     1
102
RTVSPost2010Prop45
280
     0
102
RTVSPost2010PropOp45
 70
     1
102
RTVSPost2010Prop46
 90
       50
102
RTVSPost2010PropOp46
 70
     1
102
RTVSPost2010Prop47
 90
       50
102
RTVSPost2010PropOp47
 70
     1
102
RTVSPost2010Prop48
 90
       50
102
RTVSPost2010PropOp48
 70
     1
102
RTVSPost2010Prop49
280
     0
102
RTVSPost2010PropOp49
 70
     1
102
RTVSPost2010Prop50
 90
       50
102
RTVSPost2010PropOp50
 70
     1
102
RTVSPost2010Prop51ColorIndex
 90
      256
102
RTVSPost2010Prop51ColorRGB
 90
-16777216
102
RTVSPost2010PropOp51
 70
     0
102
RTVSPost2010Prop52
140
1.0
102
RTVSPost2010PropOp52
 70
     0
102
RTVSPost2010Prop53
 90
        2
102
RTVSPost2010PropOp53
 70
     1
102
RTVSPost2010Prop54
  1
strokes_ogs.tif
102
RTVSPost2010PropOp54
 70
     1
102
RTVSPost2010Prop55
280
     0
102
RTVSPost2010PropOp55
 70
     1
102
RTVSPost2010Prop56
140
1.0
102
RTVSPost2010PropOp56
 70
     1
102
RTVSPost2010Prop57
140
1.0
102
RTVSPost2010PropOp57
 70
     1
102
RTVSPropertyOp0
 70
     1
102
RTVSPropertyOp1
 70
     1
102
RTVSPropertyOp2
 70
     1
102
RTVSPropertyOp3
 70
     1
102
RTVSPropertyOp4
 70
     1
102
RTVSPropertyOp5
 70
     1
102
RTVSPropertyOp6
 70
     1
102
RTVSPropertyOp7
 70
     1
102
RTVSPropertyOp8
 70
     1
102
RTVSPropertyOp9
 70
     1
102
RTVSPropertyOp10
 70
     1
102
RTVSPropertyOp11
 70
     1
102
RTVSPropertyOp12
 70
     1
102
RTVSPropertyOp13
 70
     1
102
RTVSPropertyOp14
 70
     1
102
RTVSPropertyOp15
 70
     1
102
RTVSPropertyOp16
 70
     1
102
RTVSPropertyOp17
 70
     1
102
RTVSPropertyOp18
 70
     1
102
RTVSPropertyOp19
 70
     1
102
RTVSPropertyOp20
 70
     1
102
RTVSPropertyOp21
 70
     1
102
RTVSPropertyOp22
 70
     1
102
RTVSPropertyOp23
 70
     1
102
RTVSPropertyOp24
 70
     1
102
RTVSPropertyOp25
 70
     1
102
RTVSPropertyOp26
 70
     1
102
RTVSPropertyOp27
 70
     1
102
RTVSPropertyOp28
 70
     1
102
RTVSPropertyOp29
 70
     1
102
RTVSPropertyOp30
 70
     1
102
RTVSPropertyOp31
 70
     1
102
RTVSPropertyOp32
 70
     1
102
RTVSPropertyOp33
 70
     1
102
RTVSPropertyOp34
 70
     1
102
RTVSPropertyOp35
 70
     1
102
RTVSPropertyOp36
 70
     1
102
RTVSPropertyOp37
 70
     1
102
RTVSPropertyOp38
 70
     1
102
RTVSPropertyOp39
 70
     1
102
RTVSPropertyOp40
 70
     1
102
RTVSPropertyOp41
 70
     1
102
RTVSPropertyOp42
 70
     1
102
RTVSPropertyOp43
 70
     1
102
RTVSPropertyOp44
 70
     1
102
RTVSPropertyOp45
 70
     1
102
RTVSPropertyOp46
 70
     1
102
RTVSPropertyOp47
 70
     1
102
RTVSPropertyOp48
 70
     1
102
RTVSPropertyOp49
 70
     1
102
RTVSPropertyOp50
 70
     1
102
RTVSPropertyOp51
 70
     0
102
RTVSPropertyOp52
 70
     0
102
RTVSPropertyOp53
 70
     1
102
RTVSPropertyOp54
 70
     1
102
RTVSPropertyOp55
 70
     1
102
RTVSPropertyOp56
 70
     1
102
RTVSPropertyOp57
 70
     1
102
RTVSPropertyOp58
 70
     1
102
RTVSPropertyOp59
 70
     1
102
RTVSPropertyOp60
 70
     1
102
RTVSPropertyOp61
 70
     1
102
RTVSPropertyOp62
 70
     1
  0
XRECORD
  5
1A41
102
{ACAD_REACTORS
330
1A40
102
}
330
1A40
100
AcDbXrecord
280
     1
102
RTVSPost2010Prop28
280
     0
102
RTVSPost2010PropOp28
 70
     1
102
RTVSPost2010Prop29
280
     1
102
RTVSPost2010PropOp29
 70
     1
102
RTVSPost2010Prop30
280
     1
102
RTVSPost2010PropOp30
 70
     1
102
RTVSPost2010Prop31
280
     0
102
RTVSPost2010PropOp31
 70
     1
102
RTVSPost2010Prop32
280
     0
102
RTVSPost2010PropOp32
 70
     1
102
RTVSPost2010Prop33
280
     0
102
RTVSPost2010PropOp33
 70
     1
102
RTVSPost2010Prop34
280
     0
102
RTVSPost2010PropOp34
 70
     1
102
RTVSPost2010Prop35
280
     0
102
RTVSPost2010PropOp35
 70
     1
102
RTVSPost2010Prop36
280
     0
102
RTVSPost2010PropOp36
 70
     1
102
RTVSPost2010Prop37
 90
       50
102
RTVSPost2010PropOp37
 70
     0
102
RTVSPost2010Prop38
140
0.0
102
RTVSPost2010PropOp38
 70
     0
102
RTVSPost2010Prop39
140
1.0
102
RTVSPost2010PropOp39
 70
     0
102
RTVSPost2010Prop40
 90
        0
102
RTVSPost2010PropOp40
 70
     0
102
RTVSPost2010Prop41ColorIndex
 90
       18
102
RTVSPost2010Prop41ColorRGB
 90
        0
102
RTVSPost2010PropOp41
 70
     0
102
RTVSPost2010Prop42
 90
       50
102
RTVSPost2010PropOp42
 70
     0
102
RTVSPost2010Prop43
 90
        3
102
RTVSPost2010PropOp43
 70
     0
102
RTVSPost2010Prop44ColorIndex
 90
        5
102
RTVSPost2010Prop44ColorRGB
 90
      255
102
RTVSPost2010PropOp44
 70
     0
102
RTVSPost2010Prop45
280
     0
102
RTVSPost2010PropOp45
 70
     1
102
RTVSPost2010Prop46
 90
       50
102
RTVSPost2010PropOp46
 70
     0
102
RTVSPost2010Prop47
 90
       50
102
RTVSPost2010PropOp47
 70
     0
102
RTVSPost2010Prop48
 90
       50
102
RTVSPost2010PropOp48
 70
     0
102
RTVSPost2010Prop49
280
     0
102
RTVSPost2010PropOp49
 70
     1
102
RTVSPost2010Prop50
 90
       50
102
RTVSPost2010PropOp50
 70
     0
102
RTVSPost2010Prop51ColorIndex
 90
      256
102
RTVSPost2010Prop51ColorRGB
 90
-16777216
102
RTVSPost2010PropOp51
 70
     0
102
RTVSPost2010Prop52
140
1.0
102
RTVSPost2010PropOp52
 70
     0
102
RTVSPost2010Prop53
 90
        2
102
RTVSPost2010PropOp53
 70
     0
102
RTVSPost2010Prop54
  1
strokes_ogs.tif
102
RTVSPost2010PropOp54
 70
     0
102
RTVSPost2010Prop55
280
     0
102
RTVSPost2010PropOp55
 70
     1
102
RTVSPost2010Prop56
140
1.0
102
RTVSPost2010PropOp56
 70
     0
102
RTVSPost2010Prop57
140
1.0
102
RTVSPost2010PropOp57
 70
     0
102
RTVSPropertyOp0
 70
     0
102
RTVSPropertyOp1
 70
     0
102
RTVSPropertyOp2
 70
     0
102
RTVSPropertyOp3
 70
     0
102
RTVSPropertyOp4
 70
     0
102
RTVSPropertyOp5
 70
     0
102
RTVSPropertyOp6
 70
     0
102
RTVSPropertyOp7
 70
     0
102
RTVSPropertyOp8
 70
     0
102
RTVSPropertyOp9
 70
     0
102
RTVSPropertyOp10
 70
     0
102
RTVSPropertyOp11
 70
     0
102
RTVSPropertyOp12
 70
     0
102
RTVSPropertyOp13
 70
     0
102
RTVSPropertyOp14
 70
     2
102
RTVSPropertyOp15
 70
     0
102
RTVSPropertyOp16
 70
     0
102
RTVSPropertyOp17
 70
     0
102
RTVSPropertyOp18
 70
     0
102
RTVSPropertyOp19
 70
     0
102
RTVSPropertyOp20
 70
     0
102
RTVSPropertyOp21
 70
     0
102
RTVSPropertyOp22
 70
     0
102
RTVSPropertyOp23
 70
     0
102
RTVSPropertyOp24
 70
     0
102
RTVSPropertyOp25
 70
     0
102
RTVSPropertyOp26
 70
     0
102
RTVSPropertyOp27
 70
     0
102
RTVSPropertyOp28
 70
     1
102
RTVSPropertyOp29
 70
     1
102
RTVSPropertyOp30
 70
     1
102
RTVSPropertyOp31
 70
     1
102
RTVSPropertyOp32
 70
     1
102
RTVSPropertyOp33
 70
     1
102
RTVSPropertyOp34
 70
     1
102
RTVSPropertyOp35
 70
     1
102
RTVSPropertyOp36
 70
     1
102
RTVSPropertyOp37
 70
     0
102
RTVSPropertyOp38
 70
     0
102
RTVSPropertyOp39
 70
     0
102
RTVSPropertyOp40
 70
     0
102
RTVSPropertyOp41
 70
     0
102
RTVSPropertyOp42
 70
     0
102
RTVSPropertyOp43
 70
     0
102
RTVSPropertyOp44
 70
     0
102
RTVSPropertyOp45
 70
     1
102
RTVSPropertyOp46
 70
     0
102
RTVSPropertyOp47
 70
     0
102
RTVSPropertyOp48
 70
     0
102
RTVSPropertyOp49
 70
     1
102
RTVSPropertyOp50
 70
     0
102
RTVSPropertyOp51
 70
     0
102
RTVSPropertyOp52
 70
     0
102
RTVSPropertyOp53
 70
     0
102
RTVSPropertyOp54
 70
     0
102
RTVSPropertyOp55
 70
     1
102
RTVSPropertyOp56
 70
     0
102
RTVSPropertyOp57
 70
     0
102
RTVSPropertyOp58
 70
     0
102
RTVSPropertyOp59
 70
     0
102
RTVSPropertyOp60
 70
     0
102
RTVSPropertyOp61
 70
     0
102
RTVSPropertyOp62
 70
     0
  0
XRECORD
  5
1A31
102
{ACAD_REACTORS
330
1A30
102
}
330
1A30
100
AcDbXrecord
280
     1
102
RTVSPost2010Prop28
280
     0
102
RTVSPost2010PropOp28
 70
     1
102
RTVSPost2010Prop29
280
     1
102
RTVSPost2010PropOp29
 70
     1
102
RTVSPost2010Prop30
280
     1
102
RTVSPost2010PropOp30
 70
     1
102
RTVSPost2010Prop31
280
     0
102
RTVSPost2010PropOp31
 70
     1
102
RTVSPost2010Prop32
280
     0
102
RTVSPost2010PropOp32
 70
     1
102
RTVSPost2010Prop33
280
     0
102
RTVSPost2010PropOp33
 70
     1
102
RTVSPost2010Prop34
280
     0
102
RTVSPost2010PropOp34
 70
     1
102
RTVSPost2010Prop35
280
     0
102
RTVSPost2010PropOp35
 70
     1
102
RTVSPost2010Prop36
280
     0
102
RTVSPost2010PropOp36
 70
     1
102
RTVSPost2010Prop37
 90
       50
102
RTVSPost2010PropOp37
 70
     1
102
RTVSPost2010Prop38
140
0.0
102
RTVSPost2010PropOp38
 70
     1
102
RTVSPost2010Prop39
140
1.0
102
RTVSPost2010PropOp39
 70
     1
102
RTVSPost2010Prop40
 90
        0
102
RTVSPost2010PropOp40
 70
     1
102
RTVSPost2010Prop41ColorIndex
 90
       18
102
RTVSPost2010Prop41ColorRGB
 90
        0
102
RTVSPost2010PropOp41
 70
     1
102
RTVSPost2010Prop42
 90
       50
102
RTVSPost2010PropOp42
 70
     1
102
RTVSPost2010Prop43
 90
        3
102
RTVSPost2010PropOp43
 70
     1
102
RTVSPost2010Prop44ColorIndex
 90
        5
102
RTVSPost2010Prop44ColorRGB
 90
      255
102
RTVSPost2010PropOp44
 70
     1
102
RTVSPost2010Prop45
280
     0
102
RTVSPost2010PropOp45
 70
     1
102
RTVSPost2010Prop46
 90
       50
102
RTVSPost2010PropOp46
 70
     1
102
RTVSPost2010Prop47
 90
       50
102
RTVSPost2010PropOp47
 70
     1
102
RTVSPost2010Prop48
 90
       50
102
RTVSPost2010PropOp48
 70
     1
102
RTVSPost2010Prop49
280
     0
102
RTVSPost2010PropOp49
 70
     1
102
RTVSPost2010Prop50
 90
       50
102
RTVSPost2010PropOp50
 70
     1
102
RTVSPost2010Prop51ColorIndex
 90
      256
102
RTVSPost2010Prop51ColorRGB
 90
-16777216
102
RTVSPost2010PropOp51
 70
     0
102
RTVSPost2010Prop52
140
1.0
102
RTVSPost2010PropOp52
 70
     0
102
RTVSPost2010Prop53
 90
        2
102
RTVSPost2010PropOp53
 70
     1
102
RTVSPost2010Prop54
  1
strokes_ogs.tif
102
RTVSPost2010PropOp54
 70
     1
102
RTVSPost2010Prop55
280
     0
102
RTVSPost2010PropOp55
 70
     1
102
RTVSPost2010Prop56
140
1.0
102
RTVSPost2010PropOp56
 70
     1
102
RTVSPost2010Prop57
140
1.0
102
RTVSPost2010PropOp57
 70
     1
102
RTVSPropertyOp0
 70
     1
102
RTVSPropertyOp1
 70
     1
102
RTVSPropertyOp2
 70
     1
102
RTVSPropertyOp3
 70
     1
102
RTVSPropertyOp4
 70
     1
102
RTVSPropertyOp5
 70
     1
102
RTVSPropertyOp6
 70
     1
102
RTVSPropertyOp7
 70
     1
102
RTVSPropertyOp8
 70
     1
102
RTVSPropertyOp9
 70
     1
102
RTVSPropertyOp10
 70
     1
102
RTVSPropertyOp11
 70
     1
102
RTVSPropertyOp12
 70
     1
102
RTVSPropertyOp13
 70
     1
102
RTVSPropertyOp14
 70
     1
102
RTVSPropertyOp15
 70
     1
102
RTVSPropertyOp16
 70
     1
102
RTVSPropertyOp17
 70
     1
102
RTVSPropertyOp18
 70
     1
102
RTVSPropertyOp19
 70
     1
102
RTVSPropertyOp20
 70
     1
102
RTVSPropertyOp21
 70
     1
102
RTVSPropertyOp22
 70
     1
102
RTVSPropertyOp23
 70
     1
102
RTVSPropertyOp24
 70
     1
102
RTVSPropertyOp25
 70
     1
102
RTVSPropertyOp26
 70
     1
102
RTVSPropertyOp27
 70
     1
102
RTVSPropertyOp28
 70
     1
102
RTVSPropertyOp29
 70
     1
102
RTVSPropertyOp30
 70
     1
102
RTVSPropertyOp31
 70
     1
102
RTVSPropertyOp32
 70
     1
102
RTVSPropertyOp33
 70
     1
102
RTVSPropertyOp34
 70
     1
102
RTVSPropertyOp35
 70
     1
102
RTVSPropertyOp36
 70
     1
102
RTVSPropertyOp37
 70
     1
102
RTVSPropertyOp38
 70
     1
102
RTVSPropertyOp39
 70
     1
102
RTVSPropertyOp40
 70
     1
102
RTVSPropertyOp41
 70
     1
102
RTVSPropertyOp42
 70
     1
102
RTVSPropertyOp43
 70
     1
102
RTVSPropertyOp44
 70
     1
102
RTVSPropertyOp45
 70
     1
102
RTVSPropertyOp46
 70
     1
102
RTVSPropertyOp47
 70
     1
102
RTVSPropertyOp48
 70
     1
102
RTVSPropertyOp49
 70
     1
102
RTVSPropertyOp50
 70
     1
102
RTVSPropertyOp51
 70
     0
102
RTVSPropertyOp52
 70
     0
102
RTVSPropertyOp53
 70
     1
102
RTVSPropertyOp54
 70
     1
102
RTVSPropertyOp55
 70
     1
102
RTVSPropertyOp56
 70
     1
102
RTVSPropertyOp57
 70
     1
102
RTVSPropertyOp58
 70
     1
102
RTVSPropertyOp59
 70
     1
102
RTVSPropertyOp60
 70
     1
102
RTVSPropertyOp61
 70
     1
102
RTVSPropertyOp62
 70
     1
  0
XRECORD
  5
1A43
102
{ACAD_REACTORS
330
1A42
102
}
330
1A42
100
AcDbXrecord
280
     1
102
RTVSPost2010Prop28
280
     0
102
RTVSPost2010PropOp28
 70
     1
102
RTVSPost2010Prop29
280
     1
102
RTVSPost2010PropOp29
 70
     1
102
RTVSPost2010Prop30
280
     1
102
RTVSPost2010PropOp30
 70
     1
102
RTVSPost2010Prop31
280
     0
102
RTVSPost2010PropOp31
 70
     1
102
RTVSPost2010Prop32
280
     0
102
RTVSPost2010PropOp32
 70
     1
102
RTVSPost2010Prop33
280
     0
102
RTVSPost2010PropOp33
 70
     1
102
RTVSPost2010Prop34
280
     0
102
RTVSPost2010PropOp34
 70
     1
102
RTVSPost2010Prop35
280
     0
102
RTVSPost2010PropOp35
 70
     1
102
RTVSPost2010Prop36
280
     0
102
RTVSPost2010PropOp36
 70
     1
102
RTVSPost2010Prop37
 90
       50
102
RTVSPost2010PropOp37
 70
     0
102
RTVSPost2010Prop38
140
0.0
102
RTVSPost2010PropOp38
 70
     0
102
RTVSPost2010Prop39
140
1.0
102
RTVSPost2010PropOp39
 70
     0
102
RTVSPost2010Prop40
 90
        0
102
RTVSPost2010PropOp40
 70
     0
102
RTVSPost2010Prop41ColorIndex
 90
       18
102
RTVSPost2010Prop41ColorRGB
 90
        0
102
RTVSPost2010PropOp41
 70
     0
102
RTVSPost2010Prop42
 90
       50
102
RTVSPost2010PropOp42
 70
     0
102
RTVSPost2010Prop43
 90
        3
102
RTVSPost2010PropOp43
 70
     0
102
RTVSPost2010Prop44ColorIndex
 90
        5
102
RTVSPost2010Prop44ColorRGB
 90
      255
102
RTVSPost2010PropOp44
 70
     0
102
RTVSPost2010Prop45
280
     0
102
RTVSPost2010PropOp45
 70
     1
102
RTVSPost2010Prop46
 90
       50
102
RTVSPost2010PropOp46
 70
     0
102
RTVSPost2010Prop47
 90
       50
102
RTVSPost2010PropOp47
 70
     0
102
RTVSPost2010Prop48
 90
       50
102
RTVSPost2010PropOp48
 70
     0
102
RTVSPost2010Prop49
280
     0
102
RTVSPost2010PropOp49
 70
     1
102
RTVSPost2010Prop50
 90
       50
102
RTVSPost2010PropOp50
 70
     0
102
RTVSPost2010Prop51ColorIndex
 90
      256
102
RTVSPost2010Prop51ColorRGB
 90
-16777216
102
RTVSPost2010PropOp51
 70
     0
102
RTVSPost2010Prop52
140
1.0
102
RTVSPost2010PropOp52
 70
     0
102
RTVSPost2010Prop53
 90
        2
102
RTVSPost2010PropOp53
 70
     0
102
RTVSPost2010Prop54
  1
strokes_ogs.tif
102
RTVSPost2010PropOp54
 70
     0
102
RTVSPost2010Prop55
280
     0
102
RTVSPost2010PropOp55
 70
     1
102
RTVSPost2010Prop56
140
1.0
102
RTVSPost2010PropOp56
 70
     0
102
RTVSPost2010Prop57
140
1.0
102
RTVSPost2010PropOp57
 70
     0
102
RTVSPropertyOp0
 70
     0
102
RTVSPropertyOp1
 70
     0
102
RTVSPropertyOp2
 70
     0
102
RTVSPropertyOp3
 70
     0
102
RTVSPropertyOp4
 70
     0
102
RTVSPropertyOp5
 70
     0
102
RTVSPropertyOp6
 70
     0
102
RTVSPropertyOp7
 70
     0
102
RTVSPropertyOp8
 70
     0
102
RTVSPropertyOp9
 70
     0
102
RTVSPropertyOp10
 70
     0
102
RTVSPropertyOp11
 70
     0
102
RTVSPropertyOp12
 70
     0
102
RTVSPropertyOp13
 70
     0
102
RTVSPropertyOp14
 70
     2
102
RTVSPropertyOp15
 70
     0
102
RTVSPropertyOp16
 70
     0
102
RTVSPropertyOp17
 70
     0
102
RTVSPropertyOp18
 70
     0
102
RTVSPropertyOp19
 70
     0
102
RTVSPropertyOp20
 70
     0
102
RTVSPropertyOp21
 70
     0
102
RTVSPropertyOp22
 70
     0
102
RTVSPropertyOp23
 70
     0
102
RTVSPropertyOp24
 70
     0
102
RTVSPropertyOp25
 70
     0
102
RTVSPropertyOp26
 70
     0
102
RTVSPropertyOp27
 70
     0
102
RTVSPropertyOp28
 70
     1
102
RTVSPropertyOp29
 70
     1
102
RTVSPropertyOp30
 70
     1
102
RTVSPropertyOp31
 70
     1
102
RTVSPropertyOp32
 70
     1
102
RTVSPropertyOp33
 70
     1
102
RTVSPropertyOp34
 70
     1
102
RTVSPropertyOp35
 70
     1
102
RTVSPropertyOp36
 70
     1
102
RTVSPropertyOp37
 70
     0
102
RTVSPropertyOp38
 70
     0
102
RTVSPropertyOp39
 70
     0
102
RTVSPropertyOp40
 70
     0
102
RTVSPropertyOp41
 70
     0
102
RTVSPropertyOp42
 70
     0
102
RTVSPropertyOp43
 70
     0
102
RTVSPropertyOp44
 70
     0
102
RTVSPropertyOp45
 70
     1
102
RTVSPropertyOp46
 70
     0
102
RTVSPropertyOp47
 70
     0
102
RTVSPropertyOp48
 70
     0
102
RTVSPropertyOp49
 70
     1
102
RTVSPropertyOp50
 70
     0
102
RTVSPropertyOp51
 70
     0
102
RTVSPropertyOp52
 70
     0
102
RTVSPropertyOp53
 70
     0
102
RTVSPropertyOp54
 70
     0
102
RTVSPropertyOp55
 70
     1
102
RTVSPropertyOp56
 70
     0
102
RTVSPropertyOp57
 70
     0
102
RTVSPropertyOp58
 70
     0
102
RTVSPropertyOp59
 70
     0
102
RTVSPropertyOp60
 70
     0
102
RTVSPropertyOp61
 70
     0
102
RTVSPropertyOp62
 70
     0
  0
XRECORD
  5
1A29
102
{ACAD_REACTORS
330
1A28
102
}
330
1A28
100
AcDbXrecord
280
     1
102
RTVSPost2010Prop28
280
     0
102
RTVSPost2010PropOp28
 70
     1
102
RTVSPost2010Prop29
280
     1
102
RTVSPost2010PropOp29
 70
     1
102
RTVSPost2010Prop30
280
     1
102
RTVSPost2010PropOp30
 70
     1
102
RTVSPost2010Prop31
280
     0
102
RTVSPost2010PropOp31
 70
     1
102
RTVSPost2010Prop32
280
     0
102
RTVSPost2010PropOp32
 70
     1
102
RTVSPost2010Prop33
280
     0
102
RTVSPost2010PropOp33
 70
     1
102
RTVSPost2010Prop34
280
     0
102
RTVSPost2010PropOp34
 70
     1
102
RTVSPost2010Prop35
280
     0
102
RTVSPost2010PropOp35
 70
     1
102
RTVSPost2010Prop36
280
     0
102
RTVSPost2010PropOp36
 70
     1
102
RTVSPost2010Prop37
 90
       50
102
RTVSPost2010PropOp37
 70
     1
102
RTVSPost2010Prop38
140
0.0
102
RTVSPost2010PropOp38
 70
     1
102
RTVSPost2010Prop39
140
1.0
102
RTVSPost2010PropOp39
 70
     1
102
RTVSPost2010Prop40
 90
        0
102
RTVSPost2010PropOp40
 70
     1
102
RTVSPost2010Prop41ColorIndex
 90
       18
102
RTVSPost2010Prop41ColorRGB
 90
        0
102
RTVSPost2010PropOp41
 70
     1
102
RTVSPost2010Prop42
 90
       50
102
RTVSPost2010PropOp42
 70
     1
102
RTVSPost2010Prop43
 90
        3
102
RTVSPost2010PropOp43
 70
     1
102
RTVSPost2010Prop44ColorIndex
 90
        5
102
RTVSPost2010Prop44ColorRGB
 90
      255
102
RTVSPost2010PropOp44
 70
     1
102
RTVSPost2010Prop45
280
     0
102
RTVSPost2010PropOp45
 70
     1
102
RTVSPost2010Prop46
 90
       50
102
RTVSPost2010PropOp46
 70
     1
102
RTVSPost2010Prop47
 90
       50
102
RTVSPost2010PropOp47
 70
     1
102
RTVSPost2010Prop48
 90
       50
102
RTVSPost2010PropOp48
 70
     1
102
RTVSPost2010Prop49
280
     0
102
RTVSPost2010PropOp49
 70
     1
102
RTVSPost2010Prop50
 90
       50
102
RTVSPost2010PropOp50
 70
     1
102
RTVSPost2010Prop51ColorIndex
 90
      256
102
RTVSPost2010Prop51ColorRGB
 90
-16777216
102
RTVSPost2010PropOp51
 70
     0
102
RTVSPost2010Prop52
140
1.0
102
RTVSPost2010PropOp52
 70
     0
102
RTVSPost2010Prop53
 90
        2
102
RTVSPost2010PropOp53
 70
     1
102
RTVSPost2010Prop54
  1
strokes_ogs.tif
102
RTVSPost2010PropOp54
 70
     1
102
RTVSPost2010Prop55
280
     0
102
RTVSPost2010PropOp55
 70
     1
102
RTVSPost2010Prop56
140
1.0
102
RTVSPost2010PropOp56
 70
     1
102
RTVSPost2010Prop57
140
1.0
102
RTVSPost2010PropOp57
 70
     1
102
RTVSPropertyOp0
 70
     1
102
RTVSPropertyOp1
 70
     1
102
RTVSPropertyOp2
 70
     1
102
RTVSPropertyOp3
 70
     1
102
RTVSPropertyOp4
 70
     1
102
RTVSPropertyOp5
 70
     1
102
RTVSPropertyOp6
 70
     1
102
RTVSPropertyOp7
 70
     1
102
RTVSPropertyOp8
 70
     1
102
RTVSPropertyOp9
 70
     1
102
RTVSPropertyOp10
 70
     1
102
RTVSPropertyOp11
 70
     1
102
RTVSPropertyOp12
 70
     1
102
RTVSPropertyOp13
 70
     1
102
RTVSPropertyOp14
 70
     1
102
RTVSPropertyOp15
 70
     1
102
RTVSPropertyOp16
 70
     1
102
RTVSPropertyOp17
 70
     1
102
RTVSPropertyOp18
 70
     1
102
RTVSPropertyOp19
 70
     1
102
RTVSPropertyOp20
 70
     1
102
RTVSPropertyOp21
 70
     1
102
RTVSPropertyOp22
 70
     1
102
RTVSPropertyOp23
 70
     1
102
RTVSPropertyOp24
 70
     1
102
RTVSPropertyOp25
 70
     1
102
RTVSPropertyOp26
 70
     1
102
RTVSPropertyOp27
 70
     1
102
RTVSPropertyOp28
 70
     1
102
RTVSPropertyOp29
 70
     1
102
RTVSPropertyOp30
 70
     1
102
RTVSPropertyOp31
 70
     1
102
RTVSPropertyOp32
 70
     1
102
RTVSPropertyOp33
 70
     1
102
RTVSPropertyOp34
 70
     1
102
RTVSPropertyOp35
 70
     1
102
RTVSPropertyOp36
 70
     1
102
RTVSPropertyOp37
 70
     1
102
RTVSPropertyOp38
 70
     1
102
RTVSPropertyOp39
 70
     1
102
RTVSPropertyOp40
 70
     1
102
RTVSPropertyOp41
 70
     1
102
RTVSPropertyOp42
 70
     1
102
RTVSPropertyOp43
 70
     1
102
RTVSPropertyOp44
 70
     1
102
RTVSPropertyOp45
 70
     1
102
RTVSPropertyOp46
 70
     1
102
RTVSPropertyOp47
 70
     1
102
RTVSPropertyOp48
 70
     1
102
RTVSPropertyOp49
 70
     1
102
RTVSPropertyOp50
 70
     1
102
RTVSPropertyOp51
 70
     0
102
RTVSPropertyOp52
 70
     0
102
RTVSPropertyOp53
 70
     1
102
RTVSPropertyOp54
 70
     1
102
RTVSPropertyOp55
 70
     1
102
RTVSPropertyOp56
 70
     1
102
RTVSPropertyOp57
 70
     1
102
RTVSPropertyOp58
 70
     1
102
RTVSPropertyOp59
 70
     1
102
RTVSPropertyOp60
 70
     1
102
RTVSPropertyOp61
 70
     1
102
RTVSPropertyOp62
 70
     1
  0
XRECORD
  5
1A3F
102
{ACAD_REACTORS
330
1A3E
102
}
330
1A3E
100
AcDbXrecord
280
     1
102
RTVSPost2010Prop28
280
     0
102
RTVSPost2010PropOp28
 70
     1
102
RTVSPost2010Prop29
280
     1
102
RTVSPost2010PropOp29
 70
     1
102
RTVSPost2010Prop30
280
     1
102
RTVSPost2010PropOp30
 70
     1
102
RTVSPost2010Prop31
280
     0
102
RTVSPost2010PropOp31
 70
     1
102
RTVSPost2010Prop32
280
     0
102
RTVSPost2010PropOp32
 70
     1
102
RTVSPost2010Prop33
280
     0
102
RTVSPost2010PropOp33
 70
     1
102
RTVSPost2010Prop34
280
     0
102
RTVSPost2010PropOp34
 70
     1
102
RTVSPost2010Prop35
280
     0
102
RTVSPost2010PropOp35
 70
     1
102
RTVSPost2010Prop36
280
     0
102
RTVSPost2010PropOp36
 70
     1
102
RTVSPost2010Prop37
 90
       50
102
RTVSPost2010PropOp37
 70
     1
102
RTVSPost2010Prop38
140
0.0
102
RTVSPost2010PropOp38
 70
     1
102
RTVSPost2010Prop39
140
1.0
102
RTVSPost2010PropOp39
 70
     1
102
RTVSPost2010Prop40
 90
        0
102
RTVSPost2010PropOp40
 70
     1
102
RTVSPost2010Prop41ColorIndex
 90
       18
102
RTVSPost2010Prop41ColorRGB
 90
        0
102
RTVSPost2010PropOp41
 70
     1
102
RTVSPost2010Prop42
 90
       50
102
RTVSPost2010PropOp42
 70
     1
102
RTVSPost2010Prop43
 90
        3
102
RTVSPost2010PropOp43
 70
     1
102
RTVSPost2010Prop44ColorIndex
 90
        5
102
RTVSPost2010Prop44ColorRGB
 90
      255
102
RTVSPost2010PropOp44
 70
     1
102
RTVSPost2010Prop45
280
     0
102
RTVSPost2010PropOp45
 70
     1
102
RTVSPost2010Prop46
 90
       50
102
RTVSPost2010PropOp46
 70
     1
102
RTVSPost2010Prop47
 90
       50
102
RTVSPost2010PropOp47
 70
     1
102
RTVSPost2010Prop48
 90
       50
102
RTVSPost2010PropOp48
 70
     1
102
RTVSPost2010Prop49
280
     0
102
RTVSPost2010PropOp49
 70
     1
102
RTVSPost2010Prop50
 90
       50
102
RTVSPost2010PropOp50
 70
     1
102
RTVSPost2010Prop51ColorIndex
 90
      256
102
RTVSPost2010Prop51ColorRGB
 90
-16777216
102
RTVSPost2010PropOp51
 70
     0
102
RTVSPost2010Prop52
140
1.0
102
RTVSPost2010PropOp52
 70
     0
102
RTVSPost2010Prop53
 90
        2
102
RTVSPost2010PropOp53
 70
     1
102
RTVSPost2010Prop54
  1
strokes_ogs.tif
102
RTVSPost2010PropOp54
 70
     1
102
RTVSPost2010Prop55
280
     0
102
RTVSPost2010PropOp55
 70
     1
102
RTVSPost2010Prop56
140
1.0
102
RTVSPost2010PropOp56
 70
     1
102
RTVSPost2010Prop57
140
1.0
102
RTVSPost2010PropOp57
 70
     1
102
RTVSPropertyOp0
 70
     1
102
RTVSPropertyOp1
 70
     1
102
RTVSPropertyOp2
 70
     1
102
RTVSPropertyOp3
 70
     1
102
RTVSPropertyOp4
 70
     1
102
RTVSPropertyOp5
 70
     1
102
RTVSPropertyOp6
 70
     1
102
RTVSPropertyOp7
 70
     1
102
RTVSPropertyOp8
 70
     1
102
RTVSPropertyOp9
 70
     1
102
RTVSPropertyOp10
 70
     1
102
RTVSPropertyOp11
 70
     1
102
RTVSPropertyOp12
 70
     1
102
RTVSPropertyOp13
 70
     1
102
RTVSPropertyOp14
 70
     1
102
RTVSPropertyOp15
 70
     1
102
RTVSPropertyOp16
 70
     1
102
RTVSPropertyOp17
 70
     1
102
RTVSPropertyOp18
 70
     1
102
RTVSPropertyOp19
 70
     1
102
RTVSPropertyOp20
 70
     1
102
RTVSPropertyOp21
 70
     1
102
RTVSPropertyOp22
 70
     1
102
RTVSPropertyOp23
 70
     1
102
RTVSPropertyOp24
 70
     1
102
RTVSPropertyOp25
 70
     1
102
RTVSPropertyOp26
 70
     1
102
RTVSPropertyOp27
 70
     1
102
RTVSPropertyOp28
 70
     1
102
RTVSPropertyOp29
 70
     1
102
RTVSPropertyOp30
 70
     1
102
RTVSPropertyOp31
 70
     1
102
RTVSPropertyOp32
 70
     1
102
RTVSPropertyOp33
 70
     1
102
RTVSPropertyOp34
 70
     1
102
RTVSPropertyOp35
 70
     1
102
RTVSPropertyOp36
 70
     1
102
RTVSPropertyOp37
 70
     1
102
RTVSPropertyOp38
 70
     1
102
RTVSPropertyOp39
 70
     1
102
RTVSPropertyOp40
 70
     1
102
RTVSPropertyOp41
 70
     1
102
RTVSPropertyOp42
 70
     1
102
RTVSPropertyOp43
 70
     1
102
RTVSPropertyOp44
 70
     1
102
RTVSPropertyOp45
 70
     1
102
RTVSPropertyOp46
 70
     1
102
RTVSPropertyOp47
 70
     1
102
RTVSPropertyOp48
 70
     1
102
RTVSPropertyOp49
 70
     1
102
RTVSPropertyOp50
 70
     1
102
RTVSPropertyOp51
 70
     0
102
RTVSPropertyOp52
 70
     0
102
RTVSPropertyOp53
 70
     1
102
RTVSPropertyOp54
 70
     1
102
RTVSPropertyOp55
 70
     1
102
RTVSPropertyOp56
 70
     1
102
RTVSPropertyOp57
 70
     1
102
RTVSPropertyOp58
 70
     1
102
RTVSPropertyOp59
 70
     1
102
RTVSPropertyOp60
 70
     1
102
RTVSPropertyOp61
 70
     1
102
RTVSPropertyOp62
 70
     1
  0
XRECORD
  5
1A3D
102
{ACAD_REACTORS
330
1A3C
102
}
330
1A3C
100
AcDbXrecord
280
     1
102
RTVSPost2010Prop28
280
     0
102
RTVSPost2010PropOp28
 70
     1
102
RTVSPost2010Prop29
280
     1
102
RTVSPost2010PropOp29
 70
     1
102
RTVSPost2010Prop30
280
     1
102
RTVSPost2010PropOp30
 70
     1
102
RTVSPost2010Prop31
280
     0
102
RTVSPost2010PropOp31
 70
     1
102
RTVSPost2010Prop32
280
     0
102
RTVSPost2010PropOp32
 70
     1
102
RTVSPost2010Prop33
280
     0
102
RTVSPost2010PropOp33
 70
     1
102
RTVSPost2010Prop34
280
     0
102
RTVSPost2010PropOp34
 70
     1
102
RTVSPost2010Prop35
280
     0
102
RTVSPost2010PropOp35
 70
     1
102
RTVSPost2010Prop36
280
     0
102
RTVSPost2010PropOp36
 70
     1
102
RTVSPost2010Prop37
 90
       50
102
RTVSPost2010PropOp37
 70
     1
102
RTVSPost2010Prop38
140
0.0
102
RTVSPost2010PropOp38
 70
     1
102
RTVSPost2010Prop39
140
1.0
102
RTVSPost2010PropOp39
 70
     1
102
RTVSPost2010Prop40
 90
        0
102
RTVSPost2010PropOp40
 70
     1
102
RTVSPost2010Prop41ColorIndex
 90
       18
102
RTVSPost2010Prop41ColorRGB
 90
        0
102
RTVSPost2010PropOp41
 70
     1
102
RTVSPost2010Prop42
 90
       50
102
RTVSPost2010PropOp42
 70
     1
102
RTVSPost2010Prop43
 90
        3
102
RTVSPost2010PropOp43
 70
     1
102
RTVSPost2010Prop44ColorIndex
 90
        5
102
RTVSPost2010Prop44ColorRGB
 90
      255
102
RTVSPost2010PropOp44
 70
     1
102
RTVSPost2010Prop45
280
     0
102
RTVSPost2010PropOp45
 70
     1
102
RTVSPost2010Prop46
 90
       50
102
RTVSPost2010PropOp46
 70
     1
102
RTVSPost2010Prop47
 90
       50
102
RTVSPost2010PropOp47
 70
     1
102
RTVSPost2010Prop48
 90
       50
102
RTVSPost2010PropOp48
 70
     1
102
RTVSPost2010Prop49
280
     0
102
RTVSPost2010PropOp49
 70
     1
102
RTVSPost2010Prop50
 90
       50
102
RTVSPost2010PropOp50
 70
     1
102
RTVSPost2010Prop51ColorIndex
 90
      256
102
RTVSPost2010Prop51ColorRGB
 90
-16777216
102
RTVSPost2010PropOp51
 70
     0
102
RTVSPost2010Prop52
140
1.0
102
RTVSPost2010PropOp52
 70
     0
102
RTVSPost2010Prop53
 90
        2
102
RTVSPost2010PropOp53
 70
     1
102
RTVSPost2010Prop54
  1
strokes_ogs.tif
102
RTVSPost2010PropOp54
 70
     1
102
RTVSPost2010Prop55
280
     0
102
RTVSPost2010PropOp55
 70
     1
102
RTVSPost2010Prop56
140
1.0
102
RTVSPost2010PropOp56
 70
     1
102
RTVSPost2010Prop57
140
1.0
102
RTVSPost2010PropOp57
 70
     1
102
RTVSPropertyOp0
 70
     1
102
RTVSPropertyOp1
 70
     1
102
RTVSPropertyOp2
 70
     1
102
RTVSPropertyOp3
 70
     1
102
RTVSPropertyOp4
 70
     1
102
RTVSPropertyOp5
 70
     1
102
RTVSPropertyOp6
 70
     1
102
RTVSPropertyOp7
 70
     1
102
RTVSPropertyOp8
 70
     1
102
RTVSPropertyOp9
 70
     1
102
RTVSPropertyOp10
 70
     1
102
RTVSPropertyOp11
 70
     1
102
RTVSPropertyOp12
 70
     1
102
RTVSPropertyOp13
 70
     1
102
RTVSPropertyOp14
 70
     1
102
RTVSPropertyOp15
 70
     1
102
RTVSPropertyOp16
 70
     1
102
RTVSPropertyOp17
 70
     1
102
RTVSPropertyOp18
 70
     1
102
RTVSPropertyOp19
 70
     1
102
RTVSPropertyOp20
 70
     1
102
RTVSPropertyOp21
 70
     1
102
RTVSPropertyOp22
 70
     1
102
RTVSPropertyOp23
 70
     1
102
RTVSPropertyOp24
 70
     1
102
RTVSPropertyOp25
 70
     1
102
RTVSPropertyOp26
 70
     1
102
RTVSPropertyOp27
 70
     1
102
RTVSPropertyOp28
 70
     1
102
RTVSPropertyOp29
 70
     1
102
RTVSPropertyOp30
 70
     1
102
RTVSPropertyOp31
 70
     1
102
RTVSPropertyOp32
 70
     1
102
RTVSPropertyOp33
 70
     1
102
RTVSPropertyOp34
 70
     1
102
RTVSPropertyOp35
 70
     1
102
RTVSPropertyOp36
 70
     1
102
RTVSPropertyOp37
 70
     1
102
RTVSPropertyOp38
 70
     1
102
RTVSPropertyOp39
 70
     1
102
RTVSPropertyOp40
 70
     1
102
RTVSPropertyOp41
 70
     1
102
RTVSPropertyOp42
 70
     1
102
RTVSPropertyOp43
 70
     1
102
RTVSPropertyOp44
 70
     1
102
RTVSPropertyOp45
 70
     1
102
RTVSPropertyOp46
 70
     1
102
RTVSPropertyOp47
 70
     1
102
RTVSPropertyOp48
 70
     1
102
RTVSPropertyOp49
 70
     1
102
RTVSPropertyOp50
 70
     1
102
RTVSPropertyOp51
 70
     0
102
RTVSPropertyOp52
 70
     0
102
RTVSPropertyOp53
 70
     1
102
RTVSPropertyOp54
 70
     1
102
RTVSPropertyOp55
 70
     1
102
RTVSPropertyOp56
 70
     1
102
RTVSPropertyOp57
 70
     1
102
RTVSPropertyOp58
 70
     1
102
RTVSPropertyOp59
 70
     1
102
RTVSPropertyOp60
 70
     1
102
RTVSPropertyOp61
 70
     1
102
RTVSPropertyOp62
 70
     1
  0
XRECORD
  5
1A37
102
{ACAD_REACTORS
330
1A36
102
}
330
1A36
100
AcDbXrecord
280
     1
102
RTVSPost2010Prop28
280
     0
102
RTVSPost2010PropOp28
 70
     1
102
RTVSPost2010Prop29
280
     1
102
RTVSPost2010PropOp29
 70
     1
102
RTVSPost2010Prop30
280
     1
102
RTVSPost2010PropOp30
 70
     1
102
RTVSPost2010Prop31
280
     0
102
RTVSPost2010PropOp31
 70
     1
102
RTVSPost2010Prop32
280
     0
102
RTVSPost2010PropOp32
 70
     1
102
RTVSPost2010Prop33
280
     0
102
RTVSPost2010PropOp33
 70
     1
102
RTVSPost2010Prop34
280
     0
102
RTVSPost2010PropOp34
 70
     1
102
RTVSPost2010Prop35
280
     0
102
RTVSPost2010PropOp35
 70
     1
102
RTVSPost2010Prop36
280
     0
102
RTVSPost2010PropOp36
 70
     1
102
RTVSPost2010Prop37
 90
       50
102
RTVSPost2010PropOp37
 70
     1
102
RTVSPost2010Prop38
140
0.0
102
RTVSPost2010PropOp38
 70
     1
102
RTVSPost2010Prop39
140
1.0
102
RTVSPost2010PropOp39
 70
     1
102
RTVSPost2010Prop40
 90
        0
102
RTVSPost2010PropOp40
 70
     1
102
RTVSPost2010Prop41ColorIndex
 90
       18
102
RTVSPost2010Prop41ColorRGB
 90
        0
102
RTVSPost2010PropOp41
 70
     1
102
RTVSPost2010Prop42
 90
       50
102
RTVSPost2010PropOp42
 70
     1
102
RTVSPost2010Prop43
 90
        3
102
RTVSPost2010PropOp43
 70
     1
102
RTVSPost2010Prop44ColorIndex
 90
        5
102
RTVSPost2010Prop44ColorRGB
 90
      255
102
RTVSPost2010PropOp44
 70
     1
102
RTVSPost2010Prop45
280
     0
102
RTVSPost2010PropOp45
 70
     1
102
RTVSPost2010Prop46
 90
       50
102
RTVSPost2010PropOp46
 70
     1
102
RTVSPost2010Prop47
 90
       50
102
RTVSPost2010PropOp47
 70
     1
102
RTVSPost2010Prop48
 90
       50
102
RTVSPost2010PropOp48
 70
     1
102
RTVSPost2010Prop49
280
     0
102
RTVSPost2010PropOp49
 70
     1
102
RTVSPost2010Prop50
 90
       50
102
RTVSPost2010PropOp50
 70
     1
102
RTVSPost2010Prop51ColorIndex
 90
      256
102
RTVSPost2010Prop51ColorRGB
 90
-16777216
102
RTVSPost2010PropOp51
 70
     0
102
RTVSPost2010Prop52
140
1.0
102
RTVSPost2010PropOp52
 70
     0
102
RTVSPost2010Prop53
 90
        2
102
RTVSPost2010PropOp53
 70
     1
102
RTVSPost2010Prop54
  1
strokes_ogs.tif
102
RTVSPost2010PropOp54
 70
     1
102
RTVSPost2010Prop55
280
     0
102
RTVSPost2010PropOp55
 70
     1
102
RTVSPost2010Prop56
140
1.0
102
RTVSPost2010PropOp56
 70
     1
102
RTVSPost2010Prop57
140
1.0
102
RTVSPost2010PropOp57
 70
     1
102
RTVSPropertyOp0
 70
     1
102
RTVSPropertyOp1
 70
     1
102
RTVSPropertyOp2
 70
     1
102
RTVSPropertyOp3
 70
     1
102
RTVSPropertyOp4
 70
     1
102
RTVSPropertyOp5
 70
     1
102
RTVSPropertyOp6
 70
     1
102
RTVSPropertyOp7
 70
     1
102
RTVSPropertyOp8
 70
     1
102
RTVSPropertyOp9
 70
     1
102
RTVSPropertyOp10
 70
     1
102
RTVSPropertyOp11
 70
     1
102
RTVSPropertyOp12
 70
     1
102
RTVSPropertyOp13
 70
     1
102
RTVSPropertyOp14
 70
     1
102
RTVSPropertyOp15
 70
     1
102
RTVSPropertyOp16
 70
     1
102
RTVSPropertyOp17
 70
     1
102
RTVSPropertyOp18
 70
     1
102
RTVSPropertyOp19
 70
     1
102
RTVSPropertyOp20
 70
     1
102
RTVSPropertyOp21
 70
     1
102
RTVSPropertyOp22
 70
     1
102
RTVSPropertyOp23
 70
     1
102
RTVSPropertyOp24
 70
     1
102
RTVSPropertyOp25
 70
     1
102
RTVSPropertyOp26
 70
     1
102
RTVSPropertyOp27
 70
     1
102
RTVSPropertyOp28
 70
     1
102
RTVSPropertyOp29
 70
     1
102
RTVSPropertyOp30
 70
     1
102
RTVSPropertyOp31
 70
     1
102
RTVSPropertyOp32
 70
     1
102
RTVSPropertyOp33
 70
     1
102
RTVSPropertyOp34
 70
     1
102
RTVSPropertyOp35
 70
     1
102
RTVSPropertyOp36
 70
     1
102
RTVSPropertyOp37
 70
     1
102
RTVSPropertyOp38
 70
     1
102
RTVSPropertyOp39
 70
     1
102
RTVSPropertyOp40
 70
     1
102
RTVSPropertyOp41
 70
     1
102
RTVSPropertyOp42
 70
     1
102
RTVSPropertyOp43
 70
     1
102
RTVSPropertyOp44
 70
     1
102
RTVSPropertyOp45
 70
     1
102
RTVSPropertyOp46
 70
     1
102
RTVSPropertyOp47
 70
     1
102
RTVSPropertyOp48
 70
     1
102
RTVSPropertyOp49
 70
     1
102
RTVSPropertyOp50
 70
     1
102
RTVSPropertyOp51
 70
     0
102
RTVSPropertyOp52
 70
     0
102
RTVSPropertyOp53
 70
     1
102
RTVSPropertyOp54
 70
     1
102
RTVSPropertyOp55
 70
     1
102
RTVSPropertyOp56
 70
     1
102
RTVSPropertyOp57
 70
     1
102
RTVSPropertyOp58
 70
     1
102
RTVSPropertyOp59
 70
     1
102
RTVSPropertyOp60
 70
     1
102
RTVSPropertyOp61
 70
     1
102
RTVSPropertyOp62
 70
     1
  0
XRECORD
  5
1A39
102
{ACAD_REACTORS
330
1A38
102
}
330
1A38
100
AcDbXrecord
280
     1
102
RTVSPost2010Prop28
280
     0
102
RTVSPost2010PropOp28
 70
     1
102
RTVSPost2010Prop29
280
     1
102
RTVSPost2010PropOp29
 70
     1
102
RTVSPost2010Prop30
280
     1
102
RTVSPost2010PropOp30
 70
     1
102
RTVSPost2010Prop31
280
     0
102
RTVSPost2010PropOp31
 70
     1
102
RTVSPost2010Prop32
280
     0
102
RTVSPost2010PropOp32
 70
     1
102
RTVSPost2010Prop33
280
     0
102
RTVSPost2010PropOp33
 70
     1
102
RTVSPost2010Prop34
280
     0
102
RTVSPost2010PropOp34
 70
     1
102
RTVSPost2010Prop35
280
     0
102
RTVSPost2010PropOp35
 70
     1
102
RTVSPost2010Prop36
280
     0
102
RTVSPost2010PropOp36
 70
     1
102
RTVSPost2010Prop37
 90
       50
102
RTVSPost2010PropOp37
 70
     1
102
RTVSPost2010Prop38
140
0.0
102
RTVSPost2010PropOp38
 70
     1
102
RTVSPost2010Prop39
140
1.0
102
RTVSPost2010PropOp39
 70
     1
102
RTVSPost2010Prop40
 90
        0
102
RTVSPost2010PropOp40
 70
     1
102
RTVSPost2010Prop41ColorIndex
 90
       18
102
RTVSPost2010Prop41ColorRGB
 90
        0
102
RTVSPost2010PropOp41
 70
     1
102
RTVSPost2010Prop42
 90
       50
102
RTVSPost2010PropOp42
 70
     1
102
RTVSPost2010Prop43
 90
        3
102
RTVSPost2010PropOp43
 70
     1
102
RTVSPost2010Prop44ColorIndex
 90
        5
102
RTVSPost2010Prop44ColorRGB
 90
      255
102
RTVSPost2010PropOp44
 70
     1
102
RTVSPost2010Prop45
280
     0
102
RTVSPost2010PropOp45
 70
     1
102
RTVSPost2010Prop46
 90
       50
102
RTVSPost2010PropOp46
 70
     1
102
RTVSPost2010Prop47
 90
       50
102
RTVSPost2010PropOp47
 70
     1
102
RTVSPost2010Prop48
 90
       50
102
RTVSPost2010PropOp48
 70
     1
102
RTVSPost2010Prop49
280
     0
102
RTVSPost2010PropOp49
 70
     1
102
RTVSPost2010Prop50
 90
       50
102
RTVSPost2010PropOp50
 70
     1
102
RTVSPost2010Prop51ColorIndex
 90
      256
102
RTVSPost2010Prop51ColorRGB
 90
-16777216
102
RTVSPost2010PropOp51
 70
     0
102
RTVSPost2010Prop52
140
1.0
102
RTVSPost2010PropOp52
 70
     0
102
RTVSPost2010Prop53
 90
        2
102
RTVSPost2010PropOp53
 70
     1
102
RTVSPost2010Prop54
  1
strokes_ogs.tif
102
RTVSPost2010PropOp54
 70
     1
102
RTVSPost2010Prop55
280
     0
102
RTVSPost2010PropOp55
 70
     1
102
RTVSPost2010Prop56
140
1.0
102
RTVSPost2010PropOp56
 70
     1
102
RTVSPost2010Prop57
140
1.0
102
RTVSPost2010PropOp57
 70
     1
102
RTVSPropertyOp0
 70
     1
102
RTVSPropertyOp1
 70
     1
102
RTVSPropertyOp2
 70
     1
102
RTVSPropertyOp3
 70
     1
102
RTVSPropertyOp4
 70
     1
102
RTVSPropertyOp5
 70
     1
102
RTVSPropertyOp6
 70
     1
102
RTVSPropertyOp7
 70
     1
102
RTVSPropertyOp8
 70
     1
102
RTVSPropertyOp9
 70
     1
102
RTVSPropertyOp10
 70
     1
102
RTVSPropertyOp11
 70
     1
102
RTVSPropertyOp12
 70
     1
102
RTVSPropertyOp13
 70
     1
102
RTVSPropertyOp14
 70
     1
102
RTVSPropertyOp15
 70
     1
102
RTVSPropertyOp16
 70
     1
102
RTVSPropertyOp17
 70
     1
102
RTVSPropertyOp18
 70
     1
102
RTVSPropertyOp19
 70
     1
102
RTVSPropertyOp20
 70
     1
102
RTVSPropertyOp21
 70
     1
102
RTVSPropertyOp22
 70
     1
102
RTVSPropertyOp23
 70
     1
102
RTVSPropertyOp24
 70
     1
102
RTVSPropertyOp25
 70
     1
102
RTVSPropertyOp26
 70
     1
102
RTVSPropertyOp27
 70
     1
102
RTVSPropertyOp28
 70
     1
102
RTVSPropertyOp29
 70
     1
102
RTVSPropertyOp30
 70
     1
102
RTVSPropertyOp31
 70
     1
102
RTVSPropertyOp32
 70
     1
102
RTVSPropertyOp33
 70
     1
102
RTVSPropertyOp34
 70
     1
102
RTVSPropertyOp35
 70
     1
102
RTVSPropertyOp36
 70
     1
102
RTVSPropertyOp37
 70
     1
102
RTVSPropertyOp38
 70
     1
102
RTVSPropertyOp39
 70
     1
102
RTVSPropertyOp40
 70
     1
102
RTVSPropertyOp41
 70
     1
102
RTVSPropertyOp42
 70
     1
102
RTVSPropertyOp43
 70
     1
102
RTVSPropertyOp44
 70
     1
102
RTVSPropertyOp45
 70
     1
102
RTVSPropertyOp46
 70
     1
102
RTVSPropertyOp47
 70
     1
102
RTVSPropertyOp48
 70
     1
102
RTVSPropertyOp49
 70
     1
102
RTVSPropertyOp50
 70
     1
102
RTVSPropertyOp51
 70
     0
102
RTVSPropertyOp52
 70
     0
102
RTVSPropertyOp53
 70
     1
102
RTVSPropertyOp54
 70
     1
102
RTVSPropertyOp55
 70
     1
102
RTVSPropertyOp56
 70
     1
102
RTVSPropertyOp57
 70
     1
102
RTVSPropertyOp58
 70
     1
102
RTVSPropertyOp59
 70
     1
102
RTVSPropertyOp60
 70
     1
102
RTVSPropertyOp61
 70
     1
102
RTVSPropertyOp62
 70
     1
  0
XRECORD
  5
1A2F
102
{ACAD_REACTORS
330
1A2E
102
}
330
1A2E
100
AcDbXrecord
280
     1
102
RTVSPost2010Prop28
280
     0
102
RTVSPost2010PropOp28
 70
     1
102
RTVSPost2010Prop29
280
     1
102
RTVSPost2010PropOp29
 70
     1
102
RTVSPost2010Prop30
280
     1
102
RTVSPost2010PropOp30
 70
     1
102
RTVSPost2010Prop31
280
     0
102
RTVSPost2010PropOp31
 70
     1
102
RTVSPost2010Prop32
280
     0
102
RTVSPost2010PropOp32
 70
     1
102
RTVSPost2010Prop33
280
     0
102
RTVSPost2010PropOp33
 70
     1
102
RTVSPost2010Prop34
280
     0
102
RTVSPost2010PropOp34
 70
     1
102
RTVSPost2010Prop35
280
     0
102
RTVSPost2010PropOp35
 70
     1
102
RTVSPost2010Prop36
280
     0
102
RTVSPost2010PropOp36
 70
     1
102
RTVSPost2010Prop37
 90
       50
102
RTVSPost2010PropOp37
 70
     1
102
RTVSPost2010Prop38
140
0.0
102
RTVSPost2010PropOp38
 70
     1
102
RTVSPost2010Prop39
140
1.0
102
RTVSPost2010PropOp39
 70
     1
102
RTVSPost2010Prop40
 90
        0
102
RTVSPost2010PropOp40
 70
     1
102
RTVSPost2010Prop41ColorIndex
 90
       18
102
RTVSPost2010Prop41ColorRGB
 90
        0
102
RTVSPost2010PropOp41
 70
     1
102
RTVSPost2010Prop42
 90
       50
102
RTVSPost2010PropOp42
 70
     1
102
RTVSPost2010Prop43
 90
        3
102
RTVSPost2010PropOp43
 70
     1
102
RTVSPost2010Prop44ColorIndex
 90
        5
102
RTVSPost2010Prop44ColorRGB
 90
      255
102
RTVSPost2010PropOp44
 70
     1
102
RTVSPost2010Prop45
280
     0
102
RTVSPost2010PropOp45
 70
     1
102
RTVSPost2010Prop46
 90
       50
102
RTVSPost2010PropOp46
 70
     1
102
RTVSPost2010Prop47
 90
       50
102
RTVSPost2010PropOp47
 70
     1
102
RTVSPost2010Prop48
 90
       50
102
RTVSPost2010PropOp48
 70
     1
102
RTVSPost2010Prop49
280
     0
102
RTVSPost2010PropOp49
 70
     1
102
RTVSPost2010Prop50
 90
       50
102
RTVSPost2010PropOp50
 70
     1
102
RTVSPost2010Prop51ColorIndex
 90
      256
102
RTVSPost2010Prop51ColorRGB
 90
-16777216
102
RTVSPost2010PropOp51
 70
     0
102
RTVSPost2010Prop52
140
1.0
102
RTVSPost2010PropOp52
 70
     0
102
RTVSPost2010Prop53
 90
        2
102
RTVSPost2010PropOp53
 70
     1
102
RTVSPost2010Prop54
  1
strokes_ogs.tif
102
RTVSPost2010PropOp54
 70
     1
102
RTVSPost2010Prop55
280
     0
102
RTVSPost2010PropOp55
 70
     1
102
RTVSPost2010Prop56
140
1.0
102
RTVSPost2010PropOp56
 70
     1
102
RTVSPost2010Prop57
140
1.0
102
RTVSPost2010PropOp57
 70
     1
102
RTVSPropertyOp0
 70
     1
102
RTVSPropertyOp1
 70
     1
102
RTVSPropertyOp2
 70
     1
102
RTVSPropertyOp3
 70
     1
102
RTVSPropertyOp4
 70
     1
102
RTVSPropertyOp5
 70
     1
102
RTVSPropertyOp6
 70
     1
102
RTVSPropertyOp7
 70
     1
102
RTVSPropertyOp8
 70
     1
102
RTVSPropertyOp9
 70
     1
102
RTVSPropertyOp10
 70
     1
102
RTVSPropertyOp11
 70
     1
102
RTVSPropertyOp12
 70
     1
102
RTVSPropertyOp13
 70
     1
102
RTVSPropertyOp14
 70
     1
102
RTVSPropertyOp15
 70
     1
102
RTVSPropertyOp16
 70
     1
102
RTVSPropertyOp17
 70
     1
102
RTVSPropertyOp18
 70
     1
102
RTVSPropertyOp19
 70
     1
102
RTVSPropertyOp20
 70
     1
102
RTVSPropertyOp21
 70
     1
102
RTVSPropertyOp22
 70
     1
102
RTVSPropertyOp23
 70
     1
102
RTVSPropertyOp24
 70
     1
102
RTVSPropertyOp25
 70
     1
102
RTVSPropertyOp26
 70
     1
102
RTVSPropertyOp27
 70
     1
102
RTVSPropertyOp28
 70
     1
102
RTVSPropertyOp29
 70
     1
102
RTVSPropertyOp30
 70
     1
102
RTVSPropertyOp31
 70
     1
102
RTVSPropertyOp32
 70
     1
102
RTVSPropertyOp33
 70
     1
102
RTVSPropertyOp34
 70
     1
102
RTVSPropertyOp35
 70
     1
102
RTVSPropertyOp36
 70
     1
102
RTVSPropertyOp37
 70
     1
102
RTVSPropertyOp38
 70
     1
102
RTVSPropertyOp39
 70
     1
102
RTVSPropertyOp40
 70
     1
102
RTVSPropertyOp41
 70
     1
102
RTVSPropertyOp42
 70
     1
102
RTVSPropertyOp43
 70
     1
102
RTVSPropertyOp44
 70
     1
102
RTVSPropertyOp45
 70
     1
102
RTVSPropertyOp46
 70
     1
102
RTVSPropertyOp47
 70
     1
102
RTVSPropertyOp48
 70
     1
102
RTVSPropertyOp49
 70
     1
102
RTVSPropertyOp50
 70
     1
102
RTVSPropertyOp51
 70
     0
102
RTVSPropertyOp52
 70
     0
102
RTVSPropertyOp53
 70
     1
102
RTVSPropertyOp54
 70
     1
102
RTVSPropertyOp55
 70
     1
102
RTVSPropertyOp56
 70
     1
102
RTVSPropertyOp57
 70
     1
102
RTVSPropertyOp58
 70
     1
102
RTVSPropertyOp59
 70
     1
102
RTVSPropertyOp60
 70
     1
102
RTVSPropertyOp61
 70
     1
102
RTVSPropertyOp62
 70
     1
  0
XRECORD
  5
1A23
102
{ACAD_REACTORS
330
1A22
102
}
330
1A22
100
AcDbXrecord
280
     1
102
RTVSPost2010Prop28
280
     0
102
RTVSPost2010PropOp28
 70
     1
102
RTVSPost2010Prop29
280
     1
102
RTVSPost2010PropOp29
 70
     1
102
RTVSPost2010Prop30
280
     1
102
RTVSPost2010PropOp30
 70
     1
102
RTVSPost2010Prop31
280
     0
102
RTVSPost2010PropOp31
 70
     1
102
RTVSPost2010Prop32
280
     0
102
RTVSPost2010PropOp32
 70
     1
102
RTVSPost2010Prop33
280
     0
102
RTVSPost2010PropOp33
 70
     1
102
RTVSPost2010Prop34
280
     0
102
RTVSPost2010PropOp34
 70
     1
102
RTVSPost2010Prop35
280
     0
102
RTVSPost2010PropOp35
 70
     1
102
RTVSPost2010Prop36
280
     0
102
RTVSPost2010PropOp36
 70
     1
102
RTVSPost2010Prop37
 90
       50
102
RTVSPost2010PropOp37
 70
     1
102
RTVSPost2010Prop38
140
0.0
102
RTVSPost2010PropOp38
 70
     1
102
RTVSPost2010Prop39
140
1.0
102
RTVSPost2010PropOp39
 70
     1
102
RTVSPost2010Prop40
 90
        0
102
RTVSPost2010PropOp40
 70
     1
102
RTVSPost2010Prop41ColorIndex
 90
       18
102
RTVSPost2010Prop41ColorRGB
 90
        0
102
RTVSPost2010PropOp41
 70
     1
102
RTVSPost2010Prop42
 90
       50
102
RTVSPost2010PropOp42
 70
     1
102
RTVSPost2010Prop43
 90
        3
102
RTVSPost2010PropOp43
 70
     1
102
RTVSPost2010Prop44ColorIndex
 90
        5
102
RTVSPost2010Prop44ColorRGB
 90
      255
102
RTVSPost2010PropOp44
 70
     1
102
RTVSPost2010Prop45
280
     0
102
RTVSPost2010PropOp45
 70
     1
102
RTVSPost2010Prop46
 90
       50
102
RTVSPost2010PropOp46
 70
     1
102
RTVSPost2010Prop47
 90
       50
102
RTVSPost2010PropOp47
 70
     1
102
RTVSPost2010Prop48
 90
       50
102
RTVSPost2010PropOp48
 70
     1
102
RTVSPost2010Prop49
280
     0
102
RTVSPost2010PropOp49
 70
     1
102
RTVSPost2010Prop50
 90
       50
102
RTVSPost2010PropOp50
 70
     1
102
RTVSPost2010Prop51ColorIndex
 90
      256
102
RTVSPost2010Prop51ColorRGB
 90
-16777216
102
RTVSPost2010PropOp51
 70
     0
102
RTVSPost2010Prop52
140
1.0
102
RTVSPost2010PropOp52
 70
     0
102
RTVSPost2010Prop53
 90
        2
102
RTVSPost2010PropOp53
 70
     1
102
RTVSPost2010Prop54
  1
strokes_ogs.tif
102
RTVSPost2010PropOp54
 70
     1
102
RTVSPost2010Prop55
280
     0
102
RTVSPost2010PropOp55
 70
     1
102
RTVSPost2010Prop56
140
1.0
102
RTVSPost2010PropOp56
 70
     1
102
RTVSPost2010Prop57
140
1.0
102
RTVSPost2010PropOp57
 70
     1
102
RTVSPropertyOp0
 70
     1
102
RTVSPropertyOp1
 70
     1
102
RTVSPropertyOp2
 70
     1
102
RTVSPropertyOp3
 70
     1
102
RTVSPropertyOp4
 70
     1
102
RTVSPropertyOp5
 70
     1
102
RTVSPropertyOp6
 70
     1
102
RTVSPropertyOp7
 70
     1
102
RTVSPropertyOp8
 70
     1
102
RTVSPropertyOp9
 70
     1
102
RTVSPropertyOp10
 70
     1
102
RTVSPropertyOp11
 70
     1
102
RTVSPropertyOp12
 70
     1
102
RTVSPropertyOp13
 70
     1
102
RTVSPropertyOp14
 70
     1
102
RTVSPropertyOp15
 70
     1
102
RTVSPropertyOp16
 70
     1
102
RTVSPropertyOp17
 70
     1
102
RTVSPropertyOp18
 70
     1
102
RTVSPropertyOp19
 70
     1
102
RTVSPropertyOp20
 70
     1
102
RTVSPropertyOp21
 70
     1
102
RTVSPropertyOp22
 70
     1
102
RTVSPropertyOp23
 70
     1
102
RTVSPropertyOp24
 70
     1
102
RTVSPropertyOp25
 70
     1
102
RTVSPropertyOp26
 70
     1
102
RTVSPropertyOp27
 70
     1
102
RTVSPropertyOp28
 70
     1
102
RTVSPropertyOp29
 70
     1
102
RTVSPropertyOp30
 70
     1
102
RTVSPropertyOp31
 70
     1
102
RTVSPropertyOp32
 70
     1
102
RTVSPropertyOp33
 70
     1
102
RTVSPropertyOp34
 70
     1
102
RTVSPropertyOp35
 70
     1
102
RTVSPropertyOp36
 70
     1
102
RTVSPropertyOp37
 70
     1
102
RTVSPropertyOp38
 70
     1
102
RTVSPropertyOp39
 70
     1
102
RTVSPropertyOp40
 70
     1
102
RTVSPropertyOp41
 70
     1
102
RTVSPropertyOp42
 70
     1
102
RTVSPropertyOp43
 70
     1
102
RTVSPropertyOp44
 70
     1
102
RTVSPropertyOp45
 70
     1
102
RTVSPropertyOp46
 70
     1
102
RTVSPropertyOp47
 70
     1
102
RTVSPropertyOp48
 70
     1
102
RTVSPropertyOp49
 70
     1
102
RTVSPropertyOp50
 70
     1
102
RTVSPropertyOp51
 70
     0
102
RTVSPropertyOp52
 70
     0
102
RTVSPropertyOp53
 70
     1
102
RTVSPropertyOp54
 70
     1
102
RTVSPropertyOp55
 70
     1
102
RTVSPropertyOp56
 70
     1
102
RTVSPropertyOp57
 70
     1
102
RTVSPropertyOp58
 70
     1
102
RTVSPropertyOp59
 70
     1
102
RTVSPropertyOp60
 70
     1
102
RTVSPropertyOp61
 70
     1
102
RTVSPropertyOp62
 70
     1
  0
XRECORD
  5
1A3B
102
{ACAD_REACTORS
330
1A3A
102
}
330
1A3A
100
AcDbXrecord
280
     1
102
RTVSPost2010Prop28
280
     0
102
RTVSPost2010PropOp28
 70
     1
102
RTVSPost2010Prop29
280
     1
102
RTVSPost2010PropOp29
 70
     1
102
RTVSPost2010Prop30
280
     1
102
RTVSPost2010PropOp30
 70
     1
102
RTVSPost2010Prop31
280
     0
102
RTVSPost2010PropOp31
 70
     1
102
RTVSPost2010Prop32
280
     0
102
RTVSPost2010PropOp32
 70
     1
102
RTVSPost2010Prop33
280
     0
102
RTVSPost2010PropOp33
 70
     1
102
RTVSPost2010Prop34
280
     0
102
RTVSPost2010PropOp34
 70
     1
102
RTVSPost2010Prop35
280
     0
102
RTVSPost2010PropOp35
 70
     1
102
RTVSPost2010Prop36
280
     0
102
RTVSPost2010PropOp36
 70
     1
102
RTVSPost2010Prop37
 90
       50
102
RTVSPost2010PropOp37
 70
     1
102
RTVSPost2010Prop38
140
0.0
102
RTVSPost2010PropOp38
 70
     1
102
RTVSPost2010Prop39
140
1.0
102
RTVSPost2010PropOp39
 70
     1
102
RTVSPost2010Prop40
 90
        0
102
RTVSPost2010PropOp40
 70
     1
102
RTVSPost2010Prop41ColorIndex
 90
       18
102
RTVSPost2010Prop41ColorRGB
 90
        0
102
RTVSPost2010PropOp41
 70
     1
102
RTVSPost2010Prop42
 90
       50
102
RTVSPost2010PropOp42
 70
     1
102
RTVSPost2010Prop43
 90
        3
102
RTVSPost2010PropOp43
 70
     1
102
RTVSPost2010Prop44ColorIndex
 90
        5
102
RTVSPost2010Prop44ColorRGB
 90
      255
102
RTVSPost2010PropOp44
 70
     1
102
RTVSPost2010Prop45
280
     0
102
RTVSPost2010PropOp45
 70
     1
102
RTVSPost2010Prop46
 90
       50
102
RTVSPost2010PropOp46
 70
     1
102
RTVSPost2010Prop47
 90
       50
102
RTVSPost2010PropOp47
 70
     1
102
RTVSPost2010Prop48
 90
       50
102
RTVSPost2010PropOp48
 70
     1
102
RTVSPost2010Prop49
280
     0
102
RTVSPost2010PropOp49
 70
     1
102
RTVSPost2010Prop50
 90
       50
102
RTVSPost2010PropOp50
 70
     1
102
RTVSPost2010Prop51ColorIndex
 90
      256
102
RTVSPost2010Prop51ColorRGB
 90
-16777216
102
RTVSPost2010PropOp51
 70
     0
102
RTVSPost2010Prop52
140
1.0
102
RTVSPost2010PropOp52
 70
     0
102
RTVSPost2010Prop53
 90
        2
102
RTVSPost2010PropOp53
 70
     1
102
RTVSPost2010Prop54
  1
strokes_ogs.tif
102
RTVSPost2010PropOp54
 70
     1
102
RTVSPost2010Prop55
280
     0
102
RTVSPost2010PropOp55
 70
     1
102
RTVSPost2010Prop56
140
1.0
102
RTVSPost2010PropOp56
 70
     1
102
RTVSPost2010Prop57
140
1.0
102
RTVSPost2010PropOp57
 70
     1
102
RTVSPropertyOp0
 70
     1
102
RTVSPropertyOp1
 70
     1
102
RTVSPropertyOp2
 70
     1
102
RTVSPropertyOp3
 70
     1
102
RTVSPropertyOp4
 70
     1
102
RTVSPropertyOp5
 70
     1
102
RTVSPropertyOp6
 70
     1
102
RTVSPropertyOp7
 70
     1
102
RTVSPropertyOp8
 70
     1
102
RTVSPropertyOp9
 70
     1
102
RTVSPropertyOp10
 70
     1
102
RTVSPropertyOp11
 70
     1
102
RTVSPropertyOp12
 70
     1
102
RTVSPropertyOp13
 70
     1
102
RTVSPropertyOp14
 70
     1
102
RTVSPropertyOp15
 70
     1
102
RTVSPropertyOp16
 70
     1
102
RTVSPropertyOp17
 70
     1
102
RTVSPropertyOp18
 70
     1
102
RTVSPropertyOp19
 70
     1
102
RTVSPropertyOp20
 70
     1
102
RTVSPropertyOp21
 70
     1
102
RTVSPropertyOp22
 70
     1
102
RTVSPropertyOp23
 70
     1
102
RTVSPropertyOp24
 70
     1
102
RTVSPropertyOp25
 70
     1
102
RTVSPropertyOp26
 70
     1
102
RTVSPropertyOp27
 70
     1
102
RTVSPropertyOp28
 70
     1
102
RTVSPropertyOp29
 70
     1
102
RTVSPropertyOp30
 70
     1
102
RTVSPropertyOp31
 70
     1
102
RTVSPropertyOp32
 70
     1
102
RTVSPropertyOp33
 70
     1
102
RTVSPropertyOp34
 70
     1
102
RTVSPropertyOp35
 70
     1
102
RTVSPropertyOp36
 70
     1
102
RTVSPropertyOp37
 70
     1
102
RTVSPropertyOp38
 70
     1
102
RTVSPropertyOp39
 70
     1
102
RTVSPropertyOp40
 70
     1
102
RTVSPropertyOp41
 70
     1
102
RTVSPropertyOp42
 70
     1
102
RTVSPropertyOp43
 70
     1
102
RTVSPropertyOp44
 70
     1
102
RTVSPropertyOp45
 70
     1
102
RTVSPropertyOp46
 70
     1
102
RTVSPropertyOp47
 70
     1
102
RTVSPropertyOp48
 70
     1
102
RTVSPropertyOp49
 70
     1
102
RTVSPropertyOp50
 70
     1
102
RTVSPropertyOp51
 70
     0
102
RTVSPropertyOp52
 70
     0
102
RTVSPropertyOp53
 70
     1
102
RTVSPropertyOp54
 70
     1
102
RTVSPropertyOp55
 70
     1
102
RTVSPropertyOp56
 70
     1
102
RTVSPropertyOp57
 70
     1
102
RTVSPropertyOp58
 70
     1
102
RTVSPropertyOp59
 70
     1
102
RTVSPropertyOp60
 70
     1
102
RTVSPropertyOp61
 70
     1
102
RTVSPropertyOp62
 70
     1
  0
ENDSEC
  0
EOF
