  0
SECTION
  2
HEADER
  9
$ACADVER
  1
AC1015
  9
$ACADMAINTVER
 70
    20
  9
$DWGCODEPAGE
  3
ANSI_932
  9
$INSBASE
 10
0.0
 20
0.0
 30
0.0
  9
$EXTMIN
 10
9.9999975266385
 20
10.0
 30
0.0
  9
$EXTMAX
 10
370.1648297149497
 20
523.2713553936267
 30
0.0
  9
$LIMMIN
 10
0.0000015376081137
 20
-0.0000001931532552
  9
$LIMMAX
 10
792.0000015376079
 20
545.9999998068465
  9
$ORTHOMODE
 70
     1
  9
$REGENMODE
 70
     1
  9
$FILLMODE
 70
     1
  9
$QTEXTMODE
 70
     0
  9
$MIRRTEXT
 70
     1
  9
$LTSCALE
 40
1.0
  9
$ATTMODE
 70
     1
  9
$TEXTSIZE
 40
2.5
  9
$TRACEWID
 40
1.0
  9
$TEXTSTYLE
  7
STANDARD
  9
$CLAYER
  8
0
  9
$CELTYPE
  6
BYLAYER
  9
$CECOLOR
 62
   256
  9
$CELTSCALE
 40
1.0
  9
$DISPSILH
 70
     0
  9
$DIMSCALE
 40
1.0
  9
$DIMASZ
 40
3.0
  9
$DIMEXO
 40
1.0
  9
$DIMDLI
 40
10.0
  9
$DIMRND
 40
0.0
  9
$DIMDLE
 40
0.0
  9
$DIMEXE
 40
1.0
  9
$DIMTP
 40
0.0
  9
$DIMTM
 40
0.0
  9
$DIMTXT
 40
3.2
  9
$DIMCEN
 40
0.0
  9
$DIMTSZ
 40
0.0
  9
$DIMTOL
 70
     0
  9
$DIMLIM
 70
     0
  9
$DIMTIH
 70
     0
  9
$DIMTOH
 70
     0
  9
$DIMSE1
 70
     0
  9
$DIMSE2
 70
     0
  9
$DIMTAD
 70
     3
  9
$DIMZIN
 70
     8
  9
$DIMBLK
  1

  9
$DIMASO
 70
     1
  9
$DIMSHO
 70
     1
  9
$DIMPOST
  1

  9
$DIMAPOST
  1

  9
$DIMALT
 70
     0
  9
$DIMALTD
 70
     2
  9
$DIMALTF
 40
25.4
  9
$DIMLFAC
 40
1.0
  9
$DIMTOFL
 70
     1
  9
$DIMTVP
 40
0.0
  9
$DIMTIX
 70
     0
  9
$DIMSOXD
 70
     0
  9
$DIMSAH
 70
     1
  9
$DIMBLK1
  1
OPEN
  9
$DIMBLK2
  1
OPEN
  9
$DIMSTYLE
  2
STANDARD
  9
$DIMCLRD
 70
     0
  9
$DIMCLRE
 70
     0
  9
$DIMCLRT
 70
     0
  9
$DIMTFAC
 40
1.0
  9
$DIMGAP
 40
1.0
  9
$DIMJUST
 70
     0
  9
$DIMSD1
 70
     0
  9
$DIMSD2
 70
     0
  9
$DIMTOLJ
 70
     1
  9
$DIMTZIN
 70
     0
  9
$DIMALTZ
 70
     0
  9
$DIMALTTZ
 70
     0
  9
$DIMUPT
 70
     0
  9
$DIMDEC
 70
     4
  9
$DIMTDEC
 70
     4
  9
$DIMALTU
 70
     2
  9
$DIMALTTD
 70
     2
  9
$DIMTXSTY
  7
STANDARD
  9
$DIMAUNIT
 70
     0
  9
$DIMADEC
 70
     0
  9
$DIMALTRND
 40
0.0
  9
$DIMAZIN
 70
     0
  9
$DIMDSEP
 70
    46
  9
$DIMATFIT
 70
     3
  9
$DIMFRAC
 70
     0
  9
$DIMLDRBLK
  1
OPEN
  9
$DIMLUNIT
 70
     2
  9
$DIMLWD
 70
    -2
  9
$DIMLWE
 70
    -2
  9
$DIMTMOVE
 70
     0
  9
$LUNITS
 70
     2
  9
$LUPREC
 70
     4
  9
$SKETCHINC
 40
1.0
  9
$FILLETRAD
 40
0.0
  9
$AUNITS
 70
     0
  9
$AUPREC
 70
     0
  9
$MENU
  1
.
  9
$ELEVATION
 40
0.0
  9
$PELEVATION
 40
0.0
  9
$THICKNESS
 40
0.0
  9
$LIMCHECK
 70
     0
  9
$CHAMFERA
 40
10.0
  9
$CHAMFERB
 40
10.0
  9
$CHAMFERC
 40
20.0
  9
$CHAMFERD
 40
0.0
  9
$SKPOLY
 70
     0
  9
$TDCREATE
 40
2453781.602597107
  9
$TDUCREATE
 40
2453781.227597107
  9
$TDUPDATE
 40
2457192.700788958
  9
$TDUUPDATE
 40
2457192.325788958
  9
$TDINDWG
 40
0.2325167940
  9
$TDUSRTIMER
 40
0.2325167824
  9
$USRTIMER
 70
     1
  9
$ANGBASE
 50
0.0
  9
$ANGDIR
 70
     0
  9
$PDMODE
 70
     0
  9
$PDSIZE
 40
0.0
  9
$PLINEWID
 40
0.0
  9
$SPLFRAME
 70
     0
  9
$SPLINETYPE
 70
     6
  9
$SPLINESEGS
 70
     8
  9
$HANDSEED
  5
266F
  9
$SURFTAB1
 70
     6
  9
$SURFTAB2
 70
     6
  9
$SURFTYPE
 70
     6
  9
$SURFU
 70
     6
  9
$SURFV
 70
     6
  9
$UCSBASE
  2

  9
$UCSNAME
  2

  9
$UCSORG
 10
0.0
 20
0.0
 30
0.0
  9
$UCSXDIR
 10
1.0
 20
0.0
 30
0.0
  9
$UCSYDIR
 10
0.0
 20
1.0
 30
0.0
  9
$UCSORTHOREF
  2

  9
$UCSORTHOVIEW
 70
     0
  9
$UCSORGTOP
 10
0.0
 20
0.0
 30
0.0
  9
$UCSORGBOTTOM
 10
0.0
 20
0.0
 30
0.0
  9
$UCSORGLEFT
 10
0.0
 20
0.0
 30
0.0
  9
$UCSORGRIGHT
 10
0.0
 20
0.0
 30
0.0
  9
$UCSORGFRONT
 10
0.0
 20
0.0
 30
0.0
  9
$UCSORGBACK
 10
0.0
 20
0.0
 30
0.0
  9
$PUCSBASE
  2

  9
$PUCSNAME
  2

  9
$PUCSORG
 10
0.0
 20
0.0
 30
0.0
  9
$PUCSXDIR
 10
1.0
 20
0.0
 30
0.0
  9
$PUCSYDIR
 10
0.0
 20
1.0
 30
0.0
  9
$PUCSORTHOREF
  2

  9
$PUCSORTHOVIEW
 70
     0
  9
$PUCSORGTOP
 10
0.0
 20
0.0
 30
0.0
  9
$PUCSORGBOTTOM
 10
0.0
 20
0.0
 30
0.0
  9
$PUCSORGLEFT
 10
0.0
 20
0.0
 30
0.0
  9
$PUCSORGRIGHT
 10
0.0
 20
0.0
 30
0.0
  9
$PUCSORGFRONT
 10
0.0
 20
0.0
 30
0.0
  9
$PUCSORGBACK
 10
0.0
 20
0.0
 30
0.0
  9
$USERI1
 70
     0
  9
$USERI2
 70
     0
  9
$USERI3
 70
     0
  9
$USERI4
 70
     0
  9
$USERI5
 70
     0
  9
$USERR1
 40
0.0
  9
$USERR2
 40
0.0
  9
$USERR3
 40
0.0
  9
$USERR4
 40
0.0
  9
$USERR5
 40
0.0
  9
$WORLDVIEW
 70
     1
  9
$SHADEDGE
 70
     3
  9
$SHADEDIF
 70
    70
  9
$TILEMODE
 70
     1
  9
$MAXACTVP
 70
    48
  9
$PINSBASE
 10
0.0
 20
0.0
 30
0.0
  9
$PLIMCHECK
 70
     0
  9
$PEXTMIN
 10
27.8447512626648
 20
20.24591643810271
 30
0.0
  9
$PEXTMAX
 10
250.6027613639831
 20
182.2132479429244
 30
0.0
  9
$PLIMMIN
 10
-3.757080078125
 20
-3.757083177566528
  9
$PLIMMAX
 10
293.2112426757812
 20
206.2162444591522
  9
$UNITMODE
 70
     0
  9
$VISRETAIN
 70
     1
  9
$PLINEGEN
 70
     0
  9
$PSLTSCALE
 70
     1
  9
$TREEDEPTH
 70
  3020
  9
$CMLSTYLE
  2
STANDARD
  9
$CMLJUST
 70
     0
  9
$CMLSCALE
 40
20.0
  9
$PROXYGRAPHICS
 70
     1
  9
$MEASUREMENT
 70
     0
  9
$CELWEIGHT
370
    -1
  9
$ENDCAPS
280
     0
  9
$JOINSTYLE
280
     0
  9
$LWDISPLAY
290
     0
  9
$INSUNITS
 70
     0
  9
$HYPERLINKBASE
  1

  9
$STYLESHEET
  1

  9
$XEDIT
290
     1
  9
$CEPSNTYPE
380
     0
  9
$PSTYLEMODE
290
     1
  9
$FINGERPRINTGUID
  2
{9C48E2E7-F8B0-4F90-A457-F911CA8D299F}
  9
$VERSIONGUID
  2
{255A10A8-BA47-48DF-960C-1EFB27945B1F}
  9
$EXTNAMES
290
     1
  9
$PSVPSCALE
 40
0.0
  9
$OLESTARTUP
290
     0
  0
ENDSEC
  0
SECTION
  2
CLASSES
  0
CLASS
  1
ACDBDICTIONARYWDFLT
  2
AcDbDictionaryWithDefault
  3
ObjectDBX Classes
 90
        0
280
     0
281
     0
  0
CLASS
  1
ACDBPLACEHOLDER
  2
AcDbPlaceHolder
  3
ObjectDBX Classes
 90
        0
280
     0
281
     0
  0
CLASS
  1
LAYOUT
  2
AcDbLayout
  3
ObjectDBX Classes
 90
        0
280
     0
281
     0
  0
CLASS
  1
DICTIONARYVAR
  2
AcDbDictionaryVar
  3
ObjectDBX Classes
 90
        0
280
     0
281
     0
  0
CLASS
  1
MATERIAL
  2
AcDbMaterial
  3
ObjectDBX Classes
 90
     1153
280
     0
281
     0
  0
CLASS
  1
VISUALSTYLE
  2
AcDbVisualStyle
  3
ObjectDBX Classes
 90
     4095
280
     0
281
     0
  0
CLASS
  1
TABLESTYLE
  2
AcDbTableStyle
  3
ObjectDBX Classes
 90
     4095
280
     0
281
     0
  0
CLASS
  1
SCALE
  2
AcDbScale
  3
ObjectDBX Classes
 90
     1153
280
     0
281
     0
  0
CLASS
  1
MLEADERSTYLE
  2
AcDbMLeaderStyle
  3
ACDB_MLEADERSTYLE_CLASS
 90
     4095
280
     0
281
     0
  0
CLASS
  1
ACDBSECTIONVIEWSTYLE
  2
AcDbSectionViewStyle
  3
ObjectDBX Classes
 90
     1025
280
     0
281
     0
  0
CLASS
  1
ACDBDETAILVIEWSTYLE
  2
AcDbDetailViewStyle
  3
ObjectDBX Classes
 90
     1025
280
     0
281
     0
  0
CLASS
  1
CELLSTYLEMAP
  2
AcDbCellStyleMap
  3
ObjectDBX Classes
 90
     1152
280
     0
281
     0
  0
ENDSEC
  0
SECTION
  2
TABLES
  0
TABLE
  2
VPORT
  5
8
330
0
100
AcDbSymbolTable
 70
     1
  0
VPORT
  5
25B9
330
8
100
AcDbSymbolTableRecord
100
AcDbViewportTableRecord
  2
*ACTIVE
 70
     0
 10
0.0
 20
0.0
 11
1.0
 21
1.0
 12
355.0347601743919
 22
266.6265574671666
 13
0.0
 23
0.0
 14
10.0
 24
10.0
 15
10.0
 25
10.0
 16
0.0
 26
0.0
 36
1.0
 17
0.0
 27
0.0
 37
0.0
 40
518.1875813741121
 41
2.35006605019815
 42
50.0
 43
0.0
 44
0.0
 50
0.0
 51
0.0
 71
     0
 72
   100
 73
     1
 74
     0
 75
     0
 76
     0
 77
     0
 78
     0
281
     0
 65
     1
110
0.0
120
0.0
130
0.0
111
1.0
121
0.0
131
0.0
112
0.0
122
1.0
132
0.0
 79
     0
146
0.0
1001
ACAD_NAV_VCDISPLAY
1070
     3
  0
ENDTAB
  0
TABLE
  2
LTYPE
  5
5
330
0
100
AcDbSymbolTable
 70
     4
  0
LTYPE
  5
12
330
5
100
AcDbSymbolTableRecord
100
AcDbLinetypeTableRecord
  2
BYBLOCK
 70
     0
  3

 72
    65
 73
     0
 40
0.0
  0
LTYPE
  5
13
330
5
100
AcDbSymbolTableRecord
100
AcDbLinetypeTableRecord
  2
BYLAYER
 70
     0
  3

 72
    65
 73
     0
 40
0.0
  0
LTYPE
  5
14
330
5
100
AcDbSymbolTableRecord
100
AcDbLinetypeTableRecord
  2
CONTINUOUS
 70
     0
  3
Solid line
 72
    65
 73
     0
 40
0.0
  0
LTYPE
  5
4B
330
5
100
AcDbSymbolTableRecord
100
AcDbLinetypeTableRecord
  2
DASHED
 70
     0
  3
Dashed __ __ __ __ __ __ __ __ __ __ __ __ __ _
 72
    65
 73
     2
 40
19.04999999999999
 49
12.7
 74
     0
 49
-6.349999999999998
 74
     0
  0
LTYPE
  5
4C
330
5
100
AcDbSymbolTableRecord
100
AcDbLinetypeTableRecord
  2
CENTER
 70
     0
  3
Center ____ _ ____ _ ____ _ ____ _ ____ _ ____
 72
    65
 73
     4
 40
50.8
 49
31.75
 74
     0
 49
-6.349999999999998
 74
     0
 49
6.349999999999998
 74
     0
 49
-6.349999999999998
 74
     0
  0
LTYPE
  5
4D
330
5
100
AcDbSymbolTableRecord
100
AcDbLinetypeTableRecord
  2
PHANTOM
 70
     0
  3
Phantom ______  __  __  ______  __  __  ______
 72
    65
 73
     6
 40
63.5
 49
31.75
 74
     0
 49
-6.349999999999998
 74
     0
 49
6.349999999999998
 74
     0
 49
-6.349999999999998
 74
     0
 49
6.349999999999998
 74
     0
 49
-6.349999999999998
 74
     0
  0
ENDTAB
  0
TABLE
  2
LAYER
  5
2
330
0
100
AcDbSymbolTable
 70
     8
  0
LAYER
  5
E
102
{ACAD_XDICTIONARY
360
2613
102
}
330
2
100
AcDbSymbolTableRecord
100
AcDbLayerTableRecord
  2
0
 70
     0
 62
     7
  6
CONTINUOUS
370
    -3
390
25C2
  0
LAYER
  5
4E
102
{ACAD_XDICTIONARY
360
2615
102
}
330
2
100
AcDbSymbolTableRecord
100
AcDbLayerTableRecord
  2
4
 70
     0
 62
     1
  6
CENTER
370
    -3
390
25C2
  0
LAYER
  5
4F
102
{ACAD_XDICTIONARY
360
2617
102
}
330
2
100
AcDbSymbolTableRecord
100
AcDbLayerTableRecord
  2
5
 70
     0
 62
     6
  6
PHANTOM
370
    -3
390
25C2
  0
LAYER
  5
50
102
{ACAD_XDICTIONARY
360
2619
102
}
330
2
100
AcDbSymbolTableRecord
100
AcDbLayerTableRecord
  2
1
 70
     0
 62
     7
  6
CONTINUOUS
370
    -3
390
25C2
  0
LAYER
  5
51
102
{ACAD_XDICTIONARY
360
261B
102
}
330
2
100
AcDbSymbolTableRecord
100
AcDbLayerTableRecord
  2
2
 70
     0
 62
     4
  6
CONTINUOUS
370
    -3
390
25C2
  0
LAYER
  5
52
102
{ACAD_XDICTIONARY
360
261D
102
}
330
2
100
AcDbSymbolTableRecord
100
AcDbLayerTableRecord
  2
3
 70
     0
 62
     2
  6
DASHED
370
    -3
390
25C2
  0
LAYER
  5
53
102
{ACAD_XDICTIONARY
360
261F
102
}
330
2
100
AcDbSymbolTableRecord
100
AcDbLayerTableRecord
  2
6
 70
     0
 62
     5
  6
CONTINUOUS
370
    -3
390
25C2
  0
LAYER
  5
54
102
{ACAD_XDICTIONARY
360
2621
102
}
330
2
100
AcDbSymbolTableRecord
100
AcDbLayerTableRecord
  2
7
 70
     0
 62
     3
  6
CONTINUOUS
370
    -3
390
25C2
  0
ENDTAB
  0
TABLE
  2
STYLE
  5
3
330
0
100
AcDbSymbolTable
 70
     1
  0
STYLE
  5
F
330
3
100
AcDbSymbolTableRecord
100
AcDbTextStyleTableRecord
  2
STANDARD
 70
     0
 40
0.0
 41
1.0
 50
0.0
 71
     0
 42
2.5
  3
simplex.shx
  4

  0
ENDTAB
  0
TABLE
  2
VIEW
  5
6
330
0
100
AcDbSymbolTable
 70
     0
  0
ENDTAB
  0
TABLE
  2
UCS
  5
7
330
0
100
AcDbSymbolTable
 70
     0
  0
ENDTAB
  0
TABLE
  2
APPID
  5
9
330
0
100
AcDbSymbolTable
 70
     5
  0
APPID
  5
10
330
9
100
AcDbSymbolTableRecord
100
AcDbRegAppTableRecord
  2
ACAD
 70
     0
  0
APPID
  5
3E
330
9
100
AcDbSymbolTableRecord
100
AcDbRegAppTableRecord
  2
CONTENTTABDATA
 70
     0
  0
APPID
  5
3F
330
9
100
AcDbSymbolTableRecord
100
AcDbRegAppTableRecord
  2
CONTENTCURRENTTAB
 70
     0
  0
APPID
  5
262D
330
9
100
AcDbSymbolTableRecord
100
AcDbRegAppTableRecord
  2
ACAD_NAV_VCDISPLAY
 70
     0
  0
APPID
  5
2666
330
9
100
AcDbSymbolTableRecord
100
AcDbRegAppTableRecord
  2
ACAD_MLEADERVER
 70
     0
  0
ENDTAB
  0
TABLE
  2
DIMSTYLE
  5
A
330
0
100
AcDbSymbolTable
 70
     1
100
AcDbDimStyleTable
 71
     0
  0
DIMSTYLE
105
1D
330
A
100
AcDbSymbolTableRecord
100
AcDbDimStyleTableRecord
  2
STANDARD
 70
     0
 41
3.0
 42
1.0
 43
10.0
 44
1.0
 73
     0
 74
     0
 77
     3
 78
     8
140
3.2
141
0.0
147
1.0
172
     1
173
     1
340
F
341
2E
343
2E
344
2E
  0
ENDTAB
  0
TABLE
  2
BLOCK_RECORD
  5
1
330
0
100
AcDbSymbolTable
 70
     1
  0
BLOCK_RECORD
  5
18
102
{ACAD_XDICTIONARY
360
25BC
102
}
330
1
100
AcDbSymbolTableRecord
100
AcDbBlockTableRecord
  2
*MODEL_SPACE
340
2610
  0
BLOCK_RECORD
  5
15
102
{ACAD_XDICTIONARY
360
25BA
102
}
330
1
100
AcDbSymbolTableRecord
100
AcDbBlockTableRecord
  2
*PAPER_SPACE
340
2611
  0
BLOCK_RECORD
  5
2E
330
1
100
AcDbSymbolTableRecord
100
AcDbBlockTableRecord
  2
_OPEN
340
0
  0
ENDTAB
  0
ENDSEC
  0
SECTION
  2
BLOCKS
  0
BLOCK
  5
19
330
18
100
AcDbEntity
  8
0
100
AcDbBlockBegin
  2
*MODEL_SPACE
 70
     0
 10
0.0
 20
0.0
 30
0.0
  3
*MODEL_SPACE
  1

  0
ENDBLK
  5
1A
330
18
100
AcDbEntity
  8
0
100
AcDbBlockEnd
  0
BLOCK
  5
16
330
15
100
AcDbEntity
 67
     1
  8
0
100
AcDbBlockBegin
  2
*PAPER_SPACE
 70
     0
 10
0.0
 20
0.0
 30
0.0
  3
*PAPER_SPACE
  1

  0
ENDBLK
  5
17
330
15
100
AcDbEntity
 67
     1
  8
0
100
AcDbBlockEnd
  0
BLOCK
  5
2F
330
2E
100
AcDbEntity
  8
0
100
AcDbBlockBegin
  2
_OPEN
 70
     0
 10
0.0
 20
0.0
 30
0.0
  3
_OPEN
  1

  0
LINE
  5
30
330
2E
100
AcDbEntity
  8
0
  6
ByBlock
 62
     0
100
AcDbLine
 10
-1.0
 20
0.1666666666666666
 30
0.0
 11
0.0
 21
0.0
 31
0.0
  0
LINE
  5
31
330
2E
100
AcDbEntity
  8
0
  6
ByBlock
 62
     0
100
AcDbLine
 10
0.0
 20
0.0
 30
0.0
 11
-1.0
 21
-0.1666666666666666
 31
0.0
  0
LINE
  5
32
330
2E
100
AcDbEntity
  8
0
  6
ByBlock
 62
     0
100
AcDbLine
 10
0.0
 20
0.0
 30
0.0
 11
-1.0
 21
0.0
 31
0.0
  0
ENDBLK
  5
33
330
2E
100
AcDbEntity
  8
0
100
AcDbBlockEnd
  0
ENDSEC
  0
SECTION
  2
ENTITIES
  0
TEXT
  5
63
330
18
100
AcDbEntity
  8
4
  6
CENTER
 48
0.25
100
AcDbText
 10
23.97950852663849
 20
10.0
 30
0.0
 40
1.399999999999999
  1
4
100
AcDbText
  0
TEXT
  5
64
330
18
100
AcDbEntity
  8
7
  6
Continuous
 48
0.25
100
AcDbText
 10
9.999997526638502
 20
26.0000007607689
 30
0.0
 40
3.0
  1
CODE No.13449
100
AcDbText
  0
TEXT
  5
65
330
18
100
AcDbEntity
  8
7
  6
Continuous
 48
0.25
100
AcDbText
 10
9.999997526638502
 20
18.00000076076889
 30
0.0
 40
3.0
  1
TYPE No.TEA-1160-U200-RE
100
AcDbText
  0
TEXT
  5
66
330
18
100
AcDbEntity
  8
1
  6
Continuous
 48
0.25
100
AcDbText
 10
9.999997526638502
 20
10.00000076076889
 30
0.0
 40
1.399999999999999
  1
LAYER
100
AcDbText
  0
TEXT
  5
67
330
18
100
AcDbEntity
  8
2
  6
Continuous
 48
0.25
100
AcDbText
 10
19.9795085266385
 20
10.0
 30
0.0
 40
1.399999999999999
  1
2
100
AcDbText
  0
TEXT
  5
68
330
18
100
AcDbEntity
  8
3
  6
DASHED
 48
0.25
100
AcDbText
 10
21.9795085266385
 20
10.0
 30
0.0
 40
1.399999999999999
  1
3
100
AcDbText
  0
TEXT
  5
69
330
18
100
AcDbEntity
  8
1
  6
Continuous
 48
0.25
100
AcDbText
 10
17.9795085266385
 20
10.0
 30
0.0
 40
1.399999999999999
  1
1
100
AcDbText
  0
TEXT
  5
6A
330
18
100
AcDbEntity
  8
5
  6
PHANTOM
 48
0.25
100
AcDbText
 10
25.9795085266385
 20
10.0
 30
0.0
 40
1.399999999999999
  1
5
100
AcDbText
  0
TEXT
  5
6B
330
18
100
AcDbEntity
  8
6
  6
Continuous
 48
0.25
100
AcDbText
 10
27.9795085266385
 20
10.0
 30
0.0
 40
1.399999999999999
  1
6
100
AcDbText
  0
TEXT
  5
6C
330
18
100
AcDbEntity
  8
7
  6
Continuous
 48
0.25
100
AcDbText
 10
29.9795085266385
 20
10.0
 30
0.0
 40
1.399999999999999
  1
7
100
AcDbText
  0
LINE
  5
20B1
330
18
100
AcDbEntity
  8
1
  6
Continuous
100
AcDbLine
 10
337.2649379675474
 20
248.3700689526262
 30
0.0
 11
337.2649379675474
 21
100.4055958305912
 31
0.0
  0
LINE
  5
20B2
330
18
100
AcDbEntity
  8
1
  6
Continuous
100
AcDbLine
 10
334.2649378250551
 20
248.3700689526262
 30
0.0
 11
334.2649378250551
 21
100.4055958305912
 31
0.0
  0
LINE
  5
20B4
330
18
100
AcDbEntity
  8
1
  6
Continuous
100
AcDbLine
 10
163.8216040988359
 20
248.3700689526262
 30
0.0
 11
163.8216040988359
 21
100.405595830591
 31
0.0
  0
LINE
  5
20B5
330
18
100
AcDbEntity
  8
1
  6
Continuous
100
AcDbLine
 10
160.8216039563433
 20
248.370068952626
 30
0.0
 11
160.8216039563433
 21
100.4055958305912
 31
0.0
  0
LINE
  5
20B6
330
18
100
AcDbEntity
  8
1
  6
Continuous
100
AcDbLine
 10
258.9460928500293
 20
283.7284025346365
 30
0.0
 11
258.9460928500293
 21
95.40559559310397
 31
0.0
  0
LINE
  5
20B7
330
18
100
AcDbEntity
  8
1
  6
Continuous
100
AcDbLine
 10
244.946092185065
 20
284.405604570122
 30
0.0
 11
244.9460921850648
 21
95.40559559310397
 31
0.0
  0
LINE
  5
20B8
330
18
100
AcDbEntity
  8
1
  6
Continuous
100
AcDbLine
 10
53.81973865674286
 20
284.405604570122
 30
0.0
 11
53.81973865674286
 21
95.40559559310397
 31
0.0
  0
LINE
  5
20B9
330
18
100
AcDbEntity
  8
4
  6
CENTER
 48
0.2
100
AcDbLine
 10
251.9460925175471
 20
450.4056122172117
 30
0.0
 11
251.9460925175471
 21
90.40559559310397
 31
0.0
  0
LINE
  5
20BA
330
18
100
AcDbEntity
  8
4
  6
CENTER
 48
0.2
100
AcDbLine
 10
46.81973832426068
 20
450.4055405016496
 30
0.0
 11
46.81973832426068
 21
90.40559559310397
 31
0.0
  0
LINE
  5
20BD
330
18
100
AcDbEntity
  8
1
  6
Continuous
100
AcDbLine
 10
135.8216031503768
 20
56.47306555417618
 30
0.0
 11
135.8216031503768
 21
52.9730653879351
 31
0.0
  0
LINE
  5
20BE
330
18
100
AcDbEntity
  8
1
  6
Continuous
100
AcDbLine
 10
136.8841598832157
 20
56.47306555417618
 30
0.0
 11
137.321603219724
 21
51.47306533839492
 31
0.0
  0
LINE
  5
20BF
330
18
100
AcDbEntity
  8
1
  6
Continuous
100
AcDbLine
 10
158.0216042048202
 20
52.9730653879351
 30
0.0
 11
158.02160420482
 21
56.47306555417618
 31
0.0
  0
LINE
  5
20C0
330
18
100
AcDbEntity
  8
1
  6
Continuous
100
AcDbLine
 10
156.521604133574
 20
51.47306531668892
 30
0.0
 11
156.9590474719814
 21
56.47306555417618
 31
0.0
  0
LINE
  5
20C1
330
18
100
AcDbEntity
  8
1
  6
Continuous
100
AcDbLine
 10
160.9215565321599
 20
36.1730645899779
 30
0.0
 11
132.9216030126342
 21
36.17306456119713
 31
0.0
  0
LINE
  5
20C2
330
18
100
AcDbEntity
  8
1
  6
Continuous
100
AcDbLine
 10
135.0216034938487
 20
37.17306463747536
 30
0.0
 11
163.82159626839
 21
37.17306463747536
 31
0.0
  0
LINE
  5
20C3
330
18
100
AcDbEntity
  8
1
  6
Continuous
100
AcDbLine
 10
133.9214287004131
 20
35.17306455768107
 30
0.0
 11
159.9216041019926
 21
35.17306455768107
 31
0.0
  0
LINE
  5
20C4
330
18
100
AcDbEntity
  8
1
  6
Continuous
100
AcDbLine
 10
135.0216034938487
 20
51.17306530243968
 30
0.0
 11
145.5216039925719
 21
51.17306530243968
 31
0.0
  0
LINE
  5
20C5
330
18
100
AcDbEntity
  8
4
  6
CENTER
 48
0.2
100
AcDbLine
 10
126.9216309326248
 20
44.17306454248046
 30
0.0
 11
168.8216040988356
 21
44.17306454248046
 31
0.0
  0
ARC
  5
20C6
330
18
100
AcDbEntity
  8
1
  6
Continuous
100
AcDbCircle
 10
138.9863338819559
 20
44.65177585288427
 30
0.0
 40
2.995077106130893
100
AcDbArc
 50
69.26015539193179
 51
99.007357381371
  0
LINE
  5
20C7
330
18
100
AcDbEntity
  8
1
  6
Continuous
100
AcDbLine
 10
142.42160346386
 20
39.17306473247026
 30
0.0
 11
138.021603636341
 21
39.17306473247025
 31
0.0
  0
LINE
  5
20C8
330
18
100
AcDbEntity
  8
1
  6
Continuous
100
AcDbLine
 10
142.5213446639686
 20
46.3730650744519
 30
0.0
 11
138.021603636341
 21
46.3730650744519
 31
0.0
  0
LINE
  5
20C9
330
18
100
AcDbEntity
  8
1
  6
Continuous
100
AcDbLine
 10
138.0216280369225
 20
41.97306486546302
 30
0.0
 11
142.42160346386
 21
41.97306486546302
 31
0.0
  0
LINE
  5
20CA
330
18
100
AcDbEntity
  8
4
  6
CENTER
 48
0.2
100
AcDbLine
 10
146.9216036775985
 20
56.17306530243968
 30
0.0
 11
146.9216036775985
 21
30.17306455768107
 31
0.0
  0
LINE
  5
20CB
330
18
100
AcDbEntity
  8
1
  6
Continuous
100
AcDbLine
 10
163.821596268426
 20
51.17306530243968
 30
0.0
 11
148.3216033626251
 21
51.17306530243968
 31
0.0
  0
LINE
  5
20CC
330
18
100
AcDbEntity
  8
1
  6
Continuous
100
AcDbLine
 10
163.82159626839
 20
51.17306530243957
 30
0.0
 11
163.82159626839
 21
37.17306463747536
 31
0.0
  0
LINE
  5
20CD
330
18
100
AcDbEntity
  8
1
  6
Continuous
100
AcDbLine
 10
159.5210150391853
 20
43.1730649224603
 30
0.0
 11
163.7724394130473
 21
43.1730649224603
 31
0.0
  0
LINE
  5
20CE
330
18
100
AcDbEntity
  8
1
  6
Continuous
100
AcDbLine
 10
159.5210150391853
 20
45.17306501745507
 30
0.0
 11
163.7724394130473
 21
45.17306501745507
 31
0.0
  0
ARC
  5
20D1
330
18
100
AcDbEntity
  8
1
  6
Continuous
100
AcDbCircle
 10
163.7721338930568
 20
45.13198112023757
 30
0.0
 40
0.0410789021395534
100
AcDbArc
 50
22.3375762753001
 51
89.57386476884039
  0
ARC
  5
20D2
330
18
100
AcDbEntity
  8
1
  6
Continuous
100
AcDbCircle
 10
163.5834412931699
 20
45.0705111227379
 30
0.0
 40
0.2394360244559899
100
AcDbArc
 50
5.929521086703353
 51
18.77991664357199
  0
ARC
  5
20D3
330
18
100
AcDbEntity
  8
1
  6
Continuous
100
AcDbCircle
 10
163.5834412931699
 20
43.27561794718757
 30
0.0
 40
0.2394360244559899
100
AcDbArc
 50
341.2200833564272
 51
354.0704789132967
  0
ARC
  5
20D4
330
18
100
AcDbEntity
  8
1
  6
Continuous
100
AcDbCircle
 10
163.7721338930568
 20
43.21414794968791
 30
0.0
 40
0.0410789021395534
100
AcDbArc
 50
270.4261352311596
 51
337.6624237246999
  0
LINE
  5
20D5
330
18
100
AcDbEntity
  8
1
  6
Continuous
100
AcDbLine
 10
159.0216019418996
 20
36.67311303227757
 30
0.0
 11
158.8549457977078
 21
36.70170184966514
 31
0.0
  0
LINE
  5
20D6
330
18
100
AcDbEntity
  8
1
  6
Continuous
100
AcDbLine
 10
158.854934755057
 20
36.70166109226
 30
0.0
 11
157.5215999307611
 21
37.17306614018696
 31
0.0
  0
ARC
  5
20D7
330
18
100
AcDbEntity
  8
1
  6
Continuous
100
AcDbCircle
 10
159.0215880913881
 20
37.17308079840427
 30
0.0
 40
0.4999677663181175
100
AcDbArc
 50
270.0018518146346
 51
0.0141790024245663
  0
ARC
  5
20D8
330
18
100
AcDbEntity
  8
1
  6
Continuous
100
AcDbCircle
 10
158.9041944783855
 20
44.17306453496268
 30
0.0
 40
0.8465506353250347
100
AcDbArc
 50
109.9351687021178
 51
250.0648312978787
  0
ARC
  5
20D9
330
18
100
AcDbEntity
  8
1
  6
Continuous
100
AcDbCircle
 10
159.4716772053457
 20
43.28206228363103
 30
0.0
 40
1.89164625688258
100
AcDbArc
 50
88.50544453544136
 51
116.9092849561502
  0
ARC
  5
20DA
330
18
100
AcDbEntity
  8
1
  6
Continuous
100
AcDbCircle
 10
159.4716863889025
 20
45.06411557039291
 30
0.0
 40
1.891693915194886
100
AcDbArc
 50
243.0911357458874
 51
271.4942395560452
  0
LINE
  5
20DC
330
18
100
AcDbEntity
  8
1
  6
Continuous
100
AcDbLine
 10
159.0216019428714
 20
36.67306461372664
 30
0.0
 11
160.9215565338249
 21
36.67306461372664
 31
0.0
  0
LINE
  5
20DE
330
18
100
AcDbEntity
  8
1
  6
Continuous
100
AcDbLine
 10
160.4431128927678
 20
35.3194571260219
 30
0.0
 11
160.4216082722332
 21
35.30704142756736
 31
0.0
  0
LINE
  5
20DF
330
18
100
AcDbEntity
  8
1
  6
Continuous
100
AcDbLine
 10
161.2765267675858
 20
35.80062885099414
 30
0.0
 11
160.4431128927678
 21
35.3194571260219
 31
0.0
  0
LINE
  5
20E0
330
18
100
AcDbEntity
  8
1
  6
Continuous
100
AcDbLine
 10
161.3090163725889
 20
35.81938673318859
 30
0.0
 11
161.2765267675858
 21
35.80062885099414
 31
0.0
  0
LINE
  5
20E1
330
18
100
AcDbEntity
  8
1
  6
Continuous
100
AcDbLine
 10
161.8215904015676
 20
36.11535378087001
 30
0.0
 11
161.3090023734494
 21
35.81941094485091
 31
0.0
  0
ARC
  5
20E2
330
18
100
AcDbEntity
  8
1
  6
Continuous
100
AcDbCircle
 10
161.721865174778
 20
36.28838407969054
 30
0.0
 40
0.199698870275886
100
AcDbArc
 50
299.9568086734362
 51
0.043191325965051
  0
ARC
  5
20E3
330
18
100
AcDbEntity
  8
1
  6
Continuous
100
AcDbCircle
 10
159.9218244639052
 20
36.17290579543221
 30
0.0
 40
0.9997320808658958
100
AcDbArc
 50
269.9873708087368
 51
0.0091006955664932
  0
LINE
  5
20E4
330
18
100
AcDbEntity
  8
1
  6
Continuous
100
AcDbLine
 10
160.9215565321599
 20
37.17306463747536
 30
0.0
 11
160.9215565321599
 21
36.17306458997791
 31
0.0
  0
LINE
  5
20E5
330
18
100
AcDbEntity
  8
1
  6
Continuous
100
AcDbLine
 10
161.9215764225728
 20
37.17306463747536
 30
0.0
 11
161.9215764225728
 21
36.2885346493008
 31
0.0
  0
LINE
  5
20E6
330
18
100
AcDbEntity
  8
1
  6
Continuous
100
AcDbLine
 10
160.9216043425628
 20
51.17306530243957
 30
0.0
 11
160.9216043425628
 21
51.67306532618863
 31
0.0
  0
LINE
  5
20E7
330
18
100
AcDbEntity
  8
1
  6
Continuous
100
AcDbLine
 10
161.2764761008488
 20
52.04553031762532
 30
0.0
 11
161.3090163586396
 21
52.02674319103039
 31
0.0
  0
LINE
  5
20E8
330
18
100
AcDbEntity
  8
1
  6
Continuous
100
AcDbLine
 10
161.2764761008488
 20
52.04553031762532
 30
0.0
 11
160.4451521462622
 21
52.52549542658653
 31
0.0
  0
LINE
  5
20E9
330
18
100
AcDbEntity
  8
1
  6
Continuous
100
AcDbLine
 10
160.4216083217438
 20
52.53908846000978
 30
0.0
 11
160.4451521462622
 21
52.52549542658653
 31
0.0
  0
LINE
  5
20EA
330
18
100
AcDbEntity
  8
1
  6
Continuous
100
AcDbLine
 10
161.9215764225725
 20
51.55759526686381
 30
0.0
 11
161.9215764225725
 21
51.17306530243957
 31
0.0
  0
LINE
  5
20EB
330
18
100
AcDbEntity
  8
1
  6
Continuous
100
AcDbLine
 10
161.3090023446886
 20
52.0267189879188
 30
0.0
 11
161.8215904015667
 21
51.73077613529311
 31
0.0
  0
LINE
  5
20EC
330
18
100
AcDbEntity
  8
1
  6
Continuous
100
AcDbLine
 10
161.8491175311971
 20
51.71164995135018
 30
0.0
 11
161.8215842108136
 21
51.73076535168185
 31
0.0
  0
LINE
  5
20ED
330
18
100
AcDbEntity
  8
1
  6
Continuous
100
AcDbLine
 10
161.9215764225725
 20
51.55759526686381
 30
0.0
 11
161.8491175311971
 21
51.71164995135018
 31
0.0
  0
ARC
  5
20EE
330
18
100
AcDbEntity
  8
1
  6
Continuous
100
AcDbCircle
 10
159.9218678344473
 20
51.67332886557017
 30
0.0
 40
0.9996273465320244
100
AcDbArc
 50
359.9848963263571
 51
90.01510367365673
  0
LINE
  5
20EF
330
18
100
AcDbEntity
  8
1
  6
Continuous
100
AcDbLine
 10
158.3216042190695
 20
52.67306537368586
 30
0.0
 11
159.9216042950654
 21
52.67306537368586
 31
0.0
  0
LINE
  5
20F0
330
18
100
AcDbEntity
  8
1
  6
Continuous
100
AcDbLine
 10
156.521604133574
 20
51.47306531668959
 30
0.0
 11
159.0216040023176
 21
51.47306531668959
 31
0.0
  0
LINE
  5
20F1
330
18
100
AcDbEntity
  8
1
  6
Continuous
100
AcDbLine
 10
159.0216042523177
 20
51.47306531668892
 30
0.0
 11
159.0216042523177
 21
51.17306530243968
 31
0.0
  0
ARC
  5
20F2
330
18
100
AcDbEntity
  8
1
  6
Continuous
100
AcDbCircle
 10
158.3216642958848
 20
52.9731254647503
 30
0.0
 40
0.3000181458453656
100
AcDbArc
 50
180.0114715290567
 51
269.9885284709986
  0
LINE
  5
20F3
330
18
100
AcDbEntity
  8
1
  6
Continuous
100
AcDbLine
 10
158.0216042048202
 20
54.47306545918116
 30
0.0
 11
156.7840703871531
 21
54.47306545918116
 31
0.0
  0
LINE
  5
20F4
330
18
100
AcDbEntity
  8
1
  6
Continuous
100
AcDbLine
 10
142.3079828471479
 20
41.97306486546311
 30
0.0
 11
142.3079828471479
 21
46.3730650744519
 31
0.0
  0
LINE
  5
20F5
330
18
100
AcDbEntity
  8
1
  6
Continuous
100
AcDbLine
 10
142.5216030871399
 20
39.67306475621899
 30
0.0
 11
142.5216030871399
 21
48.67306518369606
 31
0.0
  0
LINE
  5
20F6
330
18
100
AcDbEntity
  8
1
  6
Continuous
100
AcDbLine
 10
145.0216032058835
 20
41.67306485121389
 30
0.0
 11
148.3216031126253
 21
41.67306485121389
 31
0.0
  0
LINE
  5
20F7
330
18
100
AcDbEntity
  8
1
  6
Continuous
100
AcDbLine
 10
148.3216033626251
 20
37.17306488747533
 30
0.0
 11
148.3216033626251
 21
41.67306485121389
 31
0.0
  0
LINE
  5
20F8
330
18
100
AcDbEntity
  8
1
  6
Continuous
100
AcDbLine
 10
142.42160346386
 20
37.17306463747536
 30
0.0
 11
142.42160346386
 21
43.44032438837472
 31
0.0
  0
ARC
  5
20F9
330
18
100
AcDbEntity
  8
1
  6
Continuous
100
AcDbCircle
 10
139.6466033320546
 20
41.57306484646414
 30
0.0
 40
0.4000000189989894
100
AcDbArc
 50
0.0205941388603339
 51
90.0
  0
LINE
  5
20FA
330
18
100
AcDbEntity
  8
1
  6
Continuous
100
AcDbLine
 10
142.4155236316544
 20
40.3730647894672
 30
0.0
 11
140.0466141432955
 21
40.3730647894672
 31
0.0
  0
LINE
  5
20FD
330
18
100
AcDbEntity
  8
1
  6
Continuous
100
AcDbLine
 10
143.9216035351062
 20
37.17306463747536
 30
0.0
 11
143.9216035351062
 21
39.67306475621899
 31
0.0
  0
LINE
  5
2100
330
18
100
AcDbEntity
  8
1
  6
Continuous
100
AcDbLine
 10
140.0466141432805
 20
40.3730647894672
 30
0.0
 11
140.0466141432805
 21
41.57306484646414
 31
0.0
  0
ARC
  5
2101
330
18
100
AcDbEntity
  8
1
  6
Continuous
100
AcDbCircle
 10
142.5543835184591
 20
43.4024991535499
 30
0.0
 40
0.1379521571852995
100
AcDbArc
 50
103.7462157641327
 51
164.0861868097071
  0
LINE
  5
2102
330
18
100
AcDbEntity
  8
1
  6
Continuous
100
AcDbLine
 10
145.0216032058835
 20
39.67306475621899
 30
0.0
 11
145.0216032058835
 21
41.6730646012138
 31
0.0
  0
LINE
  5
2103
330
18
100
AcDbEntity
  8
1
  6
Continuous
100
AcDbLine
 10
142.5216030871399
 20
39.67306475621899
 30
0.0
 11
145.0216029558837
 21
39.67306475621899
 31
0.0
  0
LINE
  5
2104
330
18
100
AcDbEntity
  8
1
  6
Continuous
100
AcDbLine
 10
148.3228539868685
 20
47.97306515044782
 30
0.0
 11
145.0194857573078
 21
47.97306515044782
 31
0.0
  0
LINE
  5
2105
330
18
100
AcDbEntity
  8
1
  6
Continuous
100
AcDbLine
 10
148.3216033626251
 20
46.67306508870114
 30
0.0
 11
145.0216034558836
 21
46.67306508870114
 31
0.0
  0
LINE
  5
2106
330
18
100
AcDbEntity
  8
1
  6
Continuous
100
AcDbLine
 10
148.3216033626251
 20
51.17306530243968
 30
0.0
 11
148.3216033626251
 21
46.67306533870111
 31
0.0
  0
LINE
  5
2107
330
18
100
AcDbEntity
  8
1
  6
Continuous
100
AcDbLine
 10
142.515350122076
 20
47.97306515044782
 30
0.0
 11
140.0466141432955
 21
47.97306515044782
 31
0.0
  0
LINE
  5
2108
330
18
100
AcDbEntity
  8
1
  6
Continuous
100
AcDbLine
 10
145.5216039925719
 20
51.17306530243968
 30
0.0
 11
145.5216039925719
 21
47.97306515044782
 31
0.0
  0
LINE
  5
2109
330
18
100
AcDbEntity
  8
1
  6
Continuous
100
AcDbLine
 10
142.52160333714
 20
48.67306518369606
 30
0.0
 11
145.0216032058835
 21
48.67306518369606
 31
0.0
  0
LINE
  5
210A
330
18
100
AcDbEntity
  8
1
  6
Continuous
100
AcDbLine
 10
145.0216032058835
 20
46.67306508870114
 30
0.0
 11
145.0216032058835
 21
48.67306493369596
 31
0.0
  0
LINE
  5
210B
330
18
100
AcDbEntity
  8
1
  6
Continuous
100
AcDbLine
 10
140.0466141432805
 20
46.77306509345089
 30
0.0
 11
140.0466141432805
 21
47.97306515044782
 31
0.0
  0
LINE
  5
210C
330
18
100
AcDbEntity
  8
1
  6
Continuous
100
AcDbLine
 10
134.9216106255091
 20
41.97306486546311
 30
0.0
 11
134.9216106255075
 21
46.3730650744519
 31
0.0
  0
LINE
  5
210D
330
18
100
AcDbEntity
  8
1
  6
Continuous
100
AcDbLine
 10
134.5216030886301
 20
48.47306492419647
 30
0.0
 11
134.5216030886301
 21
40.47306479421695
 31
0.0
  0
LINE
  5
210E
330
18
100
AcDbEntity
  8
1
  6
Continuous
100
AcDbLine
 10
132.9216030126342
 20
51.67306532618908
 30
0.0
 11
132.9216030126342
 21
36.17306456119713
 31
0.0
  0
LINE
  5
210F
330
18
100
AcDbEntity
  8
1
  6
Continuous
100
AcDbLine
 10
135.0216034938487
 20
51.17306505243959
 30
0.0
 11
135.0216034938487
 21
37.17306463747536
 31
0.0
  0
LINE
  5
2110
330
18
100
AcDbEntity
  8
1
  6
Continuous
100
AcDbLine
 10
131.9216309326247
 20
36.28853464930034
 30
0.0
 11
131.9216309326243
 21
51.55759526686324
 31
0.0
  0
LINE
  5
2111
330
18
100
AcDbEntity
  8
1
  6
Continuous
100
AcDbLine
 10
138.021603636341
 20
51.17306505243959
 30
0.0
 11
138.021603636341
 21
37.17306463747536
 31
0.0
  0
LINE
  5
2112
330
18
100
AcDbEntity
  8
1
  6
Continuous
100
AcDbLine
 10
136.3216053055741
 20
37.17306539105618
 30
0.0
 11
134.9882726001401
 21
36.70166109226
 31
0.0
  0
LINE
  5
2113
330
18
100
AcDbEntity
  8
1
  6
Continuous
100
AcDbLine
 10
134.9882615574893
 20
36.70170184966536
 30
0.0
 11
134.8216054132974
 21
36.67311303227779
 31
0.0
  0
LINE
  5
2114
330
18
100
AcDbEntity
  8
1
  6
Continuous
100
AcDbLine
 10
132.9216508213719
 20
36.67306461372664
 30
0.0
 11
134.8216054123256
 21
36.67306461372664
 31
0.0
  0
LINE
  5
2115
330
18
100
AcDbEntity
  8
1
  6
Continuous
100
AcDbLine
 10
134.8216031028794
 20
38.67306470872143
 30
0.0
 11
134.8216031028794
 21
40.47306454421685
 31
0.0
  0
LINE
  5
2116
330
18
100
AcDbEntity
  8
1
  6
Continuous
100
AcDbLine
 10
134.5216033386302
 20
40.47306479421695
 30
0.0
 11
134.8216031028794
 21
40.47306479421695
 31
0.0
  0
LINE
  5
2117
330
18
100
AcDbEntity
  8
1
  6
Continuous
100
AcDbLine
 10
134.8216031030537
 20
38.67306470921585
 30
0.0
 11
134.3502098841756
 21
37.33976334251656
 31
0.0
  0
ARC
  5
2119
330
18
100
AcDbEntity
  8
1
  6
Continuous
100
AcDbCircle
 10
134.8216192638087
 20
37.17308079840404
 30
0.0
 40
0.4999677663181063
100
AcDbArc
 50
160.527441907146
 51
269.9981480060866
  0
LINE
  5
211A
330
18
100
AcDbEntity
  8
1
  6
Continuous
100
AcDbLine
 10
134.9216106255091
 20
41.97306486546311
 30
0.0
 11
135.0209828811007
 21
41.97306486546311
 31
0.0
  0
ARC
  5
2120
330
18
100
AcDbEntity
  8
1
  6
Continuous
100
AcDbCircle
 10
133.9214166749094
 20
36.17298738668337
 30
0.0
 40
0.9998136652536947
100
AcDbArc
 50
179.9955774019873
 51
270.0106820235678
  0
ARC
  5
2121
330
18
100
AcDbEntity
  8
0
  6
Continuous
100
AcDbCircle
 10
132.1213421804193
 20
36.28838407969054
 30
0.0
 40
0.1996988702758681
100
AcDbArc
 50
179.9568086741766
 51
240.0431913263912
  0
LINE
  5
2123
330
18
100
AcDbEntity
  8
1
  6
Continuous
100
AcDbLine
 10
138.5988681513967
 20
39.19921145904778
 30
0.0
 11
138.8415488787406
 21
41.97306486546311
 31
0.0
  0
LINE
  5
2124
330
18
100
AcDbEntity
  8
1
  6
Continuous
100
AcDbLine
 10
138.596580609233
 20
39.17306473247026
 30
0.0
 11
138.5988681513454
 21
39.19921145846137
 31
0.0
  0
ARC
  5
2125
330
18
100
AcDbEntity
  8
1
  6
Continuous
100
AcDbCircle
 10
138.748210727751
 20
41.67808120144786
 30
0.0
 40
0.9716168614625326
100
AcDbArc
 50
237.2955697708077
 51
268.8565949224398
  0
ARC
  5
2126
330
18
100
AcDbEntity
  8
1
  6
Continuous
100
AcDbCircle
 10
138.6016444800279
 20
41.30143019302875
 30
0.0
 40
0.5810442930774091
100
AcDbArc
 50
176.6322234535328
 51
229.364284564793
  0
LINE
  5
2127
330
18
100
AcDbEntity
  8
1
  6
Continuous
100
AcDbLine
 10
134.8216031028794
 20
51.47306531668892
 30
0.0
 11
137.3216029716229
 21
51.47306531668892
 31
0.0
  0
LINE
  5
2128
330
18
100
AcDbEntity
  8
1
  6
Continuous
100
AcDbLine
 10
135.8216031503768
 20
54.47306545918127
 30
0.0
 11
137.0591372185786
 21
54.47306545918127
 31
0.0
  0
LINE
  5
2129
330
18
100
AcDbEntity
  8
1
  6
Continuous
100
AcDbLine
 10
134.8216031028794
 20
48.47306517419657
 30
0.0
 11
134.8216031028794
 21
51.47306506668883
 31
0.0
  0
LINE
  5
212A
330
18
100
AcDbEntity
  8
1
  6
Continuous
100
AcDbLine
 10
133.9216030601316
 20
52.67306537368586
 30
0.0
 11
135.5216031361276
 21
52.67306537368586
 31
0.0
  0
LINE
  5
212B
330
18
100
AcDbEntity
  8
1
  6
Continuous
100
AcDbLine
 10
134.8216031028794
 20
48.47306517419657
 30
0.0
 11
134.5216030886301
 21
48.47306517419657
 31
0.0
  0
LINE
  5
212F
330
18
100
AcDbEntity
  8
1
  6
Continuous
100
AcDbLine
 10
132.0216169536295
 20
51.73077613529563
 30
0.0
 11
133.4216130666864
 21
52.53906426808306
 31
0.0
  0
ARC
  5
2130
330
18
100
AcDbEntity
  8
1
  6
Continuous
100
AcDbCircle
 10
135.5215430593122
 20
52.9731254647503
 30
0.0
 40
0.3000181458453779
100
AcDbArc
 50
270.0114715290339
 51
359.9885284709547
  0
ARC
  5
2131
330
18
100
AcDbEntity
  8
1
  6
Continuous
100
AcDbCircle
 10
133.9213395207498
 20
51.67332886557017
 30
0.0
 40
0.9996273465320328
100
AcDbArc
 50
89.98489632634329
 51
180.0151036736151
  0
ARC
  5
2132
330
18
100
AcDbEntity
  8
1
  6
Continuous
100
AcDbCircle
 10
132.1213421804329
 20
51.55774583646893
 30
0.0
 40
0.1996988702900241
100
AcDbArc
 50
119.9568086759582
 51
180.0431913246361
  0
LINE
  5
2133
330
18
100
AcDbEntity
  8
1
  6
Continuous
100
AcDbLine
 10
134.9216106255075
 20
46.3730650744519
 30
0.0
 11
135.0208417246626
 21
46.3730650744519
 31
0.0
  0
ARC
  5
2136
330
18
100
AcDbEntity
  8
1
  6
Continuous
100
AcDbCircle
 10
138.5794395966035
 20
47.05385140690565
 30
0.0
 40
0.5595148261600192
100
AcDbArc
 50
96.3639706034348
 51
184.4396474932338
  0
LINE
  5
2137
330
18
100
AcDbEntity
  8
1
  6
Continuous
100
AcDbLine
 10
250.9460924700497
 20
95.45476027888492
 30
0.0
 11
250.9460924700497
 21
99.70618465275537
 31
0.0
  0
LINE
  5
2138
330
18
100
AcDbEntity
  8
1
  6
Continuous
100
AcDbLine
 10
252.9460925650446
 20
95.45476027888492
 30
0.0
 11
252.9460925650446
 21
99.70618465275537
 31
0.0
  0
LINE
  5
2139
330
18
100
AcDbEntity
  8
1
  6
Continuous
100
AcDbLine
 10
244.9460921850648
 20
95.40559559310397
 30
0.0
 11
258.9460928500293
 21
95.40559559310397
 31
0.0
  0
ARC
  5
213A
330
18
100
AcDbEntity
  8
1
  6
Continuous
100
AcDbCircle
 10
250.9945971385677
 20
95.45840574992258
 30
0.0
 40
0.0486353531723548
100
AcDbArc
 50
184.2986463352549
 51
225.1260664956558
  0
ARC
  5
213B
330
18
100
AcDbEntity
  8
1
  6
Continuous
100
AcDbCircle
 10
251.025525203996
 20
95.53072388922895
 30
0.0
 40
0.1251377513393275
100
AcDbArc
 50
238.5760038352394
 51
269.295660765951
  0
ARC
  5
213C
330
18
100
AcDbEntity
  8
1
  6
Continuous
100
AcDbCircle
 10
252.8975878965265
 20
95.45840574992258
 30
0.0
 40
0.0486353531723548
100
AcDbArc
 50
314.873933504344
 51
355.701353664745
  0
ARC
  5
213D
330
18
100
AcDbEntity
  8
1
  6
Continuous
100
AcDbCircle
 10
252.8666598310981
 20
95.53072388922895
 30
0.0
 40
0.1251377513393275
100
AcDbArc
 50
270.7043392340489
 51
301.4239961647605
  0
ARC
  5
213E
330
18
100
AcDbEntity
  8
1
  6
Continuous
100
AcDbCircle
 10
251.9460931079888
 20
100.3279590785581
 30
0.0
 40
0.8415967703253778
100
AcDbArc
 50
21.13990636547718
 51
158.860093634514
  0
ARC
  5
213F
330
18
100
AcDbEntity
  8
1
  6
Continuous
100
AcDbCircle
 10
251.0678392792433
 20
99.75732191284421
 30
0.0
 40
1.878943158540163
100
AcDbArc
 50
358.4404472309409
 51
27.72563833031489
  0
ARC
  5
2140
330
18
100
AcDbEntity
  8
1
  6
Continuous
100
AcDbCircle
 10
252.8244511485927
 20
99.75728285083008
 30
0.0
 40
1.879053578561378
100
AcDbArc
 50
152.274785695454
 51
181.558269588424
  0
ARC
  5
2141
330
18
100
AcDbEntity
  8
1
  6
Continuous
100
AcDbCircle
 10
158.8216227656141
 20
100.4055769263167
 30
0.0
 40
4.999973502811699
100
AcDbArc
 50
269.9997833722639
 51
0.0002166278370628
  0
ARC
  5
2142
330
18
100
AcDbEntity
  8
1
  6
Continuous
100
AcDbCircle
 10
158.8216038613506
 20
100.4055958305891
 30
0.0
 40
2.0000000949925
100
AcDbArc
 50
269.9999999999413
 51
0.0000000000594452
  0
LINE
  5
2143
330
18
100
AcDbEntity
  8
1
  6
Continuous
100
AcDbLine
 10
156.8150237998422
 20
98.40549573559634
 30
0.0
 11
160.8218202474291
 21
102.4122921831834
 31
0.0
  0
LINE
  5
2144
330
18
100
AcDbEntity
  8
1
  6
Continuous
100
AcDbLine
 10
158.0216042048202
 20
56.30329955183253
 30
0.0
 11
156.9443422331344
 21
56.30329955183264
 31
0.0
  0
LINE
  5
2145
330
18
100
AcDbEntity
  8
1
  6
Continuous
100
AcDbLine
 10
156.9590474719814
 20
56.47306555417618
 30
0.0
 11
158.02160420482
 21
56.47306555417618
 31
0.0
  0
LINE
  5
2146
330
18
100
AcDbEntity
  8
1
  6
Continuous
100
AcDbLine
 10
158.8216038613484
 20
98.4055957355963
 30
0.0
 11
142.5216030871399
 21
98.4055957355963
 31
0.0
  0
LINE
  5
2147
330
18
100
AcDbEntity
  8
1
  6
Continuous
100
AcDbLine
 10
158.8216038613484
 20
95.40559559310397
 30
0.0
 11
142.5216030871399
 21
95.40559559310397
 31
0.0
  0
LINE
  5
2148
330
18
100
AcDbEntity
  8
1
  6
Continuous
100
AcDbLine
 10
148.3216033626251
 20
95.40559559310397
 30
0.0
 11
148.3216033626251
 21
98.4055957355963
 31
0.0
  0
LINE
  5
2149
330
18
100
AcDbEntity
  8
1
  6
Continuous
100
AcDbLine
 10
142.5216030871399
 20
95.40559559310397
 30
0.0
 11
142.5216030871399
 21
98.4055957355963
 31
0.0
  0
LINE
  5
214A
330
18
100
AcDbEntity
  8
1
  6
Continuous
100
AcDbLine
 10
145.0216032058835
 20
95.40559559310397
 30
0.0
 11
145.0216032058835
 21
98.4055957355963
 31
0.0
  0
LINE
  5
214B
330
18
100
AcDbEntity
  8
1
  6
Continuous
100
AcDbLine
 10
135.8216031503768
 20
56.30335137211819
 30
0.0
 11
136.8988651220627
 21
56.30335137211819
 31
0.0
  0
LINE
  5
214C
330
18
100
AcDbEntity
  8
1
  6
Continuous
100
AcDbLine
 10
135.8216031503768
 20
56.47306555417618
 30
0.0
 11
136.8841598832157
 21
56.47306555417618
 31
0.0
  0
ARC
  5
214D
330
18
100
AcDbEntity
  8
1
  6
Continuous
100
AcDbCircle
 10
46.8197379764324
 20
99.21085660915844
 30
0.0
 40
3.201218254532133
100
AcDbArc
 50
32.29758859350159
 51
147.7024114064984
  0
LINE
  5
214E
330
18
100
AcDbEntity
  8
1
  6
Continuous
100
AcDbLine
 10
39.81973799177854
 20
95.40559559310397
 30
0.0
 11
53.81973865674286
 21
95.40559559310397
 31
0.0
  0
LINE
  5
214F
330
18
100
AcDbEntity
  8
1
  6
Continuous
100
AcDbLine
 10
53.81973865674286
 20
98.4055957355963
 30
0.0
 11
39.81973799177876
 21
98.4055957355963
 31
0.0
  0
ARC
  5
2150
330
18
100
AcDbEntity
  8
1
  6
Continuous
100
AcDbCircle
 10
49.78718133085749
 20
98.90559573559631
 30
0.0
 40
0.5
100
AcDbArc
 50
270.0
 51
0.6299944987646569
  0
LINE
  5
2151
330
18
100
AcDbEntity
  8
1
  6
Continuous
100
AcDbLine
 10
51.31973853799923
 20
95.40559559310397
 30
0.0
 11
51.31973853799923
 21
98.4055957355963
 31
0.0
  0
ARC
  5
2152
330
18
100
AcDbEntity
  8
1
  6
Continuous
100
AcDbCircle
 10
47.16228612595773
 20
98.87673259420308
 30
0.0
 40
3.125053888536286
100
AcDbArc
 50
0.6299944987646569
 51
40.86334168100438
  0
ARC
  5
2153
330
18
100
AcDbEntity
  8
1
  6
Continuous
100
AcDbCircle
 10
43.85229531766389
 20
98.90559573559631
 30
0.0
 40
0.5
100
AcDbArc
 50
179.3700055012353
 51
270.0
  0
LINE
  5
2154
330
18
100
AcDbEntity
  8
1
  6
Continuous
100
AcDbLine
 10
42.31973811052215
 20
95.40559559310397
 30
0.0
 11
42.31973811052215
 21
98.4055957355963
 31
0.0
  0
ARC
  5
2155
330
18
100
AcDbEntity
  8
1
  6
Continuous
100
AcDbCircle
 10
46.47719052256364
 20
98.87673259420308
 30
0.0
 40
3.125053888536286
100
AcDbArc
 50
139.1366583189956
 51
179.3700055012361
  0
LINE
  5
2156
330
18
100
AcDbEntity
  8
1
  6
Continuous
100
AcDbLine
 10
339.2649380625423
 20
95.40559559310397
 30
0.0
 11
355.564938836751
 21
95.40559559310397
 31
0.0
  0
LINE
  5
2157
330
18
100
AcDbEntity
  8
1
  6
Continuous
100
AcDbLine
 10
339.2649380625423
 20
98.4055957355963
 30
0.0
 11
355.564938836751
 21
98.4055957355963
 31
0.0
  0
LINE
  5
2158
330
18
100
AcDbEntity
  8
1
  6
Continuous
100
AcDbLine
 10
355.564938836751
 20
95.40559559310397
 30
0.0
 11
355.564938836751
 21
98.4055957355963
 31
0.0
  0
ARC
  5
2159
330
18
100
AcDbEntity
  8
1
  6
Continuous
100
AcDbCircle
 10
339.26493806254
 20
100.4055958305891
 30
0.0
 40
2.0000000949925
100
AcDbArc
 50
179.9999999999397
 51
270.0000000000585
  0
ARC
  5
215A
330
18
100
AcDbEntity
  8
1
  6
Continuous
100
AcDbCircle
 10
339.2649191582767
 20
100.4055769263167
 30
0.0
 40
4.999973502811696
100
AcDbArc
 50
179.9997833721629
 51
270.0002166277361
  0
LINE
  5
215B
330
18
100
AcDbEntity
  8
1
  6
Continuous
100
AcDbLine
 10
337.2647216764613
 20
102.4122921831834
 30
0.0
 11
341.2715181240485
 21
98.40549573559634
 31
0.0
  0
LINE
  5
215C
330
18
100
AcDbEntity
  8
1
  6
Continuous
100
AcDbLine
 10
349.7649385612656
 20
95.40559559310397
 30
0.0
 11
349.7649385612656
 21
98.4055957355963
 31
0.0
  0
LINE
  5
215D
330
18
100
AcDbEntity
  8
1
  6
Continuous
100
AcDbLine
 10
353.0649387180071
 20
95.40559559310397
 30
0.0
 11
353.0649387180071
 21
98.4055957355963
 31
0.0
  0
LINE
  5
215E
330
18
100
AcDbEntity
  8
1
  6
Continuous
100
AcDbLine
 10
135.0216034938487
 20
439.4056119322266
 30
0.0
 11
135.0216034938487
 21
334.4056069449945
 31
0.0
  0
LINE
  5
215F
330
18
100
AcDbEntity
  8
1
  6
Continuous
100
AcDbLine
 10
138.021603636341
 20
439.4056119322268
 30
0.0
 11
138.021603636341
 21
286.4056046651168
 31
0.0
  0
LINE
  5
2160
330
18
100
AcDbEntity
  8
1
  6
Continuous
100
AcDbLine
 10
258.9460928500293
 20
445.4056122172117
 30
0.0
 11
258.9460928500293
 21
334.4256069449945
 31
0.0
  0
LINE
  5
2161
330
18
100
AcDbEntity
  8
1
  6
Continuous
100
AcDbLine
 10
244.946092185065
 20
445.4056122172117
 30
0.0
 11
244.946092185065
 21
334.405606944995
 31
0.0
  0
LINE
  5
2163
330
18
100
AcDbEntity
  8
1
  6
Continuous
100
AcDbLine
 10
243.4460921138177
 20
334.4056069449951
 30
0.0
 11
243.4460921138179
 21
284.405604570122
 31
0.0
  0
LINE
  5
2164
330
18
100
AcDbEntity
  8
1
  6
Continuous
100
AcDbLine
 10
260.9460929450242
 20
257.4056032589026
 30
0.0
 11
260.946092945024
 21
334.405606944995
 31
0.0
  0
LINE
  5
2165
330
18
100
AcDbEntity
  8
1
  6
Continuous
100
AcDbLine
 10
259.446092873778
 20
256.9569709804381
 30
0.0
 11
259.446092873778
 21
282.4056044751271
 31
0.0
  0
LINE
  5
2166
330
18
100
AcDbEntity
  8
1
  6
Continuous
100
AcDbLine
 10
249.246092389304
 20
273.1856037872008
 30
0.0
 11
249.246092389304
 21
269.3856041067105
 31
0.0
  0
LINE
  5
2167
330
18
100
AcDbEntity
  8
1
  6
Continuous
100
AcDbLine
 10
254.6460926457903
 20
269.3856041067103
 30
0.0
 11
254.6460926457903
 21
273.1856040372007
 31
0.0
  0
LINE
  5
2168
330
18
100
AcDbEntity
  8
1
  6
Continuous
100
AcDbLine
 10
258.9460928500293
 20
256.4056032401933
 30
0.0
 11
259.9460928975267
 21
256.4056032401933
 31
0.0
  0
ARC
  5
216A
330
18
100
AcDbEntity
  8
1
  6
Continuous
100
AcDbCircle
 10
258.4099211961768
 20
257.4806586571737
 30
0.0
 40
1.160991183571904
100
AcDbArc
 50
297.5047617997407
 51
333.1876792990998
  0
ARC
  5
216B
330
18
100
AcDbEntity
  8
1
  6
Continuous
100
AcDbCircle
 10
259.9460928975267
 20
257.4056032876908
 30
0.0
 40
1.000000047497459
100
AcDbArc
 50
270.0000016494476
 51
359.9999983505556
  0
LINE
  5
216C
330
18
100
AcDbEntity
  8
1
  6
Continuous
100
AcDbLine
 10
249.246092389304
 20
269.3856038567105
 30
0.0
 11
254.6460926457903
 21
269.3856038567104
 31
0.0
  0
LINE
  5
216D
330
18
100
AcDbEntity
  8
1
  6
Continuous
100
AcDbLine
 10
241.6460920283218
 20
288.405605094391
 30
0.0
 11
241.6460920283234
 21
304.405605520071
 31
0.0
  0
LINE
  5
216E
330
18
100
AcDbEntity
  8
1
  6
Continuous
100
AcDbLine
 10
257.4460927787831
 20
284.405604570122
 30
0.0
 11
241.6460920283234
 21
284.405604570122
 31
0.0
  0
LINE
  5
216F
330
18
100
AcDbEntity
  8
1
  6
Continuous
100
AcDbLine
 10
244.2656193671741
 20
289.4056048076091
 30
0.0
 11
259.7919743584607
 21
289.4056048076091
 31
0.0
  0
LINE
  5
2170
330
18
100
AcDbEntity
  8
1
  6
Continuous
100
AcDbLine
 10
249.246092389304
 20
279.4740762921873
 30
0.0
 11
249.246092389304
 21
275.6740766116969
 31
0.0
  0
LINE
  5
2171
330
18
100
AcDbEntity
  8
1
  6
Continuous
100
AcDbLine
 10
254.6460926457903
 20
275.6740766116969
 30
0.0
 11
254.6460926457903
 21
279.4740765421872
 31
0.0
  0
LINE
  5
2172
330
18
100
AcDbEntity
  8
1
  6
Continuous
100
AcDbLine
 10
254.6460923957901
 20
273.1856040372008
 30
0.0
 11
249.246092389304
 21
273.1856040372007
 31
0.0
  0
LINE
  5
2173
330
18
100
AcDbEntity
  8
1
  6
Continuous
100
AcDbLine
 10
249.246092389304
 20
275.6740763616968
 30
0.0
 11
254.6460926457903
 21
275.6740763616969
 31
0.0
  0
LINE
  5
2174
330
18
100
AcDbEntity
  8
1
  6
Continuous
100
AcDbLine
 10
254.6460923957901
 20
279.4740765421872
 30
0.0
 11
249.246092389304
 21
279.4740765421872
 31
0.0
  0
ARC
  5
2175
330
18
100
AcDbEntity
  8
1
  6
Continuous
100
AcDbCircle
 10
257.446064902849
 20
282.4055765991913
 30
0.0
 40
1.999988074416586
100
AcDbArc
 50
0.0007985755633347
 51
89.99920142447903
  0
ARC
  5
2176
330
18
100
AcDbEntity
  8
1
  6
Continuous
100
AcDbCircle
 10
259.9592700217545
 20
288.0900128444155
 30
0.0
 40
1.326186281283027
100
AcDbArc
 50
49.97811502609359
 51
97.24705251116088
  0
LINE
  5
2177
330
18
100
AcDbEntity
  8
1
  6
Continuous
100
AcDbLine
 10
249.246092389304
 20
284.405604570122
 30
0.0
 11
249.246092389304
 21
281.9625491166833
 31
0.0
  0
LINE
  5
2178
330
18
100
AcDbEntity
  8
1
  6
Continuous
100
AcDbLine
 10
254.6460926457903
 20
281.9625491166835
 30
0.0
 11
254.6460926457903
 21
284.405604570122
 31
0.0
  0
LINE
  5
2179
330
18
100
AcDbEntity
  8
1
  6
Continuous
100
AcDbLine
 10
249.246092389304
 20
281.9625488666833
 30
0.0
 11
254.6460926457903
 21
281.9625488666833
 31
0.0
  0
LINE
  5
217A
330
18
100
AcDbEntity
  8
1
  6
Continuous
100
AcDbLine
 10
239.8141735824635
 20
286.779543452012
 30
0.0
 11
241.6460921942809
 21
288.4056049074216
 31
0.0
  0
LINE
  5
217B
330
18
100
AcDbEntity
  8
1
  6
Continuous
100
AcDbLine
 10
241.6460920283234
 20
284.405604570122
 30
0.0
 11
239.8141735824651
 21
286.031665878223
 31
0.0
  0
ARC
  5
217F
330
18
100
AcDbEntity
  8
1
  6
Continuous
100
AcDbCircle
 10
244.4329178051971
 20
288.0900124916005
 30
0.0
 40
1.326186281283027
100
AcDbArc
 50
97.24705252227423
 51
130.0218849739064
  0
ARC
  5
2180
330
18
100
AcDbEntity
  8
1
  6
Continuous
100
AcDbCircle
 10
240.1458748727995
 20
286.4056046651164
 30
0.0
 40
0.4997829394710437
100
AcDbArc
 50
131.5745337385593
 51
228.4254662614101
  0
LINE
  5
2181
330
18
100
AcDbEntity
  8
1
  6
Continuous
100
AcDbLine
 10
244.6002106939731
 20
301.4056053775787
 30
0.0
 11
259.7919743584611
 21
301.4056053775787
 31
0.0
  0
LINE
  5
2182
330
18
100
AcDbEntity
  8
1
  6
Continuous
100
AcDbLine
 10
259.7919743584611
 20
303.4056054725736
 30
0.0
 11
244.6002162429603
 21
303.4056054725736
 31
0.0
  0
LINE
  5
2183
330
18
100
AcDbEntity
  8
1
  6
Continuous
100
AcDbLine
 10
259.7919743584611
 20
291.4056049026041
 30
0.0
 11
244.6002162429603
 21
291.4056049026041
 31
0.0
  0
ARC
  5
2184
330
18
100
AcDbEntity
  8
1
  6
Continuous
100
AcDbCircle
 10
259.9592700217545
 20
300.0900134143849
 30
0.0
 40
1.326186281283027
100
AcDbArc
 50
49.97811502609359
 51
97.24705251114119
  0
ARC
  5
2185
330
18
100
AcDbEntity
  8
1
  6
Continuous
100
AcDbCircle
 10
259.9592700217545
 20
292.7211968657977
 30
0.0
 40
1.326186281283027
100
AcDbArc
 50
262.7529474888489
 51
310.0218849739063
  0
ARC
  5
2186
330
18
100
AcDbEntity
  8
1
  6
Continuous
100
AcDbCircle
 10
259.9592700217545
 20
304.7211974357671
 30
0.0
 40
1.326186281283027
100
AcDbArc
 50
262.7529474888555
 51
310.0218849739063
  0
ARC
  5
2187
330
18
100
AcDbEntity
  8
1
  6
Continuous
100
AcDbCircle
 10
244.4329178051971
 20
300.0900130615698
 30
0.0
 40
1.326186281283027
100
AcDbArc
 50
82.75306832274436
 51
130.0218849739064
  0
ARC
  5
2188
330
18
100
AcDbEntity
  8
1
  6
Continuous
100
AcDbCircle
 10
244.4329178051971
 20
292.7211965129826
 30
0.0
 40
1.326186281283027
100
AcDbArc
 50
229.9781150260935
 51
277.2471733430301
  0
LINE
  5
2189
330
18
100
AcDbEntity
  8
1
  6
Continuous
100
AcDbLine
 10
239.8141735824635
 20
306.7795444019584
 30
0.0
 11
241.6460920283238
 21
308.4056057100612
 31
0.0
  0
LINE
  5
218A
330
18
100
AcDbEntity
  8
1
  6
Continuous
100
AcDbLine
 10
241.6460917783233
 20
304.4056057419778
 30
0.0
 11
239.8141735824651
 21
306.0316668281708
 31
0.0
  0
LINE
  5
218C
330
18
100
AcDbEntity
  8
1
  6
Continuous
100
AcDbLine
 10
241.6460920283238
 20
308.4056057100612
 30
0.0
 11
243.4460501625863
 21
308.4056057100612
 31
0.0
  0
ARC
  5
218D
330
18
100
AcDbEntity
  8
1
  6
Continuous
100
AcDbCircle
 10
244.4329178051971
 20
304.7211970829521
 30
0.0
 40
1.326186281283027
100
AcDbArc
 50
229.9781150260935
 51
277.2471733430235
  0
ARC
  5
218E
330
18
100
AcDbEntity
  8
1
  6
Continuous
100
AcDbCircle
 10
240.1458748727995
 20
306.4056056150664
 30
0.0
 40
0.4997829394710491
100
AcDbArc
 50
131.5745337388332
 51
228.4254662615772
  0
LINE
  5
218F
330
18
100
AcDbEntity
  8
1
  6
Continuous
100
AcDbLine
 10
260.946092945024
 20
334.405606944995
 30
0.0
 11
243.4460921138177
 21
334.4056069449951
 31
0.0
  0
LINE
  5
2192
330
18
100
AcDbEntity
  8
1
  6
Continuous
100
AcDbLine
 10
132.9216030126342
 20
334.4056069449945
 30
0.0
 11
132.9216030126342
 21
303.7056054725735
 31
0.0
  0
LINE
  5
2193
330
18
100
AcDbEntity
  8
1
  6
Continuous
100
AcDbLine
 10
136.7442529250097
 20
308.4056057100608
 30
0.0
 11
136.7442529250097
 21
334.4056069449945
 31
0.0
  0
ARC
  5
2194
330
18
100
AcDbEntity
  8
1
  6
Continuous
100
AcDbCircle
 10
146.9190662117266
 20
313.4049867040771
 30
0.0
 40
6.265971543269097
100
AcDbArc
 50
179.9943371740415
 51
206.6452463929535
  0
ARC
  5
2195
330
18
100
AcDbEntity
  8
1
  6
Continuous
100
AcDbCircle
 10
146.9184679330471
 20
313.4048392807948
 30
0.0
 40
7.997579805181228
100
AcDbArc
 50
179.9945070005267
 51
207.4830844985035
  0
ARC
  5
2196
330
18
100
AcDbEntity
  8
1
  6
Continuous
100
AcDbCircle
 10
146.9216036775985
 20
313.405613115006
 30
0.0
 40
2.249967480061122
100
AcDbArc
 50
180.0001825178091
 51
359.9998174821917
  0
ARC
  5
2197
330
18
100
AcDbEntity
  8
1
  6
Continuous
100
AcDbCircle
 10
146.9247394221499
 20
313.4048392807948
 30
0.0
 40
7.997579805181228
100
AcDbArc
 50
332.5169155014965
 51
0.005492999473297
  0
ARC
  5
2198
330
18
100
AcDbEntity
  8
1
  6
Continuous
100
AcDbCircle
 10
146.9241498129567
 20
313.4049841070368
 30
0.0
 40
6.265963687808508
100
AcDbArc
 50
333.3546983626939
 51
0.0056865822435576
  0
LINE
  5
2199
330
18
100
AcDbEntity
  8
1
  6
Continuous
100
AcDbLine
 10
156.521604133574
 20
284.405604570122
 30
0.0
 11
156.5216041335743
 21
334.4056069449945
 31
0.0
  0
LINE
  5
219A
330
18
100
AcDbEntity
  8
1
  6
Continuous
100
AcDbLine
 10
137.3216032216232
 20
284.4056045701218
 30
0.0
 11
137.321603221623
 21
334.4056069449947
 31
0.0
  0
LINE
  5
219B
330
18
100
AcDbEntity
  8
1
  6
Continuous
100
AcDbLine
 10
156.5422269401999
 20
308.4056057100608
 30
0.0
 11
156.5422269402006
 21
334.4056069449945
 31
0.0
  0
LINE
  5
219C
330
18
100
AcDbEntity
  8
1
  6
Continuous
100
AcDbLine
 10
137.300980414996
 20
308.4056057100608
 30
0.0
 11
137.3009804149962
 21
334.4056069449947
 31
0.0
  0
LINE
  5
219D
330
18
100
AcDbEntity
  8
1
  6
Continuous
100
AcDbLine
 10
157.0989544301864
 20
308.4056057100608
 30
0.0
 11
157.0989544301864
 21
334.4056069449945
 31
0.0
  0
LINE
  5
219E
330
18
100
AcDbEntity
  8
1
  6
Continuous
100
AcDbLine
 10
160.9214951462558
 20
334.4056069449951
 30
0.0
 11
160.9214951462554
 21
303.7056054725735
 31
0.0
  0
LINE
  5
219F
330
18
100
AcDbEntity
  8
4
  6
CENTER
 48
0.2
100
AcDbLine
 10
146.9216036775985
 20
251.4056032401934
 30
0.0
 11
146.9216036775985
 21
339.4056069449951
 31
0.0
  0
LINE
  5
21A0
330
18
100
AcDbEntity
  8
1
  6
Continuous
100
AcDbLine
 10
155.821603718856
 20
306.4056056150664
 30
0.0
 11
155.821603718856
 21
256.6837778464935
 31
0.0
  0
LINE
  5
21A1
330
18
100
AcDbEntity
  8
1
  6
Continuous
100
AcDbLine
 10
140.9216033926138
 20
262.9056035489268
 30
0.0
 11
140.9216033926138
 21
285.9385133564312
 31
0.0
  0
LINE
  5
21A2
330
18
100
AcDbEntity
  8
1
  6
Continuous
100
AcDbLine
 10
152.9216039625832
 20
285.9385133564312
 30
0.0
 11
152.9216039625832
 21
262.9056035489268
 31
0.0
  0
LINE
  5
21A3
330
18
100
AcDbEntity
  8
1
  6
Continuous
100
AcDbLine
 10
136.3216031741255
 20
256.4508910604485
 30
0.0
 11
136.321603174126
 21
284.405604570122
 31
0.0
  0
LINE
  5
21A4
330
18
100
AcDbEntity
  8
1
  6
Continuous
100
AcDbLine
 10
142.42160346386
 20
261.6556034679661
 30
0.0
 11
142.42160346386
 21
284.4573829475807
 31
0.0
  0
LINE
  5
21A5
330
18
100
AcDbEntity
  8
1
  6
Continuous
100
AcDbLine
 10
151.421603891337
 20
261.6556034679662
 30
0.0
 11
151.421603891337
 21
284.4573829475803
 31
0.0
  0
LINE
  5
21A6
330
18
100
AcDbEntity
  8
1
  6
Continuous
100
AcDbLine
 10
158.8216038613484
 20
284.405604570122
 30
0.0
 11
158.8216038613484
 21
256.6837778464938
 31
0.0
  0
LINE
  5
21A7
330
18
100
AcDbEntity
  8
1
  6
Continuous
100
AcDbLine
 10
160.921495146255
 20
289.1056048076093
 30
0.0
 11
160.9214951462549
 21
260.4276482634893
 31
0.0
  0
LINE
  5
21A8
330
18
100
AcDbEntity
  8
1
  6
Continuous
100
AcDbLine
 10
132.9217122089421
 20
289.1056048076091
 30
0.0
 11
132.9217122089421
 21
260.4276482634893
 31
0.0
  0
LINE
  5
21A9
330
18
100
AcDbEntity
  8
1
  6
Continuous
100
AcDbLine
 10
141.6716034282369
 20
260.9056034539319
 30
0.0
 11
139.1716033094933
 21
260.9056034539319
 31
0.0
  0
LINE
  5
21AA
330
18
100
AcDbEntity
  8
1
  6
Continuous
100
AcDbLine
 10
139.1716033094933
 20
262.405603525178
 30
0.0
 11
140.4216033688651
 21
262.405603525178
 31
0.0
  0
LINE
  5
21AB
330
18
100
AcDbEntity
  8
1
  6
Continuous
100
AcDbLine
 10
136.921603202624
 20
256.4056032401933
 30
0.0
 11
155.8286716627278
 21
256.4056032401933
 31
0.0
  0
ARC
  5
21AC
330
18
100
AcDbEntity
  8
1
  6
Continuous
100
AcDbCircle
 10
154.6715652610576
 20
261.655603489555
 30
0.0
 40
0.7500089663596187
100
AcDbArc
 50
270.0029629285704
 51
89.99703707143281
  0
ARC
  5
21AD
330
18
100
AcDbEntity
  8
1
  6
Continuous
100
AcDbCircle
 10
156.9217195730606
 20
260.4054880096953
 30
0.0
 40
3.999836960764231
100
AcDbArc
 50
298.3587270969637
 51
0.3174368163892043
  0
ARC
  5
21AE
330
18
100
AcDbEntity
  8
1
  6
Continuous
100
AcDbCircle
 10
158.3220622686399
 20
248.3702588409615
 30
0.0
 40
5.49950405903875
100
AcDbArc
 50
359.9980216897098
 51
45.00197831049342
  0
ARC
  5
21B1
330
18
100
AcDbEntity
  8
1
  6
Continuous
100
AcDbCircle
 10
161.3213956020833
 20
256.6836915334621
 30
0.0
 40
2.499774572015069
100
AcDbArc
 50
179.9980216862266
 51
225.0019783126398
  0
ARC
  5
21B2
330
18
100
AcDbEntity
  8
1
  6
Continuous
100
AcDbCircle
 10
161.3211455486189
 20
256.6835879579596
 30
0.0
 40
5.499504058595416
100
AcDbArc
 50
179.9980216876393
 51
225.0019783125932
  0
LINE
  5
21B3
330
18
100
AcDbEntity
  8
1
  6
Continuous
100
AcDbLine
 10
159.5538369431615
 20
254.9160108095503
 30
0.0
 11
162.2106913188476
 21
252.2591564338564
 31
0.0
  0
LINE
  5
21B4
330
18
100
AcDbEntity
  8
1
  6
Continuous
100
AcDbLine
 10
157.4325164988301
 20
252.7946903651987
 30
0.0
 11
160.0893708745161
 21
250.1378359895047
 31
0.0
  0
ARC
  5
21B5
330
18
100
AcDbEntity
  8
1
  6
Continuous
100
AcDbCircle
 10
158.3218122157077
 20
248.3701552656048
 30
0.0
 40
2.499774571916815
100
AcDbArc
 50
359.9980216874399
 51
45.00197831428756
  0
ARC
  5
21B6
330
18
100
AcDbEntity
  8
1
  6
Continuous
100
AcDbCircle
 10
152.1714062724361
 20
261.6554058350312
 30
0.0
 40
0.7497205099137432
100
AcDbArc
 50
179.9848963272999
 51
270.0151036727187
  0
LINE
  5
21B7
330
18
100
AcDbEntity
  8
1
  6
Continuous
100
AcDbLine
 10
153.421603986332
 20
262.405603525178
 30
0.0
 11
154.6716040457038
 21
262.405603525178
 31
0.0
  0
ARC
  5
21B8
330
18
100
AcDbEntity
  8
1
  6
Continuous
100
AcDbCircle
 10
153.4214722166423
 20
262.9054717792379
 30
0.0
 40
0.4998136732682931
100
AcDbArc
 50
179.9848963265769
 51
270.0151036735231
  0
LINE
  5
21B9
330
18
100
AcDbEntity
  8
1
  6
Continuous
100
AcDbLine
 10
154.6716040457038
 20
260.9056034539319
 30
0.0
 11
152.17160392696
 21
260.9056034539319
 31
0.0
  0
ARC
  5
21BA
330
18
100
AcDbEntity
  8
1
  6
Continuous
100
AcDbCircle
 10
141.671801082761
 20
261.6554058350311
 30
0.0
 40
0.7497205099136323
100
AcDbArc
 50
269.9848963272748
 51
0.0151036727073462
  0
ARC
  5
21BB
330
18
100
AcDbEntity
  8
1
  6
Continuous
100
AcDbCircle
 10
140.4217351385548
 20
262.9054717792379
 30
0.0
 40
0.4998136732682504
100
AcDbArc
 50
269.9848963264768
 51
0.0151036734271184
  0
ARC
  5
21BC
330
18
100
AcDbEntity
  8
1
  6
Continuous
100
AcDbCircle
 10
136.9214877821364
 20
260.4054880096953
 30
0.0
 40
3.999836960764231
100
AcDbArc
 50
179.6825631836116
 51
238.3322959050551
  0
ARC
  5
21BD
330
18
100
AcDbEntity
  8
1
  6
Continuous
100
AcDbCircle
 10
136.9214877821361
 20
260.4054880096953
 30
0.0
 40
3.999836960764215
100
AcDbArc
 50
238.3322959050554
 51
270.0016533243318
  0
ARC
  5
21BE
330
18
100
AcDbEntity
  8
1
  6
Continuous
100
AcDbCircle
 10
139.1716420941395
 20
261.6556034895549
 30
0.0
 40
0.7500089663596418
100
AcDbArc
 50
90.00296292857374
 51
269.9970370714262
  0
ARC
  5
21C0
330
18
100
AcDbEntity
  8
1
  6
Continuous
100
AcDbCircle
 10
137.7813608828964
 20
308.8288154549268
 30
0.0
 40
2.226414744131635
100
AcDbArc
 50
309.1039140140998
 51
23.43818613325092
  0
ARC
  5
21C1
330
18
100
AcDbEntity
  8
1
  6
Continuous
100
AcDbCircle
 10
137.7103180422482
 20
296.9757994150401
 30
0.0
 40
6.922876781663242
100
AcDbArc
 50
75.20646840073091
 51
86.09255829685197
  0
ARC
  5
21C3
330
18
100
AcDbEntity
  8
1
  6
Continuous
100
AcDbCircle
 10
146.9217567527486
 20
296.4054204444818
 30
0.0
 40
13.20020897135273
100
AcDbArc
 50
97.28485373147456
 51
126.694348256476
  0
ARC
  5
21C4
330
18
100
AcDbEntity
  8
1
  6
Continuous
100
AcDbCircle
 10
137.7103180422482
 20
295.8354162283881
 30
0.0
 40
6.922876781663242
100
AcDbArc
 50
273.907441703148
 51
284.7935315992692
  0
LINE
  5
21C5
330
18
100
AcDbEntity
  8
4
  6
CENTER
 48
0.2
100
AcDbLine
 10
165.9214951462554
 20
296.405607821714
 30
0.0
 11
127.9216030126342
 21
296.405607821714
 31
0.0
  0
LINE
  5
21C6
330
18
100
AcDbEntity
  8
1
  6
Continuous
100
AcDbLine
 10
161.9216043900603
 20
289.6056048076092
 30
0.0
 11
161.9216043900603
 21
291.2056049026042
 31
0.0
  0
LINE
  5
21C7
330
18
100
AcDbEntity
  8
1
  6
Continuous
100
AcDbLine
 10
156.7840701366178
 20
288.4056050101117
 30
0.0
 11
156.7840701366185
 21
304.405605520071
 31
0.0
  0
CIRCLE
  5
21C8
330
18
100
AcDbEntity
  8
1
  6
Continuous
100
AcDbCircle
 10
146.9216036776051
 20
296.405607821714
 30
0.0
 40
6.874989534311633
  0
LINE
  5
21C9
330
18
100
AcDbEntity
  8
1
  6
Continuous
100
AcDbLine
 10
158.0216042048202
 20
284.4056043831526
 30
0.0
 11
158.0216042048202
 21
308.405605710061
 31
0.0
  0
ARC
  5
21CA
330
18
100
AcDbEntity
  8
1
  6
Continuous
100
AcDbCircle
 10
156.1571341970132
 20
296.0440349096995
 30
0.0
 40
7.132669651225691
100
AcDbArc
 50
255.4376939279965
 51
266.0124526669926
  0
LINE
  5
21CB
330
18
100
AcDbEntity
  8
1
  6
Continuous
100
AcDbLine
 10
156.7840701376865
 20
284.4056045809577
 30
0.0
 11
156.9443422331344
 21
286.0316658782245
 31
0.0
  0
LINE
  5
21D0
330
18
100
AcDbEntity
  8
1
  6
Continuous
100
AcDbLine
 10
156.9443422331337
 20
286.7795434520124
 30
0.0
 11
156.7840701258053
 21
288.4056048698118
 31
0.0
  0
LINE
  5
21D1
330
18
100
AcDbEntity
  8
1
  6
Continuous
100
AcDbLine
 10
158.0216042048202
 20
288.4056047601117
 30
0.0
 11
156.7840701366178
 21
288.4056047601119
 31
0.0
  0
LINE
  5
21D2
330
18
100
AcDbEntity
  8
1
  6
Continuous
100
AcDbLine
 10
158.0216042048202
 20
286.0302757323184
 30
0.0
 11
156.9443422331344
 21
286.0302757323184
 31
0.0
  0
ARC
  5
21D3
330
18
100
AcDbEntity
  8
1
  6
Continuous
100
AcDbCircle
 10
152.197583243711
 20
286.4056100283687
 30
0.0
 40
4.761465228268666
100
AcDbArc
 50
355.4956723655777
 51
4.504327634317044
  0
LINE
  5
21D6
330
18
100
AcDbEntity
  8
1
  6
Continuous
100
AcDbLine
 10
161.221495146255
 20
289.4056048076093
 30
0.0
 11
161.7216043900603
 21
289.4056048076091
 31
0.0
  0
LINE
  5
21DA
330
18
100
AcDbEntity
  8
1
  6
Continuous
100
AcDbLine
 10
156.521604133574
 20
284.405604570122
 30
0.0
 11
160.9214951809792
 21
284.405604570122
 31
0.0
  0
LINE
  5
21DB
330
18
100
AcDbEntity
  8
1
  6
Continuous
100
AcDbLine
 10
143.9216035351062
 20
283.1406129910078
 30
0.0
 11
143.9216035351062
 21
271.4056936670283
 31
0.0
  0
LINE
  5
21DC
330
18
100
AcDbEntity
  8
1
  6
Continuous
100
AcDbLine
 10
149.9216038200909
 20
283.1406129910081
 30
0.0
 11
149.9216038200909
 21
271.4056936670262
 31
0.0
  0
LINE
  5
21DD
330
18
100
AcDbEntity
  8
1
  6
Continuous
100
AcDbLine
 10
151.421603891337
 20
271.4056936670262
 30
0.0
 11
149.9216038200909
 21
271.4056936670262
 31
0.0
  0
LINE
  5
21DE
330
18
100
AcDbEntity
  8
1
  6
Continuous
100
AcDbLine
 10
143.9216035351062
 20
271.4056936670283
 30
0.0
 11
142.42160346386
 21
271.4056936670283
 31
0.0
  0
ARC
  5
21DF
330
18
100
AcDbEntity
  8
1
  6
Continuous
100
AcDbCircle
 10
146.9216036775985
 20
296.4043697567351
 30
0.0
 40
10.59876512011322
100
AcDbArc
 50
259.7081085296574
 51
280.2918914703425
  0
ARC
  5
21E0
330
18
100
AcDbEntity
  8
1
  6
Continuous
100
AcDbCircle
 10
146.9216036775985
 20
296.4056051400915
 30
0.0
 40
9.000000427477074
100
AcDbArc
 50
263.6666537883229
 51
276.333346211677
  0
LINE
  5
21E1
330
18
100
AcDbEntity
  8
1
  6
Continuous
100
AcDbLine
 10
146.1352078355681
 20
287.7532642394233
 30
0.0
 11
147.7079995196288
 21
287.7532642394233
 31
0.0
  0
ARC
  5
21E2
330
18
100
AcDbEntity
  8
1
  6
Continuous
100
AcDbCircle
 10
146.9216036775985
 20
296.545243187841
 30
0.0
 40
12.52339657601586
100
AcDbArc
 50
249.6290752822469
 51
290.370924717753
  0
ARC
  5
21E3
330
18
100
AcDbEntity
  8
1
  6
Continuous
100
AcDbCircle
 10
146.9216036775985
 20
296.4046920680136
 30
0.0
 40
12.09908855836189
100
AcDbArc
 50
251.4892223375985
 51
288.5107776623772
  0
ARC
  5
21E4
330
18
100
AcDbEntity
  8
1
  6
Continuous
100
AcDbCircle
 10
146.9216036775985
 20
296.4020505369925
 30
0.0
 40
13.59644641966492
100
AcDbArc
 50
257.2531188764608
 51
282.7468811235391
  0
ARC
  5
21E5
330
18
100
AcDbEntity
  8
1
  6
Continuous
100
AcDbCircle
 10
146.9201268790589
 20
296.4095641536744
 30
0.0
 40
12.00421398015077
100
AcDbArc
 50
285.6901291282263
 51
290.3115983922699
  0
ARC
  5
21E6
330
18
100
AcDbEntity
  8
1
  6
Continuous
100
AcDbCircle
 10
150.9217651946103
 20
284.4576070837494
 30
0.0
 40
0.4997238654090557
100
AcDbArc
 50
44.0437407513341
 51
108.5350946209441
  0
ARC
  5
21E7
330
18
100
AcDbEntity
  8
1
  6
Continuous
100
AcDbCircle
 10
151.0351504757482
 20
285.2923349328922
 30
0.0
 40
0.1498345747311519
100
AcDbArc
 50
290.2839731547823
 51
342.0284283752655
  0
ARC
  5
21E8
330
18
100
AcDbEntity
  8
1
  6
Continuous
100
AcDbCircle
 10
151.459306378937
 20
288.8221227904958
 30
0.0
 40
0.1500093965487873
100
AcDbArc
 50
126.005865056548
 51
217.8245786124813
  0
ARC
  5
21E9
330
18
100
AcDbEntity
  8
1
  6
Continuous
100
AcDbCircle
 10
147.707984162907
 20
287.603244315591
 30
0.0
 40
0.1500093965491177
100
AcDbArc
 50
359.1303434662773
 51
89.99413494337124
  0
ARC
  5
21EA
330
18
100
AcDbEntity
  8
1
  6
Continuous
100
AcDbCircle
 10
150.1258907432561
 20
284.9968985367585
 30
0.0
 40
0.149834574670742
100
AcDbArc
 50
233.971571615288
 51
285.7160268570218
  0
ARC
  5
21EB
330
18
100
AcDbEntity
  8
1
  6
Continuous
100
AcDbCircle
 10
145.7374255967283
 20
287.2466811213994
 30
0.0
 40
5.796429548290852
100
AcDbArc
 50
339.8097437092287
 51
14.82837996242951
  0
ARC
  5
21EE
330
18
100
AcDbEntity
  8
1
  6
Continuous
100
AcDbCircle
 10
153.2678723412802
 20
289.6937061921549
 30
0.0
 40
5.800562956048652
100
AcDbArc
 50
201.1482289013078
 51
236.1609488353725
  0
ARC
  5
21EF
330
18
100
AcDbEntity
  8
1
  6
Continuous
100
AcDbCircle
 10
150.9217502135006
 20
284.457601027108
 30
0.0
 40
0.4997388438377726
100
AcDbArc
 50
359.975002208862
 51
44.05051252923809
  0
ARC
  5
21F0
330
18
100
AcDbEntity
  8
1
  6
Continuous
100
AcDbCircle
 10
152.731696732256
 20
289.7465684944048
 30
0.0
 40
0.1500093965494623
100
AcDbArc
 50
50.7380260068513
 51
125.9941349433301
  0
ARC
  5
21F1
330
18
100
AcDbEntity
  8
1
  6
Continuous
100
AcDbCircle
 10
155.2619939572157
 20
293.0490624153908
 30
0.0
 40
4.010445930138959
100
AcDbArc
 50
232.6088731017042
 51
257.0572963388101
  0
ARC
  5
21F2
330
18
100
AcDbEntity
  8
1
  6
Continuous
100
AcDbCircle
 10
151.9216404522546
 20
285.9385713015603
 30
0.0
 40
0.9999315449200508
100
AcDbArc
 50
359.9966798675052
 51
113.6464718531621
  0
ARC
  5
21F3
330
18
100
AcDbEntity
  8
1
  6
Continuous
100
AcDbCircle
 10
146.9216036775985
 20
296.4056051400915
 30
0.0
 40
9.000000427477074
100
AcDbArc
 50
299.6729808211271
 51
312.3167648837677
  0
LINE
  5
21F4
330
18
100
AcDbEntity
  8
1
  6
Continuous
100
AcDbLine
 10
151.3711144563101
 20
288.9434824319155
 30
0.0
 11
152.6435296573263
 21
289.867946188735
 31
0.0
  0
ARC
  5
21F5
330
18
100
AcDbEntity
  8
1
  6
Continuous
100
AcDbCircle
 10
141.9215669029424
 20
285.9385713015604
 30
0.0
 40
0.9999315449199864
100
AcDbArc
 50
65.87809450894432
 51
180.0033201324916
  0
ARC
  5
21F6
330
18
100
AcDbEntity
  8
1
  6
Continuous
100
AcDbCircle
 10
146.9216036775985
 20
296.4056051400915
 30
0.0
 40
9.000000427477074
100
AcDbArc
 50
227.6832351162322
 51
240.3270191788726
  0
LINE
  5
21F7
330
18
100
AcDbEntity
  8
1
  6
Continuous
100
AcDbLine
 10
141.1996776978708
 20
289.8679461887352
 30
0.0
 11
142.472092898887
 21
288.9434824319157
 31
0.0
  0
ARC
  5
21F8
330
18
100
AcDbEntity
  8
1
  6
Continuous
100
AcDbCircle
 10
141.111510622941
 20
289.746568494405
 30
0.0
 40
0.1500093965494488
100
AcDbArc
 50
54.00586505669736
 51
129.2619739931497
  0
ARC
  5
21F9
330
18
100
AcDbEntity
  8
1
  6
Continuous
100
AcDbCircle
 10
142.38390097626
 20
288.8221227904958
 30
0.0
 40
0.150009396548802
100
AcDbArc
 50
322.1754213875186
 51
53.99413494348404
  0
ARC
  5
21FA
330
18
100
AcDbEntity
  8
1
  6
Continuous
100
AcDbCircle
 10
142.8080568794489
 20
285.2923349328922
 30
0.0
 40
0.1498345747311227
100
AcDbArc
 50
197.9715716247257
 51
249.7160268452834
  0
ARC
  5
21FB
330
18
100
AcDbEntity
  8
1
  6
Continuous
100
AcDbCircle
 10
146.9230804677761
 20
296.4095641276117
 30
0.0
 40
12.00421395279558
100
AcDbArc
 50
249.6884016019792
 51
254.3098708765574
  0
ARC
  5
21FC
330
18
100
AcDbEntity
  8
1
  6
Continuous
100
AcDbCircle
 10
143.7173166119409
 20
284.9968985367585
 30
0.0
 40
0.1498345746707366
100
AcDbArc
 50
254.2839731430389
 51
306.028428384712
  0
ARC
  5
21FD
330
18
100
AcDbEntity
  8
1
  6
Continuous
100
AcDbCircle
 10
148.1057817584687
 20
287.2466811213994
 30
0.0
 40
5.796429548290852
100
AcDbArc
 50
165.1716200375705
 51
200.190256290772
  0
ARC
  5
21FF
330
18
100
AcDbEntity
  8
1
  6
Continuous
100
AcDbCircle
 10
138.5812133979813
 20
293.0490624153908
 30
0.0
 40
4.010445930138959
100
AcDbArc
 50
282.9427036611897
 51
307.3911268982957
  0
ARC
  5
2200
330
18
100
AcDbEntity
  8
1
  6
Continuous
100
AcDbCircle
 10
142.9214571416964
 20
284.457601027108
 30
0.0
 40
0.4997388438377726
100
AcDbArc
 50
135.9494874707619
 51
180.0249977911379
  0
ARC
  5
2201
330
18
100
AcDbEntity
  8
1
  6
Continuous
100
AcDbCircle
 10
142.9214421605868
 20
284.4576070837494
 30
0.0
 40
0.4997238654090557
100
AcDbArc
 50
71.46490537905589
 51
135.9562592486659
  0
ARC
  5
2202
330
18
100
AcDbEntity
  8
1
  6
Continuous
100
AcDbCircle
 10
146.1352231922901
 20
287.603244315591
 30
0.0
 40
0.15000939654912
100
AcDbArc
 50
90.00586505660596
 51
180.8696565337226
  0
ARC
  5
2204
330
18
100
AcDbEntity
  8
1
  6
Continuous
100
AcDbCircle
 10
140.5753350139168
 20
289.6937061921549
 30
0.0
 40
5.800562956048652
100
AcDbArc
 50
303.8390511646273
 51
338.8517710986922
  0
LINE
  5
2205
330
18
100
AcDbEntity
  8
1
  6
Continuous
100
AcDbLine
 10
154.8091832978154
 20
306.9898046879727
 30
0.0
 11
155.4216038192289
 21
306.5045744773096
 31
0.0
  0
ARC
  5
2206
330
18
100
AcDbEntity
  8
1
  6
Continuous
100
AcDbCircle
 10
156.1571341970132
 20
296.7671807337291
 30
0.0
 40
7.132669651225352
100
AcDbArc
 50
93.9875473330076
 51
104.5623060720042
  0
ARC
  5
2207
330
18
100
AcDbEntity
  8
1
  6
Continuous
100
AcDbCircle
 10
154.9405744600039
 20
306.2532079599278
 30
0.0
 40
0.303784302821224
100
AcDbArc
 50
240.3037686635272
 51
359.3499317365834
  0
ARC
  5
2209
330
18
100
AcDbEntity
  8
1
  6
Continuous
100
AcDbCircle
 10
146.9214506023395
 20
296.4054204442376
 30
0.0
 40
13.20020897161506
100
AcDbArc
 50
53.30565233784203
 51
82.71514626814461
  0
ARC
  5
220B
330
18
100
AcDbEntity
  8
1
  6
Continuous
100
AcDbCircle
 10
146.9216036775985
 20
296.4056051400915
 30
0.0
 40
9.000000427477074
100
AcDbArc
 50
335.6887687736549
 51
348.3125348903691
  0
LINE
  5
220C
330
18
100
AcDbEntity
  8
1
  6
Continuous
100
AcDbLine
 10
154.9074591928933
 20
292.9839778707088
 30
0.0
 11
155.3934785518788
 21
294.4797916506098
 31
0.0
  0
LINE
  5
220D
330
18
100
AcDbEntity
  8
1
  6
Continuous
100
AcDbLine
 10
155.5446875816371
 20
294.5831952019935
 30
0.0
 11
155.8217969131071
 21
294.5821065470164
 31
0.0
  0
ARC
  5
220E
330
18
100
AcDbEntity
  8
1
  6
Continuous
100
AcDbCircle
 10
155.0501413645126
 20
292.937633769859
 30
0.0
 40
0.1500093965459348
100
AcDbArc
 50
162.0058650557495
 51
237.2619739938077
  0
ARC
  5
220F
330
18
100
AcDbEntity
  8
1
  6
Continuous
100
AcDbCircle
 10
155.5361512325255
 20
294.4334183395408
 30
0.0
 40
0.1500093965487738
100
AcDbArc
 50
86.73802600673633
 51
161.9941349435161
  0
ARC
  5
2210
330
18
100
AcDbEntity
  8
1
  6
Continuous
100
AcDbCircle
 10
146.9216036775985
 20
296.4056051400915
 30
0.0
 40
9.000000427477074
100
AcDbArc
 50
11.68746898374076
 51
24.31125912165527
  0
LINE
  5
2211
330
18
100
AcDbEntity
  8
1
  6
Continuous
100
AcDbLine
 10
155.8217809159605
 20
298.2291045386521
 30
0.0
 11
155.5446875816371
 21
298.2280150781893
 31
0.0
  0
LINE
  5
2212
330
18
100
AcDbEntity
  8
1
  6
Continuous
100
AcDbLine
 10
155.3934785518788
 20
298.3314186295729
 30
0.0
 11
154.907459192893
 21
299.8272324094737
 31
0.0
  0
ARC
  5
2213
330
18
100
AcDbEntity
  8
1
  6
Continuous
100
AcDbCircle
 10
155.5361512325255
 20
298.377791940642
 30
0.0
 40
0.1500093965487705
100
AcDbArc
 50
198.0058650565384
 51
273.2619739932636
  0
ARC
  5
2214
330
18
100
AcDbEntity
  8
1
  6
Continuous
100
AcDbCircle
 10
155.0501413645126
 20
299.8735765103239
 30
0.0
 40
0.1500093965459428
100
AcDbArc
 50
122.7380260061998
 51
197.9941349443129
  0
ARC
  5
2216
330
18
100
AcDbEntity
  8
1
  6
Continuous
100
AcDbCircle
 10
152.919708202328
 20
303.0126501863767
 30
0.0
 40
3.643787648515759
100
AcDbArc
 50
304.222737427089
 51
322.7872487183724
  0
LINE
  5
2219
330
18
100
AcDbEntity
  8
1
  6
Continuous
100
AcDbLine
 10
161.2214951462554
 20
301.4056053775787
 30
0.0
 11
161.7216043900603
 21
301.4056053775787
 31
0.0
  0
LINE
  5
221D
330
18
100
AcDbEntity
  8
1
  6
Continuous
100
AcDbLine
 10
161.7216043900603
 20
291.4056049026041
 30
0.0
 11
161.2214951462552
 21
291.4056049026041
 31
0.0
  0
LINE
  5
2220
330
18
100
AcDbEntity
  8
1
  6
Continuous
100
AcDbLine
 10
160.9214951462554
 20
301.1056053775786
 30
0.0
 11
160.9214951462552
 21
291.7056049026042
 31
0.0
  0
ARC
  5
2221
330
18
100
AcDbEntity
  8
1
  6
Continuous
100
AcDbCircle
 10
152.919708202328
 20
289.7985654570514
 30
0.0
 40
3.643787648515759
100
AcDbArc
 50
38.07507038906649
 51
55.77726257291093
  0
LINE
  5
2222
330
18
100
AcDbEntity
  8
1
  6
Continuous
100
AcDbLine
 10
156.9443422331337
 20
306.7795444019572
 30
0.0
 11
156.7840701243433
 21
308.4056058345938
 31
0.0
  0
LINE
  5
2223
330
18
100
AcDbEntity
  8
1
  6
Continuous
100
AcDbLine
 10
156.7840701529762
 20
304.4056056860308
 30
0.0
 11
156.9443422331344
 21
306.0316668281705
 31
0.0
  0
LINE
  5
2224
330
18
100
AcDbEntity
  8
1
  6
Continuous
100
AcDbLine
 10
158.0216042048202
 20
304.4056055200714
 30
0.0
 11
156.7840701529762
 21
304.4056055200714
 31
0.0
  0
LINE
  5
2226
330
18
100
AcDbEntity
  8
1
  6
Continuous
100
AcDbLine
 10
155.4216040813269
 20
304.4508647094867
 30
0.0
 11
155.4216040813269
 21
306.5045742567095
 31
0.0
  0
LINE
  5
2227
330
18
100
AcDbEntity
  8
1
  6
Continuous
100
AcDbLine
 10
156.521604133574
 20
306.4056056150659
 30
0.0
 11
155.821603718856
 21
306.4056056150659
 31
0.0
  0
ARC
  5
2228
330
18
100
AcDbEntity
  8
1
  6
Continuous
100
AcDbCircle
 10
155.6715710295072
 20
303.7329141458136
 30
0.0
 40
0.1500082929568982
100
AcDbArc
 50
0.0135412827468715
 51
93.99023327730265
  0
LINE
  5
2229
330
18
100
AcDbEntity
  8
1
  6
Continuous
100
AcDbLine
 10
156.521604133574
 20
308.405605710061
 30
0.0
 11
158.3216042274666
 21
308.405605710061
 31
0.0
  0
ARC
  5
222A
330
18
100
AcDbEntity
  8
1
  6
Continuous
100
AcDbCircle
 10
152.197583243711
 20
306.4056056150594
 30
0.0
 40
4.761465228268666
100
AcDbArc
 50
355.4956723656829
 51
4.504327634422281
  0
ARC
  5
222B
330
18
100
AcDbEntity
  8
1
  6
Continuous
100
AcDbCircle
 10
149.2304607325429
 20
304.7489668837029
 30
0.0
 40
6.198315768825416
100
AcDbArc
 50
351.7154546841285
 51
14.01225329408416
  0
LINE
  5
222C
330
18
100
AcDbEntity
  8
1
  6
Continuous
100
AcDbLine
 10
158.0216042048202
 20
306.0302177469488
 30
0.0
 11
156.9443422331344
 21
306.0302177469487
 31
0.0
  0
LINE
  5
222E
330
18
100
AcDbEntity
  8
1
  6
Continuous
100
AcDbLine
 10
161.7216043900603
 20
303.4056054725736
 30
0.0
 11
161.2214951462554
 21
303.4056054725735
 31
0.0
  0
LINE
  5
2231
330
18
100
AcDbEntity
  8
1
  6
Continuous
100
AcDbLine
 10
161.9216043900603
 20
301.6056053775786
 30
0.0
 11
161.9216043900603
 21
303.2056054725736
 31
0.0
  0
LINE
  5
2232
330
18
100
AcDbEntity
  8
1
  6
Continuous
100
AcDbLine
 10
143.3716035089826
 20
300.4556053324561
 30
0.0
 11
150.4716038462145
 21
300.4556053324561
 31
0.0
  0
LINE
  5
2233
330
18
100
AcDbEntity
  8
1
  6
Continuous
100
AcDbLine
 10
150.4716038462145
 20
292.3556049477266
 30
0.0
 11
143.3716035089826
 21
292.3556049477266
 31
0.0
  0
LINE
  5
2234
330
18
100
AcDbEntity
  8
1
  6
Continuous
100
AcDbLine
 10
150.9716038699632
 20
299.9556053087074
 30
0.0
 11
150.9716038699632
 21
292.8556049714755
 31
0.0
  0
ARC
  5
2235
330
18
100
AcDbEntity
  8
1
  6
Continuous
100
AcDbCircle
 10
150.4715968772272
 20
299.95559833972
 30
0.0
 40
0.4999970186085692
100
AcDbArc
 50
0.0007985759525328
 51
89.99920142404908
  0
ARC
  5
2236
330
18
100
AcDbEntity
  8
1
  6
Continuous
100
AcDbCircle
 10
150.4715968772272
 20
292.8556119404627
 30
0.0
 40
0.4999970186085692
100
AcDbArc
 50
270.0007985759508
 51
359.9992014240492
  0
LINE
  5
2237
330
18
100
AcDbEntity
  8
1
  6
Continuous
100
AcDbLine
 10
142.8716034852338
 20
292.8556049714755
 30
0.0
 11
142.8716034852338
 21
299.9556053087074
 31
0.0
  0
ARC
  5
2238
330
18
100
AcDbEntity
  8
1
  6
Continuous
100
AcDbCircle
 10
143.3716104779698
 20
299.95559833972
 30
0.0
 40
0.4999970186085692
100
AcDbArc
 50
90.00079857595091
 51
179.9992014240483
  0
ARC
  5
2239
330
18
100
AcDbEntity
  8
1
  6
Continuous
100
AcDbCircle
 10
143.3716104779698
 20
292.8556119404627
 30
0.0
 40
0.4999970186085692
100
AcDbArc
 50
180.0007985759526
 51
269.9992014240491
  0
ARC
  5
223A
330
18
100
AcDbEntity
  8
1
  6
Continuous
100
AcDbCircle
 10
146.9216036775985
 20
296.4056051400914
 30
0.0
 40
10.40035043951771
100
AcDbArc
 50
80.30674396760161
 51
99.6780650570129
  0
ARC
  5
223B
330
18
100
AcDbEntity
  8
1
  6
Continuous
100
AcDbCircle
 10
146.9216036775985
 20
296.4056051400915
 30
0.0
 40
9.000000427477074
100
AcDbArc
 50
83.66666748447062
 51
96.33326032948222
  0
LINE
  5
223C
330
18
100
AcDbEntity
  8
1
  6
Continuous
100
AcDbLine
 10
147.7079995196288
 20
305.0579460407595
 30
0.0
 11
146.1352078355681
 21
305.0579460407595
 31
0.0
  0
ARC
  5
223D
330
18
100
AcDbEntity
  8
1
  6
Continuous
100
AcDbCircle
 10
146.9216036775985
 20
313.4058047526724
 30
0.0
 40
4.250138119470656
100
AcDbArc
 50
246.8094231131068
 51
293.1905768870633
  0
ARC
  5
223E
330
18
100
AcDbEntity
  8
1
  6
Continuous
100
AcDbCircle
 10
146.9216036775985
 20
296.4053047878712
 30
0.0
 40
12.40025334667348
100
AcDbArc
 50
50.61401205004788
 51
128.9246278057386
  0
ARC
  5
223F
330
18
100
AcDbEntity
  8
1
  6
Continuous
100
AcDbCircle
 10
146.9212833542085
 20
296.4040371076928
 30
0.0
 40
12.00158392844099
100
AcDbArc
 50
69.68961704170395
 51
74.31209928061888
  0
ARC
  5
2240
330
18
100
AcDbEntity
  8
1
  6
Continuous
100
AcDbCircle
 10
151.459306378937
 20
303.989087489687
 30
0.0
 40
0.1500093965487981
100
AcDbArc
 50
158.7380260068087
 51
233.9941349434881
  0
ARC
  5
2241
330
18
100
AcDbEntity
  8
1
  6
Continuous
100
AcDbCircle
 10
151.0351504757482
 20
307.5188753472906
 30
0.0
 40
0.1498345747311227
100
AcDbArc
 50
17.97157162472573
 51
69.71602684528335
  0
ARC
  5
2242
330
18
100
AcDbEntity
  8
1
  6
Continuous
100
AcDbCircle
 10
147.707984162907
 20
305.2079659645918
 30
0.0
 40
0.15000939654912
100
AcDbArc
 50
270.0058650566059
 51
345.2619739929478
  0
ARC
  5
2243
330
18
100
AcDbEntity
  8
1
  6
Continuous
100
AcDbCircle
 10
150.1258907432561
 20
307.8143117434243
 30
0.0
 40
0.1498345746707366
100
AcDbArc
 50
74.28397314303897
 51
126.028428384712
  0
ARC
  5
2244
330
18
100
AcDbEntity
  8
1
  6
Continuous
100
AcDbCircle
 10
145.7374255967283
 20
305.5645345220287
 30
0.0
 40
5.796429548290852
100
AcDbArc
 50
346.6423444290648
 51
20.19025629077202
  0
LINE
  5
2245
330
18
100
AcDbEntity
  8
1
  6
Continuous
100
AcDbLine
 10
151.3770436742165
 20
304.2253917184531
 30
0.0
 11
151.3194979948564
 21
304.0434896359964
 31
0.0
  0
ARC
  5
2246
330
18
100
AcDbEntity
  8
1
  6
Continuous
100
AcDbCircle
 10
153.2678723412802
 20
303.1175094512732
 30
0.0
 40
5.800562956048652
100
AcDbArc
 50
123.8390511646274
 51
157.356774451729
  0
LINE
  5
2247
330
18
100
AcDbEntity
  8
1
  6
Continuous
100
AcDbLine
 10
147.9144165968618
 20
305.3506780968612
 30
0.0
 11
147.8530683008784
 21
305.1698009191764
 31
0.0
  0
ARC
  5
2251
330
18
100
AcDbEntity
  8
1
  6
Continuous
100
AcDbCircle
 10
152.731696732256
 20
303.0646417857778
 30
0.0
 40
0.1500093965494488
100
AcDbArc
 50
234.0058650566974
 51
309.2619739931497
  0
ARC
  5
2252
330
18
100
AcDbEntity
  8
1
  6
Continuous
100
AcDbCircle
 10
155.2619939572157
 20
299.7621532280374
 30
0.0
 40
4.010445930138959
100
AcDbArc
 50
102.9427036611898
 51
127.3911268982957
  0
ARC
  5
2253
330
18
100
AcDbEntity
  8
1
  6
Continuous
100
AcDbCircle
 10
146.9216036775985
 20
296.4056051400914
 30
0.0
 40
10.40035043951771
100
AcDbArc
 50
44.31033889650426
 51
63.68871007579254
  0
ARC
  5
2254
330
18
100
AcDbEntity
  8
1
  6
Continuous
100
AcDbCircle
 10
146.9216036775985
 20
296.4056051400915
 30
0.0
 40
9.000000427477074
100
AcDbArc
 50
47.68326393749831
 51
60.32702739797209
  0
LINE
  5
2255
330
18
100
AcDbEntity
  8
1
  6
Continuous
100
AcDbLine
 10
152.6435296573263
 20
302.9432640914476
 30
0.0
 11
151.3711144563101
 21
303.8677278482671
 31
0.0
  0
ARC
  5
2256
330
18
100
AcDbEntity
  8
1
  6
Continuous
100
AcDbCircle
 10
154.5547129175781
 20
309.7676133398217
 30
0.0
 40
2.192146912551228
100
AcDbArc
 50
157.8277448783431
 51
243.2993231253234
  0
ARC
  5
2257
330
18
100
AcDbEntity
  8
1
  6
Continuous
100
AcDbCircle
 10
146.9216036775985
 20
296.4056051400914
 30
0.0
 40
10.40035043951771
100
AcDbArc
 50
116.3039353459797
 51
135.6737499445427
  0
ARC
  5
2258
330
18
100
AcDbEntity
  8
1
  6
Continuous
100
AcDbCircle
 10
142.38390097626
 20
303.989087489687
 30
0.0
 40
0.1500093965487873
100
AcDbArc
 50
306.005865056548
 51
37.82323662738685
  0
ARC
  5
2259
330
18
100
AcDbEntity
  8
1
  6
Continuous
100
AcDbCircle
 10
139.2884944376189
 20
309.7676133398217
 30
0.0
 40
2.192146912551228
100
AcDbArc
 50
296.7006768746766
 51
22.17225512165679
  0
ARC
  5
225A
330
18
100
AcDbEntity
  8
1
  6
Continuous
100
AcDbCircle
 10
148.1057817584687
 20
305.5645345220287
 30
0.0
 40
5.796429548290852
100
AcDbArc
 50
159.8097437092279
 51
194.8284631810443
  0
ARC
  5
225B
330
18
100
AcDbEntity
  8
1
  6
Continuous
100
AcDbCircle
 10
142.8080568794489
 20
307.5188753472906
 30
0.0
 40
0.1498345747311227
100
AcDbArc
 50
110.2839731547197
 51
162.028428375275
  0
ARC
  5
225C
330
18
100
AcDbEntity
  8
1
  6
Continuous
100
AcDbCircle
 10
146.9219240009886
 20
296.4040371076928
 30
0.0
 40
12.00158392844099
100
AcDbArc
 50
105.6879007193811
 51
110.310382958296
  0
ARC
  5
225D
330
18
100
AcDbEntity
  8
1
  6
Continuous
100
AcDbCircle
 10
143.7173166119409
 20
307.8143117434243
 30
0.0
 40
0.1498345746707366
100
AcDbArc
 50
53.971571615288
 51
105.716026856961
  0
ARC
  5
225F
330
18
100
AcDbEntity
  8
1
  6
Continuous
100
AcDbCircle
 10
146.1352231922901
 20
305.2079659645918
 30
0.0
 40
0.1500093965491154
100
AcDbArc
 50
194.7380260070506
 51
269.9941349433713
  0
LINE
  5
2260
330
18
100
AcDbEntity
  8
1
  6
Continuous
100
AcDbLine
 10
145.9287907583352
 20
305.3506780968612
 30
0.0
 11
145.9901390543186
 21
305.1698009191764
 31
0.0
  0
ARC
  5
2261
330
18
100
AcDbEntity
  8
1
  6
Continuous
100
AcDbCircle
 10
140.5753350139168
 20
303.1175094512732
 30
0.0
 40
5.800562956048652
100
AcDbArc
 50
22.64322554827101
 51
56.16094883537259
  0
ARC
  5
2262
330
18
100
AcDbEntity
  8
1
  6
Continuous
100
AcDbCircle
 10
141.111510622941
 20
303.0646417857778
 30
0.0
 40
0.1500093965494623
100
AcDbArc
 50
230.7380260068513
 51
305.9941349433275
  0
ARC
  5
2263
330
18
100
AcDbEntity
  8
1
  6
Continuous
100
AcDbCircle
 10
146.9216036775985
 20
296.4056051400915
 30
0.0
 40
9.000000427477074
100
AcDbArc
 50
119.6743479868102
 51
132.3338221136842
  0
LINE
  5
2264
330
18
100
AcDbEntity
  8
1
  6
Continuous
100
AcDbLine
 10
142.472092898887
 20
303.8677278482674
 30
0.0
 11
141.1996776978708
 21
302.9432640914478
 31
0.0
  0
ARC
  5
2265
330
18
100
AcDbEntity
  8
1
  6
Continuous
100
AcDbCircle
 10
138.5812133979813
 20
299.7621532280374
 30
0.0
 40
4.010445930138959
100
AcDbArc
 50
52.60887310170425
 51
77.05729633881019
  0
LINE
  5
2266
330
18
100
AcDbEntity
  8
1
  6
Continuous
100
AcDbLine
 10
131.9216029651367
 20
291.2056049026042
 30
0.0
 11
131.9216029651367
 21
289.6056048076092
 31
0.0
  0
LINE
  5
2267
330
18
100
AcDbEntity
  8
1
  6
Continuous
100
AcDbLine
 10
135.8216031503768
 20
284.405604570122
 30
0.0
 11
135.8216031503768
 21
308.4056057100602
 31
0.0
  0
LINE
  5
2268
330
18
100
AcDbEntity
  8
1
  6
Continuous
100
AcDbLine
 10
137.059137218577
 20
288.4056050938314
 30
0.0
 11
137.0591372185772
 21
304.4056051863518
 31
0.0
  0
LINE
  5
226D
330
18
100
AcDbEntity
  8
1
  6
Continuous
100
AcDbLine
 10
132.1216029651367
 20
289.4056048076091
 30
0.0
 11
132.621712208942
 21
289.4056048076091
 31
0.0
  0
LINE
  5
2270
330
18
100
AcDbEntity
  8
1
  6
Continuous
100
AcDbLine
 10
137.0591372308517
 20
284.405604445588
 30
0.0
 11
136.8988651220595
 21
286.0316658782247
 31
0.0
  0
LINE
  5
2272
330
18
100
AcDbEntity
  8
1
  6
Continuous
100
AcDbLine
 10
136.8988651220593
 20
286.779543452012
 30
0.0
 11
137.0591372330104
 21
288.4056049065483
 31
0.0
  0
LINE
  5
2273
330
18
100
AcDbEntity
  8
1
  6
Continuous
100
AcDbLine
 10
137.321603221623
 20
286.4056046651167
 30
0.0
 11
138.021603636341
 21
286.4056046651167
 31
0.0
  0
ARC
  5
2274
330
18
100
AcDbEntity
  8
1
  6
Continuous
100
AcDbCircle
 10
138.1716363256898
 20
289.0782961343692
 30
0.0
 40
0.1500082929568982
100
AcDbArc
 50
180.0135412827476
 51
273.9902332773026
  0
ARC
  5
2275
330
18
100
AcDbEntity
  8
1
  6
Continuous
100
AcDbCircle
 10
141.645624111486
 20
286.4056100283687
 30
0.0
 40
4.761465228268666
100
AcDbArc
 50
175.4956723656829
 51
184.504327634423
  0
LINE
  5
2276
330
18
100
AcDbEntity
  8
1
  6
Continuous
100
AcDbLine
 10
132.9217122089419
 20
284.4056045701222
 30
0.0
 11
137.3216032216232
 21
284.4056045701218
 31
0.0
  0
LINE
  5
2277
330
18
100
AcDbEntity
  8
1
  6
Continuous
100
AcDbLine
 10
137.0591372185792
 20
288.4056047601119
 30
0.0
 11
135.8216031503768
 21
288.4056047601117
 31
0.0
  0
LINE
  5
2278
330
18
100
AcDbEntity
  8
1
  6
Continuous
100
AcDbLine
 10
135.8216031503768
 20
286.0302167970024
 30
0.0
 11
136.8988651220627
 21
286.0302167970023
 31
0.0
  0
LINE
  5
227B
330
18
100
AcDbEntity
  8
1
  6
Continuous
100
AcDbLine
 10
132.1216029651367
 20
301.4056053775787
 30
0.0
 11
132.6216030126342
 21
301.4056053775787
 31
0.0
  0
LINE
  5
227F
330
18
100
AcDbEntity
  8
1
  6
Continuous
100
AcDbLine
 10
132.6216030126342
 20
291.4056049026041
 30
0.0
 11
132.1216029651367
 21
291.4056049026041
 31
0.0
  0
LINE
  5
2283
330
18
100
AcDbEntity
  8
1
  6
Continuous
100
AcDbLine
 10
132.9216030126342
 20
301.1056053775786
 30
0.0
 11
132.9216030126342
 21
291.7056049026042
 31
0.0
  0
ARC
  5
2284
330
18
100
AcDbEntity
  8
1
  6
Continuous
100
AcDbCircle
 10
146.9216036775985
 20
296.4056051400915
 30
0.0
 40
9.000000427477074
100
AcDbArc
 50
191.6874689837424
 51
204.311231226345
  0
LINE
  5
2285
330
18
100
AcDbEntity
  8
1
  6
Continuous
100
AcDbLine
 10
138.0214264392366
 20
294.5821057415307
 30
0.0
 11
138.2985197735599
 21
294.5831952019935
 31
0.0
  0
LINE
  5
2286
330
18
100
AcDbEntity
  8
1
  6
Continuous
100
AcDbLine
 10
138.4497288033182
 20
294.47979165061
 30
0.0
 11
138.9357481623039
 21
292.9839778707091
 31
0.0
  0
ARC
  5
2287
330
18
100
AcDbEntity
  8
1
  6
Continuous
100
AcDbCircle
 10
138.3070561226716
 20
294.4334183395408
 30
0.0
 40
0.1500093965487705
100
AcDbArc
 50
18.00586505653839
 51
93.26197399326366
  0
ARC
  5
2288
330
18
100
AcDbEntity
  8
1
  6
Continuous
100
AcDbCircle
 10
138.7930659906844
 20
292.937633769859
 30
0.0
 40
0.1500093965459428
100
AcDbArc
 50
302.7380260061999
 51
17.99413494431298
  0
ARC
  5
2289
330
18
100
AcDbEntity
  8
1
  6
Continuous
100
AcDbCircle
 10
146.9216036775985
 20
296.4056051400915
 30
0.0
 40
9.000000427477074
100
AcDbArc
 50
155.6887408783446
 51
168.3125348903702
  0
LINE
  5
228A
330
18
100
AcDbEntity
  8
1
  6
Continuous
100
AcDbLine
 10
138.9357481623037
 20
299.827232409474
 30
0.0
 11
138.4497288033182
 21
298.3314186295729
 31
0.0
  0
LINE
  5
228B
330
18
100
AcDbEntity
  8
1
  6
Continuous
100
AcDbLine
 10
138.2985197735599
 20
298.2280150781893
 30
0.0
 11
138.021603636341
 21
298.2291029741812
 31
0.0
  0
ARC
  5
228C
330
18
100
AcDbEntity
  8
1
  6
Continuous
100
AcDbCircle
 10
138.7930659906844
 20
299.8735765103237
 30
0.0
 40
0.1500093965459348
100
AcDbArc
 50
342.0058650557496
 51
57.26197399380776
  0
ARC
  5
228D
330
18
100
AcDbEntity
  8
1
  6
Continuous
100
AcDbCircle
 10
138.3070561226716
 20
298.377791940642
 30
0.0
 40
0.1500093965487758
100
AcDbArc
 50
266.7380260067363
 51
341.9941349435146
  0
ARC
  5
228E
330
18
100
AcDbEntity
  8
1
  6
Continuous
100
AcDbCircle
 10
140.9234991528689
 20
303.0126501863767
 30
0.0
 40
3.643787648515759
100
AcDbArc
 50
217.2127512816282
 51
235.7772625729109
  0
ARC
  5
228F
330
18
100
AcDbEntity
  8
1
  6
Continuous
100
AcDbCircle
 10
138.173601604112
 20
291.9504724033963
 30
0.0
 40
0.1520366584122798
100
AcDbArc
 50
141.2271910467554
 51
179.7329583894129
  0
ARC
  5
2290
330
18
100
AcDbEntity
  8
1
  6
Continuous
100
AcDbCircle
 10
140.9234991528689
 20
289.7985654570514
 30
0.0
 40
3.643787648515759
100
AcDbArc
 50
124.222737427089
 51
141.9249296109335
  0
LINE
  5
2293
330
18
100
AcDbEntity
  8
1
  6
Continuous
100
AcDbLine
 10
132.6216030126342
 20
303.4056054725735
 30
0.0
 11
132.1216029651367
 21
303.4056054725736
 31
0.0
  0
LINE
  5
2297
330
18
100
AcDbEntity
  8
1
  6
Continuous
100
AcDbLine
 10
131.9216029651367
 20
303.2056054725736
 30
0.0
 11
131.9216029651367
 21
301.6056053775787
 31
0.0
  0
LINE
  5
2298
330
18
100
AcDbEntity
  8
1
  6
Continuous
100
AcDbLine
 10
136.8988651220593
 20
306.779544401957
 30
0.0
 11
137.059137218577
 21
308.4056057100596
 31
0.0
  0
LINE
  5
2299
330
18
100
AcDbEntity
  8
1
  6
Continuous
100
AcDbLine
 10
137.0591372330106
 20
304.4056053736348
 30
0.0
 11
136.8988651220595
 21
306.0316668281709
 31
0.0
  0
LINE
  5
229A
330
18
100
AcDbEntity
  8
1
  6
Continuous
100
AcDbLine
 10
138.4216032738702
 20
304.4511187769168
 30
0.0
 11
138.4216032738702
 21
306.5045742567024
 31
0.0
  0
LINE
  5
229E
330
18
100
AcDbEntity
  8
1
  6
Continuous
100
AcDbLine
 10
138.4216035359684
 20
306.5045744773025
 30
0.0
 11
139.0340239476397
 21
306.9898046061885
 31
0.0
  0
ARC
  5
229F
330
18
100
AcDbEntity
  8
1
  6
Continuous
100
AcDbCircle
 10
138.1716363256898
 20
303.7329141458136
 30
0.0
 40
0.1500082929568982
100
AcDbArc
 50
86.00976672269737
 51
179.9864587172531
  0
ARC
  5
22A0
330
18
100
AcDbEntity
  8
1
  6
Continuous
100
AcDbCircle
 10
138.9026328951931
 20
306.2532079599278
 30
0.0
 40
0.303784302821224
100
AcDbArc
 50
180.6500682634164
 51
318.6143844191826
  0
ARC
  5
22A1
330
18
100
AcDbEntity
  8
1
  6
Continuous
100
AcDbCircle
 10
144.6127466226541
 20
304.7489668837029
 30
0.0
 40
6.198315768825416
100
AcDbArc
 50
165.9877467059158
 51
188.2845453158721
  0
ARC
  5
22A2
330
18
100
AcDbEntity
  8
1
  6
Continuous
100
AcDbCircle
 10
141.645624111486
 20
306.4056056150594
 30
0.0
 40
4.761465228268666
100
AcDbArc
 50
175.4956723655777
 51
184.5043276343171
  0
LINE
  5
22A3
330
18
100
AcDbEntity
  8
1
  6
Continuous
100
AcDbLine
 10
137.0591372185786
 20
304.4056055200714
 30
0.0
 11
135.8216031503768
 21
304.4056055200714
 31
0.0
  0
LINE
  5
22A4
330
18
100
AcDbEntity
  8
1
  6
Continuous
100
AcDbLine
 10
135.8216031503768
 20
306.0302177469488
 30
0.0
 11
136.8988651220627
 21
306.0302177469487
 31
0.0
  0
LINE
  5
22A5
330
18
100
AcDbEntity
  8
1
  6
Continuous
100
AcDbLine
 10
135.5216031277304
 20
308.4056057100602
 30
0.0
 11
137.321603221623
 21
308.4056057100602
 31
0.0
  0
ARC
  5
22A6
330
18
100
AcDbEntity
  8
1
  6
Continuous
100
AcDbCircle
 10
146.9216220525743
 20
315.4056347653926
 30
0.0
 40
7.999982240642457
100
AcDbArc
 50
119.2375631495322
 51
180.0002057117825
  0
LINE
  5
22A7
330
18
100
AcDbEntity
  8
1
  6
Continuous
100
AcDbLine
 10
144.1531699585961
 20
321.0290360949624
 30
0.0
 11
138.4216032738704
 21
327.8596512826812
 31
0.0
  0
LINE
  5
22A8
330
18
100
AcDbEntity
  8
1
  6
Continuous
100
AcDbLine
 10
160.9214951462558
 20
334.4056069449951
 30
0.0
 11
138.021603636341
 21
334.4056069449951
 31
0.0
  0
LINE
  5
22A9
330
18
100
AcDbEntity
  8
1
  6
Continuous
100
AcDbLine
 10
139.9216033451164
 20
328.4056066600107
 30
0.0
 11
139.9216033451164
 21
334.4056069449945
 31
0.0
  0
LINE
  5
22AA
330
18
100
AcDbEntity
  8
1
  6
Continuous
100
AcDbLine
 10
155.4216040813269
 20
327.8596512826787
 30
0.0
 11
155.4216040813269
 21
334.4056069449941
 31
0.0
  0
LINE
  5
22AB
330
18
100
AcDbEntity
  8
1
  6
Continuous
100
AcDbLine
 10
153.9216040100806
 20
328.4056070489417
 30
0.0
 11
153.9216040100806
 21
334.4056069449945
 31
0.0
  0
ARC
  5
22AC
330
18
100
AcDbEntity
  8
1
  6
Continuous
100
AcDbCircle
 10
146.9215853026326
 20
315.4056347654402
 30
0.0
 40
7.999982240635616
100
AcDbArc
 50
359.999794287877
 51
60.76243685036317
  0
LINE
  5
22AD
330
18
100
AcDbEntity
  8
1
  6
Continuous
100
AcDbLine
 10
149.6900373966013
 20
321.029036094962
 30
0.0
 11
155.4216040813269
 21
327.8596512826787
 31
0.0
  0
LINE
  5
22AE
330
18
100
AcDbEntity
  8
1
  6
Continuous
100
AcDbLine
 10
154.9216040575781
 20
315.405606042543
 30
0.0
 11
154.9216040575781
 21
313.4056059475482
 31
0.0
  0
LINE
  5
22B0
330
18
100
AcDbEntity
  8
1
  6
Continuous
100
AcDbLine
 10
145.6754562941261
 20
321.5484317367711
 30
0.0
 11
139.9216035058129
 21
328.4056064684993
 31
0.0
  0
LINE
  5
22B1
330
18
100
AcDbEntity
  8
1
  6
Continuous
100
AcDbLine
 10
148.1677510610713
 20
321.5484317367707
 30
0.0
 11
153.9216042015915
 21
328.4056068882449
 31
0.0
  0
ARC
  5
22B2
330
18
100
AcDbEntity
  8
1
  6
Continuous
100
AcDbCircle
 10
146.9216036775985
 20
315.4055988750851
 30
0.0
 40
2.249967480061118
100
AcDbArc
 50
0.0001825178083108
 51
179.9998174821933
  0
ARC
  5
22B3
330
18
100
AcDbEntity
  8
1
  6
Continuous
100
AcDbCircle
 10
146.9216036776556
 20
315.4052217670585
 30
0.0
 40
6.26817646915871
100
AcDbArc
 50
78.53316616268556
 51
101.466833838338
  0
ARC
  5
22B4
330
18
100
AcDbEntity
  8
1
  6
Continuous
100
AcDbCircle
 10
146.9215891264693
 20
315.4056284613955
 30
0.0
 40
6.267935432542372
100
AcDbArc
 50
359.9997950681224
 51
63.7886102123733
  0
LINE
  5
22B5
330
18
100
AcDbEntity
  8
1
  6
Continuous
100
AcDbLine
 10
153.1895531677412
 20
315.4056060425432
 30
0.0
 11
153.1895531677412
 21
313.4056059475482
 31
0.0
  0
LINE
  5
22B6
330
18
100
AcDbEntity
  8
1
  6
Continuous
100
AcDbLine
 10
149.1716037844678
 20
315.405606042543
 30
0.0
 11
149.1716037844678
 21
313.4056059475482
 31
0.0
  0
ARC
  5
22B7
330
18
100
AcDbEntity
  8
1
  6
Continuous
100
AcDbCircle
 10
146.9216182287355
 20
315.4056284613585
 30
0.0
 40
6.267935432547621
100
AcDbArc
 50
116.2113897875396
 51
180.0002049315421
  0
LINE
  5
22B8
330
18
100
AcDbEntity
  8
1
  6
Continuous
100
AcDbLine
 10
144.6716035707293
 20
313.4056059475482
 30
0.0
 11
144.6716035707293
 21
315.405606042543
 31
0.0
  0
LINE
  5
22B9
330
18
100
AcDbEntity
  8
1
  6
Continuous
100
AcDbLine
 10
140.6536541874559
 20
313.4056059475479
 30
0.0
 11
140.6536541874559
 21
315.405606042543
 31
0.0
  0
ARC
  5
22BA
330
18
100
AcDbEntity
  8
1
  6
Continuous
100
AcDbCircle
 10
146.9216036776715
 20
315.404952130818
 30
0.0
 40
8.000450267779505
100
AcDbArc
 50
71.9788572788015
 51
108.0211427221916
  0
LINE
  5
22BB
330
18
100
AcDbEntity
  8
1
  6
Continuous
100
AcDbLine
 10
138.4216032738704
 20
327.8596512826812
 30
0.0
 11
138.4216032738704
 21
334.4056069449942
 31
0.0
  0
LINE
  5
22BC
330
18
100
AcDbEntity
  8
1
  6
Continuous
100
AcDbLine
 10
138.9216032976189
 20
313.4056059475482
 30
0.0
 11
138.9216032976189
 21
315.405606042543
 31
0.0
  0
LINE
  5
22BE
330
18
100
AcDbEntity
  8
1
  6
Continuous
100
AcDbLine
 10
137.321603221623
 20
334.4056069449947
 30
0.0
 11
132.9217121742178
 21
334.4056069449948
 31
0.0
  0
ARC
  5
22BF
330
18
100
AcDbEntity
  8
1
  6
Continuous
100
AcDbCircle
 10
251.7351921064769
 20
441.5201568321648
 30
0.0
 40
3.673001668329757
100
AcDbArc
 50
324.7950094229449
 51
5.354982589055861
  0
ARC
  5
22C0
330
18
100
AcDbEntity
  8
1
  6
Continuous
100
AcDbCircle
 10
252.1549178859822
 20
441.5199477111378
 30
0.0
 40
3.671184726445438
100
AcDbArc
 50
174.6247024998903
 51
215.1639620615183
  0
ARC
  5
22C1
330
18
100
AcDbEntity
  8
1
  6
Continuous
100
AcDbCircle
 10
251.9459092111442
 20
441.0289061806503
 30
0.0
 40
3.229771066706293
100
AcDbArc
 50
210.1717077496031
 51
329.7669817564902
  0
LINE
  5
22C2
330
18
100
AcDbEntity
  8
1
  6
Continuous
100
AcDbLine
 10
244.946092185065
 20
445.4056122172117
 30
0.0
 11
258.9460928500293
 21
445.4056122172117
 31
0.0
  0
LINE
  5
22C3
330
18
100
AcDbEntity
  8
1
  6
Continuous
100
AcDbLine
 10
258.9460926000292
 20
442.4056120747192
 30
0.0
 11
244.946092185065
 21
442.4056120747193
 31
0.0
  0
ARC
  5
22C4
330
18
100
AcDbEntity
  8
1
  6
Continuous
100
AcDbCircle
 10
254.8179989036138
 20
441.8362958602856
 30
0.0
 40
0.5747824646957766
100
AcDbArc
 50
2.657271061321976
 51
82.09184059065121
  0
LINE
  5
22C5
330
18
100
AcDbEntity
  8
1
  6
Continuous
100
AcDbLine
 10
256.4460927312857
 20
445.4056122172115
 30
0.0
 11
256.4460927312857
 21
442.4056120747192
 31
0.0
  0
ARC
  5
22C6
330
18
100
AcDbEntity
  8
1
  6
Continuous
100
AcDbCircle
 10
249.0740346964325
 20
441.8370603052887
 30
0.0
 40
0.5747824646957766
100
AcDbArc
 50
98.44398063479193
 51
177.3274783304217
  0
LINE
  5
22C8
330
18
100
AcDbEntity
  8
1
  6
Continuous
100
AcDbLine
 10
247.4460923038086
 20
445.4056122172115
 30
0.0
 11
247.4460923038086
 21
442.4056120747192
 31
0.0
  0
LINE
  5
22C9
330
18
100
AcDbEntity
  8
1
  6
Continuous
100
AcDbLine
 10
142.6282917748458
 20
442.405822201659
 30
0.0
 11
138.021825161818
 21
437.7993555886313
 31
0.0
  0
ARC
  5
22CA
330
18
100
AcDbEntity
  8
1
  6
Continuous
100
AcDbCircle
 10
141.0216455927493
 20
439.4055701183108
 30
0.0
 40
2.999982111642276
100
AcDbArc
 50
90.00079857580109
 51
179.9992014241989
  0
ARC
  5
22CB
330
18
100
AcDbEntity
  8
1
  6
Continuous
100
AcDbCircle
 10
141.02143064815
 20
439.4057850629543
 30
0.0
 40
5.999755441193014
100
AcDbArc
 50
89.99834667613065
 51
180.0016533242936
  0
LINE
  5
22CC
330
18
100
AcDbEntity
  8
1
  6
Continuous
100
AcDbLine
 10
151.3216042680571
 20
442.4056120747192
 30
0.0
 11
141.0216037788334
 21
442.4056120747192
 31
0.0
  0
LINE
  5
22CD
330
18
100
AcDbEntity
  8
1
  6
Continuous
100
AcDbLine
 10
151.3216042680571
 20
445.4056122172115
 30
0.0
 11
141.0216037788334
 21
445.4056122172116
 31
0.0
  0
LINE
  5
22CE
330
18
100
AcDbEntity
  8
1
  6
Continuous
100
AcDbLine
 10
151.3216042680571
 20
445.4056122172115
 30
0.0
 11
151.3216042680571
 21
442.4056120747192
 31
0.0
  0
LINE
  5
22CF
330
18
100
AcDbEntity
  8
1
  6
Continuous
100
AcDbLine
 10
148.8216041493135
 20
445.4056122172116
 30
0.0
 11
148.8216041493135
 21
442.4056120747192
 31
0.0
  0
LINE
  5
22D0
330
18
100
AcDbEntity
  8
1
  6
Continuous
100
AcDbLine
 10
145.5216039925719
 20
445.4056122172116
 30
0.0
 11
145.5216039925719
 21
442.4056120747192
 31
0.0
  0
LINE
  5
22D1
330
18
100
AcDbEntity
  8
1
  6
Continuous
100
AcDbLine
 10
135.0217129781144
 20
502.2713546336675
 30
0.0
 11
145.5216417637293
 21
502.2713546336675
 31
0.0
  0
LINE
  5
22D2
330
18
100
AcDbEntity
  8
1
  6
Continuous
100
AcDbLine
 10
135.1357327176569
 20
510.2713550136471
 30
0.0
 11
139.8573461729088
 21
510.2713550136471
 31
0.0
  0
LINE
  5
22D3
330
18
100
AcDbEntity
  8
1
  6
Continuous
100
AcDbLine
 10
135.1357327176569
 20
508.2713549186526
 30
0.0
 11
139.8573461729088
 21
508.2713549186526
 31
0.0
  0
LINE
  5
22D4
330
18
100
AcDbEntity
  8
1
  6
Continuous
100
AcDbLine
 10
133.9216408312891
 20
518.2713553936268
 30
0.0
 11
159.9216420662228
 21
518.2713553936268
 31
0.0
  0
LINE
  5
22D5
330
18
100
AcDbEntity
  8
1
  6
Continuous
100
AcDbLine
 10
153.9216417812381
 20
516.2713552986316
 30
0.0
 11
135.0217129781144
 21
516.2713552986319
 31
0.0
  0
LINE
  5
22D6
330
18
100
AcDbEntity
  8
4
  6
CENTER
 48
0.2
100
AcDbLine
 10
126.9216687037806
 20
509.2713553936268
 30
0.0
 11
168.821641869993
 21
509.2713553936268
 31
0.0
  0
LINE
  5
22D7
330
18
100
AcDbEntity
  8
1
  6
Continuous
100
AcDbLine
 10
148.3216411337825
 20
502.2713546336675
 30
0.0
 11
148.3216411337825
 21
505.4713547856594
 31
0.0
  0
LINE
  5
22D8
330
18
100
AcDbEntity
  8
1
  6
Continuous
100
AcDbLine
 10
159.0216420234751
 20
501.9713548694181
 30
0.0
 11
159.0216420234751
 21
504.9713547619107
 31
0.0
  0
LINE
  5
22D9
330
18
100
AcDbEntity
  8
1
  6
Continuous
100
AcDbLine
 10
160.9216421137202
 20
517.2713553461293
 30
0.0
 11
160.9216421137202
 21
501.7713546099188
 31
0.0
  0
LINE
  5
22DA
330
18
100
AcDbEntity
  8
1
  6
Continuous
100
AcDbLine
 10
161.9216141937281
 20
517.155885286807
 30
0.0
 11
161.92161419373
 21
501.8868246692439
 31
0.0
  0
LINE
  5
22DB
330
18
100
AcDbEntity
  8
1
  6
Continuous
100
AcDbLine
 10
155.8216414900134
 20
516.2713552986319
 30
0.0
 11
155.8216414900134
 21
502.2713548836675
 31
0.0
  0
LINE
  5
22DC
330
18
100
AcDbEntity
  8
1
  6
Continuous
100
AcDbLine
 10
158.8216416325058
 20
516.2713552986319
 30
0.0
 11
158.8216416325058
 21
502.2713548836675
 31
0.0
  0
LINE
  5
22DD
330
18
100
AcDbEntity
  8
1
  6
Continuous
100
AcDbLine
 10
163.821641869993
 20
502.2713546336675
 30
0.0
 11
163.821641869993
 21
516.2713552986319
 31
0.0
  0
LINE
  5
22DE
330
18
100
AcDbEntity
  8
1
  6
Continuous
100
AcDbLine
 10
145.5216417637293
 20
502.2713546336675
 30
0.0
 11
145.5216417637293
 21
506.771354597406
 31
0.0
  0
LINE
  5
22DF
330
18
100
AcDbEntity
  8
4
  6
CENTER
 48
0.2
100
AcDbLine
 10
146.9216036775985
 20
497.2713546336676
 30
0.0
 11
146.9216036775985
 21
523.2713553936267
 31
0.0
  0
LINE
  5
22E0
330
18
100
AcDbEntity
  8
1
  6
Continuous
100
AcDbLine
 10
159.0216420234751
 20
502.2713546336675
 30
0.0
 11
148.3216413837826
 21
502.2713546336675
 31
0.0
  0
LINE
  5
22E1
330
18
100
AcDbEntity
  8
1
  6
Continuous
100
AcDbLine
 10
161.92161419373
 20
502.2713546336679
 30
0.0
 11
163.8216040988361
 21
502.2713546336679
 31
0.0
  0
LINE
  5
22E2
330
18
100
AcDbEntity
  8
1
  6
Continuous
100
AcDbLine
 10
156.5216421556865
 20
501.9713546194167
 30
0.0
 11
159.0216420234751
 21
501.9713546194184
 31
0.0
  0
LINE
  5
22E3
330
18
100
AcDbEntity
  8
1
  6
Continuous
100
AcDbLine
 10
156.542264711358
 20
501.7356348610424
 30
0.0
 11
156.5216419066377
 21
501.9713545976277
 31
0.0
  0
LINE
  5
22E4
330
18
100
AcDbEntity
  8
1
  6
Continuous
100
AcDbLine
 10
156.542264836358
 20
501.7356346445359
 30
0.0
 11
157.0989922013447
 21
500.7713545624203
 31
0.0
  0
LINE
  5
22E5
330
18
100
AcDbEntity
  8
1
  6
Continuous
100
AcDbLine
 10
159.9216420662228
 20
500.7713545624215
 30
0.0
 11
157.0989922013438
 21
500.7713545624199
 31
0.0
  0
LINE
  5
22E6
330
18
100
AcDbEntity
  8
1
  6
Continuous
100
AcDbLine
 10
158.0216417259775
 20
498.9713544769244
 30
0.0
 11
156.7841079077752
 21
498.9713544769244
 31
0.0
  0
LINE
  5
22E7
330
18
100
AcDbEntity
  8
1
  6
Continuous
100
AcDbLine
 10
158.0216419759776
 20
500.4713545481721
 30
0.0
 11
158.0216419759776
 21
496.9713543819308
 31
0.0
  0
LINE
  5
22E8
330
18
100
AcDbEntity
  8
1
  6
Continuous
100
AcDbLine
 10
156.9590852431376
 20
496.9713543819308
 30
0.0
 11
156.5422647580846
 21
501.7356343269573
 31
0.0
  0
LINE
  5
22E9
330
18
100
AcDbEntity
  8
1
  6
Continuous
100
AcDbLine
 10
158.0216419759776
 20
496.9713543819308
 30
0.0
 11
156.9590852431376
 21
496.9713543819308
 31
0.0
  0
ARC
  5
22EA
330
18
100
AcDbEntity
  8
1
  6
Continuous
100
AcDbCircle
 10
158.3217020670421
 20
500.4712944713569
 30
0.0
 40
0.3000181458453679
100
AcDbArc
 50
90.01147152900459
 51
179.9885284709431
  0
LINE
  5
22ED
330
18
100
AcDbEntity
  8
1
  6
Continuous
100
AcDbLine
 10
160.4431564405899
 20
500.9177504811257
 30
0.0
 11
160.4216458915316
 21
500.9053313598363
 31
0.0
  0
LINE
  5
22EE
330
18
100
AcDbEntity
  8
1
  6
Continuous
100
AcDbLine
 10
160.4431564405899
 20
500.9177504811257
 30
0.0
 11
161.2765571453364
 21
501.3989146023507
 31
0.0
  0
LINE
  5
22EF
330
18
100
AcDbEntity
  8
1
  6
Continuous
100
AcDbLine
 10
161.3090541366705
 20
501.417676749045
 30
0.0
 11
161.2765571453364
 21
501.3989146023507
 31
0.0
  0
LINE
  5
22F0
330
18
100
AcDbEntity
  8
1
  6
Continuous
100
AcDbLine
 10
161.8216281727247
 20
501.7136438008118
 30
0.0
 11
161.3090401357901
 21
501.4177009597004
 31
0.0
  0
ARC
  5
22F1
330
18
100
AcDbEntity
  8
1
  6
Continuous
100
AcDbCircle
 10
161.7219029459215
 20
501.8866740996383
 30
0.0
 40
0.1996988702900419
100
AcDbArc
 50
299.9568086759698
 51
0.0431913246443829
  0
ARC
  5
22F3
330
18
100
AcDbEntity
  8
1
  6
Continuous
100
AcDbCircle
 10
159.9219056056047
 20
501.7710910705369
 30
0.0
 40
0.9996273465320324
100
AcDbArc
 50
269.9848963263432
 51
0.0151036736583574
  0
LINE
  5
22F4
330
18
100
AcDbEntity
  8
1
  6
Continuous
100
AcDbLine
 10
154.8092210689728
 20
509.271353711792
 30
0.0
 11
155.4216418524838
 21
516.2713552986322
 31
0.0
  0
LINE
  5
22F5
330
18
100
AcDbEntity
  8
1
  6
Continuous
100
AcDbLine
 10
151.3216420392145
 20
507.0713548616553
 30
0.0
 11
155.8216414900134
 21
507.0713548616553
 31
0.0
  0
LINE
  5
22F6
330
18
100
AcDbEntity
  8
1
  6
Continuous
100
AcDbLine
 10
155.1591758494398
 20
513.2713551561396
 30
0.0
 11
151.3216420392145
 21
513.2713551561396
 31
0.0
  0
LINE
  5
22F7
330
18
100
AcDbEntity
  8
1
  6
Continuous
100
AcDbLine
 10
159.0216422734752
 20
514.7713559344923
 30
0.0
 11
159.4930465666564
 21
516.104688624049
 31
0.0
  0
LINE
  5
22F8
330
18
100
AcDbEntity
  8
1
  6
Continuous
100
AcDbLine
 10
159.0216420234751
 20
512.9713551418904
 30
0.0
 11
159.0216420234751
 21
514.7713552273858
 31
0.0
  0
LINE
  5
22F9
330
18
100
AcDbEntity
  8
1
  6
Continuous
100
AcDbLine
 10
159.0216422734752
 20
512.9713551418904
 30
0.0
 11
159.3216417877242
 21
512.9713551418904
 31
0.0
  0
LINE
  5
22FA
330
18
100
AcDbEntity
  8
1
  6
Continuous
100
AcDbLine
 10
155.2558788457711
 20
514.271355203637
 30
0.0
 11
155.8244700760397
 21
514.271355203637
 31
0.0
  0
LINE
  5
22FD
330
18
100
AcDbEntity
  8
1
  6
Continuous
100
AcDbLine
 10
155.821617089432
 20
511.4713550706441
 30
0.0
 11
155.0016962476136
 21
511.4713550706441
 31
0.0
  0
LINE
  5
22FF
330
18
100
AcDbEntity
  8
1
  6
Continuous
100
AcDbLine
 10
158.9216345008478
 20
511.4713550706441
 30
0.0
 11
158.822262245254
 21
511.4713550706441
 31
0.0
  0
LINE
  5
2303
330
18
100
AcDbEntity
  8
1
  6
Continuous
100
AcDbLine
 10
158.9216345008478
 20
511.4713550706441
 30
0.0
 11
158.9216345008494
 21
507.0713548616553
 31
0.0
  0
LINE
  5
2304
330
18
100
AcDbEntity
  8
1
  6
Continuous
100
AcDbLine
 10
158.8216416325058
 20
507.0713548616553
 30
0.0
 11
158.9216345008494
 21
507.0713548616553
 31
0.0
  0
LINE
  5
2305
330
18
100
AcDbEntity
  8
1
  6
Continuous
100
AcDbLine
 10
159.3216420377243
 20
504.9713547619107
 30
0.0
 11
159.0216420234751
 21
504.9713547619107
 31
0.0
  0
LINE
  5
2306
330
18
100
AcDbEntity
  8
1
  6
Continuous
100
AcDbLine
 10
159.3216420377243
 20
512.9713551418904
 30
0.0
 11
159.3216420377243
 21
504.9713550119106
 31
0.0
  0
LINE
  5
2307
330
18
100
AcDbEntity
  8
1
  6
Continuous
100
AcDbLine
 10
163.8216040988359
 20
516.2713552986322
 30
0.0
 11
161.9216141937281
 21
516.2713552986319
 31
0.0
  0
LINE
  5
2308
330
18
100
AcDbEntity
  8
1
  6
Continuous
100
AcDbLine
 10
161.2765073049231
 20
517.6438241290744
 30
0.0
 11
161.3090541311414
 21
517.6250332101959
 31
0.0
  0
LINE
  5
2309
330
18
100
AcDbEntity
  8
1
  6
Continuous
100
AcDbLine
 10
160.4451983155672
 20
518.1237805978586
 30
0.0
 11
161.2765073049231
 21
517.6438241290744
 31
0.0
  0
LINE
  5
230A
330
18
100
AcDbEntity
  8
1
  6
Continuous
100
AcDbLine
 10
160.4216461002167
 20
518.1373784757311
 30
0.0
 11
160.4451983155672
 21
518.1237805978586
 31
0.0
  0
LINE
  5
230B
330
18
100
AcDbEntity
  8
1
  6
Continuous
100
AcDbLine
 10
161.3090401158417
 20
517.6250090078593
 30
0.0
 11
161.8216281727231
 21
517.3290661552361
 31
0.0
  0
ARC
  5
230C
330
18
100
AcDbEntity
  8
1
  6
Continuous
100
AcDbCircle
 10
161.7219029459351
 20
517.1560358564164
 30
0.0
 40
0.1996988702759055
100
AcDbArc
 50
359.9568086741848
 51
60.04319132683482
  0
ARC
  5
230D
330
18
100
AcDbEntity
  8
1
  6
Continuous
100
AcDbCircle
 10
159.9219056055976
 20
517.2716188855048
 30
0.0
 40
0.9996273465402667
100
AcDbArc
 50
359.9848963267048
 51
90.01510367325611
  0
LINE
  5
230E
330
18
100
AcDbEntity
  8
1
  6
Continuous
100
AcDbLine
 10
155.4216418524838
 20
516.2713552986322
 30
0.0
 11
159.5215936286028
 21
516.2713552986319
 31
0.0
  0
LINE
  5
2310
330
18
100
AcDbEntity
  8
1
  6
Continuous
100
AcDbLine
 10
158.8549753488898
 20
516.7427598418135
 30
0.0
 11
157.5216412855611
 21
516.2713550629296
 31
0.0
  0
ARC
  5
2311
330
18
100
AcDbEntity
  8
1
  6
Continuous
100
AcDbCircle
 10
159.021625862546
 20
516.2713391377034
 30
0.0
 40
0.4999677663181103
100
AcDbArc
 50
340.531142614551
 51
109.4688573856374
  0
LINE
  5
2312
330
18
100
AcDbEntity
  8
1
  6
Continuous
100
AcDbLine
 10
145.5216417637293
 20
516.2713552986319
 30
0.0
 11
145.5216417637293
 21
511.7713550848933
 31
0.0
  0
LINE
  5
2313
330
18
100
AcDbEntity
  8
1
  6
Continuous
100
AcDbLine
 10
149.3966914313043
 20
516.2714384910166
 30
0.0
 11
148.1677590871095
 21
513.2713551561396
 31
0.0
  0
LINE
  5
2314
330
18
100
AcDbEntity
  8
1
  6
Continuous
100
AcDbLine
 10
153.9216417812381
 20
513.2713554061393
 30
0.0
 11
153.9216417812381
 21
516.2713552986316
 31
0.0
  0
LINE
  5
2315
330
18
100
AcDbEntity
  8
1
  6
Continuous
100
AcDbLine
 10
145.5216417637293
 20
513.2713551561396
 30
0.0
 11
148.8216419204709
 21
513.2713551561396
 31
0.0
  0
LINE
  5
2316
330
18
100
AcDbEntity
  8
1
  6
Continuous
100
AcDbLine
 10
145.5216417637293
 20
506.7713548474061
 30
0.0
 11
148.8216416704708
 21
506.7713548474061
 31
0.0
  0
LINE
  5
2317
330
18
100
AcDbEntity
  8
1
  6
Continuous
100
AcDbLine
 10
148.8216419204709
 20
511.7713550848933
 30
0.0
 11
145.5216420137292
 21
511.7713550848933
 31
0.0
  0
LINE
  5
2318
330
18
100
AcDbEntity
  8
1
  6
Continuous
100
AcDbLine
 10
145.5216417637293
 20
505.4713547856594
 30
0.0
 11
148.8242348242054
 21
505.4713547856594
 31
0.0
  0
LINE
  5
2319
330
18
100
AcDbEntity
  8
1
  6
Continuous
100
AcDbLine
 10
151.3216420392145
 20
513.7713551798883
 30
0.0
 11
148.8216421704708
 21
513.7713551798883
 31
0.0
  0
LINE
  5
231B
330
18
100
AcDbEntity
  8
1
  6
Continuous
100
AcDbLine
 10
151.5352622792065
 20
509.2713549661498
 30
0.0
 11
151.5352622792065
 21
507.0713548616553
 31
0.0
  0
LINE
  5
231C
330
18
100
AcDbEntity
  8
1
  6
Continuous
100
AcDbLine
 10
148.5953064808256
 20
513.2713551561396
 30
0.0
 11
148.5953064808256
 21
511.7713550848933
 31
0.0
  0
LINE
  5
231D
330
18
100
AcDbEntity
  8
1
  6
Continuous
100
AcDbLine
 10
148.8216419204709
 20
513.7713551798883
 30
0.0
 11
148.8216419204709
 21
511.7713553348933
 31
0.0
  0
LINE
  5
231E
330
18
100
AcDbEntity
  8
1
  6
Continuous
100
AcDbLine
 10
152.6419890655281
 20
507.0713548616553
 30
0.0
 11
152.6419890655281
 21
509.2713549661498
 31
0.0
  0
LINE
  5
2320
330
18
100
AcDbEntity
  8
1
  6
Continuous
100
AcDbLine
 10
151.324153287951
 20
509.2713549661498
 30
0.0
 11
154.8092210689728
 21
509.2713549661498
 31
0.0
  0
LINE
  5
2322
330
18
100
AcDbEntity
  8
1
  6
Continuous
100
AcDbLine
 10
153.796630983061
 20
506.6713548426563
 30
0.0
 11
151.3216420392145
 21
506.6713548426563
 31
0.0
  0
LINE
  5
2323
330
18
100
AcDbEntity
  8
1
  6
Continuous
100
AcDbLine
 10
151.3216420392145
 20
504.7713547524113
 30
0.0
 11
148.8216419204709
 21
504.7713547524113
 31
0.0
  0
LINE
  5
2324
330
18
100
AcDbEntity
  8
1
  6
Continuous
100
AcDbLine
 10
151.3280115686411
 20
505.4713547856594
 30
0.0
 11
153.796630983074
 21
505.4713547856594
 31
0.0
  0
LINE
  5
2325
330
18
100
AcDbEntity
  8
1
  6
Continuous
100
AcDbLine
 10
151.3216420392145
 20
504.7713547524113
 30
0.0
 11
151.3216420392145
 21
513.7713549298881
 31
0.0
  0
LINE
  5
2326
330
18
100
AcDbEntity
  8
1
  6
Continuous
100
AcDbLine
 10
153.796630983061
 20
506.6713548426563
 30
0.0
 11
153.796630983061
 21
505.4713547856594
 31
0.0
  0
LINE
  5
2327
330
18
100
AcDbEntity
  8
1
  6
Continuous
100
AcDbLine
 10
148.8216419204709
 20
506.7713548474061
 30
0.0
 11
148.8216419204709
 21
504.7713550024111
 31
0.0
  0
ARC
  5
2328
330
18
100
AcDbEntity
  8
1
  6
Continuous
100
AcDbCircle
 10
140.5875530789771
 20
509.2713287046151
 30
0.0
 40
0.7980491711765824
100
AcDbArc
 50
302.9520517411322
 51
57.05028480473513
  0
ARC
  5
2329
330
18
100
AcDbEntity
  8
1
  6
Continuous
100
AcDbCircle
 10
139.9464566132494
 20
508.3683140919033
 30
0.0
 40
1.90512608983163
100
AcDbArc
 50
55.64184904004275
 51
92.68093314380086
  0
ARC
  5
232A
330
18
100
AcDbEntity
  8
1
  6
Continuous
100
AcDbCircle
 10
139.946448273097
 20
510.174425238245
 30
0.0
 40
1.905155065426255
100
AcDbArc
 50
267.3193587576002
 51
304.3578590585402
  0
LINE
  5
232B
330
18
100
AcDbEntity
  8
1
  6
Continuous
100
AcDbLine
 10
145.5224025480331
 20
513.6357736191854
 30
0.0
 11
145.6755705218538
 21
513.2714333220708
 31
0.0
  0
LINE
  5
232D
330
18
100
AcDbEntity
  8
1
  6
Continuous
100
AcDbLine
 10
134.8216408740368
 20
504.9713547619107
 30
0.0
 11
134.8216408740368
 21
501.9713546194184
 31
0.0
  0
LINE
  5
232E
330
18
100
AcDbEntity
  8
1
  6
Continuous
100
AcDbLine
 10
132.9216407837916
 20
501.7713546099188
 30
0.0
 11
132.9216407837916
 21
517.2713553461293
 31
0.0
  0
LINE
  5
232F
330
18
100
AcDbEntity
  8
1
  6
Continuous
100
AcDbLine
 10
131.9216687037805
 20
501.8868246692433
 30
0.0
 11
131.9216687037805
 21
517.1558852868063
 31
0.0
  0
LINE
  5
2331
330
18
100
AcDbEntity
  8
1
  6
Continuous
100
AcDbLine
 10
136.7442908211673
 20
500.7713545624215
 30
0.0
 11
133.9216408312891
 21
500.7713545624215
 31
0.0
  0
LINE
  5
2332
330
18
100
AcDbEntity
  8
1
  6
Continuous
100
AcDbLine
 10
135.8216409215342
 20
496.9713543819308
 30
0.0
 11
135.8216409215342
 21
500.4713545481721
 31
0.0
  0
LINE
  5
2333
330
18
100
AcDbEntity
  8
1
  6
Continuous
100
AcDbLine
 10
132.5667752006102
 20
501.3988860532836
 30
0.0
 11
132.5342287663709
 21
501.4176767458526
 31
0.0
  0
LINE
  5
2334
330
18
100
AcDbEntity
  8
1
  6
Continuous
100
AcDbLine
 10
132.5667752006102
 20
501.3988860532836
 30
0.0
 11
133.3980962545179
 21
500.9189226190301
 31
0.0
  0
LINE
  5
2335
330
18
100
AcDbEntity
  8
1
  6
Continuous
100
AcDbLine
 10
133.4216367972969
 20
500.9053314803201
 30
0.0
 11
133.3980962545179
 21
500.9189226190301
 31
0.0
  0
LINE
  5
2336
330
18
100
AcDbEntity
  8
1
  6
Continuous
100
AcDbLine
 10
132.5342427816681
 20
501.4177009481856
 30
0.0
 11
132.0216547247882
 21
501.7136438008122
 31
0.0
  0
ARC
  5
2338
330
18
100
AcDbEntity
  8
1
  6
Continuous
100
AcDbCircle
 10
133.9213772919072
 20
501.7710910705369
 30
0.0
 40
0.9996273465320308
100
AcDbArc
 50
179.9848963263424
 51
270.0151036736567
  0
ARC
  5
2339
330
18
100
AcDbEntity
  8
1
  6
Continuous
100
AcDbCircle
 10
135.5215808304697
 20
500.4712944713569
 30
0.0
 40
0.3000181458453389
100
AcDbArc
 50
0.0114715290404341
 51
89.98852847098239
  0
ARC
  5
233A
330
18
100
AcDbEntity
  8
1
  6
Continuous
100
AcDbCircle
 10
132.1213799515767
 20
501.8866740996331
 30
0.0
 40
0.199698870275902
100
AcDbArc
 50
179.9568086740447
 51
240.0431913265645
  0
LINE
  5
233B
330
18
100
AcDbEntity
  8
1
  6
Continuous
100
AcDbLine
 10
137.3216409709082
 20
501.9713543694183
 30
0.0
 11
137.3010181861536
 21
501.7356348610452
 31
0.0
  0
LINE
  5
233C
330
18
100
AcDbEntity
  8
1
  6
Continuous
100
AcDbLine
 10
137.3010181345966
 20
501.7356342717444
 30
0.0
 11
136.8841976543744
 21
496.9713543819311
 31
0.0
  0
LINE
  5
233D
330
18
100
AcDbEntity
  8
1
  6
Continuous
100
AcDbLine
 10
134.8216411240368
 20
501.9713546194184
 30
0.0
 11
137.3216409709082
 21
501.9713546194184
 31
0.0
  0
LINE
  5
233E
330
18
100
AcDbEntity
  8
1
  6
Continuous
100
AcDbLine
 10
135.8216409215342
 20
498.9713544769244
 30
0.0
 11
137.0591749897366
 21
498.9713544769236
 31
0.0
  0
LINE
  5
233F
330
18
100
AcDbEntity
  8
1
  6
Continuous
100
AcDbLine
 10
136.8841976543744
 20
496.9713543819311
 30
0.0
 11
135.8216409215342
 21
496.9713543819308
 31
0.0
  0
LINE
  5
2340
330
18
100
AcDbEntity
  8
1
  6
Continuous
100
AcDbLine
 10
136.7442908211669
 20
500.7713547789283
 30
0.0
 11
137.3010181861545
 21
501.7356348610448
 31
0.0
  0
LINE
  5
2341
330
18
100
AcDbEntity
  8
1
  6
Continuous
100
AcDbLine
 10
135.0216412650061
 20
516.2713552986319
 30
0.0
 11
135.0216412650061
 21
502.2713546336675
 31
0.0
  0
LINE
  5
2342
330
18
100
AcDbEntity
  8
1
  6
Continuous
100
AcDbLine
 10
134.8216407907032
 20
514.7713554630878
 30
0.0
 11
134.3502363308559
 21
516.104688624049
 31
0.0
  0
LINE
  5
2343
330
18
100
AcDbEntity
  8
1
  6
Continuous
100
AcDbLine
 10
134.8216408740368
 20
514.7713552273858
 30
0.0
 11
134.8216408740368
 21
512.9713551418904
 31
0.0
  0
LINE
  5
2344
330
18
100
AcDbEntity
  8
1
  6
Continuous
100
AcDbLine
 10
134.5216408597875
 20
512.9713551418904
 30
0.0
 11
134.8216408740368
 21
512.9713551418904
 31
0.0
  0
LINE
  5
2346
330
18
100
AcDbEntity
  8
1
  6
Continuous
100
AcDbLine
 10
135.0210468628192
 20
507.0713548616553
 30
0.0
 11
134.9216483966649
 21
507.0713548616555
 31
0.0
  0
LINE
  5
2347
330
18
100
AcDbEntity
  8
1
  6
Continuous
100
AcDbLine
 10
135.021202359785
 20
511.4713550706441
 30
0.0
 11
134.9216483966665
 21
511.4713550706443
 31
0.0
  0
LINE
  5
234B
330
18
100
AcDbEntity
  8
1
  6
Continuous
100
AcDbLine
 10
134.9216483966649
 20
507.0713548616555
 30
0.0
 11
134.9216483966665
 21
511.4713550706443
 31
0.0
  0
ARC
  5
234D
330
18
100
AcDbEntity
  8
1
  6
Continuous
100
AcDbCircle
 10
135.1391471066165
 20
510.1762821263955
 30
0.0
 40
0.0951341786233777
100
AcDbArc
 50
92.05680127819409
 51
165.8215864825274
  0
ARC
  5
234E
330
18
100
AcDbEntity
  8
1
  6
Continuous
100
AcDbCircle
 10
135.7507388912229
 20
510.0044002236177
 30
0.0
 40
0.7303907812238731
100
AcDbArc
 50
164.5003399218547
 51
183.4099607399783
  0
ARC
  5
234F
330
18
100
AcDbEntity
  8
1
  6
Continuous
100
AcDbCircle
 10
135.139147106616
 20
508.3664278059043
 30
0.0
 40
0.0951341786233777
100
AcDbArc
 50
194.1784135174725
 51
267.9431987218058
  0
ARC
  5
2350
330
18
100
AcDbEntity
  8
1
  6
Continuous
100
AcDbCircle
 10
135.7507388912224
 20
508.5383097086821
 30
0.0
 40
0.7303907812238731
100
AcDbArc
 50
176.590039260004
 51
195.4996600781451
  0
LINE
  5
2351
330
18
100
AcDbEntity
  8
1
  6
Continuous
100
AcDbLine
 10
134.8216406240367
 20
504.9713547619107
 30
0.0
 11
134.5216411097876
 21
504.9713547619107
 31
0.0
  0
LINE
  5
2352
330
18
100
AcDbEntity
  8
1
  6
Continuous
100
AcDbLine
 10
134.5216408597875
 20
504.9713547619107
 30
0.0
 11
134.5216408597875
 21
512.9713548918902
 31
0.0
  0
LINE
  5
2353
330
18
100
AcDbEntity
  8
1
  6
Continuous
100
AcDbLine
 10
133.3989087841143
 20
518.1242564512031
 30
0.0
 11
133.4216370059791
 21
518.1373785962149
 31
0.0
  0
LINE
  5
2354
330
18
100
AcDbEntity
  8
1
  6
Continuous
100
AcDbLine
 10
132.0216407146683
 20
517.3290903605626
 30
0.0
 11
133.3989087841143
 21
518.1242564512031
 31
0.0
  0
ARC
  5
2357
330
18
100
AcDbEntity
  8
1
  6
Continuous
100
AcDbCircle
 10
133.9213772919144
 20
517.2716188855048
 30
0.0
 40
0.9996273465404822
100
AcDbArc
 50
89.9848963267569
 51
180.0151036733009
  0
ARC
  5
2358
330
18
100
AcDbEntity
  8
1
  6
Continuous
100
AcDbCircle
 10
132.1213799515767
 20
517.1560358564164
 30
0.0
 40
0.199698870275902
100
AcDbArc
 50
119.9568086734354
 51
180.0431913259552
  0
LINE
  5
2359
330
18
100
AcDbEntity
  8
1
  6
Continuous
100
AcDbLine
 10
134.988307548622
 20
516.7427598418136
 30
0.0
 11
136.3216409452838
 21
516.2713552986315
 31
0.0
  0
ARC
  5
235A
330
18
100
AcDbEntity
  8
1
  6
Continuous
100
AcDbCircle
 10
134.8216570349659
 20
516.2713391377034
 30
0.0
 40
0.4999677663181086
100
AcDbArc
 50
70.53114261436228
 51
199.4688573854489
  0
LINE
  5
235B
330
18
100
AcDbEntity
  8
1
  6
Continuous
100
AcDbLine
 10
360.0649382875496
 20
439.405611932227
 30
0.0
 11
360.0649382875496
 21
334.4056069449951
 31
0.0
  0
LINE
  5
235C
330
18
100
AcDbEntity
  8
1
  6
Continuous
100
AcDbLine
 10
363.064938430042
 20
439.4056119322268
 30
0.0
 11
363.064938430042
 21
334.4056069449951
 31
0.0
  0
LINE
  5
235D
330
18
100
AcDbEntity
  8
1
  6
Continuous
100
AcDbLine
 10
39.81973799177854
 20
445.4055405016497
 30
0.0
 11
39.81973799177854
 21
334.4056069449951
 31
0.0
  0
LINE
  5
235E
330
18
100
AcDbEntity
  8
1
  6
Continuous
100
AcDbLine
 10
53.81973865674261
 20
445.4055405016494
 30
0.0
 11
53.81973865674286
 21
334.405606944995
 31
0.0
  0
LINE
  5
235F
330
18
100
AcDbEntity
  8
1
  6
Continuous
100
AcDbLine
 10
55.31962953168157
 20
334.4056069449951
 30
0.0
 11
55.31962953168114
 21
284.405604570122
 31
0.0
  0
LINE
  5
2360
330
18
100
AcDbEntity
  8
1
  6
Continuous
100
AcDbLine
 10
37.81973791198402
 20
334.4056069449951
 30
0.0
 11
37.81973791198424
 21
257.4054289279723
 31
0.0
  0
LINE
  5
2361
330
18
100
AcDbEntity
  8
1
  6
Continuous
100
AcDbLine
 10
49.51973820250373
 20
281.9625488666834
 30
0.0
 11
45.27617666638548
 21
281.9625488666834
 31
0.0
  0
LINE
  5
2362
330
18
100
AcDbEntity
  8
1
  6
Continuous
100
AcDbLine
 10
44.11973844601766
 20
273.1856040372009
 30
0.0
 11
49.51973845250382
 21
273.1856040372009
 31
0.0
  0
LINE
  5
2363
330
18
100
AcDbEntity
  8
1
  6
Continuous
100
AcDbLine
 10
44.46742316092445
 20
279.4740765421874
 30
0.0
 11
49.51973845250382
 21
279.4740765421874
 31
0.0
  0
LINE
  5
2364
330
18
100
AcDbEntity
  8
1
  6
Continuous
100
AcDbLine
 10
49.51973820250373
 20
275.6740763616969
 30
0.0
 11
44.11973819601757
 21
275.6740763616969
 31
0.0
  0
LINE
  5
2365
330
18
100
AcDbEntity
  8
1
  6
Continuous
100
AcDbLine
 10
57.11973881348445
 20
284.405604570122
 30
0.0
 11
41.31973806358086
 21
284.405604570122
 31
0.0
  0
LINE
  5
236A
330
18
100
AcDbEntity
  8
1
  6
Continuous
100
AcDbLine
 10
49.51973820250373
 20
269.3856038567104
 30
0.0
 11
44.11973819601757
 21
269.3856038567104
 31
0.0
  0
LINE
  5
236B
330
18
100
AcDbEntity
  8
1
  6
Continuous
100
AcDbLine
 10
49.51973845250382
 20
273.185603787201
 30
0.0
 11
49.51973845250382
 21
269.3856038567105
 31
0.0
  0
LINE
  5
236C
330
18
100
AcDbEntity
  8
1
  6
Continuous
100
AcDbLine
 10
57.11973881348511
 20
288.4056050101115
 30
0.0
 11
57.11973881348511
 21
304.405605520071
 31
0.0
  0
LINE
  5
236D
330
18
100
AcDbEntity
  8
1
  6
Continuous
100
AcDbLine
 10
49.51973845250382
 20
279.4740762921873
 30
0.0
 11
49.51973845250382
 21
275.674076361697
 31
0.0
  0
LINE
  5
236E
330
18
100
AcDbEntity
  8
1
  6
Continuous
100
AcDbLine
 10
57.11973881348445
 20
284.405604570122
 30
0.0
 11
58.95165725934271
 21
286.031665878223
 31
0.0
  0
LINE
  5
236F
330
18
100
AcDbEntity
  8
1
  6
Continuous
100
AcDbLine
 10
58.95165725934544
 20
286.7795434520132
 30
0.0
 11
57.11973868936843
 21
288.4056048702813
 31
0.0
  0
ARC
  5
2370
330
18
100
AcDbEntity
  8
1
  6
Continuous
100
AcDbCircle
 10
58.61995596900829
 20
286.4056046651164
 30
0.0
 40
0.4997829394711216
100
AcDbArc
 50
311.5745337385985
 51
48.4254662614366
  0
LINE
  5
2372
330
18
100
AcDbEntity
  8
1
  6
Continuous
100
AcDbLine
 10
49.51973845250382
 20
284.405604570122
 30
0.0
 11
49.51973845250382
 21
281.9625488666833
 31
0.0
  0
LINE
  5
2377
330
18
100
AcDbEntity
  8
1
  6
Continuous
100
AcDbLine
 10
58.9516572593443
 20
306.7795444019584
 30
0.0
 11
57.11973900045517
 21
308.4056055441004
 31
0.0
  0
LINE
  5
2378
330
18
100
AcDbEntity
  8
1
  6
Continuous
100
AcDbLine
 10
57.11973900045382
 20
304.4056056860308
 30
0.0
 11
58.95165725934385
 21
306.0316668281696
 31
0.0
  0
ARC
  5
2379
330
18
100
AcDbEntity
  8
1
  6
Continuous
100
AcDbCircle
 10
58.61995596900829
 20
306.4056056150664
 30
0.0
 40
0.4997829394711287
100
AcDbArc
 50
311.5745337384243
 51
48.42546626115859
  0
LINE
  5
237A
330
18
100
AcDbEntity
  8
1
  6
Continuous
100
AcDbLine
 10
57.11973900045541
 20
308.4056057100601
 30
0.0
 11
55.31962953168157
 21
308.4056057100601
 31
0.0
  0
LINE
  5
237B
330
18
100
AcDbEntity
  8
1
  6
Continuous
100
AcDbLine
 10
39.81973799177854
 20
95.40559559310397
 30
0.0
 11
39.81973799177854
 21
283.7284025346367
 31
0.0
  0
LINE
  5
237D
330
18
100
AcDbEntity
  8
1
  6
Continuous
100
AcDbLine
 10
44.11973819601757
 20
269.3856038567106
 30
0.0
 11
44.11973819601757
 21
273.1856040372008
 31
0.0
  0
LINE
  5
237E
330
18
100
AcDbEntity
  8
1
  6
Continuous
100
AcDbLine
 10
39.31973796802981
 20
282.405604474571
 30
0.0
 11
39.31973796802981
 21
256.9570803433123
 31
0.0
  0
ARC
  5
237F
330
18
100
AcDbEntity
  8
1
  6
Continuous
100
AcDbCircle
 10
38.81947440490534
 20
257.4053397483161
 30
0.0
 40
0.9996273465403408
100
AcDbArc
 50
179.9848963267528
 51
270.0151036733081
  0
LINE
  5
2382
330
18
100
AcDbEntity
  8
1
  6
Continuous
100
AcDbLine
 10
39.81973799177854
 20
256.4056510505964
 30
0.0
 11
38.81973794428109
 21
256.4056510505964
 31
0.0
  0
ARC
  5
2384
330
18
100
AcDbEntity
  8
1
  6
Continuous
100
AcDbCircle
 10
40.35563114725572
 20
257.4802703965312
 30
0.0
 40
1.160518207800047
100
AcDbArc
 50
206.7965960171891
 51
242.4985816456922
  0
LINE
  5
2385
330
18
100
AcDbEntity
  8
1
  6
Continuous
100
AcDbLine
 10
42.29426364363848
 20
272.78743187361
 30
0.0
 11
46.07016977000376
 21
284.405604570122
 31
0.0
  0
LINE
  5
2386
330
18
100
AcDbEntity
  8
1
  6
Continuous
100
AcDbLine
 10
39.81973799177854
 20
271.4056039526551
 30
0.0
 11
40.39219541583316
 21
271.4056039526551
 31
0.0
  0
LINE
  5
2387
330
18
100
AcDbEntity
  8
1
  6
Continuous
100
AcDbLine
 10
44.11973819601757
 20
275.6740763616971
 30
0.0
 11
44.11973819601757
 21
278.404276650166
 31
0.0
  0
ARC
  5
2388
330
18
100
AcDbEntity
  8
1
  6
Continuous
100
AcDbCircle
 10
40.39247148670279
 20
273.405224039674
 30
0.0
 40
1.999530391700537
100
AcDbArc
 50
269.9920896495876
 51
342.0037487444385
  0
ARC
  5
238A
330
18
100
AcDbEntity
  8
1
  6
Continuous
100
AcDbCircle
 10
41.31976593895887
 20
282.4055765991914
 30
0.0
 40
1.999988074416601
100
AcDbArc
 50
90.00079857552099
 51
179.9992014244366
  0
LINE
  5
2390
330
18
100
AcDbEntity
  8
1
  6
Continuous
100
AcDbLine
 10
55.31962953168157
 20
334.4056069449951
 30
0.0
 11
37.81973791198402
 21
334.4056069449951
 31
0.0
  0
ARC
  5
2393
330
18
100
AcDbEntity
  8
1
  6
Continuous
100
AcDbCircle
 10
351.1649382462922
 20
313.4056059475482
 30
0.0
 40
5.289613136627711
100
AcDbArc
 50
179.9999999999601
 51
270.0000777912224
  0
ARC
  5
2394
330
18
100
AcDbEntity
  8
1
  6
Continuous
100
AcDbCircle
 10
351.1649382462922
 20
313.4056059475482
 30
0.0
 40
3.517220284660236
100
AcDbArc
 50
180.0000000005976
 51
270.0001451105208
  0
ARC
  5
2395
330
18
100
AcDbEntity
  8
1
  6
Continuous
100
AcDbCircle
 10
351.1649382462922
 20
313.405613115006
 30
0.0
 40
2.24996748006112
100
AcDbArc
 50
180.0001825178091
 51
359.9998174821917
  0
ARC
  5
2396
330
18
100
AcDbEntity
  8
1
  6
Continuous
100
AcDbCircle
 10
351.1649382462922
 20
313.4056059475482
 30
0.0
 40
5.289436341300326
100
AcDbArc
 50
270.0000777912224
 51
0.000000000000007
  0
ARC
  5
2397
330
18
100
AcDbEntity
  8
1
  6
Continuous
100
AcDbCircle
 10
351.1649382462922
 20
313.4056059475482
 30
0.0
 40
3.516845740623605
100
AcDbArc
 50
270.0001451105208
 51
0.000000000000007
  0
LINE
  5
2398
330
18
100
AcDbEntity
  8
1
  6
Continuous
100
AcDbLine
 10
337.1649375813281
 20
334.4056069449951
 30
0.0
 11
337.1649375813278
 21
303.7043700892171
 31
0.0
  0
LINE
  5
2399
330
18
100
AcDbEntity
  8
1
  6
Continuous
100
AcDbLine
 10
365.1648297149495
 20
334.405606944995
 30
0.0
 11
365.1648297149495
 21
303.7043700892171
 31
0.0
  0
LINE
  5
239A
330
18
100
AcDbEntity
  8
4
  6
CENTER
 48
0.2
100
AcDbLine
 10
351.1649382462858
 20
251.4056032401934
 30
0.0
 11
351.1649382462858
 21
339.4056069449951
 31
0.0
  0
ARC
  5
239B
330
18
100
AcDbEntity
  8
1
  6
Continuous
100
AcDbCircle
 10
354.7149314459145
 20
299.95559833972
 30
0.0
 40
0.4999970186085692
100
AcDbArc
 50
0.0007985759525328
 51
89.99920142404908
  0
ARC
  5
239C
330
18
100
AcDbEntity
  8
1
  6
Continuous
100
AcDbCircle
 10
354.7149314459145
 20
292.8556119404627
 30
0.0
 40
0.4999970186085692
100
AcDbArc
 50
270.0007985759508
 51
359.9992014240492
  0
CIRCLE
  5
239D
330
18
100
AcDbEntity
  8
1
  6
Continuous
100
AcDbCircle
 10
351.1649382462922
 20
296.4056051400914
 30
0.0
 40
8.100000384729366
  0
CIRCLE
  5
239E
330
18
100
AcDbEntity
  8
1
  6
Continuous
100
AcDbCircle
 10
351.1649382462858
 20
296.405607821714
 30
0.0
 40
6.874989534311634
  0
ARC
  5
239F
330
18
100
AcDbEntity
  8
1
  6
Continuous
100
AcDbCircle
 10
351.1649382462922
 20
296.4043697567351
 30
0.0
 40
10.59876512011322
100
AcDbArc
 50
244.4638924899861
 51
295.5361075100138
  0
ARC
  5
23A0
330
18
100
AcDbEntity
  8
1
  6
Continuous
100
AcDbCircle
 10
351.1649382462922
 20
296.4046920680136
 30
0.0
 40
12.09908855836189
100
AcDbArc
 50
251.4892223376227
 51
288.5107776624014
  0
LINE
  5
23A1
330
18
100
AcDbEntity
  8
4
  6
CENTER
 48
0.2
100
AcDbLine
 10
370.1648297149497
 20
296.405607821714
 30
0.0
 11
331.8648774902565
 21
296.405607821714
 31
0.0
  0
LINE
  5
23A2
330
18
100
AcDbEntity
  8
1
  6
Continuous
100
AcDbLine
 10
361.1649387208931
 20
256.4057124365001
 30
0.0
 11
341.1649377679038
 21
256.4057124364999
 31
0.0
  0
LINE
  5
23A3
330
18
100
AcDbEntity
  8
1
  6
Continuous
100
AcDbLine
 10
365.1649389112565
 20
260.4056034233934
 30
0.0
 11
365.1649389112564
 21
289.0962758553635
 31
0.0
  0
LINE
  5
23A4
330
18
100
AcDbEntity
  8
1
  6
Continuous
100
AcDbLine
 10
355.6649384600307
 20
284.4573829475812
 30
0.0
 11
355.6649384600307
 21
261.655603489555
 31
0.0
  0
LINE
  5
23A5
330
18
100
AcDbEntity
  8
1
  6
Continuous
100
AcDbLine
 10
357.1649385312769
 20
262.9056035489268
 30
0.0
 11
357.1649385312769
 21
285.9385133564312
 31
0.0
  0
ARC
  5
23A6
330
18
100
AcDbEntity
  8
1
  6
Continuous
100
AcDbCircle
 10
361.1649387212667
 20
260.4056034301831
 30
0.0
 40
4.000000189989773
100
AcDbArc
 50
270.0000000144117
 51
359.9999998829833
  0
ARC
  5
23A7
330
18
100
AcDbEntity
  8
1
  6
Continuous
100
AcDbCircle
 10
358.9148998297512
 20
261.6556034895549
 30
0.0
 40
0.7500089663596464
100
AcDbArc
 50
270.0029629285737
 51
89.99703707142627
  0
ARC
  5
23A8
330
18
100
AcDbEntity
  8
1
  6
Continuous
100
AcDbCircle
 10
356.4147408411297
 20
261.6554058350311
 30
0.0
 40
0.7497205099136323
100
AcDbArc
 50
179.9848963272926
 51
270.0151036727252
  0
LINE
  5
23A9
330
18
100
AcDbEntity
  8
1
  6
Continuous
100
AcDbLine
 10
356.4149384956538
 20
260.9056034539319
 30
0.0
 11
358.9149386143973
 21
260.9056034539319
 31
0.0
  0
LINE
  5
23AA
330
18
100
AcDbEntity
  8
1
  6
Continuous
100
AcDbLine
 10
358.9149386143973
 20
262.405603525178
 30
0.0
 11
357.6649385550256
 21
262.405603525178
 31
0.0
  0
ARC
  5
23AB
330
18
100
AcDbEntity
  8
1
  6
Continuous
100
AcDbCircle
 10
357.6648067853358
 20
262.9054717792379
 30
0.0
 40
0.4998136732682533
100
AcDbArc
 50
179.9848963265737
 51
270.0151036735231
  0
ARC
  5
23B2
330
18
100
AcDbEntity
  8
1
  6
Continuous
100
AcDbCircle
 10
356.1649750209483
 20
285.9385713015604
 30
0.0
 40
0.9999315449199871
100
AcDbArc
 50
359.9966798675092
 51
115.5365490767739
  0
ARC
  5
23B3
330
18
100
AcDbEntity
  8
1
  6
Continuous
100
AcDbCircle
 10
355.1650997633034
 20
284.4576070837503
 30
0.0
 40
0.4997238654091129
100
AcDbArc
 50
359.9743076001336
 51
108.5350968640436
  0
LINE
  5
23BC
330
18
100
AcDbEntity
  8
1
  6
Continuous
100
AcDbLine
 10
355.2149384386505
 20
299.9556053087074
 30
0.0
 11
355.2149384386505
 21
292.8556049714755
 31
0.0
  0
LINE
  5
23C2
330
18
100
AcDbEntity
  8
1
  6
Continuous
100
AcDbLine
 10
337.1650467776344
 20
260.4056034301831
 30
0.0
 11
337.1650467776344
 21
289.1043694242528
 31
0.0
  0
LINE
  5
23C3
330
18
100
AcDbEntity
  8
1
  6
Continuous
100
AcDbLine
 10
346.6649380325536
 20
261.655603489555
 30
0.0
 11
346.6649380325536
 21
284.4573829475813
 31
0.0
  0
LINE
  5
23C4
330
18
100
AcDbEntity
  8
1
  6
Continuous
100
AcDbLine
 10
345.1649379613074
 20
285.9385133564312
 30
0.0
 11
345.1649379613074
 21
262.9056035489268
 31
0.0
  0
LINE
  5
23C5
330
18
100
AcDbEntity
  8
1
  6
Continuous
100
AcDbLine
 10
340.6540254250464
 20
252.794690365213
 30
0.0
 11
337.9971710493602
 21
250.1378359895191
 31
0.0
  0
ARC
  5
23C6
330
18
100
AcDbEntity
  8
1
  6
Continuous
100
AcDbCircle
 10
336.7651463218074
 20
256.6836915334621
 30
0.0
 40
2.499774572015138
100
AcDbArc
 50
314.9980216873613
 51
0.0019783137724735
  0
ARC
  5
23C7
330
18
100
AcDbEntity
  8
1
  6
Continuous
100
AcDbCircle
 10
341.1649377713176
 20
260.4056034301832
 30
0.0
 40
4.000000189989862
100
AcDbArc
 50
180.0
 51
269.9999999313382
  0
ARC
  5
23C8
330
18
100
AcDbEntity
  8
1
  6
Continuous
100
AcDbCircle
 10
336.7653963752723
 20
256.6835879579595
 30
0.0
 40
5.499504058595361
100
AcDbArc
 50
314.9980216874028
 51
357.1037612296057
  0
ARC
  5
23C9
330
18
100
AcDbEntity
  8
1
  6
Continuous
100
AcDbCircle
 10
343.4149766628331
 20
261.655603489555
 30
0.0
 40
0.7500089663596209
100
AcDbArc
 50
90.00296292857049
 51
269.9970370714295
  0
ARC
  5
23CA
330
18
100
AcDbEntity
  8
1
  6
Continuous
100
AcDbCircle
 10
345.9151356514547
 20
261.6554058350312
 30
0.0
 40
0.7497205099137396
100
AcDbArc
 50
269.9848963272812
 51
0.0151036727000182
  0
ARC
  5
23CB
330
18
100
AcDbEntity
  8
1
  6
Continuous
100
AcDbCircle
 10
344.6650697072484
 20
262.9054717792379
 30
0.0
 40
0.499813673268302
100
AcDbArc
 50
269.9848963264801
 51
0.0151036734287468
  0
LINE
  5
23CC
330
18
100
AcDbEntity
  8
1
  6
Continuous
100
AcDbLine
 10
343.4149378781869
 20
260.9056034539319
 30
0.0
 11
345.9149379969304
 21
260.9056034539319
 31
0.0
  0
LINE
  5
23CD
330
18
100
AcDbEntity
  8
1
  6
Continuous
100
AcDbLine
 10
344.6649379375586
 20
262.405603525178
 30
0.0
 11
343.4149378781869
 21
262.405603525178
 31
0.0
  0
LINE
  5
23CE
330
18
100
AcDbEntity
  8
1
  6
Continuous
100
AcDbLine
 10
339.2649380625423
 20
256.8856598757249
 30
0.0
 11
339.2649380625423
 21
256.6837778464936
 31
0.0
  0
LINE
  5
23CF
330
18
100
AcDbEntity
  8
1
  6
Continuous
100
AcDbLine
 10
338.5327049807333
 20
254.9160108095461
 30
0.0
 11
335.8758506050473
 21
252.2591564338522
 31
0.0
  0
ARC
  5
23D0
330
18
100
AcDbEntity
  8
1
  6
Continuous
100
AcDbCircle
 10
339.7647297081838
 20
248.3701552656048
 30
0.0
 40
2.499774571917233
100
AcDbArc
 50
134.9980216857302
 51
180.0019783125609
  0
ARC
  5
23D1
330
18
100
AcDbEntity
  8
1
  6
Continuous
100
AcDbCircle
 10
339.764479655251
 20
248.3702588409616
 30
0.0
 40
5.49950405903879
100
AcDbArc
 50
134.9980216895071
 51
180.0019783102909
  0
ARC
  5
23D3
330
18
100
AcDbEntity
  8
1
  6
Continuous
100
AcDbCircle
 10
347.1647767292804
 20
284.4576070837494
 30
0.0
 40
0.4997238654090224
100
AcDbArc
 50
71.46490313532783
 51
180.0256923997475
  0
ARC
  5
23D4
330
18
100
AcDbEntity
  8
1
  6
Continuous
100
AcDbCircle
 10
346.164901471636
 20
285.9385713015603
 30
0.0
 40
0.99993154492005
100
AcDbArc
 50
64.46345092321585
 51
180.0033201324955
  0
ARC
  5
23D9
330
18
100
AcDbEntity
  8
1
  6
Continuous
100
AcDbCircle
 10
347.6149450466571
 20
299.95559833972
 30
0.0
 40
0.4999970186085692
100
AcDbArc
 50
90.00079857595091
 51
179.9992014240483
  0
ARC
  5
23DA
330
18
100
AcDbEntity
  8
1
  6
Continuous
100
AcDbCircle
 10
347.6149450466571
 20
292.8556119404627
 30
0.0
 40
0.4999970186085692
100
AcDbArc
 50
180.0007985759526
 51
269.9992014240491
  0
LINE
  5
23DB
330
18
100
AcDbEntity
  8
1
  6
Continuous
100
AcDbLine
 10
347.1149380539212
 20
292.8556049714755
 30
0.0
 11
347.1149380539212
 21
299.9556053087074
 31
0.0
  0
LINE
  5
23DC
330
18
100
AcDbEntity
  8
1
  6
Continuous
100
AcDbLine
 10
347.6149380776698
 20
300.4556053324561
 30
0.0
 11
354.7149384149018
 21
300.4556053324561
 31
0.0
  0
LINE
  5
23DD
330
18
100
AcDbEntity
  8
1
  6
Continuous
100
AcDbLine
 10
354.7149384149018
 20
292.3556049477266
 30
0.0
 11
347.6149380776698
 21
292.3556049477266
 31
0.0
  0
ARC
  5
23F0
330
18
100
AcDbEntity
  8
1
  6
Continuous
100
AcDbCircle
 10
351.1649382462922
 20
315.405606042543
 30
0.0
 40
5.289192280887235
100
AcDbArc
 50
359.99999999996
 51
90.00007779122244
  0
ARC
  5
23F1
330
18
100
AcDbEntity
  8
1
  6
Continuous
100
AcDbCircle
 10
351.1649382462922
 20
315.405606042543
 30
0.0
 40
3.516959660553009
100
AcDbArc
 50
0.000000000597646
 51
90.0001451105208
  0
LINE
  5
23F2
330
18
100
AcDbEntity
  8
1
  6
Continuous
100
AcDbLine
 10
365.1648297149495
 20
334.405606944995
 30
0.0
 11
337.1649375813281
 21
334.4056069449951
 31
0.0
  0
LINE
  5
23F3
330
18
100
AcDbEntity
  8
1
  6
Continuous
100
AcDbLine
 10
356.4541305271794
 20
315.4056060425393
 30
0.0
 11
356.4543745875926
 21
313.4056059475482
 31
0.0
  0
ARC
  5
23FE
330
18
100
AcDbEntity
  8
1
  6
Continuous
100
AcDbCircle
 10
351.1649382462922
 20
315.405606042543
 30
0.0
 40
5.289537784000278
100
AcDbArc
 50
90.00007779122244
 51
180.0
  0
ARC
  5
23FF
330
18
100
AcDbEntity
  8
1
  6
Continuous
100
AcDbCircle
 10
351.1649382462922
 20
315.405606042543
 30
0.0
 40
3.517162649840723
100
AcDbArc
 50
90.0001451105208
 51
180.0000000000008
  0
ARC
  5
2400
330
18
100
AcDbEntity
  8
1
  6
Continuous
100
AcDbCircle
 10
351.1649382462922
 20
315.4055988750851
 30
0.0
 40
2.249967480061115
100
AcDbArc
 50
0.0001825178074966
 51
179.9998174821917
  0
LINE
  5
2401
330
18
100
AcDbEntity
  8
1
  6
Continuous
100
AcDbLine
 10
353.4149383531614
 20
313.4056059475482
 30
0.0
 11
353.4149383531614
 21
315.405606042543
 31
0.0
  0
LINE
  5
2402
330
18
100
AcDbEntity
  8
1
  6
Continuous
100
AcDbLine
 10
348.9149381394229
 20
315.405606042543
 30
0.0
 11
348.9149381394229
 21
313.4056059475482
 31
0.0
  0
LINE
  5
2403
330
18
100
AcDbEntity
  8
1
  6
Continuous
100
AcDbLine
 10
354.6818979068453
 20
315.4056060425797
 30
0.0
 11
354.6817839869158
 21
313.4056059475482
 31
0.0
  0
LINE
  5
2404
330
18
100
AcDbEntity
  8
1
  6
Continuous
100
AcDbLine
 10
347.6477755964515
 20
315.405606042543
 30
0.0
 11
347.647717961632
 21
313.4056059475114
 31
0.0
  0
LINE
  5
2405
330
18
100
AcDbEntity
  8
1
  6
Continuous
100
AcDbLine
 10
345.8754004622918
 20
315.405606042543
 30
0.0
 11
345.8753251096645
 21
313.4056059475518
 31
0.0
  0
LINE
  5
242B
330
18
100
AcDbEntity
  8
1
  6
Continuous
100
AcDbLine
 10
39.81973799177854
 20
445.4055405016497
 30
0.0
 11
53.81973865674261
 21
445.4055405016494
 31
0.0
  0
ARC
  5
242C
330
18
100
AcDbEntity
  8
1
  6
Continuous
100
AcDbCircle
 10
46.81976458580789
 20
439.839700220974
 30
0.0
 40
0.7980490720243393
100
AcDbArc
 50
212.9497042136871
 51
327.0479592389937
  0
ARC
  5
242D
330
18
100
AcDbEntity
  8
1
  6
Continuous
100
AcDbCircle
 10
45.91669759454497
 20
440.4807968279644
 30
0.0
 40
1.905125947376624
100
AcDbArc
 50
325.6418476049322
 51
2.680934578731894
  0
ARC
  5
2430
330
18
100
AcDbEntity
  8
1
  6
Continuous
100
AcDbCircle
 10
47.7376604093895
 20
445.2948135665653
 30
0.0
 40
0.0821439855025948
100
AcDbArc
 50
357.7026410723274
 51
60.16109023578213
  0
ARC
  5
2431
330
18
100
AcDbEntity
  8
1
  6
Continuous
100
AcDbCircle
 10
47.56505515363961
 20
444.8331591073075
 30
0.0
 40
0.57407652692591
100
AcDbArc
 50
68.16952050854759
 51
94.40414384018806
  0
LINE
  5
2432
330
18
100
AcDbEntity
  8
1
  6
Continuous
100
AcDbLine
 10
47.81973837175813
 20
440.5699073093022
 30
0.0
 11
47.81973837175813
 21
445.2915207645949
 31
0.0
  0
ARC
  5
2433
330
18
100
AcDbEntity
  8
1
  6
Continuous
100
AcDbCircle
 10
47.72237856649963
 20
440.4807554531455
 30
0.0
 40
1.904727835042145
100
AcDbArc
 50
177.3172587089377
 51
214.3638368278506
  0
ARC
  5
2435
330
18
100
AcDbEntity
  8
1
  6
Continuous
100
AcDbCircle
 10
45.90181623913189
 20
445.2948135665653
 30
0.0
 40
0.0821439855025948
100
AcDbArc
 50
119.8389097642178
 51
182.2973589276735
  0
ARC
  5
2436
330
18
100
AcDbEntity
  8
1
  6
Continuous
100
AcDbCircle
 10
46.07442149488178
 20
444.8331591073075
 30
0.0
 40
0.57407652692591
100
AcDbArc
 50
85.59585615981196
 51
111.8304794914524
  0
LINE
  5
2437
330
18
100
AcDbEntity
  8
1
  6
Continuous
100
AcDbLine
 10
45.81973827676324
 20
440.5699073093022
 30
0.0
 11
45.81973827676324
 21
445.2915207645949
 31
0.0
  0
LINE
  5
2438
330
18
100
AcDbEntity
  8
1
  6
Continuous
100
AcDbLine
 10
346.7649376558335
 20
442.4056120747192
 30
0.0
 11
357.0649381450573
 21
442.4056120747192
 31
0.0
  0
LINE
  5
2439
330
18
100
AcDbEntity
  8
1
  6
Continuous
100
AcDbLine
 10
346.7649376558335
 20
445.4056122172115
 30
0.0
 11
357.0649381450573
 21
445.4056122172116
 31
0.0
  0
ARC
  5
243A
330
18
100
AcDbEntity
  8
1
  6
Continuous
100
AcDbCircle
 10
357.0651112757407
 20
439.4057850629543
 30
0.0
 40
5.999755441193014
100
AcDbArc
 50
359.9983466757072
 51
90.00165332386934
  0
LINE
  5
243B
330
18
100
AcDbEntity
  8
1
  6
Continuous
100
AcDbLine
 10
360.0647167620727
 20
437.7993555886313
 30
0.0
 11
355.4582501490449
 21
442.405822201659
 31
0.0
  0
ARC
  5
243C
330
18
100
AcDbEntity
  8
1
  6
Continuous
100
AcDbCircle
 10
357.0648963311414
 20
439.4055701183108
 30
0.0
 40
2.999982111642278
100
AcDbArc
 50
0.0007985758010875
 51
89.99920142419894
  0
LINE
  5
243D
330
18
100
AcDbEntity
  8
1
  6
Continuous
100
AcDbLine
 10
349.2649377745772
 20
445.4056122172116
 30
0.0
 11
349.2649377745772
 21
442.4056120747192
 31
0.0
  0
LINE
  5
243E
330
18
100
AcDbEntity
  8
1
  6
Continuous
100
AcDbLine
 10
352.5649379313188
 20
445.4056122172116
 30
0.0
 11
352.5649379313188
 21
442.4056120747192
 31
0.0
  0
LINE
  5
243F
330
18
100
AcDbEntity
  8
1
  6
Continuous
100
AcDbLine
 10
346.7649376558335
 20
445.4056122172115
 30
0.0
 11
346.7649376558335
 21
442.4056120747192
 31
0.0
  0
LINE
  5
247F
330
18
100
AcDbEntity
  8
4
  6
CENTER
 48
0.2
100
AcDbLine
 10
236.8141735824635
 20
296.405607821714
 30
0.0
 11
263.9460929450242
 21
296.405607821714
 31
0.0
  0
LINE
  5
2480
330
18
100
AcDbEntity
  8
4
  6
CENTER
 48
0.2
100
AcDbLine
 10
359.4542525573858
 20
314.4056059950456
 30
0.0
 11
342.875362785978
 21
314.4056059950455
 31
0.0
  0
ARC
  5
248B
330
18
100
AcDbEntity
  8
1
  6
Continuous
100
AcDbCircle
 10
156.0618464723005
 20
308.8288154549268
 30
0.0
 40
2.226414744131635
100
AcDbArc
 50
156.561813866749
 51
230.8960859859
  0
ARC
  5
248C
330
18
100
AcDbEntity
  8
1
  6
Continuous
100
AcDbCircle
 10
155.6715710295072
 20
289.0783014976145
 30
0.0
 40
0.1500082929568982
100
AcDbArc
 50
266.0097667226973
 51
359.9864587172531
  0
ARC
  5
248D
330
18
100
AcDbEntity
  8
1
  6
Continuous
100
AcDbCircle
 10
146.9216036775985
 20
296.4056105033368
 30
0.0
 40
10.40035043951771
100
AcDbArc
 50
224.3262500554572
 51
243.6960646540202
  0
ARC
  5
248F
330
18
100
AcDbEntity
  8
1
  6
Continuous
100
AcDbCircle
 10
146.9216036775985
 20
296.4056105033368
 30
0.0
 40
10.40035043951771
100
AcDbArc
 50
296.3112899242073
 51
315.6896611034957
  0
LINE
  5
24B0
330
18
100
AcDbEntity
  8
4
  6
CENTER
 48
0.2
100
AcDbLine
 10
61.95165725934384
 20
296.4056052650913
 30
0.0
 11
34.81973791198402
 21
296.4056052650913
 31
0.0
  0
LINE
  5
24BA
330
18
100
AcDbEntity
  8
1
  6
Continuous
100
AcDbLine
 10
54.11562015650474
 20
303.4056029159508
 30
0.0
 11
38.92386204100398
 21
303.4056029159508
 31
0.0
  0
LINE
  5
24BB
330
18
100
AcDbEntity
  8
1
  6
Continuous
100
AcDbLine
 10
38.92385649201674
 20
301.4056028209559
 30
0.0
 11
54.11562015650474
 21
301.4056028209559
 31
0.0
  0
ARC
  5
24BC
330
18
100
AcDbEntity
  8
1
  6
Continuous
100
AcDbCircle
 10
38.75656360324068
 20
304.7211945263293
 30
0.0
 40
1.326186281283027
100
AcDbArc
 50
229.9781150260935
 51
277.2471733430235
  0
ARC
  5
24BD
330
18
100
AcDbEntity
  8
1
  6
Continuous
100
AcDbCircle
 10
38.75656360324068
 20
300.0900105049471
 30
0.0
 40
1.326186281283027
100
AcDbArc
 50
82.75306832274436
 51
130.0218849739064
  0
ARC
  5
24BE
330
18
100
AcDbEntity
  8
1
  6
Continuous
100
AcDbCircle
 10
54.28291581979806
 20
304.7211948791443
 30
0.0
 40
1.326186281283027
100
AcDbArc
 50
262.7529474888555
 51
310.0218849739063
  0
ARC
  5
24BF
330
18
100
AcDbEntity
  8
1
  6
Continuous
100
AcDbCircle
 10
54.28291581979806
 20
300.0900108577622
 30
0.0
 40
1.326186281283027
100
AcDbArc
 50
49.97811502609359
 51
97.24705251114119
  0
LINE
  5
24C0
330
18
100
AcDbEntity
  8
1
  6
Continuous
100
AcDbLine
 10
54.11562015650474
 20
291.4056023459813
 30
0.0
 11
38.92386204100398
 21
291.4056023459813
 31
0.0
  0
LINE
  5
24C1
330
18
100
AcDbEntity
  8
1
  6
Continuous
100
AcDbLine
 10
38.58926516521775
 20
289.4056022509864
 30
0.0
 11
54.11562015650428
 21
289.4056022509864
 31
0.0
  0
ARC
  5
24C2
330
18
100
AcDbEntity
  8
1
  6
Continuous
100
AcDbCircle
 10
38.75656360324068
 20
292.7211939563599
 30
0.0
 40
1.326186281283027
100
AcDbArc
 50
229.9781150260935
 51
277.2471733430301
  0
ARC
  5
24C3
330
18
100
AcDbEntity
  8
1
  6
Continuous
100
AcDbCircle
 10
38.75656360324068
 20
288.0900099349777
 30
0.0
 40
1.326186281283027
100
AcDbArc
 50
97.24705252227423
 51
130.0218849739064
  0
ARC
  5
24C4
330
18
100
AcDbEntity
  8
1
  6
Continuous
100
AcDbCircle
 10
54.28291581979806
 20
292.7211943091749
 30
0.0
 40
1.326186281283027
100
AcDbArc
 50
262.7529474888489
 51
310.0218849739063
  0
ARC
  5
24C5
330
18
100
AcDbEntity
  8
1
  6
Continuous
100
AcDbCircle
 10
54.28291581979806
 20
288.0900102877927
 30
0.0
 40
1.326186281283027
100
AcDbArc
 50
49.97811502609359
 51
97.24705251116088
  0
ARC
  5
2530
330
18
100
AcDbEntity
  8
1
  6
Continuous
100
AcDbCircle
 10
132.1216029651367
 20
303.2056054725736
 30
0.0
 40
0.2
100
AcDbArc
 50
90.0
 51
180.0
  0
ARC
  5
2531
330
18
100
AcDbEntity
  8
1
  6
Continuous
100
AcDbCircle
 10
132.1216029651367
 20
301.6056053775787
 30
0.0
 40
0.2
100
AcDbArc
 50
180.0
 51
270.0
  0
ARC
  5
2532
330
18
100
AcDbEntity
  8
1
  6
Continuous
100
AcDbCircle
 10
132.1216029651367
 20
291.2056049026042
 30
0.0
 40
0.2
100
AcDbArc
 50
90.0
 51
180.0
  0
ARC
  5
2533
330
18
100
AcDbEntity
  8
1
  6
Continuous
100
AcDbCircle
 10
132.1216029651367
 20
289.6056048076092
 30
0.0
 40
0.2
100
AcDbArc
 50
180.0
 51
270.0
  0
ARC
  5
2534
330
18
100
AcDbEntity
  8
1
  6
Continuous
100
AcDbCircle
 10
161.7216043900603
 20
303.2056054725736
 30
0.0
 40
0.2
100
AcDbArc
 50
0.0
 51
90.0
  0
ARC
  5
2535
330
18
100
AcDbEntity
  8
1
  6
Continuous
100
AcDbCircle
 10
161.7216043900603
 20
301.6056053775786
 30
0.0
 40
0.2
100
AcDbArc
 50
270.0
 51
0.0
  0
ARC
  5
2536
330
18
100
AcDbEntity
  8
1
  6
Continuous
100
AcDbCircle
 10
161.7216043900603
 20
291.2056049026042
 30
0.0
 40
0.2
100
AcDbArc
 50
0.0
 51
90.0
  0
ARC
  5
2537
330
18
100
AcDbEntity
  8
1
  6
Continuous
100
AcDbCircle
 10
161.7216043900603
 20
289.6056048076092
 30
0.0
 40
0.2
100
AcDbArc
 50
270.0
 51
0.0
  0
ARC
  5
2538
330
18
100
AcDbEntity
  8
1
  6
Continuous
100
AcDbCircle
 10
161.221495146255
 20
289.1056048076093
 30
0.0
 40
0.3
100
AcDbArc
 50
90.0
 51
180.0
  0
ARC
  5
2539
330
18
100
AcDbEntity
  8
1
  6
Continuous
100
AcDbCircle
 10
161.2214951462552
 20
291.7056049026042
 30
0.0
 40
0.3
100
AcDbArc
 50
179.9999999999986
 51
270.0
  0
ARC
  5
253A
330
18
100
AcDbEntity
  8
1
  6
Continuous
100
AcDbCircle
 10
161.2214951462554
 20
303.7056054725735
 30
0.0
 40
0.3
100
AcDbArc
 50
179.9999999999991
 51
270.0
  0
ARC
  5
253B
330
18
100
AcDbEntity
  8
1
  6
Continuous
100
AcDbCircle
 10
161.2214951462554
 20
301.1056053775786
 30
0.0
 40
0.3
100
AcDbArc
 50
90.0
 51
179.9999999999986
  0
ARC
  5
253C
330
18
100
AcDbEntity
  8
1
  6
Continuous
100
AcDbCircle
 10
132.6216030126342
 20
303.7056054725735
 30
0.0
 40
0.3
100
AcDbArc
 50
270.0
 51
0.0
  0
ARC
  5
253D
330
18
100
AcDbEntity
  8
1
  6
Continuous
100
AcDbCircle
 10
132.6216030126342
 20
301.1056053775786
 30
0.0
 40
0.3
100
AcDbArc
 50
0.0
 51
89.99999999999365
  0
ARC
  5
253E
330
18
100
AcDbEntity
  8
1
  6
Continuous
100
AcDbCircle
 10
132.6216030126342
 20
291.7056049026042
 30
0.0
 40
0.3
100
AcDbArc
 50
270.0
 51
0.0
  0
ARC
  5
253F
330
18
100
AcDbEntity
  8
1
  6
Continuous
100
AcDbCircle
 10
132.621712208942
 20
289.1056048076091
 30
0.0
 40
0.3
100
AcDbArc
 50
0.0
 51
90.0
  0
LINE
  5
2541
330
18
100
AcDbEntity
  8
1
  6
Continuous
100
AcDbLine
 10
337.1649375813278
 20
301.1043699942222
 30
0.0
 11
337.1649375813278
 21
291.7043695192477
 31
0.0
  0
LINE
  5
2542
330
18
100
AcDbEntity
  8
1
  6
Continuous
100
AcDbLine
 10
336.3649375338304
 20
289.4043694242528
 30
0.0
 11
336.8650467776357
 21
289.4043694242528
 31
0.0
  0
ARC
  5
2543
330
18
100
AcDbEntity
  8
1
  6
Continuous
100
AcDbCircle
 10
336.8650467776357
 20
289.1043694242528
 30
0.0
 40
0.3
100
AcDbArc
 50
0.0
 51
90.0
  0
LINE
  5
2544
330
18
100
AcDbEntity
  8
1
  6
Continuous
100
AcDbLine
 10
336.8649375813278
 20
291.4043695192477
 30
0.0
 11
336.3649375338304
 21
291.4043695192477
 31
0.0
  0
ARC
  5
2545
330
18
100
AcDbEntity
  8
1
  6
Continuous
100
AcDbCircle
 10
336.8649375813278
 20
291.7043695192477
 30
0.0
 40
0.3
100
AcDbArc
 50
270.0
 51
0.0
  0
LINE
  5
2546
330
18
100
AcDbEntity
  8
1
  6
Continuous
100
AcDbLine
 10
336.1649375338304
 20
291.2043695192476
 30
0.0
 11
336.1649375338304
 21
289.6043694242528
 31
0.0
  0
ARC
  5
2547
330
18
100
AcDbEntity
  8
1
  6
Continuous
100
AcDbCircle
 10
336.3649375338304
 20
289.6043694242528
 30
0.0
 40
0.2
100
AcDbArc
 50
180.0
 51
270.0
  0
ARC
  5
2548
330
18
100
AcDbEntity
  8
1
  6
Continuous
100
AcDbCircle
 10
336.3649375338304
 20
291.2043695192476
 30
0.0
 40
0.2
100
AcDbArc
 50
90.0
 51
180.0
  0
LINE
  5
2549
330
18
100
AcDbEntity
  8
1
  6
Continuous
100
AcDbLine
 10
336.3649375338304
 20
301.4043699942222
 30
0.0
 11
336.8649375813279
 21
301.4043699942222
 31
0.0
  0
ARC
  5
254A
330
18
100
AcDbEntity
  8
1
  6
Continuous
100
AcDbCircle
 10
336.8649375813278
 20
301.1043699942222
 30
0.0
 40
0.3
100
AcDbArc
 50
0.0
 51
89.99999999999365
  0
LINE
  5
254B
330
18
100
AcDbEntity
  8
1
  6
Continuous
100
AcDbLine
 10
336.8649375813278
 20
303.4043700892171
 30
0.0
 11
336.3649375338304
 21
303.4043700892171
 31
0.0
  0
ARC
  5
254C
330
18
100
AcDbEntity
  8
1
  6
Continuous
100
AcDbCircle
 10
336.8649375813278
 20
303.7043700892171
 30
0.0
 40
0.3
100
AcDbArc
 50
270.0
 51
0.0
  0
LINE
  5
254D
330
18
100
AcDbEntity
  8
1
  6
Continuous
100
AcDbLine
 10
336.1649375338304
 20
303.2043700892171
 30
0.0
 11
336.1649375338304
 21
301.6043699942223
 31
0.0
  0
ARC
  5
254E
330
18
100
AcDbEntity
  8
1
  6
Continuous
100
AcDbCircle
 10
336.3649375338304
 20
301.6043699942223
 30
0.0
 40
0.2
100
AcDbArc
 50
180.0
 51
270.0
  0
ARC
  5
254F
330
18
100
AcDbEntity
  8
1
  6
Continuous
100
AcDbCircle
 10
336.3649375338304
 20
303.2043700892171
 30
0.0
 40
0.2
100
AcDbArc
 50
90.0
 51
180.0
  0
LINE
  5
2550
330
18
100
AcDbEntity
  8
1
  6
Continuous
100
AcDbLine
 10
365.164829714949
 20
301.1043699942221
 30
0.0
 11
365.1648297149488
 21
291.7043695192477
 31
0.0
  0
LINE
  5
2551
330
18
100
AcDbEntity
  8
1
  6
Continuous
100
AcDbLine
 10
365.9649389587539
 20
291.4043695192477
 30
0.0
 11
365.4648297149488
 21
291.4043695192477
 31
0.0
  0
ARC
  5
2552
330
18
100
AcDbEntity
  8
1
  6
Continuous
100
AcDbCircle
 10
365.4648297149488
 20
291.7043695192477
 30
0.0
 40
0.3
100
AcDbArc
 50
180.0
 51
270.0
  0
LINE
  5
2553
330
18
100
AcDbEntity
  8
1
  6
Continuous
100
AcDbLine
 10
365.4648297149487
 20
289.4043694242528
 30
0.0
 11
365.9649389587539
 21
289.4043694242528
 31
0.0
  0
ARC
  5
2554
330
18
100
AcDbEntity
  8
1
  6
Continuous
100
AcDbCircle
 10
365.4648297149487
 20
289.1043694242528
 30
0.0
 40
0.3
100
AcDbArc
 50
90.0
 51
181.5459453681335
  0
LINE
  5
2555
330
18
100
AcDbEntity
  8
1
  6
Continuous
100
AcDbLine
 10
366.1649389587539
 20
289.6043694242528
 30
0.0
 11
366.1649389587539
 21
291.2043695192476
 31
0.0
  0
ARC
  5
2556
330
18
100
AcDbEntity
  8
1
  6
Continuous
100
AcDbCircle
 10
365.9649389587539
 20
289.6043694242528
 30
0.0
 40
0.2
100
AcDbArc
 50
270.0
 51
0.0
  0
ARC
  5
2557
330
18
100
AcDbEntity
  8
1
  6
Continuous
100
AcDbCircle
 10
365.9649389587539
 20
291.2043695192476
 30
0.0
 40
0.2
100
AcDbArc
 50
0.0
 51
90.0
  0
LINE
  5
2558
330
18
100
AcDbEntity
  8
1
  6
Continuous
100
AcDbLine
 10
365.464829714949
 20
301.4043699942221
 30
0.0
 11
365.9649389587539
 21
301.4043699942222
 31
0.0
  0
ARC
  5
2559
330
18
100
AcDbEntity
  8
1
  6
Continuous
100
AcDbCircle
 10
365.464829714949
 20
301.1043699942221
 30
0.0
 40
0.3
100
AcDbArc
 50
90.0
 51
180.0
  0
LINE
  5
255A
330
18
100
AcDbEntity
  8
1
  6
Continuous
100
AcDbLine
 10
365.9649389587539
 20
303.4043700892171
 30
0.0
 11
365.464829714949
 21
303.4043700892171
 31
0.0
  0
ARC
  5
255B
330
18
100
AcDbEntity
  8
1
  6
Continuous
100
AcDbCircle
 10
365.464829714949
 20
303.7043700892171
 30
0.0
 40
0.3
100
AcDbArc
 50
180.0
 51
270.0
  0
LINE
  5
255C
330
18
100
AcDbEntity
  8
1
  6
Continuous
100
AcDbLine
 10
366.1649389587539
 20
301.6043699942222
 30
0.0
 11
366.1649389587539
 21
303.2043700892171
 31
0.0
  0
ARC
  5
255D
330
18
100
AcDbEntity
  8
1
  6
Continuous
100
AcDbCircle
 10
365.9649389587539
 20
301.6043699942222
 30
0.0
 40
0.2
100
AcDbArc
 50
270.0
 51
0.0
  0
ARC
  5
255E
330
18
100
AcDbEntity
  8
1
  6
Continuous
100
AcDbCircle
 10
365.9649389587539
 20
303.2043700892171
 30
0.0
 40
0.2
100
AcDbArc
 50
0.0
 51
90.0
  0
LINE
  5
255F
330
18
100
AcDbEntity
  8
4
  6
CENTER
 48
0.2
100
AcDbLine
 10
158.2109179886986
 20
314.4056059950457
 30
0.0
 11
135.6320282172907
 21
314.4056059950457
 31
0.0
  0
LINE
  5
2560
330
18
100
AcDbEntity
  8
1
  6
Continuous
100
AcDbLine
 10
51.81973865674286
 20
254.5790188685002
 30
0.0
 11
41.81973799177852
 21
254.5790188685002
 31
0.0
  0
LINE
  5
2561
330
18
100
AcDbEntity
  8
1
  6
Continuous
100
AcDbLine
 10
51.81973865674286
 20
249.3267775789597
 30
0.0
 11
41.81973799177852
 21
249.3267775789597
 31
0.0
  0
LINE
  5
2562
330
18
100
AcDbEntity
  8
1
  6
Continuous
100
AcDbLine
 10
246.946092185065
 20
255.7270692201272
 30
0.0
 11
256.9460928500293
 21
255.7270692201272
 31
0.0
  0
LINE
  5
2563
330
18
100
AcDbEntity
  8
1
  6
Continuous
100
AcDbLine
 10
246.946092185065
 20
250.4748279305892
 30
0.0
 11
256.9460928500293
 21
250.4748279305892
 31
0.0
  0
LINE
  5
256F
330
18
100
AcDbEntity
  8
1
  6
Continuous
100
AcDbLine
 10
132.0216029435085
 20
36.11532957554166
 30
0.0
 11
133.4215990829638
 21
35.30704142756736
 31
0.0
  0
LINE
  5
258C
330
18
100
AcDbEntity
  8
4
  6
CENTER
 48
0.2
100
AcDbLine
 10
45.81973832426068
 20
314.4056059950457
 30
0.0
 11
34.81973791198402
 21
314.4056059950457
 31
0.0
  0
LINE
  5
258D
330
18
100
AcDbEntity
  8
4
  6
CENTER
 48
0.2
100
AcDbLine
 10
263.946092945024
 20
314.4056085516684
 30
0.0
 11
252.9460925175472
 21
314.4056085516684
 31
0.0
  0
ENDSEC
  0
SECTION
  2
OBJECTS
  0
DICTIONARY
  5
C
330
0
100
AcDbDictionary
281
     1
  3
ACAD_CIP_PREVIOUS_PRODUCT_INFO
350
2612
  3
ACAD_COLOR
350
25F5
  3
ACAD_DETAILVIEWSTYLE
350
260E
  3
ACAD_GROUP
350
D
  3
ACAD_LAYOUT
350
94
  3
ACAD_MATERIAL
350
25C3
  3
ACAD_MLEADERSTYLE
350
260A
  3
ACAD_MLINESTYLE
350
1B
  3
ACAD_PLOTSETTINGS
350
95
  3
ACAD_PLOTSTYLENAME
350
25C1
  3
ACAD_SCALELIST
350
25F8
  3
ACAD_SECTIONVIEWSTYLE
350
260C
  3
ACAD_TABLESTYLE
350
25F6
  3
ACAD_VISUALSTYLE
350
25DC
  3
ACDB_RECOMPOSE_DATA
350
2630
  3
AcDbVariableDictionary
350
2623
  3
CONTENTDICTIONARY
350
3D
  3
DWGPROPS
350
2631
  0
DICTIONARY
  5
2613
330
E
100
AcDbDictionary
280
     1
281
     1
  3
ADSK_XREC_LAYER_RECONCILED
360
2614
  0
DICTIONARY
  5
2615
330
4E
100
AcDbDictionary
280
     1
281
     1
  3
ADSK_XREC_LAYER_RECONCILED
360
2616
  0
DICTIONARY
  5
2617
330
4F
100
AcDbDictionary
280
     1
281
     1
  3
ADSK_XREC_LAYER_RECONCILED
360
2618
  0
DICTIONARY
  5
2619
330
50
100
AcDbDictionary
280
     1
281
     1
  3
ADSK_XREC_LAYER_RECONCILED
360
261A
  0
DICTIONARY
  5
261B
330
51
100
AcDbDictionary
280
     1
281
     1
  3
ADSK_XREC_LAYER_RECONCILED
360
261C
  0
DICTIONARY
  5
261D
330
52
100
AcDbDictionary
280
     1
281
     1
  3
ADSK_XREC_LAYER_RECONCILED
360
261E
  0
DICTIONARY
  5
261F
330
53
100
AcDbDictionary
280
     1
281
     1
  3
ADSK_XREC_LAYER_RECONCILED
360
2620
  0
DICTIONARY
  5
2621
330
54
100
AcDbDictionary
280
     1
281
     1
  3
ADSK_XREC_LAYER_RECONCILED
360
2622
  0
DICTIONARY
  5
25BC
330
18
100
AcDbDictionary
281
     1
  3
ACAD_LAYOUTSELFREF
350
25BD
  0
DICTIONARY
  5
25BA
330
15
100
AcDbDictionary
281
     1
  3
ACAD_LAYOUTSELFREF
350
25BB
  0
XRECORD
  5
2612
102
{ACAD_REACTORS
330
C
102
}
330
C
100
AcDbXrecord
280
     1
300
ACDLT
300
2014
300
ACDLT_F_S
  0
DICTIONARY
  5
25F5
102
{ACAD_REACTORS
330
C
102
}
330
C
100
AcDbDictionary
281
     1
  0
DICTIONARY
  5
260E
102
{ACAD_REACTORS
330
C
102
}
330
C
100
AcDbDictionary
281
     1
  3
Imperial24
350
260F
  0
DICTIONARY
  5
D
102
{ACAD_REACTORS
330
C
102
}
330
C
100
AcDbDictionary
281
     1
  0
DICTIONARY
  5
94
102
{ACAD_REACTORS
330
C
102
}
330
C
100
AcDbDictionary
281
     1
  3
Model
350
2610
  3
レイアウト1
350
2611
  0
DICTIONARY
  5
25C3
102
{ACAD_REACTORS
330
C
102
}
330
C
100
AcDbDictionary
281
     1
  3
ByBlock
350
25CC
  3
ByLayer
350
25C4
  3
Global
350
25D4
  0
DICTIONARY
  5
260A
102
{ACAD_REACTORS
330
C
102
}
330
C
100
AcDbDictionary
281
     1
  3
Standard
350
260B
  0
DICTIONARY
  5
1B
102
{ACAD_REACTORS
330
C
102
}
330
C
100
AcDbDictionary
281
     1
  3
STANDARD
350
1C
  0
DICTIONARY
  5
95
102
{ACAD_REACTORS
330
C
102
}
330
C
100
AcDbDictionary
281
     1
  0
ACDBDICTIONARYWDFLT
  5
25C1
102
{ACAD_REACTORS
330
C
102
}
330
C
100
AcDbDictionary
281
     1
  3
Normal
350
25C2
100
AcDbDictionaryWithDefault
340
25C2
  0
DICTIONARY
  5
25F8
102
{ACAD_REACTORS
330
C
102
}
330
C
100
AcDbDictionary
281
     1
  3
A0
350
25F9
  3
A1
350
25FA
  3
A2
350
25FB
  3
A3
350
25FC
  3
A4
350
25FD
  3
A5
350
25FE
  3
A6
350
25FF
  3
A7
350
2600
  3
A8
350
2601
  3
A9
350
2602
  3
B0
350
2603
  3
B1
350
2604
  3
B2
350
2605
  3
B3
350
2606
  3
B4
350
2607
  3
B5
350
2608
  3
B6
350
2609
  0
DICTIONARY
  5
260C
102
{ACAD_REACTORS
330
C
102
}
330
C
100
AcDbDictionary
281
     1
  3
Imperial24
350
260D
  0
DICTIONARY
  5
25F6
102
{ACAD_REACTORS
330
C
102
}
330
C
100
AcDbDictionary
281
     1
  3
Standard
350
25F7
  0
DICTIONARY
  5
25DC
102
{ACAD_REACTORS
330
C
102
}
330
C
100
AcDbDictionary
281
     1
  3
2dWireframe
350
25E2
  3
Basic
350
25E1
  3
Brighten
350
25E8
  3
ColorChange
350
25EC
  3
Conceptual
350
25E5
  3
Dim
350
25E7
  3
EdgeColorOff
350
25F4
  3
Facepattern
350
25EB
  3
Flat
350
25DD
  3
FlatWithEdges
350
25DE
  3
Gouraud
350
25DF
  3
GouraudWithEdges
350
25E0
  3
Hidden
350
25E4
  3
JitterOff
350
25F2
  3
Linepattern
350
25EA
  3
OverhangOff
350
25F3
  3
Realistic
350
25E6
  3
Shaded
350
25F1
  3
Shaded with edges
350
25F0
  3
Shades of Gray
350
25ED
  3
Sketchy
350
25EE
  3
Thicken
350
25E9
  3
Wireframe
350
25E3
  3
X-Ray
350
25EF
  0
XRECORD
  5
2630
102
{ACAD_REACTORS
330
C
102
}
330
C
100
AcDbXrecord
280
     1
 90
        1
330
25F7
  0
DICTIONARY
  5
2623
102
{ACAD_REACTORS
330
C
102
}
330
C
100
AcDbDictionary
281
     1
  3
CANNOSCALE
350
2628
  3
CMLEADERSTYLE
350
2625
  3
CTABLESTYLE
350
2624
  3
CVIEWDETAILSTYLE
350
2626
  3
CVIEWSECTIONSTYLE
350
2627
  3
DIMASSOC
350
262B
  3
INDEXCTL
350
262A
  3
SORTENTS
350
2629
  3
XCLIPFRAME
350
262C
  0
DICTIONARY
  5
3D
102
{ACAD_REACTORS
330
C
102
}
330
C
100
AcDbDictionary
281
     1
  0
XRECORD
  5
2631
102
{ACAD_REACTORS
330
C
102
}
330
C
100
AcDbXrecord
280
     1
  1
DWGPROPS COOKIE
  2

  3

  4

  6

  7

  8
Yoshitsune
  9

300
=
301
=
302
=
303
=
304
=
305
=
306
=
307
=
308
=
309
=
 40
0.2325161226851852
 41
2453781.602597107
 42
2457192.700788958
  1

 90
        0
  0
XRECORD
  5
2614
102
{ACAD_REACTORS
330
2613
102
}
330
2613
100
AcDbXrecord
280
     1
290
     1
  0
XRECORD
  5
2616
102
{ACAD_REACTORS
330
2615
102
}
330
2615
100
AcDbXrecord
280
     1
290
     1
  0
XRECORD
  5
2618
102
{ACAD_REACTORS
330
2617
102
}
330
2617
100
AcDbXrecord
280
     1
290
     1
  0
XRECORD
  5
261A
102
{ACAD_REACTORS
330
2619
102
}
330
2619
100
AcDbXrecord
280
     1
290
     1
  0
XRECORD
  5
261C
102
{ACAD_REACTORS
330
261B
102
}
330
261B
100
AcDbXrecord
280
     1
290
     1
  0
XRECORD
  5
261E
102
{ACAD_REACTORS
330
261D
102
}
330
261D
100
AcDbXrecord
280
     1
290
     1
  0
XRECORD
  5
2620
102
{ACAD_REACTORS
330
261F
102
}
330
261F
100
AcDbXrecord
280
     1
290
     1
  0
XRECORD
  5
2622
102
{ACAD_REACTORS
330
2621
102
}
330
2621
100
AcDbXrecord
280
     1
290
     1
  0
XRECORD
  5
25BD
102
{ACAD_REACTORS
330
25BC
102
}
330
25BC
100
AcDbXrecord
280
     1
340
18
  0
XRECORD
  5
25BB
102
{ACAD_REACTORS
330
25BA
102
}
330
25BA
100
AcDbXrecord
280
     1
340
15
  0
ACDBDETAILVIEWSTYLE
  5
260F
102
{ACAD_XDICTIONARY
360
2669
102
}
102
{ACAD_REACTORS
330
260E
102
}
330
260E
100
AcDbModelDocViewStyle
 70
     0
  3
Imperial24
290
     0
100
AcDbDetailViewStyle
 70
     0
 71
     0
 90
        3
 71
     1
340
F
 40
0.24
340
0
 40
0.24
300

 40
0.36
280
     3
 71
     2
340
14
 90
       25
 71
     3
340
F
 40
0.24
 90
        1
 40
0.75
 90
        1
300
%<\AcVar ViewType \f "%tc1">% %<\AcVar ViewDetailId>%\PSCALE %<\AcVar ViewScale \f "%sn">%
 71
     4
340
14
 90
       25
340
14
 90
       25
280
     0
  0
LAYOUT
  5
2610
102
{ACAD_XDICTIONARY
360
266B
102
}
102
{ACAD_REACTORS
330
94
102
}
330
94
100
AcDbPlotSettings
  1

  2
Canon LBP9100C
  4

  6

 40
0.0
 41
0.0
 42
0.0
 43
0.0
 44
0.0
 45
0.0
 46
0.0
 47
0.0
 48
0.0
 49
0.0
140
0.0
141
0.0
142
1.0
143
1.0
 70
  1712
 72
     0
 73
     0
 74
     0
  7

 75
     0
147
1.0
148
0.0
149
0.0
100
AcDbLayout
  1
Model
 70
     1
 71
     0
 10
0.0
 20
0.0
 11
12.0
 21
9.0
 12
0.0
 22
0.0
 32
0.0
 14
0.0
 24
0.0
 34
0.0
 15
0.0
 25
0.0
 35
0.0
146
0.0
 13
0.0
 23
0.0
 33
0.0
 16
1.0
 26
0.0
 36
0.0
 17
0.0
 27
1.0
 37
0.0
 76
     0
330
18
331
25B9
  0
LAYOUT
  5
2611
102
{ACAD_XDICTIONARY
360
266D
102
}
102
{ACAD_REACTORS
330
94
102
}
330
94
100
AcDbPlotSettings
  1

  2
Canon LBP9100C
  4

  6

 40
0.0
 41
0.0
 42
0.0
 43
0.0
 44
0.0
 45
0.0
 46
0.0
 47
0.0
 48
0.0
 49
0.0
140
0.0
141
0.0
142
1.0
143
1.0
 70
   688
 72
     0
 73
     0
 74
     5
  7

 75
    16
147
1.0
148
0.0
149
0.0
100
AcDbLayout
  1
レイアウト1
 70
     1
 71
     1
 10
-3.757080078125
 20
-3.757083177566528
 11
293.2112426757812
 21
206.2162444591522
 12
0.0
 22
0.0
 32
0.0
 14
27.8447512626648
 24
20.24591643810271
 34
0.0
 15
250.6027613639831
 25
182.2132479429244
 35
0.0
146
0.0
 13
0.0
 23
0.0
 33
0.0
 16
1.0
 26
0.0
 36
0.0
 17
0.0
 27
1.0
 37
0.0
 76
     0
330
15
  0
MATERIAL
  5
25CC
102
{ACAD_XDICTIONARY
360
25CD
102
}
102
{ACAD_REACTORS
330
25C3
102
}
330
25C3
100
AcDbMaterial
  1
ByBlock
 72
     0
 43
0.0208333333333333
 43
0.0
 43
0.0
 43
0.0
 43
0.0
 43
0.0208333333333333
 43
0.0
 43
0.0
 43
0.0
 43
0.0
 43
1.0
 43
0.0
 43
0.0
 43
0.0
 43
0.0
 43
1.0
 77
     0
 47
0.0208333333333333
 47
0.0
 47
0.0
 47
0.0
 47
0.0
 47
0.0208333333333333
 47
0.0
 47
0.0
 47
0.0
 47
0.0
 47
1.0
 47
0.0
 47
0.0
 47
0.0
 47
0.0
 47
1.0
171
     0
 49
0.0208333333333333
 49
0.0
 49
0.0
 49
0.0
 49
0.0
 49
0.0208333333333333
 49
0.0
 49
0.0
 49
0.0
 49
0.0
 49
1.0
 49
0.0
 49
0.0
 49
0.0
 49
0.0
 49
1.0
175
     0
142
0.0208333333333333
142
0.0
142
0.0
142
0.0
142
0.0
142
0.0208333333333333
142
0.0
142
0.0
142
0.0
142
0.0
142
1.0
142
0.0
142
0.0
142
0.0
142
0.0
142
1.0
179
     0
144
0.0208333333333333
144
0.0
144
0.0
144
0.0
144
0.0
144
0.0208333333333333
144
0.0
144
0.0
144
0.0
144
0.0
144
1.0
144
0.0
144
0.0
144
0.0
144
0.0
144
1.0
147
0.0208333333333333
147
0.0
147
0.0
147
0.0
147
0.0
147
0.0208333333333333
147
0.0
147
0.0
147
0.0
147
0.0
147
1.0
147
0.0
147
0.0
147
0.0
147
0.0
147
1.0
  0
MATERIAL
  5
25C4
102
{ACAD_XDICTIONARY
360
25C5
102
}
102
{ACAD_REACTORS
330
25C3
102
}
330
25C3
100
AcDbMaterial
  1
ByLayer
 72
     0
 43
0.0208333333333333
 43
0.0
 43
0.0
 43
0.0
 43
0.0
 43
0.0208333333333333
 43
0.0
 43
0.0
 43
0.0
 43
0.0
 43
1.0
 43
0.0
 43
0.0
 43
0.0
 43
0.0
 43
1.0
 77
     0
 47
0.0208333333333333
 47
0.0
 47
0.0
 47
0.0
 47
0.0
 47
0.0208333333333333
 47
0.0
 47
0.0
 47
0.0
 47
0.0
 47
1.0
 47
0.0
 47
0.0
 47
0.0
 47
0.0
 47
1.0
171
     0
 49
0.0208333333333333
 49
0.0
 49
0.0
 49
0.0
 49
0.0
 49
0.0208333333333333
 49
0.0
 49
0.0
 49
0.0
 49
0.0
 49
1.0
 49
0.0
 49
0.0
 49
0.0
 49
0.0
 49
1.0
175
     0
142
0.0208333333333333
142
0.0
142
0.0
142
0.0
142
0.0
142
0.0208333333333333
142
0.0
142
0.0
142
0.0
142
0.0
142
1.0
142
0.0
142
0.0
142
0.0
142
0.0
142
1.0
179
     0
144
0.0208333333333333
144
0.0
144
0.0
144
0.0
144
0.0
144
0.0208333333333333
144
0.0
144
0.0
144
0.0
144
0.0
144
1.0
144
0.0
144
0.0
144
0.0
144
0.0
144
1.0
147
0.0208333333333333
147
0.0
147
0.0
147
0.0
147
0.0
147
0.0208333333333333
147
0.0
147
0.0
147
0.0
147
0.0
147
1.0
147
0.0
147
0.0
147
0.0
147
0.0
147
1.0
  0
MATERIAL
  5
25D4
102
{ACAD_XDICTIONARY
360
25D5
102
}
102
{ACAD_REACTORS
330
25C3
102
}
330
25C3
100
AcDbMaterial
  1
Global
 72
     0
 43
0.0208333333333333
 43
0.0
 43
0.0
 43
0.0
 43
0.0
 43
0.0208333333333333
 43
0.0
 43
0.0
 43
0.0
 43
0.0
 43
1.0
 43
0.0
 43
0.0
 43
0.0
 43
0.0
 43
1.0
 77
     0
 47
0.0208333333333333
 47
0.0
 47
0.0
 47
0.0
 47
0.0
 47
0.0208333333333333
 47
0.0
 47
0.0
 47
0.0
 47
0.0
 47
1.0
 47
0.0
 47
0.0
 47
0.0
 47
0.0
 47
1.0
171
     0
 49
0.0208333333333333
 49
0.0
 49
0.0
 49
0.0
 49
0.0
 49
0.0208333333333333
 49
0.0
 49
0.0
 49
0.0
 49
0.0
 49
1.0
 49
0.0
 49
0.0
 49
0.0
 49
0.0
 49
1.0
175
     0
142
0.0208333333333333
142
0.0
142
0.0
142
0.0
142
0.0
142
0.0208333333333333
142
0.0
142
0.0
142
0.0
142
0.0
142
1.0
142
0.0
142
0.0
142
0.0
142
0.0
142
1.0
179
     0
144
0.0208333333333333
144
0.0
144
0.0
144
0.0
144
0.0
144
0.0208333333333333
144
0.0
144
0.0
144
0.0
144
0.0
144
1.0
144
0.0
144
0.0
144
0.0
144
0.0
144
1.0
147
0.0208333333333333
147
0.0
147
0.0
147
0.0
147
0.0
147
0.0208333333333333
147
0.0
147
0.0
147
0.0
147
0.0
147
1.0
147
0.0
147
0.0
147
0.0
147
0.0
147
1.0
  0
MLEADERSTYLE
  5
260B
102
{ACAD_REACTORS
330
260A
102
}
330
260A
100
AcDbMLeaderStyle
170
     2
171
     1
172
     0
 90
        2
 40
0.0
 41
0.0
173
     1
 91
-1056964608
340
12
 92
       -2
290
     1
 42
0.09
291
     1
 43
0.36
  3
Standard
 44
0.18
300

342
F
174
     1
178
     6
175
     1
176
     0
 93
-1056964608
 45
0.18
292
     0
297
     0
 46
0.18
 94
-1056964608
 47
1.0
 49
1.0
140
1.0
293
     1
141
0.0
294
     1
177
     0
142
1.0
295
     0
296
     0
143
0.125
1001
ACAD_MLEADERVER
1070
     2
  0
MLINESTYLE
  5
1C
102
{ACAD_REACTORS
330
1B
102
}
330
1B
100
AcDbMlineStyle
  2
STANDARD
 70
     0
  3

 62
   256
 51
90.0
 52
90.0
 71
     2
 49
0.5
 62
   256
  6
BYLAYER
 49
-0.5
 62
   256
  6
BYLAYER
  0
ACDBPLACEHOLDER
  5
25C2
102
{ACAD_REACTORS
330
25C1
102
}
330
25C1
  0
SCALE
  5
25F9
102
{ACAD_REACTORS
330
25F8
102
}
330
25F8
100
AcDbScale
 70
     0
300
1:1
140
1.0
141
1.0
290
     1
  0
SCALE
  5
25FA
102
{ACAD_REACTORS
330
25F8
102
}
330
25F8
100
AcDbScale
 70
     0
300
1/128" = 1'-0"
140
0.0078125
141
12.0
290
     0
  0
SCALE
  5
25FB
102
{ACAD_REACTORS
330
25F8
102
}
330
25F8
100
AcDbScale
 70
     0
300
1/64" = 1'-0"
140
0.015625
141
12.0
290
     0
  0
SCALE
  5
25FC
102
{ACAD_REACTORS
330
25F8
102
}
330
25F8
100
AcDbScale
 70
     0
300
1/32" = 1'-0"
140
0.03125
141
12.0
290
     0
  0
SCALE
  5
25FD
102
{ACAD_REACTORS
330
25F8
102
}
330
25F8
100
AcDbScale
 70
     0
300
1/16" = 1'-0"
140
0.0625
141
12.0
290
     0
  0
SCALE
  5
25FE
102
{ACAD_REACTORS
330
25F8
102
}
330
25F8
100
AcDbScale
 70
     0
300
3/32" = 1'-0"
140
0.09375
141
12.0
290
     0
  0
SCALE
  5
25FF
102
{ACAD_REACTORS
330
25F8
102
}
330
25F8
100
AcDbScale
 70
     0
300
1/8" = 1'-0"
140
0.125
141
12.0
290
     0
  0
SCALE
  5
2600
102
{ACAD_REACTORS
330
25F8
102
}
330
25F8
100
AcDbScale
 70
     0
300
3/16" = 1'-0"
140
0.1875
141
12.0
290
     0
  0
SCALE
  5
2601
102
{ACAD_REACTORS
330
25F8
102
}
330
25F8
100
AcDbScale
 70
     0
300
1/4" = 1'-0"
140
0.25
141
12.0
290
     0
  0
SCALE
  5
2602
102
{ACAD_REACTORS
330
25F8
102
}
330
25F8
100
AcDbScale
 70
     0
300
3/8" = 1'-0"
140
0.375
141
12.0
290
     0
  0
SCALE
  5
2603
102
{ACAD_REACTORS
330
25F8
102
}
330
25F8
100
AcDbScale
 70
     0
300
1/2" = 1'-0"
140
0.5
141
12.0
290
     0
  0
SCALE
  5
2604
102
{ACAD_REACTORS
330
25F8
102
}
330
25F8
100
AcDbScale
 70
     0
300
3/4" = 1'-0"
140
0.75
141
12.0
290
     0
  0
SCALE
  5
2605
102
{ACAD_REACTORS
330
25F8
102
}
330
25F8
100
AcDbScale
 70
     0
300
1" = 1'-0"
140
1.0
141
12.0
290
     0
  0
SCALE
  5
2606
102
{ACAD_REACTORS
330
25F8
102
}
330
25F8
100
AcDbScale
 70
     0
300
1-1/2" = 1'-0"
140
1.5
141
12.0
290
     0
  0
SCALE
  5
2607
102
{ACAD_REACTORS
330
25F8
102
}
330
25F8
100
AcDbScale
 70
     0
300
3" = 1'-0"
140
3.0
141
12.0
290
     0
  0
SCALE
  5
2608
102
{ACAD_REACTORS
330
25F8
102
}
330
25F8
100
AcDbScale
 70
     0
300
6" = 1'-0"
140
6.0
141
12.0
290
     0
  0
SCALE
  5
2609
102
{ACAD_REACTORS
330
25F8
102
}
330
25F8
100
AcDbScale
 70
     0
300
1'-0" = 1'-0"
140
12.0
141
12.0
290
     0
  0
ACDBSECTIONVIEWSTYLE
  5
260D
102
{ACAD_XDICTIONARY
360
2667
102
}
102
{ACAD_REACTORS
330
260C
102
}
330
260C
100
AcDbModelDocViewStyle
 70
     0
  3
Imperial24
290
     0
100
AcDbSectionViewStyle
 70
     0
 71
     0
 90
       78
 71
     1
340
F
 40
0.24
340
0
340
0
 40
0.24
300
I, O, Q, S, X, Z
 40
0.48
 90
        3
 40
0.18
 90
        1
 71
     2
340
14
 90
       25
340
14
 90
       50
 40
0.24
 40
0.0
 40
0.24
 71
     3
340
F
 40
0.24
 90
        1
 40
0.75
 90
        1
300
%<\AcVar ViewType \f "%tc1">% %<\AcVar ViewSectionStartId>%-%<\AcVar ViewSectionEndId>%\PSCALE %<\AcVar ViewScale \f "%sn">%
 71
     4
300
ANSI31
 40
1.0
 90
        0
290
     0
290
     0
 90
        6
 40
0.0
 40
1.570796326794896
 40
0.2617993877991494
 40
1.308996938995747
 40
-0.2617993877991494
 40
1.832595714594046
  0
TABLESTYLE
  5
25F7
102
{ACAD_XDICTIONARY
360
262E
102
}
102
{ACAD_REACTORS
330
25F6
102
}
330
25F6
100
AcDbTableStyle
  3
Standard
 70
     0
 71
     0
 40
0.06
 41
0.06
280
     0
281
     0
  7
STANDARD
140
0.18
170
     2
 62
     0
 63
     7
283
     0
274
    -2
284
     1
 64
     0
275
    -2
285
     1
 65
     0
276
    -2
286
     1
 66
     0
277
    -2
287
     1
 67
     0
278
    -2
288
     1
 68
     0
279
    -2
289
     1
 69
     0
  7
STANDARD
140
0.25
170
     5
 62
     0
 63
     7
283
     0
274
    -2
284
     1
 64
     0
275
    -2
285
     1
 65
     0
276
    -2
286
     1
 66
     0
277
    -2
287
     1
 67
     0
278
    -2
288
     1
 68
     0
279
    -2
289
     1
 69
     0
  7
STANDARD
140
0.18
170
     5
 62
     0
 63
     7
283
     0
274
    -2
284
     1
 64
     0
275
    -2
285
     1
 65
     0
276
    -2
286
     1
 66
     0
277
    -2
287
     1
 67
     0
278
    -2
288
     1
 68
     0
279
    -2
289
     1
 69
     0
  0
VISUALSTYLE
  5
25E2
102
{ACAD_XDICTIONARY
360
263F
102
}
102
{ACAD_REACTORS
330
25DC
102
}
330
25DC
100
AcDbVisualStyle
  2
2dWireframe
 70
     4
 71
     0
 72
     2
 73
     0
 90
        0
 40
-0.6
 41
-30.0
 62
     5
 63
     7
 74
     1
 91
        4
 64
     7
 65
   257
 75
     1
175
     1
 42
1.0
 92
        0
 66
   257
 43
1.0
 76
     1
 77
     6
 78
     2
 67
     7
 79
     5
170
     0
171
     0
290
     0
174
     0
 93
        1
 44
0.0
173
     0
291
     0
 45
0.0
1001
ACAD
1000
AcDbSavedByObjectVersion
1070
     0
  0
VISUALSTYLE
  5
25E1
102
{ACAD_XDICTIONARY
360
263D
102
}
102
{ACAD_REACTORS
330
25DC
102
}
330
25DC
100
AcDbVisualStyle
  2
Basic
 70
     7
 71
     1
 72
     0
 73
     1
 90
        0
 40
-0.6
 41
-30.0
 62
     5
 63
     7
 74
     0
 91
        4
 64
     7
 65
   257
 75
     1
175
     1
 42
1.0
 92
        8
 66
     7
 43
1.0
 76
     1
 77
     6
 78
     2
 67
     7
 79
     5
170
     0
171
     0
290
     0
174
     0
 93
        1
 44
0.0
173
     0
291
     1
 45
0.0
1001
ACAD
1000
AcDbSavedByObjectVersion
1070
     0
  0
VISUALSTYLE
  5
25E8
102
{ACAD_XDICTIONARY
360
264B
102
}
102
{ACAD_REACTORS
330
25DC
102
}
330
25DC
100
AcDbVisualStyle
  2
Brighten
 70
    12
 71
     2
 72
     2
 73
     0
 90
        0
 40
-0.6
 41
-30.0
 62
     5
 63
     7
 74
     1
 91
        4
 64
     7
 65
   257
 75
     1
175
     1
 42
1.0
 92
        8
 66
     7
 43
1.0
 76
     1
 77
     6
 78
     2
 67
     7
 79
     5
170
     0
171
     0
290
     0
174
     0
 93
        1
 44
50.0
173
     0
291
     1
 45
0.0
1001
ACAD
1000
AcDbSavedByObjectVersion
1070
     0
  0
VISUALSTYLE
  5
25EC
102
{ACAD_XDICTIONARY
360
2653
102
}
102
{ACAD_REACTORS
330
25DC
102
}
330
25DC
100
AcDbVisualStyle
  2
ColorChange
 70
    16
 71
     2
 72
     2
 73
     3
 90
        0
 40
-0.6
 41
-30.0
 62
     5
 63
     8
 74
     1
 91
        4
 64
     7
 65
   257
 75
     1
175
     1
 42
1.0
 92
        8
 66
     8
 43
1.0
 76
     1
 77
     6
 78
     2
 67
     7
 79
     5
170
     0
171
     0
290
     0
174
     0
 93
        1
 44
0.0
173
     0
291
     1
 45
0.0
1001
ACAD
1000
AcDbSavedByObjectVersion
1070
     0
  0
VISUALSTYLE
  5
25E5
102
{ACAD_XDICTIONARY
360
2645
102
}
102
{ACAD_REACTORS
330
25DC
102
}
330
25DC
100
AcDbVisualStyle
  2
Conceptual
 70
     9
 71
     3
 72
     2
 73
     0
 90
        0
 40
-0.6
 41
-30.0
 62
     5
 63
     7
 74
     2
 91
        2
 64
     7
 65
   257
 75
     1
175
     1
 42
179.0
 92
        8
 66
     7
 43
1.0
 76
     1
 77
     6
 78
     2
 67
     7
 79
     3
170
     0
171
     0
290
     0
174
     0
 93
        1
 44
0.0
173
     0
291
     0
 45
0.0
1001
ACAD
1000
AcDbSavedByObjectVersion
1070
     0
  0
VISUALSTYLE
  5
25E7
102
{ACAD_XDICTIONARY
360
2649
102
}
102
{ACAD_REACTORS
330
25DC
102
}
330
25DC
100
AcDbVisualStyle
  2
Dim
 70
    11
 71
     2
 72
     2
 73
     0
 90
        0
 40
-0.6
 41
-30.0
 62
     5
 63
     7
 74
     1
 91
        4
 64
     7
 65
   257
 75
     1
175
     1
 42
1.0
 92
        8
 66
     7
 43
1.0
 76
     1
 77
     6
 78
     2
 67
     7
 79
     5
170
     0
171
     0
290
     0
174
     0
 93
        1
 44
-50.0
173
     0
291
     1
 45
0.0
1001
ACAD
1000
AcDbSavedByObjectVersion
1070
     0
  0
VISUALSTYLE
  5
25F4
102
{ACAD_XDICTIONARY
360
2663
102
}
102
{ACAD_REACTORS
330
25DC
102
}
330
25DC
100
AcDbVisualStyle
  2
EdgeColorOff
 70
    22
 71
     2
 72
     2
 73
     0
 90
        0
 40
-0.6
 41
-30.0
 62
     5
 63
     7
 74
     1
 91
        4
 64
     7
 65
   257
 75
     1
175
     1
 42
1.0
 92
        8
 66
     7
 43
1.0
 76
     1
 77
     6
 78
     2
 67
     7
 79
     5
170
     0
171
     0
290
     0
174
     0
 93
        1
 44
0.0
173
     0
291
     1
 45
0.0
1001
ACAD
1000
AcDbSavedByObjectVersion
1070
     0
  0
VISUALSTYLE
  5
25EB
102
{ACAD_XDICTIONARY
360
2651
102
}
102
{ACAD_REACTORS
330
25DC
102
}
330
25DC
100
AcDbVisualStyle
  2
Facepattern
 70
    15
 71
     2
 72
     2
 73
     0
 90
        0
 40
-0.6
 41
-30.0
 62
     5
 63
     7
 74
     1
 91
        4
 64
     7
 65
   257
 75
     1
175
     1
 42
1.0
 92
        8
 66
     7
 43
1.0
 76
     1
 77
     6
 78
     2
 67
     7
 79
     5
170
     0
171
     0
290
     0
174
     0
 93
        1
 44
0.0
173
     0
291
     1
 45
0.0
1001
ACAD
1000
AcDbSavedByObjectVersion
1070
     0
  0
VISUALSTYLE
  5
25DD
102
{ACAD_XDICTIONARY
360
2635
102
}
102
{ACAD_REACTORS
330
25DC
102
}
330
25DC
100
AcDbVisualStyle
  2
Flat
 70
     0
 71
     2
 72
     1
 73
     1
 90
        2
 40
-0.6
 41
30.0
 62
     5
 63
     7
 74
     0
 91
        0
 64
     7
 65
   257
 75
     1
175
     1
 42
1.0
 92
        8
 66
     7
 43
1.0
 76
     1
 77
     6
 78
     2
 67
     7
 79
     5
170
     0
171
     0
290
     0
174
     0
 93
       13
 44
0.0
173
     0
291
     1
 45
0.0
1001
ACAD
1000
AcDbSavedByObjectVersion
1070
     0
  0
VISUALSTYLE
  5
25DE
102
{ACAD_XDICTIONARY
360
2637
102
}
102
{ACAD_REACTORS
330
25DC
102
}
330
25DC
100
AcDbVisualStyle
  2
FlatWithEdges
 70
     1
 71
     2
 72
     1
 73
     1
 90
        2
 40
-0.6
 41
30.0
 62
     5
 63
     7
 74
     1
 91
        0
 64
     7
 65
   257
 75
     1
175
     1
 42
1.0
 92
        0
 66
   257
 43
1.0
 76
     1
 77
     6
 78
     2
 67
     7
 79
     5
170
     0
171
     0
290
     0
174
     0
 93
       13
 44
0.0
173
     0
291
     1
 45
0.0
1001
ACAD
1000
AcDbSavedByObjectVersion
1070
     0
  0
VISUALSTYLE
  5
25DF
102
{ACAD_XDICTIONARY
360
2639
102
}
102
{ACAD_REACTORS
330
25DC
102
}
330
25DC
100
AcDbVisualStyle
  2
Gouraud
 70
     2
 71
     2
 72
     2
 73
     1
 90
        2
 40
-0.6
 41
30.0
 62
     5
 63
     7
 74
     0
 91
        0
 64
     7
 65
   257
 75
     1
175
     1
 42
1.0
 92
        0
 66
     7
 43
1.0
 76
     1
 77
     6
 78
     2
 67
     7
 79
     5
170
     0
171
     0
290
     0
174
     0
 93
       13
 44
0.0
173
     0
291
     1
 45
0.0
1001
ACAD
1000
AcDbSavedByObjectVersion
1070
     0
  0
VISUALSTYLE
  5
25E0
102
{ACAD_XDICTIONARY
360
263B
102
}
102
{ACAD_REACTORS
330
25DC
102
}
330
25DC
100
AcDbVisualStyle
  2
GouraudWithEdges
 70
     3
 71
     2
 72
     2
 73
     1
 90
        2
 40
-0.6
 41
30.0
 62
     5
 63
     7
 74
     1
 91
        0
 64
     7
 65
   257
 75
     1
175
     1
 42
1.0
 92
        0
 66
   257
 43
1.0
 76
     1
 77
     6
 78
     2
 67
     7
 79
     5
170
     0
171
     0
290
     0
174
     0
 93
       13
 44
0.0
173
     0
291
     1
 45
0.0
1001
ACAD
1000
AcDbSavedByObjectVersion
1070
     0
  0
VISUALSTYLE
  5
25E4
102
{ACAD_XDICTIONARY
360
2643
102
}
102
{ACAD_REACTORS
330
25DC
102
}
330
25DC
100
AcDbVisualStyle
  2
Hidden
 70
     6
 71
     1
 72
     2
 73
     2
 90
        0
 40
-0.6
 41
-30.0
 62
     5
 63
     7
 74
     2
 91
        2
 64
     7
 65
   257
 75
     2
175
     1
 42
40.0
 92
        0
 66
   257
 43
1.0
 76
     1
 77
     6
 78
     2
 67
     7
 79
     3
170
     0
171
     0
290
     0
174
     0
 93
        1
 44
0.0
173
     0
291
     0
 45
0.0
1001
ACAD
1000
AcDbSavedByObjectVersion
1070
     0
  0
VISUALSTYLE
  5
25F2
102
{ACAD_XDICTIONARY
360
265F
102
}
102
{ACAD_REACTORS
330
25DC
102
}
330
25DC
100
AcDbVisualStyle
  2
JitterOff
 70
    20
 71
     2
 72
     2
 73
     0
 90
        0
 40
-0.6
 41
-30.0
 62
     5
 63
     7
 74
     1
 91
        4
 64
     7
 65
   257
 75
     1
175
     1
 42
1.0
 92
       10
 66
     7
 43
1.0
 76
     1
 77
     6
 78
     2
 67
     7
 79
     5
170
     0
171
     0
290
     0
174
     0
 93
        1
 44
0.0
173
     0
291
     1
 45
0.0
1001
ACAD
1000
AcDbSavedByObjectVersion
1070
     0
  0
VISUALSTYLE
  5
25EA
102
{ACAD_XDICTIONARY
360
264F
102
}
102
{ACAD_REACTORS
330
25DC
102
}
330
25DC
100
AcDbVisualStyle
  2
Linepattern
 70
    14
 71
     2
 72
     2
 73
     0
 90
        0
 40
-0.6
 41
-30.0
 62
     5
 63
     7
 74
     1
 91
        4
 64
     7
 65
   257
 75
     7
175
     7
 42
1.0
 92
        8
 66
     7
 43
1.0
 76
     1
 77
     6
 78
     2
 67
     7
 79
     5
170
     0
171
     0
290
     0
174
     0
 93
        1
 44
0.0
173
     0
291
     1
 45
0.0
1001
ACAD
1000
AcDbSavedByObjectVersion
1070
     0
  0
VISUALSTYLE
  5
25F3
102
{ACAD_XDICTIONARY
360
2661
102
}
102
{ACAD_REACTORS
330
25DC
102
}
330
25DC
100
AcDbVisualStyle
  2
OverhangOff
 70
    21
 71
     2
 72
     2
 73
     0
 90
        0
 40
-0.6
 41
-30.0
 62
     5
 63
     7
 74
     1
 91
        4
 64
     7
 65
   257
 75
     1
175
     1
 42
1.0
 92
        9
 66
     7
 43
1.0
 76
     1
 77
     6
 78
     2
 67
     7
 79
     5
170
     0
171
     0
290
     0
174
     0
 93
        1
 44
0.0
173
     0
291
     1
 45
0.0
1001
ACAD
1000
AcDbSavedByObjectVersion
1070
     0
  0
VISUALSTYLE
  5
25E6
102
{ACAD_XDICTIONARY
360
2647
102
}
102
{ACAD_REACTORS
330
25DC
102
}
330
25DC
100
AcDbVisualStyle
  2
Realistic
 70
     8
 71
     2
 72
     3
 73
     0
 90
        2
 40
-0.6
 41
30.0
 62
     5
 63
     7
 74
     0
 91
        0
 64
     7
 65
   257
 75
     1
175
     1
 42
1.0
 92
        8
 66
   257
 43
1.0
 76
     1
 77
     6
 78
     2
 67
     7
 79
     3
170
     0
171
     0
290
     0
174
     0
 93
       13
 44
0.0
173
     0
291
     0
 45
0.0
1001
ACAD
1000
AcDbSavedByObjectVersion
1070
     0
  0
VISUALSTYLE
  5
25F1
102
{ACAD_XDICTIONARY
360
265D
102
}
102
{ACAD_REACTORS
330
25DC
102
}
330
25DC
100
AcDbVisualStyle
  2
Shaded
 70
    27
 71
     2
 72
     2
 73
     1
 90
        2
 40
-0.6
 41
30.0
 62
     5
 63
     7
 74
     0
 91
        4
 64
     7
 65
   257
 75
     1
175
     1
 42
1.0
 92
        8
 66
   257
 43
1.0
 76
     1
 77
     6
 78
     2
 67
     8
 79
     3
170
     0
171
     0
290
     0
174
     0
 93
        5
 44
0.0
173
     0
291
     0
 45
0.0
1001
ACAD
1000
AcDbSavedByObjectVersion
1070
     0
  0
VISUALSTYLE
  5
25F0
102
{ACAD_XDICTIONARY
360
265B
102
}
102
{ACAD_REACTORS
330
25DC
102
}
330
25DC
100
AcDbVisualStyle
  2
Shaded with edges
 70
    26
 71
     2
 72
     2
 73
     1
 90
        2
 40
-0.6
 41
30.0
 62
     5
 63
     7
 74
     1
 91
       10
 64
     7
 65
   257
 75
     2
175
     1
 42
1.0
 92
        8
 66
   257
 43
1.0
 76
     1
 77
     6
 78
     2
 67
     7
 79
     3
170
     0
171
     0
290
     0
174
     0
 93
        5
 44
0.0
173
     0
291
     0
 45
0.0
1001
ACAD
1000
AcDbSavedByObjectVersion
1070
     0
  0
VISUALSTYLE
  5
25ED
102
{ACAD_XDICTIONARY
360
2655
102
}
102
{ACAD_REACTORS
330
25DC
102
}
330
25DC
100
AcDbVisualStyle
  2
Shades of Gray
 70
    23
 71
     2
 72
     2
 73
     3
 90
        0
 40
-0.6
 41
-30.0
 62
     5
 63
     7
 74
     2
 91
        2
 64
     7
 65
     7
 75
     1
175
     1
 42
40.0
 92
        8
 66
     7
 43
1.0
 76
     1
 77
     6
 78
     2
 67
     7
 79
     3
170
     0
171
     0
290
     0
174
     0
 93
        1
 44
0.0
173
     0
291
     0
 45
0.0
1001
ACAD
1000
AcDbSavedByObjectVersion
1070
     0
  0
VISUALSTYLE
  5
25EE
102
{ACAD_XDICTIONARY
360
2657
102
}
102
{ACAD_REACTORS
330
25DC
102
}
330
25DC
100
AcDbVisualStyle
  2
Sketchy
 70
    24
 71
     1
 72
     2
 73
     2
 90
        0
 40
-0.6
 41
-30.0
 62
     5
 63
     7
 74
     2
 91
        2
 64
     7
 65
     7
 75
     1
175
     1
 42
40.0
 92
       11
 66
     7
 43
1.0
 76
     1
 77
     6
 78
     2
 67
     7
 79
     6
170
     0
171
     0
290
     0
174
     0
 93
        1
 44
0.0
173
     0
291
     0
 45
0.0
1001
ACAD
1000
AcDbSavedByObjectVersion
1070
     0
  0
VISUALSTYLE
  5
25E9
102
{ACAD_XDICTIONARY
360
264D
102
}
102
{ACAD_REACTORS
330
25DC
102
}
330
25DC
100
AcDbVisualStyle
  2
Thicken
 70
    13
 71
     2
 72
     2
 73
     0
 90
        0
 40
-0.6
 41
-30.0
 62
     5
 63
     7
 74
     1
 91
        4
 64
     7
 65
   257
 75
     1
175
     1
 42
1.0
 92
       12
 66
     7
 43
1.0
 76
     1
 77
     6
 78
     2
 67
     7
 79
     5
170
     0
171
     0
290
     0
174
     0
 93
        1
 44
0.0
173
     0
291
     1
 45
0.0
1001
ACAD
1000
AcDbSavedByObjectVersion
1070
     0
  0
VISUALSTYLE
  5
25E3
102
{ACAD_XDICTIONARY
360
2641
102
}
102
{ACAD_REACTORS
330
25DC
102
}
330
25DC
100
AcDbVisualStyle
  2
Wireframe
 70
     5
 71
     0
 72
     2
 73
     0
 90
        0
 40
-0.6
 41
-30.0
 62
     5
 63
     7
 74
     1
 91
        4
 64
     7
 65
   257
 75
     1
175
     1
 42
1.0
 92
        0
 66
   257
 43
1.0
 76
     1
 77
     6
 78
     2
 67
     7
 79
     3
170
     0
171
     0
290
     0
174
     0
 93
        1
 44
0.0
173
     0
291
     0
 45
0.0
1001
ACAD
1000
AcDbSavedByObjectVersion
1070
     0
  0
VISUALSTYLE
  5
25EF
102
{ACAD_XDICTIONARY
360
2659
102
}
102
{ACAD_REACTORS
330
25DC
102
}
330
25DC
100
AcDbVisualStyle
  2
X-Ray
 70
    25
 71
     2
 72
     2
 73
     1
 90
        1
 40
0.5
 41
-30.0
 62
     5
 63
     7
 74
     1
 91
        0
 64
     7
 65
   257
 75
     1
175
     1
 42
1.0
 92
        8
 66
     7
 43
1.0
 76
     1
 77
     6
 78
     2
 67
     7
 79
     3
170
     0
171
     0
290
     0
174
     0
 93
       13
 44
0.0
173
     0
291
     0
 45
0.0
1001
ACAD
1000
AcDbSavedByObjectVersion
1070
     0
  0
DICTIONARYVAR
  5
2628
102
{ACAD_REACTORS
330
2623
102
}
330
2623
100
DictionaryVariables
280
     0
  1
1:1
  0
DICTIONARYVAR
  5
2625
102
{ACAD_REACTORS
330
2623
102
}
330
2623
100
DictionaryVariables
280
     0
  1
STANDARD
  0
DICTIONARYVAR
  5
2624
102
{ACAD_REACTORS
330
2623
102
}
330
2623
100
DictionaryVariables
280
     0
  1
STANDARD
  0
DICTIONARYVAR
  5
2626
102
{ACAD_REACTORS
330
2623
102
}
330
2623
100
DictionaryVariables
280
     0
  1
Imperial24
  0
DICTIONARYVAR
  5
2627
102
{ACAD_REACTORS
330
2623
102
}
330
2623
100
DictionaryVariables
280
     0
  1
Imperial24
  0
DICTIONARYVAR
  5
262B
102
{ACAD_REACTORS
330
2623
102
}
330
2623
100
DictionaryVariables
280
     0
  1
1
  0
DICTIONARYVAR
  5
262A
102
{ACAD_REACTORS
330
2623
102
}
330
2623
100
DictionaryVariables
280
     0
  1
0
  0
DICTIONARYVAR
  5
2629
102
{ACAD_REACTORS
330
2623
102
}
330
2623
100
DictionaryVariables
280
     0
  1
127
  0
DICTIONARYVAR
  5
262C
102
{ACAD_REACTORS
330
2623
102
}
330
2623
100
DictionaryVariables
280
     0
  1
2
  0
DICTIONARY
  5
2669
330
260F
100
AcDbDictionary
280
     1
281
     1
  3
ACAD_XREC_ROUNDTRIP
360
266A
  0
DICTIONARY
  5
266B
330
2610
100
AcDbDictionary
280
     1
281
     1
  3
ACAD_XREC_ROUNDTRIP
360
266C
  0
DICTIONARY
  5
266D
330
2611
100
AcDbDictionary
280
     1
281
     1
  3
ACAD_XREC_ROUNDTRIP
360
266E
  0
DICTIONARY
  5
25CD
330
25CC
100
AcDbDictionary
280
     1
281
     1
  3
ACAD_XREC_ROUNDTRIP
360
2633
  3
BUMPTILE
360
25CF
  3
DIFFUSETILE
360
25CE
  3
OPACITYTILE
360
25D2
  3
REFLECTIONTILE
360
25D1
  3
REFRACTIONTILE
360
25D3
  3
SPECULARTILE
360
25D0
  0
DICTIONARY
  5
25C5
330
25C4
100
AcDbDictionary
280
     1
281
     1
  3
ACAD_XREC_ROUNDTRIP
360
2632
  3
BUMPTILE
360
25C7
  3
DIFFUSETILE
360
25C6
  3
OPACITYTILE
360
25CA
  3
REFLECTIONTILE
360
25C9
  3
REFRACTIONTILE
360
25CB
  3
SPECULARTILE
360
25C8
  0
DICTIONARY
  5
25D5
330
25D4
100
AcDbDictionary
280
     1
281
     1
  3
ACAD_XREC_ROUNDTRIP
360
2634
  3
BUMPTILE
360
25D7
  3
DIFFUSETILE
360
25D6
  3
OPACITYTILE
360
25DA
  3
REFLECTIONTILE
360
25D9
  3
REFRACTIONTILE
360
25DB
  3
SPECULARTILE
360
25D8
  0
DICTIONARY
  5
2667
330
260D
100
AcDbDictionary
280
     1
281
     1
  3
ACAD_XREC_ROUNDTRIP
360
2668
  0
DICTIONARY
  5
262E
330
25F7
100
AcDbDictionary
280
     1
281
     1
  3
ACAD_ROUNDTRIP_2008_TABLESTYLE_CELLSTYLEMAP
360
262F
  3
ACAD_XREC_ROUNDTRIP
360
2665
  0
DICTIONARY
  5
263F
330
25E2
100
AcDbDictionary
280
     1
281
     1
  3
ACAD_XREC_ROUNDTRIP
360
2640
  0
DICTIONARY
  5
263D
330
25E1
100
AcDbDictionary
280
     1
281
     1
  3
ACAD_XREC_ROUNDTRIP
360
263E
  0
DICTIONARY
  5
264B
330
25E8
100
AcDbDictionary
280
     1
281
     1
  3
ACAD_XREC_ROUNDTRIP
360
264C
  0
DICTIONARY
  5
2653
330
25EC
100
AcDbDictionary
280
     1
281
     1
  3
ACAD_XREC_ROUNDTRIP
360
2654
  0
DICTIONARY
  5
2645
330
25E5
100
AcDbDictionary
280
     1
281
     1
  3
ACAD_XREC_ROUNDTRIP
360
2646
  0
DICTIONARY
  5
2649
330
25E7
100
AcDbDictionary
280
     1
281
     1
  3
ACAD_XREC_ROUNDTRIP
360
264A
  0
DICTIONARY
  5
2663
330
25F4
100
AcDbDictionary
280
     1
281
     1
  3
ACAD_XREC_ROUNDTRIP
360
2664
  0
DICTIONARY
  5
2651
330
25EB
100
AcDbDictionary
280
     1
281
     1
  3
ACAD_XREC_ROUNDTRIP
360
2652
  0
DICTIONARY
  5
2635
330
25DD
100
AcDbDictionary
280
     1
281
     1
  3
ACAD_XREC_ROUNDTRIP
360
2636
  0
DICTIONARY
  5
2637
330
25DE
100
AcDbDictionary
280
     1
281
     1
  3
ACAD_XREC_ROUNDTRIP
360
2638
  0
DICTIONARY
  5
2639
330
25DF
100
AcDbDictionary
280
     1
281
     1
  3
ACAD_XREC_ROUNDTRIP
360
263A
  0
DICTIONARY
  5
263B
330
25E0
100
AcDbDictionary
280
     1
281
     1
  3
ACAD_XREC_ROUNDTRIP
360
263C
  0
DICTIONARY
  5
2643
330
25E4
100
AcDbDictionary
280
     1
281
     1
  3
ACAD_XREC_ROUNDTRIP
360
2644
  0
DICTIONARY
  5
265F
330
25F2
100
AcDbDictionary
280
     1
281
     1
  3
ACAD_XREC_ROUNDTRIP
360
2660
  0
DICTIONARY
  5
264F
330
25EA
100
AcDbDictionary
280
     1
281
     1
  3
ACAD_XREC_ROUNDTRIP
360
2650
  0
DICTIONARY
  5
2661
330
25F3
100
AcDbDictionary
280
     1
281
     1
  3
ACAD_XREC_ROUNDTRIP
360
2662
  0
DICTIONARY
  5
2647
330
25E6
100
AcDbDictionary
280
     1
281
     1
  3
ACAD_XREC_ROUNDTRIP
360
2648
  0
DICTIONARY
  5
265D
330
25F1
100
AcDbDictionary
280
     1
281
     1
  3
ACAD_XREC_ROUNDTRIP
360
265E
  0
DICTIONARY
  5
265B
330
25F0
100
AcDbDictionary
280
     1
281
     1
  3
ACAD_XREC_ROUNDTRIP
360
265C
  0
DICTIONARY
  5
2655
330
25ED
100
AcDbDictionary
280
     1
281
     1
  3
ACAD_XREC_ROUNDTRIP
360
2656
  0
DICTIONARY
  5
2657
330
25EE
100
AcDbDictionary
280
     1
281
     1
  3
ACAD_XREC_ROUNDTRIP
360
2658
  0
DICTIONARY
  5
264D
330
25E9
100
AcDbDictionary
280
     1
281
     1
  3
ACAD_XREC_ROUNDTRIP
360
264E
  0
DICTIONARY
  5
2641
330
25E3
100
AcDbDictionary
280
     1
281
     1
  3
ACAD_XREC_ROUNDTRIP
360
2642
  0
DICTIONARY
  5
2659
330
25EF
100
AcDbDictionary
280
     1
281
     1
  3
ACAD_XREC_ROUNDTRIP
360
265A
  0
XRECORD
  5
266A
102
{ACAD_REACTORS
330
2669
102
}
330
2669
100
AcDbXrecord
280
     1
102
DISPLAYNAME
  1
Imperial24
102
FLAGS
 90
        0
  0
XRECORD
  5
266C
102
{ACAD_REACTORS
330
266B
102
}
330
266B
100
AcDbXrecord
280
     1
102
SHADEPLOT
 70
     0
102
SHADEPLOTRESLEVEL
 70
     2
102
SHADEPLOTCUSTOMDPI
 70
   300
  0
XRECORD
  5
266E
102
{ACAD_REACTORS
330
266D
102
}
330
266D
100
AcDbXrecord
280
     1
102
SHADEPLOT
 70
     0
102
SHADEPLOTRESLEVEL
 70
     2
102
SHADEPLOTCUSTOMDPI
 70
   300
  0
XRECORD
  5
2633
102
{ACAD_REACTORS
330
25CD
102
}
330
25CD
100
AcDbXrecord
280
     1
102
MATERIAL
148
0.0
149
0.0
149
0.0
 93
        0
 94
      127
282
     0
 72
     0
 77
     0
171
     0
175
     0
179
     0
273
     0
  0
XRECORD
  5
25CF
102
{ACAD_REACTORS
330
25CD
102
}
330
25CD
100
AcDbXrecord
280
     1
270
     1
271
     1
  0
XRECORD
  5
25CE
102
{ACAD_REACTORS
330
25CD
102
}
330
25CD
100
AcDbXrecord
280
     1
270
     1
271
     1
  0
XRECORD
  5
25D2
102
{ACAD_REACTORS
330
25CD
102
}
330
25CD
100
AcDbXrecord
280
     1
270
     1
271
     1
  0
XRECORD
  5
25D1
102
{ACAD_REACTORS
330
25CD
102
}
330
25CD
100
AcDbXrecord
280
     1
270
     1
271
     1
  0
XRECORD
  5
25D3
102
{ACAD_REACTORS
330
25CD
102
}
330
25CD
100
AcDbXrecord
280
     1
270
     1
271
     1
  0
XRECORD
  5
25D0
102
{ACAD_REACTORS
330
25CD
102
}
330
25CD
100
AcDbXrecord
280
     1
270
     1
271
     1
  0
XRECORD
  5
2632
102
{ACAD_REACTORS
330
25C5
102
}
330
25C5
100
AcDbXrecord
280
     1
102
MATERIAL
148
0.0
149
0.0
149
0.0
 93
        0
 94
      127
282
     0
 72
     0
 77
     0
171
     0
175
     0
179
     0
273
     0
  0
XRECORD
  5
25C7
102
{ACAD_REACTORS
330
25C5
102
}
330
25C5
100
AcDbXrecord
280
     1
270
     1
271
     1
  0
XRECORD
  5
25C6
102
{ACAD_REACTORS
330
25C5
102
}
330
25C5
100
AcDbXrecord
280
     1
270
     1
271
     1
  0
XRECORD
  5
25CA
102
{ACAD_REACTORS
330
25C5
102
}
330
25C5
100
AcDbXrecord
280
     1
270
     1
271
     1
  0
XRECORD
  5
25C9
102
{ACAD_REACTORS
330
25C5
102
}
330
25C5
100
AcDbXrecord
280
     1
270
     1
271
     1
  0
XRECORD
  5
25CB
102
{ACAD_REACTORS
330
25C5
102
}
330
25C5
100
AcDbXrecord
280
     1
270
     1
271
     1
  0
XRECORD
  5
25C8
102
{ACAD_REACTORS
330
25C5
102
}
330
25C5
100
AcDbXrecord
280
     1
270
     1
271
     1
  0
XRECORD
  5
2634
102
{ACAD_REACTORS
330
25D5
102
}
330
25D5
100
AcDbXrecord
280
     1
102
MATERIAL
148
0.0
149
0.0
149
0.0
 93
        0
 94
      127
282
     0
 72
     0
 77
     0
171
     0
175
     0
179
     0
273
     0
  0
XRECORD
  5
25D7
102
{ACAD_REACTORS
330
25D5
102
}
330
25D5
100
AcDbXrecord
280
     1
270
     1
271
     1
  0
XRECORD
  5
25D6
102
{ACAD_REACTORS
330
25D5
102
}
330
25D5
100
AcDbXrecord
280
     1
270
     1
271
     1
  0
XRECORD
  5
25DA
102
{ACAD_REACTORS
330
25D5
102
}
330
25D5
100
AcDbXrecord
280
     1
270
     1
271
     1
  0
XRECORD
  5
25D9
102
{ACAD_REACTORS
330
25D5
102
}
330
25D5
100
AcDbXrecord
280
     1
270
     1
271
     1
  0
XRECORD
  5
25DB
102
{ACAD_REACTORS
330
25D5
102
}
330
25D5
100
AcDbXrecord
280
     1
270
     1
271
     1
  0
XRECORD
  5
25D8
102
{ACAD_REACTORS
330
25D5
102
}
330
25D5
100
AcDbXrecord
280
     1
270
     1
271
     1
  0
XRECORD
  5
2668
102
{ACAD_REACTORS
330
2667
102
}
330
2667
100
AcDbXrecord
280
     1
102
DISPLAYNAME
  1
Imperial24
102
FLAGS
 90
        0
  0
CELLSTYLEMAP
  5
262F
102
{ACAD_REACTORS
330
262E
102
}
330
262E
100
AcDbCellStyleMap
 90
        3
300
CELLSTYLE
  1
TABLEFORMAT_BEGIN
 90
        5
170
     1
 91
        0
 92
    32768
 62
   257
 93
        1
300
CONTENTFORMAT
  1
CONTENTFORMAT_BEGIN
 90
        0
 91
        0
 92
      512
 93
        0
300

 40
0.0
140
1.0
 94
        5
 62
     0
340
F
144
0.25
309
CONTENTFORMAT_END
171
     0
 94
        0
309
TABLEFORMAT_END
  1
CELLSTYLE_BEGIN
 90
        1
 91
        1
300
_TITLE
309
CELLSTYLE_END
300
CELLSTYLE
  1
TABLEFORMAT_BEGIN
 90
        5
170
     1
 91
        0
 92
        0
 62
   257
 93
        1
300
CONTENTFORMAT
  1
CONTENTFORMAT_BEGIN
 90
        0
 91
        0
 92
      512
 93
        0
300

 40
0.0
140
1.0
 94
        5
 62
     0
340
F
144
0.18
309
CONTENTFORMAT_END
171
     0
 94
        0
309
TABLEFORMAT_END
  1
CELLSTYLE_BEGIN
 90
        2
 91
        1
300
_HEADER
309
CELLSTYLE_END
300
CELLSTYLE
  1
TABLEFORMAT_BEGIN
 90
        5
170
     1
 91
        0
 92
        0
 62
   257
 93
        1
300
CONTENTFORMAT
  1
CONTENTFORMAT_BEGIN
 90
        0
 91
        0
 92
      512
 93
        0
300

 40
0.0
140
1.0
 94
        2
 62
     0
340
F
144
0.18
309
CONTENTFORMAT_END
171
     0
 94
        0
309
TABLEFORMAT_END
  1
CELLSTYLE_BEGIN
 90
        3
 91
        2
300
_DATA
309
CELLSTYLE_END
  0
XRECORD
  5
2665
102
{ACAD_REACTORS
330
262E
102
}
330
262E
100
AcDbXrecord
280
     1
102
ACAD_ROUNDTRIP_PRE2007_TABLESTYLE
 90
      512
 91
        0
  1

 92
      512
 93
        0
  2

 94
      512
 95
        0
  3

  0
XRECORD
  5
2640
102
{ACAD_REACTORS
330
263F
102
}
330
263F
100
AcDbXrecord
280
     1
102
RTVSPost2010Prop28
280
     1
102
RTVSPost2010PropOp28
 70
     1
102
RTVSPost2010Prop29
280
     1
102
RTVSPost2010PropOp29
 70
     1
102
RTVSPost2010Prop30
280
     0
102
RTVSPost2010PropOp30
 70
     1
102
RTVSPost2010Prop31
280
     0
102
RTVSPost2010PropOp31
 70
     1
102
RTVSPost2010Prop32
280
     0
102
RTVSPost2010PropOp32
 70
     1
102
RTVSPost2010Prop33
280
     0
102
RTVSPost2010PropOp33
 70
     1
102
RTVSPost2010Prop34
280
     0
102
RTVSPost2010PropOp34
 70
     1
102
RTVSPost2010Prop35
280
     0
102
RTVSPost2010PropOp35
 70
     1
102
RTVSPost2010Prop36
280
     0
102
RTVSPost2010PropOp36
 70
     1
102
RTVSPost2010Prop37
 90
       50
102
RTVSPost2010PropOp37
 70
     1
102
RTVSPost2010Prop38
140
0.0
102
RTVSPost2010PropOp38
 70
     1
102
RTVSPost2010Prop39
140
1.0
102
RTVSPost2010PropOp39
 70
     1
102
RTVSPost2010Prop40
 90
        0
102
RTVSPost2010PropOp40
 70
     1
102
RTVSPost2010Prop41ColorIndex
 90
       18
102
RTVSPost2010Prop41ColorRGB
 90
        0
102
RTVSPost2010PropOp41
 70
     1
102
RTVSPost2010Prop42
 90
       50
102
RTVSPost2010PropOp42
 70
     1
102
RTVSPost2010Prop43
 90
        3
102
RTVSPost2010PropOp43
 70
     1
102
RTVSPost2010Prop44ColorIndex
 90
        5
102
RTVSPost2010Prop44ColorRGB
 90
      255
102
RTVSPost2010PropOp44
 70
     1
102
RTVSPost2010Prop45
280
     0
102
RTVSPost2010PropOp45
 70
     1
102
RTVSPost2010Prop46
 90
       50
102
RTVSPost2010PropOp46
 70
     1
102
RTVSPost2010Prop47
 90
       50
102
RTVSPost2010PropOp47
 70
     1
102
RTVSPost2010Prop48
 90
       50
102
RTVSPost2010PropOp48
 70
     1
102
RTVSPost2010Prop49
280
     0
102
RTVSPost2010PropOp49
 70
     1
102
RTVSPost2010Prop50
 90
       50
102
RTVSPost2010PropOp50
 70
     1
102
RTVSPost2010Prop51ColorIndex
 90
      256
102
RTVSPost2010Prop51ColorRGB
 90
-16777216
102
RTVSPost2010PropOp51
 70
     0
102
RTVSPost2010Prop52
140
1.0
102
RTVSPost2010PropOp52
 70
     0
102
RTVSPost2010Prop53
 90
        2
102
RTVSPost2010PropOp53
 70
     1
102
RTVSPost2010Prop54
  1
strokes_ogs.tif
102
RTVSPost2010PropOp54
 70
     1
102
RTVSPost2010Prop55
280
     0
102
RTVSPost2010PropOp55
 70
     1
102
RTVSPost2010Prop56
140
1.0
102
RTVSPost2010PropOp56
 70
     1
102
RTVSPost2010Prop57
140
1.0
102
RTVSPost2010PropOp57
 70
     1
102
RTVSPropertyOp0
 70
     1
102
RTVSPropertyOp1
 70
     1
102
RTVSPropertyOp2
 70
     1
102
RTVSPropertyOp3
 70
     1
102
RTVSPropertyOp4
 70
     1
102
RTVSPropertyOp5
 70
     1
102
RTVSPropertyOp6
 70
     1
102
RTVSPropertyOp7
 70
     1
102
RTVSPropertyOp8
 70
     1
102
RTVSPropertyOp9
 70
     1
102
RTVSPropertyOp10
 70
     1
102
RTVSPropertyOp11
 70
     1
102
RTVSPropertyOp12
 70
     1
102
RTVSPropertyOp13
 70
     1
102
RTVSPropertyOp14
 70
     1
102
RTVSPropertyOp15
 70
     1
102
RTVSPropertyOp16
 70
     1
102
RTVSPropertyOp17
 70
     1
102
RTVSPropertyOp18
 70
     1
102
RTVSPropertyOp19
 70
     1
102
RTVSPropertyOp20
 70
     1
102
RTVSPropertyOp21
 70
     1
102
RTVSPropertyOp22
 70
     1
102
RTVSPropertyOp23
 70
     1
102
RTVSPropertyOp24
 70
     1
102
RTVSPropertyOp25
 70
     1
102
RTVSPropertyOp26
 70
     1
102
RTVSPropertyOp27
 70
     1
102
RTVSPropertyOp28
 70
     1
102
RTVSPropertyOp29
 70
     1
102
RTVSPropertyOp30
 70
     1
102
RTVSPropertyOp31
 70
     1
102
RTVSPropertyOp32
 70
     1
102
RTVSPropertyOp33
 70
     1
102
RTVSPropertyOp34
 70
     1
102
RTVSPropertyOp35
 70
     1
102
RTVSPropertyOp36
 70
     1
102
RTVSPropertyOp37
 70
     1
102
RTVSPropertyOp38
 70
     1
102
RTVSPropertyOp39
 70
     1
102
RTVSPropertyOp40
 70
     1
102
RTVSPropertyOp41
 70
     1
102
RTVSPropertyOp42
 70
     1
102
RTVSPropertyOp43
 70
     1
102
RTVSPropertyOp44
 70
     1
102
RTVSPropertyOp45
 70
     1
102
RTVSPropertyOp46
 70
     1
102
RTVSPropertyOp47
 70
     1
102
RTVSPropertyOp48
 70
     1
102
RTVSPropertyOp49
 70
     1
102
RTVSPropertyOp50
 70
     1
102
RTVSPropertyOp51
 70
     0
102
RTVSPropertyOp52
 70
     0
102
RTVSPropertyOp53
 70
     1
102
RTVSPropertyOp54
 70
     1
102
RTVSPropertyOp55
 70
     1
102
RTVSPropertyOp56
 70
     1
102
RTVSPropertyOp57
 70
     1
102
RTVSPropertyOp58
 70
     1
102
RTVSPropertyOp59
 70
     1
102
RTVSPropertyOp60
 70
     1
102
RTVSPropertyOp61
 70
     1
102
RTVSPropertyOp62
 70
     1
  0
XRECORD
  5
263E
102
{ACAD_REACTORS
330
263D
102
}
330
263D
100
AcDbXrecord
280
     1
102
RTVSPost2010Prop28
280
     0
102
RTVSPost2010PropOp28
 70
     1
102
RTVSPost2010Prop29
280
     1
102
RTVSPost2010PropOp29
 70
     1
102
RTVSPost2010Prop30
280
     1
102
RTVSPost2010PropOp30
 70
     1
102
RTVSPost2010Prop31
280
     0
102
RTVSPost2010PropOp31
 70
     1
102
RTVSPost2010Prop32
280
     0
102
RTVSPost2010PropOp32
 70
     1
102
RTVSPost2010Prop33
280
     0
102
RTVSPost2010PropOp33
 70
     1
102
RTVSPost2010Prop34
280
     0
102
RTVSPost2010PropOp34
 70
     1
102
RTVSPost2010Prop35
280
     0
102
RTVSPost2010PropOp35
 70
     1
102
RTVSPost2010Prop36
280
     0
102
RTVSPost2010PropOp36
 70
     1
102
RTVSPost2010Prop37
 90
       50
102
RTVSPost2010PropOp37
 70
     1
102
RTVSPost2010Prop38
140
0.0
102
RTVSPost2010PropOp38
 70
     1
102
RTVSPost2010Prop39
140
1.0
102
RTVSPost2010PropOp39
 70
     1
102
RTVSPost2010Prop40
 90
        0
102
RTVSPost2010PropOp40
 70
     1
102
RTVSPost2010Prop41ColorIndex
 90
       18
102
RTVSPost2010Prop41ColorRGB
 90
        0
102
RTVSPost2010PropOp41
 70
     1
102
RTVSPost2010Prop42
 90
       50
102
RTVSPost2010PropOp42
 70
     1
102
RTVSPost2010Prop43
 90
        3
102
RTVSPost2010PropOp43
 70
     1
102
RTVSPost2010Prop44ColorIndex
 90
        5
102
RTVSPost2010Prop44ColorRGB
 90
      255
102
RTVSPost2010PropOp44
 70
     1
102
RTVSPost2010Prop45
280
     0
102
RTVSPost2010PropOp45
 70
     1
102
RTVSPost2010Prop46
 90
       50
102
RTVSPost2010PropOp46
 70
     1
102
RTVSPost2010Prop47
 90
       50
102
RTVSPost2010PropOp47
 70
     1
102
RTVSPost2010Prop48
 90
       50
102
RTVSPost2010PropOp48
 70
     1
102
RTVSPost2010Prop49
280
     0
102
RTVSPost2010PropOp49
 70
     1
102
RTVSPost2010Prop50
 90
       50
102
RTVSPost2010PropOp50
 70
     1
102
RTVSPost2010Prop51ColorIndex
 90
      256
102
RTVSPost2010Prop51ColorRGB
 90
-16777216
102
RTVSPost2010PropOp51
 70
     0
102
RTVSPost2010Prop52
140
1.0
102
RTVSPost2010PropOp52
 70
     0
102
RTVSPost2010Prop53
 90
        2
102
RTVSPost2010PropOp53
 70
     1
102
RTVSPost2010Prop54
  1
strokes_ogs.tif
102
RTVSPost2010PropOp54
 70
     1
102
RTVSPost2010Prop55
280
     0
102
RTVSPost2010PropOp55
 70
     1
102
RTVSPost2010Prop56
140
1.0
102
RTVSPost2010PropOp56
 70
     1
102
RTVSPost2010Prop57
140
1.0
102
RTVSPost2010PropOp57
 70
     1
102
RTVSPropertyOp0
 70
     1
102
RTVSPropertyOp1
 70
     1
102
RTVSPropertyOp2
 70
     1
102
RTVSPropertyOp3
 70
     1
102
RTVSPropertyOp4
 70
     1
102
RTVSPropertyOp5
 70
     1
102
RTVSPropertyOp6
 70
     1
102
RTVSPropertyOp7
 70
     1
102
RTVSPropertyOp8
 70
     1
102
RTVSPropertyOp9
 70
     1
102
RTVSPropertyOp10
 70
     1
102
RTVSPropertyOp11
 70
     1
102
RTVSPropertyOp12
 70
     1
102
RTVSPropertyOp13
 70
     1
102
RTVSPropertyOp14
 70
     1
102
RTVSPropertyOp15
 70
     1
102
RTVSPropertyOp16
 70
     1
102
RTVSPropertyOp17
 70
     1
102
RTVSPropertyOp18
 70
     1
102
RTVSPropertyOp19
 70
     1
102
RTVSPropertyOp20
 70
     1
102
RTVSPropertyOp21
 70
     1
102
RTVSPropertyOp22
 70
     1
102
RTVSPropertyOp23
 70
     1
102
RTVSPropertyOp24
 70
     1
102
RTVSPropertyOp25
 70
     1
102
RTVSPropertyOp26
 70
     1
102
RTVSPropertyOp27
 70
     1
102
RTVSPropertyOp28
 70
     1
102
RTVSPropertyOp29
 70
     1
102
RTVSPropertyOp30
 70
     1
102
RTVSPropertyOp31
 70
     1
102
RTVSPropertyOp32
 70
     1
102
RTVSPropertyOp33
 70
     1
102
RTVSPropertyOp34
 70
     1
102
RTVSPropertyOp35
 70
     1
102
RTVSPropertyOp36
 70
     1
102
RTVSPropertyOp37
 70
     1
102
RTVSPropertyOp38
 70
     1
102
RTVSPropertyOp39
 70
     1
102
RTVSPropertyOp40
 70
     1
102
RTVSPropertyOp41
 70
     1
102
RTVSPropertyOp42
 70
     1
102
RTVSPropertyOp43
 70
     1
102
RTVSPropertyOp44
 70
     1
102
RTVSPropertyOp45
 70
     1
102
RTVSPropertyOp46
 70
     1
102
RTVSPropertyOp47
 70
     1
102
RTVSPropertyOp48
 70
     1
102
RTVSPropertyOp49
 70
     1
102
RTVSPropertyOp50
 70
     1
102
RTVSPropertyOp51
 70
     0
102
RTVSPropertyOp52
 70
     0
102
RTVSPropertyOp53
 70
     1
102
RTVSPropertyOp54
 70
     1
102
RTVSPropertyOp55
 70
     1
102
RTVSPropertyOp56
 70
     1
102
RTVSPropertyOp57
 70
     1
102
RTVSPropertyOp58
 70
     1
102
RTVSPropertyOp59
 70
     1
102
RTVSPropertyOp60
 70
     1
102
RTVSPropertyOp61
 70
     1
102
RTVSPropertyOp62
 70
     1
  0
XRECORD
  5
264C
102
{ACAD_REACTORS
330
264B
102
}
330
264B
100
AcDbXrecord
280
     1
102
RTVSPost2010Prop28
280
     0
102
RTVSPost2010PropOp28
 70
     1
102
RTVSPost2010Prop29
280
     1
102
RTVSPost2010PropOp29
 70
     1
102
RTVSPost2010Prop30
280
     1
102
RTVSPost2010PropOp30
 70
     1
102
RTVSPost2010Prop31
280
     0
102
RTVSPost2010PropOp31
 70
     1
102
RTVSPost2010Prop32
280
     0
102
RTVSPost2010PropOp32
 70
     1
102
RTVSPost2010Prop33
280
     0
102
RTVSPost2010PropOp33
 70
     1
102
RTVSPost2010Prop34
280
     0
102
RTVSPost2010PropOp34
 70
     1
102
RTVSPost2010Prop35
280
     0
102
RTVSPost2010PropOp35
 70
     1
102
RTVSPost2010Prop36
280
     0
102
RTVSPost2010PropOp36
 70
     1
102
RTVSPost2010Prop37
 90
       50
102
RTVSPost2010PropOp37
 70
     1
102
RTVSPost2010Prop38
140
0.0
102
RTVSPost2010PropOp38
 70
     1
102
RTVSPost2010Prop39
140
1.0
102
RTVSPost2010PropOp39
 70
     1
102
RTVSPost2010Prop40
 90
        0
102
RTVSPost2010PropOp40
 70
     1
102
RTVSPost2010Prop41ColorIndex
 90
       18
102
RTVSPost2010Prop41ColorRGB
 90
        0
102
RTVSPost2010PropOp41
 70
     1
102
RTVSPost2010Prop42
 90
       50
102
RTVSPost2010PropOp42
 70
     1
102
RTVSPost2010Prop43
 90
        3
102
RTVSPost2010PropOp43
 70
     1
102
RTVSPost2010Prop44ColorIndex
 90
        5
102
RTVSPost2010Prop44ColorRGB
 90
      255
102
RTVSPost2010PropOp44
 70
     1
102
RTVSPost2010Prop45
280
     0
102
RTVSPost2010PropOp45
 70
     1
102
RTVSPost2010Prop46
 90
       50
102
RTVSPost2010PropOp46
 70
     1
102
RTVSPost2010Prop47
 90
       50
102
RTVSPost2010PropOp47
 70
     1
102
RTVSPost2010Prop48
 90
       50
102
RTVSPost2010PropOp48
 70
     1
102
RTVSPost2010Prop49
280
     0
102
RTVSPost2010PropOp49
 70
     1
102
RTVSPost2010Prop50
 90
       50
102
RTVSPost2010PropOp50
 70
     1
102
RTVSPost2010Prop51ColorIndex
 90
      256
102
RTVSPost2010Prop51ColorRGB
 90
-16777216
102
RTVSPost2010PropOp51
 70
     0
102
RTVSPost2010Prop52
140
1.0
102
RTVSPost2010PropOp52
 70
     0
102
RTVSPost2010Prop53
 90
        2
102
RTVSPost2010PropOp53
 70
     1
102
RTVSPost2010Prop54
  1
strokes_ogs.tif
102
RTVSPost2010PropOp54
 70
     1
102
RTVSPost2010Prop55
280
     0
102
RTVSPost2010PropOp55
 70
     1
102
RTVSPost2010Prop56
140
1.0
102
RTVSPost2010PropOp56
 70
     1
102
RTVSPost2010Prop57
140
1.0
102
RTVSPost2010PropOp57
 70
     1
102
RTVSPropertyOp0
 70
     1
102
RTVSPropertyOp1
 70
     1
102
RTVSPropertyOp2
 70
     1
102
RTVSPropertyOp3
 70
     1
102
RTVSPropertyOp4
 70
     1
102
RTVSPropertyOp5
 70
     1
102
RTVSPropertyOp6
 70
     1
102
RTVSPropertyOp7
 70
     1
102
RTVSPropertyOp8
 70
     1
102
RTVSPropertyOp9
 70
     1
102
RTVSPropertyOp10
 70
     1
102
RTVSPropertyOp11
 70
     1
102
RTVSPropertyOp12
 70
     1
102
RTVSPropertyOp13
 70
     1
102
RTVSPropertyOp14
 70
     1
102
RTVSPropertyOp15
 70
     1
102
RTVSPropertyOp16
 70
     1
102
RTVSPropertyOp17
 70
     1
102
RTVSPropertyOp18
 70
     1
102
RTVSPropertyOp19
 70
     1
102
RTVSPropertyOp20
 70
     1
102
RTVSPropertyOp21
 70
     1
102
RTVSPropertyOp22
 70
     1
102
RTVSPropertyOp23
 70
     1
102
RTVSPropertyOp24
 70
     1
102
RTVSPropertyOp25
 70
     1
102
RTVSPropertyOp26
 70
     1
102
RTVSPropertyOp27
 70
     1
102
RTVSPropertyOp28
 70
     1
102
RTVSPropertyOp29
 70
     1
102
RTVSPropertyOp30
 70
     1
102
RTVSPropertyOp31
 70
     1
102
RTVSPropertyOp32
 70
     1
102
RTVSPropertyOp33
 70
     1
102
RTVSPropertyOp34
 70
     1
102
RTVSPropertyOp35
 70
     1
102
RTVSPropertyOp36
 70
     1
102
RTVSPropertyOp37
 70
     1
102
RTVSPropertyOp38
 70
     1
102
RTVSPropertyOp39
 70
     1
102
RTVSPropertyOp40
 70
     1
102
RTVSPropertyOp41
 70
     1
102
RTVSPropertyOp42
 70
     1
102
RTVSPropertyOp43
 70
     1
102
RTVSPropertyOp44
 70
     1
102
RTVSPropertyOp45
 70
     1
102
RTVSPropertyOp46
 70
     1
102
RTVSPropertyOp47
 70
     1
102
RTVSPropertyOp48
 70
     1
102
RTVSPropertyOp49
 70
     1
102
RTVSPropertyOp50
 70
     1
102
RTVSPropertyOp51
 70
     0
102
RTVSPropertyOp52
 70
     0
102
RTVSPropertyOp53
 70
     1
102
RTVSPropertyOp54
 70
     1
102
RTVSPropertyOp55
 70
     1
102
RTVSPropertyOp56
 70
     1
102
RTVSPropertyOp57
 70
     1
102
RTVSPropertyOp58
 70
     1
102
RTVSPropertyOp59
 70
     1
102
RTVSPropertyOp60
 70
     1
102
RTVSPropertyOp61
 70
     1
102
RTVSPropertyOp62
 70
     1
  0
XRECORD
  5
2654
102
{ACAD_REACTORS
330
2653
102
}
330
2653
100
AcDbXrecord
280
     1
102
RTVSPost2010Prop28
280
     0
102
RTVSPost2010PropOp28
 70
     1
102
RTVSPost2010Prop29
280
     1
102
RTVSPost2010PropOp29
 70
     1
102
RTVSPost2010Prop30
280
     1
102
RTVSPost2010PropOp30
 70
     1
102
RTVSPost2010Prop31
280
     0
102
RTVSPost2010PropOp31
 70
     1
102
RTVSPost2010Prop32
280
     0
102
RTVSPost2010PropOp32
 70
     1
102
RTVSPost2010Prop33
280
     0
102
RTVSPost2010PropOp33
 70
     1
102
RTVSPost2010Prop34
280
     0
102
RTVSPost2010PropOp34
 70
     1
102
RTVSPost2010Prop35
280
     0
102
RTVSPost2010PropOp35
 70
     1
102
RTVSPost2010Prop36
280
     0
102
RTVSPost2010PropOp36
 70
     1
102
RTVSPost2010Prop37
 90
       50
102
RTVSPost2010PropOp37
 70
     1
102
RTVSPost2010Prop38
140
0.0
102
RTVSPost2010PropOp38
 70
     1
102
RTVSPost2010Prop39
140
1.0
102
RTVSPost2010PropOp39
 70
     1
102
RTVSPost2010Prop40
 90
        0
102
RTVSPost2010PropOp40
 70
     1
102
RTVSPost2010Prop41ColorIndex
 90
       18
102
RTVSPost2010Prop41ColorRGB
 90
        0
102
RTVSPost2010PropOp41
 70
     1
102
RTVSPost2010Prop42
 90
       50
102
RTVSPost2010PropOp42
 70
     1
102
RTVSPost2010Prop43
 90
        3
102
RTVSPost2010PropOp43
 70
     1
102
RTVSPost2010Prop44ColorIndex
 90
        5
102
RTVSPost2010Prop44ColorRGB
 90
      255
102
RTVSPost2010PropOp44
 70
     1
102
RTVSPost2010Prop45
280
     0
102
RTVSPost2010PropOp45
 70
     1
102
RTVSPost2010Prop46
 90
       50
102
RTVSPost2010PropOp46
 70
     1
102
RTVSPost2010Prop47
 90
       50
102
RTVSPost2010PropOp47
 70
     1
102
RTVSPost2010Prop48
 90
       50
102
RTVSPost2010PropOp48
 70
     1
102
RTVSPost2010Prop49
280
     0
102
RTVSPost2010PropOp49
 70
     1
102
RTVSPost2010Prop50
 90
       50
102
RTVSPost2010PropOp50
 70
     1
102
RTVSPost2010Prop51ColorIndex
 90
      256
102
RTVSPost2010Prop51ColorRGB
 90
-16777216
102
RTVSPost2010PropOp51
 70
     0
102
RTVSPost2010Prop52
140
1.0
102
RTVSPost2010PropOp52
 70
     0
102
RTVSPost2010Prop53
 90
        2
102
RTVSPost2010PropOp53
 70
     1
102
RTVSPost2010Prop54
  1
strokes_ogs.tif
102
RTVSPost2010PropOp54
 70
     1
102
RTVSPost2010Prop55
280
     0
102
RTVSPost2010PropOp55
 70
     1
102
RTVSPost2010Prop56
140
1.0
102
RTVSPost2010PropOp56
 70
     1
102
RTVSPost2010Prop57
140
1.0
102
RTVSPost2010PropOp57
 70
     1
102
RTVSPropertyOp0
 70
     1
102
RTVSPropertyOp1
 70
     1
102
RTVSPropertyOp2
 70
     1
102
RTVSPropertyOp3
 70
     1
102
RTVSPropertyOp4
 70
     1
102
RTVSPropertyOp5
 70
     1
102
RTVSPropertyOp6
 70
     1
102
RTVSPropertyOp7
 70
     1
102
RTVSPropertyOp8
 70
     1
102
RTVSPropertyOp9
 70
     1
102
RTVSPropertyOp10
 70
     1
102
RTVSPropertyOp11
 70
     1
102
RTVSPropertyOp12
 70
     1
102
RTVSPropertyOp13
 70
     1
102
RTVSPropertyOp14
 70
     1
102
RTVSPropertyOp15
 70
     1
102
RTVSPropertyOp16
 70
     1
102
RTVSPropertyOp17
 70
     1
102
RTVSPropertyOp18
 70
     1
102
RTVSPropertyOp19
 70
     1
102
RTVSPropertyOp20
 70
     1
102
RTVSPropertyOp21
 70
     1
102
RTVSPropertyOp22
 70
     1
102
RTVSPropertyOp23
 70
     1
102
RTVSPropertyOp24
 70
     1
102
RTVSPropertyOp25
 70
     1
102
RTVSPropertyOp26
 70
     1
102
RTVSPropertyOp27
 70
     1
102
RTVSPropertyOp28
 70
     1
102
RTVSPropertyOp29
 70
     1
102
RTVSPropertyOp30
 70
     1
102
RTVSPropertyOp31
 70
     1
102
RTVSPropertyOp32
 70
     1
102
RTVSPropertyOp33
 70
     1
102
RTVSPropertyOp34
 70
     1
102
RTVSPropertyOp35
 70
     1
102
RTVSPropertyOp36
 70
     1
102
RTVSPropertyOp37
 70
     1
102
RTVSPropertyOp38
 70
     1
102
RTVSPropertyOp39
 70
     1
102
RTVSPropertyOp40
 70
     1
102
RTVSPropertyOp41
 70
     1
102
RTVSPropertyOp42
 70
     1
102
RTVSPropertyOp43
 70
     1
102
RTVSPropertyOp44
 70
     1
102
RTVSPropertyOp45
 70
     1
102
RTVSPropertyOp46
 70
     1
102
RTVSPropertyOp47
 70
     1
102
RTVSPropertyOp48
 70
     1
102
RTVSPropertyOp49
 70
     1
102
RTVSPropertyOp50
 70
     1
102
RTVSPropertyOp51
 70
     0
102
RTVSPropertyOp52
 70
     0
102
RTVSPropertyOp53
 70
     1
102
RTVSPropertyOp54
 70
     1
102
RTVSPropertyOp55
 70
     1
102
RTVSPropertyOp56
 70
     1
102
RTVSPropertyOp57
 70
     1
102
RTVSPropertyOp58
 70
     1
102
RTVSPropertyOp59
 70
     1
102
RTVSPropertyOp60
 70
     1
102
RTVSPropertyOp61
 70
     1
102
RTVSPropertyOp62
 70
     1
  0
XRECORD
  5
2646
102
{ACAD_REACTORS
330
2645
102
}
330
2645
100
AcDbXrecord
280
     1
102
RTVSPost2010Prop28
280
     0
102
RTVSPost2010PropOp28
 70
     1
102
RTVSPost2010Prop29
280
     1
102
RTVSPost2010PropOp29
 70
     1
102
RTVSPost2010Prop30
280
     1
102
RTVSPost2010PropOp30
 70
     1
102
RTVSPost2010Prop31
280
     0
102
RTVSPost2010PropOp31
 70
     1
102
RTVSPost2010Prop32
280
     0
102
RTVSPost2010PropOp32
 70
     1
102
RTVSPost2010Prop33
280
     0
102
RTVSPost2010PropOp33
 70
     1
102
RTVSPost2010Prop34
280
     0
102
RTVSPost2010PropOp34
 70
     1
102
RTVSPost2010Prop35
280
     0
102
RTVSPost2010PropOp35
 70
     1
102
RTVSPost2010Prop36
280
     0
102
RTVSPost2010PropOp36
 70
     1
102
RTVSPost2010Prop37
 90
       50
102
RTVSPost2010PropOp37
 70
     1
102
RTVSPost2010Prop38
140
0.0
102
RTVSPost2010PropOp38
 70
     1
102
RTVSPost2010Prop39
140
1.0
102
RTVSPost2010PropOp39
 70
     1
102
RTVSPost2010Prop40
 90
        0
102
RTVSPost2010PropOp40
 70
     1
102
RTVSPost2010Prop41ColorIndex
 90
       18
102
RTVSPost2010Prop41ColorRGB
 90
        0
102
RTVSPost2010PropOp41
 70
     1
102
RTVSPost2010Prop42
 90
       50
102
RTVSPost2010PropOp42
 70
     1
102
RTVSPost2010Prop43
 90
        3
102
RTVSPost2010PropOp43
 70
     1
102
RTVSPost2010Prop44ColorIndex
 90
        5
102
RTVSPost2010Prop44ColorRGB
 90
      255
102
RTVSPost2010PropOp44
 70
     1
102
RTVSPost2010Prop45
280
     0
102
RTVSPost2010PropOp45
 70
     1
102
RTVSPost2010Prop46
 90
       50
102
RTVSPost2010PropOp46
 70
     1
102
RTVSPost2010Prop47
 90
       50
102
RTVSPost2010PropOp47
 70
     1
102
RTVSPost2010Prop48
 90
       50
102
RTVSPost2010PropOp48
 70
     1
102
RTVSPost2010Prop49
280
     0
102
RTVSPost2010PropOp49
 70
     1
102
RTVSPost2010Prop50
 90
       50
102
RTVSPost2010PropOp50
 70
     1
102
RTVSPost2010Prop51ColorIndex
 90
      256
102
RTVSPost2010Prop51ColorRGB
 90
-16777216
102
RTVSPost2010PropOp51
 70
     0
102
RTVSPost2010Prop52
140
1.0
102
RTVSPost2010PropOp52
 70
     0
102
RTVSPost2010Prop53
 90
        2
102
RTVSPost2010PropOp53
 70
     1
102
RTVSPost2010Prop54
  1
strokes_ogs.tif
102
RTVSPost2010PropOp54
 70
     1
102
RTVSPost2010Prop55
280
     0
102
RTVSPost2010PropOp55
 70
     1
102
RTVSPost2010Prop56
140
1.0
102
RTVSPost2010PropOp56
 70
     1
102
RTVSPost2010Prop57
140
1.0
102
RTVSPost2010PropOp57
 70
     1
102
RTVSPropertyOp0
 70
     1
102
RTVSPropertyOp1
 70
     1
102
RTVSPropertyOp2
 70
     1
102
RTVSPropertyOp3
 70
     1
102
RTVSPropertyOp4
 70
     1
102
RTVSPropertyOp5
 70
     1
102
RTVSPropertyOp6
 70
     1
102
RTVSPropertyOp7
 70
     1
102
RTVSPropertyOp8
 70
     1
102
RTVSPropertyOp9
 70
     1
102
RTVSPropertyOp10
 70
     1
102
RTVSPropertyOp11
 70
     1
102
RTVSPropertyOp12
 70
     1
102
RTVSPropertyOp13
 70
     1
102
RTVSPropertyOp14
 70
     1
102
RTVSPropertyOp15
 70
     1
102
RTVSPropertyOp16
 70
     1
102
RTVSPropertyOp17
 70
     1
102
RTVSPropertyOp18
 70
     1
102
RTVSPropertyOp19
 70
     1
102
RTVSPropertyOp20
 70
     1
102
RTVSPropertyOp21
 70
     1
102
RTVSPropertyOp22
 70
     1
102
RTVSPropertyOp23
 70
     1
102
RTVSPropertyOp24
 70
     1
102
RTVSPropertyOp25
 70
     1
102
RTVSPropertyOp26
 70
     1
102
RTVSPropertyOp27
 70
     1
102
RTVSPropertyOp28
 70
     1
102
RTVSPropertyOp29
 70
     1
102
RTVSPropertyOp30
 70
     1
102
RTVSPropertyOp31
 70
     1
102
RTVSPropertyOp32
 70
     1
102
RTVSPropertyOp33
 70
     1
102
RTVSPropertyOp34
 70
     1
102
RTVSPropertyOp35
 70
     1
102
RTVSPropertyOp36
 70
     1
102
RTVSPropertyOp37
 70
     1
102
RTVSPropertyOp38
 70
     1
102
RTVSPropertyOp39
 70
     1
102
RTVSPropertyOp40
 70
     1
102
RTVSPropertyOp41
 70
     1
102
RTVSPropertyOp42
 70
     1
102
RTVSPropertyOp43
 70
     1
102
RTVSPropertyOp44
 70
     1
102
RTVSPropertyOp45
 70
     1
102
RTVSPropertyOp46
 70
     1
102
RTVSPropertyOp47
 70
     1
102
RTVSPropertyOp48
 70
     1
102
RTVSPropertyOp49
 70
     1
102
RTVSPropertyOp50
 70
     1
102
RTVSPropertyOp51
 70
     0
102
RTVSPropertyOp52
 70
     0
102
RTVSPropertyOp53
 70
     1
102
RTVSPropertyOp54
 70
     1
102
RTVSPropertyOp55
 70
     1
102
RTVSPropertyOp56
 70
     1
102
RTVSPropertyOp57
 70
     1
102
RTVSPropertyOp58
 70
     1
102
RTVSPropertyOp59
 70
     1
102
RTVSPropertyOp60
 70
     1
102
RTVSPropertyOp61
 70
     1
102
RTVSPropertyOp62
 70
     1
  0
XRECORD
  5
264A
102
{ACAD_REACTORS
330
2649
102
}
330
2649
100
AcDbXrecord
280
     1
102
RTVSPost2010Prop28
280
     0
102
RTVSPost2010PropOp28
 70
     1
102
RTVSPost2010Prop29
280
     1
102
RTVSPost2010PropOp29
 70
     1
102
RTVSPost2010Prop30
280
     1
102
RTVSPost2010PropOp30
 70
     1
102
RTVSPost2010Prop31
280
     0
102
RTVSPost2010PropOp31
 70
     1
102
RTVSPost2010Prop32
280
     0
102
RTVSPost2010PropOp32
 70
     1
102
RTVSPost2010Prop33
280
     0
102
RTVSPost2010PropOp33
 70
     1
102
RTVSPost2010Prop34
280
     0
102
RTVSPost2010PropOp34
 70
     1
102
RTVSPost2010Prop35
280
     0
102
RTVSPost2010PropOp35
 70
     1
102
RTVSPost2010Prop36
280
     0
102
RTVSPost2010PropOp36
 70
     1
102
RTVSPost2010Prop37
 90
       50
102
RTVSPost2010PropOp37
 70
     1
102
RTVSPost2010Prop38
140
0.0
102
RTVSPost2010PropOp38
 70
     1
102
RTVSPost2010Prop39
140
1.0
102
RTVSPost2010PropOp39
 70
     1
102
RTVSPost2010Prop40
 90
        0
102
RTVSPost2010PropOp40
 70
     1
102
RTVSPost2010Prop41ColorIndex
 90
       18
102
RTVSPost2010Prop41ColorRGB
 90
        0
102
RTVSPost2010PropOp41
 70
     1
102
RTVSPost2010Prop42
 90
       50
102
RTVSPost2010PropOp42
 70
     1
102
RTVSPost2010Prop43
 90
        3
102
RTVSPost2010PropOp43
 70
     1
102
RTVSPost2010Prop44ColorIndex
 90
        5
102
RTVSPost2010Prop44ColorRGB
 90
      255
102
RTVSPost2010PropOp44
 70
     1
102
RTVSPost2010Prop45
280
     0
102
RTVSPost2010PropOp45
 70
     1
102
RTVSPost2010Prop46
 90
       50
102
RTVSPost2010PropOp46
 70
     1
102
RTVSPost2010Prop47
 90
       50
102
RTVSPost2010PropOp47
 70
     1
102
RTVSPost2010Prop48
 90
       50
102
RTVSPost2010PropOp48
 70
     1
102
RTVSPost2010Prop49
280
     0
102
RTVSPost2010PropOp49
 70
     1
102
RTVSPost2010Prop50
 90
       50
102
RTVSPost2010PropOp50
 70
     1
102
RTVSPost2010Prop51ColorIndex
 90
      256
102
RTVSPost2010Prop51ColorRGB
 90
-16777216
102
RTVSPost2010PropOp51
 70
     0
102
RTVSPost2010Prop52
140
1.0
102
RTVSPost2010PropOp52
 70
     0
102
RTVSPost2010Prop53
 90
        2
102
RTVSPost2010PropOp53
 70
     1
102
RTVSPost2010Prop54
  1
strokes_ogs.tif
102
RTVSPost2010PropOp54
 70
     1
102
RTVSPost2010Prop55
280
     0
102
RTVSPost2010PropOp55
 70
     1
102
RTVSPost2010Prop56
140
1.0
102
RTVSPost2010PropOp56
 70
     1
102
RTVSPost2010Prop57
140
1.0
102
RTVSPost2010PropOp57
 70
     1
102
RTVSPropertyOp0
 70
     1
102
RTVSPropertyOp1
 70
     1
102
RTVSPropertyOp2
 70
     1
102
RTVSPropertyOp3
 70
     1
102
RTVSPropertyOp4
 70
     1
102
RTVSPropertyOp5
 70
     1
102
RTVSPropertyOp6
 70
     1
102
RTVSPropertyOp7
 70
     1
102
RTVSPropertyOp8
 70
     1
102
RTVSPropertyOp9
 70
     1
102
RTVSPropertyOp10
 70
     1
102
RTVSPropertyOp11
 70
     1
102
RTVSPropertyOp12
 70
     1
102
RTVSPropertyOp13
 70
     1
102
RTVSPropertyOp14
 70
     1
102
RTVSPropertyOp15
 70
     1
102
RTVSPropertyOp16
 70
     1
102
RTVSPropertyOp17
 70
     1
102
RTVSPropertyOp18
 70
     1
102
RTVSPropertyOp19
 70
     1
102
RTVSPropertyOp20
 70
     1
102
RTVSPropertyOp21
 70
     1
102
RTVSPropertyOp22
 70
     1
102
RTVSPropertyOp23
 70
     1
102
RTVSPropertyOp24
 70
     1
102
RTVSPropertyOp25
 70
     1
102
RTVSPropertyOp26
 70
     1
102
RTVSPropertyOp27
 70
     1
102
RTVSPropertyOp28
 70
     1
102
RTVSPropertyOp29
 70
     1
102
RTVSPropertyOp30
 70
     1
102
RTVSPropertyOp31
 70
     1
102
RTVSPropertyOp32
 70
     1
102
RTVSPropertyOp33
 70
     1
102
RTVSPropertyOp34
 70
     1
102
RTVSPropertyOp35
 70
     1
102
RTVSPropertyOp36
 70
     1
102
RTVSPropertyOp37
 70
     1
102
RTVSPropertyOp38
 70
     1
102
RTVSPropertyOp39
 70
     1
102
RTVSPropertyOp40
 70
     1
102
RTVSPropertyOp41
 70
     1
102
RTVSPropertyOp42
 70
     1
102
RTVSPropertyOp43
 70
     1
102
RTVSPropertyOp44
 70
     1
102
RTVSPropertyOp45
 70
     1
102
RTVSPropertyOp46
 70
     1
102
RTVSPropertyOp47
 70
     1
102
RTVSPropertyOp48
 70
     1
102
RTVSPropertyOp49
 70
     1
102
RTVSPropertyOp50
 70
     1
102
RTVSPropertyOp51
 70
     0
102
RTVSPropertyOp52
 70
     0
102
RTVSPropertyOp53
 70
     1
102
RTVSPropertyOp54
 70
     1
102
RTVSPropertyOp55
 70
     1
102
RTVSPropertyOp56
 70
     1
102
RTVSPropertyOp57
 70
     1
102
RTVSPropertyOp58
 70
     1
102
RTVSPropertyOp59
 70
     1
102
RTVSPropertyOp60
 70
     1
102
RTVSPropertyOp61
 70
     1
102
RTVSPropertyOp62
 70
     1
  0
XRECORD
  5
2664
102
{ACAD_REACTORS
330
2663
102
}
330
2663
100
AcDbXrecord
280
     1
102
RTVSPost2010Prop28
280
     0
102
RTVSPost2010PropOp28
 70
     1
102
RTVSPost2010Prop29
280
     1
102
RTVSPost2010PropOp29
 70
     1
102
RTVSPost2010Prop30
280
     1
102
RTVSPost2010PropOp30
 70
     1
102
RTVSPost2010Prop31
280
     0
102
RTVSPost2010PropOp31
 70
     1
102
RTVSPost2010Prop32
280
     0
102
RTVSPost2010PropOp32
 70
     1
102
RTVSPost2010Prop33
280
     0
102
RTVSPost2010PropOp33
 70
     1
102
RTVSPost2010Prop34
280
     0
102
RTVSPost2010PropOp34
 70
     1
102
RTVSPost2010Prop35
280
     0
102
RTVSPost2010PropOp35
 70
     1
102
RTVSPost2010Prop36
280
     0
102
RTVSPost2010PropOp36
 70
     1
102
RTVSPost2010Prop37
 90
       50
102
RTVSPost2010PropOp37
 70
     0
102
RTVSPost2010Prop38
140
0.0
102
RTVSPost2010PropOp38
 70
     0
102
RTVSPost2010Prop39
140
1.0
102
RTVSPost2010PropOp39
 70
     0
102
RTVSPost2010Prop40
 90
        0
102
RTVSPost2010PropOp40
 70
     0
102
RTVSPost2010Prop41ColorIndex
 90
       18
102
RTVSPost2010Prop41ColorRGB
 90
        0
102
RTVSPost2010PropOp41
 70
     0
102
RTVSPost2010Prop42
 90
       50
102
RTVSPost2010PropOp42
 70
     0
102
RTVSPost2010Prop43
 90
        3
102
RTVSPost2010PropOp43
 70
     0
102
RTVSPost2010Prop44ColorIndex
 90
        5
102
RTVSPost2010Prop44ColorRGB
 90
      255
102
RTVSPost2010PropOp44
 70
     0
102
RTVSPost2010Prop45
280
     0
102
RTVSPost2010PropOp45
 70
     1
102
RTVSPost2010Prop46
 90
       50
102
RTVSPost2010PropOp46
 70
     0
102
RTVSPost2010Prop47
 90
       50
102
RTVSPost2010PropOp47
 70
     0
102
RTVSPost2010Prop48
 90
       50
102
RTVSPost2010PropOp48
 70
     0
102
RTVSPost2010Prop49
280
     0
102
RTVSPost2010PropOp49
 70
     1
102
RTVSPost2010Prop50
 90
       50
102
RTVSPost2010PropOp50
 70
     0
102
RTVSPost2010Prop51ColorIndex
 90
      256
102
RTVSPost2010Prop51ColorRGB
 90
-16777216
102
RTVSPost2010PropOp51
 70
     0
102
RTVSPost2010Prop52
140
1.0
102
RTVSPost2010PropOp52
 70
     0
102
RTVSPost2010Prop53
 90
        2
102
RTVSPost2010PropOp53
 70
     0
102
RTVSPost2010Prop54
  1
strokes_ogs.tif
102
RTVSPost2010PropOp54
 70
     0
102
RTVSPost2010Prop55
280
     0
102
RTVSPost2010PropOp55
 70
     1
102
RTVSPost2010Prop56
140
1.0
102
RTVSPost2010PropOp56
 70
     0
102
RTVSPost2010Prop57
140
1.0
102
RTVSPost2010PropOp57
 70
     0
102
RTVSPropertyOp0
 70
     0
102
RTVSPropertyOp1
 70
     0
102
RTVSPropertyOp2
 70
     0
102
RTVSPropertyOp3
 70
     0
102
RTVSPropertyOp4
 70
     0
102
RTVSPropertyOp5
 70
     0
102
RTVSPropertyOp6
 70
     0
102
RTVSPropertyOp7
 70
     0
102
RTVSPropertyOp8
 70
     0
102
RTVSPropertyOp9
 70
     0
102
RTVSPropertyOp10
 70
     0
102
RTVSPropertyOp11
 70
     0
102
RTVSPropertyOp12
 70
     0
102
RTVSPropertyOp13
 70
     0
102
RTVSPropertyOp14
 70
     2
102
RTVSPropertyOp15
 70
     0
102
RTVSPropertyOp16
 70
     0
102
RTVSPropertyOp17
 70
     0
102
RTVSPropertyOp18
 70
     0
102
RTVSPropertyOp19
 70
     0
102
RTVSPropertyOp20
 70
     0
102
RTVSPropertyOp21
 70
     0
102
RTVSPropertyOp22
 70
     0
102
RTVSPropertyOp23
 70
     0
102
RTVSPropertyOp24
 70
     0
102
RTVSPropertyOp25
 70
     0
102
RTVSPropertyOp26
 70
     0
102
RTVSPropertyOp27
 70
     0
102
RTVSPropertyOp28
 70
     1
102
RTVSPropertyOp29
 70
     1
102
RTVSPropertyOp30
 70
     1
102
RTVSPropertyOp31
 70
     1
102
RTVSPropertyOp32
 70
     1
102
RTVSPropertyOp33
 70
     1
102
RTVSPropertyOp34
 70
     1
102
RTVSPropertyOp35
 70
     1
102
RTVSPropertyOp36
 70
     1
102
RTVSPropertyOp37
 70
     0
102
RTVSPropertyOp38
 70
     0
102
RTVSPropertyOp39
 70
     0
102
RTVSPropertyOp40
 70
     0
102
RTVSPropertyOp41
 70
     0
102
RTVSPropertyOp42
 70
     0
102
RTVSPropertyOp43
 70
     0
102
RTVSPropertyOp44
 70
     0
102
RTVSPropertyOp45
 70
     1
102
RTVSPropertyOp46
 70
     0
102
RTVSPropertyOp47
 70
     0
102
RTVSPropertyOp48
 70
     0
102
RTVSPropertyOp49
 70
     1
102
RTVSPropertyOp50
 70
     0
102
RTVSPropertyOp51
 70
     0
102
RTVSPropertyOp52
 70
     0
102
RTVSPropertyOp53
 70
     0
102
RTVSPropertyOp54
 70
     0
102
RTVSPropertyOp55
 70
     1
102
RTVSPropertyOp56
 70
     0
102
RTVSPropertyOp57
 70
     0
102
RTVSPropertyOp58
 70
     0
102
RTVSPropertyOp59
 70
     0
102
RTVSPropertyOp60
 70
     0
102
RTVSPropertyOp61
 70
     0
102
RTVSPropertyOp62
 70
     0
  0
XRECORD
  5
2652
102
{ACAD_REACTORS
330
2651
102
}
330
2651
100
AcDbXrecord
280
     1
102
RTVSPost2010Prop28
280
     0
102
RTVSPost2010PropOp28
 70
     1
102
RTVSPost2010Prop29
280
     1
102
RTVSPost2010PropOp29
 70
     1
102
RTVSPost2010Prop30
280
     1
102
RTVSPost2010PropOp30
 70
     1
102
RTVSPost2010Prop31
280
     0
102
RTVSPost2010PropOp31
 70
     1
102
RTVSPost2010Prop32
280
     0
102
RTVSPost2010PropOp32
 70
     1
102
RTVSPost2010Prop33
280
     0
102
RTVSPost2010PropOp33
 70
     1
102
RTVSPost2010Prop34
280
     0
102
RTVSPost2010PropOp34
 70
     1
102
RTVSPost2010Prop35
280
     0
102
RTVSPost2010PropOp35
 70
     1
102
RTVSPost2010Prop36
280
     0
102
RTVSPost2010PropOp36
 70
     1
102
RTVSPost2010Prop37
 90
       50
102
RTVSPost2010PropOp37
 70
     1
102
RTVSPost2010Prop38
140
0.0
102
RTVSPost2010PropOp38
 70
     1
102
RTVSPost2010Prop39
140
1.0
102
RTVSPost2010PropOp39
 70
     1
102
RTVSPost2010Prop40
 90
        0
102
RTVSPost2010PropOp40
 70
     1
102
RTVSPost2010Prop41ColorIndex
 90
       18
102
RTVSPost2010Prop41ColorRGB
 90
        0
102
RTVSPost2010PropOp41
 70
     1
102
RTVSPost2010Prop42
 90
       50
102
RTVSPost2010PropOp42
 70
     1
102
RTVSPost2010Prop43
 90
        3
102
RTVSPost2010PropOp43
 70
     1
102
RTVSPost2010Prop44ColorIndex
 90
        5
102
RTVSPost2010Prop44ColorRGB
 90
      255
102
RTVSPost2010PropOp44
 70
     1
102
RTVSPost2010Prop45
280
     0
102
RTVSPost2010PropOp45
 70
     1
102
RTVSPost2010Prop46
 90
       50
102
RTVSPost2010PropOp46
 70
     1
102
RTVSPost2010Prop47
 90
       50
102
RTVSPost2010PropOp47
 70
     1
102
RTVSPost2010Prop48
 90
       50
102
RTVSPost2010PropOp48
 70
     1
102
RTVSPost2010Prop49
280
     0
102
RTVSPost2010PropOp49
 70
     1
102
RTVSPost2010Prop50
 90
       50
102
RTVSPost2010PropOp50
 70
     1
102
RTVSPost2010Prop51ColorIndex
 90
      256
102
RTVSPost2010Prop51ColorRGB
 90
-16777216
102
RTVSPost2010PropOp51
 70
     0
102
RTVSPost2010Prop52
140
1.0
102
RTVSPost2010PropOp52
 70
     0
102
RTVSPost2010Prop53
 90
        2
102
RTVSPost2010PropOp53
 70
     1
102
RTVSPost2010Prop54
  1
strokes_ogs.tif
102
RTVSPost2010PropOp54
 70
     1
102
RTVSPost2010Prop55
280
     0
102
RTVSPost2010PropOp55
 70
     1
102
RTVSPost2010Prop56
140
1.0
102
RTVSPost2010PropOp56
 70
     1
102
RTVSPost2010Prop57
140
1.0
102
RTVSPost2010PropOp57
 70
     1
102
RTVSPropertyOp0
 70
     1
102
RTVSPropertyOp1
 70
     1
102
RTVSPropertyOp2
 70
     1
102
RTVSPropertyOp3
 70
     1
102
RTVSPropertyOp4
 70
     1
102
RTVSPropertyOp5
 70
     1
102
RTVSPropertyOp6
 70
     1
102
RTVSPropertyOp7
 70
     1
102
RTVSPropertyOp8
 70
     1
102
RTVSPropertyOp9
 70
     1
102
RTVSPropertyOp10
 70
     1
102
RTVSPropertyOp11
 70
     1
102
RTVSPropertyOp12
 70
     1
102
RTVSPropertyOp13
 70
     1
102
RTVSPropertyOp14
 70
     1
102
RTVSPropertyOp15
 70
     1
102
RTVSPropertyOp16
 70
     1
102
RTVSPropertyOp17
 70
     1
102
RTVSPropertyOp18
 70
     1
102
RTVSPropertyOp19
 70
     1
102
RTVSPropertyOp20
 70
     1
102
RTVSPropertyOp21
 70
     1
102
RTVSPropertyOp22
 70
     1
102
RTVSPropertyOp23
 70
     1
102
RTVSPropertyOp24
 70
     1
102
RTVSPropertyOp25
 70
     1
102
RTVSPropertyOp26
 70
     1
102
RTVSPropertyOp27
 70
     1
102
RTVSPropertyOp28
 70
     1
102
RTVSPropertyOp29
 70
     1
102
RTVSPropertyOp30
 70
     1
102
RTVSPropertyOp31
 70
     1
102
RTVSPropertyOp32
 70
     1
102
RTVSPropertyOp33
 70
     1
102
RTVSPropertyOp34
 70
     1
102
RTVSPropertyOp35
 70
     1
102
RTVSPropertyOp36
 70
     1
102
RTVSPropertyOp37
 70
     1
102
RTVSPropertyOp38
 70
     1
102
RTVSPropertyOp39
 70
     1
102
RTVSPropertyOp40
 70
     1
102
RTVSPropertyOp41
 70
     1
102
RTVSPropertyOp42
 70
     1
102
RTVSPropertyOp43
 70
     1
102
RTVSPropertyOp44
 70
     1
102
RTVSPropertyOp45
 70
     1
102
RTVSPropertyOp46
 70
     1
102
RTVSPropertyOp47
 70
     1
102
RTVSPropertyOp48
 70
     1
102
RTVSPropertyOp49
 70
     1
102
RTVSPropertyOp50
 70
     1
102
RTVSPropertyOp51
 70
     0
102
RTVSPropertyOp52
 70
     0
102
RTVSPropertyOp53
 70
     1
102
RTVSPropertyOp54
 70
     1
102
RTVSPropertyOp55
 70
     1
102
RTVSPropertyOp56
 70
     1
102
RTVSPropertyOp57
 70
     1
102
RTVSPropertyOp58
 70
     1
102
RTVSPropertyOp59
 70
     1
102
RTVSPropertyOp60
 70
     1
102
RTVSPropertyOp61
 70
     1
102
RTVSPropertyOp62
 70
     1
  0
XRECORD
  5
2636
102
{ACAD_REACTORS
330
2635
102
}
330
2635
100
AcDbXrecord
280
     1
102
RTVSPost2010Prop28
280
     0
102
RTVSPost2010PropOp28
 70
     1
102
RTVSPost2010Prop29
280
     1
102
RTVSPost2010PropOp29
 70
     1
102
RTVSPost2010Prop30
280
     1
102
RTVSPost2010PropOp30
 70
     1
102
RTVSPost2010Prop31
280
     0
102
RTVSPost2010PropOp31
 70
     1
102
RTVSPost2010Prop32
280
     0
102
RTVSPost2010PropOp32
 70
     1
102
RTVSPost2010Prop33
280
     0
102
RTVSPost2010PropOp33
 70
     1
102
RTVSPost2010Prop34
280
     0
102
RTVSPost2010PropOp34
 70
     1
102
RTVSPost2010Prop35
280
     0
102
RTVSPost2010PropOp35
 70
     1
102
RTVSPost2010Prop36
280
     0
102
RTVSPost2010PropOp36
 70
     1
102
RTVSPost2010Prop37
 90
       50
102
RTVSPost2010PropOp37
 70
     1
102
RTVSPost2010Prop38
140
0.0
102
RTVSPost2010PropOp38
 70
     1
102
RTVSPost2010Prop39
140
1.0
102
RTVSPost2010PropOp39
 70
     1
102
RTVSPost2010Prop40
 90
        0
102
RTVSPost2010PropOp40
 70
     1
102
RTVSPost2010Prop41ColorIndex
 90
       18
102
RTVSPost2010Prop41ColorRGB
 90
        0
102
RTVSPost2010PropOp41
 70
     1
102
RTVSPost2010Prop42
 90
       50
102
RTVSPost2010PropOp42
 70
     1
102
RTVSPost2010Prop43
 90
        3
102
RTVSPost2010PropOp43
 70
     1
102
RTVSPost2010Prop44ColorIndex
 90
        5
102
RTVSPost2010Prop44ColorRGB
 90
      255
102
RTVSPost2010PropOp44
 70
     1
102
RTVSPost2010Prop45
280
     0
102
RTVSPost2010PropOp45
 70
     1
102
RTVSPost2010Prop46
 90
       50
102
RTVSPost2010PropOp46
 70
     1
102
RTVSPost2010Prop47
 90
       50
102
RTVSPost2010PropOp47
 70
     1
102
RTVSPost2010Prop48
 90
       50
102
RTVSPost2010PropOp48
 70
     1
102
RTVSPost2010Prop49
280
     0
102
RTVSPost2010PropOp49
 70
     1
102
RTVSPost2010Prop50
 90
       50
102
RTVSPost2010PropOp50
 70
     1
102
RTVSPost2010Prop51ColorIndex
 90
      256
102
RTVSPost2010Prop51ColorRGB
 90
-16777216
102
RTVSPost2010PropOp51
 70
     0
102
RTVSPost2010Prop52
140
1.0
102
RTVSPost2010PropOp52
 70
     0
102
RTVSPost2010Prop53
 90
        2
102
RTVSPost2010PropOp53
 70
     1
102
RTVSPost2010Prop54
  1
strokes_ogs.tif
102
RTVSPost2010PropOp54
 70
     1
102
RTVSPost2010Prop55
280
     0
102
RTVSPost2010PropOp55
 70
     1
102
RTVSPost2010Prop56
140
1.0
102
RTVSPost2010PropOp56
 70
     1
102
RTVSPost2010Prop57
140
1.0
102
RTVSPost2010PropOp57
 70
     1
102
RTVSPropertyOp0
 70
     1
102
RTVSPropertyOp1
 70
     1
102
RTVSPropertyOp2
 70
     1
102
RTVSPropertyOp3
 70
     1
102
RTVSPropertyOp4
 70
     1
102
RTVSPropertyOp5
 70
     1
102
RTVSPropertyOp6
 70
     1
102
RTVSPropertyOp7
 70
     1
102
RTVSPropertyOp8
 70
     1
102
RTVSPropertyOp9
 70
     1
102
RTVSPropertyOp10
 70
     1
102
RTVSPropertyOp11
 70
     1
102
RTVSPropertyOp12
 70
     1
102
RTVSPropertyOp13
 70
     1
102
RTVSPropertyOp14
 70
     1
102
RTVSPropertyOp15
 70
     1
102
RTVSPropertyOp16
 70
     1
102
RTVSPropertyOp17
 70
     1
102
RTVSPropertyOp18
 70
     1
102
RTVSPropertyOp19
 70
     1
102
RTVSPropertyOp20
 70
     1
102
RTVSPropertyOp21
 70
     1
102
RTVSPropertyOp22
 70
     1
102
RTVSPropertyOp23
 70
     1
102
RTVSPropertyOp24
 70
     1
102
RTVSPropertyOp25
 70
     1
102
RTVSPropertyOp26
 70
     1
102
RTVSPropertyOp27
 70
     1
102
RTVSPropertyOp28
 70
     1
102
RTVSPropertyOp29
 70
     1
102
RTVSPropertyOp30
 70
     1
102
RTVSPropertyOp31
 70
     1
102
RTVSPropertyOp32
 70
     1
102
RTVSPropertyOp33
 70
     1
102
RTVSPropertyOp34
 70
     1
102
RTVSPropertyOp35
 70
     1
102
RTVSPropertyOp36
 70
     1
102
RTVSPropertyOp37
 70
     1
102
RTVSPropertyOp38
 70
     1
102
RTVSPropertyOp39
 70
     1
102
RTVSPropertyOp40
 70
     1
102
RTVSPropertyOp41
 70
     1
102
RTVSPropertyOp42
 70
     1
102
RTVSPropertyOp43
 70
     1
102
RTVSPropertyOp44
 70
     1
102
RTVSPropertyOp45
 70
     1
102
RTVSPropertyOp46
 70
     1
102
RTVSPropertyOp47
 70
     1
102
RTVSPropertyOp48
 70
     1
102
RTVSPropertyOp49
 70
     1
102
RTVSPropertyOp50
 70
     1
102
RTVSPropertyOp51
 70
     0
102
RTVSPropertyOp52
 70
     0
102
RTVSPropertyOp53
 70
     1
102
RTVSPropertyOp54
 70
     1
102
RTVSPropertyOp55
 70
     1
102
RTVSPropertyOp56
 70
     1
102
RTVSPropertyOp57
 70
     1
102
RTVSPropertyOp58
 70
     1
102
RTVSPropertyOp59
 70
     1
102
RTVSPropertyOp60
 70
     1
102
RTVSPropertyOp61
 70
     1
102
RTVSPropertyOp62
 70
     1
  0
XRECORD
  5
2638
102
{ACAD_REACTORS
330
2637
102
}
330
2637
100
AcDbXrecord
280
     1
102
RTVSPost2010Prop28
280
     0
102
RTVSPost2010PropOp28
 70
     1
102
RTVSPost2010Prop29
280
     1
102
RTVSPost2010PropOp29
 70
     1
102
RTVSPost2010Prop30
280
     1
102
RTVSPost2010PropOp30
 70
     1
102
RTVSPost2010Prop31
280
     0
102
RTVSPost2010PropOp31
 70
     1
102
RTVSPost2010Prop32
280
     0
102
RTVSPost2010PropOp32
 70
     1
102
RTVSPost2010Prop33
280
     0
102
RTVSPost2010PropOp33
 70
     1
102
RTVSPost2010Prop34
280
     0
102
RTVSPost2010PropOp34
 70
     1
102
RTVSPost2010Prop35
280
     0
102
RTVSPost2010PropOp35
 70
     1
102
RTVSPost2010Prop36
280
     0
102
RTVSPost2010PropOp36
 70
     1
102
RTVSPost2010Prop37
 90
       50
102
RTVSPost2010PropOp37
 70
     1
102
RTVSPost2010Prop38
140
0.0
102
RTVSPost2010PropOp38
 70
     1
102
RTVSPost2010Prop39
140
1.0
102
RTVSPost2010PropOp39
 70
     1
102
RTVSPost2010Prop40
 90
        0
102
RTVSPost2010PropOp40
 70
     1
102
RTVSPost2010Prop41ColorIndex
 90
       18
102
RTVSPost2010Prop41ColorRGB
 90
        0
102
RTVSPost2010PropOp41
 70
     1
102
RTVSPost2010Prop42
 90
       50
102
RTVSPost2010PropOp42
 70
     1
102
RTVSPost2010Prop43
 90
        3
102
RTVSPost2010PropOp43
 70
     1
102
RTVSPost2010Prop44ColorIndex
 90
        5
102
RTVSPost2010Prop44ColorRGB
 90
      255
102
RTVSPost2010PropOp44
 70
     1
102
RTVSPost2010Prop45
280
     0
102
RTVSPost2010PropOp45
 70
     1
102
RTVSPost2010Prop46
 90
       50
102
RTVSPost2010PropOp46
 70
     1
102
RTVSPost2010Prop47
 90
       50
102
RTVSPost2010PropOp47
 70
     1
102
RTVSPost2010Prop48
 90
       50
102
RTVSPost2010PropOp48
 70
     1
102
RTVSPost2010Prop49
280
     0
102
RTVSPost2010PropOp49
 70
     1
102
RTVSPost2010Prop50
 90
       50
102
RTVSPost2010PropOp50
 70
     1
102
RTVSPost2010Prop51ColorIndex
 90
      256
102
RTVSPost2010Prop51ColorRGB
 90
-16777216
102
RTVSPost2010PropOp51
 70
     0
102
RTVSPost2010Prop52
140
1.0
102
RTVSPost2010PropOp52
 70
     0
102
RTVSPost2010Prop53
 90
        2
102
RTVSPost2010PropOp53
 70
     1
102
RTVSPost2010Prop54
  1
strokes_ogs.tif
102
RTVSPost2010PropOp54
 70
     1
102
RTVSPost2010Prop55
280
     0
102
RTVSPost2010PropOp55
 70
     1
102
RTVSPost2010Prop56
140
1.0
102
RTVSPost2010PropOp56
 70
     1
102
RTVSPost2010Prop57
140
1.0
102
RTVSPost2010PropOp57
 70
     1
102
RTVSPropertyOp0
 70
     1
102
RTVSPropertyOp1
 70
     1
102
RTVSPropertyOp2
 70
     1
102
RTVSPropertyOp3
 70
     1
102
RTVSPropertyOp4
 70
     1
102
RTVSPropertyOp5
 70
     1
102
RTVSPropertyOp6
 70
     1
102
RTVSPropertyOp7
 70
     1
102
RTVSPropertyOp8
 70
     1
102
RTVSPropertyOp9
 70
     1
102
RTVSPropertyOp10
 70
     1
102
RTVSPropertyOp11
 70
     1
102
RTVSPropertyOp12
 70
     1
102
RTVSPropertyOp13
 70
     1
102
RTVSPropertyOp14
 70
     1
102
RTVSPropertyOp15
 70
     1
102
RTVSPropertyOp16
 70
     1
102
RTVSPropertyOp17
 70
     1
102
RTVSPropertyOp18
 70
     1
102
RTVSPropertyOp19
 70
     1
102
RTVSPropertyOp20
 70
     1
102
RTVSPropertyOp21
 70
     1
102
RTVSPropertyOp22
 70
     1
102
RTVSPropertyOp23
 70
     1
102
RTVSPropertyOp24
 70
     1
102
RTVSPropertyOp25
 70
     1
102
RTVSPropertyOp26
 70
     1
102
RTVSPropertyOp27
 70
     1
102
RTVSPropertyOp28
 70
     1
102
RTVSPropertyOp29
 70
     1
102
RTVSPropertyOp30
 70
     1
102
RTVSPropertyOp31
 70
     1
102
RTVSPropertyOp32
 70
     1
102
RTVSPropertyOp33
 70
     1
102
RTVSPropertyOp34
 70
     1
102
RTVSPropertyOp35
 70
     1
102
RTVSPropertyOp36
 70
     1
102
RTVSPropertyOp37
 70
     1
102
RTVSPropertyOp38
 70
     1
102
RTVSPropertyOp39
 70
     1
102
RTVSPropertyOp40
 70
     1
102
RTVSPropertyOp41
 70
     1
102
RTVSPropertyOp42
 70
     1
102
RTVSPropertyOp43
 70
     1
102
RTVSPropertyOp44
 70
     1
102
RTVSPropertyOp45
 70
     1
102
RTVSPropertyOp46
 70
     1
102
RTVSPropertyOp47
 70
     1
102
RTVSPropertyOp48
 70
     1
102
RTVSPropertyOp49
 70
     1
102
RTVSPropertyOp50
 70
     1
102
RTVSPropertyOp51
 70
     0
102
RTVSPropertyOp52
 70
     0
102
RTVSPropertyOp53
 70
     1
102
RTVSPropertyOp54
 70
     1
102
RTVSPropertyOp55
 70
     1
102
RTVSPropertyOp56
 70
     1
102
RTVSPropertyOp57
 70
     1
102
RTVSPropertyOp58
 70
     1
102
RTVSPropertyOp59
 70
     1
102
RTVSPropertyOp60
 70
     1
102
RTVSPropertyOp61
 70
     1
102
RTVSPropertyOp62
 70
     1
  0
XRECORD
  5
263A
102
{ACAD_REACTORS
330
2639
102
}
330
2639
100
AcDbXrecord
280
     1
102
RTVSPost2010Prop28
280
     0
102
RTVSPost2010PropOp28
 70
     1
102
RTVSPost2010Prop29
280
     1
102
RTVSPost2010PropOp29
 70
     1
102
RTVSPost2010Prop30
280
     1
102
RTVSPost2010PropOp30
 70
     1
102
RTVSPost2010Prop31
280
     0
102
RTVSPost2010PropOp31
 70
     1
102
RTVSPost2010Prop32
280
     0
102
RTVSPost2010PropOp32
 70
     1
102
RTVSPost2010Prop33
280
     0
102
RTVSPost2010PropOp33
 70
     1
102
RTVSPost2010Prop34
280
     0
102
RTVSPost2010PropOp34
 70
     1
102
RTVSPost2010Prop35
280
     0
102
RTVSPost2010PropOp35
 70
     1
102
RTVSPost2010Prop36
280
     0
102
RTVSPost2010PropOp36
 70
     1
102
RTVSPost2010Prop37
 90
       50
102
RTVSPost2010PropOp37
 70
     1
102
RTVSPost2010Prop38
140
0.0
102
RTVSPost2010PropOp38
 70
     1
102
RTVSPost2010Prop39
140
1.0
102
RTVSPost2010PropOp39
 70
     1
102
RTVSPost2010Prop40
 90
        0
102
RTVSPost2010PropOp40
 70
     1
102
RTVSPost2010Prop41ColorIndex
 90
       18
102
RTVSPost2010Prop41ColorRGB
 90
        0
102
RTVSPost2010PropOp41
 70
     1
102
RTVSPost2010Prop42
 90
       50
102
RTVSPost2010PropOp42
 70
     1
102
RTVSPost2010Prop43
 90
        3
102
RTVSPost2010PropOp43
 70
     1
102
RTVSPost2010Prop44ColorIndex
 90
        5
102
RTVSPost2010Prop44ColorRGB
 90
      255
102
RTVSPost2010PropOp44
 70
     1
102
RTVSPost2010Prop45
280
     0
102
RTVSPost2010PropOp45
 70
     1
102
RTVSPost2010Prop46
 90
       50
102
RTVSPost2010PropOp46
 70
     1
102
RTVSPost2010Prop47
 90
       50
102
RTVSPost2010PropOp47
 70
     1
102
RTVSPost2010Prop48
 90
       50
102
RTVSPost2010PropOp48
 70
     1
102
RTVSPost2010Prop49
280
     0
102
RTVSPost2010PropOp49
 70
     1
102
RTVSPost2010Prop50
 90
       50
102
RTVSPost2010PropOp50
 70
     1
102
RTVSPost2010Prop51ColorIndex
 90
      256
102
RTVSPost2010Prop51ColorRGB
 90
-16777216
102
RTVSPost2010PropOp51
 70
     0
102
RTVSPost2010Prop52
140
1.0
102
RTVSPost2010PropOp52
 70
     0
102
RTVSPost2010Prop53
 90
        2
102
RTVSPost2010PropOp53
 70
     1
102
RTVSPost2010Prop54
  1
strokes_ogs.tif
102
RTVSPost2010PropOp54
 70
     1
102
RTVSPost2010Prop55
280
     0
102
RTVSPost2010PropOp55
 70
     1
102
RTVSPost2010Prop56
140
1.0
102
RTVSPost2010PropOp56
 70
     1
102
RTVSPost2010Prop57
140
1.0
102
RTVSPost2010PropOp57
 70
     1
102
RTVSPropertyOp0
 70
     1
102
RTVSPropertyOp1
 70
     1
102
RTVSPropertyOp2
 70
     1
102
RTVSPropertyOp3
 70
     1
102
RTVSPropertyOp4
 70
     1
102
RTVSPropertyOp5
 70
     1
102
RTVSPropertyOp6
 70
     1
102
RTVSPropertyOp7
 70
     1
102
RTVSPropertyOp8
 70
     1
102
RTVSPropertyOp9
 70
     1
102
RTVSPropertyOp10
 70
     1
102
RTVSPropertyOp11
 70
     1
102
RTVSPropertyOp12
 70
     1
102
RTVSPropertyOp13
 70
     1
102
RTVSPropertyOp14
 70
     1
102
RTVSPropertyOp15
 70
     1
102
RTVSPropertyOp16
 70
     1
102
RTVSPropertyOp17
 70
     1
102
RTVSPropertyOp18
 70
     1
102
RTVSPropertyOp19
 70
     1
102
RTVSPropertyOp20
 70
     1
102
RTVSPropertyOp21
 70
     1
102
RTVSPropertyOp22
 70
     1
102
RTVSPropertyOp23
 70
     1
102
RTVSPropertyOp24
 70
     1
102
RTVSPropertyOp25
 70
     1
102
RTVSPropertyOp26
 70
     1
102
RTVSPropertyOp27
 70
     1
102
RTVSPropertyOp28
 70
     1
102
RTVSPropertyOp29
 70
     1
102
RTVSPropertyOp30
 70
     1
102
RTVSPropertyOp31
 70
     1
102
RTVSPropertyOp32
 70
     1
102
RTVSPropertyOp33
 70
     1
102
RTVSPropertyOp34
 70
     1
102
RTVSPropertyOp35
 70
     1
102
RTVSPropertyOp36
 70
     1
102
RTVSPropertyOp37
 70
     1
102
RTVSPropertyOp38
 70
     1
102
RTVSPropertyOp39
 70
     1
102
RTVSPropertyOp40
 70
     1
102
RTVSPropertyOp41
 70
     1
102
RTVSPropertyOp42
 70
     1
102
RTVSPropertyOp43
 70
     1
102
RTVSPropertyOp44
 70
     1
102
RTVSPropertyOp45
 70
     1
102
RTVSPropertyOp46
 70
     1
102
RTVSPropertyOp47
 70
     1
102
RTVSPropertyOp48
 70
     1
102
RTVSPropertyOp49
 70
     1
102
RTVSPropertyOp50
 70
     1
102
RTVSPropertyOp51
 70
     0
102
RTVSPropertyOp52
 70
     0
102
RTVSPropertyOp53
 70
     1
102
RTVSPropertyOp54
 70
     1
102
RTVSPropertyOp55
 70
     1
102
RTVSPropertyOp56
 70
     1
102
RTVSPropertyOp57
 70
     1
102
RTVSPropertyOp58
 70
     1
102
RTVSPropertyOp59
 70
     1
102
RTVSPropertyOp60
 70
     1
102
RTVSPropertyOp61
 70
     1
102
RTVSPropertyOp62
 70
     1
  0
XRECORD
  5
263C
102
{ACAD_REACTORS
330
263B
102
}
330
263B
100
AcDbXrecord
280
     1
102
RTVSPost2010Prop28
280
     0
102
RTVSPost2010PropOp28
 70
     1
102
RTVSPost2010Prop29
280
     1
102
RTVSPost2010PropOp29
 70
     1
102
RTVSPost2010Prop30
280
     1
102
RTVSPost2010PropOp30
 70
     1
102
RTVSPost2010Prop31
280
     0
102
RTVSPost2010PropOp31
 70
     1
102
RTVSPost2010Prop32
280
     0
102
RTVSPost2010PropOp32
 70
     1
102
RTVSPost2010Prop33
280
     0
102
RTVSPost2010PropOp33
 70
     1
102
RTVSPost2010Prop34
280
     0
102
RTVSPost2010PropOp34
 70
     1
102
RTVSPost2010Prop35
280
     0
102
RTVSPost2010PropOp35
 70
     1
102
RTVSPost2010Prop36
280
     0
102
RTVSPost2010PropOp36
 70
     1
102
RTVSPost2010Prop37
 90
       50
102
RTVSPost2010PropOp37
 70
     1
102
RTVSPost2010Prop38
140
0.0
102
RTVSPost2010PropOp38
 70
     1
102
RTVSPost2010Prop39
140
1.0
102
RTVSPost2010PropOp39
 70
     1
102
RTVSPost2010Prop40
 90
        0
102
RTVSPost2010PropOp40
 70
     1
102
RTVSPost2010Prop41ColorIndex
 90
       18
102
RTVSPost2010Prop41ColorRGB
 90
        0
102
RTVSPost2010PropOp41
 70
     1
102
RTVSPost2010Prop42
 90
       50
102
RTVSPost2010PropOp42
 70
     1
102
RTVSPost2010Prop43
 90
        3
102
RTVSPost2010PropOp43
 70
     1
102
RTVSPost2010Prop44ColorIndex
 90
        5
102
RTVSPost2010Prop44ColorRGB
 90
      255
102
RTVSPost2010PropOp44
 70
     1
102
RTVSPost2010Prop45
280
     0
102
RTVSPost2010PropOp45
 70
     1
102
RTVSPost2010Prop46
 90
       50
102
RTVSPost2010PropOp46
 70
     1
102
RTVSPost2010Prop47
 90
       50
102
RTVSPost2010PropOp47
 70
     1
102
RTVSPost2010Prop48
 90
       50
102
RTVSPost2010PropOp48
 70
     1
102
RTVSPost2010Prop49
280
     0
102
RTVSPost2010PropOp49
 70
     1
102
RTVSPost2010Prop50
 90
       50
102
RTVSPost2010PropOp50
 70
     1
102
RTVSPost2010Prop51ColorIndex
 90
      256
102
RTVSPost2010Prop51ColorRGB
 90
-16777216
102
RTVSPost2010PropOp51
 70
     0
102
RTVSPost2010Prop52
140
1.0
102
RTVSPost2010PropOp52
 70
     0
102
RTVSPost2010Prop53
 90
        2
102
RTVSPost2010PropOp53
 70
     1
102
RTVSPost2010Prop54
  1
strokes_ogs.tif
102
RTVSPost2010PropOp54
 70
     1
102
RTVSPost2010Prop55
280
     0
102
RTVSPost2010PropOp55
 70
     1
102
RTVSPost2010Prop56
140
1.0
102
RTVSPost2010PropOp56
 70
     1
102
RTVSPost2010Prop57
140
1.0
102
RTVSPost2010PropOp57
 70
     1
102
RTVSPropertyOp0
 70
     1
102
RTVSPropertyOp1
 70
     1
102
RTVSPropertyOp2
 70
     1
102
RTVSPropertyOp3
 70
     1
102
RTVSPropertyOp4
 70
     1
102
RTVSPropertyOp5
 70
     1
102
RTVSPropertyOp6
 70
     1
102
RTVSPropertyOp7
 70
     1
102
RTVSPropertyOp8
 70
     1
102
RTVSPropertyOp9
 70
     1
102
RTVSPropertyOp10
 70
     1
102
RTVSPropertyOp11
 70
     1
102
RTVSPropertyOp12
 70
     1
102
RTVSPropertyOp13
 70
     1
102
RTVSPropertyOp14
 70
     1
102
RTVSPropertyOp15
 70
     1
102
RTVSPropertyOp16
 70
     1
102
RTVSPropertyOp17
 70
     1
102
RTVSPropertyOp18
 70
     1
102
RTVSPropertyOp19
 70
     1
102
RTVSPropertyOp20
 70
     1
102
RTVSPropertyOp21
 70
     1
102
RTVSPropertyOp22
 70
     1
102
RTVSPropertyOp23
 70
     1
102
RTVSPropertyOp24
 70
     1
102
RTVSPropertyOp25
 70
     1
102
RTVSPropertyOp26
 70
     1
102
RTVSPropertyOp27
 70
     1
102
RTVSPropertyOp28
 70
     1
102
RTVSPropertyOp29
 70
     1
102
RTVSPropertyOp30
 70
     1
102
RTVSPropertyOp31
 70
     1
102
RTVSPropertyOp32
 70
     1
102
RTVSPropertyOp33
 70
     1
102
RTVSPropertyOp34
 70
     1
102
RTVSPropertyOp35
 70
     1
102
RTVSPropertyOp36
 70
     1
102
RTVSPropertyOp37
 70
     1
102
RTVSPropertyOp38
 70
     1
102
RTVSPropertyOp39
 70
     1
102
RTVSPropertyOp40
 70
     1
102
RTVSPropertyOp41
 70
     1
102
RTVSPropertyOp42
 70
     1
102
RTVSPropertyOp43
 70
     1
102
RTVSPropertyOp44
 70
     1
102
RTVSPropertyOp45
 70
     1
102
RTVSPropertyOp46
 70
     1
102
RTVSPropertyOp47
 70
     1
102
RTVSPropertyOp48
 70
     1
102
RTVSPropertyOp49
 70
     1
102
RTVSPropertyOp50
 70
     1
102
RTVSPropertyOp51
 70
     0
102
RTVSPropertyOp52
 70
     0
102
RTVSPropertyOp53
 70
     1
102
RTVSPropertyOp54
 70
     1
102
RTVSPropertyOp55
 70
     1
102
RTVSPropertyOp56
 70
     1
102
RTVSPropertyOp57
 70
     1
102
RTVSPropertyOp58
 70
     1
102
RTVSPropertyOp59
 70
     1
102
RTVSPropertyOp60
 70
     1
102
RTVSPropertyOp61
 70
     1
102
RTVSPropertyOp62
 70
     1
  0
XRECORD
  5
2644
102
{ACAD_REACTORS
330
2643
102
}
330
2643
100
AcDbXrecord
280
     1
102
RTVSPost2010Prop28
280
     0
102
RTVSPost2010PropOp28
 70
     1
102
RTVSPost2010Prop29
280
     1
102
RTVSPost2010PropOp29
 70
     1
102
RTVSPost2010Prop30
280
     1
102
RTVSPost2010PropOp30
 70
     1
102
RTVSPost2010Prop31
280
     0
102
RTVSPost2010PropOp31
 70
     1
102
RTVSPost2010Prop32
280
     0
102
RTVSPost2010PropOp32
 70
     1
102
RTVSPost2010Prop33
280
     0
102
RTVSPost2010PropOp33
 70
     1
102
RTVSPost2010Prop34
280
     0
102
RTVSPost2010PropOp34
 70
     1
102
RTVSPost2010Prop35
280
     0
102
RTVSPost2010PropOp35
 70
     1
102
RTVSPost2010Prop36
280
     0
102
RTVSPost2010PropOp36
 70
     1
102
RTVSPost2010Prop37
 90
       50
102
RTVSPost2010PropOp37
 70
     1
102
RTVSPost2010Prop38
140
0.0
102
RTVSPost2010PropOp38
 70
     1
102
RTVSPost2010Prop39
140
1.0
102
RTVSPost2010PropOp39
 70
     1
102
RTVSPost2010Prop40
 90
        0
102
RTVSPost2010PropOp40
 70
     1
102
RTVSPost2010Prop41ColorIndex
 90
       18
102
RTVSPost2010Prop41ColorRGB
 90
        0
102
RTVSPost2010PropOp41
 70
     1
102
RTVSPost2010Prop42
 90
       50
102
RTVSPost2010PropOp42
 70
     1
102
RTVSPost2010Prop43
 90
        3
102
RTVSPost2010PropOp43
 70
     1
102
RTVSPost2010Prop44ColorIndex
 90
        5
102
RTVSPost2010Prop44ColorRGB
 90
      255
102
RTVSPost2010PropOp44
 70
     1
102
RTVSPost2010Prop45
280
     0
102
RTVSPost2010PropOp45
 70
     1
102
RTVSPost2010Prop46
 90
       50
102
RTVSPost2010PropOp46
 70
     1
102
RTVSPost2010Prop47
 90
       50
102
RTVSPost2010PropOp47
 70
     1
102
RTVSPost2010Prop48
 90
       50
102
RTVSPost2010PropOp48
 70
     1
102
RTVSPost2010Prop49
280
     0
102
RTVSPost2010PropOp49
 70
     1
102
RTVSPost2010Prop50
 90
       50
102
RTVSPost2010PropOp50
 70
     1
102
RTVSPost2010Prop51ColorIndex
 90
      256
102
RTVSPost2010Prop51ColorRGB
 90
-16777216
102
RTVSPost2010PropOp51
 70
     0
102
RTVSPost2010Prop52
140
1.0
102
RTVSPost2010PropOp52
 70
     0
102
RTVSPost2010Prop53
 90
        2
102
RTVSPost2010PropOp53
 70
     1
102
RTVSPost2010Prop54
  1
strokes_ogs.tif
102
RTVSPost2010PropOp54
 70
     1
102
RTVSPost2010Prop55
280
     0
102
RTVSPost2010PropOp55
 70
     1
102
RTVSPost2010Prop56
140
1.0
102
RTVSPost2010PropOp56
 70
     1
102
RTVSPost2010Prop57
140
1.0
102
RTVSPost2010PropOp57
 70
     1
102
RTVSPropertyOp0
 70
     1
102
RTVSPropertyOp1
 70
     1
102
RTVSPropertyOp2
 70
     1
102
RTVSPropertyOp3
 70
     1
102
RTVSPropertyOp4
 70
     1
102
RTVSPropertyOp5
 70
     1
102
RTVSPropertyOp6
 70
     1
102
RTVSPropertyOp7
 70
     1
102
RTVSPropertyOp8
 70
     1
102
RTVSPropertyOp9
 70
     1
102
RTVSPropertyOp10
 70
     1
102
RTVSPropertyOp11
 70
     1
102
RTVSPropertyOp12
 70
     1
102
RTVSPropertyOp13
 70
     1
102
RTVSPropertyOp14
 70
     1
102
RTVSPropertyOp15
 70
     1
102
RTVSPropertyOp16
 70
     1
102
RTVSPropertyOp17
 70
     1
102
RTVSPropertyOp18
 70
     1
102
RTVSPropertyOp19
 70
     1
102
RTVSPropertyOp20
 70
     1
102
RTVSPropertyOp21
 70
     1
102
RTVSPropertyOp22
 70
     1
102
RTVSPropertyOp23
 70
     1
102
RTVSPropertyOp24
 70
     1
102
RTVSPropertyOp25
 70
     1
102
RTVSPropertyOp26
 70
     1
102
RTVSPropertyOp27
 70
     1
102
RTVSPropertyOp28
 70
     1
102
RTVSPropertyOp29
 70
     1
102
RTVSPropertyOp30
 70
     1
102
RTVSPropertyOp31
 70
     1
102
RTVSPropertyOp32
 70
     1
102
RTVSPropertyOp33
 70
     1
102
RTVSPropertyOp34
 70
     1
102
RTVSPropertyOp35
 70
     1
102
RTVSPropertyOp36
 70
     1
102
RTVSPropertyOp37
 70
     1
102
RTVSPropertyOp38
 70
     1
102
RTVSPropertyOp39
 70
     1
102
RTVSPropertyOp40
 70
     1
102
RTVSPropertyOp41
 70
     1
102
RTVSPropertyOp42
 70
     1
102
RTVSPropertyOp43
 70
     1
102
RTVSPropertyOp44
 70
     1
102
RTVSPropertyOp45
 70
     1
102
RTVSPropertyOp46
 70
     1
102
RTVSPropertyOp47
 70
     1
102
RTVSPropertyOp48
 70
     1
102
RTVSPropertyOp49
 70
     1
102
RTVSPropertyOp50
 70
     1
102
RTVSPropertyOp51
 70
     0
102
RTVSPropertyOp52
 70
     0
102
RTVSPropertyOp53
 70
     1
102
RTVSPropertyOp54
 70
     1
102
RTVSPropertyOp55
 70
     1
102
RTVSPropertyOp56
 70
     1
102
RTVSPropertyOp57
 70
     1
102
RTVSPropertyOp58
 70
     1
102
RTVSPropertyOp59
 70
     1
102
RTVSPropertyOp60
 70
     1
102
RTVSPropertyOp61
 70
     1
102
RTVSPropertyOp62
 70
     1
  0
XRECORD
  5
2660
102
{ACAD_REACTORS
330
265F
102
}
330
265F
100
AcDbXrecord
280
     1
102
RTVSPost2010Prop28
280
     0
102
RTVSPost2010PropOp28
 70
     1
102
RTVSPost2010Prop29
280
     1
102
RTVSPost2010PropOp29
 70
     1
102
RTVSPost2010Prop30
280
     1
102
RTVSPost2010PropOp30
 70
     1
102
RTVSPost2010Prop31
280
     0
102
RTVSPost2010PropOp31
 70
     1
102
RTVSPost2010Prop32
280
     0
102
RTVSPost2010PropOp32
 70
     1
102
RTVSPost2010Prop33
280
     0
102
RTVSPost2010PropOp33
 70
     1
102
RTVSPost2010Prop34
280
     0
102
RTVSPost2010PropOp34
 70
     1
102
RTVSPost2010Prop35
280
     0
102
RTVSPost2010PropOp35
 70
     1
102
RTVSPost2010Prop36
280
     0
102
RTVSPost2010PropOp36
 70
     1
102
RTVSPost2010Prop37
 90
       50
102
RTVSPost2010PropOp37
 70
     0
102
RTVSPost2010Prop38
140
0.0
102
RTVSPost2010PropOp38
 70
     0
102
RTVSPost2010Prop39
140
1.0
102
RTVSPost2010PropOp39
 70
     0
102
RTVSPost2010Prop40
 90
        0
102
RTVSPost2010PropOp40
 70
     0
102
RTVSPost2010Prop41ColorIndex
 90
       18
102
RTVSPost2010Prop41ColorRGB
 90
        0
102
RTVSPost2010PropOp41
 70
     0
102
RTVSPost2010Prop42
 90
       50
102
RTVSPost2010PropOp42
 70
     0
102
RTVSPost2010Prop43
 90
        3
102
RTVSPost2010PropOp43
 70
     0
102
RTVSPost2010Prop44ColorIndex
 90
        5
102
RTVSPost2010Prop44ColorRGB
 90
      255
102
RTVSPost2010PropOp44
 70
     0
102
RTVSPost2010Prop45
280
     0
102
RTVSPost2010PropOp45
 70
     1
102
RTVSPost2010Prop46
 90
       50
102
RTVSPost2010PropOp46
 70
     0
102
RTVSPost2010Prop47
 90
       50
102
RTVSPost2010PropOp47
 70
     0
102
RTVSPost2010Prop48
 90
       50
102
RTVSPost2010PropOp48
 70
     0
102
RTVSPost2010Prop49
280
     0
102
RTVSPost2010PropOp49
 70
     1
102
RTVSPost2010Prop50
 90
       50
102
RTVSPost2010PropOp50
 70
     0
102
RTVSPost2010Prop51ColorIndex
 90
      256
102
RTVSPost2010Prop51ColorRGB
 90
-16777216
102
RTVSPost2010PropOp51
 70
     0
102
RTVSPost2010Prop52
140
1.0
102
RTVSPost2010PropOp52
 70
     0
102
RTVSPost2010Prop53
 90
        2
102
RTVSPost2010PropOp53
 70
     0
102
RTVSPost2010Prop54
  1
strokes_ogs.tif
102
RTVSPost2010PropOp54
 70
     0
102
RTVSPost2010Prop55
280
     0
102
RTVSPost2010PropOp55
 70
     1
102
RTVSPost2010Prop56
140
1.0
102
RTVSPost2010PropOp56
 70
     0
102
RTVSPost2010Prop57
140
1.0
102
RTVSPost2010PropOp57
 70
     0
102
RTVSPropertyOp0
 70
     0
102
RTVSPropertyOp1
 70
     0
102
RTVSPropertyOp2
 70
     0
102
RTVSPropertyOp3
 70
     0
102
RTVSPropertyOp4
 70
     0
102
RTVSPropertyOp5
 70
     0
102
RTVSPropertyOp6
 70
     0
102
RTVSPropertyOp7
 70
     0
102
RTVSPropertyOp8
 70
     0
102
RTVSPropertyOp9
 70
     0
102
RTVSPropertyOp10
 70
     0
102
RTVSPropertyOp11
 70
     0
102
RTVSPropertyOp12
 70
     0
102
RTVSPropertyOp13
 70
     0
102
RTVSPropertyOp14
 70
     2
102
RTVSPropertyOp15
 70
     0
102
RTVSPropertyOp16
 70
     0
102
RTVSPropertyOp17
 70
     0
102
RTVSPropertyOp18
 70
     0
102
RTVSPropertyOp19
 70
     0
102
RTVSPropertyOp20
 70
     0
102
RTVSPropertyOp21
 70
     0
102
RTVSPropertyOp22
 70
     0
102
RTVSPropertyOp23
 70
     0
102
RTVSPropertyOp24
 70
     0
102
RTVSPropertyOp25
 70
     0
102
RTVSPropertyOp26
 70
     0
102
RTVSPropertyOp27
 70
     0
102
RTVSPropertyOp28
 70
     1
102
RTVSPropertyOp29
 70
     1
102
RTVSPropertyOp30
 70
     1
102
RTVSPropertyOp31
 70
     1
102
RTVSPropertyOp32
 70
     1
102
RTVSPropertyOp33
 70
     1
102
RTVSPropertyOp34
 70
     1
102
RTVSPropertyOp35
 70
     1
102
RTVSPropertyOp36
 70
     1
102
RTVSPropertyOp37
 70
     0
102
RTVSPropertyOp38
 70
     0
102
RTVSPropertyOp39
 70
     0
102
RTVSPropertyOp40
 70
     0
102
RTVSPropertyOp41
 70
     0
102
RTVSPropertyOp42
 70
     0
102
RTVSPropertyOp43
 70
     0
102
RTVSPropertyOp44
 70
     0
102
RTVSPropertyOp45
 70
     1
102
RTVSPropertyOp46
 70
     0
102
RTVSPropertyOp47
 70
     0
102
RTVSPropertyOp48
 70
     0
102
RTVSPropertyOp49
 70
     1
102
RTVSPropertyOp50
 70
     0
102
RTVSPropertyOp51
 70
     0
102
RTVSPropertyOp52
 70
     0
102
RTVSPropertyOp53
 70
     0
102
RTVSPropertyOp54
 70
     0
102
RTVSPropertyOp55
 70
     1
102
RTVSPropertyOp56
 70
     0
102
RTVSPropertyOp57
 70
     0
102
RTVSPropertyOp58
 70
     0
102
RTVSPropertyOp59
 70
     0
102
RTVSPropertyOp60
 70
     0
102
RTVSPropertyOp61
 70
     0
102
RTVSPropertyOp62
 70
     0
  0
XRECORD
  5
2650
102
{ACAD_REACTORS
330
264F
102
}
330
264F
100
AcDbXrecord
280
     1
102
RTVSPost2010Prop28
280
     0
102
RTVSPost2010PropOp28
 70
     1
102
RTVSPost2010Prop29
280
     1
102
RTVSPost2010PropOp29
 70
     1
102
RTVSPost2010Prop30
280
     1
102
RTVSPost2010PropOp30
 70
     1
102
RTVSPost2010Prop31
280
     0
102
RTVSPost2010PropOp31
 70
     1
102
RTVSPost2010Prop32
280
     0
102
RTVSPost2010PropOp32
 70
     1
102
RTVSPost2010Prop33
280
     0
102
RTVSPost2010PropOp33
 70
     1
102
RTVSPost2010Prop34
280
     0
102
RTVSPost2010PropOp34
 70
     1
102
RTVSPost2010Prop35
280
     0
102
RTVSPost2010PropOp35
 70
     1
102
RTVSPost2010Prop36
280
     0
102
RTVSPost2010PropOp36
 70
     1
102
RTVSPost2010Prop37
 90
       50
102
RTVSPost2010PropOp37
 70
     1
102
RTVSPost2010Prop38
140
0.0
102
RTVSPost2010PropOp38
 70
     1
102
RTVSPost2010Prop39
140
1.0
102
RTVSPost2010PropOp39
 70
     1
102
RTVSPost2010Prop40
 90
        0
102
RTVSPost2010PropOp40
 70
     1
102
RTVSPost2010Prop41ColorIndex
 90
       18
102
RTVSPost2010Prop41ColorRGB
 90
        0
102
RTVSPost2010PropOp41
 70
     1
102
RTVSPost2010Prop42
 90
       50
102
RTVSPost2010PropOp42
 70
     1
102
RTVSPost2010Prop43
 90
        3
102
RTVSPost2010PropOp43
 70
     1
102
RTVSPost2010Prop44ColorIndex
 90
        5
102
RTVSPost2010Prop44ColorRGB
 90
      255
102
RTVSPost2010PropOp44
 70
     1
102
RTVSPost2010Prop45
280
     0
102
RTVSPost2010PropOp45
 70
     1
102
RTVSPost2010Prop46
 90
       50
102
RTVSPost2010PropOp46
 70
     1
102
RTVSPost2010Prop47
 90
       50
102
RTVSPost2010PropOp47
 70
     1
102
RTVSPost2010Prop48
 90
       50
102
RTVSPost2010PropOp48
 70
     1
102
RTVSPost2010Prop49
280
     0
102
RTVSPost2010PropOp49
 70
     1
102
RTVSPost2010Prop50
 90
       50
102
RTVSPost2010PropOp50
 70
     1
102
RTVSPost2010Prop51ColorIndex
 90
      256
102
RTVSPost2010Prop51ColorRGB
 90
-16777216
102
RTVSPost2010PropOp51
 70
     0
102
RTVSPost2010Prop52
140
1.0
102
RTVSPost2010PropOp52
 70
     0
102
RTVSPost2010Prop53
 90
        2
102
RTVSPost2010PropOp53
 70
     1
102
RTVSPost2010Prop54
  1
strokes_ogs.tif
102
RTVSPost2010PropOp54
 70
     1
102
RTVSPost2010Prop55
280
     0
102
RTVSPost2010PropOp55
 70
     1
102
RTVSPost2010Prop56
140
1.0
102
RTVSPost2010PropOp56
 70
     1
102
RTVSPost2010Prop57
140
1.0
102
RTVSPost2010PropOp57
 70
     1
102
RTVSPropertyOp0
 70
     1
102
RTVSPropertyOp1
 70
     1
102
RTVSPropertyOp2
 70
     1
102
RTVSPropertyOp3
 70
     1
102
RTVSPropertyOp4
 70
     1
102
RTVSPropertyOp5
 70
     1
102
RTVSPropertyOp6
 70
     1
102
RTVSPropertyOp7
 70
     1
102
RTVSPropertyOp8
 70
     1
102
RTVSPropertyOp9
 70
     1
102
RTVSPropertyOp10
 70
     1
102
RTVSPropertyOp11
 70
     1
102
RTVSPropertyOp12
 70
     1
102
RTVSPropertyOp13
 70
     1
102
RTVSPropertyOp14
 70
     1
102
RTVSPropertyOp15
 70
     1
102
RTVSPropertyOp16
 70
     1
102
RTVSPropertyOp17
 70
     1
102
RTVSPropertyOp18
 70
     1
102
RTVSPropertyOp19
 70
     1
102
RTVSPropertyOp20
 70
     1
102
RTVSPropertyOp21
 70
     1
102
RTVSPropertyOp22
 70
     1
102
RTVSPropertyOp23
 70
     1
102
RTVSPropertyOp24
 70
     1
102
RTVSPropertyOp25
 70
     1
102
RTVSPropertyOp26
 70
     1
102
RTVSPropertyOp27
 70
     1
102
RTVSPropertyOp28
 70
     1
102
RTVSPropertyOp29
 70
     1
102
RTVSPropertyOp30
 70
     1
102
RTVSPropertyOp31
 70
     1
102
RTVSPropertyOp32
 70
     1
102
RTVSPropertyOp33
 70
     1
102
RTVSPropertyOp34
 70
     1
102
RTVSPropertyOp35
 70
     1
102
RTVSPropertyOp36
 70
     1
102
RTVSPropertyOp37
 70
     1
102
RTVSPropertyOp38
 70
     1
102
RTVSPropertyOp39
 70
     1
102
RTVSPropertyOp40
 70
     1
102
RTVSPropertyOp41
 70
     1
102
RTVSPropertyOp42
 70
     1
102
RTVSPropertyOp43
 70
     1
102
RTVSPropertyOp44
 70
     1
102
RTVSPropertyOp45
 70
     1
102
RTVSPropertyOp46
 70
     1
102
RTVSPropertyOp47
 70
     1
102
RTVSPropertyOp48
 70
     1
102
RTVSPropertyOp49
 70
     1
102
RTVSPropertyOp50
 70
     1
102
RTVSPropertyOp51
 70
     0
102
RTVSPropertyOp52
 70
     0
102
RTVSPropertyOp53
 70
     1
102
RTVSPropertyOp54
 70
     1
102
RTVSPropertyOp55
 70
     1
102
RTVSPropertyOp56
 70
     1
102
RTVSPropertyOp57
 70
     1
102
RTVSPropertyOp58
 70
     1
102
RTVSPropertyOp59
 70
     1
102
RTVSPropertyOp60
 70
     1
102
RTVSPropertyOp61
 70
     1
102
RTVSPropertyOp62
 70
     1
  0
XRECORD
  5
2662
102
{ACAD_REACTORS
330
2661
102
}
330
2661
100
AcDbXrecord
280
     1
102
RTVSPost2010Prop28
280
     0
102
RTVSPost2010PropOp28
 70
     1
102
RTVSPost2010Prop29
280
     1
102
RTVSPost2010PropOp29
 70
     1
102
RTVSPost2010Prop30
280
     1
102
RTVSPost2010PropOp30
 70
     1
102
RTVSPost2010Prop31
280
     0
102
RTVSPost2010PropOp31
 70
     1
102
RTVSPost2010Prop32
280
     0
102
RTVSPost2010PropOp32
 70
     1
102
RTVSPost2010Prop33
280
     0
102
RTVSPost2010PropOp33
 70
     1
102
RTVSPost2010Prop34
280
     0
102
RTVSPost2010PropOp34
 70
     1
102
RTVSPost2010Prop35
280
     0
102
RTVSPost2010PropOp35
 70
     1
102
RTVSPost2010Prop36
280
     0
102
RTVSPost2010PropOp36
 70
     1
102
RTVSPost2010Prop37
 90
       50
102
RTVSPost2010PropOp37
 70
     0
102
RTVSPost2010Prop38
140
0.0
102
RTVSPost2010PropOp38
 70
     0
102
RTVSPost2010Prop39
140
1.0
102
RTVSPost2010PropOp39
 70
     0
102
RTVSPost2010Prop40
 90
        0
102
RTVSPost2010PropOp40
 70
     0
102
RTVSPost2010Prop41ColorIndex
 90
       18
102
RTVSPost2010Prop41ColorRGB
 90
        0
102
RTVSPost2010PropOp41
 70
     0
102
RTVSPost2010Prop42
 90
       50
102
RTVSPost2010PropOp42
 70
     0
102
RTVSPost2010Prop43
 90
        3
102
RTVSPost2010PropOp43
 70
     0
102
RTVSPost2010Prop44ColorIndex
 90
        5
102
RTVSPost2010Prop44ColorRGB
 90
      255
102
RTVSPost2010PropOp44
 70
     0
102
RTVSPost2010Prop45
280
     0
102
RTVSPost2010PropOp45
 70
     1
102
RTVSPost2010Prop46
 90
       50
102
RTVSPost2010PropOp46
 70
     0
102
RTVSPost2010Prop47
 90
       50
102
RTVSPost2010PropOp47
 70
     0
102
RTVSPost2010Prop48
 90
       50
102
RTVSPost2010PropOp48
 70
     0
102
RTVSPost2010Prop49
280
     0
102
RTVSPost2010PropOp49
 70
     1
102
RTVSPost2010Prop50
 90
       50
102
RTVSPost2010PropOp50
 70
     0
102
RTVSPost2010Prop51ColorIndex
 90
      256
102
RTVSPost2010Prop51ColorRGB
 90
-16777216
102
RTVSPost2010PropOp51
 70
     0
102
RTVSPost2010Prop52
140
1.0
102
RTVSPost2010PropOp52
 70
     0
102
RTVSPost2010Prop53
 90
        2
102
RTVSPost2010PropOp53
 70
     0
102
RTVSPost2010Prop54
  1
strokes_ogs.tif
102
RTVSPost2010PropOp54
 70
     0
102
RTVSPost2010Prop55
280
     0
102
RTVSPost2010PropOp55
 70
     1
102
RTVSPost2010Prop56
140
1.0
102
RTVSPost2010PropOp56
 70
     0
102
RTVSPost2010Prop57
140
1.0
102
RTVSPost2010PropOp57
 70
     0
102
RTVSPropertyOp0
 70
     0
102
RTVSPropertyOp1
 70
     0
102
RTVSPropertyOp2
 70
     0
102
RTVSPropertyOp3
 70
     0
102
RTVSPropertyOp4
 70
     0
102
RTVSPropertyOp5
 70
     0
102
RTVSPropertyOp6
 70
     0
102
RTVSPropertyOp7
 70
     0
102
RTVSPropertyOp8
 70
     0
102
RTVSPropertyOp9
 70
     0
102
RTVSPropertyOp10
 70
     0
102
RTVSPropertyOp11
 70
     0
102
RTVSPropertyOp12
 70
     0
102
RTVSPropertyOp13
 70
     0
102
RTVSPropertyOp14
 70
     2
102
RTVSPropertyOp15
 70
     0
102
RTVSPropertyOp16
 70
     0
102
RTVSPropertyOp17
 70
     0
102
RTVSPropertyOp18
 70
     0
102
RTVSPropertyOp19
 70
     0
102
RTVSPropertyOp20
 70
     0
102
RTVSPropertyOp21
 70
     0
102
RTVSPropertyOp22
 70
     0
102
RTVSPropertyOp23
 70
     0
102
RTVSPropertyOp24
 70
     0
102
RTVSPropertyOp25
 70
     0
102
RTVSPropertyOp26
 70
     0
102
RTVSPropertyOp27
 70
     0
102
RTVSPropertyOp28
 70
     1
102
RTVSPropertyOp29
 70
     1
102
RTVSPropertyOp30
 70
     1
102
RTVSPropertyOp31
 70
     1
102
RTVSPropertyOp32
 70
     1
102
RTVSPropertyOp33
 70
     1
102
RTVSPropertyOp34
 70
     1
102
RTVSPropertyOp35
 70
     1
102
RTVSPropertyOp36
 70
     1
102
RTVSPropertyOp37
 70
     0
102
RTVSPropertyOp38
 70
     0
102
RTVSPropertyOp39
 70
     0
102
RTVSPropertyOp40
 70
     0
102
RTVSPropertyOp41
 70
     0
102
RTVSPropertyOp42
 70
     0
102
RTVSPropertyOp43
 70
     0
102
RTVSPropertyOp44
 70
     0
102
RTVSPropertyOp45
 70
     1
102
RTVSPropertyOp46
 70
     0
102
RTVSPropertyOp47
 70
     0
102
RTVSPropertyOp48
 70
     0
102
RTVSPropertyOp49
 70
     1
102
RTVSPropertyOp50
 70
     0
102
RTVSPropertyOp51
 70
     0
102
RTVSPropertyOp52
 70
     0
102
RTVSPropertyOp53
 70
     0
102
RTVSPropertyOp54
 70
     0
102
RTVSPropertyOp55
 70
     1
102
RTVSPropertyOp56
 70
     0
102
RTVSPropertyOp57
 70
     0
102
RTVSPropertyOp58
 70
     0
102
RTVSPropertyOp59
 70
     0
102
RTVSPropertyOp60
 70
     0
102
RTVSPropertyOp61
 70
     0
102
RTVSPropertyOp62
 70
     0
  0
XRECORD
  5
2648
102
{ACAD_REACTORS
330
2647
102
}
330
2647
100
AcDbXrecord
280
     1
102
RTVSPost2010Prop28
280
     0
102
RTVSPost2010PropOp28
 70
     1
102
RTVSPost2010Prop29
280
     1
102
RTVSPost2010PropOp29
 70
     1
102
RTVSPost2010Prop30
280
     1
102
RTVSPost2010PropOp30
 70
     1
102
RTVSPost2010Prop31
280
     0
102
RTVSPost2010PropOp31
 70
     1
102
RTVSPost2010Prop32
280
     0
102
RTVSPost2010PropOp32
 70
     1
102
RTVSPost2010Prop33
280
     0
102
RTVSPost2010PropOp33
 70
     1
102
RTVSPost2010Prop34
280
     0
102
RTVSPost2010PropOp34
 70
     1
102
RTVSPost2010Prop35
280
     0
102
RTVSPost2010PropOp35
 70
     1
102
RTVSPost2010Prop36
280
     0
102
RTVSPost2010PropOp36
 70
     1
102
RTVSPost2010Prop37
 90
       50
102
RTVSPost2010PropOp37
 70
     1
102
RTVSPost2010Prop38
140
0.0
102
RTVSPost2010PropOp38
 70
     1
102
RTVSPost2010Prop39
140
1.0
102
RTVSPost2010PropOp39
 70
     1
102
RTVSPost2010Prop40
 90
        0
102
RTVSPost2010PropOp40
 70
     1
102
RTVSPost2010Prop41ColorIndex
 90
       18
102
RTVSPost2010Prop41ColorRGB
 90
        0
102
RTVSPost2010PropOp41
 70
     1
102
RTVSPost2010Prop42
 90
       50
102
RTVSPost2010PropOp42
 70
     1
102
RTVSPost2010Prop43
 90
        3
102
RTVSPost2010PropOp43
 70
     1
102
RTVSPost2010Prop44ColorIndex
 90
        5
102
RTVSPost2010Prop44ColorRGB
 90
      255
102
RTVSPost2010PropOp44
 70
     1
102
RTVSPost2010Prop45
280
     0
102
RTVSPost2010PropOp45
 70
     1
102
RTVSPost2010Prop46
 90
       50
102
RTVSPost2010PropOp46
 70
     1
102
RTVSPost2010Prop47
 90
       50
102
RTVSPost2010PropOp47
 70
     1
102
RTVSPost2010Prop48
 90
       50
102
RTVSPost2010PropOp48
 70
     1
102
RTVSPost2010Prop49
280
     0
102
RTVSPost2010PropOp49
 70
     1
102
RTVSPost2010Prop50
 90
       50
102
RTVSPost2010PropOp50
 70
     1
102
RTVSPost2010Prop51ColorIndex
 90
      256
102
RTVSPost2010Prop51ColorRGB
 90
-16777216
102
RTVSPost2010PropOp51
 70
     0
102
RTVSPost2010Prop52
140
1.0
102
RTVSPost2010PropOp52
 70
     0
102
RTVSPost2010Prop53
 90
        2
102
RTVSPost2010PropOp53
 70
     1
102
RTVSPost2010Prop54
  1
strokes_ogs.tif
102
RTVSPost2010PropOp54
 70
     1
102
RTVSPost2010Prop55
280
     0
102
RTVSPost2010PropOp55
 70
     1
102
RTVSPost2010Prop56
140
1.0
102
RTVSPost2010PropOp56
 70
     1
102
RTVSPost2010Prop57
140
1.0
102
RTVSPost2010PropOp57
 70
     1
102
RTVSPropertyOp0
 70
     1
102
RTVSPropertyOp1
 70
     1
102
RTVSPropertyOp2
 70
     1
102
RTVSPropertyOp3
 70
     1
102
RTVSPropertyOp4
 70
     1
102
RTVSPropertyOp5
 70
     1
102
RTVSPropertyOp6
 70
     1
102
RTVSPropertyOp7
 70
     1
102
RTVSPropertyOp8
 70
     1
102
RTVSPropertyOp9
 70
     1
102
RTVSPropertyOp10
 70
     1
102
RTVSPropertyOp11
 70
     1
102
RTVSPropertyOp12
 70
     1
102
RTVSPropertyOp13
 70
     1
102
RTVSPropertyOp14
 70
     1
102
RTVSPropertyOp15
 70
     1
102
RTVSPropertyOp16
 70
     1
102
RTVSPropertyOp17
 70
     1
102
RTVSPropertyOp18
 70
     1
102
RTVSPropertyOp19
 70
     1
102
RTVSPropertyOp20
 70
     1
102
RTVSPropertyOp21
 70
     1
102
RTVSPropertyOp22
 70
     1
102
RTVSPropertyOp23
 70
     1
102
RTVSPropertyOp24
 70
     1
102
RTVSPropertyOp25
 70
     1
102
RTVSPropertyOp26
 70
     1
102
RTVSPropertyOp27
 70
     1
102
RTVSPropertyOp28
 70
     1
102
RTVSPropertyOp29
 70
     1
102
RTVSPropertyOp30
 70
     1
102
RTVSPropertyOp31
 70
     1
102
RTVSPropertyOp32
 70
     1
102
RTVSPropertyOp33
 70
     1
102
RTVSPropertyOp34
 70
     1
102
RTVSPropertyOp35
 70
     1
102
RTVSPropertyOp36
 70
     1
102
RTVSPropertyOp37
 70
     1
102
RTVSPropertyOp38
 70
     1
102
RTVSPropertyOp39
 70
     1
102
RTVSPropertyOp40
 70
     1
102
RTVSPropertyOp41
 70
     1
102
RTVSPropertyOp42
 70
     1
102
RTVSPropertyOp43
 70
     1
102
RTVSPropertyOp44
 70
     1
102
RTVSPropertyOp45
 70
     1
102
RTVSPropertyOp46
 70
     1
102
RTVSPropertyOp47
 70
     1
102
RTVSPropertyOp48
 70
     1
102
RTVSPropertyOp49
 70
     1
102
RTVSPropertyOp50
 70
     1
102
RTVSPropertyOp51
 70
     0
102
RTVSPropertyOp52
 70
     0
102
RTVSPropertyOp53
 70
     1
102
RTVSPropertyOp54
 70
     1
102
RTVSPropertyOp55
 70
     1
102
RTVSPropertyOp56
 70
     1
102
RTVSPropertyOp57
 70
     1
102
RTVSPropertyOp58
 70
     1
102
RTVSPropertyOp59
 70
     1
102
RTVSPropertyOp60
 70
     1
102
RTVSPropertyOp61
 70
     1
102
RTVSPropertyOp62
 70
     1
  0
XRECORD
  5
265E
102
{ACAD_REACTORS
330
265D
102
}
330
265D
100
AcDbXrecord
280
     1
102
RTVSPost2010Prop28
280
     0
102
RTVSPost2010PropOp28
 70
     1
102
RTVSPost2010Prop29
280
     1
102
RTVSPost2010PropOp29
 70
     1
102
RTVSPost2010Prop30
280
     1
102
RTVSPost2010PropOp30
 70
     1
102
RTVSPost2010Prop31
280
     0
102
RTVSPost2010PropOp31
 70
     1
102
RTVSPost2010Prop32
280
     0
102
RTVSPost2010PropOp32
 70
     1
102
RTVSPost2010Prop33
280
     0
102
RTVSPost2010PropOp33
 70
     1
102
RTVSPost2010Prop34
280
     0
102
RTVSPost2010PropOp34
 70
     1
102
RTVSPost2010Prop35
280
     0
102
RTVSPost2010PropOp35
 70
     1
102
RTVSPost2010Prop36
280
     0
102
RTVSPost2010PropOp36
 70
     1
102
RTVSPost2010Prop37
 90
       50
102
RTVSPost2010PropOp37
 70
     1
102
RTVSPost2010Prop38
140
0.0
102
RTVSPost2010PropOp38
 70
     1
102
RTVSPost2010Prop39
140
1.0
102
RTVSPost2010PropOp39
 70
     1
102
RTVSPost2010Prop40
 90
        0
102
RTVSPost2010PropOp40
 70
     1
102
RTVSPost2010Prop41ColorIndex
 90
       18
102
RTVSPost2010Prop41ColorRGB
 90
        0
102
RTVSPost2010PropOp41
 70
     1
102
RTVSPost2010Prop42
 90
       50
102
RTVSPost2010PropOp42
 70
     1
102
RTVSPost2010Prop43
 90
        3
102
RTVSPost2010PropOp43
 70
     1
102
RTVSPost2010Prop44ColorIndex
 90
        5
102
RTVSPost2010Prop44ColorRGB
 90
      255
102
RTVSPost2010PropOp44
 70
     1
102
RTVSPost2010Prop45
280
     0
102
RTVSPost2010PropOp45
 70
     1
102
RTVSPost2010Prop46
 90
       50
102
RTVSPost2010PropOp46
 70
     1
102
RTVSPost2010Prop47
 90
       50
102
RTVSPost2010PropOp47
 70
     1
102
RTVSPost2010Prop48
 90
       50
102
RTVSPost2010PropOp48
 70
     1
102
RTVSPost2010Prop49
280
     0
102
RTVSPost2010PropOp49
 70
     1
102
RTVSPost2010Prop50
 90
       50
102
RTVSPost2010PropOp50
 70
     1
102
RTVSPost2010Prop51ColorIndex
 90
      256
102
RTVSPost2010Prop51ColorRGB
 90
-16777216
102
RTVSPost2010PropOp51
 70
     0
102
RTVSPost2010Prop52
140
1.0
102
RTVSPost2010PropOp52
 70
     0
102
RTVSPost2010Prop53
 90
        2
102
RTVSPost2010PropOp53
 70
     1
102
RTVSPost2010Prop54
  1
strokes_ogs.tif
102
RTVSPost2010PropOp54
 70
     1
102
RTVSPost2010Prop55
280
     0
102
RTVSPost2010PropOp55
 70
     1
102
RTVSPost2010Prop56
140
1.0
102
RTVSPost2010PropOp56
 70
     1
102
RTVSPost2010Prop57
140
1.0
102
RTVSPost2010PropOp57
 70
     1
102
RTVSPropertyOp0
 70
     1
102
RTVSPropertyOp1
 70
     1
102
RTVSPropertyOp2
 70
     1
102
RTVSPropertyOp3
 70
     1
102
RTVSPropertyOp4
 70
     1
102
RTVSPropertyOp5
 70
     1
102
RTVSPropertyOp6
 70
     1
102
RTVSPropertyOp7
 70
     1
102
RTVSPropertyOp8
 70
     1
102
RTVSPropertyOp9
 70
     1
102
RTVSPropertyOp10
 70
     1
102
RTVSPropertyOp11
 70
     1
102
RTVSPropertyOp12
 70
     1
102
RTVSPropertyOp13
 70
     1
102
RTVSPropertyOp14
 70
     1
102
RTVSPropertyOp15
 70
     1
102
RTVSPropertyOp16
 70
     1
102
RTVSPropertyOp17
 70
     1
102
RTVSPropertyOp18
 70
     1
102
RTVSPropertyOp19
 70
     1
102
RTVSPropertyOp20
 70
     1
102
RTVSPropertyOp21
 70
     1
102
RTVSPropertyOp22
 70
     1
102
RTVSPropertyOp23
 70
     1
102
RTVSPropertyOp24
 70
     1
102
RTVSPropertyOp25
 70
     1
102
RTVSPropertyOp26
 70
     1
102
RTVSPropertyOp27
 70
     1
102
RTVSPropertyOp28
 70
     1
102
RTVSPropertyOp29
 70
     1
102
RTVSPropertyOp30
 70
     1
102
RTVSPropertyOp31
 70
     1
102
RTVSPropertyOp32
 70
     1
102
RTVSPropertyOp33
 70
     1
102
RTVSPropertyOp34
 70
     1
102
RTVSPropertyOp35
 70
     1
102
RTVSPropertyOp36
 70
     1
102
RTVSPropertyOp37
 70
     1
102
RTVSPropertyOp38
 70
     1
102
RTVSPropertyOp39
 70
     1
102
RTVSPropertyOp40
 70
     1
102
RTVSPropertyOp41
 70
     1
102
RTVSPropertyOp42
 70
     1
102
RTVSPropertyOp43
 70
     1
102
RTVSPropertyOp44
 70
     1
102
RTVSPropertyOp45
 70
     1
102
RTVSPropertyOp46
 70
     1
102
RTVSPropertyOp47
 70
     1
102
RTVSPropertyOp48
 70
     1
102
RTVSPropertyOp49
 70
     1
102
RTVSPropertyOp50
 70
     1
102
RTVSPropertyOp51
 70
     0
102
RTVSPropertyOp52
 70
     0
102
RTVSPropertyOp53
 70
     1
102
RTVSPropertyOp54
 70
     1
102
RTVSPropertyOp55
 70
     1
102
RTVSPropertyOp56
 70
     1
102
RTVSPropertyOp57
 70
     1
102
RTVSPropertyOp58
 70
     1
102
RTVSPropertyOp59
 70
     1
102
RTVSPropertyOp60
 70
     1
102
RTVSPropertyOp61
 70
     1
102
RTVSPropertyOp62
 70
     1
  0
XRECORD
  5
265C
102
{ACAD_REACTORS
330
265B
102
}
330
265B
100
AcDbXrecord
280
     1
102
RTVSPost2010Prop28
280
     0
102
RTVSPost2010PropOp28
 70
     1
102
RTVSPost2010Prop29
280
     1
102
RTVSPost2010PropOp29
 70
     1
102
RTVSPost2010Prop30
280
     1
102
RTVSPost2010PropOp30
 70
     1
102
RTVSPost2010Prop31
280
     0
102
RTVSPost2010PropOp31
 70
     1
102
RTVSPost2010Prop32
280
     0
102
RTVSPost2010PropOp32
 70
     1
102
RTVSPost2010Prop33
280
     0
102
RTVSPost2010PropOp33
 70
     1
102
RTVSPost2010Prop34
280
     0
102
RTVSPost2010PropOp34
 70
     1
102
RTVSPost2010Prop35
280
     0
102
RTVSPost2010PropOp35
 70
     1
102
RTVSPost2010Prop36
280
     0
102
RTVSPost2010PropOp36
 70
     1
102
RTVSPost2010Prop37
 90
       50
102
RTVSPost2010PropOp37
 70
     1
102
RTVSPost2010Prop38
140
0.0
102
RTVSPost2010PropOp38
 70
     1
102
RTVSPost2010Prop39
140
1.0
102
RTVSPost2010PropOp39
 70
     1
102
RTVSPost2010Prop40
 90
        0
102
RTVSPost2010PropOp40
 70
     1
102
RTVSPost2010Prop41ColorIndex
 90
       18
102
RTVSPost2010Prop41ColorRGB
 90
        0
102
RTVSPost2010PropOp41
 70
     1
102
RTVSPost2010Prop42
 90
       50
102
RTVSPost2010PropOp42
 70
     1
102
RTVSPost2010Prop43
 90
        3
102
RTVSPost2010PropOp43
 70
     1
102
RTVSPost2010Prop44ColorIndex
 90
        5
102
RTVSPost2010Prop44ColorRGB
 90
      255
102
RTVSPost2010PropOp44
 70
     1
102
RTVSPost2010Prop45
280
     0
102
RTVSPost2010PropOp45
 70
     1
102
RTVSPost2010Prop46
 90
       50
102
RTVSPost2010PropOp46
 70
     1
102
RTVSPost2010Prop47
 90
       50
102
RTVSPost2010PropOp47
 70
     1
102
RTVSPost2010Prop48
 90
       50
102
RTVSPost2010PropOp48
 70
     1
102
RTVSPost2010Prop49
280
     0
102
RTVSPost2010PropOp49
 70
     1
102
RTVSPost2010Prop50
 90
       50
102
RTVSPost2010PropOp50
 70
     1
102
RTVSPost2010Prop51ColorIndex
 90
      256
102
RTVSPost2010Prop51ColorRGB
 90
-16777216
102
RTVSPost2010PropOp51
 70
     0
102
RTVSPost2010Prop52
140
1.0
102
RTVSPost2010PropOp52
 70
     0
102
RTVSPost2010Prop53
 90
        2
102
RTVSPost2010PropOp53
 70
     1
102
RTVSPost2010Prop54
  1
strokes_ogs.tif
102
RTVSPost2010PropOp54
 70
     1
102
RTVSPost2010Prop55
280
     0
102
RTVSPost2010PropOp55
 70
     1
102
RTVSPost2010Prop56
140
1.0
102
RTVSPost2010PropOp56
 70
     1
102
RTVSPost2010Prop57
140
1.0
102
RTVSPost2010PropOp57
 70
     1
102
RTVSPropertyOp0
 70
     1
102
RTVSPropertyOp1
 70
     1
102
RTVSPropertyOp2
 70
     1
102
RTVSPropertyOp3
 70
     1
102
RTVSPropertyOp4
 70
     1
102
RTVSPropertyOp5
 70
     1
102
RTVSPropertyOp6
 70
     1
102
RTVSPropertyOp7
 70
     1
102
RTVSPropertyOp8
 70
     1
102
RTVSPropertyOp9
 70
     1
102
RTVSPropertyOp10
 70
     1
102
RTVSPropertyOp11
 70
     1
102
RTVSPropertyOp12
 70
     1
102
RTVSPropertyOp13
 70
     1
102
RTVSPropertyOp14
 70
     1
102
RTVSPropertyOp15
 70
     1
102
RTVSPropertyOp16
 70
     1
102
RTVSPropertyOp17
 70
     1
102
RTVSPropertyOp18
 70
     1
102
RTVSPropertyOp19
 70
     1
102
RTVSPropertyOp20
 70
     1
102
RTVSPropertyOp21
 70
     1
102
RTVSPropertyOp22
 70
     1
102
RTVSPropertyOp23
 70
     1
102
RTVSPropertyOp24
 70
     1
102
RTVSPropertyOp25
 70
     1
102
RTVSPropertyOp26
 70
     1
102
RTVSPropertyOp27
 70
     1
102
RTVSPropertyOp28
 70
     1
102
RTVSPropertyOp29
 70
     1
102
RTVSPropertyOp30
 70
     1
102
RTVSPropertyOp31
 70
     1
102
RTVSPropertyOp32
 70
     1
102
RTVSPropertyOp33
 70
     1
102
RTVSPropertyOp34
 70
     1
102
RTVSPropertyOp35
 70
     1
102
RTVSPropertyOp36
 70
     1
102
RTVSPropertyOp37
 70
     1
102
RTVSPropertyOp38
 70
     1
102
RTVSPropertyOp39
 70
     1
102
RTVSPropertyOp40
 70
     1
102
RTVSPropertyOp41
 70
     1
102
RTVSPropertyOp42
 70
     1
102
RTVSPropertyOp43
 70
     1
102
RTVSPropertyOp44
 70
     1
102
RTVSPropertyOp45
 70
     1
102
RTVSPropertyOp46
 70
     1
102
RTVSPropertyOp47
 70
     1
102
RTVSPropertyOp48
 70
     1
102
RTVSPropertyOp49
 70
     1
102
RTVSPropertyOp50
 70
     1
102
RTVSPropertyOp51
 70
     0
102
RTVSPropertyOp52
 70
     0
102
RTVSPropertyOp53
 70
     1
102
RTVSPropertyOp54
 70
     1
102
RTVSPropertyOp55
 70
     1
102
RTVSPropertyOp56
 70
     1
102
RTVSPropertyOp57
 70
     1
102
RTVSPropertyOp58
 70
     1
102
RTVSPropertyOp59
 70
     1
102
RTVSPropertyOp60
 70
     1
102
RTVSPropertyOp61
 70
     1
102
RTVSPropertyOp62
 70
     1
  0
XRECORD
  5
2656
102
{ACAD_REACTORS
330
2655
102
}
330
2655
100
AcDbXrecord
280
     1
102
RTVSPost2010Prop28
280
     0
102
RTVSPost2010PropOp28
 70
     1
102
RTVSPost2010Prop29
280
     1
102
RTVSPost2010PropOp29
 70
     1
102
RTVSPost2010Prop30
280
     1
102
RTVSPost2010PropOp30
 70
     1
102
RTVSPost2010Prop31
280
     0
102
RTVSPost2010PropOp31
 70
     1
102
RTVSPost2010Prop32
280
     0
102
RTVSPost2010PropOp32
 70
     1
102
RTVSPost2010Prop33
280
     0
102
RTVSPost2010PropOp33
 70
     1
102
RTVSPost2010Prop34
280
     0
102
RTVSPost2010PropOp34
 70
     1
102
RTVSPost2010Prop35
280
     0
102
RTVSPost2010PropOp35
 70
     1
102
RTVSPost2010Prop36
280
     0
102
RTVSPost2010PropOp36
 70
     1
102
RTVSPost2010Prop37
 90
       50
102
RTVSPost2010PropOp37
 70
     1
102
RTVSPost2010Prop38
140
0.0
102
RTVSPost2010PropOp38
 70
     1
102
RTVSPost2010Prop39
140
1.0
102
RTVSPost2010PropOp39
 70
     1
102
RTVSPost2010Prop40
 90
        0
102
RTVSPost2010PropOp40
 70
     1
102
RTVSPost2010Prop41ColorIndex
 90
       18
102
RTVSPost2010Prop41ColorRGB
 90
        0
102
RTVSPost2010PropOp41
 70
     1
102
RTVSPost2010Prop42
 90
       50
102
RTVSPost2010PropOp42
 70
     1
102
RTVSPost2010Prop43
 90
        3
102
RTVSPost2010PropOp43
 70
     1
102
RTVSPost2010Prop44ColorIndex
 90
        5
102
RTVSPost2010Prop44ColorRGB
 90
      255
102
RTVSPost2010PropOp44
 70
     1
102
RTVSPost2010Prop45
280
     0
102
RTVSPost2010PropOp45
 70
     1
102
RTVSPost2010Prop46
 90
       50
102
RTVSPost2010PropOp46
 70
     1
102
RTVSPost2010Prop47
 90
       50
102
RTVSPost2010PropOp47
 70
     1
102
RTVSPost2010Prop48
 90
       50
102
RTVSPost2010PropOp48
 70
     1
102
RTVSPost2010Prop49
280
     0
102
RTVSPost2010PropOp49
 70
     1
102
RTVSPost2010Prop50
 90
       50
102
RTVSPost2010PropOp50
 70
     1
102
RTVSPost2010Prop51ColorIndex
 90
      256
102
RTVSPost2010Prop51ColorRGB
 90
-16777216
102
RTVSPost2010PropOp51
 70
     0
102
RTVSPost2010Prop52
140
1.0
102
RTVSPost2010PropOp52
 70
     0
102
RTVSPost2010Prop53
 90
        2
102
RTVSPost2010PropOp53
 70
     1
102
RTVSPost2010Prop54
  1
strokes_ogs.tif
102
RTVSPost2010PropOp54
 70
     1
102
RTVSPost2010Prop55
280
     0
102
RTVSPost2010PropOp55
 70
     1
102
RTVSPost2010Prop56
140
1.0
102
RTVSPost2010PropOp56
 70
     1
102
RTVSPost2010Prop57
140
1.0
102
RTVSPost2010PropOp57
 70
     1
102
RTVSPropertyOp0
 70
     1
102
RTVSPropertyOp1
 70
     1
102
RTVSPropertyOp2
 70
     1
102
RTVSPropertyOp3
 70
     1
102
RTVSPropertyOp4
 70
     1
102
RTVSPropertyOp5
 70
     1
102
RTVSPropertyOp6
 70
     1
102
RTVSPropertyOp7
 70
     1
102
RTVSPropertyOp8
 70
     1
102
RTVSPropertyOp9
 70
     1
102
RTVSPropertyOp10
 70
     1
102
RTVSPropertyOp11
 70
     1
102
RTVSPropertyOp12
 70
     1
102
RTVSPropertyOp13
 70
     1
102
RTVSPropertyOp14
 70
     1
102
RTVSPropertyOp15
 70
     1
102
RTVSPropertyOp16
 70
     1
102
RTVSPropertyOp17
 70
     1
102
RTVSPropertyOp18
 70
     1
102
RTVSPropertyOp19
 70
     1
102
RTVSPropertyOp20
 70
     1
102
RTVSPropertyOp21
 70
     1
102
RTVSPropertyOp22
 70
     1
102
RTVSPropertyOp23
 70
     1
102
RTVSPropertyOp24
 70
     1
102
RTVSPropertyOp25
 70
     1
102
RTVSPropertyOp26
 70
     1
102
RTVSPropertyOp27
 70
     1
102
RTVSPropertyOp28
 70
     1
102
RTVSPropertyOp29
 70
     1
102
RTVSPropertyOp30
 70
     1
102
RTVSPropertyOp31
 70
     1
102
RTVSPropertyOp32
 70
     1
102
RTVSPropertyOp33
 70
     1
102
RTVSPropertyOp34
 70
     1
102
RTVSPropertyOp35
 70
     1
102
RTVSPropertyOp36
 70
     1
102
RTVSPropertyOp37
 70
     1
102
RTVSPropertyOp38
 70
     1
102
RTVSPropertyOp39
 70
     1
102
RTVSPropertyOp40
 70
     1
102
RTVSPropertyOp41
 70
     1
102
RTVSPropertyOp42
 70
     1
102
RTVSPropertyOp43
 70
     1
102
RTVSPropertyOp44
 70
     1
102
RTVSPropertyOp45
 70
     1
102
RTVSPropertyOp46
 70
     1
102
RTVSPropertyOp47
 70
     1
102
RTVSPropertyOp48
 70
     1
102
RTVSPropertyOp49
 70
     1
102
RTVSPropertyOp50
 70
     1
102
RTVSPropertyOp51
 70
     0
102
RTVSPropertyOp52
 70
     0
102
RTVSPropertyOp53
 70
     1
102
RTVSPropertyOp54
 70
     1
102
RTVSPropertyOp55
 70
     1
102
RTVSPropertyOp56
 70
     1
102
RTVSPropertyOp57
 70
     1
102
RTVSPropertyOp58
 70
     1
102
RTVSPropertyOp59
 70
     1
102
RTVSPropertyOp60
 70
     1
102
RTVSPropertyOp61
 70
     1
102
RTVSPropertyOp62
 70
     1
  0
XRECORD
  5
2658
102
{ACAD_REACTORS
330
2657
102
}
330
2657
100
AcDbXrecord
280
     1
102
RTVSPost2010Prop28
280
     0
102
RTVSPost2010PropOp28
 70
     1
102
RTVSPost2010Prop29
280
     1
102
RTVSPost2010PropOp29
 70
     1
102
RTVSPost2010Prop30
280
     1
102
RTVSPost2010PropOp30
 70
     1
102
RTVSPost2010Prop31
280
     0
102
RTVSPost2010PropOp31
 70
     1
102
RTVSPost2010Prop32
280
     0
102
RTVSPost2010PropOp32
 70
     1
102
RTVSPost2010Prop33
280
     0
102
RTVSPost2010PropOp33
 70
     1
102
RTVSPost2010Prop34
280
     0
102
RTVSPost2010PropOp34
 70
     1
102
RTVSPost2010Prop35
280
     0
102
RTVSPost2010PropOp35
 70
     1
102
RTVSPost2010Prop36
280
     0
102
RTVSPost2010PropOp36
 70
     1
102
RTVSPost2010Prop37
 90
       50
102
RTVSPost2010PropOp37
 70
     1
102
RTVSPost2010Prop38
140
0.0
102
RTVSPost2010PropOp38
 70
     1
102
RTVSPost2010Prop39
140
1.0
102
RTVSPost2010PropOp39
 70
     1
102
RTVSPost2010Prop40
 90
        0
102
RTVSPost2010PropOp40
 70
     1
102
RTVSPost2010Prop41ColorIndex
 90
       18
102
RTVSPost2010Prop41ColorRGB
 90
        0
102
RTVSPost2010PropOp41
 70
     1
102
RTVSPost2010Prop42
 90
       50
102
RTVSPost2010PropOp42
 70
     1
102
RTVSPost2010Prop43
 90
        3
102
RTVSPost2010PropOp43
 70
     1
102
RTVSPost2010Prop44ColorIndex
 90
        5
102
RTVSPost2010Prop44ColorRGB
 90
      255
102
RTVSPost2010PropOp44
 70
     1
102
RTVSPost2010Prop45
280
     0
102
RTVSPost2010PropOp45
 70
     1
102
RTVSPost2010Prop46
 90
       50
102
RTVSPost2010PropOp46
 70
     1
102
RTVSPost2010Prop47
 90
       50
102
RTVSPost2010PropOp47
 70
     1
102
RTVSPost2010Prop48
 90
       50
102
RTVSPost2010PropOp48
 70
     1
102
RTVSPost2010Prop49
280
     0
102
RTVSPost2010PropOp49
 70
     1
102
RTVSPost2010Prop50
 90
       50
102
RTVSPost2010PropOp50
 70
     1
102
RTVSPost2010Prop51ColorIndex
 90
      256
102
RTVSPost2010Prop51ColorRGB
 90
-16777216
102
RTVSPost2010PropOp51
 70
     0
102
RTVSPost2010Prop52
140
1.0
102
RTVSPost2010PropOp52
 70
     0
102
RTVSPost2010Prop53
 90
        2
102
RTVSPost2010PropOp53
 70
     1
102
RTVSPost2010Prop54
  1
strokes_ogs.tif
102
RTVSPost2010PropOp54
 70
     1
102
RTVSPost2010Prop55
280
     0
102
RTVSPost2010PropOp55
 70
     1
102
RTVSPost2010Prop56
140
1.0
102
RTVSPost2010PropOp56
 70
     1
102
RTVSPost2010Prop57
140
1.0
102
RTVSPost2010PropOp57
 70
     1
102
RTVSPropertyOp0
 70
     1
102
RTVSPropertyOp1
 70
     1
102
RTVSPropertyOp2
 70
     1
102
RTVSPropertyOp3
 70
     1
102
RTVSPropertyOp4
 70
     1
102
RTVSPropertyOp5
 70
     1
102
RTVSPropertyOp6
 70
     1
102
RTVSPropertyOp7
 70
     1
102
RTVSPropertyOp8
 70
     1
102
RTVSPropertyOp9
 70
     1
102
RTVSPropertyOp10
 70
     1
102
RTVSPropertyOp11
 70
     1
102
RTVSPropertyOp12
 70
     1
102
RTVSPropertyOp13
 70
     1
102
RTVSPropertyOp14
 70
     1
102
RTVSPropertyOp15
 70
     1
102
RTVSPropertyOp16
 70
     1
102
RTVSPropertyOp17
 70
     1
102
RTVSPropertyOp18
 70
     1
102
RTVSPropertyOp19
 70
     1
102
RTVSPropertyOp20
 70
     1
102
RTVSPropertyOp21
 70
     1
102
RTVSPropertyOp22
 70
     1
102
RTVSPropertyOp23
 70
     1
102
RTVSPropertyOp24
 70
     1
102
RTVSPropertyOp25
 70
     1
102
RTVSPropertyOp26
 70
     1
102
RTVSPropertyOp27
 70
     1
102
RTVSPropertyOp28
 70
     1
102
RTVSPropertyOp29
 70
     1
102
RTVSPropertyOp30
 70
     1
102
RTVSPropertyOp31
 70
     1
102
RTVSPropertyOp32
 70
     1
102
RTVSPropertyOp33
 70
     1
102
RTVSPropertyOp34
 70
     1
102
RTVSPropertyOp35
 70
     1
102
RTVSPropertyOp36
 70
     1
102
RTVSPropertyOp37
 70
     1
102
RTVSPropertyOp38
 70
     1
102
RTVSPropertyOp39
 70
     1
102
RTVSPropertyOp40
 70
     1
102
RTVSPropertyOp41
 70
     1
102
RTVSPropertyOp42
 70
     1
102
RTVSPropertyOp43
 70
     1
102
RTVSPropertyOp44
 70
     1
102
RTVSPropertyOp45
 70
     1
102
RTVSPropertyOp46
 70
     1
102
RTVSPropertyOp47
 70
     1
102
RTVSPropertyOp48
 70
     1
102
RTVSPropertyOp49
 70
     1
102
RTVSPropertyOp50
 70
     1
102
RTVSPropertyOp51
 70
     0
102
RTVSPropertyOp52
 70
     0
102
RTVSPropertyOp53
 70
     1
102
RTVSPropertyOp54
 70
     1
102
RTVSPropertyOp55
 70
     1
102
RTVSPropertyOp56
 70
     1
102
RTVSPropertyOp57
 70
     1
102
RTVSPropertyOp58
 70
     1
102
RTVSPropertyOp59
 70
     1
102
RTVSPropertyOp60
 70
     1
102
RTVSPropertyOp61
 70
     1
102
RTVSPropertyOp62
 70
     1
  0
XRECORD
  5
264E
102
{ACAD_REACTORS
330
264D
102
}
330
264D
100
AcDbXrecord
280
     1
102
RTVSPost2010Prop28
280
     0
102
RTVSPost2010PropOp28
 70
     1
102
RTVSPost2010Prop29
280
     1
102
RTVSPost2010PropOp29
 70
     1
102
RTVSPost2010Prop30
280
     1
102
RTVSPost2010PropOp30
 70
     1
102
RTVSPost2010Prop31
280
     0
102
RTVSPost2010PropOp31
 70
     1
102
RTVSPost2010Prop32
280
     0
102
RTVSPost2010PropOp32
 70
     1
102
RTVSPost2010Prop33
280
     0
102
RTVSPost2010PropOp33
 70
     1
102
RTVSPost2010Prop34
280
     0
102
RTVSPost2010PropOp34
 70
     1
102
RTVSPost2010Prop35
280
     0
102
RTVSPost2010PropOp35
 70
     1
102
RTVSPost2010Prop36
280
     0
102
RTVSPost2010PropOp36
 70
     1
102
RTVSPost2010Prop37
 90
       50
102
RTVSPost2010PropOp37
 70
     1
102
RTVSPost2010Prop38
140
0.0
102
RTVSPost2010PropOp38
 70
     1
102
RTVSPost2010Prop39
140
1.0
102
RTVSPost2010PropOp39
 70
     1
102
RTVSPost2010Prop40
 90
        0
102
RTVSPost2010PropOp40
 70
     1
102
RTVSPost2010Prop41ColorIndex
 90
       18
102
RTVSPost2010Prop41ColorRGB
 90
        0
102
RTVSPost2010PropOp41
 70
     1
102
RTVSPost2010Prop42
 90
       50
102
RTVSPost2010PropOp42
 70
     1
102
RTVSPost2010Prop43
 90
        3
102
RTVSPost2010PropOp43
 70
     1
102
RTVSPost2010Prop44ColorIndex
 90
        5
102
RTVSPost2010Prop44ColorRGB
 90
      255
102
RTVSPost2010PropOp44
 70
     1
102
RTVSPost2010Prop45
280
     0
102
RTVSPost2010PropOp45
 70
     1
102
RTVSPost2010Prop46
 90
       50
102
RTVSPost2010PropOp46
 70
     1
102
RTVSPost2010Prop47
 90
       50
102
RTVSPost2010PropOp47
 70
     1
102
RTVSPost2010Prop48
 90
       50
102
RTVSPost2010PropOp48
 70
     1
102
RTVSPost2010Prop49
280
     0
102
RTVSPost2010PropOp49
 70
     1
102
RTVSPost2010Prop50
 90
       50
102
RTVSPost2010PropOp50
 70
     1
102
RTVSPost2010Prop51ColorIndex
 90
      256
102
RTVSPost2010Prop51ColorRGB
 90
-16777216
102
RTVSPost2010PropOp51
 70
     0
102
RTVSPost2010Prop52
140
1.0
102
RTVSPost2010PropOp52
 70
     0
102
RTVSPost2010Prop53
 90
        2
102
RTVSPost2010PropOp53
 70
     1
102
RTVSPost2010Prop54
  1
strokes_ogs.tif
102
RTVSPost2010PropOp54
 70
     1
102
RTVSPost2010Prop55
280
     0
102
RTVSPost2010PropOp55
 70
     1
102
RTVSPost2010Prop56
140
1.0
102
RTVSPost2010PropOp56
 70
     1
102
RTVSPost2010Prop57
140
1.0
102
RTVSPost2010PropOp57
 70
     1
102
RTVSPropertyOp0
 70
     1
102
RTVSPropertyOp1
 70
     1
102
RTVSPropertyOp2
 70
     1
102
RTVSPropertyOp3
 70
     1
102
RTVSPropertyOp4
 70
     1
102
RTVSPropertyOp5
 70
     1
102
RTVSPropertyOp6
 70
     1
102
RTVSPropertyOp7
 70
     1
102
RTVSPropertyOp8
 70
     1
102
RTVSPropertyOp9
 70
     1
102
RTVSPropertyOp10
 70
     1
102
RTVSPropertyOp11
 70
     1
102
RTVSPropertyOp12
 70
     1
102
RTVSPropertyOp13
 70
     1
102
RTVSPropertyOp14
 70
     1
102
RTVSPropertyOp15
 70
     1
102
RTVSPropertyOp16
 70
     1
102
RTVSPropertyOp17
 70
     1
102
RTVSPropertyOp18
 70
     1
102
RTVSPropertyOp19
 70
     1
102
RTVSPropertyOp20
 70
     1
102
RTVSPropertyOp21
 70
     1
102
RTVSPropertyOp22
 70
     1
102
RTVSPropertyOp23
 70
     1
102
RTVSPropertyOp24
 70
     1
102
RTVSPropertyOp25
 70
     1
102
RTVSPropertyOp26
 70
     1
102
RTVSPropertyOp27
 70
     1
102
RTVSPropertyOp28
 70
     1
102
RTVSPropertyOp29
 70
     1
102
RTVSPropertyOp30
 70
     1
102
RTVSPropertyOp31
 70
     1
102
RTVSPropertyOp32
 70
     1
102
RTVSPropertyOp33
 70
     1
102
RTVSPropertyOp34
 70
     1
102
RTVSPropertyOp35
 70
     1
102
RTVSPropertyOp36
 70
     1
102
RTVSPropertyOp37
 70
     1
102
RTVSPropertyOp38
 70
     1
102
RTVSPropertyOp39
 70
     1
102
RTVSPropertyOp40
 70
     1
102
RTVSPropertyOp41
 70
     1
102
RTVSPropertyOp42
 70
     1
102
RTVSPropertyOp43
 70
     1
102
RTVSPropertyOp44
 70
     1
102
RTVSPropertyOp45
 70
     1
102
RTVSPropertyOp46
 70
     1
102
RTVSPropertyOp47
 70
     1
102
RTVSPropertyOp48
 70
     1
102
RTVSPropertyOp49
 70
     1
102
RTVSPropertyOp50
 70
     1
102
RTVSPropertyOp51
 70
     0
102
RTVSPropertyOp52
 70
     0
102
RTVSPropertyOp53
 70
     1
102
RTVSPropertyOp54
 70
     1
102
RTVSPropertyOp55
 70
     1
102
RTVSPropertyOp56
 70
     1
102
RTVSPropertyOp57
 70
     1
102
RTVSPropertyOp58
 70
     1
102
RTVSPropertyOp59
 70
     1
102
RTVSPropertyOp60
 70
     1
102
RTVSPropertyOp61
 70
     1
102
RTVSPropertyOp62
 70
     1
  0
XRECORD
  5
2642
102
{ACAD_REACTORS
330
2641
102
}
330
2641
100
AcDbXrecord
280
     1
102
RTVSPost2010Prop28
280
     0
102
RTVSPost2010PropOp28
 70
     1
102
RTVSPost2010Prop29
280
     1
102
RTVSPost2010PropOp29
 70
     1
102
RTVSPost2010Prop30
280
     1
102
RTVSPost2010PropOp30
 70
     1
102
RTVSPost2010Prop31
280
     0
102
RTVSPost2010PropOp31
 70
     1
102
RTVSPost2010Prop32
280
     0
102
RTVSPost2010PropOp32
 70
     1
102
RTVSPost2010Prop33
280
     0
102
RTVSPost2010PropOp33
 70
     1
102
RTVSPost2010Prop34
280
     0
102
RTVSPost2010PropOp34
 70
     1
102
RTVSPost2010Prop35
280
     0
102
RTVSPost2010PropOp35
 70
     1
102
RTVSPost2010Prop36
280
     0
102
RTVSPost2010PropOp36
 70
     1
102
RTVSPost2010Prop37
 90
       50
102
RTVSPost2010PropOp37
 70
     1
102
RTVSPost2010Prop38
140
0.0
102
RTVSPost2010PropOp38
 70
     1
102
RTVSPost2010Prop39
140
1.0
102
RTVSPost2010PropOp39
 70
     1
102
RTVSPost2010Prop40
 90
        0
102
RTVSPost2010PropOp40
 70
     1
102
RTVSPost2010Prop41ColorIndex
 90
       18
102
RTVSPost2010Prop41ColorRGB
 90
        0
102
RTVSPost2010PropOp41
 70
     1
102
RTVSPost2010Prop42
 90
       50
102
RTVSPost2010PropOp42
 70
     1
102
RTVSPost2010Prop43
 90
        3
102
RTVSPost2010PropOp43
 70
     1
102
RTVSPost2010Prop44ColorIndex
 90
        5
102
RTVSPost2010Prop44ColorRGB
 90
      255
102
RTVSPost2010PropOp44
 70
     1
102
RTVSPost2010Prop45
280
     0
102
RTVSPost2010PropOp45
 70
     1
102
RTVSPost2010Prop46
 90
       50
102
RTVSPost2010PropOp46
 70
     1
102
RTVSPost2010Prop47
 90
       50
102
RTVSPost2010PropOp47
 70
     1
102
RTVSPost2010Prop48
 90
       50
102
RTVSPost2010PropOp48
 70
     1
102
RTVSPost2010Prop49
280
     0
102
RTVSPost2010PropOp49
 70
     1
102
RTVSPost2010Prop50
 90
       50
102
RTVSPost2010PropOp50
 70
     1
102
RTVSPost2010Prop51ColorIndex
 90
      256
102
RTVSPost2010Prop51ColorRGB
 90
-16777216
102
RTVSPost2010PropOp51
 70
     0
102
RTVSPost2010Prop52
140
1.0
102
RTVSPost2010PropOp52
 70
     0
102
RTVSPost2010Prop53
 90
        2
102
RTVSPost2010PropOp53
 70
     1
102
RTVSPost2010Prop54
  1
strokes_ogs.tif
102
RTVSPost2010PropOp54
 70
     1
102
RTVSPost2010Prop55
280
     0
102
RTVSPost2010PropOp55
 70
     1
102
RTVSPost2010Prop56
140
1.0
102
RTVSPost2010PropOp56
 70
     1
102
RTVSPost2010Prop57
140
1.0
102
RTVSPost2010PropOp57
 70
     1
102
RTVSPropertyOp0
 70
     1
102
RTVSPropertyOp1
 70
     1
102
RTVSPropertyOp2
 70
     1
102
RTVSPropertyOp3
 70
     1
102
RTVSPropertyOp4
 70
     1
102
RTVSPropertyOp5
 70
     1
102
RTVSPropertyOp6
 70
     1
102
RTVSPropertyOp7
 70
     1
102
RTVSPropertyOp8
 70
     1
102
RTVSPropertyOp9
 70
     1
102
RTVSPropertyOp10
 70
     1
102
RTVSPropertyOp11
 70
     1
102
RTVSPropertyOp12
 70
     1
102
RTVSPropertyOp13
 70
     1
102
RTVSPropertyOp14
 70
     1
102
RTVSPropertyOp15
 70
     1
102
RTVSPropertyOp16
 70
     1
102
RTVSPropertyOp17
 70
     1
102
RTVSPropertyOp18
 70
     1
102
RTVSPropertyOp19
 70
     1
102
RTVSPropertyOp20
 70
     1
102
RTVSPropertyOp21
 70
     1
102
RTVSPropertyOp22
 70
     1
102
RTVSPropertyOp23
 70
     1
102
RTVSPropertyOp24
 70
     1
102
RTVSPropertyOp25
 70
     1
102
RTVSPropertyOp26
 70
     1
102
RTVSPropertyOp27
 70
     1
102
RTVSPropertyOp28
 70
     1
102
RTVSPropertyOp29
 70
     1
102
RTVSPropertyOp30
 70
     1
102
RTVSPropertyOp31
 70
     1
102
RTVSPropertyOp32
 70
     1
102
RTVSPropertyOp33
 70
     1
102
RTVSPropertyOp34
 70
     1
102
RTVSPropertyOp35
 70
     1
102
RTVSPropertyOp36
 70
     1
102
RTVSPropertyOp37
 70
     1
102
RTVSPropertyOp38
 70
     1
102
RTVSPropertyOp39
 70
     1
102
RTVSPropertyOp40
 70
     1
102
RTVSPropertyOp41
 70
     1
102
RTVSPropertyOp42
 70
     1
102
RTVSPropertyOp43
 70
     1
102
RTVSPropertyOp44
 70
     1
102
RTVSPropertyOp45
 70
     1
102
RTVSPropertyOp46
 70
     1
102
RTVSPropertyOp47
 70
     1
102
RTVSPropertyOp48
 70
     1
102
RTVSPropertyOp49
 70
     1
102
RTVSPropertyOp50
 70
     1
102
RTVSPropertyOp51
 70
     0
102
RTVSPropertyOp52
 70
     0
102
RTVSPropertyOp53
 70
     1
102
RTVSPropertyOp54
 70
     1
102
RTVSPropertyOp55
 70
     1
102
RTVSPropertyOp56
 70
     1
102
RTVSPropertyOp57
 70
     1
102
RTVSPropertyOp58
 70
     1
102
RTVSPropertyOp59
 70
     1
102
RTVSPropertyOp60
 70
     1
102
RTVSPropertyOp61
 70
     1
102
RTVSPropertyOp62
 70
     1
  0
XRECORD
  5
265A
102
{ACAD_REACTORS
330
2659
102
}
330
2659
100
AcDbXrecord
280
     1
102
RTVSPost2010Prop28
280
     0
102
RTVSPost2010PropOp28
 70
     1
102
RTVSPost2010Prop29
280
     1
102
RTVSPost2010PropOp29
 70
     1
102
RTVSPost2010Prop30
280
     1
102
RTVSPost2010PropOp30
 70
     1
102
RTVSPost2010Prop31
280
     0
102
RTVSPost2010PropOp31
 70
     1
102
RTVSPost2010Prop32
280
     0
102
RTVSPost2010PropOp32
 70
     1
102
RTVSPost2010Prop33
280
     0
102
RTVSPost2010PropOp33
 70
     1
102
RTVSPost2010Prop34
280
     0
102
RTVSPost2010PropOp34
 70
     1
102
RTVSPost2010Prop35
280
     0
102
RTVSPost2010PropOp35
 70
     1
102
RTVSPost2010Prop36
280
     0
102
RTVSPost2010PropOp36
 70
     1
102
RTVSPost2010Prop37
 90
       50
102
RTVSPost2010PropOp37
 70
     1
102
RTVSPost2010Prop38
140
0.0
102
RTVSPost2010PropOp38
 70
     1
102
RTVSPost2010Prop39
140
1.0
102
RTVSPost2010PropOp39
 70
     1
102
RTVSPost2010Prop40
 90
        0
102
RTVSPost2010PropOp40
 70
     1
102
RTVSPost2010Prop41ColorIndex
 90
       18
102
RTVSPost2010Prop41ColorRGB
 90
        0
102
RTVSPost2010PropOp41
 70
     1
102
RTVSPost2010Prop42
 90
       50
102
RTVSPost2010PropOp42
 70
     1
102
RTVSPost2010Prop43
 90
        3
102
RTVSPost2010PropOp43
 70
     1
102
RTVSPost2010Prop44ColorIndex
 90
        5
102
RTVSPost2010Prop44ColorRGB
 90
      255
102
RTVSPost2010PropOp44
 70
     1
102
RTVSPost2010Prop45
280
     0
102
RTVSPost2010PropOp45
 70
     1
102
RTVSPost2010Prop46
 90
       50
102
RTVSPost2010PropOp46
 70
     1
102
RTVSPost2010Prop47
 90
       50
102
RTVSPost2010PropOp47
 70
     1
102
RTVSPost2010Prop48
 90
       50
102
RTVSPost2010PropOp48
 70
     1
102
RTVSPost2010Prop49
280
     0
102
RTVSPost2010PropOp49
 70
     1
102
RTVSPost2010Prop50
 90
       50
102
RTVSPost2010PropOp50
 70
     1
102
RTVSPost2010Prop51ColorIndex
 90
      256
102
RTVSPost2010Prop51ColorRGB
 90
-16777216
102
RTVSPost2010PropOp51
 70
     0
102
RTVSPost2010Prop52
140
1.0
102
RTVSPost2010PropOp52
 70
     0
102
RTVSPost2010Prop53
 90
        2
102
RTVSPost2010PropOp53
 70
     1
102
RTVSPost2010Prop54
  1
strokes_ogs.tif
102
RTVSPost2010PropOp54
 70
     1
102
RTVSPost2010Prop55
280
     0
102
RTVSPost2010PropOp55
 70
     1
102
RTVSPost2010Prop56
140
1.0
102
RTVSPost2010PropOp56
 70
     1
102
RTVSPost2010Prop57
140
1.0
102
RTVSPost2010PropOp57
 70
     1
102
RTVSPropertyOp0
 70
     1
102
RTVSPropertyOp1
 70
     1
102
RTVSPropertyOp2
 70
     1
102
RTVSPropertyOp3
 70
     1
102
RTVSPropertyOp4
 70
     1
102
RTVSPropertyOp5
 70
     1
102
RTVSPropertyOp6
 70
     1
102
RTVSPropertyOp7
 70
     1
102
RTVSPropertyOp8
 70
     1
102
RTVSPropertyOp9
 70
     1
102
RTVSPropertyOp10
 70
     1
102
RTVSPropertyOp11
 70
     1
102
RTVSPropertyOp12
 70
     1
102
RTVSPropertyOp13
 70
     1
102
RTVSPropertyOp14
 70
     1
102
RTVSPropertyOp15
 70
     1
102
RTVSPropertyOp16
 70
     1
102
RTVSPropertyOp17
 70
     1
102
RTVSPropertyOp18
 70
     1
102
RTVSPropertyOp19
 70
     1
102
RTVSPropertyOp20
 70
     1
102
RTVSPropertyOp21
 70
     1
102
RTVSPropertyOp22
 70
     1
102
RTVSPropertyOp23
 70
     1
102
RTVSPropertyOp24
 70
     1
102
RTVSPropertyOp25
 70
     1
102
RTVSPropertyOp26
 70
     1
102
RTVSPropertyOp27
 70
     1
102
RTVSPropertyOp28
 70
     1
102
RTVSPropertyOp29
 70
     1
102
RTVSPropertyOp30
 70
     1
102
RTVSPropertyOp31
 70
     1
102
RTVSPropertyOp32
 70
     1
102
RTVSPropertyOp33
 70
     1
102
RTVSPropertyOp34
 70
     1
102
RTVSPropertyOp35
 70
     1
102
RTVSPropertyOp36
 70
     1
102
RTVSPropertyOp37
 70
     1
102
RTVSPropertyOp38
 70
     1
102
RTVSPropertyOp39
 70
     1
102
RTVSPropertyOp40
 70
     1
102
RTVSPropertyOp41
 70
     1
102
RTVSPropertyOp42
 70
     1
102
RTVSPropertyOp43
 70
     1
102
RTVSPropertyOp44
 70
     1
102
RTVSPropertyOp45
 70
     1
102
RTVSPropertyOp46
 70
     1
102
RTVSPropertyOp47
 70
     1
102
RTVSPropertyOp48
 70
     1
102
RTVSPropertyOp49
 70
     1
102
RTVSPropertyOp50
 70
     1
102
RTVSPropertyOp51
 70
     0
102
RTVSPropertyOp52
 70
     0
102
RTVSPropertyOp53
 70
     1
102
RTVSPropertyOp54
 70
     1
102
RTVSPropertyOp55
 70
     1
102
RTVSPropertyOp56
 70
     1
102
RTVSPropertyOp57
 70
     1
102
RTVSPropertyOp58
 70
     1
102
RTVSPropertyOp59
 70
     1
102
RTVSPropertyOp60
 70
     1
102
RTVSPropertyOp61
 70
     1
102
RTVSPropertyOp62
 70
     1
  0
ENDSEC
  0
EOF
