  0
SECTION
  2
HEADER
  9
$ACADVER
  1
AC1015
  9
$DWGCODEPAGE
  3
ANSI_932
  9
$LTSCALE
 40
20.0
  9
$FILLMODE
 70
     1
  9
$CLAYER
  8
0
  9
$PDMODE
 70
     0
  9
$SPLFRAME
 70
     0
  9
$SPLINETYPE
 70
     6
  9
$SPLINESEGS
 70
     8
  9
$DIMASZ
 40
2.000000
  9
$DIMEXE
 40
1.500000
  9
$DIMEXO
 40
0.800000
  9
$DIMTAD
 70
     1
  9
$DIMTIH
 70
     0
  9
$DIMTOH
 70
     0
  9
$DIMTVP
 40
0.500000
  9
$DIMTXT
 40
3.100000
  9
$EXTMIN
 10
0.000000
 20
0.000000
 30
0.000000
  9
$EXTMAX
 10
297.000000
 20
420.000000
 30
0.000000
  9
$MEASUREMENT
 70
  1
  9
$LIMMIN
 10
0.000000
 20
0.000000
  9
$LIMMAX
 10
297.000000
 20
420.000000
  9
$HANDSEED
  5
1B6
  9
$LWDISPLAY
290
     0
  9
$DIMBLK
  1
_OPEN
  9
$DIMDEC
 70
     2
  9
$DIMADEC
 70
     2
  9
$DIMAUNIT
 70
     0
  9
$DIMZIN
 70
     8
  9
$DIMAZIN
 70
     2
  9
$DIMTOFL
 70
     1
  0
ENDSEC
  0
SECTION
  2
CLASSES
  0
ENDSEC
  0
SECTION
  2
TABLES
  0
TABLE
  2
VPORT
  5
180
100
AcDbSymbolTable
 70
     1
  0
VPORT
  5
181
100
AcDbSymbolTableRecord
100
AcDbViewportTableRecord
  2
*ACTIVE
 70
     0
 12
150.634304
 22
188.176259
 40
340.352517
 41
0.826404
  0
ENDTAB
  0
TABLE
  2
LTYPE
  5
182
100
AcDbSymbolTable
 70
     3
  0
LTYPE
  5
183
100
AcDbSymbolTableRecord
100
AcDbLinetypeTableRecord
  2
BYBLOCK
 70
     0
  3

 72
    65
 73
     0
 40
0.0
  0
LTYPE
  5
184
100
AcDbSymbolTableRecord
100
AcDbLinetypeTableRecord
  2
BYLAYER
 70
     0
  3

 72
    65
 73
     0
 40
0.0
  0
LTYPE
  5
185
100
AcDbSymbolTableRecord
100
AcDbLinetypeTableRecord
  2
CONTINUOUS
 70
     0
  3
Solid line (NEC CAE2D for Win R16.0 : 2021.08.05)
 72
    65
 73
     0
 40
0.0
  0
LTYPE
  5
186
100
AcDbSymbolTableRecord
100
AcDbLinetypeTableRecord
  2
DASHED
 70
     0
  3
__ __ __ __ __ __ __ __ __ __ __ __ __ _
 72
    65
 73
     2
 40
0.75
 49
0.5
 74
     0
 49
-0.25
 74
     0
  0
LTYPE
  5
187
100
AcDbSymbolTableRecord
100
AcDbLinetypeTableRecord
  2
CENTER
 70
     0
  3
____ _ ____ _ ____ _ ____ _ ____ _ ____
 72
    65
 73
     4
 40
2.0
 49
1.25
 74
     0
 49
-0.25
 74
     0
 49
0.25
 74
     0
 49
-0.25
 74
     0
  0
ENDTAB
  0
TABLE
  2
LAYER
  5
188
100
AcDbSymbolTable
 70
    15
  0
LAYER
  5
189
100
AcDbSymbolTableRecord
100
AcDbLayerTableRecord
  2
0
 70
     0
 62
     7
  6
CONTINUOUS
370
    -3
390

  0
LAYER
  5
18A
100
AcDbSymbolTableRecord
100
AcDbLayerTableRecord
  2
A0
 70
     0
 62
     9
  6
CONTINUOUS
370
    -3
390

  0
LAYER
  5
18B
100
AcDbSymbolTableRecord
100
AcDbLayerTableRecord
  2
A4
 70
     0
 62
     9
  6
CONTINUOUS
370
    -3
390

  0
LAYER
  5
18C
100
AcDbSymbolTableRecord
100
AcDbLayerTableRecord
  2
A5
 70
     0
 62
     8
  6
CONTINUOUS
370
    -3
390

  0
LAYER
  5
18D
100
AcDbSymbolTableRecord
100
AcDbLayerTableRecord
  2
A6
 70
     0
 62
    12
  6
CONTINUOUS
370
    -3
390

  0
LAYER
  5
18E
100
AcDbSymbolTableRecord
100
AcDbLayerTableRecord
  2
A8
 70
     0
 62
    10
  6
CONTINUOUS
370
    -3
390

  0
LAYER
  5
18F
100
AcDbSymbolTableRecord
100
AcDbLayerTableRecord
  2
A9
 70
     0
 62
     9
  6
CONTINUOUS
370
    -3
390

  0
LAYER
  5
190
100
AcDbSymbolTableRecord
100
AcDbLayerTableRecord
  2
A10
 70
     0
 62
     6
  6
CONTINUOUS
370
    -3
390

  0
LAYER
  5
191
100
AcDbSymbolTableRecord
100
AcDbLayerTableRecord
  2
A11
 70
     0
 62
    10
  6
CONTINUOUS
370
    -3
390

  0
LAYER
  5
192
100
AcDbSymbolTableRecord
100
AcDbLayerTableRecord
  2
A12
 70
     0
 62
    13
  6
CONTINUOUS
370
    -3
390

  0
LAYER
  5
193
100
AcDbSymbolTableRecord
100
AcDbLayerTableRecord
  2
A20
 70
     0
 62
     1
  6
CONTINUOUS
370
    -3
390

  0
LAYER
  5
194
100
AcDbSymbolTableRecord
100
AcDbLayerTableRecord
  2
A30
 70
     0
 62
     1
  6
CONTINUOUS
370
    -3
390

  0
LAYER
  5
195
100
AcDbSymbolTableRecord
100
AcDbLayerTableRecord
  2
A40
 70
     0
 62
     9
  6
CONTINUOUS
370
    -3
390

  0
LAYER
  5
196
100
AcDbSymbolTableRecord
100
AcDbLayerTableRecord
  2
A50
 70
     0
 62
    12
  6
CONTINUOUS
370
    -3
390

  0
LAYER
  5
197
100
AcDbSymbolTableRecord
100
AcDbLayerTableRecord
  2
A1023
 70
     0
 62
    16
  6
CONTINUOUS
370
    -3
390

  0
ENDTAB
  0
TABLE
  2
STYLE
  5
198
100
AcDbSymbolTable
 70
     4
  0
STYLE
  5
199
100
AcDbSymbolTableRecord
100
AcDbTextStyleTableRecord
  2
STANDARD
 70
    64
 40
0.0
 41
1.0
 50
0.0
 71
     0
 42
3.000000000000000
  3
TXT
  4

  0
STYLE
  5
19A
100
AcDbSymbolTableRecord
100
AcDbTextStyleTableRecord
  2
ANKTATE
 70
    68
 40
0.0
 41
1.0
 50
0.0
 71
     0
 42
3.000000000000000
  3
TXT
  4

  0
STYLE
  5
19B
100
AcDbSymbolTableRecord
100
AcDbTextStyleTableRecord
  2
KNJYOKO
 70
    64
 40
0.0
 41
1.0
 50
0.0
 71
     0
 42
3.000000000000000
  3
TXT
  4
BIGFONT
  0
STYLE
  5
19C
100
AcDbSymbolTableRecord
100
AcDbTextStyleTableRecord
  2
KNJTATE
 70
    68
 40
0.0
 41
1.0
 50
0.0
 71
     0
 42
3.000000000000000
  3
TXT
  4
BIGFONT
  0
ENDTAB
  0
TABLE
  2
VIEW
  5
19D
100
AcDbSymbolTable
 70
     0
  0
ENDTAB
  0
TABLE
  2
UCS
  5
19E
100
AcDbSymbolTable
 70
     0
  0
ENDTAB
  0
TABLE
  2
APPID
  5
19F
100
AcDbSymbolTable
 70
     1
  0
APPID
  5
1A0
100
AcDbSymbolTableRecord
100
AcDbRegAppTableRecord
  2
ACAD
 70
     0
  0
ENDTAB
  0
TABLE
  2
DIMSTYLE
  5
1A1
100
AcDbSymbolTable
 70
     2
100
AcDbDimStyleTable
  0
DIMSTYLE
105
1A2
100
AcDbSymbolTableRecord
100
AcDbDimStyleTableRecord
  2
STANDARD
 70
     0
 41
2.000000
 44
1.500000
 42
0.800000
145
0.661290
140
3.100000
144
1.000000
146
0.645161
340
199
  0
DIMSTYLE
105
1A3
100
AcDbSymbolTableRecord
100
AcDbDimStyleTableRecord
  2
A001
 70
     0
 41
2.000000
 44
1.500000
 42
0.800000
145
0.661290
140
3.100000
144
1.000000
146
0.645161
 77
     1
 73
     0
 74
     0
271
     2
179
     2
275
     0
 78
     8
 79
     2
172
     1
340
199
  0
ENDTAB
  0
TABLE
  2
BLOCK_RECORD
  5
1A4
100
AcDbSymbolTable
 70
    12
  0
BLOCK_RECORD
  5
1A5
100
AcDbSymbolTableRecord
100
AcDbBlockTableRecord
  2
*MODEL_SPACE
  0
BLOCK_RECORD
  5
1A6
100
AcDbSymbolTableRecord
100
AcDbBlockTableRecord
  2
*PAPER_SPACE
  0
BLOCK_RECORD
  5
1A7
100
AcDbSymbolTableRecord
100
AcDbBlockTableRecord
  2
*PAPER_SPACE0
  0
BLOCK_RECORD
  5
1
100
AcDbSymbolTableRecord
100
AcDbBlockTableRecord
  2
_NONE
  0
BLOCK_RECORD
  5
4
100
AcDbSymbolTableRecord
100
AcDbBlockTableRecord
  2
_CLOSED
  0
BLOCK_RECORD
  5
B
100
AcDbSymbolTableRecord
100
AcDbBlockTableRecord
  2
_DOT
  0
BLOCK_RECORD
  5
13
100
AcDbSymbolTableRecord
100
AcDbBlockTableRecord
  2
_OPEN
  0
BLOCK_RECORD
  5
19
100
AcDbSymbolTableRecord
100
AcDbBlockTableRecord
  2
_ORIGIN
  0
BLOCK_RECORD
  5
1E
100
AcDbSymbolTableRecord
100
AcDbBlockTableRecord
  2
_OPEN30
  0
BLOCK_RECORD
  5
24
100
AcDbSymbolTableRecord
100
AcDbBlockTableRecord
  2
_BOXFILLED
  0
BLOCK_RECORD
  5
29
100
AcDbSymbolTableRecord
100
AcDbBlockTableRecord
  2
_BOXBLANK
  0
BLOCK_RECORD
  5
31
100
AcDbSymbolTableRecord
100
AcDbBlockTableRecord
  2
_OBLIQUE
  0
BLOCK_RECORD
  5
35
100
AcDbSymbolTableRecord
100
AcDbBlockTableRecord
  2
_OPEN90
  0
BLOCK_RECORD
  5
3B
100
AcDbSymbolTableRecord
100
AcDbBlockTableRecord
  2
_CLOSEDBLANK
  0
BLOCK_RECORD
  5
41
100
AcDbSymbolTableRecord
100
AcDbBlockTableRecord
  2
_DOTBLANK
  0
ENDTAB
  0
ENDSEC
  0
SECTION
  2
BLOCKS
  0
BLOCK
  5
1A8
100
AcDbEntity
  8
0
100
AcDbBlockBegin
  2
*MODEL_SPACE
 70
     0
 10
0.0
 20
0.0
 30
0.0
  3
*MODEL_SPACE
  1

  0
ENDBLK
  5
1A9
100
AcDbEntity
  8
0
100
AcDbBlockEnd
  0
BLOCK
  5
1AA
100
AcDbEntity
  8
0
100
AcDbBlockBegin
  2
*PAPER_SPACE
 70
     0
 10
0.0
 20
0.0
 30
0.0
  3
*PAPER_SPACE
  1

  0
ENDBLK
  5
1AB
100
AcDbEntity
  8
0
100
AcDbBlockEnd
  0
BLOCK
  5
1AC
100
AcDbEntity
  8
0
100
AcDbBlockBegin
  2
*PAPER_SPACE0
 70
     0
 10
0.0
 20
0.0
 30
0.0
  3
*PAPER_SPACE0
  1

  0
ENDBLK
  5
1AD
100
AcDbEntity
  8
0
100
AcDbBlockEnd
  0
BLOCK
  5
2
330
1
100
AcDbEntity
  8
0
100
AcDbBlockBegin
  2
_NONE
 70
     0
 10
0.0
 20
0.0
 30
0.0
  3
_NONE
  1

  0
ENDBLK
  5
3
330
1
100
AcDbEntity
  8
0
100
AcDbBlockEnd
  0
BLOCK
  5
5
330
4
100
AcDbEntity
  8
0
100
AcDbBlockBegin
  2
_CLOSED
 70
     0
 10
0.0
 20
0.0
 30
0.0
  3
_CLOSED
  1

  0
LINE
  5
6
330
4
100
AcDbEntity
  8
0
  6
BYBLOCK
 62
     0
370
    -2
100
AcDbLine
 10
-1.0
 20
0.166667
 30
0.0
 11
0.0
 21
0.0
 31
0.0
  0
LINE
  5
7
330
4
100
AcDbEntity
  8
0
  6
BYBLOCK
 62
     0
370
    -2
100
AcDbLine
 10
0.0
 20
0.0
 30
0.0
 11
-1.0
 21
-0.166667
 31
0.0
  0
LINE
  5
8
330
4
100
AcDbEntity
  8
0
  6
BYBLOCK
 62
     0
370
    -2
100
AcDbLine
 10
-1.0
 20
0.166667
 30
0.0
 11
-1.0
 21
-0.166667
 31
0.0
  0
LINE
  5
9
330
4
100
AcDbEntity
  8
0
  6
BYBLOCK
 62
     0
370
    -2
100
AcDbLine
 10
0.0
 20
0.0
 30
0.0
 11
-1.0
 21
0.0
 31
0.0
  0
ENDBLK
  5
A
330
4
100
AcDbEntity
  8
0
100
AcDbBlockEnd
  0
BLOCK
  5
C
330
B
100
AcDbEntity
  8
0
100
AcDbBlockBegin
  2
_DOT
 70
     0
 10
0.0
 20
0.0
 30
0.0
  3
_DOT
  1

  0
POLYLINE
  5
D
330
B
100
AcDbEntity
  8
0
  6
BYBLOCK
 62
     0
370
    -2
100
AcDb2dPolyline
 66
     1
 10
0.0
 20
0.0
 30
0.0
 70
     1
 40
0.5
 41
0.5
  0
VERTEX
  5
E
330
B
100
AcDbEntity
  8
0
  6
BYBLOCK
 62
     0
370
    -2
100
AcDbVertex
100
AcDb2dVertex
 10
-0.25
 20
0.0
 30
0.0
 42
1.0
  0
VERTEX
  5
F
330
B
100
AcDbEntity
  8
0
  6
BYBLOCK
 62
     0
370
    -2
100
AcDbVertex
100
AcDb2dVertex
 10
0.25
 20
0.0
 30
0.0
 42
1.0
  0
SEQEND
  5
10
330
B
100
AcDbEntity
  8
0
  6
BYBLOCK
 62
     0
370
    -2
  0
LINE
  5
11
330
B
100
AcDbEntity
  8
0
  6
BYBLOCK
 62
     0
370
    -2
100
AcDbLine
 10
-0.5
 20
0.0
 30
0.0
 11
-1.0
 21
0.0
 31
0.0
  0
ENDBLK
  5
12
330
B
100
AcDbEntity
  8
0
100
AcDbBlockEnd
  0
BLOCK
  5
14
330
13
100
AcDbEntity
  8
0
100
AcDbBlockBegin
  2
_OPEN
 70
     0
 10
0.0
 20
0.0
 30
0.0
  3
_OPEN
  1

  0
LINE
  5
15
330
13
100
AcDbEntity
  8
0
  6
BYBLOCK
 62
     0
370
    -2
100
AcDbLine
 10
-1.0
 20
0.166667
 30
0.0
 11
0.0
 21
0.0
 31
0.0
  0
LINE
  5
16
330
13
100
AcDbEntity
  8
0
  6
BYBLOCK
 62
     0
370
    -2
100
AcDbLine
 10
0.0
 20
0.0
 30
0.0
 11
-1.0
 21
-0.166667
 31
0.0
  0
LINE
  5
17
330
13
100
AcDbEntity
  8
0
  6
BYBLOCK
 62
     0
370
    -2
100
AcDbLine
 10
0.0
 20
0.0
 30
0.0
 11
-1.0
 21
0.0
 31
0.0
  0
ENDBLK
  5
18
330
13
100
AcDbEntity
  8
0
100
AcDbBlockEnd
  0
BLOCK
  5
1A
330
19
100
AcDbEntity
  8
0
100
AcDbBlockBegin
  2
_ORIGIN
 70
     0
 10
0.0
 20
0.0
 30
0.0
  3
_ORIGIN
  1

  0
CIRCLE
  5
1B
330
19
100
AcDbEntity
  8
0
  6
BYBLOCK
 62
     0
370
    -2
100
AcDbCircle
 10
0.0
 20
0.0
 30
0.0
 40
0.5
  0
LINE
  5
1C
330
19
100
AcDbEntity
  8
0
  6
BYBLOCK
 62
     0
370
    -2
100
AcDbLine
 10
0.0
 20
0.0
 30
0.0
 11
-1.0
 21
0.0
 31
0.0
  0
ENDBLK
  5
1D
330
19
100
AcDbEntity
  8
0
100
AcDbBlockEnd
  0
BLOCK
  5
1F
330
1E
100
AcDbEntity
  8
0
100
AcDbBlockBegin
  2
_OPEN30
 70
     0
 10
0.0
 20
0.0
 30
0.0
  3
_OPEN30
  1

  0
LINE
  5
20
330
1E
100
AcDbEntity
  8
0
  6
BYBLOCK
 62
     0
370
    -2
100
AcDbLine
 10
-1.0
 20
0.267949
 30
0.0
 11
0.0
 21
0.0
 31
0.0
  0
LINE
  5
21
330
1E
100
AcDbEntity
  8
0
  6
BYBLOCK
 62
     0
370
    -2
100
AcDbLine
 10
0.0
 20
0.0
 30
0.0
 11
-1.0
 21
-0.267949
 31
0.0
  0
LINE
  5
22
330
1E
100
AcDbEntity
  8
0
  6
BYBLOCK
 62
     0
370
    -2
100
AcDbLine
 10
0.0
 20
0.0
 30
0.0
 11
-1.0
 21
0.0
 31
0.0
  0
ENDBLK
  5
23
330
1E
100
AcDbEntity
  8
0
100
AcDbBlockEnd
  0
BLOCK
  5
25
330
24
100
AcDbEntity
  8
0
100
AcDbBlockBegin
  2
_BOXFILLED
 70
     0
 10
0.0
 20
0.0
 30
0.0
  3
_BOXFILLED
  1

  0
SOLID
  5
26
330
24
100
AcDbEntity
  8
0
  6
BYBLOCK
 62
     0
370
    -2
100
AcDbTrace
 10
-0.5
 20
0.5
 30
0.0
 11
0.5
 21
0.5
 31
0.0
 12
-0.5
 22
-0.5
 32
0.0
 13
0.5
 23
-0.5
 33
0.0
  0
LINE
  5
27
330
24
100
AcDbEntity
  8
0
  6
BYBLOCK
 62
     0
370
    -2
100
AcDbLine
 10
-0.5
 20
0.0
 30
0.0
 11
-1.0
 21
0.0
 31
0.0
  0
ENDBLK
  5
28
330
24
100
AcDbEntity
  8
0
100
AcDbBlockEnd
  0
BLOCK
  5
2A
330
29
100
AcDbEntity
  8
0
100
AcDbBlockBegin
  2
_BOXBLANK
 70
     0
 10
0.0
 20
0.0
 30
0.0
  3
_BOXBLANK
  1

  0
LINE
  5
2B
330
29
100
AcDbEntity
  8
0
  6
BYBLOCK
 62
     0
370
    -2
100
AcDbLine
 10
-0.5
 20
-0.5
 30
0.0
 11
0.5
 21
-0.5
 31
0.0
  0
LINE
  5
2C
330
29
100
AcDbEntity
  8
0
  6
BYBLOCK
 62
     0
370
    -2
100
AcDbLine
 10
0.5
 20
-0.5
 30
0.0
 11
0.5
 21
0.5
 31
0.0
  0
LINE
  5
2D
330
29
100
AcDbEntity
  8
0
  6
BYBLOCK
 62
     0
370
    -2
100
AcDbLine
 10
0.5
 20
0.5
 30
0.0
 11
-0.5
 21
0.5
 31
0.0
  0
LINE
  5
2E
330
29
100
AcDbEntity
  8
0
  6
BYBLOCK
 62
     0
370
    -2
100
AcDbLine
 10
-0.5
 20
0.5
 30
0.0
 11
-0.5
 21
-0.5
 31
0.0
  0
LINE
  5
2F
330
29
100
AcDbEntity
  8
0
  6
BYBLOCK
 62
     0
370
    -2
100
AcDbLine
 10
-0.5
 20
0.0
 30
0.0
 11
-1.0
 21
0.0
 31
0.0
  0
ENDBLK
  5
30
330
29
100
AcDbEntity
  8
0
100
AcDbBlockEnd
  0
BLOCK
  5
32
330
31
100
AcDbEntity
  8
0
100
AcDbBlockBegin
  2
_OBLIQUE
 70
     0
 10
0.0
 20
0.0
 30
0.0
  3
_OBLIQUE
  1

  0
LINE
  5
33
330
31
100
AcDbEntity
  8
0
  6
BYBLOCK
 62
     0
370
    -2
100
AcDbLine
 10
-0.5
 20
-0.5
 30
0.0
 11
0.5
 21
0.5
 31
0.0
  0
ENDBLK
  5
34
330
31
100
AcDbEntity
  8
0
100
AcDbBlockEnd
  0
BLOCK
  5
36
330
35
100
AcDbEntity
  8
0
100
AcDbBlockBegin
  2
_OPEN90
 70
     0
 10
0.0
 20
0.0
 30
0.0
  3
_OPEN90
  1

  0
LINE
  5
37
330
35
100
AcDbEntity
  8
0
  6
BYBLOCK
 62
     0
370
    -2
100
AcDbLine
 10
-0.5
 20
0.5
 30
0.0
 11
0.0
 21
0.0
 31
0.0
  0
LINE
  5
38
330
35
100
AcDbEntity
  8
0
  6
BYBLOCK
 62
     0
370
    -2
100
AcDbLine
 10
0.0
 20
0.0
 30
0.0
 11
-0.5
 21
-0.5
 31
0.0
  0
LINE
  5
39
330
35
100
AcDbEntity
  8
0
  6
BYBLOCK
 62
     0
370
    -2
100
AcDbLine
 10
0.0
 20
0.0
 30
0.0
 11
-1.0
 21
0.0
 31
0.0
  0
ENDBLK
  5
3A
330
35
100
AcDbEntity
  8
0
100
AcDbBlockEnd
  0
BLOCK
  5
3C
330
3B
100
AcDbEntity
  8
0
100
AcDbBlockBegin
  2
_CLOSEDBLANK
 70
     0
 10
0.0
 20
0.0
 30
0.0
  3
_CLOSEDBLANK
  1

  0
LINE
  5
3D
330
3B
100
AcDbEntity
  8
0
  6
BYBLOCK
 62
     0
370
    -2
100
AcDbLine
 10
-1.0
 20
0.1666666666666666
 30
0.0
 11
0.0
 21
0.0
 31
0.0
  0
LINE
  5
3E
330
3B
100
AcDbEntity
  8
0
  6
BYBLOCK
 62
     0
370
    -2
100
AcDbLine
 10
0.0
 20
0.0
 30
0.0
 11
-1.0
 21
-0.1666666666666666
 31
0.0
  0
LINE
  5
3F
330
3B
100
AcDbEntity
  8
0
  6
BYBLOCK
 62
     0
370
    -2
100
AcDbLine
 10
-1.0
 20
0.1666666666666666
 30
0.0
 11
-1.0
 21
-0.1666666666666666
 31
0.0
  0
ENDBLK
  5
40
330
3B
100
AcDbEntity
  8
0
100
AcDbBlockEnd
  0
BLOCK
  5
42
330
41
100
AcDbEntity
  8
0
100
AcDbBlockBegin
  2
_DOTBLANK
 70
     0
 10
0.0
 20
0.0
 30
0.0
  3
_DOTBLANK
  1

  0
CIRCLE
  5
43
330
41
100
AcDbEntity
  8
0
  6
BYBLOCK
 62
     0
370
    -2
100
AcDbCircle
 10
0.0
 20
0.0
 30
0.0
 40
0.5
  0
LINE
  5
44
330
41
100
AcDbEntity
  8
0
  6
BYBLOCK
 62
     0
370
    -2
100
AcDbLine
 10
-0.5
 20
0.0
 30
0.0
 11
-1.0
 21
0.0
 31
0.0
  0
ENDBLK
  5
45
330
41
100
AcDbEntity
  8
0
100
AcDbBlockEnd
  0
ENDSEC
  0
SECTION
  2
ENTITIES
  0
MTEXT
  5
46
100
AcDbEntity
  8
A8
  6
CONTINUOUS
 62
7
100
AcDbMText
 10
9.999997526638502
 20
18.00000076076889
 30
0.000000000000000
 40
3.000000000000000
 41
0.000000000000000
 44
0.6739999771118164
 71
     7
 72
     1
  1
{\H0.94x;{TYPE No.TEH-1046-U1}}
 11
1.000000000000000
 21
0.000000000000000
 31
0.000000000000000
  7
STANDARD
  0
LINE
  5
47
100
AcDbEntity
  8
A4
  6
CONTINUOUS
 62
7
100
AcDbLine
 10
278.8091965751438
 20
217.4807543233691
 30
0.000000000000000
 11
280.4897071169090
 21
216.3040484129802
 31
0.000000000000000
  0
LINE
  5
48
100
AcDbEntity
  8
A4
  6
CONTINUOUS
 62
7
100
AcDbLine
 10
278.8507101169091
 20
213.9633180925833
 30
0.000000000000000
 11
280.4897071169091
 21
216.3040484129802
 31
0.000000000000000
  0
ARC
  5
49
100
AcDbEntity
  8
A4
  6
CONTINUOUS
 62
7
100
AcDbCircle
 10
232.3507101169090
 20
222.6668174129802
 30
0.000000000000000
 40
2.000000000000000
100
AcDbArc
 50
90.00000000000000
 51
180.0000000000000
  0
ARC
  5
4A
100
AcDbEntity
  8
A4
  6
CONTINUOUS
 62
7
100
AcDbCircle
 10
223.3507101169090
 20
184.6668174129802
 30
0.000000000000000
 40
7.000000000000000
100
AcDbArc
 50
270.0000000000000
 51
360.0000000000000
  0
ARC
  5
4B
100
AcDbEntity
  8
A4
  6
CONTINUOUS
 62
7
100
AcDbCircle
 10
223.3507101169090
 20
184.6668174129802
 30
0.000000000000000
 40
3.000000000000000
100
AcDbArc
 50
270.0000000000000
 51
360.0000000000000
  0
ARC
  5
4C
100
AcDbEntity
  8
A4
  6
CONTINUOUS
 62
7
100
AcDbCircle
 10
232.3507101169090
 20
222.6668174129802
 30
0.000000000000000
 40
6.000000000000000
100
AcDbArc
 50
90.00000000000000
 51
180.0000000000000
  0
LINE
  5
4D
100
AcDbEntity
  8
A4
  6
CONTINUOUS
 62
7
100
AcDbLine
 10
232.3507101169090
 20
224.6668174129802
 30
0.000000000000000
 11
270.8507101169090
 21
224.6668174129802
 31
0.000000000000000
  0
LINE
  5
4E
100
AcDbEntity
  8
A4
  6
CONTINUOUS
 62
7
100
AcDbLine
 10
272.3507101169090
 20
224.6668174129802
 30
0.000000000000000
 11
272.3507101169090
 21
228.6668174129802
 31
0.000000000000000
  0
LINE
  5
4F
100
AcDbEntity
  8
A4
  6
CONTINUOUS
 62
7
100
AcDbLine
 10
230.3507101169090
 20
184.6668174129802
 30
0.000000000000000
 11
230.3507101169090
 21
222.6668174129802
 31
0.000000000000000
  0
LINE
  5
50
100
AcDbEntity
  8
A4
  6
CONTINUOUS
 62
7
100
AcDbLine
 10
193.3507101169090
 20
177.6668174129802
 30
0.000000000000000
 11
223.3507101169090
 21
177.6668174129802
 31
0.000000000000000
  0
LINE
  5
51
100
AcDbEntity
  8
A4
  6
CONTINUOUS
 62
7
100
AcDbLine
 10
193.3507101169090
 20
181.6668174129802
 30
0.000000000000000
 11
193.3507101169090
 21
177.6668174129802
 31
0.000000000000000
  0
LINE
  5
52
100
AcDbEntity
  8
A4
  6
CONTINUOUS
 62
7
100
AcDbLine
 10
223.3507101169090
 20
181.6668174129802
 30
0.000000000000000
 11
193.3507101169090
 21
181.6668174129802
 31
0.000000000000000
  0
LINE
  5
53
100
AcDbEntity
  8
A4
  6
CONTINUOUS
 62
7
100
AcDbLine
 10
226.3507101169090
 20
222.6668174129802
 30
0.000000000000000
 11
226.3507101169090
 21
184.6668174129802
 31
0.000000000000000
  0
LINE
  5
54
100
AcDbEntity
  8
A4
  6
CONTINUOUS
 62
7
100
AcDbLine
 10
272.3507101169090
 20
228.6668174129802
 30
0.000000000000000
 11
232.3507101169090
 21
228.6668174129802
 31
0.000000000000000
  0
ARC
  5
55
100
AcDbEntity
  8
A4
  6
CONTINUOUS
 62
7
100
AcDbCircle
 10
270.8507101169090
 20
192.4668174129803
 30
0.000000000000000
 40
8.000000000000000
100
AcDbArc
 50
270.0000000000000
 51
360.0000000000000
  0
ARC
  5
56
100
AcDbEntity
  8
A4
  6
CONTINUOUS
 62
7
100
AcDbCircle
 10
270.8507101169090
 20
192.4668174129803
 30
0.000000000000000
 40
4.000000000000000
100
AcDbArc
 50
270.0000000000000
 51
360.0000000000000
  0
ARC
  5
57
100
AcDbEntity
  8
A4
  6
CONTINUOUS
 62
7
100
AcDbCircle
 10
270.8507101169090
 20
216.6668174129802
 30
0.000000000000000
 40
4.000000000000000
100
AcDbArc
 50
0.000000000000000
 51
90.00000000000000
  0
ARC
  5
58
100
AcDbEntity
  8
A4
  6
CONTINUOUS
 62
7
100
AcDbCircle
 10
270.8507101169090
 20
216.6668174129802
 30
0.000000000000000
 40
8.000000000000000
100
AcDbArc
 50
0.000000000000000
 51
90.00000000000000
  0
LINE
  5
59
100
AcDbEntity
  8
A4
  6
CONTINUOUS
 62
7
100
AcDbLine
 10
232.3507101169090
 20
220.6668174129802
 30
0.000000000000000
 11
270.8507101169090
 21
220.6668174129802
 31
0.000000000000000
  0
LINE
  5
5A
100
AcDbEntity
  8
A4
  6
CONTINUOUS
 62
7
100
AcDbLine
 10
278.8507101169090
 20
192.4668174129803
 30
0.000000000000000
 11
278.8507101169090
 21
216.6668174129802
 31
0.000000000000000
  0
LINE
  5
5B
100
AcDbEntity
  8
A10
  6
CENTER
 62
1
100
AcDbLine
 10
240.3507101169090
 20
216.0172333015537
 30
0.000000000000000
 11
240.3507101169090
 21
238.7645731282315
 31
0.000000000000000
  0
LINE
  5
5C
100
AcDbEntity
  8
A4
  6
CONTINUOUS
 62
7
100
AcDbLine
 10
274.8507101169090
 20
192.4668174129803
 30
0.000000000000000
 11
274.8507101169090
 21
216.6668174129802
 31
0.000000000000000
  0
LINE
  5
5D
100
AcDbEntity
  8
A4
  6
CONTINUOUS
 62
7
100
AcDbLine
 10
232.3507101169090
 20
224.6668174129802
 30
0.000000000000000
 11
272.3507101169090
 21
224.6668174129802
 31
0.000000000000000
  0
LINE
  5
5E
100
AcDbEntity
  8
A12
  6
CONTINUOUS
 62
7
100
AcDbLine
 10
232.3507097369293
 20
224.6668172229905
 30
0.000000000000000
 11
232.3507097369292
 21
220.6668170330007
 31
0.000000000000000
  0
LINE
  5
5F
100
AcDbEntity
  8
A10
  6
CONTINUOUS
 62
7
100
AcDbLine
 10
246.3507104018933
 20
219.9668193592115
 30
0.000000000000000
 11
246.3507104018933
 21
220.6668170330003
 31
0.000000000000000
  0
LINE
  5
60
100
AcDbEntity
  8
A10
  6
CONTINUOUS
 62
7
100
AcDbLine
 10
254.3507107818729
 20
220.6668170330003
 30
0.000000000000000
 11
254.3507107818729
 21
219.9668193592115
 31
0.000000000000000
  0
LINE
  5
61
100
AcDbEntity
  8
A10
  6
CONTINUOUS
 62
7
100
AcDbLine
 10
247.3508104493908
 20
218.9667193117144
 30
0.000000000000000
 11
246.3507104018933
 21
219.9668193592119
 31
0.000000000000000
  0
LINE
  5
62
100
AcDbEntity
  8
A10
  6
CONTINUOUS
 62
7
100
AcDbLine
 10
254.3507107818728
 20
219.9668193592113
 30
0.000000000000000
 11
253.3506107343754
 21
218.9667193117139
 31
0.000000000000000
  0
SPLINE
  5
63
100
AcDbEntity
  8
A10
  6
CONTINUOUS
 62
7
100
AcDbSpline
210
0.000000000000000
220
0.000000000000000
230
1.000000000000000
 70
     8
 71
     3
 72
    25
 73
    21
 74
     0
 42
1.000000000000000e-07
 43
1.000000000000000e-07
 12
-1.000452964035503
 22
-0.03056799533806043
 32
0.000000000000000
 13
-0.03507505095149099
 23
-1.000371128693587
 33
0.000000000000000
 40
0.000000000000000
 40
0.000000000000000
 40
0.000000000000000
 40
0.000000000000000
 40
0.06993923034947934
 40
0.1399525882103234
 40
0.2024987894733845
 40
0.2650136448682609
 40
0.3201516010982342
 40
0.3752874899143571
 40
0.4231104253309178
 40
0.4709123008547672
 40
0.4987807371093934
 40
0.5266433321592560
 40
0.5513570505157137
 40
0.5760715622224828
 40
0.6105672967394684
 40
0.6450808365433868
 40
0.6958220640899958
 40
0.7465790004597215
 40
0.7966936804021844
 40
0.8467539769267288
 40
0.8467539769267288
 40
0.8467539769267288
 40
0.8467539769267288
 10
234.4030601036004
 20
236.6668193117140
 30
0.000000000000000
 10
234.3797364668319
 20
236.6661066776915
 30
0.000000000000000
 10
234.3330644729324
 20
236.6646806543370
 30
0.000000000000000
 10
234.2662859216696
 20
236.6535548896704
 30
0.000000000000000
 10
234.2033879256016
 20
236.6367623652747
 30
0.000000000000000
 10
234.1470980912816
 20
236.6154846699131
 30
0.000000000000000
 10
234.0953104066521
 20
236.5901144220025
 30
0.000000000000000
 10
234.0502130496866
 20
236.5626994190989
 30
0.000000000000000
 10
234.0096586069251
 20
236.5329314343367
 30
0.000000000000000
 10
233.9785854319841
 20
236.5058489416369
 30
0.000000000000000
 10
233.9541860896265
 20
236.4814231684115
 30
0.000000000000000
 10
233.9362630427822
 20
236.4614594113320
 30
0.000000000000000
 10
233.9200773589500
 20
236.4414008673434
 30
0.000000000000000
 10
233.9036392984196
 20
236.4187508466722
 30
0.000000000000000
 10
233.8869120768420
 20
236.3923280098613
 30
0.000000000000000
 10
233.8681011241451
 20
236.3570864551358
 30
0.000000000000000
 10
233.8504432756772
 20
236.3152149500230
 30
0.000000000000000
 10
233.8362432924080
 20
236.2666199306428
 30
0.000000000000000
 10
233.8274663102729
 20
236.2169162978363
 30
0.000000000000000
 10
233.8262950961384
 20
236.1835122464109
 30
0.000000000000000
 10
233.8257098069880
 20
236.1668192879652
 30
0.000000000000000
  0
LINE
  5
64
100
AcDbEntity
  8
A10
  6
CONTINUOUS
 62
7
100
AcDbLine
 10
237.3508099744161
 20
218.9667193117143
 30
0.000000000000000
 11
236.3507099269188
 21
219.9668193592116
 31
0.000000000000000
  0
LINE
  5
65
100
AcDbEntity
  8
A10
  6
CONTINUOUS
 62
7
100
AcDbLine
 10
244.3507103068984
 20
219.9668193592118
 30
0.000000000000000
 11
243.3506102594010
 21
218.9667193117143
 31
0.000000000000000
  0
LINE
  5
66
100
AcDbEntity
  8
A10
  6
CONTINUOUS
 62
7
100
AcDbLine
 10
236.3507099269189
 20
219.9668193592115
 30
0.000000000000000
 11
236.3507099269189
 21
220.6668170330005
 31
0.000000000000000
  0
LINE
  5
67
100
AcDbEntity
  8
A10
  6
CONTINUOUS
 62
7
100
AcDbLine
 10
244.3507103068984
 20
220.6668170330003
 30
0.000000000000000
 11
244.3507103068984
 21
219.9668193592114
 31
0.000000000000000
  0
SPLINE
  5
68
100
AcDbEntity
  8
A10
  6
CONTINUOUS
 62
7
100
AcDbSpline
210
0.000000000000000
220
0.000000000000000
230
1.000000000000000
 70
     8
 71
     3
 72
    11
 73
     7
 74
     0
 42
1.000000000000000e-07
 43
1.000000000000000e-07
 12
0.6629868839645496
 22
-0.7524811116381898
 32
0.000000000000000
 13
0.06328197521906986
 23
-1.000887018250069
 33
0.000000000000000
 40
0.000000000000000
 40
0.000000000000000
 40
0.000000000000000
 40
0.000000000000000
 40
0.05873175515249470
 40
0.1175747327426271
 40
0.1764177103324963
 40
0.2351494654852277
 40
0.2351494654852277
 40
0.2351494654852277
 40
0.2351494654852277
 10
249.5128425864457
 20
236.5789501347705
 30
0.000000000000000
 10
249.5258220475584
 20
236.5642186226353
 30
0.000000000000000
 10
249.5518055494572
 20
236.5347277007704
 30
0.000000000000000
 10
249.5796139919039
 20
236.4823436818731
 30
0.000000000000000
 10
249.5969915486608
 20
236.4256390486557
 30
0.000000000000000
 10
249.5994716691021
 20
236.3864127074300
 30
0.000000000000000
 10
249.6007105562601
 20
236.3668180903329
 30
0.000000000000000
  0
SPLINE
  5
69
100
AcDbEntity
  8
A10
  6
CONTINUOUS
 62
7
100
AcDbSpline
210
0.000000000000000
220
0.000000000000000
230
1.000000000000000
 70
     8
 71
     3
 72
    18
 73
    14
 74
     0
 42
1.000000000000000e-07
 43
1.000000000000000e-07
 12
-0.5404261172516271
 22
-0.8721927215228789
 32
0.000000000000000
 13
-0.0006625351270486135
 23
-0.9999983336128935
 33
0.000000000000000
 40
0.000000000000000
 40
0.000000000000000
 40
0.000000000000000
 40
0.000000000000000
 40
0.002547142374595569
 40
0.01181523778710144
 40
0.01667290733079017
 40
0.02214828103946511
 40
0.03735376481339121
 40
0.06201018580984147
 40
0.09292214082107511
 40
0.1194884572501695
 40
0.1446840760604816
 40
0.1718291751176384
 40
0.2007002098390814
 40
0.2007002098390814
 40
0.2007002098390814
 40
0.2007002098390814
 10
249.6004566573147
 20
236.3671551314787
 30
0.000000000000000
 10
249.5999978098935
 20
236.3664145984654
 30
0.000000000000000
 10
249.5978693888662
 20
236.3629795436647
 30
0.000000000000000
 10
249.6008180576941
 20
236.3570554374014
 30
0.000000000000000
 10
249.5992744960677
 20
236.3506500276895
 30
0.000000000000000
 10
249.5993421622211
 20
236.3421006316825
 30
0.000000000000000
 10
249.5999331326639
 20
236.3270248801641
 30
0.000000000000000
 10
249.6000610526730
 20
236.3034147662529
 30
0.000000000000000
 10
249.5995349131865
 20
236.2760463764029
 30
0.000000000000000
 10
249.5994929071435
 20
236.2484861819407
 30
0.000000000000000
 10
249.5996078294252
 20
236.2221845308463
 30
0.000000000000000
 10
249.5996026914008
 20
236.1951137558142
 30
0.000000000000000
 10
249.5995903205151
 20
236.1764417423360
 30
0.000000000000000
 10
249.5995839444902
 20
236.1668180801323
 30
0.000000000000000
  0
SPLINE
  5
6A
100
AcDbEntity
  8
A10
  6
CONTINUOUS
 62
7
100
AcDbSpline
210
0.000000000000000
220
0.000000000000000
230
1.000000000000000
 70
     8
 71
     3
 72
    13
 73
     9
 74
     0
 42
1.000000000000000e-07
 43
1.000000000000000e-07
 12
1.000424534788181
 22
-0.03146962368191453
 32
0.000000000000000
 13
0.7508192705809051
 23
-0.6639566876729077
 33
0.000000000000000
 40
0.000000000000000
 40
0.000000000000000
 40
0.000000000000000
 40
0.000000000000000
 40
0.03281820243751101
 40
0.06566927371194151
 40
0.09686717868694503
 40
0.1280792686827730
 40
0.1816656027796513
 40
0.2351977833547815
 40
0.2351977833547815
 40
0.2351977833547815
 40
0.2351977833547815
 10
249.3007105420138
 20
236.6649469636969
 30
0.000000000000000
 10
249.3116545869825
 20
236.6646027048700
 30
0.000000000000000
 10
249.3335536378502
 20
236.6639138424261
 30
0.000000000000000
 10
249.3654974446542
 20
236.6586447869661
 30
0.000000000000000
 10
249.3962490160543
 20
236.6505266749745
 30
0.000000000000000
 10
249.4323758644912
 20
236.6366164020630
 30
0.000000000000000
 10
249.4730565462505
 20
236.6140841853934
 30
0.000000000000000
 10
249.4998654279348
 20
236.5903768339969
 30
0.000000000000000
 10
249.5132630921921
 20
236.5785291508974
 30
0.000000000000000
  0
SPLINE
  5
6B
100
AcDbEntity
  8
A10
  6
CONTINUOUS
 62
7
100
AcDbSpline
210
0.000000000000000
220
0.000000000000000
230
1.000000000000000
 70
     8
 71
     3
 72
    21
 73
    17
 74
     0
 42
1.000000000000000e-07
 43
1.000000000000000e-07
 12
1.000455124583823
 22
-0.03220403601517319
 32
0.000000000000000
 13
0.03474932444987644
 23
-1.000276000881058
 33
0.000000000000000
 40
0.000000000000000
 40
0.000000000000000
 40
0.000000000000000
 40
0.000000000000000
 40
0.07291564118681530
 40
0.1458889007738685
 40
0.2072776021633642
 40
0.2687084969958781
 40
0.3570784477732269
 40
0.4453436965611812
 40
0.4989957292426453
 40
0.5526269760999115
 40
0.6036808694144374
 40
0.6547327096235548
 40
0.7036293379941585
 40
0.7525245005972246
 40
0.7997629232441595
 40
0.8469569262582388
 40
0.8469569262582388
 40
0.8469569262582388
 40
0.8469569262582388
 10
256.2983606051914
 20
236.6668181045913
 30
0.000000000000000
 10
256.3226768808206
 20
236.6660353786130
 30
0.000000000000000
 10
256.3713286469533
 20
236.6644693081414
 30
0.000000000000000
 10
256.4396304206282
 20
236.6526867290014
 30
0.000000000000000
 10
256.5026520176241
 20
236.6354456222298
 30
0.000000000000000
 10
256.5685181762899
 20
236.6102924753770
 30
0.000000000000000
 10
256.6390849418499
 20
236.5734048840299
 30
0.000000000000000
 10
256.7012666070516
 20
236.5277891636781
 30
0.000000000000000
 10
256.7481843046889
 20
236.4823828680219
 30
0.000000000000000
 10
256.7821298109884
 20
236.4418360956831
 30
0.000000000000000
 10
256.8111570845024
 20
236.3986864249682
 30
0.000000000000000
 10
256.8347515496475
 20
236.3541173794492
 30
0.000000000000000
 10
256.8532101505311
 20
236.3079567419091
 30
0.000000000000000
 10
256.8661377535002
 20
236.2612897348822
 30
0.000000000000000
 10
256.8740704275638
 20
236.2140399200750
 30
0.000000000000000
 10
256.8751642485629
 20
236.1825537570435
 30
0.000000000000000
 10
256.8757109018038
 20
236.1668180808433
 30
0.000000000000000
  0
SPLINE
  5
6C
100
AcDbEntity
  8
A10
  6
CONTINUOUS
 62
7
100
AcDbSpline
210
0.000000000000000
220
0.000000000000000
230
1.000000000000000
 70
     8
 71
     3
 72
    21
 73
    17
 74
     0
 42
1.000000000000000e-07
 43
1.000000000000000e-07
 12
0.9980170634626120
 22
-0.09167350748248282
 32
0.000000000000000
 13
0.01647158410196425
 23
-1.000114809643492
 33
0.000000000000000
 40
0.000000000000000
 40
0.000000000000000
 40
0.000000000000000
 40
0.000000000000000
 40
0.03707338868445802
 40
0.07412532626362181
 40
0.1090540656865260
 40
0.1441489062379139
 40
0.2046650064164589
 40
0.2651059881446174
 40
0.3082812652353332
 40
0.3514595218230731
 40
0.3970832097130256
 40
0.4426963331961068
 40
0.4896166130974245
 40
0.5365457581592991
 40
0.5835199882750318
 40
0.6304767054080367
 40
0.6304767054080367
 40
0.6304767054080367
 40
0.6304767054080367
 10
253.3245355985373
 20
236.6668181045912
 30
0.000000000000000
 10
253.3368688900398
 20
236.6656852220662
 30
0.000000000000000
 10
253.3615283368551
 20
236.6634201125157
 30
0.000000000000000
 10
253.3964438261942
 20
236.6521470857601
 30
0.000000000000000
 10
253.4277700464397
 20
236.6346943920873
 30
0.000000000000000
 10
253.4621500577268
 20
236.6078385154044
 30
0.000000000000000
 10
253.4982756701033
 20
236.5700362793645
 30
0.000000000000000
 10
253.5291689747451
 20
236.5245977798301
 30
0.000000000000000
 10
253.5512913348018
 20
236.4808724496429
 30
0.000000000000000
 10
253.5677188818900
 20
236.4400190469362
 30
0.000000000000000
 10
253.5816542630396
 20
236.3974039144900
 30
0.000000000000000
 10
253.5931674678795
 20
236.3527847811415
 30
0.000000000000000
 10
253.6020957528881
 20
236.3071334506141
 30
0.000000000000000
 10
253.6084224663327
 20
236.2606021529755
 30
0.000000000000000
 10
253.6124371991730
 20
236.2137860273908
 30
0.000000000000000
 10
253.6129529296718
 20
236.1824721169148
 30
0.000000000000000
 10
253.6132107468436
 20
236.1668180808425
 30
0.000000000000000
  0
SPLINE
  5
6D
100
AcDbEntity
  8
A10
  6
CONTINUOUS
 62
7
100
AcDbSpline
210
0.000000000000000
220
0.000000000000000
230
1.000000000000000
 70
     8
 71
     3
 72
    25
 73
    21
 74
     0
 42
1.000000000000000e-07
 43
1.000000000000000e-07
 12
-0.9985784791897458
 22
-0.08446287828701315
 32
0.000000000000000
 13
-0.01671474937393214
 23
-1.000161619538630
 33
0.000000000000000
 40
0.000000000000000
 40
0.000000000000000
 40
0.000000000000000
 40
0.000000000000000
 40
0.03607935570474653
 40
0.07216975093140107
 40
0.1079929706524868
 40
0.1439142434601425
 40
0.1797881970699201
 40
0.2156191936704600
 40
0.2505902388434057
 40
0.2855663602457300
 40
0.3077974687940021
 40
0.3300222585309814
 40
0.3509640044890196
 40
0.3719078369052484
 40
0.4029514472102789
 40
0.4339969055101320
 40
0.4825288835186889
 40
0.5310780069251991
 40
0.5808852298028871
 40
0.6306692764681844
 40
0.6306692764681844
 40
0.6306692764681844
 40
0.6306692764681844
 10
247.3768855852290
 20
236.6668181045912
 30
0.000000000000000
 10
247.3648762291791
 20
236.6658023158480
 30
0.000000000000000
 10
247.3408538424694
 20
236.6637704275517
 30
0.000000000000000
 10
247.3061577398173
 20
236.6530823926883
 30
0.000000000000000
 10
247.2742741045104
 20
236.6361112092953
 30
0.000000000000000
 10
247.2456723317960
 20
236.6142495841075
 30
0.000000000000000
 10
247.2200702632238
 20
236.5890059390135
 30
0.000000000000000
 10
247.1976618129627
 20
236.5613109175251
 30
0.000000000000000
 10
247.1781839967830
 20
236.5318666652433
 30
0.000000000000000
 10
247.1633715285366
 20
236.5049116138484
 30
0.000000000000000
 10
247.1519608239703
 20
236.4810120602526
 30
0.000000000000000
 10
247.1433585519612
 20
236.4609760381599
 30
0.000000000000000
 10
247.1356059686523
 20
236.4410578635493
 30
0.000000000000000
 10
247.1274952193705
 20
236.4181376106321
 30
0.000000000000000
 10
247.1191975847200
 20
236.3917235867195
 30
0.000000000000000
 10
247.1096392358868
 20
236.3561006826926
 30
0.000000000000000
 10
247.1007716472129
 20
236.3142886451717
 30
0.000000000000000
 10
247.0936170067996
 20
236.2658303157650
 30
0.000000000000000
 10
247.0890426939138
 20
236.2166179002349
 30
0.000000000000000
 10
247.0884878128772
 20
236.1834154450891
 30
0.000000000000000
 10
247.0882104369230
 20
236.1668180808425
 30
0.000000000000000
  0
ARC
  5
6E
100
AcDbEntity
  8
A10
  6
CONTINUOUS
 62
7
100
AcDbCircle
 10
251.4007106417555
 20
236.3668180903420
 30
0.000000000000000
 40
0.3000000142492061
100
AcDbArc
 50
89.99999999999410
 51
180.0000384464280
  0
ARC
  5
6F
100
AcDbEntity
  8
A10
  6
CONTINUOUS
 62
7
100
AcDbCircle
 10
258.8007109932366
 20
229.2668177531102
 30
0.000000000000000
 40
0.3000000142492364
100
AcDbArc
 50
270.0000000000001
 51
359.9999999999989
  0
LINE
  5
70
100
AcDbEntity
  8
A10
  6
CONTINUOUS
 62
7
100
AcDbLine
 10
258.8007107708285
 20
228.9668177389039
 30
0.000000000000000
 11
258.8007107708285
 21
228.6668177317362
 31
0.000000000000000
  0
LINE
  5
71
100
AcDbEntity
  8
A10
  6
CONTINUOUS
 62
7
100
AcDbLine
 10
249.3007105420108
 20
236.6668181045915
 30
0.000000000000000
 11
249.3217743018675
 21
236.6660794704889
 31
0.000000000000000
  0
LINE
  5
72
100
AcDbEntity
  8
A10
  6
CONTINUOUS
 62
7
100
AcDbLine
 10
249.6007105562598
 20
236.3658036972749
 30
0.000000000000000
 11
249.6007105562598
 21
236.3589644563653
 31
0.000000000000000
  0
LINE
  5
73
100
AcDbEntity
  8
A10
  6
CONTINUOUS
 62
7
100
AcDbLine
 10
251.1007106275061
 20
236.3668587474198
 30
0.000000000000000
 11
251.1007106275061
 21
236.1668180808425
 31
0.000000000000000
  0
LINE
  5
74
100
AcDbEntity
  8
A10
  6
CONTINUOUS
 62
7
100
AcDbLine
 10
249.6007105562600
 20
234.1668179858477
 30
0.000000000000000
 11
251.1007106275061
 21
234.1668179858477
 31
0.000000000000000
  0
LINE
  5
75
100
AcDbEntity
  8
A10
  6
CONTINUOUS
 62
7
100
AcDbLine
 10
251.1007106275061
 20
234.1668179858476
 30
0.000000000000000
 11
251.1007106275061
 21
236.1668180808425
 31
0.000000000000000
  0
LINE
  5
76
100
AcDbEntity
  8
A10
  6
CONTINUOUS
 62
7
100
AcDbLine
 10
247.0882104369226
 20
236.1668180808423
 30
0.000000000000000
 11
247.0882104369226
 21
232.6668179146012
 31
0.000000000000000
  0
LINE
  5
77
100
AcDbEntity
  8
A10
  6
CONTINUOUS
 62
7
100
AcDbLine
 10
256.8757109018039
 20
236.1668180808425
 30
0.000000000000000
 11
256.8757109018041
 21
232.6668179146015
 31
0.000000000000000
  0
LINE
  5
78
100
AcDbEntity
  8
A10
  6
CONTINUOUS
 62
7
100
AcDbLine
 10
253.6132107468435
 20
236.1668180808422
 30
0.000000000000000
 11
253.6132107468437
 21
232.6668179146011
 31
0.000000000000000
  0
LINE
  5
79
100
AcDbEntity
  8
A10
  6
CONTINUOUS
 62
7
100
AcDbLine
 10
249.6007105562599
 20
236.1668180808425
 30
0.000000000000000
 11
249.6007105562600
 21
234.1668179858476
 31
0.000000000000000
  0
LINE
  5
7A
100
AcDbEntity
  8
A10
  6
CONTINUOUS
 62
7
100
AcDbLine
 10
249.3007105420107
 20
236.6668181045912
 30
0.000000000000000
 11
249.3007105420107
 21
236.6649712713339
 31
0.000000000000000
  0
LINE
  5
7B
100
AcDbEntity
  8
A10
  6
CONTINUOUS
 62
7
100
AcDbLine
 10
259.1007110074858
 20
229.9668177863583
 30
0.000000000000000
 11
259.1007110074858
 21
229.2668177531101
 31
0.000000000000000
  0
LINE
  5
7C
100
AcDbEntity
  8
A10
  6
CONTINUOUS
 62
7
100
AcDbLine
 10
256.8757109018039
 20
232.6668179146016
 30
0.000000000000000
 11
259.1007110074857
 21
229.9668177863582
 31
0.000000000000000
  0
SPLINE
  5
7D
100
AcDbEntity
  8
A10
  6
CONTINUOUS
 62
7
100
AcDbSpline
210
0.000000000000000
220
0.000000000000000
230
1.000000000000000
 70
     8
 71
     3
 72
    11
 73
     7
 74
     0
 42
1.000000000000000e-07
 43
1.000000000000000e-07
 12
0.6629868839645496
 22
-0.7524811116400087
 32
0.000000000000000
 13
0.06328197521906986
 23
-1.000887018251888
 33
0.000000000000000
 40
0.000000000000000
 40
0.000000000000000
 40
0.000000000000000
 40
0.000000000000000
 40
0.05873175515237884
 40
0.1175747327425692
 40
0.1764177103327539
 40
0.2351494654853259
 40
0.2351494654853259
 40
0.2351494654853259
 40
0.2351494654853259
 10
239.5128421114712
 20
236.5789501347703
 30
0.000000000000000
 10
239.5258215725839
 20
236.5642186226351
 30
0.000000000000000
 10
239.5518050744824
 20
236.5347277007702
 30
0.000000000000000
 10
239.5796135169296
 20
236.4823436818733
 30
0.000000000000000
 10
239.5969910736867
 20
236.4256390486557
 30
0.000000000000000
 10
239.5994711941275
 20
236.3864127074299
 30
0.000000000000000
 10
239.6007100812856
 20
236.3668180903328
 30
0.000000000000000
  0
SPLINE
  5
7E
100
AcDbEntity
  8
A10
  6
CONTINUOUS
 62
7
100
AcDbSpline
210
0.000000000000000
220
0.000000000000000
230
1.000000000000000
 70
     8
 71
     3
 72
    18
 73
    14
 74
     0
 42
1.000000000000000e-07
 43
1.000000000000000e-07
 12
-0.5404261170770042
 22
-0.8721927216975018
 32
0.000000000000000
 13
-0.0006625351488764863
 23
-0.9999983336128935
 33
0.000000000000000
 40
0.000000000000000
 40
0.000000000000000
 40
0.000000000000000
 40
0.000000000000000
 40
0.002547142374152346
 40
0.01181523778649329
 40
0.01667290733016342
 40
0.02214828103878709
 40
0.03735376481304793
 40
0.06201018580916112
 40
0.09292214082061950
 40
0.1194884572493741
 40
0.1446840760596865
 40
0.1718291751171275
 40
0.2007002098385706
 40
0.2007002098385706
 40
0.2007002098385706
 40
0.2007002098385706
 10
239.6004561823402
 20
236.3671551314787
 30
0.000000000000000
 10
239.5999973349192
 20
236.3664145984654
 30
0.000000000000000
 10
239.5978689138931
 20
236.3629795436645
 30
0.000000000000000
 10
239.6008175827183
 20
236.3570554374016
 30
0.000000000000000
 10
239.5992740210936
 20
236.3506500276895
 30
0.000000000000000
 10
239.5993416872461
 20
236.3421006316825
 30
0.000000000000000
 10
239.5999326576894
 20
236.3270248801643
 30
0.000000000000000
 10
239.6000605776985
 20
236.3034147662526
 30
0.000000000000000
 10
239.5995344382127
 20
236.2760463764033
 30
0.000000000000000
 10
239.5994924321690
 20
236.2484861819407
 30
0.000000000000000
 10
239.5996073544507
 20
236.2221845308463
 30
0.000000000000000
 10
239.5996022164265
 20
236.1951137558142
 30
0.000000000000000
 10
239.5995898455408
 20
236.1764417423360
 30
0.000000000000000
 10
239.5995834695157
 20
236.1668180801323
 30
0.000000000000000
  0
SPLINE
  5
7F
100
AcDbEntity
  8
A10
  6
CONTINUOUS
 62
7
100
AcDbSpline
210
0.000000000000000
220
0.000000000000000
230
1.000000000000000
 70
     8
 71
     3
 72
    13
 73
     9
 74
     0
 42
1.000000000000000e-07
 43
1.000000000000000e-07
 12
1.000424534788181
 22
-0.03146962369282846
 32
0.000000000000000
 13
0.7508192705881811
 23
-0.6639566876747267
 33
0.000000000000000
 40
0.000000000000000
 40
0.000000000000000
 40
0.000000000000000
 40
0.000000000000000
 40
0.03281820243746639
 40
0.06566927371196196
 40
0.09686717868739017
 40
0.1280792686824795
 40
0.1816656027792183
 40
0.2351977833547407
 40
0.2351977833547407
 40
0.2351977833547407
 40
0.2351977833547407
 10
239.3007100670393
 20
236.6649469636968
 30
0.000000000000000
 10
239.3116541120080
 20
236.6646027048698
 30
0.000000000000000
 10
239.3335531628757
 20
236.6639138424257
 30
0.000000000000000
 10
239.3654969696800
 20
236.6586447869661
 30
0.000000000000000
 10
239.3962485410798
 20
236.6505266749743
 30
0.000000000000000
 10
239.4323753895167
 20
236.6366164020630
 30
0.000000000000000
 10
239.4730560712760
 20
236.6140841853937
 30
0.000000000000000
 10
239.4998649529600
 20
236.5903768339969
 30
0.000000000000000
 10
239.5132626172176
 20
236.5785291508973
 30
0.000000000000000
  0
SPLINE
  5
80
100
AcDbEntity
  8
A10
  6
CONTINUOUS
 62
7
100
AcDbSpline
210
0.000000000000000
220
0.000000000000000
230
1.000000000000000
 70
     8
 71
     3
 72
    21
 73
    17
 74
     0
 42
1.000000000000000e-07
 43
1.000000000000000e-07
 12
0.9980170634589740
 22
-0.09167350748248282
 32
0.000000000000000
 13
0.01647158408741234
 23
-1.000114809647130
 33
0.000000000000000
 40
0.000000000000000
 40
0.000000000000000
 40
0.000000000000000
 40
0.000000000000000
 40
0.03707338868469809
 40
0.07412532626368659
 40
0.1090540656864912
 40
0.1441489062378196
 40
0.2046650064167208
 40
0.2651059881447112
 40
0.3082812652353484
 40
0.3514595218228974
 40
0.3970832097127606
 40
0.4426963331960515
 40
0.4896166130971351
 40
0.5365457581592757
 40
0.5835199882749234
 40
0.6304767054080355
 40
0.6304767054080355
 40
0.6304767054080355
 40
0.6304767054080355
 10
243.3245351235628
 20
236.6668181045911
 30
0.000000000000000
 10
243.3368684150653
 20
236.6656852220661
 30
0.000000000000000
 10
243.3615278618806
 20
236.6634201125155
 30
0.000000000000000
 10
243.3964433512199
 20
236.6521470857603
 30
0.000000000000000
 10
243.4277695714654
 20
236.6346943920878
 30
0.000000000000000
 10
243.4621495827514
 20
236.6078385154035
 30
0.000000000000000
 10
243.4982751951288
 20
236.5700362793644
 30
0.000000000000000
 10
243.5291684997710
 20
236.5245977798301
 30
0.000000000000000
 10
243.5512908598273
 20
236.4808724496430
 30
0.000000000000000
 10
243.5677184069152
 20
236.4400190469363
 30
0.000000000000000
 10
243.5816537880644
 20
236.3974039144900
 30
0.000000000000000
 10
243.5931669929053
 20
236.3527847811417
 30
0.000000000000000
 10
243.6020952779136
 20
236.3071334506140
 30
0.000000000000000
 10
243.6084219913578
 20
236.2606021529756
 30
0.000000000000000
 10
243.6124367241989
 20
236.2137860273908
 30
0.000000000000000
 10
243.6129524546975
 20
236.1824721169148
 30
0.000000000000000
 10
243.6132102718691
 20
236.1668180808424
 30
0.000000000000000
  0
SPLINE
  5
81
100
AcDbEntity
  8
A10
  6
CONTINUOUS
 62
7
100
AcDbSpline
210
0.000000000000000
220
0.000000000000000
230
1.000000000000000
 70
     8
 71
     3
 72
    25
 73
    21
 74
     0
 42
1.000000000000000e-07
 43
1.000000000000000e-07
 12
-0.9985784791897458
 22
-0.08446287826882326
 32
0.000000000000000
 13
-0.01671474936119921
 23
-1.000161619542268
 33
0.000000000000000
 40
0.000000000000000
 40
0.000000000000000
 40
0.000000000000000
 40
0.000000000000000
 40
0.03607935570479615
 40
0.07216975093160904
 40
0.1079929706524698
 40
0.1439142434598412
 40
0.1797881970701883
 40
0.2156191936701878
 40
0.2505902388433711
 40
0.2855663602455787
 40
0.3077974687939780
 40
0.3300222585307114
 40
0.3509640044886168
 40
0.3719078369052017
 40
0.4029514472102834
 40
0.4339969055100561
 40
0.4825288835182926
 40
0.5310780069252072
 40
0.5808852298030227
 40
0.6306692764681929
 40
0.6306692764681929
 40
0.6306692764681929
 40
0.6306692764681929
 10
237.3768851102545
 20
236.6668181045911
 30
0.000000000000000
 10
237.3648757542046
 20
236.6658023158481
 30
0.000000000000000
 10
237.3408533674949
 20
236.6637704275520
 30
0.000000000000000
 10
237.3061572648428
 20
236.6530823926880
 30
0.000000000000000
 10
237.2742736295361
 20
236.6361112092952
 30
0.000000000000000
 10
237.2456718568217
 20
236.6142495841070
 30
0.000000000000000
 10
237.2200697882490
 20
236.5890059390140
 30
0.000000000000000
 10
237.1976613379875
 20
236.5613109175258
 30
0.000000000000000
 10
237.1781835218089
 20
236.5318666652431
 30
0.000000000000000
 10
237.1633710535618
 20
236.5049116138487
 30
0.000000000000000
 10
237.1519603489958
 20
236.4810120602526
 30
0.000000000000000
 10
237.1433580769863
 20
236.4609760381604
 30
0.000000000000000
 10
237.1356054936780
 20
236.4410578635494
 30
0.000000000000000
 10
237.1274947443965
 20
236.4181376106322
 30
0.000000000000000
 10
237.1191971097458
 20
236.3917235867195
 30
0.000000000000000
 10
237.1096387609120
 20
236.3561006826926
 30
0.000000000000000
 10
237.1007711722395
 20
236.3142886451714
 30
0.000000000000000
 10
237.0936165318255
 20
236.2658303157650
 30
0.000000000000000
 10
237.0890422189389
 20
236.2166179002349
 30
0.000000000000000
 10
237.0884873379025
 20
236.1834154450890
 30
0.000000000000000
 10
237.0882099619485
 20
236.1668180808424
 30
0.000000000000000
  0
ARC
  5
82
100
AcDbEntity
  8
A10
  6
CONTINUOUS
 62
7
100
AcDbCircle
 10
241.4007101667810
 20
236.3668180903419
 30
0.000000000000000
 40
0.3000000142492088
100
AcDbArc
 50
89.99999999999450
 51
180.0000384464280
  0
ARC
  5
83
100
AcDbEntity
  8
A10
  6
CONTINUOUS
 62
7
100
AcDbCircle
 10
231.9007097155552
 20
229.2668177531100
 30
0.000000000000000
 40
0.3000000142492364
100
AcDbArc
 50
180.0000000000014
 51
269.9993225440115
  0
LINE
  5
84
100
AcDbEntity
  8
A10
  6
CONTINUOUS
 62
7
100
AcDbLine
 10
231.9007098962615
 20
228.9668177389038
 30
0.000000000000000
 11
231.9007098962615
 21
228.6668177317362
 31
0.000000000000000
  0
LINE
  5
85
100
AcDbEntity
  8
A10
  6
CONTINUOUS
 62
7
100
AcDbLine
 10
239.3007100670363
 20
236.6668181045914
 30
0.000000000000000
 11
239.3217738268930
 21
236.6660794704888
 31
0.000000000000000
  0
LINE
  5
86
100
AcDbEntity
  8
A10
  6
CONTINUOUS
 62
7
100
AcDbLine
 10
239.6007100812853
 20
236.3658036972748
 30
0.000000000000000
 11
239.6007100812853
 21
236.3589644563652
 31
0.000000000000000
  0
LINE
  5
87
100
AcDbEntity
  8
A10
  6
CONTINUOUS
 62
7
100
AcDbLine
 10
239.5995947552041
 20
236.1668180797945
 30
0.000000000000000
 11
239.6006458485951
 21
236.1668180797945
 31
0.000000000000000
  0
LINE
  5
88
100
AcDbEntity
  8
A10
  6
CONTINUOUS
 62
7
100
AcDbLine
 10
241.1007101525317
 20
236.3668587474198
 30
0.000000000000000
 11
241.1007101525317
 21
236.1668180808424
 31
0.000000000000000
  0
LINE
  5
89
100
AcDbEntity
  8
A10
  6
CONTINUOUS
 62
7
100
AcDbLine
 10
233.8257098069878
 20
236.1668180808423
 30
0.000000000000000
 11
233.8257098069876
 21
232.6668179146012
 31
0.000000000000000
  0
LINE
  5
8A
100
AcDbEntity
  8
A10
  6
CONTINUOUS
 62
7
100
AcDbLine
 10
243.6132102718690
 20
236.1668180808425
 30
0.000000000000000
 11
243.6132102718691
 21
232.6668179146014
 31
0.000000000000000
  0
LINE
  5
8B
100
AcDbEntity
  8
A10
  6
CONTINUOUS
 62
7
100
AcDbLine
 10
239.6007100812855
 20
234.1668179858476
 30
0.000000000000000
 11
241.1007101525317
 21
234.1668179858476
 31
0.000000000000000
  0
LINE
  5
8C
100
AcDbEntity
  8
A10
  6
CONTINUOUS
 62
7
100
AcDbLine
 10
241.1007101525317
 20
234.1668179858475
 30
0.000000000000000
 11
241.1007101525317
 21
236.1668180808424
 31
0.000000000000000
  0
LINE
  5
8D
100
AcDbEntity
  8
A10
  6
CONTINUOUS
 62
7
100
AcDbLine
 10
239.6007100812855
 20
236.1668180808424
 30
0.000000000000000
 11
239.6007100812855
 21
234.1668179858475
 31
0.000000000000000
  0
LINE
  5
8E
100
AcDbEntity
  8
A10
  6
CONTINUOUS
 62
7
100
AcDbLine
 10
237.0882099619481
 20
236.1668180808421
 30
0.000000000000000
 11
237.0882099619481
 21
232.6668179146010
 31
0.000000000000000
  0
LINE
  5
8F
100
AcDbEntity
  8
A10
  6
CONTINUOUS
 62
7
100
AcDbLine
 10
239.3007100670362
 20
236.6668181045912
 30
0.000000000000000
 11
239.3007100670362
 21
236.6649712713338
 31
0.000000000000000
  0
LINE
  5
90
100
AcDbEntity
  8
A10
  6
CONTINUOUS
 62
7
100
AcDbLine
 10
231.6007097013061
 20
229.9668177863581
 30
0.000000000000000
 11
233.8257098069880
 21
232.6668179146017
 31
0.000000000000000
  0
LINE
  5
91
100
AcDbEntity
  8
A10
  6
CONTINUOUS
 62
7
100
AcDbLine
 10
231.6007097013059
 20
229.2668177531100
 30
0.000000000000000
 11
231.6007097013059
 21
229.9668177863580
 31
0.000000000000000
  0
LINE
  5
92
100
AcDbEntity
  8
A10
  6
CONTINUOUS
 62
7
100
AcDbLine
 10
231.6007097013060
 20
229.9668177863581
 30
0.000000000000000
 11
259.1007110074859
 21
229.9668177863583
 31
0.000000000000000
  0
LINE
  5
93
100
AcDbEntity
  8
A10
  6
CONTINUOUS
 62
7
100
AcDbLine
 10
233.8257098069875
 20
232.6668179146009
 30
0.000000000000000
 11
256.8757109018043
 21
232.6668179146013
 31
0.000000000000000
  0
LINE
  5
94
100
AcDbEntity
  8
A10
  6
CONTINUOUS
 62
7
100
AcDbLine
 10
251.4007106417555
 20
236.6668181045912
 30
0.000000000000000
 11
256.2983606051914
 21
236.6668181045912
 31
0.000000000000000
  0
SPLINE
  5
95
100
AcDbEntity
  8
A10
  6
CONTINUOUS
 62
7
100
AcDbSpline
210
0.000000000000000
220
0.000000000000000
230
1.000000000000000
 70
     8
 71
     3
 72
    25
 73
    21
 74
     0
 42
1.000000000000000e-07
 43
1.000000000000000e-07
 12
-1.000452964035503
 22
-0.03056799533806043
 32
0.000000000000000
 13
-0.03507505095149099
 23
-1.000371128695406
 33
0.000000000000000
 40
0.000000000000000
 40
0.000000000000000
 40
0.000000000000000
 40
0.000000000000000
 40
0.06993923034947934
 40
0.1399525882103234
 40
0.2024987894733845
 40
0.2650136448682609
 40
0.3201516010982342
 40
0.3752874899143571
 40
0.4231104253309178
 40
0.4709123008547672
 40
0.4987807371093934
 40
0.5266433321592560
 40
0.5513570505157137
 40
0.5760715622224828
 40
0.6105672967394684
 40
0.6450808365433868
 40
0.6958220640899958
 40
0.7465790004597215
 40
0.7966936804021844
 40
0.8467539769267288
 40
0.8467539769267288
 40
0.8467539769267288
 40
0.8467539769267288
 10
244.4030605785749
 20
236.6668181045909
 30
0.000000000000000
 10
244.3797369418064
 20
236.6661054705685
 30
0.000000000000000
 10
244.3330649479069
 20
236.6646794472140
 30
0.000000000000000
 10
244.2662863966441
 20
236.6535536825473
 30
0.000000000000000
 10
244.2033884005762
 20
236.6367611581518
 30
0.000000000000000
 10
244.1470985662561
 20
236.6154834627900
 30
0.000000000000000
 10
244.0953108816266
 20
236.5901132148794
 30
0.000000000000000
 10
244.0502135246611
 20
236.5626982119759
 30
0.000000000000000
 10
244.0096590818996
 20
236.5329302272137
 30
0.000000000000000
 10
243.9785859069586
 20
236.5058477345139
 30
0.000000000000000
 10
243.9541865646011
 20
236.4814219612885
 30
0.000000000000000
 10
243.9362635177567
 20
236.4614582042089
 30
0.000000000000000
 10
243.9200778339246
 20
236.4413996602203
 30
0.000000000000000
 10
243.9036397733942
 20
236.4187496395491
 30
0.000000000000000
 10
243.8869125518165
 20
236.3923268027382
 30
0.000000000000000
 10
243.8681015991197
 20
236.3570852480127
 30
0.000000000000000
 10
243.8504437506517
 20
236.3152137428999
 30
0.000000000000000
 10
243.8362437673825
 20
236.2666187235197
 30
0.000000000000000
 10
243.8274667852475
 20
236.2169150907132
 30
0.000000000000000
 10
243.8262955711130
 20
236.1835110392878
 30
0.000000000000000
 10
243.8257102819625
 20
236.1668180808421
 30
0.000000000000000
  0
LINE
  5
96
100
AcDbEntity
  8
A10
  6
CONTINUOUS
 62
7
100
AcDbLine
 10
243.8257102819623
 20
236.1668180808420
 30
0.000000000000000
 11
243.8257102819621
 21
232.6668179146010
 31
0.000000000000000
  0
LINE
  5
97
100
AcDbEntity
  8
A10
  6
CONTINUOUS
 62
7
100
AcDbLine
 10
241.6007101762806
 20
229.9668177863578
 30
0.000000000000000
 11
243.8257102819624
 21
232.6668179146014
 31
0.000000000000000
  0
LINE
  5
98
100
AcDbEntity
  8
A10
  6
CONTINUOUS
 62
7
100
AcDbLine
 10
241.6007101762804
 20
229.2668177531098
 30
0.000000000000000
 11
241.6007101762804
 21
229.9668177863578
 31
0.000000000000000
  0
ARC
  5
99
100
AcDbEntity
  8
A10
  6
CONTINUOUS
 62
7
100
AcDbCircle
 10
241.9007101905297
 20
229.2668177531097
 30
0.000000000000000
 40
0.3000000142492364
100
AcDbArc
 50
180.0000000000014
 51
269.9993225440115
  0
LINE
  5
9A
100
AcDbEntity
  8
A10
  6
CONTINUOUS
 62
7
100
AcDbLine
 10
241.9007103712360
 20
228.9668177389036
 30
0.000000000000000
 11
241.9007103712360
 21
228.6668177317360
 31
0.000000000000000
  0
LINE
  5
9B
100
AcDbEntity
  8
A10
  6
CONTINUOUS
 62
7
100
AcDbLine
 10
241.4007101667808
 20
236.6668181045909
 30
0.000000000000000
 11
249.3007105420108
 21
236.6668181045909
 31
0.000000000000000
  0
LINE
  5
9C
100
AcDbEntity
  8
A10
  6
CONTINUOUS
 62
7
100
AcDbLine
 10
234.4030601036004
 20
236.6668181045908
 30
0.000000000000000
 11
239.3007100670364
 21
236.6668181045911
 31
0.000000000000000
  0
LINE
  5
9D
100
AcDbEntity
  8
A10
  6
CONTINUOUS
 62
7
100
AcDbLine
 10
237.3507099744169
 20
218.9668193117140
 30
0.000000000000000
 11
243.3507102594004
 21
218.9668193117141
 31
0.000000000000000
  0
LINE
  5
9E
100
AcDbEntity
  8
A10
  6
CONTINUOUS
 62
7
100
AcDbLine
 10
236.3507099269189
 20
219.9668193592114
 30
0.000000000000000
 11
244.3507103068980
 21
219.9668193592114
 31
0.000000000000000
  0
LINE
  5
9F
100
AcDbEntity
  8
A10
  6
CONTINUOUS
 62
7
100
AcDbLine
 10
246.3507104018935
 20
219.9668193592116
 30
0.000000000000000
 11
254.3507107818727
 21
219.9668193592115
 31
0.000000000000000
  0
LINE
  5
A0
100
AcDbEntity
  8
A10
  6
CONTINUOUS
 62
7
100
AcDbLine
 10
247.3507104493913
 20
218.9668193117141
 30
0.000000000000000
 11
253.3507107343749
 21
218.9668193117141
 31
0.000000000000000
  0
LINE
  5
A1
100
AcDbEntity
  8
A10
  6
CENTER
 62
1
100
AcDbLine
 10
250.3507105918834
 20
216.0172345086764
 30
0.000000000000000
 11
250.3507105918834
 21
238.7645743353544
 31
0.000000000000000
  0
CIRCLE
  5
A2
100
AcDbEntity
  8
A9
  6
CONTINUOUS
 62
7
100
AcDbCircle
 10
256.8507101169090
 20
186.4668174129803
 30
0.000000000000000
 40
4.000000000000000
  0
CIRCLE
  5
A3
100
AcDbEntity
  8
A9
  6
CONTINUOUS
 62
7
100
AcDbCircle
 10
256.8507101169090
 20
186.4668174129803
 30
0.000000000000000
 40
2.267949000000000
  0
ARC
  5
A4
100
AcDbEntity
  8
A9
  6
CONTINUOUS
 62
7
100
AcDbCircle
 10
266.9876631169089
 20
191.7907904129802
 30
0.000000000000000
 40
3.000000000000000
100
AcDbArc
 50
145.0000000000000
 51
207.7086570000000
  0
ARC
  5
A5
100
AcDbEntity
  8
A9
  6
CONTINUOUS
 62
7
100
AcDbCircle
 10
256.8507101169090
 20
186.4668174129803
 30
0.000000000000000
 40
8.449999999999999
100
AcDbArc
 50
11.60152399999999
 51
27.70865700000001
  0
ARC
  5
A6
100
AcDbEntity
  8
A9
  6
CONTINUOUS
 62
7
100
AcDbCircle
 10
256.8507101169090
 20
186.4668174129803
 30
0.000000000000000
 40
8.449999999999999
100
AcDbArc
 50
72.84551800000004
 51
340.0495760000000
  0
ARC
  5
A7
100
AcDbEntity
  8
A9
  6
CONTINUOUS
 62
7
100
AcDbCircle
 10
266.9876631169089
 20
191.7907904129802
 30
0.000000000000000
 40
7.500000000000000
100
AcDbArc
 50
145.0000000000000
 51
163.2320960000000
  0
LINE
  5
A8
100
AcDbEntity
  8
A9
  6
CONTINUOUS
 62
7
100
AcDbLine
 10
274.8507101169091
 20
208.2507264129802
 30
0.000000000000000
 11
264.5302071169091
 21
193.5115194129802
 31
0.000000000000000
  0
LINE
  5
A9
100
AcDbEntity
  8
A9
  6
CONTINUOUS
 62
7
100
AcDbLine
 10
274.8507101169088
 20
216.0962364129801
 30
0.000000000000000
 11
260.8440231169089
 21
196.0926134129802
 31
0.000000000000000
  0
LINE
  5
AA
100
AcDbEntity
  8
A9
  6
CONTINUOUS
 62
7
100
AcDbLine
 10
259.2250501169090
 20
194.1586964129802
 30
0.000000000000000
 11
259.3430301169089
 21
194.5409024129801
 31
0.000000000000000
  0
LINE
  5
AB
100
AcDbEntity
  8
A9
  6
CONTINUOUS
 62
7
100
AcDbLine
 10
264.5302071169091
 20
193.5115194129804
 30
0.000000000000000
 11
260.8440231169091
 21
196.0926134129804
 31
0.000000000000000
  0
ARC
  5
AC
100
AcDbEntity
  8
A9
  6
CONTINUOUS
 62
7
100
AcDbCircle
 10
256.8507101169090
 20
186.4668174129803
 30
0.000000000000000
 40
8.050000000000001
100
AcDbArc
 50
15.67334899999998
 51
330.1371660000000
  0
ARC
  5
AD
100
AcDbEntity
  8
A9
  6
CONTINUOUS
 62
7
100
AcDbCircle
 10
267.3007101169089
 20
180.4668174129803
 30
0.000000000000000
 40
4.000000000000000
100
AcDbArc
 50
90.00000000000000
 51
150.1371660000000
  0
ARC
  5
AE
100
AcDbEntity
  8
A9
  6
CONTINUOUS
 62
7
100
AcDbCircle
 10
267.3007101169089
 20
180.4668174129803
 30
0.000000000000000
 40
8.000000000000000
100
AcDbArc
 50
90.00000000000000
 51
150.1371660000000
  0
ARC
  5
AF
100
AcDbEntity
  8
A9
  6
CONTINUOUS
 62
7
100
AcDbCircle
 10
256.8507101169090
 20
186.4668174129803
 30
0.000000000000000
 40
4.050000000000000
100
AcDbArc
 50
15.67334899999998
 51
330.1371660000000
  0
LINE
  5
B0
100
AcDbEntity
  8
A9
  6
CONTINUOUS
 62
7
100
AcDbLine
 10
267.3007101169089
 20
184.4668174129803
 30
0.000000000000000
 11
270.8507101169090
 21
184.4668174129803
 31
0.000000000000000
  0
LINE
  5
B1
100
AcDbEntity
  8
A9
  6
CONTINUOUS
 62
7
100
AcDbLine
 10
260.7501211169086
 20
187.5609354129802
 30
0.000000000000000
 11
264.6013911169088
 21
188.6415464129803
 31
0.000000000000000
  0
LINE
  5
B2
100
AcDbEntity
  8
A9
  6
CONTINUOUS
 62
7
100
AcDbLine
 10
270.8507101169090
 20
188.4668174129803
 30
0.000000000000000
 11
267.3007101169089
 21
188.4668174129803
 31
0.000000000000000
  0
LINE
  5
B3
100
AcDbEntity
  8
A9
  6
CENTER
 62
1
100
AcDbLine
 10
256.8507101169090
 20
197.9168174129803
 30
0.000000000000000
 11
256.8507101169090
 21
175.0168174129803
 31
0.000000000000000
  0
LINE
  5
B4
100
AcDbEntity
  8
A9
  6
CENTER
 62
1
100
AcDbLine
 10
245.4007101169090
 20
186.4668174129803
 30
0.000000000000000
 11
268.3007101169078
 21
186.4668174129803
 31
0.000000000000000
  0
LINE
  5
B5
100
AcDbEntity
  8
A8
  6
CONTINUOUS
 62
7
100
AcDbLine
 10
193.3507101169090
 20
278.3525177713095
 30
0.000000000000000
 11
193.3507101169090
 21
318.3525177713095
 31
0.000000000000000
  0
LINE
  5
B6
100
AcDbEntity
  8
A8
  6
CONTINUOUS
 62
7
100
AcDbLine
 10
272.3507101169090
 20
278.3525177713095
 30
0.000000000000000
 11
272.3507101169090
 21
318.3525177713095
 31
0.000000000000000
  0
LINE
  5
B7
100
AcDbEntity
  8
A8
  6
CONTINUOUS
 62
7
100
AcDbLine
 10
226.3507101169090
 20
278.3525177713095
 30
0.000000000000000
 11
226.3507101169090
 21
318.3525177713095
 31
0.000000000000000
  0
LINE
  5
B8
100
AcDbEntity
  8
A8
  6
CONTINUOUS
 62
7
100
AcDbLine
 10
278.8507101169090
 20
278.3525177713095
 30
0.000000000000000
 11
278.8507101169090
 21
318.3525177713095
 31
0.000000000000000
  0
LINE
  5
B9
100
AcDbEntity
  8
A8
  6
CONTINUOUS
 62
7
100
AcDbLine
 10
259.4876631169180
 20
357.7133847713085
 30
0.000000000000000
 11
259.3430291169181
 21
357.9638967713085
 31
0.000000000000000
  0
LINE
  5
BA
100
AcDbEntity
  8
A8
  6
CONTINUOUS
 62
7
100
AcDbLine
 10
259.4876631169179
 20
355.3525177713083
 30
0.000000000000000
 11
259.3430291169179
 21
355.3525177713083
 31
0.000000000000000
  0
ELLIPSE
  5
BB
100
AcDbEntity
  8
A8
  6
CONTINUOUS
 62
7
100
AcDbEllipse
 10
279.0557661169178
 20
355.8525177713053
 30
0.000000000000000
 11
0.000000000000000
 21
-2.500000000000000
 31
0.000000000000000
210
0.000000000000000
220
0.000000000000000
230
1.000000000000000
 40
0.5735760000000000
 41
1.570796326794893
 42
3.141592653589793
  0
ELLIPSE
  5
BC
100
AcDbEntity
  8
A8
  6
CONTINUOUS
 62
7
100
AcDbEllipse
 10
275.3695811169178
 20
355.8525177713059
 30
0.000000000000000
 11
0.000000000000000
 21
2.500000000000000
 31
0.000000000000000
210
0.000000000000000
220
0.000000000000000
230
1.000000000000000
 40
0.5735760000000000
 41
4.712388980384686
 42
6.283185307179586
  0
ELLIPSE
  5
BD
100
AcDbEntity
  8
A8
  6
CONTINUOUS
 62
7
100
AcDbEllipse
 10
275.3695811169127
 20
322.6792697713059
 30
0.000000000000000
 11
0.000000000000000
 21
2.500000000000000
 31
0.000000000000000
210
0.000000000000000
220
0.000000000000000
230
1.000000000000000
 40
0.5735760000000000
 41
3.213348243916913
 42
4.712388980384686
  0
ELLIPSE
  5
BE
100
AcDbEntity
  8
A8
  6
CONTINUOUS
 62
7
100
AcDbEllipse
 10
279.0557661169128
 20
322.6792697713054
 30
0.000000000000000
 11
0.000000000000000
 21
-2.500000000000000
 31
0.000000000000000
210
0.000000000000000
220
0.000000000000000
230
1.000000000000000
 40
0.5735760000000000
 41
0.07175559032711991
 42
1.570796326794893
  0
LINE
  5
BF
100
AcDbEntity
  8
A8
  6
CONTINUOUS
 62
7
100
AcDbLine
 10
259.3430291169183
 20
358.3525177713083
 30
0.000000000000000
 11
259.3430291169122
 21
318.3525177713083
 31
0.000000000000000
  0
LINE
  5
C0
100
AcDbEntity
  8
A8
  6
CONTINUOUS
 62
7
100
AcDbLine
 10
248.4007101169183
 20
358.3525177713100
 30
0.000000000000000
 11
248.4007101169122
 21
318.3525177713100
 31
0.000000000000000
  0
LINE
  5
C1
100
AcDbEntity
  8
A8
  6
CONTINUOUS
 62
7
100
AcDbLine
 10
265.3007101169122
 20
318.3525177713074
 30
0.000000000000000
 11
265.3007101169122
 21
318.4490747713074
 31
0.000000000000000
  0
LINE
  5
C2
100
AcDbEntity
  8
A8
  6
CONTINUOUS
 62
7
100
AcDbLine
 10
279.1585711169122
 20
320.1857037713053
 30
0.000000000000000
 11
264.5302071169119
 21
318.3525177713075
 31
0.000000000000000
  0
LINE
  5
C3
100
AcDbEntity
  8
A8
  6
CONTINUOUS
 62
7
100
AcDbLine
 10
280.4897071169179
 20
355.8525177713051
 30
0.000000000000000
 11
280.4897071169129
 21
322.6792697713051
 31
0.000000000000000
  0
LINE
  5
C4
100
AcDbEntity
  8
A8
  6
CONTINUOUS
 62
7
100
AcDbLine
 10
276.8035221169179
 20
355.8525177713057
 30
0.000000000000000
 11
276.8035221169129
 21
322.6792697713057
 31
0.000000000000000
  0
LINE
  5
C5
100
AcDbEntity
  8
A8
  6
CONTINUOUS
 62
7
100
AcDbLine
 10
275.4723861169123
 20
320.1857037713058
 30
0.000000000000000
 11
260.8440221169120
 21
318.3525177713080
 31
0.000000000000000
  0
LINE
  5
C6
100
AcDbEntity
  8
A8
  6
CONTINUOUS
 62
7
100
AcDbLine
 10
193.3507101169090
 20
318.3525177713095
 30
0.000000000000000
 11
278.8507101169121
 21
318.3525177713054
 31
0.000000000000000
  0
LINE
  5
C7
100
AcDbEntity
  8
A8
  6
CONTINUOUS
 62
7
100
AcDbLine
 10
193.3507101169090
 20
278.3525177713095
 30
0.000000000000000
 11
278.8507101169090
 21
278.3525177713095
 31
0.000000000000000
  0
LINE
  5
C8
100
AcDbEntity
  8
A8
  6
CONTINUOUS
 62
7
100
AcDbLine
 10
248.4007101169183
 20
358.3525177713100
 30
0.000000000000000
 11
279.0557661169183
 21
358.3525177713053
 31
0.000000000000000
  0
ARC
  5
C9
100
AcDbEntity
  8
A10
  6
CONTINUOUS
 62
7
100
AcDbCircle
 10
249.1007111974762
 20
309.3525192437303
 30
0.000000000000000
 40
4.250000201864179
100
AcDbArc
 50
269.9999999999998
 51
449.9999999999998
  0
ARC
  5
CA
100
AcDbEntity
  8
A10
  6
CONTINUOUS
 62
7
100
AcDbCircle
 10
259.1007116724506
 20
287.3525181987864
 30
0.000000000000000
 40
4.250000201864210
100
AcDbArc
 50
269.9999999999998
 51
449.9999999999993
  0
LINE
  5
CB
100
AcDbEntity
  8
A10
  6
CONTINUOUS
 62
7
100
AcDbLine
 10
247.9992404155485
 20
313.6025194455943
 30
0.000000000000000
 11
249.1007111974764
 21
313.6025194455944
 31
0.000000000000000
  0
LINE
  5
CC
100
AcDbEntity
  8
A10
  6
CONTINUOUS
 62
7
100
AcDbLine
 10
249.1007111974762
 20
305.1025190418661
 30
0.000000000000000
 11
247.9992404155483
 21
305.1025190418661
 31
0.000000000000000
  0
LINE
  5
CD
100
AcDbEntity
  8
A10
  6
CONTINUOUS
 62
7
100
AcDbLine
 10
257.9992408905227
 20
291.6025184006504
 30
0.000000000000000
 11
259.1007116724506
 21
291.6025184006504
 31
0.000000000000000
  0
LINE
  5
CE
100
AcDbEntity
  8
A10
  6
CONTINUOUS
 62
7
100
AcDbLine
 10
259.1007116724506
 20
283.1025179969221
 30
0.000000000000000
 11
257.9992408905227
 21
283.1025179969221
 31
0.000000000000000
  0
LINE
  5
CF
100
AcDbEntity
  8
A10
  6
CONTINUOUS
 62
7
100
AcDbLine
 10
254.7733803444126
 20
294.9025185573921
 30
0.000000000000000
 11
257.3507115893301
 21
294.9025185573921
 31
0.000000000000000
  0
LINE
  5
D0
100
AcDbEntity
  8
A10
  6
CONTINUOUS
 62
7
100
AcDbLine
 10
250.3507112568480
 20
301.8025188851244
 30
0.000000000000000
 11
250.3507112568479
 21
296.1025186143889
 31
0.000000000000000
  0
LINE
  5
D1
100
AcDbEntity
  8
A10
  6
CONTINUOUS
 62
7
100
AcDbLine
 10
250.3507112568479
 20
301.8025188851245
 30
0.000000000000000
 11
257.3507115893302
 21
301.8025188851245
 31
0.000000000000000
  0
LINE
  5
D2
100
AcDbEntity
  8
A10
  6
CONTINUOUS
 62
7
100
AcDbLine
 10
257.3507115893304
 20
301.8025188851245
 30
0.000000000000000
 11
257.3507115893303
 21
294.9025185573921
 31
0.000000000000000
  0
ARC
  5
D3
100
AcDbEntity
  8
A10
  6
CONTINUOUS
 62
7
100
AcDbCircle
 10
250.1507112473485
 20
289.3025182914064
 30
0.000000000000000
 40
0.3000000142492363
100
AcDbArc
 50
90.00000000000006
 51
179.9999999999994
  0
ARC
  5
D4
100
AcDbEntity
  8
A10
  6
CONTINUOUS
 62
7
100
AcDbCircle
 10
250.5507112663474
 20
289.3025182914064
 30
0.000000000000000
 40
0.3000000142492394
100
AcDbArc
 50
359.9999999999997
 51
449.9999999999985
  0
ARC
  5
D5
100
AcDbEntity
  8
A10
  6
CONTINUOUS
 62
7
100
AcDbCircle
 10
250.5507112663474
 20
285.4025181061663
 30
0.000000000000000
 40
0.3000000142492363
100
AcDbArc
 50
270.0000000000000
 51
359.9999999999994
  0
ARC
  5
D6
100
AcDbEntity
  8
A10
  6
CONTINUOUS
 62
7
100
AcDbCircle
 10
250.1507112473485
 20
285.4025181061663
 30
0.000000000000000
 40
0.3000000142492394
100
AcDbArc
 50
179.9999999999997
 51
269.9999999999985
  0
ARC
  5
D7
100
AcDbEntity
  8
A10
  6
CONTINUOUS
 62
7
100
AcDbCircle
 10
248.4007111642279
 20
287.5525182082858
 30
0.000000000000000
 40
0.3000000142492395
100
AcDbArc
 50
89.99999999999970
 51
179.9999999999984
  0
ARC
  5
D8
100
AcDbEntity
  8
A10
  6
CONTINUOUS
 62
7
100
AcDbCircle
 10
248.4007111642279
 20
287.1525181892869
 30
0.000000000000000
 40
0.3000000142492363
100
AcDbArc
 50
180.0000000000000
 51
269.9999999999994
  0
ARC
  5
D9
100
AcDbEntity
  8
A10
  6
CONTINUOUS
 62
7
100
AcDbCircle
 10
252.3007113494680
 20
287.5525182082858
 30
0.000000000000000
 40
0.3000000142492363
100
AcDbArc
 50
0.000000000000000
 51
89.99999999999933
  0
ARC
  5
DA
100
AcDbEntity
  8
A10
  6
CONTINUOUS
 62
7
100
AcDbCircle
 10
252.3007113494680
 20
287.1525181892869
 30
0.000000000000000
 40
0.3000000142492395
100
AcDbArc
 50
269.9999999999999
 51
359.9999999999982
  0
ARC
  5
DB
100
AcDbEntity
  8
A10
  6
CONTINUOUS
 62
7
100
AcDbCircle
 10
250.3507112568477
 20
287.3525181987877
 30
0.000000000000000
 40
5.000000237485920
100
AcDbArc
 50
98.62692655867794
 51
102.1223522447883
  0
ARC
  5
DC
100
AcDbEntity
  8
A10
  6
CONTINUOUS
 62
7
100
AcDbCircle
 10
250.3507112568479
 20
287.3525181987864
 30
0.000000000000000
 40
5.000000237487254
100
AcDbArc
 50
282.1223522447883
 51
437.8776477552108
  0
ARC
  5
DD
100
AcDbEntity
  8
A10
  6
CONTINUOUS
 62
7
100
AcDbCircle
 10
250.3507112568483
 20
287.3525181987842
 30
0.000000000000000
 40
5.000000237485039
100
AcDbArc
 50
278.6269265586775
 51
282.1223522447885
  0
ARC
  5
DE
100
AcDbEntity
  8
A10
  6
CONTINUOUS
 62
7
100
AcDbCircle
 10
250.3507112568479
 20
287.3525181987864
 30
0.000000000000000
 40
5.000000237487254
100
AcDbArc
 50
102.1223522447882
 51
257.8776477552108
  0
ARC
  5
DF
100
AcDbEntity
  8
A10
  6
CONTINUOUS
 62
7
100
AcDbCircle
 10
250.3507112568476
 20
287.3525181987847
 30
0.000000000000000
 40
5.000000237489075
100
AcDbArc
 50
77.87764775521215
 51
81.37307344132037
  0
ARC
  5
E0
100
AcDbEntity
  8
A10
  6
CONTINUOUS
 62
7
100
AcDbCircle
 10
250.3507112568469
 20
287.3525181987807
 30
0.000000000000000
 40
5.000000237481459
100
AcDbArc
 50
257.8776477552091
 51
261.3730734413225
  0
LINE
  5
E1
100
AcDbEntity
  8
A10
  6
CONTINUOUS
 62
7
100
AcDbLine
 10
249.8507112330992
 20
287.8525182225350
 30
0.000000000000000
 11
249.1007111974760
 21
287.8525182225350
 31
0.000000000000000
  0
LINE
  5
E2
100
AcDbEntity
  8
A10
  6
CONTINUOUS
 62
7
100
AcDbLine
 10
249.8507112330992
 20
289.3025182914064
 30
0.000000000000000
 11
249.8507112330992
 21
287.8525182225349
 31
0.000000000000000
  0
LINE
  5
E3
100
AcDbEntity
  8
A10
  6
CONTINUOUS
 62
7
100
AcDbLine
 10
250.5507112663474
 20
289.6025183056556
 30
0.000000000000000
 11
250.1507112473484
 21
289.6025183056556
 31
0.000000000000000
  0
LINE
  5
E4
100
AcDbEntity
  8
A10
  6
CONTINUOUS
 62
7
100
AcDbLine
 10
250.8507112805967
 20
287.8525182225350
 30
0.000000000000000
 11
250.8507112805967
 21
289.3025182914063
 31
0.000000000000000
  0
LINE
  5
E5
100
AcDbEntity
  8
A10
  6
CONTINUOUS
 62
7
100
AcDbLine
 10
249.1007111974760
 20
286.8525181750375
 30
0.000000000000000
 11
249.8507112330992
 21
286.8525181750375
 31
0.000000000000000
  0
LINE
  5
E6
100
AcDbEntity
  8
A10
  6
CONTINUOUS
 62
7
100
AcDbLine
 10
250.8507112805967
 20
285.4025181061664
 30
0.000000000000000
 11
250.8507112805967
 21
286.8525181750375
 31
0.000000000000000
  0
LINE
  5
E7
100
AcDbEntity
  8
A10
  6
CONTINUOUS
 62
7
100
AcDbLine
 10
250.1507112473484
 20
285.1025180919170
 30
0.000000000000000
 11
250.5507112663473
 21
285.1025180919170
 31
0.000000000000000
  0
LINE
  5
E8
100
AcDbEntity
  8
A10
  6
CONTINUOUS
 62
7
100
AcDbLine
 10
249.8507112330992
 20
286.8525181750373
 30
0.000000000000000
 11
249.8507112330992
 21
285.4025181061663
 31
0.000000000000000
  0
LINE
  5
E9
100
AcDbEntity
  8
A10
  6
CONTINUOUS
 62
7
100
AcDbLine
 10
249.6007112212249
 20
286.8525181750375
 30
0.000000000000000
 11
249.6007112212249
 21
281.7017021706940
 31
0.000000000000000
  0
LINE
  5
EA
100
AcDbEntity
  8
A10
  6
CONTINUOUS
 62
7
100
AcDbLine
 10
249.6007112212249
 20
293.0033342268786
 30
0.000000000000000
 11
249.6007112212249
 21
287.8525182225349
 31
0.000000000000000
  0
LINE
  5
EB
100
AcDbEntity
  8
A10
  6
CONTINUOUS
 62
7
100
AcDbLine
 10
248.1007111499786
 20
287.5525182082860
 30
0.000000000000000
 11
248.1007111499786
 21
287.1525181892870
 31
0.000000000000000
  0
LINE
  5
EC
100
AcDbEntity
  8
A10
  6
CONTINUOUS
 62
7
100
AcDbLine
 10
249.1007111974760
 20
287.8525182225351
 30
0.000000000000000
 11
248.4007111642278
 21
287.8525182225351
 31
0.000000000000000
  0
LINE
  5
ED
100
AcDbEntity
  8
A10
  6
CONTINUOUS
 62
7
100
AcDbLine
 10
248.4007111642279
 20
286.8525181750375
 30
0.000000000000000
 11
249.1007111974761
 21
286.8525181750375
 31
0.000000000000000
  0
LINE
  5
EE
100
AcDbEntity
  8
A10
  6
CONTINUOUS
 62
7
100
AcDbLine
 10
251.1007112924712
 20
293.0033342268787
 30
0.000000000000000
 11
251.1007112924711
 21
287.8525182225350
 31
0.000000000000000
  0
LINE
  5
EF
100
AcDbEntity
  8
A10
  6
CONTINUOUS
 62
7
100
AcDbLine
 10
251.1007112924710
 20
286.8525181750374
 30
0.000000000000000
 11
251.1007112924710
 21
281.7017021706940
 31
0.000000000000000
  0
LINE
  5
F0
100
AcDbEntity
  8
A10
  6
CONTINUOUS
 62
7
100
AcDbLine
 10
252.3007113494680
 20
287.8525182225349
 30
0.000000000000000
 11
250.8507112805966
 21
287.8525182225349
 31
0.000000000000000
  0
LINE
  5
F1
100
AcDbEntity
  8
A10
  6
CONTINUOUS
 62
7
100
AcDbLine
 10
250.8507112805967
 20
286.8525181750373
 30
0.000000000000000
 11
252.3007113494678
 21
286.8525181750373
 31
0.000000000000000
  0
LINE
  5
F2
100
AcDbEntity
  8
A10
  6
CONTINUOUS
 62
7
100
AcDbLine
 10
252.6007113637171
 20
287.1525181892869
 30
0.000000000000000
 11
252.6007113637171
 21
287.5525182082859
 31
0.000000000000000
  0
LINE
  5
F3
100
AcDbEntity
  8
A10
  6
CONTINUOUS
 62
7
100
AcDbLine
 10
249.5995984019013
 20
292.5025689505423
 30
0.000000000000000
 11
249.6007112212250
 21
292.5026271259247
 31
0.000000000000000
  0
LINE
  5
F4
100
AcDbEntity
  8
A10
  6
CONTINUOUS
 62
7
100
AcDbLine
 10
249.6007112212248
 20
292.2959484169079
 30
0.000000000000000
 11
249.6007112212248
 21
292.5033342031301
 31
0.000000000000000
  0
LINE
  5
F5
100
AcDbEntity
  8
A10
  6
CONTINUOUS
 62
7
100
AcDbLine
 10
256.8757115667685
 20
287.3525181987861
 30
0.000000000000000
 11
253.6132114118083
 21
293.0033342268785
 31
0.000000000000000
  0
LINE
  5
F6
100
AcDbEntity
  8
A10
  6
CONTINUOUS
 62
7
100
AcDbLine
 10
253.6132114118079
 20
281.7017021706941
 30
0.000000000000000
 11
256.8757115667682
 21
287.3525181987864
 31
0.000000000000000
  0
LINE
  5
F7
100
AcDbEntity
  8
A10
  6
CONTINUOUS
 62
7
100
AcDbLine
 10
247.0882111018876
 20
293.0033342268785
 30
0.000000000000000
 11
243.8257109469273
 21
287.3525181987862
 31
0.000000000000000
  0
LINE
  5
F8
100
AcDbEntity
  8
A10
  6
CONTINUOUS
 62
7
100
AcDbLine
 10
243.8257109469272
 20
287.3525181987865
 30
0.000000000000000
 11
247.0882111018875
 21
281.7017021706941
 31
0.000000000000000
  0
LINE
  5
F9
100
AcDbEntity
  8
A10
  6
CONTINUOUS
 62
7
100
AcDbLine
 10
251.1007112924710
 20
292.5033342031301
 30
0.000000000000000
 11
251.1007112924710
 21
292.2959484169079
 31
0.000000000000000
  0
SPLINE
  5
FA
100
AcDbEntity
  8
A10
  6
CONTINUOUS
 62
7
100
AcDbSpline
210
0.000000000000000
220
0.000000000000000
230
1.000000000000000
 70
     8
 71
     3
 72
    19
 73
    15
 74
     0
 42
1.000000000000000e-07
 43
1.000000000000000e-07
 12
3.225944965379313e-06
 22
-0.9999999999781721
 32
0.000000000000000
 13
-0.002893635915825143
 23
-0.9999958295375109
 33
0.000000000000000
 40
0.000000000000000
 40
0.000000000000000
 40
0.000000000000000
 40
0.000000000000000
 40
0.02618937791554581
 40
0.05237875570364868
 40
0.07377192070925977
 40
0.09516508619616407
 40
0.1211452574957961
 40
0.1471254264830959
 40
0.1721333735197662
 40
0.1971413274249827
 40
0.2075812095836758
 40
0.2180210860659184
 40
0.2220773140112495
 40
0.2261335423219610
 40
0.2261335423219610
 40
0.2261335423219610
 40
0.2261335423219610
 10
241.1018342254072
 20
304.2025011444085
 30
0.000000000000000
 10
241.1018342535690
 20
304.1937713517702
 30
0.000000000000000
 10
241.1018343098929
 20
304.1763117665362
 30
0.000000000000000
 10
241.1018343258716
 20
304.1517211262968
 30
0.000000000000000
 10
241.1018338551035
 20
304.1287292235464
 30
0.000000000000000
 10
241.1018339841302
 20
304.1058070562561
 30
0.000000000000000
 10
241.1018360190837
 20
304.0813558877942
 30
0.000000000000000
 10
241.1018351734110
 20
304.0556997917121
 30
0.000000000000000
 10
241.1018264561612
 20
304.0303677697869
 30
0.000000000000000
 10
241.1018192242275
 20
304.0102158431828
 30
0.000000000000000
 10
241.1018167951502
 20
303.9949199394048
 30
0.000000000000000
 10
241.1018083460852
 20
303.9866079452173
 30
0.000000000000000
 10
241.1017944598161
 20
303.9804238493138
 30
0.000000000000000
 10
241.1017866349845
 20
303.9777197085056
 30
0.000000000000000
 10
241.1017827225685
 20
303.9763676380408
 30
0.000000000000000
  0
ARC
  5
FB
100
AcDbEntity
  8
A10
  6
CONTINUOUS
 62
7
100
AcDbCircle
 10
240.5507107913730
 20
307.4025191511104
 30
0.000000000000000
 40
0.3000000142492363
100
AcDbArc
 50
269.9999999999997
 51
359.9999999999994
  0
ARC
  5
FC
100
AcDbEntity
  8
A10
  6
CONTINUOUS
 62
7
100
AcDbCircle
 10
240.1507107723741
 20
307.4025191511104
 30
0.000000000000000
 40
0.3000000142492394
100
AcDbArc
 50
179.9999999999997
 51
269.9999999999991
  0
ARC
  5
FD
100
AcDbEntity
  8
A10
  6
CONTINUOUS
 62
7
100
AcDbCircle
 10
240.1507107723741
 20
311.3025193363504
 30
0.000000000000000
 40
0.3000000142492363
100
AcDbArc
 50
89.99999999999970
 51
179.9999999999994
  0
ARC
  5
FE
100
AcDbEntity
  8
A10
  6
CONTINUOUS
 62
7
100
AcDbCircle
 10
240.5507107913730
 20
311.3025193363504
 30
0.000000000000000
 40
0.3000000142492394
100
AcDbArc
 50
359.9999999999997
 51
449.9999999999990
  0
ARC
  5
FF
100
AcDbEntity
  8
A10
  6
CONTINUOUS
 62
7
100
AcDbCircle
 10
238.4007106892535
 20
309.5525192532299
 30
0.000000000000000
 40
0.3000000142492395
100
AcDbArc
 50
89.99999999999970
 51
179.9999999999984
  0
ARC
  5
100
100
AcDbEntity
  8
A10
  6
CONTINUOUS
 62
7
100
AcDbCircle
 10
238.4007106892535
 20
309.1525192342309
 30
0.000000000000000
 40
0.3000000142492363
100
AcDbArc
 50
180.0000000000000
 51
269.9999999999997
  0
ARC
  5
101
100
AcDbEntity
  8
A10
  6
CONTINUOUS
 62
7
100
AcDbCircle
 10
242.3007108744936
 20
309.5525192532299
 30
0.000000000000000
 40
0.3000000142492363
100
AcDbArc
 50
0.000000000000000
 51
89.99999999999933
  0
ARC
  5
102
100
AcDbEntity
  8
A10
  6
CONTINUOUS
 62
7
100
AcDbCircle
 10
242.3007108744936
 20
309.1525192342309
 30
0.000000000000000
 40
0.3000000142492395
100
AcDbArc
 50
269.9999999999997
 51
359.9999999999982
  0
ARC
  5
103
100
AcDbEntity
  8
A10
  6
CONTINUOUS
 62
7
100
AcDbCircle
 10
240.3507107818718
 20
309.3525192437394
 30
0.000000000000000
 40
5.000000237478030
100
AcDbArc
 50
98.62692655867500
 51
102.1223522447911
  0
ARC
  5
104
100
AcDbEntity
  8
A10
  6
CONTINUOUS
 62
7
100
AcDbCircle
 10
240.3507107818735
 20
309.3525192437304
 30
0.000000000000000
 40
5.000000237487254
100
AcDbArc
 50
282.1223522447883
 51
437.8776477552108
  0
ARC
  5
105
100
AcDbEntity
  8
A10
  6
CONTINUOUS
 62
7
100
AcDbCircle
 10
240.3507107818746
 20
309.3525192437362
 30
0.000000000000000
 40
5.000000237481343
100
AcDbArc
 50
77.87764775520914
 51
81.37307344132282
  0
ARC
  5
106
100
AcDbEntity
  8
A10
  6
CONTINUOUS
 62
7
100
AcDbCircle
 10
240.3507107818732
 20
309.3525192437289
 30
0.000000000000000
 40
5.000000237485853
100
AcDbArc
 50
257.8776477552112
 51
261.3730734413216
  0
ARC
  5
107
100
AcDbEntity
  8
A10
  6
CONTINUOUS
 62
7
100
AcDbCircle
 10
240.3507107818737
 20
309.3525192437295
 30
0.000000000000000
 40
5.000000237486421
100
AcDbArc
 50
278.6269265586782
 51
282.1223522447883
  0
ARC
  5
108
100
AcDbEntity
  8
A10
  6
CONTINUOUS
 62
7
100
AcDbCircle
 10
240.3507107818735
 20
309.3525192437303
 30
0.000000000000000
 40
5.000000237487254
100
AcDbArc
 50
102.1223522447882
 51
257.8776477552108
  0
LINE
  5
109
100
AcDbEntity
  8
A10
  6
CONTINUOUS
 62
7
100
AcDbLine
 10
240.8507108056223
 20
307.4025191511102
 30
0.000000000000000
 11
240.8507108056223
 21
308.8525192199814
 31
0.000000000000000
  0
LINE
  5
10A
100
AcDbEntity
  8
A10
  6
CONTINUOUS
 62
7
100
AcDbLine
 10
240.1507107723740
 20
307.1025191368610
 30
0.000000000000000
 11
240.5507107913729
 21
307.1025191368610
 31
0.000000000000000
  0
LINE
  5
10B
100
AcDbEntity
  8
A10
  6
CONTINUOUS
 62
7
100
AcDbLine
 10
239.8507107581249
 20
308.8525192199814
 30
0.000000000000000
 11
239.8507107581249
 21
307.4025191511104
 31
0.000000000000000
  0
LINE
  5
10C
100
AcDbEntity
  8
A10
  6
CONTINUOUS
 62
7
100
AcDbLine
 10
241.6007108412452
 20
309.8525192674789
 30
0.000000000000000
 11
240.8507108056224
 21
309.8525192674789
 31
0.000000000000000
  0
LINE
  5
10D
100
AcDbEntity
  8
A10
  6
CONTINUOUS
 62
7
100
AcDbLine
 10
239.8507107581249
 20
309.8525192674789
 30
0.000000000000000
 11
239.1007107225016
 21
309.8525192674789
 31
0.000000000000000
  0
LINE
  5
10E
100
AcDbEntity
  8
A10
  6
CONTINUOUS
 62
7
100
AcDbLine
 10
239.8507107581249
 20
311.3025193363504
 30
0.000000000000000
 11
239.8507107581249
 21
309.8525192674789
 31
0.000000000000000
  0
LINE
  5
10F
100
AcDbEntity
  8
A10
  6
CONTINUOUS
 62
7
100
AcDbLine
 10
240.5507107913730
 20
311.6025193505996
 30
0.000000000000000
 11
240.1507107723740
 21
311.6025193505996
 31
0.000000000000000
  0
LINE
  5
110
100
AcDbEntity
  8
A10
  6
CONTINUOUS
 62
7
100
AcDbLine
 10
240.8507108056224
 20
309.8525192674789
 30
0.000000000000000
 11
240.8507108056224
 21
311.3025193363504
 31
0.000000000000000
  0
LINE
  5
111
100
AcDbEntity
  8
A10
  6
CONTINUOUS
 62
7
100
AcDbLine
 10
239.6007107462503
 20
308.8525192199814
 30
0.000000000000000
 11
239.6007107462503
 21
303.7017032156380
 31
0.000000000000000
  0
LINE
  5
112
100
AcDbEntity
  8
A10
  6
CONTINUOUS
 62
7
100
AcDbLine
 10
239.6007107462502
 20
315.0033352718225
 30
0.000000000000000
 11
239.6007107462503
 21
309.8525192674789
 31
0.000000000000000
  0
LINE
  5
113
100
AcDbEntity
  8
A10
  6
CONTINUOUS
 62
7
100
AcDbLine
 10
238.1007106750042
 20
309.5525192532299
 30
0.000000000000000
 11
238.1007106750042
 21
309.1525192342310
 31
0.000000000000000
  0
LINE
  5
114
100
AcDbEntity
  8
A10
  6
CONTINUOUS
 62
7
100
AcDbLine
 10
239.1007107225017
 20
309.8525192674790
 30
0.000000000000000
 11
238.4007106892535
 21
309.8525192674790
 31
0.000000000000000
  0
LINE
  5
115
100
AcDbEntity
  8
A10
  6
CONTINUOUS
 62
7
100
AcDbLine
 10
238.4007106892534
 20
308.8525192199815
 30
0.000000000000000
 11
239.8507107581249
 21
308.8525192199814
 31
0.000000000000000
  0
LINE
  5
116
100
AcDbEntity
  8
A10
  6
CONTINUOUS
 62
7
100
AcDbLine
 10
241.1007108174966
 20
315.0033352718225
 30
0.000000000000000
 11
241.1007108174966
 21
309.8525192674789
 31
0.000000000000000
  0
LINE
  5
117
100
AcDbEntity
  8
A10
  6
CONTINUOUS
 62
7
100
AcDbLine
 10
241.1007108174965
 20
308.8525192199817
 30
0.000000000000000
 11
241.1007108174965
 21
303.7017032156381
 31
0.000000000000000
  0
LINE
  5
118
100
AcDbEntity
  8
A10
  6
CONTINUOUS
 62
7
100
AcDbLine
 10
242.3007108744935
 20
309.8525192674790
 30
0.000000000000000
 11
241.6007108412453
 21
309.8525192674790
 31
0.000000000000000
  0
LINE
  5
119
100
AcDbEntity
  8
A10
  6
CONTINUOUS
 62
7
100
AcDbLine
 10
240.8507108056223
 20
308.8525192199816
 30
0.000000000000000
 11
242.3007108744936
 21
308.8525192199816
 31
0.000000000000000
  0
LINE
  5
11A
100
AcDbEntity
  8
A10
  6
CONTINUOUS
 62
7
100
AcDbLine
 10
242.6007108887428
 20
309.1525192342309
 30
0.000000000000000
 11
242.6007108887428
 21
309.5525192532299
 31
0.000000000000000
  0
LINE
  5
11B
100
AcDbEntity
  8
A10
  6
CONTINUOUS
 62
7
100
AcDbLine
 10
239.5995979269269
 20
314.5025699954863
 30
0.000000000000000
 11
239.6007107462507
 21
314.5026281708688
 31
0.000000000000000
  0
LINE
  5
11C
100
AcDbEntity
  8
A10
  6
CONTINUOUS
 62
7
100
AcDbLine
 10
241.1018204529529
 20
304.2024675715214
 30
0.000000000000000
 11
241.1007108174966
 21
304.2024095425415
 31
0.000000000000000
  0
LINE
  5
11D
100
AcDbEntity
  8
A10
  6
CONTINUOUS
 62
7
100
AcDbLine
 10
239.6007107462504
 20
314.2959494618519
 30
0.000000000000000
 11
239.6007107462504
 21
314.5033352480741
 31
0.000000000000000
  0
LINE
  5
11E
100
AcDbEntity
  8
A10
  6
CONTINUOUS
 62
7
100
AcDbLine
 10
243.6132109368336
 20
303.7017032156381
 30
0.000000000000000
 11
246.8757110917940
 21
309.3525192437304
 31
0.000000000000000
  0
LINE
  5
11F
100
AcDbEntity
  8
A10
  6
CONTINUOUS
 62
7
100
AcDbLine
 10
246.8757110917943
 20
309.3525192437303
 30
0.000000000000000
 11
243.6132109368340
 21
315.0033352718226
 31
0.000000000000000
  0
LINE
  5
120
100
AcDbEntity
  8
A10
  6
CONTINUOUS
 62
7
100
AcDbLine
 10
241.1007108174967
 20
314.5033352480741
 30
0.000000000000000
 11
241.1007108174966
 21
314.2959494618519
 31
0.000000000000000
  0
LINE
  5
121
100
AcDbEntity
  8
A10
  6
CONTINUOUS
 62
7
100
AcDbLine
 10
239.6007107462504
 20
304.2017032393867
 30
0.000000000000000
 11
239.6007107462504
 21
304.4090890256089
 31
0.000000000000000
  0
LINE
  5
122
100
AcDbEntity
  8
A10
  6
CONTINUOUS
 62
7
100
AcDbLine
 10
237.0882106269135
 20
315.0033352718225
 30
0.000000000000000
 11
233.8257104719530
 21
309.3525192437301
 31
0.000000000000000
  0
LINE
  5
123
100
AcDbEntity
  8
A10
  6
CONTINUOUS
 62
7
100
AcDbLine
 10
233.8257104719528
 20
309.3525192437305
 30
0.000000000000000
 11
237.0882106269131
 21
303.7017032156380
 31
0.000000000000000
  0
LINE
  5
124
100
AcDbEntity
  8
A10
  6
CONTINUOUS
 62
7
100
AcDbLine
 10
241.1007108174966
 20
304.4090890256088
 30
0.000000000000000
 11
241.1007108174966
 21
304.2017032393867
 31
0.000000000000000
  0
LINE
  5
125
100
AcDbEntity
  8
A10
  6
CONTINUOUS
 62
7
100
AcDbLine
 10
247.0882111018875
 20
293.0033342268786
 30
0.000000000000000
 11
253.6132114118084
 21
293.0033342268786
 31
0.000000000000000
  0
LINE
  5
126
100
AcDbEntity
  8
A10
  6
CONTINUOUS
 62
7
100
AcDbLine
 10
247.0882111018874
 20
281.7017021706940
 30
0.000000000000000
 11
253.6132114118083
 21
281.7017021706938
 31
0.000000000000000
  0
LINE
  5
127
100
AcDbEntity
  8
A10
  6
CONTINUOUS
 62
7
100
AcDbLine
 10
237.0882106269131
 20
303.7017032156380
 30
0.000000000000000
 11
243.6132109368340
 21
303.7017032156380
 31
0.000000000000000
  0
LINE
  5
128
100
AcDbEntity
  8
A10
  6
CONTINUOUS
 62
7
100
AcDbLine
 10
237.0882106269132
 20
315.0033352718228
 30
0.000000000000000
 11
243.6132109368342
 21
315.0033352718227
 31
0.000000000000000
  0
CIRCLE
  5
129
100
AcDbEntity
  8
A10
  6
CONTINUOUS
 62
7
100
AcDbCircle
 10
240.3507107818735
 20
309.3525192437303
 30
0.000000000000000
 40
6.525000309921058
  0
CIRCLE
  5
12A
100
AcDbEntity
  8
A10
  6
CONTINUOUS
 62
7
100
AcDbCircle
 10
240.3507107818735
 20
309.3525192437304
 30
0.000000000000000
 40
8.750000415602699
  0
CIRCLE
  5
12B
100
AcDbEntity
  8
A10
  6
CONTINUOUS
 62
7
100
AcDbCircle
 10
250.3507112568479
 20
287.3525181987864
 30
0.000000000000000
 40
8.750000415602699
  0
CIRCLE
  5
12C
100
AcDbEntity
  8
A10
  6
CONTINUOUS
 62
7
100
AcDbCircle
 10
250.3507112568479
 20
287.3525181987864
 30
0.000000000000000
 40
6.525000309921015
  0
LINE
  5
12D
100
AcDbEntity
  8
A10
  6
CENTER
 62
1
100
AcDbLine
 10
262.1007116724506
 20
287.3525181987864
 30
0.000000000000000
 11
238.6007108412452
 21
287.3525181987864
 31
0.000000000000000
  0
LINE
  5
12E
100
AcDbEntity
  8
A10
  6
CENTER
 62
1
100
AcDbLine
 10
250.3507112568479
 20
299.1025186143891
 30
0.000000000000000
 11
250.3507112568479
 21
275.6025177831837
 31
0.000000000000000
  0
LINE
  5
12F
100
AcDbEntity
  8
A10
  6
CENTER
 62
1
100
AcDbLine
 10
252.1007111974762
 20
309.3525192437304
 30
0.000000000000000
 11
228.6007103662708
 21
309.3525192437304
 31
0.000000000000000
  0
LINE
  5
130
100
AcDbEntity
  8
A10
  6
CENTER
 62
1
100
AcDbLine
 10
240.3507107818735
 20
321.1025196593331
 30
0.000000000000000
 11
240.3507107818735
 21
297.6025188281277
 31
0.000000000000000
  0
LINE
  5
131
100
AcDbEntity
  8
A6
  6
CONTINUOUS
 62
7
100
AcDbLine
 10
193.3507101169292
 20
130.6172604275638
 30
0.000000000000000
 11
193.3507101169292
 21
90.61726042756379
 31
0.000000000000000
  0
LINE
  5
132
100
AcDbEntity
  8
A6
  6
CONTINUOUS
 62
7
100
AcDbLine
 10
230.3507101169292
 20
130.6172604275638
 30
0.000000000000000
 11
230.3507101169292
 21
90.61726042756379
 31
0.000000000000000
  0
LINE
  5
133
100
AcDbEntity
  8
A6
  6
CONTINUOUS
 62
7
100
AcDbLine
 10
278.8507101169292
 20
130.6172604275638
 30
0.000000000000000
 11
278.8507101169292
 21
90.61726042756379
 31
0.000000000000000
  0
LINE
  5
134
100
AcDbEntity
  8
A6
  6
CONTINUOUS
 62
7
100
AcDbLine
 10
248.8007101169292
 20
90.61726042756379
 30
0.000000000000000
 11
248.8007101169292
 21
130.6172604275638
 31
0.000000000000000
  0
LINE
  5
135
100
AcDbEntity
  8
A6
  6
CENTER
 62
1
100
AcDbLine
 10
185.1556533994643
 20
110.6172604275755
 30
0.000000000000000
 11
291.2686099748675
 21
110.6172604275226
 31
0.000000000000000
  0
LINE
  5
136
100
AcDbEntity
  8
A6
  6
CONTINUOUS
 62
7
100
AcDbLine
 10
279.1585711169073
 20
88.78407442749300
 30
0.000000000000000
 11
265.3007101169090
 21
90.52070242750683
 31
0.000000000000000
  0
ELLIPSE
  5
137
100
AcDbEntity
  8
A6
  6
CONTINUOUS
 62
7
100
AcDbEllipse
 10
279.0557661169049
 20
86.29050742749325
 30
0.000000000000000
 11
0.000000000000000
 21
-2.500000000000000
 31
0.000000000000000
210
0.000000000000000
220
0.000000000000000
230
1.000000000000000
 40
0.5735760000000000
 41
1.570796326794895
 42
3.069837063262542
  0
LINE
  5
138
100
AcDbEntity
  8
A6
  6
CONTINUOUS
 62
7
100
AcDbLine
 10
280.4897071168717
 20
53.11726042749177
 30
0.000000000000000
 11
280.4897071169049
 21
86.29050742749169
 31
0.000000000000000
  0
LINE
  5
139
100
AcDbEntity
  8
A6
  6
CONTINUOUS
 62
7
100
AcDbLine
 10
265.3007101168692
 20
50.61726042750692
 30
0.000000000000000
 11
265.3007101169092
 21
90.61726042750695
 31
0.000000000000000
  0
LINE
  5
13A
100
AcDbEntity
  8
A6
  6
CONTINUOUS
 62
7
100
AcDbLine
 10
248.4007101169091
 20
90.61726042752382
 30
0.000000000000000
 11
248.4007101168692
 21
50.61726042752378
 31
0.000000000000000
  0
LINE
  5
13B
100
AcDbEntity
  8
A6
  6
CONTINUOUS
 62
7
100
AcDbLine
 10
248.4007101168692
 20
50.61726042752375
 30
0.000000000000000
 11
279.0557661168693
 21
50.61726042749322
 31
0.000000000000000
  0
ELLIPSE
  5
13C
100
AcDbEntity
  8
A6
  6
CONTINUOUS
 62
7
100
AcDbEllipse
 10
279.0557661168718
 20
53.11726042749331
 30
0.000000000000000
 11
0.000000000000000
 21
-2.500000000000000
 31
0.000000000000000
210
0.000000000000000
220
0.000000000000000
230
1.000000000000000
 40
0.5735760000000000
 41
6.283185307179586
 42
1.570796326794898
  0
LINE
  5
13D
100
AcDbEntity
  8
A9
  6
CONTINUOUS
 62
7
100
AcDbLine
 10
240.9638943636029
 20
107.1172612112261
 30
0.000000000000000
 11
248.9638947435826
 21
107.1172612112261
 31
0.000000000000000
  0
LINE
  5
13E
100
AcDbEntity
  8
A9
  6
CONTINUOUS
 62
7
100
AcDbLine
 10
240.9638943636030
 20
114.1172615437084
 30
0.000000000000000
 11
240.9638943636029
 21
107.1172612112262
 31
0.000000000000000
  0
LINE
  5
13F
100
AcDbEntity
  8
A9
  6
CONTINUOUS
 62
7
100
AcDbLine
 10
248.9638947435825
 20
114.1172615437082
 30
0.000000000000000
 11
240.9638943636030
 21
114.1172615437083
 31
0.000000000000000
  0
ARC
  5
140
100
AcDbEntity
  8
A9
  6
CONTINUOUS
 62
7
100
AcDbCircle
 10
250.3507105919036
 20
121.6172618999392
 30
0.000000000000000
 40
4.000000189989805
100
AcDbArc
 50
112.7990375080881
 51
247.2009624919119
  0
ARC
  5
141
100
AcDbEntity
  8
A9
  6
CONTINUOUS
 62
1
100
AcDbCircle
 10
250.3507105919036
 20
121.6172618999392
 30
0.000000000000000
 40
3.000000142492358
100
AcDbArc
 50
121.1089314633480
 51
238.8910685366520
  0
CIRCLE
  5
142
100
AcDbEntity
  8
A9
  6
CONTINUOUS
 62
7
100
AcDbCircle
 10
240.3507101169292
 20
99.61726085499538
 30
0.000000000000000
 40
4.000000189989805
  0
CIRCLE
  5
143
100
AcDbEntity
  8
A9
  6
CONTINUOUS
 62
1
100
AcDbCircle
 10
240.3507101169292
 20
99.61726085499538
 30
0.000000000000000
 40
3.000000142492350
  0
LINE
  5
144
100
AcDbEntity
  8
A9
  6
CENTER
 62
1
100
AcDbLine
 10
246.3507102594215
 20
99.61726085499538
 30
0.000000000000000
 11
234.3507099744368
 21
99.61726085499538
 31
0.000000000000000
  0
LINE
  5
145
100
AcDbEntity
  8
A9
  6
CENTER
 62
1
100
AcDbLine
 10
240.3507101169292
 20
105.6172609974877
 30
0.000000000000000
 11
240.3507101169292
 21
93.61726071250303
 31
0.000000000000000
  0
LINE
  5
146
100
AcDbEntity
  8
A10
  6
DASHED
 62
4
100
AcDbLine
 10
252.8507101619436
 20
130.6172604275638
 30
0.000000000000000
 11
252.8507101618850
 21
50.61726042770596
 31
0.000000000000000
  0
LINE
  5
147
100
AcDbEntity
  8
A10
  6
DASHED
 62
4
100
AcDbLine
 10
260.8507105418962
 20
130.6172604275638
 30
0.000000000000000
 11
260.8507105418962
 21
50.61726042750695
 31
0.000000000000000
  0
LINE
  5
148
100
AcDbEntity
  8
A10
  6
CENTER
 62
1
100
AcDbLine
 10
256.8507103519715
 20
138.5214209340519
 30
0.000000000000000
 11
256.8507103519715
 21
33.88889377177327
 31
0.000000000000000
  0
LINE
  5
149
100
AcDbEntity
  8
A6
  6
CONTINUOUS
 62
7
100
AcDbLine
 10
193.3507101169292
 20
130.6172604275638
 30
0.000000000000000
 11
278.8507101169292
 21
130.6172604275638
 31
0.000000000000000
  0
LINE
  5
14A
100
AcDbEntity
  8
A6
  6
CONTINUOUS
 62
7
100
AcDbLine
 10
193.3507101169292
 20
90.61726042756379
 30
0.000000000000000
 11
278.8507101169292
 21
90.61726042756379
 31
0.000000000000000
  0
LINE
  5
14B
100
AcDbEntity
  8
A11
  6
CONTINUOUS
 62
7
100
AcDbLine
 10
88.96916894499812
 20
228.6668198353496
 30
0.000000000000000
 11
128.9691708448958
 21
228.6668198353493
 31
0.000000000000000
  0
LINE
  5
14C
100
AcDbEntity
  8
A11
  6
CONTINUOUS
 62
7
100
AcDbLine
 10
88.96916894499797
 20
181.6668176029696
 30
0.000000000000000
 11
128.9691708448959
 21
181.6668176029694
 31
0.000000000000000
  0
LINE
  5
14D
100
AcDbEntity
  8
A11
  6
CONTINUOUS
 62
7
100
AcDbLine
 10
88.96916894499796
 20
177.6668174129798
 30
0.000000000000000
 11
128.9691708448959
 21
177.6668174129796
 31
0.000000000000000
  0
ELLIPSE
  5
14E
100
AcDbEntity
  8
A11
  6
CONTINUOUS
 62
7
100
AcDbEllipse
 10
84.63255914390021
 20
215.8938691027810
 30
0.000000000000000
 11
2.500000118743619
 21
0.000000000000000
 31
0.000000000000000
210
0.000000000000000
220
0.000000000000000
230
1.000000000000000
 40
0.8191520419506287
 41
0.06753834030996257
 42
1.570796326794899
  0
ELLIPSE
  5
14F
100
AcDbEntity
  8
A11
  6
CONTINUOUS
 62
7
100
AcDbEllipse
 10
51.46916716384358
 20
215.8938691027811
 30
0.000000000000000
 11
2.500000118743635
 21
0.000000000000000
 31
0.000000000000000
210
0.000000000000000
220
0.000000000000000
230
1.000000000000000
 40
0.8191520419506301
 41
1.570796326794896
 42
3.141592653589793
  0
LINE
  5
150
100
AcDbEntity
  8
A11
  6
CONTINUOUS
 62
7
100
AcDbLine
 10
87.12685964513463
 20
216.0320744079130
 30
0.000000000000000
 11
88.96916894499756
 21
193.7212488484031
 31
0.000000000000000
  0
LINE
  5
151
100
AcDbEntity
  8
A11
  6
CONTINUOUS
 62
7
100
AcDbLine
 10
51.46916716384344
 20
217.9417493049268
 30
0.000000000000000
 11
84.63255914390021
 21
217.9417493049268
 31
0.000000000000000
  0
LINE
  5
152
100
AcDbEntity
  8
A11
  6
CONTINUOUS
 62
7
100
AcDbLine
 10
48.96916704510007
 20
193.7212488484033
 30
0.000000000000000
 11
48.96916704510007
 21
193.6190968638449
 31
0.000000000000000
  0
LINE
  5
153
100
AcDbEntity
  8
A11
  6
CONTINUOUS
 62
7
100
AcDbLine
 10
88.96129406912731
 20
193.6168176760494
 30
0.000000000000000
 11
48.97707115769602
 21
193.6168176760495
 31
0.000000000000000
  0
LINE
  5
154
100
AcDbEntity
  8
A11
  6
CONTINUOUS
 62
7
100
AcDbLine
 10
48.97226104514589
 20
193.6168176560908
 30
0.000000000000000
 11
48.96916704510000
 21
193.6157531826035
 31
0.000000000000000
  0
LINE
  5
155
100
AcDbEntity
  8
A10
  6
CONTINUOUS
 62
7
100
AcDbLine
 10
128.9691708448960
 20
228.6668198353492
 30
0.000000000000000
 11
88.96916894499797
 21
228.6668198353491
 31
0.000000000000000
  0
SPLINE
  5
156
100
AcDbEntity
  8
A10
  6
CONTINUOUS
 62
7
100
AcDbSpline
210
0.000000000000000
220
0.000000000000000
230
1.000000000000000
 70
     8
 71
     3
 72
    21
 73
    17
 74
     0
 42
1.000000000000000e-07
 43
1.000000000000000e-07
 12
-1.000419862619310
 22
-0.03956353672037949
 32
0.000000000000000
 13
-0.02958666569884372
 23
-1.000250998908086
 33
0.000000000000000
 40
0.000000000000000
 40
0.000000000000000
 40
0.000000000000000
 40
0.000000000000000
 40
0.06320894587146110
 40
0.1264671885770320
 40
0.1805300892917611
 40
0.2346503153722143
 40
0.3150559622459849
 40
0.3953504709122143
 40
0.4456832635588888
 40
0.4960101997533193
 40
0.5452789213029451
 40
0.5945416974501354
 40
0.6427791226649805
 40
0.6910228742786996
 40
0.7381801815211182
 40
0.7852986122050337
 40
0.7852986122050337
 40
0.7852986122050337
 40
0.7852986122050337
 10
92.81835336813145
 20
236.6668217340838
 30
0.000000000000000
 10
92.79727487314977
 20
236.6659881442668
 30
0.000000000000000
 10
92.75510144400920
 20
236.6643203145139
 30
0.000000000000000
 10
92.69582346667011
 20
236.6526219267031
 30
0.000000000000000
 10
92.64126989724292
 20
236.6353121295418
 30
0.000000000000000
 10
92.58366213182893
 20
236.6098690999090
 30
0.000000000000000
 10
92.52205197472625
 20
236.5728254032342
 30
0.000000000000000
 10
92.46803406197085
 20
236.5272097565692
 30
0.000000000000000
 10
92.42788786163629
 20
236.4820456988062
 30
0.000000000000000
 10
92.39871078645780
 20
236.4413632042769
 30
0.000000000000000
 10
92.37386298082839
 20
236.3983242026393
 30
0.000000000000000
 10
92.35358699175623
 20
236.3537181306517
 30
0.000000000000000
 10
92.33776809572663
 20
236.3077015053961
 30
0.000000000000000
 10
92.32664549384737
 20
236.2610713812093
 30
0.000000000000000
 10
92.31974780504873
 20
236.2139649297998
 30
0.000000000000000
 10
92.31881803680170
 20
236.1825317961222
 30
0.000000000000000
 10
92.31835334438273
 20
236.1668217103360
 30
0.000000000000000
  0
SPLINE
  5
157
100
AcDbEntity
  8
A10
  6
CONTINUOUS
 62
7
100
AcDbSpline
210
0.000000000000000
220
0.000000000000000
230
1.000000000000000
 70
     8
 71
     3
 72
    21
 73
    17
 74
     0
 42
1.000000000000000e-07
 43
1.000000000000000e-07
 12
0.03031698816630524
 22
-0.9995458772318671
 32
0.000000000000000
 13
-0.001551673584799573
 23
-0.9999989647221810
 33
0.000000000000000
 40
0.000000000000000
 40
0.000000000000000
 40
0.000000000000000
 40
0.000000000000000
 40
0.008015919715851031
 40
0.01603172845389195
 40
0.03512791859914727
 40
0.05422650407032338
 40
0.1010071685366937
 40
0.1477798066216214
 40
0.1870092806413714
 40
0.2262440558241337
 40
0.2700002548318187
 40
0.3137549322331710
 40
0.3600200600256195
 40
0.4062855530241144
 40
0.4531568000037838
 40
0.5000279645486179
 40
0.5000279645486179
 40
0.5000279645486179
 40
0.5000279645486179
 10
97.96916937247505
 20
236.6668217340838
 30
0.000000000000000
 10
97.96925037865611
 20
236.6641509742491
 30
0.000000000000000
 10
97.96941238989672
 20
236.6588094915558
 30
0.000000000000000
 10
97.96963903641739
 20
236.6471021168067
 30
0.000000000000000
 10
97.96966486399168
 20
236.6316973534099
 30
0.000000000000000
 10
97.96925974529319
 20
236.6033746339720
 30
0.000000000000000
 10
97.96834075196711
 20
236.5658356224403
 30
0.000000000000000
 10
97.96754073445965
 20
236.5215788504178
 30
0.000000000000000
 10
97.96783727115434
 20
236.4798317238673
 30
0.000000000000000
 10
97.96846223667291
 20
236.4390967010654
 30
0.000000000000000
 10
97.96882106508366
 20
236.3968492243493
 30
0.000000000000000
 10
97.96901205068497
 20
236.3522576579381
 30
0.000000000000000
 10
97.96915119928582
 20
236.3068294139562
 30
0.000000000000000
 10
97.96922871519638
 20
236.2603621798142
 30
0.000000000000000
 10
97.96924210126616
 20
236.2136928538345
 30
0.000000000000000
 10
97.96919361539125
 20
236.1824454156760
 30
0.000000000000000
 10
97.96916937247528
 20
236.1668217103359
 30
0.000000000000000
  0
ARC
  5
158
100
AcDbEntity
  8
A10
  6
CONTINUOUS
 62
7
100
AcDbCircle
 10
103.1199853768186
 20
236.1668217103351
 30
0.000000000000000
 40
0.5000000237487159
100
AcDbArc
 50
1.526666247102488e-13
 51
90.00000000000057
  0
ARC
  5
159
100
AcDbEntity
  8
A10
  6
CONTINUOUS
 62
7
100
AcDbCircle
 10
106.4191697738285
 20
229.2668213826027
 30
0.000000000000000
 40
0.3000000142492364
100
AcDbArc
 50
270.0006738893239
 51
359.9999999999989
  0
ARC
  5
15A
100
AcDbEntity
  8
A10
  6
CONTINUOUS
 62
7
100
AcDbCircle
 10
89.51916897112159
 20
229.2668213826027
 30
0.000000000000000
 40
0.3000000142492364
100
AcDbArc
 50
180.0000000000015
 51
270.0000000000002
  0
LINE
  5
15B
100
AcDbEntity
  8
A10
  6
CONTINUOUS
 62
7
100
AcDbLine
 10
106.4191695514206
 20
228.9668213684395
 30
0.000000000000000
 11
106.4191695514206
 21
228.6668213612282
 31
0.000000000000000
  0
LINE
  5
15C
100
AcDbEntity
  8
A10
  6
CONTINUOUS
 62
7
100
AcDbLine
 10
89.51916919352968
 20
228.9668213684395
 30
0.000000000000000
 11
89.51916919352968
 21
228.6668213612281
 31
0.000000000000000
  0
LINE
  5
15D
100
AcDbEntity
  8
A10
  6
CONTINUOUS
 62
7
100
AcDbLine
 10
92.31835334438266
 20
236.1668217103349
 30
0.000000000000000
 11
92.31835334438247
 21
232.6668215440939
 31
0.000000000000000
  0
LINE
  5
15E
100
AcDbEntity
  8
A10
  6
CONTINUOUS
 62
7
100
AcDbLine
 10
97.96916937247494
 20
236.1668217103348
 30
0.000000000000000
 11
97.96916937247497
 21
232.6668215440937
 31
0.000000000000000
  0
LINE
  5
15F
100
AcDbEntity
  8
A10
  6
CONTINUOUS
 62
7
100
AcDbLine
 10
103.6199854005674
 20
236.1668217103350
 30
0.000000000000000
 11
103.6199854005676
 21
232.6668215440939
 31
0.000000000000000
  0
LINE
  5
160
100
AcDbEntity
  8
A10
  6
CONTINUOUS
 62
7
100
AcDbLine
 10
106.7191697880778
 20
229.2668213826026
 30
0.000000000000000
 11
106.7191697880778
 21
229.9668214158507
 31
0.000000000000000
  0
LINE
  5
161
100
AcDbEntity
  8
A10
  6
CONTINUOUS
 62
7
100
AcDbLine
 10
89.21916895687238
 20
229.9668214158509
 30
0.000000000000000
 11
89.21916895687238
 21
229.2668213826025
 31
0.000000000000000
  0
LINE
  5
162
100
AcDbEntity
  8
A10
  6
CONTINUOUS
 62
7
100
AcDbLine
 10
106.7191697880777
 20
229.9668214158509
 30
0.000000000000000
 11
89.21916895687227
 21
229.9668214158509
 31
0.000000000000000
  0
LINE
  5
163
100
AcDbEntity
  8
A10
  6
CONTINUOUS
 62
7
100
AcDbLine
 10
91.44425146996164
 20
232.6669215440941
 30
0.000000000000000
 11
89.21916895687252
 21
229.9668214158507
 31
0.000000000000000
  0
LINE
  5
164
100
AcDbEntity
  8
A10
  6
CONTINUOUS
 62
7
100
AcDbLine
 10
106.7191697880774
 20
229.9668214158511
 30
0.000000000000000
 11
104.4940872749886
 21
232.6669215440941
 31
0.000000000000000
  0
SPLINE
  5
165
100
AcDbEntity
  8
A10
  6
CONTINUOUS
 62
7
100
AcDbSpline
210
0.000000000000000
220
0.000000000000000
230
1.000000000000000
 70
     8
 71
     3
 72
    21
 73
    17
 74
     0
 42
1.000000000000000e-07
 43
1.000000000000000e-07
 12
-1.000419862622948
 22
-0.03956353672583646
 32
0.000000000000000
 13
-0.02958666568520130
 23
-1.000250998900810
 33
0.000000000000000
 40
0.000000000000000
 40
0.000000000000000
 40
0.000000000000000
 40
0.000000000000000
 40
0.06320894587158940
 40
0.1264671885770593
 40
0.1805300892920445
 40
0.2346503153720711
 40
0.3150559622459004
 40
0.3953504709123636
 40
0.4456832635584385
 40
0.4960101997525719
 40
0.5452789213032279
 40
0.5945416974501688
 40
0.6427791226644426
 40
0.6910228742785220
 40
0.7381801815211574
 40
0.7852986122051075
 40
0.7852986122051075
 40
0.7852986122051075
 40
0.7852986122051075
 10
114.8183544130754
 20
236.6668217340838
 30
0.000000000000000
 10
114.7972759180936
 20
236.6659881442667
 30
0.000000000000000
 10
114.7551024889530
 20
236.6643203145136
 30
0.000000000000000
 10
114.6958245116140
 20
236.6526219267027
 30
0.000000000000000
 10
114.6412709421866
 20
236.6353121295418
 30
0.000000000000000
 10
114.5836631767727
 20
236.6098690999092
 30
0.000000000000000
 10
114.5220530196702
 20
236.5728254032343
 30
0.000000000000000
 10
114.4680351069149
 20
236.5272097565692
 30
0.000000000000000
 10
114.4278889065806
 20
236.4820456988064
 30
0.000000000000000
 10
114.3987118314021
 20
236.4413632042770
 30
0.000000000000000
 10
114.3738640257721
 20
236.3983242026396
 30
0.000000000000000
 10
114.3535880367004
 20
236.3537181306515
 30
0.000000000000000
 10
114.3377691406701
 20
236.3077015053964
 30
0.000000000000000
 10
114.3266465387914
 20
236.2610713812094
 30
0.000000000000000
 10
114.3197488499920
 20
236.2139649297998
 30
0.000000000000000
 10
114.3188190817454
 20
236.1825317961221
 30
0.000000000000000
 10
114.3183543893267
 20
236.1668217103360
 30
0.000000000000000
  0
SPLINE
  5
166
100
AcDbEntity
  8
A10
  6
CONTINUOUS
 62
7
100
AcDbSpline
210
0.000000000000000
220
0.000000000000000
230
1.000000000000000
 70
     8
 71
     3
 72
    21
 73
    17
 74
     0
 42
1.000000000000000e-07
 43
1.000000000000000e-07
 12
0.03031698821723694
 22
-0.9995458771736594
 32
0.000000000000000
 13
-0.001551673599351489
 23
-0.9999989647240000
 33
0.000000000000000
 40
0.000000000000000
 40
0.000000000000000
 40
0.000000000000000
 40
0.000000000000000
 40
0.008015919715797451
 40
0.01603172845412032
 40
0.03512791859920367
 40
0.05422650407015529
 40
0.1010071685362744
 40
0.1477798066210432
 40
0.1870092806411927
 40
0.2262440558242363
 40
0.2700002548317569
 40
0.3137549322334458
 40
0.3600200600250441
 40
0.4062855530242198
 40
0.4531568000039461
 40
0.5000279645484959
 40
0.5000279645484959
 40
0.5000279645484959
 40
0.5000279645484959
 10
119.9691704174190
 20
236.6668217340838
 30
0.000000000000000
 10
119.9692514236002
 20
236.6641509742493
 30
0.000000000000000
 10
119.9694134348410
 20
236.6588094915559
 30
0.000000000000000
 10
119.9696400813611
 20
236.6471021168065
 30
0.000000000000000
 10
119.9696659089353
 20
236.6316973534101
 30
0.000000000000000
 10
119.9692607902361
 20
236.6033746339721
 30
0.000000000000000
 10
119.9683417969124
 20
236.5658356224405
 30
0.000000000000000
 10
119.9675417794027
 20
236.5215788504182
 30
0.000000000000000
 10
119.9678383160987
 20
236.4798317238676
 30
0.000000000000000
 10
119.9684632816160
 20
236.4390967010652
 30
0.000000000000000
 10
119.9688221100288
 20
236.3968492243493
 30
0.000000000000000
 10
119.9690130956276
 20
236.3522576579381
 30
0.000000000000000
 10
119.9691522442308
 20
236.3068294139560
 30
0.000000000000000
 10
119.9692297601393
 20
236.2603621798144
 30
0.000000000000000
 10
119.9692431462103
 20
236.2136928538345
 30
0.000000000000000
 10
119.9691946603354
 20
236.1824454156760
 30
0.000000000000000
 10
119.9691704174192
 20
236.1668217103360
 30
0.000000000000000
  0
ARC
  5
167
100
AcDbEntity
  8
A10
  6
CONTINUOUS
 62
7
100
AcDbCircle
 10
125.1199864217626
 20
236.1668217103351
 30
0.000000000000000
 40
0.5000000237487114
100
AcDbArc
 50
359.9999999999994
 51
450.0000000000006
  0
ARC
  5
168
100
AcDbEntity
  8
A10
  6
CONTINUOUS
 62
7
100
AcDbCircle
 10
128.4191708187724
 20
229.2668213826027
 30
0.000000000000000
 40
0.3000000142492364
100
AcDbArc
 50
270.0006738893233
 51
359.9999999999989
  0
ARC
  5
169
100
AcDbEntity
  8
A10
  6
CONTINUOUS
 62
7
100
AcDbCircle
 10
111.5191700160655
 20
229.2668213826027
 30
0.000000000000000
 40
0.3000000142492364
100
AcDbArc
 50
180.0000000000015
 51
270.0000000000002
  0
LINE
  5
16A
100
AcDbEntity
  8
A10
  6
CONTINUOUS
 62
7
100
AcDbLine
 10
128.4191705963645
 20
228.9668213684396
 30
0.000000000000000
 11
128.4191705963645
 21
228.6668213612282
 31
0.000000000000000
  0
LINE
  5
16B
100
AcDbEntity
  8
A10
  6
CONTINUOUS
 62
7
100
AcDbLine
 10
111.5191702384736
 20
228.9668213684395
 30
0.000000000000000
 11
111.5191702384736
 21
228.6668213612282
 31
0.000000000000000
  0
LINE
  5
16C
100
AcDbEntity
  8
A10
  6
CONTINUOUS
 62
7
100
AcDbLine
 10
114.3183543893266
 20
236.1668217103349
 30
0.000000000000000
 11
114.3183543893264
 21
232.6668215440939
 31
0.000000000000000
  0
LINE
  5
16D
100
AcDbEntity
  8
A10
  6
CONTINUOUS
 62
7
100
AcDbLine
 10
119.9691704174190
 20
236.1668217103350
 30
0.000000000000000
 11
119.9691704174190
 21
232.6668215440939
 31
0.000000000000000
  0
LINE
  5
16E
100
AcDbEntity
  8
A10
  6
CONTINUOUS
 62
7
100
AcDbLine
 10
125.6199864455114
 20
236.1668217103352
 30
0.000000000000000
 11
125.6199864455116
 21
232.6668215440941
 31
0.000000000000000
  0
LINE
  5
16F
100
AcDbEntity
  8
A10
  6
CONTINUOUS
 62
7
100
AcDbLine
 10
128.7191708330216
 20
229.2668213826026
 30
0.000000000000000
 11
128.7191708330216
 21
229.9668214158507
 31
0.000000000000000
  0
LINE
  5
170
100
AcDbEntity
  8
A10
  6
CONTINUOUS
 62
7
100
AcDbLine
 10
111.2191700018163
 20
229.9668214158509
 30
0.000000000000000
 11
111.2191700018163
 21
229.2668213826026
 31
0.000000000000000
  0
LINE
  5
171
100
AcDbEntity
  8
A10
  6
CONTINUOUS
 62
7
100
AcDbLine
 10
128.7191708330216
 20
229.9668214158510
 30
0.000000000000000
 11
111.2191700018162
 21
229.9668214158509
 31
0.000000000000000
  0
LINE
  5
172
100
AcDbEntity
  8
A10
  6
CONTINUOUS
 62
7
100
AcDbLine
 10
113.4442525149053
 20
232.6669215440940
 30
0.000000000000000
 11
111.2191700018162
 21
229.9668214158506
 31
0.000000000000000
  0
LINE
  5
173
100
AcDbEntity
  8
A10
  6
CONTINUOUS
 62
7
100
AcDbLine
 10
128.7191708330216
 20
229.9668214158509
 30
0.000000000000000
 11
126.4940883199327
 21
232.6669215440941
 31
0.000000000000000
  0
LINE
  5
174
100
AcDbEntity
  8
A10
  6
CENTER
 62
1
100
AcDbLine
 10
119.9691704174190
 20
222.6652206640878
 30
0.000000000000000
 11
119.9691704174190
 21
232.6668215440941
 31
0.000000000000000
  0
LINE
  5
175
100
AcDbEntity
  8
A10
  6
CENTER
 62
1
100
AcDbLine
 10
119.9691704174190
 20
236.6668217340840
 30
0.000000000000000
 11
119.9691704174190
 21
238.7645767577239
 31
0.000000000000000
  0
LINE
  5
176
100
AcDbEntity
  8
A10
  6
CENTER
 62
1
100
AcDbLine
 10
97.96916937247516
 20
222.6652206640878
 30
0.000000000000000
 11
97.96916937247516
 21
232.6668215440941
 31
0.000000000000000
  0
LINE
  5
177
100
AcDbEntity
  8
A10
  6
CENTER
 62
1
100
AcDbLine
 10
97.96916937247516
 20
236.6668217340840
 30
0.000000000000000
 11
97.96916937247516
 21
238.7645767577239
 31
0.000000000000000
  0
LINE
  5
178
100
AcDbEntity
  8
A10
  6
CONTINUOUS
 62
7
100
AcDbLine
 10
92.81835336813130
 20
236.6668217340838
 30
0.000000000000000
 11
103.1199853768187
 21
236.6668217340839
 31
0.000000000000000
  0
LINE
  5
179
100
AcDbEntity
  8
A10
  6
CONTINUOUS
 62
7
100
AcDbLine
 10
114.8183544130752
 20
236.6668217340838
 30
0.000000000000000
 11
125.1199864217626
 21
236.6668217340839
 31
0.000000000000000
  0
LINE
  5
17A
100
AcDbEntity
  8
A10
  6
CONTINUOUS
 62
7
100
AcDbLine
 10
113.4441701074979
 20
232.6668215440939
 30
0.000000000000000
 11
126.4941707273398
 21
232.6668215440940
 31
0.000000000000000
  0
LINE
  5
17B
100
AcDbEntity
  8
A10
  6
CONTINUOUS
 62
7
100
AcDbLine
 10
91.44416906255398
 20
232.6668215440940
 30
0.000000000000000
 11
104.4941696823959
 21
232.6668215440940
 31
0.000000000000000
  0
LINE
  5
17C
100
AcDbEntity
  8
A11
  6
CONTINUOUS
 62
7
100
AcDbLine
 10
88.96916894499803
 20
177.6668174129796
 30
0.000000000000000
 11
88.96916894499854
 21
228.6668198353496
 31
0.000000000000000
  0
LINE
  5
17D
100
AcDbEntity
  8
A11
  6
CONTINUOUS
 62
7
100
AcDbLine
 10
48.96916704509935
 20
178.0168174133653
 30
0.000000000000000
 11
48.96916704510004
 21
215.8938691027811
 31
0.000000000000000
  0
LINE
  5
17E
100
AcDbEntity
  8
A11
  6
CONTINUOUS
 62
7
100
AcDbLine
 10
128.9691708448960
 20
177.6668174129795
 30
0.000000000000000
 11
128.9691708448958
 21
228.6668198353495
 31
0.000000000000000
  0
LINE
  5
17F
100
AcDbEntity
  8
A10
  6
CONTINUOUS
 62
7
100
AcDbLine
 10
88.96916894499807
 20
178.0168174133060
 30
0.000000000000000
 11
48.96916704666383
 21
178.0168174133653
 31
0.000000000000000
  0
ENDSEC
  0
SECTION
  2
OBJECTS
  0
DICTIONARY
  5
1AE
100
AcDbDictionary
  3
ACAD_GROUP
350
1AF
  3
ACAD_LAYOUT
350
1B0
  3
ACAD_MLINESTYLE
350
1B1
  0
DICTIONARY
  5
1AF
102
{ACAD_REACTORS
330
1AE
102
}
330
1AE
100
AcDbDictionary
  0
DICTIONARY
  5
1B0
102
{ACAD_REACTORS
330
1AE
102
}
330
1AE
100
AcDbDictionary
  3
Model
350
1B2
  3
ﾚｲｱｳﾄ1
350
1B3
  3
ﾚｲｱｳﾄ2
350
1B4
  0
DICTIONARY
  5
1B1
102
{ACAD_REACTORS
330
1AE
102
}
330
1AE
100
AcDbDictionary
  3
STANDARD
350
1B5
  0
LAYOUT
  5
1B2
102
{ACAD_REACTORS
330
1B0
102
}
330
1B0
100
AcDbPlotSettings
 70
11952
  4
A3
 44
297.000000
 45
420.000000
 73
  1
 72
  1
100
AcDbLayout
  1
Model
 71
0
330
1A5
  0
LAYOUT
  5
1B3
102
{ACAD_REACTORS
330
1B0
102
}
330
1B0
100
AcDbPlotSettings
100
AcDbLayout
  1
ﾚｲｱｳﾄ1
 71
1
330
1A6
  0
LAYOUT
  5
1B4
102
{ACAD_REACTORS
330
1B0
102
}
330
1B0
100
AcDbPlotSettings
100
AcDbLayout
  1
ﾚｲｱｳﾄ2
 71
2
330
1A7
  0
MLINESTYLE
  5
1B5
102
{ACAD_REACTORS
330
1B1
102
}
330
1B1
100
AcDbMlineStyle
  2
STANDARD
 70
     0
  3

 62
   256
 51
90.00
 52
90.00
 71
     2
 49
0.50
 62
   256
  6
BYLAYER
 49
-0.50
 62
   256
  6
BYLAYER
  0
ENDSEC
  0
EOF
