  0
SECTION
  2
HEADER
  9
$ACADVER
  1
AC1012
  9
$DWGCODEPAGE
  3
dos932
  9
$INSBASE
 10
0.0
 20
0.0
 30
0.0
  9
$EXTMIN
 10
9.984255307795933
 20
9.991331548163145
 30
-0.0015258207003583
  9
$EXTMAX
 10
291.6672996548733
 20
229.5721795183437
 30
0.0000000349246037
  9
$LIMMIN
 10
0.0000015376081137
 20
-0.0000001931533977
  9
$LIMMAX
 10
356.0000015376081
 20
245.424242231089
  9
$ORTHOMODE
 70
     1
  9
$REGENMODE
 70
     1
  9
$FILLMODE
 70
     1
  9
$QTEXTMODE
 70
     0
  9
$MIRRTEXT
 70
     1
  9
$DRAGMODE
 70
     2
  9
$LTSCALE
 40
1.0
  9
$OSMODE
 70
    37
  9
$ATTMODE
 70
     1
  9
$TEXTSIZE
 40
2.5
  9
$TRACEWID
 40
1.0
  9
$TEXTSTYLE
  7
STANDARD
  9
$CLAYER
  8
0
  9
$CELTYPE
  6
BYLAYER
  9
$CECOLOR
 62
   256
  9
$CELTSCALE
 40
1.0
  9
$DELOBJ
 70
     1
  9
$DISPSILH
 70
     0
  9
$DIMSCALE
 40
1.0
  9
$DIMASZ
 40
3.0
  9
$DIMEXO
 40
1.0
  9
$DIMDLI
 40
10.0
  9
$DIMRND
 40
0.0
  9
$DIMDLE
 40
0.0
  9
$DIMEXE
 40
1.0
  9
$DIMTP
 40
0.0
  9
$DIMTM
 40
0.0
  9
$DIMTXT
 40
3.2
  9
$DIMCEN
 40
0.0
  9
$DIMTSZ
 40
0.0
  9
$DIMTOL
 70
     0
  9
$DIMLIM
 70
     0
  9
$DIMTIH
 70
     0
  9
$DIMTOH
 70
     0
  9
$DIMSE1
 70
     0
  9
$DIMSE2
 70
     0
  9
$DIMTAD
 70
     3
  9
$DIMZIN
 70
     8
  9
$DIMBLK
  1

  9
$DIMASO
 70
     1
  9
$DIMSHO
 70
     1
  9
$DIMPOST
  1

  9
$DIMAPOST
  1

  9
$DIMALT
 70
     0
  9
$DIMALTD
 70
     2
  9
$DIMALTF
 40
25.4
  9
$DIMLFAC
 40
1.0
  9
$DIMTOFL
 70
     1
  9
$DIMTVP
 40
0.0
  9
$DIMTIX
 70
     0
  9
$DIMSOXD
 70
     0
  9
$DIMSAH
 70
     1
  9
$DIMBLK1
  1
OPEN
  9
$DIMBLK2
  1
OPEN
  9
$DIMSTYLE
  2
STANDARD
  9
$DIMCLRD
 70
     0
  9
$DIMCLRE
 70
     0
  9
$DIMCLRT
 70
     0
  9
$DIMTFAC
 40
1.0
  9
$DIMGAP
 40
1.0
  9
$DIMJUST
 70
     0
  9
$DIMSD1
 70
     0
  9
$DIMSD2
 70
     0
  9
$DIMTOLJ
 70
     1
  9
$DIMTZIN
 70
     0
  9
$DIMALTZ
 70
     0
  9
$DIMALTTZ
 70
     0
  9
$DIMFIT
 70
     3
  9
$DIMUPT
 70
     0
  9
$DIMUNIT
 70
     2
  9
$DIMDEC
 70
     4
  9
$DIMTDEC
 70
     4
  9
$DIMALTU
 70
     2
  9
$DIMALTTD
 70
     2
  9
$DIMTXSTY
  7
STANDARD
  9
$DIMAUNIT
 70
     0
  9
$LUNITS
 70
     2
  9
$LUPREC
 70
     4
  9
$SKETCHINC
 40
1.0
  9
$FILLETRAD
 40
0.0
  9
$AUNITS
 70
     0
  9
$AUPREC
 70
     0
  9
$MENU
  1
.
  9
$ELEVATION
 40
0.0
  9
$PELEVATION
 40
0.0
  9
$THICKNESS
 40
0.0
  9
$LIMCHECK
 70
     0
  9
$BLIPMODE
 70
     0
  9
$CHAMFERA
 40
10.0
  9
$CHAMFERB
 40
10.0
  9
$CHAMFERC
 40
20.0
  9
$CHAMFERD
 40
0.0
  9
$SKPOLY
 70
     0
  9
$TDCREATE
 40
2453768.674049479
  9
$TDUPDATE
 40
2453866.474072257
  9
$TDINDWG
 40
0.0363350000
  9
$TDUSRTIMER
 40
0.0363350000
  9
$USRTIMER
 70
     1
  9
$ANGBASE
 50
0.0
  9
$ANGDIR
 70
     0
  9
$PDMODE
 70
     0
  9
$PDSIZE
 40
0.0
  9
$PLINEWID
 40
0.0
  9
$COORDS
 70
     1
  9
$SPLFRAME
 70
     0
  9
$SPLINETYPE
 70
     6
  9
$SPLINESEGS
 70
     8
  9
$ATTDIA
 70
     0
  9
$ATTREQ
 70
     1
  9
$HANDLING
 70
-16383
  9
$HANDSEED
  5
92D
  9
$SURFTAB1
 70
     6
  9
$SURFTAB2
 70
     6
  9
$SURFTYPE
 70
     6
  9
$SURFU
 70
     6
  9
$SURFV
 70
     6
  9
$UCSNAME
  2

  9
$UCSORG
 10
0.0
 20
0.0
 30
0.0
  9
$UCSXDIR
 10
1.0
 20
0.0
 30
0.0
  9
$UCSYDIR
 10
0.0
 20
1.0
 30
0.0
  9
$PUCSNAME
  2

  9
$PUCSORG
 10
0.0
 20
0.0
 30
0.0
  9
$PUCSXDIR
 10
1.0
 20
0.0
 30
0.0
  9
$PUCSYDIR
 10
0.0
 20
1.0
 30
0.0
  9
$USERI1
 70
     0
  9
$USERI2
 70
     0
  9
$USERI3
 70
     0
  9
$USERI4
 70
     0
  9
$USERI5
 70
     0
  9
$USERR1
 40
0.0
  9
$USERR2
 40
0.0
  9
$USERR3
 40
0.0
  9
$USERR4
 40
0.0
  9
$USERR5
 40
0.0
  9
$WORLDVIEW
 70
     1
  9
$SHADEDGE
 70
     3
  9
$SHADEDIF
 70
    70
  9
$TILEMODE
 70
     1
  9
$MAXACTVP
 70
    48
  9
$PINSBASE
 10
0.0
 20
0.0
 30
0.0
  9
$PLIMCHECK
 70
     0
  9
$PEXTMIN
 10
27.8447512626648
 20
20.24591643810271
 30
0.0
  9
$PEXTMAX
 10
250.6027613639831
 20
182.2132479429244
 30
0.0
  9
$PLIMMIN
 10
-3.757080078125
 20
-3.757083177566528
  9
$PLIMMAX
 10
293.2112426757812
 20
206.2162444591522
  9
$UNITMODE
 70
     0
  9
$VISRETAIN
 70
     1
  9
$PLINEGEN
 70
     0
  9
$PSLTSCALE
 70
     1
  9
$TREEDEPTH
 70
  3020
  9
$PICKSTYLE
 70
     1
  9
$CMLSTYLE
  2
STANDARD
  9
$CMLJUST
 70
     0
  9
$CMLSCALE
 40
20.0
  9
$SAVEIMAGES
 70
     1
  0
ENDSEC
  0
SECTION
  2
CLASSES
  0
CLASS
  1
ACDBDICTIONARYWDFLT
  2
AcDbDictionaryWithDefault
  3
AutoCAD 2000
 90
    32768
280
     0
281
     0
  0
CLASS
  1
ACDBPLACEHOLDER
  2
AcDbPlaceHolder
  3
AutoCAD 2000
 90
    32768
280
     0
281
     0
  0
CLASS
  1
LAYOUT
  2
AcDbLayout
  3
AutoCAD 2000
 90
    32768
280
     0
281
     0
  0
CLASS
  1
DICTIONARYVAR
  2
AcDbDictionaryVar
  3
AutoCAD 2000
 90
    32768
280
     0
281
     0
  0
CLASS
  1
LONG_TRANSACTION
  2
AcDbLongTransaction
  3
AutoCAD 2000
 90
    32768
280
     0
281
     0
  0
CLASS
  1
LWPOLYLINE
  2
AcDbPolyline
  3
AutoCAD 2000
 90
    32768
280
     0
281
     1
  0
CLASS
  1
HATCH
  2
AcDbHatch
  3
AutoCAD 2000
 90
    32768
280
     0
281
     1
  0
CLASS
  1
XRECORD
  2
AcDbXrecord
  3
AutoCAD 2000
 90
    32768
280
     0
281
     0
  0
ENDSEC
  0
SECTION
  2
TABLES
  0
TABLE
  2
VPORT
  5
8
330
0
100
AcDbSymbolTable
 70
     2
  0
VPORT
  5
928
330
8
100
AcDbSymbolTableRecord
100
AcDbViewportTableRecord
  2
*ACTIVE
 70
     0
 10
0.0
 20
0.0
 11
1.0
 21
1.0
 12
150.8257774813346
 22
119.7817555332534
 13
0.0
 23
0.0
 14
10.0
 24
10.0
 15
10.0
 25
10.0
 16
0.0
 26
0.0
 36
1.0
 17
0.0
 27
0.0
 37
0.0
 40
221.6754188570186
 41
1.713375796178343
 42
50.0
 43
0.0
 44
0.0
 50
0.0
 51
0.0
 71
     0
 72
   100
 73
     1
 74
     0
 75
     0
 76
     0
 77
     0
 78
     0
  0
ENDTAB
  0
TABLE
  2
LTYPE
  5
5
330
0
100
AcDbSymbolTable
 70
     4
  0
LTYPE
  5
12
330
5
100
AcDbSymbolTableRecord
100
AcDbLinetypeTableRecord
  2
BYBLOCK
 70
     0
  3

 72
    65
 73
     0
 40
0.0
  0
LTYPE
  5
13
330
5
100
AcDbSymbolTableRecord
100
AcDbLinetypeTableRecord
  2
BYLAYER
 70
     0
  3

 72
    65
 73
     0
 40
0.0
  0
LTYPE
  5
14
330
5
100
AcDbSymbolTableRecord
100
AcDbLinetypeTableRecord
  2
CONTINUOUS
 70
     0
  3
Solid line
 72
    65
 73
     0
 40
0.0
  0
LTYPE
  5
4B
330
5
100
AcDbSymbolTableRecord
100
AcDbLinetypeTableRecord
  2
DASHED
 70
     0
  3
Dashed __ __ __ __ __ __ __ __ __ __ __ __ __ _
 72
    65
 73
     2
 40
19.04999999999999
 49
12.7
 74
     0
 49
-6.349999999999999
 74
     0
  0
LTYPE
  5
4C
330
5
100
AcDbSymbolTableRecord
100
AcDbLinetypeTableRecord
  2
CENTER
 70
     0
  3
Center ____ _ ____ _ ____ _ ____ _ ____ _ ____
 72
    65
 73
     4
 40
50.8
 49
31.75
 74
     0
 49
-6.349999999999999
 74
     0
 49
6.349999999999999
 74
     0
 49
-6.349999999999999
 74
     0
  0
LTYPE
  5
4D
330
5
100
AcDbSymbolTableRecord
100
AcDbLinetypeTableRecord
  2
PHANTOM
 70
     0
  3
Phantom ______  __  __  ______  __  __  ______
 72
    65
 73
     6
 40
63.5
 49
31.75
 74
     0
 49
-6.349999999999999
 74
     0
 49
6.349999999999999
 74
     0
 49
-6.349999999999999
 74
     0
 49
6.349999999999999
 74
     0
 49
-6.349999999999999
 74
     0
  0
ENDTAB
  0
TABLE
  2
LAYER
  5
2
330
0
100
AcDbSymbolTable
 70
     8
  0
LAYER
  5
E
330
2
100
AcDbSymbolTableRecord
100
AcDbLayerTableRecord
  2
0
 70
     0
 62
     7
  6
CONTINUOUS
  0
LAYER
  5
4E
330
2
100
AcDbSymbolTableRecord
100
AcDbLayerTableRecord
  2
4
 70
     0
 62
     1
  6
CENTER
  0
LAYER
  5
4F
330
2
100
AcDbSymbolTableRecord
100
AcDbLayerTableRecord
  2
5
 70
     0
 62
     6
  6
PHANTOM
  0
LAYER
  5
50
330
2
100
AcDbSymbolTableRecord
100
AcDbLayerTableRecord
  2
1
 70
     0
 62
     7
  6
CONTINUOUS
  0
LAYER
  5
51
330
2
100
AcDbSymbolTableRecord
100
AcDbLayerTableRecord
  2
2
 70
     0
 62
     4
  6
CONTINUOUS
  0
LAYER
  5
52
330
2
100
AcDbSymbolTableRecord
100
AcDbLayerTableRecord
  2
3
 70
     0
 62
     2
  6
DASHED
  0
LAYER
  5
53
330
2
100
AcDbSymbolTableRecord
100
AcDbLayerTableRecord
  2
6
 70
     0
 62
     5
  6
CONTINUOUS
  0
LAYER
  5
54
330
2
100
AcDbSymbolTableRecord
100
AcDbLayerTableRecord
  2
7
 70
     0
 62
     3
  6
CONTINUOUS
  0
ENDTAB
  0
TABLE
  2
STYLE
  5
3
330
0
100
AcDbSymbolTable
 70
     1
  0
STYLE
  5
F
330
3
100
AcDbSymbolTableRecord
100
AcDbTextStyleTableRecord
  2
STANDARD
 70
     0
 40
0.0
 41
1.0
 50
0.0
 71
     0
 42
2.5
  3
simplex.shx
  4

  0
ENDTAB
  0
TABLE
  2
VIEW
  5
6
330
0
100
AcDbSymbolTable
 70
     0
  0
ENDTAB
  0
TABLE
  2
UCS
  5
7
330
0
100
AcDbSymbolTable
 70
     0
  0
ENDTAB
  0
TABLE
  2
APPID
  5
9
330
0
100
AcDbSymbolTable
 70
     3
  0
APPID
  5
10
330
9
100
AcDbSymbolTableRecord
100
AcDbRegAppTableRecord
  2
ACAD
 70
     0
  0
APPID
  5
3E
330
9
100
AcDbSymbolTableRecord
100
AcDbRegAppTableRecord
  2
CONTENTTABDATA
 70
     0
  0
APPID
  5
3F
330
9
100
AcDbSymbolTableRecord
100
AcDbRegAppTableRecord
  2
CONTENTCURRENTTAB
 70
     0
  0
ENDTAB
  0
TABLE
  2
DIMSTYLE
  5
A
330
0
100
AcDbSymbolTable
 70
     1
  0
DIMSTYLE
105
1D
330
A
100
AcDbSymbolTableRecord
100
AcDbDimStyleTableRecord
  2
STANDARD
 70
     0
  3

  4

  5

  6
OPEN
  7
OPEN
 40
1.0
 41
3.0
 42
1.0
 43
10.0
 44
1.0
 45
0.0
 46
0.0
 47
0.0
 48
0.0
140
3.2
141
0.0
142
0.0
143
25.4
144
1.0
145
0.0
146
1.0
147
1.0
 71
     0
 72
     0
 73
     0
 74
     0
 75
     0
 76
     0
 77
     3
 78
     8
170
     0
171
     2
172
     1
173
     1
174
     0
175
     0
176
     0
177
     0
178
     0
270
     2
271
     4
272
     4
273
     2
274
     2
340
F
275
     0
280
     0
281
     0
282
     0
283
     1
284
     0
285
     0
286
     0
287
     3
288
     0
  0
ENDTAB
  0
TABLE
  2
BLOCK_RECORD
  5
1
330
0
100
AcDbSymbolTable
 70
     1
  0
BLOCK_RECORD
  5
18
102
{ACAD_XDICTIONARY
360
92B
102
}
330
1
100
AcDbSymbolTableRecord
100
AcDbBlockTableRecord
  2
*MODEL_SPACE
  0
BLOCK_RECORD
  5
15
102
{ACAD_XDICTIONARY
360
929
102
}
330
1
100
AcDbSymbolTableRecord
100
AcDbBlockTableRecord
  2
*PAPER_SPACE
  0
BLOCK_RECORD
  5
2E
330
1
100
AcDbSymbolTableRecord
100
AcDbBlockTableRecord
  2
_OPEN
  0
ENDTAB
  0
ENDSEC
  0
SECTION
  2
BLOCKS
  0
BLOCK
  5
19
330
18
100
AcDbEntity
  8
0
100
AcDbBlockBegin
  2
*MODEL_SPACE
 70
     0
 10
0.0
 20
0.0
 30
0.0
  3
*MODEL_SPACE
  1

  0
ENDBLK
  5
1A
330
18
100
AcDbEntity
  8
0
100
AcDbBlockEnd
  0
BLOCK
  5
16
330
15
100
AcDbEntity
 67
     1
  8
0
100
AcDbBlockBegin
  2
*PAPER_SPACE
 70
     0
 10
0.0
 20
0.0
 30
0.0
  3
*PAPER_SPACE
  1

  0
ENDBLK
  5
17
330
15
100
AcDbEntity
 67
     1
  8
0
100
AcDbBlockEnd
  0
BLOCK
  5
2F
330
2E
100
AcDbEntity
  8
0
100
AcDbBlockBegin
  2
_OPEN
 70
     0
 10
0.0
 20
0.0
 30
0.0
  3
_OPEN
  1

  0
LINE
  5
30
330
2E
100
AcDbEntity
  8
0
  6
BYBLOCK
 62
     0
100
AcDbLine
 10
-1.0
 20
0.1666666666666666
 30
0.0
 11
0.0
 21
0.0
 31
0.0
  0
LINE
  5
31
330
2E
100
AcDbEntity
  8
0
  6
BYBLOCK
 62
     0
100
AcDbLine
 10
0.0
 20
0.0
 30
0.0
 11
-1.0
 21
-0.1666666666666666
 31
0.0
  0
LINE
  5
32
330
2E
100
AcDbEntity
  8
0
  6
BYBLOCK
 62
     0
100
AcDbLine
 10
0.0
 20
0.0
 30
0.0
 11
-1.0
 21
0.0
 31
0.0
  0
ENDBLK
  5
33
330
2E
100
AcDbEntity
  8
0
100
AcDbBlockEnd
  0
ENDSEC
  0
SECTION
  2
ENTITIES
  0
TEXT
  5
63
330
18
100
AcDbEntity
  8
4
  6
CENTER
 48
0.25
100
AcDbText
 10
23.97950852663849
 20
10.0
 30
0.0
 40
1.399999999999999
  1
4
100
AcDbText
  0
TEXT
  5
64
330
18
100
AcDbEntity
  8
7
  6
CONTINUOUS
 48
0.25
100
AcDbText
 10
9.999997526638502
 20
26.0000007607689
 30
0.0
 40
3.0
  1
CODE No.2744
100
AcDbText
  0
TEXT
  5
65
330
18
100
AcDbEntity
  8
7
  6
CONTINUOUS
 48
0.25
100
AcDbText
 10
9.999997526638502
 20
18.00000076076889
 30
0.0
 40
3.0
  1
TYPE No.TEH-1054-U5
100
AcDbText
  0
TEXT
  5
66
330
18
100
AcDbEntity
  8
1
  6
CONTINUOUS
 48
0.25
100
AcDbText
 10
9.999997526638502
 20
10.00000076076889
 30
0.0
 40
1.399999999999999
  1
LAYER
100
AcDbText
  0
TEXT
  5
67
330
18
100
AcDbEntity
  8
2
  6
CONTINUOUS
 48
0.25
100
AcDbText
 10
19.9795085266385
 20
10.0
 30
0.0
 40
1.399999999999999
  1
2
100
AcDbText
  0
TEXT
  5
68
330
18
100
AcDbEntity
  8
3
  6
DASHED
 48
0.25
100
AcDbText
 10
21.9795085266385
 20
10.0
 30
0.0
 40
1.399999999999999
  1
3
100
AcDbText
  0
TEXT
  5
69
330
18
100
AcDbEntity
  8
1
  6
CONTINUOUS
 48
0.25
100
AcDbText
 10
17.9795085266385
 20
10.0
 30
0.0
 40
1.399999999999999
  1
1
100
AcDbText
  0
TEXT
  5
6A
330
18
100
AcDbEntity
  8
5
  6
PHANTOM
 48
0.25
100
AcDbText
 10
25.9795085266385
 20
10.0
 30
0.0
 40
1.399999999999999
  1
5
100
AcDbText
  0
TEXT
  5
6B
330
18
100
AcDbEntity
  8
6
  6
CONTINUOUS
 48
0.25
100
AcDbText
 10
27.9795085266385
 20
10.0
 30
0.0
 40
1.399999999999999
  1
6
100
AcDbText
  0
TEXT
  5
6C
330
18
100
AcDbEntity
  8
7
  6
CONTINUOUS
 48
0.25
100
AcDbText
 10
29.9795085266385
 20
10.0
 30
0.0
 40
1.399999999999999
  1
7
100
AcDbText
  0
LINE
  5
5A1
330
18
100
AcDbEntity
  8
1
  6
CONTINUOUS
100
AcDbLine
 10
176.112842319591
 20
99.39083182681574
 30
0.0
 11
184.9804470529967
 21
99.39083182681574
 31
0.0
  0
LINE
  5
5A2
330
18
100
AcDbEntity
  8
1
  6
CONTINUOUS
100
AcDbLine
 10
176.112842319591
 20
100.0908318600639
 30
0.0
 11
184.9804470529967
 21
100.0908318600639
 31
0.0
  0
LINE
  5
5A3
330
18
100
AcDbEntity
  8
1
  6
CONTINUOUS
100
AcDbLine
 10
184.9804470529969
 20
162.2908363402844
 30
0.0
 11
176.112842319591
 21
162.2908363402844
 31
0.0
  0
LINE
  5
5A4
330
18
100
AcDbEntity
  8
1
  6
CONTINUOUS
100
AcDbLine
 10
184.9804470529968
 20
161.5908363070362
 30
0.0
 11
176.112842319591
 21
161.5908363070362
 31
0.0
  0
LINE
  5
5A7
330
18
100
AcDbEntity
  8
1
  6
CONTINUOUS
100
AcDbLine
 10
178.512842517179
 20
98.09083238322001
 30
0.0
 11
179.6675430268099
 21
96.09083243301364
 31
0.0
  0
LINE
  5
5A8
330
18
100
AcDbEntity
  8
1
  6
CONTINUOUS
100
AcDbLine
 10
185.0128427423183
 20
162.3408355797202
 30
0.0
 11
178.5128424335849
 21
162.34083557972
 31
0.0
  0
LINE
  5
5AA
330
18
100
AcDbEntity
  8
1
  6
CONTINUOUS
100
AcDbLine
 10
179.6675430268099
 20
165.5908357340865
 30
0.0
 11
178.5128424335854
 21
163.5908356390919
 31
0.0
  0
LINE
  5
5AB
330
18
100
AcDbEntity
  8
1
  6
CONTINUOUS
100
AcDbLine
 10
185.0128427423183
 20
100.3408326348778
 30
0.0
 11
178.5128424335849
 21
100.3408326348778
 31
0.0
  0
LINE
  5
5AD
330
18
100
AcDbEntity
  8
1
  6
CONTINUOUS
100
AcDbLine
 10
187.7628428729363
 20
109.0408330481056
 30
0.0
 11
175.7628423029669
 21
109.0408330481056
 31
0.0
  0
LINE
  5
5AE
330
18
100
AcDbEntity
  8
1
  6
CONTINUOUS
100
AcDbLine
 10
175.7628423029669
 20
152.6408351189945
 30
0.0
 11
187.7628428729363
 21
152.6408351189945
 31
0.0
  0
LINE
  5
5AF
330
18
100
AcDbEntity
  8
1
  6
CONTINUOUS
100
AcDbLine
 10
175.2628422792182
 20
152.5408351142431
 30
0.0
 11
188.262842896685
 21
152.540835114243
 31
0.0
  0
LINE
  5
5B0
330
18
100
AcDbEntity
  8
1
  6
CONTINUOUS
100
AcDbLine
 10
188.262842896685
 20
109.1408330528553
 30
0.0
 11
175.2628422792182
 21
109.1408330528553
 31
0.0
  0
LINE
  5
5B5
330
18
100
AcDbEntity
  8
1
  6
CONTINUOUS
100
AcDbLine
 10
28.91529542650448
 20
100.8408326586265
 30
0.0
 11
28.91529542650448
 21
160.8408355084736
 31
0.0
  0
LINE
  5
5B6
330
18
100
AcDbEntity
  8
1
  6
CONTINUOUS
100
AcDbLine
 10
25.4152952602634
 20
100.8408326586265
 30
0.0
 11
25.4152952602634
 21
160.8408355084736
 31
0.0
  0
LINE
  5
5B7
330
18
100
AcDbEntity
  8
1
  6
CONTINUOUS
100
AcDbLine
 10
22.91529514151978
 20
100.8408326586265
 30
0.0
 11
22.91529514151978
 21
160.8408355084736
 31
0.0
  0
LINE
  5
5B8
330
18
100
AcDbEntity
  8
1
  6
CONTINUOUS
100
AcDbLine
 10
38.01638160846886
 20
100.8408326586265
 30
0.0
 11
38.01638160846886
 21
109.1408330528553
 31
0.0
  0
LINE
  5
5B9
330
18
100
AcDbEntity
  8
1
  6
CONTINUOUS
100
AcDbLine
 10
42.41529606772007
 20
100.8408326586265
 30
0.0
 11
42.41529606772007
 21
107.8408329911087
 31
0.0
  0
LINE
  5
5BA
330
18
100
AcDbEntity
  8
1
  6
CONTINUOUS
100
AcDbLine
 10
175.2628422792182
 20
107.8408329911086
 30
0.0
 11
175.2628422792182
 21
100.8408326586262
 31
0.0
  0
LINE
  5
5BB
330
18
100
AcDbEntity
  8
1
  6
CONTINUOUS
100
AcDbLine
 10
116.9826807713886
 20
100.8408326586265
 30
0.0
 11
116.9826807713886
 21
109.1408330528553
 31
0.0
  0
LINE
  5
5BC
330
18
100
AcDbEntity
  8
1
  6
CONTINUOUS
100
AcDbLine
 10
106.4826802726653
 20
100.8408326586265
 30
0.0
 11
106.4826802726653
 21
160.8408355084736
 31
0.0
  0
LINE
  5
5BD
330
18
100
AcDbEntity
  8
1
  6
CONTINUOUS
100
AcDbLine
 10
87.98267939396248
 20
100.8408326586265
 30
0.0
 11
87.98267939396248
 21
160.8408355084736
 31
0.0
  0
LINE
  5
5BE
330
18
100
AcDbEntity
  8
1
  6
CONTINUOUS
100
AcDbLine
 10
84.4826792277214
 20
100.8408326586265
 30
0.0
 11
84.4826792277214
 21
160.8408355084736
 31
0.0
  0
LINE
  5
5BF
330
18
100
AcDbEntity
  8
1
  6
CONTINUOUS
100
AcDbLine
 10
131.4826814601015
 20
100.8408326586265
 30
0.0
 11
131.4826814601015
 21
160.8408355084736
 31
0.0
  0
LINE
  5
5C0
330
18
100
AcDbEntity
  8
1
  6
CONTINUOUS
100
AcDbLine
 10
117.4826807951373
 20
100.8408326586264
 30
0.0
 11
117.4826807951373
 21
109.1408330528553
 31
0.0
  0
LINE
  5
5C1
330
18
100
AcDbEntity
  8
1
  6
CONTINUOUS
100
AcDbLine
 10
32.69769129394137
 20
99.39083182681574
 30
0.0
 11
41.56529602734724
 21
99.39083182681574
 31
0.0
  0
LINE
  5
5C2
330
18
100
AcDbEntity
  8
1
  6
CONTINUOUS
100
AcDbLine
 10
32.69769129394143
 20
100.0908318600639
 30
0.0
 11
41.56529602734724
 21
100.0908318600639
 31
0.0
  0
LINE
  5
5C3
330
18
100
AcDbEntity
  8
1
  6
CONTINUOUS
100
AcDbLine
 10
33.81999619784489
 20
96.09083243301364
 30
0.0
 11
38.0105953201284
 21
96.09083243301364
 31
0.0
  0
LINE
  5
5C4
330
18
100
AcDbEntity
  8
1
  6
CONTINUOUS
100
AcDbLine
 10
39.16529582975903
 20
98.09083238322001
 30
0.0
 11
32.66529568821403
 21
98.09083238322001
 31
0.0
  0
LINE
  5
5C5
330
18
100
AcDbEntity
  8
1
  6
CONTINUOUS
100
AcDbLine
 10
39.16529591335336
 20
99.34083258738036
 30
0.0
 11
32.66529560461993
 21
99.34083258738034
 31
0.0
  0
LINE
  5
5C6
330
18
100
AcDbEntity
  8
1
  6
CONTINUOUS
100
AcDbLine
 10
39.16529591335336
 20
100.3408326348778
 30
0.0
 11
32.66529560462146
 21
100.3408326348778
 31
0.0
  0
LINE
  5
5C7
330
18
100
AcDbEntity
  8
1
  6
CONTINUOUS
100
AcDbLine
 10
22.91529514151978
 20
100.8408326586265
 30
0.0
 11
42.41529606772007
 21
100.8408326586265
 31
0.0
  0
LINE
  5
5CA
330
18
100
AcDbEntity
  8
1
  6
CONTINUOUS
100
AcDbLine
 10
32.69769129394148
 20
99.39083182681574
 30
0.0
 11
32.69769129394148
 21
100.0908318600639
 31
0.0
  0
LINE
  5
5CB
330
18
100
AcDbEntity
  8
1
  6
CONTINUOUS
100
AcDbLine
 10
32.66529568821403
 20
98.09083238322001
 30
0.0
 11
33.81999619784489
 21
96.09083243301364
 31
0.0
  0
LINE
  5
5CC
330
18
100
AcDbEntity
  8
1
  6
CONTINUOUS
100
AcDbLine
 10
32.66529560461993
 20
99.34083258738034
 30
0.0
 11
32.66529560461993
 21
98.09083238322001
 31
0.0
  0
LINE
  5
5CE
330
18
100
AcDbEntity
  8
1
  6
CONTINUOUS
100
AcDbLine
 10
33.41529564024301
 20
99.39083182681574
 30
0.0
 11
33.41529564024301
 21
99.34083258738034
 31
0.0
  0
LINE
  5
5D0
330
18
100
AcDbEntity
  8
1
  6
CONTINUOUS
100
AcDbLine
 10
32.66529560462146
 20
100.8408326586265
 30
0.0
 11
32.66529560462146
 21
100.3408326348778
 31
0.0
  0
LINE
  5
5D1
330
18
100
AcDbEntity
  8
1
  6
CONTINUOUS
100
AcDbLine
 10
33.41529564024301
 20
100.3408326348777
 30
0.0
 11
33.41529564024301
 21
100.0908318600639
 31
0.0
  0
LINE
  5
5D2
330
18
100
AcDbEntity
  8
1
  6
CONTINUOUS
100
AcDbLine
 10
41.56529602734724
 20
99.39083182681574
 30
0.0
 11
41.56529602734724
 21
100.0908318600639
 31
0.0
  0
LINE
  5
5D3
330
18
100
AcDbEntity
  8
1
  6
CONTINUOUS
100
AcDbLine
 10
38.0105953201284
 20
96.09083243301364
 30
0.0
 11
39.16529591335336
 21
98.0908325280092
 31
0.0
  0
LINE
  5
5D4
330
18
100
AcDbEntity
  8
1
  6
CONTINUOUS
100
AcDbLine
 10
39.16529591335336
 20
98.0908325280092
 30
0.0
 11
39.16535364838029
 21
98.0909325280092
 31
0.0
  0
LINE
  5
5D5
330
18
100
AcDbEntity
  8
1
  6
CONTINUOUS
100
AcDbLine
 10
39.16529591335336
 20
98.09083238322001
 30
0.0
 11
39.16529591335336
 21
99.34083258738034
 31
0.0
  0
LINE
  5
5D6
330
18
100
AcDbEntity
  8
1
  6
CONTINUOUS
100
AcDbLine
 10
38.41529587773027
 20
99.34083258738036
 30
0.0
 11
38.41529587773027
 21
99.39083182681574
 31
0.0
  0
LINE
  5
5D7
330
18
100
AcDbEntity
  8
1
  6
CONTINUOUS
100
AcDbLine
 10
39.16529591335489
 20
100.3408326348778
 30
0.0
 11
39.16529591335489
 21
100.8408326586265
 31
0.0
  0
LINE
  5
5D8
330
18
100
AcDbEntity
  8
1
  6
CONTINUOUS
100
AcDbLine
 10
38.41529587773027
 20
100.0908318600639
 30
0.0
 11
38.41529587773027
 21
100.3408326348777
 31
0.0
  0
LINE
  5
5E2
330
18
100
AcDbEntity
  8
1
  6
CONTINUOUS
100
AcDbLine
 10
84.4826792277214
 20
100.8408326586265
 30
0.0
 11
116.9826807713885
 21
100.8408326586265
 31
0.0
  0
LINE
  5
5FC
330
18
100
AcDbEntity
  8
1
  6
CONTINUOUS
100
AcDbLine
 10
118.8326808592588
 20
99.39083182681574
 30
0.0
 11
130.13268139598
 21
99.39083182681574
 31
0.0
  0
LINE
  5
5FD
330
18
100
AcDbEntity
  8
1
  6
CONTINUOUS
100
AcDbLine
 10
118.8326808592588
 20
100.0908318600639
 30
0.0
 11
130.13268139598
 21
100.0908318600639
 31
0.0
  0
LINE
  5
5FE
330
18
100
AcDbEntity
  8
1
  6
CONTINUOUS
100
AcDbLine
 10
124.482679877887
 20
98.09083252800887
 30
0.0
 11
127.732681281986
 21
98.09083252800887
 31
0.0
  0
LINE
  5
5FF
330
18
100
AcDbEntity
  8
1
  6
CONTINUOUS
100
AcDbLine
 10
127.7326812819861
 20
99.34083258738034
 30
0.0
 11
121.2326809732527
 21
99.34083258738034
 31
0.0
  0
LINE
  5
600
330
18
100
AcDbEntity
  8
1
  6
CONTINUOUS
100
AcDbLine
 10
122.3873815664777
 20
96.09083243301364
 30
0.0
 11
126.5779806887611
 21
96.09083243301364
 31
0.0
  0
LINE
  5
601
330
18
100
AcDbEntity
  8
1
  6
CONTINUOUS
100
AcDbLine
 10
127.7326812819861
 20
100.3408326348778
 30
0.0
 11
121.2326809732527
 21
100.3408326348778
 31
0.0
  0
LINE
  5
602
330
18
100
AcDbEntity
  8
1
  6
CONTINUOUS
100
AcDbLine
 10
117.4826807951373
 20
100.8408326586264
 30
0.0
 11
131.4826814601015
 21
100.8408326586265
 31
0.0
  0
LINE
  5
603
330
18
100
AcDbEntity
  8
1
  6
CONTINUOUS
100
AcDbLine
 10
121.2326809732527
 20
99.34083258738034
 30
0.0
 11
121.2326809732527
 21
98.09083238322001
 31
0.0
  0
LINE
  5
604
330
18
100
AcDbEntity
  8
1
  6
CONTINUOUS
100
AcDbLine
 10
124.4826798778871
 20
98.09083238322001
 30
0.0
 11
121.2326810568468
 21
98.09083238322001
 31
0.0
  0
LINE
  5
605
330
18
100
AcDbEntity
  8
1
  6
CONTINUOUS
100
AcDbLine
 10
121.2326810568468
 20
98.09083238322001
 30
0.0
 11
122.3873815664777
 21
96.09083243301364
 31
0.0
  0
LINE
  5
607
330
18
100
AcDbEntity
  8
1
  6
CONTINUOUS
100
AcDbLine
 10
118.8326808592588
 20
100.0908318600639
 30
0.0
 11
118.8326808592588
 21
99.39083182681574
 31
0.0
  0
LINE
  5
609
330
18
100
AcDbEntity
  8
1
  6
CONTINUOUS
100
AcDbLine
 10
121.2326809732512
 20
100.8408326586265
 30
0.0
 11
121.2326809732512
 21
100.3408326348778
 31
0.0
  0
LINE
  5
60A
330
18
100
AcDbEntity
  8
1
  6
CONTINUOUS
100
AcDbLine
 10
121.9826810088758
 20
100.3408326348777
 30
0.0
 11
121.9826810088758
 21
100.0908318600639
 31
0.0
  0
LINE
  5
60B
330
18
100
AcDbEntity
  8
1
  6
CONTINUOUS
100
AcDbLine
 10
121.9826810088758
 20
99.39083182681574
 30
0.0
 11
121.9826810088758
 21
99.34083258738036
 31
0.0
  0
LINE
  5
60C
330
18
100
AcDbEntity
  8
1
  6
CONTINUOUS
100
AcDbLine
 10
127.7326812819861
 20
98.09083238322001
 30
0.0
 11
127.7326812819861
 21
99.34083258738034
 31
0.0
  0
LINE
  5
60D
330
18
100
AcDbEntity
  8
1
  6
CONTINUOUS
100
AcDbLine
 10
126.5779806887611
 20
96.09083243301364
 30
0.0
 11
127.7326812819861
 21
98.0908325280092
 31
0.0
  0
LINE
  5
60E
330
18
100
AcDbEntity
  8
1
  6
CONTINUOUS
100
AcDbLine
 10
127.7326812819861
 20
98.0908325280092
 30
0.0
 11
127.732739017013
 21
98.0909325280092
 31
0.0
  0
LINE
  5
60F
330
18
100
AcDbEntity
  8
1
  6
CONTINUOUS
100
AcDbLine
 10
127.7326812819846
 20
100.3408326348778
 30
0.0
 11
127.7326812819846
 21
100.8408326586265
 31
0.0
  0
LINE
  5
610
330
18
100
AcDbEntity
  8
1
  6
CONTINUOUS
100
AcDbLine
 10
126.982681246363
 20
99.34083258738034
 30
0.0
 11
126.982681246363
 21
99.39083182681574
 31
0.0
  0
LINE
  5
611
330
18
100
AcDbEntity
  8
1
  6
CONTINUOUS
100
AcDbLine
 10
126.982681246363
 20
100.0908318600639
 30
0.0
 11
126.982681246363
 21
100.3408326348777
 31
0.0
  0
LINE
  5
612
330
18
100
AcDbEntity
  8
1
  6
CONTINUOUS
100
AcDbLine
 10
130.13268139598
 20
99.39083182681574
 30
0.0
 11
130.13268139598
 21
100.0908318600639
 31
0.0
  0
LINE
  5
614
330
18
100
AcDbEntity
  8
1
  6
CONTINUOUS
100
AcDbLine
 10
178.5128424335849
 20
99.34083258738036
 30
0.0
 11
178.5128424335849
 21
98.0908325280092
 31
0.0
  0
LINE
  5
616
330
18
100
AcDbEntity
  8
1
  6
CONTINUOUS
100
AcDbLine
 10
176.112842319591
 20
100.0908318600639
 30
0.0
 11
176.112842319591
 21
99.39083182681574
 31
0.0
  0
LINE
  5
617
330
18
100
AcDbEntity
  8
1
  6
CONTINUOUS
100
AcDbLine
 10
178.5128424335833
 20
100.8408326586265
 30
0.0
 11
178.5128424335833
 21
100.3408326348778
 31
0.0
  0
LINE
  5
618
330
18
100
AcDbEntity
  8
1
  6
CONTINUOUS
100
AcDbLine
 10
179.262842469208
 20
100.3408326348777
 30
0.0
 11
179.262842469208
 21
100.0908318600639
 31
0.0
  0
LINE
  5
619
330
18
100
AcDbEntity
  8
1
  6
CONTINUOUS
100
AcDbLine
 10
179.262842469208
 20
99.39083182681574
 30
0.0
 11
179.262842469208
 21
99.34083258738036
 31
0.0
  0
LINE
  5
61A
330
18
100
AcDbEntity
  8
1
  6
CONTINUOUS
100
AcDbLine
 10
42.41529606772007
 20
109.1408330528553
 30
0.0
 11
42.41529606772007
 21
152.5408351142435
 31
0.0
  0
LINE
  5
61B
330
18
100
AcDbEntity
  8
1
  6
CONTINUOUS
100
AcDbLine
 10
41.91529604397135
 20
107.8408329911086
 30
0.0
 11
41.91529604397135
 21
109.0408330481056
 31
0.0
  0
LINE
  5
61C
330
18
100
AcDbEntity
  8
1
  6
CONTINUOUS
100
AcDbLine
 10
38.01638160846886
 20
107.8408329911087
 30
0.0
 11
42.41529606772007
 21
107.8408329911087
 31
0.0
  0
LINE
  5
61D
330
18
100
AcDbEntity
  8
1
  6
CONTINUOUS
100
AcDbLine
 10
41.91529604397135
 20
109.0408330481056
 30
0.0
 11
38.01638160846886
 21
109.0408330481056
 31
0.0
  0
LINE
  5
61E
330
18
100
AcDbEntity
  8
1
  6
CONTINUOUS
100
AcDbLine
 10
39.91529594897645
 20
109.0408330481056
 30
0.0
 11
39.91529594897645
 21
109.1408330528553
 31
0.0
  0
LINE
  5
61F
330
18
100
AcDbEntity
  8
1
  6
CONTINUOUS
100
AcDbLine
 10
42.41529606772007
 20
109.1408330528553
 30
0.0
 11
38.01638160846886
 21
109.1408330528553
 31
0.0
  0
LINE
  5
621
330
18
100
AcDbEntity
  8
1
  6
CONTINUOUS
100
AcDbLine
 10
38.01638160846886
 20
160.8408355084736
 30
0.0
 11
38.01638160846886
 21
152.5408351142448
 31
0.0
  0
LINE
  5
622
330
18
100
AcDbEntity
  8
1
  6
CONTINUOUS
100
AcDbLine
 10
42.41529606772007
 20
153.8408351759914
 30
0.0
 11
42.41529606772007
 21
160.8408355084736
 31
0.0
  0
LINE
  5
623
330
18
100
AcDbEntity
  8
1
  6
CONTINUOUS
100
AcDbLine
 10
41.91529604397135
 20
152.6408351189945
 30
0.0
 11
41.91529604397135
 21
153.8408351759914
 31
0.0
  0
LINE
  5
624
330
18
100
AcDbEntity
  8
1
  6
CONTINUOUS
100
AcDbLine
 10
38.01638160846886
 20
152.6408351189945
 30
0.0
 11
41.91529604397135
 21
152.6408351189945
 31
0.0
  0
LINE
  5
625
330
18
100
AcDbEntity
  8
1
  6
CONTINUOUS
100
AcDbLine
 10
39.91529594897645
 20
152.5408351142448
 30
0.0
 11
39.91529594897645
 21
152.6408351189945
 31
0.0
  0
LINE
  5
626
330
18
100
AcDbEntity
  8
1
  6
CONTINUOUS
100
AcDbLine
 10
42.41529606772007
 20
152.5408351142435
 30
0.0
 11
38.01638160846886
 21
152.5408351142448
 31
0.0
  0
LINE
  5
628
330
18
100
AcDbEntity
  8
1
  6
CONTINUOUS
100
AcDbLine
 10
42.41529606772007
 20
153.8408351759914
 30
0.0
 11
38.01638160846886
 21
153.8408351759914
 31
0.0
  0
LINE
  5
629
330
18
100
AcDbEntity
  8
1
  6
CONTINUOUS
100
AcDbLine
 10
41.56529602734724
 20
162.2908363402844
 30
0.0
 11
32.69769129394148
 21
162.2908363402844
 31
0.0
  0
LINE
  5
62A
330
18
100
AcDbEntity
  8
1
  6
CONTINUOUS
100
AcDbLine
 10
41.56529602734724
 20
161.5908363070362
 30
0.0
 11
32.69769129394148
 21
161.5908363070362
 31
0.0
  0
LINE
  5
62B
330
18
100
AcDbEntity
  8
1
  6
CONTINUOUS
100
AcDbLine
 10
39.16529591335336
 20
162.34083557972
 30
0.0
 11
32.66529560461998
 21
162.3408355797202
 31
0.0
  0
LINE
  5
62C
330
18
100
AcDbEntity
  8
1
  6
CONTINUOUS
100
AcDbLine
 10
39.16529591335336
 20
163.5908356390919
 30
0.0
 11
32.66529560461993
 21
163.5908356390919
 31
0.0
  0
LINE
  5
62D
330
18
100
AcDbEntity
  8
1
  6
CONTINUOUS
100
AcDbLine
 10
33.81999619784505
 20
165.5908357340865
 30
0.0
 11
38.01059532012834
 21
165.5908357340865
 31
0.0
  0
LINE
  5
62E
330
18
100
AcDbEntity
  8
1
  6
CONTINUOUS
100
AcDbLine
 10
39.16529591335336
 20
161.3408355322222
 30
0.0
 11
32.66529560461993
 21
161.3408355322222
 31
0.0
  0
LINE
  5
62F
330
18
100
AcDbEntity
  8
1
  6
CONTINUOUS
100
AcDbLine
 10
22.91529514151978
 20
160.8408355084736
 30
0.0
 11
42.41529606772007
 21
160.8408355084736
 31
0.0
  0
LINE
  5
632
330
18
100
AcDbEntity
  8
1
  6
CONTINUOUS
100
AcDbLine
 10
32.66529560461993
 20
163.5908356390919
 30
0.0
 11
32.66529560461998
 21
162.3408355797202
 31
0.0
  0
LINE
  5
634
330
18
100
AcDbEntity
  8
1
  6
CONTINUOUS
100
AcDbLine
 10
32.69769129394148
 20
162.2908363402844
 30
0.0
 11
32.69769129394148
 21
161.5908363070362
 31
0.0
  0
LINE
  5
635
330
18
100
AcDbEntity
  8
1
  6
CONTINUOUS
100
AcDbLine
 10
32.66529560461998
 20
161.3408355322222
 30
0.0
 11
32.66529560461998
 21
160.8408355084736
 31
0.0
  0
LINE
  5
636
330
18
100
AcDbEntity
  8
1
  6
CONTINUOUS
100
AcDbLine
 10
33.41529564024301
 20
162.3408355797205
 30
0.0
 11
33.41529564024301
 21
162.2908363402844
 31
0.0
  0
LINE
  5
637
330
18
100
AcDbEntity
  8
1
  6
CONTINUOUS
100
AcDbLine
 10
33.41529564024301
 20
161.5908363070362
 30
0.0
 11
33.41529564024301
 21
161.3408355322223
 31
0.0
  0
LINE
  5
639
330
18
100
AcDbEntity
  8
1
  6
CONTINUOUS
100
AcDbLine
 10
33.81999619784505
 20
165.5908357340865
 30
0.0
 11
32.66529560461993
 21
163.5908356390902
 31
0.0
  0
LINE
  5
63D
330
18
100
AcDbEntity
  8
1
  6
CONTINUOUS
100
AcDbLine
 10
39.16529591335342
 20
162.34083557972
 30
0.0
 11
39.16529591335336
 21
163.5908356390919
 31
0.0
  0
LINE
  5
63E
330
18
100
AcDbEntity
  8
1
  6
CONTINUOUS
100
AcDbLine
 10
41.56529602734724
 20
161.5908363070362
 30
0.0
 11
41.56529602734724
 21
162.2908363402844
 31
0.0
  0
LINE
  5
63F
330
18
100
AcDbEntity
  8
1
  6
CONTINUOUS
100
AcDbLine
 10
39.16529591335342
 20
160.8408355084736
 30
0.0
 11
39.16529591335342
 21
161.3408355322222
 31
0.0
  0
LINE
  5
640
330
18
100
AcDbEntity
  8
1
  6
CONTINUOUS
100
AcDbLine
 10
38.41529587773027
 20
161.3408355322223
 30
0.0
 11
38.41529587773027
 21
161.5908363070362
 31
0.0
  0
LINE
  5
641
330
18
100
AcDbEntity
  8
1
  6
CONTINUOUS
100
AcDbLine
 10
38.41529587773027
 20
162.2908363402844
 30
0.0
 11
38.41529587773027
 21
162.3408355797205
 31
0.0
  0
LINE
  5
643
330
18
100
AcDbEntity
  8
1
  6
CONTINUOUS
100
AcDbLine
 10
39.16529591335279
 20
163.5908356390919
 30
0.0
 11
38.01059532012834
 21
165.5908357340865
 31
0.0
  0
LINE
  5
644
330
18
100
AcDbEntity
  8
1
  6
CONTINUOUS
100
AcDbLine
 10
175.2628422792182
 20
152.5408351142431
 30
0.0
 11
175.2628422792182
 21
109.1408330528553
 31
0.0
  0
LINE
  5
645
330
18
100
AcDbEntity
  8
1
  6
CONTINUOUS
100
AcDbLine
 10
130.9826814363528
 20
109.1408330528553
 30
0.0
 11
130.9826814363528
 21
152.540835114243
 31
0.0
  0
LINE
  5
646
330
18
100
AcDbEntity
  8
1
  6
CONTINUOUS
100
AcDbLine
 10
131.2921874981209
 20
152.840835128494
 30
0.0
 11
131.2921874981209
 21
108.8408330386061
 31
0.0
  0
LINE
  5
64E
330
18
100
AcDbEntity
  8
1
  6
CONTINUOUS
100
AcDbLine
 10
130.4826814126041
 20
109.0408330481056
 30
0.0
 11
118.4826808426347
 21
109.0408330481056
 31
0.0
  0
LINE
  5
64F
330
18
100
AcDbEntity
  8
1
  6
CONTINUOUS
100
AcDbLine
 10
130.9826814363528
 20
109.1408330528553
 30
0.0
 11
116.9826807713886
 21
109.1408330528553
 31
0.0
  0
LINE
  5
650
330
18
100
AcDbEntity
  8
1
  6
CONTINUOUS
100
AcDbLine
 10
117.7112735494028
 20
107.8408329911086
 30
0.0
 11
131.2540887057249
 21
107.8408329911087
 31
0.0
  0
LINE
  5
652
330
18
100
AcDbEntity
  8
1
  6
CONTINUOUS
100
AcDbLine
 10
118.4826808426347
 20
109.0408330481056
 30
0.0
 11
118.4826808426347
 21
107.8408329911086
 31
0.0
  0
LINE
  5
653
330
18
100
AcDbEntity
  8
1
  6
CONTINUOUS
100
AcDbLine
 10
117.6731747571182
 20
109.1408330528553
 30
0.0
 11
117.6731747571182
 21
108.8408330386061
 31
0.0
  0
LINE
  5
656
330
18
100
AcDbEntity
  8
1
  6
CONTINUOUS
100
AcDbLine
 10
120.4826809376296
 20
109.1408330528553
 30
0.0
 11
120.4826809376296
 21
109.0408330481056
 31
0.0
  0
LINE
  5
657
330
18
100
AcDbEntity
  8
1
  6
CONTINUOUS
100
AcDbLine
 10
128.4826813176092
 20
109.0408330481056
 30
0.0
 11
128.4826813176092
 21
109.1408330528553
 31
0.0
  0
LINE
  5
658
330
18
100
AcDbEntity
  8
1
  6
CONTINUOUS
100
AcDbLine
 10
130.4826814126041
 20
107.8408329911086
 30
0.0
 11
130.4826814126041
 21
109.0408330481056
 31
0.0
  0
LINE
  5
65B
330
18
100
AcDbEntity
  8
1
  6
CONTINUOUS
100
AcDbLine
 10
175.7628423029669
 20
109.0408330481056
 30
0.0
 11
175.7628423029669
 21
107.8408329911086
 31
0.0
  0
LINE
  5
65C
330
18
100
AcDbEntity
  8
1
  6
CONTINUOUS
100
AcDbLine
 10
177.7628423979618
 20
109.1408330528553
 30
0.0
 11
177.7628423979618
 21
109.0408330481056
 31
0.0
  0
LINE
  5
65D
330
18
100
AcDbEntity
  8
1
  6
CONTINUOUS
100
AcDbLine
 10
84.4826792277214
 20
160.8408355084736
 30
0.0
 11
116.9826807713886
 21
160.8408355084736
 31
0.0
  0
LINE
  5
667
330
18
100
AcDbEntity
  8
1
  6
CONTINUOUS
100
AcDbLine
 10
175.2628422792181
 20
160.8408355084736
 30
0.0
 11
175.2628422792181
 21
153.8408351759914
 31
0.0
  0
LINE
  5
668
330
18
100
AcDbEntity
  8
1
  6
CONTINUOUS
100
AcDbLine
 10
116.9826807713885
 20
160.8408355084736
 30
0.0
 11
116.9826807713885
 21
152.5408351142431
 31
0.0
  0
LINE
  5
669
330
18
100
AcDbEntity
  8
1
  6
CONTINUOUS
100
AcDbLine
 10
117.4826807951373
 20
152.5408351142448
 30
0.0
 11
117.4826807951373
 21
160.8408355084736
 31
0.0
  0
LINE
  5
66A
330
18
100
AcDbEntity
  8
1
  6
CONTINUOUS
100
AcDbLine
 10
118.4826808426347
 20
152.6408351189945
 30
0.0
 11
130.4826814126041
 21
152.6408351189945
 31
0.0
  0
LINE
  5
66B
330
18
100
AcDbEntity
  8
1
  6
CONTINUOUS
100
AcDbLine
 10
116.9826807713885
 20
152.5408351142431
 30
0.0
 11
130.9826814363528
 21
152.540835114243
 31
0.0
  0
LINE
  5
66C
330
18
100
AcDbEntity
  8
1
  6
CONTINUOUS
100
AcDbLine
 10
131.2540887057248
 20
153.8408351759914
 30
0.0
 11
117.7112735495139
 21
153.8408351759914
 31
0.0
  0
LINE
  5
66F
330
18
100
AcDbEntity
  8
1
  6
CONTINUOUS
100
AcDbLine
 10
118.4826808426347
 20
153.8408351759914
 30
0.0
 11
118.4826808426347
 21
152.6408351189945
 31
0.0
  0
LINE
  5
670
330
18
100
AcDbEntity
  8
1
  6
CONTINUOUS
100
AcDbLine
 10
117.6731747571182
 20
152.840835128494
 30
0.0
 11
117.6731747571182
 21
152.5408351142448
 31
0.0
  0
LINE
  5
673
330
18
100
AcDbEntity
  8
1
  6
CONTINUOUS
100
AcDbLine
 10
120.4826809376296
 20
152.6408351189945
 30
0.0
 11
120.4826809376296
 21
152.5408351142431
 31
0.0
  0
LINE
  5
674
330
18
100
AcDbEntity
  8
1
  6
CONTINUOUS
100
AcDbLine
 10
128.4826813176092
 20
152.5408351142431
 30
0.0
 11
128.4826813176092
 21
152.6408351189945
 31
0.0
  0
LINE
  5
675
330
18
100
AcDbEntity
  8
1
  6
CONTINUOUS
100
AcDbLine
 10
130.4826814126041
 20
152.6408351189945
 30
0.0
 11
130.4826814126041
 21
153.8408351759914
 31
0.0
  0
LINE
  5
678
330
18
100
AcDbEntity
  8
1
  6
CONTINUOUS
100
AcDbLine
 10
175.7628423029669
 20
153.8408351759914
 30
0.0
 11
175.7628423029669
 21
152.6408351189945
 31
0.0
  0
LINE
  5
679
330
18
100
AcDbEntity
  8
1
  6
CONTINUOUS
100
AcDbLine
 10
177.7628423979618
 20
152.6408351189945
 30
0.0
 11
177.7628423979618
 21
152.5408351142431
 31
0.0
  0
LINE
  5
67A
330
18
100
AcDbEntity
  8
1
  6
CONTINUOUS
100
AcDbLine
 10
130.13268139598
 20
162.2908363402844
 30
0.0
 11
118.8326808592588
 21
162.2908363402844
 31
0.0
  0
LINE
  5
67B
330
18
100
AcDbEntity
  8
1
  6
CONTINUOUS
100
AcDbLine
 10
130.13268139598
 20
161.5908363070362
 30
0.0
 11
118.8326808592588
 21
161.5908363070362
 31
0.0
  0
LINE
  5
67C
330
18
100
AcDbEntity
  8
1
  6
CONTINUOUS
100
AcDbLine
 10
127.7326812819861
 20
162.3408355797202
 30
0.0
 11
121.2326809732527
 21
162.34083557972
 31
0.0
  0
LINE
  5
67D
330
18
100
AcDbEntity
  8
1
  6
CONTINUOUS
100
AcDbLine
 10
127.7326812819861
 20
163.5908356390919
 30
0.0
 11
121.2326809732527
 21
163.5908356390919
 31
0.0
  0
LINE
  5
67E
330
18
100
AcDbEntity
  8
1
  6
CONTINUOUS
100
AcDbLine
 10
122.3874393015047
 20
165.5908357340865
 30
0.0
 11
126.5779806887612
 21
165.5908357340861
 31
0.0
  0
LINE
  5
67F
330
18
100
AcDbEntity
  8
1
  6
CONTINUOUS
100
AcDbLine
 10
127.7326812819861
 20
161.3408355322222
 30
0.0
 11
121.2326809732527
 21
161.3408355322222
 31
0.0
  0
LINE
  5
680
330
18
100
AcDbEntity
  8
1
  6
CONTINUOUS
100
AcDbLine
 10
117.4826807951373
 20
160.8408355084736
 30
0.0
 11
131.4826814601015
 21
160.8408355084736
 31
0.0
  0
LINE
  5
681
330
18
100
AcDbEntity
  8
1
  6
CONTINUOUS
100
AcDbLine
 10
121.2326809732526
 20
161.3408355322222
 30
0.0
 11
121.2326809732526
 21
160.8408355084736
 31
0.0
  0
LINE
  5
683
330
18
100
AcDbEntity
  8
1
  6
CONTINUOUS
100
AcDbLine
 10
118.8326808592588
 20
162.2908363402844
 30
0.0
 11
118.8326808592588
 21
161.5908363070362
 31
0.0
  0
LINE
  5
684
330
18
100
AcDbEntity
  8
1
  6
CONTINUOUS
100
AcDbLine
 10
121.2326809732527
 20
163.5908356390919
 30
0.0
 11
121.2326809732526
 21
162.34083557972
 31
0.0
  0
LINE
  5
685
330
18
100
AcDbEntity
  8
1
  6
CONTINUOUS
100
AcDbLine
 10
122.3874393015047
 20
165.5909357340866
 30
0.0
 11
121.2326809732527
 21
163.5908356390909
 31
0.0
  0
LINE
  5
688
330
18
100
AcDbEntity
  8
1
  6
CONTINUOUS
100
AcDbLine
 10
121.9826810088758
 20
162.3408355797205
 30
0.0
 11
121.9826810088758
 21
162.2908363402844
 31
0.0
  0
LINE
  5
689
330
18
100
AcDbEntity
  8
1
  6
CONTINUOUS
100
AcDbLine
 10
121.9826810088758
 20
161.5908363070362
 30
0.0
 11
121.9826810088758
 21
161.3408355322223
 31
0.0
  0
LINE
  5
68A
330
18
100
AcDbEntity
  8
1
  6
CONTINUOUS
100
AcDbLine
 10
127.7326812819861
 20
160.8408355084736
 30
0.0
 11
127.7326812819861
 21
161.3408355322222
 31
0.0
  0
LINE
  5
68C
330
18
100
AcDbEntity
  8
1
  6
CONTINUOUS
100
AcDbLine
 10
127.7326812819861
 20
162.3408355797202
 30
0.0
 11
127.7326812819861
 21
163.5908356390903
 31
0.0
  0
LINE
  5
68E
330
18
100
AcDbEntity
  8
1
  6
CONTINUOUS
100
AcDbLine
 10
127.7326812819852
 20
163.5908356390919
 30
0.0
 11
126.5779806887612
 21
165.5908357340861
 31
0.0
  0
LINE
  5
68F
330
18
100
AcDbEntity
  8
1
  6
CONTINUOUS
100
AcDbLine
 10
126.982681246363
 20
161.3408355322223
 30
0.0
 11
126.982681246363
 21
161.5908363070362
 31
0.0
  0
LINE
  5
690
330
18
100
AcDbEntity
  8
1
  6
CONTINUOUS
100
AcDbLine
 10
126.982681246363
 20
162.2908363402844
 30
0.0
 11
126.982681246363
 21
162.3408355797205
 31
0.0
  0
LINE
  5
691
330
18
100
AcDbEntity
  8
1
  6
CONTINUOUS
100
AcDbLine
 10
130.13268139598
 20
161.5908363070362
 30
0.0
 11
130.13268139598
 21
162.2908363402844
 31
0.0
  0
LINE
  5
692
330
18
100
AcDbEntity
  8
1
  6
CONTINUOUS
100
AcDbLine
 10
178.5128424335848
 20
161.3408355322222
 30
0.0
 11
178.5128424335848
 21
160.8408355084736
 31
0.0
  0
LINE
  5
693
330
18
100
AcDbEntity
  8
1
  6
CONTINUOUS
100
AcDbLine
 10
176.112842319591
 20
162.2908363402844
 30
0.0
 11
176.112842319591
 21
161.5908363070362
 31
0.0
  0
LINE
  5
694
330
18
100
AcDbEntity
  8
1
  6
CONTINUOUS
100
AcDbLine
 10
178.5128424335848
 20
163.5908356390914
 30
0.0
 11
178.5128424335848
 21
162.34083557972
 31
0.0
  0
LINE
  5
695
330
18
100
AcDbEntity
  8
1
  6
CONTINUOUS
100
AcDbLine
 10
179.262842469208
 20
162.3408355797205
 30
0.0
 11
179.262842469208
 21
162.2908363402844
 31
0.0
  0
LINE
  5
696
330
18
100
AcDbEntity
  8
1
  6
CONTINUOUS
100
AcDbLine
 10
179.262842469208
 20
161.5908363070362
 30
0.0
 11
179.262842469208
 21
161.3408355322223
 31
0.0
  0
LINE
  5
697
330
18
100
AcDbEntity
  8
1
  6
CONTINUOUS
100
AcDbLine
 10
263.6446860375739
 20
100.8408326586265
 30
0.0
 11
263.6446860375739
 21
117.8408334660832
 31
0.0
  0
LINE
  5
699
330
18
100
AcDbEntity
  8
1
  6
CONTINUOUS
100
AcDbLine
 10
288.64468722501
 20
100.8408326586264
 30
0.0
 11
288.64468722501
 21
160.8408355084735
 31
0.0
  0
LINE
  5
69A
330
18
100
AcDbEntity
  8
1
  6
CONTINUOUS
100
AcDbLine
 10
255.6446856575941
 20
100.8408326586265
 30
0.0
 11
255.6446856575941
 21
160.8408355084736
 31
0.0
  0
LINE
  5
69B
330
18
100
AcDbEntity
  8
1
  6
CONTINUOUS
100
AcDbLine
 10
241.6446849926298
 20
100.8408326586265
 30
0.0
 11
241.6446849926298
 21
160.8408355084736
 31
0.0
  0
LINE
  5
69C
330
18
100
AcDbEntity
  8
1
  6
CONTINUOUS
100
AcDbLine
 10
194.7628432054185
 20
100.8408326586265
 30
0.0
 11
194.7628432054185
 21
160.8408355084736
 31
0.0
  0
LINE
  5
69E
330
18
100
AcDbEntity
  8
1
  6
CONTINUOUS
100
AcDbLine
 10
175.2628422792182
 20
100.8408326586262
 30
0.0
 11
194.7628432054185
 21
100.8408326586265
 31
0.0
  0
LINE
  5
69F
330
18
100
AcDbEntity
  8
1
  6
CONTINUOUS
100
AcDbLine
 10
185.0128427423183
 20
98.09083238322001
 30
0.0
 11
185.0128427423183
 21
99.34083258738034
 31
0.0
  0
LINE
  5
6A0
330
18
100
AcDbEntity
  8
1
  6
CONTINUOUS
100
AcDbLine
 10
185.0128426587242
 20
98.09083238322001
 30
0.0
 11
178.512842517179
 21
98.09083238322001
 31
0.0
  0
LINE
  5
6A1
330
18
100
AcDbEntity
  8
1
  6
CONTINUOUS
100
AcDbLine
 10
183.8581421490933
 20
96.09083243301364
 30
0.0
 11
185.0128426587242
 21
98.09083238322001
 31
0.0
  0
LINE
  5
6A2
330
18
100
AcDbEntity
  8
1
  6
CONTINUOUS
100
AcDbLine
 10
183.8581421490933
 20
96.09083243301364
 30
0.0
 11
179.6675430268099
 21
96.09083243301364
 31
0.0
  0
LINE
  5
6A4
330
18
100
AcDbEntity
  8
1
  6
CONTINUOUS
100
AcDbLine
 10
185.0128427423183
 20
99.34083258738034
 30
0.0
 11
178.5128424335849
 21
99.34083258738036
 31
0.0
  0
LINE
  5
6A5
330
18
100
AcDbEntity
  8
1
  6
CONTINUOUS
100
AcDbLine
 10
184.9804470529967
 20
99.39083182681574
 30
0.0
 11
184.9804470529967
 21
100.0908318600639
 31
0.0
  0
LINE
  5
6A6
330
18
100
AcDbEntity
  8
1
  6
CONTINUOUS
100
AcDbLine
 10
185.0128427423168
 20
100.3408326348778
 30
0.0
 11
185.0128427423168
 21
100.8408326586265
 31
0.0
  0
LINE
  5
6A7
330
18
100
AcDbEntity
  8
1
  6
CONTINUOUS
100
AcDbLine
 10
184.2628427066952
 20
99.34083258738034
 30
0.0
 11
184.2628427066952
 21
99.39083182681574
 31
0.0
  0
LINE
  5
6A8
330
18
100
AcDbEntity
  8
1
  6
CONTINUOUS
100
AcDbLine
 10
184.2628427066952
 20
100.0908318600639
 30
0.0
 11
184.2628427066952
 21
100.3408326348777
 31
0.0
  0
LINE
  5
6AB
330
18
100
AcDbEntity
  8
1
  6
CONTINUOUS
100
AcDbLine
 10
241.6446849926298
 20
100.8408326586265
 30
0.0
 11
255.6446856575941
 21
100.8408326586265
 31
0.0
  0
LINE
  5
6AE
330
18
100
AcDbEntity
  8
1
  6
CONTINUOUS
100
AcDbLine
 10
242.9946850567513
 20
100.0908318600639
 30
0.0
 11
242.9946850567514
 21
99.39083182681574
 31
0.0
  0
LINE
  5
6AF
330
18
100
AcDbEntity
  8
1
  6
CONTINUOUS
100
AcDbLine
 10
251.8946854794787
 20
98.09083238322001
 30
0.0
 11
251.8946854794787
 21
99.34083258738034
 31
0.0
  0
LINE
  5
6B0
330
18
100
AcDbEntity
  8
1
  6
CONTINUOUS
100
AcDbLine
 10
245.3946851707452
 20
99.34083258738034
 30
0.0
 11
245.3946851707452
 21
98.0908325280092
 31
0.0
  0
LINE
  5
6B1
330
18
100
AcDbEntity
  8
1
  6
CONTINUOUS
100
AcDbLine
 10
251.8946853958845
 20
98.09083238322001
 30
0.0
 11
245.3946852543393
 21
98.09083238322001
 31
0.0
  0
LINE
  5
6B2
330
18
100
AcDbEntity
  8
1
  6
CONTINUOUS
100
AcDbLine
 10
246.5493857639703
 20
96.09083243301364
 30
0.0
 11
250.7399848862537
 21
96.09083243301364
 31
0.0
  0
LINE
  5
6B3
330
18
100
AcDbEntity
  8
1
  6
CONTINUOUS
100
AcDbLine
 10
245.3946852543393
 20
98.09083238322001
 30
0.0
 11
246.5493857639703
 21
96.09083243301364
 31
0.0
  0
LINE
  5
6B6
330
18
100
AcDbEntity
  8
1
  6
CONTINUOUS
100
AcDbLine
 10
250.7399848862537
 20
96.09083243301364
 30
0.0
 11
251.8946853958845
 21
98.09083238322001
 31
0.0
  0
LINE
  5
6B7
330
18
100
AcDbEntity
  8
1
  6
CONTINUOUS
100
AcDbLine
 10
251.8946854794787
 20
99.34083258738034
 30
0.0
 11
245.3946851707452
 21
99.34083258738034
 31
0.0
  0
LINE
  5
6B8
330
18
100
AcDbEntity
  8
1
  6
CONTINUOUS
100
AcDbLine
 10
251.8946854794787
 20
100.3408326348778
 30
0.0
 11
245.3946851707452
 21
100.3408326348778
 31
0.0
  0
LINE
  5
6B9
330
18
100
AcDbEntity
  8
1
  6
CONTINUOUS
100
AcDbLine
 10
244.0003851045194
 20
99.39083182681574
 30
0.0
 11
244.0003851045194
 21
100.0908318600639
 31
0.0
  0
LINE
  5
6BB
330
18
100
AcDbEntity
  8
1
  6
CONTINUOUS
100
AcDbLine
 10
246.5896852275046
 20
99.39083182681574
 30
0.0
 11
246.5896852275046
 21
100.0908318600639
 31
0.0
  0
LINE
  5
6BC
330
18
100
AcDbEntity
  8
1
  6
CONTINUOUS
100
AcDbLine
 10
242.9946850567513
 20
100.0908318600639
 30
0.0
 11
246.5896852275047
 21
100.0908318600639
 31
0.0
  0
LINE
  5
6BD
330
18
100
AcDbEntity
  8
1
  6
CONTINUOUS
100
AcDbLine
 10
245.3946851707467
 20
100.8408326586265
 30
0.0
 11
245.3946851707468
 21
100.3408326348778
 31
0.0
  0
LINE
  5
6BE
330
18
100
AcDbEntity
  8
1
  6
CONTINUOUS
100
AcDbLine
 10
246.1446852063683
 20
100.3408326348777
 30
0.0
 11
246.1446852063683
 21
100.0908318600639
 31
0.0
  0
LINE
  5
6BF
330
18
100
AcDbEntity
  8
1
  6
CONTINUOUS
100
AcDbLine
 10
246.1446852063683
 20
99.39083182681574
 30
0.0
 11
246.1446852063683
 21
99.34083258738034
 31
0.0
  0
LINE
  5
6C0
330
18
100
AcDbEntity
  8
1
  6
CONTINUOUS
100
AcDbLine
 10
250.6996854227192
 20
99.39083182681574
 30
0.0
 11
254.2946855934725
 21
99.39083182681574
 31
0.0
  0
LINE
  5
6C1
330
18
100
AcDbEntity
  8
1
  6
CONTINUOUS
100
AcDbLine
 10
250.6996854227192
 20
99.39083182681574
 30
0.0
 11
250.6996854227192
 21
100.0908318600639
 31
0.0
  0
LINE
  5
6C2
330
18
100
AcDbEntity
  8
1
  6
CONTINUOUS
100
AcDbLine
 10
253.2889855457042
 20
99.39083182681574
 30
0.0
 11
253.2889855457042
 21
100.0908318600639
 31
0.0
  0
LINE
  5
6C3
330
18
100
AcDbEntity
  8
1
  6
CONTINUOUS
100
AcDbLine
 10
250.6996854227192
 20
100.0908318600639
 30
0.0
 11
254.2946855934725
 21
100.0908318600639
 31
0.0
  0
LINE
  5
6C4
330
18
100
AcDbEntity
  8
1
  6
CONTINUOUS
100
AcDbLine
 10
251.8946854794802
 20
100.3408326348778
 30
0.0
 11
251.8946854794801
 21
100.8408326586265
 31
0.0
  0
LINE
  5
6C5
330
18
100
AcDbEntity
  8
1
  6
CONTINUOUS
100
AcDbLine
 10
251.1446854438556
 20
99.34083258738036
 30
0.0
 11
251.1446854438556
 21
99.39083182681574
 31
0.0
  0
LINE
  5
6C6
330
18
100
AcDbEntity
  8
1
  6
CONTINUOUS
100
AcDbLine
 10
251.1446854438556
 20
100.0908318600639
 30
0.0
 11
251.1446854438556
 21
100.3408326348777
 31
0.0
  0
LINE
  5
6C7
330
18
100
AcDbEntity
  8
1
  6
CONTINUOUS
100
AcDbLine
 10
256.1446856813429
 20
100.8408326586265
 30
0.0
 11
288.64468722501
 21
100.8408326586264
 31
0.0
  0
LINE
  5
6C8
330
18
100
AcDbEntity
  8
1
  6
CONTINUOUS
100
AcDbLine
 10
254.2946855934725
 20
99.39083182681574
 30
0.0
 11
254.2946855934725
 21
100.0908318600639
 31
0.0
  0
LINE
  5
6CC
330
18
100
AcDbEntity
  8
1
  6
CONTINUOUS
100
AcDbLine
 10
256.1446856813429
 20
100.8408326586265
 30
0.0
 11
256.1446856813429
 21
160.8408355084736
 31
0.0
  0
LINE
  5
6CD
330
18
100
AcDbEntity
  8
1
  6
CONTINUOUS
100
AcDbLine
 10
259.6062243072965
 20
117.8408334660832
 30
0.0
 11
259.6062243072965
 21
143.8408347010169
 31
0.0
  0
LINE
  5
6CE
330
18
100
AcDbEntity
  8
1
  6
CONTINUOUS
100
AcDbLine
 10
188.262842896685
 20
107.8408329911087
 30
0.0
 11
188.262842896685
 21
153.8408351759914
 31
0.0
  0
LINE
  5
6CF
330
18
100
AcDbEntity
  8
1
  6
CONTINUOUS
100
AcDbLine
 10
189.7628429679312
 20
152.840835128494
 30
0.0
 11
189.7628429679312
 21
108.8408330386061
 31
0.0
  0
ARC
  5
6D0
330
18
100
AcDbEntity
  8
1
  6
CONTINUOUS
100
AcDbCircle
 10
188.7628465759863
 20
108.8408293830536
 30
0.0
 40
0.9999963919515931
100
AcDbArc
 50
269.9997905515132
 51
0.000209448483031
  0
LINE
  5
6D2
330
18
100
AcDbEntity
  8
1
  6
CONTINUOUS
100
AcDbLine
 10
175.2628422792182
 20
107.8408329911086
 30
0.0
 11
188.7628429204337
 21
107.8408329911086
 31
0.0
  0
LINE
  5
6D3
330
18
100
AcDbEntity
  8
1
  6
CONTINUOUS
100
AcDbLine
 10
187.7628428729363
 20
107.8408329911086
 30
0.0
 11
187.7628428729363
 21
109.0408330481056
 31
0.0
  0
LINE
  5
6D4
330
18
100
AcDbEntity
  8
1
  6
CONTINUOUS
100
AcDbLine
 10
185.7628427779414
 20
109.0408330481056
 30
0.0
 11
185.7628427779414
 21
109.1408330528553
 31
0.0
  0
CIRCLE
  5
6D6
330
18
100
AcDbEntity
  8
1
  6
CONTINUOUS
100
AcDbCircle
 10
248.6446853251119
 20
113.8408332760934
 30
0.0
 40
2.650000125868267
  0
LINE
  5
6D7
330
18
100
AcDbEntity
  8
1
  6
CONTINUOUS
100
AcDbLine
 10
255.6446856575941
 20
109.1408330528553
 30
0.0
 11
256.1446856813428
 21
109.1408330528553
 31
0.0
  0
LINE
  5
6D8
330
18
100
AcDbEntity
  8
1
  6
CONTINUOUS
100
AcDbLine
 10
285.1446870587689
 20
117.8408334660832
 30
0.0
 11
259.6062243072961
 21
117.8408334660832
 31
0.0
  0
ARC
  5
6D9
330
18
100
AcDbEntity
  8
1
  6
CONTINUOUS
100
AcDbCircle
 10
188.7628265271994
 20
152.8408187352596
 30
0.0
 40
1.000016440866287
100
AcDbArc
 50
0.0009392477058878
 51
89.99906075229858
  0
LINE
  5
6DA
330
18
100
AcDbEntity
  8
1
  6
CONTINUOUS
100
AcDbLine
 10
175.2628422792181
 20
153.8408351759914
 30
0.0
 11
188.7628429204337
 21
153.8408351759914
 31
0.0
  0
LINE
  5
6DB
330
18
100
AcDbEntity
  8
1
  6
CONTINUOUS
100
AcDbLine
 10
187.7628428729363
 20
152.6408351189945
 30
0.0
 11
187.7628428729363
 21
153.8408351759914
 31
0.0
  0
LINE
  5
6DC
330
18
100
AcDbEntity
  8
1
  6
CONTINUOUS
100
AcDbLine
 10
185.7628427779414
 20
152.540835114243
 30
0.0
 11
185.7628427779414
 21
152.6408351189945
 31
0.0
  0
LINE
  5
6DE
330
18
100
AcDbEntity
  8
1
  6
CONTINUOUS
100
AcDbLine
 10
175.2628422792181
 20
160.8408355084736
 30
0.0
 11
194.7628432054185
 21
160.8408355084736
 31
0.0
  0
LINE
  5
6DF
330
18
100
AcDbEntity
  8
1
  6
CONTINUOUS
100
AcDbLine
 10
185.0128427423183
 20
160.8408355084736
 30
0.0
 11
185.0128427423183
 21
161.3408355322222
 31
0.0
  0
LINE
  5
6E0
330
18
100
AcDbEntity
  8
1
  6
CONTINUOUS
100
AcDbLine
 10
185.0128427423174
 20
163.5908356390914
 30
0.0
 11
178.5128424335848
 21
163.5908356390914
 31
0.0
  0
LINE
  5
6E1
330
18
100
AcDbEntity
  8
1
  6
CONTINUOUS
100
AcDbLine
 10
185.0128427423183
 20
163.5908356390902
 30
0.0
 11
183.8581421490932
 21
165.5908357340865
 31
0.0
  0
LINE
  5
6E2
330
18
100
AcDbEntity
  8
1
  6
CONTINUOUS
100
AcDbLine
 10
185.0128427423183
 20
161.3408355322222
 30
0.0
 11
178.5128424335848
 21
161.3408355322222
 31
0.0
  0
LINE
  5
6E4
330
18
100
AcDbEntity
  8
1
  6
CONTINUOUS
100
AcDbLine
 10
183.8581421490932
 20
165.5908357340865
 30
0.0
 11
179.6675430268099
 21
165.5908357340865
 31
0.0
  0
LINE
  5
6E5
330
18
100
AcDbEntity
  8
1
  6
CONTINUOUS
100
AcDbLine
 10
184.9804470529967
 20
162.2908363402844
 30
0.0
 11
184.9804470529967
 21
161.5908363070362
 31
0.0
  0
LINE
  5
6E6
330
18
100
AcDbEntity
  8
1
  6
CONTINUOUS
100
AcDbLine
 10
185.0128427423183
 20
162.3408355797202
 30
0.0
 11
185.0128427423183
 21
163.5908356390902
 31
0.0
  0
LINE
  5
6E9
330
18
100
AcDbEntity
  8
1
  6
CONTINUOUS
100
AcDbLine
 10
184.2628427066952
 20
161.3408355322223
 30
0.0
 11
184.2628427066952
 21
161.5908363070362
 31
0.0
  0
LINE
  5
6EA
330
18
100
AcDbEntity
  8
1
  6
CONTINUOUS
100
AcDbLine
 10
184.2628427066952
 20
162.2908363402844
 30
0.0
 11
184.2628427066952
 21
162.3408355797205
 31
0.0
  0
LINE
  5
6EC
330
18
100
AcDbEntity
  8
1
  6
CONTINUOUS
100
AcDbLine
 10
263.6446860375738
 20
143.8408347010169
 30
0.0
 11
263.6446860375738
 21
160.8408355084736
 31
0.0
  0
CIRCLE
  5
6ED
330
18
100
AcDbEntity
  8
1
  6
CONTINUOUS
100
AcDbCircle
 10
248.6446853251119
 20
147.8408348910067
 30
0.0
 40
2.650000125868256
  0
LINE
  5
6EE
330
18
100
AcDbEntity
  8
1
  6
CONTINUOUS
100
AcDbLine
 10
285.1446870587689
 20
143.8408347010169
 30
0.0
 11
259.606224307297
 21
143.8408347010169
 31
0.0
  0
LINE
  5
6EF
330
18
100
AcDbEntity
  8
1
  6
CONTINUOUS
100
AcDbLine
 10
255.6446856575941
 20
152.5408351142447
 30
0.0
 11
256.1446856813428
 21
152.5408351142447
 31
0.0
  0
LINE
  5
6F2
330
18
100
AcDbEntity
  8
1
  6
CONTINUOUS
100
AcDbLine
 10
241.6446849926298
 20
160.8408355084736
 30
0.0
 11
255.6446856575941
 21
160.8408355084736
 31
0.0
  0
LINE
  5
6F5
330
18
100
AcDbEntity
  8
1
  6
CONTINUOUS
100
AcDbLine
 10
242.9946850567513
 20
162.2908363402844
 30
0.0
 11
242.9946850567513
 21
161.5908363070362
 31
0.0
  0
LINE
  5
6F6
330
18
100
AcDbEntity
  8
1
  6
CONTINUOUS
100
AcDbLine
 10
251.8946854794787
 20
160.8408355084736
 30
0.0
 11
251.8946854794787
 21
161.3408355322222
 31
0.0
  0
LINE
  5
6F7
330
18
100
AcDbEntity
  8
1
  6
CONTINUOUS
100
AcDbLine
 10
245.3946851707453
 20
161.3408355322222
 30
0.0
 11
245.3946851707453
 21
160.8408355084736
 31
0.0
  0
LINE
  5
6F8
330
18
100
AcDbEntity
  8
1
  6
CONTINUOUS
100
AcDbLine
 10
245.3946851707453
 20
163.5908356390905
 30
0.0
 11
251.8946854794785
 21
163.5908356390912
 31
0.0
  0
LINE
  5
6F9
330
18
100
AcDbEntity
  8
1
  6
CONTINUOUS
100
AcDbLine
 10
246.5493857639701
 20
165.590835734086
 30
0.0
 11
250.7399848862537
 21
165.5908357340865
 31
0.0
  0
LINE
  5
6FA
330
18
100
AcDbEntity
  8
1
  6
CONTINUOUS
100
AcDbLine
 10
251.8946854794787
 20
162.34083557972
 30
0.0
 11
245.3946851707452
 21
162.3408355797202
 31
0.0
  0
LINE
  5
6FB
330
18
100
AcDbEntity
  8
1
  6
CONTINUOUS
100
AcDbLine
 10
251.8946854794787
 20
161.3408355322222
 30
0.0
 11
245.3946851707452
 21
161.3408355322222
 31
0.0
  0
LINE
  5
6FC
330
18
100
AcDbEntity
  8
1
  6
CONTINUOUS
100
AcDbLine
 10
246.5896852275046
 20
162.2908363402844
 30
0.0
 11
242.9946850567513
 21
162.2908363402844
 31
0.0
  0
LINE
  5
6FD
330
18
100
AcDbEntity
  8
1
  6
CONTINUOUS
100
AcDbLine
 10
246.5896852275046
 20
162.2908363402844
 30
0.0
 11
246.5896852275046
 21
161.5908363070362
 31
0.0
  0
LINE
  5
6FE
330
18
100
AcDbEntity
  8
1
  6
CONTINUOUS
100
AcDbLine
 10
244.0003851045196
 20
162.2908363402844
 30
0.0
 11
244.0003851045196
 21
161.5908363070362
 31
0.0
  0
LINE
  5
6FF
330
18
100
AcDbEntity
  8
1
  6
CONTINUOUS
100
AcDbLine
 10
246.5896852275047
 20
161.5908363070362
 30
0.0
 11
242.9946850567513
 21
161.5908363070362
 31
0.0
  0
LINE
  5
700
330
18
100
AcDbEntity
  8
1
  6
CONTINUOUS
100
AcDbLine
 10
246.5493857639701
 20
165.590835734086
 30
0.0
 11
245.3946851707452
 21
163.5908356390903
 31
0.0
  0
LINE
  5
704
330
18
100
AcDbEntity
  8
1
  6
CONTINUOUS
100
AcDbLine
 10
245.3946851707453
 20
163.5908356390905
 30
0.0
 11
245.3946851707453
 21
162.3408355797202
 31
0.0
  0
LINE
  5
705
330
18
100
AcDbEntity
  8
1
  6
CONTINUOUS
100
AcDbLine
 10
246.1446852063683
 20
162.3408355797205
 30
0.0
 11
246.1446852063683
 21
162.2908363402844
 31
0.0
  0
LINE
  5
706
330
18
100
AcDbEntity
  8
1
  6
CONTINUOUS
100
AcDbLine
 10
246.1446852063683
 20
161.5908363070362
 30
0.0
 11
246.1446852063683
 21
161.3408355322223
 31
0.0
  0
LINE
  5
707
330
18
100
AcDbEntity
  8
1
  6
CONTINUOUS
100
AcDbLine
 10
253.2889855457046
 20
162.2908363402844
 30
0.0
 11
253.2889855457046
 21
161.5908363070362
 31
0.0
  0
LINE
  5
708
330
18
100
AcDbEntity
  8
1
  6
CONTINUOUS
100
AcDbLine
 10
254.2946855934726
 20
162.2908363402844
 30
0.0
 11
250.6996854227193
 21
162.2908363402844
 31
0.0
  0
LINE
  5
709
330
18
100
AcDbEntity
  8
1
  6
CONTINUOUS
100
AcDbLine
 10
250.6996854227193
 20
162.2908363402844
 30
0.0
 11
250.6996854227193
 21
161.5908363070362
 31
0.0
  0
LINE
  5
70A
330
18
100
AcDbEntity
  8
1
  6
CONTINUOUS
100
AcDbLine
 10
254.2946855934725
 20
161.5908363070362
 30
0.0
 11
250.6996854227192
 21
161.5908363070362
 31
0.0
  0
LINE
  5
70B
330
18
100
AcDbEntity
  8
1
  6
CONTINUOUS
100
AcDbLine
 10
251.8946854794781
 20
163.5908356390919
 30
0.0
 11
250.7399848862537
 21
165.5908357340865
 31
0.0
  0
LINE
  5
70C
330
18
100
AcDbEntity
  8
1
  6
CONTINUOUS
100
AcDbLine
 10
251.8946854794787
 20
162.34083557972
 30
0.0
 11
251.8946854794787
 21
163.5908356390909
 31
0.0
  0
LINE
  5
70E
330
18
100
AcDbEntity
  8
1
  6
CONTINUOUS
100
AcDbLine
 10
251.1446854438556
 20
161.3408355322223
 30
0.0
 11
251.1446854438556
 21
161.5908363070362
 31
0.0
  0
LINE
  5
70F
330
18
100
AcDbEntity
  8
1
  6
CONTINUOUS
100
AcDbLine
 10
251.1446854438556
 20
162.2908363402844
 30
0.0
 11
251.1446854438556
 21
162.3408355797205
 31
0.0
  0
LINE
  5
710
330
18
100
AcDbEntity
  8
1
  6
CONTINUOUS
100
AcDbLine
 10
256.1446856813429
 20
160.8408355084736
 30
0.0
 11
288.64468722501
 21
160.8408355084735
 31
0.0
  0
LINE
  5
711
330
18
100
AcDbEntity
  8
1
  6
CONTINUOUS
100
AcDbLine
 10
254.2946855934725
 20
161.5908363070362
 30
0.0
 11
254.2946855934726
 21
162.2908363402844
 31
0.0
  0
LINE
  5
712
330
18
100
AcDbEntity
  8
1
  6
CONTINUOUS
100
AcDbLine
 10
285.1446870587689
 20
117.8408334660832
 30
0.0
 11
285.1446870587689
 21
143.8408347010169
 31
0.0
  0
CIRCLE
  5
713
330
18
100
AcDbEntity
  8
1
  6
CONTINUOUS
100
AcDbCircle
 10
278.6446867500355
 20
110.840833133601
 30
0.0
 40
2.650000125868255
  0
CIRCLE
  5
714
330
18
100
AcDbEntity
  8
1
  6
CONTINUOUS
100
AcDbCircle
 10
278.6446867500355
 20
150.840835033499
 30
0.0
 40
2.650000125868233
  0
LINE
  5
715
330
18
100
AcDbEntity
  8
1
  6
CONTINUOUS
100
AcDbLine
 10
116.9826807713886
 20
220.0633544820458
 30
0.0
 11
109.4826804151576
 21
226.5633547907793
 31
0.0
  0
LINE
  5
717
330
18
100
AcDbEntity
  8
1
  6
CONTINUOUS
100
AcDbLine
 10
109.4826804151576
 20
226.5633547907793
 30
0.0
 11
84.4826792277214
 21
226.5633547907793
 31
0.0
  0
LINE
  5
718
330
18
100
AcDbEntity
  8
1
  6
CONTINUOUS
100
AcDbLine
 10
87.98267939396248
 20
220.5633545057946
 30
0.0
 11
106.4826802726652
 21
220.5633545057946
 31
0.0
  0
LINE
  5
719
330
18
100
AcDbEntity
  8
1
  6
CONTINUOUS
100
AcDbLine
 10
87.98267939396248
 20
220.5633545057946
 30
0.0
 11
84.4826792277214
 21
224.0633546720356
 31
0.0
  0
LINE
  5
71A
330
18
100
AcDbEntity
  8
1
  6
CONTINUOUS
100
AcDbLine
 10
84.4826792277214
 20
226.5633547907793
 30
0.0
 11
84.4826792277214
 21
224.0633546720356
 31
0.0
  0
LINE
  5
71B
330
18
100
AcDbEntity
  8
1
  6
CONTINUOUS
100
AcDbLine
 10
125.2167396742517
 20
210.3973378983227
 30
0.0
 11
125.4737018382618
 21
209.6106962664694
 31
0.0
  0
LINE
  5
71C
330
18
100
AcDbEntity
  8
1
  6
CONTINUOUS
100
AcDbLine
 10
123.4916604169772
 20
209.6106962664695
 30
0.0
 11
123.7486225809872
 21
210.3973378983227
 31
0.0
  0
ARC
  5
71D
330
18
100
AcDbEntity
  8
1
  6
CONTINUOUS
100
AcDbCircle
 10
124.4826811276194
 20
213.5633541733124
 30
0.0
 40
4.07500019355212
100
AcDbArc
 50
187.0479175841962
 51
255.9247960486483
  0
ARC
  5
71E
330
18
100
AcDbEntity
  8
1
  6
CONTINUOUS
100
AcDbCircle
 10
124.4826811276194
 20
213.5633541733124
 30
0.0
 40
5.650000268360596
100
AcDbArc
 50
145.2855054756552
 51
34.71449452434764
  0
ARC
  5
71F
330
18
100
AcDbEntity
  8
1
  6
CONTINUOUS
100
AcDbCircle
 10
124.4826811276194
 20
213.5633541733124
 30
0.0
 40
4.075000193552117
100
AcDbArc
 50
284.0752039513517
 51
352.9520824158037
  0
LINE
  5
720
330
18
100
AcDbEntity
  8
1
  6
CONTINUOUS
100
AcDbLine
 10
120.2253423910475
 20
208.6516262802367
 30
0.0
 11
106.4826802726652
 21
220.5633545057946
 31
0.0
  0
ARC
  5
721
330
18
100
AcDbEntity
  8
1
  6
CONTINUOUS
100
AcDbCircle
 10
124.4826811276194
 20
213.5633541733124
 30
0.0
 40
3.300000156741585
100
AcDbArc
 50
188.7147420186177
 51
256.8698008251323
  0
ARC
  5
722
330
18
100
AcDbEntity
  8
1
  6
CONTINUOUS
100
AcDbCircle
 10
124.4826811276194
 20
213.5633541733124
 30
0.0
 40
3.300000156741585
100
AcDbArc
 50
283.1301991748677
 51
351.2852579813822
  0
ARC
  5
723
330
18
100
AcDbEntity
  8
1
  6
CONTINUOUS
100
AcDbCircle
 10
124.4826811276194
 20
213.5633541733124
 30
0.0
 40
6.500000308733448
100
AcDbArc
 50
182.1818446513182
 51
357.8181553486817
  0
LINE
  5
724
330
18
100
AcDbEntity
  8
1
  6
CONTINUOUS
100
AcDbLine
 10
116.9826807713886
 20
211.4622683238302
 30
0.0
 11
116.9826807713886
 21
220.0633544820458
 31
0.0
  0
LINE
  5
725
330
18
100
AcDbEntity
  8
1
  6
CONTINUOUS
100
AcDbLine
 10
130.97796913251
 20
213.315891555815
 30
0.0
 11
131.4826814601016
 21
226.5633547907793
 31
0.0
  0
LINE
  5
726
330
18
100
AcDbEntity
  8
1
  6
CONTINUOUS
100
AcDbLine
 10
117.4826807951373
 20
226.5633547907793
 30
0.0
 11
117.9873931227288
 21
213.315891555815
 31
0.0
  0
ARC
  5
72B
330
18
100
AcDbEntity
  8
1
  6
CONTINUOUS
100
AcDbCircle
 10
124.4826811276194
 20
213.5633541733124
 30
0.0
 40
3.300000156741585
100
AcDbArc
 50
34.71449452434797
 51
145.2855054756558
  0
LINE
  5
72E
330
18
100
AcDbEntity
  8
1
  6
CONTINUOUS
100
AcDbLine
 10
121.2713728304242
 20
213.0633541495637
 30
0.0
 11
120.438472113028
 21
213.0633541495637
 31
0.0
  0
LINE
  5
730
330
18
100
AcDbEntity
  8
1
  6
CONTINUOUS
100
AcDbLine
 10
119.8383809070268
 20
216.7809586383576
 30
0.0
 11
121.8111810007298
 21
215.4141886001083
 31
0.0
  0
LINE
  5
731
330
18
100
AcDbEntity
  8
1
  6
CONTINUOUS
100
AcDbLine
 10
128.5268901422106
 20
213.0633541495637
 30
0.0
 11
127.6939894248146
 21
213.0633541495637
 31
0.0
  0
LINE
  5
732
330
18
100
AcDbEntity
  8
1
  6
CONTINUOUS
100
AcDbLine
 10
127.1541812545089
 20
215.4141886001084
 30
0.0
 11
129.1269813482118
 21
216.7809586383576
 31
0.0
  0
LINE
  5
733
330
18
100
AcDbEntity
  8
1
  6
CONTINUOUS
100
AcDbLine
 10
131.4826814601015
 20
226.5633547907793
 30
0.0
 11
117.4826807951373
 21
226.5633547907793
 31
0.0
  0
LINE
  5
734
330
18
100
AcDbEntity
  8
1
  6
CONTINUOUS
100
AcDbLine
 10
117.730322945712
 20
220.0633544820458
 30
0.0
 11
116.9826807713885
 21
220.0633544820458
 31
0.0
  0
CIRCLE
  5
73B
330
18
100
AcDbEntity
  8
1
  6
CONTINUOUS
100
AcDbCircle
 10
94.48267970269602
 20
150.840835033499
 30
0.0
 40
2.650000125868352
  0
CIRCLE
  5
73C
330
18
100
AcDbEntity
  8
1
  6
CONTINUOUS
100
AcDbCircle
 10
94.48267970269602
 20
150.840835033499
 30
0.0
 40
5.150000244611931
  0
LINE
  5
73D
330
18
100
AcDbEntity
  8
4
  6
CENTER
 48
0.2
100
AcDbLine
 10
86.33267945808411
 20
150.840835033499
 30
0.0
 11
102.6326799473079
 21
150.840835033499
 31
0.0
  0
LINE
  5
73E
330
18
100
AcDbEntity
  8
4
  6
CENTER
 48
0.2
100
AcDbLine
 10
94.48267970269602
 20
158.9908352781109
 30
0.0
 11
94.48267970269602
 21
142.690834788887
 31
0.0
  0
LINE
  5
73F
330
18
100
AcDbEntity
  8
4
  6
CENTER
 48
0.2
100
AcDbLine
 10
94.48267970269602
 20
118.9908352781109
 30
0.0
 11
94.48267970269602
 21
102.690834788887
 31
0.0
  0
CIRCLE
  5
740
330
18
100
AcDbEntity
  8
1
  6
CONTINUOUS
100
AcDbCircle
 10
94.48267970269602
 20
110.840835033499
 30
0.0
 40
5.150000244611931
  0
CIRCLE
  5
741
330
18
100
AcDbEntity
  8
1
  6
CONTINUOUS
100
AcDbCircle
 10
94.48267970269602
 20
110.840835033499
 30
0.0
 40
2.650000125868352
  0
LINE
  5
742
330
18
100
AcDbEntity
  8
4
  6
CENTER
 48
0.2
100
AcDbLine
 10
86.33267945808411
 20
110.840835033499
 30
0.0
 11
102.6326799473079
 21
110.840835033499
 31
0.0
  0
LINE
  5
743
330
18
100
AcDbEntity
  8
1
  6
CONTINUOUS
100
AcDbLine
 10
117.7112735495139
 20
153.8408351759914
 30
0.0
 11
117.6731747571182
 21
152.840835128494
 31
0.0
  0
LINE
  5
744
330
18
100
AcDbEntity
  8
1
  6
CONTINUOUS
100
AcDbLine
 10
131.2540887057248
 20
153.8408351759914
 30
0.0
 11
131.2921874981209
 21
152.840835128494
 31
0.0
  0
LINE
  5
745
330
18
100
AcDbEntity
  8
1
  6
CONTINUOUS
100
AcDbLine
 10
131.2540887057248
 20
107.8408329911087
 30
0.0
 11
131.2921874981209
 21
108.8408330386061
 31
0.0
  0
LINE
  5
746
330
18
100
AcDbEntity
  8
1
  6
CONTINUOUS
100
AcDbLine
 10
117.7112735495139
 20
107.8408329911087
 30
0.0
 11
117.6731747571182
 21
108.8408330386061
 31
0.0
  0
LINE
  5
747
330
18
100
AcDbEntity
  8
4
  6
CENTER
 48
0.2
100
AcDbLine
 10
81.4826792277214
 20
130.84083408355
 30
0.0
 11
134.4826814601015
 21
130.84083408355
 31
0.0
  0
LINE
  5
748
330
18
100
AcDbEntity
  8
4
  6
CENTER
 48
0.2
100
AcDbLine
 10
124.482709995133
 20
168.5908357340863
 30
0.0
 11
124.482709995133
 21
93.09073243301364
 31
0.0
  0
CIRCLE
  5
749
330
18
100
AcDbEntity
  8
1
  6
CONTINUOUS
100
AcDbCircle
 10
124.4826811276194
 20
213.5633541733124
 30
0.0
 40
3.250000154366716
  0
CIRCLE
  5
74A
330
18
100
AcDbEntity
  8
1
  6
CONTINUOUS
100
AcDbCircle
 10
124.4826811276194
 20
213.5633541733124
 30
0.0
 40
2.095299561141697
  0
LINE
  5
74B
330
18
100
AcDbEntity
  8
4
  6
CENTER
 48
0.2
100
AcDbLine
 10
124.4826811276194
 20
229.5633547907793
 30
0.0
 11
124.4826811276194
 21
205.4170056037276
 31
0.0
  0
LINE
  5
74C
330
18
100
AcDbEntity
  8
4
  6
CENTER
 48
0.2
100
AcDbLine
 10
115.9779650962868
 20
213.5633541733124
 30
0.0
 11
132.987397158952
 21
213.5633541733124
 31
0.0
  0
LINE
  5
74D
330
18
100
AcDbEntity
  8
4
  6
CENTER
 48
0.2
100
AcDbLine
 10
94.48267970269602
 20
217.5633545057945
 30
0.0
 11
94.48267970269602
 21
229.5633547907792
 31
0.0
  0
LINE
  5
74E
330
18
100
AcDbEntity
  8
4
  6
CENTER
 48
0.1
100
AcDbLine
 10
120.482709995133
 20
147.8408340835501
 30
0.0
 11
128.482709995133
 21
147.8408340835501
 31
0.0
  0
LINE
  5
74F
330
18
100
AcDbEntity
  8
4
  6
CENTER
 48
0.1
100
AcDbLine
 10
120.482709995133
 20
113.8408340835501
 30
0.0
 11
128.482709995133
 21
113.8408340835501
 31
0.0
  0
LINE
  5
750
330
18
100
AcDbEntity
  8
4
  6
CENTER
 48
0.2
100
AcDbLine
 10
181.7628425879513
 20
168.5908357340865
 30
0.0
 11
181.7628425879513
 21
93.09073243301384
 31
0.0
  0
LINE
  5
752
330
18
100
AcDbEntity
  8
4
  6
CENTER
 48
0.2
100
AcDbLine
 10
186.7628429679312
 20
147.8408340835501
 30
0.0
 11
197.7628432054185
 21
147.8408340835501
 31
0.0
  0
LINE
  5
753
330
18
100
AcDbEntity
  8
4
  6
CENTER
 48
0.2
100
AcDbLine
 10
186.7628429679312
 20
113.8408340835501
 30
0.0
 11
197.7628432054185
 21
113.8408340835501
 31
0.0
  0
LINE
  5
754
330
18
100
AcDbEntity
  8
4
  6
CENTER
 48
0.2
100
AcDbLine
 10
186.7628429679312
 20
150.840835033499
 30
0.0
 11
197.7628432054185
 21
150.840835033499
 31
0.0
  0
LINE
  5
755
330
18
100
AcDbEntity
  8
4
  6
CENTER
 48
0.2
100
AcDbLine
 10
186.7628429679312
 20
110.840835033499
 30
0.0
 11
197.7628432054185
 21
110.840835033499
 31
0.0
  0
LINE
  5
756
330
18
100
AcDbEntity
  8
4
  6
CENTER
 48
0.2
100
AcDbLine
 10
172.2628422792181
 20
130.84083408355
 30
0.0
 11
197.7628432054185
 21
130.84083408355
 31
0.0
  0
LINE
  5
75A
330
18
100
AcDbEntity
  8
4
  6
CENTER
 48
0.2
100
AcDbLine
 10
19.91529514151943
 20
150.840835033499
 30
0.0
 11
30.91529537900669
 21
150.840835033499
 31
0.0
  0
LINE
  5
75B
330
18
100
AcDbEntity
  8
4
  6
CENTER
 48
0.2
100
AcDbLine
 10
35.91529575898664
 20
168.5908357340865
 30
0.0
 11
35.91529575898664
 21
93.09073243301384
 31
0.0
  0
LINE
  5
75C
330
18
100
AcDbEntity
  8
4
  6
CENTER
 48
0.2
100
AcDbLine
 10
19.91529514151943
 20
110.840835033499
 30
0.0
 11
30.91529537900669
 21
110.840835033499
 31
0.0
  0
LINE
  5
75D
330
18
100
AcDbEntity
  8
4
  6
CENTER
 48
0.2
100
AcDbLine
 10
45.41529606771973
 20
130.84083408355
 30
0.0
 11
19.91529514151943
 21
130.84083408355
 31
0.0
  0
LINE
  5
75E
330
18
100
AcDbEntity
  8
4
  6
CENTER
 48
0.2
100
AcDbLine
 10
30.91529537900669
 20
113.8408340835501
 30
0.0
 11
19.91529514151943
 21
113.8408340835501
 31
0.0
  0
LINE
  5
75F
330
18
100
AcDbEntity
  8
4
  6
CENTER
 48
0.2
100
AcDbLine
 10
30.91529537900669
 20
147.8408340835501
 30
0.0
 11
19.91529514151943
 21
147.8408340835501
 31
0.0
  0
LINE
  5
764
330
18
100
AcDbEntity
  8
4
  6
CENTER
 48
0.2
100
AcDbLine
 10
248.6446853251119
 20
168.5908357340863
 30
0.0
 11
248.6446853251119
 21
93.09073243301364
 31
0.0
  0
LINE
  5
766
330
18
100
AcDbEntity
  8
4
  6
CENTER
 48
0.1
100
AcDbLine
 10
243.644685325112
 20
147.8408340835501
 30
0.0
 11
253.644685325112
 21
147.8408340835501
 31
0.0
  0
LINE
  5
767
330
18
100
AcDbEntity
  8
4
  6
CENTER
 48
0.1
100
AcDbLine
 10
243.644685325112
 20
113.8408340835501
 30
0.0
 11
253.644685325112
 21
113.8408340835501
 31
0.0
  0
LINE
  5
769
330
18
100
AcDbEntity
  8
4
  6
CENTER
 48
0.2
100
AcDbLine
 10
278.6447156175489
 20
155.9908352781109
 30
0.0
 11
278.6447156175489
 21
145.690834788887
 31
0.0
  0
LINE
  5
76A
330
18
100
AcDbEntity
  8
4
  6
CENTER
 48
0.2
100
AcDbLine
 10
291.6447160925235
 20
130.84083408355
 30
0.0
 11
238.6447138601434
 21
130.84083408355
 31
0.0
  0
LINE
  5
76C
330
18
100
AcDbEntity
  8
4
  6
CENTER
 48
0.2
100
AcDbLine
 10
283.7947158621608
 20
150.840835033499
 30
0.0
 11
273.494715372937
 21
150.840835033499
 31
0.0
  0
LINE
  5
76D
330
18
100
AcDbEntity
  8
4
  6
CENTER
 48
0.2
100
AcDbLine
 10
283.7946869946474
 20
110.840833133601
 30
0.0
 11
273.4946865054236
 21
110.840833133601
 31
0.0
  0
LINE
  5
76E
330
18
100
AcDbEntity
  8
4
  6
CENTER
 48
0.2
100
AcDbLine
 10
278.6446867500355
 20
115.990833378213
 30
0.0
 11
278.6446867500355
 21
105.6908328889891
 31
0.0
  0
LINE
  5
76F
330
18
100
AcDbEntity
  8
1
  6
CONTINUOUS
100
AcDbLine
 10
116.9826807713886
 20
41.61831368505431
 30
0.0
 11
109.4826804151576
 21
35.11831337632088
 31
0.0
  0
LINE
  5
770
330
18
100
AcDbEntity
  8
1
  6
CONTINUOUS
100
AcDbLine
 10
120.2253423910475
 20
53.03004188686341
 30
0.0
 11
106.4826802726651
 21
41.11831366130559
 31
0.0
  0
LINE
  5
771
330
18
100
AcDbEntity
  8
1
  6
CONTINUOUS
100
AcDbLine
 10
109.4826804151576
 20
35.11831337632088
 30
0.0
 11
84.4826792277214
 21
35.11831337632088
 31
0.0
  0
LINE
  5
772
330
18
100
AcDbEntity
  8
1
  6
CONTINUOUS
100
AcDbLine
 10
87.98267939396248
 20
41.11831366130559
 30
0.0
 11
106.4826802726651
 21
41.11831366130559
 31
0.0
  0
LINE
  5
773
330
18
100
AcDbEntity
  8
1
  6
CONTINUOUS
100
AcDbLine
 10
87.98267939396248
 20
41.11831366130556
 30
0.0
 11
84.4826792277214
 21
37.61831349506451
 31
0.0
  0
LINE
  5
774
330
18
100
AcDbEntity
  8
1
  6
CONTINUOUS
100
AcDbLine
 10
84.4826792277214
 20
35.11831337632088
 30
0.0
 11
84.4826792277214
 21
37.61831349506451
 31
0.0
  0
LINE
  5
775
330
18
100
AcDbEntity
  8
4
  6
CENTER
 48
0.2
100
AcDbLine
 10
94.48267970269602
 20
44.11831366130559
 30
0.0
 11
94.48267970269602
 21
32.11831337632088
 31
0.0
  0
ARC
  5
776
330
18
100
AcDbEntity
  8
1
  6
CONTINUOUS
100
AcDbCircle
 10
124.4826811276194
 20
48.11831399378772
 30
0.0
 40
3.300000156741585
100
AcDbArc
 50
8.71474201861775
 51
76.8698008251323
  0
ARC
  5
777
330
18
100
AcDbEntity
  8
1
  6
CONTINUOUS
100
AcDbCircle
 10
124.4826811276194
 20
48.11831399378772
 30
0.0
 40
3.300000156741585
100
AcDbArc
 50
103.1301991748676
 51
171.2852579813822
  0
CIRCLE
  5
778
330
18
100
AcDbEntity
  8
1
  6
CONTINUOUS
100
AcDbCircle
 10
124.4826811276194
 20
48.11831399378772
 30
0.0
 40
3.250000154366716
  0
CIRCLE
  5
779
330
18
100
AcDbEntity
  8
1
  6
CONTINUOUS
100
AcDbCircle
 10
124.4826811276194
 20
48.11831399378772
 30
0.0
 40
2.095299561141697
  0
ARC
  5
77A
330
18
100
AcDbEntity
  8
1
  6
CONTINUOUS
100
AcDbCircle
 10
124.4826811276194
 20
48.11831399378772
 30
0.0
 40
6.500000308733448
100
AcDbArc
 50
2.181844651318256
 51
177.8181553486817
  0
ARC
  5
77B
330
18
100
AcDbEntity
  8
1
  6
CONTINUOUS
100
AcDbCircle
 10
124.4826811276194
 20
48.11831399378772
 30
0.0
 40
4.075000193552117
100
AcDbArc
 50
7.047917584196259
 51
75.92479604864824
  0
ARC
  5
77C
330
18
100
AcDbEntity
  8
1
  6
CONTINUOUS
100
AcDbCircle
 10
124.4826811276194
 20
48.11831399378772
 30
0.0
 40
5.650000268360596
100
AcDbArc
 50
325.2855054756523
 51
214.7144945243447
  0
ARC
  5
77D
330
18
100
AcDbEntity
  8
1
  6
CONTINUOUS
100
AcDbCircle
 10
124.4826811276194
 20
48.11831399378772
 30
0.0
 40
4.07500019355212
100
AcDbArc
 50
104.0752039513517
 51
172.9520824158037
  0
LINE
  5
77E
330
18
100
AcDbEntity
  8
1
  6
CONTINUOUS
100
AcDbLine
 10
116.9826807713886
 20
50.21939984326994
 30
0.0
 11
116.9826807713886
 21
41.61831368505429
 31
0.0
  0
LINE
  5
77F
330
18
100
AcDbEntity
  8
4
  6
CENTER
 48
0.2
100
AcDbLine
 10
124.4826811276194
 20
32.11831337632082
 30
0.0
 11
124.4826811276194
 21
56.26466256337256
 31
0.0
  0
LINE
  5
780
330
18
100
AcDbEntity
  8
1
  6
CONTINUOUS
100
AcDbLine
 10
123.4916604169772
 20
52.07097190063066
 30
0.0
 11
123.7486225809872
 21
51.28433026877747
 31
0.0
  0
LINE
  5
781
330
18
100
AcDbEntity
  8
1
  6
CONTINUOUS
100
AcDbLine
 10
125.2167396742517
 20
51.28433026877743
 30
0.0
 11
125.4737018382618
 21
52.07097190063072
 31
0.0
  0
LINE
  5
782
330
18
100
AcDbEntity
  8
1
  6
CONTINUOUS
100
AcDbLine
 10
117.4826807951373
 20
35.11831337632083
 30
0.0
 11
117.9873931227288
 21
48.36577661128515
 31
0.0
  0
LINE
  5
783
330
18
100
AcDbEntity
  8
1
  6
CONTINUOUS
100
AcDbLine
 10
130.97796913251
 20
48.36577661128515
 30
0.0
 11
131.4826814601016
 21
35.11831337632083
 31
0.0
  0
ARC
  5
784
330
18
100
AcDbEntity
  8
1
  6
CONTINUOUS
100
AcDbCircle
 10
124.4826811276194
 20
48.11831399378772
 30
0.0
 40
3.300000156741585
100
AcDbArc
 50
214.7144945243441
 51
325.285505475652
  0
LINE
  5
785
330
18
100
AcDbEntity
  8
4
  6
CENTER
 48
0.2
100
AcDbLine
 10
115.9779650962868
 20
48.11831399378772
 30
0.0
 11
132.987397158952
 21
48.11831399378769
 31
0.0
  0
LINE
  5
786
330
18
100
AcDbEntity
  8
1
  6
CONTINUOUS
100
AcDbLine
 10
117.730322945712
 20
41.61831368505429
 30
0.0
 11
116.9826807713885
 21
41.61831368505429
 31
0.0
  0
LINE
  5
787
330
18
100
AcDbEntity
  8
1
  6
CONTINUOUS
100
AcDbLine
 10
119.8383809070268
 20
44.90070952874259
 30
0.0
 11
121.8111810007298
 21
46.26747956699188
 31
0.0
  0
LINE
  5
788
330
18
100
AcDbEntity
  8
1
  6
CONTINUOUS
100
AcDbLine
 10
121.2713728304242
 20
48.61831401753645
 30
0.0
 11
120.438472113028
 21
48.61831401753645
 31
0.0
  0
LINE
  5
789
330
18
100
AcDbEntity
  8
1
  6
CONTINUOUS
100
AcDbLine
 10
127.1541812545089
 20
46.26747956699176
 30
0.0
 11
129.1269813482118
 21
44.9007095287425
 31
0.0
  0
LINE
  5
78A
330
18
100
AcDbEntity
  8
1
  6
CONTINUOUS
100
AcDbLine
 10
128.5268901422106
 20
48.61831401753642
 30
0.0
 11
127.6939894248146
 21
48.61831401753645
 31
0.0
  0
LINE
  5
78B
330
18
100
AcDbEntity
  8
1
  6
CONTINUOUS
100
AcDbLine
 10
131.4826814601015
 20
35.11831337632083
 30
0.0
 11
117.4826807951373
 21
35.11831337632083
 31
0.0
  0
LINE
  5
91C
330
18
100
AcDbEntity
  8
1
  6
CONTINUOUS
100
AcDbLine
 10
242.9946850567514
 20
99.39083182681574
 30
0.0
 11
246.5896852275047
 21
99.39083182681574
 31
0.0
  0
ENDSEC
  0
SECTION
  2
OBJECTS
  0
DICTIONARY
  5
C
330
0
100
AcDbDictionary
  3
ACAD_GROUP
350
D
  3
ACAD_LAYOUT
350
94
  3
ACAD_MLINESTYLE
350
1B
  3
ACAD_PLOTSETTINGS
350
95
  3
CONTENTDICTIONARY
350
3D
1001
ACAD
1000
TREAT_AS_HARD
1070
     0
  0
DICTIONARY
  5
92B
330
18
100
AcDbDictionary
  3
ACAD_LAYOUTSELFREF
350
92C
  0
DICTIONARY
  5
929
330
15
100
AcDbDictionary
  3
ACAD_LAYOUTSELFREF
350
92A
  0
DICTIONARY
  5
D
102
{ACAD_REACTORS
330
C
102
}
330
C
100
AcDbDictionary
1001
ACAD
1000
TREAT_AS_HARD
1070
     0
  0
DICTIONARY
  5
94
102
{ACAD_REACTORS
330
C
102
}
330
C
100
AcDbDictionary
1001
ACAD
1000
TREAT_AS_HARD
1070
     0
  0
DICTIONARY
  5
1B
102
{ACAD_REACTORS
330
C
102
}
330
C
100
AcDbDictionary
  3
STANDARD
350
1C
1001
ACAD
1000
TREAT_AS_HARD
1070
     0
  0
DICTIONARY
  5
95
102
{ACAD_REACTORS
330
C
102
}
330
C
100
AcDbDictionary
1001
ACAD
1000
TREAT_AS_HARD
1070
     0
  0
DICTIONARY
  5
3D
102
{ACAD_REACTORS
330
C
102
}
330
C
100
AcDbDictionary
1001
ACAD
1000
TREAT_AS_HARD
1070
     0
  0
XRECORD
  5
92C
102
{ACAD_REACTORS
330
92B
102
}
330
92B
100
AcDbXrecord
340
18
  0
XRECORD
  5
92A
102
{ACAD_REACTORS
330
929
102
}
330
929
100
AcDbXrecord
340
15
  0
MLINESTYLE
  5
1C
102
{ACAD_REACTORS
330
1B
102
}
330
1B
100
AcDbMlineStyle
  2
STANDARD
 70
     0
  3

 62
   256
 51
90.0
 52
90.0
 71
     2
 49
0.5
 62
   256
  6
BYLAYER
 49
-0.5
 62
   256
  6
BYLAYER
  0
ENDSEC
  0
EOF
