  0
SECTION
  2
HEADER
  9
$ACADVER
  1
AC1015
  9
$ACADMAINTVER
 70
    20
  9
$DWGCODEPAGE
  3
ANSI_932
  9
$INSBASE
 10
0.0
 20
0.0
 30
0.0
  9
$EXTMIN
 10
9.9999975266385
 20
10.0
 30
0.0
  9
$EXTMAX
 10
296.3925855702075
 20
264.9909530832882
 30
0.0
  9
$LIMMIN
 10
0.0000015376081137
 20
-0.0000001931533977
  9
$LIMMAX
 10
416.000001537608
 20
286.7878785947253
  9
$ORTHOMODE
 70
     1
  9
$REGENMODE
 70
     1
  9
$FILLMODE
 70
     1
  9
$QTEXTMODE
 70
     0
  9
$MIRRTEXT
 70
     1
  9
$LTSCALE
 40
1.0
  9
$ATTMODE
 70
     1
  9
$TEXTSIZE
 40
2.5
  9
$TRACEWID
 40
1.0
  9
$TEXTSTYLE
  7
STANDARD
  9
$CLAYER
  8
0
  9
$CELTYPE
  6
BYLAYER
  9
$CECOLOR
 62
   256
  9
$CELTSCALE
 40
1.0
  9
$DISPSILH
 70
     0
  9
$DIMSCALE
 40
1.0
  9
$DIMASZ
 40
3.0
  9
$DIMEXO
 40
1.0
  9
$DIMDLI
 40
10.0
  9
$DIMRND
 40
0.0
  9
$DIMDLE
 40
0.0
  9
$DIMEXE
 40
1.0
  9
$DIMTP
 40
0.0
  9
$DIMTM
 40
0.0
  9
$DIMTXT
 40
3.2
  9
$DIMCEN
 40
0.0
  9
$DIMTSZ
 40
0.0
  9
$DIMTOL
 70
     0
  9
$DIMLIM
 70
     0
  9
$DIMTIH
 70
     0
  9
$DIMTOH
 70
     0
  9
$DIMSE1
 70
     0
  9
$DIMSE2
 70
     0
  9
$DIMTAD
 70
     3
  9
$DIMZIN
 70
     8
  9
$DIMBLK
  1

  9
$DIMASO
 70
     1
  9
$DIMSHO
 70
     1
  9
$DIMPOST
  1

  9
$DIMAPOST
  1

  9
$DIMALT
 70
     0
  9
$DIMALTD
 70
     2
  9
$DIMALTF
 40
25.4
  9
$DIMLFAC
 40
1.0
  9
$DIMTOFL
 70
     1
  9
$DIMTVP
 40
0.0
  9
$DIMTIX
 70
     0
  9
$DIMSOXD
 70
     0
  9
$DIMSAH
 70
     1
  9
$DIMBLK1
  1
OPEN
  9
$DIMBLK2
  1
OPEN
  9
$DIMSTYLE
  2
STANDARD
  9
$DIMCLRD
 70
     0
  9
$DIMCLRE
 70
     0
  9
$DIMCLRT
 70
     0
  9
$DIMTFAC
 40
1.0
  9
$DIMGAP
 40
1.0
  9
$DIMJUST
 70
     0
  9
$DIMSD1
 70
     0
  9
$DIMSD2
 70
     0
  9
$DIMTOLJ
 70
     1
  9
$DIMTZIN
 70
     0
  9
$DIMALTZ
 70
     0
  9
$DIMALTTZ
 70
     0
  9
$DIMUPT
 70
     0
  9
$DIMDEC
 70
     4
  9
$DIMTDEC
 70
     4
  9
$DIMALTU
 70
     2
  9
$DIMALTTD
 70
     2
  9
$DIMTXSTY
  7
STANDARD
  9
$DIMAUNIT
 70
     0
  9
$DIMADEC
 70
     0
  9
$DIMALTRND
 40
0.0
  9
$DIMAZIN
 70
     0
  9
$DIMDSEP
 70
    46
  9
$DIMATFIT
 70
     3
  9
$DIMFRAC
 70
     0
  9
$DIMLDRBLK
  1
OPEN
  9
$DIMLUNIT
 70
     2
  9
$DIMLWD
 70
    -2
  9
$DIMLWE
 70
    -2
  9
$DIMTMOVE
 70
     0
  9
$LUNITS
 70
     2
  9
$LUPREC
 70
     4
  9
$SKETCHINC
 40
1.0
  9
$FILLETRAD
 40
0.0
  9
$AUNITS
 70
     0
  9
$AUPREC
 70
     0
  9
$MENU
  1
.
  9
$ELEVATION
 40
0.0
  9
$PELEVATION
 40
0.0
  9
$THICKNESS
 40
0.0
  9
$LIMCHECK
 70
     0
  9
$CHAMFERA
 40
10.0
  9
$CHAMFERB
 40
10.0
  9
$CHAMFERC
 40
20.0
  9
$CHAMFERD
 40
0.0
  9
$SKPOLY
 70
     0
  9
$TDCREATE
 40
2453768.666365915
  9
$TDUCREATE
 40
2453768.291365915
  9
$TDUPDATE
 40
2457192.701147535
  9
$TDUUPDATE
 40
2457192.326147535
  9
$TDINDWG
 40
0.0498846296
  9
$TDUSRTIMER
 40
0.0498846181
  9
$USRTIMER
 70
     1
  9
$ANGBASE
 50
0.0
  9
$ANGDIR
 70
     0
  9
$PDMODE
 70
     0
  9
$PDSIZE
 40
0.0
  9
$PLINEWID
 40
0.0
  9
$SPLFRAME
 70
     0
  9
$SPLINETYPE
 70
     6
  9
$SPLINESEGS
 70
     8
  9
$HANDSEED
  5
3179
  9
$SURFTAB1
 70
     6
  9
$SURFTAB2
 70
     6
  9
$SURFTYPE
 70
     6
  9
$SURFU
 70
     6
  9
$SURFV
 70
     6
  9
$UCSBASE
  2

  9
$UCSNAME
  2

  9
$UCSORG
 10
0.0
 20
0.0
 30
0.0
  9
$UCSXDIR
 10
1.0
 20
0.0
 30
0.0
  9
$UCSYDIR
 10
0.0
 20
1.0
 30
0.0
  9
$UCSORTHOREF
  2

  9
$UCSORTHOVIEW
 70
     0
  9
$UCSORGTOP
 10
0.0
 20
0.0
 30
0.0
  9
$UCSORGBOTTOM
 10
0.0
 20
0.0
 30
0.0
  9
$UCSORGLEFT
 10
0.0
 20
0.0
 30
0.0
  9
$UCSORGRIGHT
 10
0.0
 20
0.0
 30
0.0
  9
$UCSORGFRONT
 10
0.0
 20
0.0
 30
0.0
  9
$UCSORGBACK
 10
0.0
 20
0.0
 30
0.0
  9
$PUCSBASE
  2

  9
$PUCSNAME
  2

  9
$PUCSORG
 10
0.0
 20
0.0
 30
0.0
  9
$PUCSXDIR
 10
1.0
 20
0.0
 30
0.0
  9
$PUCSYDIR
 10
0.0
 20
1.0
 30
0.0
  9
$PUCSORTHOREF
  2

  9
$PUCSORTHOVIEW
 70
     0
  9
$PUCSORGTOP
 10
0.0
 20
0.0
 30
0.0
  9
$PUCSORGBOTTOM
 10
0.0
 20
0.0
 30
0.0
  9
$PUCSORGLEFT
 10
0.0
 20
0.0
 30
0.0
  9
$PUCSORGRIGHT
 10
0.0
 20
0.0
 30
0.0
  9
$PUCSORGFRONT
 10
0.0
 20
0.0
 30
0.0
  9
$PUCSORGBACK
 10
0.0
 20
0.0
 30
0.0
  9
$USERI1
 70
     0
  9
$USERI2
 70
     0
  9
$USERI3
 70
     0
  9
$USERI4
 70
     0
  9
$USERI5
 70
     0
  9
$USERR1
 40
0.0
  9
$USERR2
 40
0.0
  9
$USERR3
 40
0.0
  9
$USERR4
 40
0.0
  9
$USERR5
 40
0.0
  9
$WORLDVIEW
 70
     1
  9
$SHADEDGE
 70
     3
  9
$SHADEDIF
 70
    70
  9
$TILEMODE
 70
     1
  9
$MAXACTVP
 70
    48
  9
$PINSBASE
 10
0.0
 20
0.0
 30
0.0
  9
$PLIMCHECK
 70
     0
  9
$PEXTMIN
 10
27.8447512626648
 20
20.24591643810271
 30
0.0
  9
$PEXTMAX
 10
250.6027613639831
 20
182.2132479429244
 30
0.0
  9
$PLIMMIN
 10
-3.757080078125
 20
-3.757083177566528
  9
$PLIMMAX
 10
293.2112426757812
 20
206.2162444591522
  9
$UNITMODE
 70
     0
  9
$VISRETAIN
 70
     1
  9
$PLINEGEN
 70
     0
  9
$PSLTSCALE
 70
     1
  9
$TREEDEPTH
 70
  3020
  9
$CMLSTYLE
  2
STANDARD
  9
$CMLJUST
 70
     0
  9
$CMLSCALE
 40
20.0
  9
$PROXYGRAPHICS
 70
     1
  9
$MEASUREMENT
 70
     0
  9
$CELWEIGHT
370
    -1
  9
$ENDCAPS
280
     0
  9
$JOINSTYLE
280
     0
  9
$LWDISPLAY
290
     0
  9
$INSUNITS
 70
     0
  9
$HYPERLINKBASE
  1

  9
$STYLESHEET
  1

  9
$XEDIT
290
     1
  9
$CEPSNTYPE
380
     0
  9
$PSTYLEMODE
290
     1
  9
$FINGERPRINTGUID
  2
{B511BCCB-598F-4A13-82B0-BFD1B77C392C}
  9
$VERSIONGUID
  2
{9E989087-737A-440A-8406-921AC91C8A7B}
  9
$EXTNAMES
290
     1
  9
$PSVPSCALE
 40
0.0
  9
$OLESTARTUP
290
     0
  0
ENDSEC
  0
SECTION
  2
CLASSES
  0
CLASS
  1
ACDBDICTIONARYWDFLT
  2
AcDbDictionaryWithDefault
  3
ObjectDBX Classes
 90
        0
280
     0
281
     0
  0
CLASS
  1
ACDBPLACEHOLDER
  2
AcDbPlaceHolder
  3
ObjectDBX Classes
 90
        0
280
     0
281
     0
  0
CLASS
  1
LAYOUT
  2
AcDbLayout
  3
ObjectDBX Classes
 90
        0
280
     0
281
     0
  0
CLASS
  1
DICTIONARYVAR
  2
AcDbDictionaryVar
  3
ObjectDBX Classes
 90
        0
280
     0
281
     0
  0
CLASS
  1
MATERIAL
  2
AcDbMaterial
  3
ObjectDBX Classes
 90
     1153
280
     0
281
     0
  0
CLASS
  1
VISUALSTYLE
  2
AcDbVisualStyle
  3
ObjectDBX Classes
 90
     4095
280
     0
281
     0
  0
CLASS
  1
TABLESTYLE
  2
AcDbTableStyle
  3
ObjectDBX Classes
 90
     4095
280
     0
281
     0
  0
CLASS
  1
SCALE
  2
AcDbScale
  3
ObjectDBX Classes
 90
     1153
280
     0
281
     0
  0
CLASS
  1
MLEADERSTYLE
  2
AcDbMLeaderStyle
  3
ACDB_MLEADERSTYLE_CLASS
 90
     4095
280
     0
281
     0
  0
CLASS
  1
ACDBSECTIONVIEWSTYLE
  2
AcDbSectionViewStyle
  3
ObjectDBX Classes
 90
     1025
280
     0
281
     0
  0
CLASS
  1
ACDBDETAILVIEWSTYLE
  2
AcDbDetailViewStyle
  3
ObjectDBX Classes
 90
     1025
280
     0
281
     0
  0
CLASS
  1
CELLSTYLEMAP
  2
AcDbCellStyleMap
  3
ObjectDBX Classes
 90
     1152
280
     0
281
     0
  0
ENDSEC
  0
SECTION
  2
TABLES
  0
TABLE
  2
VPORT
  5
8
330
0
100
AcDbSymbolTable
 70
     1
  0
VPORT
  5
30C3
330
8
100
AcDbSymbolTableRecord
100
AcDbViewportTableRecord
  2
*ACTIVE
 70
     0
 10
0.0
 20
0.0
 11
1.0
 21
1.0
 12
235.1605535134209
 22
137.4972316910785
 13
0.0
 23
0.0
 14
10.0
 24
10.0
 15
10.0
 25
10.0
 16
0.0
 26
0.0
 36
1.0
 17
0.0
 27
0.0
 37
0.0
 40
257.4460442317493
 41
2.35006605019815
 42
50.0
 43
0.0
 44
0.0
 50
0.0
 51
0.0
 71
     0
 72
   100
 73
     1
 74
     0
 75
     0
 76
     0
 77
     0
 78
     0
281
     0
 65
     1
110
0.0
120
0.0
130
0.0
111
1.0
121
0.0
131
0.0
112
0.0
122
1.0
132
0.0
 79
     0
146
0.0
1001
ACAD_NAV_VCDISPLAY
1070
     3
  0
ENDTAB
  0
TABLE
  2
LTYPE
  5
5
330
0
100
AcDbSymbolTable
 70
     4
  0
LTYPE
  5
12
330
5
100
AcDbSymbolTableRecord
100
AcDbLinetypeTableRecord
  2
BYBLOCK
 70
     0
  3

 72
    65
 73
     0
 40
0.0
  0
LTYPE
  5
13
330
5
100
AcDbSymbolTableRecord
100
AcDbLinetypeTableRecord
  2
BYLAYER
 70
     0
  3

 72
    65
 73
     0
 40
0.0
  0
LTYPE
  5
14
330
5
100
AcDbSymbolTableRecord
100
AcDbLinetypeTableRecord
  2
CONTINUOUS
 70
     0
  3
Solid line
 72
    65
 73
     0
 40
0.0
  0
LTYPE
  5
4B
330
5
100
AcDbSymbolTableRecord
100
AcDbLinetypeTableRecord
  2
DASHED
 70
     0
  3
Dashed __ __ __ __ __ __ __ __ __ __ __ __ __ _
 72
    65
 73
     2
 40
19.04999999999999
 49
12.7
 74
     0
 49
-6.349999999999998
 74
     0
  0
LTYPE
  5
4C
330
5
100
AcDbSymbolTableRecord
100
AcDbLinetypeTableRecord
  2
CENTER
 70
     0
  3
Center ____ _ ____ _ ____ _ ____ _ ____ _ ____
 72
    65
 73
     4
 40
50.8
 49
31.75
 74
     0
 49
-6.349999999999998
 74
     0
 49
6.349999999999998
 74
     0
 49
-6.349999999999998
 74
     0
  0
LTYPE
  5
4D
330
5
100
AcDbSymbolTableRecord
100
AcDbLinetypeTableRecord
  2
PHANTOM
 70
     0
  3
Phantom ______  __  __  ______  __  __  ______
 72
    65
 73
     6
 40
63.5
 49
31.75
 74
     0
 49
-6.349999999999998
 74
     0
 49
6.349999999999998
 74
     0
 49
-6.349999999999998
 74
     0
 49
6.349999999999998
 74
     0
 49
-6.349999999999998
 74
     0
  0
ENDTAB
  0
TABLE
  2
LAYER
  5
2
330
0
100
AcDbSymbolTable
 70
     8
  0
LAYER
  5
E
102
{ACAD_XDICTIONARY
360
311D
102
}
330
2
100
AcDbSymbolTableRecord
100
AcDbLayerTableRecord
  2
0
 70
     0
 62
     7
  6
CONTINUOUS
370
    -3
390
30CC
  0
LAYER
  5
4E
102
{ACAD_XDICTIONARY
360
311F
102
}
330
2
100
AcDbSymbolTableRecord
100
AcDbLayerTableRecord
  2
4
 70
     0
 62
     1
  6
CENTER
370
    -3
390
30CC
  0
LAYER
  5
4F
102
{ACAD_XDICTIONARY
360
3121
102
}
330
2
100
AcDbSymbolTableRecord
100
AcDbLayerTableRecord
  2
5
 70
     0
 62
     6
  6
PHANTOM
370
    -3
390
30CC
  0
LAYER
  5
50
102
{ACAD_XDICTIONARY
360
3123
102
}
330
2
100
AcDbSymbolTableRecord
100
AcDbLayerTableRecord
  2
1
 70
     0
 62
     7
  6
CONTINUOUS
370
    -3
390
30CC
  0
LAYER
  5
51
102
{ACAD_XDICTIONARY
360
3125
102
}
330
2
100
AcDbSymbolTableRecord
100
AcDbLayerTableRecord
  2
2
 70
     0
 62
     4
  6
CONTINUOUS
370
    -3
390
30CC
  0
LAYER
  5
52
102
{ACAD_XDICTIONARY
360
3127
102
}
330
2
100
AcDbSymbolTableRecord
100
AcDbLayerTableRecord
  2
3
 70
     0
 62
     2
  6
DASHED
370
    -3
390
30CC
  0
LAYER
  5
53
102
{ACAD_XDICTIONARY
360
3129
102
}
330
2
100
AcDbSymbolTableRecord
100
AcDbLayerTableRecord
  2
6
 70
     0
 62
     5
  6
CONTINUOUS
370
    -3
390
30CC
  0
LAYER
  5
54
102
{ACAD_XDICTIONARY
360
312B
102
}
330
2
100
AcDbSymbolTableRecord
100
AcDbLayerTableRecord
  2
7
 70
     0
 62
     3
  6
CONTINUOUS
370
    -3
390
30CC
  0
ENDTAB
  0
TABLE
  2
STYLE
  5
3
330
0
100
AcDbSymbolTable
 70
     1
  0
STYLE
  5
F
330
3
100
AcDbSymbolTableRecord
100
AcDbTextStyleTableRecord
  2
STANDARD
 70
     0
 40
0.0
 41
1.0
 50
0.0
 71
     0
 42
2.5
  3
simplex.shx
  4

  0
ENDTAB
  0
TABLE
  2
VIEW
  5
6
330
0
100
AcDbSymbolTable
 70
     0
  0
ENDTAB
  0
TABLE
  2
UCS
  5
7
330
0
100
AcDbSymbolTable
 70
     0
  0
ENDTAB
  0
TABLE
  2
APPID
  5
9
330
0
100
AcDbSymbolTable
 70
     5
  0
APPID
  5
10
330
9
100
AcDbSymbolTableRecord
100
AcDbRegAppTableRecord
  2
ACAD
 70
     0
  0
APPID
  5
3E
330
9
100
AcDbSymbolTableRecord
100
AcDbRegAppTableRecord
  2
CONTENTTABDATA
 70
     0
  0
APPID
  5
3F
330
9
100
AcDbSymbolTableRecord
100
AcDbRegAppTableRecord
  2
CONTENTCURRENTTAB
 70
     0
  0
APPID
  5
3137
330
9
100
AcDbSymbolTableRecord
100
AcDbRegAppTableRecord
  2
ACAD_NAV_VCDISPLAY
 70
     0
  0
APPID
  5
3170
330
9
100
AcDbSymbolTableRecord
100
AcDbRegAppTableRecord
  2
ACAD_MLEADERVER
 70
     0
  0
ENDTAB
  0
TABLE
  2
DIMSTYLE
  5
A
330
0
100
AcDbSymbolTable
 70
     1
100
AcDbDimStyleTable
 71
     0
  0
DIMSTYLE
105
1D
330
A
100
AcDbSymbolTableRecord
100
AcDbDimStyleTableRecord
  2
STANDARD
 70
     0
 41
3.0
 42
1.0
 43
10.0
 44
1.0
 73
     0
 74
     0
 77
     3
 78
     8
140
3.2
141
0.0
147
1.0
172
     1
173
     1
340
F
341
2E
343
2E
344
2E
  0
ENDTAB
  0
TABLE
  2
BLOCK_RECORD
  5
1
330
0
100
AcDbSymbolTable
 70
     1
  0
BLOCK_RECORD
  5
18
102
{ACAD_XDICTIONARY
360
30C6
102
}
330
1
100
AcDbSymbolTableRecord
100
AcDbBlockTableRecord
  2
*MODEL_SPACE
340
311A
  0
BLOCK_RECORD
  5
15
102
{ACAD_XDICTIONARY
360
30C4
102
}
330
1
100
AcDbSymbolTableRecord
100
AcDbBlockTableRecord
  2
*PAPER_SPACE
340
311B
  0
BLOCK_RECORD
  5
2E
330
1
100
AcDbSymbolTableRecord
100
AcDbBlockTableRecord
  2
_OPEN
340
0
  0
ENDTAB
  0
ENDSEC
  0
SECTION
  2
BLOCKS
  0
BLOCK
  5
19
330
18
100
AcDbEntity
  8
0
100
AcDbBlockBegin
  2
*MODEL_SPACE
 70
     0
 10
0.0
 20
0.0
 30
0.0
  3
*MODEL_SPACE
  1

  0
ENDBLK
  5
1A
330
18
100
AcDbEntity
  8
0
100
AcDbBlockEnd
  0
BLOCK
  5
16
330
15
100
AcDbEntity
 67
     1
  8
0
100
AcDbBlockBegin
  2
*PAPER_SPACE
 70
     0
 10
0.0
 20
0.0
 30
0.0
  3
*PAPER_SPACE
  1

  0
ENDBLK
  5
17
330
15
100
AcDbEntity
 67
     1
  8
0
100
AcDbBlockEnd
  0
BLOCK
  5
2F
330
2E
100
AcDbEntity
  8
0
100
AcDbBlockBegin
  2
_OPEN
 70
     0
 10
0.0
 20
0.0
 30
0.0
  3
_OPEN
  1

  0
LINE
  5
30
330
2E
100
AcDbEntity
  8
0
  6
ByBlock
 62
     0
100
AcDbLine
 10
-1.0
 20
0.1666666666666666
 30
0.0
 11
0.0
 21
0.0
 31
0.0
  0
LINE
  5
31
330
2E
100
AcDbEntity
  8
0
  6
ByBlock
 62
     0
100
AcDbLine
 10
0.0
 20
0.0
 30
0.0
 11
-1.0
 21
-0.1666666666666666
 31
0.0
  0
LINE
  5
32
330
2E
100
AcDbEntity
  8
0
  6
ByBlock
 62
     0
100
AcDbLine
 10
0.0
 20
0.0
 30
0.0
 11
-1.0
 21
0.0
 31
0.0
  0
ENDBLK
  5
33
330
2E
100
AcDbEntity
  8
0
100
AcDbBlockEnd
  0
ENDSEC
  0
SECTION
  2
ENTITIES
  0
TEXT
  5
63
330
18
100
AcDbEntity
  8
4
  6
CENTER
 48
0.25
100
AcDbText
 10
23.97950852663849
 20
10.0
 30
0.0
 40
1.399999999999999
  1
4
100
AcDbText
  0
TEXT
  5
64
330
18
100
AcDbEntity
  8
7
  6
Continuous
 48
0.25
100
AcDbText
 10
9.999997526638502
 20
26.0000007607689
 30
0.0
 40
3.0
  1
CODE No.2755
100
AcDbText
  0
TEXT
  5
65
330
18
100
AcDbEntity
  8
7
  6
Continuous
 48
0.25
100
AcDbText
 10
9.999997526638502
 20
18.00000076076889
 30
0.0
 40
3.0
  1
TYPE No.TEH-1110-U114
100
AcDbText
  0
TEXT
  5
66
330
18
100
AcDbEntity
  8
1
  6
Continuous
 48
0.25
100
AcDbText
 10
9.999997526638502
 20
10.00000076076889
 30
0.0
 40
1.399999999999999
  1
LAYER
100
AcDbText
  0
TEXT
  5
67
330
18
100
AcDbEntity
  8
2
  6
Continuous
 48
0.25
100
AcDbText
 10
19.9795085266385
 20
10.0
 30
0.0
 40
1.399999999999999
  1
2
100
AcDbText
  0
TEXT
  5
68
330
18
100
AcDbEntity
  8
3
  6
DASHED
 48
0.25
100
AcDbText
 10
21.9795085266385
 20
10.0
 30
0.0
 40
1.399999999999999
  1
3
100
AcDbText
  0
TEXT
  5
69
330
18
100
AcDbEntity
  8
1
  6
Continuous
 48
0.25
100
AcDbText
 10
17.9795085266385
 20
10.0
 30
0.0
 40
1.399999999999999
  1
1
100
AcDbText
  0
TEXT
  5
6A
330
18
100
AcDbEntity
  8
5
  6
PHANTOM
 48
0.25
100
AcDbText
 10
25.9795085266385
 20
10.0
 30
0.0
 40
1.399999999999999
  1
5
100
AcDbText
  0
TEXT
  5
6B
330
18
100
AcDbEntity
  8
6
  6
Continuous
 48
0.25
100
AcDbText
 10
27.9795085266385
 20
10.0
 30
0.0
 40
1.399999999999999
  1
6
100
AcDbText
  0
TEXT
  5
6C
330
18
100
AcDbEntity
  8
7
  6
Continuous
 48
0.25
100
AcDbText
 10
29.9795085266385
 20
10.0
 30
0.0
 40
1.399999999999999
  1
7
100
AcDbText
  0
LINE
  5
D9B
330
18
100
AcDbEntity
  8
1
  6
Continuous
100
AcDbLine
 10
276.7675847805624
 20
183.1100959854009
 30
0.0
 11
276.7675847805624
 21
165.6100951541955
 31
0.0
  0
LINE
  5
D9C
330
18
100
AcDbEntity
  8
1
  6
Continuous
100
AcDbLine
 10
279.7675849230547
 20
183.1100959854009
 30
0.0
 11
279.7675849230547
 21
165.6100951541955
 31
0.0
  0
LINE
  5
D9D
330
18
100
AcDbEntity
  8
1
  6
Continuous
100
AcDbLine
 10
203.7438394196403
 20
181.1100949367316
 30
0.0
 11
203.7438394196403
 21
183.110095985401
 31
0.0
  0
LINE
  5
D9E
330
18
100
AcDbEntity
  8
1
  6
Continuous
100
AcDbLine
 10
216.7438400371072
 20
183.1100959854009
 30
0.0
 11
216.7438400371072
 21
180.1100948892342
 31
0.0
  0
LINE
  5
D9F
330
18
100
AcDbEntity
  8
1
  6
Continuous
100
AcDbLine
 10
135.1195569268551
 20
181.1100949367316
 30
0.0
 11
135.1195569268551
 21
183.110095985401
 31
0.0
  0
LINE
  5
DA0
330
18
100
AcDbEntity
  8
1
  6
Continuous
100
AcDbLine
 10
132.1195567843628
 20
181.1100949367316
 30
0.0
 11
132.1195567843628
 21
183.1100959854009
 31
0.0
  0
LINE
  5
E3A
330
18
100
AcDbEntity
  8
1
  6
Continuous
100
AcDbLine
 10
66.81301230594624
 20
179.1100948417368
 30
0.0
 11
71.80061840987173
 21
179.1100948417368
 31
0.0
  0
LINE
  5
E3B
330
18
100
AcDbEntity
  8
1
  6
Continuous
100
AcDbLine
 10
56.81301183097172
 20
166.1100942242698
 30
0.0
 11
71.8130125434335
 21
166.1100942242699
 31
0.0
  0
LINE
  5
E3C
330
18
100
AcDbEntity
  8
1
  6
Continuous
100
AcDbLine
 10
56.81301183097172
 20
181.1100949367316
 30
0.0
 11
69.80557600092288
 21
181.1100949367316
 31
0.0
  0
LINE
  5
E3D
330
18
100
AcDbEntity
  8
1
  6
Continuous
100
AcDbLine
 10
56.81301183097172
 20
127.6100933492924
 30
0.0
 11
56.81301183097172
 21
169.6100953441853
 31
0.0
  0
LINE
  5
E3F
330
18
100
AcDbEntity
  8
1
  6
Continuous
100
AcDbLine
 10
43.31301118975614
 20
165.6100951541955
 30
0.0
 11
43.31301118975614
 21
131.6100935392822
 31
0.0
  0
LINE
  5
E40
330
18
100
AcDbEntity
  8
1
  6
Continuous
100
AcDbLine
 10
40.8130110710125
 20
165.6100951541955
 30
0.0
 11
40.8130110710125
 21
131.6100935392822
 31
0.0
  0
LINE
  5
E41
330
18
100
AcDbEntity
  8
1
  6
Continuous
100
AcDbLine
 10
61.83801206964642
 20
166.1100951779445
 30
0.0
 11
61.83801206964642
 21
131.1100935155333
 31
0.0
  0
LINE
  5
E4E
330
18
100
AcDbEntity
  8
1
  6
Continuous
100
AcDbLine
 10
43.81301121350485
 20
183.1100959854009
 30
0.0
 11
43.81301121350485
 21
114.1100927080768
 31
0.0
  0
LINE
  5
EF4
330
18
100
AcDbEntity
  8
1
  6
Continuous
100
AcDbLine
 10
43.31301118975614
 20
158.1100938442903
 30
0.0
 11
43.81301121350485
 21
158.1100938442903
 31
0.0
  0
LINE
  5
EF6
330
18
100
AcDbEntity
  8
1
  6
Continuous
100
AcDbLine
 10
43.81301121350485
 20
164.110094129275
 30
0.0
 11
43.31301118975614
 21
164.110094129275
 31
0.0
  0
LINE
  5
EFA
330
18
100
AcDbEntity
  8
1
  6
Continuous
100
AcDbLine
 10
56.81301183097172
 20
183.1100959854009
 30
0.0
 11
43.81301121350485
 21
183.1100959854009
 31
0.0
  0
LINE
  5
EFB
330
18
100
AcDbEntity
  8
1
  6
Continuous
100
AcDbLine
 10
42.8130111660074
 20
166.1100942242699
 30
0.0
 11
42.8130111660074
 21
179.1100948417368
 31
0.0
  0
LINE
  5
EFF
330
18
100
AcDbEntity
  8
1
  6
Continuous
100
AcDbLine
 10
40.8130110710125
 20
165.6100951541955
 30
0.0
 11
43.81301121350484
 21
165.6100951541955
 31
0.0
  0
LINE
  5
F03
330
18
100
AcDbEntity
  8
1
  6
Continuous
100
AcDbLine
 10
42.8130111660074
 20
166.1100942242699
 30
0.0
 11
43.81301121350485
 21
166.1100942242699
 31
0.0
  0
LINE
  5
F05
330
18
100
AcDbEntity
  8
1
  6
Continuous
100
AcDbLine
 10
43.81301121350485
 20
180.1100948892342
 30
0.0
 11
42.8130111660074
 21
179.1100948417368
 31
0.0
  0
LINE
  5
F13
330
18
100
AcDbEntity
  8
1
  6
Continuous
100
AcDbLine
 10
60.81301202096152
 20
181.1100949367317
 30
0.0
 11
60.81301202096152
 21
166.1100942242699
 31
0.0
  0
ARC
  5
F14
330
18
100
AcDbEntity
  8
1
  6
Continuous
100
AcDbCircle
 10
51.81348589694136
 20
173.610157136526
 30
0.0
 40
5.499505210183941
100
AcDbArc
 50
359.9993482651926
 51
46.67360490437856
  0
ARC
  5
F18
330
18
100
AcDbEntity
  8
1
  6
Continuous
100
AcDbCircle
 10
51.81322230954265
 20
173.610109218619
 30
0.0
 40
5.499767949831642
100
AcDbArc
 50
313.3296743765308
 51
359.9998475069479
  0
LINE
  5
F19
330
18
100
AcDbEntity
  8
1
  6
Continuous
100
AcDbLine
 10
56.81301183097172
 20
165.6100951541955
 30
0.0
 11
61.81301206845899
 21
165.6100951541955
 31
0.0
  0
LINE
  5
F56
330
18
100
AcDbEntity
  8
1
  6
Continuous
100
AcDbLine
 10
56.81301183097172
 20
169.6100953441853
 30
0.0
 11
55.44068424678812
 21
169.6100953441853
 31
0.0
  0
LINE
  5
F59
330
18
100
AcDbEntity
  8
1
  6
Continuous
100
AcDbLine
 10
61.81301206845899
 20
166.1100951779443
 30
0.0
 11
61.81301206845899
 21
165.6100951541955
 31
0.0
  0
LINE
  5
F5B
330
18
100
AcDbEntity
  8
1
  6
Continuous
100
AcDbLine
 10
56.81301183097172
 20
177.610095724165
 30
0.0
 11
56.81301183097172
 21
183.1100959854009
 31
0.0
  0
LINE
  5
F75
330
18
100
AcDbEntity
  8
1
  6
Continuous
100
AcDbLine
 10
56.81301183097172
 20
177.610095724165
 30
0.0
 11
55.44068214367735
 21
177.610095724165
 31
0.0
  0
ARC
  5
F76
330
18
100
AcDbEntity
  8
1
  6
Continuous
100
AcDbCircle
 10
66.8130200572121
 20
185.4101129857248
 30
0.0
 40
6.300018143992816
100
AcDbArc
 50
223.0424934793389
 51
269.9999295057878
  0
LINE
  5
F7A
330
18
100
AcDbEntity
  8
1
  6
Continuous
100
AcDbLine
 10
71.78801254224605
 20
118.0850938505536
 30
0.0
 11
71.78801254224612
 21
179.135094842924
 31
0.0
  0
LINE
  5
F7B
330
18
100
AcDbEntity
  8
1
  6
Continuous
100
AcDbLine
 10
129.5445566620569
 20
166.1100942242699
 30
0.0
 11
129.5445566620567
 21
131.1100935155333
 31
0.0
  0
LINE
  5
F7C
330
18
100
AcDbEntity
  8
1
  6
Continuous
100
AcDbLine
 10
139.4945571346565
 20
166.1100951779443
 30
0.0
 11
139.4945571346565
 21
131.1100935155337
 31
0.0
  0
LINE
  5
F7D
330
18
100
AcDbEntity
  8
1
  6
Continuous
100
AcDbLine
 10
118.49455613721
 20
165.6100951541955
 30
0.0
 11
118.49455613721
 21
131.6100935392822
 31
0.0
  0
ARC
  5
F9E
330
18
100
AcDbEntity
  8
1
  6
Continuous
100
AcDbCircle
 10
125.4945564696922
 20
161.1100939867827
 30
0.0
 40
5.000000237487252
100
AcDbArc
 50
64.15809230808996
 51
115.84190769191
  0
CIRCLE
  5
F9F
330
18
100
AcDbEntity
  8
1
  6
Continuous
100
AcDbCircle
 10
125.4945564696922
 20
161.1100939867827
 30
0.0
 40
3.000000142492358
  0
LINE
  5
FA0
330
18
100
AcDbEntity
  8
1
  6
Continuous
100
AcDbLine
 10
129.5445566620567
 20
165.6100951541955
 30
0.0
 11
118.49455613721
 21
165.6100951541955
 31
0.0
  0
LINE
  5
FA2
330
18
100
AcDbEntity
  8
1
  6
Continuous
100
AcDbLine
 10
71.78801254224612
 20
179.135094842924
 30
0.0
 11
69.81291244843863
 21
181.1101949367316
 31
0.0
  0
LINE
  5
FA9
330
18
100
AcDbEntity
  8
1
  6
Continuous
100
AcDbLine
 10
140.5195571595001
 20
166.1100942242699
 30
0.0
 11
140.5195571595001
 21
179.1100948417366
 31
0.0
  0
LINE
  5
FAA
330
18
100
AcDbEntity
  8
1
  6
Continuous
100
AcDbLine
 10
129.5445566620569
 20
166.1100942242699
 30
0.0
 11
140.5195571595001
 21
166.1100942242699
 31
0.0
  0
LINE
  5
FB0
330
18
100
AcDbEntity
  8
1
  6
Continuous
100
AcDbLine
 10
127.5695564728819
 20
170.2692717560364
 30
0.0
 11
127.5695564728819
 21
176.9509174049654
 31
0.0
  0
LINE
  5
FB1
330
18
100
AcDbEntity
  8
1
  6
Continuous
100
AcDbLine
 10
127.5695564728819
 20
173.6100945805009
 30
0.0
 11
129.5195566370276
 21
173.6100945805009
 31
0.0
  0
LINE
  5
FB5
330
18
100
AcDbEntity
  8
1
  6
Continuous
100
AcDbLine
 10
128.0695564966306
 20
177.4509174287141
 30
0.0
 11
129.5195566370276
 21
177.4509174287141
 31
0.0
  0
ARC
  5
FB6
330
18
100
AcDbEntity
  8
1
  6
Continuous
100
AcDbCircle
 10
128.0695564966306
 20
176.9509174049654
 30
0.0
 40
0.5000000237487186
100
AcDbArc
 50
90.0
 51
180.0
  0
LINE
  5
FB7
330
18
100
AcDbEntity
  8
1
  6
Continuous
100
AcDbLine
 10
131.5195567320224
 20
181.1100949367317
 30
0.0
 11
129.5195566370275
 21
179.1100948417368
 31
0.0
  0
LINE
  5
FB8
330
18
100
AcDbEntity
  8
1
  6
Continuous
100
AcDbLine
 10
129.5195566370275
 20
179.1100948417374
 30
0.0
 11
140.5195571594996
 21
179.1100948417365
 31
0.0
  0
LINE
  5
FB9
330
18
100
AcDbEntity
  8
1
  6
Continuous
100
AcDbLine
 10
138.5195570645046
 20
181.1100949367317
 30
0.0
 11
140.5195571594995
 21
179.1100948417368
 31
0.0
  0
LINE
  5
FBA
330
18
100
AcDbEntity
  8
1
  6
Continuous
100
AcDbLine
 10
131.5195567320224
 20
181.1100949367317
 30
0.0
 11
138.5195570645046
 21
181.1100949367316
 31
0.0
  0
LINE
  5
FBC
330
18
100
AcDbEntity
  8
1
  6
Continuous
100
AcDbLine
 10
272.392584572761
 20
165.6100951541959
 30
0.0
 11
284.2131381498162
 21
165.6100951541955
 31
0.0
  0
LINE
  5
FBE
330
18
100
AcDbEntity
  8
1
  6
Continuous
100
AcDbLine
 10
272.392584572761
 20
166.1100942242699
 30
0.0
 11
272.392584572761
 21
131.1100944692079
 31
0.0
  0
LINE
  5
FC2
330
18
100
AcDbEntity
  8
1
  6
Continuous
100
AcDbLine
 10
219.7438401795995
 20
165.6100951541958
 30
0.0
 11
219.7438401795995
 21
131.610093539282
 31
0.0
  0
LINE
  5
1007
330
18
100
AcDbEntity
  8
1
  6
Continuous
100
AcDbLine
 10
188.7438387071784
 20
179.1100948417368
 30
0.0
 11
217.7438400846046
 21
179.1100948417368
 31
0.0
  0
LINE
  5
1008
330
18
100
AcDbEntity
  8
1
  6
Continuous
100
AcDbLine
 10
190.7438388021733
 20
181.1100949367316
 30
0.0
 11
215.7438399896097
 21
181.1100949367316
 31
0.0
  0
LINE
  5
100A
330
18
100
AcDbEntity
  8
1
  6
Continuous
100
AcDbLine
 10
200.4438392628986
 20
166.1100942242699
 30
0.0
 11
200.4438392628986
 21
179.1100948417366
 31
0.0
  0
LINE
  5
100C
330
18
100
AcDbEntity
  8
1
  6
Continuous
100
AcDbLine
 10
188.7438387071784
 20
166.1100942242699
 30
0.0
 11
217.7438400846046
 21
166.1100942242699
 31
0.0
  0
LINE
  5
100D
330
18
100
AcDbEntity
  8
1
  6
Continuous
100
AcDbLine
 10
198.743839182153
 20
166.1100951779443
 30
0.0
 11
198.743839182153
 21
165.6100951541959
 31
0.0
  0
LINE
  5
1010
330
18
100
AcDbEntity
  8
1
  6
Continuous
100
AcDbLine
 10
190.7438388021733
 20
181.1100949367316
 30
0.0
 11
188.7438387071784
 21
179.1100948417367
 31
0.0
  0
LINE
  5
1016
330
18
100
AcDbEntity
  8
1
  6
Continuous
100
AcDbLine
 10
200.5849231744398
 20
181.1100949367317
 30
0.0
 11
200.4438392628987
 21
179.1100948417368
 31
0.0
  0
LINE
  5
1017
330
18
100
AcDbEntity
  8
1
  6
Continuous
100
AcDbLine
 10
217.7438400846046
 20
166.1100942242699
 30
0.0
 11
217.7438400846046
 21
179.1100948417368
 31
0.0
  0
LINE
  5
1018
330
18
100
AcDbEntity
  8
1
  6
Continuous
100
AcDbLine
 10
203.7438394196403
 20
165.6100951541955
 30
0.0
 11
203.7438394196403
 21
166.1100942242699
 31
0.0
  0
LINE
  5
1019
330
18
100
AcDbEntity
  8
1
  6
Continuous
100
AcDbLine
 10
216.7438400371072
 20
166.1100942242699
 30
0.0
 11
216.7438400371072
 21
165.6100951541961
 31
0.0
  0
LINE
  5
101A
330
18
100
AcDbEntity
  8
1
  6
Continuous
100
AcDbLine
 10
198.743839182153
 20
165.6100951541959
 30
0.0
 11
219.7438401795995
 21
165.6100951541961
 31
0.0
  0
LINE
  5
101B
330
18
100
AcDbEntity
  8
1
  6
Continuous
100
AcDbLine
 10
215.7438399896097
 20
181.1100949367317
 30
0.0
 11
217.7438400846046
 21
179.1100948417368
 31
0.0
  0
LINE
  5
1036
330
18
100
AcDbEntity
  8
1
  6
Continuous
100
AcDbLine
 10
271.3675845479179
 20
166.1100942242699
 30
0.0
 11
271.3675845479179
 21
179.1100948417368
 31
0.0
  0
LINE
  5
1037
330
18
100
AcDbEntity
  8
1
  6
Continuous
100
AcDbLine
 10
274.7675847094093
 20
166.1100942242699
 30
0.0
 11
274.7675847094093
 21
181.1100949367319
 31
0.0
  0
LINE
  5
1039
330
18
100
AcDbEntity
  8
1
  6
Continuous
100
AcDbLine
 10
271.3675845479179
 20
166.1100942242699
 30
0.0
 11
276.7675847805624
 21
166.1100942242699
 31
0.0
  0
LINE
  5
103B
330
18
100
AcDbEntity
  8
1
  6
Continuous
100
AcDbLine
 10
274.8925846915046
 20
166.1100951779443
 30
0.0
 11
274.8925846915046
 21
165.6100951541955
 31
0.0
  0
LINE
  5
103D
330
18
100
AcDbEntity
  8
1
  6
Continuous
100
AcDbLine
 10
274.955656833774
 20
166.1100951779445
 30
0.0
 11
274.9556568337752
 21
165.6100951541961
 31
0.0
  0
LINE
  5
103E
330
18
100
AcDbEntity
  8
1
  6
Continuous
100
AcDbLine
 10
274.767584705821
 20
169.1100943667623
 30
0.0
 11
276.7675847805624
 21
169.1100943667623
 31
0.0
  0
LINE
  5
103F
330
18
100
AcDbEntity
  8
1
  6
Continuous
100
AcDbLine
 10
271.3675845479179
 20
179.1100948417368
 30
0.0
 11
274.7675847094092
 21
179.1100948417368
 31
0.0
  0
LINE
  5
1040
330
18
100
AcDbEntity
  8
1
  6
Continuous
100
AcDbLine
 10
273.3675846429129
 20
181.1100949367319
 30
0.0
 11
271.3675845479179
 21
179.1100948417368
 31
0.0
  0
LINE
  5
1043
330
18
100
AcDbEntity
  8
1
  6
Continuous
100
AcDbLine
 10
276.7675847805624
 20
178.1100947942393
 30
0.0
 11
274.7675846560952
 21
178.1100947942393
 31
0.0
  0
LINE
  5
1044
330
18
100
AcDbEntity
  8
1
  6
Continuous
100
AcDbLine
 10
276.7675847805624
 20
181.1100949367319
 30
0.0
 11
273.3675846429129
 21
181.1100949367319
 31
0.0
  0
LINE
  5
1045
330
18
100
AcDbEntity
  8
1
  6
Continuous
100
AcDbLine
 10
293.3925855702075
 20
165.6100951541955
 30
0.0
 11
293.3925855702075
 21
131.6100935392822
 31
0.0
  0
LINE
  5
109F
330
18
100
AcDbEntity
  8
1
  6
Continuous
100
AcDbLine
 10
280.9175850730442
 20
168.2100943240146
 30
0.0
 11
280.9175850730442
 21
179.010094836987
 31
0.0
  0
LINE
  5
10A0
330
18
100
AcDbEntity
  8
1
  6
Continuous
100
AcDbLine
 10
281.0175850777939
 20
168.2668590325929
 30
0.0
 11
281.0175850777938
 21
178.9533301284087
 31
0.0
  0
LINE
  5
10A2
330
18
100
AcDbEntity
  8
1
  6
Continuous
100
AcDbLine
 10
284.3175852345355
 20
176.9509174942509
 30
0.0
 11
284.3175852345355
 21
170.2692717560363
 31
0.0
  0
LINE
  5
10A4
330
18
100
AcDbEntity
  8
1
  6
Continuous
100
AcDbLine
 10
282.3675850703899
 20
169.7692717322875
 30
0.0
 11
282.3675850703899
 21
166.1100942242699
 31
0.0
  0
LINE
  5
10A5
330
18
100
AcDbEntity
  8
1
  6
Continuous
100
AcDbLine
 10
282.3675850703899
 20
166.1100942242699
 30
0.0
 11
279.7675849230547
 21
166.1100942242699
 31
0.0
  0
LINE
  5
10A6
330
18
100
AcDbEntity
  8
1
  6
Continuous
100
AcDbLine
 10
282.3425850453606
 20
165.6100951541955
 30
0.0
 11
282.3425850453606
 21
166.1100951779445
 31
0.0
  0
LINE
  5
10A7
330
18
100
AcDbEntity
  8
1
  6
Continuous
100
AcDbLine
 10
283.8175852107868
 20
169.7692717322875
 30
0.0
 11
281.0175850777939
 21
169.7692717322875
 31
0.0
  0
LINE
  5
10A8
330
18
100
AcDbEntity
  8
1
  6
Continuous
100
AcDbLine
 10
280.2175850397959
 20
168.2100943240145
 30
0.0
 11
280.9175850730444
 21
168.2100943240145
 31
0.0
  0
LINE
  5
10AA
330
18
100
AcDbEntity
  8
1
  6
Continuous
100
AcDbLine
 10
280.9175850730442
 20
168.2100943240144
 30
0.0
 11
281.0176850777939
 21
168.2669157972988
 31
0.0
  0
LINE
  5
10B0
330
18
100
AcDbEntity
  8
1
  6
Continuous
100
AcDbLine
 10
279.9175850255466
 20
178.7100948227378
 30
0.0
 11
279.9175850255466
 21
168.5100943382638
 31
0.0
  0
LINE
  5
10B2
330
18
100
AcDbEntity
  8
1
  6
Continuous
100
AcDbLine
 10
279.9175850255624
 20
171.8657917695559
 30
0.0
 11
279.7675850184221
 21
171.8657917695559
 31
0.0
  0
LINE
  5
10B3
330
18
100
AcDbEntity
  8
1
  6
Continuous
100
AcDbLine
 10
279.9175850255627
 20
170.3318776207789
 30
0.0
 11
279.7675850184221
 21
170.3318776207789
 31
0.0
  0
LINE
  5
10B4
330
18
100
AcDbEntity
  8
1
  6
Continuous
100
AcDbLine
 10
279.9175850255624
 20
171.0600944635721
 30
0.0
 11
279.7675850184221
 21
171.0600944635721
 31
0.0
  0
LINE
  5
10B5
330
18
100
AcDbEntity
  8
1
  6
Continuous
100
AcDbLine
 10
279.9175850255627
 20
169.1933648186737
 30
0.0
 11
279.7675850184221
 21
169.1933648186737
 31
0.0
  0
LINE
  5
10B6
330
18
100
AcDbEntity
  8
1
  6
Continuous
100
AcDbLine
 10
279.9175850255627
 20
169.7032677414482
 30
0.0
 11
279.7675850184221
 21
169.7032677414482
 31
0.0
  0
LINE
  5
10B7
330
18
100
AcDbEntity
  8
1
  6
Continuous
100
AcDbLine
 10
279.9175850255627
 20
168.8176619947381
 30
0.0
 11
279.7675850184221
 21
168.8176619947381
 31
0.0
  0
LINE
  5
10B8
330
18
100
AcDbEntity
  8
1
  6
Continuous
100
AcDbLine
 10
279.9175850255626
 20
168.5875748098339
 30
0.0
 11
279.7675850184221
 21
168.5875748098339
 31
0.0
  0
LINE
  5
10B9
330
18
100
AcDbEntity
  8
1
  6
Continuous
100
AcDbLine
 10
279.9175850255626
 20
168.5100943466428
 30
0.0
 11
279.7675850184222
 21
168.5100943466428
 31
0.0
  0
ARC
  5
10BA
330
18
100
AcDbEntity
  8
1
  6
Continuous
100
AcDbCircle
 10
280.2175850397959
 20
168.5100943382638
 30
0.0
 40
0.3000000142492389
100
AcDbArc
 50
180.0
 51
269.9999999999967
  0
ARC
  5
10BB
330
18
100
AcDbEntity
  8
1
  6
Continuous
100
AcDbCircle
 10
283.8175852107868
 20
170.2692717560363
 30
0.0
 40
0.5000000237487186
100
AcDbArc
 50
270.0
 51
0.0
  0
LINE
  5
10C0
330
18
100
AcDbEntity
  8
1
  6
Continuous
100
AcDbLine
 10
284.3175852345355
 20
173.6100946251436
 30
0.0
 11
281.0175850777939
 21
173.6100943305008
 31
0.0
  0
LINE
  5
10C6
330
18
100
AcDbEntity
  8
1
  6
Continuous
100
AcDbLine
 10
279.9175850255629
 20
173.6100945805008
 30
0.0
 11
279.7675850184221
 21
173.6100945805008
 31
0.0
  0
LINE
  5
10C7
330
18
100
AcDbEntity
  8
1
  6
Continuous
100
AcDbLine
 10
279.9175850255624
 20
174.495700327211
 30
0.0
 11
279.7675850184221
 21
174.495700327211
 31
0.0
  0
LINE
  5
10C8
330
18
100
AcDbEntity
  8
1
  6
Continuous
100
AcDbLine
 10
279.9175850255629
 20
172.7244888337905
 30
0.0
 11
279.7675850184221
 21
172.7244888337905
 31
0.0
  0
LINE
  5
10C9
330
18
100
AcDbEntity
  8
1
  6
Continuous
100
AcDbLine
 10
279.9175850255466
 20
173.0891500227565
 30
0.0
 11
279.7675850184221
 21
173.0891500227565
 31
0.0
  0
LINE
  5
10CA
330
18
100
AcDbEntity
  8
1
  6
Continuous
100
AcDbLine
 10
279.9175850255624
 20
175.3543973914457
 30
0.0
 11
279.7675850184221
 21
175.3543973914457
 31
0.0
  0
LINE
  5
10CB
330
18
100
AcDbEntity
  8
1
  6
Continuous
100
AcDbLine
 10
279.9175850255628
 20
176.1600946974295
 30
0.0
 11
279.7675850184221
 21
176.1600946974295
 31
0.0
  0
LINE
  5
10CC
330
18
100
AcDbEntity
  8
1
  6
Continuous
100
AcDbLine
 10
279.9175850255466
 20
174.636155059213
 30
0.0
 11
279.7675850184221
 21
174.636155059213
 31
0.0
  0
LINE
  5
10CD
330
18
100
AcDbEntity
  8
1
  6
Continuous
100
AcDbLine
 10
279.9175850255628
 20
176.8883115402227
 30
0.0
 11
279.7675850184221
 21
176.8883115402227
 31
0.0
  0
LINE
  5
10D1
330
18
100
AcDbEntity
  8
1
  6
Continuous
100
AcDbLine
 10
280.3675849753945
 20
181.1100949367322
 30
0.0
 11
282.3675850703899
 21
179.1100948417368
 31
0.0
  0
LINE
  5
10D2
330
18
100
AcDbEntity
  8
1
  6
Continuous
100
AcDbLine
 10
280.9175850730442
 20
179.010094836987
 30
0.0
 11
280.2175850397959
 21
179.010094836987
 31
0.0
  0
LINE
  5
10D3
330
18
100
AcDbEntity
  8
1
  6
Continuous
100
AcDbLine
 10
281.0176850777939
 20
178.9532733637028
 30
0.0
 11
280.9175850730444
 21
179.010094836987
 31
0.0
  0
LINE
  5
10D9
330
18
100
AcDbEntity
  8
1
  6
Continuous
100
AcDbLine
 10
279.9175850255629
 20
177.5169214195533
 30
0.0
 11
279.7675850184221
 21
177.5169214195533
 31
0.0
  0
LINE
  5
10DA
330
18
100
AcDbEntity
  8
1
  6
Continuous
100
AcDbLine
 10
279.9175850255629
 20
178.0268243423282
 30
0.0
 11
279.7675850184221
 21
178.0268243423282
 31
0.0
  0
LINE
  5
10DB
330
18
100
AcDbEntity
  8
1
  6
Continuous
100
AcDbLine
 10
279.9175850255624
 20
178.4025271662635
 30
0.0
 11
279.7675850184221
 21
178.4025271662635
 31
0.0
  0
LINE
  5
10DC
330
18
100
AcDbEntity
  8
1
  6
Continuous
100
AcDbLine
 10
279.9175850255624
 20
178.6326143511677
 30
0.0
 11
279.7675850184221
 21
178.6326143511677
 31
0.0
  0
LINE
  5
10DD
330
18
100
AcDbEntity
  8
1
  6
Continuous
100
AcDbLine
 10
279.9175850255629
 20
178.7100948143588
 30
0.0
 11
279.7675850184221
 21
178.7100948143588
 31
0.0
  0
ARC
  5
10DE
330
18
100
AcDbEntity
  8
1
  6
Continuous
100
AcDbCircle
 10
280.2175850397959
 20
178.7100948227378
 30
0.0
 40
0.3000000142492389
100
AcDbArc
 50
90.00000000000325
 51
180.0
  0
LINE
  5
10DF
330
18
100
AcDbEntity
  8
1
  6
Continuous
100
AcDbLine
 10
280.3675849753947
 20
181.1100949367316
 30
0.0
 11
279.7675849230547
 21
181.1100949367316
 31
0.0
  0
LINE
  5
10E0
330
18
100
AcDbEntity
  8
1
  6
Continuous
100
AcDbLine
 10
282.3675850703899
 20
179.1100948417368
 30
0.0
 11
282.3675850703899
 21
177.4509174287141
 31
0.0
  0
LINE
  5
10E1
330
18
100
AcDbEntity
  8
1
  6
Continuous
100
AcDbLine
 10
131.5195567320224
 20
231.595297412861
 30
0.0
 11
131.5195567320224
 21
226.9909514208774
 31
0.0
  0
LINE
  5
10E2
330
18
100
AcDbEntity
  8
1
  6
Continuous
100
AcDbLine
 10
137.489847851054
 20
226.5697954288236
 30
0.0
 11
138.5195570645046
 21
233.8320356506514
 31
0.0
  0
LINE
  5
10E3
330
18
100
AcDbEntity
  8
1
  6
Continuous
100
AcDbLine
 10
139.4700418354129
 20
226.2890247674491
 30
0.0
 11
140.5195571594996
 21
233.6909517391104
 31
0.0
  0
ARC
  5
10E4
330
18
100
AcDbEntity
  8
1
  6
Continuous
100
AcDbCircle
 10
135.8195569362615
 20
226.9909514208775
 30
0.0
 40
6.300000299233942
100
AcDbArc
 50
107.5526881599808
 51
180.0000000000004
  0
LINE
  5
10E5
330
18
100
AcDbEntity
  8
1
  6
Continuous
100
AcDbLine
 10
135.1195569268551
 20
183.110095985401
 30
0.0
 11
132.1195567843628
 21
183.1100959854009
 31
0.0
  0
ARC
  5
10E6
330
18
100
AcDbEntity
  8
1
  6
Continuous
100
AcDbCircle
 10
134.5195568745148
 20
226.9909514208774
 30
0.0
 40
3.000000142492423
100
AcDbArc
 50
265.9649445864614
 51
351.92985610649
  0
ARC
  5
10E7
330
18
100
AcDbEntity
  8
1
  6
Continuous
100
AcDbCircle
 10
134.5195568745148
 20
226.9909514208774
 30
0.0
 40
5.000000237487281
100
AcDbArc
 50
180.0000000000003
 51
351.9298561064393
  0
ARC
  5
10E8
330
18
100
AcDbEntity
  8
1
  6
Continuous
100
AcDbCircle
 10
134.5195568745148
 20
226.9909514208774
 30
0.0
 40
3.000000142492385
100
AcDbArc
 50
180.0000000000004
 51
265.9649445864614
  0
LINE
  5
10EF
330
18
100
AcDbEntity
  8
1
  6
Continuous
100
AcDbLine
 10
128.4945566121845
 20
249.9909525133188
 30
0.0
 11
122.4945563271998
 21
249.9909525133188
 31
0.0
  0
LINE
  5
10F1
330
18
100
AcDbEntity
  8
1
  6
Continuous
100
AcDbLine
 10
135.9945569684154
 20
252.9909526558112
 30
0.0
 11
118.49455613721
 21
252.9909526558112
 31
0.0
  0
LINE
  5
10F2
330
18
100
AcDbEntity
  8
1
  6
Continuous
100
AcDbLine
 10
135.9945569684154
 20
250.4909525370675
 30
0.0
 11
118.49455613721
 21
250.4909525370675
 31
0.0
  0
LINE
  5
10F6
330
18
100
AcDbEntity
  8
1
  6
Continuous
100
AcDbLine
 10
118.49455613721
 20
252.9909526558112
 30
0.0
 11
118.49455613721
 21
250.4909525370675
 31
0.0
  0
LINE
  5
10F7
330
18
100
AcDbEntity
  8
1
  6
Continuous
100
AcDbLine
 10
122.4945563271998
 20
250.4909525370675
 30
0.0
 11
122.4945563271998
 21
249.9909525133188
 31
0.0
  0
LINE
  5
1102
330
18
100
AcDbEntity
  8
1
  6
Continuous
100
AcDbLine
 10
132.1195567843628
 20
236.9909518958519
 30
0.0
 11
132.1195567843628
 21
249.9909525133188
 31
0.0
  0
LINE
  5
1103
330
18
100
AcDbEntity
  8
1
  6
Continuous
100
AcDbLine
 10
135.1195569268551
 20
236.9909518958519
 30
0.0
 11
135.1195569268551
 21
249.9909525133188
 31
0.0
  0
LINE
  5
1104
330
18
100
AcDbEntity
  8
1
  6
Continuous
100
AcDbLine
 10
137.1195569980082
 20
235.9909518483545
 30
0.0
 11
137.1195569980082
 21
250.9909525608163
 31
0.0
  0
LINE
  5
1105
330
18
100
AcDbEntity
  8
1
  6
Continuous
100
AcDbLine
 10
138.5195570645046
 20
248.9909524658214
 30
0.0
 11
140.5195571594996
 21
250.9909525608163
 31
0.0
  0
LINE
  5
1106
330
18
100
AcDbEntity
  8
1
  6
Continuous
100
AcDbLine
 10
140.5195571594995
 20
233.6909517391103
 30
0.0
 11
140.5195571594996
 21
250.9909525608163
 31
0.0
  0
LINE
  5
1107
330
18
100
AcDbEntity
  8
1
  6
Continuous
100
AcDbLine
 10
136.9945570159128
 20
249.4909524895701
 30
0.0
 11
136.9945570159128
 21
246.4909523470776
 31
0.0
  0
LINE
  5
110C
330
18
100
AcDbEntity
  8
1
  6
Continuous
100
AcDbLine
 10
138.5195570645046
 20
233.8320356506514
 30
0.0
 11
138.5195570645046
 21
248.9909524658214
 31
0.0
  0
LINE
  5
110E
330
18
100
AcDbEntity
  8
1
  6
Continuous
100
AcDbLine
 10
135.1195569268551
 20
237.4909519196007
 30
0.0
 11
137.1195570513223
 21
237.4909519196007
 31
0.0
  0
ARC
  5
110F
330
18
100
AcDbEntity
  8
1
  6
Continuous
100
AcDbCircle
 10
134.1195568555158
 20
235.9909518483545
 30
0.0
 40
3.000000142492363
100
AcDbArc
 50
266.1780020109631
 51
0.0
  0
LINE
  5
1111
330
18
100
AcDbEntity
  8
1
  6
Continuous
100
AcDbLine
 10
134.1195568555159
 20
232.9909517058621
 30
0.0
 11
133.8986195737919
 21
232.9909517058621
 31
0.0
  0
LINE
  5
1126
330
18
100
AcDbEntity
  8
1
  6
Continuous
100
AcDbLine
 10
135.1195569268551
 20
236.9909518958519
 30
0.0
 11
132.1195567843628
 21
236.9909518958519
 31
0.0
  0
LINE
  5
1127
330
18
100
AcDbEntity
  8
1
  6
Continuous
100
AcDbLine
 10
138.5195570645046
 20
233.8320356506515
 30
0.0
 11
140.5195571594995
 21
233.6909517391104
 31
0.0
  0
LINE
  5
1128
330
18
100
AcDbEntity
  8
1
  6
Continuous
100
AcDbLine
 10
136.9945570159128
 20
237.4909519196007
 30
0.0
 11
136.9945570159128
 21
235.133995062588
 31
0.0
  0
LINE
  5
1129
330
18
100
AcDbEntity
  8
1
  6
Continuous
100
AcDbLine
 10
137.1195570309571
 20
246.4909523470776
 30
0.0
 11
135.1195569268551
 21
246.4909523470776
 31
0.0
  0
LINE
  5
1162
330
18
100
AcDbEntity
  8
1
  6
Continuous
100
AcDbLine
 10
138.5195570645046
 20
248.9909524658214
 30
0.0
 11
137.1195569980082
 21
248.9909524658214
 31
0.0
  0
ARC
  5
1165
330
18
100
AcDbEntity
  8
1
  6
Continuous
100
AcDbCircle
 10
135.9945569684154
 20
249.4909524895701
 30
0.0
 40
3.500000166241078
100
AcDbArc
 50
25.37693352515179
 51
90.0
  0
ARC
  5
1166
330
18
100
AcDbEntity
  8
1
  6
Continuous
100
AcDbCircle
 10
135.9945569684154
 20
249.4909524895701
 30
0.0
 40
1.000000047497449
100
AcDbArc
 50
359.9999999999996
 51
89.99999999999836
  0
LINE
  5
1168
330
18
100
AcDbEntity
  8
1
  6
Continuous
100
AcDbLine
 10
128.4945566121845
 20
249.9909525133188
 30
0.0
 11
128.4945566121845
 21
250.4909525370675
 31
0.0
  0
LINE
  5
1169
330
18
100
AcDbEntity
  8
1
  6
Continuous
100
AcDbLine
 10
135.1195569268551
 20
249.9909525133188
 30
0.0
 11
132.1195567843628
 21
249.9909525133188
 31
0.0
  0
LINE
  5
116E
330
18
100
AcDbEntity
  8
1
  6
Continuous
100
AcDbLine
 10
140.5195571594996
 20
250.9909525608163
 30
0.0
 11
137.1195569980082
 21
250.9909525608163
 31
0.0
  0
LINE
  5
1173
330
18
100
AcDbEntity
  8
1
  6
Continuous
100
AcDbLine
 10
276.7675847805624
 20
183.1100959854009
 30
0.0
 11
279.7675849230547
 21
183.1100959854009
 31
0.0
  0
LINE
  5
1174
330
18
100
AcDbEntity
  8
1
  6
Continuous
100
AcDbLine
 10
203.7438394196403
 20
183.110095985401
 30
0.0
 11
216.7438400371072
 21
183.1100959854009
 31
0.0
  0
LINE
  5
118B
330
18
100
AcDbEntity
  8
4
  6
CENTER
 48
0.2
100
AcDbLine
 10
125.4945564696922
 20
264.9909530832882
 30
0.0
 11
125.4945564696922
 21
246.9909525133188
 31
0.0
  0
LINE
  5
18B1
330
18
100
AcDbEntity
  8
1
  6
Continuous
100
AcDbLine
 10
123.1851558015299
 20
259.6747342101644
 30
0.0
 11
123.1851558015299
 21
256.3071702969065
 31
0.0
  0
LINE
  5
18B2
330
18
100
AcDbEntity
  8
1
  6
Continuous
100
AcDbLine
 10
127.8039581744284
 20
259.6747342101645
 30
0.0
 11
127.8039581744284
 21
256.3071702969064
 31
0.0
  0
LINE
  5
18B3
330
18
100
AcDbEntity
  8
1
  6
Continuous
100
AcDbLine
 10
120.8757546150804
 20
259.6747342101644
 30
0.0
 11
120.8757546150804
 21
256.3071702969068
 31
0.0
  0
LINE
  5
18B4
330
18
100
AcDbEntity
  8
1
  6
Continuous
100
AcDbLine
 10
130.1133593608776
 20
259.6747342101645
 30
0.0
 11
130.1133593608776
 21
256.3071702969064
 31
0.0
  0
ARC
  5
18B5
330
18
100
AcDbEntity
  8
1
  6
Continuous
100
AcDbCircle
 10
128.9586587676532
 20
259.154566817765
 30
0.0
 40
3.072621097205236
100
AcDbArc
 50
247.9260407821897
 51
292.0739592177963
  0
LINE
  5
18B6
330
18
100
AcDbEntity
  8
1
  6
Continuous
100
AcDbLine
 10
130.4945567071794
 20
254.9909530647177
 30
0.0
 11
120.4945562322049
 21
254.9909530647177
 31
0.0
  0
LINE
  5
18B7
330
18
100
AcDbEntity
  8
1
  6
Continuous
100
AcDbLine
 10
130.4945567071794
 20
255.9909521585404
 30
0.0
 11
120.4945562322049
 21
255.9909521585405
 31
0.0
  0
LINE
  5
18B8
330
18
100
AcDbEntity
  8
1
  6
Continuous
100
AcDbLine
 10
127.4945565646871
 20
252.9909526558112
 30
0.0
 11
127.4945565646871
 21
254.9909530647177
 31
0.0
  0
LINE
  5
18B9
330
18
100
AcDbEntity
  8
2
  6
Continuous
 48
0.2
100
AcDbLine
 10
127.1155564696921
 20
254.9909530647177
 30
0.0
 11
127.1155564696921
 21
252.9909526558112
 31
0.0
  0
LINE
  5
18BA
330
18
100
AcDbEntity
  8
1
  6
Continuous
100
AcDbLine
 10
120.4945562322049
 20
255.9909521585405
 30
0.0
 11
120.4945562322049
 21
254.9909530647177
 31
0.0
  0
LINE
  5
18BB
330
18
100
AcDbEntity
  8
1
  6
Continuous
100
AcDbLine
 10
123.4945563746973
 20
254.9909530647177
 30
0.0
 11
123.4945563746973
 21
252.9909526558112
 31
0.0
  0
LINE
  5
18BC
330
18
100
AcDbEntity
  8
1
  6
Continuous
100
AcDbLine
 10
121.7445568098634
 20
255.9909521585405
 30
0.0
 11
120.8757546150804
 21
256.3071702969066
 31
0.0
  0
ARC
  5
18BD
330
18
100
AcDbEntity
  8
1
  6
Continuous
100
AcDbCircle
 10
122.0304552083053
 20
259.1545668177658
 30
0.0
 40
3.072621097205805
100
AcDbArc
 50
247.9260407821965
 51
292.0739592177996
  0
LINE
  5
18BE
330
18
100
AcDbEntity
  8
2
  6
Continuous
 48
0.2
100
AcDbLine
 10
123.8735564696921
 20
254.9909530647177
 30
0.0
 11
123.8735564696921
 21
252.9909526558112
 31
0.0
  0
ARC
  5
18BF
330
18
100
AcDbEntity
  8
1
  6
Continuous
100
AcDbCircle
 10
125.4945569879795
 20
268.0345932448527
 30
0.0
 40
11.95264752429306
100
AcDbArc
 50
258.8596769482699
 51
281.1403230517233
  0
LINE
  5
18C0
330
18
100
AcDbEntity
  8
1
  6
Continuous
100
AcDbLine
 10
130.4945567071794
 20
254.9909530647177
 30
0.0
 11
130.4945567071794
 21
255.9909521585404
 31
0.0
  0
LINE
  5
18C1
330
18
100
AcDbEntity
  8
1
  6
Continuous
100
AcDbLine
 10
130.1133593608776
 20
256.3071702969063
 30
0.0
 11
129.2442824183533
 21
255.9908521585404
 31
0.0
  0
ARC
  5
18C2
330
18
100
AcDbEntity
  8
1
  6
Continuous
100
AcDbCircle
 10
128.9586587676532
 20
256.827337689306
 30
0.0
 40
3.072621097205236
100
AcDbArc
 50
67.92604078220364
 51
112.0739592178102
  0
LINE
  5
18C3
330
18
100
AcDbEntity
  8
1
  6
Continuous
100
AcDbLine
 10
129.2445571660954
 20
259.9909523485306
 30
0.0
 11
121.7445568098634
 21
259.9909523485306
 31
0.0
  0
LINE
  5
18C4
330
18
100
AcDbEntity
  8
1
  6
Continuous
100
AcDbLine
 10
127.4945565646871
 20
259.9909523485306
 30
0.0
 11
127.4945565646871
 21
261.9909533972001
 31
0.0
  0
LINE
  5
18C5
330
18
100
AcDbEntity
  8
2
  6
Continuous
 48
0.2
100
AcDbLine
 10
127.1155564696921
 20
261.9909533972001
 30
0.0
 11
127.1155564696921
 21
259.9909523485306
 31
0.0
  0
LINE
  5
18C6
330
18
100
AcDbEntity
  8
1
  6
Continuous
100
AcDbLine
 10
121.7445568098634
 20
259.9909523485306
 30
0.0
 11
120.8757546150804
 21
259.6747342101644
 31
0.0
  0
LINE
  5
18C7
330
18
100
AcDbEntity
  8
1
  6
Continuous
100
AcDbLine
 10
123.4945563746973
 20
261.9909533972001
 30
0.0
 11
123.4945563746973
 21
259.9909523485306
 31
0.0
  0
ARC
  5
18C8
330
18
100
AcDbEntity
  8
1
  6
Continuous
100
AcDbCircle
 10
122.0304552083053
 20
256.8273376893052
 30
0.0
 40
3.072621097205805
100
AcDbArc
 50
67.92604078220062
 51
112.0739592178036
  0
LINE
  5
18C9
330
18
100
AcDbEntity
  8
2
  6
Continuous
 48
0.2
100
AcDbLine
 10
123.8735564696921
 20
261.9909533972001
 30
0.0
 11
123.8735564696921
 21
259.9909523485306
 31
0.0
  0
LINE
  5
18CA
330
18
100
AcDbEntity
  8
1
  6
Continuous
100
AcDbLine
 10
127.4945565646871
 20
261.9909533972001
 30
0.0
 11
123.4945563746973
 21
261.9909533972001
 31
0.0
  0
ARC
  5
18CB
330
18
100
AcDbEntity
  8
1
  6
Continuous
100
AcDbCircle
 10
125.4945569879795
 20
247.9473112622184
 30
0.0
 40
11.95264752429306
100
AcDbArc
 50
78.85967694827664
 51
101.14032305173
  0
LINE
  5
18CC
330
18
100
AcDbEntity
  8
1
  6
Continuous
100
AcDbLine
 10
130.1133593608776
 20
259.6747342101648
 30
0.0
 11
129.2442824183533
 21
259.9910523485306
 31
0.0
  0
LINE
  5
18F4
330
18
100
AcDbEntity
  8
4
  6
CENTER
 48
0.2
100
AcDbLine
 10
124.5695564728819
 20
241.9909521333392
 30
0.0
 11
143.5195571594995
 21
241.9909521333392
 31
0.0
  0
ARC
  5
1915
330
18
100
AcDbEntity
  8
1
  6
Continuous
100
AcDbCircle
 10
128.1147659319747
 20
238.1002859517224
 30
0.0
 40
0.5462082278847955
100
AcDbArc
 50
176.5345695050818
 51
265.2522197931387
  0
LINE
  5
1917
330
18
100
AcDbEntity
  8
1
  6
Continuous
100
AcDbLine
 10
131.9695566818382
 20
236.8909518973867
 30
0.0
 11
131.9695566818382
 21
247.0909523671973
 31
0.0
  0
LINE
  5
1918
330
18
100
AcDbEntity
  8
1
  6
Continuous
100
AcDbLine
 10
131.5695566628717
 20
247.3909523898254
 30
0.0
 11
131.5695566628717
 21
236.590951876853
 31
0.0
  0
LINE
  5
1919
330
18
100
AcDbEntity
  8
1
  6
Continuous
100
AcDbLine
 10
131.6695566676215
 20
236.590951876853
 30
0.0
 11
131.5695566628717
 21
236.590951876853
 31
0.0
  0
LINE
  5
191A
330
18
100
AcDbEntity
  8
1
  6
Continuous
100
AcDbLine
 10
131.9695566818551
 20
237.1985195475768
 30
0.0
 11
132.1195566889953
 21
237.1985195475768
 31
0.0
  0
LINE
  5
191B
330
18
100
AcDbEntity
  8
1
  6
Continuous
100
AcDbLine
 10
131.9695566818551
 20
236.9684323626718
 30
0.0
 11
132.1195566889953
 21
236.9684323626718
 31
0.0
  0
LINE
  5
191C
330
18
100
AcDbEntity
  8
1
  6
Continuous
100
AcDbLine
 10
131.9695566818382
 20
236.8909518973867
 30
0.0
 11
132.1195566889953
 21
236.8909518973867
 31
0.0
  0
ARC
  5
191D
330
18
100
AcDbEntity
  8
1
  6
Continuous
100
AcDbCircle
 10
131.6695566676215
 20
236.8909518911022
 30
0.0
 40
0.3000000142492445
100
AcDbArc
 50
270.0000000000032
 51
359.9995792104702
  0
LINE
  5
191E
330
18
100
AcDbEntity
  8
1
  6
Continuous
100
AcDbLine
 10
127.5695564728819
 20
245.8486020473777
 30
0.0
 11
127.5695564728819
 21
243.0409521832115
 31
0.0
  0
ARC
  5
191F
330
18
100
AcDbEntity
  8
1
  6
Continuous
100
AcDbCircle
 10
127.8695564871312
 20
243.0409521832115
 30
0.0
 40
0.3000000142492144
100
AcDbArc
 50
180.0
 51
264.7165228005806
  0
LINE
  5
1920
330
18
100
AcDbEntity
  8
1
  6
Continuous
100
AcDbLine
 10
128.0695564936342
 20
242.7421496283792
 30
0.0
 11
128.0695564938698
 21
242.7409521689623
 31
0.0
  0
LINE
  5
1921
330
18
100
AcDbEntity
  8
1
  6
Continuous
100
AcDbLine
 10
127.8695564871312
 20
242.7409521689623
 30
0.0
 11
127.8695564871312
 21
242.7422885919418
 31
0.0
  0
LINE
  5
1922
330
18
100
AcDbEntity
  8
1
  6
Continuous
100
AcDbLine
 10
127.9642647149716
 20
242.7409521689623
 30
0.0
 11
127.8695564871312
 21
242.7409521689623
 31
0.0
  0
ARC
  5
1923
330
18
100
AcDbEntity
  8
1
  6
Continuous
100
AcDbCircle
 10
127.9963334663904
 20
361.5036166426755
 30
0.0
 40
118.7614756132008
100
AcDbArc
 50
269.9254324488034
 51
270.0353260250429
  0
ARC
  5
1924
330
18
100
AcDbEntity
  8
1
  6
Continuous
100
AcDbCircle
 10
127.7921733414365
 20
243.9045116109523
 30
0.0
 40
0.2231396536399462
100
AcDbArc
 50
122.4875625548117
 51
176.0772044422677
  0
ARC
  5
1925
330
18
100
AcDbEntity
  8
1
  6
Continuous
100
AcDbCircle
 10
128.04006442829
 20
243.5700329766449
 30
0.0
 40
0.6391000987429787
100
AcDbArc
 50
87.35507576223042
 51
125.1281845699506
  0
ARC
  5
1926
330
18
100
AcDbEntity
  8
1
  6
Continuous
100
AcDbCircle
 10
128.1147659319747
 20
245.881618314956
 30
0.0
 40
0.5462082278847955
100
AcDbArc
 50
94.74778020686121
 51
183.4654304949197
  0
LINE
  5
1927
330
18
100
AcDbEntity
  8
1
  6
Continuous
100
AcDbLine
 10
131.5695566628717
 20
247.3909523898254
 30
0.0
 11
131.6695566676215
 21
247.3909523898254
 31
0.0
  0
LINE
  5
1928
330
18
100
AcDbEntity
  8
1
  6
Continuous
100
AcDbLine
 10
131.9695566818547
 20
241.9909521333392
 30
0.0
 11
132.1195566889953
 21
241.9909521333392
 31
0.0
  0
LINE
  5
1929
330
18
100
AcDbEntity
  8
1
  6
Continuous
100
AcDbLine
 10
131.9695566818707
 20
242.5118966910835
 30
0.0
 11
132.1195566889953
 21
242.5118966910835
 31
0.0
  0
LINE
  5
192A
330
18
100
AcDbEntity
  8
1
  6
Continuous
100
AcDbLine
 10
131.9695566818547
 20
242.8765578800494
 30
0.0
 11
132.1195566889953
 21
242.8765578800494
 31
0.0
  0
LINE
  5
192B
330
18
100
AcDbEntity
  8
1
  6
Continuous
100
AcDbLine
 10
131.9695566818545
 20
243.7352549442843
 30
0.0
 11
132.1195566889953
 21
243.7352549442843
 31
0.0
  0
LINE
  5
192C
330
18
100
AcDbEntity
  8
1
  6
Continuous
100
AcDbLine
 10
131.9695566818545
 20
244.5409522502682
 30
0.0
 11
132.1195566889953
 21
244.5409522502682
 31
0.0
  0
LINE
  5
192D
330
18
100
AcDbEntity
  8
1
  6
Continuous
100
AcDbLine
 10
131.969556681855
 20
245.2691690930614
 30
0.0
 11
132.1195566889953
 21
245.2691690930614
 31
0.0
  0
LINE
  5
192E
330
18
100
AcDbEntity
  8
1
  6
Continuous
100
AcDbLine
 10
131.969556681855
 20
245.8977789723915
 30
0.0
 11
132.1195566889953
 21
245.8977789723915
 31
0.0
  0
LINE
  5
192F
330
18
100
AcDbEntity
  8
1
  6
Continuous
100
AcDbLine
 10
131.969556681855
 20
246.4076818951669
 30
0.0
 11
132.1195566889953
 21
246.4076818951669
 31
0.0
  0
LINE
  5
1930
330
18
100
AcDbEntity
  8
1
  6
Continuous
100
AcDbLine
 10
131.969556681855
 20
246.7833847191015
 30
0.0
 11
132.1195566889953
 21
246.7833847191015
 31
0.0
  0
LINE
  5
1931
330
18
100
AcDbEntity
  8
1
  6
Continuous
100
AcDbLine
 10
131.9695566818545
 20
247.0134719040065
 30
0.0
 11
132.1195566889953
 21
247.0134719040065
 31
0.0
  0
LINE
  5
1932
330
18
100
AcDbEntity
  8
1
  6
Continuous
100
AcDbLine
 10
131.9695566818382
 20
247.0909523671973
 30
0.0
 11
132.1195566889953
 21
247.0909523671972
 31
0.0
  0
ARC
  5
1933
330
18
100
AcDbEntity
  8
1
  6
Continuous
100
AcDbCircle
 10
131.6695566676215
 20
247.0909523755762
 30
0.0
 40
0.3000000142492445
100
AcDbArc
 50
0.000000000000007
 51
89.99999999999676
  0
LINE
  5
1934
330
18
100
AcDbEntity
  8
1
  6
Continuous
100
AcDbLine
 10
130.0695565916257
 20
242.7409521689623
 30
0.0
 11
128.0695564966306
 21
242.7409521689623
 31
0.0
  0
LINE
  5
1935
330
18
100
AcDbEntity
  8
1
  6
Continuous
100
AcDbLine
 10
128.0695564966306
 20
244.2084522386648
 30
0.0
 11
131.5695566628717
 21
244.2084522386648
 31
0.0
  0
LINE
  5
1936
330
18
100
AcDbEntity
  8
1
  6
Continuous
100
AcDbLine
 10
128.0695564966306
 20
246.4259523439905
 30
0.0
 11
131.5695566628716
 21
246.4259523439904
 31
0.0
  0
LINE
  5
1937
330
18
100
AcDbEntity
  8
1
  6
Continuous
100
AcDbLine
 10
127.5695564728819
 20
238.1333022193007
 30
0.0
 11
127.5695564728819
 21
240.9409520834669
 31
0.0
  0
ARC
  5
1938
330
18
100
AcDbEntity
  8
1
  6
Continuous
100
AcDbCircle
 10
127.7921733414365
 20
240.0773926557262
 30
0.0
 40
0.2231396536399462
100
AcDbArc
 50
183.9227955577339
 51
237.5124374451885
  0
ARC
  5
1939
330
18
100
AcDbEntity
  8
1
  6
Continuous
100
AcDbCircle
 10
128.04006442829
 20
240.4118712900336
 30
0.0
 40
0.6391000987429787
100
AcDbArc
 50
234.8718154300494
 51
272.6449242377696
  0
ARC
  5
193A
330
18
100
AcDbEntity
  8
1
  6
Continuous
100
AcDbCircle
 10
127.8695564871312
 20
240.9409520834669
 30
0.0
 40
0.3000000142492144
100
AcDbArc
 50
95.2834771994194
 51
180.0
  0
ARC
  5
193B
330
18
100
AcDbEntity
  8
1
  6
Continuous
100
AcDbCircle
 10
127.9963334663904
 20
122.4782876240029
 30
0.0
 40
118.7614756132008
100
AcDbArc
 50
89.96467397495704
 51
90.07456755119664
  0
LINE
  5
193C
330
18
100
AcDbEntity
  8
1
  6
Continuous
100
AcDbLine
 10
127.9642647149716
 20
241.2409520977161
 30
0.0
 11
127.8695564871312
 21
241.2409520977161
 31
0.0
  0
LINE
  5
193D
330
18
100
AcDbEntity
  8
1
  6
Continuous
100
AcDbLine
 10
127.8695564871312
 20
241.2409520977161
 30
0.0
 11
127.8695564871312
 21
241.2396156747366
 31
0.0
  0
LINE
  5
193E
330
18
100
AcDbEntity
  8
1
  6
Continuous
100
AcDbLine
 10
128.0695564936342
 20
241.2397546382992
 30
0.0
 11
128.0695564938698
 21
241.2409520977161
 31
0.0
  0
LINE
  5
193F
330
18
100
AcDbEntity
  8
1
  6
Continuous
100
AcDbLine
 10
131.9695566818549
 20
239.4409520164102
 30
0.0
 11
132.1195566889953
 21
239.4409520164102
 31
0.0
  0
LINE
  5
1940
330
18
100
AcDbEntity
  8
1
  6
Continuous
100
AcDbLine
 10
131.9695566818546
 20
238.0841252942872
 30
0.0
 11
132.1195566889953
 21
238.0841252942872
 31
0.0
  0
LINE
  5
1941
330
18
100
AcDbEntity
  8
1
  6
Continuous
100
AcDbLine
 10
131.9695566818549
 20
238.712735173617
 30
0.0
 11
132.1195566889953
 21
238.712735173617
 31
0.0
  0
LINE
  5
1942
330
18
100
AcDbEntity
  8
1
  6
Continuous
100
AcDbLine
 10
131.9695566818546
 20
237.5742223715114
 30
0.0
 11
132.1195566889953
 21
237.5742223715114
 31
0.0
  0
LINE
  5
1943
330
18
100
AcDbEntity
  8
1
  6
Continuous
100
AcDbLine
 10
131.9695566818547
 20
240.2466493223941
 30
0.0
 11
132.1195566889953
 21
240.2466493223941
 31
0.0
  0
LINE
  5
1944
330
18
100
AcDbEntity
  8
1
  6
Continuous
100
AcDbLine
 10
131.9695566818547
 20
241.1053463866291
 30
0.0
 11
132.1195566889953
 21
241.1053463866291
 31
0.0
  0
LINE
  5
1945
330
18
100
AcDbEntity
  8
1
  6
Continuous
100
AcDbLine
 10
131.9695566818707
 20
240.9648916546269
 30
0.0
 11
132.1195566889953
 21
240.9648916546269
 31
0.0
  0
LINE
  5
1946
330
18
100
AcDbEntity
  8
1
  6
Continuous
100
AcDbLine
 10
128.0695564966306
 20
237.5559519226879
 30
0.0
 11
131.5695566628716
 21
237.555951922688
 31
0.0
  0
LINE
  5
1947
330
18
100
AcDbEntity
  8
1
  6
Continuous
100
AcDbLine
 10
128.0695564966306
 20
239.7734520280136
 30
0.0
 11
131.5695566628717
 21
239.7734520280136
 31
0.0
  0
LINE
  5
1948
330
18
100
AcDbEntity
  8
1
  6
Continuous
100
AcDbLine
 10
130.0695565916257
 20
241.2409520977161
 30
0.0
 11
128.0695564966306
 21
241.2409520977161
 31
0.0
  0
LINE
  5
1949
330
18
100
AcDbEntity
  8
1
  6
Continuous
100
AcDbLine
 10
130.0695565916257
 20
241.2409520977161
 30
0.0
 11
130.0695565916257
 21
242.7409521689623
 31
0.0
  0
LINE
  5
2CB7
330
18
100
AcDbEntity
  8
4
  6
CENTER
 48
0.2
100
AcDbLine
 10
126.0776812695244
 20
226.9909514208774
 30
0.0
 11
145.2434876863577
 21
226.9909514208774
 31
0.0
  0
LINE
  5
2CB8
330
18
100
AcDbEntity
  8
4
  6
CENTER
 48
0.2
100
AcDbLine
 10
134.5195568745148
 20
235.270729463996
 30
0.0
 11
134.5195568745148
 21
218.0075884823749
 31
0.0
  0
LINE
  5
2CBB
330
18
100
AcDbEntity
  8
4
  6
CENTER
 48
0.2
100
AcDbLine
 10
134.5195568745148
 20
186.110095985401
 30
0.0
 11
134.5195568745148
 21
111.1100927080768
 31
0.0
  0
ARC
  5
2CBC
330
18
100
AcDbEntity
  8
1
  6
Continuous
100
AcDbCircle
 10
128.0695564966306
 20
170.2692717560364
 30
0.0
 40
0.5000000237487186
100
AcDbArc
 50
180.0
 51
270.0
  0
LINE
  5
2CBD
330
18
100
AcDbEntity
  8
1
  6
Continuous
100
AcDbLine
 10
128.0695564966306
 20
169.7692717322876
 30
0.0
 11
129.5195566370276
 21
169.7692717322876
 31
0.0
  0
LINE
  5
2CBE
330
18
100
AcDbEntity
  8
4
  6
CENTER
 48
0.2
100
AcDbLine
 10
124.5695564728819
 20
173.6100945805009
 30
0.0
 11
143.5195571595
 21
173.6100945805009
 31
0.0
  0
LINE
  5
2CBF
330
18
100
AcDbEntity
  8
4
  6
CENTER
 48
0.2
100
AcDbLine
 10
119.4945563271998
 20
161.1100939867827
 30
0.0
 11
131.4945566121845
 21
161.1100939867827
 31
0.0
  0
LINE
  5
2CC0
330
18
100
AcDbEntity
  8
4
  6
CENTER
 48
0.2
100
AcDbLine
 10
125.4945564696922
 20
167.1100941292749
 30
0.0
 11
125.4945564696922
 21
155.1100938442903
 31
0.0
  0
LINE
  5
2CC1
330
18
100
AcDbEntity
  8
4
  6
CENTER
 48
0.2
100
AcDbLine
 10
115.49455613721
 20
148.6100943467389
 30
0.0
 11
143.5195571595
 21
148.6100943467389
 31
0.0
  0
LINE
  5
2CC3
330
18
100
AcDbEntity
  8
1
  6
Continuous
100
AcDbLine
 10
129.5195566370275
 20
179.1100948417374
 30
0.0
 11
129.5195566370275
 21
166.1100956547814
 31
0.0
  0
LINE
  5
2CC4
330
18
100
AcDbEntity
  8
1
  6
Continuous
100
AcDbLine
 10
129.5195566370275
 20
118.1100938517404
 30
0.0
 11
129.5195566370275
 21
131.1100930386962
 31
0.0
  0
LINE
  5
2CC5
330
18
100
AcDbEntity
  8
1
  6
Continuous
100
AcDbLine
 10
127.5695564728819
 20
126.9509169374414
 30
0.0
 11
127.5695564728819
 21
120.2692712885124
 31
0.0
  0
LINE
  5
2CC6
330
18
100
AcDbEntity
  8
1
  6
Continuous
100
AcDbLine
 10
140.5195571595001
 20
131.1100944692078
 30
0.0
 11
140.5195571595001
 21
118.1100938517411
 31
0.0
  0
LINE
  5
2CC7
330
18
100
AcDbEntity
  8
4
  6
CENTER
 48
0.2
100
AcDbLine
 10
119.4945563271998
 20
136.1100947066951
 30
0.0
 11
131.4945566121845
 21
136.1100947066951
 31
0.0
  0
LINE
  5
2CC8
330
18
100
AcDbEntity
  8
1
  6
Continuous
100
AcDbLine
 10
129.5445566620567
 20
131.6100935392822
 30
0.0
 11
118.49455613721
 21
131.6100935392822
 31
0.0
  0
CIRCLE
  5
2CC9
330
18
100
AcDbEntity
  8
1
  6
Continuous
100
AcDbCircle
 10
125.4945564696922
 20
136.1100947066951
 30
0.0
 40
3.000000142492358
  0
ARC
  5
2CCA
330
18
100
AcDbEntity
  8
1
  6
Continuous
100
AcDbCircle
 10
125.4945564696922
 20
136.1100947066951
 30
0.0
 40
5.000000237487252
100
AcDbArc
 50
244.1580923080899
 51
295.84190769191
  0
LINE
  5
2CCB
330
18
100
AcDbEntity
  8
4
  6
CENTER
 48
0.2
100
AcDbLine
 10
125.4945564696922
 20
130.1100945642027
 30
0.0
 11
125.4945564696922
 21
142.1100948491874
 31
0.0
  0
LINE
  5
2CCC
330
18
100
AcDbEntity
  8
1
  6
Continuous
100
AcDbLine
 10
129.5445566620569
 20
131.1100944692078
 30
0.0
 11
140.5195571595001
 21
131.1100944692079
 31
0.0
  0
ARC
  5
2CCD
330
18
100
AcDbEntity
  8
1
  6
Continuous
100
AcDbCircle
 10
128.0695564966306
 20
126.9509169374414
 30
0.0
 40
0.5000000237487186
100
AcDbArc
 50
90.00000000000005
 51
180.0
  0
LINE
  5
2CCE
330
18
100
AcDbEntity
  8
1
  6
Continuous
100
AcDbLine
 10
128.0695564966306
 20
127.4509169611901
 30
0.0
 11
129.5195566370276
 21
127.4509169611901
 31
0.0
  0
LINE
  5
2CD0
330
18
100
AcDbEntity
  8
4
  6
CENTER
 48
0.2
100
AcDbLine
 10
124.5695564728819
 20
123.6100941129769
 30
0.0
 11
143.5195571595
 21
123.6100941129769
 31
0.0
  0
LINE
  5
2CD1
330
18
100
AcDbEntity
  8
1
  6
Continuous
100
AcDbLine
 10
132.1195567843628
 20
116.1100937567461
 30
0.0
 11
132.1195567843628
 21
114.1100927080768
 31
0.0
  0
LINE
  5
2CD2
330
18
100
AcDbEntity
  8
1
  6
Continuous
100
AcDbLine
 10
135.1195569268551
 20
116.1100937567461
 30
0.0
 11
135.1195569268551
 21
114.1100927080768
 31
0.0
  0
LINE
  5
2CD3
330
18
100
AcDbEntity
  8
1
  6
Continuous
100
AcDbLine
 10
129.5195566370275
 20
118.1100938517404
 30
0.0
 11
140.5195571594996
 21
118.1100938517412
 31
0.0
  0
LINE
  5
2CD4
330
18
100
AcDbEntity
  8
1
  6
Continuous
100
AcDbLine
 10
131.5195567320224
 20
116.1100937567461
 30
0.0
 11
138.5195570645046
 21
116.1100937567461
 31
0.0
  0
LINE
  5
2CD5
330
18
100
AcDbEntity
  8
1
  6
Continuous
100
AcDbLine
 10
131.5195567320224
 20
116.1100937567461
 30
0.0
 11
129.5195566370275
 21
118.110093851741
 31
0.0
  0
LINE
  5
2CD6
330
18
100
AcDbEntity
  8
1
  6
Continuous
100
AcDbLine
 10
127.5695564728819
 20
123.6100941129769
 30
0.0
 11
129.5195566370276
 21
123.6100941129769
 31
0.0
  0
ARC
  5
2CD7
330
18
100
AcDbEntity
  8
1
  6
Continuous
100
AcDbCircle
 10
128.0695564966306
 20
120.2692712885124
 30
0.0
 40
0.5000000237487186
100
AcDbArc
 50
180.0
 51
270.0
  0
LINE
  5
2CD8
330
18
100
AcDbEntity
  8
1
  6
Continuous
100
AcDbLine
 10
128.0695564966306
 20
119.7692712647636
 30
0.0
 11
129.5195566370276
 21
119.7692712647636
 31
0.0
  0
LINE
  5
2CD9
330
18
100
AcDbEntity
  8
1
  6
Continuous
100
AcDbLine
 10
138.5195570645046
 20
116.1100937567461
 30
0.0
 11
140.5195571594995
 21
118.110093851741
 31
0.0
  0
LINE
  5
2CDA
330
18
100
AcDbEntity
  8
1
  6
Continuous
100
AcDbLine
 10
135.1195569268551
 20
114.1100927080768
 30
0.0
 11
132.1195567843628
 21
114.1100927080768
 31
0.0
  0
LINE
  5
2CDB
330
18
100
AcDbEntity
  8
1
  6
Continuous
100
AcDbLine
 10
226.743839872319
 20
157.3600938086667
 30
0.0
 11
226.743839872319
 21
164.8600941648982
 31
0.0
  0
LINE
  5
2CDC
330
18
100
AcDbEntity
  8
1
  6
Continuous
100
AcDbLine
 10
222.7438406360035
 20
156.1100937492954
 30
0.0
 11
222.7438406360035
 21
166.1100942242699
 31
0.0
  0
ARC
  5
2CDD
330
18
100
AcDbEntity
  8
1
  6
Continuous
100
AcDbCircle
 10
217.6602075950494
 20
163.1100940817773
 30
0.0
 40
8.992638715250599
100
AcDbArc
 50
347.1497208426078
 51
12.85027915739691
  0
ARC
  5
2CDE
330
18
100
AcDbEntity
  8
1
  6
Continuous
100
AcDbCircle
 10
231.8274719595984
 20
163.1100940817773
 30
0.0
 40
8.992638715250599
100
AcDbArc
 50
167.149720842603
 51
192.8502791573905
  0
LINE
  5
2CDF
330
18
100
AcDbEntity
  8
1
  6
Continuous
100
AcDbLine
 10
221.7438405885061
 20
156.1100937492954
 30
0.0
 11
221.7438405885061
 21
166.1100942242699
 31
0.0
  0
LINE
  5
2CE0
330
18
100
AcDbEntity
  8
1
  6
Continuous
100
AcDbLine
 10
228.7438409209884
 20
163.1100940817776
 30
0.0
 11
226.743839872319
 21
163.1100940817776
 31
0.0
  0
LINE
  5
2CE1
330
18
100
AcDbEntity
  8
2
  6
Continuous
 48
0.2
100
AcDbLine
 10
228.7438409209884
 20
162.7310939867826
 30
0.0
 11
226.7438398723189
 21
162.7310939867826
 31
0.0
  0
LINE
  5
2CE2
330
18
100
AcDbEntity
  8
1
  6
Continuous
100
AcDbLine
 10
226.743839872319
 20
159.1100938917878
 30
0.0
 11
228.7438409209884
 21
159.1100938917878
 31
0.0
  0
LINE
  5
2CE3
330
18
100
AcDbEntity
  8
2
  6
Continuous
 48
0.2
100
AcDbLine
 10
228.7438409209884
 20
159.4890939867826
 30
0.0
 11
226.7438398723189
 21
159.4890939867826
 31
0.0
  0
LINE
  5
2CE4
330
18
100
AcDbEntity
  8
1
  6
Continuous
100
AcDbLine
 10
226.427621733953
 20
161.1100939867828
 30
0.0
 11
223.0600578206948
 21
161.1100939867828
 31
0.0
  0
LINE
  5
2CE5
330
18
100
AcDbEntity
  8
1
  6
Continuous
100
AcDbLine
 10
221.7438405885061
 20
163.1100940817776
 30
0.0
 11
219.7438401795995
 21
163.1100940817776
 31
0.0
  0
LINE
  5
2CE6
330
18
100
AcDbEntity
  8
2
  6
Continuous
 48
0.2
100
AcDbLine
 10
221.7438405885061
 20
162.7310939867826
 30
0.0
 11
219.7438401795995
 21
162.7310939867826
 31
0.0
  0
LINE
  5
2CE7
330
18
100
AcDbEntity
  8
1
  6
Continuous
100
AcDbLine
 10
219.7438401795995
 20
159.1100938917878
 30
0.0
 11
221.7438405885061
 21
159.1100938917878
 31
0.0
  0
LINE
  5
2CE8
330
18
100
AcDbEntity
  8
1
  6
Continuous
100
AcDbLine
 10
226.6528472955696
 20
157.1100937587099
 30
0.0
 11
222.8348322443482
 21
157.1100937991804
 31
0.0
  0
LINE
  5
2CE9
330
18
100
AcDbEntity
  8
1
  6
Continuous
100
AcDbLine
 10
222.7438406360035
 20
157.3600911884671
 30
0.0
 11
222.8348330216332
 21
157.110091663607
 31
0.0
  0
LINE
  5
2CEB
330
18
100
AcDbEntity
  8
1
  6
Continuous
100
AcDbLine
 10
226.6528109124072
 20
157.1099937967927
 30
0.0
 11
226.7439398723191
 21
157.3603685564089
 31
0.0
  0
LINE
  5
2CED
330
18
100
AcDbEntity
  8
1
  6
Continuous
100
AcDbLine
 10
221.7438405885061
 20
156.1100937492954
 30
0.0
 11
222.7438406360035
 21
156.1100937492954
 31
0.0
  0
LINE
  5
2CEE
330
18
100
AcDbEntity
  8
2
  6
Continuous
 48
0.2
100
AcDbLine
 10
221.7438405885061
 20
159.4890939867826
 30
0.0
 11
219.7438401795995
 21
159.4890939867826
 31
0.0
  0
ARC
  5
2CF1
330
18
100
AcDbEntity
  8
1
  6
Continuous
100
AcDbCircle
 10
217.6602075973025
 20
159.1100938917868
 30
0.0
 40
8.99263871305442
100
AcDbArc
 50
347.1497208394191
 51
12.85027916059433
  0
ARC
  5
2CF2
330
18
100
AcDbEntity
  8
1
  6
Continuous
100
AcDbCircle
 10
231.8274719573453
 20
159.1100938917868
 30
0.0
 40
8.99263871305442
100
AcDbArc
 50
167.1497208394056
 51
192.8502791605809
  0
LINE
  5
2CF3
330
18
100
AcDbEntity
  8
1
  6
Continuous
100
AcDbLine
 10
228.7438409209885
 20
159.1100938917878
 30
0.0
 11
228.7438409209885
 21
163.1100940817776
 31
0.0
  0
LINE
  5
2CF4
330
18
100
AcDbEntity
  8
1
  6
Continuous
100
AcDbLine
 10
222.8348322452172
 20
165.1100941767726
 30
0.0
 11
222.7438406360035
 21
164.8600967850981
 31
0.0
  0
LINE
  5
2CF5
330
18
100
AcDbEntity
  8
1
  6
Continuous
100
AcDbLine
 10
226.6528473094306
 20
165.1100941767726
 30
0.0
 11
222.8348322452172
 21
165.1100941767726
 31
0.0
  0
LINE
  5
2CF6
330
18
100
AcDbEntity
  8
1
  6
Continuous
100
AcDbLine
 10
226.7439398723191
 20
164.8598194171564
 30
0.0
 11
226.6528473094306
 21
165.1100941767726
 31
0.0
  0
LINE
  5
2CF7
330
18
100
AcDbEntity
  8
1
  6
Continuous
100
AcDbLine
 10
222.7438406360035
 20
166.1100942242699
 30
0.0
 11
221.7438405885061
 21
166.1100942242699
 31
0.0
  0
LINE
  5
2CF8
330
18
100
AcDbEntity
  8
4
  6
CENTER
 48
0.2
100
AcDbLine
 10
231.7438409209886
 20
161.1100939867827
 30
0.0
 11
216.7438401795995
 21
161.1100939867827
 31
0.0
  0
LINE
  5
2CFB
330
18
100
AcDbEntity
  8
4
  6
CENTER
 48
0.2
100
AcDbLine
 10
185.7438387071784
 20
148.6100943467389
 30
0.0
 11
231.7438409209886
 21
148.6100943467389
 31
0.0
  0
LINE
  5
2CFC
330
18
100
AcDbEntity
  8
1
  6
Continuous
100
AcDbLine
 10
198.743839182153
 20
131.6100935392819
 30
0.0
 11
219.7438401795995
 21
131.6100935392817
 31
0.0
  0
LINE
  5
2CFD
330
18
100
AcDbEntity
  8
1
  6
Continuous
100
AcDbLine
 10
188.7438387071784
 20
118.110093851741
 30
0.0
 11
217.7438400846046
 21
118.110093851741
 31
0.0
  0
LINE
  5
2CFE
330
18
100
AcDbEntity
  8
1
  6
Continuous
100
AcDbLine
 10
190.7438388021733
 20
116.1100937567461
 30
0.0
 11
215.7438399896097
 21
116.1100937567461
 31
0.0
  0
LINE
  5
2CFF
330
18
100
AcDbEntity
  8
1
  6
Continuous
100
AcDbLine
 10
188.7438387071784
 20
131.1100944692078
 30
0.0
 11
217.7438400846046
 21
131.1100944692079
 31
0.0
  0
LINE
  5
2D00
330
18
100
AcDbEntity
  8
1
  6
Continuous
100
AcDbLine
 10
188.7438387071784
 20
118.110093851741
 30
0.0
 11
188.7438387071784
 21
179.1100948417367
 31
0.0
  0
LINE
  5
2D01
330
18
100
AcDbEntity
  8
1
  6
Continuous
100
AcDbLine
 10
200.4438392628986
 20
131.1100944692078
 30
0.0
 11
200.4438392628986
 21
118.1100938517411
 31
0.0
  0
LINE
  5
2D02
330
18
100
AcDbEntity
  8
1
  6
Continuous
100
AcDbLine
 10
198.743839182153
 20
131.1100935155334
 30
0.0
 11
198.743839182153
 21
131.6100935392819
 31
0.0
  0
LINE
  5
2D03
330
18
100
AcDbEntity
  8
1
  6
Continuous
100
AcDbLine
 10
190.7438388021733
 20
116.1100937567461
 30
0.0
 11
188.7438387071784
 21
118.110093851741
 31
0.0
  0
LINE
  5
2D04
330
18
100
AcDbEntity
  8
1
  6
Continuous
100
AcDbLine
 10
200.5849231744398
 20
116.1100937567461
 30
0.0
 11
200.4438392628987
 21
118.110093851741
 31
0.0
  0
LINE
  5
2D05
330
18
100
AcDbEntity
  8
1
  6
Continuous
100
AcDbLine
 10
217.7438400846046
 20
131.1100944692079
 30
0.0
 11
217.7438400846046
 21
118.110093851741
 31
0.0
  0
LINE
  5
2D06
330
18
100
AcDbEntity
  8
1
  6
Continuous
100
AcDbLine
 10
222.7438406360035
 20
131.1100944692078
 30
0.0
 11
221.7438405885061
 21
131.1100944692078
 31
0.0
  0
LINE
  5
2D07
330
18
100
AcDbEntity
  8
4
  6
CENTER
 48
0.2
100
AcDbLine
 10
231.7438409209886
 20
136.1100947066951
 30
0.0
 11
216.7438401795995
 21
136.1100947066951
 31
0.0
  0
LINE
  5
2D08
330
18
100
AcDbEntity
  8
1
  6
Continuous
100
AcDbLine
 10
221.7438405885061
 20
141.1100949441823
 30
0.0
 11
222.7438406360035
 21
141.1100949441823
 31
0.0
  0
LINE
  5
2D09
330
18
100
AcDbEntity
  8
1
  6
Continuous
100
AcDbLine
 10
221.7438405885061
 20
141.1100949441823
 30
0.0
 11
221.7438405885061
 21
131.1100944692078
 31
0.0
  0
LINE
  5
2D0A
330
18
100
AcDbEntity
  8
1
  6
Continuous
100
AcDbLine
 10
219.7438401795995
 20
138.11009480169
 30
0.0
 11
221.7438405885061
 21
138.11009480169
 31
0.0
  0
LINE
  5
2D0B
330
18
100
AcDbEntity
  8
2
  6
Continuous
 48
0.2
100
AcDbLine
 10
221.7438405885061
 20
137.7310947066951
 30
0.0
 11
219.7438401795995
 21
137.7310947066951
 31
0.0
  0
LINE
  5
2D0C
330
18
100
AcDbEntity
  8
1
  6
Continuous
100
AcDbLine
 10
203.7438394196403
 20
131.6100935392822
 30
0.0
 11
203.7438394196403
 21
131.1100944692078
 31
0.0
  0
LINE
  5
2D0D
330
18
100
AcDbEntity
  8
1
  6
Continuous
100
AcDbLine
 10
221.7438405885061
 20
134.1100946117002
 30
0.0
 11
219.7438401795995
 21
134.1100946117002
 31
0.0
  0
LINE
  5
2D0E
330
18
100
AcDbEntity
  8
2
  6
Continuous
 48
0.2
100
AcDbLine
 10
221.7438405885061
 20
134.4890947066951
 30
0.0
 11
219.7438401795995
 21
134.4890947066951
 31
0.0
  0
LINE
  5
2D0F
330
18
100
AcDbEntity
  8
1
  6
Continuous
100
AcDbLine
 10
216.7438400371072
 20
131.1100944692078
 30
0.0
 11
216.7438400371072
 21
131.6100935392817
 31
0.0
  0
LINE
  5
2D10
330
18
100
AcDbEntity
  8
1
  6
Continuous
100
AcDbLine
 10
228.7438409209885
 20
138.11009480169
 30
0.0
 11
228.7438409209885
 21
134.1100946117002
 31
0.0
  0
LINE
  5
2D11
330
18
100
AcDbEntity
  8
1
  6
Continuous
100
AcDbLine
 10
226.743839872319
 20
139.8600948848107
 30
0.0
 11
226.743839872319
 21
132.3600945285793
 31
0.0
  0
LINE
  5
2D12
330
18
100
AcDbEntity
  8
1
  6
Continuous
100
AcDbLine
 10
222.7438406360035
 20
141.1100949441823
 30
0.0
 11
222.7438406360035
 21
131.1100944692078
 31
0.0
  0
ARC
  5
2D13
330
18
100
AcDbEntity
  8
1
  6
Continuous
100
AcDbCircle
 10
217.6602075973025
 20
138.1100948016909
 30
0.0
 40
8.99263871305442
100
AcDbArc
 50
347.1497208394056
 51
12.8502791605809
  0
ARC
  5
2D14
330
18
100
AcDbEntity
  8
1
  6
Continuous
100
AcDbCircle
 10
231.8274719573453
 20
138.1100948016909
 30
0.0
 40
8.99263871305442
100
AcDbArc
 50
167.149720839419
 51
192.8502791605943
  0
LINE
  5
2D15
330
18
100
AcDbEntity
  8
1
  6
Continuous
100
AcDbLine
 10
226.743839872319
 20
138.11009480169
 30
0.0
 11
228.7438409209884
 21
138.11009480169
 31
0.0
  0
LINE
  5
2D16
330
18
100
AcDbEntity
  8
2
  6
Continuous
 48
0.2
100
AcDbLine
 10
228.7438409209884
 20
137.7310947066951
 30
0.0
 11
226.7438398723189
 21
137.7310947066951
 31
0.0
  0
LINE
  5
2D18
330
18
100
AcDbEntity
  8
1
  6
Continuous
100
AcDbLine
 10
226.6528109124072
 20
140.1101948966851
 30
0.0
 11
226.7439398723191
 21
139.8598201370688
 31
0.0
  0
LINE
  5
2D19
330
18
100
AcDbEntity
  8
1
  6
Continuous
100
AcDbLine
 10
226.6528472955696
 20
140.1100949347679
 30
0.0
 11
222.8348322443482
 21
140.1100948942973
 31
0.0
  0
LINE
  5
2D1A
330
18
100
AcDbEntity
  8
1
  6
Continuous
100
AcDbLine
 10
222.7438406360035
 20
139.8600975050106
 30
0.0
 11
222.8348330216332
 21
140.1100970298707
 31
0.0
  0
ARC
  5
2D1D
330
18
100
AcDbEntity
  8
1
  6
Continuous
100
AcDbCircle
 10
217.6602075950494
 20
134.1100946117004
 30
0.0
 40
8.992638715250599
100
AcDbArc
 50
347.149720842603
 51
12.85027915739215
  0
LINE
  5
2D1E
330
18
100
AcDbEntity
  8
1
  6
Continuous
100
AcDbLine
 10
228.7438409209884
 20
134.1100946117002
 30
0.0
 11
226.743839872319
 21
134.1100946117002
 31
0.0
  0
LINE
  5
2D1F
330
18
100
AcDbEntity
  8
2
  6
Continuous
 48
0.2
100
AcDbLine
 10
228.7438409209884
 20
134.4890947066951
 30
0.0
 11
226.7438398723189
 21
134.4890947066951
 31
0.0
  0
LINE
  5
2D20
330
18
100
AcDbEntity
  8
1
  6
Continuous
100
AcDbLine
 10
226.7439398723191
 20
132.3603692763214
 30
0.0
 11
226.6528473094306
 21
132.1100945167052
 31
0.0
  0
ARC
  5
2D22
330
18
100
AcDbEntity
  8
1
  6
Continuous
100
AcDbCircle
 10
231.8274719595984
 20
134.1100946117004
 30
0.0
 40
8.992638715250599
100
AcDbArc
 50
167.1497208426094
 51
192.8502791573969
  0
LINE
  5
2D23
330
18
100
AcDbEntity
  8
1
  6
Continuous
100
AcDbLine
 10
222.8348322452172
 20
132.1100945167052
 30
0.0
 11
222.7438406360035
 21
132.3600919083796
 31
0.0
  0
LINE
  5
2D24
330
18
100
AcDbEntity
  8
1
  6
Continuous
100
AcDbLine
 10
226.427621733953
 20
136.110094706695
 30
0.0
 11
223.0600578206948
 21
136.110094706695
 31
0.0
  0
LINE
  5
2D25
330
18
100
AcDbEntity
  8
1
  6
Continuous
100
AcDbLine
 10
226.6528473094306
 20
132.1100945167052
 30
0.0
 11
222.8348322452172
 21
132.1100945167052
 31
0.0
  0
LINE
  5
2D26
330
18
100
AcDbEntity
  8
1
  6
Continuous
100
AcDbLine
 10
216.7438400371072
 20
114.1100927080768
 30
0.0
 11
216.7438400371072
 21
117.1100938042435
 31
0.0
  0
LINE
  5
2D27
330
18
100
AcDbEntity
  8
1
  6
Continuous
100
AcDbLine
 10
203.7438394196403
 20
116.1100937567461
 30
0.0
 11
203.7438394196403
 21
114.1100927080768
 31
0.0
  0
LINE
  5
2D28
330
18
100
AcDbEntity
  8
1
  6
Continuous
100
AcDbLine
 10
215.7438399896097
 20
116.1100937567461
 30
0.0
 11
217.7438400846046
 21
118.110093851741
 31
0.0
  0
LINE
  5
2D29
330
18
100
AcDbEntity
  8
1
  6
Continuous
100
AcDbLine
 10
203.7438394196403
 20
114.1100927080768
 30
0.0
 11
216.7438400371072
 21
114.1100927080768
 31
0.0
  0
LINE
  5
2D2C
330
18
100
AcDbEntity
  8
4
  6
CENTER
 48
0.2
100
AcDbLine
 10
193.7438401795995
 20
186.110095985401
 30
0.0
 11
193.7438401795995
 21
111.1100927080768
 31
0.0
  0
LINE
  5
2D2D
330
18
100
AcDbEntity
  8
1
  6
Continuous
100
AcDbLine
 10
51.61301158398497
 20
175.86009468737
 30
0.0
 11
52.01301160298395
 21
175.86009468737
 31
0.0
  0
LINE
  5
2D2E
330
18
100
AcDbEntity
  8
1
  6
Continuous
100
AcDbLine
 10
49.59551148815886
 20
177.4509174287141
 30
0.0
 11
54.03051169881035
 21
177.4509174287141
 31
0.0
  0
LINE
  5
2D2F
330
18
100
AcDbEntity
  8
1
  6
Continuous
100
AcDbLine
 10
51.61301158398497
 20
171.3600944736315
 30
0.0
 11
52.01301160298395
 21
171.3600944736315
 31
0.0
  0
LINE
  5
2D30
330
18
100
AcDbEntity
  8
1
  6
Continuous
100
AcDbLine
 10
49.59551148815886
 20
169.7692717322875
 30
0.0
 11
54.03051169881024
 21
169.7692717322875
 31
0.0
  0
LINE
  5
2D31
330
18
100
AcDbEntity
  8
4
  6
CENTER
 48
0.2
100
AcDbLine
 10
44.41301133699822
 20
173.6100945805008
 30
0.0
 11
59.21301184997071
 21
173.6100945805008
 31
0.0
  0
CIRCLE
  5
2D32
330
18
100
AcDbEntity
  8
1
  6
Continuous
100
AcDbCircle
 10
51.81301159348446
 20
173.6100945805008
 30
0.0
 40
5.400000256486245
  0
LINE
  5
2D33
330
18
100
AcDbEntity
  8
1
  6
Continuous
100
AcDbLine
 10
52.3130116172332
 20
174.4100946184986
 30
0.0
 11
52.3130116172332
 21
175.5600946731208
 31
0.0
  0
LINE
  5
2D34
330
18
100
AcDbEntity
  8
1
  6
Continuous
100
AcDbLine
 10
52.56301162910756
 20
174.6100946279982
 30
0.0
 11
52.56301162910762
 21
177.1509174144648
 31
0.0
  0
ARC
  5
2D35
330
18
100
AcDbEntity
  8
1
  6
Continuous
100
AcDbCircle
 10
51.81301159348446
 20
173.6100945805008
 30
0.0
 40
3.000000142492361
100
AcDbArc
 50
288.5530161417733
 51
71.446983858225
  0
LINE
  5
2D36
330
18
100
AcDbEntity
  8
1
  6
Continuous
100
AcDbLine
 10
54.03051169881035
 20
177.4509174287141
 30
0.0
 11
56.24801180413601
 21
173.610094580501
 31
0.0
  0
ARC
  5
2D37
330
18
100
AcDbEntity
  8
1
  6
Continuous
100
AcDbCircle
 10
52.01301160298395
 20
171.6600944878807
 30
0.0
 40
0.3000000142492363
100
AcDbArc
 50
270.0000000000016
 51
0.0
  0
ARC
  5
2D38
330
18
100
AcDbEntity
  8
1
  6
Continuous
100
AcDbCircle
 10
52.61301163148242
 20
174.4100946184986
 30
0.0
 40
0.3000000142492361
100
AcDbArc
 50
180.0
 51
270.0
  0
ARC
  5
2D39
330
18
100
AcDbEntity
  8
1
  6
Continuous
100
AcDbCircle
 10
53.06301165285629
 20
174.6100946279982
 30
0.0
 40
0.5000000237487257
100
AcDbArc
 50
180.0
 51
270.0
  0
LINE
  5
2D3A
330
18
100
AcDbEntity
  8
1
  6
Continuous
100
AcDbLine
 10
53.76301168607898
 20
174.1100946042495
 30
0.0
 11
52.61301163148242
 21
174.1100946042495
 31
0.0
  0
LINE
  5
2D3B
330
18
100
AcDbEntity
  8
1
  6
Continuous
100
AcDbLine
 10
53.76301168607898
 20
173.110094556752
 30
0.0
 11
52.61301163148242
 21
173.110094556752
 31
0.0
  0
ARC
  5
2D3C
330
18
100
AcDbEntity
  8
1
  6
Continuous
100
AcDbCircle
 10
53.06301165285629
 20
172.6100945330033
 30
0.0
 40
0.5000000237487257
100
AcDbArc
 50
90.0
 51
180.0
  0
ARC
  5
2D3D
330
18
100
AcDbEntity
  8
1
  6
Continuous
100
AcDbCircle
 10
52.8630116433568
 20
170.4815963897131
 30
0.0
 40
0.3000000142492341
100
AcDbArc
 50
108.5528884675037
 51
180.0
  0
ARC
  5
2D3E
330
18
100
AcDbEntity
  8
1
  6
Continuous
100
AcDbCircle
 10
52.8630116433568
 20
170.0692717465367
 30
0.0
 40
0.3000000142492332
100
AcDbArc
 50
180.0
 51
270.0000000000032
  0
LINE
  5
2D3F
330
18
100
AcDbEntity
  8
1
  6
Continuous
100
AcDbLine
 10
52.56301162910756
 20
172.6100945330033
 30
0.0
 11
52.56301162910762
 21
170.0692717465367
 31
0.0
  0
LINE
  5
2D40
330
18
100
AcDbEntity
  8
1
  6
Continuous
100
AcDbLine
 10
52.3130116172332
 20
172.8100945425028
 30
0.0
 11
52.3130116172332
 21
171.6600944878807
 31
0.0
  0
ARC
  5
2D41
330
18
100
AcDbEntity
  8
1
  6
Continuous
100
AcDbCircle
 10
52.01301160298395
 20
171.6600944878807
 30
0.0
 40
0.3000000142492396
100
AcDbArc
 50
270.0000000000016
 51
0.0
  0
ARC
  5
2D42
330
18
100
AcDbEntity
  8
1
  6
Continuous
100
AcDbCircle
 10
52.61301163148242
 20
172.8100945425028
 30
0.0
 40
0.3000000142492361
100
AcDbArc
 50
90.0
 51
180.0
  0
LINE
  5
2D43
330
18
100
AcDbEntity
  8
1
  6
Continuous
100
AcDbLine
 10
54.06301170035375
 20
173.4100945710013
 30
0.0
 11
54.06301170035375
 21
173.8100945899558
 31
0.0
  0
LINE
  5
2D44
330
18
100
AcDbEntity
  8
1
  6
Continuous
100
AcDbLine
 10
56.24801180413589
 20
173.6100945805007
 30
0.0
 11
54.03051169881024
 21
169.7692717322875
 31
0.0
  0
ARC
  5
2D45
330
18
100
AcDbEntity
  8
1
  6
Continuous
100
AcDbCircle
 10
53.76301168610449
 20
173.8100945900003
 30
0.0
 40
0.3000000142492359
100
AcDbArc
 50
0.0
 51
90.00000000487721
  0
ARC
  5
2D46
330
18
100
AcDbEntity
  8
1
  6
Continuous
100
AcDbCircle
 10
53.76301168610449
 20
173.4100945710013
 30
0.0
 40
0.3000000142492359
100
AcDbArc
 50
269.9999999951228
 51
0.0
  0
ARC
  5
2D47
330
18
100
AcDbEntity
  8
1
  6
Continuous
100
AcDbCircle
 10
52.8630116433568
 20
177.1509174144648
 30
0.0
 40
0.3000000142492332
100
AcDbArc
 50
89.99999999999511
 51
180.0
  0
ARC
  5
2D48
330
18
100
AcDbEntity
  8
1
  6
Continuous
100
AcDbCircle
 10
52.8630116433568
 20
176.7385927712885
 30
0.0
 40
0.3000000142492341
100
AcDbArc
 50
180.0
 51
251.4471115324947
  0
ARC
  5
2D49
330
18
100
AcDbEntity
  8
1
  6
Continuous
100
AcDbCircle
 10
52.01301160298395
 20
175.5600946731208
 30
0.0
 40
0.3000000142492363
100
AcDbArc
 50
0.0
 51
89.9999999999984
  0
ARC
  5
2D4A
330
18
100
AcDbEntity
  8
1
  6
Continuous
100
AcDbCircle
 10
52.01301160298395
 20
175.5600946731208
 30
0.0
 40
0.3000000142492396
100
AcDbArc
 50
0.0
 51
89.9999999999984
  0
LINE
  5
2D4B
330
18
100
AcDbEntity
  8
1
  6
Continuous
100
AcDbLine
 10
51.31301156973575
 20
174.4100946184986
 30
0.0
 11
51.31301156973575
 21
175.5600946731208
 31
0.0
  0
ARC
  5
2D4C
330
18
100
AcDbEntity
  8
1
  6
Continuous
100
AcDbCircle
 10
51.81301159348446
 20
173.6100945805008
 30
0.0
 40
3.000000142492361
100
AcDbArc
 50
108.553016141775
 51
251.4469838582265
  0
LINE
  5
2D4D
330
18
100
AcDbEntity
  8
1
  6
Continuous
100
AcDbLine
 10
49.59551148815864
 20
177.4509174287143
 30
0.0
 11
47.37801138283294
 21
173.610094580501
 31
0.0
  0
LINE
  5
2D4E
330
18
100
AcDbEntity
  8
4
  6
CENTER
 48
0.2
100
AcDbLine
 10
51.81301159348446
 20
181.010094836987
 30
0.0
 11
51.81301159348446
 21
166.2100943240145
 31
0.0
  0
LINE
  5
2D4F
330
18
100
AcDbEntity
  8
1
  6
Continuous
100
AcDbLine
 10
51.06301155786138
 20
174.6100946279982
 30
0.0
 11
51.06301155786133
 21
177.1509174144648
 31
0.0
  0
LINE
  5
2D50
330
18
100
AcDbEntity
  8
1
  6
Continuous
100
AcDbLine
 10
47.37801138283304
 20
173.6100945805007
 30
0.0
 11
49.59551148815876
 21
169.7692717322874
 31
0.0
  0
LINE
  5
2D51
330
18
100
AcDbEntity
  8
1
  6
Continuous
100
AcDbLine
 10
51.06301155786138
 20
172.6100945330033
 30
0.0
 11
51.06301155786133
 21
170.0692717465367
 31
0.0
  0
ARC
  5
2D52
330
18
100
AcDbEntity
  8
1
  6
Continuous
100
AcDbCircle
 10
51.61301158398497
 20
171.6600944878807
 30
0.0
 40
0.3000000142492396
100
AcDbArc
 50
180.0
 51
269.9999999999983
  0
ARC
  5
2D53
330
18
100
AcDbEntity
  8
1
  6
Continuous
100
AcDbCircle
 10
50.76301154361214
 20
170.4815963897131
 30
0.0
 40
0.3000000142492341
100
AcDbArc
 50
0.0
 51
71.44711153249478
  0
ARC
  5
2D54
330
18
100
AcDbEntity
  8
1
  6
Continuous
100
AcDbCircle
 10
50.76301154361214
 20
170.0692717465367
 30
0.0
 40
0.3000000142492332
100
AcDbArc
 50
269.999999999995
 51
0.0
  0
LINE
  5
2D55
330
18
100
AcDbEntity
  8
1
  6
Continuous
100
AcDbLine
 10
49.86301150088997
 20
173.110094556752
 30
0.0
 11
51.0130115554865
 21
173.110094556752
 31
0.0
  0
ARC
  5
2D56
330
18
100
AcDbEntity
  8
1
  6
Continuous
100
AcDbCircle
 10
50.56301153411265
 20
172.6100945330033
 30
0.0
 40
0.5000000237487257
100
AcDbArc
 50
0.0
 51
90.0
  0
LINE
  5
2D57
330
18
100
AcDbEntity
  8
1
  6
Continuous
100
AcDbLine
 10
51.31301156973575
 20
172.8100945425028
 30
0.0
 11
51.31301156973575
 21
171.6600944878807
 31
0.0
  0
ARC
  5
2D58
330
18
100
AcDbEntity
  8
1
  6
Continuous
100
AcDbCircle
 10
51.0130115554865
 20
172.8100945425028
 30
0.0
 40
0.3000000142492361
100
AcDbArc
 50
0.0
 51
90.0
  0
LINE
  5
2D59
330
18
100
AcDbEntity
  8
1
  6
Continuous
100
AcDbLine
 10
49.56301148661521
 20
173.4100945710013
 30
0.0
 11
49.56301148661521
 21
173.8100945899558
 31
0.0
  0
ARC
  5
2D5A
330
18
100
AcDbEntity
  8
1
  6
Continuous
100
AcDbCircle
 10
49.86301150086443
 20
173.4100945710013
 30
0.0
 40
0.3000000142492359
100
AcDbArc
 50
180.0
 51
270.0000000048771
  0
LINE
  5
2D5B
330
18
100
AcDbEntity
  8
1
  6
Continuous
100
AcDbLine
 10
49.86301150088997
 20
174.1100946042495
 30
0.0
 11
51.0130115554865
 21
174.1100946042495
 31
0.0
  0
ARC
  5
2D5C
330
18
100
AcDbEntity
  8
1
  6
Continuous
100
AcDbCircle
 10
50.56301153411265
 20
174.6100946279982
 30
0.0
 40
0.5000000237487257
100
AcDbArc
 50
270.0
 51
0.0
  0
ARC
  5
2D5D
330
18
100
AcDbEntity
  8
1
  6
Continuous
100
AcDbCircle
 10
49.86301150086443
 20
173.8100945900003
 30
0.0
 40
0.3000000142492359
100
AcDbArc
 50
89.99999999512278
 51
180.0
  0
ARC
  5
2D5E
330
18
100
AcDbEntity
  8
1
  6
Continuous
100
AcDbCircle
 10
51.0130115554865
 20
174.4100946184986
 30
0.0
 40
0.3000000142492361
100
AcDbArc
 50
270.0
 51
0.0
  0
ARC
  5
2D5F
330
18
100
AcDbEntity
  8
1
  6
Continuous
100
AcDbCircle
 10
50.76301154361214
 20
176.7385927712885
 30
0.0
 40
0.3000000142492341
100
AcDbArc
 50
288.5528884675037
 51
0.0
  0
ARC
  5
2D60
330
18
100
AcDbEntity
  8
1
  6
Continuous
100
AcDbCircle
 10
50.76301154361214
 20
177.1509174144648
 30
0.0
 40
0.3000000142492332
100
AcDbArc
 50
0.0
 51
90.00000000000325
  0
ARC
  5
2D61
330
18
100
AcDbEntity
  8
1
  6
Continuous
100
AcDbCircle
 10
51.61301158398497
 20
175.5600946731208
 30
0.0
 40
0.3000000142492396
100
AcDbArc
 50
90.00000000000161
 51
180.0
  0
LINE
  5
2D7B
330
18
100
AcDbEntity
  8
1
  6
Continuous
100
AcDbLine
 10
34.12922951665905
 20
161.1100939867827
 30
0.0
 11
37.49679342991726
 21
161.1100939867827
 31
0.0
  0
LINE
  5
2D7D
330
18
100
AcDbEntity
  8
1
  6
Continuous
100
AcDbLine
 10
33.90400394118137
 20
165.1100941767726
 30
0.0
 11
37.72201900539482
 21
165.1100941767726
 31
0.0
  0
LINE
  5
2D7E
330
18
100
AcDbEntity
  8
1
  6
Continuous
100
AcDbLine
 10
33.81291137829293
 20
164.8598194171563
 30
0.0
 11
33.90400394118137
 21
165.1100941767726
 31
0.0
  0
LINE
  5
2D7F
330
18
100
AcDbEntity
  8
1
  6
Continuous
100
AcDbLine
 10
31.81301032962358
 20
163.1100940817775
 30
0.0
 11
33.81301137829302
 21
163.1100940817775
 31
0.0
  0
LINE
  5
2D80
330
18
100
AcDbEntity
  8
2
  6
Continuous
 48
0.2
100
AcDbLine
 10
31.81301032962358
 20
162.7310939867826
 30
0.0
 11
33.81301137829314
 21
162.7310939867826
 31
0.0
  0
LINE
  5
2D81
330
18
100
AcDbEntity
  8
1
  6
Continuous
100
AcDbLine
 10
33.81301137829302
 20
159.1100938917876
 30
0.0
 11
31.81301032962358
 21
159.1100938917876
 31
0.0
  0
LINE
  5
2D82
330
18
100
AcDbEntity
  8
2
  6
Continuous
 48
0.2
100
AcDbLine
 10
31.81301032962358
 20
159.4890939867826
 30
0.0
 11
33.81301137829314
 21
159.4890939867826
 31
0.0
  0
LINE
  5
2D83
330
18
100
AcDbEntity
  8
1
  6
Continuous
100
AcDbLine
 10
33.90404033820483
 20
157.1099937967926
 30
0.0
 11
33.81291137829293
 21
157.3603685564089
 31
0.0
  0
LINE
  5
2D84
330
18
100
AcDbEntity
  8
1
  6
Continuous
100
AcDbLine
 10
31.81301032962347
 20
159.1100938917876
 30
0.0
 11
31.81301032962347
 21
163.1100940817775
 31
0.0
  0
LINE
  5
2D85
330
18
100
AcDbEntity
  8
1
  6
Continuous
100
AcDbLine
 10
33.81301137829302
 20
157.360093808667
 30
0.0
 11
33.81301137829302
 21
164.8600941648985
 31
0.0
  0
ARC
  5
2D87
330
18
100
AcDbEntity
  8
1
  6
Continuous
100
AcDbCircle
 10
42.89664365330952
 20
159.1100938917868
 30
0.0
 40
8.99263871305442
100
AcDbArc
 50
167.1497208394056
 51
192.8502791605809
  0
ARC
  5
2D89
330
18
100
AcDbEntity
  8
1
  6
Continuous
100
AcDbCircle
 10
42.89664365556257
 20
163.1100940817773
 30
0.0
 40
8.992638715250599
100
AcDbArc
 50
167.149720842603
 51
192.8502791573905
  0
LINE
  5
2D8A
330
18
100
AcDbEntity
  8
1
  6
Continuous
100
AcDbLine
 10
37.81301061460851
 20
166.1100942242699
 30
0.0
 11
38.81301066210596
 21
166.1100942242699
 31
0.0
  0
LINE
  5
2D8B
330
18
100
AcDbEntity
  8
1
  6
Continuous
100
AcDbLine
 10
37.72201900539482
 20
165.1100941767726
 30
0.0
 11
37.81301061460851
 21
164.8600967850981
 31
0.0
  0
LINE
  5
2D8D
330
18
100
AcDbEntity
  8
1
  6
Continuous
100
AcDbLine
 10
38.81301066210596
 20
163.1100940817775
 30
0.0
 11
40.8130110710125
 21
163.1100940817775
 31
0.0
  0
LINE
  5
2D8E
330
18
100
AcDbEntity
  8
2
  6
Continuous
 48
0.2
100
AcDbLine
 10
38.81301066210596
 20
162.7310939867826
 30
0.0
 11
40.8130110710125
 21
162.7310939867826
 31
0.0
  0
LINE
  5
2D90
330
18
100
AcDbEntity
  8
1
  6
Continuous
100
AcDbLine
 10
40.8130110710125
 20
159.1100938917876
 30
0.0
 11
38.81301066210596
 21
159.1100938917876
 31
0.0
  0
LINE
  5
2D91
330
18
100
AcDbEntity
  8
2
  6
Continuous
 48
0.2
100
AcDbLine
 10
38.81301066210596
 20
159.4890939867826
 30
0.0
 11
40.8130110710125
 21
159.4890939867826
 31
0.0
  0
LINE
  5
2D92
330
18
100
AcDbEntity
  8
1
  6
Continuous
100
AcDbLine
 10
33.90400395504243
 20
157.1100937587098
 30
0.0
 11
37.72201900626384
 21
157.1100937991804
 31
0.0
  0
LINE
  5
2D93
330
18
100
AcDbEntity
  8
1
  6
Continuous
100
AcDbLine
 10
38.81301066210596
 20
156.1100937492954
 30
0.0
 11
37.81301061460851
 21
156.1100937492954
 31
0.0
  0
LINE
  5
2D94
330
18
100
AcDbEntity
  8
1
  6
Continuous
100
AcDbLine
 10
37.81301061460851
 20
157.3600911884671
 30
0.0
 11
37.72201822897875
 21
157.110091663607
 31
0.0
  0
LINE
  5
2D96
330
18
100
AcDbEntity
  8
1
  6
Continuous
100
AcDbLine
 10
37.81301061460851
 20
156.1100937492954
 30
0.0
 11
37.81301061460851
 21
166.1100942242699
 31
0.0
  0
ARC
  5
2D97
330
18
100
AcDbEntity
  8
1
  6
Continuous
100
AcDbCircle
 10
28.72937929326667
 20
159.1100938917868
 30
0.0
 40
8.99263871305442
100
AcDbArc
 50
347.1497208394191
 51
12.85027916059433
  0
ARC
  5
2D99
330
18
100
AcDbEntity
  8
1
  6
Continuous
100
AcDbCircle
 10
28.72937929101363
 20
163.1100940817773
 30
0.0
 40
8.992638715250599
100
AcDbArc
 50
347.1497208426078
 51
12.85027915739691
  0
LINE
  5
2D9A
330
18
100
AcDbEntity
  8
1
  6
Continuous
100
AcDbLine
 10
38.81301066210596
 20
156.1100937492954
 30
0.0
 11
38.81301066210596
 21
166.1100942242699
 31
0.0
  0
LINE
  5
2D9D
330
18
100
AcDbEntity
  8
4
  6
CENTER
 48
0.2
100
AcDbLine
 10
28.81301064353562
 20
161.1100939867826
 30
0.0
 11
46.81301121350485
 21
161.1100939867826
 31
0.0
  0
LINE
  5
2D9E
330
18
100
AcDbEntity
  8
4
  6
CENTER
 48
0.2
100
AcDbLine
 10
28.81301064353562
 20
148.6100943467389
 30
0.0
 11
74.78801254224612
 21
148.6100943467389
 31
0.0
  0
LINE
  5
2D9F
330
18
100
AcDbEntity
  8
4
  6
CENTER
 48
0.2
100
AcDbLine
 10
51.81301159348446
 20
116.2100938564907
 30
0.0
 11
51.81301159348446
 21
131.0100943694632
 31
0.0
  0
LINE
  5
2DA1
330
18
100
AcDbEntity
  8
1
  6
Continuous
100
AcDbLine
 10
60.81301202096152
 20
116.1100937567461
 30
0.0
 11
60.81301202096152
 21
131.1100944692078
 31
0.0
  0
LINE
  5
2DA2
330
18
100
AcDbEntity
  8
1
  6
Continuous
100
AcDbLine
 10
42.8130111660074
 20
131.1100944692079
 30
0.0
 11
42.8130111660074
 21
118.110093851741
 31
0.0
  0
LINE
  5
2DA3
330
18
100
AcDbEntity
  8
4
  6
CENTER
 48
0.2
100
AcDbLine
 10
28.81301064353562
 20
136.1100947066951
 30
0.0
 11
46.81301121350485
 21
136.1100947066951
 31
0.0
  0
LINE
  5
2DA4
330
18
100
AcDbEntity
  8
1
  6
Continuous
100
AcDbLine
 10
33.90400394118137
 20
132.1100945167052
 30
0.0
 11
37.72201900539482
 21
132.1100945167052
 31
0.0
  0
LINE
  5
2DA5
330
18
100
AcDbEntity
  8
1
  6
Continuous
100
AcDbLine
 10
34.12922951665905
 20
136.110094706695
 30
0.0
 11
37.49679342991726
 21
136.110094706695
 31
0.0
  0
LINE
  5
2DA7
330
18
100
AcDbEntity
  8
1
  6
Continuous
100
AcDbLine
 10
33.81291137829293
 20
132.3603692763214
 30
0.0
 11
33.90400394118137
 21
132.1100945167052
 31
0.0
  0
LINE
  5
2DA8
330
18
100
AcDbEntity
  8
1
  6
Continuous
100
AcDbLine
 10
31.81301032962358
 20
134.1100946117002
 30
0.0
 11
33.81301137829302
 21
134.1100946117002
 31
0.0
  0
LINE
  5
2DA9
330
18
100
AcDbEntity
  8
2
  6
Continuous
 48
0.2
100
AcDbLine
 10
31.81301032962358
 20
134.4890947066951
 30
0.0
 11
33.81301137829314
 21
134.4890947066951
 31
0.0
  0
LINE
  5
2DAA
330
18
100
AcDbEntity
  8
1
  6
Continuous
100
AcDbLine
 10
33.81301137829302
 20
138.11009480169
 30
0.0
 11
31.81301032962358
 21
138.11009480169
 31
0.0
  0
LINE
  5
2DAB
330
18
100
AcDbEntity
  8
2
  6
Continuous
 48
0.2
100
AcDbLine
 10
31.81301032962358
 20
137.7310947066952
 30
0.0
 11
33.81301137829314
 21
137.7310947066952
 31
0.0
  0
LINE
  5
2DAC
330
18
100
AcDbEntity
  8
1
  6
Continuous
100
AcDbLine
 10
33.90404033820483
 20
140.1101948966851
 30
0.0
 11
33.81291137829293
 21
139.8598201370689
 31
0.0
  0
LINE
  5
2DAD
330
18
100
AcDbEntity
  8
1
  6
Continuous
100
AcDbLine
 10
33.81301137829302
 20
139.8600948848107
 30
0.0
 11
33.81301137829302
 21
132.3600945285792
 31
0.0
  0
ARC
  5
2DAF
330
18
100
AcDbEntity
  8
1
  6
Continuous
100
AcDbCircle
 10
42.89664365330952
 20
138.1100948016909
 30
0.0
 40
8.99263871305442
100
AcDbArc
 50
167.149720839419
 51
192.8502791605943
  0
LINE
  5
2DB0
330
18
100
AcDbEntity
  8
1
  6
Continuous
100
AcDbLine
 10
31.81301032962347
 20
138.11009480169
 30
0.0
 11
31.81301032962347
 21
134.1100946117002
 31
0.0
  0
ARC
  5
2DB2
330
18
100
AcDbEntity
  8
1
  6
Continuous
100
AcDbCircle
 10
42.89664365556257
 20
134.1100946117004
 30
0.0
 40
8.992638715250599
100
AcDbArc
 50
167.1497208426094
 51
192.8502791573969
  0
LINE
  5
2DB3
330
18
100
AcDbEntity
  8
1
  6
Continuous
100
AcDbLine
 10
37.81301061460851
 20
131.1100944692078
 30
0.0
 11
38.81301066210596
 21
131.1100944692078
 31
0.0
  0
LINE
  5
2DB4
330
18
100
AcDbEntity
  8
1
  6
Continuous
100
AcDbLine
 10
37.72201900539482
 20
132.1100945167052
 30
0.0
 11
37.81301061460851
 21
132.3600919083796
 31
0.0
  0
LINE
  5
2DB5
330
18
100
AcDbEntity
  8
1
  6
Continuous
100
AcDbLine
 10
38.81301066210596
 20
134.1100946117002
 30
0.0
 11
40.8130110710125
 21
134.1100946117002
 31
0.0
  0
LINE
  5
2DB6
330
18
100
AcDbEntity
  8
2
  6
Continuous
 48
0.2
100
AcDbLine
 10
38.81301066210596
 20
134.4890947066951
 30
0.0
 11
40.8130110710125
 21
134.4890947066951
 31
0.0
  0
LINE
  5
2DB7
330
18
100
AcDbEntity
  8
1
  6
Continuous
100
AcDbLine
 10
40.8130110710125
 20
138.11009480169
 30
0.0
 11
38.81301066210596
 21
138.11009480169
 31
0.0
  0
LINE
  5
2DB8
330
18
100
AcDbEntity
  8
2
  6
Continuous
 48
0.2
100
AcDbLine
 10
38.81301066210596
 20
137.7310947066952
 30
0.0
 11
40.8130110710125
 21
137.7310947066952
 31
0.0
  0
LINE
  5
2DB9
330
18
100
AcDbEntity
  8
1
  6
Continuous
100
AcDbLine
 10
33.9040039550424
 20
140.1100949347679
 30
0.0
 11
37.72201900626384
 21
140.1100948942974
 31
0.0
  0
LINE
  5
2DBA
330
18
100
AcDbEntity
  8
1
  6
Continuous
100
AcDbLine
 10
38.81301066210596
 20
141.1100949441824
 30
0.0
 11
37.81301061460851
 21
141.1100949441824
 31
0.0
  0
LINE
  5
2DBB
330
18
100
AcDbEntity
  8
1
  6
Continuous
100
AcDbLine
 10
37.81301061460851
 20
139.8600975050107
 30
0.0
 11
37.72201822897875
 21
140.1100970298707
 31
0.0
  0
LINE
  5
2DBC
330
18
100
AcDbEntity
  8
1
  6
Continuous
100
AcDbLine
 10
37.81301061460851
 20
141.1100949441824
 30
0.0
 11
37.81301061460851
 21
131.1100944692078
 31
0.0
  0
ARC
  5
2DBD
330
18
100
AcDbEntity
  8
1
  6
Continuous
100
AcDbCircle
 10
28.72937929326667
 20
138.1100948016909
 30
0.0
 40
8.99263871305442
100
AcDbArc
 50
347.1497208394056
 51
12.8502791605809
  0
ARC
  5
2DBF
330
18
100
AcDbEntity
  8
1
  6
Continuous
100
AcDbCircle
 10
28.72937929101363
 20
134.1100946117004
 30
0.0
 40
8.992638715250599
100
AcDbArc
 50
347.149720842603
 51
12.85027915739215
  0
LINE
  5
2DC0
330
18
100
AcDbEntity
  8
1
  6
Continuous
100
AcDbLine
 10
38.81301066210596
 20
141.1100949441824
 30
0.0
 11
38.81301066210596
 21
131.1100944692078
 31
0.0
  0
LINE
  5
2DC1
330
18
100
AcDbEntity
  8
1
  6
Continuous
100
AcDbLine
 10
40.8130110710125
 20
131.6100935392823
 30
0.0
 11
43.81301121350485
 21
131.6100935392823
 31
0.0
  0
LINE
  5
2DC2
330
18
100
AcDbEntity
  8
1
  6
Continuous
100
AcDbLine
 10
42.8130111660074
 20
131.1100944692079
 30
0.0
 11
43.81301121350485
 21
131.1100944692079
 31
0.0
  0
LINE
  5
2DC4
330
18
100
AcDbEntity
  8
1
  6
Continuous
100
AcDbLine
 10
43.81301121350485
 20
133.1100945642027
 30
0.0
 11
43.31301118975614
 21
133.1100945642027
 31
0.0
  0
LINE
  5
2DC5
330
18
100
AcDbEntity
  8
1
  6
Continuous
100
AcDbLine
 10
43.31301118975614
 20
139.1100948491875
 30
0.0
 11
43.81301121350485
 21
139.1100948491875
 31
0.0
  0
LINE
  5
2DC6
330
18
100
AcDbEntity
  8
1
  6
Continuous
100
AcDbLine
 10
56.81301183097172
 20
131.1100944692079
 30
0.0
 11
71.8130125434335
 21
131.1100944692078
 31
0.0
  0
LINE
  5
2DC7
330
18
100
AcDbEntity
  8
1
  6
Continuous
100
AcDbLine
 10
56.81301183097172
 20
131.6100935392822
 30
0.0
 11
61.81301206845899
 21
131.6100935392822
 31
0.0
  0
LINE
  5
2DC9
330
18
100
AcDbEntity
  8
1
  6
Continuous
100
AcDbLine
 10
56.81301183097172
 20
114.1100927080768
 30
0.0
 11
43.81301121350485
 21
114.1100927080768
 31
0.0
  0
LINE
  5
2DCA
330
18
100
AcDbEntity
  8
4
  6
CENTER
 48
0.2
100
AcDbLine
 10
44.41301133699822
 20
123.610094112977
 30
0.0
 11
59.21301184997071
 21
123.610094112977
 31
0.0
  0
CIRCLE
  5
2DCB
330
18
100
AcDbEntity
  8
1
  6
Continuous
100
AcDbCircle
 10
51.81301159348446
 20
123.610094112977
 30
0.0
 40
5.400000256486245
  0
LINE
  5
2DCC
330
18
100
AcDbEntity
  8
1
  6
Continuous
100
AcDbLine
 10
43.81301121350485
 20
117.1100938042435
 30
0.0
 11
42.8130111660074
 21
118.110093851741
 31
0.0
  0
LINE
  5
2DCD
330
18
100
AcDbEntity
  8
1
  6
Continuous
100
AcDbLine
 10
56.81301183097172
 20
116.1100937567461
 30
0.0
 11
69.80557600092288
 21
116.1100937567461
 31
0.0
  0
LINE
  5
2DCE
330
18
100
AcDbEntity
  8
1
  6
Continuous
100
AcDbLine
 10
66.81301230594624
 20
118.110093851741
 30
0.0
 11
71.80061840987173
 21
118.110093851741
 31
0.0
  0
LINE
  5
2DCF
330
18
100
AcDbEntity
  8
1
  6
Continuous
100
AcDbLine
 10
56.81301183097172
 20
119.6100929693128
 30
0.0
 11
56.81301183097172
 21
114.1100927080768
 31
0.0
  0
ARC
  5
2DD0
330
18
100
AcDbEntity
  8
1
  6
Continuous
100
AcDbCircle
 10
51.81348589694136
 20
123.6100315569517
 30
0.0
 40
5.499505210183941
100
AcDbArc
 50
313.3263950956214
 51
0.000651734807332
  0
ARC
  5
2DD1
330
18
100
AcDbEntity
  8
1
  6
Continuous
100
AcDbCircle
 10
51.81322230954265
 20
123.6100794748586
 30
0.0
 40
5.499767949831642
100
AcDbArc
 50
0.0001524930521355
 51
46.6703256234692
  0
LINE
  5
2DD2
330
18
100
AcDbEntity
  8
1
  6
Continuous
100
AcDbLine
 10
56.81301183097172
 20
127.6100933492924
 30
0.0
 11
55.44068424678812
 21
127.6100933492924
 31
0.0
  0
LINE
  5
2DD3
330
18
100
AcDbEntity
  8
1
  6
Continuous
100
AcDbLine
 10
56.81301183097172
 20
119.6100929693128
 30
0.0
 11
55.44068214367735
 21
119.6100929693128
 31
0.0
  0
ARC
  5
2DD4
330
18
100
AcDbEntity
  8
1
  6
Continuous
100
AcDbCircle
 10
51.61301158398497
 20
121.6600940203569
 30
0.0
 40
0.3000000142492396
100
AcDbArc
 50
180.0
 51
269.9999999999983
  0
ARC
  5
2DD5
330
18
100
AcDbEntity
  8
1
  6
Continuous
100
AcDbCircle
 10
50.76301154361214
 20
120.0692712790129
 30
0.0
 40
0.3000000142492332
100
AcDbArc
 50
269.9999999999967
 51
0.0
  0
ARC
  5
2DD6
330
18
100
AcDbEntity
  8
1
  6
Continuous
100
AcDbCircle
 10
50.76301154361214
 20
120.4815959221893
 30
0.0
 40
0.3000000142492341
100
AcDbArc
 50
0.0
 51
71.44711153249629
  0
ARC
  5
2DD7
330
18
100
AcDbEntity
  8
1
  6
Continuous
100
AcDbCircle
 10
52.01301160298395
 20
121.6600940203569
 30
0.0
 40
0.3000000142492396
100
AcDbArc
 50
270.0000000000016
 51
0.0
  0
ARC
  5
2DD8
330
18
100
AcDbEntity
  8
1
  6
Continuous
100
AcDbCircle
 10
52.01301160298395
 20
121.6600940203569
 30
0.0
 40
0.3000000142492363
100
AcDbArc
 50
270.0000000000016
 51
0.0
  0
ARC
  5
2DD9
330
18
100
AcDbEntity
  8
1
  6
Continuous
100
AcDbCircle
 10
52.8630116433568
 20
120.4815959221893
 30
0.0
 40
0.3000000142492341
100
AcDbArc
 50
108.5528884675052
 51
180.0
  0
ARC
  5
2DDA
330
18
100
AcDbEntity
  8
1
  6
Continuous
100
AcDbCircle
 10
52.8630116433568
 20
120.0692712790129
 30
0.0
 40
0.3000000142492332
100
AcDbArc
 50
180.0
 51
270.0000000000049
  0
LINE
  5
2DDB
330
18
100
AcDbEntity
  8
1
  6
Continuous
100
AcDbLine
 10
49.59551148815886
 20
119.7692712647637
 30
0.0
 11
54.03051169881035
 21
119.7692712647637
 31
0.0
  0
LINE
  5
2DDC
330
18
100
AcDbEntity
  8
1
  6
Continuous
100
AcDbLine
 10
51.61301158398497
 20
121.3600940061077
 30
0.0
 11
52.01301160298395
 21
121.3600940061077
 31
0.0
  0
ARC
  5
2DDD
330
18
100
AcDbEntity
  8
1
  6
Continuous
100
AcDbCircle
 10
51.0130115554865
 20
122.810094074979
 30
0.0
 40
0.3000000142492361
100
AcDbArc
 50
0.0
 51
90.00000000000005
  0
ARC
  5
2DDE
330
18
100
AcDbEntity
  8
1
  6
Continuous
100
AcDbCircle
 10
49.86301150086443
 20
123.4100941034775
 30
0.0
 40
0.3000000142492359
100
AcDbArc
 50
180.0
 51
270.0000000048771
  0
ARC
  5
2DDF
330
18
100
AcDbEntity
  8
1
  6
Continuous
100
AcDbCircle
 10
50.56301153411265
 20
122.6100940654795
 30
0.0
 40
0.5000000237487257
100
AcDbArc
 50
0.0
 51
90.00000000000005
  0
LINE
  5
2DE0
330
18
100
AcDbEntity
  8
1
  6
Continuous
100
AcDbLine
 10
49.86301150088997
 20
123.1100940892282
 30
0.0
 11
51.0130115554865
 21
123.1100940892282
 31
0.0
  0
ARC
  5
2DE1
330
18
100
AcDbEntity
  8
1
  6
Continuous
100
AcDbCircle
 10
49.86301150086443
 20
123.8100941224764
 30
0.0
 40
0.3000000142492359
100
AcDbArc
 50
89.99999999512281
 51
180.0
  0
LINE
  5
2DE2
330
18
100
AcDbEntity
  8
1
  6
Continuous
100
AcDbLine
 10
49.56301148661521
 20
123.8100941224764
 30
0.0
 11
49.56301148661521
 21
123.410094103522
 31
0.0
  0
ARC
  5
2DE3
330
18
100
AcDbEntity
  8
1
  6
Continuous
100
AcDbCircle
 10
51.0130115554865
 20
124.4100941509749
 30
0.0
 40
0.3000000142492361
100
AcDbArc
 50
270.0
 51
0.0
  0
LINE
  5
2DE4
330
18
100
AcDbEntity
  8
1
  6
Continuous
100
AcDbLine
 10
51.31301156973575
 20
124.4100941509749
 30
0.0
 11
51.31301156973575
 21
125.560094205597
 31
0.0
  0
ARC
  5
2DE5
330
18
100
AcDbEntity
  8
1
  6
Continuous
100
AcDbCircle
 10
50.56301153411265
 20
124.6100941604744
 30
0.0
 40
0.5000000237487257
100
AcDbArc
 50
270.0
 51
0.0
  0
LINE
  5
2DE6
330
18
100
AcDbEntity
  8
1
  6
Continuous
100
AcDbLine
 10
49.86301150088997
 20
124.1100941367257
 30
0.0
 11
51.0130115554865
 21
124.1100941367257
 31
0.0
  0
ARC
  5
2DE7
330
18
100
AcDbEntity
  8
1
  6
Continuous
100
AcDbCircle
 10
50.76301154361214
 20
127.150916946941
 30
0.0
 40
0.3000000142492332
100
AcDbArc
 50
0.0
 51
90.0000000000049
  0
ARC
  5
2DE8
330
18
100
AcDbEntity
  8
1
  6
Continuous
100
AcDbCircle
 10
50.76301154361214
 20
126.7385923037646
 30
0.0
 40
0.3000000142492341
100
AcDbArc
 50
288.5528884675051
 51
0.0
  0
ARC
  5
2DE9
330
18
100
AcDbEntity
  8
1
  6
Continuous
100
AcDbCircle
 10
51.61301158398497
 20
125.560094205597
 30
0.0
 40
0.3000000142492396
100
AcDbArc
 50
90.00000000000161
 51
180.0
  0
LINE
  5
2DEA
330
18
100
AcDbEntity
  8
1
  6
Continuous
100
AcDbLine
 10
51.06301155786138
 20
124.6100941604744
 30
0.0
 11
51.06301155786133
 21
127.150916946941
 31
0.0
  0
LINE
  5
2DEB
330
18
100
AcDbEntity
  8
1
  6
Continuous
100
AcDbLine
 10
47.37801138283304
 20
123.610094112977
 30
0.0
 11
49.59551148815876
 21
127.4509169611903
 31
0.0
  0
ARC
  5
2DEC
330
18
100
AcDbEntity
  8
1
  6
Continuous
100
AcDbCircle
 10
53.76301168610449
 20
123.8100941224764
 30
0.0
 40
0.3000000142492359
100
AcDbArc
 50
0.0
 51
90.00000000487721
  0
ARC
  5
2DED
330
18
100
AcDbEntity
  8
1
  6
Continuous
100
AcDbCircle
 10
53.76301168610449
 20
123.4100941034775
 30
0.0
 40
0.3000000142492359
100
AcDbArc
 50
269.9999999951228
 51
0.0
  0
LINE
  5
2DEE
330
18
100
AcDbEntity
  8
1
  6
Continuous
100
AcDbLine
 10
54.06301170035375
 20
123.8100941224764
 30
0.0
 11
54.06301170035375
 21
123.410094103522
 31
0.0
  0
ARC
  5
2DEF
330
18
100
AcDbEntity
  8
1
  6
Continuous
100
AcDbCircle
 10
52.61301163148242
 20
124.4100941509749
 30
0.0
 40
0.3000000142492361
100
AcDbArc
 50
180.0
 51
270.0
  0
ARC
  5
2DF0
330
18
100
AcDbEntity
  8
1
  6
Continuous
100
AcDbCircle
 10
52.01301160298395
 20
125.560094205597
 30
0.0
 40
0.3000000142492396
100
AcDbArc
 50
0.0
 51
89.99999999999838
  0
LINE
  5
2DF1
330
18
100
AcDbEntity
  8
1
  6
Continuous
100
AcDbLine
 10
52.3130116172332
 20
124.4100941509749
 30
0.0
 11
52.3130116172332
 21
125.560094205597
 31
0.0
  0
LINE
  5
2DF2
330
18
100
AcDbEntity
  8
1
  6
Continuous
100
AcDbLine
 10
52.56301162910756
 20
124.6100941604744
 30
0.0
 11
52.56301162910762
 21
127.150916946941
 31
0.0
  0
ARC
  5
2DF3
330
18
100
AcDbEntity
  8
1
  6
Continuous
100
AcDbCircle
 10
52.8630116433568
 20
127.150916946941
 30
0.0
 40
0.3000000142492332
100
AcDbArc
 50
89.99999999999676
 51
180.0
  0
ARC
  5
2DF4
330
18
100
AcDbEntity
  8
1
  6
Continuous
100
AcDbCircle
 10
52.8630116433568
 20
126.7385923037646
 30
0.0
 40
0.3000000142492341
100
AcDbArc
 50
180.0
 51
251.4471115324962
  0
ARC
  5
2DF5
330
18
100
AcDbEntity
  8
1
  6
Continuous
100
AcDbCircle
 10
53.06301165285629
 20
124.6100941604744
 30
0.0
 40
0.5000000237487257
100
AcDbArc
 50
180.0
 51
270.0
  0
LINE
  5
2DF6
330
18
100
AcDbEntity
  8
1
  6
Continuous
100
AcDbLine
 10
53.76301168607898
 20
124.1100941367257
 30
0.0
 11
52.61301163148242
 21
124.1100941367257
 31
0.0
  0
LINE
  5
2DF7
330
18
100
AcDbEntity
  8
1
  6
Continuous
100
AcDbLine
 10
53.76301168607898
 20
123.1100940892282
 30
0.0
 11
52.61301163148242
 21
123.1100940892282
 31
0.0
  0
ARC
  5
2DF8
330
18
100
AcDbEntity
  8
1
  6
Continuous
100
AcDbCircle
 10
53.06301165285629
 20
122.6100940654795
 30
0.0
 40
0.5000000237487257
100
AcDbArc
 50
90.00000000000005
 51
180.0
  0
ARC
  5
2DF9
330
18
100
AcDbEntity
  8
1
  6
Continuous
100
AcDbCircle
 10
52.61301163148242
 20
122.810094074979
 30
0.0
 40
0.3000000142492361
100
AcDbArc
 50
90.00000000000005
 51
180.0
  0
ARC
  5
2DFA
330
18
100
AcDbEntity
  8
1
  6
Continuous
100
AcDbCircle
 10
52.01301160298395
 20
125.560094205597
 30
0.0
 40
0.3000000142492363
100
AcDbArc
 50
0.0
 51
89.99999999999838
  0
LINE
  5
2DFB
330
18
100
AcDbEntity
  8
1
  6
Continuous
100
AcDbLine
 10
49.59551148815886
 20
127.4509169611903
 30
0.0
 11
54.03051169881024
 21
127.4509169611903
 31
0.0
  0
LINE
  5
2DFC
330
18
100
AcDbEntity
  8
1
  6
Continuous
100
AcDbLine
 10
51.61301158398497
 20
125.8600942198462
 30
0.0
 11
52.01301160298395
 21
125.8600942198462
 31
0.0
  0
LINE
  5
2DFD
330
18
100
AcDbEntity
  8
1
  6
Continuous
100
AcDbLine
 10
56.24801180413589
 20
123.610094112977
 30
0.0
 11
54.03051169881024
 21
127.4509169611903
 31
0.0
  0
LINE
  5
2DFE
330
18
100
AcDbEntity
  8
1
  6
Continuous
100
AcDbLine
 10
51.06301155786138
 20
122.6100940654795
 30
0.0
 11
51.06301155786133
 21
120.0692712790129
 31
0.0
  0
LINE
  5
2DFF
330
18
100
AcDbEntity
  8
1
  6
Continuous
100
AcDbLine
 10
49.59551148815864
 20
119.7692712647635
 30
0.0
 11
47.37801138283294
 21
123.6100941129768
 31
0.0
  0
ARC
  5
2E00
330
18
100
AcDbEntity
  8
1
  6
Continuous
100
AcDbCircle
 10
51.81301159348446
 20
123.610094112977
 30
0.0
 40
3.000000142492361
100
AcDbArc
 50
108.5530161417734
 51
251.4469838582249
  0
LINE
  5
2E01
330
18
100
AcDbEntity
  8
1
  6
Continuous
100
AcDbLine
 10
51.31301156973575
 20
122.810094074979
 30
0.0
 11
51.31301156973575
 21
121.6600940203569
 31
0.0
  0
ARC
  5
2E02
330
18
100
AcDbEntity
  8
1
  6
Continuous
100
AcDbCircle
 10
51.81301159348446
 20
123.610094112977
 30
0.0
 40
3.000000142492361
100
AcDbArc
 50
288.5530161417749
 51
71.44698385822656
  0
LINE
  5
2E03
330
18
100
AcDbEntity
  8
1
  6
Continuous
100
AcDbLine
 10
52.56301162910756
 20
122.6100940654795
 30
0.0
 11
52.56301162910762
 21
120.0692712790129
 31
0.0
  0
LINE
  5
2E04
330
18
100
AcDbEntity
  8
1
  6
Continuous
100
AcDbLine
 10
52.3130116172332
 20
122.810094074979
 30
0.0
 11
52.3130116172332
 21
121.6600940203569
 31
0.0
  0
LINE
  5
2E05
330
18
100
AcDbEntity
  8
1
  6
Continuous
100
AcDbLine
 10
54.03051169881035
 20
119.7692712647637
 30
0.0
 11
56.24801180413601
 21
123.6100941129768
 31
0.0
  0
ARC
  5
2E06
330
18
100
AcDbEntity
  8
1
  6
Continuous
100
AcDbCircle
 10
66.8130200572121
 20
111.8100757077529
 30
0.0
 40
6.300018143992816
100
AcDbArc
 50
90.00007049421212
 51
136.9575065206609
  0
LINE
  5
2E0B
330
18
100
AcDbEntity
  8
1
  6
Continuous
100
AcDbLine
 10
71.78801254224605
 20
118.0850938505536
 30
0.0
 11
69.81291244843863
 21
116.1099937567461
 31
0.0
  0
LINE
  5
2E0D
330
18
100
AcDbEntity
  8
4
  6
CENTER
 48
0.2
100
AcDbLine
 10
66.81301107081464
 20
186.1100959853515
 30
0.0
 11
66.81301107155643
 21
111.1100927080274
 31
0.0
  0
LINE
  5
2E10
330
18
100
AcDbEntity
  8
4
  6
CENTER
 48
0.15
100
AcDbLine
 10
213.6438399136137
 20
173.6100945805009
 30
0.0
 11
203.8438394006413
 21
173.6100945805008
 31
0.0
  0
LINE
  5
2E11
330
18
100
AcDbEntity
  8
4
  6
CENTER
 48
0.15
100
AcDbLine
 10
208.7438396571274
 20
178.510094836987
 30
0.0
 11
208.7438396571275
 21
168.7100943240146
 31
0.0
  0
ARC
  5
2E14
330
18
100
AcDbEntity
  8
1
  6
Continuous
100
AcDbCircle
 10
135.9945569684154
 20
47.72923620390769
 30
0.0
 40
3.500000166241078
100
AcDbArc
 50
270.0
 51
334.6230664748482
  0
LINE
  5
2E15
330
18
100
AcDbEntity
  8
1
  6
Continuous
100
AcDbLine
 10
118.49455613721
 20
44.22923603766661
 30
0.0
 11
118.49455613721
 21
46.72923615641024
 31
0.0
  0
LINE
  5
2E16
330
18
100
AcDbEntity
  8
4
  6
CENTER
 48
0.2
100
AcDbLine
 10
125.4945564696922
 20
32.22923561018962
 30
0.0
 11
125.4945564696922
 21
50.22923618015898
 31
0.0
  0
LINE
  5
2E17
330
18
100
AcDbEntity
  8
4
  6
CENTER
 48
0.2
100
AcDbLine
 10
134.5195568745148
 20
61.94945922948175
 30
0.0
 11
134.5195568745148
 21
79.21260021110288
 31
0.0
  0
LINE
  5
2E18
330
18
100
AcDbEntity
  8
1
  6
Continuous
100
AcDbLine
 10
131.5195567320224
 20
65.62489128061677
 30
0.0
 11
131.5195567320224
 21
70.22923727260035
 31
0.0
  0
LINE
  5
2E19
330
18
100
AcDbEntity
  8
1
  6
Continuous
100
AcDbLine
 10
137.489847851054
 20
70.65039326465421
 30
0.0
 11
138.5195570645046
 21
63.38815304282633
 31
0.0
  0
LINE
  5
2E1A
330
18
100
AcDbEntity
  8
1
  6
Continuous
100
AcDbLine
 10
139.4700418354129
 20
70.93116392602869
 30
0.0
 11
140.5195571594996
 21
63.52923695436743
 31
0.0
  0
ARC
  5
2E1B
330
18
100
AcDbEntity
  8
1
  6
Continuous
100
AcDbCircle
 10
135.8195569362615
 20
70.22923727260033
 30
0.0
 40
6.300000299233942
100
AcDbArc
 50
179.9999999999996
 51
252.4473118400192
  0
LINE
  5
2E1C
330
18
100
AcDbEntity
  8
4
  6
CENTER
 48
0.2
100
AcDbLine
 10
126.0776812695244
 20
70.22923727260035
 30
0.0
 11
145.2434876863577
 21
70.22923727260035
 31
0.0
  0
ARC
  5
2E1D
330
18
100
AcDbEntity
  8
1
  6
Continuous
100
AcDbCircle
 10
134.5195568745148
 20
70.22923727260035
 30
0.0
 40
3.000000142492423
100
AcDbArc
 50
8.07014389350992
 51
94.03505541353856
  0
ARC
  5
2E1E
330
18
100
AcDbEntity
  8
1
  6
Continuous
100
AcDbCircle
 10
134.5195568745148
 20
70.22923727260035
 30
0.0
 40
5.000000237487281
100
AcDbArc
 50
8.070143893560656
 51
179.9999999999996
  0
ARC
  5
2E1F
330
18
100
AcDbEntity
  8
1
  6
Continuous
100
AcDbCircle
 10
134.5195568745148
 20
70.22923727260035
 30
0.0
 40
3.000000142492385
100
AcDbArc
 50
94.03505541353856
 51
179.9999999999996
  0
LINE
  5
2E20
330
18
100
AcDbEntity
  8
4
  6
CENTER
 48
0.2
100
AcDbLine
 10
124.5695564728819
 20
55.22923656013858
 30
0.0
 11
143.5195571594995
 21
55.22923656013858
 31
0.0
  0
LINE
  5
2E21
330
18
100
AcDbEntity
  8
1
  6
Continuous
100
AcDbLine
 10
128.4945566121845
 20
47.22923618015896
 30
0.0
 11
122.4945563271998
 21
47.22923618015896
 31
0.0
  0
LINE
  5
2E22
330
18
100
AcDbEntity
  8
1
  6
Continuous
100
AcDbLine
 10
135.9945569684154
 20
46.72923615641024
 30
0.0
 11
118.49455613721
 21
46.72923615641024
 31
0.0
  0
LINE
  5
2E23
330
18
100
AcDbEntity
  8
1
  6
Continuous
100
AcDbLine
 10
122.4945563271998
 20
46.72923615641024
 30
0.0
 11
122.4945563271998
 21
47.22923618015896
 31
0.0
  0
ARC
  5
2E24
330
18
100
AcDbEntity
  8
1
  6
Continuous
100
AcDbCircle
 10
127.8695564871312
 20
56.27923661001091
 30
0.0
 40
0.3000000142492144
100
AcDbArc
 50
180.0
 51
264.7165228005806
  0
LINE
  5
2E25
330
18
100
AcDbEntity
  8
1
  6
Continuous
100
AcDbLine
 10
132.1195567843628
 20
60.22923679762584
 30
0.0
 11
132.1195567843628
 21
47.22923618015896
 31
0.0
  0
LINE
  5
2E26
330
18
100
AcDbEntity
  8
1
  6
Continuous
100
AcDbLine
 10
135.1195569268551
 20
60.22923679762584
 30
0.0
 11
135.1195569268551
 21
47.22923618015896
 31
0.0
  0
LINE
  5
2E27
330
18
100
AcDbEntity
  8
1
  6
Continuous
100
AcDbLine
 10
137.1195569980082
 20
61.22923684512329
 30
0.0
 11
137.1195569980082
 21
46.22923613266152
 31
0.0
  0
LINE
  5
2E28
330
18
100
AcDbEntity
  8
1
  6
Continuous
100
AcDbLine
 10
140.5195571594995
 20
63.5292369543675
 30
0.0
 11
140.5195571594996
 21
46.22923613266152
 31
0.0
  0
LINE
  5
2E29
330
18
100
AcDbEntity
  8
1
  6
Continuous
100
AcDbLine
 10
138.5195570645046
 20
63.38815304282633
 30
0.0
 11
138.5195570645046
 21
48.22923622765642
 31
0.0
  0
LINE
  5
2E2A
330
18
100
AcDbEntity
  8
1
  6
Continuous
100
AcDbLine
 10
131.9695566818382
 20
60.32923679609108
 30
0.0
 11
131.9695566818382
 21
50.12923632628052
 31
0.0
  0
LINE
  5
2E2B
330
18
100
AcDbEntity
  8
1
  6
Continuous
100
AcDbLine
 10
131.5695566628717
 20
49.82923630365235
 30
0.0
 11
131.5695566628717
 21
60.62923681662482
 31
0.0
  0
LINE
  5
2E2C
330
18
100
AcDbEntity
  8
1
  6
Continuous
100
AcDbLine
 10
135.1195569268551
 20
59.72923677387711
 30
0.0
 11
137.1195570513223
 21
59.72923677387711
 31
0.0
  0
ARC
  5
2E2D
330
18
100
AcDbEntity
  8
1
  6
Continuous
100
AcDbCircle
 10
134.1195568555158
 20
61.22923684512329
 30
0.0
 40
3.000000142492363
100
AcDbArc
 50
0.0
 51
93.82199798903689
  0
ARC
  5
2E2E
330
18
100
AcDbEntity
  8
1
  6
Continuous
100
AcDbCircle
 10
127.7921733414365
 20
57.14279603775161
 30
0.0
 40
0.2231396536399462
100
AcDbArc
 50
122.4875625548113
 51
176.077204442266
  0
ARC
  5
2E2F
330
18
100
AcDbEntity
  8
1
  6
Continuous
100
AcDbCircle
 10
128.04006442829
 20
56.80831740344422
 30
0.0
 40
0.6391000987429787
100
AcDbArc
 50
87.3550757622304
 51
125.1281845699506
  0
LINE
  5
2E30
330
18
100
AcDbEntity
  8
1
  6
Continuous
100
AcDbLine
 10
131.9695566818549
 20
57.77923667706756
 30
0.0
 11
132.1195566889953
 21
57.77923667706756
 31
0.0
  0
LINE
  5
2E31
330
18
100
AcDbEntity
  8
1
  6
Continuous
100
AcDbLine
 10
131.9695566818547
 20
56.97353937108369
 30
0.0
 11
132.1195566889953
 21
56.97353937108369
 31
0.0
  0
LINE
  5
2E32
330
18
100
AcDbEntity
  8
1
  6
Continuous
100
AcDbLine
 10
131.9695566818707
 20
56.25529703885092
 30
0.0
 11
132.1195566889953
 21
56.25529703885092
 31
0.0
  0
LINE
  5
2E33
330
18
100
AcDbEntity
  8
1
  6
Continuous
100
AcDbLine
 10
128.0695564966306
 20
57.44673666546418
 30
0.0
 11
131.5695566628717
 21
57.44673666546418
 31
0.0
  0
LINE
  5
2E34
330
18
100
AcDbEntity
  8
1
  6
Continuous
100
AcDbLine
 10
134.1195568555159
 20
64.22923698761564
 30
0.0
 11
133.8986195737919
 21
64.22923698761568
 31
0.0
  0
LINE
  5
2E35
330
18
100
AcDbEntity
  8
1
  6
Continuous
100
AcDbLine
 10
135.1195569268551
 20
60.22923679762584
 30
0.0
 11
132.1195567843628
 21
60.22923679762584
 31
0.0
  0
LINE
  5
2E36
330
18
100
AcDbEntity
  8
1
  6
Continuous
100
AcDbLine
 10
136.9945570159128
 20
59.72923677387711
 30
0.0
 11
136.9945570159128
 21
62.08619363088974
 31
0.0
  0
ARC
  5
2E37
330
18
100
AcDbEntity
  8
1
  6
Continuous
100
AcDbCircle
 10
128.1147659319747
 20
59.11990274175536
 30
0.0
 40
0.5462082278847955
100
AcDbArc
 50
94.74778020686121
 51
183.4654304949181
  0
LINE
  5
2E38
330
18
100
AcDbEntity
  8
1
  6
Continuous
100
AcDbLine
 10
131.6695566676215
 20
60.62923681662482
 30
0.0
 11
131.5695566628717
 21
60.62923681662482
 31
0.0
  0
LINE
  5
2E39
330
18
100
AcDbEntity
  8
1
  6
Continuous
100
AcDbLine
 10
131.9695566818551
 20
60.02166914590095
 30
0.0
 11
132.1195566889953
 21
60.02166914590095
 31
0.0
  0
LINE
  5
2E3A
330
18
100
AcDbEntity
  8
1
  6
Continuous
100
AcDbLine
 10
131.9695566818551
 20
60.25175633080602
 30
0.0
 11
132.1195566889953
 21
60.25175633080602
 31
0.0
  0
LINE
  5
2E3B
330
18
100
AcDbEntity
  8
1
  6
Continuous
100
AcDbLine
 10
131.9695566818382
 20
60.32923679609108
 30
0.0
 11
132.1195566889953
 21
60.32923679609108
 31
0.0
  0
ARC
  5
2E3C
330
18
100
AcDbEntity
  8
1
  6
Continuous
100
AcDbCircle
 10
131.6695566676215
 20
60.32923680237558
 30
0.0
 40
0.3000000142492445
100
AcDbArc
 50
0.0004207895298466
 51
89.99999999999676
  0
LINE
  5
2E3D
330
18
100
AcDbEntity
  8
1
  6
Continuous
100
AcDbLine
 10
131.9695566818546
 20
59.13606339919062
 30
0.0
 11
132.1195566889953
 21
59.13606339919062
 31
0.0
  0
LINE
  5
2E3E
330
18
100
AcDbEntity
  8
1
  6
Continuous
100
AcDbLine
 10
131.9695566818549
 20
58.50745351986074
 30
0.0
 11
132.1195566889953
 21
58.50745351986074
 31
0.0
  0
LINE
  5
2E3F
330
18
100
AcDbEntity
  8
1
  6
Continuous
100
AcDbLine
 10
131.9695566818546
 20
59.6459663219664
 30
0.0
 11
132.1195566889953
 21
59.6459663219664
 31
0.0
  0
LINE
  5
2E40
330
18
100
AcDbEntity
  8
1
  6
Continuous
100
AcDbLine
 10
128.0695564966306
 20
59.6642367707899
 30
0.0
 11
131.5695566628716
 21
59.66423677078978
 31
0.0
  0
LINE
  5
2E41
330
18
100
AcDbEntity
  8
1
  6
Continuous
100
AcDbLine
 10
127.5695564728819
 20
59.08688647417712
 30
0.0
 11
127.5695564728819
 21
56.27923661001091
 31
0.0
  0
LINE
  5
2E42
330
18
100
AcDbEntity
  8
1
  6
Continuous
100
AcDbLine
 10
138.5195570645046
 20
63.38815304282629
 30
0.0
 11
140.5195571594995
 21
63.52923695436743
 31
0.0
  0
LINE
  5
2E43
330
18
100
AcDbEntity
  8
1
  6
Continuous
100
AcDbLine
 10
137.1195570309571
 20
50.72923634640005
 30
0.0
 11
135.1195569268551
 21
50.72923634640005
 31
0.0
  0
ARC
  5
2E44
330
18
100
AcDbEntity
  8
1
  6
Continuous
100
AcDbCircle
 10
135.9945569684154
 20
47.72923620390769
 30
0.0
 40
1.000000047497449
100
AcDbArc
 50
270.0000000000016
 51
0.0000000000004211
  0
LINE
  5
2E45
330
18
100
AcDbEntity
  8
1
  6
Continuous
100
AcDbLine
 10
130.0695565916257
 20
55.97923659576167
 30
0.0
 11
130.0695565916257
 21
54.47923652451549
 31
0.0
  0
LINE
  5
2E46
330
18
100
AcDbEntity
  8
1
  6
Continuous
100
AcDbLine
 10
131.9695566818547
 20
55.22923656013858
 30
0.0
 11
132.1195566889953
 21
55.22923656013858
 31
0.0
  0
ARC
  5
2E47
330
18
100
AcDbEntity
  8
1
  6
Continuous
100
AcDbCircle
 10
127.9963334663904
 20
174.7419010694749
 30
0.0
 40
118.7614756132008
100
AcDbArc
 50
269.9254324488034
 51
270.0353260250429
  0
LINE
  5
2E48
330
18
100
AcDbEntity
  8
1
  6
Continuous
100
AcDbLine
 10
127.9642647149716
 20
55.97923659576167
 30
0.0
 11
127.8695564871312
 21
55.97923659576167
 31
0.0
  0
LINE
  5
2E49
330
18
100
AcDbEntity
  8
1
  6
Continuous
100
AcDbLine
 10
127.8695564871312
 20
55.97923659576167
 30
0.0
 11
127.8695564871312
 21
55.98057301874114
 31
0.0
  0
LINE
  5
2E4A
330
18
100
AcDbEntity
  8
1
  6
Continuous
100
AcDbLine
 10
128.0695564936342
 20
55.98043405517852
 30
0.0
 11
128.0695564938698
 21
55.97923659576167
 31
0.0
  0
LINE
  5
2E4B
330
18
100
AcDbEntity
  8
1
  6
Continuous
100
AcDbLine
 10
131.9695566818547
 20
56.11484230684874
 30
0.0
 11
132.1195566889953
 21
56.11484230684874
 31
0.0
  0
LINE
  5
2E4C
330
18
100
AcDbEntity
  8
1
  6
Continuous
100
AcDbLine
 10
130.0695565916257
 20
55.97923659576167
 30
0.0
 11
128.0695564966306
 21
55.97923659576167
 31
0.0
  0
LINE
  5
2E4D
330
18
100
AcDbEntity
  8
1
  6
Continuous
100
AcDbLine
 10
136.9945570159128
 20
47.72923620390769
 30
0.0
 11
136.9945570159128
 21
50.72923634640005
 31
0.0
  0
LINE
  5
2E4E
330
18
100
AcDbEntity
  8
1
  6
Continuous
100
AcDbLine
 10
128.4945566121845
 20
47.22923618015896
 30
0.0
 11
128.4945566121845
 21
46.72923615641024
 31
0.0
  0
LINE
  5
2E4F
330
18
100
AcDbEntity
  8
1
  6
Continuous
100
AcDbLine
 10
135.1195569268551
 20
47.22923618015896
 30
0.0
 11
132.1195567843628
 21
47.22923618015896
 31
0.0
  0
LINE
  5
2E50
330
18
100
AcDbEntity
  8
1
  6
Continuous
100
AcDbLine
 10
127.5695564728819
 20
51.37158664610007
 30
0.0
 11
127.5695564728819
 21
54.17923651026626
 31
0.0
  0
ARC
  5
2E51
330
18
100
AcDbEntity
  8
1
  6
Continuous
100
AcDbCircle
 10
127.8695564871312
 20
54.17923651026626
 30
0.0
 40
0.3000000142492144
100
AcDbArc
 50
95.28347719941944
 51
180.0
  0
LINE
  5
2E52
330
18
100
AcDbEntity
  8
1
  6
Continuous
100
AcDbLine
 10
128.0695564936342
 20
54.47803906509864
 30
0.0
 11
128.0695564938698
 21
54.47923652451549
 31
0.0
  0
LINE
  5
2E53
330
18
100
AcDbEntity
  8
1
  6
Continuous
100
AcDbLine
 10
127.8695564871312
 20
54.47923652451549
 30
0.0
 11
127.8695564871312
 21
54.47790010153603
 31
0.0
  0
LINE
  5
2E54
330
18
100
AcDbEntity
  8
1
  6
Continuous
100
AcDbLine
 10
127.9642647149716
 20
54.47923652451549
 30
0.0
 11
127.8695564871312
 21
54.47923652451549
 31
0.0
  0
ARC
  5
2E55
330
18
100
AcDbEntity
  8
1
  6
Continuous
100
AcDbCircle
 10
127.9963334663904
 20
-64.28342794919775
 30
0.0
 40
118.7614756132008
100
AcDbArc
 50
89.96467397495704
 51
90.07456755119664
  0
ARC
  5
2E56
330
18
100
AcDbEntity
  8
1
  6
Continuous
100
AcDbCircle
 10
127.7921733414365
 20
53.31567708252554
 30
0.0
 40
0.2231396536399462
100
AcDbArc
 50
183.9227955577323
 51
237.5124374451882
  0
ARC
  5
2E57
330
18
100
AcDbEntity
  8
1
  6
Continuous
100
AcDbCircle
 10
128.04006442829
 20
53.65015571683295
 30
0.0
 40
0.6391000987429787
100
AcDbArc
 50
234.8718154300494
 51
272.6449242377696
  0
ARC
  5
2E58
330
18
100
AcDbEntity
  8
1
  6
Continuous
100
AcDbCircle
 10
128.1147659319747
 20
51.33857037852179
 30
0.0
 40
0.5462082278847955
100
AcDbArc
 50
176.5345695050802
 51
265.2522197931387
  0
LINE
  5
2E59
330
18
100
AcDbEntity
  8
1
  6
Continuous
100
AcDbLine
 10
131.5695566628717
 20
49.82923630365235
 30
0.0
 11
131.6695566676215
 21
49.82923630365235
 31
0.0
  0
LINE
  5
2E5A
330
18
100
AcDbEntity
  8
1
  6
Continuous
100
AcDbLine
 10
131.9695566818707
 20
54.70829200239433
 30
0.0
 11
132.1195566889953
 21
54.70829200239433
 31
0.0
  0
LINE
  5
2E5B
330
18
100
AcDbEntity
  8
1
  6
Continuous
100
AcDbLine
 10
131.9695566818547
 20
54.34363081342843
 30
0.0
 11
132.1195566889953
 21
54.34363081342843
 31
0.0
  0
LINE
  5
2E5C
330
18
100
AcDbEntity
  8
1
  6
Continuous
100
AcDbLine
 10
131.9695566818545
 20
53.4849337491935
 30
0.0
 11
132.1195566889953
 21
53.4849337491935
 31
0.0
  0
LINE
  5
2E5D
330
18
100
AcDbEntity
  8
1
  6
Continuous
100
AcDbLine
 10
131.9695566818545
 20
52.67923644320962
 30
0.0
 11
132.1195566889953
 21
52.67923644320962
 31
0.0
  0
LINE
  5
2E5E
330
18
100
AcDbEntity
  8
1
  6
Continuous
100
AcDbLine
 10
131.969556681855
 20
51.95101960041643
 30
0.0
 11
132.1195566889953
 21
51.95101960041643
 31
0.0
  0
LINE
  5
2E5F
330
18
100
AcDbEntity
  8
1
  6
Continuous
100
AcDbLine
 10
131.969556681855
 20
51.32240972108627
 30
0.0
 11
132.1195566889953
 21
51.32240972108627
 31
0.0
  0
LINE
  5
2E60
330
18
100
AcDbEntity
  8
1
  6
Continuous
100
AcDbLine
 10
131.969556681855
 20
50.81250679831089
 30
0.0
 11
132.1195566889953
 21
50.81250679831089
 31
0.0
  0
LINE
  5
2E61
330
18
100
AcDbEntity
  8
1
  6
Continuous
100
AcDbLine
 10
131.969556681855
 20
50.43680397437629
 30
0.0
 11
132.1195566889953
 21
50.43680397437629
 31
0.0
  0
LINE
  5
2E62
330
18
100
AcDbEntity
  8
1
  6
Continuous
100
AcDbLine
 10
131.9695566818545
 20
50.20671678947116
 30
0.0
 11
132.1195566889953
 21
50.20671678947116
 31
0.0
  0
LINE
  5
2E63
330
18
100
AcDbEntity
  8
1
  6
Continuous
100
AcDbLine
 10
131.9695566818382
 20
50.12923632628052
 30
0.0
 11
132.1195566889953
 21
50.12923632628059
 31
0.0
  0
ARC
  5
2E64
330
18
100
AcDbEntity
  8
1
  6
Continuous
100
AcDbCircle
 10
131.6695566676215
 20
50.12923631790158
 30
0.0
 40
0.3000000142492445
100
AcDbArc
 50
270.0000000000032
 51
0.0
  0
LINE
  5
2E65
330
18
100
AcDbEntity
  8
1
  6
Continuous
100
AcDbLine
 10
130.0695565916257
 20
54.47923652451549
 30
0.0
 11
128.0695564966306
 21
54.47923652451549
 31
0.0
  0
LINE
  5
2E66
330
18
100
AcDbEntity
  8
1
  6
Continuous
100
AcDbLine
 10
128.0695564966306
 20
53.01173645481298
 30
0.0
 11
131.5695566628717
 21
53.01173645481298
 31
0.0
  0
LINE
  5
2E67
330
18
100
AcDbEntity
  8
1
  6
Continuous
100
AcDbLine
 10
128.0695564966306
 20
50.79423634948728
 30
0.0
 11
131.5695566628716
 21
50.79423634948739
 31
0.0
  0
LINE
  5
2E68
330
18
100
AcDbEntity
  8
1
  6
Continuous
100
AcDbLine
 10
140.5195571594996
 20
46.22923613266152
 30
0.0
 11
137.1195569980082
 21
46.22923613266152
 31
0.0
  0
LINE
  5
2E69
330
18
100
AcDbEntity
  8
1
  6
Continuous
100
AcDbLine
 10
138.5195570645046
 20
48.22923622765642
 30
0.0
 11
137.1195569980082
 21
48.22923622765642
 31
0.0
  0
LINE
  5
2E6A
330
18
100
AcDbEntity
  8
1
  6
Continuous
100
AcDbLine
 10
138.5195570645046
 20
48.22923622765642
 30
0.0
 11
140.5195571594996
 21
46.22923613266152
 31
0.0
  0
LINE
  5
2E6B
330
18
100
AcDbEntity
  8
1
  6
Continuous
100
AcDbLine
 10
135.9945569684154
 20
44.22923603766661
 30
0.0
 11
118.49455613721
 21
44.22923603766661
 31
0.0
  0
LINE
  5
2E6C
330
18
100
AcDbEntity
  8
1
  6
Continuous
100
AcDbLine
 10
130.4945567071794
 20
42.22923562876007
 30
0.0
 11
120.4945562322049
 21
42.22923562876007
 31
0.0
  0
LINE
  5
2E6D
330
18
100
AcDbEntity
  8
1
  6
Continuous
100
AcDbLine
 10
130.4945567071794
 20
41.22923653493734
 30
0.0
 11
120.4945562322049
 21
41.22923653493727
 31
0.0
  0
ARC
  5
2E6E
330
18
100
AcDbEntity
  8
1
  6
Continuous
100
AcDbCircle
 10
125.4945569879795
 20
29.18559544862506
 30
0.0
 40
11.95264752429306
100
AcDbArc
 50
78.85967694827666
 51
101.14032305173
  0
LINE
  5
2E6F
330
18
100
AcDbEntity
  8
1
  6
Continuous
100
AcDbLine
 10
129.2445571660954
 20
37.22923634494725
 30
0.0
 11
121.7445568098634
 21
37.22923634494725
 31
0.0
  0
LINE
  5
2E70
330
18
100
AcDbEntity
  8
1
  6
Continuous
100
AcDbLine
 10
127.4945565646871
 20
35.22923529627769
 30
0.0
 11
123.4945563746973
 21
35.22923529627769
 31
0.0
  0
ARC
  5
2E71
330
18
100
AcDbEntity
  8
1
  6
Continuous
100
AcDbCircle
 10
125.4945569879795
 20
49.27287743125948
 30
0.0
 40
11.95264752429306
100
AcDbArc
 50
258.8596769482699
 51
281.1403230517233
  0
LINE
  5
2E72
330
18
100
AcDbEntity
  8
1
  6
Continuous
100
AcDbLine
 10
123.1851558015299
 20
37.54545448331333
 30
0.0
 11
123.1851558015299
 21
40.91301839657126
 31
0.0
  0
LINE
  5
2E73
330
18
100
AcDbEntity
  8
1
  6
Continuous
100
AcDbLine
 10
120.8757546150804
 20
37.54545448331345
 30
0.0
 11
120.8757546150804
 21
40.91301839657103
 31
0.0
  0
LINE
  5
2E74
330
18
100
AcDbEntity
  8
1
  6
Continuous
100
AcDbLine
 10
120.4945562322049
 20
41.22923653493727
 30
0.0
 11
120.4945562322049
 21
42.22923562876007
 31
0.0
  0
LINE
  5
2E75
330
18
100
AcDbEntity
  8
1
  6
Continuous
100
AcDbLine
 10
123.4945563746973
 20
42.22923562876007
 30
0.0
 11
123.4945563746973
 21
44.22923603766661
 31
0.0
  0
LINE
  5
2E76
330
18
100
AcDbEntity
  8
1
  6
Continuous
100
AcDbLine
 10
121.7445568098634
 20
41.22923653493727
 30
0.0
 11
120.8757546150804
 21
40.91301839657115
 31
0.0
  0
ARC
  5
2E77
330
18
100
AcDbEntity
  8
1
  6
Continuous
100
AcDbCircle
 10
122.0304552083053
 20
38.065621875712
 30
0.0
 40
3.072621097205805
100
AcDbArc
 50
67.9260407822003
 51
112.0739592178033
  0
LINE
  5
2E78
330
18
100
AcDbEntity
  8
2
  6
Continuous
 48
0.2
100
AcDbLine
 10
123.8735564696921
 20
42.22923562876007
 30
0.0
 11
123.8735564696921
 21
44.22923603766661
 31
0.0
  0
LINE
  5
2E79
330
18
100
AcDbEntity
  8
1
  6
Continuous
100
AcDbLine
 10
121.7445568098634
 20
37.22923634494725
 30
0.0
 11
120.8757546150804
 21
37.54545448331339
 31
0.0
  0
LINE
  5
2E7A
330
18
100
AcDbEntity
  8
1
  6
Continuous
100
AcDbLine
 10
123.4945563746973
 20
35.22923529627769
 30
0.0
 11
123.4945563746973
 21
37.22923634494725
 31
0.0
  0
ARC
  5
2E7B
330
18
100
AcDbEntity
  8
1
  6
Continuous
100
AcDbCircle
 10
122.0304552083053
 20
40.39285100417254
 30
0.0
 40
3.072621097205805
100
AcDbArc
 50
247.9260407821964
 51
292.0739592177994
  0
LINE
  5
2E7C
330
18
100
AcDbEntity
  8
2
  6
Continuous
 48
0.2
100
AcDbLine
 10
123.8735564696921
 20
35.22923529627769
 30
0.0
 11
123.8735564696921
 21
37.22923634494725
 31
0.0
  0
LINE
  5
2E7D
330
18
100
AcDbEntity
  8
1
  6
Continuous
100
AcDbLine
 10
127.8039581744284
 20
37.54545448331327
 30
0.0
 11
127.8039581744284
 21
40.91301839657137
 31
0.0
  0
LINE
  5
2E7E
330
18
100
AcDbEntity
  8
1
  6
Continuous
100
AcDbLine
 10
130.1133593608776
 20
37.54545448331327
 30
0.0
 11
130.1133593608776
 21
40.91301839657143
 31
0.0
  0
ARC
  5
2E7F
330
18
100
AcDbEntity
  8
1
  6
Continuous
100
AcDbCircle
 10
128.9586587676532
 20
38.06562187571279
 30
0.0
 40
3.072621097205236
100
AcDbArc
 50
67.92604078220366
 51
112.0739592178102
  0
LINE
  5
2E80
330
18
100
AcDbEntity
  8
1
  6
Continuous
100
AcDbLine
 10
127.4945565646871
 20
44.22923603766661
 30
0.0
 11
127.4945565646871
 21
42.22923562876007
 31
0.0
  0
LINE
  5
2E81
330
18
100
AcDbEntity
  8
2
  6
Continuous
 48
0.2
100
AcDbLine
 10
127.1155564696921
 20
42.22923562876007
 30
0.0
 11
127.1155564696921
 21
44.22923603766661
 31
0.0
  0
LINE
  5
2E82
330
18
100
AcDbEntity
  8
1
  6
Continuous
100
AcDbLine
 10
130.4945567071794
 20
42.22923562876007
 30
0.0
 11
130.4945567071794
 21
41.22923653493734
 31
0.0
  0
LINE
  5
2E83
330
18
100
AcDbEntity
  8
1
  6
Continuous
100
AcDbLine
 10
130.1133593608776
 20
40.91301839657147
 30
0.0
 11
129.2442824183533
 21
41.22933653493737
 31
0.0
  0
ARC
  5
2E84
330
18
100
AcDbEntity
  8
1
  6
Continuous
100
AcDbCircle
 10
128.9586587676532
 20
40.39285100417174
 30
0.0
 40
3.072621097205236
100
AcDbArc
 50
247.9260407821897
 51
292.0739592177963
  0
LINE
  5
2E85
330
18
100
AcDbEntity
  8
1
  6
Continuous
100
AcDbLine
 10
127.4945565646871
 20
37.22923634494725
 30
0.0
 11
127.4945565646871
 21
35.22923529627769
 31
0.0
  0
LINE
  5
2E86
330
18
100
AcDbEntity
  8
2
  6
Continuous
 48
0.2
100
AcDbLine
 10
127.1155564696921
 20
35.22923529627769
 30
0.0
 11
127.1155564696921
 21
37.22923634494725
 31
0.0
  0
LINE
  5
2E87
330
18
100
AcDbEntity
  8
1
  6
Continuous
100
AcDbLine
 10
130.1133593608776
 20
37.54545448331305
 30
0.0
 11
129.2442824183533
 21
37.22913634494716
 31
0.0
  0
LINE
  5
2F4B
330
18
100
AcDbEntity
  8
4
  6
CENTER
 48
0.2
100
AcDbLine
 10
293.8925853802176
 20
161.1100939867826
 30
0.0
 11
278.8925850952328
 21
161.1100939867826
 31
0.0
  0
LINE
  5
2F4C
330
18
100
AcDbEntity
  8
1
  6
Continuous
100
AcDbLine
 10
288.7019864241752
 20
157.1100937967926
 30
0.0
 11
291.0113876106247
 21
161.1100939867826
 31
0.0
  0
LINE
  5
2F4D
330
18
100
AcDbEntity
  8
1
  6
Continuous
100
AcDbLine
 10
281.7737828648273
 20
161.1100939867826
 30
0.0
 11
284.0831840512766
 21
157.1100937967928
 31
0.0
  0
CIRCLE
  5
2F4E
330
18
100
AcDbEntity
  8
1
  6
Continuous
100
AcDbCircle
 10
286.3925857560126
 20
161.1100939867826
 30
0.0
 40
5.000000237487252
  0
CIRCLE
  5
2F4F
330
18
100
AcDbEntity
  8
1
  6
Continuous
100
AcDbCircle
 10
286.3925852377252
 20
161.1100939867826
 30
0.0
 40
3.750000178115897
  0
LINE
  5
2F50
330
18
100
AcDbEntity
  8
4
  6
CENTER
 48
0.2
100
AcDbLine
 10
286.3925852377252
 20
153.6100938442903
 30
0.0
 11
286.3925852377252
 21
168.610094129275
 31
0.0
  0
LINE
  5
2F51
330
18
100
AcDbEntity
  8
1
  6
Continuous
100
AcDbLine
 10
284.0831840512766
 20
157.1100937967928
 30
0.0
 11
288.7019864241749
 21
157.1100937967928
 31
0.0
  0
LINE
  5
2F52
330
18
100
AcDbEntity
  8
1
  6
Continuous
100
AcDbLine
 10
288.7019864241749
 20
165.1100941767724
 30
0.0
 11
291.0113876106242
 21
161.1100939867825
 31
0.0
  0
LINE
  5
2F53
330
18
100
AcDbEntity
  8
1
  6
Continuous
100
AcDbLine
 10
281.773782864827
 20
161.1100939867826
 30
0.0
 11
284.0831840512763
 21
165.1100941767726
 31
0.0
  0
CIRCLE
  5
2F54
330
18
100
AcDbEntity
  8
2
  6
Continuous
 48
0.2
100
AcDbCircle
 10
286.3925852377252
 20
161.1100939867826
 30
0.0
 40
1.620999999999999
  0
CIRCLE
  5
2F55
330
18
100
AcDbEntity
  8
1
  6
Continuous
100
AcDbCircle
 10
286.3925857560126
 20
161.1100939867826
 30
0.0
 40
2.000000094994905
  0
LINE
  5
2F56
330
18
100
AcDbEntity
  8
1
  6
Continuous
100
AcDbLine
 10
284.0831840512766
 20
165.1100941767724
 30
0.0
 11
288.7019864241749
 21
165.1100941767724
 31
0.0
  0
LINE
  5
2F57
330
18
100
AcDbEntity
  8
4
  6
CENTER
 48
0.2
100
AcDbLine
 10
268.3675845479179
 20
148.6100943467389
 30
0.0
 11
296.3925855702075
 21
148.6100943467389
 31
0.0
  0
LINE
  5
2F58
330
18
100
AcDbEntity
  8
1
  6
Continuous
100
AcDbLine
 10
288.5720354283547
 20
165.6100951541955
 30
0.0
 11
293.3925855702075
 21
165.6100951541955
 31
0.0
  0
ARC
  5
2F5A
330
18
100
AcDbEntity
  8
1
  6
Continuous
100
AcDbCircle
 10
283.8175846142114
 20
176.9509174049652
 30
0.0
 40
0.5000000237487186
100
AcDbArc
 50
0.0000102313868188
 51
90.00001023138684
  0
LINE
  5
2F5B
330
18
100
AcDbEntity
  8
1
  6
Continuous
100
AcDbLine
 10
283.8175845249257
 20
177.4509174287139
 30
0.0
 11
281.0175843919329
 21
177.4509169287139
 31
0.0
  0
LINE
  5
2F5C
330
18
100
AcDbEntity
  8
4
  6
CENTER
 48
0.2
100
AcDbLine
 10
287.3175852345354
 20
173.6100945805008
 30
0.0
 11
268.3675845479179
 21
173.6100945805008
 31
0.0
  0
LINE
  5
2F5D
330
18
100
AcDbEntity
  8
4
  6
CENTER
 48
0.2
100
AcDbLine
 10
287.3175852345354
 20
123.6100941129769
 30
0.0
 11
268.3675845479179
 21
123.6100941129769
 31
0.0
  0
LINE
  5
2F5E
330
18
100
AcDbEntity
  8
1
  6
Continuous
100
AcDbLine
 10
284.0831840512766
 20
132.1100945167053
 30
0.0
 11
288.7019864241749
 21
132.1100945167053
 31
0.0
  0
CIRCLE
  5
2F5F
330
18
100
AcDbEntity
  8
1
  6
Continuous
100
AcDbCircle
 10
286.3925857560126
 20
136.1100947066951
 30
0.0
 40
2.000000094994905
  0
CIRCLE
  5
2F60
330
18
100
AcDbEntity
  8
2
  6
Continuous
 48
0.2
100
AcDbCircle
 10
286.3925852377252
 20
136.1100947066951
 30
0.0
 40
1.620999999999999
  0
LINE
  5
2F61
330
18
100
AcDbEntity
  8
1
  6
Continuous
100
AcDbLine
 10
284.0831840512766
 20
140.1100948966849
 30
0.0
 11
288.7019864241749
 21
140.1100948966849
 31
0.0
  0
CIRCLE
  5
2F62
330
18
100
AcDbEntity
  8
1
  6
Continuous
100
AcDbCircle
 10
286.3925852377252
 20
136.1100947066951
 30
0.0
 40
3.750000178115897
  0
CIRCLE
  5
2F63
330
18
100
AcDbEntity
  8
1
  6
Continuous
100
AcDbCircle
 10
286.3925857560126
 20
136.1100947066951
 30
0.0
 40
5.000000237487252
  0
LINE
  5
2F64
330
18
100
AcDbEntity
  8
4
  6
CENTER
 48
0.2
100
AcDbLine
 10
293.8925853802176
 20
136.1100947066951
 30
0.0
 11
278.8925850952328
 21
136.1100947066951
 31
0.0
  0
LINE
  5
2F65
330
18
100
AcDbEntity
  8
1
  6
Continuous
100
AcDbLine
 10
274.7675847094093
 20
131.1100944692078
 30
0.0
 11
274.7675847094093
 21
116.1100937567459
 31
0.0
  0
ARC
  5
2F66
330
18
100
AcDbEntity
  8
1
  6
Continuous
100
AcDbCircle
 10
280.2175850397959
 20
118.5100938707399
 30
0.0
 40
0.3000000142492389
100
AcDbArc
 50
180.0
 51
269.9999999999967
  0
LINE
  5
2F67
330
18
100
AcDbEntity
  8
1
  6
Continuous
100
AcDbLine
 10
271.3675845479179
 20
131.1100944692078
 30
0.0
 11
271.3675845479179
 21
118.110093851741
 31
0.0
  0
LINE
  5
2F68
330
18
100
AcDbEntity
  8
1
  6
Continuous
100
AcDbLine
 10
276.7675847805624
 20
114.1100927080768
 30
0.0
 11
276.7675847805624
 21
131.6100935392822
 31
0.0
  0
LINE
  5
2F69
330
18
100
AcDbEntity
  8
1
  6
Continuous
100
AcDbLine
 10
280.9175850730442
 20
129.0100943694632
 30
0.0
 11
280.9175850730442
 21
118.2100938564907
 31
0.0
  0
LINE
  5
2F6A
330
18
100
AcDbEntity
  8
1
  6
Continuous
100
AcDbLine
 10
279.7675849230547
 20
114.1100927080768
 30
0.0
 11
279.7675849230547
 21
131.6100935392822
 31
0.0
  0
LINE
  5
2F6B
330
18
100
AcDbEntity
  8
1
  6
Continuous
100
AcDbLine
 10
282.3675850703899
 20
118.110093851741
 30
0.0
 11
282.3675850703899
 21
119.7692712647636
 31
0.0
  0
LINE
  5
2F6C
330
18
100
AcDbEntity
  8
1
  6
Continuous
100
AcDbLine
 10
281.0176850777939
 20
118.2669153297749
 30
0.0
 11
280.9175850730444
 21
118.2100938564907
 31
0.0
  0
LINE
  5
2F6D
330
18
100
AcDbEntity
  8
1
  6
Continuous
100
AcDbLine
 10
282.3675850703899
 20
127.4509169611902
 30
0.0
 11
282.3675850703899
 21
131.1100944692079
 31
0.0
  0
LINE
  5
2F6E
330
18
100
AcDbEntity
  8
1
  6
Continuous
100
AcDbLine
 10
272.392584572761
 20
131.6100935392818
 30
0.0
 11
284.2131381498162
 21
131.6100935392822
 31
0.0
  0
LINE
  5
2F6F
330
18
100
AcDbEntity
  8
1
  6
Continuous
100
AcDbLine
 10
271.3675845479179
 20
131.1100944692078
 30
0.0
 11
276.7675847805624
 21
131.1100944692078
 31
0.0
  0
LINE
  5
2F70
330
18
100
AcDbEntity
  8
1
  6
Continuous
100
AcDbLine
 10
274.955656833774
 20
131.1100935155332
 30
0.0
 11
274.9556568337752
 21
131.6100935392817
 31
0.0
  0
LINE
  5
2F72
330
18
100
AcDbEntity
  8
1
  6
Continuous
100
AcDbLine
 10
274.8925846915046
 20
131.1100935155334
 30
0.0
 11
274.8925846915046
 21
131.6100935392822
 31
0.0
  0
LINE
  5
2F73
330
18
100
AcDbEntity
  8
1
  6
Continuous
100
AcDbLine
 10
281.773782864827
 20
136.1100947066951
 30
0.0
 11
284.0831840512763
 21
132.1100945167051
 31
0.0
  0
LINE
  5
2F74
330
18
100
AcDbEntity
  8
1
  6
Continuous
100
AcDbLine
 10
281.7737828648273
 20
136.1100947066951
 30
0.0
 11
284.0831840512766
 21
140.110094896685
 31
0.0
  0
LINE
  5
2F75
330
18
100
AcDbEntity
  8
1
  6
Continuous
100
AcDbLine
 10
282.3425850453606
 20
131.6100935392822
 30
0.0
 11
282.3425850453606
 21
131.1100935155332
 31
0.0
  0
LINE
  5
2F76
330
18
100
AcDbEntity
  8
1
  6
Continuous
100
AcDbLine
 10
282.3675850703899
 20
131.1100944692078
 30
0.0
 11
279.7675849230547
 21
131.1100944692078
 31
0.0
  0
LINE
  5
2F77
330
18
100
AcDbEntity
  8
1
  6
Continuous
100
AcDbLine
 10
274.767584705821
 20
128.1100943267155
 30
0.0
 11
276.7675847805624
 21
128.1100943267155
 31
0.0
  0
LINE
  5
2F78
330
18
100
AcDbEntity
  8
1
  6
Continuous
100
AcDbLine
 10
276.7675847805624
 20
119.1100938992384
 30
0.0
 11
274.7675846560952
 21
119.1100938992384
 31
0.0
  0
LINE
  5
2F79
330
18
100
AcDbEntity
  8
1
  6
Continuous
100
AcDbLine
 10
279.9175850255466
 20
118.5100938707399
 30
0.0
 11
279.9175850255466
 21
128.7100943552139
 31
0.0
  0
ARC
  5
2F7A
330
18
100
AcDbEntity
  8
1
  6
Continuous
100
AcDbCircle
 10
280.2175850397959
 20
128.7100943552139
 30
0.0
 40
0.3000000142492389
100
AcDbArc
 50
90.00000000000328
 51
180.0
  0
LINE
  5
2F7B
330
18
100
AcDbEntity
  8
1
  6
Continuous
100
AcDbLine
 10
284.3175852345355
 20
120.2692711992269
 30
0.0
 11
284.3175852345355
 21
126.9509169374415
 31
0.0
  0
LINE
  5
2F7C
330
18
100
AcDbEntity
  8
1
  6
Continuous
100
AcDbLine
 10
283.8175845249257
 20
119.7692712647638
 30
0.0
 11
281.0175843919329
 21
119.7692717647637
 31
0.0
  0
ARC
  5
2F7D
330
18
100
AcDbEntity
  8
1
  6
Continuous
100
AcDbCircle
 10
283.8175846142114
 20
120.2692712885126
 30
0.0
 40
0.5000000237487186
100
AcDbArc
 50
269.9999897686132
 51
359.9999897686132
  0
LINE
  5
2F7E
330
18
100
AcDbEntity
  8
1
  6
Continuous
100
AcDbLine
 10
284.3175852345355
 20
123.6100940683342
 30
0.0
 11
281.0175850777939
 21
123.610094362977
 31
0.0
  0
LINE
  5
2F7F
330
18
100
AcDbEntity
  8
1
  6
Continuous
100
AcDbLine
 10
281.0175850777939
 20
128.9533296608848
 30
0.0
 11
281.0175850777939
 21
118.2668585650691
 31
0.0
  0
LINE
  5
2F80
330
18
100
AcDbEntity
  8
1
  6
Continuous
100
AcDbLine
 10
279.9175850255466
 20
122.5840336342648
 30
0.0
 11
279.7675850184221
 21
122.5840336342648
 31
0.0
  0
LINE
  5
2F81
330
18
100
AcDbEntity
  8
1
  6
Continuous
100
AcDbLine
 10
279.9175850255624
 20
121.865791302032
 30
0.0
 11
279.7675850184221
 21
121.865791302032
 31
0.0
  0
LINE
  5
2F82
330
18
100
AcDbEntity
  8
1
  6
Continuous
100
AcDbLine
 10
279.9175850255466
 20
124.1310386707213
 30
0.0
 11
279.7675850184221
 21
124.1310386707213
 31
0.0
  0
LINE
  5
2F83
330
18
100
AcDbEntity
  8
1
  6
Continuous
100
AcDbLine
 10
279.9175850255629
 20
124.4956998596873
 30
0.0
 11
279.7675850184221
 21
124.4956998596873
 31
0.0
  0
LINE
  5
2F84
330
18
100
AcDbEntity
  8
1
  6
Continuous
100
AcDbLine
 10
279.9175850255624
 20
122.7244883662666
 30
0.0
 11
279.7675850184221
 21
122.7244883662666
 31
0.0
  0
LINE
  5
2F85
330
18
100
AcDbEntity
  8
1
  6
Continuous
100
AcDbLine
 10
279.9175850255629
 20
123.6100941129769
 30
0.0
 11
279.7675850184221
 21
123.6100941129769
 31
0.0
  0
ARC
  5
2F86
330
18
100
AcDbEntity
  8
1
  6
Continuous
100
AcDbCircle
 10
283.8175852107868
 20
126.9509169374415
 30
0.0
 40
0.5000000237487186
100
AcDbArc
 50
0.0
 51
90.00000000000005
  0
LINE
  5
2F87
330
18
100
AcDbEntity
  8
1
  6
Continuous
100
AcDbLine
 10
279.9175850255626
 20
128.7100943468349
 30
0.0
 11
279.7675850184222
 21
128.7100943468349
 31
0.0
  0
LINE
  5
2F88
330
18
100
AcDbEntity
  8
1
  6
Continuous
100
AcDbLine
 10
279.9175850255626
 20
128.6326138836439
 30
0.0
 11
279.7675850184221
 21
128.6326138836439
 31
0.0
  0
LINE
  5
2F89
330
18
100
AcDbEntity
  8
1
  6
Continuous
100
AcDbLine
 10
279.9175850255627
 20
128.4025266987397
 30
0.0
 11
279.7675850184221
 21
128.4025266987397
 31
0.0
  0
LINE
  5
2F8A
330
18
100
AcDbEntity
  8
1
  6
Continuous
100
AcDbLine
 10
279.9175850255627
 20
127.5169209520295
 30
0.0
 11
279.7675850184221
 21
127.5169209520295
 31
0.0
  0
LINE
  5
2F8B
330
18
100
AcDbEntity
  8
1
  6
Continuous
100
AcDbLine
 10
279.9175850255627
 20
128.0268238748041
 30
0.0
 11
279.7675850184221
 21
128.0268238748041
 31
0.0
  0
LINE
  5
2F8C
330
18
100
AcDbEntity
  8
1
  6
Continuous
100
AcDbLine
 10
279.9175850255624
 20
126.1600942299057
 30
0.0
 11
279.7675850184221
 21
126.1600942299057
 31
0.0
  0
LINE
  5
2F8D
330
18
100
AcDbEntity
  8
1
  6
Continuous
100
AcDbLine
 10
279.9175850255627
 20
126.8883110726989
 30
0.0
 11
279.7675850184221
 21
126.8883110726989
 31
0.0
  0
LINE
  5
2F8E
330
18
100
AcDbEntity
  8
1
  6
Continuous
100
AcDbLine
 10
279.9175850255624
 20
125.3543969239219
 30
0.0
 11
279.7675850184221
 21
125.3543969239219
 31
0.0
  0
LINE
  5
2F8F
330
18
100
AcDbEntity
  8
1
  6
Continuous
100
AcDbLine
 10
280.9175850730442
 20
129.0100943694634
 30
0.0
 11
281.0176850777939
 21
128.9532728961789
 31
0.0
  0
LINE
  5
2F91
330
18
100
AcDbEntity
  8
1
  6
Continuous
100
AcDbLine
 10
280.2175850397959
 20
129.0100943694632
 30
0.0
 11
280.9175850730444
 21
129.0100943694632
 31
0.0
  0
LINE
  5
2F92
330
18
100
AcDbEntity
  8
1
  6
Continuous
100
AcDbLine
 10
283.8175852107868
 20
127.4509169611902
 30
0.0
 11
281.0175850777939
 21
127.4509169611902
 31
0.0
  0
LINE
  5
2F94
330
18
100
AcDbEntity
  8
1
  6
Continuous
100
AcDbLine
 10
279.9175850255629
 20
118.5100938791189
 30
0.0
 11
279.7675850184221
 21
118.5100938791189
 31
0.0
  0
LINE
  5
2F95
330
18
100
AcDbEntity
  8
1
  6
Continuous
100
AcDbLine
 10
279.9175850255624
 20
118.5875743423101
 30
0.0
 11
279.7675850184221
 21
118.5875743423101
 31
0.0
  0
LINE
  5
2F96
330
18
100
AcDbEntity
  8
1
  6
Continuous
100
AcDbLine
 10
279.9175850255624
 20
118.8176615272142
 30
0.0
 11
279.7675850184221
 21
118.8176615272142
 31
0.0
  0
LINE
  5
2F97
330
18
100
AcDbEntity
  8
1
  6
Continuous
100
AcDbLine
 10
279.9175850255629
 20
119.1933643511495
 30
0.0
 11
279.7675850184221
 21
119.1933643511495
 31
0.0
  0
LINE
  5
2F98
330
18
100
AcDbEntity
  8
1
  6
Continuous
100
AcDbLine
 10
279.9175850255629
 20
119.7032672739244
 30
0.0
 11
279.7675850184221
 21
119.7032672739244
 31
0.0
  0
LINE
  5
2F99
330
18
100
AcDbEntity
  8
1
  6
Continuous
100
AcDbLine
 10
279.9175850255628
 20
120.331877153255
 30
0.0
 11
279.7675850184221
 21
120.331877153255
 31
0.0
  0
LINE
  5
2F9A
330
18
100
AcDbEntity
  8
1
  6
Continuous
100
AcDbLine
 10
279.9175850255628
 20
121.0600939960482
 30
0.0
 11
279.7675850184221
 21
121.0600939960482
 31
0.0
  0
LINE
  5
2F9B
330
18
100
AcDbEntity
  8
1
  6
Continuous
100
AcDbLine
 10
276.7675847805624
 20
116.1100937567459
 30
0.0
 11
273.3675846429129
 21
116.1100937567459
 31
0.0
  0
LINE
  5
2F9C
330
18
100
AcDbEntity
  8
1
  6
Continuous
100
AcDbLine
 10
273.3675846429129
 20
116.1100937567459
 30
0.0
 11
271.3675845479179
 21
118.110093851741
 31
0.0
  0
LINE
  5
2F9D
330
18
100
AcDbEntity
  8
1
  6
Continuous
100
AcDbLine
 10
271.3675845479179
 20
118.110093851741
 30
0.0
 11
274.7675847094092
 21
118.110093851741
 31
0.0
  0
LINE
  5
2F9E
330
18
100
AcDbEntity
  8
1
  6
Continuous
100
AcDbLine
 10
280.3675849753947
 20
116.1100937567461
 30
0.0
 11
279.7675849230547
 21
116.1100937567461
 31
0.0
  0
LINE
  5
2FA0
330
18
100
AcDbEntity
  8
1
  6
Continuous
100
AcDbLine
 10
280.9175850730442
 20
118.2100938564907
 30
0.0
 11
280.2175850397959
 21
118.2100938564907
 31
0.0
  0
LINE
  5
2FA1
330
18
100
AcDbEntity
  8
1
  6
Continuous
100
AcDbLine
 10
280.3675849753945
 20
116.1100937567456
 30
0.0
 11
282.3675850703899
 21
118.110093851741
 31
0.0
  0
LINE
  5
2FA2
330
18
100
AcDbEntity
  8
1
  6
Continuous
100
AcDbLine
 10
276.7675847805624
 20
114.1100927080768
 30
0.0
 11
279.7675849230547
 21
114.1100927080768
 31
0.0
  0
LINE
  5
2FA3
330
18
100
AcDbEntity
  8
4
  6
CENTER
 48
0.2
100
AcDbLine
 10
286.3925852377252
 20
143.6100948491874
 30
0.0
 11
286.3925852377252
 21
128.6100945642028
 31
0.0
  0
LINE
  5
2FA4
330
18
100
AcDbEntity
  8
1
  6
Continuous
100
AcDbLine
 10
288.5720354283547
 20
131.6100935392822
 30
0.0
 11
293.3925855702075
 21
131.6100935392822
 31
0.0
  0
LINE
  5
2FA5
330
18
100
AcDbEntity
  8
1
  6
Continuous
100
AcDbLine
 10
288.7019864241749
 20
132.1100945167053
 30
0.0
 11
291.0113876106242
 21
136.1100947066953
 31
0.0
  0
LINE
  5
2FA6
330
18
100
AcDbEntity
  8
1
  6
Continuous
100
AcDbLine
 10
288.7019864241752
 20
140.1100948966851
 30
0.0
 11
291.0113876106247
 21
136.1100947066952
 31
0.0
  0
LINE
  5
305C
330
18
100
AcDbEntity
  8
3
  6
DASHED
 48
0.2
100
AcDbLine
 10
137.0195571124678
 20
177.1100947467418
 30
0.0
 11
135.5194570412216
 21
178.610194817988
 31
0.0
  0
LINE
  5
305D
330
18
100
AcDbEntity
  8
3
  6
DASHED
 48
0.2
100
AcDbLine
 10
133.5195569462266
 20
178.610094817988
 30
0.0
 11
135.5195570412215
 21
178.610094817988
 31
0.0
  0
LINE
  5
305E
330
18
100
AcDbEntity
  8
3
  6
DASHED
 48
0.2
100
AcDbLine
 10
137.0195571124677
 20
122.110092134382
 30
0.0
 11
137.0195571124677
 21
177.1100947467418
 31
0.0
  0
LINE
  5
305F
330
18
100
AcDbEntity
  8
3
  6
DASHED
 48
0.2
100
AcDbLine
 10
137.0195571124677
 20
177.1100947467419
 30
0.0
 11
132.0195568749805
 21
177.1100947467419
 31
0.0
  0
LINE
  5
3060
330
18
100
AcDbEntity
  8
3
  6
DASHED
 48
0.2
100
AcDbLine
 10
133.5195569462266
 20
178.610094817988
 30
0.0
 11
132.0195568749805
 21
177.1100947467419
 31
0.0
  0
LINE
  5
3061
330
18
100
AcDbEntity
  8
3
  6
DASHED
 48
0.2
100
AcDbLine
 10
132.0195568749805
 20
177.1100947467418
 30
0.0
 11
132.0195568749805
 21
122.1100921343822
 31
0.0
  0
LINE
  5
3062
330
18
100
AcDbEntity
  8
3
  6
DASHED
 48
0.2
100
AcDbLine
 10
132.0195568749805
 20
122.1100921343822
 30
0.0
 11
133.5195569462268
 21
120.6100920631359
 31
0.0
  0
LINE
  5
3063
330
18
100
AcDbEntity
  8
3
  6
DASHED
 48
0.2
100
AcDbLine
 10
132.0195568749805
 20
122.1100921343821
 30
0.0
 11
137.0195571124677
 21
122.1100921343819
 31
0.0
  0
LINE
  5
3064
330
18
100
AcDbEntity
  8
3
  6
DASHED
 48
0.2
100
AcDbLine
 10
133.5195569462268
 20
120.6100920631359
 30
0.0
 11
135.5195570412215
 21
120.6100920631358
 31
0.0
  0
LINE
  5
3065
330
18
100
AcDbEntity
  8
3
  6
DASHED
 48
0.2
100
AcDbLine
 10
135.5194570412215
 20
120.6099920631359
 30
0.0
 11
137.0195571124677
 21
122.110092134382
 31
0.0
  0
LINE
  5
3069
330
18
100
AcDbEntity
  8
4
  6
CENTER
 48
0.15
100
AcDbLine
 10
213.6438399136137
 20
123.6100941129769
 30
0.0
 11
203.8438394006413
 21
123.6100941129769
 31
0.0
  0
LINE
  5
306A
330
18
100
AcDbEntity
  8
4
  6
CENTER
 48
0.15
100
AcDbLine
 10
208.7438396571274
 20
118.7100938564907
 30
0.0
 11
208.7438396571275
 21
128.5100943694631
 31
0.0
  0
LINE
  5
308E
330
18
100
AcDbEntity
  8
4
  6
CENTER
 48
0.2
100
AcDbLine
 10
277.3675843146151
 20
186.110095985401
 30
0.0
 11
277.3675843146151
 21
111.1100927080769
 31
0.0
  0
ENDSEC
  0
SECTION
  2
OBJECTS
  0
DICTIONARY
  5
C
330
0
100
AcDbDictionary
281
     1
  3
ACAD_CIP_PREVIOUS_PRODUCT_INFO
350
311C
  3
ACAD_COLOR
350
30FF
  3
ACAD_DETAILVIEWSTYLE
350
3118
  3
ACAD_GROUP
350
D
  3
ACAD_LAYOUT
350
94
  3
ACAD_MATERIAL
350
30CD
  3
ACAD_MLEADERSTYLE
350
3114
  3
ACAD_MLINESTYLE
350
1B
  3
ACAD_PLOTSETTINGS
350
95
  3
ACAD_PLOTSTYLENAME
350
30CB
  3
ACAD_SCALELIST
350
3102
  3
ACAD_SECTIONVIEWSTYLE
350
3116
  3
ACAD_TABLESTYLE
350
3100
  3
ACAD_VISUALSTYLE
350
30E6
  3
ACDB_RECOMPOSE_DATA
350
313A
  3
AcDbVariableDictionary
350
312D
  3
CONTENTDICTIONARY
350
3D
  3
DWGPROPS
350
313B
  0
DICTIONARY
  5
311D
330
E
100
AcDbDictionary
280
     1
281
     1
  3
ADSK_XREC_LAYER_RECONCILED
360
311E
  0
DICTIONARY
  5
311F
330
4E
100
AcDbDictionary
280
     1
281
     1
  3
ADSK_XREC_LAYER_RECONCILED
360
3120
  0
DICTIONARY
  5
3121
330
4F
100
AcDbDictionary
280
     1
281
     1
  3
ADSK_XREC_LAYER_RECONCILED
360
3122
  0
DICTIONARY
  5
3123
330
50
100
AcDbDictionary
280
     1
281
     1
  3
ADSK_XREC_LAYER_RECONCILED
360
3124
  0
DICTIONARY
  5
3125
330
51
100
AcDbDictionary
280
     1
281
     1
  3
ADSK_XREC_LAYER_RECONCILED
360
3126
  0
DICTIONARY
  5
3127
330
52
100
AcDbDictionary
280
     1
281
     1
  3
ADSK_XREC_LAYER_RECONCILED
360
3128
  0
DICTIONARY
  5
3129
330
53
100
AcDbDictionary
280
     1
281
     1
  3
ADSK_XREC_LAYER_RECONCILED
360
312A
  0
DICTIONARY
  5
312B
330
54
100
AcDbDictionary
280
     1
281
     1
  3
ADSK_XREC_LAYER_RECONCILED
360
312C
  0
DICTIONARY
  5
30C6
330
18
100
AcDbDictionary
281
     1
  3
ACAD_LAYOUTSELFREF
350
30C7
  0
DICTIONARY
  5
30C4
330
15
100
AcDbDictionary
281
     1
  3
ACAD_LAYOUTSELFREF
350
30C5
  0
XRECORD
  5
311C
102
{ACAD_REACTORS
330
C
102
}
330
C
100
AcDbXrecord
280
     1
300
ACDLT
300
2014
300
ACDLT_F_S
  0
DICTIONARY
  5
30FF
102
{ACAD_REACTORS
330
C
102
}
330
C
100
AcDbDictionary
281
     1
  0
DICTIONARY
  5
3118
102
{ACAD_REACTORS
330
C
102
}
330
C
100
AcDbDictionary
281
     1
  3
Imperial24
350
3119
  0
DICTIONARY
  5
D
102
{ACAD_REACTORS
330
C
102
}
330
C
100
AcDbDictionary
281
     1
  0
DICTIONARY
  5
94
102
{ACAD_REACTORS
330
C
102
}
330
C
100
AcDbDictionary
281
     1
  3
Model
350
311A
  3
レイアウト1
350
311B
  0
DICTIONARY
  5
30CD
102
{ACAD_REACTORS
330
C
102
}
330
C
100
AcDbDictionary
281
     1
  3
ByBlock
350
30D6
  3
ByLayer
350
30CE
  3
Global
350
30DE
  0
DICTIONARY
  5
3114
102
{ACAD_REACTORS
330
C
102
}
330
C
100
AcDbDictionary
281
     1
  3
Standard
350
3115
  0
DICTIONARY
  5
1B
102
{ACAD_REACTORS
330
C
102
}
330
C
100
AcDbDictionary
281
     1
  3
STANDARD
350
1C
  0
DICTIONARY
  5
95
102
{ACAD_REACTORS
330
C
102
}
330
C
100
AcDbDictionary
281
     1
  0
ACDBDICTIONARYWDFLT
  5
30CB
102
{ACAD_REACTORS
330
C
102
}
330
C
100
AcDbDictionary
281
     1
  3
Normal
350
30CC
100
AcDbDictionaryWithDefault
340
30CC
  0
DICTIONARY
  5
3102
102
{ACAD_REACTORS
330
C
102
}
330
C
100
AcDbDictionary
281
     1
  3
A0
350
3103
  3
A1
350
3104
  3
A2
350
3105
  3
A3
350
3106
  3
A4
350
3107
  3
A5
350
3108
  3
A6
350
3109
  3
A7
350
310A
  3
A8
350
310B
  3
A9
350
310C
  3
B0
350
310D
  3
B1
350
310E
  3
B2
350
310F
  3
B3
350
3110
  3
B4
350
3111
  3
B5
350
3112
  3
B6
350
3113
  0
DICTIONARY
  5
3116
102
{ACAD_REACTORS
330
C
102
}
330
C
100
AcDbDictionary
281
     1
  3
Imperial24
350
3117
  0
DICTIONARY
  5
3100
102
{ACAD_REACTORS
330
C
102
}
330
C
100
AcDbDictionary
281
     1
  3
Standard
350
3101
  0
DICTIONARY
  5
30E6
102
{ACAD_REACTORS
330
C
102
}
330
C
100
AcDbDictionary
281
     1
  3
2dWireframe
350
30EC
  3
Basic
350
30EB
  3
Brighten
350
30F2
  3
ColorChange
350
30F6
  3
Conceptual
350
30EF
  3
Dim
350
30F1
  3
EdgeColorOff
350
30FE
  3
Facepattern
350
30F5
  3
Flat
350
30E7
  3
FlatWithEdges
350
30E8
  3
Gouraud
350
30E9
  3
GouraudWithEdges
350
30EA
  3
Hidden
350
30EE
  3
JitterOff
350
30FC
  3
Linepattern
350
30F4
  3
OverhangOff
350
30FD
  3
Realistic
350
30F0
  3
Shaded
350
30FB
  3
Shaded with edges
350
30FA
  3
Shades of Gray
350
30F7
  3
Sketchy
350
30F8
  3
Thicken
350
30F3
  3
Wireframe
350
30ED
  3
X-Ray
350
30F9
  0
XRECORD
  5
313A
102
{ACAD_REACTORS
330
C
102
}
330
C
100
AcDbXrecord
280
     1
 90
        1
330
3101
  0
DICTIONARY
  5
312D
102
{ACAD_REACTORS
330
C
102
}
330
C
100
AcDbDictionary
281
     1
  3
CANNOSCALE
350
3132
  3
CMLEADERSTYLE
350
312F
  3
CTABLESTYLE
350
312E
  3
CVIEWDETAILSTYLE
350
3130
  3
CVIEWSECTIONSTYLE
350
3131
  3
DIMASSOC
350
3135
  3
INDEXCTL
350
3134
  3
SORTENTS
350
3133
  3
XCLIPFRAME
350
3136
  0
DICTIONARY
  5
3D
102
{ACAD_REACTORS
330
C
102
}
330
C
100
AcDbDictionary
281
     1
  0
XRECORD
  5
313B
102
{ACAD_REACTORS
330
C
102
}
330
C
100
AcDbXrecord
280
     1
  1
DWGPROPS COOKIE
  2

  3

  4

  6

  7

  8
Yoshitsune
  9

300
=
301
=
302
=
303
=
304
=
305
=
306
=
307
=
308
=
309
=
 40
0.0498839351851852
 41
2453768.666365915
 42
2457192.701147535
  1

 90
        0
  0
XRECORD
  5
311E
102
{ACAD_REACTORS
330
311D
102
}
330
311D
100
AcDbXrecord
280
     1
290
     1
  0
XRECORD
  5
3120
102
{ACAD_REACTORS
330
311F
102
}
330
311F
100
AcDbXrecord
280
     1
290
     1
  0
XRECORD
  5
3122
102
{ACAD_REACTORS
330
3121
102
}
330
3121
100
AcDbXrecord
280
     1
290
     1
  0
XRECORD
  5
3124
102
{ACAD_REACTORS
330
3123
102
}
330
3123
100
AcDbXrecord
280
     1
290
     1
  0
XRECORD
  5
3126
102
{ACAD_REACTORS
330
3125
102
}
330
3125
100
AcDbXrecord
280
     1
290
     1
  0
XRECORD
  5
3128
102
{ACAD_REACTORS
330
3127
102
}
330
3127
100
AcDbXrecord
280
     1
290
     1
  0
XRECORD
  5
312A
102
{ACAD_REACTORS
330
3129
102
}
330
3129
100
AcDbXrecord
280
     1
290
     1
  0
XRECORD
  5
312C
102
{ACAD_REACTORS
330
312B
102
}
330
312B
100
AcDbXrecord
280
     1
290
     1
  0
XRECORD
  5
30C7
102
{ACAD_REACTORS
330
30C6
102
}
330
30C6
100
AcDbXrecord
280
     1
340
18
  0
XRECORD
  5
30C5
102
{ACAD_REACTORS
330
30C4
102
}
330
30C4
100
AcDbXrecord
280
     1
340
15
  0
ACDBDETAILVIEWSTYLE
  5
3119
102
{ACAD_XDICTIONARY
360
3173
102
}
102
{ACAD_REACTORS
330
3118
102
}
330
3118
100
AcDbModelDocViewStyle
 70
     0
  3
Imperial24
290
     0
100
AcDbDetailViewStyle
 70
     0
 71
     0
 90
        3
 71
     1
340
F
 40
0.24
340
0
 40
0.24
300

 40
0.36
280
     3
 71
     2
340
14
 90
       25
 71
     3
340
F
 40
0.24
 90
        1
 40
0.75
 90
        1
300
%<\AcVar ViewType \f "%tc1">% %<\AcVar ViewDetailId>%\PSCALE %<\AcVar ViewScale \f "%sn">%
 71
     4
340
14
 90
       25
340
14
 90
       25
280
     0
  0
LAYOUT
  5
311A
102
{ACAD_XDICTIONARY
360
3175
102
}
102
{ACAD_REACTORS
330
94
102
}
330
94
100
AcDbPlotSettings
  1

  2
Canon LBP9100C
  4

  6

 40
0.0
 41
0.0
 42
0.0
 43
0.0
 44
0.0
 45
0.0
 46
0.0
 47
0.0
 48
0.0
 49
0.0
140
0.0
141
0.0
142
1.0
143
1.0
 70
  1712
 72
     0
 73
     0
 74
     0
  7

 75
     0
147
1.0
148
0.0
149
0.0
100
AcDbLayout
  1
Model
 70
     1
 71
     0
 10
0.0
 20
0.0
 11
12.0
 21
9.0
 12
0.0
 22
0.0
 32
0.0
 14
0.0
 24
0.0
 34
0.0
 15
0.0
 25
0.0
 35
0.0
146
0.0
 13
0.0
 23
0.0
 33
0.0
 16
1.0
 26
0.0
 36
0.0
 17
0.0
 27
1.0
 37
0.0
 76
     0
330
18
331
30C3
  0
LAYOUT
  5
311B
102
{ACAD_XDICTIONARY
360
3177
102
}
102
{ACAD_REACTORS
330
94
102
}
330
94
100
AcDbPlotSettings
  1

  2
Canon LBP9100C
  4

  6

 40
0.0
 41
0.0
 42
0.0
 43
0.0
 44
0.0
 45
0.0
 46
0.0
 47
0.0
 48
0.0
 49
0.0
140
0.0
141
0.0
142
1.0
143
1.0
 70
   688
 72
     0
 73
     0
 74
     5
  7

 75
    16
147
1.0
148
0.0
149
0.0
100
AcDbLayout
  1
レイアウト1
 70
     1
 71
     1
 10
-3.757080078125
 20
-3.757083177566528
 11
293.2112426757812
 21
206.2162444591522
 12
0.0
 22
0.0
 32
0.0
 14
27.8447512626648
 24
20.24591643810271
 34
0.0
 15
250.6027613639831
 25
182.2132479429244
 35
0.0
146
0.0
 13
0.0
 23
0.0
 33
0.0
 16
1.0
 26
0.0
 36
0.0
 17
0.0
 27
1.0
 37
0.0
 76
     0
330
15
  0
MATERIAL
  5
30D6
102
{ACAD_XDICTIONARY
360
30D7
102
}
102
{ACAD_REACTORS
330
30CD
102
}
330
30CD
100
AcDbMaterial
  1
ByBlock
 72
     0
 43
0.0208333333333333
 43
0.0
 43
0.0
 43
0.0
 43
0.0
 43
0.0208333333333333
 43
0.0
 43
0.0
 43
0.0
 43
0.0
 43
1.0
 43
0.0
 43
0.0
 43
0.0
 43
0.0
 43
1.0
 77
     0
 47
0.0208333333333333
 47
0.0
 47
0.0
 47
0.0
 47
0.0
 47
0.0208333333333333
 47
0.0
 47
0.0
 47
0.0
 47
0.0
 47
1.0
 47
0.0
 47
0.0
 47
0.0
 47
0.0
 47
1.0
171
     0
 49
0.0208333333333333
 49
0.0
 49
0.0
 49
0.0
 49
0.0
 49
0.0208333333333333
 49
0.0
 49
0.0
 49
0.0
 49
0.0
 49
1.0
 49
0.0
 49
0.0
 49
0.0
 49
0.0
 49
1.0
175
     0
142
0.0208333333333333
142
0.0
142
0.0
142
0.0
142
0.0
142
0.0208333333333333
142
0.0
142
0.0
142
0.0
142
0.0
142
1.0
142
0.0
142
0.0
142
0.0
142
0.0
142
1.0
179
     0
144
0.0208333333333333
144
0.0
144
0.0
144
0.0
144
0.0
144
0.0208333333333333
144
0.0
144
0.0
144
0.0
144
0.0
144
1.0
144
0.0
144
0.0
144
0.0
144
0.0
144
1.0
147
0.0208333333333333
147
0.0
147
0.0
147
0.0
147
0.0
147
0.0208333333333333
147
0.0
147
0.0
147
0.0
147
0.0
147
1.0
147
0.0
147
0.0
147
0.0
147
0.0
147
1.0
  0
MATERIAL
  5
30CE
102
{ACAD_XDICTIONARY
360
30CF
102
}
102
{ACAD_REACTORS
330
30CD
102
}
330
30CD
100
AcDbMaterial
  1
ByLayer
 72
     0
 43
0.0208333333333333
 43
0.0
 43
0.0
 43
0.0
 43
0.0
 43
0.0208333333333333
 43
0.0
 43
0.0
 43
0.0
 43
0.0
 43
1.0
 43
0.0
 43
0.0
 43
0.0
 43
0.0
 43
1.0
 77
     0
 47
0.0208333333333333
 47
0.0
 47
0.0
 47
0.0
 47
0.0
 47
0.0208333333333333
 47
0.0
 47
0.0
 47
0.0
 47
0.0
 47
1.0
 47
0.0
 47
0.0
 47
0.0
 47
0.0
 47
1.0
171
     0
 49
0.0208333333333333
 49
0.0
 49
0.0
 49
0.0
 49
0.0
 49
0.0208333333333333
 49
0.0
 49
0.0
 49
0.0
 49
0.0
 49
1.0
 49
0.0
 49
0.0
 49
0.0
 49
0.0
 49
1.0
175
     0
142
0.0208333333333333
142
0.0
142
0.0
142
0.0
142
0.0
142
0.0208333333333333
142
0.0
142
0.0
142
0.0
142
0.0
142
1.0
142
0.0
142
0.0
142
0.0
142
0.0
142
1.0
179
     0
144
0.0208333333333333
144
0.0
144
0.0
144
0.0
144
0.0
144
0.0208333333333333
144
0.0
144
0.0
144
0.0
144
0.0
144
1.0
144
0.0
144
0.0
144
0.0
144
0.0
144
1.0
147
0.0208333333333333
147
0.0
147
0.0
147
0.0
147
0.0
147
0.0208333333333333
147
0.0
147
0.0
147
0.0
147
0.0
147
1.0
147
0.0
147
0.0
147
0.0
147
0.0
147
1.0
  0
MATERIAL
  5
30DE
102
{ACAD_XDICTIONARY
360
30DF
102
}
102
{ACAD_REACTORS
330
30CD
102
}
330
30CD
100
AcDbMaterial
  1
Global
 72
     0
 43
0.0208333333333333
 43
0.0
 43
0.0
 43
0.0
 43
0.0
 43
0.0208333333333333
 43
0.0
 43
0.0
 43
0.0
 43
0.0
 43
1.0
 43
0.0
 43
0.0
 43
0.0
 43
0.0
 43
1.0
 77
     0
 47
0.0208333333333333
 47
0.0
 47
0.0
 47
0.0
 47
0.0
 47
0.0208333333333333
 47
0.0
 47
0.0
 47
0.0
 47
0.0
 47
1.0
 47
0.0
 47
0.0
 47
0.0
 47
0.0
 47
1.0
171
     0
 49
0.0208333333333333
 49
0.0
 49
0.0
 49
0.0
 49
0.0
 49
0.0208333333333333
 49
0.0
 49
0.0
 49
0.0
 49
0.0
 49
1.0
 49
0.0
 49
0.0
 49
0.0
 49
0.0
 49
1.0
175
     0
142
0.0208333333333333
142
0.0
142
0.0
142
0.0
142
0.0
142
0.0208333333333333
142
0.0
142
0.0
142
0.0
142
0.0
142
1.0
142
0.0
142
0.0
142
0.0
142
0.0
142
1.0
179
     0
144
0.0208333333333333
144
0.0
144
0.0
144
0.0
144
0.0
144
0.0208333333333333
144
0.0
144
0.0
144
0.0
144
0.0
144
1.0
144
0.0
144
0.0
144
0.0
144
0.0
144
1.0
147
0.0208333333333333
147
0.0
147
0.0
147
0.0
147
0.0
147
0.0208333333333333
147
0.0
147
0.0
147
0.0
147
0.0
147
1.0
147
0.0
147
0.0
147
0.0
147
0.0
147
1.0
  0
MLEADERSTYLE
  5
3115
102
{ACAD_REACTORS
330
3114
102
}
330
3114
100
AcDbMLeaderStyle
170
     2
171
     1
172
     0
 90
        2
 40
0.0
 41
0.0
173
     1
 91
-1056964608
340
12
 92
       -2
290
     1
 42
0.09
291
     1
 43
0.36
  3
Standard
 44
0.18
300

342
F
174
     1
178
     6
175
     1
176
     0
 93
-1056964608
 45
0.18
292
     0
297
     0
 46
0.18
 94
-1056964608
 47
1.0
 49
1.0
140
1.0
293
     1
141
0.0
294
     1
177
     0
142
1.0
295
     0
296
     0
143
0.125
1001
ACAD_MLEADERVER
1070
     2
  0
MLINESTYLE
  5
1C
102
{ACAD_REACTORS
330
1B
102
}
330
1B
100
AcDbMlineStyle
  2
STANDARD
 70
     0
  3

 62
   256
 51
90.0
 52
90.0
 71
     2
 49
0.5
 62
   256
  6
BYLAYER
 49
-0.5
 62
   256
  6
BYLAYER
  0
ACDBPLACEHOLDER
  5
30CC
102
{ACAD_REACTORS
330
30CB
102
}
330
30CB
  0
SCALE
  5
3103
102
{ACAD_REACTORS
330
3102
102
}
330
3102
100
AcDbScale
 70
     0
300
1:1
140
1.0
141
1.0
290
     1
  0
SCALE
  5
3104
102
{ACAD_REACTORS
330
3102
102
}
330
3102
100
AcDbScale
 70
     0
300
1/128" = 1'-0"
140
0.0078125
141
12.0
290
     0
  0
SCALE
  5
3105
102
{ACAD_REACTORS
330
3102
102
}
330
3102
100
AcDbScale
 70
     0
300
1/64" = 1'-0"
140
0.015625
141
12.0
290
     0
  0
SCALE
  5
3106
102
{ACAD_REACTORS
330
3102
102
}
330
3102
100
AcDbScale
 70
     0
300
1/32" = 1'-0"
140
0.03125
141
12.0
290
     0
  0
SCALE
  5
3107
102
{ACAD_REACTORS
330
3102
102
}
330
3102
100
AcDbScale
 70
     0
300
1/16" = 1'-0"
140
0.0625
141
12.0
290
     0
  0
SCALE
  5
3108
102
{ACAD_REACTORS
330
3102
102
}
330
3102
100
AcDbScale
 70
     0
300
3/32" = 1'-0"
140
0.09375
141
12.0
290
     0
  0
SCALE
  5
3109
102
{ACAD_REACTORS
330
3102
102
}
330
3102
100
AcDbScale
 70
     0
300
1/8" = 1'-0"
140
0.125
141
12.0
290
     0
  0
SCALE
  5
310A
102
{ACAD_REACTORS
330
3102
102
}
330
3102
100
AcDbScale
 70
     0
300
3/16" = 1'-0"
140
0.1875
141
12.0
290
     0
  0
SCALE
  5
310B
102
{ACAD_REACTORS
330
3102
102
}
330
3102
100
AcDbScale
 70
     0
300
1/4" = 1'-0"
140
0.25
141
12.0
290
     0
  0
SCALE
  5
310C
102
{ACAD_REACTORS
330
3102
102
}
330
3102
100
AcDbScale
 70
     0
300
3/8" = 1'-0"
140
0.375
141
12.0
290
     0
  0
SCALE
  5
310D
102
{ACAD_REACTORS
330
3102
102
}
330
3102
100
AcDbScale
 70
     0
300
1/2" = 1'-0"
140
0.5
141
12.0
290
     0
  0
SCALE
  5
310E
102
{ACAD_REACTORS
330
3102
102
}
330
3102
100
AcDbScale
 70
     0
300
3/4" = 1'-0"
140
0.75
141
12.0
290
     0
  0
SCALE
  5
310F
102
{ACAD_REACTORS
330
3102
102
}
330
3102
100
AcDbScale
 70
     0
300
1" = 1'-0"
140
1.0
141
12.0
290
     0
  0
SCALE
  5
3110
102
{ACAD_REACTORS
330
3102
102
}
330
3102
100
AcDbScale
 70
     0
300
1-1/2" = 1'-0"
140
1.5
141
12.0
290
     0
  0
SCALE
  5
3111
102
{ACAD_REACTORS
330
3102
102
}
330
3102
100
AcDbScale
 70
     0
300
3" = 1'-0"
140
3.0
141
12.0
290
     0
  0
SCALE
  5
3112
102
{ACAD_REACTORS
330
3102
102
}
330
3102
100
AcDbScale
 70
     0
300
6" = 1'-0"
140
6.0
141
12.0
290
     0
  0
SCALE
  5
3113
102
{ACAD_REACTORS
330
3102
102
}
330
3102
100
AcDbScale
 70
     0
300
1'-0" = 1'-0"
140
12.0
141
12.0
290
     0
  0
ACDBSECTIONVIEWSTYLE
  5
3117
102
{ACAD_XDICTIONARY
360
3171
102
}
102
{ACAD_REACTORS
330
3116
102
}
330
3116
100
AcDbModelDocViewStyle
 70
     0
  3
Imperial24
290
     0
100
AcDbSectionViewStyle
 70
     0
 71
     0
 90
       78
 71
     1
340
F
 40
0.24
340
0
340
0
 40
0.24
300
I, O, Q, S, X, Z
 40
0.48
 90
        3
 40
0.18
 90
        1
 71
     2
340
14
 90
       25
340
14
 90
       50
 40
0.24
 40
0.0
 40
0.24
 71
     3
340
F
 40
0.24
 90
        1
 40
0.75
 90
        1
300
%<\AcVar ViewType \f "%tc1">% %<\AcVar ViewSectionStartId>%-%<\AcVar ViewSectionEndId>%\PSCALE %<\AcVar ViewScale \f "%sn">%
 71
     4
300
ANSI31
 40
1.0
 90
        0
290
     0
290
     0
 90
        6
 40
0.0
 40
1.570796326794896
 40
0.2617993877991494
 40
1.308996938995747
 40
-0.2617993877991494
 40
1.832595714594046
  0
TABLESTYLE
  5
3101
102
{ACAD_XDICTIONARY
360
3138
102
}
102
{ACAD_REACTORS
330
3100
102
}
330
3100
100
AcDbTableStyle
  3
Standard
 70
     0
 71
     0
 40
0.06
 41
0.06
280
     0
281
     0
  7
STANDARD
140
0.18
170
     2
 62
     0
 63
     7
283
     0
274
    -2
284
     1
 64
     0
275
    -2
285
     1
 65
     0
276
    -2
286
     1
 66
     0
277
    -2
287
     1
 67
     0
278
    -2
288
     1
 68
     0
279
    -2
289
     1
 69
     0
  7
STANDARD
140
0.25
170
     5
 62
     0
 63
     7
283
     0
274
    -2
284
     1
 64
     0
275
    -2
285
     1
 65
     0
276
    -2
286
     1
 66
     0
277
    -2
287
     1
 67
     0
278
    -2
288
     1
 68
     0
279
    -2
289
     1
 69
     0
  7
STANDARD
140
0.18
170
     5
 62
     0
 63
     7
283
     0
274
    -2
284
     1
 64
     0
275
    -2
285
     1
 65
     0
276
    -2
286
     1
 66
     0
277
    -2
287
     1
 67
     0
278
    -2
288
     1
 68
     0
279
    -2
289
     1
 69
     0
  0
VISUALSTYLE
  5
30EC
102
{ACAD_XDICTIONARY
360
3149
102
}
102
{ACAD_REACTORS
330
30E6
102
}
330
30E6
100
AcDbVisualStyle
  2
2dWireframe
 70
     4
 71
     0
 72
     2
 73
     0
 90
        0
 40
-0.6
 41
-30.0
 62
     5
 63
     7
 74
     1
 91
        4
 64
     7
 65
   257
 75
     1
175
     1
 42
1.0
 92
        0
 66
   257
 43
1.0
 76
     1
 77
     6
 78
     2
 67
     7
 79
     5
170
     0
171
     0
290
     0
174
     0
 93
        1
 44
0.0
173
     0
291
     0
 45
0.0
1001
ACAD
1000
AcDbSavedByObjectVersion
1070
     0
  0
VISUALSTYLE
  5
30EB
102
{ACAD_XDICTIONARY
360
3147
102
}
102
{ACAD_REACTORS
330
30E6
102
}
330
30E6
100
AcDbVisualStyle
  2
Basic
 70
     7
 71
     1
 72
     0
 73
     1
 90
        0
 40
-0.6
 41
-30.0
 62
     5
 63
     7
 74
     0
 91
        4
 64
     7
 65
   257
 75
     1
175
     1
 42
1.0
 92
        8
 66
     7
 43
1.0
 76
     1
 77
     6
 78
     2
 67
     7
 79
     5
170
     0
171
     0
290
     0
174
     0
 93
        1
 44
0.0
173
     0
291
     1
 45
0.0
1001
ACAD
1000
AcDbSavedByObjectVersion
1070
     0
  0
VISUALSTYLE
  5
30F2
102
{ACAD_XDICTIONARY
360
3155
102
}
102
{ACAD_REACTORS
330
30E6
102
}
330
30E6
100
AcDbVisualStyle
  2
Brighten
 70
    12
 71
     2
 72
     2
 73
     0
 90
        0
 40
-0.6
 41
-30.0
 62
     5
 63
     7
 74
     1
 91
        4
 64
     7
 65
   257
 75
     1
175
     1
 42
1.0
 92
        8
 66
     7
 43
1.0
 76
     1
 77
     6
 78
     2
 67
     7
 79
     5
170
     0
171
     0
290
     0
174
     0
 93
        1
 44
50.0
173
     0
291
     1
 45
0.0
1001
ACAD
1000
AcDbSavedByObjectVersion
1070
     0
  0
VISUALSTYLE
  5
30F6
102
{ACAD_XDICTIONARY
360
315D
102
}
102
{ACAD_REACTORS
330
30E6
102
}
330
30E6
100
AcDbVisualStyle
  2
ColorChange
 70
    16
 71
     2
 72
     2
 73
     3
 90
        0
 40
-0.6
 41
-30.0
 62
     5
 63
     8
 74
     1
 91
        4
 64
     7
 65
   257
 75
     1
175
     1
 42
1.0
 92
        8
 66
     8
 43
1.0
 76
     1
 77
     6
 78
     2
 67
     7
 79
     5
170
     0
171
     0
290
     0
174
     0
 93
        1
 44
0.0
173
     0
291
     1
 45
0.0
1001
ACAD
1000
AcDbSavedByObjectVersion
1070
     0
  0
VISUALSTYLE
  5
30EF
102
{ACAD_XDICTIONARY
360
314F
102
}
102
{ACAD_REACTORS
330
30E6
102
}
330
30E6
100
AcDbVisualStyle
  2
Conceptual
 70
     9
 71
     3
 72
     2
 73
     0
 90
        0
 40
-0.6
 41
-30.0
 62
     5
 63
     7
 74
     2
 91
        2
 64
     7
 65
   257
 75
     1
175
     1
 42
179.0
 92
        8
 66
     7
 43
1.0
 76
     1
 77
     6
 78
     2
 67
     7
 79
     3
170
     0
171
     0
290
     0
174
     0
 93
        1
 44
0.0
173
     0
291
     0
 45
0.0
1001
ACAD
1000
AcDbSavedByObjectVersion
1070
     0
  0
VISUALSTYLE
  5
30F1
102
{ACAD_XDICTIONARY
360
3153
102
}
102
{ACAD_REACTORS
330
30E6
102
}
330
30E6
100
AcDbVisualStyle
  2
Dim
 70
    11
 71
     2
 72
     2
 73
     0
 90
        0
 40
-0.6
 41
-30.0
 62
     5
 63
     7
 74
     1
 91
        4
 64
     7
 65
   257
 75
     1
175
     1
 42
1.0
 92
        8
 66
     7
 43
1.0
 76
     1
 77
     6
 78
     2
 67
     7
 79
     5
170
     0
171
     0
290
     0
174
     0
 93
        1
 44
-50.0
173
     0
291
     1
 45
0.0
1001
ACAD
1000
AcDbSavedByObjectVersion
1070
     0
  0
VISUALSTYLE
  5
30FE
102
{ACAD_XDICTIONARY
360
316D
102
}
102
{ACAD_REACTORS
330
30E6
102
}
330
30E6
100
AcDbVisualStyle
  2
EdgeColorOff
 70
    22
 71
     2
 72
     2
 73
     0
 90
        0
 40
-0.6
 41
-30.0
 62
     5
 63
     7
 74
     1
 91
        4
 64
     7
 65
   257
 75
     1
175
     1
 42
1.0
 92
        8
 66
     7
 43
1.0
 76
     1
 77
     6
 78
     2
 67
     7
 79
     5
170
     0
171
     0
290
     0
174
     0
 93
        1
 44
0.0
173
     0
291
     1
 45
0.0
1001
ACAD
1000
AcDbSavedByObjectVersion
1070
     0
  0
VISUALSTYLE
  5
30F5
102
{ACAD_XDICTIONARY
360
315B
102
}
102
{ACAD_REACTORS
330
30E6
102
}
330
30E6
100
AcDbVisualStyle
  2
Facepattern
 70
    15
 71
     2
 72
     2
 73
     0
 90
        0
 40
-0.6
 41
-30.0
 62
     5
 63
     7
 74
     1
 91
        4
 64
     7
 65
   257
 75
     1
175
     1
 42
1.0
 92
        8
 66
     7
 43
1.0
 76
     1
 77
     6
 78
     2
 67
     7
 79
     5
170
     0
171
     0
290
     0
174
     0
 93
        1
 44
0.0
173
     0
291
     1
 45
0.0
1001
ACAD
1000
AcDbSavedByObjectVersion
1070
     0
  0
VISUALSTYLE
  5
30E7
102
{ACAD_XDICTIONARY
360
313F
102
}
102
{ACAD_REACTORS
330
30E6
102
}
330
30E6
100
AcDbVisualStyle
  2
Flat
 70
     0
 71
     2
 72
     1
 73
     1
 90
        2
 40
-0.6
 41
30.0
 62
     5
 63
     7
 74
     0
 91
        0
 64
     7
 65
   257
 75
     1
175
     1
 42
1.0
 92
        8
 66
     7
 43
1.0
 76
     1
 77
     6
 78
     2
 67
     7
 79
     5
170
     0
171
     0
290
     0
174
     0
 93
       13
 44
0.0
173
     0
291
     1
 45
0.0
1001
ACAD
1000
AcDbSavedByObjectVersion
1070
     0
  0
VISUALSTYLE
  5
30E8
102
{ACAD_XDICTIONARY
360
3141
102
}
102
{ACAD_REACTORS
330
30E6
102
}
330
30E6
100
AcDbVisualStyle
  2
FlatWithEdges
 70
     1
 71
     2
 72
     1
 73
     1
 90
        2
 40
-0.6
 41
30.0
 62
     5
 63
     7
 74
     1
 91
        0
 64
     7
 65
   257
 75
     1
175
     1
 42
1.0
 92
        0
 66
   257
 43
1.0
 76
     1
 77
     6
 78
     2
 67
     7
 79
     5
170
     0
171
     0
290
     0
174
     0
 93
       13
 44
0.0
173
     0
291
     1
 45
0.0
1001
ACAD
1000
AcDbSavedByObjectVersion
1070
     0
  0
VISUALSTYLE
  5
30E9
102
{ACAD_XDICTIONARY
360
3143
102
}
102
{ACAD_REACTORS
330
30E6
102
}
330
30E6
100
AcDbVisualStyle
  2
Gouraud
 70
     2
 71
     2
 72
     2
 73
     1
 90
        2
 40
-0.6
 41
30.0
 62
     5
 63
     7
 74
     0
 91
        0
 64
     7
 65
   257
 75
     1
175
     1
 42
1.0
 92
        0
 66
     7
 43
1.0
 76
     1
 77
     6
 78
     2
 67
     7
 79
     5
170
     0
171
     0
290
     0
174
     0
 93
       13
 44
0.0
173
     0
291
     1
 45
0.0
1001
ACAD
1000
AcDbSavedByObjectVersion
1070
     0
  0
VISUALSTYLE
  5
30EA
102
{ACAD_XDICTIONARY
360
3145
102
}
102
{ACAD_REACTORS
330
30E6
102
}
330
30E6
100
AcDbVisualStyle
  2
GouraudWithEdges
 70
     3
 71
     2
 72
     2
 73
     1
 90
        2
 40
-0.6
 41
30.0
 62
     5
 63
     7
 74
     1
 91
        0
 64
     7
 65
   257
 75
     1
175
     1
 42
1.0
 92
        0
 66
   257
 43
1.0
 76
     1
 77
     6
 78
     2
 67
     7
 79
     5
170
     0
171
     0
290
     0
174
     0
 93
       13
 44
0.0
173
     0
291
     1
 45
0.0
1001
ACAD
1000
AcDbSavedByObjectVersion
1070
     0
  0
VISUALSTYLE
  5
30EE
102
{ACAD_XDICTIONARY
360
314D
102
}
102
{ACAD_REACTORS
330
30E6
102
}
330
30E6
100
AcDbVisualStyle
  2
Hidden
 70
     6
 71
     1
 72
     2
 73
     2
 90
        0
 40
-0.6
 41
-30.0
 62
     5
 63
     7
 74
     2
 91
        2
 64
     7
 65
   257
 75
     2
175
     1
 42
40.0
 92
        0
 66
   257
 43
1.0
 76
     1
 77
     6
 78
     2
 67
     7
 79
     3
170
     0
171
     0
290
     0
174
     0
 93
        1
 44
0.0
173
     0
291
     0
 45
0.0
1001
ACAD
1000
AcDbSavedByObjectVersion
1070
     0
  0
VISUALSTYLE
  5
30FC
102
{ACAD_XDICTIONARY
360
3169
102
}
102
{ACAD_REACTORS
330
30E6
102
}
330
30E6
100
AcDbVisualStyle
  2
JitterOff
 70
    20
 71
     2
 72
     2
 73
     0
 90
        0
 40
-0.6
 41
-30.0
 62
     5
 63
     7
 74
     1
 91
        4
 64
     7
 65
   257
 75
     1
175
     1
 42
1.0
 92
       10
 66
     7
 43
1.0
 76
     1
 77
     6
 78
     2
 67
     7
 79
     5
170
     0
171
     0
290
     0
174
     0
 93
        1
 44
0.0
173
     0
291
     1
 45
0.0
1001
ACAD
1000
AcDbSavedByObjectVersion
1070
     0
  0
VISUALSTYLE
  5
30F4
102
{ACAD_XDICTIONARY
360
3159
102
}
102
{ACAD_REACTORS
330
30E6
102
}
330
30E6
100
AcDbVisualStyle
  2
Linepattern
 70
    14
 71
     2
 72
     2
 73
     0
 90
        0
 40
-0.6
 41
-30.0
 62
     5
 63
     7
 74
     1
 91
        4
 64
     7
 65
   257
 75
     7
175
     7
 42
1.0
 92
        8
 66
     7
 43
1.0
 76
     1
 77
     6
 78
     2
 67
     7
 79
     5
170
     0
171
     0
290
     0
174
     0
 93
        1
 44
0.0
173
     0
291
     1
 45
0.0
1001
ACAD
1000
AcDbSavedByObjectVersion
1070
     0
  0
VISUALSTYLE
  5
30FD
102
{ACAD_XDICTIONARY
360
316B
102
}
102
{ACAD_REACTORS
330
30E6
102
}
330
30E6
100
AcDbVisualStyle
  2
OverhangOff
 70
    21
 71
     2
 72
     2
 73
     0
 90
        0
 40
-0.6
 41
-30.0
 62
     5
 63
     7
 74
     1
 91
        4
 64
     7
 65
   257
 75
     1
175
     1
 42
1.0
 92
        9
 66
     7
 43
1.0
 76
     1
 77
     6
 78
     2
 67
     7
 79
     5
170
     0
171
     0
290
     0
174
     0
 93
        1
 44
0.0
173
     0
291
     1
 45
0.0
1001
ACAD
1000
AcDbSavedByObjectVersion
1070
     0
  0
VISUALSTYLE
  5
30F0
102
{ACAD_XDICTIONARY
360
3151
102
}
102
{ACAD_REACTORS
330
30E6
102
}
330
30E6
100
AcDbVisualStyle
  2
Realistic
 70
     8
 71
     2
 72
     3
 73
     0
 90
        2
 40
-0.6
 41
30.0
 62
     5
 63
     7
 74
     0
 91
        0
 64
     7
 65
   257
 75
     1
175
     1
 42
1.0
 92
        8
 66
   257
 43
1.0
 76
     1
 77
     6
 78
     2
 67
     7
 79
     3
170
     0
171
     0
290
     0
174
     0
 93
       13
 44
0.0
173
     0
291
     0
 45
0.0
1001
ACAD
1000
AcDbSavedByObjectVersion
1070
     0
  0
VISUALSTYLE
  5
30FB
102
{ACAD_XDICTIONARY
360
3167
102
}
102
{ACAD_REACTORS
330
30E6
102
}
330
30E6
100
AcDbVisualStyle
  2
Shaded
 70
    27
 71
     2
 72
     2
 73
     1
 90
        2
 40
-0.6
 41
30.0
 62
     5
 63
     7
 74
     0
 91
        4
 64
     7
 65
   257
 75
     1
175
     1
 42
1.0
 92
        8
 66
   257
 43
1.0
 76
     1
 77
     6
 78
     2
 67
     8
 79
     3
170
     0
171
     0
290
     0
174
     0
 93
        5
 44
0.0
173
     0
291
     0
 45
0.0
1001
ACAD
1000
AcDbSavedByObjectVersion
1070
     0
  0
VISUALSTYLE
  5
30FA
102
{ACAD_XDICTIONARY
360
3165
102
}
102
{ACAD_REACTORS
330
30E6
102
}
330
30E6
100
AcDbVisualStyle
  2
Shaded with edges
 70
    26
 71
     2
 72
     2
 73
     1
 90
        2
 40
-0.6
 41
30.0
 62
     5
 63
     7
 74
     1
 91
       10
 64
     7
 65
   257
 75
     2
175
     1
 42
1.0
 92
        8
 66
   257
 43
1.0
 76
     1
 77
     6
 78
     2
 67
     7
 79
     3
170
     0
171
     0
290
     0
174
     0
 93
        5
 44
0.0
173
     0
291
     0
 45
0.0
1001
ACAD
1000
AcDbSavedByObjectVersion
1070
     0
  0
VISUALSTYLE
  5
30F7
102
{ACAD_XDICTIONARY
360
315F
102
}
102
{ACAD_REACTORS
330
30E6
102
}
330
30E6
100
AcDbVisualStyle
  2
Shades of Gray
 70
    23
 71
     2
 72
     2
 73
     3
 90
        0
 40
-0.6
 41
-30.0
 62
     5
 63
     7
 74
     2
 91
        2
 64
     7
 65
     7
 75
     1
175
     1
 42
40.0
 92
        8
 66
     7
 43
1.0
 76
     1
 77
     6
 78
     2
 67
     7
 79
     3
170
     0
171
     0
290
     0
174
     0
 93
        1
 44
0.0
173
     0
291
     0
 45
0.0
1001
ACAD
1000
AcDbSavedByObjectVersion
1070
     0
  0
VISUALSTYLE
  5
30F8
102
{ACAD_XDICTIONARY
360
3161
102
}
102
{ACAD_REACTORS
330
30E6
102
}
330
30E6
100
AcDbVisualStyle
  2
Sketchy
 70
    24
 71
     1
 72
     2
 73
     2
 90
        0
 40
-0.6
 41
-30.0
 62
     5
 63
     7
 74
     2
 91
        2
 64
     7
 65
     7
 75
     1
175
     1
 42
40.0
 92
       11
 66
     7
 43
1.0
 76
     1
 77
     6
 78
     2
 67
     7
 79
     6
170
     0
171
     0
290
     0
174
     0
 93
        1
 44
0.0
173
     0
291
     0
 45
0.0
1001
ACAD
1000
AcDbSavedByObjectVersion
1070
     0
  0
VISUALSTYLE
  5
30F3
102
{ACAD_XDICTIONARY
360
3157
102
}
102
{ACAD_REACTORS
330
30E6
102
}
330
30E6
100
AcDbVisualStyle
  2
Thicken
 70
    13
 71
     2
 72
     2
 73
     0
 90
        0
 40
-0.6
 41
-30.0
 62
     5
 63
     7
 74
     1
 91
        4
 64
     7
 65
   257
 75
     1
175
     1
 42
1.0
 92
       12
 66
     7
 43
1.0
 76
     1
 77
     6
 78
     2
 67
     7
 79
     5
170
     0
171
     0
290
     0
174
     0
 93
        1
 44
0.0
173
     0
291
     1
 45
0.0
1001
ACAD
1000
AcDbSavedByObjectVersion
1070
     0
  0
VISUALSTYLE
  5
30ED
102
{ACAD_XDICTIONARY
360
314B
102
}
102
{ACAD_REACTORS
330
30E6
102
}
330
30E6
100
AcDbVisualStyle
  2
Wireframe
 70
     5
 71
     0
 72
     2
 73
     0
 90
        0
 40
-0.6
 41
-30.0
 62
     5
 63
     7
 74
     1
 91
        4
 64
     7
 65
   257
 75
     1
175
     1
 42
1.0
 92
        0
 66
   257
 43
1.0
 76
     1
 77
     6
 78
     2
 67
     7
 79
     3
170
     0
171
     0
290
     0
174
     0
 93
        1
 44
0.0
173
     0
291
     0
 45
0.0
1001
ACAD
1000
AcDbSavedByObjectVersion
1070
     0
  0
VISUALSTYLE
  5
30F9
102
{ACAD_XDICTIONARY
360
3163
102
}
102
{ACAD_REACTORS
330
30E6
102
}
330
30E6
100
AcDbVisualStyle
  2
X-Ray
 70
    25
 71
     2
 72
     2
 73
     1
 90
        1
 40
0.5
 41
-30.0
 62
     5
 63
     7
 74
     1
 91
        0
 64
     7
 65
   257
 75
     1
175
     1
 42
1.0
 92
        8
 66
     7
 43
1.0
 76
     1
 77
     6
 78
     2
 67
     7
 79
     3
170
     0
171
     0
290
     0
174
     0
 93
       13
 44
0.0
173
     0
291
     0
 45
0.0
1001
ACAD
1000
AcDbSavedByObjectVersion
1070
     0
  0
DICTIONARYVAR
  5
3132
102
{ACAD_REACTORS
330
312D
102
}
330
312D
100
DictionaryVariables
280
     0
  1
1:1
  0
DICTIONARYVAR
  5
312F
102
{ACAD_REACTORS
330
312D
102
}
330
312D
100
DictionaryVariables
280
     0
  1
STANDARD
  0
DICTIONARYVAR
  5
312E
102
{ACAD_REACTORS
330
312D
102
}
330
312D
100
DictionaryVariables
280
     0
  1
STANDARD
  0
DICTIONARYVAR
  5
3130
102
{ACAD_REACTORS
330
312D
102
}
330
312D
100
DictionaryVariables
280
     0
  1
Imperial24
  0
DICTIONARYVAR
  5
3131
102
{ACAD_REACTORS
330
312D
102
}
330
312D
100
DictionaryVariables
280
     0
  1
Imperial24
  0
DICTIONARYVAR
  5
3135
102
{ACAD_REACTORS
330
312D
102
}
330
312D
100
DictionaryVariables
280
     0
  1
1
  0
DICTIONARYVAR
  5
3134
102
{ACAD_REACTORS
330
312D
102
}
330
312D
100
DictionaryVariables
280
     0
  1
0
  0
DICTIONARYVAR
  5
3133
102
{ACAD_REACTORS
330
312D
102
}
330
312D
100
DictionaryVariables
280
     0
  1
127
  0
DICTIONARYVAR
  5
3136
102
{ACAD_REACTORS
330
312D
102
}
330
312D
100
DictionaryVariables
280
     0
  1
2
  0
DICTIONARY
  5
3173
330
3119
100
AcDbDictionary
280
     1
281
     1
  3
ACAD_XREC_ROUNDTRIP
360
3174
  0
DICTIONARY
  5
3175
330
311A
100
AcDbDictionary
280
     1
281
     1
  3
ACAD_XREC_ROUNDTRIP
360
3176
  0
DICTIONARY
  5
3177
330
311B
100
AcDbDictionary
280
     1
281
     1
  3
ACAD_XREC_ROUNDTRIP
360
3178
  0
DICTIONARY
  5
30D7
330
30D6
100
AcDbDictionary
280
     1
281
     1
  3
ACAD_XREC_ROUNDTRIP
360
313D
  3
BUMPTILE
360
30D9
  3
DIFFUSETILE
360
30D8
  3
OPACITYTILE
360
30DC
  3
REFLECTIONTILE
360
30DB
  3
REFRACTIONTILE
360
30DD
  3
SPECULARTILE
360
30DA
  0
DICTIONARY
  5
30CF
330
30CE
100
AcDbDictionary
280
     1
281
     1
  3
ACAD_XREC_ROUNDTRIP
360
313C
  3
BUMPTILE
360
30D1
  3
DIFFUSETILE
360
30D0
  3
OPACITYTILE
360
30D4
  3
REFLECTIONTILE
360
30D3
  3
REFRACTIONTILE
360
30D5
  3
SPECULARTILE
360
30D2
  0
DICTIONARY
  5
30DF
330
30DE
100
AcDbDictionary
280
     1
281
     1
  3
ACAD_XREC_ROUNDTRIP
360
313E
  3
BUMPTILE
360
30E1
  3
DIFFUSETILE
360
30E0
  3
OPACITYTILE
360
30E4
  3
REFLECTIONTILE
360
30E3
  3
REFRACTIONTILE
360
30E5
  3
SPECULARTILE
360
30E2
  0
DICTIONARY
  5
3171
330
3117
100
AcDbDictionary
280
     1
281
     1
  3
ACAD_XREC_ROUNDTRIP
360
3172
  0
DICTIONARY
  5
3138
330
3101
100
AcDbDictionary
280
     1
281
     1
  3
ACAD_ROUNDTRIP_2008_TABLESTYLE_CELLSTYLEMAP
360
3139
  3
ACAD_XREC_ROUNDTRIP
360
316F
  0
DICTIONARY
  5
3149
330
30EC
100
AcDbDictionary
280
     1
281
     1
  3
ACAD_XREC_ROUNDTRIP
360
314A
  0
DICTIONARY
  5
3147
330
30EB
100
AcDbDictionary
280
     1
281
     1
  3
ACAD_XREC_ROUNDTRIP
360
3148
  0
DICTIONARY
  5
3155
330
30F2
100
AcDbDictionary
280
     1
281
     1
  3
ACAD_XREC_ROUNDTRIP
360
3156
  0
DICTIONARY
  5
315D
330
30F6
100
AcDbDictionary
280
     1
281
     1
  3
ACAD_XREC_ROUNDTRIP
360
315E
  0
DICTIONARY
  5
314F
330
30EF
100
AcDbDictionary
280
     1
281
     1
  3
ACAD_XREC_ROUNDTRIP
360
3150
  0
DICTIONARY
  5
3153
330
30F1
100
AcDbDictionary
280
     1
281
     1
  3
ACAD_XREC_ROUNDTRIP
360
3154
  0
DICTIONARY
  5
316D
330
30FE
100
AcDbDictionary
280
     1
281
     1
  3
ACAD_XREC_ROUNDTRIP
360
316E
  0
DICTIONARY
  5
315B
330
30F5
100
AcDbDictionary
280
     1
281
     1
  3
ACAD_XREC_ROUNDTRIP
360
315C
  0
DICTIONARY
  5
313F
330
30E7
100
AcDbDictionary
280
     1
281
     1
  3
ACAD_XREC_ROUNDTRIP
360
3140
  0
DICTIONARY
  5
3141
330
30E8
100
AcDbDictionary
280
     1
281
     1
  3
ACAD_XREC_ROUNDTRIP
360
3142
  0
DICTIONARY
  5
3143
330
30E9
100
AcDbDictionary
280
     1
281
     1
  3
ACAD_XREC_ROUNDTRIP
360
3144
  0
DICTIONARY
  5
3145
330
30EA
100
AcDbDictionary
280
     1
281
     1
  3
ACAD_XREC_ROUNDTRIP
360
3146
  0
DICTIONARY
  5
314D
330
30EE
100
AcDbDictionary
280
     1
281
     1
  3
ACAD_XREC_ROUNDTRIP
360
314E
  0
DICTIONARY
  5
3169
330
30FC
100
AcDbDictionary
280
     1
281
     1
  3
ACAD_XREC_ROUNDTRIP
360
316A
  0
DICTIONARY
  5
3159
330
30F4
100
AcDbDictionary
280
     1
281
     1
  3
ACAD_XREC_ROUNDTRIP
360
315A
  0
DICTIONARY
  5
316B
330
30FD
100
AcDbDictionary
280
     1
281
     1
  3
ACAD_XREC_ROUNDTRIP
360
316C
  0
DICTIONARY
  5
3151
330
30F0
100
AcDbDictionary
280
     1
281
     1
  3
ACAD_XREC_ROUNDTRIP
360
3152
  0
DICTIONARY
  5
3167
330
30FB
100
AcDbDictionary
280
     1
281
     1
  3
ACAD_XREC_ROUNDTRIP
360
3168
  0
DICTIONARY
  5
3165
330
30FA
100
AcDbDictionary
280
     1
281
     1
  3
ACAD_XREC_ROUNDTRIP
360
3166
  0
DICTIONARY
  5
315F
330
30F7
100
AcDbDictionary
280
     1
281
     1
  3
ACAD_XREC_ROUNDTRIP
360
3160
  0
DICTIONARY
  5
3161
330
30F8
100
AcDbDictionary
280
     1
281
     1
  3
ACAD_XREC_ROUNDTRIP
360
3162
  0
DICTIONARY
  5
3157
330
30F3
100
AcDbDictionary
280
     1
281
     1
  3
ACAD_XREC_ROUNDTRIP
360
3158
  0
DICTIONARY
  5
314B
330
30ED
100
AcDbDictionary
280
     1
281
     1
  3
ACAD_XREC_ROUNDTRIP
360
314C
  0
DICTIONARY
  5
3163
330
30F9
100
AcDbDictionary
280
     1
281
     1
  3
ACAD_XREC_ROUNDTRIP
360
3164
  0
XRECORD
  5
3174
102
{ACAD_REACTORS
330
3173
102
}
330
3173
100
AcDbXrecord
280
     1
102
DISPLAYNAME
  1
Imperial24
102
FLAGS
 90
        0
  0
XRECORD
  5
3176
102
{ACAD_REACTORS
330
3175
102
}
330
3175
100
AcDbXrecord
280
     1
102
SHADEPLOT
 70
     0
102
SHADEPLOTRESLEVEL
 70
     2
102
SHADEPLOTCUSTOMDPI
 70
   300
  0
XRECORD
  5
3178
102
{ACAD_REACTORS
330
3177
102
}
330
3177
100
AcDbXrecord
280
     1
102
SHADEPLOT
 70
     0
102
SHADEPLOTRESLEVEL
 70
     2
102
SHADEPLOTCUSTOMDPI
 70
   300
  0
XRECORD
  5
313D
102
{ACAD_REACTORS
330
30D7
102
}
330
30D7
100
AcDbXrecord
280
     1
102
MATERIAL
148
0.0
149
0.0
149
0.0
 93
        0
 94
      127
282
     0
 72
     0
 77
     0
171
     0
175
     0
179
     0
273
     0
  0
XRECORD
  5
30D9
102
{ACAD_REACTORS
330
30D7
102
}
330
30D7
100
AcDbXrecord
280
     1
270
     1
271
     1
  0
XRECORD
  5
30D8
102
{ACAD_REACTORS
330
30D7
102
}
330
30D7
100
AcDbXrecord
280
     1
270
     1
271
     1
  0
XRECORD
  5
30DC
102
{ACAD_REACTORS
330
30D7
102
}
330
30D7
100
AcDbXrecord
280
     1
270
     1
271
     1
  0
XRECORD
  5
30DB
102
{ACAD_REACTORS
330
30D7
102
}
330
30D7
100
AcDbXrecord
280
     1
270
     1
271
     1
  0
XRECORD
  5
30DD
102
{ACAD_REACTORS
330
30D7
102
}
330
30D7
100
AcDbXrecord
280
     1
270
     1
271
     1
  0
XRECORD
  5
30DA
102
{ACAD_REACTORS
330
30D7
102
}
330
30D7
100
AcDbXrecord
280
     1
270
     1
271
     1
  0
XRECORD
  5
313C
102
{ACAD_REACTORS
330
30CF
102
}
330
30CF
100
AcDbXrecord
280
     1
102
MATERIAL
148
0.0
149
0.0
149
0.0
 93
        0
 94
      127
282
     0
 72
     0
 77
     0
171
     0
175
     0
179
     0
273
     0
  0
XRECORD
  5
30D1
102
{ACAD_REACTORS
330
30CF
102
}
330
30CF
100
AcDbXrecord
280
     1
270
     1
271
     1
  0
XRECORD
  5
30D0
102
{ACAD_REACTORS
330
30CF
102
}
330
30CF
100
AcDbXrecord
280
     1
270
     1
271
     1
  0
XRECORD
  5
30D4
102
{ACAD_REACTORS
330
30CF
102
}
330
30CF
100
AcDbXrecord
280
     1
270
     1
271
     1
  0
XRECORD
  5
30D3
102
{ACAD_REACTORS
330
30CF
102
}
330
30CF
100
AcDbXrecord
280
     1
270
     1
271
     1
  0
XRECORD
  5
30D5
102
{ACAD_REACTORS
330
30CF
102
}
330
30CF
100
AcDbXrecord
280
     1
270
     1
271
     1
  0
XRECORD
  5
30D2
102
{ACAD_REACTORS
330
30CF
102
}
330
30CF
100
AcDbXrecord
280
     1
270
     1
271
     1
  0
XRECORD
  5
313E
102
{ACAD_REACTORS
330
30DF
102
}
330
30DF
100
AcDbXrecord
280
     1
102
MATERIAL
148
0.0
149
0.0
149
0.0
 93
        0
 94
      127
282
     0
 72
     0
 77
     0
171
     0
175
     0
179
     0
273
     0
  0
XRECORD
  5
30E1
102
{ACAD_REACTORS
330
30DF
102
}
330
30DF
100
AcDbXrecord
280
     1
270
     1
271
     1
  0
XRECORD
  5
30E0
102
{ACAD_REACTORS
330
30DF
102
}
330
30DF
100
AcDbXrecord
280
     1
270
     1
271
     1
  0
XRECORD
  5
30E4
102
{ACAD_REACTORS
330
30DF
102
}
330
30DF
100
AcDbXrecord
280
     1
270
     1
271
     1
  0
XRECORD
  5
30E3
102
{ACAD_REACTORS
330
30DF
102
}
330
30DF
100
AcDbXrecord
280
     1
270
     1
271
     1
  0
XRECORD
  5
30E5
102
{ACAD_REACTORS
330
30DF
102
}
330
30DF
100
AcDbXrecord
280
     1
270
     1
271
     1
  0
XRECORD
  5
30E2
102
{ACAD_REACTORS
330
30DF
102
}
330
30DF
100
AcDbXrecord
280
     1
270
     1
271
     1
  0
XRECORD
  5
3172
102
{ACAD_REACTORS
330
3171
102
}
330
3171
100
AcDbXrecord
280
     1
102
DISPLAYNAME
  1
Imperial24
102
FLAGS
 90
        0
  0
CELLSTYLEMAP
  5
3139
102
{ACAD_REACTORS
330
3138
102
}
330
3138
100
AcDbCellStyleMap
 90
        3
300
CELLSTYLE
  1
TABLEFORMAT_BEGIN
 90
        5
170
     1
 91
        0
 92
    32768
 62
   257
 93
        1
300
CONTENTFORMAT
  1
CONTENTFORMAT_BEGIN
 90
        0
 91
        0
 92
      512
 93
        0
300

 40
0.0
140
1.0
 94
        5
 62
     0
340
F
144
0.25
309
CONTENTFORMAT_END
171
     0
 94
        0
309
TABLEFORMAT_END
  1
CELLSTYLE_BEGIN
 90
        1
 91
        1
300
_TITLE
309
CELLSTYLE_END
300
CELLSTYLE
  1
TABLEFORMAT_BEGIN
 90
        5
170
     1
 91
        0
 92
        0
 62
   257
 93
        1
300
CONTENTFORMAT
  1
CONTENTFORMAT_BEGIN
 90
        0
 91
        0
 92
      512
 93
        0
300

 40
0.0
140
1.0
 94
        5
 62
     0
340
F
144
0.18
309
CONTENTFORMAT_END
171
     0
 94
        0
309
TABLEFORMAT_END
  1
CELLSTYLE_BEGIN
 90
        2
 91
        1
300
_HEADER
309
CELLSTYLE_END
300
CELLSTYLE
  1
TABLEFORMAT_BEGIN
 90
        5
170
     1
 91
        0
 92
        0
 62
   257
 93
        1
300
CONTENTFORMAT
  1
CONTENTFORMAT_BEGIN
 90
        0
 91
        0
 92
      512
 93
        0
300

 40
0.0
140
1.0
 94
        2
 62
     0
340
F
144
0.18
309
CONTENTFORMAT_END
171
     0
 94
        0
309
TABLEFORMAT_END
  1
CELLSTYLE_BEGIN
 90
        3
 91
        2
300
_DATA
309
CELLSTYLE_END
  0
XRECORD
  5
316F
102
{ACAD_REACTORS
330
3138
102
}
330
3138
100
AcDbXrecord
280
     1
102
ACAD_ROUNDTRIP_PRE2007_TABLESTYLE
 90
      512
 91
        0
  1

 92
      512
 93
        0
  2

 94
      512
 95
        0
  3

  0
XRECORD
  5
314A
102
{ACAD_REACTORS
330
3149
102
}
330
3149
100
AcDbXrecord
280
     1
102
RTVSPost2010Prop28
280
     1
102
RTVSPost2010PropOp28
 70
     1
102
RTVSPost2010Prop29
280
     1
102
RTVSPost2010PropOp29
 70
     1
102
RTVSPost2010Prop30
280
     0
102
RTVSPost2010PropOp30
 70
     1
102
RTVSPost2010Prop31
280
     0
102
RTVSPost2010PropOp31
 70
     1
102
RTVSPost2010Prop32
280
     0
102
RTVSPost2010PropOp32
 70
     1
102
RTVSPost2010Prop33
280
     0
102
RTVSPost2010PropOp33
 70
     1
102
RTVSPost2010Prop34
280
     0
102
RTVSPost2010PropOp34
 70
     1
102
RTVSPost2010Prop35
280
     0
102
RTVSPost2010PropOp35
 70
     1
102
RTVSPost2010Prop36
280
     0
102
RTVSPost2010PropOp36
 70
     1
102
RTVSPost2010Prop37
 90
       50
102
RTVSPost2010PropOp37
 70
     1
102
RTVSPost2010Prop38
140
0.0
102
RTVSPost2010PropOp38
 70
     1
102
RTVSPost2010Prop39
140
1.0
102
RTVSPost2010PropOp39
 70
     1
102
RTVSPost2010Prop40
 90
        0
102
RTVSPost2010PropOp40
 70
     1
102
RTVSPost2010Prop41ColorIndex
 90
       18
102
RTVSPost2010Prop41ColorRGB
 90
        0
102
RTVSPost2010PropOp41
 70
     1
102
RTVSPost2010Prop42
 90
       50
102
RTVSPost2010PropOp42
 70
     1
102
RTVSPost2010Prop43
 90
        3
102
RTVSPost2010PropOp43
 70
     1
102
RTVSPost2010Prop44ColorIndex
 90
        5
102
RTVSPost2010Prop44ColorRGB
 90
      255
102
RTVSPost2010PropOp44
 70
     1
102
RTVSPost2010Prop45
280
     0
102
RTVSPost2010PropOp45
 70
     1
102
RTVSPost2010Prop46
 90
       50
102
RTVSPost2010PropOp46
 70
     1
102
RTVSPost2010Prop47
 90
       50
102
RTVSPost2010PropOp47
 70
     1
102
RTVSPost2010Prop48
 90
       50
102
RTVSPost2010PropOp48
 70
     1
102
RTVSPost2010Prop49
280
     0
102
RTVSPost2010PropOp49
 70
     1
102
RTVSPost2010Prop50
 90
       50
102
RTVSPost2010PropOp50
 70
     1
102
RTVSPost2010Prop51ColorIndex
 90
      256
102
RTVSPost2010Prop51ColorRGB
 90
-16777216
102
RTVSPost2010PropOp51
 70
     0
102
RTVSPost2010Prop52
140
1.0
102
RTVSPost2010PropOp52
 70
     0
102
RTVSPost2010Prop53
 90
        2
102
RTVSPost2010PropOp53
 70
     1
102
RTVSPost2010Prop54
  1
strokes_ogs.tif
102
RTVSPost2010PropOp54
 70
     1
102
RTVSPost2010Prop55
280
     0
102
RTVSPost2010PropOp55
 70
     1
102
RTVSPost2010Prop56
140
1.0
102
RTVSPost2010PropOp56
 70
     1
102
RTVSPost2010Prop57
140
1.0
102
RTVSPost2010PropOp57
 70
     1
102
RTVSPropertyOp0
 70
     1
102
RTVSPropertyOp1
 70
     1
102
RTVSPropertyOp2
 70
     1
102
RTVSPropertyOp3
 70
     1
102
RTVSPropertyOp4
 70
     1
102
RTVSPropertyOp5
 70
     1
102
RTVSPropertyOp6
 70
     1
102
RTVSPropertyOp7
 70
     1
102
RTVSPropertyOp8
 70
     1
102
RTVSPropertyOp9
 70
     1
102
RTVSPropertyOp10
 70
     1
102
RTVSPropertyOp11
 70
     1
102
RTVSPropertyOp12
 70
     1
102
RTVSPropertyOp13
 70
     1
102
RTVSPropertyOp14
 70
     1
102
RTVSPropertyOp15
 70
     1
102
RTVSPropertyOp16
 70
     1
102
RTVSPropertyOp17
 70
     1
102
RTVSPropertyOp18
 70
     1
102
RTVSPropertyOp19
 70
     1
102
RTVSPropertyOp20
 70
     1
102
RTVSPropertyOp21
 70
     1
102
RTVSPropertyOp22
 70
     1
102
RTVSPropertyOp23
 70
     1
102
RTVSPropertyOp24
 70
     1
102
RTVSPropertyOp25
 70
     1
102
RTVSPropertyOp26
 70
     1
102
RTVSPropertyOp27
 70
     1
102
RTVSPropertyOp28
 70
     1
102
RTVSPropertyOp29
 70
     1
102
RTVSPropertyOp30
 70
     1
102
RTVSPropertyOp31
 70
     1
102
RTVSPropertyOp32
 70
     1
102
RTVSPropertyOp33
 70
     1
102
RTVSPropertyOp34
 70
     1
102
RTVSPropertyOp35
 70
     1
102
RTVSPropertyOp36
 70
     1
102
RTVSPropertyOp37
 70
     1
102
RTVSPropertyOp38
 70
     1
102
RTVSPropertyOp39
 70
     1
102
RTVSPropertyOp40
 70
     1
102
RTVSPropertyOp41
 70
     1
102
RTVSPropertyOp42
 70
     1
102
RTVSPropertyOp43
 70
     1
102
RTVSPropertyOp44
 70
     1
102
RTVSPropertyOp45
 70
     1
102
RTVSPropertyOp46
 70
     1
102
RTVSPropertyOp47
 70
     1
102
RTVSPropertyOp48
 70
     1
102
RTVSPropertyOp49
 70
     1
102
RTVSPropertyOp50
 70
     1
102
RTVSPropertyOp51
 70
     0
102
RTVSPropertyOp52
 70
     0
102
RTVSPropertyOp53
 70
     1
102
RTVSPropertyOp54
 70
     1
102
RTVSPropertyOp55
 70
     1
102
RTVSPropertyOp56
 70
     1
102
RTVSPropertyOp57
 70
     1
102
RTVSPropertyOp58
 70
     1
102
RTVSPropertyOp59
 70
     1
102
RTVSPropertyOp60
 70
     1
102
RTVSPropertyOp61
 70
     1
102
RTVSPropertyOp62
 70
     1
  0
XRECORD
  5
3148
102
{ACAD_REACTORS
330
3147
102
}
330
3147
100
AcDbXrecord
280
     1
102
RTVSPost2010Prop28
280
     0
102
RTVSPost2010PropOp28
 70
     1
102
RTVSPost2010Prop29
280
     1
102
RTVSPost2010PropOp29
 70
     1
102
RTVSPost2010Prop30
280
     1
102
RTVSPost2010PropOp30
 70
     1
102
RTVSPost2010Prop31
280
     0
102
RTVSPost2010PropOp31
 70
     1
102
RTVSPost2010Prop32
280
     0
102
RTVSPost2010PropOp32
 70
     1
102
RTVSPost2010Prop33
280
     0
102
RTVSPost2010PropOp33
 70
     1
102
RTVSPost2010Prop34
280
     0
102
RTVSPost2010PropOp34
 70
     1
102
RTVSPost2010Prop35
280
     0
102
RTVSPost2010PropOp35
 70
     1
102
RTVSPost2010Prop36
280
     0
102
RTVSPost2010PropOp36
 70
     1
102
RTVSPost2010Prop37
 90
       50
102
RTVSPost2010PropOp37
 70
     1
102
RTVSPost2010Prop38
140
0.0
102
RTVSPost2010PropOp38
 70
     1
102
RTVSPost2010Prop39
140
1.0
102
RTVSPost2010PropOp39
 70
     1
102
RTVSPost2010Prop40
 90
        0
102
RTVSPost2010PropOp40
 70
     1
102
RTVSPost2010Prop41ColorIndex
 90
       18
102
RTVSPost2010Prop41ColorRGB
 90
        0
102
RTVSPost2010PropOp41
 70
     1
102
RTVSPost2010Prop42
 90
       50
102
RTVSPost2010PropOp42
 70
     1
102
RTVSPost2010Prop43
 90
        3
102
RTVSPost2010PropOp43
 70
     1
102
RTVSPost2010Prop44ColorIndex
 90
        5
102
RTVSPost2010Prop44ColorRGB
 90
      255
102
RTVSPost2010PropOp44
 70
     1
102
RTVSPost2010Prop45
280
     0
102
RTVSPost2010PropOp45
 70
     1
102
RTVSPost2010Prop46
 90
       50
102
RTVSPost2010PropOp46
 70
     1
102
RTVSPost2010Prop47
 90
       50
102
RTVSPost2010PropOp47
 70
     1
102
RTVSPost2010Prop48
 90
       50
102
RTVSPost2010PropOp48
 70
     1
102
RTVSPost2010Prop49
280
     0
102
RTVSPost2010PropOp49
 70
     1
102
RTVSPost2010Prop50
 90
       50
102
RTVSPost2010PropOp50
 70
     1
102
RTVSPost2010Prop51ColorIndex
 90
      256
102
RTVSPost2010Prop51ColorRGB
 90
-16777216
102
RTVSPost2010PropOp51
 70
     0
102
RTVSPost2010Prop52
140
1.0
102
RTVSPost2010PropOp52
 70
     0
102
RTVSPost2010Prop53
 90
        2
102
RTVSPost2010PropOp53
 70
     1
102
RTVSPost2010Prop54
  1
strokes_ogs.tif
102
RTVSPost2010PropOp54
 70
     1
102
RTVSPost2010Prop55
280
     0
102
RTVSPost2010PropOp55
 70
     1
102
RTVSPost2010Prop56
140
1.0
102
RTVSPost2010PropOp56
 70
     1
102
RTVSPost2010Prop57
140
1.0
102
RTVSPost2010PropOp57
 70
     1
102
RTVSPropertyOp0
 70
     1
102
RTVSPropertyOp1
 70
     1
102
RTVSPropertyOp2
 70
     1
102
RTVSPropertyOp3
 70
     1
102
RTVSPropertyOp4
 70
     1
102
RTVSPropertyOp5
 70
     1
102
RTVSPropertyOp6
 70
     1
102
RTVSPropertyOp7
 70
     1
102
RTVSPropertyOp8
 70
     1
102
RTVSPropertyOp9
 70
     1
102
RTVSPropertyOp10
 70
     1
102
RTVSPropertyOp11
 70
     1
102
RTVSPropertyOp12
 70
     1
102
RTVSPropertyOp13
 70
     1
102
RTVSPropertyOp14
 70
     1
102
RTVSPropertyOp15
 70
     1
102
RTVSPropertyOp16
 70
     1
102
RTVSPropertyOp17
 70
     1
102
RTVSPropertyOp18
 70
     1
102
RTVSPropertyOp19
 70
     1
102
RTVSPropertyOp20
 70
     1
102
RTVSPropertyOp21
 70
     1
102
RTVSPropertyOp22
 70
     1
102
RTVSPropertyOp23
 70
     1
102
RTVSPropertyOp24
 70
     1
102
RTVSPropertyOp25
 70
     1
102
RTVSPropertyOp26
 70
     1
102
RTVSPropertyOp27
 70
     1
102
RTVSPropertyOp28
 70
     1
102
RTVSPropertyOp29
 70
     1
102
RTVSPropertyOp30
 70
     1
102
RTVSPropertyOp31
 70
     1
102
RTVSPropertyOp32
 70
     1
102
RTVSPropertyOp33
 70
     1
102
RTVSPropertyOp34
 70
     1
102
RTVSPropertyOp35
 70
     1
102
RTVSPropertyOp36
 70
     1
102
RTVSPropertyOp37
 70
     1
102
RTVSPropertyOp38
 70
     1
102
RTVSPropertyOp39
 70
     1
102
RTVSPropertyOp40
 70
     1
102
RTVSPropertyOp41
 70
     1
102
RTVSPropertyOp42
 70
     1
102
RTVSPropertyOp43
 70
     1
102
RTVSPropertyOp44
 70
     1
102
RTVSPropertyOp45
 70
     1
102
RTVSPropertyOp46
 70
     1
102
RTVSPropertyOp47
 70
     1
102
RTVSPropertyOp48
 70
     1
102
RTVSPropertyOp49
 70
     1
102
RTVSPropertyOp50
 70
     1
102
RTVSPropertyOp51
 70
     0
102
RTVSPropertyOp52
 70
     0
102
RTVSPropertyOp53
 70
     1
102
RTVSPropertyOp54
 70
     1
102
RTVSPropertyOp55
 70
     1
102
RTVSPropertyOp56
 70
     1
102
RTVSPropertyOp57
 70
     1
102
RTVSPropertyOp58
 70
     1
102
RTVSPropertyOp59
 70
     1
102
RTVSPropertyOp60
 70
     1
102
RTVSPropertyOp61
 70
     1
102
RTVSPropertyOp62
 70
     1
  0
XRECORD
  5
3156
102
{ACAD_REACTORS
330
3155
102
}
330
3155
100
AcDbXrecord
280
     1
102
RTVSPost2010Prop28
280
     0
102
RTVSPost2010PropOp28
 70
     1
102
RTVSPost2010Prop29
280
     1
102
RTVSPost2010PropOp29
 70
     1
102
RTVSPost2010Prop30
280
     1
102
RTVSPost2010PropOp30
 70
     1
102
RTVSPost2010Prop31
280
     0
102
RTVSPost2010PropOp31
 70
     1
102
RTVSPost2010Prop32
280
     0
102
RTVSPost2010PropOp32
 70
     1
102
RTVSPost2010Prop33
280
     0
102
RTVSPost2010PropOp33
 70
     1
102
RTVSPost2010Prop34
280
     0
102
RTVSPost2010PropOp34
 70
     1
102
RTVSPost2010Prop35
280
     0
102
RTVSPost2010PropOp35
 70
     1
102
RTVSPost2010Prop36
280
     0
102
RTVSPost2010PropOp36
 70
     1
102
RTVSPost2010Prop37
 90
       50
102
RTVSPost2010PropOp37
 70
     1
102
RTVSPost2010Prop38
140
0.0
102
RTVSPost2010PropOp38
 70
     1
102
RTVSPost2010Prop39
140
1.0
102
RTVSPost2010PropOp39
 70
     1
102
RTVSPost2010Prop40
 90
        0
102
RTVSPost2010PropOp40
 70
     1
102
RTVSPost2010Prop41ColorIndex
 90
       18
102
RTVSPost2010Prop41ColorRGB
 90
        0
102
RTVSPost2010PropOp41
 70
     1
102
RTVSPost2010Prop42
 90
       50
102
RTVSPost2010PropOp42
 70
     1
102
RTVSPost2010Prop43
 90
        3
102
RTVSPost2010PropOp43
 70
     1
102
RTVSPost2010Prop44ColorIndex
 90
        5
102
RTVSPost2010Prop44ColorRGB
 90
      255
102
RTVSPost2010PropOp44
 70
     1
102
RTVSPost2010Prop45
280
     0
102
RTVSPost2010PropOp45
 70
     1
102
RTVSPost2010Prop46
 90
       50
102
RTVSPost2010PropOp46
 70
     1
102
RTVSPost2010Prop47
 90
       50
102
RTVSPost2010PropOp47
 70
     1
102
RTVSPost2010Prop48
 90
       50
102
RTVSPost2010PropOp48
 70
     1
102
RTVSPost2010Prop49
280
     0
102
RTVSPost2010PropOp49
 70
     1
102
RTVSPost2010Prop50
 90
       50
102
RTVSPost2010PropOp50
 70
     1
102
RTVSPost2010Prop51ColorIndex
 90
      256
102
RTVSPost2010Prop51ColorRGB
 90
-16777216
102
RTVSPost2010PropOp51
 70
     0
102
RTVSPost2010Prop52
140
1.0
102
RTVSPost2010PropOp52
 70
     0
102
RTVSPost2010Prop53
 90
        2
102
RTVSPost2010PropOp53
 70
     1
102
RTVSPost2010Prop54
  1
strokes_ogs.tif
102
RTVSPost2010PropOp54
 70
     1
102
RTVSPost2010Prop55
280
     0
102
RTVSPost2010PropOp55
 70
     1
102
RTVSPost2010Prop56
140
1.0
102
RTVSPost2010PropOp56
 70
     1
102
RTVSPost2010Prop57
140
1.0
102
RTVSPost2010PropOp57
 70
     1
102
RTVSPropertyOp0
 70
     1
102
RTVSPropertyOp1
 70
     1
102
RTVSPropertyOp2
 70
     1
102
RTVSPropertyOp3
 70
     1
102
RTVSPropertyOp4
 70
     1
102
RTVSPropertyOp5
 70
     1
102
RTVSPropertyOp6
 70
     1
102
RTVSPropertyOp7
 70
     1
102
RTVSPropertyOp8
 70
     1
102
RTVSPropertyOp9
 70
     1
102
RTVSPropertyOp10
 70
     1
102
RTVSPropertyOp11
 70
     1
102
RTVSPropertyOp12
 70
     1
102
RTVSPropertyOp13
 70
     1
102
RTVSPropertyOp14
 70
     1
102
RTVSPropertyOp15
 70
     1
102
RTVSPropertyOp16
 70
     1
102
RTVSPropertyOp17
 70
     1
102
RTVSPropertyOp18
 70
     1
102
RTVSPropertyOp19
 70
     1
102
RTVSPropertyOp20
 70
     1
102
RTVSPropertyOp21
 70
     1
102
RTVSPropertyOp22
 70
     1
102
RTVSPropertyOp23
 70
     1
102
RTVSPropertyOp24
 70
     1
102
RTVSPropertyOp25
 70
     1
102
RTVSPropertyOp26
 70
     1
102
RTVSPropertyOp27
 70
     1
102
RTVSPropertyOp28
 70
     1
102
RTVSPropertyOp29
 70
     1
102
RTVSPropertyOp30
 70
     1
102
RTVSPropertyOp31
 70
     1
102
RTVSPropertyOp32
 70
     1
102
RTVSPropertyOp33
 70
     1
102
RTVSPropertyOp34
 70
     1
102
RTVSPropertyOp35
 70
     1
102
RTVSPropertyOp36
 70
     1
102
RTVSPropertyOp37
 70
     1
102
RTVSPropertyOp38
 70
     1
102
RTVSPropertyOp39
 70
     1
102
RTVSPropertyOp40
 70
     1
102
RTVSPropertyOp41
 70
     1
102
RTVSPropertyOp42
 70
     1
102
RTVSPropertyOp43
 70
     1
102
RTVSPropertyOp44
 70
     1
102
RTVSPropertyOp45
 70
     1
102
RTVSPropertyOp46
 70
     1
102
RTVSPropertyOp47
 70
     1
102
RTVSPropertyOp48
 70
     1
102
RTVSPropertyOp49
 70
     1
102
RTVSPropertyOp50
 70
     1
102
RTVSPropertyOp51
 70
     0
102
RTVSPropertyOp52
 70
     0
102
RTVSPropertyOp53
 70
     1
102
RTVSPropertyOp54
 70
     1
102
RTVSPropertyOp55
 70
     1
102
RTVSPropertyOp56
 70
     1
102
RTVSPropertyOp57
 70
     1
102
RTVSPropertyOp58
 70
     1
102
RTVSPropertyOp59
 70
     1
102
RTVSPropertyOp60
 70
     1
102
RTVSPropertyOp61
 70
     1
102
RTVSPropertyOp62
 70
     1
  0
XRECORD
  5
315E
102
{ACAD_REACTORS
330
315D
102
}
330
315D
100
AcDbXrecord
280
     1
102
RTVSPost2010Prop28
280
     0
102
RTVSPost2010PropOp28
 70
     1
102
RTVSPost2010Prop29
280
     1
102
RTVSPost2010PropOp29
 70
     1
102
RTVSPost2010Prop30
280
     1
102
RTVSPost2010PropOp30
 70
     1
102
RTVSPost2010Prop31
280
     0
102
RTVSPost2010PropOp31
 70
     1
102
RTVSPost2010Prop32
280
     0
102
RTVSPost2010PropOp32
 70
     1
102
RTVSPost2010Prop33
280
     0
102
RTVSPost2010PropOp33
 70
     1
102
RTVSPost2010Prop34
280
     0
102
RTVSPost2010PropOp34
 70
     1
102
RTVSPost2010Prop35
280
     0
102
RTVSPost2010PropOp35
 70
     1
102
RTVSPost2010Prop36
280
     0
102
RTVSPost2010PropOp36
 70
     1
102
RTVSPost2010Prop37
 90
       50
102
RTVSPost2010PropOp37
 70
     1
102
RTVSPost2010Prop38
140
0.0
102
RTVSPost2010PropOp38
 70
     1
102
RTVSPost2010Prop39
140
1.0
102
RTVSPost2010PropOp39
 70
     1
102
RTVSPost2010Prop40
 90
        0
102
RTVSPost2010PropOp40
 70
     1
102
RTVSPost2010Prop41ColorIndex
 90
       18
102
RTVSPost2010Prop41ColorRGB
 90
        0
102
RTVSPost2010PropOp41
 70
     1
102
RTVSPost2010Prop42
 90
       50
102
RTVSPost2010PropOp42
 70
     1
102
RTVSPost2010Prop43
 90
        3
102
RTVSPost2010PropOp43
 70
     1
102
RTVSPost2010Prop44ColorIndex
 90
        5
102
RTVSPost2010Prop44ColorRGB
 90
      255
102
RTVSPost2010PropOp44
 70
     1
102
RTVSPost2010Prop45
280
     0
102
RTVSPost2010PropOp45
 70
     1
102
RTVSPost2010Prop46
 90
       50
102
RTVSPost2010PropOp46
 70
     1
102
RTVSPost2010Prop47
 90
       50
102
RTVSPost2010PropOp47
 70
     1
102
RTVSPost2010Prop48
 90
       50
102
RTVSPost2010PropOp48
 70
     1
102
RTVSPost2010Prop49
280
     0
102
RTVSPost2010PropOp49
 70
     1
102
RTVSPost2010Prop50
 90
       50
102
RTVSPost2010PropOp50
 70
     1
102
RTVSPost2010Prop51ColorIndex
 90
      256
102
RTVSPost2010Prop51ColorRGB
 90
-16777216
102
RTVSPost2010PropOp51
 70
     0
102
RTVSPost2010Prop52
140
1.0
102
RTVSPost2010PropOp52
 70
     0
102
RTVSPost2010Prop53
 90
        2
102
RTVSPost2010PropOp53
 70
     1
102
RTVSPost2010Prop54
  1
strokes_ogs.tif
102
RTVSPost2010PropOp54
 70
     1
102
RTVSPost2010Prop55
280
     0
102
RTVSPost2010PropOp55
 70
     1
102
RTVSPost2010Prop56
140
1.0
102
RTVSPost2010PropOp56
 70
     1
102
RTVSPost2010Prop57
140
1.0
102
RTVSPost2010PropOp57
 70
     1
102
RTVSPropertyOp0
 70
     1
102
RTVSPropertyOp1
 70
     1
102
RTVSPropertyOp2
 70
     1
102
RTVSPropertyOp3
 70
     1
102
RTVSPropertyOp4
 70
     1
102
RTVSPropertyOp5
 70
     1
102
RTVSPropertyOp6
 70
     1
102
RTVSPropertyOp7
 70
     1
102
RTVSPropertyOp8
 70
     1
102
RTVSPropertyOp9
 70
     1
102
RTVSPropertyOp10
 70
     1
102
RTVSPropertyOp11
 70
     1
102
RTVSPropertyOp12
 70
     1
102
RTVSPropertyOp13
 70
     1
102
RTVSPropertyOp14
 70
     1
102
RTVSPropertyOp15
 70
     1
102
RTVSPropertyOp16
 70
     1
102
RTVSPropertyOp17
 70
     1
102
RTVSPropertyOp18
 70
     1
102
RTVSPropertyOp19
 70
     1
102
RTVSPropertyOp20
 70
     1
102
RTVSPropertyOp21
 70
     1
102
RTVSPropertyOp22
 70
     1
102
RTVSPropertyOp23
 70
     1
102
RTVSPropertyOp24
 70
     1
102
RTVSPropertyOp25
 70
     1
102
RTVSPropertyOp26
 70
     1
102
RTVSPropertyOp27
 70
     1
102
RTVSPropertyOp28
 70
     1
102
RTVSPropertyOp29
 70
     1
102
RTVSPropertyOp30
 70
     1
102
RTVSPropertyOp31
 70
     1
102
RTVSPropertyOp32
 70
     1
102
RTVSPropertyOp33
 70
     1
102
RTVSPropertyOp34
 70
     1
102
RTVSPropertyOp35
 70
     1
102
RTVSPropertyOp36
 70
     1
102
RTVSPropertyOp37
 70
     1
102
RTVSPropertyOp38
 70
     1
102
RTVSPropertyOp39
 70
     1
102
RTVSPropertyOp40
 70
     1
102
RTVSPropertyOp41
 70
     1
102
RTVSPropertyOp42
 70
     1
102
RTVSPropertyOp43
 70
     1
102
RTVSPropertyOp44
 70
     1
102
RTVSPropertyOp45
 70
     1
102
RTVSPropertyOp46
 70
     1
102
RTVSPropertyOp47
 70
     1
102
RTVSPropertyOp48
 70
     1
102
RTVSPropertyOp49
 70
     1
102
RTVSPropertyOp50
 70
     1
102
RTVSPropertyOp51
 70
     0
102
RTVSPropertyOp52
 70
     0
102
RTVSPropertyOp53
 70
     1
102
RTVSPropertyOp54
 70
     1
102
RTVSPropertyOp55
 70
     1
102
RTVSPropertyOp56
 70
     1
102
RTVSPropertyOp57
 70
     1
102
RTVSPropertyOp58
 70
     1
102
RTVSPropertyOp59
 70
     1
102
RTVSPropertyOp60
 70
     1
102
RTVSPropertyOp61
 70
     1
102
RTVSPropertyOp62
 70
     1
  0
XRECORD
  5
3150
102
{ACAD_REACTORS
330
314F
102
}
330
314F
100
AcDbXrecord
280
     1
102
RTVSPost2010Prop28
280
     0
102
RTVSPost2010PropOp28
 70
     1
102
RTVSPost2010Prop29
280
     1
102
RTVSPost2010PropOp29
 70
     1
102
RTVSPost2010Prop30
280
     1
102
RTVSPost2010PropOp30
 70
     1
102
RTVSPost2010Prop31
280
     0
102
RTVSPost2010PropOp31
 70
     1
102
RTVSPost2010Prop32
280
     0
102
RTVSPost2010PropOp32
 70
     1
102
RTVSPost2010Prop33
280
     0
102
RTVSPost2010PropOp33
 70
     1
102
RTVSPost2010Prop34
280
     0
102
RTVSPost2010PropOp34
 70
     1
102
RTVSPost2010Prop35
280
     0
102
RTVSPost2010PropOp35
 70
     1
102
RTVSPost2010Prop36
280
     0
102
RTVSPost2010PropOp36
 70
     1
102
RTVSPost2010Prop37
 90
       50
102
RTVSPost2010PropOp37
 70
     1
102
RTVSPost2010Prop38
140
0.0
102
RTVSPost2010PropOp38
 70
     1
102
RTVSPost2010Prop39
140
1.0
102
RTVSPost2010PropOp39
 70
     1
102
RTVSPost2010Prop40
 90
        0
102
RTVSPost2010PropOp40
 70
     1
102
RTVSPost2010Prop41ColorIndex
 90
       18
102
RTVSPost2010Prop41ColorRGB
 90
        0
102
RTVSPost2010PropOp41
 70
     1
102
RTVSPost2010Prop42
 90
       50
102
RTVSPost2010PropOp42
 70
     1
102
RTVSPost2010Prop43
 90
        3
102
RTVSPost2010PropOp43
 70
     1
102
RTVSPost2010Prop44ColorIndex
 90
        5
102
RTVSPost2010Prop44ColorRGB
 90
      255
102
RTVSPost2010PropOp44
 70
     1
102
RTVSPost2010Prop45
280
     0
102
RTVSPost2010PropOp45
 70
     1
102
RTVSPost2010Prop46
 90
       50
102
RTVSPost2010PropOp46
 70
     1
102
RTVSPost2010Prop47
 90
       50
102
RTVSPost2010PropOp47
 70
     1
102
RTVSPost2010Prop48
 90
       50
102
RTVSPost2010PropOp48
 70
     1
102
RTVSPost2010Prop49
280
     0
102
RTVSPost2010PropOp49
 70
     1
102
RTVSPost2010Prop50
 90
       50
102
RTVSPost2010PropOp50
 70
     1
102
RTVSPost2010Prop51ColorIndex
 90
      256
102
RTVSPost2010Prop51ColorRGB
 90
-16777216
102
RTVSPost2010PropOp51
 70
     0
102
RTVSPost2010Prop52
140
1.0
102
RTVSPost2010PropOp52
 70
     0
102
RTVSPost2010Prop53
 90
        2
102
RTVSPost2010PropOp53
 70
     1
102
RTVSPost2010Prop54
  1
strokes_ogs.tif
102
RTVSPost2010PropOp54
 70
     1
102
RTVSPost2010Prop55
280
     0
102
RTVSPost2010PropOp55
 70
     1
102
RTVSPost2010Prop56
140
1.0
102
RTVSPost2010PropOp56
 70
     1
102
RTVSPost2010Prop57
140
1.0
102
RTVSPost2010PropOp57
 70
     1
102
RTVSPropertyOp0
 70
     1
102
RTVSPropertyOp1
 70
     1
102
RTVSPropertyOp2
 70
     1
102
RTVSPropertyOp3
 70
     1
102
RTVSPropertyOp4
 70
     1
102
RTVSPropertyOp5
 70
     1
102
RTVSPropertyOp6
 70
     1
102
RTVSPropertyOp7
 70
     1
102
RTVSPropertyOp8
 70
     1
102
RTVSPropertyOp9
 70
     1
102
RTVSPropertyOp10
 70
     1
102
RTVSPropertyOp11
 70
     1
102
RTVSPropertyOp12
 70
     1
102
RTVSPropertyOp13
 70
     1
102
RTVSPropertyOp14
 70
     1
102
RTVSPropertyOp15
 70
     1
102
RTVSPropertyOp16
 70
     1
102
RTVSPropertyOp17
 70
     1
102
RTVSPropertyOp18
 70
     1
102
RTVSPropertyOp19
 70
     1
102
RTVSPropertyOp20
 70
     1
102
RTVSPropertyOp21
 70
     1
102
RTVSPropertyOp22
 70
     1
102
RTVSPropertyOp23
 70
     1
102
RTVSPropertyOp24
 70
     1
102
RTVSPropertyOp25
 70
     1
102
RTVSPropertyOp26
 70
     1
102
RTVSPropertyOp27
 70
     1
102
RTVSPropertyOp28
 70
     1
102
RTVSPropertyOp29
 70
     1
102
RTVSPropertyOp30
 70
     1
102
RTVSPropertyOp31
 70
     1
102
RTVSPropertyOp32
 70
     1
102
RTVSPropertyOp33
 70
     1
102
RTVSPropertyOp34
 70
     1
102
RTVSPropertyOp35
 70
     1
102
RTVSPropertyOp36
 70
     1
102
RTVSPropertyOp37
 70
     1
102
RTVSPropertyOp38
 70
     1
102
RTVSPropertyOp39
 70
     1
102
RTVSPropertyOp40
 70
     1
102
RTVSPropertyOp41
 70
     1
102
RTVSPropertyOp42
 70
     1
102
RTVSPropertyOp43
 70
     1
102
RTVSPropertyOp44
 70
     1
102
RTVSPropertyOp45
 70
     1
102
RTVSPropertyOp46
 70
     1
102
RTVSPropertyOp47
 70
     1
102
RTVSPropertyOp48
 70
     1
102
RTVSPropertyOp49
 70
     1
102
RTVSPropertyOp50
 70
     1
102
RTVSPropertyOp51
 70
     0
102
RTVSPropertyOp52
 70
     0
102
RTVSPropertyOp53
 70
     1
102
RTVSPropertyOp54
 70
     1
102
RTVSPropertyOp55
 70
     1
102
RTVSPropertyOp56
 70
     1
102
RTVSPropertyOp57
 70
     1
102
RTVSPropertyOp58
 70
     1
102
RTVSPropertyOp59
 70
     1
102
RTVSPropertyOp60
 70
     1
102
RTVSPropertyOp61
 70
     1
102
RTVSPropertyOp62
 70
     1
  0
XRECORD
  5
3154
102
{ACAD_REACTORS
330
3153
102
}
330
3153
100
AcDbXrecord
280
     1
102
RTVSPost2010Prop28
280
     0
102
RTVSPost2010PropOp28
 70
     1
102
RTVSPost2010Prop29
280
     1
102
RTVSPost2010PropOp29
 70
     1
102
RTVSPost2010Prop30
280
     1
102
RTVSPost2010PropOp30
 70
     1
102
RTVSPost2010Prop31
280
     0
102
RTVSPost2010PropOp31
 70
     1
102
RTVSPost2010Prop32
280
     0
102
RTVSPost2010PropOp32
 70
     1
102
RTVSPost2010Prop33
280
     0
102
RTVSPost2010PropOp33
 70
     1
102
RTVSPost2010Prop34
280
     0
102
RTVSPost2010PropOp34
 70
     1
102
RTVSPost2010Prop35
280
     0
102
RTVSPost2010PropOp35
 70
     1
102
RTVSPost2010Prop36
280
     0
102
RTVSPost2010PropOp36
 70
     1
102
RTVSPost2010Prop37
 90
       50
102
RTVSPost2010PropOp37
 70
     1
102
RTVSPost2010Prop38
140
0.0
102
RTVSPost2010PropOp38
 70
     1
102
RTVSPost2010Prop39
140
1.0
102
RTVSPost2010PropOp39
 70
     1
102
RTVSPost2010Prop40
 90
        0
102
RTVSPost2010PropOp40
 70
     1
102
RTVSPost2010Prop41ColorIndex
 90
       18
102
RTVSPost2010Prop41ColorRGB
 90
        0
102
RTVSPost2010PropOp41
 70
     1
102
RTVSPost2010Prop42
 90
       50
102
RTVSPost2010PropOp42
 70
     1
102
RTVSPost2010Prop43
 90
        3
102
RTVSPost2010PropOp43
 70
     1
102
RTVSPost2010Prop44ColorIndex
 90
        5
102
RTVSPost2010Prop44ColorRGB
 90
      255
102
RTVSPost2010PropOp44
 70
     1
102
RTVSPost2010Prop45
280
     0
102
RTVSPost2010PropOp45
 70
     1
102
RTVSPost2010Prop46
 90
       50
102
RTVSPost2010PropOp46
 70
     1
102
RTVSPost2010Prop47
 90
       50
102
RTVSPost2010PropOp47
 70
     1
102
RTVSPost2010Prop48
 90
       50
102
RTVSPost2010PropOp48
 70
     1
102
RTVSPost2010Prop49
280
     0
102
RTVSPost2010PropOp49
 70
     1
102
RTVSPost2010Prop50
 90
       50
102
RTVSPost2010PropOp50
 70
     1
102
RTVSPost2010Prop51ColorIndex
 90
      256
102
RTVSPost2010Prop51ColorRGB
 90
-16777216
102
RTVSPost2010PropOp51
 70
     0
102
RTVSPost2010Prop52
140
1.0
102
RTVSPost2010PropOp52
 70
     0
102
RTVSPost2010Prop53
 90
        2
102
RTVSPost2010PropOp53
 70
     1
102
RTVSPost2010Prop54
  1
strokes_ogs.tif
102
RTVSPost2010PropOp54
 70
     1
102
RTVSPost2010Prop55
280
     0
102
RTVSPost2010PropOp55
 70
     1
102
RTVSPost2010Prop56
140
1.0
102
RTVSPost2010PropOp56
 70
     1
102
RTVSPost2010Prop57
140
1.0
102
RTVSPost2010PropOp57
 70
     1
102
RTVSPropertyOp0
 70
     1
102
RTVSPropertyOp1
 70
     1
102
RTVSPropertyOp2
 70
     1
102
RTVSPropertyOp3
 70
     1
102
RTVSPropertyOp4
 70
     1
102
RTVSPropertyOp5
 70
     1
102
RTVSPropertyOp6
 70
     1
102
RTVSPropertyOp7
 70
     1
102
RTVSPropertyOp8
 70
     1
102
RTVSPropertyOp9
 70
     1
102
RTVSPropertyOp10
 70
     1
102
RTVSPropertyOp11
 70
     1
102
RTVSPropertyOp12
 70
     1
102
RTVSPropertyOp13
 70
     1
102
RTVSPropertyOp14
 70
     1
102
RTVSPropertyOp15
 70
     1
102
RTVSPropertyOp16
 70
     1
102
RTVSPropertyOp17
 70
     1
102
RTVSPropertyOp18
 70
     1
102
RTVSPropertyOp19
 70
     1
102
RTVSPropertyOp20
 70
     1
102
RTVSPropertyOp21
 70
     1
102
RTVSPropertyOp22
 70
     1
102
RTVSPropertyOp23
 70
     1
102
RTVSPropertyOp24
 70
     1
102
RTVSPropertyOp25
 70
     1
102
RTVSPropertyOp26
 70
     1
102
RTVSPropertyOp27
 70
     1
102
RTVSPropertyOp28
 70
     1
102
RTVSPropertyOp29
 70
     1
102
RTVSPropertyOp30
 70
     1
102
RTVSPropertyOp31
 70
     1
102
RTVSPropertyOp32
 70
     1
102
RTVSPropertyOp33
 70
     1
102
RTVSPropertyOp34
 70
     1
102
RTVSPropertyOp35
 70
     1
102
RTVSPropertyOp36
 70
     1
102
RTVSPropertyOp37
 70
     1
102
RTVSPropertyOp38
 70
     1
102
RTVSPropertyOp39
 70
     1
102
RTVSPropertyOp40
 70
     1
102
RTVSPropertyOp41
 70
     1
102
RTVSPropertyOp42
 70
     1
102
RTVSPropertyOp43
 70
     1
102
RTVSPropertyOp44
 70
     1
102
RTVSPropertyOp45
 70
     1
102
RTVSPropertyOp46
 70
     1
102
RTVSPropertyOp47
 70
     1
102
RTVSPropertyOp48
 70
     1
102
RTVSPropertyOp49
 70
     1
102
RTVSPropertyOp50
 70
     1
102
RTVSPropertyOp51
 70
     0
102
RTVSPropertyOp52
 70
     0
102
RTVSPropertyOp53
 70
     1
102
RTVSPropertyOp54
 70
     1
102
RTVSPropertyOp55
 70
     1
102
RTVSPropertyOp56
 70
     1
102
RTVSPropertyOp57
 70
     1
102
RTVSPropertyOp58
 70
     1
102
RTVSPropertyOp59
 70
     1
102
RTVSPropertyOp60
 70
     1
102
RTVSPropertyOp61
 70
     1
102
RTVSPropertyOp62
 70
     1
  0
XRECORD
  5
316E
102
{ACAD_REACTORS
330
316D
102
}
330
316D
100
AcDbXrecord
280
     1
102
RTVSPost2010Prop28
280
     0
102
RTVSPost2010PropOp28
 70
     1
102
RTVSPost2010Prop29
280
     1
102
RTVSPost2010PropOp29
 70
     1
102
RTVSPost2010Prop30
280
     1
102
RTVSPost2010PropOp30
 70
     1
102
RTVSPost2010Prop31
280
     0
102
RTVSPost2010PropOp31
 70
     1
102
RTVSPost2010Prop32
280
     0
102
RTVSPost2010PropOp32
 70
     1
102
RTVSPost2010Prop33
280
     0
102
RTVSPost2010PropOp33
 70
     1
102
RTVSPost2010Prop34
280
     0
102
RTVSPost2010PropOp34
 70
     1
102
RTVSPost2010Prop35
280
     0
102
RTVSPost2010PropOp35
 70
     1
102
RTVSPost2010Prop36
280
     0
102
RTVSPost2010PropOp36
 70
     1
102
RTVSPost2010Prop37
 90
       50
102
RTVSPost2010PropOp37
 70
     0
102
RTVSPost2010Prop38
140
0.0
102
RTVSPost2010PropOp38
 70
     0
102
RTVSPost2010Prop39
140
1.0
102
RTVSPost2010PropOp39
 70
     0
102
RTVSPost2010Prop40
 90
        0
102
RTVSPost2010PropOp40
 70
     0
102
RTVSPost2010Prop41ColorIndex
 90
       18
102
RTVSPost2010Prop41ColorRGB
 90
        0
102
RTVSPost2010PropOp41
 70
     0
102
RTVSPost2010Prop42
 90
       50
102
RTVSPost2010PropOp42
 70
     0
102
RTVSPost2010Prop43
 90
        3
102
RTVSPost2010PropOp43
 70
     0
102
RTVSPost2010Prop44ColorIndex
 90
        5
102
RTVSPost2010Prop44ColorRGB
 90
      255
102
RTVSPost2010PropOp44
 70
     0
102
RTVSPost2010Prop45
280
     0
102
RTVSPost2010PropOp45
 70
     1
102
RTVSPost2010Prop46
 90
       50
102
RTVSPost2010PropOp46
 70
     0
102
RTVSPost2010Prop47
 90
       50
102
RTVSPost2010PropOp47
 70
     0
102
RTVSPost2010Prop48
 90
       50
102
RTVSPost2010PropOp48
 70
     0
102
RTVSPost2010Prop49
280
     0
102
RTVSPost2010PropOp49
 70
     1
102
RTVSPost2010Prop50
 90
       50
102
RTVSPost2010PropOp50
 70
     0
102
RTVSPost2010Prop51ColorIndex
 90
      256
102
RTVSPost2010Prop51ColorRGB
 90
-16777216
102
RTVSPost2010PropOp51
 70
     0
102
RTVSPost2010Prop52
140
1.0
102
RTVSPost2010PropOp52
 70
     0
102
RTVSPost2010Prop53
 90
        2
102
RTVSPost2010PropOp53
 70
     0
102
RTVSPost2010Prop54
  1
strokes_ogs.tif
102
RTVSPost2010PropOp54
 70
     0
102
RTVSPost2010Prop55
280
     0
102
RTVSPost2010PropOp55
 70
     1
102
RTVSPost2010Prop56
140
1.0
102
RTVSPost2010PropOp56
 70
     0
102
RTVSPost2010Prop57
140
1.0
102
RTVSPost2010PropOp57
 70
     0
102
RTVSPropertyOp0
 70
     0
102
RTVSPropertyOp1
 70
     0
102
RTVSPropertyOp2
 70
     0
102
RTVSPropertyOp3
 70
     0
102
RTVSPropertyOp4
 70
     0
102
RTVSPropertyOp5
 70
     0
102
RTVSPropertyOp6
 70
     0
102
RTVSPropertyOp7
 70
     0
102
RTVSPropertyOp8
 70
     0
102
RTVSPropertyOp9
 70
     0
102
RTVSPropertyOp10
 70
     0
102
RTVSPropertyOp11
 70
     0
102
RTVSPropertyOp12
 70
     0
102
RTVSPropertyOp13
 70
     0
102
RTVSPropertyOp14
 70
     2
102
RTVSPropertyOp15
 70
     0
102
RTVSPropertyOp16
 70
     0
102
RTVSPropertyOp17
 70
     0
102
RTVSPropertyOp18
 70
     0
102
RTVSPropertyOp19
 70
     0
102
RTVSPropertyOp20
 70
     0
102
RTVSPropertyOp21
 70
     0
102
RTVSPropertyOp22
 70
     0
102
RTVSPropertyOp23
 70
     0
102
RTVSPropertyOp24
 70
     0
102
RTVSPropertyOp25
 70
     0
102
RTVSPropertyOp26
 70
     0
102
RTVSPropertyOp27
 70
     0
102
RTVSPropertyOp28
 70
     1
102
RTVSPropertyOp29
 70
     1
102
RTVSPropertyOp30
 70
     1
102
RTVSPropertyOp31
 70
     1
102
RTVSPropertyOp32
 70
     1
102
RTVSPropertyOp33
 70
     1
102
RTVSPropertyOp34
 70
     1
102
RTVSPropertyOp35
 70
     1
102
RTVSPropertyOp36
 70
     1
102
RTVSPropertyOp37
 70
     0
102
RTVSPropertyOp38
 70
     0
102
RTVSPropertyOp39
 70
     0
102
RTVSPropertyOp40
 70
     0
102
RTVSPropertyOp41
 70
     0
102
RTVSPropertyOp42
 70
     0
102
RTVSPropertyOp43
 70
     0
102
RTVSPropertyOp44
 70
     0
102
RTVSPropertyOp45
 70
     1
102
RTVSPropertyOp46
 70
     0
102
RTVSPropertyOp47
 70
     0
102
RTVSPropertyOp48
 70
     0
102
RTVSPropertyOp49
 70
     1
102
RTVSPropertyOp50
 70
     0
102
RTVSPropertyOp51
 70
     0
102
RTVSPropertyOp52
 70
     0
102
RTVSPropertyOp53
 70
     0
102
RTVSPropertyOp54
 70
     0
102
RTVSPropertyOp55
 70
     1
102
RTVSPropertyOp56
 70
     0
102
RTVSPropertyOp57
 70
     0
102
RTVSPropertyOp58
 70
     0
102
RTVSPropertyOp59
 70
     0
102
RTVSPropertyOp60
 70
     0
102
RTVSPropertyOp61
 70
     0
102
RTVSPropertyOp62
 70
     0
  0
XRECORD
  5
315C
102
{ACAD_REACTORS
330
315B
102
}
330
315B
100
AcDbXrecord
280
     1
102
RTVSPost2010Prop28
280
     0
102
RTVSPost2010PropOp28
 70
     1
102
RTVSPost2010Prop29
280
     1
102
RTVSPost2010PropOp29
 70
     1
102
RTVSPost2010Prop30
280
     1
102
RTVSPost2010PropOp30
 70
     1
102
RTVSPost2010Prop31
280
     0
102
RTVSPost2010PropOp31
 70
     1
102
RTVSPost2010Prop32
280
     0
102
RTVSPost2010PropOp32
 70
     1
102
RTVSPost2010Prop33
280
     0
102
RTVSPost2010PropOp33
 70
     1
102
RTVSPost2010Prop34
280
     0
102
RTVSPost2010PropOp34
 70
     1
102
RTVSPost2010Prop35
280
     0
102
RTVSPost2010PropOp35
 70
     1
102
RTVSPost2010Prop36
280
     0
102
RTVSPost2010PropOp36
 70
     1
102
RTVSPost2010Prop37
 90
       50
102
RTVSPost2010PropOp37
 70
     1
102
RTVSPost2010Prop38
140
0.0
102
RTVSPost2010PropOp38
 70
     1
102
RTVSPost2010Prop39
140
1.0
102
RTVSPost2010PropOp39
 70
     1
102
RTVSPost2010Prop40
 90
        0
102
RTVSPost2010PropOp40
 70
     1
102
RTVSPost2010Prop41ColorIndex
 90
       18
102
RTVSPost2010Prop41ColorRGB
 90
        0
102
RTVSPost2010PropOp41
 70
     1
102
RTVSPost2010Prop42
 90
       50
102
RTVSPost2010PropOp42
 70
     1
102
RTVSPost2010Prop43
 90
        3
102
RTVSPost2010PropOp43
 70
     1
102
RTVSPost2010Prop44ColorIndex
 90
        5
102
RTVSPost2010Prop44ColorRGB
 90
      255
102
RTVSPost2010PropOp44
 70
     1
102
RTVSPost2010Prop45
280
     0
102
RTVSPost2010PropOp45
 70
     1
102
RTVSPost2010Prop46
 90
       50
102
RTVSPost2010PropOp46
 70
     1
102
RTVSPost2010Prop47
 90
       50
102
RTVSPost2010PropOp47
 70
     1
102
RTVSPost2010Prop48
 90
       50
102
RTVSPost2010PropOp48
 70
     1
102
RTVSPost2010Prop49
280
     0
102
RTVSPost2010PropOp49
 70
     1
102
RTVSPost2010Prop50
 90
       50
102
RTVSPost2010PropOp50
 70
     1
102
RTVSPost2010Prop51ColorIndex
 90
      256
102
RTVSPost2010Prop51ColorRGB
 90
-16777216
102
RTVSPost2010PropOp51
 70
     0
102
RTVSPost2010Prop52
140
1.0
102
RTVSPost2010PropOp52
 70
     0
102
RTVSPost2010Prop53
 90
        2
102
RTVSPost2010PropOp53
 70
     1
102
RTVSPost2010Prop54
  1
strokes_ogs.tif
102
RTVSPost2010PropOp54
 70
     1
102
RTVSPost2010Prop55
280
     0
102
RTVSPost2010PropOp55
 70
     1
102
RTVSPost2010Prop56
140
1.0
102
RTVSPost2010PropOp56
 70
     1
102
RTVSPost2010Prop57
140
1.0
102
RTVSPost2010PropOp57
 70
     1
102
RTVSPropertyOp0
 70
     1
102
RTVSPropertyOp1
 70
     1
102
RTVSPropertyOp2
 70
     1
102
RTVSPropertyOp3
 70
     1
102
RTVSPropertyOp4
 70
     1
102
RTVSPropertyOp5
 70
     1
102
RTVSPropertyOp6
 70
     1
102
RTVSPropertyOp7
 70
     1
102
RTVSPropertyOp8
 70
     1
102
RTVSPropertyOp9
 70
     1
102
RTVSPropertyOp10
 70
     1
102
RTVSPropertyOp11
 70
     1
102
RTVSPropertyOp12
 70
     1
102
RTVSPropertyOp13
 70
     1
102
RTVSPropertyOp14
 70
     1
102
RTVSPropertyOp15
 70
     1
102
RTVSPropertyOp16
 70
     1
102
RTVSPropertyOp17
 70
     1
102
RTVSPropertyOp18
 70
     1
102
RTVSPropertyOp19
 70
     1
102
RTVSPropertyOp20
 70
     1
102
RTVSPropertyOp21
 70
     1
102
RTVSPropertyOp22
 70
     1
102
RTVSPropertyOp23
 70
     1
102
RTVSPropertyOp24
 70
     1
102
RTVSPropertyOp25
 70
     1
102
RTVSPropertyOp26
 70
     1
102
RTVSPropertyOp27
 70
     1
102
RTVSPropertyOp28
 70
     1
102
RTVSPropertyOp29
 70
     1
102
RTVSPropertyOp30
 70
     1
102
RTVSPropertyOp31
 70
     1
102
RTVSPropertyOp32
 70
     1
102
RTVSPropertyOp33
 70
     1
102
RTVSPropertyOp34
 70
     1
102
RTVSPropertyOp35
 70
     1
102
RTVSPropertyOp36
 70
     1
102
RTVSPropertyOp37
 70
     1
102
RTVSPropertyOp38
 70
     1
102
RTVSPropertyOp39
 70
     1
102
RTVSPropertyOp40
 70
     1
102
RTVSPropertyOp41
 70
     1
102
RTVSPropertyOp42
 70
     1
102
RTVSPropertyOp43
 70
     1
102
RTVSPropertyOp44
 70
     1
102
RTVSPropertyOp45
 70
     1
102
RTVSPropertyOp46
 70
     1
102
RTVSPropertyOp47
 70
     1
102
RTVSPropertyOp48
 70
     1
102
RTVSPropertyOp49
 70
     1
102
RTVSPropertyOp50
 70
     1
102
RTVSPropertyOp51
 70
     0
102
RTVSPropertyOp52
 70
     0
102
RTVSPropertyOp53
 70
     1
102
RTVSPropertyOp54
 70
     1
102
RTVSPropertyOp55
 70
     1
102
RTVSPropertyOp56
 70
     1
102
RTVSPropertyOp57
 70
     1
102
RTVSPropertyOp58
 70
     1
102
RTVSPropertyOp59
 70
     1
102
RTVSPropertyOp60
 70
     1
102
RTVSPropertyOp61
 70
     1
102
RTVSPropertyOp62
 70
     1
  0
XRECORD
  5
3140
102
{ACAD_REACTORS
330
313F
102
}
330
313F
100
AcDbXrecord
280
     1
102
RTVSPost2010Prop28
280
     0
102
RTVSPost2010PropOp28
 70
     1
102
RTVSPost2010Prop29
280
     1
102
RTVSPost2010PropOp29
 70
     1
102
RTVSPost2010Prop30
280
     1
102
RTVSPost2010PropOp30
 70
     1
102
RTVSPost2010Prop31
280
     0
102
RTVSPost2010PropOp31
 70
     1
102
RTVSPost2010Prop32
280
     0
102
RTVSPost2010PropOp32
 70
     1
102
RTVSPost2010Prop33
280
     0
102
RTVSPost2010PropOp33
 70
     1
102
RTVSPost2010Prop34
280
     0
102
RTVSPost2010PropOp34
 70
     1
102
RTVSPost2010Prop35
280
     0
102
RTVSPost2010PropOp35
 70
     1
102
RTVSPost2010Prop36
280
     0
102
RTVSPost2010PropOp36
 70
     1
102
RTVSPost2010Prop37
 90
       50
102
RTVSPost2010PropOp37
 70
     1
102
RTVSPost2010Prop38
140
0.0
102
RTVSPost2010PropOp38
 70
     1
102
RTVSPost2010Prop39
140
1.0
102
RTVSPost2010PropOp39
 70
     1
102
RTVSPost2010Prop40
 90
        0
102
RTVSPost2010PropOp40
 70
     1
102
RTVSPost2010Prop41ColorIndex
 90
       18
102
RTVSPost2010Prop41ColorRGB
 90
        0
102
RTVSPost2010PropOp41
 70
     1
102
RTVSPost2010Prop42
 90
       50
102
RTVSPost2010PropOp42
 70
     1
102
RTVSPost2010Prop43
 90
        3
102
RTVSPost2010PropOp43
 70
     1
102
RTVSPost2010Prop44ColorIndex
 90
        5
102
RTVSPost2010Prop44ColorRGB
 90
      255
102
RTVSPost2010PropOp44
 70
     1
102
RTVSPost2010Prop45
280
     0
102
RTVSPost2010PropOp45
 70
     1
102
RTVSPost2010Prop46
 90
       50
102
RTVSPost2010PropOp46
 70
     1
102
RTVSPost2010Prop47
 90
       50
102
RTVSPost2010PropOp47
 70
     1
102
RTVSPost2010Prop48
 90
       50
102
RTVSPost2010PropOp48
 70
     1
102
RTVSPost2010Prop49
280
     0
102
RTVSPost2010PropOp49
 70
     1
102
RTVSPost2010Prop50
 90
       50
102
RTVSPost2010PropOp50
 70
     1
102
RTVSPost2010Prop51ColorIndex
 90
      256
102
RTVSPost2010Prop51ColorRGB
 90
-16777216
102
RTVSPost2010PropOp51
 70
     0
102
RTVSPost2010Prop52
140
1.0
102
RTVSPost2010PropOp52
 70
     0
102
RTVSPost2010Prop53
 90
        2
102
RTVSPost2010PropOp53
 70
     1
102
RTVSPost2010Prop54
  1
strokes_ogs.tif
102
RTVSPost2010PropOp54
 70
     1
102
RTVSPost2010Prop55
280
     0
102
RTVSPost2010PropOp55
 70
     1
102
RTVSPost2010Prop56
140
1.0
102
RTVSPost2010PropOp56
 70
     1
102
RTVSPost2010Prop57
140
1.0
102
RTVSPost2010PropOp57
 70
     1
102
RTVSPropertyOp0
 70
     1
102
RTVSPropertyOp1
 70
     1
102
RTVSPropertyOp2
 70
     1
102
RTVSPropertyOp3
 70
     1
102
RTVSPropertyOp4
 70
     1
102
RTVSPropertyOp5
 70
     1
102
RTVSPropertyOp6
 70
     1
102
RTVSPropertyOp7
 70
     1
102
RTVSPropertyOp8
 70
     1
102
RTVSPropertyOp9
 70
     1
102
RTVSPropertyOp10
 70
     1
102
RTVSPropertyOp11
 70
     1
102
RTVSPropertyOp12
 70
     1
102
RTVSPropertyOp13
 70
     1
102
RTVSPropertyOp14
 70
     1
102
RTVSPropertyOp15
 70
     1
102
RTVSPropertyOp16
 70
     1
102
RTVSPropertyOp17
 70
     1
102
RTVSPropertyOp18
 70
     1
102
RTVSPropertyOp19
 70
     1
102
RTVSPropertyOp20
 70
     1
102
RTVSPropertyOp21
 70
     1
102
RTVSPropertyOp22
 70
     1
102
RTVSPropertyOp23
 70
     1
102
RTVSPropertyOp24
 70
     1
102
RTVSPropertyOp25
 70
     1
102
RTVSPropertyOp26
 70
     1
102
RTVSPropertyOp27
 70
     1
102
RTVSPropertyOp28
 70
     1
102
RTVSPropertyOp29
 70
     1
102
RTVSPropertyOp30
 70
     1
102
RTVSPropertyOp31
 70
     1
102
RTVSPropertyOp32
 70
     1
102
RTVSPropertyOp33
 70
     1
102
RTVSPropertyOp34
 70
     1
102
RTVSPropertyOp35
 70
     1
102
RTVSPropertyOp36
 70
     1
102
RTVSPropertyOp37
 70
     1
102
RTVSPropertyOp38
 70
     1
102
RTVSPropertyOp39
 70
     1
102
RTVSPropertyOp40
 70
     1
102
RTVSPropertyOp41
 70
     1
102
RTVSPropertyOp42
 70
     1
102
RTVSPropertyOp43
 70
     1
102
RTVSPropertyOp44
 70
     1
102
RTVSPropertyOp45
 70
     1
102
RTVSPropertyOp46
 70
     1
102
RTVSPropertyOp47
 70
     1
102
RTVSPropertyOp48
 70
     1
102
RTVSPropertyOp49
 70
     1
102
RTVSPropertyOp50
 70
     1
102
RTVSPropertyOp51
 70
     0
102
RTVSPropertyOp52
 70
     0
102
RTVSPropertyOp53
 70
     1
102
RTVSPropertyOp54
 70
     1
102
RTVSPropertyOp55
 70
     1
102
RTVSPropertyOp56
 70
     1
102
RTVSPropertyOp57
 70
     1
102
RTVSPropertyOp58
 70
     1
102
RTVSPropertyOp59
 70
     1
102
RTVSPropertyOp60
 70
     1
102
RTVSPropertyOp61
 70
     1
102
RTVSPropertyOp62
 70
     1
  0
XRECORD
  5
3142
102
{ACAD_REACTORS
330
3141
102
}
330
3141
100
AcDbXrecord
280
     1
102
RTVSPost2010Prop28
280
     0
102
RTVSPost2010PropOp28
 70
     1
102
RTVSPost2010Prop29
280
     1
102
RTVSPost2010PropOp29
 70
     1
102
RTVSPost2010Prop30
280
     1
102
RTVSPost2010PropOp30
 70
     1
102
RTVSPost2010Prop31
280
     0
102
RTVSPost2010PropOp31
 70
     1
102
RTVSPost2010Prop32
280
     0
102
RTVSPost2010PropOp32
 70
     1
102
RTVSPost2010Prop33
280
     0
102
RTVSPost2010PropOp33
 70
     1
102
RTVSPost2010Prop34
280
     0
102
RTVSPost2010PropOp34
 70
     1
102
RTVSPost2010Prop35
280
     0
102
RTVSPost2010PropOp35
 70
     1
102
RTVSPost2010Prop36
280
     0
102
RTVSPost2010PropOp36
 70
     1
102
RTVSPost2010Prop37
 90
       50
102
RTVSPost2010PropOp37
 70
     1
102
RTVSPost2010Prop38
140
0.0
102
RTVSPost2010PropOp38
 70
     1
102
RTVSPost2010Prop39
140
1.0
102
RTVSPost2010PropOp39
 70
     1
102
RTVSPost2010Prop40
 90
        0
102
RTVSPost2010PropOp40
 70
     1
102
RTVSPost2010Prop41ColorIndex
 90
       18
102
RTVSPost2010Prop41ColorRGB
 90
        0
102
RTVSPost2010PropOp41
 70
     1
102
RTVSPost2010Prop42
 90
       50
102
RTVSPost2010PropOp42
 70
     1
102
RTVSPost2010Prop43
 90
        3
102
RTVSPost2010PropOp43
 70
     1
102
RTVSPost2010Prop44ColorIndex
 90
        5
102
RTVSPost2010Prop44ColorRGB
 90
      255
102
RTVSPost2010PropOp44
 70
     1
102
RTVSPost2010Prop45
280
     0
102
RTVSPost2010PropOp45
 70
     1
102
RTVSPost2010Prop46
 90
       50
102
RTVSPost2010PropOp46
 70
     1
102
RTVSPost2010Prop47
 90
       50
102
RTVSPost2010PropOp47
 70
     1
102
RTVSPost2010Prop48
 90
       50
102
RTVSPost2010PropOp48
 70
     1
102
RTVSPost2010Prop49
280
     0
102
RTVSPost2010PropOp49
 70
     1
102
RTVSPost2010Prop50
 90
       50
102
RTVSPost2010PropOp50
 70
     1
102
RTVSPost2010Prop51ColorIndex
 90
      256
102
RTVSPost2010Prop51ColorRGB
 90
-16777216
102
RTVSPost2010PropOp51
 70
     0
102
RTVSPost2010Prop52
140
1.0
102
RTVSPost2010PropOp52
 70
     0
102
RTVSPost2010Prop53
 90
        2
102
RTVSPost2010PropOp53
 70
     1
102
RTVSPost2010Prop54
  1
strokes_ogs.tif
102
RTVSPost2010PropOp54
 70
     1
102
RTVSPost2010Prop55
280
     0
102
RTVSPost2010PropOp55
 70
     1
102
RTVSPost2010Prop56
140
1.0
102
RTVSPost2010PropOp56
 70
     1
102
RTVSPost2010Prop57
140
1.0
102
RTVSPost2010PropOp57
 70
     1
102
RTVSPropertyOp0
 70
     1
102
RTVSPropertyOp1
 70
     1
102
RTVSPropertyOp2
 70
     1
102
RTVSPropertyOp3
 70
     1
102
RTVSPropertyOp4
 70
     1
102
RTVSPropertyOp5
 70
     1
102
RTVSPropertyOp6
 70
     1
102
RTVSPropertyOp7
 70
     1
102
RTVSPropertyOp8
 70
     1
102
RTVSPropertyOp9
 70
     1
102
RTVSPropertyOp10
 70
     1
102
RTVSPropertyOp11
 70
     1
102
RTVSPropertyOp12
 70
     1
102
RTVSPropertyOp13
 70
     1
102
RTVSPropertyOp14
 70
     1
102
RTVSPropertyOp15
 70
     1
102
RTVSPropertyOp16
 70
     1
102
RTVSPropertyOp17
 70
     1
102
RTVSPropertyOp18
 70
     1
102
RTVSPropertyOp19
 70
     1
102
RTVSPropertyOp20
 70
     1
102
RTVSPropertyOp21
 70
     1
102
RTVSPropertyOp22
 70
     1
102
RTVSPropertyOp23
 70
     1
102
RTVSPropertyOp24
 70
     1
102
RTVSPropertyOp25
 70
     1
102
RTVSPropertyOp26
 70
     1
102
RTVSPropertyOp27
 70
     1
102
RTVSPropertyOp28
 70
     1
102
RTVSPropertyOp29
 70
     1
102
RTVSPropertyOp30
 70
     1
102
RTVSPropertyOp31
 70
     1
102
RTVSPropertyOp32
 70
     1
102
RTVSPropertyOp33
 70
     1
102
RTVSPropertyOp34
 70
     1
102
RTVSPropertyOp35
 70
     1
102
RTVSPropertyOp36
 70
     1
102
RTVSPropertyOp37
 70
     1
102
RTVSPropertyOp38
 70
     1
102
RTVSPropertyOp39
 70
     1
102
RTVSPropertyOp40
 70
     1
102
RTVSPropertyOp41
 70
     1
102
RTVSPropertyOp42
 70
     1
102
RTVSPropertyOp43
 70
     1
102
RTVSPropertyOp44
 70
     1
102
RTVSPropertyOp45
 70
     1
102
RTVSPropertyOp46
 70
     1
102
RTVSPropertyOp47
 70
     1
102
RTVSPropertyOp48
 70
     1
102
RTVSPropertyOp49
 70
     1
102
RTVSPropertyOp50
 70
     1
102
RTVSPropertyOp51
 70
     0
102
RTVSPropertyOp52
 70
     0
102
RTVSPropertyOp53
 70
     1
102
RTVSPropertyOp54
 70
     1
102
RTVSPropertyOp55
 70
     1
102
RTVSPropertyOp56
 70
     1
102
RTVSPropertyOp57
 70
     1
102
RTVSPropertyOp58
 70
     1
102
RTVSPropertyOp59
 70
     1
102
RTVSPropertyOp60
 70
     1
102
RTVSPropertyOp61
 70
     1
102
RTVSPropertyOp62
 70
     1
  0
XRECORD
  5
3144
102
{ACAD_REACTORS
330
3143
102
}
330
3143
100
AcDbXrecord
280
     1
102
RTVSPost2010Prop28
280
     0
102
RTVSPost2010PropOp28
 70
     1
102
RTVSPost2010Prop29
280
     1
102
RTVSPost2010PropOp29
 70
     1
102
RTVSPost2010Prop30
280
     1
102
RTVSPost2010PropOp30
 70
     1
102
RTVSPost2010Prop31
280
     0
102
RTVSPost2010PropOp31
 70
     1
102
RTVSPost2010Prop32
280
     0
102
RTVSPost2010PropOp32
 70
     1
102
RTVSPost2010Prop33
280
     0
102
RTVSPost2010PropOp33
 70
     1
102
RTVSPost2010Prop34
280
     0
102
RTVSPost2010PropOp34
 70
     1
102
RTVSPost2010Prop35
280
     0
102
RTVSPost2010PropOp35
 70
     1
102
RTVSPost2010Prop36
280
     0
102
RTVSPost2010PropOp36
 70
     1
102
RTVSPost2010Prop37
 90
       50
102
RTVSPost2010PropOp37
 70
     1
102
RTVSPost2010Prop38
140
0.0
102
RTVSPost2010PropOp38
 70
     1
102
RTVSPost2010Prop39
140
1.0
102
RTVSPost2010PropOp39
 70
     1
102
RTVSPost2010Prop40
 90
        0
102
RTVSPost2010PropOp40
 70
     1
102
RTVSPost2010Prop41ColorIndex
 90
       18
102
RTVSPost2010Prop41ColorRGB
 90
        0
102
RTVSPost2010PropOp41
 70
     1
102
RTVSPost2010Prop42
 90
       50
102
RTVSPost2010PropOp42
 70
     1
102
RTVSPost2010Prop43
 90
        3
102
RTVSPost2010PropOp43
 70
     1
102
RTVSPost2010Prop44ColorIndex
 90
        5
102
RTVSPost2010Prop44ColorRGB
 90
      255
102
RTVSPost2010PropOp44
 70
     1
102
RTVSPost2010Prop45
280
     0
102
RTVSPost2010PropOp45
 70
     1
102
RTVSPost2010Prop46
 90
       50
102
RTVSPost2010PropOp46
 70
     1
102
RTVSPost2010Prop47
 90
       50
102
RTVSPost2010PropOp47
 70
     1
102
RTVSPost2010Prop48
 90
       50
102
RTVSPost2010PropOp48
 70
     1
102
RTVSPost2010Prop49
280
     0
102
RTVSPost2010PropOp49
 70
     1
102
RTVSPost2010Prop50
 90
       50
102
RTVSPost2010PropOp50
 70
     1
102
RTVSPost2010Prop51ColorIndex
 90
      256
102
RTVSPost2010Prop51ColorRGB
 90
-16777216
102
RTVSPost2010PropOp51
 70
     0
102
RTVSPost2010Prop52
140
1.0
102
RTVSPost2010PropOp52
 70
     0
102
RTVSPost2010Prop53
 90
        2
102
RTVSPost2010PropOp53
 70
     1
102
RTVSPost2010Prop54
  1
strokes_ogs.tif
102
RTVSPost2010PropOp54
 70
     1
102
RTVSPost2010Prop55
280
     0
102
RTVSPost2010PropOp55
 70
     1
102
RTVSPost2010Prop56
140
1.0
102
RTVSPost2010PropOp56
 70
     1
102
RTVSPost2010Prop57
140
1.0
102
RTVSPost2010PropOp57
 70
     1
102
RTVSPropertyOp0
 70
     1
102
RTVSPropertyOp1
 70
     1
102
RTVSPropertyOp2
 70
     1
102
RTVSPropertyOp3
 70
     1
102
RTVSPropertyOp4
 70
     1
102
RTVSPropertyOp5
 70
     1
102
RTVSPropertyOp6
 70
     1
102
RTVSPropertyOp7
 70
     1
102
RTVSPropertyOp8
 70
     1
102
RTVSPropertyOp9
 70
     1
102
RTVSPropertyOp10
 70
     1
102
RTVSPropertyOp11
 70
     1
102
RTVSPropertyOp12
 70
     1
102
RTVSPropertyOp13
 70
     1
102
RTVSPropertyOp14
 70
     1
102
RTVSPropertyOp15
 70
     1
102
RTVSPropertyOp16
 70
     1
102
RTVSPropertyOp17
 70
     1
102
RTVSPropertyOp18
 70
     1
102
RTVSPropertyOp19
 70
     1
102
RTVSPropertyOp20
 70
     1
102
RTVSPropertyOp21
 70
     1
102
RTVSPropertyOp22
 70
     1
102
RTVSPropertyOp23
 70
     1
102
RTVSPropertyOp24
 70
     1
102
RTVSPropertyOp25
 70
     1
102
RTVSPropertyOp26
 70
     1
102
RTVSPropertyOp27
 70
     1
102
RTVSPropertyOp28
 70
     1
102
RTVSPropertyOp29
 70
     1
102
RTVSPropertyOp30
 70
     1
102
RTVSPropertyOp31
 70
     1
102
RTVSPropertyOp32
 70
     1
102
RTVSPropertyOp33
 70
     1
102
RTVSPropertyOp34
 70
     1
102
RTVSPropertyOp35
 70
     1
102
RTVSPropertyOp36
 70
     1
102
RTVSPropertyOp37
 70
     1
102
RTVSPropertyOp38
 70
     1
102
RTVSPropertyOp39
 70
     1
102
RTVSPropertyOp40
 70
     1
102
RTVSPropertyOp41
 70
     1
102
RTVSPropertyOp42
 70
     1
102
RTVSPropertyOp43
 70
     1
102
RTVSPropertyOp44
 70
     1
102
RTVSPropertyOp45
 70
     1
102
RTVSPropertyOp46
 70
     1
102
RTVSPropertyOp47
 70
     1
102
RTVSPropertyOp48
 70
     1
102
RTVSPropertyOp49
 70
     1
102
RTVSPropertyOp50
 70
     1
102
RTVSPropertyOp51
 70
     0
102
RTVSPropertyOp52
 70
     0
102
RTVSPropertyOp53
 70
     1
102
RTVSPropertyOp54
 70
     1
102
RTVSPropertyOp55
 70
     1
102
RTVSPropertyOp56
 70
     1
102
RTVSPropertyOp57
 70
     1
102
RTVSPropertyOp58
 70
     1
102
RTVSPropertyOp59
 70
     1
102
RTVSPropertyOp60
 70
     1
102
RTVSPropertyOp61
 70
     1
102
RTVSPropertyOp62
 70
     1
  0
XRECORD
  5
3146
102
{ACAD_REACTORS
330
3145
102
}
330
3145
100
AcDbXrecord
280
     1
102
RTVSPost2010Prop28
280
     0
102
RTVSPost2010PropOp28
 70
     1
102
RTVSPost2010Prop29
280
     1
102
RTVSPost2010PropOp29
 70
     1
102
RTVSPost2010Prop30
280
     1
102
RTVSPost2010PropOp30
 70
     1
102
RTVSPost2010Prop31
280
     0
102
RTVSPost2010PropOp31
 70
     1
102
RTVSPost2010Prop32
280
     0
102
RTVSPost2010PropOp32
 70
     1
102
RTVSPost2010Prop33
280
     0
102
RTVSPost2010PropOp33
 70
     1
102
RTVSPost2010Prop34
280
     0
102
RTVSPost2010PropOp34
 70
     1
102
RTVSPost2010Prop35
280
     0
102
RTVSPost2010PropOp35
 70
     1
102
RTVSPost2010Prop36
280
     0
102
RTVSPost2010PropOp36
 70
     1
102
RTVSPost2010Prop37
 90
       50
102
RTVSPost2010PropOp37
 70
     1
102
RTVSPost2010Prop38
140
0.0
102
RTVSPost2010PropOp38
 70
     1
102
RTVSPost2010Prop39
140
1.0
102
RTVSPost2010PropOp39
 70
     1
102
RTVSPost2010Prop40
 90
        0
102
RTVSPost2010PropOp40
 70
     1
102
RTVSPost2010Prop41ColorIndex
 90
       18
102
RTVSPost2010Prop41ColorRGB
 90
        0
102
RTVSPost2010PropOp41
 70
     1
102
RTVSPost2010Prop42
 90
       50
102
RTVSPost2010PropOp42
 70
     1
102
RTVSPost2010Prop43
 90
        3
102
RTVSPost2010PropOp43
 70
     1
102
RTVSPost2010Prop44ColorIndex
 90
        5
102
RTVSPost2010Prop44ColorRGB
 90
      255
102
RTVSPost2010PropOp44
 70
     1
102
RTVSPost2010Prop45
280
     0
102
RTVSPost2010PropOp45
 70
     1
102
RTVSPost2010Prop46
 90
       50
102
RTVSPost2010PropOp46
 70
     1
102
RTVSPost2010Prop47
 90
       50
102
RTVSPost2010PropOp47
 70
     1
102
RTVSPost2010Prop48
 90
       50
102
RTVSPost2010PropOp48
 70
     1
102
RTVSPost2010Prop49
280
     0
102
RTVSPost2010PropOp49
 70
     1
102
RTVSPost2010Prop50
 90
       50
102
RTVSPost2010PropOp50
 70
     1
102
RTVSPost2010Prop51ColorIndex
 90
      256
102
RTVSPost2010Prop51ColorRGB
 90
-16777216
102
RTVSPost2010PropOp51
 70
     0
102
RTVSPost2010Prop52
140
1.0
102
RTVSPost2010PropOp52
 70
     0
102
RTVSPost2010Prop53
 90
        2
102
RTVSPost2010PropOp53
 70
     1
102
RTVSPost2010Prop54
  1
strokes_ogs.tif
102
RTVSPost2010PropOp54
 70
     1
102
RTVSPost2010Prop55
280
     0
102
RTVSPost2010PropOp55
 70
     1
102
RTVSPost2010Prop56
140
1.0
102
RTVSPost2010PropOp56
 70
     1
102
RTVSPost2010Prop57
140
1.0
102
RTVSPost2010PropOp57
 70
     1
102
RTVSPropertyOp0
 70
     1
102
RTVSPropertyOp1
 70
     1
102
RTVSPropertyOp2
 70
     1
102
RTVSPropertyOp3
 70
     1
102
RTVSPropertyOp4
 70
     1
102
RTVSPropertyOp5
 70
     1
102
RTVSPropertyOp6
 70
     1
102
RTVSPropertyOp7
 70
     1
102
RTVSPropertyOp8
 70
     1
102
RTVSPropertyOp9
 70
     1
102
RTVSPropertyOp10
 70
     1
102
RTVSPropertyOp11
 70
     1
102
RTVSPropertyOp12
 70
     1
102
RTVSPropertyOp13
 70
     1
102
RTVSPropertyOp14
 70
     1
102
RTVSPropertyOp15
 70
     1
102
RTVSPropertyOp16
 70
     1
102
RTVSPropertyOp17
 70
     1
102
RTVSPropertyOp18
 70
     1
102
RTVSPropertyOp19
 70
     1
102
RTVSPropertyOp20
 70
     1
102
RTVSPropertyOp21
 70
     1
102
RTVSPropertyOp22
 70
     1
102
RTVSPropertyOp23
 70
     1
102
RTVSPropertyOp24
 70
     1
102
RTVSPropertyOp25
 70
     1
102
RTVSPropertyOp26
 70
     1
102
RTVSPropertyOp27
 70
     1
102
RTVSPropertyOp28
 70
     1
102
RTVSPropertyOp29
 70
     1
102
RTVSPropertyOp30
 70
     1
102
RTVSPropertyOp31
 70
     1
102
RTVSPropertyOp32
 70
     1
102
RTVSPropertyOp33
 70
     1
102
RTVSPropertyOp34
 70
     1
102
RTVSPropertyOp35
 70
     1
102
RTVSPropertyOp36
 70
     1
102
RTVSPropertyOp37
 70
     1
102
RTVSPropertyOp38
 70
     1
102
RTVSPropertyOp39
 70
     1
102
RTVSPropertyOp40
 70
     1
102
RTVSPropertyOp41
 70
     1
102
RTVSPropertyOp42
 70
     1
102
RTVSPropertyOp43
 70
     1
102
RTVSPropertyOp44
 70
     1
102
RTVSPropertyOp45
 70
     1
102
RTVSPropertyOp46
 70
     1
102
RTVSPropertyOp47
 70
     1
102
RTVSPropertyOp48
 70
     1
102
RTVSPropertyOp49
 70
     1
102
RTVSPropertyOp50
 70
     1
102
RTVSPropertyOp51
 70
     0
102
RTVSPropertyOp52
 70
     0
102
RTVSPropertyOp53
 70
     1
102
RTVSPropertyOp54
 70
     1
102
RTVSPropertyOp55
 70
     1
102
RTVSPropertyOp56
 70
     1
102
RTVSPropertyOp57
 70
     1
102
RTVSPropertyOp58
 70
     1
102
RTVSPropertyOp59
 70
     1
102
RTVSPropertyOp60
 70
     1
102
RTVSPropertyOp61
 70
     1
102
RTVSPropertyOp62
 70
     1
  0
XRECORD
  5
314E
102
{ACAD_REACTORS
330
314D
102
}
330
314D
100
AcDbXrecord
280
     1
102
RTVSPost2010Prop28
280
     0
102
RTVSPost2010PropOp28
 70
     1
102
RTVSPost2010Prop29
280
     1
102
RTVSPost2010PropOp29
 70
     1
102
RTVSPost2010Prop30
280
     1
102
RTVSPost2010PropOp30
 70
     1
102
RTVSPost2010Prop31
280
     0
102
RTVSPost2010PropOp31
 70
     1
102
RTVSPost2010Prop32
280
     0
102
RTVSPost2010PropOp32
 70
     1
102
RTVSPost2010Prop33
280
     0
102
RTVSPost2010PropOp33
 70
     1
102
RTVSPost2010Prop34
280
     0
102
RTVSPost2010PropOp34
 70
     1
102
RTVSPost2010Prop35
280
     0
102
RTVSPost2010PropOp35
 70
     1
102
RTVSPost2010Prop36
280
     0
102
RTVSPost2010PropOp36
 70
     1
102
RTVSPost2010Prop37
 90
       50
102
RTVSPost2010PropOp37
 70
     1
102
RTVSPost2010Prop38
140
0.0
102
RTVSPost2010PropOp38
 70
     1
102
RTVSPost2010Prop39
140
1.0
102
RTVSPost2010PropOp39
 70
     1
102
RTVSPost2010Prop40
 90
        0
102
RTVSPost2010PropOp40
 70
     1
102
RTVSPost2010Prop41ColorIndex
 90
       18
102
RTVSPost2010Prop41ColorRGB
 90
        0
102
RTVSPost2010PropOp41
 70
     1
102
RTVSPost2010Prop42
 90
       50
102
RTVSPost2010PropOp42
 70
     1
102
RTVSPost2010Prop43
 90
        3
102
RTVSPost2010PropOp43
 70
     1
102
RTVSPost2010Prop44ColorIndex
 90
        5
102
RTVSPost2010Prop44ColorRGB
 90
      255
102
RTVSPost2010PropOp44
 70
     1
102
RTVSPost2010Prop45
280
     0
102
RTVSPost2010PropOp45
 70
     1
102
RTVSPost2010Prop46
 90
       50
102
RTVSPost2010PropOp46
 70
     1
102
RTVSPost2010Prop47
 90
       50
102
RTVSPost2010PropOp47
 70
     1
102
RTVSPost2010Prop48
 90
       50
102
RTVSPost2010PropOp48
 70
     1
102
RTVSPost2010Prop49
280
     0
102
RTVSPost2010PropOp49
 70
     1
102
RTVSPost2010Prop50
 90
       50
102
RTVSPost2010PropOp50
 70
     1
102
RTVSPost2010Prop51ColorIndex
 90
      256
102
RTVSPost2010Prop51ColorRGB
 90
-16777216
102
RTVSPost2010PropOp51
 70
     0
102
RTVSPost2010Prop52
140
1.0
102
RTVSPost2010PropOp52
 70
     0
102
RTVSPost2010Prop53
 90
        2
102
RTVSPost2010PropOp53
 70
     1
102
RTVSPost2010Prop54
  1
strokes_ogs.tif
102
RTVSPost2010PropOp54
 70
     1
102
RTVSPost2010Prop55
280
     0
102
RTVSPost2010PropOp55
 70
     1
102
RTVSPost2010Prop56
140
1.0
102
RTVSPost2010PropOp56
 70
     1
102
RTVSPost2010Prop57
140
1.0
102
RTVSPost2010PropOp57
 70
     1
102
RTVSPropertyOp0
 70
     1
102
RTVSPropertyOp1
 70
     1
102
RTVSPropertyOp2
 70
     1
102
RTVSPropertyOp3
 70
     1
102
RTVSPropertyOp4
 70
     1
102
RTVSPropertyOp5
 70
     1
102
RTVSPropertyOp6
 70
     1
102
RTVSPropertyOp7
 70
     1
102
RTVSPropertyOp8
 70
     1
102
RTVSPropertyOp9
 70
     1
102
RTVSPropertyOp10
 70
     1
102
RTVSPropertyOp11
 70
     1
102
RTVSPropertyOp12
 70
     1
102
RTVSPropertyOp13
 70
     1
102
RTVSPropertyOp14
 70
     1
102
RTVSPropertyOp15
 70
     1
102
RTVSPropertyOp16
 70
     1
102
RTVSPropertyOp17
 70
     1
102
RTVSPropertyOp18
 70
     1
102
RTVSPropertyOp19
 70
     1
102
RTVSPropertyOp20
 70
     1
102
RTVSPropertyOp21
 70
     1
102
RTVSPropertyOp22
 70
     1
102
RTVSPropertyOp23
 70
     1
102
RTVSPropertyOp24
 70
     1
102
RTVSPropertyOp25
 70
     1
102
RTVSPropertyOp26
 70
     1
102
RTVSPropertyOp27
 70
     1
102
RTVSPropertyOp28
 70
     1
102
RTVSPropertyOp29
 70
     1
102
RTVSPropertyOp30
 70
     1
102
RTVSPropertyOp31
 70
     1
102
RTVSPropertyOp32
 70
     1
102
RTVSPropertyOp33
 70
     1
102
RTVSPropertyOp34
 70
     1
102
RTVSPropertyOp35
 70
     1
102
RTVSPropertyOp36
 70
     1
102
RTVSPropertyOp37
 70
     1
102
RTVSPropertyOp38
 70
     1
102
RTVSPropertyOp39
 70
     1
102
RTVSPropertyOp40
 70
     1
102
RTVSPropertyOp41
 70
     1
102
RTVSPropertyOp42
 70
     1
102
RTVSPropertyOp43
 70
     1
102
RTVSPropertyOp44
 70
     1
102
RTVSPropertyOp45
 70
     1
102
RTVSPropertyOp46
 70
     1
102
RTVSPropertyOp47
 70
     1
102
RTVSPropertyOp48
 70
     1
102
RTVSPropertyOp49
 70
     1
102
RTVSPropertyOp50
 70
     1
102
RTVSPropertyOp51
 70
     0
102
RTVSPropertyOp52
 70
     0
102
RTVSPropertyOp53
 70
     1
102
RTVSPropertyOp54
 70
     1
102
RTVSPropertyOp55
 70
     1
102
RTVSPropertyOp56
 70
     1
102
RTVSPropertyOp57
 70
     1
102
RTVSPropertyOp58
 70
     1
102
RTVSPropertyOp59
 70
     1
102
RTVSPropertyOp60
 70
     1
102
RTVSPropertyOp61
 70
     1
102
RTVSPropertyOp62
 70
     1
  0
XRECORD
  5
316A
102
{ACAD_REACTORS
330
3169
102
}
330
3169
100
AcDbXrecord
280
     1
102
RTVSPost2010Prop28
280
     0
102
RTVSPost2010PropOp28
 70
     1
102
RTVSPost2010Prop29
280
     1
102
RTVSPost2010PropOp29
 70
     1
102
RTVSPost2010Prop30
280
     1
102
RTVSPost2010PropOp30
 70
     1
102
RTVSPost2010Prop31
280
     0
102
RTVSPost2010PropOp31
 70
     1
102
RTVSPost2010Prop32
280
     0
102
RTVSPost2010PropOp32
 70
     1
102
RTVSPost2010Prop33
280
     0
102
RTVSPost2010PropOp33
 70
     1
102
RTVSPost2010Prop34
280
     0
102
RTVSPost2010PropOp34
 70
     1
102
RTVSPost2010Prop35
280
     0
102
RTVSPost2010PropOp35
 70
     1
102
RTVSPost2010Prop36
280
     0
102
RTVSPost2010PropOp36
 70
     1
102
RTVSPost2010Prop37
 90
       50
102
RTVSPost2010PropOp37
 70
     0
102
RTVSPost2010Prop38
140
0.0
102
RTVSPost2010PropOp38
 70
     0
102
RTVSPost2010Prop39
140
1.0
102
RTVSPost2010PropOp39
 70
     0
102
RTVSPost2010Prop40
 90
        0
102
RTVSPost2010PropOp40
 70
     0
102
RTVSPost2010Prop41ColorIndex
 90
       18
102
RTVSPost2010Prop41ColorRGB
 90
        0
102
RTVSPost2010PropOp41
 70
     0
102
RTVSPost2010Prop42
 90
       50
102
RTVSPost2010PropOp42
 70
     0
102
RTVSPost2010Prop43
 90
        3
102
RTVSPost2010PropOp43
 70
     0
102
RTVSPost2010Prop44ColorIndex
 90
        5
102
RTVSPost2010Prop44ColorRGB
 90
      255
102
RTVSPost2010PropOp44
 70
     0
102
RTVSPost2010Prop45
280
     0
102
RTVSPost2010PropOp45
 70
     1
102
RTVSPost2010Prop46
 90
       50
102
RTVSPost2010PropOp46
 70
     0
102
RTVSPost2010Prop47
 90
       50
102
RTVSPost2010PropOp47
 70
     0
102
RTVSPost2010Prop48
 90
       50
102
RTVSPost2010PropOp48
 70
     0
102
RTVSPost2010Prop49
280
     0
102
RTVSPost2010PropOp49
 70
     1
102
RTVSPost2010Prop50
 90
       50
102
RTVSPost2010PropOp50
 70
     0
102
RTVSPost2010Prop51ColorIndex
 90
      256
102
RTVSPost2010Prop51ColorRGB
 90
-16777216
102
RTVSPost2010PropOp51
 70
     0
102
RTVSPost2010Prop52
140
1.0
102
RTVSPost2010PropOp52
 70
     0
102
RTVSPost2010Prop53
 90
        2
102
RTVSPost2010PropOp53
 70
     0
102
RTVSPost2010Prop54
  1
strokes_ogs.tif
102
RTVSPost2010PropOp54
 70
     0
102
RTVSPost2010Prop55
280
     0
102
RTVSPost2010PropOp55
 70
     1
102
RTVSPost2010Prop56
140
1.0
102
RTVSPost2010PropOp56
 70
     0
102
RTVSPost2010Prop57
140
1.0
102
RTVSPost2010PropOp57
 70
     0
102
RTVSPropertyOp0
 70
     0
102
RTVSPropertyOp1
 70
     0
102
RTVSPropertyOp2
 70
     0
102
RTVSPropertyOp3
 70
     0
102
RTVSPropertyOp4
 70
     0
102
RTVSPropertyOp5
 70
     0
102
RTVSPropertyOp6
 70
     0
102
RTVSPropertyOp7
 70
     0
102
RTVSPropertyOp8
 70
     0
102
RTVSPropertyOp9
 70
     0
102
RTVSPropertyOp10
 70
     0
102
RTVSPropertyOp11
 70
     0
102
RTVSPropertyOp12
 70
     0
102
RTVSPropertyOp13
 70
     0
102
RTVSPropertyOp14
 70
     2
102
RTVSPropertyOp15
 70
     0
102
RTVSPropertyOp16
 70
     0
102
RTVSPropertyOp17
 70
     0
102
RTVSPropertyOp18
 70
     0
102
RTVSPropertyOp19
 70
     0
102
RTVSPropertyOp20
 70
     0
102
RTVSPropertyOp21
 70
     0
102
RTVSPropertyOp22
 70
     0
102
RTVSPropertyOp23
 70
     0
102
RTVSPropertyOp24
 70
     0
102
RTVSPropertyOp25
 70
     0
102
RTVSPropertyOp26
 70
     0
102
RTVSPropertyOp27
 70
     0
102
RTVSPropertyOp28
 70
     1
102
RTVSPropertyOp29
 70
     1
102
RTVSPropertyOp30
 70
     1
102
RTVSPropertyOp31
 70
     1
102
RTVSPropertyOp32
 70
     1
102
RTVSPropertyOp33
 70
     1
102
RTVSPropertyOp34
 70
     1
102
RTVSPropertyOp35
 70
     1
102
RTVSPropertyOp36
 70
     1
102
RTVSPropertyOp37
 70
     0
102
RTVSPropertyOp38
 70
     0
102
RTVSPropertyOp39
 70
     0
102
RTVSPropertyOp40
 70
     0
102
RTVSPropertyOp41
 70
     0
102
RTVSPropertyOp42
 70
     0
102
RTVSPropertyOp43
 70
     0
102
RTVSPropertyOp44
 70
     0
102
RTVSPropertyOp45
 70
     1
102
RTVSPropertyOp46
 70
     0
102
RTVSPropertyOp47
 70
     0
102
RTVSPropertyOp48
 70
     0
102
RTVSPropertyOp49
 70
     1
102
RTVSPropertyOp50
 70
     0
102
RTVSPropertyOp51
 70
     0
102
RTVSPropertyOp52
 70
     0
102
RTVSPropertyOp53
 70
     0
102
RTVSPropertyOp54
 70
     0
102
RTVSPropertyOp55
 70
     1
102
RTVSPropertyOp56
 70
     0
102
RTVSPropertyOp57
 70
     0
102
RTVSPropertyOp58
 70
     0
102
RTVSPropertyOp59
 70
     0
102
RTVSPropertyOp60
 70
     0
102
RTVSPropertyOp61
 70
     0
102
RTVSPropertyOp62
 70
     0
  0
XRECORD
  5
315A
102
{ACAD_REACTORS
330
3159
102
}
330
3159
100
AcDbXrecord
280
     1
102
RTVSPost2010Prop28
280
     0
102
RTVSPost2010PropOp28
 70
     1
102
RTVSPost2010Prop29
280
     1
102
RTVSPost2010PropOp29
 70
     1
102
RTVSPost2010Prop30
280
     1
102
RTVSPost2010PropOp30
 70
     1
102
RTVSPost2010Prop31
280
     0
102
RTVSPost2010PropOp31
 70
     1
102
RTVSPost2010Prop32
280
     0
102
RTVSPost2010PropOp32
 70
     1
102
RTVSPost2010Prop33
280
     0
102
RTVSPost2010PropOp33
 70
     1
102
RTVSPost2010Prop34
280
     0
102
RTVSPost2010PropOp34
 70
     1
102
RTVSPost2010Prop35
280
     0
102
RTVSPost2010PropOp35
 70
     1
102
RTVSPost2010Prop36
280
     0
102
RTVSPost2010PropOp36
 70
     1
102
RTVSPost2010Prop37
 90
       50
102
RTVSPost2010PropOp37
 70
     1
102
RTVSPost2010Prop38
140
0.0
102
RTVSPost2010PropOp38
 70
     1
102
RTVSPost2010Prop39
140
1.0
102
RTVSPost2010PropOp39
 70
     1
102
RTVSPost2010Prop40
 90
        0
102
RTVSPost2010PropOp40
 70
     1
102
RTVSPost2010Prop41ColorIndex
 90
       18
102
RTVSPost2010Prop41ColorRGB
 90
        0
102
RTVSPost2010PropOp41
 70
     1
102
RTVSPost2010Prop42
 90
       50
102
RTVSPost2010PropOp42
 70
     1
102
RTVSPost2010Prop43
 90
        3
102
RTVSPost2010PropOp43
 70
     1
102
RTVSPost2010Prop44ColorIndex
 90
        5
102
RTVSPost2010Prop44ColorRGB
 90
      255
102
RTVSPost2010PropOp44
 70
     1
102
RTVSPost2010Prop45
280
     0
102
RTVSPost2010PropOp45
 70
     1
102
RTVSPost2010Prop46
 90
       50
102
RTVSPost2010PropOp46
 70
     1
102
RTVSPost2010Prop47
 90
       50
102
RTVSPost2010PropOp47
 70
     1
102
RTVSPost2010Prop48
 90
       50
102
RTVSPost2010PropOp48
 70
     1
102
RTVSPost2010Prop49
280
     0
102
RTVSPost2010PropOp49
 70
     1
102
RTVSPost2010Prop50
 90
       50
102
RTVSPost2010PropOp50
 70
     1
102
RTVSPost2010Prop51ColorIndex
 90
      256
102
RTVSPost2010Prop51ColorRGB
 90
-16777216
102
RTVSPost2010PropOp51
 70
     0
102
RTVSPost2010Prop52
140
1.0
102
RTVSPost2010PropOp52
 70
     0
102
RTVSPost2010Prop53
 90
        2
102
RTVSPost2010PropOp53
 70
     1
102
RTVSPost2010Prop54
  1
strokes_ogs.tif
102
RTVSPost2010PropOp54
 70
     1
102
RTVSPost2010Prop55
280
     0
102
RTVSPost2010PropOp55
 70
     1
102
RTVSPost2010Prop56
140
1.0
102
RTVSPost2010PropOp56
 70
     1
102
RTVSPost2010Prop57
140
1.0
102
RTVSPost2010PropOp57
 70
     1
102
RTVSPropertyOp0
 70
     1
102
RTVSPropertyOp1
 70
     1
102
RTVSPropertyOp2
 70
     1
102
RTVSPropertyOp3
 70
     1
102
RTVSPropertyOp4
 70
     1
102
RTVSPropertyOp5
 70
     1
102
RTVSPropertyOp6
 70
     1
102
RTVSPropertyOp7
 70
     1
102
RTVSPropertyOp8
 70
     1
102
RTVSPropertyOp9
 70
     1
102
RTVSPropertyOp10
 70
     1
102
RTVSPropertyOp11
 70
     1
102
RTVSPropertyOp12
 70
     1
102
RTVSPropertyOp13
 70
     1
102
RTVSPropertyOp14
 70
     1
102
RTVSPropertyOp15
 70
     1
102
RTVSPropertyOp16
 70
     1
102
RTVSPropertyOp17
 70
     1
102
RTVSPropertyOp18
 70
     1
102
RTVSPropertyOp19
 70
     1
102
RTVSPropertyOp20
 70
     1
102
RTVSPropertyOp21
 70
     1
102
RTVSPropertyOp22
 70
     1
102
RTVSPropertyOp23
 70
     1
102
RTVSPropertyOp24
 70
     1
102
RTVSPropertyOp25
 70
     1
102
RTVSPropertyOp26
 70
     1
102
RTVSPropertyOp27
 70
     1
102
RTVSPropertyOp28
 70
     1
102
RTVSPropertyOp29
 70
     1
102
RTVSPropertyOp30
 70
     1
102
RTVSPropertyOp31
 70
     1
102
RTVSPropertyOp32
 70
     1
102
RTVSPropertyOp33
 70
     1
102
RTVSPropertyOp34
 70
     1
102
RTVSPropertyOp35
 70
     1
102
RTVSPropertyOp36
 70
     1
102
RTVSPropertyOp37
 70
     1
102
RTVSPropertyOp38
 70
     1
102
RTVSPropertyOp39
 70
     1
102
RTVSPropertyOp40
 70
     1
102
RTVSPropertyOp41
 70
     1
102
RTVSPropertyOp42
 70
     1
102
RTVSPropertyOp43
 70
     1
102
RTVSPropertyOp44
 70
     1
102
RTVSPropertyOp45
 70
     1
102
RTVSPropertyOp46
 70
     1
102
RTVSPropertyOp47
 70
     1
102
RTVSPropertyOp48
 70
     1
102
RTVSPropertyOp49
 70
     1
102
RTVSPropertyOp50
 70
     1
102
RTVSPropertyOp51
 70
     0
102
RTVSPropertyOp52
 70
     0
102
RTVSPropertyOp53
 70
     1
102
RTVSPropertyOp54
 70
     1
102
RTVSPropertyOp55
 70
     1
102
RTVSPropertyOp56
 70
     1
102
RTVSPropertyOp57
 70
     1
102
RTVSPropertyOp58
 70
     1
102
RTVSPropertyOp59
 70
     1
102
RTVSPropertyOp60
 70
     1
102
RTVSPropertyOp61
 70
     1
102
RTVSPropertyOp62
 70
     1
  0
XRECORD
  5
316C
102
{ACAD_REACTORS
330
316B
102
}
330
316B
100
AcDbXrecord
280
     1
102
RTVSPost2010Prop28
280
     0
102
RTVSPost2010PropOp28
 70
     1
102
RTVSPost2010Prop29
280
     1
102
RTVSPost2010PropOp29
 70
     1
102
RTVSPost2010Prop30
280
     1
102
RTVSPost2010PropOp30
 70
     1
102
RTVSPost2010Prop31
280
     0
102
RTVSPost2010PropOp31
 70
     1
102
RTVSPost2010Prop32
280
     0
102
RTVSPost2010PropOp32
 70
     1
102
RTVSPost2010Prop33
280
     0
102
RTVSPost2010PropOp33
 70
     1
102
RTVSPost2010Prop34
280
     0
102
RTVSPost2010PropOp34
 70
     1
102
RTVSPost2010Prop35
280
     0
102
RTVSPost2010PropOp35
 70
     1
102
RTVSPost2010Prop36
280
     0
102
RTVSPost2010PropOp36
 70
     1
102
RTVSPost2010Prop37
 90
       50
102
RTVSPost2010PropOp37
 70
     0
102
RTVSPost2010Prop38
140
0.0
102
RTVSPost2010PropOp38
 70
     0
102
RTVSPost2010Prop39
140
1.0
102
RTVSPost2010PropOp39
 70
     0
102
RTVSPost2010Prop40
 90
        0
102
RTVSPost2010PropOp40
 70
     0
102
RTVSPost2010Prop41ColorIndex
 90
       18
102
RTVSPost2010Prop41ColorRGB
 90
        0
102
RTVSPost2010PropOp41
 70
     0
102
RTVSPost2010Prop42
 90
       50
102
RTVSPost2010PropOp42
 70
     0
102
RTVSPost2010Prop43
 90
        3
102
RTVSPost2010PropOp43
 70
     0
102
RTVSPost2010Prop44ColorIndex
 90
        5
102
RTVSPost2010Prop44ColorRGB
 90
      255
102
RTVSPost2010PropOp44
 70
     0
102
RTVSPost2010Prop45
280
     0
102
RTVSPost2010PropOp45
 70
     1
102
RTVSPost2010Prop46
 90
       50
102
RTVSPost2010PropOp46
 70
     0
102
RTVSPost2010Prop47
 90
       50
102
RTVSPost2010PropOp47
 70
     0
102
RTVSPost2010Prop48
 90
       50
102
RTVSPost2010PropOp48
 70
     0
102
RTVSPost2010Prop49
280
     0
102
RTVSPost2010PropOp49
 70
     1
102
RTVSPost2010Prop50
 90
       50
102
RTVSPost2010PropOp50
 70
     0
102
RTVSPost2010Prop51ColorIndex
 90
      256
102
RTVSPost2010Prop51ColorRGB
 90
-16777216
102
RTVSPost2010PropOp51
 70
     0
102
RTVSPost2010Prop52
140
1.0
102
RTVSPost2010PropOp52
 70
     0
102
RTVSPost2010Prop53
 90
        2
102
RTVSPost2010PropOp53
 70
     0
102
RTVSPost2010Prop54
  1
strokes_ogs.tif
102
RTVSPost2010PropOp54
 70
     0
102
RTVSPost2010Prop55
280
     0
102
RTVSPost2010PropOp55
 70
     1
102
RTVSPost2010Prop56
140
1.0
102
RTVSPost2010PropOp56
 70
     0
102
RTVSPost2010Prop57
140
1.0
102
RTVSPost2010PropOp57
 70
     0
102
RTVSPropertyOp0
 70
     0
102
RTVSPropertyOp1
 70
     0
102
RTVSPropertyOp2
 70
     0
102
RTVSPropertyOp3
 70
     0
102
RTVSPropertyOp4
 70
     0
102
RTVSPropertyOp5
 70
     0
102
RTVSPropertyOp6
 70
     0
102
RTVSPropertyOp7
 70
     0
102
RTVSPropertyOp8
 70
     0
102
RTVSPropertyOp9
 70
     0
102
RTVSPropertyOp10
 70
     0
102
RTVSPropertyOp11
 70
     0
102
RTVSPropertyOp12
 70
     0
102
RTVSPropertyOp13
 70
     0
102
RTVSPropertyOp14
 70
     2
102
RTVSPropertyOp15
 70
     0
102
RTVSPropertyOp16
 70
     0
102
RTVSPropertyOp17
 70
     0
102
RTVSPropertyOp18
 70
     0
102
RTVSPropertyOp19
 70
     0
102
RTVSPropertyOp20
 70
     0
102
RTVSPropertyOp21
 70
     0
102
RTVSPropertyOp22
 70
     0
102
RTVSPropertyOp23
 70
     0
102
RTVSPropertyOp24
 70
     0
102
RTVSPropertyOp25
 70
     0
102
RTVSPropertyOp26
 70
     0
102
RTVSPropertyOp27
 70
     0
102
RTVSPropertyOp28
 70
     1
102
RTVSPropertyOp29
 70
     1
102
RTVSPropertyOp30
 70
     1
102
RTVSPropertyOp31
 70
     1
102
RTVSPropertyOp32
 70
     1
102
RTVSPropertyOp33
 70
     1
102
RTVSPropertyOp34
 70
     1
102
RTVSPropertyOp35
 70
     1
102
RTVSPropertyOp36
 70
     1
102
RTVSPropertyOp37
 70
     0
102
RTVSPropertyOp38
 70
     0
102
RTVSPropertyOp39
 70
     0
102
RTVSPropertyOp40
 70
     0
102
RTVSPropertyOp41
 70
     0
102
RTVSPropertyOp42
 70
     0
102
RTVSPropertyOp43
 70
     0
102
RTVSPropertyOp44
 70
     0
102
RTVSPropertyOp45
 70
     1
102
RTVSPropertyOp46
 70
     0
102
RTVSPropertyOp47
 70
     0
102
RTVSPropertyOp48
 70
     0
102
RTVSPropertyOp49
 70
     1
102
RTVSPropertyOp50
 70
     0
102
RTVSPropertyOp51
 70
     0
102
RTVSPropertyOp52
 70
     0
102
RTVSPropertyOp53
 70
     0
102
RTVSPropertyOp54
 70
     0
102
RTVSPropertyOp55
 70
     1
102
RTVSPropertyOp56
 70
     0
102
RTVSPropertyOp57
 70
     0
102
RTVSPropertyOp58
 70
     0
102
RTVSPropertyOp59
 70
     0
102
RTVSPropertyOp60
 70
     0
102
RTVSPropertyOp61
 70
     0
102
RTVSPropertyOp62
 70
     0
  0
XRECORD
  5
3152
102
{ACAD_REACTORS
330
3151
102
}
330
3151
100
AcDbXrecord
280
     1
102
RTVSPost2010Prop28
280
     0
102
RTVSPost2010PropOp28
 70
     1
102
RTVSPost2010Prop29
280
     1
102
RTVSPost2010PropOp29
 70
     1
102
RTVSPost2010Prop30
280
     1
102
RTVSPost2010PropOp30
 70
     1
102
RTVSPost2010Prop31
280
     0
102
RTVSPost2010PropOp31
 70
     1
102
RTVSPost2010Prop32
280
     0
102
RTVSPost2010PropOp32
 70
     1
102
RTVSPost2010Prop33
280
     0
102
RTVSPost2010PropOp33
 70
     1
102
RTVSPost2010Prop34
280
     0
102
RTVSPost2010PropOp34
 70
     1
102
RTVSPost2010Prop35
280
     0
102
RTVSPost2010PropOp35
 70
     1
102
RTVSPost2010Prop36
280
     0
102
RTVSPost2010PropOp36
 70
     1
102
RTVSPost2010Prop37
 90
       50
102
RTVSPost2010PropOp37
 70
     1
102
RTVSPost2010Prop38
140
0.0
102
RTVSPost2010PropOp38
 70
     1
102
RTVSPost2010Prop39
140
1.0
102
RTVSPost2010PropOp39
 70
     1
102
RTVSPost2010Prop40
 90
        0
102
RTVSPost2010PropOp40
 70
     1
102
RTVSPost2010Prop41ColorIndex
 90
       18
102
RTVSPost2010Prop41ColorRGB
 90
        0
102
RTVSPost2010PropOp41
 70
     1
102
RTVSPost2010Prop42
 90
       50
102
RTVSPost2010PropOp42
 70
     1
102
RTVSPost2010Prop43
 90
        3
102
RTVSPost2010PropOp43
 70
     1
102
RTVSPost2010Prop44ColorIndex
 90
        5
102
RTVSPost2010Prop44ColorRGB
 90
      255
102
RTVSPost2010PropOp44
 70
     1
102
RTVSPost2010Prop45
280
     0
102
RTVSPost2010PropOp45
 70
     1
102
RTVSPost2010Prop46
 90
       50
102
RTVSPost2010PropOp46
 70
     1
102
RTVSPost2010Prop47
 90
       50
102
RTVSPost2010PropOp47
 70
     1
102
RTVSPost2010Prop48
 90
       50
102
RTVSPost2010PropOp48
 70
     1
102
RTVSPost2010Prop49
280
     0
102
RTVSPost2010PropOp49
 70
     1
102
RTVSPost2010Prop50
 90
       50
102
RTVSPost2010PropOp50
 70
     1
102
RTVSPost2010Prop51ColorIndex
 90
      256
102
RTVSPost2010Prop51ColorRGB
 90
-16777216
102
RTVSPost2010PropOp51
 70
     0
102
RTVSPost2010Prop52
140
1.0
102
RTVSPost2010PropOp52
 70
     0
102
RTVSPost2010Prop53
 90
        2
102
RTVSPost2010PropOp53
 70
     1
102
RTVSPost2010Prop54
  1
strokes_ogs.tif
102
RTVSPost2010PropOp54
 70
     1
102
RTVSPost2010Prop55
280
     0
102
RTVSPost2010PropOp55
 70
     1
102
RTVSPost2010Prop56
140
1.0
102
RTVSPost2010PropOp56
 70
     1
102
RTVSPost2010Prop57
140
1.0
102
RTVSPost2010PropOp57
 70
     1
102
RTVSPropertyOp0
 70
     1
102
RTVSPropertyOp1
 70
     1
102
RTVSPropertyOp2
 70
     1
102
RTVSPropertyOp3
 70
     1
102
RTVSPropertyOp4
 70
     1
102
RTVSPropertyOp5
 70
     1
102
RTVSPropertyOp6
 70
     1
102
RTVSPropertyOp7
 70
     1
102
RTVSPropertyOp8
 70
     1
102
RTVSPropertyOp9
 70
     1
102
RTVSPropertyOp10
 70
     1
102
RTVSPropertyOp11
 70
     1
102
RTVSPropertyOp12
 70
     1
102
RTVSPropertyOp13
 70
     1
102
RTVSPropertyOp14
 70
     1
102
RTVSPropertyOp15
 70
     1
102
RTVSPropertyOp16
 70
     1
102
RTVSPropertyOp17
 70
     1
102
RTVSPropertyOp18
 70
     1
102
RTVSPropertyOp19
 70
     1
102
RTVSPropertyOp20
 70
     1
102
RTVSPropertyOp21
 70
     1
102
RTVSPropertyOp22
 70
     1
102
RTVSPropertyOp23
 70
     1
102
RTVSPropertyOp24
 70
     1
102
RTVSPropertyOp25
 70
     1
102
RTVSPropertyOp26
 70
     1
102
RTVSPropertyOp27
 70
     1
102
RTVSPropertyOp28
 70
     1
102
RTVSPropertyOp29
 70
     1
102
RTVSPropertyOp30
 70
     1
102
RTVSPropertyOp31
 70
     1
102
RTVSPropertyOp32
 70
     1
102
RTVSPropertyOp33
 70
     1
102
RTVSPropertyOp34
 70
     1
102
RTVSPropertyOp35
 70
     1
102
RTVSPropertyOp36
 70
     1
102
RTVSPropertyOp37
 70
     1
102
RTVSPropertyOp38
 70
     1
102
RTVSPropertyOp39
 70
     1
102
RTVSPropertyOp40
 70
     1
102
RTVSPropertyOp41
 70
     1
102
RTVSPropertyOp42
 70
     1
102
RTVSPropertyOp43
 70
     1
102
RTVSPropertyOp44
 70
     1
102
RTVSPropertyOp45
 70
     1
102
RTVSPropertyOp46
 70
     1
102
RTVSPropertyOp47
 70
     1
102
RTVSPropertyOp48
 70
     1
102
RTVSPropertyOp49
 70
     1
102
RTVSPropertyOp50
 70
     1
102
RTVSPropertyOp51
 70
     0
102
RTVSPropertyOp52
 70
     0
102
RTVSPropertyOp53
 70
     1
102
RTVSPropertyOp54
 70
     1
102
RTVSPropertyOp55
 70
     1
102
RTVSPropertyOp56
 70
     1
102
RTVSPropertyOp57
 70
     1
102
RTVSPropertyOp58
 70
     1
102
RTVSPropertyOp59
 70
     1
102
RTVSPropertyOp60
 70
     1
102
RTVSPropertyOp61
 70
     1
102
RTVSPropertyOp62
 70
     1
  0
XRECORD
  5
3168
102
{ACAD_REACTORS
330
3167
102
}
330
3167
100
AcDbXrecord
280
     1
102
RTVSPost2010Prop28
280
     0
102
RTVSPost2010PropOp28
 70
     1
102
RTVSPost2010Prop29
280
     1
102
RTVSPost2010PropOp29
 70
     1
102
RTVSPost2010Prop30
280
     1
102
RTVSPost2010PropOp30
 70
     1
102
RTVSPost2010Prop31
280
     0
102
RTVSPost2010PropOp31
 70
     1
102
RTVSPost2010Prop32
280
     0
102
RTVSPost2010PropOp32
 70
     1
102
RTVSPost2010Prop33
280
     0
102
RTVSPost2010PropOp33
 70
     1
102
RTVSPost2010Prop34
280
     0
102
RTVSPost2010PropOp34
 70
     1
102
RTVSPost2010Prop35
280
     0
102
RTVSPost2010PropOp35
 70
     1
102
RTVSPost2010Prop36
280
     0
102
RTVSPost2010PropOp36
 70
     1
102
RTVSPost2010Prop37
 90
       50
102
RTVSPost2010PropOp37
 70
     1
102
RTVSPost2010Prop38
140
0.0
102
RTVSPost2010PropOp38
 70
     1
102
RTVSPost2010Prop39
140
1.0
102
RTVSPost2010PropOp39
 70
     1
102
RTVSPost2010Prop40
 90
        0
102
RTVSPost2010PropOp40
 70
     1
102
RTVSPost2010Prop41ColorIndex
 90
       18
102
RTVSPost2010Prop41ColorRGB
 90
        0
102
RTVSPost2010PropOp41
 70
     1
102
RTVSPost2010Prop42
 90
       50
102
RTVSPost2010PropOp42
 70
     1
102
RTVSPost2010Prop43
 90
        3
102
RTVSPost2010PropOp43
 70
     1
102
RTVSPost2010Prop44ColorIndex
 90
        5
102
RTVSPost2010Prop44ColorRGB
 90
      255
102
RTVSPost2010PropOp44
 70
     1
102
RTVSPost2010Prop45
280
     0
102
RTVSPost2010PropOp45
 70
     1
102
RTVSPost2010Prop46
 90
       50
102
RTVSPost2010PropOp46
 70
     1
102
RTVSPost2010Prop47
 90
       50
102
RTVSPost2010PropOp47
 70
     1
102
RTVSPost2010Prop48
 90
       50
102
RTVSPost2010PropOp48
 70
     1
102
RTVSPost2010Prop49
280
     0
102
RTVSPost2010PropOp49
 70
     1
102
RTVSPost2010Prop50
 90
       50
102
RTVSPost2010PropOp50
 70
     1
102
RTVSPost2010Prop51ColorIndex
 90
      256
102
RTVSPost2010Prop51ColorRGB
 90
-16777216
102
RTVSPost2010PropOp51
 70
     0
102
RTVSPost2010Prop52
140
1.0
102
RTVSPost2010PropOp52
 70
     0
102
RTVSPost2010Prop53
 90
        2
102
RTVSPost2010PropOp53
 70
     1
102
RTVSPost2010Prop54
  1
strokes_ogs.tif
102
RTVSPost2010PropOp54
 70
     1
102
RTVSPost2010Prop55
280
     0
102
RTVSPost2010PropOp55
 70
     1
102
RTVSPost2010Prop56
140
1.0
102
RTVSPost2010PropOp56
 70
     1
102
RTVSPost2010Prop57
140
1.0
102
RTVSPost2010PropOp57
 70
     1
102
RTVSPropertyOp0
 70
     1
102
RTVSPropertyOp1
 70
     1
102
RTVSPropertyOp2
 70
     1
102
RTVSPropertyOp3
 70
     1
102
RTVSPropertyOp4
 70
     1
102
RTVSPropertyOp5
 70
     1
102
RTVSPropertyOp6
 70
     1
102
RTVSPropertyOp7
 70
     1
102
RTVSPropertyOp8
 70
     1
102
RTVSPropertyOp9
 70
     1
102
RTVSPropertyOp10
 70
     1
102
RTVSPropertyOp11
 70
     1
102
RTVSPropertyOp12
 70
     1
102
RTVSPropertyOp13
 70
     1
102
RTVSPropertyOp14
 70
     1
102
RTVSPropertyOp15
 70
     1
102
RTVSPropertyOp16
 70
     1
102
RTVSPropertyOp17
 70
     1
102
RTVSPropertyOp18
 70
     1
102
RTVSPropertyOp19
 70
     1
102
RTVSPropertyOp20
 70
     1
102
RTVSPropertyOp21
 70
     1
102
RTVSPropertyOp22
 70
     1
102
RTVSPropertyOp23
 70
     1
102
RTVSPropertyOp24
 70
     1
102
RTVSPropertyOp25
 70
     1
102
RTVSPropertyOp26
 70
     1
102
RTVSPropertyOp27
 70
     1
102
RTVSPropertyOp28
 70
     1
102
RTVSPropertyOp29
 70
     1
102
RTVSPropertyOp30
 70
     1
102
RTVSPropertyOp31
 70
     1
102
RTVSPropertyOp32
 70
     1
102
RTVSPropertyOp33
 70
     1
102
RTVSPropertyOp34
 70
     1
102
RTVSPropertyOp35
 70
     1
102
RTVSPropertyOp36
 70
     1
102
RTVSPropertyOp37
 70
     1
102
RTVSPropertyOp38
 70
     1
102
RTVSPropertyOp39
 70
     1
102
RTVSPropertyOp40
 70
     1
102
RTVSPropertyOp41
 70
     1
102
RTVSPropertyOp42
 70
     1
102
RTVSPropertyOp43
 70
     1
102
RTVSPropertyOp44
 70
     1
102
RTVSPropertyOp45
 70
     1
102
RTVSPropertyOp46
 70
     1
102
RTVSPropertyOp47
 70
     1
102
RTVSPropertyOp48
 70
     1
102
RTVSPropertyOp49
 70
     1
102
RTVSPropertyOp50
 70
     1
102
RTVSPropertyOp51
 70
     0
102
RTVSPropertyOp52
 70
     0
102
RTVSPropertyOp53
 70
     1
102
RTVSPropertyOp54
 70
     1
102
RTVSPropertyOp55
 70
     1
102
RTVSPropertyOp56
 70
     1
102
RTVSPropertyOp57
 70
     1
102
RTVSPropertyOp58
 70
     1
102
RTVSPropertyOp59
 70
     1
102
RTVSPropertyOp60
 70
     1
102
RTVSPropertyOp61
 70
     1
102
RTVSPropertyOp62
 70
     1
  0
XRECORD
  5
3166
102
{ACAD_REACTORS
330
3165
102
}
330
3165
100
AcDbXrecord
280
     1
102
RTVSPost2010Prop28
280
     0
102
RTVSPost2010PropOp28
 70
     1
102
RTVSPost2010Prop29
280
     1
102
RTVSPost2010PropOp29
 70
     1
102
RTVSPost2010Prop30
280
     1
102
RTVSPost2010PropOp30
 70
     1
102
RTVSPost2010Prop31
280
     0
102
RTVSPost2010PropOp31
 70
     1
102
RTVSPost2010Prop32
280
     0
102
RTVSPost2010PropOp32
 70
     1
102
RTVSPost2010Prop33
280
     0
102
RTVSPost2010PropOp33
 70
     1
102
RTVSPost2010Prop34
280
     0
102
RTVSPost2010PropOp34
 70
     1
102
RTVSPost2010Prop35
280
     0
102
RTVSPost2010PropOp35
 70
     1
102
RTVSPost2010Prop36
280
     0
102
RTVSPost2010PropOp36
 70
     1
102
RTVSPost2010Prop37
 90
       50
102
RTVSPost2010PropOp37
 70
     1
102
RTVSPost2010Prop38
140
0.0
102
RTVSPost2010PropOp38
 70
     1
102
RTVSPost2010Prop39
140
1.0
102
RTVSPost2010PropOp39
 70
     1
102
RTVSPost2010Prop40
 90
        0
102
RTVSPost2010PropOp40
 70
     1
102
RTVSPost2010Prop41ColorIndex
 90
       18
102
RTVSPost2010Prop41ColorRGB
 90
        0
102
RTVSPost2010PropOp41
 70
     1
102
RTVSPost2010Prop42
 90
       50
102
RTVSPost2010PropOp42
 70
     1
102
RTVSPost2010Prop43
 90
        3
102
RTVSPost2010PropOp43
 70
     1
102
RTVSPost2010Prop44ColorIndex
 90
        5
102
RTVSPost2010Prop44ColorRGB
 90
      255
102
RTVSPost2010PropOp44
 70
     1
102
RTVSPost2010Prop45
280
     0
102
RTVSPost2010PropOp45
 70
     1
102
RTVSPost2010Prop46
 90
       50
102
RTVSPost2010PropOp46
 70
     1
102
RTVSPost2010Prop47
 90
       50
102
RTVSPost2010PropOp47
 70
     1
102
RTVSPost2010Prop48
 90
       50
102
RTVSPost2010PropOp48
 70
     1
102
RTVSPost2010Prop49
280
     0
102
RTVSPost2010PropOp49
 70
     1
102
RTVSPost2010Prop50
 90
       50
102
RTVSPost2010PropOp50
 70
     1
102
RTVSPost2010Prop51ColorIndex
 90
      256
102
RTVSPost2010Prop51ColorRGB
 90
-16777216
102
RTVSPost2010PropOp51
 70
     0
102
RTVSPost2010Prop52
140
1.0
102
RTVSPost2010PropOp52
 70
     0
102
RTVSPost2010Prop53
 90
        2
102
RTVSPost2010PropOp53
 70
     1
102
RTVSPost2010Prop54
  1
strokes_ogs.tif
102
RTVSPost2010PropOp54
 70
     1
102
RTVSPost2010Prop55
280
     0
102
RTVSPost2010PropOp55
 70
     1
102
RTVSPost2010Prop56
140
1.0
102
RTVSPost2010PropOp56
 70
     1
102
RTVSPost2010Prop57
140
1.0
102
RTVSPost2010PropOp57
 70
     1
102
RTVSPropertyOp0
 70
     1
102
RTVSPropertyOp1
 70
     1
102
RTVSPropertyOp2
 70
     1
102
RTVSPropertyOp3
 70
     1
102
RTVSPropertyOp4
 70
     1
102
RTVSPropertyOp5
 70
     1
102
RTVSPropertyOp6
 70
     1
102
RTVSPropertyOp7
 70
     1
102
RTVSPropertyOp8
 70
     1
102
RTVSPropertyOp9
 70
     1
102
RTVSPropertyOp10
 70
     1
102
RTVSPropertyOp11
 70
     1
102
RTVSPropertyOp12
 70
     1
102
RTVSPropertyOp13
 70
     1
102
RTVSPropertyOp14
 70
     1
102
RTVSPropertyOp15
 70
     1
102
RTVSPropertyOp16
 70
     1
102
RTVSPropertyOp17
 70
     1
102
RTVSPropertyOp18
 70
     1
102
RTVSPropertyOp19
 70
     1
102
RTVSPropertyOp20
 70
     1
102
RTVSPropertyOp21
 70
     1
102
RTVSPropertyOp22
 70
     1
102
RTVSPropertyOp23
 70
     1
102
RTVSPropertyOp24
 70
     1
102
RTVSPropertyOp25
 70
     1
102
RTVSPropertyOp26
 70
     1
102
RTVSPropertyOp27
 70
     1
102
RTVSPropertyOp28
 70
     1
102
RTVSPropertyOp29
 70
     1
102
RTVSPropertyOp30
 70
     1
102
RTVSPropertyOp31
 70
     1
102
RTVSPropertyOp32
 70
     1
102
RTVSPropertyOp33
 70
     1
102
RTVSPropertyOp34
 70
     1
102
RTVSPropertyOp35
 70
     1
102
RTVSPropertyOp36
 70
     1
102
RTVSPropertyOp37
 70
     1
102
RTVSPropertyOp38
 70
     1
102
RTVSPropertyOp39
 70
     1
102
RTVSPropertyOp40
 70
     1
102
RTVSPropertyOp41
 70
     1
102
RTVSPropertyOp42
 70
     1
102
RTVSPropertyOp43
 70
     1
102
RTVSPropertyOp44
 70
     1
102
RTVSPropertyOp45
 70
     1
102
RTVSPropertyOp46
 70
     1
102
RTVSPropertyOp47
 70
     1
102
RTVSPropertyOp48
 70
     1
102
RTVSPropertyOp49
 70
     1
102
RTVSPropertyOp50
 70
     1
102
RTVSPropertyOp51
 70
     0
102
RTVSPropertyOp52
 70
     0
102
RTVSPropertyOp53
 70
     1
102
RTVSPropertyOp54
 70
     1
102
RTVSPropertyOp55
 70
     1
102
RTVSPropertyOp56
 70
     1
102
RTVSPropertyOp57
 70
     1
102
RTVSPropertyOp58
 70
     1
102
RTVSPropertyOp59
 70
     1
102
RTVSPropertyOp60
 70
     1
102
RTVSPropertyOp61
 70
     1
102
RTVSPropertyOp62
 70
     1
  0
XRECORD
  5
3160
102
{ACAD_REACTORS
330
315F
102
}
330
315F
100
AcDbXrecord
280
     1
102
RTVSPost2010Prop28
280
     0
102
RTVSPost2010PropOp28
 70
     1
102
RTVSPost2010Prop29
280
     1
102
RTVSPost2010PropOp29
 70
     1
102
RTVSPost2010Prop30
280
     1
102
RTVSPost2010PropOp30
 70
     1
102
RTVSPost2010Prop31
280
     0
102
RTVSPost2010PropOp31
 70
     1
102
RTVSPost2010Prop32
280
     0
102
RTVSPost2010PropOp32
 70
     1
102
RTVSPost2010Prop33
280
     0
102
RTVSPost2010PropOp33
 70
     1
102
RTVSPost2010Prop34
280
     0
102
RTVSPost2010PropOp34
 70
     1
102
RTVSPost2010Prop35
280
     0
102
RTVSPost2010PropOp35
 70
     1
102
RTVSPost2010Prop36
280
     0
102
RTVSPost2010PropOp36
 70
     1
102
RTVSPost2010Prop37
 90
       50
102
RTVSPost2010PropOp37
 70
     1
102
RTVSPost2010Prop38
140
0.0
102
RTVSPost2010PropOp38
 70
     1
102
RTVSPost2010Prop39
140
1.0
102
RTVSPost2010PropOp39
 70
     1
102
RTVSPost2010Prop40
 90
        0
102
RTVSPost2010PropOp40
 70
     1
102
RTVSPost2010Prop41ColorIndex
 90
       18
102
RTVSPost2010Prop41ColorRGB
 90
        0
102
RTVSPost2010PropOp41
 70
     1
102
RTVSPost2010Prop42
 90
       50
102
RTVSPost2010PropOp42
 70
     1
102
RTVSPost2010Prop43
 90
        3
102
RTVSPost2010PropOp43
 70
     1
102
RTVSPost2010Prop44ColorIndex
 90
        5
102
RTVSPost2010Prop44ColorRGB
 90
      255
102
RTVSPost2010PropOp44
 70
     1
102
RTVSPost2010Prop45
280
     0
102
RTVSPost2010PropOp45
 70
     1
102
RTVSPost2010Prop46
 90
       50
102
RTVSPost2010PropOp46
 70
     1
102
RTVSPost2010Prop47
 90
       50
102
RTVSPost2010PropOp47
 70
     1
102
RTVSPost2010Prop48
 90
       50
102
RTVSPost2010PropOp48
 70
     1
102
RTVSPost2010Prop49
280
     0
102
RTVSPost2010PropOp49
 70
     1
102
RTVSPost2010Prop50
 90
       50
102
RTVSPost2010PropOp50
 70
     1
102
RTVSPost2010Prop51ColorIndex
 90
      256
102
RTVSPost2010Prop51ColorRGB
 90
-16777216
102
RTVSPost2010PropOp51
 70
     0
102
RTVSPost2010Prop52
140
1.0
102
RTVSPost2010PropOp52
 70
     0
102
RTVSPost2010Prop53
 90
        2
102
RTVSPost2010PropOp53
 70
     1
102
RTVSPost2010Prop54
  1
strokes_ogs.tif
102
RTVSPost2010PropOp54
 70
     1
102
RTVSPost2010Prop55
280
     0
102
RTVSPost2010PropOp55
 70
     1
102
RTVSPost2010Prop56
140
1.0
102
RTVSPost2010PropOp56
 70
     1
102
RTVSPost2010Prop57
140
1.0
102
RTVSPost2010PropOp57
 70
     1
102
RTVSPropertyOp0
 70
     1
102
RTVSPropertyOp1
 70
     1
102
RTVSPropertyOp2
 70
     1
102
RTVSPropertyOp3
 70
     1
102
RTVSPropertyOp4
 70
     1
102
RTVSPropertyOp5
 70
     1
102
RTVSPropertyOp6
 70
     1
102
RTVSPropertyOp7
 70
     1
102
RTVSPropertyOp8
 70
     1
102
RTVSPropertyOp9
 70
     1
102
RTVSPropertyOp10
 70
     1
102
RTVSPropertyOp11
 70
     1
102
RTVSPropertyOp12
 70
     1
102
RTVSPropertyOp13
 70
     1
102
RTVSPropertyOp14
 70
     1
102
RTVSPropertyOp15
 70
     1
102
RTVSPropertyOp16
 70
     1
102
RTVSPropertyOp17
 70
     1
102
RTVSPropertyOp18
 70
     1
102
RTVSPropertyOp19
 70
     1
102
RTVSPropertyOp20
 70
     1
102
RTVSPropertyOp21
 70
     1
102
RTVSPropertyOp22
 70
     1
102
RTVSPropertyOp23
 70
     1
102
RTVSPropertyOp24
 70
     1
102
RTVSPropertyOp25
 70
     1
102
RTVSPropertyOp26
 70
     1
102
RTVSPropertyOp27
 70
     1
102
RTVSPropertyOp28
 70
     1
102
RTVSPropertyOp29
 70
     1
102
RTVSPropertyOp30
 70
     1
102
RTVSPropertyOp31
 70
     1
102
RTVSPropertyOp32
 70
     1
102
RTVSPropertyOp33
 70
     1
102
RTVSPropertyOp34
 70
     1
102
RTVSPropertyOp35
 70
     1
102
RTVSPropertyOp36
 70
     1
102
RTVSPropertyOp37
 70
     1
102
RTVSPropertyOp38
 70
     1
102
RTVSPropertyOp39
 70
     1
102
RTVSPropertyOp40
 70
     1
102
RTVSPropertyOp41
 70
     1
102
RTVSPropertyOp42
 70
     1
102
RTVSPropertyOp43
 70
     1
102
RTVSPropertyOp44
 70
     1
102
RTVSPropertyOp45
 70
     1
102
RTVSPropertyOp46
 70
     1
102
RTVSPropertyOp47
 70
     1
102
RTVSPropertyOp48
 70
     1
102
RTVSPropertyOp49
 70
     1
102
RTVSPropertyOp50
 70
     1
102
RTVSPropertyOp51
 70
     0
102
RTVSPropertyOp52
 70
     0
102
RTVSPropertyOp53
 70
     1
102
RTVSPropertyOp54
 70
     1
102
RTVSPropertyOp55
 70
     1
102
RTVSPropertyOp56
 70
     1
102
RTVSPropertyOp57
 70
     1
102
RTVSPropertyOp58
 70
     1
102
RTVSPropertyOp59
 70
     1
102
RTVSPropertyOp60
 70
     1
102
RTVSPropertyOp61
 70
     1
102
RTVSPropertyOp62
 70
     1
  0
XRECORD
  5
3162
102
{ACAD_REACTORS
330
3161
102
}
330
3161
100
AcDbXrecord
280
     1
102
RTVSPost2010Prop28
280
     0
102
RTVSPost2010PropOp28
 70
     1
102
RTVSPost2010Prop29
280
     1
102
RTVSPost2010PropOp29
 70
     1
102
RTVSPost2010Prop30
280
     1
102
RTVSPost2010PropOp30
 70
     1
102
RTVSPost2010Prop31
280
     0
102
RTVSPost2010PropOp31
 70
     1
102
RTVSPost2010Prop32
280
     0
102
RTVSPost2010PropOp32
 70
     1
102
RTVSPost2010Prop33
280
     0
102
RTVSPost2010PropOp33
 70
     1
102
RTVSPost2010Prop34
280
     0
102
RTVSPost2010PropOp34
 70
     1
102
RTVSPost2010Prop35
280
     0
102
RTVSPost2010PropOp35
 70
     1
102
RTVSPost2010Prop36
280
     0
102
RTVSPost2010PropOp36
 70
     1
102
RTVSPost2010Prop37
 90
       50
102
RTVSPost2010PropOp37
 70
     1
102
RTVSPost2010Prop38
140
0.0
102
RTVSPost2010PropOp38
 70
     1
102
RTVSPost2010Prop39
140
1.0
102
RTVSPost2010PropOp39
 70
     1
102
RTVSPost2010Prop40
 90
        0
102
RTVSPost2010PropOp40
 70
     1
102
RTVSPost2010Prop41ColorIndex
 90
       18
102
RTVSPost2010Prop41ColorRGB
 90
        0
102
RTVSPost2010PropOp41
 70
     1
102
RTVSPost2010Prop42
 90
       50
102
RTVSPost2010PropOp42
 70
     1
102
RTVSPost2010Prop43
 90
        3
102
RTVSPost2010PropOp43
 70
     1
102
RTVSPost2010Prop44ColorIndex
 90
        5
102
RTVSPost2010Prop44ColorRGB
 90
      255
102
RTVSPost2010PropOp44
 70
     1
102
RTVSPost2010Prop45
280
     0
102
RTVSPost2010PropOp45
 70
     1
102
RTVSPost2010Prop46
 90
       50
102
RTVSPost2010PropOp46
 70
     1
102
RTVSPost2010Prop47
 90
       50
102
RTVSPost2010PropOp47
 70
     1
102
RTVSPost2010Prop48
 90
       50
102
RTVSPost2010PropOp48
 70
     1
102
RTVSPost2010Prop49
280
     0
102
RTVSPost2010PropOp49
 70
     1
102
RTVSPost2010Prop50
 90
       50
102
RTVSPost2010PropOp50
 70
     1
102
RTVSPost2010Prop51ColorIndex
 90
      256
102
RTVSPost2010Prop51ColorRGB
 90
-16777216
102
RTVSPost2010PropOp51
 70
     0
102
RTVSPost2010Prop52
140
1.0
102
RTVSPost2010PropOp52
 70
     0
102
RTVSPost2010Prop53
 90
        2
102
RTVSPost2010PropOp53
 70
     1
102
RTVSPost2010Prop54
  1
strokes_ogs.tif
102
RTVSPost2010PropOp54
 70
     1
102
RTVSPost2010Prop55
280
     0
102
RTVSPost2010PropOp55
 70
     1
102
RTVSPost2010Prop56
140
1.0
102
RTVSPost2010PropOp56
 70
     1
102
RTVSPost2010Prop57
140
1.0
102
RTVSPost2010PropOp57
 70
     1
102
RTVSPropertyOp0
 70
     1
102
RTVSPropertyOp1
 70
     1
102
RTVSPropertyOp2
 70
     1
102
RTVSPropertyOp3
 70
     1
102
RTVSPropertyOp4
 70
     1
102
RTVSPropertyOp5
 70
     1
102
RTVSPropertyOp6
 70
     1
102
RTVSPropertyOp7
 70
     1
102
RTVSPropertyOp8
 70
     1
102
RTVSPropertyOp9
 70
     1
102
RTVSPropertyOp10
 70
     1
102
RTVSPropertyOp11
 70
     1
102
RTVSPropertyOp12
 70
     1
102
RTVSPropertyOp13
 70
     1
102
RTVSPropertyOp14
 70
     1
102
RTVSPropertyOp15
 70
     1
102
RTVSPropertyOp16
 70
     1
102
RTVSPropertyOp17
 70
     1
102
RTVSPropertyOp18
 70
     1
102
RTVSPropertyOp19
 70
     1
102
RTVSPropertyOp20
 70
     1
102
RTVSPropertyOp21
 70
     1
102
RTVSPropertyOp22
 70
     1
102
RTVSPropertyOp23
 70
     1
102
RTVSPropertyOp24
 70
     1
102
RTVSPropertyOp25
 70
     1
102
RTVSPropertyOp26
 70
     1
102
RTVSPropertyOp27
 70
     1
102
RTVSPropertyOp28
 70
     1
102
RTVSPropertyOp29
 70
     1
102
RTVSPropertyOp30
 70
     1
102
RTVSPropertyOp31
 70
     1
102
RTVSPropertyOp32
 70
     1
102
RTVSPropertyOp33
 70
     1
102
RTVSPropertyOp34
 70
     1
102
RTVSPropertyOp35
 70
     1
102
RTVSPropertyOp36
 70
     1
102
RTVSPropertyOp37
 70
     1
102
RTVSPropertyOp38
 70
     1
102
RTVSPropertyOp39
 70
     1
102
RTVSPropertyOp40
 70
     1
102
RTVSPropertyOp41
 70
     1
102
RTVSPropertyOp42
 70
     1
102
RTVSPropertyOp43
 70
     1
102
RTVSPropertyOp44
 70
     1
102
RTVSPropertyOp45
 70
     1
102
RTVSPropertyOp46
 70
     1
102
RTVSPropertyOp47
 70
     1
102
RTVSPropertyOp48
 70
     1
102
RTVSPropertyOp49
 70
     1
102
RTVSPropertyOp50
 70
     1
102
RTVSPropertyOp51
 70
     0
102
RTVSPropertyOp52
 70
     0
102
RTVSPropertyOp53
 70
     1
102
RTVSPropertyOp54
 70
     1
102
RTVSPropertyOp55
 70
     1
102
RTVSPropertyOp56
 70
     1
102
RTVSPropertyOp57
 70
     1
102
RTVSPropertyOp58
 70
     1
102
RTVSPropertyOp59
 70
     1
102
RTVSPropertyOp60
 70
     1
102
RTVSPropertyOp61
 70
     1
102
RTVSPropertyOp62
 70
     1
  0
XRECORD
  5
3158
102
{ACAD_REACTORS
330
3157
102
}
330
3157
100
AcDbXrecord
280
     1
102
RTVSPost2010Prop28
280
     0
102
RTVSPost2010PropOp28
 70
     1
102
RTVSPost2010Prop29
280
     1
102
RTVSPost2010PropOp29
 70
     1
102
RTVSPost2010Prop30
280
     1
102
RTVSPost2010PropOp30
 70
     1
102
RTVSPost2010Prop31
280
     0
102
RTVSPost2010PropOp31
 70
     1
102
RTVSPost2010Prop32
280
     0
102
RTVSPost2010PropOp32
 70
     1
102
RTVSPost2010Prop33
280
     0
102
RTVSPost2010PropOp33
 70
     1
102
RTVSPost2010Prop34
280
     0
102
RTVSPost2010PropOp34
 70
     1
102
RTVSPost2010Prop35
280
     0
102
RTVSPost2010PropOp35
 70
     1
102
RTVSPost2010Prop36
280
     0
102
RTVSPost2010PropOp36
 70
     1
102
RTVSPost2010Prop37
 90
       50
102
RTVSPost2010PropOp37
 70
     1
102
RTVSPost2010Prop38
140
0.0
102
RTVSPost2010PropOp38
 70
     1
102
RTVSPost2010Prop39
140
1.0
102
RTVSPost2010PropOp39
 70
     1
102
RTVSPost2010Prop40
 90
        0
102
RTVSPost2010PropOp40
 70
     1
102
RTVSPost2010Prop41ColorIndex
 90
       18
102
RTVSPost2010Prop41ColorRGB
 90
        0
102
RTVSPost2010PropOp41
 70
     1
102
RTVSPost2010Prop42
 90
       50
102
RTVSPost2010PropOp42
 70
     1
102
RTVSPost2010Prop43
 90
        3
102
RTVSPost2010PropOp43
 70
     1
102
RTVSPost2010Prop44ColorIndex
 90
        5
102
RTVSPost2010Prop44ColorRGB
 90
      255
102
RTVSPost2010PropOp44
 70
     1
102
RTVSPost2010Prop45
280
     0
102
RTVSPost2010PropOp45
 70
     1
102
RTVSPost2010Prop46
 90
       50
102
RTVSPost2010PropOp46
 70
     1
102
RTVSPost2010Prop47
 90
       50
102
RTVSPost2010PropOp47
 70
     1
102
RTVSPost2010Prop48
 90
       50
102
RTVSPost2010PropOp48
 70
     1
102
RTVSPost2010Prop49
280
     0
102
RTVSPost2010PropOp49
 70
     1
102
RTVSPost2010Prop50
 90
       50
102
RTVSPost2010PropOp50
 70
     1
102
RTVSPost2010Prop51ColorIndex
 90
      256
102
RTVSPost2010Prop51ColorRGB
 90
-16777216
102
RTVSPost2010PropOp51
 70
     0
102
RTVSPost2010Prop52
140
1.0
102
RTVSPost2010PropOp52
 70
     0
102
RTVSPost2010Prop53
 90
        2
102
RTVSPost2010PropOp53
 70
     1
102
RTVSPost2010Prop54
  1
strokes_ogs.tif
102
RTVSPost2010PropOp54
 70
     1
102
RTVSPost2010Prop55
280
     0
102
RTVSPost2010PropOp55
 70
     1
102
RTVSPost2010Prop56
140
1.0
102
RTVSPost2010PropOp56
 70
     1
102
RTVSPost2010Prop57
140
1.0
102
RTVSPost2010PropOp57
 70
     1
102
RTVSPropertyOp0
 70
     1
102
RTVSPropertyOp1
 70
     1
102
RTVSPropertyOp2
 70
     1
102
RTVSPropertyOp3
 70
     1
102
RTVSPropertyOp4
 70
     1
102
RTVSPropertyOp5
 70
     1
102
RTVSPropertyOp6
 70
     1
102
RTVSPropertyOp7
 70
     1
102
RTVSPropertyOp8
 70
     1
102
RTVSPropertyOp9
 70
     1
102
RTVSPropertyOp10
 70
     1
102
RTVSPropertyOp11
 70
     1
102
RTVSPropertyOp12
 70
     1
102
RTVSPropertyOp13
 70
     1
102
RTVSPropertyOp14
 70
     1
102
RTVSPropertyOp15
 70
     1
102
RTVSPropertyOp16
 70
     1
102
RTVSPropertyOp17
 70
     1
102
RTVSPropertyOp18
 70
     1
102
RTVSPropertyOp19
 70
     1
102
RTVSPropertyOp20
 70
     1
102
RTVSPropertyOp21
 70
     1
102
RTVSPropertyOp22
 70
     1
102
RTVSPropertyOp23
 70
     1
102
RTVSPropertyOp24
 70
     1
102
RTVSPropertyOp25
 70
     1
102
RTVSPropertyOp26
 70
     1
102
RTVSPropertyOp27
 70
     1
102
RTVSPropertyOp28
 70
     1
102
RTVSPropertyOp29
 70
     1
102
RTVSPropertyOp30
 70
     1
102
RTVSPropertyOp31
 70
     1
102
RTVSPropertyOp32
 70
     1
102
RTVSPropertyOp33
 70
     1
102
RTVSPropertyOp34
 70
     1
102
RTVSPropertyOp35
 70
     1
102
RTVSPropertyOp36
 70
     1
102
RTVSPropertyOp37
 70
     1
102
RTVSPropertyOp38
 70
     1
102
RTVSPropertyOp39
 70
     1
102
RTVSPropertyOp40
 70
     1
102
RTVSPropertyOp41
 70
     1
102
RTVSPropertyOp42
 70
     1
102
RTVSPropertyOp43
 70
     1
102
RTVSPropertyOp44
 70
     1
102
RTVSPropertyOp45
 70
     1
102
RTVSPropertyOp46
 70
     1
102
RTVSPropertyOp47
 70
     1
102
RTVSPropertyOp48
 70
     1
102
RTVSPropertyOp49
 70
     1
102
RTVSPropertyOp50
 70
     1
102
RTVSPropertyOp51
 70
     0
102
RTVSPropertyOp52
 70
     0
102
RTVSPropertyOp53
 70
     1
102
RTVSPropertyOp54
 70
     1
102
RTVSPropertyOp55
 70
     1
102
RTVSPropertyOp56
 70
     1
102
RTVSPropertyOp57
 70
     1
102
RTVSPropertyOp58
 70
     1
102
RTVSPropertyOp59
 70
     1
102
RTVSPropertyOp60
 70
     1
102
RTVSPropertyOp61
 70
     1
102
RTVSPropertyOp62
 70
     1
  0
XRECORD
  5
314C
102
{ACAD_REACTORS
330
314B
102
}
330
314B
100
AcDbXrecord
280
     1
102
RTVSPost2010Prop28
280
     0
102
RTVSPost2010PropOp28
 70
     1
102
RTVSPost2010Prop29
280
     1
102
RTVSPost2010PropOp29
 70
     1
102
RTVSPost2010Prop30
280
     1
102
RTVSPost2010PropOp30
 70
     1
102
RTVSPost2010Prop31
280
     0
102
RTVSPost2010PropOp31
 70
     1
102
RTVSPost2010Prop32
280
     0
102
RTVSPost2010PropOp32
 70
     1
102
RTVSPost2010Prop33
280
     0
102
RTVSPost2010PropOp33
 70
     1
102
RTVSPost2010Prop34
280
     0
102
RTVSPost2010PropOp34
 70
     1
102
RTVSPost2010Prop35
280
     0
102
RTVSPost2010PropOp35
 70
     1
102
RTVSPost2010Prop36
280
     0
102
RTVSPost2010PropOp36
 70
     1
102
RTVSPost2010Prop37
 90
       50
102
RTVSPost2010PropOp37
 70
     1
102
RTVSPost2010Prop38
140
0.0
102
RTVSPost2010PropOp38
 70
     1
102
RTVSPost2010Prop39
140
1.0
102
RTVSPost2010PropOp39
 70
     1
102
RTVSPost2010Prop40
 90
        0
102
RTVSPost2010PropOp40
 70
     1
102
RTVSPost2010Prop41ColorIndex
 90
       18
102
RTVSPost2010Prop41ColorRGB
 90
        0
102
RTVSPost2010PropOp41
 70
     1
102
RTVSPost2010Prop42
 90
       50
102
RTVSPost2010PropOp42
 70
     1
102
RTVSPost2010Prop43
 90
        3
102
RTVSPost2010PropOp43
 70
     1
102
RTVSPost2010Prop44ColorIndex
 90
        5
102
RTVSPost2010Prop44ColorRGB
 90
      255
102
RTVSPost2010PropOp44
 70
     1
102
RTVSPost2010Prop45
280
     0
102
RTVSPost2010PropOp45
 70
     1
102
RTVSPost2010Prop46
 90
       50
102
RTVSPost2010PropOp46
 70
     1
102
RTVSPost2010Prop47
 90
       50
102
RTVSPost2010PropOp47
 70
     1
102
RTVSPost2010Prop48
 90
       50
102
RTVSPost2010PropOp48
 70
     1
102
RTVSPost2010Prop49
280
     0
102
RTVSPost2010PropOp49
 70
     1
102
RTVSPost2010Prop50
 90
       50
102
RTVSPost2010PropOp50
 70
     1
102
RTVSPost2010Prop51ColorIndex
 90
      256
102
RTVSPost2010Prop51ColorRGB
 90
-16777216
102
RTVSPost2010PropOp51
 70
     0
102
RTVSPost2010Prop52
140
1.0
102
RTVSPost2010PropOp52
 70
     0
102
RTVSPost2010Prop53
 90
        2
102
RTVSPost2010PropOp53
 70
     1
102
RTVSPost2010Prop54
  1
strokes_ogs.tif
102
RTVSPost2010PropOp54
 70
     1
102
RTVSPost2010Prop55
280
     0
102
RTVSPost2010PropOp55
 70
     1
102
RTVSPost2010Prop56
140
1.0
102
RTVSPost2010PropOp56
 70
     1
102
RTVSPost2010Prop57
140
1.0
102
RTVSPost2010PropOp57
 70
     1
102
RTVSPropertyOp0
 70
     1
102
RTVSPropertyOp1
 70
     1
102
RTVSPropertyOp2
 70
     1
102
RTVSPropertyOp3
 70
     1
102
RTVSPropertyOp4
 70
     1
102
RTVSPropertyOp5
 70
     1
102
RTVSPropertyOp6
 70
     1
102
RTVSPropertyOp7
 70
     1
102
RTVSPropertyOp8
 70
     1
102
RTVSPropertyOp9
 70
     1
102
RTVSPropertyOp10
 70
     1
102
RTVSPropertyOp11
 70
     1
102
RTVSPropertyOp12
 70
     1
102
RTVSPropertyOp13
 70
     1
102
RTVSPropertyOp14
 70
     1
102
RTVSPropertyOp15
 70
     1
102
RTVSPropertyOp16
 70
     1
102
RTVSPropertyOp17
 70
     1
102
RTVSPropertyOp18
 70
     1
102
RTVSPropertyOp19
 70
     1
102
RTVSPropertyOp20
 70
     1
102
RTVSPropertyOp21
 70
     1
102
RTVSPropertyOp22
 70
     1
102
RTVSPropertyOp23
 70
     1
102
RTVSPropertyOp24
 70
     1
102
RTVSPropertyOp25
 70
     1
102
RTVSPropertyOp26
 70
     1
102
RTVSPropertyOp27
 70
     1
102
RTVSPropertyOp28
 70
     1
102
RTVSPropertyOp29
 70
     1
102
RTVSPropertyOp30
 70
     1
102
RTVSPropertyOp31
 70
     1
102
RTVSPropertyOp32
 70
     1
102
RTVSPropertyOp33
 70
     1
102
RTVSPropertyOp34
 70
     1
102
RTVSPropertyOp35
 70
     1
102
RTVSPropertyOp36
 70
     1
102
RTVSPropertyOp37
 70
     1
102
RTVSPropertyOp38
 70
     1
102
RTVSPropertyOp39
 70
     1
102
RTVSPropertyOp40
 70
     1
102
RTVSPropertyOp41
 70
     1
102
RTVSPropertyOp42
 70
     1
102
RTVSPropertyOp43
 70
     1
102
RTVSPropertyOp44
 70
     1
102
RTVSPropertyOp45
 70
     1
102
RTVSPropertyOp46
 70
     1
102
RTVSPropertyOp47
 70
     1
102
RTVSPropertyOp48
 70
     1
102
RTVSPropertyOp49
 70
     1
102
RTVSPropertyOp50
 70
     1
102
RTVSPropertyOp51
 70
     0
102
RTVSPropertyOp52
 70
     0
102
RTVSPropertyOp53
 70
     1
102
RTVSPropertyOp54
 70
     1
102
RTVSPropertyOp55
 70
     1
102
RTVSPropertyOp56
 70
     1
102
RTVSPropertyOp57
 70
     1
102
RTVSPropertyOp58
 70
     1
102
RTVSPropertyOp59
 70
     1
102
RTVSPropertyOp60
 70
     1
102
RTVSPropertyOp61
 70
     1
102
RTVSPropertyOp62
 70
     1
  0
XRECORD
  5
3164
102
{ACAD_REACTORS
330
3163
102
}
330
3163
100
AcDbXrecord
280
     1
102
RTVSPost2010Prop28
280
     0
102
RTVSPost2010PropOp28
 70
     1
102
RTVSPost2010Prop29
280
     1
102
RTVSPost2010PropOp29
 70
     1
102
RTVSPost2010Prop30
280
     1
102
RTVSPost2010PropOp30
 70
     1
102
RTVSPost2010Prop31
280
     0
102
RTVSPost2010PropOp31
 70
     1
102
RTVSPost2010Prop32
280
     0
102
RTVSPost2010PropOp32
 70
     1
102
RTVSPost2010Prop33
280
     0
102
RTVSPost2010PropOp33
 70
     1
102
RTVSPost2010Prop34
280
     0
102
RTVSPost2010PropOp34
 70
     1
102
RTVSPost2010Prop35
280
     0
102
RTVSPost2010PropOp35
 70
     1
102
RTVSPost2010Prop36
280
     0
102
RTVSPost2010PropOp36
 70
     1
102
RTVSPost2010Prop37
 90
       50
102
RTVSPost2010PropOp37
 70
     1
102
RTVSPost2010Prop38
140
0.0
102
RTVSPost2010PropOp38
 70
     1
102
RTVSPost2010Prop39
140
1.0
102
RTVSPost2010PropOp39
 70
     1
102
RTVSPost2010Prop40
 90
        0
102
RTVSPost2010PropOp40
 70
     1
102
RTVSPost2010Prop41ColorIndex
 90
       18
102
RTVSPost2010Prop41ColorRGB
 90
        0
102
RTVSPost2010PropOp41
 70
     1
102
RTVSPost2010Prop42
 90
       50
102
RTVSPost2010PropOp42
 70
     1
102
RTVSPost2010Prop43
 90
        3
102
RTVSPost2010PropOp43
 70
     1
102
RTVSPost2010Prop44ColorIndex
 90
        5
102
RTVSPost2010Prop44ColorRGB
 90
      255
102
RTVSPost2010PropOp44
 70
     1
102
RTVSPost2010Prop45
280
     0
102
RTVSPost2010PropOp45
 70
     1
102
RTVSPost2010Prop46
 90
       50
102
RTVSPost2010PropOp46
 70
     1
102
RTVSPost2010Prop47
 90
       50
102
RTVSPost2010PropOp47
 70
     1
102
RTVSPost2010Prop48
 90
       50
102
RTVSPost2010PropOp48
 70
     1
102
RTVSPost2010Prop49
280
     0
102
RTVSPost2010PropOp49
 70
     1
102
RTVSPost2010Prop50
 90
       50
102
RTVSPost2010PropOp50
 70
     1
102
RTVSPost2010Prop51ColorIndex
 90
      256
102
RTVSPost2010Prop51ColorRGB
 90
-16777216
102
RTVSPost2010PropOp51
 70
     0
102
RTVSPost2010Prop52
140
1.0
102
RTVSPost2010PropOp52
 70
     0
102
RTVSPost2010Prop53
 90
        2
102
RTVSPost2010PropOp53
 70
     1
102
RTVSPost2010Prop54
  1
strokes_ogs.tif
102
RTVSPost2010PropOp54
 70
     1
102
RTVSPost2010Prop55
280
     0
102
RTVSPost2010PropOp55
 70
     1
102
RTVSPost2010Prop56
140
1.0
102
RTVSPost2010PropOp56
 70
     1
102
RTVSPost2010Prop57
140
1.0
102
RTVSPost2010PropOp57
 70
     1
102
RTVSPropertyOp0
 70
     1
102
RTVSPropertyOp1
 70
     1
102
RTVSPropertyOp2
 70
     1
102
RTVSPropertyOp3
 70
     1
102
RTVSPropertyOp4
 70
     1
102
RTVSPropertyOp5
 70
     1
102
RTVSPropertyOp6
 70
     1
102
RTVSPropertyOp7
 70
     1
102
RTVSPropertyOp8
 70
     1
102
RTVSPropertyOp9
 70
     1
102
RTVSPropertyOp10
 70
     1
102
RTVSPropertyOp11
 70
     1
102
RTVSPropertyOp12
 70
     1
102
RTVSPropertyOp13
 70
     1
102
RTVSPropertyOp14
 70
     1
102
RTVSPropertyOp15
 70
     1
102
RTVSPropertyOp16
 70
     1
102
RTVSPropertyOp17
 70
     1
102
RTVSPropertyOp18
 70
     1
102
RTVSPropertyOp19
 70
     1
102
RTVSPropertyOp20
 70
     1
102
RTVSPropertyOp21
 70
     1
102
RTVSPropertyOp22
 70
     1
102
RTVSPropertyOp23
 70
     1
102
RTVSPropertyOp24
 70
     1
102
RTVSPropertyOp25
 70
     1
102
RTVSPropertyOp26
 70
     1
102
RTVSPropertyOp27
 70
     1
102
RTVSPropertyOp28
 70
     1
102
RTVSPropertyOp29
 70
     1
102
RTVSPropertyOp30
 70
     1
102
RTVSPropertyOp31
 70
     1
102
RTVSPropertyOp32
 70
     1
102
RTVSPropertyOp33
 70
     1
102
RTVSPropertyOp34
 70
     1
102
RTVSPropertyOp35
 70
     1
102
RTVSPropertyOp36
 70
     1
102
RTVSPropertyOp37
 70
     1
102
RTVSPropertyOp38
 70
     1
102
RTVSPropertyOp39
 70
     1
102
RTVSPropertyOp40
 70
     1
102
RTVSPropertyOp41
 70
     1
102
RTVSPropertyOp42
 70
     1
102
RTVSPropertyOp43
 70
     1
102
RTVSPropertyOp44
 70
     1
102
RTVSPropertyOp45
 70
     1
102
RTVSPropertyOp46
 70
     1
102
RTVSPropertyOp47
 70
     1
102
RTVSPropertyOp48
 70
     1
102
RTVSPropertyOp49
 70
     1
102
RTVSPropertyOp50
 70
     1
102
RTVSPropertyOp51
 70
     0
102
RTVSPropertyOp52
 70
     0
102
RTVSPropertyOp53
 70
     1
102
RTVSPropertyOp54
 70
     1
102
RTVSPropertyOp55
 70
     1
102
RTVSPropertyOp56
 70
     1
102
RTVSPropertyOp57
 70
     1
102
RTVSPropertyOp58
 70
     1
102
RTVSPropertyOp59
 70
     1
102
RTVSPropertyOp60
 70
     1
102
RTVSPropertyOp61
 70
     1
102
RTVSPropertyOp62
 70
     1
  0
ENDSEC
  0
EOF
