  0
SECTION
  2
HEADER
  9
$ACADVER
  1
AC1015
  9
$ACADMAINTVER
 70
    20
  9
$DWGCODEPAGE
  3
ANSI_932
  9
$INSBASE
 10
0.0
 20
0.0
 30
0.0
  9
$EXTMIN
 10
9.999999064246615
 20
9.999999806846744
 30
0.0
  9
$EXTMAX
 10
660.9398548205504
 20
264.1081202922823
 30
0.0
  9
$LIMMIN
 10
0.0000015376081137
 20
-0.0000001931532552
  9
$LIMMAX
 10
695.0000015376082
 20
479.1287876856345
  9
$ORTHOMODE
 70
     0
  9
$REGENMODE
 70
     1
  9
$FILLMODE
 70
     1
  9
$QTEXTMODE
 70
     0
  9
$MIRRTEXT
 70
     1
  9
$LTSCALE
 40
1.0
  9
$ATTMODE
 70
     1
  9
$TEXTSIZE
 40
2.5
  9
$TRACEWID
 40
1.0
  9
$TEXTSTYLE
  7
STANDARD
  9
$CLAYER
  8
0
  9
$CELTYPE
  6
ByLayer
  9
$CECOLOR
 62
   256
  9
$CELTSCALE
 40
1.0
  9
$DISPSILH
 70
     0
  9
$DIMSCALE
 40
1.0
  9
$DIMASZ
 40
3.0
  9
$DIMEXO
 40
1.0
  9
$DIMDLI
 40
10.0
  9
$DIMRND
 40
0.0
  9
$DIMDLE
 40
0.0
  9
$DIMEXE
 40
1.0
  9
$DIMTP
 40
0.0
  9
$DIMTM
 40
0.0
  9
$DIMTXT
 40
3.2
  9
$DIMCEN
 40
0.0
  9
$DIMTSZ
 40
0.0
  9
$DIMTOL
 70
     0
  9
$DIMLIM
 70
     0
  9
$DIMTIH
 70
     0
  9
$DIMTOH
 70
     0
  9
$DIMSE1
 70
     0
  9
$DIMSE2
 70
     0
  9
$DIMTAD
 70
     3
  9
$DIMZIN
 70
     8
  9
$DIMBLK
  1

  9
$DIMASO
 70
     1
  9
$DIMSHO
 70
     1
  9
$DIMPOST
  1

  9
$DIMAPOST
  1

  9
$DIMALT
 70
     0
  9
$DIMALTD
 70
     2
  9
$DIMALTF
 40
25.4
  9
$DIMLFAC
 40
1.0
  9
$DIMTOFL
 70
     1
  9
$DIMTVP
 40
0.0
  9
$DIMTIX
 70
     0
  9
$DIMSOXD
 70
     0
  9
$DIMSAH
 70
     1
  9
$DIMBLK1
  1
OPEN
  9
$DIMBLK2
  1
OPEN
  9
$DIMSTYLE
  2
STANDARD
  9
$DIMCLRD
 70
     0
  9
$DIMCLRE
 70
     0
  9
$DIMCLRT
 70
     0
  9
$DIMTFAC
 40
1.0
  9
$DIMGAP
 40
1.0
  9
$DIMJUST
 70
     0
  9
$DIMSD1
 70
     0
  9
$DIMSD2
 70
     0
  9
$DIMTOLJ
 70
     1
  9
$DIMTZIN
 70
     0
  9
$DIMALTZ
 70
     0
  9
$DIMALTTZ
 70
     0
  9
$DIMUPT
 70
     0
  9
$DIMDEC
 70
     4
  9
$DIMTDEC
 70
     4
  9
$DIMALTU
 70
     2
  9
$DIMALTTD
 70
     2
  9
$DIMTXSTY
  7
STANDARD
  9
$DIMAUNIT
 70
     0
  9
$DIMADEC
 70
     0
  9
$DIMALTRND
 40
0.0
  9
$DIMAZIN
 70
     0
  9
$DIMDSEP
 70
    46
  9
$DIMATFIT
 70
     3
  9
$DIMFRAC
 70
     0
  9
$DIMLDRBLK
  1
OPEN
  9
$DIMLUNIT
 70
     2
  9
$DIMLWD
 70
    -2
  9
$DIMLWE
 70
    -2
  9
$DIMTMOVE
 70
     0
  9
$LUNITS
 70
     2
  9
$LUPREC
 70
     4
  9
$SKETCHINC
 40
1.0
  9
$FILLETRAD
 40
10.0
  9
$AUNITS
 70
     0
  9
$AUPREC
 70
     0
  9
$MENU
  1
.
  9
$ELEVATION
 40
0.0
  9
$PELEVATION
 40
0.0
  9
$THICKNESS
 40
0.0
  9
$LIMCHECK
 70
     0
  9
$CHAMFERA
 40
10.0
  9
$CHAMFERB
 40
10.0
  9
$CHAMFERC
 40
0.0
  9
$CHAMFERD
 40
0.0
  9
$SKPOLY
 70
     0
  9
$TDCREATE
 40
2456289.716491227
  9
$TDUCREATE
 40
2456289.341491227
  9
$TDUPDATE
 40
2457192.701184201
  9
$TDUUPDATE
 40
2457192.326184202
  9
$TDINDWG
 40
0.0057079282
  9
$TDUSRTIMER
 40
0.0057079051
  9
$USRTIMER
 70
     1
  9
$ANGBASE
 50
0.0
  9
$ANGDIR
 70
     0
  9
$PDMODE
 70
     0
  9
$PDSIZE
 40
0.0
  9
$PLINEWID
 40
0.0
  9
$SPLFRAME
 70
     0
  9
$SPLINETYPE
 70
     6
  9
$SPLINESEGS
 70
     8
  9
$HANDSEED
  5
789
  9
$SURFTAB1
 70
     6
  9
$SURFTAB2
 70
     6
  9
$SURFTYPE
 70
     6
  9
$SURFU
 70
     6
  9
$SURFV
 70
     6
  9
$UCSBASE
  2

  9
$UCSNAME
  2

  9
$UCSORG
 10
0.0
 20
0.0
 30
0.0
  9
$UCSXDIR
 10
1.0
 20
0.0
 30
0.0
  9
$UCSYDIR
 10
0.0
 20
1.0
 30
0.0
  9
$UCSORTHOREF
  2

  9
$UCSORTHOVIEW
 70
     0
  9
$UCSORGTOP
 10
0.0
 20
0.0
 30
0.0
  9
$UCSORGBOTTOM
 10
0.0
 20
0.0
 30
0.0
  9
$UCSORGLEFT
 10
0.0
 20
0.0
 30
0.0
  9
$UCSORGRIGHT
 10
0.0
 20
0.0
 30
0.0
  9
$UCSORGFRONT
 10
0.0
 20
0.0
 30
0.0
  9
$UCSORGBACK
 10
0.0
 20
0.0
 30
0.0
  9
$PUCSBASE
  2

  9
$PUCSNAME
  2

  9
$PUCSORG
 10
0.0
 20
0.0
 30
0.0
  9
$PUCSXDIR
 10
1.0
 20
0.0
 30
0.0
  9
$PUCSYDIR
 10
0.0
 20
1.0
 30
0.0
  9
$PUCSORTHOREF
  2

  9
$PUCSORTHOVIEW
 70
     0
  9
$PUCSORGTOP
 10
0.0
 20
0.0
 30
0.0
  9
$PUCSORGBOTTOM
 10
0.0
 20
0.0
 30
0.0
  9
$PUCSORGLEFT
 10
0.0
 20
0.0
 30
0.0
  9
$PUCSORGRIGHT
 10
0.0
 20
0.0
 30
0.0
  9
$PUCSORGFRONT
 10
0.0
 20
0.0
 30
0.0
  9
$PUCSORGBACK
 10
0.0
 20
0.0
 30
0.0
  9
$USERI1
 70
     0
  9
$USERI2
 70
     0
  9
$USERI3
 70
     0
  9
$USERI4
 70
     0
  9
$USERI5
 70
     0
  9
$USERR1
 40
0.0
  9
$USERR2
 40
0.0
  9
$USERR3
 40
0.0
  9
$USERR4
 40
0.0
  9
$USERR5
 40
0.0
  9
$WORLDVIEW
 70
     1
  9
$SHADEDGE
 70
     3
  9
$SHADEDIF
 70
    70
  9
$TILEMODE
 70
     1
  9
$MAXACTVP
 70
    48
  9
$PINSBASE
 10
0.0
 20
0.0
 30
0.0
  9
$PLIMCHECK
 70
     0
  9
$PEXTMIN
 10
1.000000000000000E+20
 20
1.000000000000000E+20
 30
1.000000000000000E+20
  9
$PEXTMAX
 10
-1.000000000000000E+20
 20
-1.000000000000000E+20
 30
-1.000000000000000E+20
  9
$PLIMMIN
 10
0.0
 20
0.0
  9
$PLIMMAX
 10
420.0
 20
297.0
  9
$UNITMODE
 70
     0
  9
$VISRETAIN
 70
     1
  9
$PLINEGEN
 70
     0
  9
$PSLTSCALE
 70
     1
  9
$TREEDEPTH
 70
  3020
  9
$CMLSTYLE
  2
Standard
  9
$CMLJUST
 70
     0
  9
$CMLSCALE
 40
1.0
  9
$PROXYGRAPHICS
 70
     1
  9
$MEASUREMENT
 70
     0
  9
$CELWEIGHT
370
    -1
  9
$ENDCAPS
280
     0
  9
$JOINSTYLE
280
     0
  9
$LWDISPLAY
290
     0
  9
$INSUNITS
 70
     0
  9
$HYPERLINKBASE
  1

  9
$STYLESHEET
  1

  9
$XEDIT
290
     1
  9
$CEPSNTYPE
380
     0
  9
$PSTYLEMODE
290
     1
  9
$FINGERPRINTGUID
  2
{AAFF7BC5-9832-4E78-9039-511883AC6F28}
  9
$VERSIONGUID
  2
{B86B182D-8AE8-4AF3-AD01-BC620654FF62}
  9
$EXTNAMES
290
     1
  9
$PSVPSCALE
 40
0.0
  9
$OLESTARTUP
290
     0
  0
ENDSEC
  0
SECTION
  2
CLASSES
  0
CLASS
  1
ACDBDICTIONARYWDFLT
  2
AcDbDictionaryWithDefault
  3
ObjectDBX Classes
 90
        0
280
     0
281
     0
  0
CLASS
  1
MATERIAL
  2
AcDbMaterial
  3
ObjectDBX Classes
 90
     1153
280
     0
281
     0
  0
CLASS
  1
VISUALSTYLE
  2
AcDbVisualStyle
  3
ObjectDBX Classes
 90
     4095
280
     0
281
     0
  0
CLASS
  1
SCALE
  2
AcDbScale
  3
ObjectDBX Classes
 90
     1153
280
     0
281
     0
  0
CLASS
  1
TABLESTYLE
  2
AcDbTableStyle
  3
ObjectDBX Classes
 90
     4095
280
     0
281
     0
  0
CLASS
  1
MLEADERSTYLE
  2
AcDbMLeaderStyle
  3
ACDB_MLEADERSTYLE_CLASS
 90
     4095
280
     0
281
     0
  0
CLASS
  1
ACDBSECTIONVIEWSTYLE
  2
AcDbSectionViewStyle
  3
ObjectDBX Classes
 90
     1025
280
     0
281
     0
  0
CLASS
  1
ACDBDETAILVIEWSTYLE
  2
AcDbDetailViewStyle
  3
ObjectDBX Classes
 90
     1025
280
     0
281
     0
  0
CLASS
  1
DICTIONARYVAR
  2
AcDbDictionaryVar
  3
ObjectDBX Classes
 90
        0
280
     0
281
     0
  0
CLASS
  1
CELLSTYLEMAP
  2
AcDbCellStyleMap
  3
ObjectDBX Classes
 90
     1152
280
     0
281
     0
  0
CLASS
  1
ACDBPLACEHOLDER
  2
AcDbPlaceHolder
  3
ObjectDBX Classes
 90
        0
280
     0
281
     0
  0
CLASS
  1
LAYOUT
  2
AcDbLayout
  3
ObjectDBX Classes
 90
        0
280
     0
281
     0
  0
ENDSEC
  0
SECTION
  2
TABLES
  0
TABLE
  2
VPORT
  5
6AC
330
0
100
AcDbSymbolTable
 70
     1
  0
VPORT
  5
717
330
6AC
100
AcDbSymbolTableRecord
100
AcDbViewportTableRecord
  2
*ACTIVE
 70
     0
 10
0.0
 20
0.0
 11
1.0
 21
1.0
 12
511.4899728735434
 22
137.0469474153308
 13
0.0
 23
0.0
 14
10.0
 24
10.0
 15
10.0
 25
10.0
 16
0.0
 26
0.0
 36
1.0
 17
0.0
 27
0.0
 37
0.0
 40
428.2115644344313
 41
2.35006605019815
 42
50.0
 43
0.0
 44
0.0
 50
0.0
 51
0.0
 71
     0
 72
   100
 73
     1
 74
     0
 75
     0
 76
     0
 77
     0
 78
     0
281
     0
 65
     1
110
0.0
120
0.0
130
0.0
111
1.0
121
0.0
131
0.0
112
0.0
122
1.0
132
0.0
 79
     0
146
0.0
1001
ACAD_NAV_VCDISPLAY
1070
     3
  0
ENDTAB
  0
TABLE
  2
LTYPE
  5
6A9
330
0
100
AcDbSymbolTable
 70
     4
  0
LTYPE
  5
6FE
330
6A9
100
AcDbSymbolTableRecord
100
AcDbLinetypeTableRecord
  2
ByBlock
 70
     0
  3

 72
    65
 73
     0
 40
0.0
  0
LTYPE
  5
6FF
330
6A9
100
AcDbSymbolTableRecord
100
AcDbLinetypeTableRecord
  2
ByLayer
 70
     0
  3

 72
    65
 73
     0
 40
0.0
  0
LTYPE
  5
700
330
6A9
100
AcDbSymbolTableRecord
100
AcDbLinetypeTableRecord
  2
CONTINUOUS
 70
     0
  3
Solid line
 72
    65
 73
     0
 40
0.0
  0
LTYPE
  5
718
330
6A9
100
AcDbSymbolTableRecord
100
AcDbLinetypeTableRecord
  2
DASHED
 70
     0
  3
Dashed __ __ __ __ __ __ __ __ __ __ __ __ __ _
 72
    65
 73
     2
 40
19.04999999999999
 49
12.7
 74
     0
 49
-6.349999999999998
 74
     0
  0
LTYPE
  5
719
330
6A9
100
AcDbSymbolTableRecord
100
AcDbLinetypeTableRecord
  2
CENTER
 70
     0
  3
Center ____ _ ____ _ ____ _ ____ _ ____ _ ____
 72
    65
 73
     4
 40
50.8
 49
31.75
 74
     0
 49
-6.349999999999998
 74
     0
 49
6.349999999999998
 74
     0
 49
-6.349999999999998
 74
     0
  0
LTYPE
  5
71A
330
6A9
100
AcDbSymbolTableRecord
100
AcDbLinetypeTableRecord
  2
PHANTOM
 70
     0
  3
Phantom ______  __  __  ______  __  __  ______
 72
    65
 73
     6
 40
63.5
 49
31.75
 74
     0
 49
-6.349999999999998
 74
     0
 49
6.349999999999998
 74
     0
 49
-6.349999999999998
 74
     0
 49
6.349999999999998
 74
     0
 49
-6.349999999999998
 74
     0
  0
ENDTAB
  0
TABLE
  2
LAYER
  5
6A6
330
0
100
AcDbSymbolTable
 70
     8
  0
LAYER
  5
6F8
102
{ACAD_XDICTIONARY
360
72D
102
}
330
6A6
100
AcDbSymbolTableRecord
100
AcDbLayerTableRecord
  2
0
 70
     0
 62
     7
  6
CONTINUOUS
370
    -3
390
6B3
  0
LAYER
  5
71B
102
{ACAD_XDICTIONARY
360
72F
102
}
330
6A6
100
AcDbSymbolTableRecord
100
AcDbLayerTableRecord
  2
4
 70
     0
 62
     1
  6
CENTER
370
    -3
390
6B3
  0
LAYER
  5
71C
102
{ACAD_XDICTIONARY
360
731
102
}
330
6A6
100
AcDbSymbolTableRecord
100
AcDbLayerTableRecord
  2
5
 70
     0
 62
     6
  6
PHANTOM
370
    -3
390
6B3
  0
LAYER
  5
71D
102
{ACAD_XDICTIONARY
360
733
102
}
330
6A6
100
AcDbSymbolTableRecord
100
AcDbLayerTableRecord
  2
1
 70
     0
 62
     7
  6
CONTINUOUS
370
    -3
390
6B3
  0
LAYER
  5
71E
102
{ACAD_XDICTIONARY
360
735
102
}
330
6A6
100
AcDbSymbolTableRecord
100
AcDbLayerTableRecord
  2
2
 70
     0
 62
     4
  6
CONTINUOUS
370
    -3
390
6B3
  0
LAYER
  5
71F
102
{ACAD_XDICTIONARY
360
737
102
}
330
6A6
100
AcDbSymbolTableRecord
100
AcDbLayerTableRecord
  2
3
 70
     0
 62
     2
  6
DASHED
370
    -3
390
6B3
  0
LAYER
  5
720
102
{ACAD_XDICTIONARY
360
739
102
}
330
6A6
100
AcDbSymbolTableRecord
100
AcDbLayerTableRecord
  2
6
 70
     0
 62
     5
  6
CONTINUOUS
370
    -3
390
6B3
  0
LAYER
  5
721
102
{ACAD_XDICTIONARY
360
73B
102
}
330
6A6
100
AcDbSymbolTableRecord
100
AcDbLayerTableRecord
  2
7
 70
     0
 62
     3
  6
CONTINUOUS
370
    -3
390
6B3
  0
ENDTAB
  0
TABLE
  2
STYLE
  5
6A7
330
0
100
AcDbSymbolTable
 70
     2
  0
STYLE
  5
6F9
330
6A7
100
AcDbSymbolTableRecord
100
AcDbTextStyleTableRecord
  2
STANDARD
 70
     0
 40
0.0
 41
1.0
 50
0.0
 71
     0
 42
2.5
  3
simplex.shx
  4

  0
STYLE
  5
6FD
330
6A7
100
AcDbSymbolTableRecord
100
AcDbTextStyleTableRecord
  2
Annotative
 70
     0
 40
0.0
 41
1.0
 50
0.0
 71
     0
 42
0.2
  3
txt
  4

1001
AcadAnnotative
1000
AnnotativeData
1002
{
1070
     1
1070
     1
1002
}
  0
ENDTAB
  0
TABLE
  2
VIEW
  5
6AA
330
0
100
AcDbSymbolTable
 70
     0
  0
ENDTAB
  0
TABLE
  2
UCS
  5
6AB
330
0
100
AcDbSymbolTable
 70
     0
  0
ENDTAB
  0
TABLE
  2
APPID
  5
6AD
330
0
100
AcDbSymbolTable
 70
     6
  0
APPID
  5
6FA
330
6AD
100
AcDbSymbolTableRecord
100
AcDbRegAppTableRecord
  2
ACAD
 70
     0
  0
APPID
  5
701
330
6AD
100
AcDbSymbolTableRecord
100
AcDbRegAppTableRecord
  2
AcadAnnotative
 70
     0
  0
APPID
  5
722
330
6AD
100
AcDbSymbolTableRecord
100
AcDbRegAppTableRecord
  2
CONTENTTABDATA
 70
     0
  0
APPID
  5
723
330
6AD
100
AcDbSymbolTableRecord
100
AcDbRegAppTableRecord
  2
CONTENTCURRENTTAB
 70
     0
  0
APPID
  5
747
330
6AD
100
AcDbSymbolTableRecord
100
AcDbRegAppTableRecord
  2
ACAD_NAV_VCDISPLAY
 70
     0
  0
APPID
  5
780
330
6AD
100
AcDbSymbolTableRecord
100
AcDbRegAppTableRecord
  2
ACAD_MLEADERVER
 70
     0
  0
ENDTAB
  0
TABLE
  2
DIMSTYLE
  5
6AE
330
0
100
AcDbSymbolTable
 70
     2
100
AcDbDimStyleTable
 71
     0
  0
DIMSTYLE
105
6FB
330
6AE
100
AcDbSymbolTableRecord
100
AcDbDimStyleTableRecord
  2
STANDARD
 70
     0
 41
3.0
 42
1.0
 43
10.0
 44
1.0
 73
     0
 74
     0
 77
     3
 78
     8
140
3.2
141
0.0
147
1.0
172
     1
173
     1
279
     2
284
     8
285
     8
286
     8
340
6F9
  0
DIMSTYLE
105
6FC
330
6AE
100
AcDbSymbolTableRecord
100
AcDbDimStyleTableRecord
  2
Annotative
 70
     0
340
6F9
1001
AcadAnnotative
1000
AnnotativeData
1002
{
1070
     1
1070
     1
1002
}
  0
ENDTAB
  0
TABLE
  2
BLOCK_RECORD
  5
6A5
330
0
100
AcDbSymbolTable
 70
     3
  0
BLOCK_RECORD
  5
713
330
6A5
100
AcDbSymbolTableRecord
100
AcDbBlockTableRecord
  2
*Model_Space
340
716
  0
BLOCK_RECORD
  5
70F
330
6A5
100
AcDbSymbolTableRecord
100
AcDbBlockTableRecord
  2
*Paper_Space
340
712
  0
BLOCK_RECORD
  5
726
330
6A5
100
AcDbSymbolTableRecord
100
AcDbBlockTableRecord
  2
$MODEL_SPACE
340
0
  0
BLOCK_RECORD
  5
728
330
6A5
100
AcDbSymbolTableRecord
100
AcDbBlockTableRecord
  2
$PAPER_SPACE
340
0
  0
BLOCK_RECORD
  5
72A
330
6A5
100
AcDbSymbolTableRecord
100
AcDbBlockTableRecord
  2
_OPEN
340
0
  0
ENDTAB
  0
ENDSEC
  0
SECTION
  2
BLOCKS
  0
BLOCK
  5
714
330
713
100
AcDbEntity
  8
0
100
AcDbBlockBegin
  2
*Model_Space
 70
     0
 10
0.0
 20
0.0
 30
0.0
  3
*Model_Space
  1

  0
ENDBLK
  5
715
330
713
100
AcDbEntity
  8
0
100
AcDbBlockEnd
  0
BLOCK
  5
710
330
70F
100
AcDbEntity
 67
     1
  8
0
100
AcDbBlockBegin
  2
*Paper_Space
 70
     0
 10
0.0
 20
0.0
 30
0.0
  3
*Paper_Space
  1

  0
ENDBLK
  5
711
330
70F
100
AcDbEntity
 67
     1
  8
0
100
AcDbBlockEnd
  0
BLOCK
  5
727
330
726
100
AcDbEntity
  8
0
100
AcDbBlockBegin
  2
$MODEL_SPACE
 70
     0
 10
0.0
 20
0.0
 30
0.0
  3
$MODEL_SPACE
  1

  0
ENDBLK
  5
1A
330
726
100
AcDbEntity
  8
0
100
AcDbBlockEnd
  0
BLOCK
  5
729
330
728
100
AcDbEntity
  8
0
100
AcDbBlockBegin
  2
$PAPER_SPACE
 70
     0
 10
0.0
 20
0.0
 30
0.0
  3
$PAPER_SPACE
  1

  0
ENDBLK
  5
17
330
728
100
AcDbEntity
  8
0
100
AcDbBlockEnd
  0
BLOCK
  5
72B
330
72A
100
AcDbEntity
  8
0
100
AcDbBlockBegin
  2
_OPEN
 70
     0
 10
0.0
 20
0.0
 30
0.0
  3
_OPEN
  1

  0
LINE
  5
30
330
72A
100
AcDbEntity
  8
0
  6
ByBlock
 62
     0
100
AcDbLine
 10
-1.0
 20
0.1666666666666666
 30
0.0
 11
0.0
 21
0.0
 31
0.0
  0
LINE
  5
31
330
72A
100
AcDbEntity
  8
0
  6
ByBlock
 62
     0
100
AcDbLine
 10
0.0
 20
0.0
 30
0.0
 11
-1.0
 21
-0.1666666666666666
 31
0.0
  0
LINE
  5
32
330
72A
100
AcDbEntity
  8
0
  6
ByBlock
 62
     0
100
AcDbLine
 10
0.0
 20
0.0
 30
0.0
 11
-1.0
 21
0.0
 31
0.0
  0
ENDBLK
  5
33
330
72A
100
AcDbEntity
  8
0
100
AcDbBlockEnd
  0
ENDSEC
  0
SECTION
  2
ENTITIES
  0
LINE
  5
267
330
713
100
AcDbEntity
  8
1
  6
Continuous
100
AcDbLine
 10
347.2889390583305
 20
140.9504726739042
 30
0.0
 11
341.3559802685099
 21
140.9504726739042
 31
0.0
  0
LINE
  5
268
330
713
100
AcDbEntity
  8
1
  6
Continuous
100
AcDbLine
 10
347.2889390583309
 20
148.7504726737942
 30
0.0
 11
341.3559802685095
 21
148.7504726737942
 31
0.0
  0
CIRCLE
  5
269
330
713
100
AcDbEntity
  8
1
  6
Continuous
100
AcDbCircle
 10
344.3224596634202
 20
144.8504726738494
 30
0.0
 40
3.2
  0
LINE
  5
26A
330
713
100
AcDbEntity
  8
1
  6
Continuous
100
AcDbLine
 10
381.8224596634202
 20
132.5504726739639
 30
0.0
 11
331.8224596634202
 21
132.5504726739639
 31
0.0
  0
LINE
  5
26B
330
713
100
AcDbEntity
  8
4
  6
CENTER
100
AcDbLine
 10
340.32245966342
 20
142.0504726737051
 30
0.0
 11
348.3224596634202
 21
142.0504726737051
 31
0.0
  0
LINE
  5
26C
330
713
100
AcDbEntity
  8
4
  6
CENTER
100
AcDbLine
 10
330.1180490350863
 20
161.5504726737643
 30
0.0
 11
383.9429554715224
 21
161.5504726737942
 31
0.0
  0
LINE
  5
26D
330
713
100
AcDbEntity
  8
4
  6
CENTER
100
AcDbLine
 10
352.52245966342
 20
144.8504726738494
 30
0.0
 11
336.1224596634203
 21
144.8504726738491
 31
0.0
  0
LINE
  5
26E
330
713
100
AcDbEntity
  8
1
  6
Continuous
100
AcDbLine
 10
381.8224596634202
 20
167.8504726738496
 30
0.0
 11
331.8224596634202
 21
167.8504726738496
 31
0.0
  0
LINE
  5
26F
330
713
100
AcDbEntity
  8
1
  6
Continuous
100
AcDbLine
 10
124.7431022760825
 20
247.1713180214024
 30
0.0
 11
124.7431022760825
 21
220.0053075329596
 31
0.0
  0
LINE
  5
270
330
713
100
AcDbEntity
  8
1
  6
Continuous
100
AcDbLine
 10
138.2431022760828
 20
232.0053075329854
 30
0.0
 11
132.3757737568365
 21
248.1256601521363
 31
0.0
  0
LINE
  5
271
330
713
100
AcDbEntity
  8
1
  6
Continuous
100
AcDbLine
 10
137.5431022760825
 20
232.0053075328114
 30
0.0
 11
132.0231258856665
 21
247.1713180214024
 31
0.0
  0
LINE
  5
272
330
713
100
AcDbEntity
  8
1
  6
Continuous
100
AcDbLine
 10
161.9431022760826
 20
232.0053075328114
 30
0.0
 11
167.4630786664988
 21
247.1713180214024
 31
0.0
  0
LINE
  5
273
330
713
100
AcDbEntity
  8
1
  6
Continuous
100
AcDbLine
 10
161.2431022760826
 20
232.0053075329854
 30
0.0
 11
167.1104307953287
 21
248.1256601521363
 31
0.0
  0
LINE
  5
274
330
713
100
AcDbEntity
  8
4
  6
CENTER
100
AcDbLine
 10
149.7431022760826
 20
264.1081202922823
 30
0.0
 11
149.7431022760826
 21
217.0053075329777
 31
0.0
  0
LINE
  5
275
330
713
100
AcDbEntity
  8
1
  6
Continuous
100
AcDbLine
 10
174.7431022760828
 20
220.0053075329596
 30
0.0
 11
174.7431022760828
 21
247.1713180214024
 31
0.0
  0
LINE
  5
276
330
713
100
AcDbEntity
  8
1
  6
Continuous
100
AcDbLine
 10
124.7431022760823
 20
70.39563781489977
 30
0.0
 11
146.7431022761299
 21
70.39563781489977
 31
0.0
  0
LINE
  5
277
330
713
100
AcDbEntity
  8
1
  6
Continuous
100
AcDbLine
 10
174.7431022760828
 20
76.7739339481999
 30
0.0
 11
124.7431022760823
 21
76.7739339481999
 31
0.0
  0
LINE
  5
278
330
713
100
AcDbEntity
  8
1
  6
Continuous
100
AcDbLine
 10
124.7431022760823
 20
65.39563781489976
 30
0.0
 11
152.3494817827961
 21
65.39563781489976
 31
0.0
  0
LINE
  5
279
330
713
100
AcDbEntity
  8
1
  6
Continuous
100
AcDbLine
 10
124.7431022760823
 20
45.3956378148998
 30
0.0
 11
174.7431022760828
 21
45.39563781489973
 31
0.0
  0
LINE
  5
27A
330
713
100
AcDbEntity
  8
1
  6
Continuous
100
AcDbLine
 10
124.7431022760823
 20
52.5381448205054
 30
0.0
 11
131.7714468360111
 21
52.5381448205054
 31
0.0
  0
LINE
  5
27B
330
713
100
AcDbEntity
  8
1
  6
Continuous
100
AcDbLine
 10
124.7431022760825
 20
51.56670879928445
 30
0.0
 11
132.117873039856
 21
51.56670879928445
 31
0.0
  0
LINE
  5
27C
330
713
100
AcDbEntity
  8
1
  6
Continuous
100
AcDbLine
 10
124.7431022760825
 20
80.3956378148257
 30
0.0
 11
137.5431022761031
 21
80.3956378148257
 31
0.0
  0
LINE
  5
27D
330
713
100
AcDbEntity
  8
4
  6
CENTER
100
AcDbLine
 10
177.7431022760827
 20
74.39563781491369
 30
0.0
 11
121.7431022760825
 21
74.3956378148859
 31
0.0
  0
LINE
  5
27E
330
713
100
AcDbEntity
  8
1
  6
Continuous
100
AcDbLine
 10
174.7431022760828
 20
40.39563781489976
 30
0.0
 11
124.7431022760825
 21
40.39563781489987
 31
0.0
  0
LINE
  5
27F
330
713
100
AcDbEntity
  8
1
  6
Continuous
100
AcDbLine
 10
124.7431022760825
 20
220.0053075329596
 30
0.0
 11
137.5431022761031
 21
220.0053075329596
 31
0.0
  0
LINE
  5
280
330
713
100
AcDbEntity
  8
4
  6
CENTER
100
AcDbLine
 10
177.7431022760827
 20
226.0053075328715
 30
0.0
 11
121.7431022760825
 21
226.0053075328995
 31
0.0
  0
LINE
  5
281
330
713
100
AcDbEntity
  8
1
  6
Continuous
100
AcDbLine
 10
124.7431022760854
 20
167.5504726737201
 30
0.0
 11
137.5431022760856
 21
167.5504726737392
 31
0.0
  0
LINE
  5
282
330
713
100
AcDbEntity
  8
1
  6
Continuous
100
AcDbLine
 10
124.7431022760825
 20
167.8504726738496
 30
0.0
 11
174.7431022760826
 21
167.8504726738496
 31
0.0
  0
LINE
  5
283
330
713
100
AcDbEntity
  8
4
  6
CENTER
100
AcDbLine
 10
176.447512904416
 20
161.5504726737643
 30
0.0
 11
122.6226064679805
 21
161.5504726737942
 31
0.0
  0
LINE
  5
284
330
713
100
AcDbEntity
  8
1
  6
Continuous
100
AcDbLine
 10
124.7431022761151
 20
147.5504726737201
 30
0.0
 11
130.2431022761151
 21
147.5504726737281
 31
0.0
  0
LINE
  5
285
330
713
100
AcDbEntity
  8
4
  6
CENTER
100
AcDbLine
 10
129.0431022760827
 20
144.8504726738494
 30
0.0
 11
145.4431022760826
 21
144.8504726738494
 31
0.0
  0
LINE
  5
286
330
713
100
AcDbEntity
  8
1
  6
Continuous
100
AcDbLine
 10
124.7431022761356
 20
133.6032726796203
 30
0.0
 11
146.7431022761354
 21
133.6032726796527
 31
0.0
  0
LINE
  5
287
330
713
100
AcDbEntity
  8
1
  6
Continuous
100
AcDbLine
 10
124.7431022760825
 20
132.5504726739354
 30
0.0
 11
174.7431022762592
 21
132.5504726739639
 31
0.0
  0
TEXT
  5
288
330
713
100
AcDbEntity
  8
7
  6
Continuous
100
AcDbText
 10
9.999999064246617
 20
18.00000056761563
 30
0.0
 40
3.0
  1
TYPE No.TEH-1110-U52
100
AcDbText
  0
TEXT
  5
289
330
713
100
AcDbEntity
  8
7
  6
Continuous
100
AcDbText
 10
9.999999064246617
 20
26.00000056761563
 30
0.0
 40
3.0
  1
CODE No.2659
100
AcDbText
  0
TEXT
  5
28A
330
713
100
AcDbEntity
  8
1
  6
Continuous
100
AcDbText
 10
9.999999064246617
 20
10.00000056761563
 30
0.0
 40
1.399999999999999
  1
LAYER
100
AcDbText
  0
TEXT
  5
28B
330
713
100
AcDbEntity
  8
1
  6
Continuous
100
AcDbText
 10
17.97951006424661
 20
9.999999806846744
 30
0.0
 40
1.399999999999999
  1
1
100
AcDbText
  0
TEXT
  5
28C
330
713
100
AcDbEntity
  8
2
  6
Continuous
100
AcDbText
 10
19.97951006424661
 20
9.999999806846744
 30
0.0
 40
1.399999999999999
  1
2
100
AcDbText
  0
TEXT
  5
28D
330
713
100
AcDbEntity
  8
6
  6
Continuous
100
AcDbText
 10
27.9795100642466
 20
9.999999806846744
 30
0.0
 40
1.399999999999999
  1
6
100
AcDbText
  0
TEXT
  5
28E
330
713
100
AcDbEntity
  8
5
  6
PHANTOM
100
AcDbText
 10
25.9795100642466
 20
9.999999806846744
 30
0.0
 40
1.399999999999999
  1
5
100
AcDbText
  0
TEXT
  5
28F
330
713
100
AcDbEntity
  8
3
  6
DASHED
100
AcDbText
 10
21.97951006424659
 20
9.999999806846744
 30
0.0
 40
1.399999999999999
  1
3
100
AcDbText
  0
TEXT
  5
290
330
713
100
AcDbEntity
  8
4
  6
CENTER
100
AcDbText
 10
23.9795100642466
 20
9.999999806846744
 30
0.0
 40
1.399999999999999
  1
4
100
AcDbText
  0
TEXT
  5
291
330
713
100
AcDbEntity
  8
7
  6
Continuous
100
AcDbText
 10
29.97951006424661
 20
9.999999806846744
 30
0.0
 40
1.399999999999999
  1
7
100
AcDbText
  0
LINE
  5
292
330
713
100
AcDbEntity
  8
1
  6
Continuous
100
AcDbLine
 10
124.7431022760825
 20
51.56670879928445
 30
0.0
 11
124.7431022760823
 21
40.39563781489976
 31
0.0
  0
LINE
  5
293
330
713
100
AcDbEntity
  8
1
  6
Continuous
100
AcDbLine
 10
124.7431022760823
 20
80.3956378148257
 30
0.0
 11
124.7431022760823
 21
52.5381448205054
 31
0.0
  0
LINE
  5
294
330
713
100
AcDbEntity
  8
1
  6
Continuous
100
AcDbLine
 10
124.743102276137
 20
132.55047267372
 30
0.0
 11
124.7431022760854
 21
167.5504726737201
 31
0.0
  0
LINE
  5
295
330
713
100
AcDbEntity
  8
1
  6
Continuous
100
AcDbLine
 10
124.7431022760825
 20
167.8504726738496
 30
0.0
 11
124.7431022760825
 21
132.5504726739357
 31
0.0
  0
ARC
  5
296
330
713
100
AcDbEntity
  8
1
  6
Continuous
100
AcDbCircle
 10
53.28644402969375
 20
163.9504726737942
 30
0.0
 40
0.1
100
AcDbArc
 50
0.0
 51
90.0
  0
ARC
  5
297
330
713
100
AcDbEntity
  8
1
  6
Continuous
100
AcDbCircle
 10
50.88644402969371
 20
162.0504726737942
 30
0.0
 40
2.5
100
AcDbArc
 50
359.9999999999997
 51
53.13010235415602
  0
ARC
  5
298
330
713
100
AcDbEntity
  8
1
  6
Continuous
100
AcDbCircle
 10
62.38644402969367
 20
161.5504726737942
 30
0.0
 40
6.0
100
AcDbArc
 50
319.9999999999997
 51
90.00000894959974
  0
LINE
  5
299
330
713
100
AcDbEntity
  8
4
  6
CENTER
100
AcDbLine
 10
62.38644402969378
 20
166.6004726737942
 30
0.0
 11
62.38644402969378
 21
156.5004726737943
 31
0.0
  0
LINE
  5
29A
330
713
100
AcDbEntity
  8
1
  6
Continuous
100
AcDbLine
 10
28.38644402969367
 20
132.5504726737941
 30
0.0
 11
28.3864440296937
 21
166.8504726737944
 31
0.0
  0
ARC
  5
29B
330
713
100
AcDbEntity
  8
1
  6
Continuous
100
AcDbCircle
 10
32.88644402969369
 20
162.8504726737944
 30
0.0
 40
1.5
100
AcDbArc
 50
90.0
 51
180.0
  0
LINE
  5
29C
330
713
100
AcDbEntity
  8
1
  6
Continuous
100
AcDbLine
 10
27.38644402969364
 20
140.9504726737942
 30
0.0
 11
27.38644402969364
 21
148.7504726737942
 31
0.0
  0
LINE
  5
29D
330
713
100
AcDbEntity
  8
1
  6
Continuous
100
AcDbLine
 10
33.38644402969367
 20
136.5504726737942
 30
0.0
 11
33.38644402969369
 21
150.4149439480941
 31
0.0
  0
LINE
  5
29E
330
713
100
AcDbEntity
  8
4
  6
CENTER
100
AcDbLine
 10
26.14996115899864
 20
144.8504726737943
 30
0.0
 11
35.96546757505164
 21
144.8504726737943
 31
0.0
  0
ARC
  5
29F
330
713
100
AcDbEntity
  8
1
  6
Continuous
100
AcDbCircle
 10
29.38644402969364
 20
136.5504726737942
 30
0.0
 40
4.0
100
AcDbArc
 50
269.9999999999997
 51
359.9999999999997
  0
LINE
  5
2A0
330
713
100
AcDbEntity
  8
1
  6
Continuous
100
AcDbLine
 10
28.38644402969364
 20
132.5504726737941
 30
0.0
 11
29.38644402969364
 21
132.5504726737941
 31
0.0
  0
LINE
  5
2A1
330
713
100
AcDbEntity
  8
1
  6
Continuous
100
AcDbLine
 10
27.38644402969364
 20
140.9504726737942
 30
0.0
 11
28.38644402969364
 21
140.9504726737942
 31
0.0
  0
ARC
  5
2A2
330
713
100
AcDbEntity
  8
1
  6
Continuous
100
AcDbCircle
 10
63.38644402969368
 20
161.5504726737942
 30
0.0
 40
32.0
100
AcDbArc
 50
179.9999999999998
 51
200.3641348062998
  0
LINE
  5
2A3
330
713
100
AcDbEntity
  8
1
  6
Continuous
100
AcDbLine
 10
27.38644402969364
 20
148.7504726737942
 30
0.0
 11
28.38644402969364
 21
148.7504726737942
 31
0.0
  0
LINE
  5
2A4
330
713
100
AcDbEntity
  8
1
  6
Continuous
100
AcDbLine
 10
31.38644402969368
 20
161.5504726737944
 30
0.0
 11
31.38644402969371
 21
162.8504726737944
 31
0.0
  0
LINE
  5
2A6
330
713
100
AcDbEntity
  8
1
  6
Continuous
100
AcDbLine
 10
63.38644402969368
 20
139.1475863679942
 30
0.0
 11
63.38644402969368
 21
150.8085133547941
 31
0.0
  0
LINE
  5
2A7
330
713
100
AcDbEntity
  8
1
  6
Continuous
100
AcDbLine
 10
58.38644402969368
 20
137.0504726737942
 30
0.0
 11
58.38644402969368
 21
147.4491153421943
 31
0.0
  0
LINE
  5
2A8
330
713
100
AcDbEntity
  8
1
  6
Continuous
100
AcDbLine
 10
53.38644402969368
 20
132.5504726737941
 30
0.0
 11
53.38644402969368
 21
163.9504726737942
 31
0.0
  0
LINE
  5
2A9
330
713
100
AcDbEntity
  8
1
  6
Continuous
100
AcDbLine
 10
56.77898827329368
 20
133.6032726796942
 30
0.0
 11
63.38644402969368
 21
139.1475863679942
 31
0.0
  0
LINE
  5
2AA
330
713
100
AcDbEntity
  8
4
  6
CENTER
100
AcDbLine
 10
65.41191061893726
 20
142.0504726737395
 30
0.0
 11
51.26291665584203
 21
142.0504726737395
 31
0.0
  0
ARC
  5
2AB
330
713
100
AcDbEntity
  8
1
  6
Continuous
100
AcDbCircle
 10
53.88644402969369
 20
137.0504726737942
 30
0.0
 40
4.5
100
AcDbArc
 50
269.9999999999997
 51
359.9999999999997
  0
LINE
  5
2AC
330
713
100
AcDbEntity
  8
1
  6
Continuous
100
AcDbLine
 10
53.38644402969368
 20
132.5504726737941
 30
0.0
 11
53.88644402969369
 21
132.5504726737941
 31
0.0
  0
LINE
  5
2AE
330
713
100
AcDbEntity
  8
4
  6
CENTER
100
AcDbLine
 10
57.33644402969368
 20
161.5504726737942
 30
0.0
 11
67.43644402969369
 21
161.5504726737942
 31
0.0
  0
LINE
  5
2AF
330
713
100
AcDbEntity
  8
1
  6
Continuous
100
AcDbLine
 10
58.38644402969368
 20
147.4491153421943
 30
0.0
 11
66.98271068839371
 21
157.6937470155942
 31
0.0
  0
LINE
  5
2B1
330
713
100
AcDbEntity
  8
1
  6
Continuous
100
AcDbLine
 10
63.38644402969379
 20
150.8085133547941
 30
0.0
 11
64.76474016299379
 21
155.0504726737942
 31
0.0
  0
LINE
  5
2B2
330
713
100
AcDbEntity
  8
1
  6
Continuous
100
AcDbLine
 10
62.38644402969367
 20
167.5504726737942
 30
0.0
 11
41.22043354117696
 21
167.5504726737944
 31
0.0
  0
LINE
  5
2B3
330
713
100
AcDbEntity
  8
1
  6
Continuous
100
AcDbLine
 10
53.28644402969375
 20
164.0504726737941
 30
0.0
 11
40.5289510352993
 21
164.0504726737942
 31
0.0
  0
LINE
  5
2B4
330
713
100
AcDbEntity
  8
1
  6
Continuous
100
AcDbLine
 10
54.08644402969368
 20
167.8504726737943
 30
0.0
 11
29.3864440296937
 21
167.8504726737944
 31
0.0
  0
LINE
  5
2B5
330
713
100
AcDbEntity
  8
1
  6
Continuous
100
AcDbLine
 10
40.56535331451633
 20
164.3504726737944
 30
0.0
 11
32.88644402969369
 21
164.3504726737944
 31
0.0
  0
ARC
  5
2B6
330
713
100
AcDbEntity
  8
1
  6
Continuous
100
AcDbCircle
 10
29.3864440296937
 20
166.8504726737944
 30
0.0
 40
1.0
100
AcDbArc
 50
89.99999999999994
 51
179.9999999999998
  0
ARC
  5
2B7
330
713
100
AcDbEntity
  8
1
  6
Continuous
100
AcDbCircle
 10
62.38644402969367
 20
161.5504726737942
 30
0.0
 40
22.0
100
AcDbArc
 50
164.1733798680999
 51
173.475021155856
  0
ARC
  5
2B8
330
713
100
AcDbEntity
  8
1
  6
Continuous
100
AcDbCircle
 10
62.38644402969367
 20
161.5504726737942
 30
0.0
 40
23.0
100
AcDbArc
 50
164.1027508715423
 51
173.0075166213287
  0
LINE
  5
2B9
330
713
100
AcDbEntity
  8
1
  6
Continuous
100
AcDbLine
 10
54.38644402969378
 20
167.5504726737942
 30
0.0
 11
54.08644402969379
 21
167.8504726737943
 31
0.0
  0
LINE
  5
2BA
330
713
100
AcDbEntity
  8
1
  6
Continuous
100
AcDbLine
 10
136.787221339054
 20
64.39563781489981
 30
0.0
 11
132.117873039856
 21
51.56670879928445
 31
0.0
  0
LINE
  5
2BB
330
713
100
AcDbEntity
  8
1
  6
Continuous
100
AcDbLine
 10
162.6989832131111
 20
64.39563781489971
 30
0.0
 11
167.368331512309
 21
51.56670879928445
 31
0.0
  0
LINE
  5
2BC
330
713
100
AcDbEntity
  8
4
  6
CENTER
100
AcDbLine
 10
149.7431022760826
 20
35.79282505550314
 30
0.0
 11
149.7431022760826
 21
83.3956378148075
 31
0.0
  0
LINE
  5
2BD
330
713
100
AcDbEntity
  8
4
  6
CENTER
100
AcDbLine
 10
137.2431022760826
 20
37.65915494420476
 30
0.0
 11
137.2431022760826
 21
48.47466136025772
 31
0.0
  0
LINE
  5
2BE
330
713
100
AcDbEntity
  8
1
  6
Continuous
100
AcDbLine
 10
133.3431022760825
 20
39.39563781489983
 30
0.0
 11
141.1431022760824
 21
39.39563781489983
 31
0.0
  0
LINE
  5
2BF
330
713
100
AcDbEntity
  8
1
  6
Continuous
100
AcDbLine
 10
133.3431022760825
 20
39.39563781489983
 30
0.0
 11
133.3431022760825
 21
40.39563781489984
 31
0.0
  0
LINE
  5
2C0
330
713
100
AcDbEntity
  8
1
  6
Continuous
100
AcDbLine
 10
141.1431022760824
 20
39.39563781489983
 30
0.0
 11
141.1431022760824
 21
40.39563781489984
 31
0.0
  0
LINE
  5
2C1
330
713
100
AcDbEntity
  8
1
  6
Continuous
100
AcDbLine
 10
174.7431022760826
 20
51.56670879928445
 30
0.0
 11
167.368331512309
 21
51.56670879928445
 31
0.0
  0
LINE
  5
2C2
330
713
100
AcDbEntity
  8
4
  6
CENTER
100
AcDbLine
 10
162.2431022760826
 20
37.65915494420476
 30
0.0
 11
162.2431022760826
 21
48.47466136025772
 31
0.0
  0
LINE
  5
2C3
330
713
100
AcDbEntity
  8
1
  6
Continuous
100
AcDbLine
 10
158.3431022760825
 20
39.39563781489977
 30
0.0
 11
166.1431022760824
 21
39.39563781489977
 31
0.0
  0
LINE
  5
2C4
330
713
100
AcDbEntity
  8
1
  6
Continuous
100
AcDbLine
 10
158.3431022760825
 20
39.39563781489977
 30
0.0
 11
158.3431022760825
 21
40.39563781489976
 31
0.0
  0
LINE
  5
2C5
330
713
100
AcDbEntity
  8
1
  6
Continuous
100
AcDbLine
 10
166.1431022760824
 20
39.39563781489977
 30
0.0
 11
166.1431022760824
 21
40.39563781489976
 31
0.0
  0
LINE
  5
2C6
330
713
100
AcDbEntity
  8
1
  6
Continuous
100
AcDbLine
 10
174.7431022760826
 20
51.56670879928445
 30
0.0
 11
174.7431022760828
 21
40.39563781489976
 31
0.0
  0
LINE
  5
2C7
330
713
100
AcDbEntity
  8
1
  6
Continuous
100
AcDbLine
 10
146.9431022760788
 20
70.39563781489977
 30
0.0
 11
174.7431022760828
 21
70.39563781489977
 31
0.0
  0
LINE
  5
2C8
330
713
100
AcDbEntity
  8
1
  6
Continuous
100
AcDbLine
 10
152.5494817827421
 20
65.39563781489976
 30
0.0
 11
174.7431022760828
 21
65.39563781489977
 31
0.0
  0
LINE
  5
2C9
330
713
100
AcDbEntity
  8
1
  6
Continuous
100
AcDbLine
 10
157.2431022760827
 20
75.39563781489973
 30
0.0
 11
155.2431022760826
 21
76.7739339481999
 31
0.0
  0
ARC
  5
2CA
330
713
100
AcDbEntity
  8
1
  6
Continuous
100
AcDbCircle
 10
155.2431022760827
 20
72.39563781489973
 30
0.0
 40
2.0
100
AcDbArc
 50
270.0
 51
0.0000000000006686
  0
LINE
  5
2CB
330
713
100
AcDbEntity
  8
1
  6
Continuous
100
AcDbLine
 10
161.2431022760826
 20
80.39563781480749
 30
0.0
 11
138.2431022761028
 21
80.39563781480749
 31
0.0
  0
LINE
  5
2CC
330
713
100
AcDbEntity
  8
1
  6
Continuous
100
AcDbLine
 10
146.7431022761322
 20
68.86687346169582
 30
0.0
 11
146.7431022761206
 21
76.7739339481999
 31
0.0
  0
LINE
  5
2CD
330
713
100
AcDbEntity
  8
1
  6
Continuous
100
AcDbLine
 10
146.9431022760801
 20
69.00691496935674
 30
0.0
 11
146.9431022760741
 21
76.7739339481999
 31
0.0
  0
LINE
  5
2CE
330
713
100
AcDbEntity
  8
1
  6
Continuous
100
AcDbLine
 10
144.2431022760824
 20
70.39563781489977
 30
0.0
 11
144.2431022760824
 21
76.7739339481999
 31
0.0
  0
LINE
  5
2CF
330
713
100
AcDbEntity
  8
1
  6
Continuous
100
AcDbLine
 10
130.2431022760824
 20
70.39563781489977
 30
0.0
 11
130.2431022760825
 21
76.7739339481999
 31
0.0
  0
ARC
  5
2D0
330
713
100
AcDbEntity
  8
1
  6
Continuous
100
AcDbCircle
 10
144.2431022760824
 20
72.39563781489973
 30
0.0
 40
2.0
100
AcDbArc
 50
179.9999999999992
 51
270.0
  0
ARC
  5
2D1
330
713
100
AcDbEntity
  8
1
  6
Continuous
100
AcDbCircle
 10
130.2431022760825
 20
72.39563781489973
 30
0.0
 40
2.0
100
AcDbArc
 50
270.0
 51
0.0000000000006686
  0
LINE
  5
2D2
330
713
100
AcDbEntity
  8
1
  6
Continuous
100
AcDbLine
 10
155.2431022760826
 20
70.39563781489977
 30
0.0
 11
155.2431022760826
 21
76.7739339481999
 31
0.0
  0
LINE
  5
2D3
330
713
100
AcDbEntity
  8
4
  6
CENTER
100
AcDbLine
 10
137.2431022760824
 20
62.65915494420472
 30
0.0
 11
137.2431022760824
 21
73.47466136025769
 31
0.0
  0
LINE
  5
2D4
330
713
100
AcDbEntity
  8
1
  6
Continuous
100
AcDbLine
 10
136.0872213389905
 20
64.39563781489981
 30
0.0
 11
131.7714468360111
 21
52.5381448205054
 31
0.0
  0
LINE
  5
2D8
330
713
100
AcDbEntity
  8
1
  6
Continuous
100
AcDbLine
 10
152.349481782794
 20
66.82631819927088
 30
0.0
 11
146.7431022761322
 21
68.86687346169579
 31
0.0
  0
LINE
  5
2D9
330
713
100
AcDbEntity
  8
1
  6
Continuous
100
AcDbLine
 10
152.5494817827411
 20
66.96635970693204
 30
0.0
 11
146.94310227608
 21
69.00691496935674
 31
0.0
  0
LINE
  5
2DA
330
713
100
AcDbEntity
  8
1
  6
Continuous
100
AcDbLine
 10
152.3494817827961
 20
65.39563781495124
 30
0.0
 11
152.349481782794
 21
66.82631819927088
 31
0.0
  0
LINE
  5
2DB
330
713
100
AcDbEntity
  8
1
  6
Continuous
100
AcDbLine
 10
152.5494817827421
 20
65.39563781489976
 30
0.0
 11
152.5494817827411
 21
66.96635970693204
 31
0.0
  0
LINE
  5
2DC
330
713
100
AcDbEntity
  8
1
  6
Continuous
100
AcDbLine
 10
142.2431022761165
 20
75.39563781489973
 30
0.0
 11
144.2431022760824
 21
76.7739339481999
 31
0.0
  0
LINE
  5
2DD
330
713
100
AcDbEntity
  8
1
  6
Continuous
100
AcDbLine
 10
138.2431022760975
 20
76.7739339481999
 30
0.0
 11
138.2431022761028
 21
80.39563781480749
 31
0.0
  0
LINE
  5
2DE
330
713
100
AcDbEntity
  8
1
  6
Continuous
100
AcDbLine
 10
137.5431022761031
 20
80.3956378148257
 30
0.0
 11
137.5431022760976
 21
76.7739339481999
 31
0.0
  0
LINE
  5
2DF
330
713
100
AcDbEntity
  8
1
  6
Continuous
100
AcDbLine
 10
132.2431022760825
 20
75.39563781489973
 30
0.0
 11
142.2431022760824
 21
75.39563781489973
 31
0.0
  0
LINE
  5
2E0
330
713
100
AcDbEntity
  8
1
  6
Continuous
100
AcDbLine
 10
132.2431022761028
 20
75.39563781489973
 30
0.0
 11
130.2431022760825
 21
76.7739339481999
 31
0.0
  0
LINE
  5
2E1
330
713
100
AcDbEntity
  8
1
  6
Continuous
100
AcDbLine
 10
132.2431022760963
 20
72.39563781489555
 30
0.0
 11
132.2431022761028
 21
75.39563781489973
 31
0.0
  0
LINE
  5
2E2
330
713
100
AcDbEntity
  8
1
  6
Continuous
100
AcDbLine
 10
142.2431022761211
 20
72.39563781489678
 30
0.0
 11
142.2431022761165
 21
75.39563781489973
 31
0.0
  0
LINE
  5
2E3
330
713
100
AcDbEntity
  8
1
  6
Continuous
100
AcDbLine
 10
138.2431022761026
 20
80.1456378149389
 30
0.0
 11
137.5431022761026
 21
80.14563781493993
 31
0.0
  0
ARC
  5
2E4
330
713
100
AcDbEntity
  8
1
  6
Continuous
100
AcDbCircle
 10
169.2431022760826
 20
72.39563781489973
 30
0.0
 40
2.0
100
AcDbArc
 50
179.9999999999992
 51
270.0
  0
LINE
  5
2E5
330
713
100
AcDbEntity
  8
1
  6
Continuous
100
AcDbLine
 10
169.2431022760826
 20
70.39563781489977
 30
0.0
 11
169.2431022760826
 21
76.7739339481999
 31
0.0
  0
LINE
  5
2E6
330
713
100
AcDbEntity
  8
4
  6
CENTER
100
AcDbLine
 10
162.2431022760825
 20
62.65915494420472
 30
0.0
 11
162.2431022760825
 21
73.47466136025769
 31
0.0
  0
LINE
  5
2E7
330
713
100
AcDbEntity
  8
1
  6
Continuous
100
AcDbLine
 10
174.7431022760828
 20
80.3956378148257
 30
0.0
 11
174.7431022760828
 21
52.5381448205054
 31
0.0
  0
LINE
  5
2E8
330
713
100
AcDbEntity
  8
1
  6
Continuous
100
AcDbLine
 10
174.7431022760828
 20
52.5381448205054
 30
0.0
 11
167.714757716154
 21
52.5381448205054
 31
0.0
  0
LINE
  5
2E9
330
713
100
AcDbEntity
  8
1
  6
Continuous
100
AcDbLine
 10
163.3989832131745
 20
64.39563781489971
 30
0.0
 11
167.714757716154
 21
52.5381448205054
 31
0.0
  0
LINE
  5
2ED
330
713
100
AcDbEntity
  8
1
  6
Continuous
100
AcDbLine
 10
174.7431022760828
 20
80.3956378148257
 30
0.0
 11
161.9431022760826
 21
80.39563781482561
 31
0.0
  0
LINE
  5
2EE
330
713
100
AcDbEntity
  8
1
  6
Continuous
100
AcDbLine
 10
161.2431022760827
 20
76.7739339481999
 30
0.0
 11
161.2431022760827
 21
80.14563781497406
 31
0.0
  0
LINE
  5
2EF
330
713
100
AcDbEntity
  8
1
  6
Continuous
100
AcDbLine
 10
161.2431022760826
 20
80.39563781480749
 30
0.0
 11
161.2431022760826
 21
76.7739339481999
 31
0.0
  0
LINE
  5
2F0
330
713
100
AcDbEntity
  8
1
  6
Continuous
100
AcDbLine
 10
161.9431022760826
 20
80.39563781482561
 30
0.0
 11
161.9431022760826
 21
76.7739339481999
 31
0.0
  0
LINE
  5
2F1
330
713
100
AcDbEntity
  8
1
  6
Continuous
100
AcDbLine
 10
167.2431022760826
 20
75.39563781489973
 30
0.0
 11
157.2431022760827
 21
75.39563781489973
 31
0.0
  0
LINE
  5
2F2
330
713
100
AcDbEntity
  8
1
  6
Continuous
100
AcDbLine
 10
157.2431022760827
 20
72.39563781489981
 30
0.0
 11
157.2431022760827
 21
75.39563781489981
 31
0.0
  0
LINE
  5
2F3
330
713
100
AcDbEntity
  8
1
  6
Continuous
100
AcDbLine
 10
167.2431022760826
 20
75.39563781489973
 30
0.0
 11
169.2431022760826
 21
76.7739339481999
 31
0.0
  0
LINE
  5
2F4
330
713
100
AcDbEntity
  8
1
  6
Continuous
100
AcDbLine
 10
167.2431022760826
 20
72.39563781489981
 30
0.0
 11
167.2431022760826
 21
75.39563781489981
 31
0.0
  0
LINE
  5
2F5
330
713
100
AcDbEntity
  8
1
  6
Continuous
100
AcDbLine
 10
161.2431022760826
 20
80.14563781497406
 30
0.0
 11
161.9431022760826
 21
80.14563781497406
 31
0.0
  0
LINE
  5
2F6
330
713
100
AcDbEntity
  8
4
  6
CENTER
100
AcDbLine
 10
242.1497605224714
 20
161.5504726737942
 30
0.0
 11
232.0497605224715
 21
161.5504726737942
 31
0.0
  0
LINE
  5
2F7
330
713
100
AcDbEntity
  8
4
  6
CENTER
100
AcDbLine
 10
234.0742939332281
 20
142.0504726737395
 30
0.0
 11
248.2232878963234
 21
142.0504726737395
 31
0.0
  0
LINE
  5
2F8
330
713
100
AcDbEntity
  8
1
  6
Continuous
100
AcDbLine
 10
242.7072162788714
 20
133.6032726796942
 30
0.0
 11
236.0997605224716
 21
139.1475863679942
 31
0.0
  0
LINE
  5
2F9
330
713
100
AcDbEntity
  8
1
  6
Continuous
100
AcDbLine
 10
241.0997605224718
 20
147.4491153421943
 30
0.0
 11
232.5034938637717
 21
157.6937470155942
 31
0.0
  0
LINE
  5
2FA
330
713
100
AcDbEntity
  8
1
  6
Continuous
100
AcDbLine
 10
237.0997605224718
 20
167.5504726737942
 30
0.0
 11
258.2657710109884
 21
167.5504726737944
 31
0.0
  0
LINE
  5
2FB
330
713
100
AcDbEntity
  8
4
  6
CENTER
100
AcDbLine
 10
237.0997605224716
 20
166.6004726737942
 30
0.0
 11
237.0997605224716
 21
156.5004726737943
 31
0.0
  0
ARC
  5
2FC
330
713
100
AcDbEntity
  8
1
  6
Continuous
100
AcDbCircle
 10
237.0997605224718
 20
161.5504726737942
 30
0.0
 40
6.0
100
AcDbArc
 50
89.99999105040023
 51
220.0000000000001
  0
LINE
  5
2FD
330
713
100
AcDbEntity
  8
1
  6
Continuous
100
AcDbLine
 10
137.5431022761038
 20
155.0504726737392
 30
0.0
 11
137.5431022760854
 21
167.5504726737392
 31
0.0
  0
LINE
  5
2FE
330
713
100
AcDbEntity
  8
1
  6
Continuous
100
AcDbLine
 10
138.2431022760856
 20
167.3004726737402
 30
0.0
 11
138.2431022761026
 21
155.8004726737402
 31
0.0
  0
LINE
  5
2FF
330
713
100
AcDbEntity
  8
1
  6
Continuous
100
AcDbLine
 10
138.2431022760826
 20
155.5504726738717
 30
0.0
 11
138.2431022760828
 21
167.8504726738496
 31
0.0
  0
LINE
  5
300
330
713
100
AcDbEntity
  8
1
  6
Continuous
100
AcDbLine
 10
161.2431022760827
 20
155.5504726738715
 30
0.0
 11
161.2431022760827
 21
167.8504726738496
 31
0.0
  0
LINE
  5
301
330
713
100
AcDbEntity
  8
4
  6
CENTER
100
AcDbLine
 10
149.7431022760826
 20
171.3970878757535
 30
0.0
 11
149.7431022760826
 21
128.5612820653771
 31
0.0
  0
LINE
  5
302
330
713
100
AcDbEntity
  8
1
  6
Continuous
100
AcDbLine
 10
174.7431022760826
 20
167.8504726738496
 30
0.0
 11
174.7431022760825
 21
132.5504726739639
 31
0.0
  0
LINE
  5
303
330
713
100
AcDbEntity
  8
1
  6
Continuous
100
AcDbLine
 10
174.7431022760828
 20
132.550472673705
 30
0.0
 11
174.7431022760828
 21
167.5504726737048
 31
0.0
  0
LINE
  5
304
330
713
100
AcDbEntity
  8
1
  6
Continuous
100
AcDbLine
 10
161.9431022760826
 20
155.0504726737051
 30
0.0
 11
161.9431022760826
 21
167.5504726737051
 31
0.0
  0
LINE
  5
305
330
713
100
AcDbEntity
  8
1
  6
Continuous
100
AcDbLine
 10
161.2431022760828
 20
167.3004726737051
 30
0.0
 11
161.2431022760828
 21
155.8004726737051
 31
0.0
  0
ARC
  5
306
330
713
100
AcDbEntity
  8
1
  6
Continuous
100
AcDbCircle
 10
154.2431022760826
 20
136.8479099120812
 30
0.0
 40
3.0
100
AcDbArc
 50
315.0509202966381
 51
359.9999999999992
  0
ARC
  5
307
330
713
100
AcDbEntity
  8
1
  6
Continuous
100
AcDbCircle
 10
147.0418279181211
 20
150.2964356514051
 30
0.0
 40
10.20127435796134
100
AcDbArc
 50
0.000000000000007
 51
22.81625088598557
  0
LINE
  5
308
330
713
100
AcDbEntity
  8
4
  6
CENTER
100
AcDbLine
 10
154.0431022760827
 20
144.8504726738494
 30
0.0
 11
170.4431022760826
 21
144.8504726738491
 31
0.0
  0
LINE
  5
309
330
713
100
AcDbEntity
  8
1
  6
Continuous
100
AcDbLine
 10
174.7431022760825
 20
132.550472673705
 30
0.0
 11
152.549481782742
 21
132.550472673705
 31
0.0
  0
LINE
  5
30A
330
713
100
AcDbEntity
  8
1
  6
Continuous
100
AcDbLine
 10
161.2431022760827
 20
155.5504726738715
 30
0.0
 11
138.2431022760826
 21
155.5504726738715
 31
0.0
  0
LINE
  5
30B
330
713
100
AcDbEntity
  8
1
  6
Continuous
100
AcDbLine
 10
174.7431022760825
 20
133.603272679605
 30
0.0
 11
146.9431022760816
 21
133.603272679605
 31
0.0
  0
LINE
  5
30C
330
713
100
AcDbEntity
  8
1
  6
Continuous
100
AcDbLine
 10
146.9431022760825
 20
155.0504726737051
 30
0.0
 11
169.2431022760826
 21
155.0504726737051
 31
0.0
  0
LINE
  5
30D
330
713
100
AcDbEntity
  8
1
  6
Continuous
100
AcDbLine
 10
155.2431022760826
 20
133.603272679605
 30
0.0
 11
155.2431022760827
 21
155.0504726737051
 31
0.0
  0
LINE
  5
30E
330
713
100
AcDbEntity
  8
1
  6
Continuous
100
AcDbLine
 10
142.2431022761307
 20
136.8479099121107
 30
0.0
 11
142.2431022761109
 21
150.2964356514461
 31
0.0
  0
LINE
  5
30F
330
713
100
AcDbEntity
  8
4
  6
CENTER
100
AcDbLine
 10
137.2431022760826
 20
136.6504726738492
 30
0.0
 11
137.2431022760826
 21
153.0504726738494
 31
0.0
  0
LINE
  5
310
330
713
100
AcDbEntity
  8
1
  6
Continuous
100
AcDbLine
 10
132.2431022760826
 20
136.847909912115
 30
0.0
 11
132.2431022761108
 21
150.2964356514313
 31
0.0
  0
LINE
  5
311
330
713
100
AcDbEntity
  8
1
  6
Continuous
100
AcDbLine
 10
130.2431022761357
 20
133.6032726796284
 30
0.0
 11
130.2431022761039
 21
155.0504726737284
 31
0.0
  0
LINE
  5
312
330
713
100
AcDbEntity
  8
1
  6
Continuous
100
AcDbLine
 10
144.2431022761354
 20
133.6032726796491
 30
0.0
 11
144.2431022761037
 21
155.050472673749
 31
0.0
  0
LINE
  5
313
330
713
100
AcDbEntity
  8
1
  6
Continuous
100
AcDbLine
 10
146.7431022761357
 20
133.6032726796527
 30
0.0
 11
146.743102276104
 21
155.0504726737528
 31
0.0
  0
LINE
  5
314
330
713
100
AcDbEntity
  8
1
  6
Continuous
100
AcDbLine
 10
146.9431022760816
 20
133.6032726796012
 30
0.0
 11
146.9431022760661
 21
155.0504726737292
 31
0.0
  0
LINE
  5
315
330
713
100
AcDbEntity
  8
1
  6
Continuous
100
AcDbLine
 10
144.2431022760824
 20
133.6032726796388
 30
0.0
 11
143.1198974962084
 21
134.7284756803636
 31
0.0
  0
ARC
  5
316
330
713
100
AcDbEntity
  8
1
  6
Continuous
100
AcDbCircle
 10
129.2431022760826
 20
136.847909912115
 30
0.0
 40
3.0
100
AcDbArc
 50
315.0509202966381
 51
359.9999999999992
  0
ARC
  5
317
330
713
100
AcDbEntity
  8
1
  6
Continuous
100
AcDbCircle
 10
145.2431022760826
 20
136.847909912115
 30
0.0
 40
3.0
100
AcDbArc
 50
180.0000000000004
 51
224.9490797033617
  0
LINE
  5
318
330
713
100
AcDbEntity
  8
1
  6
Continuous
100
AcDbLine
 10
130.2431022760827
 20
133.6032726796388
 30
0.0
 11
131.3663070559565
 21
134.7284756803636
 31
0.0
  0
LINE
  5
319
330
713
100
AcDbEntity
  8
1
  6
Continuous
100
AcDbLine
 10
132.2431022761274
 20
139.1475863679314
 30
0.0
 11
142.2431022761275
 21
139.1475863679461
 31
0.0
  0
LINE
  5
31A
330
713
100
AcDbEntity
  8
4
  6
CENTER
100
AcDbLine
 10
141.243102276123
 20
142.0504726737386
 30
0.0
 11
133.2431022761232
 21
142.0504726737386
 31
0.0
  0
LINE
  5
31B
330
713
100
AcDbEntity
  8
1
  6
Continuous
100
AcDbLine
 10
146.7431022761357
 20
133.6032726796527
 30
0.0
 11
152.5431022761371
 21
132.5504726737612
 31
0.0
  0
LINE
  5
31C
330
713
100
AcDbEntity
  8
1
  6
Continuous
100
AcDbLine
 10
146.9431022760732
 20
133.6032726796028
 30
0.0
 11
152.5494817827421
 21
132.5856181317322
 31
0.0
  0
LINE
  5
31D
330
713
100
AcDbEntity
  8
1
  6
Continuous
100
AcDbLine
 10
155.2431022760827
 20
133.603272679605
 30
0.0
 11
156.3663070559565
 21
134.7284756803298
 31
0.0
  0
LINE
  5
31E
330
713
100
AcDbEntity
  8
1
  6
Continuous
100
AcDbLine
 10
152.5494817827421
 20
132.5856181317322
 30
0.0
 11
152.549481782742
 21
132.5504726737047
 31
0.0
  0
ARC
  5
31F
330
713
100
AcDbEntity
  8
1
  6
Continuous
100
AcDbCircle
 10
144.2431022760826
 20
153.7466714487161
 30
0.0
 40
1.303801225022408
100
AcDbArc
 50
90.0
 51
157.1837491140137
  0
LINE
  5
320
330
713
100
AcDbEntity
  8
1
  6
Continuous
100
AcDbLine
 10
152.543102276104
 20
155.0504726737613
 30
0.0
 11
130.2431022761039
 21
155.0504726737284
 31
0.0
  0
ARC
  5
321
330
713
100
AcDbEntity
  8
1
  6
Continuous
100
AcDbCircle
 10
130.2431022760825
 20
153.7466714487161
 30
0.0
 40
1.303801225022408
100
AcDbArc
 50
22.81625088598608
 51
90.0
  0
LINE
  5
322
330
713
100
AcDbEntity
  8
1
  6
Continuous
100
AcDbLine
 10
142.2559628736897
 20
150.8085133547462
 30
0.0
 11
132.2302416784761
 21
150.8085133547312
 31
0.0
  0
ARC
  5
323
330
713
100
AcDbEntity
  8
1
  6
Continuous
100
AcDbCircle
 10
122.041827918121
 20
150.2964356514387
 30
0.0
 40
10.20127435796134
100
AcDbArc
 50
0.000000000000007
 51
22.81625088598557
  0
ARC
  5
324
330
713
100
AcDbEntity
  8
1
  6
Continuous
100
AcDbCircle
 10
152.4443766340439
 20
150.2964356514387
 30
0.0
 40
10.20127435796134
100
AcDbArc
 50
157.1837491140144
 51
180.0
  0
LINE
  5
325
330
713
100
AcDbEntity
  8
1
  6
Continuous
100
AcDbLine
 10
138.2431022761026
 20
155.8004726737402
 30
0.0
 11
137.5431022761027
 21
155.8004726737392
 31
0.0
  0
ARC
  5
326
330
713
100
AcDbEntity
  8
1
  6
Continuous
100
AcDbCircle
 10
155.2431022760824
 20
153.7466714486824
 30
0.0
 40
1.303801225022408
100
AcDbArc
 50
22.81625088598608
 51
90.0
  0
LINE
  5
327
330
713
100
AcDbEntity
  8
1
  6
Continuous
100
AcDbLine
 10
155.2431022760826
 20
147.5504726737051
 30
0.0
 11
146.9431022760716
 21
147.5504726737051
 31
0.0
  0
LINE
  5
328
330
713
100
AcDbEntity
  8
1
  6
Continuous
100
AcDbLine
 10
144.243102276115
 20
147.550472673749
 30
0.0
 11
146.7431022761149
 21
147.5504726737528
 31
0.0
  0
LINE
  5
329
330
713
100
AcDbEntity
  8
1
  6
Continuous
100
AcDbLine
 10
167.2431022760824
 20
136.618213814305
 30
0.0
 11
167.2431022760826
 21
150.2964356514051
 31
0.0
  0
LINE
  5
32A
330
713
100
AcDbEntity
  8
1
  6
Continuous
100
AcDbLine
 10
157.2431022760826
 20
136.8479099120812
 30
0.0
 11
157.2431022760827
 21
150.2964356514051
 31
0.0
  0
LINE
  5
32B
330
713
100
AcDbEntity
  8
4
  6
CENTER
100
AcDbLine
 10
162.2431022760826
 20
136.6504726738492
 30
0.0
 11
162.2431022760826
 21
153.0504726738493
 31
0.0
  0
LINE
  5
32C
330
713
100
AcDbEntity
  8
1
  6
Continuous
100
AcDbLine
 10
169.2431022760826
 20
133.603272679605
 30
0.0
 11
169.2431022760826
 21
155.0504726737051
 31
0.0
  0
ARC
  5
32D
330
713
100
AcDbEntity
  8
1
  6
Continuous
100
AcDbCircle
 10
170.2431022760824
 20
136.8479099120812
 30
0.0
 40
3.0
100
AcDbArc
 50
180.0000000000004
 51
224.9490797033617
  0
LINE
  5
32E
330
713
100
AcDbEntity
  8
1
  6
Continuous
100
AcDbLine
 10
169.2431022760824
 20
133.603272679605
 30
0.0
 11
168.1198974962084
 21
134.7284756803298
 31
0.0
  0
LINE
  5
32F
330
713
100
AcDbEntity
  8
1
  6
Continuous
100
AcDbLine
 10
167.2431022760824
 20
139.1475863679048
 30
0.0
 11
157.2431022760826
 21
139.1475863679051
 31
0.0
  0
LINE
  5
330
330
713
100
AcDbEntity
  8
4
  6
CENTER
100
AcDbLine
 10
166.2431022760826
 20
142.0504726737051
 30
0.0
 11
158.2431022760827
 21
142.0504726737051
 31
0.0
  0
LINE
  5
331
330
713
100
AcDbEntity
  8
1
  6
Continuous
100
AcDbLine
 10
174.7431022760825
 20
147.550472673705
 30
0.0
 11
169.2431022760826
 21
147.5504726737051
 31
0.0
  0
ARC
  5
332
330
713
100
AcDbEntity
  8
1
  6
Continuous
100
AcDbCircle
 10
169.2431022760826
 20
153.7466714486824
 30
0.0
 40
1.303801225022408
100
AcDbArc
 50
90.0
 51
157.1837491140137
  0
LINE
  5
333
330
713
100
AcDbEntity
  8
1
  6
Continuous
100
AcDbLine
 10
157.2302416784757
 20
150.8085133547051
 30
0.0
 11
167.2559628736894
 21
150.808513354705
 31
0.0
  0
ARC
  5
334
330
713
100
AcDbEntity
  8
1
  6
Continuous
100
AcDbCircle
 10
177.4443766340439
 20
150.2964356514051
 30
0.0
 40
10.20127435796134
100
AcDbArc
 50
157.1837491140144
 51
180.0
  0
LINE
  5
335
330
713
100
AcDbEntity
  8
1
  6
Continuous
100
AcDbLine
 10
161.2431022760827
 20
155.8004726737051
 30
0.0
 11
161.9431022760826
 21
155.8004726737051
 31
0.0
  0
LINE
  5
336
330
713
100
AcDbEntity
  8
1
  6
Continuous
100
AcDbLine
 10
236.0997605224716
 20
139.1475863679942
 30
0.0
 11
236.0997605224716
 21
150.8085133547941
 31
0.0
  0
LINE
  5
337
330
713
100
AcDbEntity
  8
1
  6
Continuous
100
AcDbLine
 10
236.0997605224716
 20
150.8085133547941
 30
0.0
 11
234.7214643891716
 21
155.0504726737942
 31
0.0
  0
LINE
  5
338
330
713
100
AcDbEntity
  8
1
  6
Continuous
100
AcDbLine
 10
161.2431022760826
 20
167.5504726738717
 30
0.0
 11
138.2431022760828
 21
167.5504726738717
 31
0.0
  0
LINE
  5
339
330
713
100
AcDbEntity
  8
1
  6
Continuous
100
AcDbLine
 10
132.2431022760827
 20
167.8504726738496
 30
0.0
 11
132.2431022760827
 21
167.5504726737313
 31
0.0
  0
LINE
  5
33A
330
713
100
AcDbEntity
  8
1
  6
Continuous
100
AcDbLine
 10
138.2431022760856
 20
167.3004726737402
 30
0.0
 11
137.5431022760858
 21
167.3004726737392
 31
0.0
  0
LINE
  5
33B
330
713
100
AcDbEntity
  8
1
  6
Continuous
100
AcDbLine
 10
174.7431022760826
 20
167.5504726737051
 30
0.0
 11
161.9431022760826
 21
167.5504726737051
 31
0.0
  0
LINE
  5
33C
330
713
100
AcDbEntity
  8
1
  6
Continuous
100
AcDbLine
 10
161.2431022760827
 20
167.3004726737051
 30
0.0
 11
161.9431022760826
 21
167.3004726737051
 31
0.0
  0
LINE
  5
33D
330
713
100
AcDbEntity
  8
1
  6
Continuous
100
AcDbLine
 10
167.2431022760826
 20
167.8504726738496
 30
0.0
 11
167.2431022760826
 21
167.5504726737051
 31
0.0
  0
LINE
  5
33E
330
713
100
AcDbEntity
  8
1
  6
Continuous
100
AcDbLine
 10
160.9710427445787
 20
234.0053075328855
 30
0.0
 11
138.5151618075866
 21
234.0053075328855
 31
0.0
  0
LINE
  5
33F
330
713
100
AcDbEntity
  8
1
  6
Continuous
100
AcDbLine
 10
161.2431022760826
 20
220.0053075329779
 30
0.0
 11
138.2431022761028
 21
220.0053075329779
 31
0.0
  0
LINE
  5
340
330
713
100
AcDbEntity
  8
1
  6
Continuous
100
AcDbLine
 10
137.5431022761031
 20
220.0053075329596
 30
0.0
 11
137.5431022760854
 21
232.0053075328114
 31
0.0
  0
LINE
  5
341
330
713
100
AcDbEntity
  8
1
  6
Continuous
100
AcDbLine
 10
138.2431022760853
 20
232.005307532978
 30
0.0
 11
138.2431022761028
 21
220.0053075329779
 31
0.0
  0
LINE
  5
342
330
713
100
AcDbEntity
  8
1
  6
Continuous
100
AcDbLine
 10
138.2431022761026
 20
220.2553075328463
 30
0.0
 11
137.5431022761026
 21
220.2553075328455
 31
0.0
  0
LINE
  5
343
330
713
100
AcDbEntity
  8
1
  6
Continuous
100
AcDbLine
 10
138.2431022760855
 20
231.7553075328465
 30
0.0
 11
137.5431022760858
 21
231.7553075328453
 31
0.0
  0
LINE
  5
344
330
713
100
AcDbEntity
  8
1
  6
Continuous
100
AcDbLine
 10
174.7431022760828
 20
220.0053075329596
 30
0.0
 11
161.9431022760826
 21
220.0053075329596
 31
0.0
  0
LINE
  5
345
330
713
100
AcDbEntity
  8
1
  6
Continuous
100
AcDbLine
 10
161.2431022760826
 20
220.0053075329779
 30
0.0
 11
161.2431022760826
 21
232.005307532978
 31
0.0
  0
LINE
  5
346
330
713
100
AcDbEntity
  8
1
  6
Continuous
100
AcDbLine
 10
161.9431022760826
 20
220.0053075329596
 30
0.0
 11
161.9431022760826
 21
232.0053075328114
 31
0.0
  0
LINE
  5
347
330
713
100
AcDbEntity
  8
1
  6
Continuous
100
AcDbLine
 10
161.2431022760827
 20
231.7553075328114
 30
0.0
 11
161.2431022760827
 21
220.2553075328114
 31
0.0
  0
LINE
  5
348
330
713
100
AcDbEntity
  8
1
  6
Continuous
100
AcDbLine
 10
161.2431022760826
 20
220.2553075328114
 30
0.0
 11
161.9431022760826
 21
220.2553075328114
 31
0.0
  0
LINE
  5
349
330
713
100
AcDbEntity
  8
1
  6
Continuous
100
AcDbLine
 10
161.2431022760826
 20
231.7553075328114
 30
0.0
 11
161.9431022760826
 21
231.7553075328114
 31
0.0
  0
LINE
  5
34A
330
713
100
AcDbEntity
  8
1
  6
Continuous
100
AcDbLine
 10
331.8224596634202
 20
167.8504726738496
 30
0.0
 11
331.8224596634202
 21
132.5504726739639
 31
0.0
  0
LINE
  5
34B
330
713
100
AcDbEntity
  8
1
  6
Continuous
100
AcDbLine
 10
331.82245966342
 20
132.550472673705
 30
0.0
 11
331.82245966342
 21
167.5504726737048
 31
0.0
  0
ARC
  5
34C
330
713
100
AcDbEntity
  8
1
  6
Continuous
100
AcDbCircle
 10
246.1997605224716
 20
163.9504726737942
 30
0.0
 40
0.1
100
AcDbArc
 50
90.0
 51
180.0
  0
ARC
  5
34D
330
713
100
AcDbEntity
  8
1
  6
Continuous
100
AcDbCircle
 10
248.5997605224716
 20
162.0504726737942
 30
0.0
 40
2.5
100
AcDbArc
 50
126.8698976458439
 51
180.0000000000001
  0
ARC
  5
34E
330
713
100
AcDbEntity
  8
1
  6
Continuous
100
AcDbCircle
 10
266.5997605224716
 20
162.8504726737944
 30
0.0
 40
1.5
100
AcDbArc
 50
0.000000000000007
 51
90.0
  0
LINE
  5
34F
330
713
100
AcDbEntity
  8
1
  6
Continuous
100
AcDbLine
 10
271.0997605224716
 20
132.5504726737941
 30
0.0
 11
271.0997605224716
 21
166.8504726737944
 31
0.0
  0
LINE
  5
350
330
713
100
AcDbEntity
  8
4
  6
CENTER
100
AcDbLine
 10
273.3362433931666
 20
144.8504726737943
 30
0.0
 11
263.5207369771138
 21
144.8504726737943
 31
0.0
  0
LINE
  5
352
330
713
100
AcDbEntity
  8
1
  6
Continuous
100
AcDbLine
 10
241.0997605224718
 20
137.0504726737942
 30
0.0
 11
241.0997605224718
 21
147.4491153421943
 31
0.0
  0
LINE
  5
353
330
713
100
AcDbEntity
  8
1
  6
Continuous
100
AcDbLine
 10
246.0997605224717
 20
132.5504726737941
 30
0.0
 11
246.0997605224717
 21
163.9504726737942
 31
0.0
  0
ARC
  5
354
330
713
100
AcDbEntity
  8
1
  6
Continuous
100
AcDbCircle
 10
245.5997605224718
 20
137.0504726737942
 30
0.0
 40
4.5
100
AcDbArc
 50
180.0000000000001
 51
270.0
  0
LINE
  5
355
330
713
100
AcDbEntity
  8
1
  6
Continuous
100
AcDbLine
 10
246.0997605224717
 20
132.5504726737941
 30
0.0
 11
245.5997605224718
 21
132.5504726737941
 31
0.0
  0
LINE
  5
358
330
713
100
AcDbEntity
  8
1
  6
Continuous
100
AcDbLine
 10
272.0997605224716
 20
140.9504726737942
 30
0.0
 11
272.0997605224716
 21
148.7504726737942
 31
0.0
  0
LINE
  5
359
330
713
100
AcDbEntity
  8
1
  6
Continuous
100
AcDbLine
 10
266.0997605224717
 20
136.5504726737942
 30
0.0
 11
266.0997605224717
 21
150.4149439480941
 31
0.0
  0
ARC
  5
35A
330
713
100
AcDbEntity
  8
1
  6
Continuous
100
AcDbCircle
 10
270.0997605224717
 20
136.5504726737942
 30
0.0
 40
4.0
100
AcDbArc
 50
180.0000000000001
 51
270.0
  0
LINE
  5
35B
330
713
100
AcDbEntity
  8
1
  6
Continuous
100
AcDbLine
 10
271.0997605224716
 20
132.5504726737941
 30
0.0
 11
270.0997605224717
 21
132.5504726737941
 31
0.0
  0
LINE
  5
35C
330
713
100
AcDbEntity
  8
1
  6
Continuous
100
AcDbLine
 10
272.0997605224716
 20
140.9504726737942
 30
0.0
 11
271.0997605224716
 21
140.9504726737942
 31
0.0
  0
ARC
  5
35D
330
713
100
AcDbEntity
  8
1
  6
Continuous
100
AcDbCircle
 10
236.0997605224716
 20
161.5504726737942
 30
0.0
 40
32.0
100
AcDbArc
 50
339.6358651937
 51
0.0000000000000833
  0
LINE
  5
35E
330
713
100
AcDbEntity
  8
1
  6
Continuous
100
AcDbLine
 10
272.0997605224716
 20
148.7504726737942
 30
0.0
 11
271.0997605224716
 21
148.7504726737942
 31
0.0
  0
LINE
  5
35F
330
713
100
AcDbEntity
  8
1
  6
Continuous
100
AcDbLine
 10
268.0997605224717
 20
161.5504726737944
 30
0.0
 11
268.0997605224717
 21
162.8504726737944
 31
0.0
  0
LINE
  5
360
330
713
100
AcDbEntity
  8
1
  6
Continuous
100
AcDbLine
 10
340.4224596633651
 20
141.8839932790833
 30
0.0
 11
340.4224596633651
 21
147.8169520686153
 31
0.0
  0
LINE
  5
361
330
713
100
AcDbEntity
  8
4
  6
CENTER
100
AcDbLine
 10
344.3224596634202
 20
136.6504726738492
 30
0.0
 11
344.3224596634202
 21
153.0504726738493
 31
0.0
  0
LINE
  5
362
330
713
100
AcDbEntity
  8
1
  6
Continuous
100
AcDbLine
 10
258.920851237649
 20
164.3504726737944
 30
0.0
 11
266.5997605224716
 21
164.3504726737944
 31
0.0
  0
LINE
  5
363
330
713
100
AcDbEntity
  8
1
  6
Continuous
100
AcDbLine
 10
245.3997605224716
 20
167.8504726737943
 30
0.0
 11
270.0997605224717
 21
167.8504726737944
 31
0.0
  0
LINE
  5
364
330
713
100
AcDbEntity
  8
1
  6
Continuous
100
AcDbLine
 10
246.1997605224716
 20
164.0504726737941
 30
0.0
 11
258.957253516866
 21
164.0504726737942
 31
0.0
  0
LINE
  5
365
330
713
100
AcDbEntity
  8
1
  6
Continuous
100
AcDbLine
 10
245.0997605224716
 20
167.5504726737942
 30
0.0
 11
245.3997605224716
 21
167.8504726737943
 31
0.0
  0
ARC
  5
366
330
713
100
AcDbEntity
  8
1
  6
Continuous
100
AcDbCircle
 10
237.0997605224718
 20
161.5504726737942
 30
0.0
 40
22.0
100
AcDbArc
 50
6.524978844143913
 51
15.8266201319001
  0
ARC
  5
367
330
713
100
AcDbEntity
  8
1
  6
Continuous
100
AcDbCircle
 10
237.0997605224718
 20
161.5504726737942
 30
0.0
 40
23.0
100
AcDbArc
 50
6.992483378671294
 51
15.89724912845765
  0
ARC
  5
368
330
713
100
AcDbEntity
  8
1
  6
Continuous
100
AcDbCircle
 10
270.0997605224717
 20
166.8504726737944
 30
0.0
 40
1.0
100
AcDbArc
 50
0.0000000000000833
 51
90.00000000000005
  0
LINE
  5
369
330
713
100
AcDbEntity
  8
1
  6
Continuous
100
AcDbLine
 10
132.0231258856665
 20
247.1713180214024
 30
0.0
 11
124.7431022760825
 21
247.1713180214024
 31
0.0
  0
LINE
  5
36A
330
713
100
AcDbEntity
  8
1
  6
Continuous
100
AcDbLine
 10
132.3757737568367
 20
248.1256601521366
 30
0.0
 11
124.7431022760825
 21
248.1256601521366
 31
0.0
  0
LINE
  5
36B
330
713
100
AcDbEntity
  8
1
  6
Continuous
100
AcDbLine
 10
174.7431022760828
 20
260.0053075328857
 30
0.0
 11
124.7431022760825
 21
260.0053075328855
 31
0.0
  0
LINE
  5
36C
330
713
100
AcDbEntity
  8
1
  6
Continuous
100
AcDbLine
 10
124.7431022760825
 20
260.0053075328855
 30
0.0
 11
124.7431022760825
 21
248.1256601521366
 31
0.0
  0
LINE
  5
36D
330
713
100
AcDbEntity
  8
4
  6
CENTER
100
AcDbLine
 10
137.2431022760826
 20
262.4417904032053
 30
0.0
 11
137.2431022760826
 21
251.6262839871521
 31
0.0
  0
LINE
  5
36E
330
713
100
AcDbEntity
  8
1
  6
Continuous
100
AcDbLine
 10
133.3431022760825
 20
261.0053075328855
 30
0.0
 11
141.1431022760824
 21
261.0053075328855
 31
0.0
  0
LINE
  5
36F
330
713
100
AcDbEntity
  8
1
  6
Continuous
100
AcDbLine
 10
133.3431022760825
 20
261.0053075328855
 30
0.0
 11
133.3431022760825
 21
260.0053075328855
 31
0.0
  0
LINE
  5
370
330
713
100
AcDbEntity
  8
1
  6
Continuous
100
AcDbLine
 10
141.1431022760824
 20
261.0053075328855
 30
0.0
 11
141.1431022760824
 21
260.0053075328855
 31
0.0
  0
LINE
  5
371
330
713
100
AcDbEntity
  8
4
  6
CENTER
100
AcDbLine
 10
162.2431022760826
 20
262.4417904032053
 30
0.0
 11
162.2431022760826
 21
251.6262839871521
 31
0.0
  0
LINE
  5
372
330
713
100
AcDbEntity
  8
1
  6
Continuous
100
AcDbLine
 10
174.7431022760826
 20
248.1256601521366
 30
0.0
 11
174.7431022760828
 21
260.0053075328857
 31
0.0
  0
LINE
  5
373
330
713
100
AcDbEntity
  8
1
  6
Continuous
100
AcDbLine
 10
167.4630786664988
 20
247.1713180214024
 30
0.0
 11
174.7431022760828
 21
247.1713180214024
 31
0.0
  0
LINE
  5
374
330
713
100
AcDbEntity
  8
1
  6
Continuous
100
AcDbLine
 10
167.1104307953286
 20
248.1256601521366
 30
0.0
 11
174.7431022760828
 21
248.1256601521366
 31
0.0
  0
LINE
  5
375
330
713
100
AcDbEntity
  8
1
  6
Continuous
100
AcDbLine
 10
158.3431022760825
 20
261.0053075328857
 30
0.0
 11
166.1431022760824
 21
261.0053075328857
 31
0.0
  0
LINE
  5
376
330
713
100
AcDbEntity
  8
1
  6
Continuous
100
AcDbLine
 10
158.3431022760825
 20
261.0053075328857
 30
0.0
 11
158.3431022760825
 21
260.0053075328857
 31
0.0
  0
LINE
  5
377
330
713
100
AcDbEntity
  8
1
  6
Continuous
100
AcDbLine
 10
166.1431022760824
 20
261.0053075328857
 30
0.0
 11
166.1431022760824
 21
260.0053075328857
 31
0.0
  0
LINE
  5
378
330
713
100
AcDbEntity
  8
1
  6
Continuous
100
AcDbLine
 10
576.3366238210095
 20
155.5504726738162
 30
0.0
 11
553.3366238210094
 21
155.5504726738162
 31
0.0
  0
LINE
  5
379
330
713
100
AcDbEntity
  8
1
  6
Continuous
100
AcDbLine
 10
576.3366238210095
 20
167.5504726738162
 30
0.0
 11
553.3366238210097
 21
167.5504726738162
 31
0.0
  0
LINE
  5
37A
330
713
100
AcDbEntity
  8
1
  6
Continuous
100
AcDbLine
 10
539.836623821009
 20
132.5504726738802
 30
0.0
 11
589.8366238211862
 21
132.5504726739085
 31
0.0
  0
LINE
  5
37B
330
713
100
AcDbEntity
  8
1
  6
Continuous
100
AcDbLine
 10
539.8366238210096
 20
167.8504726737943
 30
0.0
 11
589.8366238210095
 21
167.8504726737943
 31
0.0
  0
LINE
  5
37C
330
713
100
AcDbEntity
  8
4
  6
CENTER
100
AcDbLine
 10
469.2671445280011
 20
161.5504726737016
 30
0.0
 11
660.9398548205504
 21
161.5504726738447
 31
0.0
  0
LINE
  5
37D
330
713
100
AcDbEntity
  8
1
  6
Continuous
100
AcDbLine
 10
381.8224596633656
 20
132.55047267372
 30
0.0
 11
381.8224596634173
 21
167.5504726737201
 31
0.0
  0
LINE
  5
37E
330
713
100
AcDbEntity
  8
1
  6
Continuous
100
AcDbLine
 10
381.8224596634202
 20
167.8504726738496
 30
0.0
 11
381.8224596634202
 21
132.5504726739357
 31
0.0
  0
LINE
  5
37F
330
713
100
AcDbEntity
  8
4
  6
CENTER
100
AcDbLine
 10
356.8224596634202
 20
171.3970878757535
 30
0.0
 11
356.8224596634202
 21
128.5612820653771
 31
0.0
  0
LINE
  5
380
330
713
100
AcDbEntity
  8
1
  6
Continuous
100
AcDbLine
 10
366.3559802685098
 20
140.9504726739042
 30
0.0
 11
372.2889390583305
 21
140.9504726739042
 31
0.0
  0
LINE
  5
381
330
713
100
AcDbEntity
  8
1
  6
Continuous
100
AcDbLine
 10
366.3559802685094
 20
148.7504726737942
 30
0.0
 11
372.2889390583309
 21
148.7504726737942
 31
0.0
  0
LINE
  5
382
330
713
100
AcDbEntity
  8
4
  6
CENTER
100
AcDbLine
 10
365.3224596633796
 20
142.0504726737386
 30
0.0
 11
373.3224596633796
 21
142.0504726737386
 31
0.0
  0
LINE
  5
383
330
713
100
AcDbEntity
  8
4
  6
CENTER
100
AcDbLine
 10
377.52245966342
 20
144.8504726738494
 30
0.0
 11
361.1224596634202
 21
144.8504726738494
 31
0.0
  0
LINE
  5
384
330
713
100
AcDbEntity
  8
1
  6
Continuous
100
AcDbLine
 10
365.4224596633649
 20
147.816952068615
 30
0.0
 11
365.4224596633649
 21
141.8839932790838
 31
0.0
  0
LINE
  5
385
330
713
100
AcDbEntity
  8
1
  6
Continuous
100
AcDbLine
 10
348.2224596634753
 20
147.8169520686152
 30
0.0
 11
348.2224596634753
 21
141.8839932790834
 31
0.0
  0
CIRCLE
  5
386
330
713
100
AcDbEntity
  8
1
  6
Continuous
100
AcDbCircle
 10
369.3224596634202
 20
144.8504726738494
 30
0.0
 40
3.2
  0
LINE
  5
387
330
713
100
AcDbEntity
  8
4
  6
CENTER
100
AcDbLine
 10
369.3224596634202
 20
136.6504726738492
 30
0.0
 11
369.3224596634202
 21
153.0504726738494
 31
0.0
  0
LINE
  5
388
330
713
100
AcDbEntity
  8
1
  6
Continuous
100
AcDbLine
 10
373.2224596634748
 20
141.8839932790828
 30
0.0
 11
373.2224596634748
 21
147.8169520686159
 31
0.0
  0
LINE
  5
389
330
713
100
AcDbEntity
  8
1
  6
Continuous
100
AcDbLine
 10
553.3366238210094
 20
155.5504726738162
 30
0.0
 11
553.3366238210097
 21
167.8504726737944
 31
0.0
  0
LINE
  5
38A
330
713
100
AcDbEntity
  8
1
  6
Continuous
100
AcDbLine
 10
539.8366238210096
 20
167.8504726737944
 30
0.0
 11
539.836623821009
 21
132.5504726738802
 31
0.0
  0
LINE
  5
38B
330
713
100
AcDbEntity
  8
1
  6
Continuous
100
AcDbLine
 10
492.5366238210162
 20
163.0504726737513
 30
0.0
 11
490.5366238210143
 21
164.5504726737485
 31
0.0
  0
LINE
  5
38C
330
713
100
AcDbEntity
  8
1
  6
Continuous
100
AcDbLine
 10
472.0366238210616
 20
132.5504726737211
 30
0.0
 11
472.0366238210097
 21
167.5504726737211
 31
0.0
  0
LINE
  5
38D
330
713
100
AcDbEntity
  8
1
  6
Continuous
100
AcDbLine
 10
484.8366238210283
 20
155.05047267374
 30
0.0
 11
484.8366238210097
 21
167.55047267374
 31
0.0
  0
LINE
  5
38E
330
713
100
AcDbEntity
  8
1
  6
Continuous
100
AcDbLine
 10
485.5366238210101
 20
167.300472673741
 30
0.0
 11
485.5366238210272
 21
155.800472673741
 31
0.0
  0
LINE
  5
38F
330
713
100
AcDbEntity
  8
1
  6
Continuous
100
AcDbLine
 10
490.5366238210143
 20
164.5504726737484
 30
0.0
 11
490.5366238210231
 21
158.5504726737484
 31
0.0
  0
LINE
  5
390
330
713
100
AcDbEntity
  8
1
  6
Continuous
100
AcDbLine
 10
489.5638958783345
 20
150.808513354747
 30
0.0
 11
479.5093517636344
 21
150.8085133547321
 31
0.0
  0
LINE
  5
391
330
713
100
AcDbEntity
  8
1
  6
Continuous
100
AcDbLine
 10
479.5366238210519
 20
139.147586367932
 30
0.0
 11
489.5366238210519
 21
139.1475863679468
 31
0.0
  0
LINE
  5
392
330
713
100
AcDbEntity
  8
4
  6
CENTER
100
AcDbLine
 10
489.5366238210476
 20
142.0504726737395
 30
0.0
 11
479.5366238210474
 21
142.0504726737395
 31
0.0
  0
LINE
  5
393
330
713
100
AcDbEntity
  8
1
  6
Continuous
100
AcDbLine
 10
472.0366238210599
 20
133.6032726796211
 30
0.0
 11
494.0366238210599
 21
133.6032726796536
 31
0.0
  0
LINE
  5
394
330
713
100
AcDbEntity
  8
1
  6
Continuous
100
AcDbLine
 10
499.8366238210277
 20
155.050472673762
 30
0.0
 11
477.5366238210282
 21
155.050472673729
 31
0.0
  0
LINE
  5
395
330
713
100
AcDbEntity
  8
1
  6
Continuous
100
AcDbLine
 10
472.0366238210616
 20
132.5504726737211
 30
0.0
 11
499.8366238210612
 21
132.5504726737622
 31
0.0
  0
LINE
  5
396
330
713
100
AcDbEntity
  8
1
  6
Continuous
100
AcDbLine
 10
479.5366238210553
 20
136.6182138143322
 30
0.0
 11
479.5366238210354
 21
150.2964356514321
 31
0.0
  0
LINE
  5
397
330
713
100
AcDbEntity
  8
1
  6
Continuous
100
AcDbLine
 10
477.5366238210599
 20
133.6032726796292
 30
0.0
 11
477.5366238210282
 21
155.050472673729
 31
0.0
  0
LINE
  5
398
330
713
100
AcDbEntity
  8
1
  6
Continuous
100
AcDbLine
 10
479.4376771086565
 20
136.0347842858318
 30
0.0
 11
479.5366238210556
 21
136.6182138143322
 31
0.0
  0
LINE
  5
399
330
713
100
AcDbEntity
  8
1
  6
Continuous
100
AcDbLine
 10
478.8366831829582
 20
134.9747194115311
 30
0.0
 11
479.1866968791572
 21
135.4866726865314
 31
0.0
  0
LINE
  5
39A
330
713
100
AcDbEntity
  8
1
  6
Continuous
100
AcDbLine
 10
477.5366238210599
 20
133.6032726796291
 30
0.0
 11
477.9846303693593
 21
134.0392286325298
 31
0.0
  0
LINE
  5
39B
330
713
100
AcDbEntity
  8
1
  6
Continuous
100
AcDbLine
 10
477.9846303693593
 20
134.0392286325298
 30
0.0
 11
478.4261269020586
 21
134.4943582179304
 31
0.0
  0
LINE
  5
39C
330
713
100
AcDbEntity
  8
1
  6
Continuous
100
AcDbLine
 10
478.4261269020586
 20
134.4943582179306
 30
0.0
 11
478.8366831829582
 21
134.9747194115312
 31
0.0
  0
LINE
  5
39D
330
713
100
AcDbEntity
  8
1
  6
Continuous
100
AcDbLine
 10
479.1866968791573
 20
135.4866726865314
 30
0.0
 11
479.4376771086565
 21
136.0347842858318
 31
0.0
  0
LINE
  5
39E
330
713
100
AcDbEntity
  8
1
  6
Continuous
100
AcDbLine
 10
478.437885403729
 20
154.5056960564304
 30
0.0
 11
478.2287537641283
 21
154.7367288132302
 31
0.0
  0
LINE
  5
39F
330
713
100
AcDbEntity
  8
1
  6
Continuous
100
AcDbLine
 10
472.0366238210393
 20
147.5504726737208
 30
0.0
 11
477.5366238210391
 21
147.550472673729
 31
0.0
  0
LINE
  5
3A0
330
713
100
AcDbEntity
  8
1
  6
Continuous
100
AcDbLine
 10
478.9719533270305
 20
153.5088476452311
 30
0.0
 11
478.8093349148301
 21
153.8897059758311
 31
0.0
  0
LINE
  5
3A1
330
713
100
AcDbEntity
  8
1
  6
Continuous
100
AcDbLine
 10
478.8093349148296
 20
153.8897059758311
 30
0.0
 11
478.6314125298295
 21
154.2221835143308
 31
0.0
  0
LINE
  5
3A2
330
713
100
AcDbEntity
  8
1
  6
Continuous
100
AcDbLine
 10
479.5366238210354
 20
150.2964356514321
 30
0.0
 11
479.5335693308351
 21
150.4683317363321
 31
0.0
  0
LINE
  5
3A3
330
713
100
AcDbEntity
  8
1
  6
Continuous
100
AcDbLine
 10
479.5335693308351
 20
150.4683317363321
 30
0.0
 11
479.5244424658346
 21
150.6393202723321
 31
0.0
  0
LINE
  5
3A4
330
713
100
AcDbEntity
  8
1
  6
Continuous
100
AcDbLine
 10
479.5244424658346
 20
150.6393202723321
 30
0.0
 11
479.5093517636344
 21
150.8085133547321
 31
0.0
  0
LINE
  5
3A5
330
713
100
AcDbEntity
  8
1
  6
Continuous
100
AcDbLine
 10
479.5093517636344
 20
150.8085133547321
 30
0.0
 11
479.4481787155333
 21
151.466128784132
 31
0.0
  0
LINE
  5
3A6
330
713
100
AcDbEntity
  8
1
  6
Continuous
100
AcDbLine
 10
479.4481787155339
 20
151.466128784132
 30
0.0
 11
479.3597408967328
 21
152.0606144385316
 31
0.0
  0
LINE
  5
3A7
330
713
100
AcDbEntity
  8
1
  6
Continuous
100
AcDbLine
 10
479.3597408967326
 20
152.0606144385316
 30
0.0
 11
479.248875773432
 21
152.5967960143317
 31
0.0
  0
LINE
  5
3A8
330
713
100
AcDbEntity
  8
1
  6
Continuous
100
AcDbLine
 10
479.248875773432
 20
152.5967960143317
 30
0.0
 11
479.1188900482311
 21
153.0785453227315
 31
0.0
  0
LINE
  5
3A9
330
713
100
AcDbEntity
  8
1
  6
Continuous
100
AcDbLine
 10
479.1188900482311
 20
153.0785453227315
 30
0.0
 11
478.9719533270305
 21
153.5088476452311
 31
0.0
  0
LINE
  5
3AA
330
713
100
AcDbEntity
  8
1
  6
Continuous
100
AcDbLine
 10
478.6314125298296
 20
154.2221835143308
 30
0.0
 11
478.437885403729
 21
154.5056960564305
 31
0.0
  0
LINE
  5
3AB
330
713
100
AcDbEntity
  8
1
  6
Continuous
100
AcDbLine
 10
478.2287537641288
 20
154.7367288132302
 30
0.0
 11
478.0024368655285
 21
154.9108334628298
 31
0.0
  0
LINE
  5
3AC
330
713
100
AcDbEntity
  8
1
  6
Continuous
100
AcDbLine
 10
478.0024368655285
 20
154.9108334628298
 30
0.0
 11
477.7632786799285
 21
155.0177610447295
 31
0.0
  0
LINE
  5
3AD
330
713
100
AcDbEntity
  8
1
  6
Continuous
100
AcDbLine
 10
477.7632786799285
 20
155.0177610447295
 30
0.0
 11
477.5366238210282
 21
155.050472673729
 31
0.0
  0
LINE
  5
3AE
330
713
100
AcDbEntity
  8
1
  6
Continuous
100
AcDbLine
 10
499.8366238210612
 20
132.550472673762
 30
0.0
 11
499.8366238210447
 21
155.0504726737864
 31
0.0
  0
LINE
  5
3AF
330
713
100
AcDbEntity
  8
4
  6
CENTER
100
AcDbLine
 10
484.5366238210473
 20
147.0504726737395
 30
0.0
 11
484.5366238210473
 21
137.0504726737395
 31
0.0
  0
LINE
  5
3B0
330
713
100
AcDbEntity
  8
1
  6
Continuous
100
AcDbLine
 10
489.5366238210556
 20
136.6182138143468
 30
0.0
 11
489.5366238210351
 21
150.2964356514469
 31
0.0
  0
LINE
  5
3B1
330
713
100
AcDbEntity
  8
1
  6
Continuous
100
AcDbLine
 10
491.5366238210599
 20
133.6032726796498
 30
0.0
 11
491.5366238210283
 21
155.0504726737496
 31
0.0
  0
LINE
  5
3B2
330
713
100
AcDbEntity
  8
1
  6
Continuous
100
AcDbLine
 10
494.0366238210599
 20
133.6032726796536
 30
0.0
 11
494.0366238210282
 21
155.0504726737534
 31
0.0
  0
LINE
  5
3B3
330
713
100
AcDbEntity
  8
1
  6
Continuous
100
AcDbLine
 10
494.0366238210599
 20
133.6032726796536
 30
0.0
 11
499.8366238210612
 21
132.550472673762
 31
0.0
  0
LINE
  5
3B4
330
713
100
AcDbEntity
  8
1
  6
Continuous
100
AcDbLine
 10
489.5366238210557
 20
136.6182138143468
 30
0.0
 11
489.6355705334563
 21
136.034784285847
 31
0.0
  0
LINE
  5
3B5
330
713
100
AcDbEntity
  8
1
  6
Continuous
100
AcDbLine
 10
491.0886172727591
 20
134.0392286325492
 30
0.0
 11
491.5366238210599
 21
133.6032726796498
 31
0.0
  0
LINE
  5
3B6
330
713
100
AcDbEntity
  8
1
  6
Continuous
100
AcDbLine
 10
489.8865507628571
 20
135.4866726865474
 30
0.0
 11
490.2365644590576
 21
134.974719411548
 31
0.0
  0
LINE
  5
3B7
330
713
100
AcDbEntity
  8
1
  6
Continuous
100
AcDbLine
 10
490.2365644590576
 20
134.974719411548
 30
0.0
 11
490.6471207400585
 21
134.4943582179486
 31
0.0
  0
LINE
  5
3B8
330
713
100
AcDbEntity
  8
1
  6
Continuous
100
AcDbLine
 10
490.6471207400585
 20
134.4943582179484
 30
0.0
 11
491.0886172727591
 21
134.0392286325492
 31
0.0
  0
LINE
  5
3B9
330
713
100
AcDbEntity
  8
1
  6
Continuous
100
AcDbLine
 10
489.6355705334563
 20
136.034784285847
 30
0.0
 11
489.8865507628571
 21
135.4866726865474
 31
0.0
  0
LINE
  5
3BA
330
713
100
AcDbEntity
  8
1
  6
Continuous
100
AcDbLine
 10
490.8444938779289
 20
154.7367288132488
 30
0.0
 11
490.6353622382289
 21
154.5056960564485
 31
0.0
  0
LINE
  5
3BB
330
713
100
AcDbEntity
  8
1
  6
Continuous
100
AcDbLine
 10
490.6353622382289
 20
154.5056960564486
 30
0.0
 11
490.4418351122296
 21
154.2221835143482
 31
0.0
  0
LINE
  5
3BC
330
713
100
AcDbEntity
  8
1
  6
Continuous
100
AcDbLine
 10
490.4418351122296
 20
154.2221835143482
 30
0.0
 11
490.2639127271298
 21
153.8897059758478
 31
0.0
  0
LINE
  5
3BD
330
713
100
AcDbEntity
  8
1
  6
Continuous
100
AcDbLine
 10
490.2639127271298
 20
153.889705975848
 30
0.0
 11
490.1012943149305
 21
153.5088476452476
 31
0.0
  0
LINE
  5
3BE
330
713
100
AcDbEntity
  8
1
  6
Continuous
100
AcDbLine
 10
491.5366238210394
 20
147.5504726737498
 30
0.0
 11
494.0366238210391
 21
147.5504726737534
 31
0.0
  0
LINE
  5
3BF
330
713
100
AcDbEntity
  8
1
  6
Continuous
100
AcDbLine
 10
489.5638958783346
 20
150.808513354747
 30
0.0
 11
489.5488051762345
 21
150.639320272347
 31
0.0
  0
LINE
  5
3C0
330
713
100
AcDbEntity
  8
1
  6
Continuous
100
AcDbLine
 10
489.5488051762345
 20
150.639320272347
 30
0.0
 11
489.5396783112349
 21
150.4683317363468
 31
0.0
  0
LINE
  5
3C1
330
713
100
AcDbEntity
  8
1
  6
Continuous
100
AcDbLine
 10
489.5396783112349
 20
150.4683317363468
 30
0.0
 11
489.5366238210351
 21
150.2964356514469
 31
0.0
  0
LINE
  5
3C2
330
713
100
AcDbEntity
  8
1
  6
Continuous
100
AcDbLine
 10
489.9543575937314
 20
153.0785453227474
 30
0.0
 11
489.8243718686322
 21
152.5967960143472
 31
0.0
  0
LINE
  5
3C3
330
713
100
AcDbEntity
  8
1
  6
Continuous
100
AcDbLine
 10
489.824371868632
 20
152.5967960143471
 30
0.0
 11
489.7135067453326
 21
152.060614438547
 31
0.0
  0
LINE
  5
3C4
330
713
100
AcDbEntity
  8
1
  6
Continuous
100
AcDbLine
 10
489.7135067453326
 20
152.0606144385472
 30
0.0
 11
489.6250689265333
 21
151.4661287841471
 31
0.0
  0
LINE
  5
3C5
330
713
100
AcDbEntity
  8
1
  6
Continuous
100
AcDbLine
 10
489.6250689265333
 20
151.4661287841471
 30
0.0
 11
489.5638958783345
 21
150.808513354747
 31
0.0
  0
LINE
  5
3C6
330
713
100
AcDbEntity
  8
1
  6
Continuous
100
AcDbLine
 10
490.1012943149305
 20
153.5088476452478
 30
0.0
 11
489.9543575937314
 21
153.0785453227474
 31
0.0
  0
LINE
  5
3C7
330
713
100
AcDbEntity
  8
1
  6
Continuous
100
AcDbLine
 10
485.5366238210232
 20
158.550472673741
 30
0.0
 11
490.5366238210231
 21
158.5504726737484
 31
0.0
  0
LINE
  5
3C8
330
713
100
AcDbEntity
  8
1
  6
Continuous
100
AcDbLine
 10
485.5366238210272
 20
155.800472673741
 30
0.0
 11
484.8366238210274
 21
155.80047267374
 31
0.0
  0
LINE
  5
3C9
330
713
100
AcDbEntity
  8
1
  6
Continuous
100
AcDbLine
 10
492.5366238210162
 20
163.0504726737513
 30
0.0
 11
492.5366238210208
 21
160.0504726737513
 31
0.0
  0
LINE
  5
3CA
330
713
100
AcDbEntity
  8
1
  6
Continuous
100
AcDbLine
 10
491.5366238210283
 20
155.0504726737496
 30
0.0
 11
491.3099689620285
 21
155.0177610447495
 31
0.0
  0
LINE
  5
3CB
330
713
100
AcDbEntity
  8
1
  6
Continuous
100
AcDbLine
 10
491.3099689620279
 20
155.0177610447495
 30
0.0
 11
491.0708107764285
 21
154.9108334628491
 31
0.0
  0
LINE
  5
3CC
330
713
100
AcDbEntity
  8
1
  6
Continuous
100
AcDbLine
 10
491.0708107764287
 20
154.9108334628491
 30
0.0
 11
490.8444938779289
 21
154.7367288132489
 31
0.0
  0
LINE
  5
3CD
330
713
100
AcDbEntity
  8
1
  6
Continuous
100
AcDbLine
 10
492.5366238210208
 20
160.0504726737513
 30
0.0
 11
490.5366238210232
 21
158.5504726737485
 31
0.0
  0
LINE
  5
3CE
330
713
100
AcDbEntity
  8
4
  6
CENTER
100
AcDbLine
 10
552.336623821009
 20
153.0504726737941
 30
0.0
 11
552.336623821009
 21
136.6504726737941
 31
0.0
  0
CIRCLE
  5
3CF
330
713
100
AcDbEntity
  8
1
  6
Continuous
100
AcDbCircle
 10
552.336623821009
 20
144.8504726737941
 30
0.0
 40
6.4
  0
CIRCLE
  5
3D0
330
713
100
AcDbEntity
  8
1
  6
Continuous
100
AcDbCircle
 10
552.336623821009
 20
144.8504726737941
 30
0.0
 40
3.2
  0
LINE
  5
3D1
330
713
100
AcDbEntity
  8
4
  6
CENTER
100
AcDbLine
 10
544.1366238210092
 20
144.8504726737941
 30
0.0
 11
560.5366238210092
 21
144.8504726737941
 31
0.0
  0
LINE
  5
3D2
330
713
100
AcDbEntity
  8
1
  6
Continuous
100
AcDbLine
 10
472.0366238210097
 20
167.5504726737211
 30
0.0
 11
484.8366238210097
 21
167.55047267374
 31
0.0
  0
LINE
  5
3D3
330
713
100
AcDbEntity
  8
1
  6
Continuous
100
AcDbLine
 10
485.5366238210144
 20
164.550472673741
 30
0.0
 11
490.5366238210143
 21
164.5504726737484
 31
0.0
  0
LINE
  5
3D4
330
713
100
AcDbEntity
  8
1
  6
Continuous
100
AcDbLine
 10
485.5366238210102
 20
167.300472673741
 30
0.0
 11
484.8366238210102
 21
167.30047267374
 31
0.0
  0
LINE
  5
3D5
330
713
100
AcDbEntity
  8
1
  6
Continuous
100
AcDbLine
 10
539.8366238210096
 20
164.3504726737942
 30
0.0
 11
553.3366238210096
 21
164.3504726737942
 31
0.0
  0
LINE
  5
3D6
330
713
100
AcDbEntity
  8
1
  6
Continuous
100
AcDbLine
 10
547.3366238210096
 20
167.8504726737943
 30
0.0
 11
547.3366238210096
 21
164.3504726737942
 31
0.0
  0
LINE
  5
3D7
330
713
100
AcDbEntity
  8
1
  6
Continuous
100
AcDbLine
 10
637.1366238210096
 20
163.0504726738261
 30
0.0
 11
639.1366238210093
 21
164.5504726738261
 31
0.0
  0
LINE
  5
3D8
330
713
100
AcDbEntity
  8
1
  6
Continuous
100
AcDbLine
 10
657.6366238210096
 20
132.550472673826
 30
0.0
 11
657.6366238210096
 21
167.550472673826
 31
0.0
  0
LINE
  5
3D9
330
713
100
AcDbEntity
  8
1
  6
Continuous
100
AcDbLine
 10
644.8366238210095
 20
155.050472673826
 30
0.0
 11
644.8366238210095
 21
167.5504726738261
 31
0.0
  0
LINE
  5
3DA
330
713
100
AcDbEntity
  8
1
  6
Continuous
100
AcDbLine
 10
644.1366238210092
 20
167.3004726738261
 30
0.0
 11
644.1366238210092
 21
155.800472673826
 31
0.0
  0
LINE
  5
3DB
330
713
100
AcDbEntity
  8
1
  6
Continuous
100
AcDbLine
 10
639.1366238210093
 20
164.5504726738261
 30
0.0
 11
639.1366238210093
 21
158.5504726738261
 31
0.0
  0
LINE
  5
3DC
330
713
100
AcDbEntity
  8
1
  6
Continuous
100
AcDbLine
 10
576.3366238210095
 20
155.5504726738162
 30
0.0
 11
576.3366238210095
 21
167.8504726737943
 31
0.0
  0
LINE
  5
3DD
330
713
100
AcDbEntity
  8
4
  6
CENTER
100
AcDbLine
 10
564.8366238210095
 20
171.3970878756981
 30
0.0
 11
564.8366238210095
 21
128.5612820653219
 31
0.0
  0
LINE
  5
3DE
330
713
100
AcDbEntity
  8
1
  6
Continuous
100
AcDbLine
 10
589.8366238210095
 20
167.8504726737943
 30
0.0
 11
589.8366238210095
 21
132.5504726739085
 31
0.0
  0
LINE
  5
3DF
330
713
100
AcDbEntity
  8
4
  6
CENTER
100
AcDbLine
 10
577.3366238210095
 20
153.0504726737941
 30
0.0
 11
577.3366238210095
 21
136.6504726737941
 31
0.0
  0
CIRCLE
  5
3E0
330
713
100
AcDbEntity
  8
1
  6
Continuous
100
AcDbCircle
 10
577.3366238210095
 20
144.8504726737941
 30
0.0
 40
6.4
  0
CIRCLE
  5
3E1
330
713
100
AcDbEntity
  8
1
  6
Continuous
100
AcDbCircle
 10
577.3366238210095
 20
144.8504726737941
 30
0.0
 40
3.2
  0
LINE
  5
3E2
330
713
100
AcDbEntity
  8
4
  6
CENTER
100
AcDbLine
 10
585.5366238210092
 20
144.8504726737941
 30
0.0
 11
569.1366238210092
 21
144.8504726737941
 31
0.0
  0
LINE
  5
3E3
330
713
100
AcDbEntity
  8
1
  6
Continuous
100
AcDbLine
 10
650.1366238210094
 20
139.1475863680261
 30
0.0
 11
640.1366238210092
 21
139.1475863680261
 31
0.0
  0
LINE
  5
3E4
330
713
100
AcDbEntity
  8
1
  6
Continuous
100
AcDbLine
 10
640.1093517637093
 20
150.8085133548258
 30
0.0
 11
650.1638958784094
 21
150.8085133548258
 31
0.0
  0
LINE
  5
3E5
330
713
100
AcDbEntity
  8
1
  6
Continuous
100
AcDbLine
 10
629.8366238210095
 20
155.0504726738261
 30
0.0
 11
652.1366238210092
 21
155.050472673826
 31
0.0
  0
LINE
  5
3E6
330
713
100
AcDbEntity
  8
1
  6
Continuous
100
AcDbLine
 10
644.1366238210092
 20
158.5504726738261
 30
0.0
 11
639.1366238210093
 21
158.5504726738261
 31
0.0
  0
LINE
  5
3E7
330
713
100
AcDbEntity
  8
4
  6
CENTER
100
AcDbLine
 10
649.1366238210092
 20
142.0504726738261
 30
0.0
 11
641.1366238210092
 21
142.0504726738261
 31
0.0
  0
LINE
  5
3E8
330
713
100
AcDbEntity
  8
1
  6
Continuous
100
AcDbLine
 10
657.6366238210092
 20
133.6032726797258
 30
0.0
 11
629.8366238210087
 21
133.603272679726
 31
0.0
  0
LINE
  5
3E9
330
713
100
AcDbEntity
  8
1
  6
Continuous
100
AcDbLine
 10
657.6366238210092
 20
132.550472673826
 30
0.0
 11
635.4430033276687
 21
132.5504726738261
 31
0.0
  0
LINE
  5
3EA
330
713
100
AcDbEntity
  8
1
  6
Continuous
100
AcDbLine
 10
640.1366238210092
 20
136.6182138144261
 30
0.0
 11
640.1366238210092
 21
150.2964356515261
 31
0.0
  0
LINE
  5
3EB
330
713
100
AcDbEntity
  8
1
  6
Continuous
100
AcDbLine
 10
638.1366238210094
 20
133.603272679726
 30
0.0
 11
638.1366238210094
 21
155.0504726738261
 31
0.0
  0
LINE
  5
3EC
330
713
100
AcDbEntity
  8
1
  6
Continuous
100
AcDbLine
 10
629.8366238210087
 20
133.6032726797223
 30
0.0
 11
629.8366238209929
 21
155.0504726738504
 31
0.0
  0
LINE
  5
3ED
330
713
100
AcDbEntity
  8
1
  6
Continuous
100
AcDbLine
 10
640.1366238210092
 20
136.6182138144261
 30
0.0
 11
640.0376771086094
 21
136.034784285926
 31
0.0
  0
LINE
  5
3EE
330
713
100
AcDbEntity
  8
1
  6
Continuous
100
AcDbLine
 10
635.4430033276692
 20
132.5856181318533
 30
0.0
 11
635.4430033276687
 21
132.550472673826
 31
0.0
  0
LINE
  5
3EF
330
713
100
AcDbEntity
  8
1
  6
Continuous
100
AcDbLine
 10
629.8366238209998
 20
133.6032726797239
 30
0.0
 11
635.4430033276692
 21
132.5856181318533
 31
0.0
  0
LINE
  5
3F0
330
713
100
AcDbEntity
  8
1
  6
Continuous
100
AcDbLine
 10
639.7866968792092
 20
135.486672686626
 30
0.0
 11
639.4366831830092
 21
134.9747194116261
 31
0.0
  0
LINE
  5
3F1
330
713
100
AcDbEntity
  8
1
  6
Continuous
100
AcDbLine
 10
639.4366831830092
 20
134.9747194116261
 30
0.0
 11
639.0261269020093
 21
134.4943582180261
 31
0.0
  0
LINE
  5
3F2
330
713
100
AcDbEntity
  8
1
  6
Continuous
100
AcDbLine
 10
639.0261269020093
 20
134.4943582180258
 30
0.0
 11
638.5846303693092
 21
134.0392286326259
 31
0.0
  0
LINE
  5
3F3
330
713
100
AcDbEntity
  8
1
  6
Continuous
100
AcDbLine
 10
638.5846303693092
 20
134.0392286326259
 30
0.0
 11
638.1366238210094
 21
133.603272679726
 31
0.0
  0
LINE
  5
3F4
330
713
100
AcDbEntity
  8
1
  6
Continuous
100
AcDbLine
 10
640.0376771086094
 20
136.034784285926
 30
0.0
 11
639.7866968792092
 21
135.486672686626
 31
0.0
  0
LINE
  5
3F5
330
713
100
AcDbEntity
  8
1
  6
Continuous
100
AcDbLine
 10
638.8287537641092
 20
154.736728813326
 30
0.0
 11
639.0378854038093
 21
154.5056960565258
 31
0.0
  0
LINE
  5
3F6
330
713
100
AcDbEntity
  8
1
  6
Continuous
100
AcDbLine
 10
638.1366238210094
 20
147.5504726738261
 30
0.0
 11
629.8366238209983
 21
147.5504726738261
 31
0.0
  0
LINE
  5
3F7
330
713
100
AcDbEntity
  8
1
  6
Continuous
100
AcDbLine
 10
639.0378854038093
 20
154.5056960565261
 30
0.0
 11
639.231412529809
 21
154.2221835144261
 31
0.0
  0
LINE
  5
3F8
330
713
100
AcDbEntity
  8
1
  6
Continuous
100
AcDbLine
 10
639.231412529809
 20
154.2221835144261
 30
0.0
 11
639.4093349149093
 21
153.8897059759261
 31
0.0
  0
LINE
  5
3F9
330
713
100
AcDbEntity
  8
1
  6
Continuous
100
AcDbLine
 10
639.4093349149093
 20
153.8897059759261
 30
0.0
 11
639.571953327109
 21
153.508847645326
 31
0.0
  0
LINE
  5
3FA
330
713
100
AcDbEntity
  8
1
  6
Continuous
100
AcDbLine
 10
640.1093517637093
 20
150.8085133548258
 30
0.0
 11
640.1244424658093
 21
150.6393202724259
 31
0.0
  0
LINE
  5
3FB
330
713
100
AcDbEntity
  8
1
  6
Continuous
100
AcDbLine
 10
640.1244424658093
 20
150.6393202724259
 30
0.0
 11
640.1335693308092
 21
150.4683317364261
 31
0.0
  0
LINE
  5
3FC
330
713
100
AcDbEntity
  8
1
  6
Continuous
100
AcDbLine
 10
640.1335693308092
 20
150.4683317364261
 30
0.0
 11
640.1366238210092
 21
150.2964356515261
 31
0.0
  0
LINE
  5
3FD
330
713
100
AcDbEntity
  8
1
  6
Continuous
100
AcDbLine
 10
639.718890048309
 20
153.0785453228261
 30
0.0
 11
639.848875773409
 21
152.596796014426
 31
0.0
  0
LINE
  5
3FE
330
713
100
AcDbEntity
  8
1
  6
Continuous
100
AcDbLine
 10
639.8488757734095
 20
152.596796014426
 30
0.0
 11
639.9597408967093
 21
152.0606144386258
 31
0.0
  0
LINE
  5
3FF
330
713
100
AcDbEntity
  8
1
  6
Continuous
100
AcDbLine
 10
639.9597408967093
 20
152.0606144386261
 30
0.0
 11
640.0481787155094
 21
151.4661287842261
 31
0.0
  0
LINE
  5
400
330
713
100
AcDbEntity
  8
1
  6
Continuous
100
AcDbLine
 10
640.0481787155094
 20
151.4661287842258
 30
0.0
 11
640.1093517637093
 21
150.8085133548258
 31
0.0
  0
LINE
  5
401
330
713
100
AcDbEntity
  8
1
  6
Continuous
100
AcDbLine
 10
639.571953327109
 20
153.5088476453261
 30
0.0
 11
639.7188900483095
 21
153.0785453228261
 31
0.0
  0
LINE
  5
402
330
713
100
AcDbEntity
  8
1
  6
Continuous
100
AcDbLine
 10
637.1366238210096
 20
163.0504726738261
 30
0.0
 11
637.1366238210096
 21
160.0504726738261
 31
0.0
  0
LINE
  5
403
330
713
100
AcDbEntity
  8
1
  6
Continuous
100
AcDbLine
 10
638.6024368656093
 20
154.9108334629261
 30
0.0
 11
638.8287537641092
 21
154.7367288133261
 31
0.0
  0
LINE
  5
404
330
713
100
AcDbEntity
  8
1
  6
Continuous
100
AcDbLine
 10
638.1366238210094
 20
155.0504726738261
 30
0.0
 11
638.3632786800095
 21
155.0177610448261
 31
0.0
  0
LINE
  5
405
330
713
100
AcDbEntity
  8
1
  6
Continuous
100
AcDbLine
 10
638.3632786800095
 20
155.0177610448261
 30
0.0
 11
638.6024368656093
 21
154.9108334629261
 31
0.0
  0
LINE
  5
406
330
713
100
AcDbEntity
  8
1
  6
Continuous
100
AcDbLine
 10
637.1366238210092
 20
160.0504726738261
 30
0.0
 11
639.1366238210093
 21
158.5504726738261
 31
0.0
  0
LINE
  5
407
330
713
100
AcDbEntity
  8
1
  6
Continuous
100
AcDbLine
 10
650.1366238210094
 20
136.6182138144261
 30
0.0
 11
650.1366238210094
 21
150.2964356515261
 31
0.0
  0
LINE
  5
408
330
713
100
AcDbEntity
  8
4
  6
CENTER
100
AcDbLine
 10
645.1366238210092
 20
147.5504726738261
 30
0.0
 11
645.1366238210092
 21
137.5504726738261
 31
0.0
  0
LINE
  5
409
330
713
100
AcDbEntity
  8
1
  6
Continuous
100
AcDbLine
 10
652.1366238210092
 20
133.6032726797258
 30
0.0
 11
652.1366238210092
 21
155.050472673826
 31
0.0
  0
LINE
  5
40A
330
713
100
AcDbEntity
  8
1
  6
Continuous
100
AcDbLine
 10
650.2355705334093
 20
136.034784285926
 30
0.0
 11
650.1366238210094
 21
136.6182138144261
 31
0.0
  0
LINE
  5
40B
330
713
100
AcDbEntity
  8
1
  6
Continuous
100
AcDbLine
 10
652.1366238210092
 20
133.6032726797258
 30
0.0
 11
651.6886172727094
 21
134.0392286326259
 31
0.0
  0
LINE
  5
40C
330
713
100
AcDbEntity
  8
1
  6
Continuous
100
AcDbLine
 10
651.6886172727089
 20
134.0392286326259
 30
0.0
 11
651.2471207400092
 21
134.4943582180261
 31
0.0
  0
LINE
  5
40D
330
713
100
AcDbEntity
  8
1
  6
Continuous
100
AcDbLine
 10
651.2471207400092
 20
134.4943582180258
 30
0.0
 11
650.8365644591092
 21
134.9747194116259
 31
0.0
  0
LINE
  5
40E
330
713
100
AcDbEntity
  8
1
  6
Continuous
100
AcDbLine
 10
650.8365644591092
 20
134.9747194116259
 30
0.0
 11
650.4865507629092
 21
135.4866726866259
 31
0.0
  0
LINE
  5
40F
330
713
100
AcDbEntity
  8
1
  6
Continuous
100
AcDbLine
 10
650.4865507629092
 20
135.4866726866259
 30
0.0
 11
650.2355705334093
 21
136.0347842859259
 31
0.0
  0
LINE
  5
410
330
713
100
AcDbEntity
  8
1
  6
Continuous
100
AcDbLine
 10
657.6366238210092
 20
147.550472673826
 30
0.0
 11
652.1366238210092
 21
147.550472673826
 31
0.0
  0
LINE
  5
411
330
713
100
AcDbEntity
  8
1
  6
Continuous
100
AcDbLine
 10
651.2353622383092
 20
154.5056960565261
 30
0.0
 11
651.4444938779092
 21
154.736728813326
 31
0.0
  0
LINE
  5
412
330
713
100
AcDbEntity
  8
1
  6
Continuous
100
AcDbLine
 10
650.8639127272092
 20
153.8897059759258
 30
0.0
 11
651.0418351122093
 21
154.2221835144258
 31
0.0
  0
LINE
  5
413
330
713
100
AcDbEntity
  8
1
  6
Continuous
100
AcDbLine
 10
651.0418351122093
 20
154.222183514426
 30
0.0
 11
651.2353622383092
 21
154.5056960565261
 31
0.0
  0
LINE
  5
414
330
713
100
AcDbEntity
  8
1
  6
Continuous
100
AcDbLine
 10
650.1366238210096
 20
150.2964356515261
 30
0.0
 11
650.1396783112096
 21
150.4683317364261
 31
0.0
  0
LINE
  5
415
330
713
100
AcDbEntity
  8
1
  6
Continuous
100
AcDbLine
 10
650.1396783112093
 20
150.468331736426
 30
0.0
 11
650.148805176209
 21
150.6393202724258
 31
0.0
  0
LINE
  5
416
330
713
100
AcDbEntity
  8
1
  6
Continuous
100
AcDbLine
 10
650.148805176209
 20
150.6393202724259
 30
0.0
 11
650.1638958784091
 21
150.8085133548258
 31
0.0
  0
LINE
  5
417
330
713
100
AcDbEntity
  8
1
  6
Continuous
100
AcDbLine
 10
650.1638958784091
 20
150.8085133548258
 30
0.0
 11
650.2250689265093
 21
151.4661287842261
 31
0.0
  0
LINE
  5
418
330
713
100
AcDbEntity
  8
1
  6
Continuous
100
AcDbLine
 10
650.2250689265093
 20
151.4661287842261
 30
0.0
 11
650.3135067453094
 21
152.0606144386261
 31
0.0
  0
LINE
  5
419
330
713
100
AcDbEntity
  8
1
  6
Continuous
100
AcDbLine
 10
650.3135067453094
 20
152.0606144386261
 30
0.0
 11
650.4243718686092
 21
152.596796014426
 31
0.0
  0
LINE
  5
41A
330
713
100
AcDbEntity
  8
1
  6
Continuous
100
AcDbLine
 10
650.4243718686092
 20
152.5967960144261
 30
0.0
 11
650.5543575938093
 21
153.0785453228261
 31
0.0
  0
LINE
  5
41B
330
713
100
AcDbEntity
  8
1
  6
Continuous
100
AcDbLine
 10
650.5543575938093
 20
153.078545322826
 30
0.0
 11
650.7012943150092
 21
153.508847645326
 31
0.0
  0
LINE
  5
41C
330
713
100
AcDbEntity
  8
1
  6
Continuous
100
AcDbLine
 10
650.7012943150092
 20
153.508847645326
 30
0.0
 11
650.8639127272092
 21
153.8897059759258
 31
0.0
  0
LINE
  5
41D
330
713
100
AcDbEntity
  8
1
  6
Continuous
100
AcDbLine
 10
644.1366238210092
 20
155.800472673826
 30
0.0
 11
644.8366238210095
 21
155.800472673826
 31
0.0
  0
LINE
  5
41E
330
713
100
AcDbEntity
  8
1
  6
Continuous
100
AcDbLine
 10
651.4444938779092
 20
154.736728813326
 30
0.0
 11
651.6708107765094
 21
154.9108334629261
 31
0.0
  0
LINE
  5
41F
330
713
100
AcDbEntity
  8
1
  6
Continuous
100
AcDbLine
 10
651.6708107765091
 20
154.9108334629258
 30
0.0
 11
651.9099689621092
 21
155.017761044826
 31
0.0
  0
LINE
  5
420
330
713
100
AcDbEntity
  8
1
  6
Continuous
100
AcDbLine
 10
651.9099689621092
 20
155.017761044826
 30
0.0
 11
652.1366238210092
 21
155.0504726738261
 31
0.0
  0
LINE
  5
421
330
713
100
AcDbEntity
  8
1
  6
Continuous
100
AcDbLine
 10
576.3366238210095
 20
164.3504726737942
 30
0.0
 11
589.8366238210095
 21
164.3504726737942
 31
0.0
  0
LINE
  5
422
330
713
100
AcDbEntity
  8
1
  6
Continuous
100
AcDbLine
 10
582.3366238210095
 20
167.8504726737943
 30
0.0
 11
582.3366238210095
 21
164.3504726737942
 31
0.0
  0
LINE
  5
423
330
713
100
AcDbEntity
  8
1
  6
Continuous
100
AcDbLine
 10
644.1366238210092
 20
164.5504726738261
 30
0.0
 11
639.1366238210093
 21
164.5504726738261
 31
0.0
  0
LINE
  5
424
330
713
100
AcDbEntity
  8
1
  6
Continuous
100
AcDbLine
 10
657.6366238210092
 20
167.550472673826
 30
0.0
 11
644.8366238210095
 21
167.550472673826
 31
0.0
  0
LINE
  5
425
330
713
100
AcDbEntity
  8
1
  6
Continuous
100
AcDbLine
 10
644.1366238210092
 20
167.3004726738261
 30
0.0
 11
644.8366238210095
 21
167.3004726738261
 31
0.0
  0
ARC
  5
462
330
713
100
AcDbEntity
  8
1
  6
Continuous
100
AcDbCircle
 10
344.3224596634202
 20
144.8504726738493
 30
0.0
 40
4.9
100
AcDbArc
 50
307.2579160023725
 51
322.7420839997512
  0
ARC
  5
463
330
713
100
AcDbEntity
  8
1
  6
Continuous
100
AcDbCircle
 10
369.3224596634202
 20
144.8504726738494
 30
0.0
 40
4.9
100
AcDbArc
 50
37.25791600025871
 51
52.74208399762135
  0
ARC
  5
465
330
713
100
AcDbEntity
  8
1
  6
Continuous
100
AcDbCircle
 10
369.3224596634202
 20
144.8504726738494
 30
0.0
 40
4.9
100
AcDbArc
 50
127.2579160023786
 51
142.7420839997552
  0
ARC
  5
466
330
713
100
AcDbEntity
  8
1
  6
Continuous
100
AcDbCircle
 10
369.3224596634202
 20
144.8504726738494
 30
0.0
 40
4.9
100
AcDbArc
 50
217.2579160002447
 51
232.7420839976291
  0
ARC
  5
467
330
713
100
AcDbEntity
  8
1
  6
Continuous
100
AcDbCircle
 10
369.3224596634202
 20
144.8504726738494
 30
0.0
 40
4.9
100
AcDbArc
 50
307.2579160023709
 51
322.7420839997412
  0
ARC
  5
49F
330
713
100
AcDbEntity
  8
1
  6
Continuous
100
AcDbCircle
 10
344.3224596634202
 20
144.8504726738493
 30
0.0
 40
4.9
100
AcDbArc
 50
217.2579160002502
 51
232.7420839976274
  0
ARC
  5
4A0
330
713
100
AcDbEntity
  8
1
  6
Continuous
100
AcDbCircle
 10
344.3224596634202
 20
144.8504726738493
 30
0.0
 40
4.9
100
AcDbArc
 50
127.2579160023777
 51
142.7420839997498
  0
ARC
  5
4A1
330
713
100
AcDbEntity
  8
1
  6
Continuous
100
AcDbCircle
 10
344.3224596634202
 20
144.8504726738493
 30
0.0
 40
4.9
100
AcDbArc
 50
37.25791600024874
 51
52.74208399762247
  0
LINE
  5
5ED
330
713
100
AcDbEntity
  8
1
  6
Continuous
100
AcDbLine
 10
247.0997605224717
 20
138.1504726737394
 30
0.0
 11
247.0997605224717
 21
145.9504726737394
 31
0.0
  0
LINE
  5
5EE
330
713
100
AcDbEntity
  8
1
  6
Continuous
100
AcDbLine
 10
247.0997605224717
 20
138.1504726737394
 30
0.0
 11
246.0997605224717
 21
138.1504726737394
 31
0.0
  0
LINE
  5
5EF
330
713
100
AcDbEntity
  8
1
  6
Continuous
100
AcDbLine
 10
247.0997605224717
 20
145.9504726737394
 30
0.0
 11
246.0997605224717
 21
145.9504726737394
 31
0.0
  0
LINE
  5
615
330
713
100
AcDbEntity
  8
1
  6
Continuous
100
AcDbLine
 10
52.38644402969364
 20
138.1504726737394
 30
0.0
 11
52.38644402969364
 21
145.9504726737394
 31
0.0
  0
LINE
  5
616
330
713
100
AcDbEntity
  8
1
  6
Continuous
100
AcDbLine
 10
52.38644402969364
 20
138.1504726737394
 30
0.0
 11
53.38644402969364
 21
138.1504726737394
 31
0.0
  0
LINE
  5
617
330
713
100
AcDbEntity
  8
1
  6
Continuous
100
AcDbLine
 10
52.38644402969364
 20
145.9504726737394
 30
0.0
 11
53.38644402969364
 21
145.9504726737394
 31
0.0
  0
LINE
  5
632
330
713
100
AcDbEntity
  8
1
  6
Continuous
100
AcDbLine
 10
133.3431022760825
 20
64.39563781489977
 30
0.0
 11
141.1431022760824
 21
64.39563781489977
 31
0.0
  0
LINE
  5
633
330
713
100
AcDbEntity
  8
1
  6
Continuous
100
AcDbLine
 10
133.3431022760825
 20
64.39563781489977
 30
0.0
 11
133.3431022760825
 21
65.39563781489977
 31
0.0
  0
LINE
  5
634
330
713
100
AcDbEntity
  8
1
  6
Continuous
100
AcDbLine
 10
141.1431022760824
 20
64.39563781489977
 30
0.0
 11
141.1431022760824
 21
65.39563781489977
 31
0.0
  0
LINE
  5
635
330
713
100
AcDbEntity
  8
1
  6
Continuous
100
AcDbLine
 10
158.3431022760825
 20
64.39563781489971
 30
0.0
 11
166.1431022760824
 21
64.39563781489971
 31
0.0
  0
LINE
  5
636
330
713
100
AcDbEntity
  8
1
  6
Continuous
100
AcDbLine
 10
158.3431022760825
 20
64.39563781489971
 30
0.0
 11
158.3431022760825
 21
65.39563781489971
 31
0.0
  0
LINE
  5
637
330
713
100
AcDbEntity
  8
1
  6
Continuous
100
AcDbLine
 10
166.1431022760824
 20
64.39563781489971
 30
0.0
 11
166.1431022760824
 21
65.39563781489971
 31
0.0
  0
ENDSEC
  0
SECTION
  2
OBJECTS
  0
DICTIONARY
  5
6B0
330
0
100
AcDbDictionary
281
     1
  3
ACAD_CIP_PREVIOUS_PRODUCT_INFO
350
72C
  3
ACAD_COLOR
350
706
  3
ACAD_DETAILVIEWSTYLE
350
70D
  3
ACAD_GROUP
350
6B1
  3
ACAD_LAYOUT
350
705
  3
ACAD_MATERIAL
350
6B4
  3
ACAD_MLEADERSTYLE
350
709
  3
ACAD_MLINESTYLE
350
702
  3
ACAD_PLOTSETTINGS
350
704
  3
ACAD_PLOTSTYLENAME
350
6B2
  3
ACAD_SCALELIST
350
6E6
  3
ACAD_SECTIONVIEWSTYLE
350
70B
  3
ACAD_TABLESTYLE
350
707
  3
ACAD_VISUALSTYLE
350
6CD
  3
ACDB_RECOMPOSE_DATA
350
74A
  3
AcDbVariableDictionary
350
73D
  3
DWGPROPS
350
74B
  0
DICTIONARY
  5
72D
330
6F8
100
AcDbDictionary
280
     1
281
     1
  3
ADSK_XREC_LAYER_RECONCILED
360
72E
  0
DICTIONARY
  5
72F
330
71B
100
AcDbDictionary
280
     1
281
     1
  3
ADSK_XREC_LAYER_RECONCILED
360
730
  0
DICTIONARY
  5
731
330
71C
100
AcDbDictionary
280
     1
281
     1
  3
ADSK_XREC_LAYER_RECONCILED
360
732
  0
DICTIONARY
  5
733
330
71D
100
AcDbDictionary
280
     1
281
     1
  3
ADSK_XREC_LAYER_RECONCILED
360
734
  0
DICTIONARY
  5
735
330
71E
100
AcDbDictionary
280
     1
281
     1
  3
ADSK_XREC_LAYER_RECONCILED
360
736
  0
DICTIONARY
  5
737
330
71F
100
AcDbDictionary
280
     1
281
     1
  3
ADSK_XREC_LAYER_RECONCILED
360
738
  0
DICTIONARY
  5
739
330
720
100
AcDbDictionary
280
     1
281
     1
  3
ADSK_XREC_LAYER_RECONCILED
360
73A
  0
DICTIONARY
  5
73B
330
721
100
AcDbDictionary
280
     1
281
     1
  3
ADSK_XREC_LAYER_RECONCILED
360
73C
  0
XRECORD
  5
72C
102
{ACAD_REACTORS
330
6B0
102
}
330
6B0
100
AcDbXrecord
280
     1
300
ACDLT
300
2014
300
ACDLT_F_S
  0
DICTIONARY
  5
706
102
{ACAD_REACTORS
330
6B0
102
}
330
6B0
100
AcDbDictionary
281
     1
  0
DICTIONARY
  5
70D
102
{ACAD_REACTORS
330
6B0
102
}
330
6B0
100
AcDbDictionary
281
     1
  3
Imperial24
350
70E
  0
DICTIONARY
  5
6B1
102
{ACAD_REACTORS
330
6B0
102
}
330
6B0
100
AcDbDictionary
281
     1
  0
DICTIONARY
  5
705
102
{ACAD_REACTORS
330
6B0
102
}
330
6B0
100
AcDbDictionary
281
     1
  3
Model
350
716
  3
レイアウト1
350
712
  0
DICTIONARY
  5
6B4
102
{ACAD_REACTORS
330
6B0
102
}
330
6B0
100
AcDbDictionary
281
     1
  3
ByBlock
350
6BD
  3
ByLayer
350
6B5
  3
Global
350
6C5
  0
DICTIONARY
  5
709
102
{ACAD_REACTORS
330
6B0
102
}
330
6B0
100
AcDbDictionary
281
     1
  3
Standard
350
70A
  0
DICTIONARY
  5
702
102
{ACAD_REACTORS
330
6B0
102
}
330
6B0
100
AcDbDictionary
281
     1
  3
Standard
350
703
  0
DICTIONARY
  5
704
102
{ACAD_REACTORS
330
6B0
102
}
330
6B0
100
AcDbDictionary
281
     1
  0
ACDBDICTIONARYWDFLT
  5
6B2
102
{ACAD_REACTORS
330
6B0
102
}
330
6B0
100
AcDbDictionary
281
     1
  3
Normal
350
6B3
100
AcDbDictionaryWithDefault
340
6B3
  0
DICTIONARY
  5
6E6
102
{ACAD_REACTORS
330
6B0
102
}
330
6B0
100
AcDbDictionary
281
     1
  3
A0
350
6E7
  3
A1
350
6E8
  3
A2
350
6E9
  3
A3
350
6EA
  3
A4
350
6EB
  3
A5
350
6EC
  3
A6
350
6ED
  3
A7
350
6EE
  3
A8
350
6EF
  3
A9
350
6F0
  3
B0
350
6F1
  3
B1
350
6F2
  3
B2
350
6F3
  3
B3
350
6F4
  3
B4
350
6F5
  3
B5
350
6F6
  3
B6
350
6F7
  0
DICTIONARY
  5
70B
102
{ACAD_REACTORS
330
6B0
102
}
330
6B0
100
AcDbDictionary
281
     1
  3
Imperial24
350
70C
  0
DICTIONARY
  5
707
102
{ACAD_REACTORS
330
6B0
102
}
330
6B0
100
AcDbDictionary
281
     1
  3
Standard
350
708
  0
DICTIONARY
  5
6CD
102
{ACAD_REACTORS
330
6B0
102
}
330
6B0
100
AcDbDictionary
281
     1
  3
2dWireframe
350
6D3
  3
Basic
350
6D2
  3
Brighten
350
6D9
  3
ColorChange
350
6DD
  3
Conceptual
350
6D6
  3
Dim
350
6D8
  3
EdgeColorOff
350
6E5
  3
Facepattern
350
6DC
  3
Flat
350
6CE
  3
FlatWithEdges
350
6CF
  3
Gouraud
350
6D0
  3
GouraudWithEdges
350
6D1
  3
Hidden
350
6D5
  3
JitterOff
350
6E3
  3
Linepattern
350
6DB
  3
OverhangOff
350
6E4
  3
Realistic
350
6D7
  3
Shaded
350
6E2
  3
Shaded with edges
350
6E1
  3
Shades of Gray
350
6DE
  3
Sketchy
350
6DF
  3
Thicken
350
6DA
  3
Wireframe
350
6D4
  3
X-Ray
350
6E0
  0
XRECORD
  5
74A
102
{ACAD_REACTORS
330
6B0
102
}
330
6B0
100
AcDbXrecord
280
     1
 90
        1
330
708
  0
DICTIONARY
  5
73D
102
{ACAD_REACTORS
330
6B0
102
}
330
6B0
100
AcDbDictionary
281
     1
  3
CANNOSCALE
350
742
  3
CMLEADERSTYLE
350
73F
  3
CTABLESTYLE
350
73E
  3
CVIEWDETAILSTYLE
350
740
  3
CVIEWSECTIONSTYLE
350
741
  3
DIMASSOC
350
745
  3
INDEXCTL
350
744
  3
SORTENTS
350
743
  3
XCLIPFRAME
350
746
  0
XRECORD
  5
74B
102
{ACAD_REACTORS
330
6B0
102
}
330
6B0
100
AcDbXrecord
280
     1
  1
DWGPROPS COOKIE
  2

  3

  4

  6

  7

  8
Yoshitsune
  9

300
=
301
=
302
=
303
=
304
=
305
=
306
=
307
=
308
=
309
=
 40
0.0057072453703704
 41
2456289.716491227
 42
2457192.701184201
  1

 90
        0
  0
XRECORD
  5
72E
102
{ACAD_REACTORS
330
72D
102
}
330
72D
100
AcDbXrecord
280
     1
290
     1
  0
XRECORD
  5
730
102
{ACAD_REACTORS
330
72F
102
}
330
72F
100
AcDbXrecord
280
     1
290
     1
  0
XRECORD
  5
732
102
{ACAD_REACTORS
330
731
102
}
330
731
100
AcDbXrecord
280
     1
290
     1
  0
XRECORD
  5
734
102
{ACAD_REACTORS
330
733
102
}
330
733
100
AcDbXrecord
280
     1
290
     1
  0
XRECORD
  5
736
102
{ACAD_REACTORS
330
735
102
}
330
735
100
AcDbXrecord
280
     1
290
     1
  0
XRECORD
  5
738
102
{ACAD_REACTORS
330
737
102
}
330
737
100
AcDbXrecord
280
     1
290
     1
  0
XRECORD
  5
73A
102
{ACAD_REACTORS
330
739
102
}
330
739
100
AcDbXrecord
280
     1
290
     1
  0
XRECORD
  5
73C
102
{ACAD_REACTORS
330
73B
102
}
330
73B
100
AcDbXrecord
280
     1
290
     1
  0
ACDBDETAILVIEWSTYLE
  5
70E
102
{ACAD_XDICTIONARY
360
783
102
}
102
{ACAD_REACTORS
330
70D
102
}
330
70D
100
AcDbModelDocViewStyle
 70
     0
  3
Imperial24
290
     0
100
AcDbDetailViewStyle
 70
     0
 71
     0
 90
        3
 71
     1
340
6F9
 40
0.24
340
0
 40
0.24
300

 40
0.36
280
     3
 71
     2
340
700
 90
       25
 71
     3
340
6F9
 40
0.24
 90
        1
 40
0.75
 90
        1
300
%<\AcVar ViewType \f "%tc1">% %<\AcVar ViewDetailId>%\PSCALE %<\AcVar ViewScale \f "%sn">%
 71
     4
340
700
 90
       25
340
700
 90
       25
280
     0
  0
LAYOUT
  5
716
102
{ACAD_XDICTIONARY
360
787
102
}
102
{ACAD_REACTORS
330
705
102
}
330
705
100
AcDbPlotSettings
  1

  2
Canon LBP9100C
  4

  6

 40
0.0
 41
0.0
 42
0.0
 43
0.0
 44
0.0
 45
0.0
 46
0.0
 47
0.0
 48
0.0
 49
0.0
140
0.0
141
0.0
142
1.0
143
1.0
 70
  1712
 72
     0
 73
     0
 74
     0
  7

 75
     0
147
1.0
148
0.0
149
0.0
100
AcDbLayout
  1
Model
 70
     1
 71
     0
 10
0.0
 20
0.0
 11
12.0
 21
9.0
 12
0.0
 22
0.0
 32
0.0
 14
0.0
 24
0.0
 34
0.0
 15
0.0
 25
0.0
 35
0.0
146
0.0
 13
0.0
 23
0.0
 33
0.0
 16
1.0
 26
0.0
 36
0.0
 17
0.0
 27
1.0
 37
0.0
 76
     0
330
713
331
717
  0
LAYOUT
  5
712
102
{ACAD_XDICTIONARY
360
785
102
}
102
{ACAD_REACTORS
330
705
102
}
330
705
100
AcDbPlotSettings
  1

  2
Canon LBP9100C
  4

  6

 40
0.0
 41
0.0
 42
0.0
 43
0.0
 44
0.0
 45
0.0
 46
0.0
 47
0.0
 48
0.0
 49
0.0
140
0.0
141
0.0
142
1.0
143
1.0
 70
   688
 72
     0
 73
     0
 74
     5
  7

 75
    16
147
1.0
148
0.0
149
0.0
100
AcDbLayout
  1
レイアウト1
 70
     1
 71
     1
 10
0.0
 20
0.0
 11
420.0
 21
297.0
 12
0.0
 22
0.0
 32
0.0
 14
1.000000000000000E+20
 24
1.000000000000000E+20
 34
1.000000000000000E+20
 15
-1.000000000000000E+20
 25
-1.000000000000000E+20
 35
-1.000000000000000E+20
146
0.0
 13
0.0
 23
0.0
 33
0.0
 16
1.0
 26
0.0
 36
0.0
 17
0.0
 27
1.0
 37
0.0
 76
     0
330
70F
  0
MATERIAL
  5
6BD
102
{ACAD_XDICTIONARY
360
6BE
102
}
102
{ACAD_REACTORS
330
6B4
102
}
330
6B4
100
AcDbMaterial
  1
ByBlock
 72
     0
 43
0.0208333333333333
 43
0.0
 43
0.0
 43
0.0
 43
0.0
 43
0.0208333333333333
 43
0.0
 43
0.0
 43
0.0
 43
0.0
 43
1.0
 43
0.0
 43
0.0
 43
0.0
 43
0.0
 43
1.0
 77
     0
 47
0.0208333333333333
 47
0.0
 47
0.0
 47
0.0
 47
0.0
 47
0.0208333333333333
 47
0.0
 47
0.0
 47
0.0
 47
0.0
 47
1.0
 47
0.0
 47
0.0
 47
0.0
 47
0.0
 47
1.0
171
     0
 49
0.0208333333333333
 49
0.0
 49
0.0
 49
0.0
 49
0.0
 49
0.0208333333333333
 49
0.0
 49
0.0
 49
0.0
 49
0.0
 49
1.0
 49
0.0
 49
0.0
 49
0.0
 49
0.0
 49
1.0
175
     0
142
0.0208333333333333
142
0.0
142
0.0
142
0.0
142
0.0
142
0.0208333333333333
142
0.0
142
0.0
142
0.0
142
0.0
142
1.0
142
0.0
142
0.0
142
0.0
142
0.0
142
1.0
179
     0
144
0.0208333333333333
144
0.0
144
0.0
144
0.0
144
0.0
144
0.0208333333333333
144
0.0
144
0.0
144
0.0
144
0.0
144
1.0
144
0.0
144
0.0
144
0.0
144
0.0
144
1.0
147
0.0208333333333333
147
0.0
147
0.0
147
0.0
147
0.0
147
0.0208333333333333
147
0.0
147
0.0
147
0.0
147
0.0
147
1.0
147
0.0
147
0.0
147
0.0
147
0.0
147
1.0
  0
MATERIAL
  5
6B5
102
{ACAD_XDICTIONARY
360
6B6
102
}
102
{ACAD_REACTORS
330
6B4
102
}
330
6B4
100
AcDbMaterial
  1
ByLayer
 72
     0
 43
0.0208333333333333
 43
0.0
 43
0.0
 43
0.0
 43
0.0
 43
0.0208333333333333
 43
0.0
 43
0.0
 43
0.0
 43
0.0
 43
1.0
 43
0.0
 43
0.0
 43
0.0
 43
0.0
 43
1.0
 77
     0
 47
0.0208333333333333
 47
0.0
 47
0.0
 47
0.0
 47
0.0
 47
0.0208333333333333
 47
0.0
 47
0.0
 47
0.0
 47
0.0
 47
1.0
 47
0.0
 47
0.0
 47
0.0
 47
0.0
 47
1.0
171
     0
 49
0.0208333333333333
 49
0.0
 49
0.0
 49
0.0
 49
0.0
 49
0.0208333333333333
 49
0.0
 49
0.0
 49
0.0
 49
0.0
 49
1.0
 49
0.0
 49
0.0
 49
0.0
 49
0.0
 49
1.0
175
     0
142
0.0208333333333333
142
0.0
142
0.0
142
0.0
142
0.0
142
0.0208333333333333
142
0.0
142
0.0
142
0.0
142
0.0
142
1.0
142
0.0
142
0.0
142
0.0
142
0.0
142
1.0
179
     0
144
0.0208333333333333
144
0.0
144
0.0
144
0.0
144
0.0
144
0.0208333333333333
144
0.0
144
0.0
144
0.0
144
0.0
144
1.0
144
0.0
144
0.0
144
0.0
144
0.0
144
1.0
147
0.0208333333333333
147
0.0
147
0.0
147
0.0
147
0.0
147
0.0208333333333333
147
0.0
147
0.0
147
0.0
147
0.0
147
1.0
147
0.0
147
0.0
147
0.0
147
0.0
147
1.0
  0
MATERIAL
  5
6C5
102
{ACAD_XDICTIONARY
360
6C6
102
}
102
{ACAD_REACTORS
330
6B4
102
}
330
6B4
100
AcDbMaterial
  1
Global
 72
     0
 43
0.0208333333333333
 43
0.0
 43
0.0
 43
0.0
 43
0.0
 43
0.0208333333333333
 43
0.0
 43
0.0
 43
0.0
 43
0.0
 43
1.0
 43
0.0
 43
0.0
 43
0.0
 43
0.0
 43
1.0
 77
     0
 47
0.0208333333333333
 47
0.0
 47
0.0
 47
0.0
 47
0.0
 47
0.0208333333333333
 47
0.0
 47
0.0
 47
0.0
 47
0.0
 47
1.0
 47
0.0
 47
0.0
 47
0.0
 47
0.0
 47
1.0
171
     0
 49
0.0208333333333333
 49
0.0
 49
0.0
 49
0.0
 49
0.0
 49
0.0208333333333333
 49
0.0
 49
0.0
 49
0.0
 49
0.0
 49
1.0
 49
0.0
 49
0.0
 49
0.0
 49
0.0
 49
1.0
175
     0
142
0.0208333333333333
142
0.0
142
0.0
142
0.0
142
0.0
142
0.0208333333333333
142
0.0
142
0.0
142
0.0
142
0.0
142
1.0
142
0.0
142
0.0
142
0.0
142
0.0
142
1.0
179
     0
144
0.0208333333333333
144
0.0
144
0.0
144
0.0
144
0.0
144
0.0208333333333333
144
0.0
144
0.0
144
0.0
144
0.0
144
1.0
144
0.0
144
0.0
144
0.0
144
0.0
144
1.0
147
0.0208333333333333
147
0.0
147
0.0
147
0.0
147
0.0
147
0.0208333333333333
147
0.0
147
0.0
147
0.0
147
0.0
147
1.0
147
0.0
147
0.0
147
0.0
147
0.0
147
1.0
  0
MLEADERSTYLE
  5
70A
102
{ACAD_REACTORS
330
709
102
}
330
709
100
AcDbMLeaderStyle
170
     2
171
     1
172
     0
 90
        2
 40
0.0
 41
0.0
173
     1
 91
-1056964608
340
6FE
 92
       -2
290
     1
 42
0.09
291
     1
 43
0.36
  3
Standard
 44
0.18
300

342
6F9
174
     1
178
     6
175
     1
176
     0
 93
-1056964608
 45
0.18
292
     0
297
     0
 46
0.18
 94
-1056964608
 47
1.0
 49
1.0
140
1.0
293
     1
141
0.0
294
     1
177
     0
142
1.0
295
     0
296
     0
143
0.125
1001
ACAD_MLEADERVER
1070
     2
  0
MLINESTYLE
  5
703
102
{ACAD_REACTORS
330
702
102
}
330
702
100
AcDbMlineStyle
  2
STANDARD
 70
     0
  3

 62
   256
 51
90.0
 52
90.0
 71
     2
 49
0.5
 62
   256
  6
BYLAYER
 49
-0.5
 62
   256
  6
BYLAYER
  0
ACDBPLACEHOLDER
  5
6B3
102
{ACAD_REACTORS
330
6B2
102
}
330
6B2
  0
SCALE
  5
6E7
102
{ACAD_REACTORS
330
6E6
102
}
330
6E6
100
AcDbScale
 70
     0
300
1:1
140
1.0
141
1.0
290
     1
  0
SCALE
  5
6E8
102
{ACAD_REACTORS
330
6E6
102
}
330
6E6
100
AcDbScale
 70
     0
300
1/128" = 1'-0"
140
0.0078125
141
12.0
290
     0
  0
SCALE
  5
6E9
102
{ACAD_REACTORS
330
6E6
102
}
330
6E6
100
AcDbScale
 70
     0
300
1/64" = 1'-0"
140
0.015625
141
12.0
290
     0
  0
SCALE
  5
6EA
102
{ACAD_REACTORS
330
6E6
102
}
330
6E6
100
AcDbScale
 70
     0
300
1/32" = 1'-0"
140
0.03125
141
12.0
290
     0
  0
SCALE
  5
6EB
102
{ACAD_REACTORS
330
6E6
102
}
330
6E6
100
AcDbScale
 70
     0
300
1/16" = 1'-0"
140
0.0625
141
12.0
290
     0
  0
SCALE
  5
6EC
102
{ACAD_REACTORS
330
6E6
102
}
330
6E6
100
AcDbScale
 70
     0
300
3/32" = 1'-0"
140
0.09375
141
12.0
290
     0
  0
SCALE
  5
6ED
102
{ACAD_REACTORS
330
6E6
102
}
330
6E6
100
AcDbScale
 70
     0
300
1/8" = 1'-0"
140
0.125
141
12.0
290
     0
  0
SCALE
  5
6EE
102
{ACAD_REACTORS
330
6E6
102
}
330
6E6
100
AcDbScale
 70
     0
300
3/16" = 1'-0"
140
0.1875
141
12.0
290
     0
  0
SCALE
  5
6EF
102
{ACAD_REACTORS
330
6E6
102
}
330
6E6
100
AcDbScale
 70
     0
300
1/4" = 1'-0"
140
0.25
141
12.0
290
     0
  0
SCALE
  5
6F0
102
{ACAD_REACTORS
330
6E6
102
}
330
6E6
100
AcDbScale
 70
     0
300
3/8" = 1'-0"
140
0.375
141
12.0
290
     0
  0
SCALE
  5
6F1
102
{ACAD_REACTORS
330
6E6
102
}
330
6E6
100
AcDbScale
 70
     0
300
1/2" = 1'-0"
140
0.5
141
12.0
290
     0
  0
SCALE
  5
6F2
102
{ACAD_REACTORS
330
6E6
102
}
330
6E6
100
AcDbScale
 70
     0
300
3/4" = 1'-0"
140
0.75
141
12.0
290
     0
  0
SCALE
  5
6F3
102
{ACAD_REACTORS
330
6E6
102
}
330
6E6
100
AcDbScale
 70
     0
300
1" = 1'-0"
140
1.0
141
12.0
290
     0
  0
SCALE
  5
6F4
102
{ACAD_REACTORS
330
6E6
102
}
330
6E6
100
AcDbScale
 70
     0
300
1-1/2" = 1'-0"
140
1.5
141
12.0
290
     0
  0
SCALE
  5
6F5
102
{ACAD_REACTORS
330
6E6
102
}
330
6E6
100
AcDbScale
 70
     0
300
3" = 1'-0"
140
3.0
141
12.0
290
     0
  0
SCALE
  5
6F6
102
{ACAD_REACTORS
330
6E6
102
}
330
6E6
100
AcDbScale
 70
     0
300
6" = 1'-0"
140
6.0
141
12.0
290
     0
  0
SCALE
  5
6F7
102
{ACAD_REACTORS
330
6E6
102
}
330
6E6
100
AcDbScale
 70
     0
300
1'-0" = 1'-0"
140
12.0
141
12.0
290
     0
  0
ACDBSECTIONVIEWSTYLE
  5
70C
102
{ACAD_XDICTIONARY
360
781
102
}
102
{ACAD_REACTORS
330
70B
102
}
330
70B
100
AcDbModelDocViewStyle
 70
     0
  3
Imperial24
290
     0
100
AcDbSectionViewStyle
 70
     0
 71
     0
 90
       78
 71
     1
340
6F9
 40
0.24
340
0
340
0
 40
0.24
300
I, O, Q, S, X, Z
 40
0.48
 90
        3
 40
0.18
 90
        1
 71
     2
340
700
 90
       25
340
700
 90
       50
 40
0.24
 40
0.0
 40
0.24
 71
     3
340
6F9
 40
0.24
 90
        1
 40
0.75
 90
        1
300
%<\AcVar ViewType \f "%tc1">% %<\AcVar ViewSectionStartId>%-%<\AcVar ViewSectionEndId>%\PSCALE %<\AcVar ViewScale \f "%sn">%
 71
     4
300
ANSI31
 40
1.0
 90
        0
290
     0
290
     0
 90
        6
 40
0.0
 40
1.570796326794896
 40
0.2617993877991494
 40
1.308996938995747
 40
-0.2617993877991494
 40
1.832595714594046
  0
TABLESTYLE
  5
708
102
{ACAD_XDICTIONARY
360
748
102
}
102
{ACAD_REACTORS
330
707
102
}
330
707
100
AcDbTableStyle
  3
Standard
 70
     0
 71
     0
 40
0.06
 41
0.06
280
     0
281
     0
  7
STANDARD
140
0.18
170
     2
 62
     0
 63
     7
283
     0
274
    -2
284
     1
 64
     0
275
    -2
285
     1
 65
     0
276
    -2
286
     1
 66
     0
277
    -2
287
     1
 67
     0
278
    -2
288
     1
 68
     0
279
    -2
289
     1
 69
     0
  7
STANDARD
140
0.25
170
     5
 62
     0
 63
     7
283
     0
274
    -2
284
     1
 64
     0
275
    -2
285
     1
 65
     0
276
    -2
286
     1
 66
     0
277
    -2
287
     1
 67
     0
278
    -2
288
     1
 68
     0
279
    -2
289
     1
 69
     0
  7
STANDARD
140
0.18
170
     5
 62
     0
 63
     7
283
     0
274
    -2
284
     1
 64
     0
275
    -2
285
     1
 65
     0
276
    -2
286
     1
 66
     0
277
    -2
287
     1
 67
     0
278
    -2
288
     1
 68
     0
279
    -2
289
     1
 69
     0
  0
VISUALSTYLE
  5
6D3
102
{ACAD_XDICTIONARY
360
759
102
}
102
{ACAD_REACTORS
330
6CD
102
}
330
6CD
100
AcDbVisualStyle
  2
2dWireframe
 70
     4
 71
     0
 72
     2
 73
     0
 90
        0
 40
-0.6
 41
-30.0
 62
     5
 63
     7
 74
     1
 91
        4
 64
     7
 65
   257
 75
     1
175
     1
 42
1.0
 92
        0
 66
   257
 43
1.0
 76
     1
 77
     6
 78
     2
 67
     7
 79
     5
170
     0
171
     0
290
     0
174
     0
 93
        1
 44
0.0
173
     0
291
     0
 45
0.0
1001
ACAD
1000
AcDbSavedByObjectVersion
1070
     0
  0
VISUALSTYLE
  5
6D2
102
{ACAD_XDICTIONARY
360
757
102
}
102
{ACAD_REACTORS
330
6CD
102
}
330
6CD
100
AcDbVisualStyle
  2
Basic
 70
     7
 71
     1
 72
     0
 73
     1
 90
        0
 40
-0.6
 41
-30.0
 62
     5
 63
     7
 74
     0
 91
        4
 64
     7
 65
   257
 75
     1
175
     1
 42
1.0
 92
        8
 66
     7
 43
1.0
 76
     1
 77
     6
 78
     2
 67
     7
 79
     5
170
     0
171
     0
290
     0
174
     0
 93
        1
 44
0.0
173
     0
291
     1
 45
0.0
1001
ACAD
1000
AcDbSavedByObjectVersion
1070
     0
  0
VISUALSTYLE
  5
6D9
102
{ACAD_XDICTIONARY
360
765
102
}
102
{ACAD_REACTORS
330
6CD
102
}
330
6CD
100
AcDbVisualStyle
  2
Brighten
 70
    12
 71
     2
 72
     2
 73
     0
 90
        0
 40
-0.6
 41
-30.0
 62
     5
 63
     7
 74
     1
 91
        4
 64
     7
 65
   257
 75
     1
175
     1
 42
1.0
 92
        8
 66
     7
 43
1.0
 76
     1
 77
     6
 78
     2
 67
     7
 79
     5
170
     0
171
     0
290
     0
174
     0
 93
        1
 44
50.0
173
     0
291
     1
 45
0.0
1001
ACAD
1000
AcDbSavedByObjectVersion
1070
     0
  0
VISUALSTYLE
  5
6DD
102
{ACAD_XDICTIONARY
360
76D
102
}
102
{ACAD_REACTORS
330
6CD
102
}
330
6CD
100
AcDbVisualStyle
  2
ColorChange
 70
    16
 71
     2
 72
     2
 73
     3
 90
        0
 40
-0.6
 41
-30.0
 62
     5
 63
     8
 74
     1
 91
        4
 64
     7
 65
   257
 75
     1
175
     1
 42
1.0
 92
        8
 66
     8
 43
1.0
 76
     1
 77
     6
 78
     2
 67
     7
 79
     5
170
     0
171
     0
290
     0
174
     0
 93
        1
 44
0.0
173
     0
291
     1
 45
0.0
1001
ACAD
1000
AcDbSavedByObjectVersion
1070
     0
  0
VISUALSTYLE
  5
6D6
102
{ACAD_XDICTIONARY
360
75F
102
}
102
{ACAD_REACTORS
330
6CD
102
}
330
6CD
100
AcDbVisualStyle
  2
Conceptual
 70
     9
 71
     3
 72
     2
 73
     0
 90
        0
 40
-0.6
 41
-30.0
 62
     5
 63
     7
 74
     2
 91
        2
 64
     7
 65
   257
 75
     1
175
     1
 42
179.0
 92
        8
 66
     7
 43
1.0
 76
     1
 77
     6
 78
     2
 67
     7
 79
     3
170
     0
171
     0
290
     0
174
     0
 93
        1
 44
0.0
173
     0
291
     0
 45
0.0
1001
ACAD
1000
AcDbSavedByObjectVersion
1070
     0
  0
VISUALSTYLE
  5
6D8
102
{ACAD_XDICTIONARY
360
763
102
}
102
{ACAD_REACTORS
330
6CD
102
}
330
6CD
100
AcDbVisualStyle
  2
Dim
 70
    11
 71
     2
 72
     2
 73
     0
 90
        0
 40
-0.6
 41
-30.0
 62
     5
 63
     7
 74
     1
 91
        4
 64
     7
 65
   257
 75
     1
175
     1
 42
1.0
 92
        8
 66
     7
 43
1.0
 76
     1
 77
     6
 78
     2
 67
     7
 79
     5
170
     0
171
     0
290
     0
174
     0
 93
        1
 44
-50.0
173
     0
291
     1
 45
0.0
1001
ACAD
1000
AcDbSavedByObjectVersion
1070
     0
  0
VISUALSTYLE
  5
6E5
102
{ACAD_XDICTIONARY
360
77D
102
}
102
{ACAD_REACTORS
330
6CD
102
}
330
6CD
100
AcDbVisualStyle
  2
EdgeColorOff
 70
    22
 71
     2
 72
     2
 73
     0
 90
        0
 40
-0.6
 41
-30.0
 62
     5
 63
     7
 74
     1
 91
        4
 64
     7
 65
   257
 75
     1
175
     1
 42
1.0
 92
        8
 66
     7
 43
1.0
 76
     1
 77
     6
 78
     2
 67
     7
 79
     5
170
     0
171
     0
290
     0
174
     0
 93
        1
 44
0.0
173
     0
291
     1
 45
0.0
1001
ACAD
1000
AcDbSavedByObjectVersion
1070
     0
  0
VISUALSTYLE
  5
6DC
102
{ACAD_XDICTIONARY
360
76B
102
}
102
{ACAD_REACTORS
330
6CD
102
}
330
6CD
100
AcDbVisualStyle
  2
Facepattern
 70
    15
 71
     2
 72
     2
 73
     0
 90
        0
 40
-0.6
 41
-30.0
 62
     5
 63
     7
 74
     1
 91
        4
 64
     7
 65
   257
 75
     1
175
     1
 42
1.0
 92
        8
 66
     7
 43
1.0
 76
     1
 77
     6
 78
     2
 67
     7
 79
     5
170
     0
171
     0
290
     0
174
     0
 93
        1
 44
0.0
173
     0
291
     1
 45
0.0
1001
ACAD
1000
AcDbSavedByObjectVersion
1070
     0
  0
VISUALSTYLE
  5
6CE
102
{ACAD_XDICTIONARY
360
74F
102
}
102
{ACAD_REACTORS
330
6CD
102
}
330
6CD
100
AcDbVisualStyle
  2
Flat
 70
     0
 71
     2
 72
     1
 73
     1
 90
        2
 40
-0.6
 41
30.0
 62
     5
 63
     7
 74
     0
 91
        0
 64
     7
 65
   257
 75
     1
175
     1
 42
1.0
 92
        8
 66
     7
 43
1.0
 76
     1
 77
     6
 78
     2
 67
     7
 79
     5
170
     0
171
     0
290
     0
174
     0
 93
       13
 44
0.0
173
     0
291
     1
 45
0.0
1001
ACAD
1000
AcDbSavedByObjectVersion
1070
     0
  0
VISUALSTYLE
  5
6CF
102
{ACAD_XDICTIONARY
360
751
102
}
102
{ACAD_REACTORS
330
6CD
102
}
330
6CD
100
AcDbVisualStyle
  2
FlatWithEdges
 70
     1
 71
     2
 72
     1
 73
     1
 90
        2
 40
-0.6
 41
30.0
 62
     5
 63
     7
 74
     1
 91
        0
 64
     7
 65
   257
 75
     1
175
     1
 42
1.0
 92
        0
 66
   257
 43
1.0
 76
     1
 77
     6
 78
     2
 67
     7
 79
     5
170
     0
171
     0
290
     0
174
     0
 93
       13
 44
0.0
173
     0
291
     1
 45
0.0
1001
ACAD
1000
AcDbSavedByObjectVersion
1070
     0
  0
VISUALSTYLE
  5
6D0
102
{ACAD_XDICTIONARY
360
753
102
}
102
{ACAD_REACTORS
330
6CD
102
}
330
6CD
100
AcDbVisualStyle
  2
Gouraud
 70
     2
 71
     2
 72
     2
 73
     1
 90
        2
 40
-0.6
 41
30.0
 62
     5
 63
     7
 74
     0
 91
        0
 64
     7
 65
   257
 75
     1
175
     1
 42
1.0
 92
        0
 66
     7
 43
1.0
 76
     1
 77
     6
 78
     2
 67
     7
 79
     5
170
     0
171
     0
290
     0
174
     0
 93
       13
 44
0.0
173
     0
291
     1
 45
0.0
1001
ACAD
1000
AcDbSavedByObjectVersion
1070
     0
  0
VISUALSTYLE
  5
6D1
102
{ACAD_XDICTIONARY
360
755
102
}
102
{ACAD_REACTORS
330
6CD
102
}
330
6CD
100
AcDbVisualStyle
  2
GouraudWithEdges
 70
     3
 71
     2
 72
     2
 73
     1
 90
        2
 40
-0.6
 41
30.0
 62
     5
 63
     7
 74
     1
 91
        0
 64
     7
 65
   257
 75
     1
175
     1
 42
1.0
 92
        0
 66
   257
 43
1.0
 76
     1
 77
     6
 78
     2
 67
     7
 79
     5
170
     0
171
     0
290
     0
174
     0
 93
       13
 44
0.0
173
     0
291
     1
 45
0.0
1001
ACAD
1000
AcDbSavedByObjectVersion
1070
     0
  0
VISUALSTYLE
  5
6D5
102
{ACAD_XDICTIONARY
360
75D
102
}
102
{ACAD_REACTORS
330
6CD
102
}
330
6CD
100
AcDbVisualStyle
  2
Hidden
 70
     6
 71
     1
 72
     2
 73
     2
 90
        0
 40
-0.6
 41
-30.0
 62
     5
 63
     7
 74
     2
 91
        2
 64
     7
 65
   257
 75
     2
175
     1
 42
40.0
 92
        0
 66
   257
 43
1.0
 76
     1
 77
     6
 78
     2
 67
     7
 79
     3
170
     0
171
     0
290
     0
174
     0
 93
        1
 44
0.0
173
     0
291
     0
 45
0.0
1001
ACAD
1000
AcDbSavedByObjectVersion
1070
     0
  0
VISUALSTYLE
  5
6E3
102
{ACAD_XDICTIONARY
360
779
102
}
102
{ACAD_REACTORS
330
6CD
102
}
330
6CD
100
AcDbVisualStyle
  2
JitterOff
 70
    20
 71
     2
 72
     2
 73
     0
 90
        0
 40
-0.6
 41
-30.0
 62
     5
 63
     7
 74
     1
 91
        4
 64
     7
 65
   257
 75
     1
175
     1
 42
1.0
 92
       10
 66
     7
 43
1.0
 76
     1
 77
     6
 78
     2
 67
     7
 79
     5
170
     0
171
     0
290
     0
174
     0
 93
        1
 44
0.0
173
     0
291
     1
 45
0.0
1001
ACAD
1000
AcDbSavedByObjectVersion
1070
     0
  0
VISUALSTYLE
  5
6DB
102
{ACAD_XDICTIONARY
360
769
102
}
102
{ACAD_REACTORS
330
6CD
102
}
330
6CD
100
AcDbVisualStyle
  2
Linepattern
 70
    14
 71
     2
 72
     2
 73
     0
 90
        0
 40
-0.6
 41
-30.0
 62
     5
 63
     7
 74
     1
 91
        4
 64
     7
 65
   257
 75
     7
175
     7
 42
1.0
 92
        8
 66
     7
 43
1.0
 76
     1
 77
     6
 78
     2
 67
     7
 79
     5
170
     0
171
     0
290
     0
174
     0
 93
        1
 44
0.0
173
     0
291
     1
 45
0.0
1001
ACAD
1000
AcDbSavedByObjectVersion
1070
     0
  0
VISUALSTYLE
  5
6E4
102
{ACAD_XDICTIONARY
360
77B
102
}
102
{ACAD_REACTORS
330
6CD
102
}
330
6CD
100
AcDbVisualStyle
  2
OverhangOff
 70
    21
 71
     2
 72
     2
 73
     0
 90
        0
 40
-0.6
 41
-30.0
 62
     5
 63
     7
 74
     1
 91
        4
 64
     7
 65
   257
 75
     1
175
     1
 42
1.0
 92
        9
 66
     7
 43
1.0
 76
     1
 77
     6
 78
     2
 67
     7
 79
     5
170
     0
171
     0
290
     0
174
     0
 93
        1
 44
0.0
173
     0
291
     1
 45
0.0
1001
ACAD
1000
AcDbSavedByObjectVersion
1070
     0
  0
VISUALSTYLE
  5
6D7
102
{ACAD_XDICTIONARY
360
761
102
}
102
{ACAD_REACTORS
330
6CD
102
}
330
6CD
100
AcDbVisualStyle
  2
Realistic
 70
     8
 71
     2
 72
     3
 73
     0
 90
        2
 40
-0.6
 41
30.0
 62
     5
 63
     7
 74
     0
 91
        0
 64
     7
 65
   257
 75
     1
175
     1
 42
1.0
 92
        8
 66
   257
 43
1.0
 76
     1
 77
     6
 78
     2
 67
     7
 79
     3
170
     0
171
     0
290
     0
174
     0
 93
       13
 44
0.0
173
     0
291
     0
 45
0.0
1001
ACAD
1000
AcDbSavedByObjectVersion
1070
     0
  0
VISUALSTYLE
  5
6E2
102
{ACAD_XDICTIONARY
360
777
102
}
102
{ACAD_REACTORS
330
6CD
102
}
330
6CD
100
AcDbVisualStyle
  2
Shaded
 70
    27
 71
     2
 72
     2
 73
     1
 90
        2
 40
-0.6
 41
30.0
 62
     5
 63
     7
 74
     0
 91
        4
 64
     7
 65
   257
 75
     1
175
     1
 42
1.0
 92
        8
 66
   257
 43
1.0
 76
     1
 77
     6
 78
     2
 67
     8
 79
     3
170
     0
171
     0
290
     0
174
     0
 93
        5
 44
0.0
173
     0
291
     0
 45
0.0
1001
ACAD
1000
AcDbSavedByObjectVersion
1070
     0
  0
VISUALSTYLE
  5
6E1
102
{ACAD_XDICTIONARY
360
775
102
}
102
{ACAD_REACTORS
330
6CD
102
}
330
6CD
100
AcDbVisualStyle
  2
Shaded with edges
 70
    26
 71
     2
 72
     2
 73
     1
 90
        2
 40
-0.6
 41
30.0
 62
     5
 63
     7
 74
     1
 91
       10
 64
     7
 65
   257
 75
     2
175
     1
 42
1.0
 92
        8
 66
   257
 43
1.0
 76
     1
 77
     6
 78
     2
 67
     7
 79
     3
170
     0
171
     0
290
     0
174
     0
 93
        5
 44
0.0
173
     0
291
     0
 45
0.0
1001
ACAD
1000
AcDbSavedByObjectVersion
1070
     0
  0
VISUALSTYLE
  5
6DE
102
{ACAD_XDICTIONARY
360
76F
102
}
102
{ACAD_REACTORS
330
6CD
102
}
330
6CD
100
AcDbVisualStyle
  2
Shades of Gray
 70
    23
 71
     2
 72
     2
 73
     3
 90
        0
 40
-0.6
 41
-30.0
 62
     5
 63
     7
 74
     2
 91
        2
 64
     7
 65
     7
 75
     1
175
     1
 42
40.0
 92
        8
 66
     7
 43
1.0
 76
     1
 77
     6
 78
     2
 67
     7
 79
     3
170
     0
171
     0
290
     0
174
     0
 93
        1
 44
0.0
173
     0
291
     0
 45
0.0
1001
ACAD
1000
AcDbSavedByObjectVersion
1070
     0
  0
VISUALSTYLE
  5
6DF
102
{ACAD_XDICTIONARY
360
771
102
}
102
{ACAD_REACTORS
330
6CD
102
}
330
6CD
100
AcDbVisualStyle
  2
Sketchy
 70
    24
 71
     1
 72
     2
 73
     2
 90
        0
 40
-0.6
 41
-30.0
 62
     5
 63
     7
 74
     2
 91
        2
 64
     7
 65
     7
 75
     1
175
     1
 42
40.0
 92
       11
 66
     7
 43
1.0
 76
     1
 77
     6
 78
     2
 67
     7
 79
     6
170
     0
171
     0
290
     0
174
     0
 93
        1
 44
0.0
173
     0
291
     0
 45
0.0
1001
ACAD
1000
AcDbSavedByObjectVersion
1070
     0
  0
VISUALSTYLE
  5
6DA
102
{ACAD_XDICTIONARY
360
767
102
}
102
{ACAD_REACTORS
330
6CD
102
}
330
6CD
100
AcDbVisualStyle
  2
Thicken
 70
    13
 71
     2
 72
     2
 73
     0
 90
        0
 40
-0.6
 41
-30.0
 62
     5
 63
     7
 74
     1
 91
        4
 64
     7
 65
   257
 75
     1
175
     1
 42
1.0
 92
       12
 66
     7
 43
1.0
 76
     1
 77
     6
 78
     2
 67
     7
 79
     5
170
     0
171
     0
290
     0
174
     0
 93
        1
 44
0.0
173
     0
291
     1
 45
0.0
1001
ACAD
1000
AcDbSavedByObjectVersion
1070
     0
  0
VISUALSTYLE
  5
6D4
102
{ACAD_XDICTIONARY
360
75B
102
}
102
{ACAD_REACTORS
330
6CD
102
}
330
6CD
100
AcDbVisualStyle
  2
Wireframe
 70
     5
 71
     0
 72
     2
 73
     0
 90
        0
 40
-0.6
 41
-30.0
 62
     5
 63
     7
 74
     1
 91
        4
 64
     7
 65
   257
 75
     1
175
     1
 42
1.0
 92
        0
 66
   257
 43
1.0
 76
     1
 77
     6
 78
     2
 67
     7
 79
     3
170
     0
171
     0
290
     0
174
     0
 93
        1
 44
0.0
173
     0
291
     0
 45
0.0
1001
ACAD
1000
AcDbSavedByObjectVersion
1070
     0
  0
VISUALSTYLE
  5
6E0
102
{ACAD_XDICTIONARY
360
773
102
}
102
{ACAD_REACTORS
330
6CD
102
}
330
6CD
100
AcDbVisualStyle
  2
X-Ray
 70
    25
 71
     2
 72
     2
 73
     1
 90
        1
 40
0.5
 41
-30.0
 62
     5
 63
     7
 74
     1
 91
        0
 64
     7
 65
   257
 75
     1
175
     1
 42
1.0
 92
        8
 66
     7
 43
1.0
 76
     1
 77
     6
 78
     2
 67
     7
 79
     3
170
     0
171
     0
290
     0
174
     0
 93
       13
 44
0.0
173
     0
291
     0
 45
0.0
1001
ACAD
1000
AcDbSavedByObjectVersion
1070
     0
  0
DICTIONARYVAR
  5
742
102
{ACAD_REACTORS
330
73D
102
}
330
73D
100
DictionaryVariables
280
     0
  1
1:1
  0
DICTIONARYVAR
  5
73F
102
{ACAD_REACTORS
330
73D
102
}
330
73D
100
DictionaryVariables
280
     0
  1
STANDARD
  0
DICTIONARYVAR
  5
73E
102
{ACAD_REACTORS
330
73D
102
}
330
73D
100
DictionaryVariables
280
     0
  1
STANDARD
  0
DICTIONARYVAR
  5
740
102
{ACAD_REACTORS
330
73D
102
}
330
73D
100
DictionaryVariables
280
     0
  1
Imperial24
  0
DICTIONARYVAR
  5
741
102
{ACAD_REACTORS
330
73D
102
}
330
73D
100
DictionaryVariables
280
     0
  1
Imperial24
  0
DICTIONARYVAR
  5
745
102
{ACAD_REACTORS
330
73D
102
}
330
73D
100
DictionaryVariables
280
     0
  1
1
  0
DICTIONARYVAR
  5
744
102
{ACAD_REACTORS
330
73D
102
}
330
73D
100
DictionaryVariables
280
     0
  1
0
  0
DICTIONARYVAR
  5
743
102
{ACAD_REACTORS
330
73D
102
}
330
73D
100
DictionaryVariables
280
     0
  1
127
  0
DICTIONARYVAR
  5
746
102
{ACAD_REACTORS
330
73D
102
}
330
73D
100
DictionaryVariables
280
     0
  1
2
  0
DICTIONARY
  5
783
330
70E
100
AcDbDictionary
280
     1
281
     1
  3
ACAD_XREC_ROUNDTRIP
360
784
  0
DICTIONARY
  5
787
330
716
100
AcDbDictionary
280
     1
281
     1
  3
ACAD_XREC_ROUNDTRIP
360
788
  0
DICTIONARY
  5
785
330
712
100
AcDbDictionary
280
     1
281
     1
  3
ACAD_XREC_ROUNDTRIP
360
786
  0
DICTIONARY
  5
6BE
330
6BD
100
AcDbDictionary
280
     1
281
     1
  3
ACAD_XREC_ROUNDTRIP
360
74D
  3
BUMPTILE
360
6C0
  3
DIFFUSETILE
360
6BF
  3
OPACITYTILE
360
6C3
  3
REFLECTIONTILE
360
6C2
  3
REFRACTIONTILE
360
6C4
  3
SPECULARTILE
360
6C1
  0
DICTIONARY
  5
6B6
330
6B5
100
AcDbDictionary
280
     1
281
     1
  3
ACAD_XREC_ROUNDTRIP
360
74C
  3
BUMPTILE
360
6B8
  3
DIFFUSETILE
360
6B7
  3
OPACITYTILE
360
6BB
  3
REFLECTIONTILE
360
6BA
  3
REFRACTIONTILE
360
6BC
  3
SPECULARTILE
360
6B9
  0
DICTIONARY
  5
6C6
330
6C5
100
AcDbDictionary
280
     1
281
     1
  3
ACAD_XREC_ROUNDTRIP
360
74E
  3
BUMPTILE
360
6C8
  3
DIFFUSETILE
360
6C7
  3
OPACITYTILE
360
6CB
  3
REFLECTIONTILE
360
6CA
  3
REFRACTIONTILE
360
6CC
  3
SPECULARTILE
360
6C9
  0
DICTIONARY
  5
781
330
70C
100
AcDbDictionary
280
     1
281
     1
  3
ACAD_XREC_ROUNDTRIP
360
782
  0
DICTIONARY
  5
748
330
708
100
AcDbDictionary
280
     1
281
     1
  3
ACAD_ROUNDTRIP_2008_TABLESTYLE_CELLSTYLEMAP
360
749
  3
ACAD_XREC_ROUNDTRIP
360
77F
  0
DICTIONARY
  5
759
330
6D3
100
AcDbDictionary
280
     1
281
     1
  3
ACAD_XREC_ROUNDTRIP
360
75A
  0
DICTIONARY
  5
757
330
6D2
100
AcDbDictionary
280
     1
281
     1
  3
ACAD_XREC_ROUNDTRIP
360
758
  0
DICTIONARY
  5
765
330
6D9
100
AcDbDictionary
280
     1
281
     1
  3
ACAD_XREC_ROUNDTRIP
360
766
  0
DICTIONARY
  5
76D
330
6DD
100
AcDbDictionary
280
     1
281
     1
  3
ACAD_XREC_ROUNDTRIP
360
76E
  0
DICTIONARY
  5
75F
330
6D6
100
AcDbDictionary
280
     1
281
     1
  3
ACAD_XREC_ROUNDTRIP
360
760
  0
DICTIONARY
  5
763
330
6D8
100
AcDbDictionary
280
     1
281
     1
  3
ACAD_XREC_ROUNDTRIP
360
764
  0
DICTIONARY
  5
77D
330
6E5
100
AcDbDictionary
280
     1
281
     1
  3
ACAD_XREC_ROUNDTRIP
360
77E
  0
DICTIONARY
  5
76B
330
6DC
100
AcDbDictionary
280
     1
281
     1
  3
ACAD_XREC_ROUNDTRIP
360
76C
  0
DICTIONARY
  5
74F
330
6CE
100
AcDbDictionary
280
     1
281
     1
  3
ACAD_XREC_ROUNDTRIP
360
750
  0
DICTIONARY
  5
751
330
6CF
100
AcDbDictionary
280
     1
281
     1
  3
ACAD_XREC_ROUNDTRIP
360
752
  0
DICTIONARY
  5
753
330
6D0
100
AcDbDictionary
280
     1
281
     1
  3
ACAD_XREC_ROUNDTRIP
360
754
  0
DICTIONARY
  5
755
330
6D1
100
AcDbDictionary
280
     1
281
     1
  3
ACAD_XREC_ROUNDTRIP
360
756
  0
DICTIONARY
  5
75D
330
6D5
100
AcDbDictionary
280
     1
281
     1
  3
ACAD_XREC_ROUNDTRIP
360
75E
  0
DICTIONARY
  5
779
330
6E3
100
AcDbDictionary
280
     1
281
     1
  3
ACAD_XREC_ROUNDTRIP
360
77A
  0
DICTIONARY
  5
769
330
6DB
100
AcDbDictionary
280
     1
281
     1
  3
ACAD_XREC_ROUNDTRIP
360
76A
  0
DICTIONARY
  5
77B
330
6E4
100
AcDbDictionary
280
     1
281
     1
  3
ACAD_XREC_ROUNDTRIP
360
77C
  0
DICTIONARY
  5
761
330
6D7
100
AcDbDictionary
280
     1
281
     1
  3
ACAD_XREC_ROUNDTRIP
360
762
  0
DICTIONARY
  5
777
330
6E2
100
AcDbDictionary
280
     1
281
     1
  3
ACAD_XREC_ROUNDTRIP
360
778
  0
DICTIONARY
  5
775
330
6E1
100
AcDbDictionary
280
     1
281
     1
  3
ACAD_XREC_ROUNDTRIP
360
776
  0
DICTIONARY
  5
76F
330
6DE
100
AcDbDictionary
280
     1
281
     1
  3
ACAD_XREC_ROUNDTRIP
360
770
  0
DICTIONARY
  5
771
330
6DF
100
AcDbDictionary
280
     1
281
     1
  3
ACAD_XREC_ROUNDTRIP
360
772
  0
DICTIONARY
  5
767
330
6DA
100
AcDbDictionary
280
     1
281
     1
  3
ACAD_XREC_ROUNDTRIP
360
768
  0
DICTIONARY
  5
75B
330
6D4
100
AcDbDictionary
280
     1
281
     1
  3
ACAD_XREC_ROUNDTRIP
360
75C
  0
DICTIONARY
  5
773
330
6E0
100
AcDbDictionary
280
     1
281
     1
  3
ACAD_XREC_ROUNDTRIP
360
774
  0
XRECORD
  5
784
102
{ACAD_REACTORS
330
783
102
}
330
783
100
AcDbXrecord
280
     1
102
DISPLAYNAME
  1
Imperial24
102
FLAGS
 90
        0
  0
XRECORD
  5
788
102
{ACAD_REACTORS
330
787
102
}
330
787
100
AcDbXrecord
280
     1
102
SHADEPLOT
 70
     0
102
SHADEPLOTRESLEVEL
 70
     2
102
SHADEPLOTCUSTOMDPI
 70
   300
  0
XRECORD
  5
786
102
{ACAD_REACTORS
330
785
102
}
330
785
100
AcDbXrecord
280
     1
102
SHADEPLOT
 70
     0
102
SHADEPLOTRESLEVEL
 70
     2
102
SHADEPLOTCUSTOMDPI
 70
   300
  0
XRECORD
  5
74D
102
{ACAD_REACTORS
330
6BE
102
}
330
6BE
100
AcDbXrecord
280
     1
102
MATERIAL
148
0.0
149
0.0
149
0.0
 93
        0
 94
      127
282
     0
 72
     0
 77
     0
171
     0
175
     0
179
     0
273
     0
  0
XRECORD
  5
6C0
102
{ACAD_REACTORS
330
6BE
102
}
330
6BE
100
AcDbXrecord
280
     1
270
     1
271
     1
  0
XRECORD
  5
6BF
102
{ACAD_REACTORS
330
6BE
102
}
330
6BE
100
AcDbXrecord
280
     1
270
     1
271
     1
  0
XRECORD
  5
6C3
102
{ACAD_REACTORS
330
6BE
102
}
330
6BE
100
AcDbXrecord
280
     1
270
     1
271
     1
  0
XRECORD
  5
6C2
102
{ACAD_REACTORS
330
6BE
102
}
330
6BE
100
AcDbXrecord
280
     1
270
     1
271
     1
  0
XRECORD
  5
6C4
102
{ACAD_REACTORS
330
6BE
102
}
330
6BE
100
AcDbXrecord
280
     1
270
     1
271
     1
  0
XRECORD
  5
6C1
102
{ACAD_REACTORS
330
6BE
102
}
330
6BE
100
AcDbXrecord
280
     1
270
     1
271
     1
  0
XRECORD
  5
74C
102
{ACAD_REACTORS
330
6B6
102
}
330
6B6
100
AcDbXrecord
280
     1
102
MATERIAL
148
0.0
149
0.0
149
0.0
 93
        0
 94
      127
282
     0
 72
     0
 77
     0
171
     0
175
     0
179
     0
273
     0
  0
XRECORD
  5
6B8
102
{ACAD_REACTORS
330
6B6
102
}
330
6B6
100
AcDbXrecord
280
     1
270
     1
271
     1
  0
XRECORD
  5
6B7
102
{ACAD_REACTORS
330
6B6
102
}
330
6B6
100
AcDbXrecord
280
     1
270
     1
271
     1
  0
XRECORD
  5
6BB
102
{ACAD_REACTORS
330
6B6
102
}
330
6B6
100
AcDbXrecord
280
     1
270
     1
271
     1
  0
XRECORD
  5
6BA
102
{ACAD_REACTORS
330
6B6
102
}
330
6B6
100
AcDbXrecord
280
     1
270
     1
271
     1
  0
XRECORD
  5
6BC
102
{ACAD_REACTORS
330
6B6
102
}
330
6B6
100
AcDbXrecord
280
     1
270
     1
271
     1
  0
XRECORD
  5
6B9
102
{ACAD_REACTORS
330
6B6
102
}
330
6B6
100
AcDbXrecord
280
     1
270
     1
271
     1
  0
XRECORD
  5
74E
102
{ACAD_REACTORS
330
6C6
102
}
330
6C6
100
AcDbXrecord
280
     1
102
MATERIAL
148
0.0
149
0.0
149
0.0
 93
        0
 94
      127
282
     0
 72
     0
 77
     0
171
     0
175
     0
179
     0
273
     0
  0
XRECORD
  5
6C8
102
{ACAD_REACTORS
330
6C6
102
}
330
6C6
100
AcDbXrecord
280
     1
270
     1
271
     1
  0
XRECORD
  5
6C7
102
{ACAD_REACTORS
330
6C6
102
}
330
6C6
100
AcDbXrecord
280
     1
270
     1
271
     1
  0
XRECORD
  5
6CB
102
{ACAD_REACTORS
330
6C6
102
}
330
6C6
100
AcDbXrecord
280
     1
270
     1
271
     1
  0
XRECORD
  5
6CA
102
{ACAD_REACTORS
330
6C6
102
}
330
6C6
100
AcDbXrecord
280
     1
270
     1
271
     1
  0
XRECORD
  5
6CC
102
{ACAD_REACTORS
330
6C6
102
}
330
6C6
100
AcDbXrecord
280
     1
270
     1
271
     1
  0
XRECORD
  5
6C9
102
{ACAD_REACTORS
330
6C6
102
}
330
6C6
100
AcDbXrecord
280
     1
270
     1
271
     1
  0
XRECORD
  5
782
102
{ACAD_REACTORS
330
781
102
}
330
781
100
AcDbXrecord
280
     1
102
DISPLAYNAME
  1
Imperial24
102
FLAGS
 90
        0
  0
CELLSTYLEMAP
  5
749
102
{ACAD_REACTORS
330
748
102
}
330
748
100
AcDbCellStyleMap
 90
        3
300
CELLSTYLE
  1
TABLEFORMAT_BEGIN
 90
        5
170
     1
 91
        0
 92
    32768
 62
   257
 93
        1
300
CONTENTFORMAT
  1
CONTENTFORMAT_BEGIN
 90
        0
 91
        0
 92
      512
 93
        0
300

 40
0.0
140
1.0
 94
        5
 62
     0
340
6F9
144
0.25
309
CONTENTFORMAT_END
171
     0
 94
        0
309
TABLEFORMAT_END
  1
CELLSTYLE_BEGIN
 90
        1
 91
        1
300
_TITLE
309
CELLSTYLE_END
300
CELLSTYLE
  1
TABLEFORMAT_BEGIN
 90
        5
170
     1
 91
        0
 92
        0
 62
   257
 93
        1
300
CONTENTFORMAT
  1
CONTENTFORMAT_BEGIN
 90
        0
 91
        0
 92
      512
 93
        0
300

 40
0.0
140
1.0
 94
        5
 62
     0
340
6F9
144
0.18
309
CONTENTFORMAT_END
171
     0
 94
        0
309
TABLEFORMAT_END
  1
CELLSTYLE_BEGIN
 90
        2
 91
        1
300
_HEADER
309
CELLSTYLE_END
300
CELLSTYLE
  1
TABLEFORMAT_BEGIN
 90
        5
170
     1
 91
        0
 92
        0
 62
   257
 93
        1
300
CONTENTFORMAT
  1
CONTENTFORMAT_BEGIN
 90
        0
 91
        0
 92
      512
 93
        0
300

 40
0.0
140
1.0
 94
        2
 62
     0
340
6F9
144
0.18
309
CONTENTFORMAT_END
171
     0
 94
        0
309
TABLEFORMAT_END
  1
CELLSTYLE_BEGIN
 90
        3
 91
        2
300
_DATA
309
CELLSTYLE_END
  0
XRECORD
  5
77F
102
{ACAD_REACTORS
330
748
102
}
330
748
100
AcDbXrecord
280
     1
102
ACAD_ROUNDTRIP_PRE2007_TABLESTYLE
 90
      512
 91
        0
  1

 92
      512
 93
        0
  2

 94
      512
 95
        0
  3

  0
XRECORD
  5
75A
102
{ACAD_REACTORS
330
759
102
}
330
759
100
AcDbXrecord
280
     1
102
RTVSPost2010Prop28
280
     1
102
RTVSPost2010PropOp28
 70
     1
102
RTVSPost2010Prop29
280
     1
102
RTVSPost2010PropOp29
 70
     1
102
RTVSPost2010Prop30
280
     0
102
RTVSPost2010PropOp30
 70
     1
102
RTVSPost2010Prop31
280
     0
102
RTVSPost2010PropOp31
 70
     1
102
RTVSPost2010Prop32
280
     0
102
RTVSPost2010PropOp32
 70
     1
102
RTVSPost2010Prop33
280
     0
102
RTVSPost2010PropOp33
 70
     1
102
RTVSPost2010Prop34
280
     0
102
RTVSPost2010PropOp34
 70
     1
102
RTVSPost2010Prop35
280
     0
102
RTVSPost2010PropOp35
 70
     1
102
RTVSPost2010Prop36
280
     0
102
RTVSPost2010PropOp36
 70
     1
102
RTVSPost2010Prop37
 90
       50
102
RTVSPost2010PropOp37
 70
     1
102
RTVSPost2010Prop38
140
0.0
102
RTVSPost2010PropOp38
 70
     1
102
RTVSPost2010Prop39
140
1.0
102
RTVSPost2010PropOp39
 70
     1
102
RTVSPost2010Prop40
 90
        0
102
RTVSPost2010PropOp40
 70
     1
102
RTVSPost2010Prop41ColorIndex
 90
       18
102
RTVSPost2010Prop41ColorRGB
 90
        0
102
RTVSPost2010PropOp41
 70
     1
102
RTVSPost2010Prop42
 90
       50
102
RTVSPost2010PropOp42
 70
     1
102
RTVSPost2010Prop43
 90
        3
102
RTVSPost2010PropOp43
 70
     1
102
RTVSPost2010Prop44ColorIndex
 90
        5
102
RTVSPost2010Prop44ColorRGB
 90
      255
102
RTVSPost2010PropOp44
 70
     1
102
RTVSPost2010Prop45
280
     0
102
RTVSPost2010PropOp45
 70
     1
102
RTVSPost2010Prop46
 90
       50
102
RTVSPost2010PropOp46
 70
     1
102
RTVSPost2010Prop47
 90
       50
102
RTVSPost2010PropOp47
 70
     1
102
RTVSPost2010Prop48
 90
       50
102
RTVSPost2010PropOp48
 70
     1
102
RTVSPost2010Prop49
280
     0
102
RTVSPost2010PropOp49
 70
     1
102
RTVSPost2010Prop50
 90
       50
102
RTVSPost2010PropOp50
 70
     1
102
RTVSPost2010Prop51ColorIndex
 90
      256
102
RTVSPost2010Prop51ColorRGB
 90
-16777216
102
RTVSPost2010PropOp51
 70
     0
102
RTVSPost2010Prop52
140
1.0
102
RTVSPost2010PropOp52
 70
     0
102
RTVSPost2010Prop53
 90
        2
102
RTVSPost2010PropOp53
 70
     1
102
RTVSPost2010Prop54
  1
strokes_ogs.tif
102
RTVSPost2010PropOp54
 70
     1
102
RTVSPost2010Prop55
280
     0
102
RTVSPost2010PropOp55
 70
     1
102
RTVSPost2010Prop56
140
1.0
102
RTVSPost2010PropOp56
 70
     1
102
RTVSPost2010Prop57
140
1.0
102
RTVSPost2010PropOp57
 70
     1
102
RTVSPropertyOp0
 70
     1
102
RTVSPropertyOp1
 70
     1
102
RTVSPropertyOp2
 70
     1
102
RTVSPropertyOp3
 70
     1
102
RTVSPropertyOp4
 70
     1
102
RTVSPropertyOp5
 70
     1
102
RTVSPropertyOp6
 70
     1
102
RTVSPropertyOp7
 70
     1
102
RTVSPropertyOp8
 70
     1
102
RTVSPropertyOp9
 70
     1
102
RTVSPropertyOp10
 70
     1
102
RTVSPropertyOp11
 70
     1
102
RTVSPropertyOp12
 70
     1
102
RTVSPropertyOp13
 70
     1
102
RTVSPropertyOp14
 70
     1
102
RTVSPropertyOp15
 70
     1
102
RTVSPropertyOp16
 70
     1
102
RTVSPropertyOp17
 70
     1
102
RTVSPropertyOp18
 70
     1
102
RTVSPropertyOp19
 70
     1
102
RTVSPropertyOp20
 70
     1
102
RTVSPropertyOp21
 70
     1
102
RTVSPropertyOp22
 70
     1
102
RTVSPropertyOp23
 70
     1
102
RTVSPropertyOp24
 70
     1
102
RTVSPropertyOp25
 70
     1
102
RTVSPropertyOp26
 70
     1
102
RTVSPropertyOp27
 70
     1
102
RTVSPropertyOp28
 70
     1
102
RTVSPropertyOp29
 70
     1
102
RTVSPropertyOp30
 70
     1
102
RTVSPropertyOp31
 70
     1
102
RTVSPropertyOp32
 70
     1
102
RTVSPropertyOp33
 70
     1
102
RTVSPropertyOp34
 70
     1
102
RTVSPropertyOp35
 70
     1
102
RTVSPropertyOp36
 70
     1
102
RTVSPropertyOp37
 70
     1
102
RTVSPropertyOp38
 70
     1
102
RTVSPropertyOp39
 70
     1
102
RTVSPropertyOp40
 70
     1
102
RTVSPropertyOp41
 70
     1
102
RTVSPropertyOp42
 70
     1
102
RTVSPropertyOp43
 70
     1
102
RTVSPropertyOp44
 70
     1
102
RTVSPropertyOp45
 70
     1
102
RTVSPropertyOp46
 70
     1
102
RTVSPropertyOp47
 70
     1
102
RTVSPropertyOp48
 70
     1
102
RTVSPropertyOp49
 70
     1
102
RTVSPropertyOp50
 70
     1
102
RTVSPropertyOp51
 70
     0
102
RTVSPropertyOp52
 70
     0
102
RTVSPropertyOp53
 70
     1
102
RTVSPropertyOp54
 70
     1
102
RTVSPropertyOp55
 70
     1
102
RTVSPropertyOp56
 70
     1
102
RTVSPropertyOp57
 70
     1
102
RTVSPropertyOp58
 70
     1
102
RTVSPropertyOp59
 70
     1
102
RTVSPropertyOp60
 70
     1
102
RTVSPropertyOp61
 70
     1
102
RTVSPropertyOp62
 70
     1
  0
XRECORD
  5
758
102
{ACAD_REACTORS
330
757
102
}
330
757
100
AcDbXrecord
280
     1
102
RTVSPost2010Prop28
280
     0
102
RTVSPost2010PropOp28
 70
     1
102
RTVSPost2010Prop29
280
     1
102
RTVSPost2010PropOp29
 70
     1
102
RTVSPost2010Prop30
280
     1
102
RTVSPost2010PropOp30
 70
     1
102
RTVSPost2010Prop31
280
     0
102
RTVSPost2010PropOp31
 70
     1
102
RTVSPost2010Prop32
280
     0
102
RTVSPost2010PropOp32
 70
     1
102
RTVSPost2010Prop33
280
     0
102
RTVSPost2010PropOp33
 70
     1
102
RTVSPost2010Prop34
280
     0
102
RTVSPost2010PropOp34
 70
     1
102
RTVSPost2010Prop35
280
     0
102
RTVSPost2010PropOp35
 70
     1
102
RTVSPost2010Prop36
280
     0
102
RTVSPost2010PropOp36
 70
     1
102
RTVSPost2010Prop37
 90
       50
102
RTVSPost2010PropOp37
 70
     1
102
RTVSPost2010Prop38
140
0.0
102
RTVSPost2010PropOp38
 70
     1
102
RTVSPost2010Prop39
140
1.0
102
RTVSPost2010PropOp39
 70
     1
102
RTVSPost2010Prop40
 90
        0
102
RTVSPost2010PropOp40
 70
     1
102
RTVSPost2010Prop41ColorIndex
 90
       18
102
RTVSPost2010Prop41ColorRGB
 90
        0
102
RTVSPost2010PropOp41
 70
     1
102
RTVSPost2010Prop42
 90
       50
102
RTVSPost2010PropOp42
 70
     1
102
RTVSPost2010Prop43
 90
        3
102
RTVSPost2010PropOp43
 70
     1
102
RTVSPost2010Prop44ColorIndex
 90
        5
102
RTVSPost2010Prop44ColorRGB
 90
      255
102
RTVSPost2010PropOp44
 70
     1
102
RTVSPost2010Prop45
280
     0
102
RTVSPost2010PropOp45
 70
     1
102
RTVSPost2010Prop46
 90
       50
102
RTVSPost2010PropOp46
 70
     1
102
RTVSPost2010Prop47
 90
       50
102
RTVSPost2010PropOp47
 70
     1
102
RTVSPost2010Prop48
 90
       50
102
RTVSPost2010PropOp48
 70
     1
102
RTVSPost2010Prop49
280
     0
102
RTVSPost2010PropOp49
 70
     1
102
RTVSPost2010Prop50
 90
       50
102
RTVSPost2010PropOp50
 70
     1
102
RTVSPost2010Prop51ColorIndex
 90
      256
102
RTVSPost2010Prop51ColorRGB
 90
-16777216
102
RTVSPost2010PropOp51
 70
     0
102
RTVSPost2010Prop52
140
1.0
102
RTVSPost2010PropOp52
 70
     0
102
RTVSPost2010Prop53
 90
        2
102
RTVSPost2010PropOp53
 70
     1
102
RTVSPost2010Prop54
  1
strokes_ogs.tif
102
RTVSPost2010PropOp54
 70
     1
102
RTVSPost2010Prop55
280
     0
102
RTVSPost2010PropOp55
 70
     1
102
RTVSPost2010Prop56
140
1.0
102
RTVSPost2010PropOp56
 70
     1
102
RTVSPost2010Prop57
140
1.0
102
RTVSPost2010PropOp57
 70
     1
102
RTVSPropertyOp0
 70
     1
102
RTVSPropertyOp1
 70
     1
102
RTVSPropertyOp2
 70
     1
102
RTVSPropertyOp3
 70
     1
102
RTVSPropertyOp4
 70
     1
102
RTVSPropertyOp5
 70
     1
102
RTVSPropertyOp6
 70
     1
102
RTVSPropertyOp7
 70
     1
102
RTVSPropertyOp8
 70
     1
102
RTVSPropertyOp9
 70
     1
102
RTVSPropertyOp10
 70
     1
102
RTVSPropertyOp11
 70
     1
102
RTVSPropertyOp12
 70
     1
102
RTVSPropertyOp13
 70
     1
102
RTVSPropertyOp14
 70
     1
102
RTVSPropertyOp15
 70
     1
102
RTVSPropertyOp16
 70
     1
102
RTVSPropertyOp17
 70
     1
102
RTVSPropertyOp18
 70
     1
102
RTVSPropertyOp19
 70
     1
102
RTVSPropertyOp20
 70
     1
102
RTVSPropertyOp21
 70
     1
102
RTVSPropertyOp22
 70
     1
102
RTVSPropertyOp23
 70
     1
102
RTVSPropertyOp24
 70
     1
102
RTVSPropertyOp25
 70
     1
102
RTVSPropertyOp26
 70
     1
102
RTVSPropertyOp27
 70
     1
102
RTVSPropertyOp28
 70
     1
102
RTVSPropertyOp29
 70
     1
102
RTVSPropertyOp30
 70
     1
102
RTVSPropertyOp31
 70
     1
102
RTVSPropertyOp32
 70
     1
102
RTVSPropertyOp33
 70
     1
102
RTVSPropertyOp34
 70
     1
102
RTVSPropertyOp35
 70
     1
102
RTVSPropertyOp36
 70
     1
102
RTVSPropertyOp37
 70
     1
102
RTVSPropertyOp38
 70
     1
102
RTVSPropertyOp39
 70
     1
102
RTVSPropertyOp40
 70
     1
102
RTVSPropertyOp41
 70
     1
102
RTVSPropertyOp42
 70
     1
102
RTVSPropertyOp43
 70
     1
102
RTVSPropertyOp44
 70
     1
102
RTVSPropertyOp45
 70
     1
102
RTVSPropertyOp46
 70
     1
102
RTVSPropertyOp47
 70
     1
102
RTVSPropertyOp48
 70
     1
102
RTVSPropertyOp49
 70
     1
102
RTVSPropertyOp50
 70
     1
102
RTVSPropertyOp51
 70
     0
102
RTVSPropertyOp52
 70
     0
102
RTVSPropertyOp53
 70
     1
102
RTVSPropertyOp54
 70
     1
102
RTVSPropertyOp55
 70
     1
102
RTVSPropertyOp56
 70
     1
102
RTVSPropertyOp57
 70
     1
102
RTVSPropertyOp58
 70
     1
102
RTVSPropertyOp59
 70
     1
102
RTVSPropertyOp60
 70
     1
102
RTVSPropertyOp61
 70
     1
102
RTVSPropertyOp62
 70
     1
  0
XRECORD
  5
766
102
{ACAD_REACTORS
330
765
102
}
330
765
100
AcDbXrecord
280
     1
102
RTVSPost2010Prop28
280
     0
102
RTVSPost2010PropOp28
 70
     1
102
RTVSPost2010Prop29
280
     1
102
RTVSPost2010PropOp29
 70
     1
102
RTVSPost2010Prop30
280
     1
102
RTVSPost2010PropOp30
 70
     1
102
RTVSPost2010Prop31
280
     0
102
RTVSPost2010PropOp31
 70
     1
102
RTVSPost2010Prop32
280
     0
102
RTVSPost2010PropOp32
 70
     1
102
RTVSPost2010Prop33
280
     0
102
RTVSPost2010PropOp33
 70
     1
102
RTVSPost2010Prop34
280
     0
102
RTVSPost2010PropOp34
 70
     1
102
RTVSPost2010Prop35
280
     0
102
RTVSPost2010PropOp35
 70
     1
102
RTVSPost2010Prop36
280
     0
102
RTVSPost2010PropOp36
 70
     1
102
RTVSPost2010Prop37
 90
       50
102
RTVSPost2010PropOp37
 70
     1
102
RTVSPost2010Prop38
140
0.0
102
RTVSPost2010PropOp38
 70
     1
102
RTVSPost2010Prop39
140
1.0
102
RTVSPost2010PropOp39
 70
     1
102
RTVSPost2010Prop40
 90
        0
102
RTVSPost2010PropOp40
 70
     1
102
RTVSPost2010Prop41ColorIndex
 90
       18
102
RTVSPost2010Prop41ColorRGB
 90
        0
102
RTVSPost2010PropOp41
 70
     1
102
RTVSPost2010Prop42
 90
       50
102
RTVSPost2010PropOp42
 70
     1
102
RTVSPost2010Prop43
 90
        3
102
RTVSPost2010PropOp43
 70
     1
102
RTVSPost2010Prop44ColorIndex
 90
        5
102
RTVSPost2010Prop44ColorRGB
 90
      255
102
RTVSPost2010PropOp44
 70
     1
102
RTVSPost2010Prop45
280
     0
102
RTVSPost2010PropOp45
 70
     1
102
RTVSPost2010Prop46
 90
       50
102
RTVSPost2010PropOp46
 70
     1
102
RTVSPost2010Prop47
 90
       50
102
RTVSPost2010PropOp47
 70
     1
102
RTVSPost2010Prop48
 90
       50
102
RTVSPost2010PropOp48
 70
     1
102
RTVSPost2010Prop49
280
     0
102
RTVSPost2010PropOp49
 70
     1
102
RTVSPost2010Prop50
 90
       50
102
RTVSPost2010PropOp50
 70
     1
102
RTVSPost2010Prop51ColorIndex
 90
      256
102
RTVSPost2010Prop51ColorRGB
 90
-16777216
102
RTVSPost2010PropOp51
 70
     0
102
RTVSPost2010Prop52
140
1.0
102
RTVSPost2010PropOp52
 70
     0
102
RTVSPost2010Prop53
 90
        2
102
RTVSPost2010PropOp53
 70
     1
102
RTVSPost2010Prop54
  1
strokes_ogs.tif
102
RTVSPost2010PropOp54
 70
     1
102
RTVSPost2010Prop55
280
     0
102
RTVSPost2010PropOp55
 70
     1
102
RTVSPost2010Prop56
140
1.0
102
RTVSPost2010PropOp56
 70
     1
102
RTVSPost2010Prop57
140
1.0
102
RTVSPost2010PropOp57
 70
     1
102
RTVSPropertyOp0
 70
     1
102
RTVSPropertyOp1
 70
     1
102
RTVSPropertyOp2
 70
     1
102
RTVSPropertyOp3
 70
     1
102
RTVSPropertyOp4
 70
     1
102
RTVSPropertyOp5
 70
     1
102
RTVSPropertyOp6
 70
     1
102
RTVSPropertyOp7
 70
     1
102
RTVSPropertyOp8
 70
     1
102
RTVSPropertyOp9
 70
     1
102
RTVSPropertyOp10
 70
     1
102
RTVSPropertyOp11
 70
     1
102
RTVSPropertyOp12
 70
     1
102
RTVSPropertyOp13
 70
     1
102
RTVSPropertyOp14
 70
     1
102
RTVSPropertyOp15
 70
     1
102
RTVSPropertyOp16
 70
     1
102
RTVSPropertyOp17
 70
     1
102
RTVSPropertyOp18
 70
     1
102
RTVSPropertyOp19
 70
     1
102
RTVSPropertyOp20
 70
     1
102
RTVSPropertyOp21
 70
     1
102
RTVSPropertyOp22
 70
     1
102
RTVSPropertyOp23
 70
     1
102
RTVSPropertyOp24
 70
     1
102
RTVSPropertyOp25
 70
     1
102
RTVSPropertyOp26
 70
     1
102
RTVSPropertyOp27
 70
     1
102
RTVSPropertyOp28
 70
     1
102
RTVSPropertyOp29
 70
     1
102
RTVSPropertyOp30
 70
     1
102
RTVSPropertyOp31
 70
     1
102
RTVSPropertyOp32
 70
     1
102
RTVSPropertyOp33
 70
     1
102
RTVSPropertyOp34
 70
     1
102
RTVSPropertyOp35
 70
     1
102
RTVSPropertyOp36
 70
     1
102
RTVSPropertyOp37
 70
     1
102
RTVSPropertyOp38
 70
     1
102
RTVSPropertyOp39
 70
     1
102
RTVSPropertyOp40
 70
     1
102
RTVSPropertyOp41
 70
     1
102
RTVSPropertyOp42
 70
     1
102
RTVSPropertyOp43
 70
     1
102
RTVSPropertyOp44
 70
     1
102
RTVSPropertyOp45
 70
     1
102
RTVSPropertyOp46
 70
     1
102
RTVSPropertyOp47
 70
     1
102
RTVSPropertyOp48
 70
     1
102
RTVSPropertyOp49
 70
     1
102
RTVSPropertyOp50
 70
     1
102
RTVSPropertyOp51
 70
     0
102
RTVSPropertyOp52
 70
     0
102
RTVSPropertyOp53
 70
     1
102
RTVSPropertyOp54
 70
     1
102
RTVSPropertyOp55
 70
     1
102
RTVSPropertyOp56
 70
     1
102
RTVSPropertyOp57
 70
     1
102
RTVSPropertyOp58
 70
     1
102
RTVSPropertyOp59
 70
     1
102
RTVSPropertyOp60
 70
     1
102
RTVSPropertyOp61
 70
     1
102
RTVSPropertyOp62
 70
     1
  0
XRECORD
  5
76E
102
{ACAD_REACTORS
330
76D
102
}
330
76D
100
AcDbXrecord
280
     1
102
RTVSPost2010Prop28
280
     0
102
RTVSPost2010PropOp28
 70
     1
102
RTVSPost2010Prop29
280
     1
102
RTVSPost2010PropOp29
 70
     1
102
RTVSPost2010Prop30
280
     1
102
RTVSPost2010PropOp30
 70
     1
102
RTVSPost2010Prop31
280
     0
102
RTVSPost2010PropOp31
 70
     1
102
RTVSPost2010Prop32
280
     0
102
RTVSPost2010PropOp32
 70
     1
102
RTVSPost2010Prop33
280
     0
102
RTVSPost2010PropOp33
 70
     1
102
RTVSPost2010Prop34
280
     0
102
RTVSPost2010PropOp34
 70
     1
102
RTVSPost2010Prop35
280
     0
102
RTVSPost2010PropOp35
 70
     1
102
RTVSPost2010Prop36
280
     0
102
RTVSPost2010PropOp36
 70
     1
102
RTVSPost2010Prop37
 90
       50
102
RTVSPost2010PropOp37
 70
     1
102
RTVSPost2010Prop38
140
0.0
102
RTVSPost2010PropOp38
 70
     1
102
RTVSPost2010Prop39
140
1.0
102
RTVSPost2010PropOp39
 70
     1
102
RTVSPost2010Prop40
 90
        0
102
RTVSPost2010PropOp40
 70
     1
102
RTVSPost2010Prop41ColorIndex
 90
       18
102
RTVSPost2010Prop41ColorRGB
 90
        0
102
RTVSPost2010PropOp41
 70
     1
102
RTVSPost2010Prop42
 90
       50
102
RTVSPost2010PropOp42
 70
     1
102
RTVSPost2010Prop43
 90
        3
102
RTVSPost2010PropOp43
 70
     1
102
RTVSPost2010Prop44ColorIndex
 90
        5
102
RTVSPost2010Prop44ColorRGB
 90
      255
102
RTVSPost2010PropOp44
 70
     1
102
RTVSPost2010Prop45
280
     0
102
RTVSPost2010PropOp45
 70
     1
102
RTVSPost2010Prop46
 90
       50
102
RTVSPost2010PropOp46
 70
     1
102
RTVSPost2010Prop47
 90
       50
102
RTVSPost2010PropOp47
 70
     1
102
RTVSPost2010Prop48
 90
       50
102
RTVSPost2010PropOp48
 70
     1
102
RTVSPost2010Prop49
280
     0
102
RTVSPost2010PropOp49
 70
     1
102
RTVSPost2010Prop50
 90
       50
102
RTVSPost2010PropOp50
 70
     1
102
RTVSPost2010Prop51ColorIndex
 90
      256
102
RTVSPost2010Prop51ColorRGB
 90
-16777216
102
RTVSPost2010PropOp51
 70
     0
102
RTVSPost2010Prop52
140
1.0
102
RTVSPost2010PropOp52
 70
     0
102
RTVSPost2010Prop53
 90
        2
102
RTVSPost2010PropOp53
 70
     1
102
RTVSPost2010Prop54
  1
strokes_ogs.tif
102
RTVSPost2010PropOp54
 70
     1
102
RTVSPost2010Prop55
280
     0
102
RTVSPost2010PropOp55
 70
     1
102
RTVSPost2010Prop56
140
1.0
102
RTVSPost2010PropOp56
 70
     1
102
RTVSPost2010Prop57
140
1.0
102
RTVSPost2010PropOp57
 70
     1
102
RTVSPropertyOp0
 70
     1
102
RTVSPropertyOp1
 70
     1
102
RTVSPropertyOp2
 70
     1
102
RTVSPropertyOp3
 70
     1
102
RTVSPropertyOp4
 70
     1
102
RTVSPropertyOp5
 70
     1
102
RTVSPropertyOp6
 70
     1
102
RTVSPropertyOp7
 70
     1
102
RTVSPropertyOp8
 70
     1
102
RTVSPropertyOp9
 70
     1
102
RTVSPropertyOp10
 70
     1
102
RTVSPropertyOp11
 70
     1
102
RTVSPropertyOp12
 70
     1
102
RTVSPropertyOp13
 70
     1
102
RTVSPropertyOp14
 70
     1
102
RTVSPropertyOp15
 70
     1
102
RTVSPropertyOp16
 70
     1
102
RTVSPropertyOp17
 70
     1
102
RTVSPropertyOp18
 70
     1
102
RTVSPropertyOp19
 70
     1
102
RTVSPropertyOp20
 70
     1
102
RTVSPropertyOp21
 70
     1
102
RTVSPropertyOp22
 70
     1
102
RTVSPropertyOp23
 70
     1
102
RTVSPropertyOp24
 70
     1
102
RTVSPropertyOp25
 70
     1
102
RTVSPropertyOp26
 70
     1
102
RTVSPropertyOp27
 70
     1
102
RTVSPropertyOp28
 70
     1
102
RTVSPropertyOp29
 70
     1
102
RTVSPropertyOp30
 70
     1
102
RTVSPropertyOp31
 70
     1
102
RTVSPropertyOp32
 70
     1
102
RTVSPropertyOp33
 70
     1
102
RTVSPropertyOp34
 70
     1
102
RTVSPropertyOp35
 70
     1
102
RTVSPropertyOp36
 70
     1
102
RTVSPropertyOp37
 70
     1
102
RTVSPropertyOp38
 70
     1
102
RTVSPropertyOp39
 70
     1
102
RTVSPropertyOp40
 70
     1
102
RTVSPropertyOp41
 70
     1
102
RTVSPropertyOp42
 70
     1
102
RTVSPropertyOp43
 70
     1
102
RTVSPropertyOp44
 70
     1
102
RTVSPropertyOp45
 70
     1
102
RTVSPropertyOp46
 70
     1
102
RTVSPropertyOp47
 70
     1
102
RTVSPropertyOp48
 70
     1
102
RTVSPropertyOp49
 70
     1
102
RTVSPropertyOp50
 70
     1
102
RTVSPropertyOp51
 70
     0
102
RTVSPropertyOp52
 70
     0
102
RTVSPropertyOp53
 70
     1
102
RTVSPropertyOp54
 70
     1
102
RTVSPropertyOp55
 70
     1
102
RTVSPropertyOp56
 70
     1
102
RTVSPropertyOp57
 70
     1
102
RTVSPropertyOp58
 70
     1
102
RTVSPropertyOp59
 70
     1
102
RTVSPropertyOp60
 70
     1
102
RTVSPropertyOp61
 70
     1
102
RTVSPropertyOp62
 70
     1
  0
XRECORD
  5
760
102
{ACAD_REACTORS
330
75F
102
}
330
75F
100
AcDbXrecord
280
     1
102
RTVSPost2010Prop28
280
     0
102
RTVSPost2010PropOp28
 70
     1
102
RTVSPost2010Prop29
280
     1
102
RTVSPost2010PropOp29
 70
     1
102
RTVSPost2010Prop30
280
     1
102
RTVSPost2010PropOp30
 70
     1
102
RTVSPost2010Prop31
280
     0
102
RTVSPost2010PropOp31
 70
     1
102
RTVSPost2010Prop32
280
     0
102
RTVSPost2010PropOp32
 70
     1
102
RTVSPost2010Prop33
280
     0
102
RTVSPost2010PropOp33
 70
     1
102
RTVSPost2010Prop34
280
     0
102
RTVSPost2010PropOp34
 70
     1
102
RTVSPost2010Prop35
280
     0
102
RTVSPost2010PropOp35
 70
     1
102
RTVSPost2010Prop36
280
     0
102
RTVSPost2010PropOp36
 70
     1
102
RTVSPost2010Prop37
 90
       50
102
RTVSPost2010PropOp37
 70
     1
102
RTVSPost2010Prop38
140
0.0
102
RTVSPost2010PropOp38
 70
     1
102
RTVSPost2010Prop39
140
1.0
102
RTVSPost2010PropOp39
 70
     1
102
RTVSPost2010Prop40
 90
        0
102
RTVSPost2010PropOp40
 70
     1
102
RTVSPost2010Prop41ColorIndex
 90
       18
102
RTVSPost2010Prop41ColorRGB
 90
        0
102
RTVSPost2010PropOp41
 70
     1
102
RTVSPost2010Prop42
 90
       50
102
RTVSPost2010PropOp42
 70
     1
102
RTVSPost2010Prop43
 90
        3
102
RTVSPost2010PropOp43
 70
     1
102
RTVSPost2010Prop44ColorIndex
 90
        5
102
RTVSPost2010Prop44ColorRGB
 90
      255
102
RTVSPost2010PropOp44
 70
     1
102
RTVSPost2010Prop45
280
     0
102
RTVSPost2010PropOp45
 70
     1
102
RTVSPost2010Prop46
 90
       50
102
RTVSPost2010PropOp46
 70
     1
102
RTVSPost2010Prop47
 90
       50
102
RTVSPost2010PropOp47
 70
     1
102
RTVSPost2010Prop48
 90
       50
102
RTVSPost2010PropOp48
 70
     1
102
RTVSPost2010Prop49
280
     0
102
RTVSPost2010PropOp49
 70
     1
102
RTVSPost2010Prop50
 90
       50
102
RTVSPost2010PropOp50
 70
     1
102
RTVSPost2010Prop51ColorIndex
 90
      256
102
RTVSPost2010Prop51ColorRGB
 90
-16777216
102
RTVSPost2010PropOp51
 70
     0
102
RTVSPost2010Prop52
140
1.0
102
RTVSPost2010PropOp52
 70
     0
102
RTVSPost2010Prop53
 90
        2
102
RTVSPost2010PropOp53
 70
     1
102
RTVSPost2010Prop54
  1
strokes_ogs.tif
102
RTVSPost2010PropOp54
 70
     1
102
RTVSPost2010Prop55
280
     0
102
RTVSPost2010PropOp55
 70
     1
102
RTVSPost2010Prop56
140
1.0
102
RTVSPost2010PropOp56
 70
     1
102
RTVSPost2010Prop57
140
1.0
102
RTVSPost2010PropOp57
 70
     1
102
RTVSPropertyOp0
 70
     1
102
RTVSPropertyOp1
 70
     1
102
RTVSPropertyOp2
 70
     1
102
RTVSPropertyOp3
 70
     1
102
RTVSPropertyOp4
 70
     1
102
RTVSPropertyOp5
 70
     1
102
RTVSPropertyOp6
 70
     1
102
RTVSPropertyOp7
 70
     1
102
RTVSPropertyOp8
 70
     1
102
RTVSPropertyOp9
 70
     1
102
RTVSPropertyOp10
 70
     1
102
RTVSPropertyOp11
 70
     1
102
RTVSPropertyOp12
 70
     1
102
RTVSPropertyOp13
 70
     1
102
RTVSPropertyOp14
 70
     1
102
RTVSPropertyOp15
 70
     1
102
RTVSPropertyOp16
 70
     1
102
RTVSPropertyOp17
 70
     1
102
RTVSPropertyOp18
 70
     1
102
RTVSPropertyOp19
 70
     1
102
RTVSPropertyOp20
 70
     1
102
RTVSPropertyOp21
 70
     1
102
RTVSPropertyOp22
 70
     1
102
RTVSPropertyOp23
 70
     1
102
RTVSPropertyOp24
 70
     1
102
RTVSPropertyOp25
 70
     1
102
RTVSPropertyOp26
 70
     1
102
RTVSPropertyOp27
 70
     1
102
RTVSPropertyOp28
 70
     1
102
RTVSPropertyOp29
 70
     1
102
RTVSPropertyOp30
 70
     1
102
RTVSPropertyOp31
 70
     1
102
RTVSPropertyOp32
 70
     1
102
RTVSPropertyOp33
 70
     1
102
RTVSPropertyOp34
 70
     1
102
RTVSPropertyOp35
 70
     1
102
RTVSPropertyOp36
 70
     1
102
RTVSPropertyOp37
 70
     1
102
RTVSPropertyOp38
 70
     1
102
RTVSPropertyOp39
 70
     1
102
RTVSPropertyOp40
 70
     1
102
RTVSPropertyOp41
 70
     1
102
RTVSPropertyOp42
 70
     1
102
RTVSPropertyOp43
 70
     1
102
RTVSPropertyOp44
 70
     1
102
RTVSPropertyOp45
 70
     1
102
RTVSPropertyOp46
 70
     1
102
RTVSPropertyOp47
 70
     1
102
RTVSPropertyOp48
 70
     1
102
RTVSPropertyOp49
 70
     1
102
RTVSPropertyOp50
 70
     1
102
RTVSPropertyOp51
 70
     0
102
RTVSPropertyOp52
 70
     0
102
RTVSPropertyOp53
 70
     1
102
RTVSPropertyOp54
 70
     1
102
RTVSPropertyOp55
 70
     1
102
RTVSPropertyOp56
 70
     1
102
RTVSPropertyOp57
 70
     1
102
RTVSPropertyOp58
 70
     1
102
RTVSPropertyOp59
 70
     1
102
RTVSPropertyOp60
 70
     1
102
RTVSPropertyOp61
 70
     1
102
RTVSPropertyOp62
 70
     1
  0
XRECORD
  5
764
102
{ACAD_REACTORS
330
763
102
}
330
763
100
AcDbXrecord
280
     1
102
RTVSPost2010Prop28
280
     0
102
RTVSPost2010PropOp28
 70
     1
102
RTVSPost2010Prop29
280
     1
102
RTVSPost2010PropOp29
 70
     1
102
RTVSPost2010Prop30
280
     1
102
RTVSPost2010PropOp30
 70
     1
102
RTVSPost2010Prop31
280
     0
102
RTVSPost2010PropOp31
 70
     1
102
RTVSPost2010Prop32
280
     0
102
RTVSPost2010PropOp32
 70
     1
102
RTVSPost2010Prop33
280
     0
102
RTVSPost2010PropOp33
 70
     1
102
RTVSPost2010Prop34
280
     0
102
RTVSPost2010PropOp34
 70
     1
102
RTVSPost2010Prop35
280
     0
102
RTVSPost2010PropOp35
 70
     1
102
RTVSPost2010Prop36
280
     0
102
RTVSPost2010PropOp36
 70
     1
102
RTVSPost2010Prop37
 90
       50
102
RTVSPost2010PropOp37
 70
     1
102
RTVSPost2010Prop38
140
0.0
102
RTVSPost2010PropOp38
 70
     1
102
RTVSPost2010Prop39
140
1.0
102
RTVSPost2010PropOp39
 70
     1
102
RTVSPost2010Prop40
 90
        0
102
RTVSPost2010PropOp40
 70
     1
102
RTVSPost2010Prop41ColorIndex
 90
       18
102
RTVSPost2010Prop41ColorRGB
 90
        0
102
RTVSPost2010PropOp41
 70
     1
102
RTVSPost2010Prop42
 90
       50
102
RTVSPost2010PropOp42
 70
     1
102
RTVSPost2010Prop43
 90
        3
102
RTVSPost2010PropOp43
 70
     1
102
RTVSPost2010Prop44ColorIndex
 90
        5
102
RTVSPost2010Prop44ColorRGB
 90
      255
102
RTVSPost2010PropOp44
 70
     1
102
RTVSPost2010Prop45
280
     0
102
RTVSPost2010PropOp45
 70
     1
102
RTVSPost2010Prop46
 90
       50
102
RTVSPost2010PropOp46
 70
     1
102
RTVSPost2010Prop47
 90
       50
102
RTVSPost2010PropOp47
 70
     1
102
RTVSPost2010Prop48
 90
       50
102
RTVSPost2010PropOp48
 70
     1
102
RTVSPost2010Prop49
280
     0
102
RTVSPost2010PropOp49
 70
     1
102
RTVSPost2010Prop50
 90
       50
102
RTVSPost2010PropOp50
 70
     1
102
RTVSPost2010Prop51ColorIndex
 90
      256
102
RTVSPost2010Prop51ColorRGB
 90
-16777216
102
RTVSPost2010PropOp51
 70
     0
102
RTVSPost2010Prop52
140
1.0
102
RTVSPost2010PropOp52
 70
     0
102
RTVSPost2010Prop53
 90
        2
102
RTVSPost2010PropOp53
 70
     1
102
RTVSPost2010Prop54
  1
strokes_ogs.tif
102
RTVSPost2010PropOp54
 70
     1
102
RTVSPost2010Prop55
280
     0
102
RTVSPost2010PropOp55
 70
     1
102
RTVSPost2010Prop56
140
1.0
102
RTVSPost2010PropOp56
 70
     1
102
RTVSPost2010Prop57
140
1.0
102
RTVSPost2010PropOp57
 70
     1
102
RTVSPropertyOp0
 70
     1
102
RTVSPropertyOp1
 70
     1
102
RTVSPropertyOp2
 70
     1
102
RTVSPropertyOp3
 70
     1
102
RTVSPropertyOp4
 70
     1
102
RTVSPropertyOp5
 70
     1
102
RTVSPropertyOp6
 70
     1
102
RTVSPropertyOp7
 70
     1
102
RTVSPropertyOp8
 70
     1
102
RTVSPropertyOp9
 70
     1
102
RTVSPropertyOp10
 70
     1
102
RTVSPropertyOp11
 70
     1
102
RTVSPropertyOp12
 70
     1
102
RTVSPropertyOp13
 70
     1
102
RTVSPropertyOp14
 70
     1
102
RTVSPropertyOp15
 70
     1
102
RTVSPropertyOp16
 70
     1
102
RTVSPropertyOp17
 70
     1
102
RTVSPropertyOp18
 70
     1
102
RTVSPropertyOp19
 70
     1
102
RTVSPropertyOp20
 70
     1
102
RTVSPropertyOp21
 70
     1
102
RTVSPropertyOp22
 70
     1
102
RTVSPropertyOp23
 70
     1
102
RTVSPropertyOp24
 70
     1
102
RTVSPropertyOp25
 70
     1
102
RTVSPropertyOp26
 70
     1
102
RTVSPropertyOp27
 70
     1
102
RTVSPropertyOp28
 70
     1
102
RTVSPropertyOp29
 70
     1
102
RTVSPropertyOp30
 70
     1
102
RTVSPropertyOp31
 70
     1
102
RTVSPropertyOp32
 70
     1
102
RTVSPropertyOp33
 70
     1
102
RTVSPropertyOp34
 70
     1
102
RTVSPropertyOp35
 70
     1
102
RTVSPropertyOp36
 70
     1
102
RTVSPropertyOp37
 70
     1
102
RTVSPropertyOp38
 70
     1
102
RTVSPropertyOp39
 70
     1
102
RTVSPropertyOp40
 70
     1
102
RTVSPropertyOp41
 70
     1
102
RTVSPropertyOp42
 70
     1
102
RTVSPropertyOp43
 70
     1
102
RTVSPropertyOp44
 70
     1
102
RTVSPropertyOp45
 70
     1
102
RTVSPropertyOp46
 70
     1
102
RTVSPropertyOp47
 70
     1
102
RTVSPropertyOp48
 70
     1
102
RTVSPropertyOp49
 70
     1
102
RTVSPropertyOp50
 70
     1
102
RTVSPropertyOp51
 70
     0
102
RTVSPropertyOp52
 70
     0
102
RTVSPropertyOp53
 70
     1
102
RTVSPropertyOp54
 70
     1
102
RTVSPropertyOp55
 70
     1
102
RTVSPropertyOp56
 70
     1
102
RTVSPropertyOp57
 70
     1
102
RTVSPropertyOp58
 70
     1
102
RTVSPropertyOp59
 70
     1
102
RTVSPropertyOp60
 70
     1
102
RTVSPropertyOp61
 70
     1
102
RTVSPropertyOp62
 70
     1
  0
XRECORD
  5
77E
102
{ACAD_REACTORS
330
77D
102
}
330
77D
100
AcDbXrecord
280
     1
102
RTVSPost2010Prop28
280
     0
102
RTVSPost2010PropOp28
 70
     1
102
RTVSPost2010Prop29
280
     1
102
RTVSPost2010PropOp29
 70
     1
102
RTVSPost2010Prop30
280
     1
102
RTVSPost2010PropOp30
 70
     1
102
RTVSPost2010Prop31
280
     0
102
RTVSPost2010PropOp31
 70
     1
102
RTVSPost2010Prop32
280
     0
102
RTVSPost2010PropOp32
 70
     1
102
RTVSPost2010Prop33
280
     0
102
RTVSPost2010PropOp33
 70
     1
102
RTVSPost2010Prop34
280
     0
102
RTVSPost2010PropOp34
 70
     1
102
RTVSPost2010Prop35
280
     0
102
RTVSPost2010PropOp35
 70
     1
102
RTVSPost2010Prop36
280
     0
102
RTVSPost2010PropOp36
 70
     1
102
RTVSPost2010Prop37
 90
       50
102
RTVSPost2010PropOp37
 70
     0
102
RTVSPost2010Prop38
140
0.0
102
RTVSPost2010PropOp38
 70
     0
102
RTVSPost2010Prop39
140
1.0
102
RTVSPost2010PropOp39
 70
     0
102
RTVSPost2010Prop40
 90
        0
102
RTVSPost2010PropOp40
 70
     0
102
RTVSPost2010Prop41ColorIndex
 90
       18
102
RTVSPost2010Prop41ColorRGB
 90
        0
102
RTVSPost2010PropOp41
 70
     0
102
RTVSPost2010Prop42
 90
       50
102
RTVSPost2010PropOp42
 70
     0
102
RTVSPost2010Prop43
 90
        3
102
RTVSPost2010PropOp43
 70
     0
102
RTVSPost2010Prop44ColorIndex
 90
        5
102
RTVSPost2010Prop44ColorRGB
 90
      255
102
RTVSPost2010PropOp44
 70
     0
102
RTVSPost2010Prop45
280
     0
102
RTVSPost2010PropOp45
 70
     1
102
RTVSPost2010Prop46
 90
       50
102
RTVSPost2010PropOp46
 70
     0
102
RTVSPost2010Prop47
 90
       50
102
RTVSPost2010PropOp47
 70
     0
102
RTVSPost2010Prop48
 90
       50
102
RTVSPost2010PropOp48
 70
     0
102
RTVSPost2010Prop49
280
     0
102
RTVSPost2010PropOp49
 70
     1
102
RTVSPost2010Prop50
 90
       50
102
RTVSPost2010PropOp50
 70
     0
102
RTVSPost2010Prop51ColorIndex
 90
      256
102
RTVSPost2010Prop51ColorRGB
 90
-16777216
102
RTVSPost2010PropOp51
 70
     0
102
RTVSPost2010Prop52
140
1.0
102
RTVSPost2010PropOp52
 70
     0
102
RTVSPost2010Prop53
 90
        2
102
RTVSPost2010PropOp53
 70
     0
102
RTVSPost2010Prop54
  1
strokes_ogs.tif
102
RTVSPost2010PropOp54
 70
     0
102
RTVSPost2010Prop55
280
     0
102
RTVSPost2010PropOp55
 70
     1
102
RTVSPost2010Prop56
140
1.0
102
RTVSPost2010PropOp56
 70
     0
102
RTVSPost2010Prop57
140
1.0
102
RTVSPost2010PropOp57
 70
     0
102
RTVSPropertyOp0
 70
     0
102
RTVSPropertyOp1
 70
     0
102
RTVSPropertyOp2
 70
     0
102
RTVSPropertyOp3
 70
     0
102
RTVSPropertyOp4
 70
     0
102
RTVSPropertyOp5
 70
     0
102
RTVSPropertyOp6
 70
     0
102
RTVSPropertyOp7
 70
     0
102
RTVSPropertyOp8
 70
     0
102
RTVSPropertyOp9
 70
     0
102
RTVSPropertyOp10
 70
     0
102
RTVSPropertyOp11
 70
     0
102
RTVSPropertyOp12
 70
     0
102
RTVSPropertyOp13
 70
     0
102
RTVSPropertyOp14
 70
     2
102
RTVSPropertyOp15
 70
     0
102
RTVSPropertyOp16
 70
     0
102
RTVSPropertyOp17
 70
     0
102
RTVSPropertyOp18
 70
     0
102
RTVSPropertyOp19
 70
     0
102
RTVSPropertyOp20
 70
     0
102
RTVSPropertyOp21
 70
     0
102
RTVSPropertyOp22
 70
     0
102
RTVSPropertyOp23
 70
     0
102
RTVSPropertyOp24
 70
     0
102
RTVSPropertyOp25
 70
     0
102
RTVSPropertyOp26
 70
     0
102
RTVSPropertyOp27
 70
     0
102
RTVSPropertyOp28
 70
     1
102
RTVSPropertyOp29
 70
     1
102
RTVSPropertyOp30
 70
     1
102
RTVSPropertyOp31
 70
     1
102
RTVSPropertyOp32
 70
     1
102
RTVSPropertyOp33
 70
     1
102
RTVSPropertyOp34
 70
     1
102
RTVSPropertyOp35
 70
     1
102
RTVSPropertyOp36
 70
     1
102
RTVSPropertyOp37
 70
     0
102
RTVSPropertyOp38
 70
     0
102
RTVSPropertyOp39
 70
     0
102
RTVSPropertyOp40
 70
     0
102
RTVSPropertyOp41
 70
     0
102
RTVSPropertyOp42
 70
     0
102
RTVSPropertyOp43
 70
     0
102
RTVSPropertyOp44
 70
     0
102
RTVSPropertyOp45
 70
     1
102
RTVSPropertyOp46
 70
     0
102
RTVSPropertyOp47
 70
     0
102
RTVSPropertyOp48
 70
     0
102
RTVSPropertyOp49
 70
     1
102
RTVSPropertyOp50
 70
     0
102
RTVSPropertyOp51
 70
     0
102
RTVSPropertyOp52
 70
     0
102
RTVSPropertyOp53
 70
     0
102
RTVSPropertyOp54
 70
     0
102
RTVSPropertyOp55
 70
     1
102
RTVSPropertyOp56
 70
     0
102
RTVSPropertyOp57
 70
     0
102
RTVSPropertyOp58
 70
     0
102
RTVSPropertyOp59
 70
     0
102
RTVSPropertyOp60
 70
     0
102
RTVSPropertyOp61
 70
     0
102
RTVSPropertyOp62
 70
     0
  0
XRECORD
  5
76C
102
{ACAD_REACTORS
330
76B
102
}
330
76B
100
AcDbXrecord
280
     1
102
RTVSPost2010Prop28
280
     0
102
RTVSPost2010PropOp28
 70
     1
102
RTVSPost2010Prop29
280
     1
102
RTVSPost2010PropOp29
 70
     1
102
RTVSPost2010Prop30
280
     1
102
RTVSPost2010PropOp30
 70
     1
102
RTVSPost2010Prop31
280
     0
102
RTVSPost2010PropOp31
 70
     1
102
RTVSPost2010Prop32
280
     0
102
RTVSPost2010PropOp32
 70
     1
102
RTVSPost2010Prop33
280
     0
102
RTVSPost2010PropOp33
 70
     1
102
RTVSPost2010Prop34
280
     0
102
RTVSPost2010PropOp34
 70
     1
102
RTVSPost2010Prop35
280
     0
102
RTVSPost2010PropOp35
 70
     1
102
RTVSPost2010Prop36
280
     0
102
RTVSPost2010PropOp36
 70
     1
102
RTVSPost2010Prop37
 90
       50
102
RTVSPost2010PropOp37
 70
     1
102
RTVSPost2010Prop38
140
0.0
102
RTVSPost2010PropOp38
 70
     1
102
RTVSPost2010Prop39
140
1.0
102
RTVSPost2010PropOp39
 70
     1
102
RTVSPost2010Prop40
 90
        0
102
RTVSPost2010PropOp40
 70
     1
102
RTVSPost2010Prop41ColorIndex
 90
       18
102
RTVSPost2010Prop41ColorRGB
 90
        0
102
RTVSPost2010PropOp41
 70
     1
102
RTVSPost2010Prop42
 90
       50
102
RTVSPost2010PropOp42
 70
     1
102
RTVSPost2010Prop43
 90
        3
102
RTVSPost2010PropOp43
 70
     1
102
RTVSPost2010Prop44ColorIndex
 90
        5
102
RTVSPost2010Prop44ColorRGB
 90
      255
102
RTVSPost2010PropOp44
 70
     1
102
RTVSPost2010Prop45
280
     0
102
RTVSPost2010PropOp45
 70
     1
102
RTVSPost2010Prop46
 90
       50
102
RTVSPost2010PropOp46
 70
     1
102
RTVSPost2010Prop47
 90
       50
102
RTVSPost2010PropOp47
 70
     1
102
RTVSPost2010Prop48
 90
       50
102
RTVSPost2010PropOp48
 70
     1
102
RTVSPost2010Prop49
280
     0
102
RTVSPost2010PropOp49
 70
     1
102
RTVSPost2010Prop50
 90
       50
102
RTVSPost2010PropOp50
 70
     1
102
RTVSPost2010Prop51ColorIndex
 90
      256
102
RTVSPost2010Prop51ColorRGB
 90
-16777216
102
RTVSPost2010PropOp51
 70
     0
102
RTVSPost2010Prop52
140
1.0
102
RTVSPost2010PropOp52
 70
     0
102
RTVSPost2010Prop53
 90
        2
102
RTVSPost2010PropOp53
 70
     1
102
RTVSPost2010Prop54
  1
strokes_ogs.tif
102
RTVSPost2010PropOp54
 70
     1
102
RTVSPost2010Prop55
280
     0
102
RTVSPost2010PropOp55
 70
     1
102
RTVSPost2010Prop56
140
1.0
102
RTVSPost2010PropOp56
 70
     1
102
RTVSPost2010Prop57
140
1.0
102
RTVSPost2010PropOp57
 70
     1
102
RTVSPropertyOp0
 70
     1
102
RTVSPropertyOp1
 70
     1
102
RTVSPropertyOp2
 70
     1
102
RTVSPropertyOp3
 70
     1
102
RTVSPropertyOp4
 70
     1
102
RTVSPropertyOp5
 70
     1
102
RTVSPropertyOp6
 70
     1
102
RTVSPropertyOp7
 70
     1
102
RTVSPropertyOp8
 70
     1
102
RTVSPropertyOp9
 70
     1
102
RTVSPropertyOp10
 70
     1
102
RTVSPropertyOp11
 70
     1
102
RTVSPropertyOp12
 70
     1
102
RTVSPropertyOp13
 70
     1
102
RTVSPropertyOp14
 70
     1
102
RTVSPropertyOp15
 70
     1
102
RTVSPropertyOp16
 70
     1
102
RTVSPropertyOp17
 70
     1
102
RTVSPropertyOp18
 70
     1
102
RTVSPropertyOp19
 70
     1
102
RTVSPropertyOp20
 70
     1
102
RTVSPropertyOp21
 70
     1
102
RTVSPropertyOp22
 70
     1
102
RTVSPropertyOp23
 70
     1
102
RTVSPropertyOp24
 70
     1
102
RTVSPropertyOp25
 70
     1
102
RTVSPropertyOp26
 70
     1
102
RTVSPropertyOp27
 70
     1
102
RTVSPropertyOp28
 70
     1
102
RTVSPropertyOp29
 70
     1
102
RTVSPropertyOp30
 70
     1
102
RTVSPropertyOp31
 70
     1
102
RTVSPropertyOp32
 70
     1
102
RTVSPropertyOp33
 70
     1
102
RTVSPropertyOp34
 70
     1
102
RTVSPropertyOp35
 70
     1
102
RTVSPropertyOp36
 70
     1
102
RTVSPropertyOp37
 70
     1
102
RTVSPropertyOp38
 70
     1
102
RTVSPropertyOp39
 70
     1
102
RTVSPropertyOp40
 70
     1
102
RTVSPropertyOp41
 70
     1
102
RTVSPropertyOp42
 70
     1
102
RTVSPropertyOp43
 70
     1
102
RTVSPropertyOp44
 70
     1
102
RTVSPropertyOp45
 70
     1
102
RTVSPropertyOp46
 70
     1
102
RTVSPropertyOp47
 70
     1
102
RTVSPropertyOp48
 70
     1
102
RTVSPropertyOp49
 70
     1
102
RTVSPropertyOp50
 70
     1
102
RTVSPropertyOp51
 70
     0
102
RTVSPropertyOp52
 70
     0
102
RTVSPropertyOp53
 70
     1
102
RTVSPropertyOp54
 70
     1
102
RTVSPropertyOp55
 70
     1
102
RTVSPropertyOp56
 70
     1
102
RTVSPropertyOp57
 70
     1
102
RTVSPropertyOp58
 70
     1
102
RTVSPropertyOp59
 70
     1
102
RTVSPropertyOp60
 70
     1
102
RTVSPropertyOp61
 70
     1
102
RTVSPropertyOp62
 70
     1
  0
XRECORD
  5
750
102
{ACAD_REACTORS
330
74F
102
}
330
74F
100
AcDbXrecord
280
     1
102
RTVSPost2010Prop28
280
     0
102
RTVSPost2010PropOp28
 70
     1
102
RTVSPost2010Prop29
280
     1
102
RTVSPost2010PropOp29
 70
     1
102
RTVSPost2010Prop30
280
     1
102
RTVSPost2010PropOp30
 70
     1
102
RTVSPost2010Prop31
280
     0
102
RTVSPost2010PropOp31
 70
     1
102
RTVSPost2010Prop32
280
     0
102
RTVSPost2010PropOp32
 70
     1
102
RTVSPost2010Prop33
280
     0
102
RTVSPost2010PropOp33
 70
     1
102
RTVSPost2010Prop34
280
     0
102
RTVSPost2010PropOp34
 70
     1
102
RTVSPost2010Prop35
280
     0
102
RTVSPost2010PropOp35
 70
     1
102
RTVSPost2010Prop36
280
     0
102
RTVSPost2010PropOp36
 70
     1
102
RTVSPost2010Prop37
 90
       50
102
RTVSPost2010PropOp37
 70
     1
102
RTVSPost2010Prop38
140
0.0
102
RTVSPost2010PropOp38
 70
     1
102
RTVSPost2010Prop39
140
1.0
102
RTVSPost2010PropOp39
 70
     1
102
RTVSPost2010Prop40
 90
        0
102
RTVSPost2010PropOp40
 70
     1
102
RTVSPost2010Prop41ColorIndex
 90
       18
102
RTVSPost2010Prop41ColorRGB
 90
        0
102
RTVSPost2010PropOp41
 70
     1
102
RTVSPost2010Prop42
 90
       50
102
RTVSPost2010PropOp42
 70
     1
102
RTVSPost2010Prop43
 90
        3
102
RTVSPost2010PropOp43
 70
     1
102
RTVSPost2010Prop44ColorIndex
 90
        5
102
RTVSPost2010Prop44ColorRGB
 90
      255
102
RTVSPost2010PropOp44
 70
     1
102
RTVSPost2010Prop45
280
     0
102
RTVSPost2010PropOp45
 70
     1
102
RTVSPost2010Prop46
 90
       50
102
RTVSPost2010PropOp46
 70
     1
102
RTVSPost2010Prop47
 90
       50
102
RTVSPost2010PropOp47
 70
     1
102
RTVSPost2010Prop48
 90
       50
102
RTVSPost2010PropOp48
 70
     1
102
RTVSPost2010Prop49
280
     0
102
RTVSPost2010PropOp49
 70
     1
102
RTVSPost2010Prop50
 90
       50
102
RTVSPost2010PropOp50
 70
     1
102
RTVSPost2010Prop51ColorIndex
 90
      256
102
RTVSPost2010Prop51ColorRGB
 90
-16777216
102
RTVSPost2010PropOp51
 70
     0
102
RTVSPost2010Prop52
140
1.0
102
RTVSPost2010PropOp52
 70
     0
102
RTVSPost2010Prop53
 90
        2
102
RTVSPost2010PropOp53
 70
     1
102
RTVSPost2010Prop54
  1
strokes_ogs.tif
102
RTVSPost2010PropOp54
 70
     1
102
RTVSPost2010Prop55
280
     0
102
RTVSPost2010PropOp55
 70
     1
102
RTVSPost2010Prop56
140
1.0
102
RTVSPost2010PropOp56
 70
     1
102
RTVSPost2010Prop57
140
1.0
102
RTVSPost2010PropOp57
 70
     1
102
RTVSPropertyOp0
 70
     1
102
RTVSPropertyOp1
 70
     1
102
RTVSPropertyOp2
 70
     1
102
RTVSPropertyOp3
 70
     1
102
RTVSPropertyOp4
 70
     1
102
RTVSPropertyOp5
 70
     1
102
RTVSPropertyOp6
 70
     1
102
RTVSPropertyOp7
 70
     1
102
RTVSPropertyOp8
 70
     1
102
RTVSPropertyOp9
 70
     1
102
RTVSPropertyOp10
 70
     1
102
RTVSPropertyOp11
 70
     1
102
RTVSPropertyOp12
 70
     1
102
RTVSPropertyOp13
 70
     1
102
RTVSPropertyOp14
 70
     1
102
RTVSPropertyOp15
 70
     1
102
RTVSPropertyOp16
 70
     1
102
RTVSPropertyOp17
 70
     1
102
RTVSPropertyOp18
 70
     1
102
RTVSPropertyOp19
 70
     1
102
RTVSPropertyOp20
 70
     1
102
RTVSPropertyOp21
 70
     1
102
RTVSPropertyOp22
 70
     1
102
RTVSPropertyOp23
 70
     1
102
RTVSPropertyOp24
 70
     1
102
RTVSPropertyOp25
 70
     1
102
RTVSPropertyOp26
 70
     1
102
RTVSPropertyOp27
 70
     1
102
RTVSPropertyOp28
 70
     1
102
RTVSPropertyOp29
 70
     1
102
RTVSPropertyOp30
 70
     1
102
RTVSPropertyOp31
 70
     1
102
RTVSPropertyOp32
 70
     1
102
RTVSPropertyOp33
 70
     1
102
RTVSPropertyOp34
 70
     1
102
RTVSPropertyOp35
 70
     1
102
RTVSPropertyOp36
 70
     1
102
RTVSPropertyOp37
 70
     1
102
RTVSPropertyOp38
 70
     1
102
RTVSPropertyOp39
 70
     1
102
RTVSPropertyOp40
 70
     1
102
RTVSPropertyOp41
 70
     1
102
RTVSPropertyOp42
 70
     1
102
RTVSPropertyOp43
 70
     1
102
RTVSPropertyOp44
 70
     1
102
RTVSPropertyOp45
 70
     1
102
RTVSPropertyOp46
 70
     1
102
RTVSPropertyOp47
 70
     1
102
RTVSPropertyOp48
 70
     1
102
RTVSPropertyOp49
 70
     1
102
RTVSPropertyOp50
 70
     1
102
RTVSPropertyOp51
 70
     0
102
RTVSPropertyOp52
 70
     0
102
RTVSPropertyOp53
 70
     1
102
RTVSPropertyOp54
 70
     1
102
RTVSPropertyOp55
 70
     1
102
RTVSPropertyOp56
 70
     1
102
RTVSPropertyOp57
 70
     1
102
RTVSPropertyOp58
 70
     1
102
RTVSPropertyOp59
 70
     1
102
RTVSPropertyOp60
 70
     1
102
RTVSPropertyOp61
 70
     1
102
RTVSPropertyOp62
 70
     1
  0
XRECORD
  5
752
102
{ACAD_REACTORS
330
751
102
}
330
751
100
AcDbXrecord
280
     1
102
RTVSPost2010Prop28
280
     0
102
RTVSPost2010PropOp28
 70
     1
102
RTVSPost2010Prop29
280
     1
102
RTVSPost2010PropOp29
 70
     1
102
RTVSPost2010Prop30
280
     1
102
RTVSPost2010PropOp30
 70
     1
102
RTVSPost2010Prop31
280
     0
102
RTVSPost2010PropOp31
 70
     1
102
RTVSPost2010Prop32
280
     0
102
RTVSPost2010PropOp32
 70
     1
102
RTVSPost2010Prop33
280
     0
102
RTVSPost2010PropOp33
 70
     1
102
RTVSPost2010Prop34
280
     0
102
RTVSPost2010PropOp34
 70
     1
102
RTVSPost2010Prop35
280
     0
102
RTVSPost2010PropOp35
 70
     1
102
RTVSPost2010Prop36
280
     0
102
RTVSPost2010PropOp36
 70
     1
102
RTVSPost2010Prop37
 90
       50
102
RTVSPost2010PropOp37
 70
     1
102
RTVSPost2010Prop38
140
0.0
102
RTVSPost2010PropOp38
 70
     1
102
RTVSPost2010Prop39
140
1.0
102
RTVSPost2010PropOp39
 70
     1
102
RTVSPost2010Prop40
 90
        0
102
RTVSPost2010PropOp40
 70
     1
102
RTVSPost2010Prop41ColorIndex
 90
       18
102
RTVSPost2010Prop41ColorRGB
 90
        0
102
RTVSPost2010PropOp41
 70
     1
102
RTVSPost2010Prop42
 90
       50
102
RTVSPost2010PropOp42
 70
     1
102
RTVSPost2010Prop43
 90
        3
102
RTVSPost2010PropOp43
 70
     1
102
RTVSPost2010Prop44ColorIndex
 90
        5
102
RTVSPost2010Prop44ColorRGB
 90
      255
102
RTVSPost2010PropOp44
 70
     1
102
RTVSPost2010Prop45
280
     0
102
RTVSPost2010PropOp45
 70
     1
102
RTVSPost2010Prop46
 90
       50
102
RTVSPost2010PropOp46
 70
     1
102
RTVSPost2010Prop47
 90
       50
102
RTVSPost2010PropOp47
 70
     1
102
RTVSPost2010Prop48
 90
       50
102
RTVSPost2010PropOp48
 70
     1
102
RTVSPost2010Prop49
280
     0
102
RTVSPost2010PropOp49
 70
     1
102
RTVSPost2010Prop50
 90
       50
102
RTVSPost2010PropOp50
 70
     1
102
RTVSPost2010Prop51ColorIndex
 90
      256
102
RTVSPost2010Prop51ColorRGB
 90
-16777216
102
RTVSPost2010PropOp51
 70
     0
102
RTVSPost2010Prop52
140
1.0
102
RTVSPost2010PropOp52
 70
     0
102
RTVSPost2010Prop53
 90
        2
102
RTVSPost2010PropOp53
 70
     1
102
RTVSPost2010Prop54
  1
strokes_ogs.tif
102
RTVSPost2010PropOp54
 70
     1
102
RTVSPost2010Prop55
280
     0
102
RTVSPost2010PropOp55
 70
     1
102
RTVSPost2010Prop56
140
1.0
102
RTVSPost2010PropOp56
 70
     1
102
RTVSPost2010Prop57
140
1.0
102
RTVSPost2010PropOp57
 70
     1
102
RTVSPropertyOp0
 70
     1
102
RTVSPropertyOp1
 70
     1
102
RTVSPropertyOp2
 70
     1
102
RTVSPropertyOp3
 70
     1
102
RTVSPropertyOp4
 70
     1
102
RTVSPropertyOp5
 70
     1
102
RTVSPropertyOp6
 70
     1
102
RTVSPropertyOp7
 70
     1
102
RTVSPropertyOp8
 70
     1
102
RTVSPropertyOp9
 70
     1
102
RTVSPropertyOp10
 70
     1
102
RTVSPropertyOp11
 70
     1
102
RTVSPropertyOp12
 70
     1
102
RTVSPropertyOp13
 70
     1
102
RTVSPropertyOp14
 70
     1
102
RTVSPropertyOp15
 70
     1
102
RTVSPropertyOp16
 70
     1
102
RTVSPropertyOp17
 70
     1
102
RTVSPropertyOp18
 70
     1
102
RTVSPropertyOp19
 70
     1
102
RTVSPropertyOp20
 70
     1
102
RTVSPropertyOp21
 70
     1
102
RTVSPropertyOp22
 70
     1
102
RTVSPropertyOp23
 70
     1
102
RTVSPropertyOp24
 70
     1
102
RTVSPropertyOp25
 70
     1
102
RTVSPropertyOp26
 70
     1
102
RTVSPropertyOp27
 70
     1
102
RTVSPropertyOp28
 70
     1
102
RTVSPropertyOp29
 70
     1
102
RTVSPropertyOp30
 70
     1
102
RTVSPropertyOp31
 70
     1
102
RTVSPropertyOp32
 70
     1
102
RTVSPropertyOp33
 70
     1
102
RTVSPropertyOp34
 70
     1
102
RTVSPropertyOp35
 70
     1
102
RTVSPropertyOp36
 70
     1
102
RTVSPropertyOp37
 70
     1
102
RTVSPropertyOp38
 70
     1
102
RTVSPropertyOp39
 70
     1
102
RTVSPropertyOp40
 70
     1
102
RTVSPropertyOp41
 70
     1
102
RTVSPropertyOp42
 70
     1
102
RTVSPropertyOp43
 70
     1
102
RTVSPropertyOp44
 70
     1
102
RTVSPropertyOp45
 70
     1
102
RTVSPropertyOp46
 70
     1
102
RTVSPropertyOp47
 70
     1
102
RTVSPropertyOp48
 70
     1
102
RTVSPropertyOp49
 70
     1
102
RTVSPropertyOp50
 70
     1
102
RTVSPropertyOp51
 70
     0
102
RTVSPropertyOp52
 70
     0
102
RTVSPropertyOp53
 70
     1
102
RTVSPropertyOp54
 70
     1
102
RTVSPropertyOp55
 70
     1
102
RTVSPropertyOp56
 70
     1
102
RTVSPropertyOp57
 70
     1
102
RTVSPropertyOp58
 70
     1
102
RTVSPropertyOp59
 70
     1
102
RTVSPropertyOp60
 70
     1
102
RTVSPropertyOp61
 70
     1
102
RTVSPropertyOp62
 70
     1
  0
XRECORD
  5
754
102
{ACAD_REACTORS
330
753
102
}
330
753
100
AcDbXrecord
280
     1
102
RTVSPost2010Prop28
280
     0
102
RTVSPost2010PropOp28
 70
     1
102
RTVSPost2010Prop29
280
     1
102
RTVSPost2010PropOp29
 70
     1
102
RTVSPost2010Prop30
280
     1
102
RTVSPost2010PropOp30
 70
     1
102
RTVSPost2010Prop31
280
     0
102
RTVSPost2010PropOp31
 70
     1
102
RTVSPost2010Prop32
280
     0
102
RTVSPost2010PropOp32
 70
     1
102
RTVSPost2010Prop33
280
     0
102
RTVSPost2010PropOp33
 70
     1
102
RTVSPost2010Prop34
280
     0
102
RTVSPost2010PropOp34
 70
     1
102
RTVSPost2010Prop35
280
     0
102
RTVSPost2010PropOp35
 70
     1
102
RTVSPost2010Prop36
280
     0
102
RTVSPost2010PropOp36
 70
     1
102
RTVSPost2010Prop37
 90
       50
102
RTVSPost2010PropOp37
 70
     1
102
RTVSPost2010Prop38
140
0.0
102
RTVSPost2010PropOp38
 70
     1
102
RTVSPost2010Prop39
140
1.0
102
RTVSPost2010PropOp39
 70
     1
102
RTVSPost2010Prop40
 90
        0
102
RTVSPost2010PropOp40
 70
     1
102
RTVSPost2010Prop41ColorIndex
 90
       18
102
RTVSPost2010Prop41ColorRGB
 90
        0
102
RTVSPost2010PropOp41
 70
     1
102
RTVSPost2010Prop42
 90
       50
102
RTVSPost2010PropOp42
 70
     1
102
RTVSPost2010Prop43
 90
        3
102
RTVSPost2010PropOp43
 70
     1
102
RTVSPost2010Prop44ColorIndex
 90
        5
102
RTVSPost2010Prop44ColorRGB
 90
      255
102
RTVSPost2010PropOp44
 70
     1
102
RTVSPost2010Prop45
280
     0
102
RTVSPost2010PropOp45
 70
     1
102
RTVSPost2010Prop46
 90
       50
102
RTVSPost2010PropOp46
 70
     1
102
RTVSPost2010Prop47
 90
       50
102
RTVSPost2010PropOp47
 70
     1
102
RTVSPost2010Prop48
 90
       50
102
RTVSPost2010PropOp48
 70
     1
102
RTVSPost2010Prop49
280
     0
102
RTVSPost2010PropOp49
 70
     1
102
RTVSPost2010Prop50
 90
       50
102
RTVSPost2010PropOp50
 70
     1
102
RTVSPost2010Prop51ColorIndex
 90
      256
102
RTVSPost2010Prop51ColorRGB
 90
-16777216
102
RTVSPost2010PropOp51
 70
     0
102
RTVSPost2010Prop52
140
1.0
102
RTVSPost2010PropOp52
 70
     0
102
RTVSPost2010Prop53
 90
        2
102
RTVSPost2010PropOp53
 70
     1
102
RTVSPost2010Prop54
  1
strokes_ogs.tif
102
RTVSPost2010PropOp54
 70
     1
102
RTVSPost2010Prop55
280
     0
102
RTVSPost2010PropOp55
 70
     1
102
RTVSPost2010Prop56
140
1.0
102
RTVSPost2010PropOp56
 70
     1
102
RTVSPost2010Prop57
140
1.0
102
RTVSPost2010PropOp57
 70
     1
102
RTVSPropertyOp0
 70
     1
102
RTVSPropertyOp1
 70
     1
102
RTVSPropertyOp2
 70
     1
102
RTVSPropertyOp3
 70
     1
102
RTVSPropertyOp4
 70
     1
102
RTVSPropertyOp5
 70
     1
102
RTVSPropertyOp6
 70
     1
102
RTVSPropertyOp7
 70
     1
102
RTVSPropertyOp8
 70
     1
102
RTVSPropertyOp9
 70
     1
102
RTVSPropertyOp10
 70
     1
102
RTVSPropertyOp11
 70
     1
102
RTVSPropertyOp12
 70
     1
102
RTVSPropertyOp13
 70
     1
102
RTVSPropertyOp14
 70
     1
102
RTVSPropertyOp15
 70
     1
102
RTVSPropertyOp16
 70
     1
102
RTVSPropertyOp17
 70
     1
102
RTVSPropertyOp18
 70
     1
102
RTVSPropertyOp19
 70
     1
102
RTVSPropertyOp20
 70
     1
102
RTVSPropertyOp21
 70
     1
102
RTVSPropertyOp22
 70
     1
102
RTVSPropertyOp23
 70
     1
102
RTVSPropertyOp24
 70
     1
102
RTVSPropertyOp25
 70
     1
102
RTVSPropertyOp26
 70
     1
102
RTVSPropertyOp27
 70
     1
102
RTVSPropertyOp28
 70
     1
102
RTVSPropertyOp29
 70
     1
102
RTVSPropertyOp30
 70
     1
102
RTVSPropertyOp31
 70
     1
102
RTVSPropertyOp32
 70
     1
102
RTVSPropertyOp33
 70
     1
102
RTVSPropertyOp34
 70
     1
102
RTVSPropertyOp35
 70
     1
102
RTVSPropertyOp36
 70
     1
102
RTVSPropertyOp37
 70
     1
102
RTVSPropertyOp38
 70
     1
102
RTVSPropertyOp39
 70
     1
102
RTVSPropertyOp40
 70
     1
102
RTVSPropertyOp41
 70
     1
102
RTVSPropertyOp42
 70
     1
102
RTVSPropertyOp43
 70
     1
102
RTVSPropertyOp44
 70
     1
102
RTVSPropertyOp45
 70
     1
102
RTVSPropertyOp46
 70
     1
102
RTVSPropertyOp47
 70
     1
102
RTVSPropertyOp48
 70
     1
102
RTVSPropertyOp49
 70
     1
102
RTVSPropertyOp50
 70
     1
102
RTVSPropertyOp51
 70
     0
102
RTVSPropertyOp52
 70
     0
102
RTVSPropertyOp53
 70
     1
102
RTVSPropertyOp54
 70
     1
102
RTVSPropertyOp55
 70
     1
102
RTVSPropertyOp56
 70
     1
102
RTVSPropertyOp57
 70
     1
102
RTVSPropertyOp58
 70
     1
102
RTVSPropertyOp59
 70
     1
102
RTVSPropertyOp60
 70
     1
102
RTVSPropertyOp61
 70
     1
102
RTVSPropertyOp62
 70
     1
  0
XRECORD
  5
756
102
{ACAD_REACTORS
330
755
102
}
330
755
100
AcDbXrecord
280
     1
102
RTVSPost2010Prop28
280
     0
102
RTVSPost2010PropOp28
 70
     1
102
RTVSPost2010Prop29
280
     1
102
RTVSPost2010PropOp29
 70
     1
102
RTVSPost2010Prop30
280
     1
102
RTVSPost2010PropOp30
 70
     1
102
RTVSPost2010Prop31
280
     0
102
RTVSPost2010PropOp31
 70
     1
102
RTVSPost2010Prop32
280
     0
102
RTVSPost2010PropOp32
 70
     1
102
RTVSPost2010Prop33
280
     0
102
RTVSPost2010PropOp33
 70
     1
102
RTVSPost2010Prop34
280
     0
102
RTVSPost2010PropOp34
 70
     1
102
RTVSPost2010Prop35
280
     0
102
RTVSPost2010PropOp35
 70
     1
102
RTVSPost2010Prop36
280
     0
102
RTVSPost2010PropOp36
 70
     1
102
RTVSPost2010Prop37
 90
       50
102
RTVSPost2010PropOp37
 70
     1
102
RTVSPost2010Prop38
140
0.0
102
RTVSPost2010PropOp38
 70
     1
102
RTVSPost2010Prop39
140
1.0
102
RTVSPost2010PropOp39
 70
     1
102
RTVSPost2010Prop40
 90
        0
102
RTVSPost2010PropOp40
 70
     1
102
RTVSPost2010Prop41ColorIndex
 90
       18
102
RTVSPost2010Prop41ColorRGB
 90
        0
102
RTVSPost2010PropOp41
 70
     1
102
RTVSPost2010Prop42
 90
       50
102
RTVSPost2010PropOp42
 70
     1
102
RTVSPost2010Prop43
 90
        3
102
RTVSPost2010PropOp43
 70
     1
102
RTVSPost2010Prop44ColorIndex
 90
        5
102
RTVSPost2010Prop44ColorRGB
 90
      255
102
RTVSPost2010PropOp44
 70
     1
102
RTVSPost2010Prop45
280
     0
102
RTVSPost2010PropOp45
 70
     1
102
RTVSPost2010Prop46
 90
       50
102
RTVSPost2010PropOp46
 70
     1
102
RTVSPost2010Prop47
 90
       50
102
RTVSPost2010PropOp47
 70
     1
102
RTVSPost2010Prop48
 90
       50
102
RTVSPost2010PropOp48
 70
     1
102
RTVSPost2010Prop49
280
     0
102
RTVSPost2010PropOp49
 70
     1
102
RTVSPost2010Prop50
 90
       50
102
RTVSPost2010PropOp50
 70
     1
102
RTVSPost2010Prop51ColorIndex
 90
      256
102
RTVSPost2010Prop51ColorRGB
 90
-16777216
102
RTVSPost2010PropOp51
 70
     0
102
RTVSPost2010Prop52
140
1.0
102
RTVSPost2010PropOp52
 70
     0
102
RTVSPost2010Prop53
 90
        2
102
RTVSPost2010PropOp53
 70
     1
102
RTVSPost2010Prop54
  1
strokes_ogs.tif
102
RTVSPost2010PropOp54
 70
     1
102
RTVSPost2010Prop55
280
     0
102
RTVSPost2010PropOp55
 70
     1
102
RTVSPost2010Prop56
140
1.0
102
RTVSPost2010PropOp56
 70
     1
102
RTVSPost2010Prop57
140
1.0
102
RTVSPost2010PropOp57
 70
     1
102
RTVSPropertyOp0
 70
     1
102
RTVSPropertyOp1
 70
     1
102
RTVSPropertyOp2
 70
     1
102
RTVSPropertyOp3
 70
     1
102
RTVSPropertyOp4
 70
     1
102
RTVSPropertyOp5
 70
     1
102
RTVSPropertyOp6
 70
     1
102
RTVSPropertyOp7
 70
     1
102
RTVSPropertyOp8
 70
     1
102
RTVSPropertyOp9
 70
     1
102
RTVSPropertyOp10
 70
     1
102
RTVSPropertyOp11
 70
     1
102
RTVSPropertyOp12
 70
     1
102
RTVSPropertyOp13
 70
     1
102
RTVSPropertyOp14
 70
     1
102
RTVSPropertyOp15
 70
     1
102
RTVSPropertyOp16
 70
     1
102
RTVSPropertyOp17
 70
     1
102
RTVSPropertyOp18
 70
     1
102
RTVSPropertyOp19
 70
     1
102
RTVSPropertyOp20
 70
     1
102
RTVSPropertyOp21
 70
     1
102
RTVSPropertyOp22
 70
     1
102
RTVSPropertyOp23
 70
     1
102
RTVSPropertyOp24
 70
     1
102
RTVSPropertyOp25
 70
     1
102
RTVSPropertyOp26
 70
     1
102
RTVSPropertyOp27
 70
     1
102
RTVSPropertyOp28
 70
     1
102
RTVSPropertyOp29
 70
     1
102
RTVSPropertyOp30
 70
     1
102
RTVSPropertyOp31
 70
     1
102
RTVSPropertyOp32
 70
     1
102
RTVSPropertyOp33
 70
     1
102
RTVSPropertyOp34
 70
     1
102
RTVSPropertyOp35
 70
     1
102
RTVSPropertyOp36
 70
     1
102
RTVSPropertyOp37
 70
     1
102
RTVSPropertyOp38
 70
     1
102
RTVSPropertyOp39
 70
     1
102
RTVSPropertyOp40
 70
     1
102
RTVSPropertyOp41
 70
     1
102
RTVSPropertyOp42
 70
     1
102
RTVSPropertyOp43
 70
     1
102
RTVSPropertyOp44
 70
     1
102
RTVSPropertyOp45
 70
     1
102
RTVSPropertyOp46
 70
     1
102
RTVSPropertyOp47
 70
     1
102
RTVSPropertyOp48
 70
     1
102
RTVSPropertyOp49
 70
     1
102
RTVSPropertyOp50
 70
     1
102
RTVSPropertyOp51
 70
     0
102
RTVSPropertyOp52
 70
     0
102
RTVSPropertyOp53
 70
     1
102
RTVSPropertyOp54
 70
     1
102
RTVSPropertyOp55
 70
     1
102
RTVSPropertyOp56
 70
     1
102
RTVSPropertyOp57
 70
     1
102
RTVSPropertyOp58
 70
     1
102
RTVSPropertyOp59
 70
     1
102
RTVSPropertyOp60
 70
     1
102
RTVSPropertyOp61
 70
     1
102
RTVSPropertyOp62
 70
     1
  0
XRECORD
  5
75E
102
{ACAD_REACTORS
330
75D
102
}
330
75D
100
AcDbXrecord
280
     1
102
RTVSPost2010Prop28
280
     0
102
RTVSPost2010PropOp28
 70
     1
102
RTVSPost2010Prop29
280
     1
102
RTVSPost2010PropOp29
 70
     1
102
RTVSPost2010Prop30
280
     1
102
RTVSPost2010PropOp30
 70
     1
102
RTVSPost2010Prop31
280
     0
102
RTVSPost2010PropOp31
 70
     1
102
RTVSPost2010Prop32
280
     0
102
RTVSPost2010PropOp32
 70
     1
102
RTVSPost2010Prop33
280
     0
102
RTVSPost2010PropOp33
 70
     1
102
RTVSPost2010Prop34
280
     0
102
RTVSPost2010PropOp34
 70
     1
102
RTVSPost2010Prop35
280
     0
102
RTVSPost2010PropOp35
 70
     1
102
RTVSPost2010Prop36
280
     0
102
RTVSPost2010PropOp36
 70
     1
102
RTVSPost2010Prop37
 90
       50
102
RTVSPost2010PropOp37
 70
     1
102
RTVSPost2010Prop38
140
0.0
102
RTVSPost2010PropOp38
 70
     1
102
RTVSPost2010Prop39
140
1.0
102
RTVSPost2010PropOp39
 70
     1
102
RTVSPost2010Prop40
 90
        0
102
RTVSPost2010PropOp40
 70
     1
102
RTVSPost2010Prop41ColorIndex
 90
       18
102
RTVSPost2010Prop41ColorRGB
 90
        0
102
RTVSPost2010PropOp41
 70
     1
102
RTVSPost2010Prop42
 90
       50
102
RTVSPost2010PropOp42
 70
     1
102
RTVSPost2010Prop43
 90
        3
102
RTVSPost2010PropOp43
 70
     1
102
RTVSPost2010Prop44ColorIndex
 90
        5
102
RTVSPost2010Prop44ColorRGB
 90
      255
102
RTVSPost2010PropOp44
 70
     1
102
RTVSPost2010Prop45
280
     0
102
RTVSPost2010PropOp45
 70
     1
102
RTVSPost2010Prop46
 90
       50
102
RTVSPost2010PropOp46
 70
     1
102
RTVSPost2010Prop47
 90
       50
102
RTVSPost2010PropOp47
 70
     1
102
RTVSPost2010Prop48
 90
       50
102
RTVSPost2010PropOp48
 70
     1
102
RTVSPost2010Prop49
280
     0
102
RTVSPost2010PropOp49
 70
     1
102
RTVSPost2010Prop50
 90
       50
102
RTVSPost2010PropOp50
 70
     1
102
RTVSPost2010Prop51ColorIndex
 90
      256
102
RTVSPost2010Prop51ColorRGB
 90
-16777216
102
RTVSPost2010PropOp51
 70
     0
102
RTVSPost2010Prop52
140
1.0
102
RTVSPost2010PropOp52
 70
     0
102
RTVSPost2010Prop53
 90
        2
102
RTVSPost2010PropOp53
 70
     1
102
RTVSPost2010Prop54
  1
strokes_ogs.tif
102
RTVSPost2010PropOp54
 70
     1
102
RTVSPost2010Prop55
280
     0
102
RTVSPost2010PropOp55
 70
     1
102
RTVSPost2010Prop56
140
1.0
102
RTVSPost2010PropOp56
 70
     1
102
RTVSPost2010Prop57
140
1.0
102
RTVSPost2010PropOp57
 70
     1
102
RTVSPropertyOp0
 70
     1
102
RTVSPropertyOp1
 70
     1
102
RTVSPropertyOp2
 70
     1
102
RTVSPropertyOp3
 70
     1
102
RTVSPropertyOp4
 70
     1
102
RTVSPropertyOp5
 70
     1
102
RTVSPropertyOp6
 70
     1
102
RTVSPropertyOp7
 70
     1
102
RTVSPropertyOp8
 70
     1
102
RTVSPropertyOp9
 70
     1
102
RTVSPropertyOp10
 70
     1
102
RTVSPropertyOp11
 70
     1
102
RTVSPropertyOp12
 70
     1
102
RTVSPropertyOp13
 70
     1
102
RTVSPropertyOp14
 70
     1
102
RTVSPropertyOp15
 70
     1
102
RTVSPropertyOp16
 70
     1
102
RTVSPropertyOp17
 70
     1
102
RTVSPropertyOp18
 70
     1
102
RTVSPropertyOp19
 70
     1
102
RTVSPropertyOp20
 70
     1
102
RTVSPropertyOp21
 70
     1
102
RTVSPropertyOp22
 70
     1
102
RTVSPropertyOp23
 70
     1
102
RTVSPropertyOp24
 70
     1
102
RTVSPropertyOp25
 70
     1
102
RTVSPropertyOp26
 70
     1
102
RTVSPropertyOp27
 70
     1
102
RTVSPropertyOp28
 70
     1
102
RTVSPropertyOp29
 70
     1
102
RTVSPropertyOp30
 70
     1
102
RTVSPropertyOp31
 70
     1
102
RTVSPropertyOp32
 70
     1
102
RTVSPropertyOp33
 70
     1
102
RTVSPropertyOp34
 70
     1
102
RTVSPropertyOp35
 70
     1
102
RTVSPropertyOp36
 70
     1
102
RTVSPropertyOp37
 70
     1
102
RTVSPropertyOp38
 70
     1
102
RTVSPropertyOp39
 70
     1
102
RTVSPropertyOp40
 70
     1
102
RTVSPropertyOp41
 70
     1
102
RTVSPropertyOp42
 70
     1
102
RTVSPropertyOp43
 70
     1
102
RTVSPropertyOp44
 70
     1
102
RTVSPropertyOp45
 70
     1
102
RTVSPropertyOp46
 70
     1
102
RTVSPropertyOp47
 70
     1
102
RTVSPropertyOp48
 70
     1
102
RTVSPropertyOp49
 70
     1
102
RTVSPropertyOp50
 70
     1
102
RTVSPropertyOp51
 70
     0
102
RTVSPropertyOp52
 70
     0
102
RTVSPropertyOp53
 70
     1
102
RTVSPropertyOp54
 70
     1
102
RTVSPropertyOp55
 70
     1
102
RTVSPropertyOp56
 70
     1
102
RTVSPropertyOp57
 70
     1
102
RTVSPropertyOp58
 70
     1
102
RTVSPropertyOp59
 70
     1
102
RTVSPropertyOp60
 70
     1
102
RTVSPropertyOp61
 70
     1
102
RTVSPropertyOp62
 70
     1
  0
XRECORD
  5
77A
102
{ACAD_REACTORS
330
779
102
}
330
779
100
AcDbXrecord
280
     1
102
RTVSPost2010Prop28
280
     0
102
RTVSPost2010PropOp28
 70
     1
102
RTVSPost2010Prop29
280
     1
102
RTVSPost2010PropOp29
 70
     1
102
RTVSPost2010Prop30
280
     1
102
RTVSPost2010PropOp30
 70
     1
102
RTVSPost2010Prop31
280
     0
102
RTVSPost2010PropOp31
 70
     1
102
RTVSPost2010Prop32
280
     0
102
RTVSPost2010PropOp32
 70
     1
102
RTVSPost2010Prop33
280
     0
102
RTVSPost2010PropOp33
 70
     1
102
RTVSPost2010Prop34
280
     0
102
RTVSPost2010PropOp34
 70
     1
102
RTVSPost2010Prop35
280
     0
102
RTVSPost2010PropOp35
 70
     1
102
RTVSPost2010Prop36
280
     0
102
RTVSPost2010PropOp36
 70
     1
102
RTVSPost2010Prop37
 90
       50
102
RTVSPost2010PropOp37
 70
     0
102
RTVSPost2010Prop38
140
0.0
102
RTVSPost2010PropOp38
 70
     0
102
RTVSPost2010Prop39
140
1.0
102
RTVSPost2010PropOp39
 70
     0
102
RTVSPost2010Prop40
 90
        0
102
RTVSPost2010PropOp40
 70
     0
102
RTVSPost2010Prop41ColorIndex
 90
       18
102
RTVSPost2010Prop41ColorRGB
 90
        0
102
RTVSPost2010PropOp41
 70
     0
102
RTVSPost2010Prop42
 90
       50
102
RTVSPost2010PropOp42
 70
     0
102
RTVSPost2010Prop43
 90
        3
102
RTVSPost2010PropOp43
 70
     0
102
RTVSPost2010Prop44ColorIndex
 90
        5
102
RTVSPost2010Prop44ColorRGB
 90
      255
102
RTVSPost2010PropOp44
 70
     0
102
RTVSPost2010Prop45
280
     0
102
RTVSPost2010PropOp45
 70
     1
102
RTVSPost2010Prop46
 90
       50
102
RTVSPost2010PropOp46
 70
     0
102
RTVSPost2010Prop47
 90
       50
102
RTVSPost2010PropOp47
 70
     0
102
RTVSPost2010Prop48
 90
       50
102
RTVSPost2010PropOp48
 70
     0
102
RTVSPost2010Prop49
280
     0
102
RTVSPost2010PropOp49
 70
     1
102
RTVSPost2010Prop50
 90
       50
102
RTVSPost2010PropOp50
 70
     0
102
RTVSPost2010Prop51ColorIndex
 90
      256
102
RTVSPost2010Prop51ColorRGB
 90
-16777216
102
RTVSPost2010PropOp51
 70
     0
102
RTVSPost2010Prop52
140
1.0
102
RTVSPost2010PropOp52
 70
     0
102
RTVSPost2010Prop53
 90
        2
102
RTVSPost2010PropOp53
 70
     0
102
RTVSPost2010Prop54
  1
strokes_ogs.tif
102
RTVSPost2010PropOp54
 70
     0
102
RTVSPost2010Prop55
280
     0
102
RTVSPost2010PropOp55
 70
     1
102
RTVSPost2010Prop56
140
1.0
102
RTVSPost2010PropOp56
 70
     0
102
RTVSPost2010Prop57
140
1.0
102
RTVSPost2010PropOp57
 70
     0
102
RTVSPropertyOp0
 70
     0
102
RTVSPropertyOp1
 70
     0
102
RTVSPropertyOp2
 70
     0
102
RTVSPropertyOp3
 70
     0
102
RTVSPropertyOp4
 70
     0
102
RTVSPropertyOp5
 70
     0
102
RTVSPropertyOp6
 70
     0
102
RTVSPropertyOp7
 70
     0
102
RTVSPropertyOp8
 70
     0
102
RTVSPropertyOp9
 70
     0
102
RTVSPropertyOp10
 70
     0
102
RTVSPropertyOp11
 70
     0
102
RTVSPropertyOp12
 70
     0
102
RTVSPropertyOp13
 70
     0
102
RTVSPropertyOp14
 70
     2
102
RTVSPropertyOp15
 70
     0
102
RTVSPropertyOp16
 70
     0
102
RTVSPropertyOp17
 70
     0
102
RTVSPropertyOp18
 70
     0
102
RTVSPropertyOp19
 70
     0
102
RTVSPropertyOp20
 70
     0
102
RTVSPropertyOp21
 70
     0
102
RTVSPropertyOp22
 70
     0
102
RTVSPropertyOp23
 70
     0
102
RTVSPropertyOp24
 70
     0
102
RTVSPropertyOp25
 70
     0
102
RTVSPropertyOp26
 70
     0
102
RTVSPropertyOp27
 70
     0
102
RTVSPropertyOp28
 70
     1
102
RTVSPropertyOp29
 70
     1
102
RTVSPropertyOp30
 70
     1
102
RTVSPropertyOp31
 70
     1
102
RTVSPropertyOp32
 70
     1
102
RTVSPropertyOp33
 70
     1
102
RTVSPropertyOp34
 70
     1
102
RTVSPropertyOp35
 70
     1
102
RTVSPropertyOp36
 70
     1
102
RTVSPropertyOp37
 70
     0
102
RTVSPropertyOp38
 70
     0
102
RTVSPropertyOp39
 70
     0
102
RTVSPropertyOp40
 70
     0
102
RTVSPropertyOp41
 70
     0
102
RTVSPropertyOp42
 70
     0
102
RTVSPropertyOp43
 70
     0
102
RTVSPropertyOp44
 70
     0
102
RTVSPropertyOp45
 70
     1
102
RTVSPropertyOp46
 70
     0
102
RTVSPropertyOp47
 70
     0
102
RTVSPropertyOp48
 70
     0
102
RTVSPropertyOp49
 70
     1
102
RTVSPropertyOp50
 70
     0
102
RTVSPropertyOp51
 70
     0
102
RTVSPropertyOp52
 70
     0
102
RTVSPropertyOp53
 70
     0
102
RTVSPropertyOp54
 70
     0
102
RTVSPropertyOp55
 70
     1
102
RTVSPropertyOp56
 70
     0
102
RTVSPropertyOp57
 70
     0
102
RTVSPropertyOp58
 70
     0
102
RTVSPropertyOp59
 70
     0
102
RTVSPropertyOp60
 70
     0
102
RTVSPropertyOp61
 70
     0
102
RTVSPropertyOp62
 70
     0
  0
XRECORD
  5
76A
102
{ACAD_REACTORS
330
769
102
}
330
769
100
AcDbXrecord
280
     1
102
RTVSPost2010Prop28
280
     0
102
RTVSPost2010PropOp28
 70
     1
102
RTVSPost2010Prop29
280
     1
102
RTVSPost2010PropOp29
 70
     1
102
RTVSPost2010Prop30
280
     1
102
RTVSPost2010PropOp30
 70
     1
102
RTVSPost2010Prop31
280
     0
102
RTVSPost2010PropOp31
 70
     1
102
RTVSPost2010Prop32
280
     0
102
RTVSPost2010PropOp32
 70
     1
102
RTVSPost2010Prop33
280
     0
102
RTVSPost2010PropOp33
 70
     1
102
RTVSPost2010Prop34
280
     0
102
RTVSPost2010PropOp34
 70
     1
102
RTVSPost2010Prop35
280
     0
102
RTVSPost2010PropOp35
 70
     1
102
RTVSPost2010Prop36
280
     0
102
RTVSPost2010PropOp36
 70
     1
102
RTVSPost2010Prop37
 90
       50
102
RTVSPost2010PropOp37
 70
     1
102
RTVSPost2010Prop38
140
0.0
102
RTVSPost2010PropOp38
 70
     1
102
RTVSPost2010Prop39
140
1.0
102
RTVSPost2010PropOp39
 70
     1
102
RTVSPost2010Prop40
 90
        0
102
RTVSPost2010PropOp40
 70
     1
102
RTVSPost2010Prop41ColorIndex
 90
       18
102
RTVSPost2010Prop41ColorRGB
 90
        0
102
RTVSPost2010PropOp41
 70
     1
102
RTVSPost2010Prop42
 90
       50
102
RTVSPost2010PropOp42
 70
     1
102
RTVSPost2010Prop43
 90
        3
102
RTVSPost2010PropOp43
 70
     1
102
RTVSPost2010Prop44ColorIndex
 90
        5
102
RTVSPost2010Prop44ColorRGB
 90
      255
102
RTVSPost2010PropOp44
 70
     1
102
RTVSPost2010Prop45
280
     0
102
RTVSPost2010PropOp45
 70
     1
102
RTVSPost2010Prop46
 90
       50
102
RTVSPost2010PropOp46
 70
     1
102
RTVSPost2010Prop47
 90
       50
102
RTVSPost2010PropOp47
 70
     1
102
RTVSPost2010Prop48
 90
       50
102
RTVSPost2010PropOp48
 70
     1
102
RTVSPost2010Prop49
280
     0
102
RTVSPost2010PropOp49
 70
     1
102
RTVSPost2010Prop50
 90
       50
102
RTVSPost2010PropOp50
 70
     1
102
RTVSPost2010Prop51ColorIndex
 90
      256
102
RTVSPost2010Prop51ColorRGB
 90
-16777216
102
RTVSPost2010PropOp51
 70
     0
102
RTVSPost2010Prop52
140
1.0
102
RTVSPost2010PropOp52
 70
     0
102
RTVSPost2010Prop53
 90
        2
102
RTVSPost2010PropOp53
 70
     1
102
RTVSPost2010Prop54
  1
strokes_ogs.tif
102
RTVSPost2010PropOp54
 70
     1
102
RTVSPost2010Prop55
280
     0
102
RTVSPost2010PropOp55
 70
     1
102
RTVSPost2010Prop56
140
1.0
102
RTVSPost2010PropOp56
 70
     1
102
RTVSPost2010Prop57
140
1.0
102
RTVSPost2010PropOp57
 70
     1
102
RTVSPropertyOp0
 70
     1
102
RTVSPropertyOp1
 70
     1
102
RTVSPropertyOp2
 70
     1
102
RTVSPropertyOp3
 70
     1
102
RTVSPropertyOp4
 70
     1
102
RTVSPropertyOp5
 70
     1
102
RTVSPropertyOp6
 70
     1
102
RTVSPropertyOp7
 70
     1
102
RTVSPropertyOp8
 70
     1
102
RTVSPropertyOp9
 70
     1
102
RTVSPropertyOp10
 70
     1
102
RTVSPropertyOp11
 70
     1
102
RTVSPropertyOp12
 70
     1
102
RTVSPropertyOp13
 70
     1
102
RTVSPropertyOp14
 70
     1
102
RTVSPropertyOp15
 70
     1
102
RTVSPropertyOp16
 70
     1
102
RTVSPropertyOp17
 70
     1
102
RTVSPropertyOp18
 70
     1
102
RTVSPropertyOp19
 70
     1
102
RTVSPropertyOp20
 70
     1
102
RTVSPropertyOp21
 70
     1
102
RTVSPropertyOp22
 70
     1
102
RTVSPropertyOp23
 70
     1
102
RTVSPropertyOp24
 70
     1
102
RTVSPropertyOp25
 70
     1
102
RTVSPropertyOp26
 70
     1
102
RTVSPropertyOp27
 70
     1
102
RTVSPropertyOp28
 70
     1
102
RTVSPropertyOp29
 70
     1
102
RTVSPropertyOp30
 70
     1
102
RTVSPropertyOp31
 70
     1
102
RTVSPropertyOp32
 70
     1
102
RTVSPropertyOp33
 70
     1
102
RTVSPropertyOp34
 70
     1
102
RTVSPropertyOp35
 70
     1
102
RTVSPropertyOp36
 70
     1
102
RTVSPropertyOp37
 70
     1
102
RTVSPropertyOp38
 70
     1
102
RTVSPropertyOp39
 70
     1
102
RTVSPropertyOp40
 70
     1
102
RTVSPropertyOp41
 70
     1
102
RTVSPropertyOp42
 70
     1
102
RTVSPropertyOp43
 70
     1
102
RTVSPropertyOp44
 70
     1
102
RTVSPropertyOp45
 70
     1
102
RTVSPropertyOp46
 70
     1
102
RTVSPropertyOp47
 70
     1
102
RTVSPropertyOp48
 70
     1
102
RTVSPropertyOp49
 70
     1
102
RTVSPropertyOp50
 70
     1
102
RTVSPropertyOp51
 70
     0
102
RTVSPropertyOp52
 70
     0
102
RTVSPropertyOp53
 70
     1
102
RTVSPropertyOp54
 70
     1
102
RTVSPropertyOp55
 70
     1
102
RTVSPropertyOp56
 70
     1
102
RTVSPropertyOp57
 70
     1
102
RTVSPropertyOp58
 70
     1
102
RTVSPropertyOp59
 70
     1
102
RTVSPropertyOp60
 70
     1
102
RTVSPropertyOp61
 70
     1
102
RTVSPropertyOp62
 70
     1
  0
XRECORD
  5
77C
102
{ACAD_REACTORS
330
77B
102
}
330
77B
100
AcDbXrecord
280
     1
102
RTVSPost2010Prop28
280
     0
102
RTVSPost2010PropOp28
 70
     1
102
RTVSPost2010Prop29
280
     1
102
RTVSPost2010PropOp29
 70
     1
102
RTVSPost2010Prop30
280
     1
102
RTVSPost2010PropOp30
 70
     1
102
RTVSPost2010Prop31
280
     0
102
RTVSPost2010PropOp31
 70
     1
102
RTVSPost2010Prop32
280
     0
102
RTVSPost2010PropOp32
 70
     1
102
RTVSPost2010Prop33
280
     0
102
RTVSPost2010PropOp33
 70
     1
102
RTVSPost2010Prop34
280
     0
102
RTVSPost2010PropOp34
 70
     1
102
RTVSPost2010Prop35
280
     0
102
RTVSPost2010PropOp35
 70
     1
102
RTVSPost2010Prop36
280
     0
102
RTVSPost2010PropOp36
 70
     1
102
RTVSPost2010Prop37
 90
       50
102
RTVSPost2010PropOp37
 70
     0
102
RTVSPost2010Prop38
140
0.0
102
RTVSPost2010PropOp38
 70
     0
102
RTVSPost2010Prop39
140
1.0
102
RTVSPost2010PropOp39
 70
     0
102
RTVSPost2010Prop40
 90
        0
102
RTVSPost2010PropOp40
 70
     0
102
RTVSPost2010Prop41ColorIndex
 90
       18
102
RTVSPost2010Prop41ColorRGB
 90
        0
102
RTVSPost2010PropOp41
 70
     0
102
RTVSPost2010Prop42
 90
       50
102
RTVSPost2010PropOp42
 70
     0
102
RTVSPost2010Prop43
 90
        3
102
RTVSPost2010PropOp43
 70
     0
102
RTVSPost2010Prop44ColorIndex
 90
        5
102
RTVSPost2010Prop44ColorRGB
 90
      255
102
RTVSPost2010PropOp44
 70
     0
102
RTVSPost2010Prop45
280
     0
102
RTVSPost2010PropOp45
 70
     1
102
RTVSPost2010Prop46
 90
       50
102
RTVSPost2010PropOp46
 70
     0
102
RTVSPost2010Prop47
 90
       50
102
RTVSPost2010PropOp47
 70
     0
102
RTVSPost2010Prop48
 90
       50
102
RTVSPost2010PropOp48
 70
     0
102
RTVSPost2010Prop49
280
     0
102
RTVSPost2010PropOp49
 70
     1
102
RTVSPost2010Prop50
 90
       50
102
RTVSPost2010PropOp50
 70
     0
102
RTVSPost2010Prop51ColorIndex
 90
      256
102
RTVSPost2010Prop51ColorRGB
 90
-16777216
102
RTVSPost2010PropOp51
 70
     0
102
RTVSPost2010Prop52
140
1.0
102
RTVSPost2010PropOp52
 70
     0
102
RTVSPost2010Prop53
 90
        2
102
RTVSPost2010PropOp53
 70
     0
102
RTVSPost2010Prop54
  1
strokes_ogs.tif
102
RTVSPost2010PropOp54
 70
     0
102
RTVSPost2010Prop55
280
     0
102
RTVSPost2010PropOp55
 70
     1
102
RTVSPost2010Prop56
140
1.0
102
RTVSPost2010PropOp56
 70
     0
102
RTVSPost2010Prop57
140
1.0
102
RTVSPost2010PropOp57
 70
     0
102
RTVSPropertyOp0
 70
     0
102
RTVSPropertyOp1
 70
     0
102
RTVSPropertyOp2
 70
     0
102
RTVSPropertyOp3
 70
     0
102
RTVSPropertyOp4
 70
     0
102
RTVSPropertyOp5
 70
     0
102
RTVSPropertyOp6
 70
     0
102
RTVSPropertyOp7
 70
     0
102
RTVSPropertyOp8
 70
     0
102
RTVSPropertyOp9
 70
     0
102
RTVSPropertyOp10
 70
     0
102
RTVSPropertyOp11
 70
     0
102
RTVSPropertyOp12
 70
     0
102
RTVSPropertyOp13
 70
     0
102
RTVSPropertyOp14
 70
     2
102
RTVSPropertyOp15
 70
     0
102
RTVSPropertyOp16
 70
     0
102
RTVSPropertyOp17
 70
     0
102
RTVSPropertyOp18
 70
     0
102
RTVSPropertyOp19
 70
     0
102
RTVSPropertyOp20
 70
     0
102
RTVSPropertyOp21
 70
     0
102
RTVSPropertyOp22
 70
     0
102
RTVSPropertyOp23
 70
     0
102
RTVSPropertyOp24
 70
     0
102
RTVSPropertyOp25
 70
     0
102
RTVSPropertyOp26
 70
     0
102
RTVSPropertyOp27
 70
     0
102
RTVSPropertyOp28
 70
     1
102
RTVSPropertyOp29
 70
     1
102
RTVSPropertyOp30
 70
     1
102
RTVSPropertyOp31
 70
     1
102
RTVSPropertyOp32
 70
     1
102
RTVSPropertyOp33
 70
     1
102
RTVSPropertyOp34
 70
     1
102
RTVSPropertyOp35
 70
     1
102
RTVSPropertyOp36
 70
     1
102
RTVSPropertyOp37
 70
     0
102
RTVSPropertyOp38
 70
     0
102
RTVSPropertyOp39
 70
     0
102
RTVSPropertyOp40
 70
     0
102
RTVSPropertyOp41
 70
     0
102
RTVSPropertyOp42
 70
     0
102
RTVSPropertyOp43
 70
     0
102
RTVSPropertyOp44
 70
     0
102
RTVSPropertyOp45
 70
     1
102
RTVSPropertyOp46
 70
     0
102
RTVSPropertyOp47
 70
     0
102
RTVSPropertyOp48
 70
     0
102
RTVSPropertyOp49
 70
     1
102
RTVSPropertyOp50
 70
     0
102
RTVSPropertyOp51
 70
     0
102
RTVSPropertyOp52
 70
     0
102
RTVSPropertyOp53
 70
     0
102
RTVSPropertyOp54
 70
     0
102
RTVSPropertyOp55
 70
     1
102
RTVSPropertyOp56
 70
     0
102
RTVSPropertyOp57
 70
     0
102
RTVSPropertyOp58
 70
     0
102
RTVSPropertyOp59
 70
     0
102
RTVSPropertyOp60
 70
     0
102
RTVSPropertyOp61
 70
     0
102
RTVSPropertyOp62
 70
     0
  0
XRECORD
  5
762
102
{ACAD_REACTORS
330
761
102
}
330
761
100
AcDbXrecord
280
     1
102
RTVSPost2010Prop28
280
     0
102
RTVSPost2010PropOp28
 70
     1
102
RTVSPost2010Prop29
280
     1
102
RTVSPost2010PropOp29
 70
     1
102
RTVSPost2010Prop30
280
     1
102
RTVSPost2010PropOp30
 70
     1
102
RTVSPost2010Prop31
280
     0
102
RTVSPost2010PropOp31
 70
     1
102
RTVSPost2010Prop32
280
     0
102
RTVSPost2010PropOp32
 70
     1
102
RTVSPost2010Prop33
280
     0
102
RTVSPost2010PropOp33
 70
     1
102
RTVSPost2010Prop34
280
     0
102
RTVSPost2010PropOp34
 70
     1
102
RTVSPost2010Prop35
280
     0
102
RTVSPost2010PropOp35
 70
     1
102
RTVSPost2010Prop36
280
     0
102
RTVSPost2010PropOp36
 70
     1
102
RTVSPost2010Prop37
 90
       50
102
RTVSPost2010PropOp37
 70
     1
102
RTVSPost2010Prop38
140
0.0
102
RTVSPost2010PropOp38
 70
     1
102
RTVSPost2010Prop39
140
1.0
102
RTVSPost2010PropOp39
 70
     1
102
RTVSPost2010Prop40
 90
        0
102
RTVSPost2010PropOp40
 70
     1
102
RTVSPost2010Prop41ColorIndex
 90
       18
102
RTVSPost2010Prop41ColorRGB
 90
        0
102
RTVSPost2010PropOp41
 70
     1
102
RTVSPost2010Prop42
 90
       50
102
RTVSPost2010PropOp42
 70
     1
102
RTVSPost2010Prop43
 90
        3
102
RTVSPost2010PropOp43
 70
     1
102
RTVSPost2010Prop44ColorIndex
 90
        5
102
RTVSPost2010Prop44ColorRGB
 90
      255
102
RTVSPost2010PropOp44
 70
     1
102
RTVSPost2010Prop45
280
     0
102
RTVSPost2010PropOp45
 70
     1
102
RTVSPost2010Prop46
 90
       50
102
RTVSPost2010PropOp46
 70
     1
102
RTVSPost2010Prop47
 90
       50
102
RTVSPost2010PropOp47
 70
     1
102
RTVSPost2010Prop48
 90
       50
102
RTVSPost2010PropOp48
 70
     1
102
RTVSPost2010Prop49
280
     0
102
RTVSPost2010PropOp49
 70
     1
102
RTVSPost2010Prop50
 90
       50
102
RTVSPost2010PropOp50
 70
     1
102
RTVSPost2010Prop51ColorIndex
 90
      256
102
RTVSPost2010Prop51ColorRGB
 90
-16777216
102
RTVSPost2010PropOp51
 70
     0
102
RTVSPost2010Prop52
140
1.0
102
RTVSPost2010PropOp52
 70
     0
102
RTVSPost2010Prop53
 90
        2
102
RTVSPost2010PropOp53
 70
     1
102
RTVSPost2010Prop54
  1
strokes_ogs.tif
102
RTVSPost2010PropOp54
 70
     1
102
RTVSPost2010Prop55
280
     0
102
RTVSPost2010PropOp55
 70
     1
102
RTVSPost2010Prop56
140
1.0
102
RTVSPost2010PropOp56
 70
     1
102
RTVSPost2010Prop57
140
1.0
102
RTVSPost2010PropOp57
 70
     1
102
RTVSPropertyOp0
 70
     1
102
RTVSPropertyOp1
 70
     1
102
RTVSPropertyOp2
 70
     1
102
RTVSPropertyOp3
 70
     1
102
RTVSPropertyOp4
 70
     1
102
RTVSPropertyOp5
 70
     1
102
RTVSPropertyOp6
 70
     1
102
RTVSPropertyOp7
 70
     1
102
RTVSPropertyOp8
 70
     1
102
RTVSPropertyOp9
 70
     1
102
RTVSPropertyOp10
 70
     1
102
RTVSPropertyOp11
 70
     1
102
RTVSPropertyOp12
 70
     1
102
RTVSPropertyOp13
 70
     1
102
RTVSPropertyOp14
 70
     1
102
RTVSPropertyOp15
 70
     1
102
RTVSPropertyOp16
 70
     1
102
RTVSPropertyOp17
 70
     1
102
RTVSPropertyOp18
 70
     1
102
RTVSPropertyOp19
 70
     1
102
RTVSPropertyOp20
 70
     1
102
RTVSPropertyOp21
 70
     1
102
RTVSPropertyOp22
 70
     1
102
RTVSPropertyOp23
 70
     1
102
RTVSPropertyOp24
 70
     1
102
RTVSPropertyOp25
 70
     1
102
RTVSPropertyOp26
 70
     1
102
RTVSPropertyOp27
 70
     1
102
RTVSPropertyOp28
 70
     1
102
RTVSPropertyOp29
 70
     1
102
RTVSPropertyOp30
 70
     1
102
RTVSPropertyOp31
 70
     1
102
RTVSPropertyOp32
 70
     1
102
RTVSPropertyOp33
 70
     1
102
RTVSPropertyOp34
 70
     1
102
RTVSPropertyOp35
 70
     1
102
RTVSPropertyOp36
 70
     1
102
RTVSPropertyOp37
 70
     1
102
RTVSPropertyOp38
 70
     1
102
RTVSPropertyOp39
 70
     1
102
RTVSPropertyOp40
 70
     1
102
RTVSPropertyOp41
 70
     1
102
RTVSPropertyOp42
 70
     1
102
RTVSPropertyOp43
 70
     1
102
RTVSPropertyOp44
 70
     1
102
RTVSPropertyOp45
 70
     1
102
RTVSPropertyOp46
 70
     1
102
RTVSPropertyOp47
 70
     1
102
RTVSPropertyOp48
 70
     1
102
RTVSPropertyOp49
 70
     1
102
RTVSPropertyOp50
 70
     1
102
RTVSPropertyOp51
 70
     0
102
RTVSPropertyOp52
 70
     0
102
RTVSPropertyOp53
 70
     1
102
RTVSPropertyOp54
 70
     1
102
RTVSPropertyOp55
 70
     1
102
RTVSPropertyOp56
 70
     1
102
RTVSPropertyOp57
 70
     1
102
RTVSPropertyOp58
 70
     1
102
RTVSPropertyOp59
 70
     1
102
RTVSPropertyOp60
 70
     1
102
RTVSPropertyOp61
 70
     1
102
RTVSPropertyOp62
 70
     1
  0
XRECORD
  5
778
102
{ACAD_REACTORS
330
777
102
}
330
777
100
AcDbXrecord
280
     1
102
RTVSPost2010Prop28
280
     0
102
RTVSPost2010PropOp28
 70
     1
102
RTVSPost2010Prop29
280
     1
102
RTVSPost2010PropOp29
 70
     1
102
RTVSPost2010Prop30
280
     1
102
RTVSPost2010PropOp30
 70
     1
102
RTVSPost2010Prop31
280
     0
102
RTVSPost2010PropOp31
 70
     1
102
RTVSPost2010Prop32
280
     0
102
RTVSPost2010PropOp32
 70
     1
102
RTVSPost2010Prop33
280
     0
102
RTVSPost2010PropOp33
 70
     1
102
RTVSPost2010Prop34
280
     0
102
RTVSPost2010PropOp34
 70
     1
102
RTVSPost2010Prop35
280
     0
102
RTVSPost2010PropOp35
 70
     1
102
RTVSPost2010Prop36
280
     0
102
RTVSPost2010PropOp36
 70
     1
102
RTVSPost2010Prop37
 90
       50
102
RTVSPost2010PropOp37
 70
     1
102
RTVSPost2010Prop38
140
0.0
102
RTVSPost2010PropOp38
 70
     1
102
RTVSPost2010Prop39
140
1.0
102
RTVSPost2010PropOp39
 70
     1
102
RTVSPost2010Prop40
 90
        0
102
RTVSPost2010PropOp40
 70
     1
102
RTVSPost2010Prop41ColorIndex
 90
       18
102
RTVSPost2010Prop41ColorRGB
 90
        0
102
RTVSPost2010PropOp41
 70
     1
102
RTVSPost2010Prop42
 90
       50
102
RTVSPost2010PropOp42
 70
     1
102
RTVSPost2010Prop43
 90
        3
102
RTVSPost2010PropOp43
 70
     1
102
RTVSPost2010Prop44ColorIndex
 90
        5
102
RTVSPost2010Prop44ColorRGB
 90
      255
102
RTVSPost2010PropOp44
 70
     1
102
RTVSPost2010Prop45
280
     0
102
RTVSPost2010PropOp45
 70
     1
102
RTVSPost2010Prop46
 90
       50
102
RTVSPost2010PropOp46
 70
     1
102
RTVSPost2010Prop47
 90
       50
102
RTVSPost2010PropOp47
 70
     1
102
RTVSPost2010Prop48
 90
       50
102
RTVSPost2010PropOp48
 70
     1
102
RTVSPost2010Prop49
280
     0
102
RTVSPost2010PropOp49
 70
     1
102
RTVSPost2010Prop50
 90
       50
102
RTVSPost2010PropOp50
 70
     1
102
RTVSPost2010Prop51ColorIndex
 90
      256
102
RTVSPost2010Prop51ColorRGB
 90
-16777216
102
RTVSPost2010PropOp51
 70
     0
102
RTVSPost2010Prop52
140
1.0
102
RTVSPost2010PropOp52
 70
     0
102
RTVSPost2010Prop53
 90
        2
102
RTVSPost2010PropOp53
 70
     1
102
RTVSPost2010Prop54
  1
strokes_ogs.tif
102
RTVSPost2010PropOp54
 70
     1
102
RTVSPost2010Prop55
280
     0
102
RTVSPost2010PropOp55
 70
     1
102
RTVSPost2010Prop56
140
1.0
102
RTVSPost2010PropOp56
 70
     1
102
RTVSPost2010Prop57
140
1.0
102
RTVSPost2010PropOp57
 70
     1
102
RTVSPropertyOp0
 70
     1
102
RTVSPropertyOp1
 70
     1
102
RTVSPropertyOp2
 70
     1
102
RTVSPropertyOp3
 70
     1
102
RTVSPropertyOp4
 70
     1
102
RTVSPropertyOp5
 70
     1
102
RTVSPropertyOp6
 70
     1
102
RTVSPropertyOp7
 70
     1
102
RTVSPropertyOp8
 70
     1
102
RTVSPropertyOp9
 70
     1
102
RTVSPropertyOp10
 70
     1
102
RTVSPropertyOp11
 70
     1
102
RTVSPropertyOp12
 70
     1
102
RTVSPropertyOp13
 70
     1
102
RTVSPropertyOp14
 70
     1
102
RTVSPropertyOp15
 70
     1
102
RTVSPropertyOp16
 70
     1
102
RTVSPropertyOp17
 70
     1
102
RTVSPropertyOp18
 70
     1
102
RTVSPropertyOp19
 70
     1
102
RTVSPropertyOp20
 70
     1
102
RTVSPropertyOp21
 70
     1
102
RTVSPropertyOp22
 70
     1
102
RTVSPropertyOp23
 70
     1
102
RTVSPropertyOp24
 70
     1
102
RTVSPropertyOp25
 70
     1
102
RTVSPropertyOp26
 70
     1
102
RTVSPropertyOp27
 70
     1
102
RTVSPropertyOp28
 70
     1
102
RTVSPropertyOp29
 70
     1
102
RTVSPropertyOp30
 70
     1
102
RTVSPropertyOp31
 70
     1
102
RTVSPropertyOp32
 70
     1
102
RTVSPropertyOp33
 70
     1
102
RTVSPropertyOp34
 70
     1
102
RTVSPropertyOp35
 70
     1
102
RTVSPropertyOp36
 70
     1
102
RTVSPropertyOp37
 70
     1
102
RTVSPropertyOp38
 70
     1
102
RTVSPropertyOp39
 70
     1
102
RTVSPropertyOp40
 70
     1
102
RTVSPropertyOp41
 70
     1
102
RTVSPropertyOp42
 70
     1
102
RTVSPropertyOp43
 70
     1
102
RTVSPropertyOp44
 70
     1
102
RTVSPropertyOp45
 70
     1
102
RTVSPropertyOp46
 70
     1
102
RTVSPropertyOp47
 70
     1
102
RTVSPropertyOp48
 70
     1
102
RTVSPropertyOp49
 70
     1
102
RTVSPropertyOp50
 70
     1
102
RTVSPropertyOp51
 70
     0
102
RTVSPropertyOp52
 70
     0
102
RTVSPropertyOp53
 70
     1
102
RTVSPropertyOp54
 70
     1
102
RTVSPropertyOp55
 70
     1
102
RTVSPropertyOp56
 70
     1
102
RTVSPropertyOp57
 70
     1
102
RTVSPropertyOp58
 70
     1
102
RTVSPropertyOp59
 70
     1
102
RTVSPropertyOp60
 70
     1
102
RTVSPropertyOp61
 70
     1
102
RTVSPropertyOp62
 70
     1
  0
XRECORD
  5
776
102
{ACAD_REACTORS
330
775
102
}
330
775
100
AcDbXrecord
280
     1
102
RTVSPost2010Prop28
280
     0
102
RTVSPost2010PropOp28
 70
     1
102
RTVSPost2010Prop29
280
     1
102
RTVSPost2010PropOp29
 70
     1
102
RTVSPost2010Prop30
280
     1
102
RTVSPost2010PropOp30
 70
     1
102
RTVSPost2010Prop31
280
     0
102
RTVSPost2010PropOp31
 70
     1
102
RTVSPost2010Prop32
280
     0
102
RTVSPost2010PropOp32
 70
     1
102
RTVSPost2010Prop33
280
     0
102
RTVSPost2010PropOp33
 70
     1
102
RTVSPost2010Prop34
280
     0
102
RTVSPost2010PropOp34
 70
     1
102
RTVSPost2010Prop35
280
     0
102
RTVSPost2010PropOp35
 70
     1
102
RTVSPost2010Prop36
280
     0
102
RTVSPost2010PropOp36
 70
     1
102
RTVSPost2010Prop37
 90
       50
102
RTVSPost2010PropOp37
 70
     1
102
RTVSPost2010Prop38
140
0.0
102
RTVSPost2010PropOp38
 70
     1
102
RTVSPost2010Prop39
140
1.0
102
RTVSPost2010PropOp39
 70
     1
102
RTVSPost2010Prop40
 90
        0
102
RTVSPost2010PropOp40
 70
     1
102
RTVSPost2010Prop41ColorIndex
 90
       18
102
RTVSPost2010Prop41ColorRGB
 90
        0
102
RTVSPost2010PropOp41
 70
     1
102
RTVSPost2010Prop42
 90
       50
102
RTVSPost2010PropOp42
 70
     1
102
RTVSPost2010Prop43
 90
        3
102
RTVSPost2010PropOp43
 70
     1
102
RTVSPost2010Prop44ColorIndex
 90
        5
102
RTVSPost2010Prop44ColorRGB
 90
      255
102
RTVSPost2010PropOp44
 70
     1
102
RTVSPost2010Prop45
280
     0
102
RTVSPost2010PropOp45
 70
     1
102
RTVSPost2010Prop46
 90
       50
102
RTVSPost2010PropOp46
 70
     1
102
RTVSPost2010Prop47
 90
       50
102
RTVSPost2010PropOp47
 70
     1
102
RTVSPost2010Prop48
 90
       50
102
RTVSPost2010PropOp48
 70
     1
102
RTVSPost2010Prop49
280
     0
102
RTVSPost2010PropOp49
 70
     1
102
RTVSPost2010Prop50
 90
       50
102
RTVSPost2010PropOp50
 70
     1
102
RTVSPost2010Prop51ColorIndex
 90
      256
102
RTVSPost2010Prop51ColorRGB
 90
-16777216
102
RTVSPost2010PropOp51
 70
     0
102
RTVSPost2010Prop52
140
1.0
102
RTVSPost2010PropOp52
 70
     0
102
RTVSPost2010Prop53
 90
        2
102
RTVSPost2010PropOp53
 70
     1
102
RTVSPost2010Prop54
  1
strokes_ogs.tif
102
RTVSPost2010PropOp54
 70
     1
102
RTVSPost2010Prop55
280
     0
102
RTVSPost2010PropOp55
 70
     1
102
RTVSPost2010Prop56
140
1.0
102
RTVSPost2010PropOp56
 70
     1
102
RTVSPost2010Prop57
140
1.0
102
RTVSPost2010PropOp57
 70
     1
102
RTVSPropertyOp0
 70
     1
102
RTVSPropertyOp1
 70
     1
102
RTVSPropertyOp2
 70
     1
102
RTVSPropertyOp3
 70
     1
102
RTVSPropertyOp4
 70
     1
102
RTVSPropertyOp5
 70
     1
102
RTVSPropertyOp6
 70
     1
102
RTVSPropertyOp7
 70
     1
102
RTVSPropertyOp8
 70
     1
102
RTVSPropertyOp9
 70
     1
102
RTVSPropertyOp10
 70
     1
102
RTVSPropertyOp11
 70
     1
102
RTVSPropertyOp12
 70
     1
102
RTVSPropertyOp13
 70
     1
102
RTVSPropertyOp14
 70
     1
102
RTVSPropertyOp15
 70
     1
102
RTVSPropertyOp16
 70
     1
102
RTVSPropertyOp17
 70
     1
102
RTVSPropertyOp18
 70
     1
102
RTVSPropertyOp19
 70
     1
102
RTVSPropertyOp20
 70
     1
102
RTVSPropertyOp21
 70
     1
102
RTVSPropertyOp22
 70
     1
102
RTVSPropertyOp23
 70
     1
102
RTVSPropertyOp24
 70
     1
102
RTVSPropertyOp25
 70
     1
102
RTVSPropertyOp26
 70
     1
102
RTVSPropertyOp27
 70
     1
102
RTVSPropertyOp28
 70
     1
102
RTVSPropertyOp29
 70
     1
102
RTVSPropertyOp30
 70
     1
102
RTVSPropertyOp31
 70
     1
102
RTVSPropertyOp32
 70
     1
102
RTVSPropertyOp33
 70
     1
102
RTVSPropertyOp34
 70
     1
102
RTVSPropertyOp35
 70
     1
102
RTVSPropertyOp36
 70
     1
102
RTVSPropertyOp37
 70
     1
102
RTVSPropertyOp38
 70
     1
102
RTVSPropertyOp39
 70
     1
102
RTVSPropertyOp40
 70
     1
102
RTVSPropertyOp41
 70
     1
102
RTVSPropertyOp42
 70
     1
102
RTVSPropertyOp43
 70
     1
102
RTVSPropertyOp44
 70
     1
102
RTVSPropertyOp45
 70
     1
102
RTVSPropertyOp46
 70
     1
102
RTVSPropertyOp47
 70
     1
102
RTVSPropertyOp48
 70
     1
102
RTVSPropertyOp49
 70
     1
102
RTVSPropertyOp50
 70
     1
102
RTVSPropertyOp51
 70
     0
102
RTVSPropertyOp52
 70
     0
102
RTVSPropertyOp53
 70
     1
102
RTVSPropertyOp54
 70
     1
102
RTVSPropertyOp55
 70
     1
102
RTVSPropertyOp56
 70
     1
102
RTVSPropertyOp57
 70
     1
102
RTVSPropertyOp58
 70
     1
102
RTVSPropertyOp59
 70
     1
102
RTVSPropertyOp60
 70
     1
102
RTVSPropertyOp61
 70
     1
102
RTVSPropertyOp62
 70
     1
  0
XRECORD
  5
770
102
{ACAD_REACTORS
330
76F
102
}
330
76F
100
AcDbXrecord
280
     1
102
RTVSPost2010Prop28
280
     0
102
RTVSPost2010PropOp28
 70
     1
102
RTVSPost2010Prop29
280
     1
102
RTVSPost2010PropOp29
 70
     1
102
RTVSPost2010Prop30
280
     1
102
RTVSPost2010PropOp30
 70
     1
102
RTVSPost2010Prop31
280
     0
102
RTVSPost2010PropOp31
 70
     1
102
RTVSPost2010Prop32
280
     0
102
RTVSPost2010PropOp32
 70
     1
102
RTVSPost2010Prop33
280
     0
102
RTVSPost2010PropOp33
 70
     1
102
RTVSPost2010Prop34
280
     0
102
RTVSPost2010PropOp34
 70
     1
102
RTVSPost2010Prop35
280
     0
102
RTVSPost2010PropOp35
 70
     1
102
RTVSPost2010Prop36
280
     0
102
RTVSPost2010PropOp36
 70
     1
102
RTVSPost2010Prop37
 90
       50
102
RTVSPost2010PropOp37
 70
     1
102
RTVSPost2010Prop38
140
0.0
102
RTVSPost2010PropOp38
 70
     1
102
RTVSPost2010Prop39
140
1.0
102
RTVSPost2010PropOp39
 70
     1
102
RTVSPost2010Prop40
 90
        0
102
RTVSPost2010PropOp40
 70
     1
102
RTVSPost2010Prop41ColorIndex
 90
       18
102
RTVSPost2010Prop41ColorRGB
 90
        0
102
RTVSPost2010PropOp41
 70
     1
102
RTVSPost2010Prop42
 90
       50
102
RTVSPost2010PropOp42
 70
     1
102
RTVSPost2010Prop43
 90
        3
102
RTVSPost2010PropOp43
 70
     1
102
RTVSPost2010Prop44ColorIndex
 90
        5
102
RTVSPost2010Prop44ColorRGB
 90
      255
102
RTVSPost2010PropOp44
 70
     1
102
RTVSPost2010Prop45
280
     0
102
RTVSPost2010PropOp45
 70
     1
102
RTVSPost2010Prop46
 90
       50
102
RTVSPost2010PropOp46
 70
     1
102
RTVSPost2010Prop47
 90
       50
102
RTVSPost2010PropOp47
 70
     1
102
RTVSPost2010Prop48
 90
       50
102
RTVSPost2010PropOp48
 70
     1
102
RTVSPost2010Prop49
280
     0
102
RTVSPost2010PropOp49
 70
     1
102
RTVSPost2010Prop50
 90
       50
102
RTVSPost2010PropOp50
 70
     1
102
RTVSPost2010Prop51ColorIndex
 90
      256
102
RTVSPost2010Prop51ColorRGB
 90
-16777216
102
RTVSPost2010PropOp51
 70
     0
102
RTVSPost2010Prop52
140
1.0
102
RTVSPost2010PropOp52
 70
     0
102
RTVSPost2010Prop53
 90
        2
102
RTVSPost2010PropOp53
 70
     1
102
RTVSPost2010Prop54
  1
strokes_ogs.tif
102
RTVSPost2010PropOp54
 70
     1
102
RTVSPost2010Prop55
280
     0
102
RTVSPost2010PropOp55
 70
     1
102
RTVSPost2010Prop56
140
1.0
102
RTVSPost2010PropOp56
 70
     1
102
RTVSPost2010Prop57
140
1.0
102
RTVSPost2010PropOp57
 70
     1
102
RTVSPropertyOp0
 70
     1
102
RTVSPropertyOp1
 70
     1
102
RTVSPropertyOp2
 70
     1
102
RTVSPropertyOp3
 70
     1
102
RTVSPropertyOp4
 70
     1
102
RTVSPropertyOp5
 70
     1
102
RTVSPropertyOp6
 70
     1
102
RTVSPropertyOp7
 70
     1
102
RTVSPropertyOp8
 70
     1
102
RTVSPropertyOp9
 70
     1
102
RTVSPropertyOp10
 70
     1
102
RTVSPropertyOp11
 70
     1
102
RTVSPropertyOp12
 70
     1
102
RTVSPropertyOp13
 70
     1
102
RTVSPropertyOp14
 70
     1
102
RTVSPropertyOp15
 70
     1
102
RTVSPropertyOp16
 70
     1
102
RTVSPropertyOp17
 70
     1
102
RTVSPropertyOp18
 70
     1
102
RTVSPropertyOp19
 70
     1
102
RTVSPropertyOp20
 70
     1
102
RTVSPropertyOp21
 70
     1
102
RTVSPropertyOp22
 70
     1
102
RTVSPropertyOp23
 70
     1
102
RTVSPropertyOp24
 70
     1
102
RTVSPropertyOp25
 70
     1
102
RTVSPropertyOp26
 70
     1
102
RTVSPropertyOp27
 70
     1
102
RTVSPropertyOp28
 70
     1
102
RTVSPropertyOp29
 70
     1
102
RTVSPropertyOp30
 70
     1
102
RTVSPropertyOp31
 70
     1
102
RTVSPropertyOp32
 70
     1
102
RTVSPropertyOp33
 70
     1
102
RTVSPropertyOp34
 70
     1
102
RTVSPropertyOp35
 70
     1
102
RTVSPropertyOp36
 70
     1
102
RTVSPropertyOp37
 70
     1
102
RTVSPropertyOp38
 70
     1
102
RTVSPropertyOp39
 70
     1
102
RTVSPropertyOp40
 70
     1
102
RTVSPropertyOp41
 70
     1
102
RTVSPropertyOp42
 70
     1
102
RTVSPropertyOp43
 70
     1
102
RTVSPropertyOp44
 70
     1
102
RTVSPropertyOp45
 70
     1
102
RTVSPropertyOp46
 70
     1
102
RTVSPropertyOp47
 70
     1
102
RTVSPropertyOp48
 70
     1
102
RTVSPropertyOp49
 70
     1
102
RTVSPropertyOp50
 70
     1
102
RTVSPropertyOp51
 70
     0
102
RTVSPropertyOp52
 70
     0
102
RTVSPropertyOp53
 70
     1
102
RTVSPropertyOp54
 70
     1
102
RTVSPropertyOp55
 70
     1
102
RTVSPropertyOp56
 70
     1
102
RTVSPropertyOp57
 70
     1
102
RTVSPropertyOp58
 70
     1
102
RTVSPropertyOp59
 70
     1
102
RTVSPropertyOp60
 70
     1
102
RTVSPropertyOp61
 70
     1
102
RTVSPropertyOp62
 70
     1
  0
XRECORD
  5
772
102
{ACAD_REACTORS
330
771
102
}
330
771
100
AcDbXrecord
280
     1
102
RTVSPost2010Prop28
280
     0
102
RTVSPost2010PropOp28
 70
     1
102
RTVSPost2010Prop29
280
     1
102
RTVSPost2010PropOp29
 70
     1
102
RTVSPost2010Prop30
280
     1
102
RTVSPost2010PropOp30
 70
     1
102
RTVSPost2010Prop31
280
     0
102
RTVSPost2010PropOp31
 70
     1
102
RTVSPost2010Prop32
280
     0
102
RTVSPost2010PropOp32
 70
     1
102
RTVSPost2010Prop33
280
     0
102
RTVSPost2010PropOp33
 70
     1
102
RTVSPost2010Prop34
280
     0
102
RTVSPost2010PropOp34
 70
     1
102
RTVSPost2010Prop35
280
     0
102
RTVSPost2010PropOp35
 70
     1
102
RTVSPost2010Prop36
280
     0
102
RTVSPost2010PropOp36
 70
     1
102
RTVSPost2010Prop37
 90
       50
102
RTVSPost2010PropOp37
 70
     1
102
RTVSPost2010Prop38
140
0.0
102
RTVSPost2010PropOp38
 70
     1
102
RTVSPost2010Prop39
140
1.0
102
RTVSPost2010PropOp39
 70
     1
102
RTVSPost2010Prop40
 90
        0
102
RTVSPost2010PropOp40
 70
     1
102
RTVSPost2010Prop41ColorIndex
 90
       18
102
RTVSPost2010Prop41ColorRGB
 90
        0
102
RTVSPost2010PropOp41
 70
     1
102
RTVSPost2010Prop42
 90
       50
102
RTVSPost2010PropOp42
 70
     1
102
RTVSPost2010Prop43
 90
        3
102
RTVSPost2010PropOp43
 70
     1
102
RTVSPost2010Prop44ColorIndex
 90
        5
102
RTVSPost2010Prop44ColorRGB
 90
      255
102
RTVSPost2010PropOp44
 70
     1
102
RTVSPost2010Prop45
280
     0
102
RTVSPost2010PropOp45
 70
     1
102
RTVSPost2010Prop46
 90
       50
102
RTVSPost2010PropOp46
 70
     1
102
RTVSPost2010Prop47
 90
       50
102
RTVSPost2010PropOp47
 70
     1
102
RTVSPost2010Prop48
 90
       50
102
RTVSPost2010PropOp48
 70
     1
102
RTVSPost2010Prop49
280
     0
102
RTVSPost2010PropOp49
 70
     1
102
RTVSPost2010Prop50
 90
       50
102
RTVSPost2010PropOp50
 70
     1
102
RTVSPost2010Prop51ColorIndex
 90
      256
102
RTVSPost2010Prop51ColorRGB
 90
-16777216
102
RTVSPost2010PropOp51
 70
     0
102
RTVSPost2010Prop52
140
1.0
102
RTVSPost2010PropOp52
 70
     0
102
RTVSPost2010Prop53
 90
        2
102
RTVSPost2010PropOp53
 70
     1
102
RTVSPost2010Prop54
  1
strokes_ogs.tif
102
RTVSPost2010PropOp54
 70
     1
102
RTVSPost2010Prop55
280
     0
102
RTVSPost2010PropOp55
 70
     1
102
RTVSPost2010Prop56
140
1.0
102
RTVSPost2010PropOp56
 70
     1
102
RTVSPost2010Prop57
140
1.0
102
RTVSPost2010PropOp57
 70
     1
102
RTVSPropertyOp0
 70
     1
102
RTVSPropertyOp1
 70
     1
102
RTVSPropertyOp2
 70
     1
102
RTVSPropertyOp3
 70
     1
102
RTVSPropertyOp4
 70
     1
102
RTVSPropertyOp5
 70
     1
102
RTVSPropertyOp6
 70
     1
102
RTVSPropertyOp7
 70
     1
102
RTVSPropertyOp8
 70
     1
102
RTVSPropertyOp9
 70
     1
102
RTVSPropertyOp10
 70
     1
102
RTVSPropertyOp11
 70
     1
102
RTVSPropertyOp12
 70
     1
102
RTVSPropertyOp13
 70
     1
102
RTVSPropertyOp14
 70
     1
102
RTVSPropertyOp15
 70
     1
102
RTVSPropertyOp16
 70
     1
102
RTVSPropertyOp17
 70
     1
102
RTVSPropertyOp18
 70
     1
102
RTVSPropertyOp19
 70
     1
102
RTVSPropertyOp20
 70
     1
102
RTVSPropertyOp21
 70
     1
102
RTVSPropertyOp22
 70
     1
102
RTVSPropertyOp23
 70
     1
102
RTVSPropertyOp24
 70
     1
102
RTVSPropertyOp25
 70
     1
102
RTVSPropertyOp26
 70
     1
102
RTVSPropertyOp27
 70
     1
102
RTVSPropertyOp28
 70
     1
102
RTVSPropertyOp29
 70
     1
102
RTVSPropertyOp30
 70
     1
102
RTVSPropertyOp31
 70
     1
102
RTVSPropertyOp32
 70
     1
102
RTVSPropertyOp33
 70
     1
102
RTVSPropertyOp34
 70
     1
102
RTVSPropertyOp35
 70
     1
102
RTVSPropertyOp36
 70
     1
102
RTVSPropertyOp37
 70
     1
102
RTVSPropertyOp38
 70
     1
102
RTVSPropertyOp39
 70
     1
102
RTVSPropertyOp40
 70
     1
102
RTVSPropertyOp41
 70
     1
102
RTVSPropertyOp42
 70
     1
102
RTVSPropertyOp43
 70
     1
102
RTVSPropertyOp44
 70
     1
102
RTVSPropertyOp45
 70
     1
102
RTVSPropertyOp46
 70
     1
102
RTVSPropertyOp47
 70
     1
102
RTVSPropertyOp48
 70
     1
102
RTVSPropertyOp49
 70
     1
102
RTVSPropertyOp50
 70
     1
102
RTVSPropertyOp51
 70
     0
102
RTVSPropertyOp52
 70
     0
102
RTVSPropertyOp53
 70
     1
102
RTVSPropertyOp54
 70
     1
102
RTVSPropertyOp55
 70
     1
102
RTVSPropertyOp56
 70
     1
102
RTVSPropertyOp57
 70
     1
102
RTVSPropertyOp58
 70
     1
102
RTVSPropertyOp59
 70
     1
102
RTVSPropertyOp60
 70
     1
102
RTVSPropertyOp61
 70
     1
102
RTVSPropertyOp62
 70
     1
  0
XRECORD
  5
768
102
{ACAD_REACTORS
330
767
102
}
330
767
100
AcDbXrecord
280
     1
102
RTVSPost2010Prop28
280
     0
102
RTVSPost2010PropOp28
 70
     1
102
RTVSPost2010Prop29
280
     1
102
RTVSPost2010PropOp29
 70
     1
102
RTVSPost2010Prop30
280
     1
102
RTVSPost2010PropOp30
 70
     1
102
RTVSPost2010Prop31
280
     0
102
RTVSPost2010PropOp31
 70
     1
102
RTVSPost2010Prop32
280
     0
102
RTVSPost2010PropOp32
 70
     1
102
RTVSPost2010Prop33
280
     0
102
RTVSPost2010PropOp33
 70
     1
102
RTVSPost2010Prop34
280
     0
102
RTVSPost2010PropOp34
 70
     1
102
RTVSPost2010Prop35
280
     0
102
RTVSPost2010PropOp35
 70
     1
102
RTVSPost2010Prop36
280
     0
102
RTVSPost2010PropOp36
 70
     1
102
RTVSPost2010Prop37
 90
       50
102
RTVSPost2010PropOp37
 70
     1
102
RTVSPost2010Prop38
140
0.0
102
RTVSPost2010PropOp38
 70
     1
102
RTVSPost2010Prop39
140
1.0
102
RTVSPost2010PropOp39
 70
     1
102
RTVSPost2010Prop40
 90
        0
102
RTVSPost2010PropOp40
 70
     1
102
RTVSPost2010Prop41ColorIndex
 90
       18
102
RTVSPost2010Prop41ColorRGB
 90
        0
102
RTVSPost2010PropOp41
 70
     1
102
RTVSPost2010Prop42
 90
       50
102
RTVSPost2010PropOp42
 70
     1
102
RTVSPost2010Prop43
 90
        3
102
RTVSPost2010PropOp43
 70
     1
102
RTVSPost2010Prop44ColorIndex
 90
        5
102
RTVSPost2010Prop44ColorRGB
 90
      255
102
RTVSPost2010PropOp44
 70
     1
102
RTVSPost2010Prop45
280
     0
102
RTVSPost2010PropOp45
 70
     1
102
RTVSPost2010Prop46
 90
       50
102
RTVSPost2010PropOp46
 70
     1
102
RTVSPost2010Prop47
 90
       50
102
RTVSPost2010PropOp47
 70
     1
102
RTVSPost2010Prop48
 90
       50
102
RTVSPost2010PropOp48
 70
     1
102
RTVSPost2010Prop49
280
     0
102
RTVSPost2010PropOp49
 70
     1
102
RTVSPost2010Prop50
 90
       50
102
RTVSPost2010PropOp50
 70
     1
102
RTVSPost2010Prop51ColorIndex
 90
      256
102
RTVSPost2010Prop51ColorRGB
 90
-16777216
102
RTVSPost2010PropOp51
 70
     0
102
RTVSPost2010Prop52
140
1.0
102
RTVSPost2010PropOp52
 70
     0
102
RTVSPost2010Prop53
 90
        2
102
RTVSPost2010PropOp53
 70
     1
102
RTVSPost2010Prop54
  1
strokes_ogs.tif
102
RTVSPost2010PropOp54
 70
     1
102
RTVSPost2010Prop55
280
     0
102
RTVSPost2010PropOp55
 70
     1
102
RTVSPost2010Prop56
140
1.0
102
RTVSPost2010PropOp56
 70
     1
102
RTVSPost2010Prop57
140
1.0
102
RTVSPost2010PropOp57
 70
     1
102
RTVSPropertyOp0
 70
     1
102
RTVSPropertyOp1
 70
     1
102
RTVSPropertyOp2
 70
     1
102
RTVSPropertyOp3
 70
     1
102
RTVSPropertyOp4
 70
     1
102
RTVSPropertyOp5
 70
     1
102
RTVSPropertyOp6
 70
     1
102
RTVSPropertyOp7
 70
     1
102
RTVSPropertyOp8
 70
     1
102
RTVSPropertyOp9
 70
     1
102
RTVSPropertyOp10
 70
     1
102
RTVSPropertyOp11
 70
     1
102
RTVSPropertyOp12
 70
     1
102
RTVSPropertyOp13
 70
     1
102
RTVSPropertyOp14
 70
     1
102
RTVSPropertyOp15
 70
     1
102
RTVSPropertyOp16
 70
     1
102
RTVSPropertyOp17
 70
     1
102
RTVSPropertyOp18
 70
     1
102
RTVSPropertyOp19
 70
     1
102
RTVSPropertyOp20
 70
     1
102
RTVSPropertyOp21
 70
     1
102
RTVSPropertyOp22
 70
     1
102
RTVSPropertyOp23
 70
     1
102
RTVSPropertyOp24
 70
     1
102
RTVSPropertyOp25
 70
     1
102
RTVSPropertyOp26
 70
     1
102
RTVSPropertyOp27
 70
     1
102
RTVSPropertyOp28
 70
     1
102
RTVSPropertyOp29
 70
     1
102
RTVSPropertyOp30
 70
     1
102
RTVSPropertyOp31
 70
     1
102
RTVSPropertyOp32
 70
     1
102
RTVSPropertyOp33
 70
     1
102
RTVSPropertyOp34
 70
     1
102
RTVSPropertyOp35
 70
     1
102
RTVSPropertyOp36
 70
     1
102
RTVSPropertyOp37
 70
     1
102
RTVSPropertyOp38
 70
     1
102
RTVSPropertyOp39
 70
     1
102
RTVSPropertyOp40
 70
     1
102
RTVSPropertyOp41
 70
     1
102
RTVSPropertyOp42
 70
     1
102
RTVSPropertyOp43
 70
     1
102
RTVSPropertyOp44
 70
     1
102
RTVSPropertyOp45
 70
     1
102
RTVSPropertyOp46
 70
     1
102
RTVSPropertyOp47
 70
     1
102
RTVSPropertyOp48
 70
     1
102
RTVSPropertyOp49
 70
     1
102
RTVSPropertyOp50
 70
     1
102
RTVSPropertyOp51
 70
     0
102
RTVSPropertyOp52
 70
     0
102
RTVSPropertyOp53
 70
     1
102
RTVSPropertyOp54
 70
     1
102
RTVSPropertyOp55
 70
     1
102
RTVSPropertyOp56
 70
     1
102
RTVSPropertyOp57
 70
     1
102
RTVSPropertyOp58
 70
     1
102
RTVSPropertyOp59
 70
     1
102
RTVSPropertyOp60
 70
     1
102
RTVSPropertyOp61
 70
     1
102
RTVSPropertyOp62
 70
     1
  0
XRECORD
  5
75C
102
{ACAD_REACTORS
330
75B
102
}
330
75B
100
AcDbXrecord
280
     1
102
RTVSPost2010Prop28
280
     0
102
RTVSPost2010PropOp28
 70
     1
102
RTVSPost2010Prop29
280
     1
102
RTVSPost2010PropOp29
 70
     1
102
RTVSPost2010Prop30
280
     1
102
RTVSPost2010PropOp30
 70
     1
102
RTVSPost2010Prop31
280
     0
102
RTVSPost2010PropOp31
 70
     1
102
RTVSPost2010Prop32
280
     0
102
RTVSPost2010PropOp32
 70
     1
102
RTVSPost2010Prop33
280
     0
102
RTVSPost2010PropOp33
 70
     1
102
RTVSPost2010Prop34
280
     0
102
RTVSPost2010PropOp34
 70
     1
102
RTVSPost2010Prop35
280
     0
102
RTVSPost2010PropOp35
 70
     1
102
RTVSPost2010Prop36
280
     0
102
RTVSPost2010PropOp36
 70
     1
102
RTVSPost2010Prop37
 90
       50
102
RTVSPost2010PropOp37
 70
     1
102
RTVSPost2010Prop38
140
0.0
102
RTVSPost2010PropOp38
 70
     1
102
RTVSPost2010Prop39
140
1.0
102
RTVSPost2010PropOp39
 70
     1
102
RTVSPost2010Prop40
 90
        0
102
RTVSPost2010PropOp40
 70
     1
102
RTVSPost2010Prop41ColorIndex
 90
       18
102
RTVSPost2010Prop41ColorRGB
 90
        0
102
RTVSPost2010PropOp41
 70
     1
102
RTVSPost2010Prop42
 90
       50
102
RTVSPost2010PropOp42
 70
     1
102
RTVSPost2010Prop43
 90
        3
102
RTVSPost2010PropOp43
 70
     1
102
RTVSPost2010Prop44ColorIndex
 90
        5
102
RTVSPost2010Prop44ColorRGB
 90
      255
102
RTVSPost2010PropOp44
 70
     1
102
RTVSPost2010Prop45
280
     0
102
RTVSPost2010PropOp45
 70
     1
102
RTVSPost2010Prop46
 90
       50
102
RTVSPost2010PropOp46
 70
     1
102
RTVSPost2010Prop47
 90
       50
102
RTVSPost2010PropOp47
 70
     1
102
RTVSPost2010Prop48
 90
       50
102
RTVSPost2010PropOp48
 70
     1
102
RTVSPost2010Prop49
280
     0
102
RTVSPost2010PropOp49
 70
     1
102
RTVSPost2010Prop50
 90
       50
102
RTVSPost2010PropOp50
 70
     1
102
RTVSPost2010Prop51ColorIndex
 90
      256
102
RTVSPost2010Prop51ColorRGB
 90
-16777216
102
RTVSPost2010PropOp51
 70
     0
102
RTVSPost2010Prop52
140
1.0
102
RTVSPost2010PropOp52
 70
     0
102
RTVSPost2010Prop53
 90
        2
102
RTVSPost2010PropOp53
 70
     1
102
RTVSPost2010Prop54
  1
strokes_ogs.tif
102
RTVSPost2010PropOp54
 70
     1
102
RTVSPost2010Prop55
280
     0
102
RTVSPost2010PropOp55
 70
     1
102
RTVSPost2010Prop56
140
1.0
102
RTVSPost2010PropOp56
 70
     1
102
RTVSPost2010Prop57
140
1.0
102
RTVSPost2010PropOp57
 70
     1
102
RTVSPropertyOp0
 70
     1
102
RTVSPropertyOp1
 70
     1
102
RTVSPropertyOp2
 70
     1
102
RTVSPropertyOp3
 70
     1
102
RTVSPropertyOp4
 70
     1
102
RTVSPropertyOp5
 70
     1
102
RTVSPropertyOp6
 70
     1
102
RTVSPropertyOp7
 70
     1
102
RTVSPropertyOp8
 70
     1
102
RTVSPropertyOp9
 70
     1
102
RTVSPropertyOp10
 70
     1
102
RTVSPropertyOp11
 70
     1
102
RTVSPropertyOp12
 70
     1
102
RTVSPropertyOp13
 70
     1
102
RTVSPropertyOp14
 70
     1
102
RTVSPropertyOp15
 70
     1
102
RTVSPropertyOp16
 70
     1
102
RTVSPropertyOp17
 70
     1
102
RTVSPropertyOp18
 70
     1
102
RTVSPropertyOp19
 70
     1
102
RTVSPropertyOp20
 70
     1
102
RTVSPropertyOp21
 70
     1
102
RTVSPropertyOp22
 70
     1
102
RTVSPropertyOp23
 70
     1
102
RTVSPropertyOp24
 70
     1
102
RTVSPropertyOp25
 70
     1
102
RTVSPropertyOp26
 70
     1
102
RTVSPropertyOp27
 70
     1
102
RTVSPropertyOp28
 70
     1
102
RTVSPropertyOp29
 70
     1
102
RTVSPropertyOp30
 70
     1
102
RTVSPropertyOp31
 70
     1
102
RTVSPropertyOp32
 70
     1
102
RTVSPropertyOp33
 70
     1
102
RTVSPropertyOp34
 70
     1
102
RTVSPropertyOp35
 70
     1
102
RTVSPropertyOp36
 70
     1
102
RTVSPropertyOp37
 70
     1
102
RTVSPropertyOp38
 70
     1
102
RTVSPropertyOp39
 70
     1
102
RTVSPropertyOp40
 70
     1
102
RTVSPropertyOp41
 70
     1
102
RTVSPropertyOp42
 70
     1
102
RTVSPropertyOp43
 70
     1
102
RTVSPropertyOp44
 70
     1
102
RTVSPropertyOp45
 70
     1
102
RTVSPropertyOp46
 70
     1
102
RTVSPropertyOp47
 70
     1
102
RTVSPropertyOp48
 70
     1
102
RTVSPropertyOp49
 70
     1
102
RTVSPropertyOp50
 70
     1
102
RTVSPropertyOp51
 70
     0
102
RTVSPropertyOp52
 70
     0
102
RTVSPropertyOp53
 70
     1
102
RTVSPropertyOp54
 70
     1
102
RTVSPropertyOp55
 70
     1
102
RTVSPropertyOp56
 70
     1
102
RTVSPropertyOp57
 70
     1
102
RTVSPropertyOp58
 70
     1
102
RTVSPropertyOp59
 70
     1
102
RTVSPropertyOp60
 70
     1
102
RTVSPropertyOp61
 70
     1
102
RTVSPropertyOp62
 70
     1
  0
XRECORD
  5
774
102
{ACAD_REACTORS
330
773
102
}
330
773
100
AcDbXrecord
280
     1
102
RTVSPost2010Prop28
280
     0
102
RTVSPost2010PropOp28
 70
     1
102
RTVSPost2010Prop29
280
     1
102
RTVSPost2010PropOp29
 70
     1
102
RTVSPost2010Prop30
280
     1
102
RTVSPost2010PropOp30
 70
     1
102
RTVSPost2010Prop31
280
     0
102
RTVSPost2010PropOp31
 70
     1
102
RTVSPost2010Prop32
280
     0
102
RTVSPost2010PropOp32
 70
     1
102
RTVSPost2010Prop33
280
     0
102
RTVSPost2010PropOp33
 70
     1
102
RTVSPost2010Prop34
280
     0
102
RTVSPost2010PropOp34
 70
     1
102
RTVSPost2010Prop35
280
     0
102
RTVSPost2010PropOp35
 70
     1
102
RTVSPost2010Prop36
280
     0
102
RTVSPost2010PropOp36
 70
     1
102
RTVSPost2010Prop37
 90
       50
102
RTVSPost2010PropOp37
 70
     1
102
RTVSPost2010Prop38
140
0.0
102
RTVSPost2010PropOp38
 70
     1
102
RTVSPost2010Prop39
140
1.0
102
RTVSPost2010PropOp39
 70
     1
102
RTVSPost2010Prop40
 90
        0
102
RTVSPost2010PropOp40
 70
     1
102
RTVSPost2010Prop41ColorIndex
 90
       18
102
RTVSPost2010Prop41ColorRGB
 90
        0
102
RTVSPost2010PropOp41
 70
     1
102
RTVSPost2010Prop42
 90
       50
102
RTVSPost2010PropOp42
 70
     1
102
RTVSPost2010Prop43
 90
        3
102
RTVSPost2010PropOp43
 70
     1
102
RTVSPost2010Prop44ColorIndex
 90
        5
102
RTVSPost2010Prop44ColorRGB
 90
      255
102
RTVSPost2010PropOp44
 70
     1
102
RTVSPost2010Prop45
280
     0
102
RTVSPost2010PropOp45
 70
     1
102
RTVSPost2010Prop46
 90
       50
102
RTVSPost2010PropOp46
 70
     1
102
RTVSPost2010Prop47
 90
       50
102
RTVSPost2010PropOp47
 70
     1
102
RTVSPost2010Prop48
 90
       50
102
RTVSPost2010PropOp48
 70
     1
102
RTVSPost2010Prop49
280
     0
102
RTVSPost2010PropOp49
 70
     1
102
RTVSPost2010Prop50
 90
       50
102
RTVSPost2010PropOp50
 70
     1
102
RTVSPost2010Prop51ColorIndex
 90
      256
102
RTVSPost2010Prop51ColorRGB
 90
-16777216
102
RTVSPost2010PropOp51
 70
     0
102
RTVSPost2010Prop52
140
1.0
102
RTVSPost2010PropOp52
 70
     0
102
RTVSPost2010Prop53
 90
        2
102
RTVSPost2010PropOp53
 70
     1
102
RTVSPost2010Prop54
  1
strokes_ogs.tif
102
RTVSPost2010PropOp54
 70
     1
102
RTVSPost2010Prop55
280
     0
102
RTVSPost2010PropOp55
 70
     1
102
RTVSPost2010Prop56
140
1.0
102
RTVSPost2010PropOp56
 70
     1
102
RTVSPost2010Prop57
140
1.0
102
RTVSPost2010PropOp57
 70
     1
102
RTVSPropertyOp0
 70
     1
102
RTVSPropertyOp1
 70
     1
102
RTVSPropertyOp2
 70
     1
102
RTVSPropertyOp3
 70
     1
102
RTVSPropertyOp4
 70
     1
102
RTVSPropertyOp5
 70
     1
102
RTVSPropertyOp6
 70
     1
102
RTVSPropertyOp7
 70
     1
102
RTVSPropertyOp8
 70
     1
102
RTVSPropertyOp9
 70
     1
102
RTVSPropertyOp10
 70
     1
102
RTVSPropertyOp11
 70
     1
102
RTVSPropertyOp12
 70
     1
102
RTVSPropertyOp13
 70
     1
102
RTVSPropertyOp14
 70
     1
102
RTVSPropertyOp15
 70
     1
102
RTVSPropertyOp16
 70
     1
102
RTVSPropertyOp17
 70
     1
102
RTVSPropertyOp18
 70
     1
102
RTVSPropertyOp19
 70
     1
102
RTVSPropertyOp20
 70
     1
102
RTVSPropertyOp21
 70
     1
102
RTVSPropertyOp22
 70
     1
102
RTVSPropertyOp23
 70
     1
102
RTVSPropertyOp24
 70
     1
102
RTVSPropertyOp25
 70
     1
102
RTVSPropertyOp26
 70
     1
102
RTVSPropertyOp27
 70
     1
102
RTVSPropertyOp28
 70
     1
102
RTVSPropertyOp29
 70
     1
102
RTVSPropertyOp30
 70
     1
102
RTVSPropertyOp31
 70
     1
102
RTVSPropertyOp32
 70
     1
102
RTVSPropertyOp33
 70
     1
102
RTVSPropertyOp34
 70
     1
102
RTVSPropertyOp35
 70
     1
102
RTVSPropertyOp36
 70
     1
102
RTVSPropertyOp37
 70
     1
102
RTVSPropertyOp38
 70
     1
102
RTVSPropertyOp39
 70
     1
102
RTVSPropertyOp40
 70
     1
102
RTVSPropertyOp41
 70
     1
102
RTVSPropertyOp42
 70
     1
102
RTVSPropertyOp43
 70
     1
102
RTVSPropertyOp44
 70
     1
102
RTVSPropertyOp45
 70
     1
102
RTVSPropertyOp46
 70
     1
102
RTVSPropertyOp47
 70
     1
102
RTVSPropertyOp48
 70
     1
102
RTVSPropertyOp49
 70
     1
102
RTVSPropertyOp50
 70
     1
102
RTVSPropertyOp51
 70
     0
102
RTVSPropertyOp52
 70
     0
102
RTVSPropertyOp53
 70
     1
102
RTVSPropertyOp54
 70
     1
102
RTVSPropertyOp55
 70
     1
102
RTVSPropertyOp56
 70
     1
102
RTVSPropertyOp57
 70
     1
102
RTVSPropertyOp58
 70
     1
102
RTVSPropertyOp59
 70
     1
102
RTVSPropertyOp60
 70
     1
102
RTVSPropertyOp61
 70
     1
102
RTVSPropertyOp62
 70
     1
  0
ENDSEC
  0
EOF
